0
SECTION
2
HEADER
9
$ACADVER
1
AC1015
9
$DWGCODEPAGE
3
ANSI_1252
9
$EXTMAX
10
431.8000000000
20
558.8000000000
30
0.0000000000
9
$EXTMIN
10
0.0000000000
20
0.0000000000
30
0.0000000000
9
$LIMMIN
10
0.0000000000
20
0.0000000000
9
$LIMMAX
10
431.8000000000
20
558.8000000000
9
$VIEWCTR
10
215.9000000000
20
279.4000000000
9
$VIEWSIZE
40
558.8000000000
9
$CLAYER
8
0
9
$LTSCALE
40
36.4254814815
9
$CELTYPE
6
BYLAYER
9
$DIMSCALE
40
1
9
$DIMASZ
40
3.0000000000
9
$DIMEXO
40
4.1392592593
9
$DIMDLI
40
25.1666962963
9
$DIMEXE
40
11.9210666667
9
$DIMCEN
40
5.9605333333
9
$DIMLFAC
40
1.0000000000
9
$DIMBLK
1
_FILLED
9
$DIMTXT
40
3.0000000000
9
$DIMTOL
70
1
9
$DIMLIM
70
0
9
$DIMTFAC
40
1.0000000000
9
$DIMTP
40
0.0100000000
9
$DIMTM
40
0.0100000000
9
$PDMODE
70
3
9
$PDSIZE
40
3.0000000000
9
$HANDSEED
5
3D2
9
$MEASUREMENT
70
1
9
$INSUNITS
70
4
0
ENDSEC
0
SECTION
2
CLASSES
0
CLASS
1
ACDBDICTIONARYWDFLT
2
AcDbDictionaryWithDefault
3
AutoCAD 2000
90
0
280
0
281
0
0
CLASS
1
ACDBPLACEHOLDER
2
AcDbPlaceHolder
3
AutoCAD 2000
90
0
280
0
281
0
0
CLASS
1
LAYOUT
2
AcDbLayout
3
AutoCAD 2000
90
0
280
0
281
0
0
ENDSEC
0
SECTION
2
TABLES
0
TABLE
2
VPORT
5
8
100
AcDbSymbolTable
70
2
0
VPORT
5
1F4
100
AcDbSymbolTableRecord
100
AcDbViewportTableRecord
2
*ACTIVE
70
0
10
0.0
20
0.0
11
1.0
21
1.0
12
215.9000000000
22
279.4000000000
13
0.0
23
0.0
14
1.0
24
1.0
15
0.0
25
0.0
16
0.0
26
0.0
36
1.0
17
0.0
27
0.0
37
0.0
40
558.8000000000
41
0.7727272727
42
50.0
43
0.0
44
0.0
50
0.0
51
0.0
71
0
72
100
73
1
74
1
75
0
76
0
77
0
78
0
0
ENDTAB
0
TABLE
2
LTYPE
5
5
100
AcDbSymbolTable
70
6
0
LTYPE
5
14
100
AcDbSymbolTableRecord
100
AcDbLinetypeTableRecord
2
BYBLOCK
70
0
3

72
65
73
0
40
0.0
0
LTYPE
5
15
100
AcDbSymbolTableRecord
100
AcDbLinetypeTableRecord
2
BYLAYER
70
0
3

72
65
73
0
40
0.0
0
LTYPE
5
16
100
AcDbSymbolTableRecord
100
AcDbLinetypeTableRecord
2
CONTINUOUS
70
64
3
Solid line
72
65
73
0
40
0
0
LTYPE
5
1F5
100
AcDbSymbolTableRecord
100
AcDbLinetypeTableRecord
2
CENTER
70
64
3
____ _ ____ _ ____ _ ____ _ ____ _ ____ _ ____
72
65
73
4
40
0.6
49
0.375
74
0
49
-0.075
74
0
49
0.075
74
0
49
-0.075
74
0
0
LTYPE
5
1F6
100
AcDbSymbolTableRecord
100
AcDbLinetypeTableRecord
2
HIDDEN
70
64
3
- - - - - - - - - - - - - - - - - - - -
72
65
73
2
40
0.2
49
0.1
74
0
49
-0.1
74
0
0
LTYPE
5
1F7
100
AcDbSymbolTableRecord
100
AcDbLinetypeTableRecord
2
PHANTOM
70
64
3
_____ _ _ _____ _ _ _____ _ _ _____
72
65
73
6
40
0.8
49
0.45
74
0
49
-0.05
74
0
49
0.1
74
0
49
-0.05
74
0
49
0.1
74
0
49
-0.05
74
0
0
LTYPE
5
1F8
100
AcDbSymbolTableRecord
100
AcDbLinetypeTableRecord
2
DOT
70
64
3
. . . . . . . . . . . . . . . . . . . .
72
65
73
2
40
0.2
49
0.1
74
0
49
-0.1
74
0
0
LTYPE
5
1F9
100
AcDbSymbolTableRecord
100
AcDbLinetypeTableRecord
2
DASHED
70
64
3
- - - - - - - - - - - - - - - - - - - -
72
65
73
2
40
0.2
49
0.1
74
0
49
-0.1
74
0
0
ENDTAB
0
TABLE
2
LAYER
5
2
100
AcDbSymbolTable
70
36
0
LAYER
5
10
100
AcDbSymbolTableRecord
100
AcDbLayerTableRecord
2
0
70
0
62
7
6
CONTINUOUS
370
-3
390
F
0
LAYER
5
1FA
100
AcDbSymbolTableRecord
100
AcDbLayerTableRecord
2
DEFAULT_1
70
0
62
7
6
CENTER
370
-3
390
F
0
LAYER
5
1FB
100
AcDbSymbolTableRecord
100
AcDbLayerTableRecord
2
DEFAULT_2
70
0
62
9
6
HIDDEN
370
-3
390
F
0
LAYER
5
1FC
100
AcDbSymbolTableRecord
100
AcDbLayerTableRecord
2
DEFAULT_3
70
0
62
7
6
PHANTOM
370
-3
390
F
0
LAYER
5
1FD
100
AcDbSymbolTableRecord
100
AcDbLayerTableRecord
2
_BLACK_HOLE
70
0
62
7
6
CONTINUOUS
370
-3
390
F
0
LAYER
5
1FE
100
AcDbSymbolTableRecord
100
AcDbLayerTableRecord
2
218140000
70
0
62
7
6
CONTINUOUS
370
-3
390
F
0
LAYER
5
1FF
100
AcDbSymbolTableRecord
100
AcDbLayerTableRecord
2
218140080
70
0
62
7
6
CONTINUOUS
370
-3
390
F
0
LAYER
5
200
100
AcDbSymbolTableRecord
100
AcDbLayerTableRecord
2
260
70
0
62
7
6
CONTINUOUS
370
-3
390
F
0
LAYER
5
201
100
AcDbSymbolTableRecord
100
AcDbLayerTableRecord
2
268
70
0
62
7
6
CONTINUOUS
370
-3
390
F
0
LAYER
5
202
100
AcDbSymbolTableRecord
100
AcDbLayerTableRecord
2
284
70
0
62
7
6
CONTINUOUS
370
-3
390
F
0
LAYER
5
203
100
AcDbSymbolTableRecord
100
AcDbLayerTableRecord
2
290
70
0
62
7
6
CONTINUOUS
370
-3
390
F
0
LAYER
5
204
100
AcDbSymbolTableRecord
100
AcDbLayerTableRecord
2
320
70
0
62
7
6
CONTINUOUS
370
-3
390
F
0
LAYER
5
205
100
AcDbSymbolTableRecord
100
AcDbLayerTableRecord
2
340
70
0
62
7
6
CONTINUOUS
370
-3
390
F
0
LAYER
5
206
100
AcDbSymbolTableRecord
100
AcDbLayerTableRecord
2
712
70
0
62
7
6
CONTINUOUS
370
-3
390
F
0
LAYER
5
207
100
AcDbSymbolTableRecord
100
AcDbLayerTableRecord
2
715
70
0
62
7
6
CONTINUOUS
370
-3
390
F
0
LAYER
5
208
100
AcDbSymbolTableRecord
100
AcDbLayerTableRecord
2
ASSI
70
0
62
7
6
CONTINUOUS
370
-3
390
F
0
LAYER
5
209
100
AcDbSymbolTableRecord
100
AcDbLayerTableRecord
2
COLORE_TOP
70
0
62
7
6
CONTINUOUS
370
-3
390
F
0
LAYER
5
20A
100
AcDbSymbolTableRecord
100
AcDbLayerTableRecord
2
COORDINATE
70
0
62
7
6
CONTINUOUS
370
-3
390
F
0
LAYER
5
20B
100
AcDbSymbolTableRecord
100
AcDbLayerTableRecord
2
COORD_ORIGINE
70
0
62
7
6
CONTINUOUS
370
-3
390
F
0
LAYER
5
20C
100
AcDbSymbolTableRecord
100
AcDbLayerTableRecord
2
COSMETICHE
70
0
62
7
6
CONTINUOUS
370
-3
390
F
0
LAYER
5
20D
100
AcDbSymbolTableRecord
100
AcDbLayerTableRecord
2
CURVE
70
0
62
7
6
CONTINUOUS
370
-3
390
F
0
LAYER
5
20E
100
AcDbSymbolTableRecord
100
AcDbLayerTableRecord
2
DRAFT
70
0
62
7
6
CONTINUOUS
370
-3
390
F
0
LAYER
5
20F
100
AcDbSymbolTableRecord
100
AcDbLayerTableRecord
2
IMPORT
70
0
62
7
6
CONTINUOUS
370
-3
390
F
0
LAYER
5
210
100
AcDbSymbolTableRecord
100
AcDbLayerTableRecord
2
IMPORTED
70
0
62
7
6
CONTINUOUS
370
-3
390
F
0
LAYER
5
211
100
AcDbSymbolTableRecord
100
AcDbLayerTableRecord
2
INCISIONI_LASER
70
0
62
7
6
CONTINUOUS
370
-3
390
F
0
LAYER
5
212
100
AcDbSymbolTableRecord
100
AcDbLayerTableRecord
2
NOTE
70
0
62
7
6
CONTINUOUS
370
-3
390
F
0
LAYER
5
213
100
AcDbSymbolTableRecord
100
AcDbLayerTableRecord
2
PIANI
70
0
62
7
6
CONTINUOUS
370
-3
390
F
0
LAYER
5
214
100
AcDbSymbolTableRecord
100
AcDbLayerTableRecord
2
PIANI_DI_RIFERIMENTO
70
0
62
7
6
CONTINUOUS
370
-3
390
F
0
LAYER
5
215
100
AcDbSymbolTableRecord
100
AcDbLayerTableRecord
2
PIANI_ORIGINE
70
0
62
7
6
CONTINUOUS
370
-3
390
F
0
LAYER
5
216
100
AcDbSymbolTableRecord
100
AcDbLayerTableRecord
2
PIANI_RIFERIMENTO
70
0
62
7
6
CONTINUOUS
370
-3
390
F
0
LAYER
5
217
100
AcDbSymbolTableRecord
100
AcDbLayerTableRecord
2
PIANI_SFORMO
70
0
62
7
6
CONTINUOUS
370
-3
390
F
0
LAYER
5
218
100
AcDbSymbolTableRecord
100
AcDbLayerTableRecord
2
PUNTI
70
0
62
7
6
CONTINUOUS
370
-3
390
F
0
LAYER
5
219
100
AcDbSymbolTableRecord
100
AcDbLayerTableRecord
2
RACCORDO
70
0
62
7
6
CONTINUOUS
370
-3
390
F
0
LAYER
5
21A
100
AcDbSymbolTableRecord
100
AcDbLayerTableRecord
2
SMUSSO
70
0
62
7
6
CONTINUOUS
370
-3
390
F
0
LAYER
5
21B
100
AcDbSymbolTableRecord
100
AcDbLayerTableRecord
2
SUPERFICI
70
0
62
7
6
CONTINUOUS
370
-3
390
F
0
LAYER
5
21C
100
AcDbSymbolTableRecord
100
AcDbLayerTableRecord
2
TRASH
70
0
62
7
6
CONTINUOUS
370
-3
390
F
0
LAYER
5
21D
100
AcDbSymbolTableRecord
100
AcDbLayerTableRecord
2
XSEC_DATUMS
70
0
62
7
6
CONTINUOUS
370
-3
390
F
0
ENDTAB
0
TABLE
2
STYLE
5
3
100
AcDbSymbolTable
70
1
0
STYLE
5
11
100
AcDbSymbolTableRecord
100
AcDbTextStyleTableRecord
2
STANDARD
70
0
40
0.0
41
0.8000000000
50
0.0
71
0
42
0.2
3
txt
4

0
ENDTAB
0
TABLE
2
VIEW
5
6
100
AcDbSymbolTable
70
0
0
ENDTAB
0
TABLE
2
UCS
5
7
100
AcDbSymbolTable
70
0
0
ENDTAB
0
TABLE
2
APPID
5
9
100
AcDbSymbolTable
70
1
0
APPID
5
21E
100
AcDbSymbolTableRecord
100
AcDbRegAppTableRecord
2
ACAD
70
0
0
ENDTAB
0
TABLE
2
BLOCK_RECORD
5
1
100
AcDbSymbolTable
70
0
0
BLOCK_RECORD
5
1F
100
AcDbSymbolTableRecord
100
AcDbBlockTableRecord
2
*MODEL_SPACE
0
BLOCK_RECORD
5
1B
100
AcDbSymbolTableRecord
100
AcDbBlockTableRecord
2
*PAPER_SPACE
0
ENDTAB
0
TABLE
2
DIMSTYLE
5
A
100
AcDbSymbolTable
70
1
100
AcDbDimStyleTable
71
0
0
DIMSTYLE
105
21F
100
AcDbSymbolTableRecord
100
AcDbDimStyleTableRecord
2
STANDARD
70
0
3

4

40
1.0
41
3.0000000000
42
0.0625
43
0.38
44
0.18
45
0.0
46
0.0
47
0.0100000000
48
0.0100000000
140
3.0000000000
141
0.09
142
0.0
143
25.4
144
1.0000000000
145
0.0
146
1.0000000000
147
0.09
71
1
72
0
73
0
74
0
75
0
76
0
77
1
78
8
170
0
171
2
172
0
173
0
174
0
175
0
176
0
177
0
178
0
270
2
271
2
272
2
273
2
274
2
275
0
280
0
281
0
282
0
283
1
284
8
285
0
286
0
287
3
288
0
340
11
0
ENDTAB
0
ENDSEC
0
SECTION
2
BLOCKS
0
BLOCK
5
20
100
AcDbEntity
8
0
100
AcDbBlockBegin
2
*MODEL_SPACE
70
0
10
0.0
20
0.0
30
0.0
3
*MODEL_SPACE
1

0
ENDBLK
5
21
100
AcDbEntity
8
0
100
AcDbBlockEnd
0
BLOCK
5
1C
100
AcDbEntity
8
0
100
AcDbBlockBegin
2
*PAPER_SPACE
70
0
10
0.0
20
0.0
30
0.0
3
*PAPER_SPACE
1

0
ENDBLK
5
1D
100
AcDbEntity
8
0
100
AcDbBlockEnd
0
ENDSEC
0
SECTION
2
ENTITIES
0
LINE
5
220
100
AcDbEntity
8
0
100
AcDbLine
62
0
6
CONTINUOUS
10
-13.5457909540
20
25.3284297611
11
-11.9630343508
21
26.1404138584
0
LINE
5
221
100
AcDbEntity
8
0
100
AcDbLine
62
0
6
CONTINUOUS
10
-13.9943907272
20
23.4814491492
11
-13.0175237822
21
23.9803235578
0
LINE
5
222
100
AcDbEntity
8
0
100
AcDbLine
62
9
6
CONTINUOUS
10
-13.8368673209
20
23.4720158196
11
-13.0175237822
21
23.8904448856
0
LINE
5
223
100
AcDbEntity
8
0
100
AcDbLine
62
0
6
CONTINUOUS
10
-11.8672588668
20
24.4891637175
11
-10.2659780760
21
25.2918857210
0
LINE
5
224
100
AcDbEntity
8
0
100
AcDbLine
62
0
6
CONTINUOUS
10
-10.2659780760
20
25.2918857210
11
-9.7377109042
21
25.5553245410
0
LINE
5
225
100
AcDbEntity
8
0
100
AcDbLine
62
0
6
CONTINUOUS
10
-11.9630343508
20
26.1404138584
11
-11.4285844721
21
26.4007613250
0
LINE
5
226
100
AcDbEntity
8
0
100
AcDbLine
62
0
6
CONTINUOUS
10
-10.2659780760
20
23.4732323731
11
-11.3328089881
21
22.9346511235
0
LWPOLYLINE
5
227
100
AcDbEntity
8
0
100
AcDbPolyline
62
0
6
CONTINUOUS
90
19
70
0
10
-17.1123533402
20
20.9247549121
10
-17.1299742690
20
20.9173948001
10
-17.2223560061
20
20.8737111938
10
-17.3121243822
20
20.8226532909
10
-17.3992862415
20
20.7642806487
10
-17.4834495070
20
20.6989174523
10
-17.5638505102
20
20.6272630926
10
-17.6405178173
20
20.5494122492
10
-17.7132700922
20
20.4655771036
10
-17.7811782130
20
20.3768709843
10
-17.8442107574
20
20.2834794392
10
-17.9022121576
20
20.1855832069
10
-17.9543347653
20
20.0846458599
10
-18.0005151222
20
19.9809334023
10
-18.0406107210
20
19.8746172552
10
-18.0740517940
20
19.7671916424
10
-18.1006836278
20
19.6592616697
10
-18.1205346388
20
19.5506076161
10
-18.1250441218
20
19.5186380416
0
LINE
5
228
100
AcDbEntity
8
0
100
AcDbLine
62
0
6
CONTINUOUS
10
-17.1123578650
20
20.9247659780
11
-13.1962496663
21
22.5255516284
0
LINE
5
229
100
AcDbEntity
8
0
100
AcDbLine
62
9
6
CONTINUOUS
10
-16.7602117671
20
20.8991379985
11
-12.8480474950
21
22.4983114565
0
LWPOLYLINE
5
22A
100
AcDbEntity
8
0
100
AcDbPolyline
62
0
6
CONTINUOUS
90
12
70
0
10
-6.3489102817
20
-24.8743101576
10
-6.3151735433
20
-24.8904868533
10
-6.2325388458
20
-24.9242780770
10
-6.1468883718
20
-24.9512519709
10
-6.0586728301
20
-24.9711555645
10
-5.9680834045
20
-24.9838091326
10
-5.8756692210
20
-24.9889865166
10
-5.7820494859
20
-24.9865190176
10
-5.6874144075
20
-24.9762452195
10
-5.5921612651
20
-24.9580151083
10
-5.4969933470
20
-24.9318020561
10
-5.4792998286
20
-24.9260296411
0
LINE
5
22B
100
AcDbEntity
8
0
100
AcDbLine
62
0
6
CONTINUOUS
10
-6.3479604693
20
-24.8747989815
11
-20.4830496008
21
-17.8072544157
0
LINE
5
22C
100
AcDbEntity
8
0
100
AcDbLine
62
9
6
CONTINUOUS
10
-6.7409638150
20
-24.0124654104
11
-20.8682348564
21
-16.9488298897
0
LINE
5
22D
100
AcDbEntity
8
0
100
AcDbLine
62
0
6
CONTINUOUS
10
-9.6508592410
20
24.8477244140
11
-10.1781039567
21
24.2060166860
0
LINE
5
22E
100
AcDbEntity
8
0
100
AcDbLine
62
0
6
CONTINUOUS
10
-8.0369389836
20
23.0714038527
11
-7.5436169684
21
23.3244873846
0
LINE
5
22F
100
AcDbEntity
8
0
100
AcDbLine
62
0
6
CONTINUOUS
10
-8.8455524385
20
23.4625686463
11
-2.3375158118
21
26.7037102519
0
LINE
5
230
100
AcDbEntity
8
0
100
AcDbLine
62
9
6
CONTINUOUS
10
-8.7700592980
20
23.4248220761
11
-2.4555189714
21
26.5695983806
0
LINE
5
231
100
AcDbEntity
8
0
100
AcDbLine
62
0
6
CONTINUOUS
10
-1.4624986502
20
25.6898548498
11
-6.2001140841
21
23.3548043352
0
LINE
5
232
100
AcDbEntity
8
0
100
AcDbLine
62
0
6
CONTINUOUS
10
-7.5436169684
20
23.3244873846
11
-2.0659769789
21
25.9928193478
0
LINE
5
233
100
AcDbEntity
8
0
100
AcDbLine
62
0
6
CONTINUOUS
10
3.1862142078
20
-22.6507465356
11
3.7134589235
21
-22.7590388076
0
LINE
5
234
100
AcDbEntity
8
0
100
AcDbLine
62
0
6
CONTINUOUS
10
-0.2916050933
20
-23.7731979217
11
1.3856416823
21
-24.6118213095
0
LINE
5
235
100
AcDbEntity
8
0
100
AcDbLine
62
9
6
CONTINUOUS
10
-0.3561985721
20
-23.6381693804
11
1.3202885682
21
-24.4764129506
0
LWPOLYLINE
5
236
100
AcDbEntity
8
0
100
AcDbPolyline
62
0
6
CONTINUOUS
90
15
70
0
10
-21.1025568324
20
-16.6674870133
10
-21.1033097911
20
-16.7170857363
10
-21.0986720851
20
-16.8350688716
10
-21.0851109186
20
-16.9487612122
10
-21.0629865666
20
-17.0577712754
10
-21.0326079906
20
-17.1619446730
10
-20.9942259458
20
-17.2610701546
10
-20.9483008943
20
-17.3545364522
10
-20.8952180184
20
-17.4420270433
10
-20.8351766391
20
-17.5234335484
10
-20.7687516183
20
-17.5981567113
10
-20.6965402274
20
-17.6657549049
10
-20.6187878541
20
-17.7261157408
10
-20.5360348036
20
-17.7788337688
10
-20.4819854028
20
-17.8077715212
0
LINE
5
237
100
AcDbEntity
8
0
100
AcDbLine
62
0
6
CONTINUOUS
10
-21.1025597692
20
-16.6672690480
11
-21.1025664142
21
-16.6674867241
0
LWPOLYLINE
5
238
100
AcDbEntity
8
0
100
AcDbPolyline
62
0
6
CONTINUOUS
90
13
70
0
10
-18.1250384851
20
19.5187263945
10
-18.5088780810
20
16.5077208111
10
-18.8756531752
20
13.4369497663
10
-19.2163861867
20
10.3746952952
10
-19.5310255634
20
7.3213889928
10
-19.8195333343
20
4.2774100360
10
-20.0818752817
20
1.2431171552
10
-20.3180168663
20
-1.7811166815
10
-20.5279287685
20
-4.7949203978
10
-20.7115837838
20
-7.7979379189
10
-20.8689552046
20
-10.7897947129
10
-21.0000218827
20
-13.7700711748
10
-21.1025597692
20
-16.6672690480
0
LINE
5
239
100
AcDbEntity
8
0
100
AcDbLine
62
0
6
CONTINUOUS
10
-0.1354248218
20
24.2199806163
11
-1.5332093283
21
23.5210883630
0
LINE
5
23A
100
AcDbEntity
8
0
100
AcDbLine
62
0
6
CONTINUOUS
10
-2.6081146629
20
22.8290486074
11
-2.5465650246
21
22.8598234266
0
LINE
5
23B
100
AcDbEntity
8
0
100
AcDbLine
62
9
6
CONTINUOUS
10
-2.5231588220
20
22.8211248109
11
-2.4571223055
21
22.8541430691
0
LINE
5
23C
100
AcDbEntity
8
0
100
AcDbLine
62
0
6
CONTINUOUS
10
-1.8867627189
20
24.2504232476
11
-1.4624986502
21
24.4580206684
0
LINE
5
23D
100
AcDbEntity
8
0
100
AcDbLine
62
0
6
CONTINUOUS
10
0.5235709296
20
25.0800534301
11
-1.5332093283
21
24.0736465523
0
LINE
5
23E
100
AcDbEntity
8
0
100
AcDbLine
62
9
6
CONTINUOUS
10
1.3202885682
20
-24.1364390165
11
-0.3561985721
21
-23.2981954463
0
LINE
5
23F
100
AcDbEntity
8
0
100
AcDbLine
62
9
6
CONTINUOUS
10
1.4091911442
20
-23.9050019568
11
-0.2683244528
21
-23.0662441583
0
LINE
5
240
100
AcDbEntity
8
0
100
AcDbLine
62
0
6
CONTINUOUS
10
-1.0242351294
20
-21.6944499197
11
1.4366391527
21
-22.9248870608
0
LINE
5
241
100
AcDbEntity
8
0
100
AcDbLine
62
0
6
CONTINUOUS
10
2.0315091763
20
-23.1599425393
11
1.5901728166
21
-22.9392743595
0
LINE
5
242
100
AcDbEntity
8
0
100
AcDbLine
62
0
6
CONTINUOUS
10
-0.9983500030
20
-21.3798765444
11
1.6841265261
21
-22.7211148090
0
LINE
5
243
100
AcDbEntity
8
0
100
AcDbLine
62
0
6
CONTINUOUS
10
-2.6198255197
20
22.8213002326
11
-3.5498503384
21
22.0296724624
0
LINE
5
244
100
AcDbEntity
8
0
100
AcDbLine
62
9
6
CONTINUOUS
10
-2.5231588220
20
22.8211248109
11
-3.4888247639
21
21.9991596751
0
LINE
5
245
100
AcDbEntity
8
0
100
AcDbLine
62
0
6
CONTINUOUS
10
-1.8201730267
20
19.9630208742
11
-1.3210772939
21
20.2132175473
0
LINE
5
246
100
AcDbEntity
8
0
100
AcDbLine
62
0
6
CONTINUOUS
10
-1.3210772939
20
20.2132175473
11
4.0931954012
21
22.9132331577
0
LINE
5
247
100
AcDbEntity
8
0
100
AcDbLine
62
0
6
CONTINUOUS
10
3.4872488181
20
23.2149811157
11
-1.2503666158
21
20.8799306011
0
LINE
5
248
100
AcDbEntity
8
0
100
AcDbLine
62
0
6
CONTINUOUS
10
4.7662116167
20
22.9587330866
11
4.1798328296
21
22.6718110189
0
LINE
5
249
100
AcDbEntity
8
0
100
AcDbLine
62
0
6
CONTINUOUS
10
11.0460418528
20
25.6239877660
11
5.2661424037
21
22.9546386612
0
LINE
5
24A
100
AcDbEntity
8
0
100
AcDbLine
62
9
6
CONTINUOUS
10
11.4776612779
20
25.5881940597
11
5.5593422106
21
22.8549181881
0
LWPOLYLINE
5
24B
100
AcDbEntity
8
0
100
AcDbPolyline
62
0
6
CONTINUOUS
90
4
70
0
10
-13.6038704606
20
-13.0162556357
10
-13.5428365240
20
-13.0369216084
10
-13.4815092187
20
-13.0635689877
10
-13.4702611643
20
-13.0690904159
0
LINE
5
24C
100
AcDbEntity
8
0
100
AcDbLine
62
9
6
CONTINUOUS
10
3.1862142078
20
-22.6507465356
11
3.1427918818
21
-22.6290353726
0
LINE
5
24D
100
AcDbEntity
8
0
100
AcDbLine
62
0
6
CONTINUOUS
10
-0.9244163907
20
-20.4813858209
11
2.4972993245
21
-22.1922436785
0
LINE
5
24E
100
AcDbEntity
8
0
100
AcDbLine
62
9
6
CONTINUOUS
10
3.0983400885
20
-22.4514793901
11
3.7134589235
21
-22.7590388076
0
LINE
5
24F
100
AcDbEntity
8
0
100
AcDbLine
62
0
6
CONTINUOUS
10
3.0983400885
20
-22.4478592405
11
3.7149069833
21
-22.7561426879
0
LINE
5
250
100
AcDbEntity
8
0
100
AcDbLine
62
0
6
CONTINUOUS
10
-0.7940164389
20
-18.8966783593
11
2.4972993245
21
-20.5423362410
0
LWPOLYLINE
5
251
100
AcDbEntity
8
0
100
AcDbPolyline
62
0
6
CONTINUOUS
90
32
70
0
10
-13.4701860524
20
-13.0691339467
10
-13.4534018362
20
-13.0777496519
10
-13.3824289981
20
-13.1190400773
10
-13.3121085235
20
-13.1678857100
10
-13.2431077263
20
-13.2238796554
10
-13.1759744879
20
-13.2865570242
10
-13.1111685008
20
-13.3555131012
10
-13.0492078764
20
-13.4302162654
10
-12.9905761953
20
-13.5100563943
10
-12.9356481197
20
-13.5945552747
10
-12.8848566669
20
-13.6830823629
10
-12.8385805600
20
-13.7749453600
10
-12.7971113086
20
-13.8696048854
10
-12.7607859031
20
-13.9663486675
10
-12.7298713113
20
-14.0644384915
10
-12.7045776475
20
-14.1632922484
10
-12.6851354765
20
-14.2621450053
10
-12.6716948051
20
-14.3602235843
10
-12.6643753581
20
-14.4568858046
10
-12.6632763334
20
-14.5513486753
10
-12.6684058960
20
-14.6428137799
10
-12.6797450943
20
-14.7305337591
10
-12.6972162032
20
-14.8137622428
10
-12.7206269197
20
-14.8917386724
10
-12.7497053138
20
-14.9636597675
10
-12.7840880156
20
-15.0288566685
10
-12.8233954902
20
-15.0869204122
10
-12.8672972976
20
-15.1375114183
10
-12.9153009645
20
-15.1802572668
10
-12.9671120822
20
-15.2151004635
10
-13.0229163075
20
-15.2421017604
10
-13.0337800495
20
-15.2462607977
0
LINE
5
252
100
AcDbEntity
8
0
100
AcDbLine
62
0
6
CONTINUOUS
10
-0.1814727895
20
18.6462706789
11
1.4012838136
21
19.4582547762
0
LINE
5
253
100
AcDbEntity
8
0
100
AcDbLine
62
0
6
CONTINUOUS
10
-1.8201730267
20
18.7488174014
11
-1.3210772939
21
19.0007819821
0
LINE
5
254
100
AcDbEntity
8
0
100
AcDbLine
62
0
6
CONTINUOUS
10
-1.3210772939
20
19.0007819821
11
4.0931954012
21
21.6813945794
0
LINE
5
255
100
AcDbEntity
8
0
100
AcDbLine
62
0
6
CONTINUOUS
10
1.4012838136
20
19.4582547762
11
1.9357336923
21
19.7186022428
0
LINE
5
256
100
AcDbEntity
8
0
100
AcDbLine
62
0
6
CONTINUOUS
10
12.5172595466
20
25.0683949254
11
8.9621398155
21
23.3598364106
0
LINE
5
257
100
AcDbEntity
8
0
100
AcDbLine
62
0
6
CONTINUOUS
10
-14.0843546944
20
23.2926390731
11
-14.0843546944
21
23.2682435678
0
LINE
5
258
100
AcDbEntity
8
0
100
AcDbLine
62
0
6
CONTINUOUS
10
-13.7205167365
20
24.6835677753
11
-13.7205167365
21
25.0235417094
0
LINE
5
259
100
AcDbEntity
8
0
100
AcDbLine
62
0
6
CONTINUOUS
10
-13.2711818960
20
22.8616571686
11
-13.2711818960
21
22.4949216179
0
LINE
5
25A
100
AcDbEntity
8
0
100
AcDbLine
62
9
6
CONTINUOUS
10
3.6666625350
20
18.1086096085
11
8.9353923627
21
20.9512102241
0
LINE
5
25B
100
AcDbEntity
8
0
100
AcDbLine
62
9
6
CONTINUOUS
10
3.3000423818
20
17.6623974824
11
8.8512407951
21
20.6573963803
0
LINE
5
25C
100
AcDbEntity
8
0
100
AcDbLine
62
0
6
CONTINUOUS
10
9.0506161942
20
21.0472221978
11
9.6592828097
21
21.3681841396
0
LINE
5
25D
100
AcDbEntity
8
0
100
AcDbLine
62
9
6
CONTINUOUS
10
9.6591550277
20
21.3681167527
11
9.6592828097
21
21.3681841396
0
LINE
5
25E
100
AcDbEntity
8
0
100
AcDbLine
62
9
6
CONTINUOUS
10
3.1711279295
20
17.5041726971
11
8.8512407951
21
20.4451372262
0
LINE
5
25F
100
AcDbEntity
8
0
100
AcDbLine
62
0
6
CONTINUOUS
10
3.2418216052
20
17.4188816245
11
8.9334505074
21
20.3658087561
0
LINE
5
260
100
AcDbEntity
8
0
100
AcDbLine
62
0
6
CONTINUOUS
10
13.5564929675
20
24.4784558206
11
9.3413789676
21
22.3640835119
0
LINE
5
261
100
AcDbEntity
8
0
100
AcDbLine
62
0
6
CONTINUOUS
10
9.3393400151
20
21.9300026310
11
13.5617767796
21
24.0480428235
0
LINE
5
262
100
AcDbEntity
8
0
100
AcDbLine
62
0
6
CONTINUOUS
10
1.4970592976
20
17.8070046353
11
3.0983400885
21
18.6097266388
0
LINE
5
263
100
AcDbEntity
8
0
100
AcDbLine
62
0
6
CONTINUOUS
10
9.7875702385
20
21.1450924082
11
10.2825449853
21
21.3925797816
0
LINE
5
264
100
AcDbEntity
8
0
100
AcDbLine
62
0
6
CONTINUOUS
10
3.0983400885
20
18.6097266388
11
3.6266072602
21
18.8731654588
0
LINE
5
265
100
AcDbEntity
8
0
100
AcDbLine
62
9
6
CONTINUOUS
10
3.0617646381
20
19.2175641408
11
7.7453015176
21
21.4691881361
0
LINE
5
266
100
AcDbEntity
8
0
100
AcDbLine
62
9
6
CONTINUOUS
10
3.2893801379
20
19.1037563909
11
8.1871423855
21
21.4583698558
0
LINE
5
267
100
AcDbEntity
8
0
100
AcDbLine
62
0
6
CONTINUOUS
10
1.6841265261
20
15.3840029575
11
2.4972993245
21
15.6683046255
0
LINE
5
268
100
AcDbEntity
8
0
100
AcDbLine
62
0
6
CONTINUOUS
10
-13.0175237822
20
23.7770085206
11
-13.0175237822
21
24.2293394962
0
LINE
5
269
100
AcDbEntity
8
0
100
AcDbLine
62
0
6
CONTINUOUS
10
-12.0440295962
20
24.1852981393
11
-12.0440295962
21
23.8453242051
0
LINE
5
26A
100
AcDbEntity
8
0
100
AcDbLine
62
0
6
CONTINUOUS
10
-11.3328089881
20
22.9346511235
11
-11.3328089881
21
23.5718206823
0
LINE
5
26B
100
AcDbEntity
8
0
100
AcDbLine
62
0
6
CONTINUOUS
10
-7.1978158435
20
19.8249741424
11
-7.2410440483
21
19.6948097331
0
LINE
5
26C
100
AcDbEntity
8
0
100
AcDbLine
62
9
6
CONTINUOUS
10
3.2044061056
20
16.7380402823
11
1.4366391527
21
15.8352625828
0
LINE
5
26D
100
AcDbEntity
8
0
100
AcDbLine
62
9
6
CONTINUOUS
10
3.4518934791
20
16.3111761623
11
1.6841265261
21
15.4083984628
0
LINE
5
26E
100
AcDbEntity
8
0
100
AcDbLine
62
0
6
CONTINUOUS
10
3.0983400885
20
16.7910732908
11
2.0315091763
21
16.2524920413
0
LINE
5
26F
100
AcDbEntity
8
0
100
AcDbLine
62
0
6
CONTINUOUS
10
12.7507228979
20
21.5730796339
11
11.4392585868
21
20.9173474784
0
LINE
5
270
100
AcDbEntity
8
0
100
AcDbLine
62
0
6
CONTINUOUS
10
13.5992536056
20
21.1488168504
11
12.8229798392
21
20.7606799671
0
LINE
5
271
100
AcDbEntity
8
0
100
AcDbLine
62
9
6
CONTINUOUS
10
3.9115128868
20
17.0840359836
11
3.2044061056
21
16.7380402823
0
LINE
5
272
100
AcDbEntity
8
0
100
AcDbLine
62
9
6
CONTINUOUS
10
4.1590002603
20
16.6571718637
11
3.4518934791
21
16.3111761623
0
LINE
5
273
100
AcDbEntity
8
0
100
AcDbLine
62
0
6
CONTINUOUS
10
3.8513778659
20
17.1141034941
11
9.5172424348
21
19.8662920383
0
LINE
5
274
100
AcDbEntity
8
0
100
AcDbLine
62
0
6
CONTINUOUS
10
18.0041254302
20
22.3249619836
11
10.2699365188
21
18.5680867773
0
LINE
5
275
100
AcDbEntity
8
0
100
AcDbLine
62
0
6
CONTINUOUS
10
17.1800471956
20
22.7370011009
11
13.6106216277
21
21.0355955045
0
LINE
5
276
100
AcDbEntity
8
0
100
AcDbLine
62
9
6
CONTINUOUS
10
1.4356817982
20
15.3564468098
11
-2.6160016947
21
13.8270329623
0
LINE
5
277
100
AcDbEntity
8
0
100
AcDbLine
62
9
6
CONTINUOUS
10
1.9421598442
20
14.3551665256
11
-2.1095236487
21
12.8257526780
0
LINE
5
278
100
AcDbEntity
8
0
100
AcDbLine
62
0
6
CONTINUOUS
10
-10.2659780760
20
23.4732323731
11
-10.2659780760
21
25.2918857210
0
LINE
5
279
100
AcDbEntity
8
0
100
AcDbLine
62
0
6
CONTINUOUS
10
-9.5629851217
20
25.4272072188
11
-9.5629851217
21
25.0796757020
0
LINE
5
27A
100
AcDbEntity
8
0
100
AcDbLine
62
9
6
CONTINUOUS
10
18.3470230062
20
21.7335511480
11
4.1590002603
21
14.5153550291
0
LINE
5
27B
100
AcDbEntity
8
0
100
AcDbLine
62
9
6
CONTINUOUS
10
18.7611734818
20
20.3019175734
11
4.1590002603
21
12.8730212456
0
LINE
5
27C
100
AcDbEntity
8
0
100
AcDbLine
62
0
6
CONTINUOUS
10
-8.1235764120
20
22.9648969108
11
-8.1235764120
21
21.7501635246
0
LINE
5
27D
100
AcDbEntity
8
0
100
AcDbLine
62
9
6
CONTINUOUS
10
-8.0357084464
20
22.8583879540
11
-8.0357084464
21
21.6434330879
0
LINE
5
27E
100
AcDbEntity
8
0
100
AcDbLine
62
0
6
CONTINUOUS
10
-7.8618150199
20
20.1569737306
11
-7.8618150199
21
20.0051952189
0
LINE
5
27F
100
AcDbEntity
8
0
100
AcDbLine
62
0
6
CONTINUOUS
10
-2.9551751564
20
17.7036537988
11
-2.9984033612
21
17.5734893896
0
LINE
5
280
100
AcDbEntity
8
0
100
AcDbLine
62
0
6
CONTINUOUS
10
3.7134589235
20
18.1655653318
11
3.1862142078
21
17.5238576038
0
LINE
5
281
100
AcDbEntity
8
0
100
AcDbLine
62
0
6
CONTINUOUS
10
-2.9120675516
20
17.6820999964
11
-2.9120675516
21
17.5303214848
0
LINE
5
282
100
AcDbEntity
8
0
100
AcDbLine
62
9
6
CONTINUOUS
10
-2.2431993783
20
18.7471785539
11
-2.2431993783
21
19.9621334199
0
LINE
5
283
100
AcDbEntity
8
0
100
AcDbLine
62
0
6
CONTINUOUS
10
0.4348116459
20
-3.9631373012
11
0.7648877106
21
-4.1281753335
0
LINE
5
284
100
AcDbEntity
8
0
100
AcDbLine
62
0
6
CONTINUOUS
10
-0.1724885445
20
-11.3434555413
11
0.4916743081
21
-17.5339708724
0
LINE
5
285
100
AcDbEntity
8
0
100
AcDbLine
62
0
6
CONTINUOUS
10
0.1608102500
20
-7.2929855905
11
0.1915312995
21
-7.5816744470
0
LINE
5
286
100
AcDbEntity
8
0
100
AcDbLine
62
0
6
CONTINUOUS
10
-1.8867627189
20
23.0011284144
11
-1.8867627189
21
24.2504232476
0
LINE
5
287
100
AcDbEntity
8
0
100
AcDbLine
62
9
6
CONTINUOUS
10
-1.8201730267
20
18.7488174014
11
-1.8201730267
21
19.9630208742
0
LINE
5
288
100
AcDbEntity
8
0
100
AcDbLine
62
0
6
CONTINUOUS
10
-1.5332093283
20
23.5210883630
11
-1.5332093283
21
24.0736465523
0
LINE
5
289
100
AcDbEntity
8
0
100
AcDbLine
62
9
6
CONTINUOUS
10
-1.4624986502
20
25.6898548498
11
-1.4624986502
21
24.4580206684
0
LINE
5
28A
100
AcDbEntity
8
0
100
AcDbLine
62
0
6
CONTINUOUS
10
-1.3746306845
20
25.7948520638
11
-1.3746306845
21
24.5624834590
0
LINE
5
28B
100
AcDbEntity
8
0
100
AcDbLine
62
0
6
CONTINUOUS
10
-1.3210772939
20
20.2132175473
11
-1.3210772939
21
19.0007819821
0
LINE
5
28C
100
AcDbEntity
8
0
100
AcDbLine
62
0
6
CONTINUOUS
10
-0.3561985721
20
-23.6381693804
11
-0.3561985721
21
-23.2981954463
0
LINE
5
28D
100
AcDbEntity
8
0
100
AcDbLine
62
0
6
CONTINUOUS
10
-0.3561985721
20
18.0014086931
11
-0.3561985721
21
18.3413826272
0
LINE
5
28E
100
AcDbEntity
8
0
100
AcDbLine
62
0
6
CONTINUOUS
10
19.0418336815
20
14.4695457510
11
19.9570104687
21
15.0614743702
0
LINE
5
28F
100
AcDbEntity
8
0
100
AcDbLine
62
0
6
CONTINUOUS
10
0.7648877106
20
-4.1281753335
11
2.4972993245
21
-20.5423362410
0
LINE
5
290
100
AcDbEntity
8
0
100
AcDbLine
62
0
6
CONTINUOUS
10
0.3467943822
20
17.0948494384
11
0.3467943822
21
17.5471804140
0
LINE
5
291
100
AcDbEntity
8
0
100
AcDbLine
62
0
6
CONTINUOUS
10
1.2245071183
20
24.5645290963
11
1.2245071183
21
24.2937288037
0
LINE
5
292
100
AcDbEntity
8
0
100
AcDbLine
62
0
6
CONTINUOUS
10
1.3202885682
20
17.5031390570
11
1.3202885682
21
17.1631651229
0
LINE
5
293
100
AcDbEntity
8
0
100
AcDbLine
62
0
6
CONTINUOUS
10
1.3202885682
20
-24.1364390165
11
1.3202885682
21
-24.4764129506
0
LINE
5
294
100
AcDbEntity
8
0
100
AcDbLine
62
0
6
CONTINUOUS
10
1.6841265261
20
15.4083984628
11
1.6841265261
21
15.3840029575
0
LINE
5
295
100
AcDbEntity
8
0
100
AcDbLine
62
0
6
CONTINUOUS
10
1.6841265261
20
-22.7211148090
11
1.6841265261
21
-22.7455103143
0
LINE
5
296
100
AcDbEntity
8
0
100
AcDbLine
62
0
6
CONTINUOUS
10
2.0315091763
20
-23.1599425393
11
2.0315091763
21
-22.7203429937
0
LINE
5
297
100
AcDbEntity
8
0
100
AcDbLine
62
0
6
CONTINUOUS
10
2.0315091763
20
16.2524920413
11
2.0315091763
21
16.8896616001
0
LINE
5
298
100
AcDbEntity
8
0
100
AcDbLine
62
0
6
CONTINUOUS
10
-1.1400213104
20
-23.1015610600
11
1.9421598442
21
14.3551665256
0
LINE
5
299
100
AcDbEntity
8
0
100
AcDbLine
62
0
6
CONTINUOUS
10
2.4972993245
20
14.0183971879
11
0.7648877106
21
-4.1281753335
0
LINE
5
29A
100
AcDbEntity
8
0
100
AcDbLine
62
0
6
CONTINUOUS
10
2.4972993245
20
15.6683046255
11
2.4972993245
21
14.0183971879
0
LINE
5
29B
100
AcDbEntity
8
0
100
AcDbLine
62
0
6
CONTINUOUS
10
2.4972993245
20
-20.5423362410
11
2.4972993245
21
-22.1922436785
0
LINE
5
29C
100
AcDbEntity
8
0
100
AcDbLine
62
0
6
CONTINUOUS
10
3.0983400885
20
16.7910732908
11
3.0983400885
21
18.6097266388
0
LINE
5
29D
100
AcDbEntity
8
0
100
AcDbLine
62
0
6
CONTINUOUS
10
3.0983400885
20
-22.1983300254
11
3.0983400885
21
-23.8255181466
0
LINE
5
29E
100
AcDbEntity
8
0
100
AcDbLine
62
0
6
CONTINUOUS
10
3.8013330427
20
18.7450481366
11
3.8013330427
21
18.3975166198
0
LINE
5
29F
100
AcDbEntity
8
0
100
AcDbLine
62
0
6
CONTINUOUS
10
3.8013330427
20
-22.9020875196
11
3.8013330427
21
-23.2496190363
0
LINE
5
2A0
100
AcDbEntity
8
0
100
AcDbLine
62
9
6
CONTINUOUS
10
4.0931954012
20
22.9132331577
11
4.0931954012
21
21.6813945794
0
LINE
5
2A1
100
AcDbEntity
8
0
100
AcDbLine
62
0
6
CONTINUOUS
10
4.1590002603
20
-21.5194099810
11
4.1590002603
21
16.6571718637
0
LINE
5
2A2
100
AcDbEntity
8
0
100
AcDbLine
62
0
6
CONTINUOUS
10
4.1798328296
20
23.0176205331
11
4.1798328296
21
21.7852520413
0
LINE
5
2A3
100
AcDbEntity
8
0
100
AcDbLine
62
9
6
CONTINUOUS
10
8.8512407951
20
20.6573963803
11
8.8512407951
21
20.4451372262
0
LINE
5
2A4
100
AcDbEntity
8
0
100
AcDbLine
62
9
6
CONTINUOUS
10
8.8512407951
20
-16.2968293443
11
8.8512407951
21
-16.4865990484
0
LINE
5
2A5
100
AcDbEntity
8
0
100
AcDbLine
62
0
6
CONTINUOUS
10
8.9354388550
20
20.9450172585
11
8.9354388550
21
20.3690540690
0
LINE
5
2A6
100
AcDbEntity
8
0
100
AcDbLine
62
0
6
CONTINUOUS
10
8.9354388550
20
-16.2523040232
11
8.9354388550
21
-16.5658224155
0
LINE
5
2A7
100
AcDbEntity
8
0
100
AcDbLine
62
9
6
CONTINUOUS
10
0.1347597179
20
-7.6095690860
11
0.1915312995
21
-7.5816744470
0
LINE
5
2A8
100
AcDbEntity
8
0
100
AcDbLine
62
0
6
CONTINUOUS
10
0.1276734566
20
-7.6956860742
11
0.1526818026
21
-7.6833982576
0
LINE
5
2A9
100
AcDbEntity
8
0
100
AcDbLine
62
0
6
CONTINUOUS
10
-13.9325469519
20
-13.2397212335
11
-13.4756456356
21
-13.0664472947
0
LINE
5
2AA
100
AcDbEntity
8
0
100
AcDbLine
62
0
6
CONTINUOUS
10
-13.9326558831
20
-13.0199314262
11
-13.9315284130
21
-13.0195143521
0
LWPOLYLINE
5
2AB
100
AcDbEntity
8
0
100
AcDbPolyline
62
0
6
CONTINUOUS
90
7
70
0
10
-13.9316283076
20
-13.0195655388
10
-13.8903203145
20
-13.0066106032
10
-13.8366196054
20
-12.9959890148
10
-13.7808641700
20
-12.9916306499
10
-13.7232319875
20
-12.9935621914
10
-13.6641334292
20
-13.0017746732
10
-13.6038704606
20
-13.0162556357
0
LINE
5
2AC
100
AcDbEntity
8
0
100
AcDbLine
62
9
6
CONTINUOUS
10
-3.7619333770
20
12.1907056514
11
-17.8892044184
21
19.2543411721
0
LINE
5
2AD
100
AcDbEntity
8
0
100
AcDbLine
62
0
6
CONTINUOUS
10
8.9353923627
20
20.9512102241
11
8.9354388333
21
20.9450728861
0
LINE
5
2AE
100
AcDbEntity
8
0
100
AcDbLine
62
9
6
CONTINUOUS
10
9.3393400151
20
21.9300026310
11
9.3393400151
21
22.3630630504
0
LINE
5
2AF
100
AcDbEntity
8
0
100
AcDbLine
62
0
6
CONTINUOUS
10
10.0220502130
20
22.2724607233
11
10.0220502130
21
21.8394480214
0
LINE
5
2B0
100
AcDbEntity
8
0
100
AcDbLine
62
0
6
CONTINUOUS
10
10.9895139255
20
21.0390953116
11
10.9895139255
21
20.6017186394
0
LINE
5
2B1
100
AcDbEntity
8
0
100
AcDbLine
62
0
6
CONTINUOUS
10
8.9353923627
20
-16.5667339782
11
8.9354388333
21
-16.5659920234
0
LINE
5
2B2
100
AcDbEntity
8
0
100
AcDbLine
62
0
6
CONTINUOUS
10
-13.0325397418
20
-15.2458166274
11
-13.0338830097
21
-15.2463131425
0
LINE
5
2B3
100
AcDbEntity
8
0
100
AcDbLine
62
0
6
CONTINUOUS
10
-13.2406641237
20
-15.1032575749
11
-12.7313199028
21
-14.9181861801
0
LINE
5
2B4
100
AcDbEntity
8
0
100
AcDbLine
62
9
6
CONTINUOUS
10
-2.6160016947
20
13.8270329623
11
-16.7602117671
21
20.8991379985
0
LINE
5
2B5
100
AcDbEntity
8
0
100
AcDbLine
62
0
6
CONTINUOUS
10
11.4392585868
20
20.9173474784
11
11.4392585868
21
20.5916833548
0
LINE
5
2B6
100
AcDbEntity
8
0
100
AcDbLine
62
0
6
CONTINUOUS
10
11.4775554455
20
22.2130381574
11
11.4775554455
21
21.7692848614
0
LINE
5
2B7
100
AcDbEntity
8
0
100
AcDbLine
62
0
6
CONTINUOUS
10
1.9374810213
20
14.2983063395
11
2.4972993245
21
14.0183971879
0
LINE
5
2B8
100
AcDbEntity
8
0
100
AcDbLine
62
0
6
CONTINUOUS
10
13.5617767796
20
24.3750088712
11
13.5617767796
21
24.0480428235
0
LINE
5
2B9
100
AcDbEntity
8
0
100
AcDbLine
62
0
6
CONTINUOUS
10
-0.2683244528
20
-23.0662441583
11
0.3104658875
21
-22.3618004282
0
LINE
5
2BA
100
AcDbEntity
8
0
100
AcDbLine
62
0
6
CONTINUOUS
10
-12.8480474950
20
22.4983114565
11
1.4356817982
21
15.3564468098
0
LINE
5
2BB
100
AcDbEntity
8
0
100
AcDbLine
62
0
6
CONTINUOUS
10
-14.0843546944
20
23.2682435678
11
1.6841265261
21
15.3840029575
0
LINE
5
2BC
100
AcDbEntity
8
0
100
AcDbLine
62
0
6
CONTINUOUS
10
1.4366391527
20
15.8352625828
11
-13.8368673209
21
23.4720158196
0
LINE
5
2BD
100
AcDbEntity
8
0
100
AcDbLine
62
0
6
CONTINUOUS
10
2.0315091763
20
16.2524920413
11
0.3467943822
21
17.0948494384
0
LINE
5
2BE
100
AcDbEntity
8
0
100
AcDbLine
62
0
6
CONTINUOUS
10
-11.3328089881
20
22.9346511235
11
-13.0175237822
21
23.7770085206
0
LINE
5
2BF
100
AcDbEntity
8
0
100
AcDbLine
62
0
6
CONTINUOUS
10
-8.0357084464
20
21.6434330879
11
-2.2431993783
21
18.7471785539
0
LINE
5
2C0
100
AcDbEntity
8
0
100
AcDbLine
62
0
6
CONTINUOUS
10
-13.6559219905
20
24.5485386004
11
-11.9786777493
21
23.7099164798
0
LINE
5
2C1
100
AcDbEntity
8
0
100
AcDbLine
62
0
6
CONTINUOUS
10
-0.2916038261
20
17.8663795182
11
1.3856404151
21
17.0277573976
0
LINE
5
2C2
100
AcDbEntity
8
0
100
AcDbLine
62
9
6
CONTINUOUS
10
-13.7205167365
20
24.6835677753
11
-12.0440295962
21
23.8453242051
0
LINE
5
2C3
100
AcDbEntity
8
0
100
AcDbLine
62
9
6
CONTINUOUS
10
-0.3561985721
20
18.0014086931
11
1.3202885682
21
17.1631651229
0
LINE
5
2C4
100
AcDbEntity
8
0
100
AcDbLine
62
9
6
CONTINUOUS
10
1.3202885682
20
17.5031390570
11
-0.3561985721
21
18.3413826272
0
LINE
5
2C5
100
AcDbEntity
8
0
100
AcDbLine
62
9
6
CONTINUOUS
10
-12.0440295962
20
24.1852981393
11
-13.7205167365
21
25.0235417094
0
LINE
5
2C6
100
AcDbEntity
8
0
100
AcDbLine
62
0
6
CONTINUOUS
10
-10.2659780760
20
23.4732323731
11
-8.1235764120
21
22.4020315411
0
LINE
5
2C7
100
AcDbEntity
8
0
100
AcDbLine
62
0
6
CONTINUOUS
10
-1.3210772939
20
19.0007819821
11
-0.3164889336
21
18.4984878019
0
LINE
5
2C8
100
AcDbEntity
8
0
100
AcDbLine
62
0
6
CONTINUOUS
10
3.0983400885
20
16.7910732908
11
3.2044061056
21
16.7380402823
0
LINE
5
2C9
100
AcDbEntity
8
0
100
AcDbLine
62
0
6
CONTINUOUS
10
1.4091911442
20
-23.9050019568
11
2.0315091763
21
-23.1599425393
0
LINE
5
2CA
100
AcDbEntity
8
0
100
AcDbLine
62
9
6
CONTINUOUS
10
0.4916743081
20
-17.5339708724
11
-0.7282441623
21
-18.0973696488
0
LINE
5
2CB
100
AcDbEntity
8
0
100
AcDbLine
62
0
6
CONTINUOUS
10
0.2908207222
20
-18.0477399291
11
-0.7642559768
21
-18.5350093127
0
LINE
5
2CC
100
AcDbEntity
8
0
100
AcDbLine
62
0
6
CONTINUOUS
10
2.0315091763
20
16.8896616001
11
1.4091911442
21
17.0196021826
0
LINE
5
2CD
100
AcDbEntity
8
0
100
AcDbLine
62
9
6
CONTINUOUS
10
1.4970592976
20
17.8070046353
11
-0.1814727895
21
18.6462706789
0
LINE
5
2CE
100
AcDbEntity
8
0
100
AcDbLine
62
9
6
CONTINUOUS
10
-11.8672588668
20
24.4891637175
11
-13.5457909540
21
25.3284297611
0
LINE
5
2CF
100
AcDbEntity
8
0
100
AcDbLine
62
0
6
CONTINUOUS
10
-8.0357084464
20
22.8583879540
11
-2.2431993783
21
19.9621334199
0
LINE
5
2D0
100
AcDbEntity
8
0
100
AcDbLine
62
0
6
CONTINUOUS
10
3.9115128868
20
17.0840359836
11
3.1471362021
21
17.4662243260
0
LINE
5
2D1
100
AcDbEntity
8
0
100
AcDbLine
62
0
6
CONTINUOUS
10
-8.7700592980
20
23.4248220761
11
-10.2171819624
21
24.1483834082
0
LINE
5
2D2
100
AcDbEntity
8
0
100
AcDbLine
62
0
6
CONTINUOUS
10
-7.5436169684
20
23.3244873846
11
-1.3210772939
21
20.2132175473
0
LINE
5
2D3
100
AcDbEntity
8
0
100
AcDbLine
62
0
6
CONTINUOUS
10
-11.9630343508
20
26.1404138584
11
-10.2659780760
21
25.2918857210
0
LINE
5
2D4
100
AcDbEntity
8
0
100
AcDbLine
62
0
6
CONTINUOUS
10
1.4012838136
20
19.4582547762
11
3.0983400885
21
18.6097266388
0
LINE
5
2D5
100
AcDbEntity
8
0
100
AcDbLine
62
0
6
CONTINUOUS
10
-6.2001140841
20
23.3548043352
11
-1.2503666158
21
20.8799306011
0
LINE
5
2D6
100
AcDbEntity
8
0
100
AcDbLine
62
9
6
CONTINUOUS
10
-11.4285844721
20
26.4007613250
11
-9.7377109042
21
25.5553245410
0
LINE
5
2D7
100
AcDbEntity
8
0
100
AcDbLine
62
9
6
CONTINUOUS
10
1.9357336923
20
19.7186022428
11
3.6266072602
21
18.8731654588
0
LINE
5
2D8
100
AcDbEntity
8
0
100
AcDbLine
62
0
6
CONTINUOUS
10
-11.3171668568
20
26.4070298882
11
-9.6275786005
21
25.5622357600
0
LINE
5
2D9
100
AcDbEntity
8
0
100
AcDbLine
62
0
6
CONTINUOUS
10
2.0471513077
20
19.7248708060
11
3.7367395640
21
18.8800766778
0
LINE
5
2DA
100
AcDbEntity
8
0
100
AcDbLine
62
0
6
CONTINUOUS
10
10.2699365188
20
18.5680867773
11
9.5172424348
21
19.8662920383
0
LINE
5
2DB
100
AcDbEntity
8
0
100
AcDbLine
62
9
6
CONTINUOUS
10
9.3413789677
20
22.3640835119
11
8.9621398155
21
23.3598364106
0
LINE
5
2DC
100
AcDbEntity
8
0
100
AcDbLine
62
0
6
CONTINUOUS
10
10.4840443433
20
20.7968553558
11
10.2825449853
21
21.3925797816
0
LWPOLYLINE
5
2DD
100
AcDbEntity
8
0
100
AcDbPolyline
62
0
6
CONTINUOUS
90
31
70
0
10
19.0418336718
20
20.6492450640
10
19.0415531735
20
20.6833113200
10
19.0404247028
20
20.7257945756
10
19.0384394268
20
20.7683417985
10
19.0356036692
20
20.8109582195
10
19.0319249007
20
20.8536233483
10
19.0274140478
20
20.8962876508
10
19.0220790657
20
20.9389450180
10
19.0159271958
20
20.9815876951
10
19.0089729734
20
21.0241615616
10
19.0012249941
20
21.0666600400
10
18.9926907766
20
21.1090765420
10
18.9833886699
20
21.1513553436
10
18.9733281943
20
21.1934876760
10
18.9625170203
20
21.2354692753
10
18.9509753520
20
21.2772497888
10
18.9387152334
20
21.3188129715
10
18.9257426575
20
21.3601623253
10
18.9120707218
20
21.4012758339
10
18.8977085221
20
21.4421437841
10
18.8826625968
20
21.4827626096
10
18.8669424405
20
21.5231181953
10
18.8505548363
20
21.5632034239
10
18.8335056253
20
21.6030113464
10
18.8158035879
20
21.6425272198
10
18.7974545735
20
21.6817426890
10
18.7784629219
20
21.7206505425
10
18.7588354100
20
21.7592381059
10
18.7385763885
20
21.7974963001
10
18.7176890931
20
21.8354173928
10
18.6998662317
20
21.8666495310
0
LINE
5
2DE
100
AcDbEntity
8
0
100
AcDbLine
62
9
6
CONTINUOUS
10
18.7611734818
20
-10.0431626725
11
18.7611734818
21
14.7220503778
0
LINE
5
2DF
100
AcDbEntity
8
0
100
AcDbLine
62
9
6
CONTINUOUS
10
18.7611734818
20
16.4945192948
11
18.7611734818
21
20.3019175734
0
LINE
5
2E0
100
AcDbEntity
8
0
100
AcDbLine
62
0
6
CONTINUOUS
10
19.0418336815
20
-9.6958334872
11
19.0418332961
21
14.4818556236
0
LINE
5
2E1
100
AcDbEntity
8
0
100
AcDbLine
62
0
6
CONTINUOUS
10
19.0418336815
20
20.6492467586
11
19.0418332803
21
17.4284645102
0
LWPOLYLINE
5
2E2
100
AcDbEntity
8
0
100
AcDbPolyline
62
0
6
CONTINUOUS
90
4
70
0
10
19.0418341993
20
14.4812317413
10
19.0418862744
20
14.4830042839
10
19.0420867419
20
14.4850757104
10
19.0423606789
20
14.4866778035
0
LINE
5
2E3
100
AcDbEntity
8
0
100
AcDbLine
62
0
6
CONTINUOUS
10
10.2699365188
20
-15.3991255294
11
9.5172424348
21
-15.9446367064
0
LINE
5
2E4
100
AcDbEntity
8
0
100
AcDbLine
62
0
6
CONTINUOUS
10
18.0041254302
20
-11.3091590311
11
10.2699365188
21
-15.3991255294
0
LINE
5
2E5
100
AcDbEntity
8
0
100
AcDbLine
62
0
6
CONTINUOUS
10
4.1590002603
20
-18.7781634323
11
9.5172424348
21
-15.9446367064
0
LINE
5
2E6
100
AcDbEntity
8
0
100
AcDbLine
62
9
6
CONTINUOUS
10
4.1590002603
20
-17.7352593629
11
18.7611734818
21
-10.0431626725
0
LINE
5
2E7
100
AcDbEntity
8
0
100
AcDbLine
62
9
6
CONTINUOUS
10
4.1590002603
20
-18.5345772987
11
18.3470230062
21
-11.0606457715
0
LINE
5
2E8
100
AcDbEntity
8
0
100
AcDbLine
62
9
6
CONTINUOUS
10
4.1590002603
20
-19.0517899760
11
8.1871423855
21
-17.0298867925
0
LINE
5
2E9
100
AcDbEntity
8
0
100
AcDbLine
62
0
6
CONTINUOUS
10
4.1590002603
20
-19.0534580568
11
8.1367633313
21
-17.0568423549
0
LINE
5
2EA
100
AcDbEntity
8
0
100
AcDbLine
62
9
6
CONTINUOUS
10
4.1590002603
20
-18.8139849453
11
8.8512407951
21
-16.4865990484
0
LINE
5
2EB
100
AcDbEntity
8
0
100
AcDbLine
62
9
6
CONTINUOUS
10
4.1590002603
20
-18.9358596731
11
8.9353923627
21
-16.5667339782
0
LINE
5
2EC
100
AcDbEntity
8
0
100
AcDbLine
62
0
6
CONTINUOUS
10
-11.3328089881
20
23.5718206823
11
-11.9551270202
21
23.7017612648
0
LWPOLYLINE
5
2ED
100
AcDbEntity
8
0
100
AcDbPolyline
62
0
6
CONTINUOUS
90
51
70
0
10
-1.3090433068
20
22.9005999853
10
-1.3196144136
20
22.9047522001
10
-1.3425757868
20
22.9133668347
10
-1.3658463888
20
22.9215596742
10
-1.3894123637
20
22.9293356640
10
-1.4132677231
20
22.9367012684
10
-1.4373944691
20
22.9436582768
10
-1.4617747175
20
22.9502088260
10
-1.4864018922
20
22.9563573925
10
-1.5112581075
20
22.9621050402
10
-1.5363260257
20
22.9674532140
10
-1.5615991585
20
22.9724050235
10
-1.5870601529
20
22.9769611096
10
-1.6126914829
20
22.9811222645
10
-1.6384857241
20
22.9848903981
10
-1.6644253283
20
22.9882658246
10
-1.6904931646
20
22.9912490011
10
-1.7166818504
20
22.9938410573
10
-1.7429738226
20
22.9960421076
10
-1.7693521034
20
22.9978523130
10
-1.7958097786
20
22.9992721664
10
-1.8223296239
20
23.0003016187
10
-1.8488943863
20
23.0009405343
10
-1.8754969085
20
23.0011887789
10
-1.9021200069
20
23.0010461270
10
-1.9287463280
20
23.0005122099
10
-1.9553684886
20
22.9995863198
10
-1.9819693624
20
22.9982680294
10
-2.0085313465
20
22.9965567495
10
-2.0350466143
20
22.9944512194
10
-2.0614978667
20
22.9919507840
10
-2.0878673486
20
22.9890546223
10
-2.1141470651
20
22.9857608658
10
-2.1403209999
20
22.9820683350
10
-2.1663696246
20
22.9779761048
10
-2.1922805160
20
22.9734823568
10
-2.2180372338
20
22.9685856655
10
-2.2436203051
20
22.9632849576
10
-2.2690140234
20
22.9575786754
10
-2.2942004900
20
22.9514654486
10
-2.3191615676
20
22.9449438003
10
-2.3438827871
20
22.9380114070
10
-2.3683462543
20
22.9306663667
10
-2.3925336593
20
22.9229068114
10
-2.4164315164
20
22.9147292550
10
-2.4400209861
20
22.9061312732
10
-2.4632844485
20
22.8971098705
10
-2.4862119748
20
22.8876584962
10
-2.5087882671
20
22.8777715472
10
-2.5309899826
20
22.8674468956
10
-2.5465690840
20
22.8598213686
0
LINE
5
2EE
100
AcDbEntity
8
0
100
AcDbLine
62
0
6
CONTINUOUS
10
0.0637953645
20
21.5276477177
11
-2.5231588220
21
22.8211248109
0
LINE
5
2EF
100
AcDbEntity
8
0
100
AcDbLine
62
9
6
CONTINUOUS
10
0.7047585593
20
21.8435622233
11
-1.3881536717
21
22.8900183388
0
LINE
5
2F0
100
AcDbEntity
8
0
100
AcDbLine
62
0
6
CONTINUOUS
10
0.7555219838
20
21.8685822281
11
-1.3039047990
21
22.8982956195
0
LINE
5
2F1
100
AcDbEntity
8
0
100
AcDbLine
62
0
6
CONTINUOUS
10
1.2673091289
20
22.1208291344
11
-1.5332093283
21
23.5210883630
0
LINE
5
2F2
100
AcDbEntity
8
0
100
AcDbLine
62
0
6
CONTINUOUS
10
-1.8867627189
20
24.2504232476
11
-1.5332093283
21
24.0736465523
0
LWPOLYLINE
5
2F3
100
AcDbEntity
8
0
100
AcDbPolyline
62
0
6
CONTINUOUS
90
40
70
0
10
18.4215926400
20
-11.0142821450
10
18.4497368899
20
-10.9933359368
10
18.4773914845
20
-10.9716457293
10
18.5045731397
20
-10.9491932380
10
18.5312620806
20
-10.9259872909
10
18.5574363436
20
-10.9020396823
10
18.5830948618
20
-10.8773434667
10
18.6082186902
20
-10.8519076553
10
18.6327869210
20
-10.8257441734
10
18.6567944973
20
-10.7988481982
10
18.6802225755
20
-10.7712297823
10
18.7030510672
20
-10.7429015237
10
18.7252723450
20
-10.7138606098
10
18.7468674251
20
-10.6841185075
10
18.7678180807
20
-10.6536873820
10
18.7881171960
20
-10.6225631022
10
18.8077459790
20
-10.5907583283
10
18.8266876346
20
-10.5582842199
10
18.8449370799
20
-10.5251315203
10
18.8624730278
20
-10.4913188410
10
18.8792822990
20
-10.4568508295
10
18.8953691023
20
-10.4216931954
10
18.9107210201
20
-10.3858400920
10
18.9253119800
20
-10.3493173738
10
18.9391243176
20
-10.3121347839
10
18.9521445595
20
-10.2742907075
10
18.9643510416
20
-10.2358068839
10
18.9757179800
20
-10.1967267068
10
18.9862317457
20
-10.1570605375
10
18.9958786109
20
-10.1168188546
10
19.0046388252
20
-10.0760442780
10
19.0125021425
20
-10.0347447597
10
19.0194572518
20
-9.9929322044
10
19.0254887331
20
-9.9506542873
10
19.0305886229
20
-9.9079202803
10
19.0347485293
20
-9.8647397921
10
19.0379578718
20
-9.8211595756
10
19.0402099273
20
-9.7772002072
10
19.0414993386
20
-9.7328591405
10
19.0418336718
20
-9.6958346078
0
LINE
5
2F4
100
AcDbEntity
8
0
100
AcDbLine
62
9
6
CONTINUOUS
10
18.0041254302
20
-11.3091590311
11
18.3470230062
21
-11.0606457715
0
LINE
5
2F5
100
AcDbEntity
8
0
100
AcDbLine
62
0
6
CONTINUOUS
10
18.0804747264
20
-11.2615056188
11
18.4215906002
21
-11.0142836387
0
LINE
5
2F6
100
AcDbEntity
8
0
100
AcDbLine
62
0
6
CONTINUOUS
10
2.4972993245
20
-22.1922436785
11
1.6841265261
21
-22.7211148090
0
LINE
5
2F7
100
AcDbEntity
8
0
100
AcDbLine
62
9
6
CONTINUOUS
10
3.4518934791
20
-21.8805210608
11
4.1590002603
21
-21.5194099810
0
LINE
5
2F8
100
AcDbEntity
8
0
100
AcDbLine
62
0
6
CONTINUOUS
10
3.3619295110
20
-22.0693311374
11
4.0690362931
21
-21.7082200571
0
LINE
5
2F9
100
AcDbEntity
8
0
100
AcDbLine
62
0
6
CONTINUOUS
10
3.3619247050
20
-22.0693335922
11
3.3599171081
21
-22.0703372996
0
LINE
5
2FA
100
AcDbEntity
8
0
100
AcDbLine
62
9
6
CONTINUOUS
10
1.6841265261
20
-22.7455103143
11
3.4518934791
21
-21.8805210608
0
LINE
5
2FB
100
AcDbEntity
8
0
100
AcDbLine
62
0
6
CONTINUOUS
10
1.5921456071
20
-22.9353287785
11
3.3599125615
21
-22.0703395243
0
LINE
5
2FC
100
AcDbEntity
8
0
100
AcDbLine
62
9
6
CONTINUOUS
10
-5.1771210736
20
-24.4537436662
11
-1.1400213104
21
-23.1015610600
0
LWPOLYLINE
5
2FD
100
AcDbEntity
8
0
100
AcDbPolyline
62
0
6
CONTINUOUS
90
14
70
0
10
4.4234540422
20
22.7910177562
10
4.4110435886
20
22.7917188243
10
4.3900166311
20
22.7931260759
10
4.3691376443
20
22.7947420173
10
4.3484448804
20
22.7965608425
10
4.3279567709
20
22.7985777950
10
4.3076915568
20
22.8007877204
10
4.2876861867
20
22.8031825137
10
4.2679573391
20
22.8057556336
10
4.2485218259
20
22.8085003097
10
4.2294154259
20
22.8114062090
10
4.2106527414
20
22.8144651744
10
4.1922485368
20
22.8176688646
10
4.1798328296
20
22.8199683991
0
LINE
5
2FE
100
AcDbEntity
8
0
100
AcDbLine
62
0
6
CONTINUOUS
10
11.4392585868
20
20.9173474784
11
10.9895139255
21
21.0390953116
0
LINE
5
2FF
100
AcDbEntity
8
0
100
AcDbLine
62
0
6
CONTINUOUS
10
2.6751248252
20
22.8147057928
11
-0.1354248218
21
24.2199806163
0
LINE
5
300
100
AcDbEntity
8
0
100
AcDbLine
62
0
6
CONTINUOUS
10
8.7294537871
20
20.2601863622
11
9.5172424348
21
19.8662920383
0
LINE
5
301
100
AcDbEntity
8
0
100
AcDbLine
62
0
6
CONTINUOUS
10
1.2245071183
20
24.2937288037
11
3.4342480065
21
23.1888583596
0
LINE
5
302
100
AcDbEntity
8
0
100
AcDbLine
62
0
6
CONTINUOUS
10
4.1798328296
20
22.8160659480
11
4.3256462397
21
22.7431592430
0
LINE
5
303
100
AcDbEntity
8
0
100
AcDbLine
62
0
6
CONTINUOUS
10
-1.6429506273
20
25.9907013562
11
-1.4624986502
21
25.9004753677
0
LINE
5
304
100
AcDbEntity
8
0
100
AcDbLine
62
0
6
CONTINUOUS
10
3.9115128868
20
23.2134695992
11
4.0919648640
21
23.1232436106
0
LINE
5
305
100
AcDbEntity
8
0
100
AcDbLine
62
9
6
CONTINUOUS
10
-2.4555189714
20
26.5695983806
11
0.5235709296
21
25.0800534301
0
LINE
5
306
100
AcDbEntity
8
0
100
AcDbLine
62
9
6
CONTINUOUS
10
4.7662116167
20
22.9587330866
11
7.7453015176
21
21.4691881361
0
LINE
5
307
100
AcDbEntity
8
0
100
AcDbLine
62
0
6
CONTINUOUS
10
-2.2618759595
20
26.7186478428
11
0.9646139326
21
25.1054028967
0
LINE
5
308
100
AcDbEntity
8
0
100
AcDbLine
62
0
6
CONTINUOUS
10
5.2072546198
20
22.9840825532
11
8.4337445119
21
21.3708376071
0
LINE
5
309
100
AcDbEntity
8
0
100
AcDbLine
62
0
6
CONTINUOUS
10
10.4945391786
20
20.7916079381
11
10.6727186081
21
20.6270562474
0
LINE
5
30A
100
AcDbEntity
8
0
100
AcDbLine
62
0
6
CONTINUOUS
10
3.0983400885
20
-23.8255181466
11
3.6266072602
21
-23.5545070880
0
LINE
5
30B
100
AcDbEntity
8
0
100
AcDbLine
62
0
6
CONTINUOUS
10
1.4970592976
20
-24.6055527463
11
3.0983400885
21
-23.8255181466
0
LINE
5
30C
100
AcDbEntity
8
0
100
AcDbLine
62
0
6
CONTINUOUS
10
-1.4378586141
20
-23.5724018726
11
-5.4792972479
21
-24.9260373566
0
LINE
5
30D
100
AcDbEntity
8
0
100
AcDbLine
62
0
6
CONTINUOUS
10
-0.1354248218
20
24.2199806163
11
1.2245071183
21
24.2937288037
0
LINE
5
30E
100
AcDbEntity
8
0
100
AcDbLine
62
0
6
CONTINUOUS
10
10.4945391786
20
20.7916079381
11
9.7875702385
21
21.1450924082
0
LINE
5
30F
100
AcDbEntity
8
0
100
AcDbLine
62
0
6
CONTINUOUS
10
10.9895139255
20
21.0390953116
11
10.2825449853
21
21.3925797816
0
LINE
5
310
100
AcDbEntity
8
0
100
AcDbLine
62
0
6
CONTINUOUS
10
9.5897359622
20
22.0556051468
11
10.0220502130
21
21.8394480214
0
LINE
5
311
100
AcDbEntity
8
0
100
AcDbLine
62
0
6
CONTINUOUS
10
13.5814763076
20
21.9707324909
11
14.2130076287
21
21.6549668304
0
LINE
5
312
100
AcDbEntity
8
0
100
AcDbLine
62
0
6
CONTINUOUS
10
13.7650141487
20
21.8946234230
11
14.0691335326
21
21.7425637310
0
LINE
5
313
100
AcDbEntity
8
0
100
AcDbLine
62
9
6
CONTINUOUS
10
18.3470230062
20
21.7335511480
11
18.0041254302
21
22.3249619836
0
LINE
5
314
100
AcDbEntity
8
0
100
AcDbLine
62
0
6
CONTINUOUS
10
18.6998662550
20
21.8666495055
11
18.4368193186
21
22.3203383598
0
LINE
5
315
100
AcDbEntity
8
0
100
AcDbLine
62
0
6
CONTINUOUS
10
13.5617767796
20
24.0480428235
11
16.6700508535
21
22.4939057865
0
LINE
5
316
100
AcDbEntity
8
0
100
AcDbLine
62
9
6
CONTINUOUS
10
18.0041254302
20
22.3249619836
11
17.1800471956
21
22.7370011009
0
LINE
5
317
100
AcDbEntity
8
0
100
AcDbLine
62
9
6
CONTINUOUS
10
12.5172595466
20
25.0683949254
11
11.4776612779
21
25.5881940597
0
LINE
5
318
100
AcDbEntity
8
0
100
AcDbLine
62
0
6
CONTINUOUS
10
18.3729175032
20
22.3803657170
11
17.5280149766
21
22.8028169803
0
LINE
5
319
100
AcDbEntity
8
0
100
AcDbLine
62
0
6
CONTINUOUS
10
13.0390375268
20
25.0473057052
11
11.9125341584
21
25.6105573893
0
SPLINE
5
31A
100
AcDbEntity
8
0
100
AcDbSpline
62
0
6
CONTINUOUS
70
0
71
3
72
11
73
7
74
5
42
0.0000001000
43
0.0000001000
44
0.0000000001
12
-0.4394210258
22
-0.1596646414
32
0.0000000000
13
-0.4181709068
23
0.2090854531
33
0.0000000000
40
0.0000000000
40
0.0000000000
40
0.0000000000
40
0.0000000000
40
0.2326375805
40
0.4733401734
40
0.7280815663
40
1.0000000000
40
1.0000000000
40
1.0000000000
40
1.0000000000
10
-13.2406641207
20
-15.1032575739
30
0.0000000000
10
-13.2747394022
20
-15.1156389058
30
0.0000000000
10
-13.3471307130
20
-15.1331293377
30
0.0000000000
10
-13.4614148942
20
-15.1351330156
30
0.0000000000
10
-13.5796136564
20
-15.1123739935
30
0.0000000000
10
-13.6562844180
20
-15.0816498495
30
0.0000000000
10
-13.6941872107
20
-15.0626984532
30
0.0000000000
11
-13.2406641207
21
-15.1032575739
31
0.0000000000
11
-13.3463579360
21
-15.1289211095
31
0.0000000000
11
-13.4588682115
21
-15.1313042324
31
0.0000000000
11
-13.5759262566
21
-15.1093497207
31
0.0000000000
11
-13.6941872107
21
-15.0626984532
31
0.0000000000
0
SPLINE
5
31B
100
AcDbEntity
8
0
100
AcDbSpline
62
0
6
CONTINUOUS
70
0
71
3
72
22
73
18
74
16
42
0.0000001000
43
0.0000001000
44
0.0000000001
12
-1.9622316873
22
0.9811158422
32
0.0000000000
13
2.0512863943
23
0.7779239400
33
0.0000000000
40
0.0000000000
40
0.0000000000
40
0.0000000000
40
0.0000000000
40
0.0641061204
40
0.1319395534
40
0.2031303271
40
0.2766236104
40
0.3514333252
40
0.4267570963
40
0.5015551874
40
0.5749598432
40
0.6459443973
40
0.7139737743
40
0.7782297792
40
0.8383736660
40
0.8948364755
40
0.9483293372
40
1.0000000000
40
1.0000000000
40
1.0000000000
40
1.0000000000
10
-13.6941872107
20
-15.0626984532
30
0.0000000000
10
-13.7361175643
20
-15.0417332764
30
0.0000000000
10
-13.8185826963
20
-14.9906165687
30
0.0000000000
10
-13.9314939641
20
-14.8933317820
30
0.0000000000
10
-14.0343442576
20
-14.7762046557
30
0.0000000000
10
-14.1244028240
20
-14.6428623529
30
0.0000000000
10
-14.1994955667
20
-14.4971788713
30
0.0000000000
10
-14.2578816547
20
-14.3430251079
30
0.0000000000
10
-14.2981731829
20
-14.1842372344
30
0.0000000000
10
-14.3192292232
20
-14.0249479356
30
0.0000000000
10
-14.3202985729
20
-13.8691778676
30
0.0000000000
10
-14.3010263496
20
-13.7212656181
30
0.0000000000
10
-14.2616389063
20
-13.5855248482
30
0.0000000000
10
-14.2031823968
20
-13.4660605618
30
0.0000000000
10
-14.1274160551
20
-13.3662950958
30
0.0000000000
10
-14.0368483490
20
-13.2889145741
30
0.0000000000
10
-13.9678773913
20
-13.2531198475
30
0.0000000000
10
-13.9325469488
20
-13.2397212323
30
0.0000000000
11
-13.6941872107
21
-15.0626984532
31
0.0000000000
11
-13.8140986984
21
-14.9892105372
31
0.0000000000
11
-13.9272482185
21
-14.8925496194
31
0.0000000000
11
-14.0306496904
21
-14.7754994986
31
0.0000000000
11
-14.1211491380
21
-14.6420610811
31
0.0000000000
11
-14.1964816270
21
-14.4962508909
31
0.0000000000
11
-14.2550203525
21
-14.3417184939
31
0.0000000000
11
-14.2952461342
21
-14.1826301154
31
0.0000000000
11
-14.3160646974
21
-14.0229432714
31
0.0000000000
11
-14.3166943849
21
-13.8672156683
31
0.0000000000
11
-14.2968246461
21
-13.7192985696
31
0.0000000000
11
-14.2568634025
21
-13.5841137468
31
0.0000000000
11
-14.1982013996
21
-13.4659250814
31
0.0000000000
11
-14.1227609280
21
-13.3676772933
31
0.0000000000
11
-14.0332289378
21
-13.2918077431
31
0.0000000000
11
-13.9325469488
21
-13.2397212323
31
0.0000000000
0
SPLINE
5
31C
100
AcDbEntity
8
0
100
AcDbSpline
62
9
6
CONTINUOUS
70
0
71
3
72
25
73
21
74
19
42
0.0000001000
43
0.0000001000
44
0.0000000001
12
-2.1267972068
22
1.0633986034
32
0.0000000000
13
2.1267972068
23
-1.0633986034
33
0.0000000000
40
0.0000000000
40
0.0000000000
40
0.0000000000
40
0.0000000000
40
0.0502921084
40
0.0972185780
40
0.1419806233
40
0.1858309368
40
0.2302918497
40
0.2770863955
40
0.3272167564
40
0.3811334707
40
0.4391010450
40
0.5004822921
40
0.5644980087
40
0.6302191974
40
0.6965141652
40
0.7622924247
40
0.8264082408
40
0.8879506206
40
0.9458730004
40
1.0000000000
40
1.0000000000
40
1.0000000000
40
1.0000000000
10
-13.5866892089
20
-13.3852296393
30
0.0000000000
10
-13.6223429141
20
-13.3674027867
30
0.0000000000
10
-13.6945725256
20
-13.3389246507
30
0.0000000000
10
-13.8065652195
20
-13.3205850827
30
0.0000000000
10
-13.9148257223
20
-13.3294422585
30
0.0000000000
10
-14.0151959154
20
-13.3657826850
30
0.0000000000
10
-14.1037451579
20
-13.4280814499
30
0.0000000000
10
-14.1776298041
20
-13.5136602709
30
0.0000000000
10
-14.2349929715
20
-13.6194624957
30
0.0000000000
10
-14.2745762039
20
-13.7422844713
30
0.0000000000
10
-14.2953991586
20
-13.8785502435
30
0.0000000000
10
-14.2969102164
20
-14.0243133004
30
0.0000000000
10
-14.2791078864
20
-14.1751313507
30
0.0000000000
10
-14.2425540701
20
-14.3265122176
30
0.0000000000
10
-14.1883438538
20
-14.4739827221
30
0.0000000000
10
-14.1181074433
20
-14.6131153760
30
0.0000000000
10
-14.0339155642
20
-14.7398028574
30
0.0000000000
10
-13.9383591350
20
-14.8501211954
30
0.0000000000
10
-13.8343010798
20
-14.9408466446
30
0.0000000000
10
-13.7585416829
20
-14.9881828110
30
0.0000000000
10
-13.7201692991
20
-15.0073690029
30
0.0000000000
11
-13.5866892089
21
-13.3852296393
31
0.0000000000
11
-13.6982653415
21
-13.3421992203
31
0.0000000000
11
-13.8085115359
21
-13.3249772517
31
0.0000000000
11
-13.9145478924
21
-13.3341990637
31
0.0000000000
11
-14.0125832564
21
-13.3697099176
31
0.0000000000
11
-14.0993382734
21
-13.4301284935
31
0.0000000000
11
-14.1726720349
21
-13.5138128512
31
0.0000000000
11
-14.2302690153
21
-13.6181756723
31
0.0000000000
11
-14.2703610740
21
-13.7399505230
31
0.0000000000
11
-14.2918372958
21
-13.8761042808
31
0.0000000000
11
-14.2938421877
21
-14.0220447768
31
0.0000000000
11
-14.2763190264
21
-14.1732513853
31
0.0000000000
11
-14.2397948279
21
-14.3251971651
31
0.0000000000
11
-14.1854092787
21
-14.4731567382
31
0.0000000000
11
-14.1147879700
21
-14.6127153299
31
0.0000000000
11
-14.0301429281
21
-14.7395153112
31
0.0000000000
11
-13.9339726223
21
-14.8498144989
31
0.0000000000
11
-13.8297298904
21
-14.9398306803
31
0.0000000000
11
-13.7201692991
21
-15.0073690029
31
0.0000000000
0
SPLINE
5
31D
100
AcDbEntity
8
0
100
AcDbSpline
62
9
6
CONTINUOUS
70
0
71
3
72
11
73
7
74
5
42
0.0000001000
43
0.0000001000
44
0.0000000001
12
-0.3895253273
22
0.1947626637
32
0.0000000000
13
-0.4084477600
23
-0.1548358785
33
0.0000000000
40
0.0000000000
40
0.0000000000
40
0.0000000000
40
0.0000000000
40
0.3022572226
40
0.5842877019
40
0.8533093846
40
1.0000000000
40
1.0000000000
40
1.0000000000
40
1.0000000000
10
-13.5102975954
20
-13.2776519403
30
0.0000000000
10
-13.5495432099
20
-13.2580291330
30
0.0000000000
10
-13.6290499495
20
-13.2266830003
30
0.0000000000
10
-13.7523251220
20
-13.2064936404
30
0.0000000000
10
-13.8543982161
20
-13.2148457240
30
0.0000000000
10
-13.9125685832
20
-13.2321675195
30
0.0000000000
10
-13.9325404010
20
-13.2397385096
30
0.0000000000
11
-13.5102975954
21
-13.2776519403
31
0.0000000000
11
-13.6331145515
21
-13.2302868611
31
0.0000000000
11
-13.7544676467
21
-13.2113288671
31
0.0000000000
11
-13.8711866662
21
-13.2214801940
31
0.0000000000
11
-13.9325404010
21
-13.2397385096
31
0.0000000000
0
SPLINE
5
31E
100
AcDbEntity
8
0
100
AcDbSpline
62
9
6
CONTINUOUS
70
0
71
3
72
25
73
21
74
19
42
0.0000001000
43
0.0000001000
44
0.0000000001
12
2.1267972032
22
-1.0633986016
32
0.0000000000
13
-2.1267972032
23
1.0633986016
33
0.0000000000
40
0.0000000000
40
0.0000000000
40
0.0000000000
40
0.0000000000
40
0.0502921276
40
0.0972185514
40
0.1419806200
40
0.1858309291
40
0.2302918450
40
0.2770863919
40
0.3272167540
40
0.3811334687
40
0.4391010436
40
0.5004822909
40
0.5644980077
40
0.6302191964
40
0.6965141643
40
0.7622924242
40
0.8264082396
40
0.8879506252
40
0.9458729878
40
1.0000000000
40
1.0000000000
40
1.0000000000
40
1.0000000000
10
-13.7201692991
20
-15.0073690029
30
0.0000000000
10
-13.6845155803
20
-15.0251958623
30
0.0000000000
10
-13.6122859650
20
-15.0536739135
30
0.0000000000
10
-13.5002932986
20
-15.0720136142
30
0.0000000000
10
-13.3920328127
20
-15.0631563792
30
0.0000000000
10
-13.2916626045
20
-15.0268159639
30
0.0000000000
10
-13.2031133607
20
-14.9645171963
30
0.0000000000
10
-13.1292287115
20
-14.8789383741
30
0.0000000000
10
-13.0718655400
20
-14.7731361488
30
0.0000000000
10
-13.0322823073
20
-14.6503141718
30
0.0000000000
10
-13.0114593496
20
-14.5140483993
30
0.0000000000
10
-13.0099482918
20
-14.3682853419
30
0.0000000000
10
-13.0277506211
20
-14.2174672913
30
0.0000000000
10
-13.0643044398
20
-14.0660864256
30
0.0000000000
10
-13.1185146523
20
-13.9186159179
30
0.0000000000
10
-13.1887510793
20
-13.7794832763
30
0.0000000000
10
-13.2729429261
20
-13.6527957617
30
0.0000000000
10
-13.3684994273
20
-13.5424775086
30
0.0000000000
10
-13.4725573715
20
-13.4517519278
30
0.0000000000
10
-13.5483168162
20
-13.4044158356
30
0.0000000000
10
-13.5866892089
20
-13.3852296393
30
0.0000000000
11
-13.7201692991
21
-15.0073690029
31
0.0000000000
11
-13.6085931097
21
-15.0503994008
31
0.0000000000
11
-13.4983470325
21
-15.0676214130
31
0.0000000000
11
-13.3923106223
21
-15.0583995810
31
0.0000000000
11
-13.2942752681
21
-15.0228887308
31
0.0000000000
11
-13.2075202445
21
-14.9624701524
31
0.0000000000
11
-13.1341864804
21
-14.8787857937
31
0.0000000000
11
-13.0765894966
21
-14.7744229714
31
0.0000000000
11
-13.0364974367
21
-14.6526481202
31
0.0000000000
11
-13.0150212129
21
-14.5164943617
31
0.0000000000
11
-13.0130163204
21
-14.3705538654
31
0.0000000000
11
-13.0305394816
21
-14.2193472569
31
0.0000000000
11
-13.0670636809
21
-14.0674014774
31
0.0000000000
11
-13.1214492308
21
-13.9194419045
31
0.0000000000
11
-13.1920705443
21
-13.7798833146
31
0.0000000000
11
-13.2767155786
21
-13.6530833305
31
0.0000000000
11
-13.3728859203
21
-13.5427841562
31
0.0000000000
11
-13.4771285722
21
-13.4527679450
31
0.0000000000
11
-13.5866892089
21
-13.3852296393
31
0.0000000000
0
SPLINE
5
31F
100
AcDbEntity
8
0
100
AcDbSpline
62
9
6
CONTINUOUS
70
0
71
3
72
22
73
18
74
16
42
0.0000001000
43
0.0000001000
44
0.0000000001
12
2.0625106022
22
0.7495683221
32
0.0000000000
13
-1.9569197901
23
0.9784598952
33
0.0000000000
40
0.0000000000
40
0.0000000000
40
0.0000000000
40
0.0000000000
40
0.0260095734
40
0.0791981726
40
0.1351784921
40
0.1951494475
40
0.2596500128
40
0.3289966221
40
0.4024270049
40
0.4790090025
40
0.5576312561
40
0.6369399225
40
0.7156304546
40
0.7923321968
40
0.8659553935
40
0.9352478175
40
1.0000000000
40
1.0000000000
40
1.0000000000
40
1.0000000000
10
-13.2406404619
20
-15.1032288536
30
0.0000000000
10
-13.2227587883
20
-15.0967302028
30
0.0000000000
10
-13.1695982664
20
-15.0733997474
30
0.0000000000
10
-13.0880780722
20
-15.0160460580
30
0.0000000000
10
-13.0067498452
20
-14.9218455601
30
0.0000000000
10
-12.9436076083
20
-14.8053841665
30
0.0000000000
10
-12.9000365253
20
-14.6701883928
30
0.0000000000
10
-12.8771157645
20
-14.5201944103
30
0.0000000000
10
-12.8754524730
20
-14.3597463402
30
0.0000000000
10
-12.8950483161
20
-14.1937340108
30
0.0000000000
10
-12.9352847625
20
-14.0271021566
30
0.0000000000
10
-12.9949564506
20
-13.8647746362
30
0.0000000000
10
-13.0722687944
20
-13.7116248906
30
0.0000000000
10
-13.1649428635
20
-13.5721743240
30
0.0000000000
10
-13.2701257044
20
-13.4507414520
30
0.0000000000
10
-13.3846678689
20
-13.3508766439
30
0.0000000000
10
-13.4680593196
20
-13.2987710782
30
0.0000000000
10
-13.5102975954
20
-13.2776519403
30
0.0000000000
11
-13.2406404619
21
-15.1032288536
31
0.0000000000
11
-13.1884241254
21
-15.0802983747
31
0.0000000000
11
-13.0929289182
21
-15.0137928231
31
0.0000000000
11
-13.0122070948
21
-14.9216775957
31
0.0000000000
11
-12.9488074753
21
-14.8068006353
31
0.0000000000
11
-12.9046763156
21
-14.6727574748
31
0.0000000000
11
-12.8810364662
21
-14.5228867923
31
0.0000000000
11
-12.8788295934
21
-14.3622434073
31
0.0000000000
11
-12.8981181393
21
-14.1958033735
31
0.0000000000
11
-12.9383219920
21
-14.0285496993
31
0.0000000000
11
-12.9981866523
21
-13.8656838233
31
0.0000000000
11
-13.0759227418
21
-13.7120652748
31
0.0000000000
11
-13.1690954400
21
-13.5724907621
31
0.0000000000
11
-13.2749544240
21
-13.4510791849
31
0.0000000000
11
-13.3896992851
21
-13.3519947738
31
0.0000000000
11
-13.5102975954
21
-13.2776519403
31
0.0000000000
0
SPLINE
5
320
100
AcDbEntity
8
0
100
AcDbSpline
62
0
6
CONTINUOUS
70
0
71
3
72
8
73
4
74
2
42
0.0000001000
43
0.0000001000
44
0.0000000001
12
-0.0720729465
22
0.0219322224
32
0.0000000000
13
-0.0725144399
23
0.0204766492
33
0.0000000000
40
0.0000000000
40
0.0000000000
40
0.0000000000
40
0.0000000000
40
1.0000000000
40
1.0000000000
40
1.0000000000
40
1.0000000000
10
12.8323112522
20
21.5841707650
30
0.0000000000
10
12.8082869367
20
21.5914815058
30
0.0000000000
10
12.7841854505
20
21.5985465459
30
0.0000000000
10
12.7600139705
20
21.6053720957
30
0.0000000000
11
12.8323112522
21
21.5841707650
31
0.0000000000
11
12.7600139705
21
21.6053720957
31
0.0000000000
0
SPLINE
5
321
100
AcDbEntity
8
0
100
AcDbSpline
62
0
6
CONTINUOUS
70
0
71
3
72
16
73
12
74
10
42
0.0000001000
43
0.0000001000
44
0.0000000001
12
-3.0560647910
22
0.8629724898
32
0.0000000000
13
-2.8084123906
23
-1.4809313851
33
0.0000000000
40
0.0000000000
40
0.0000000000
40
0.0000000000
40
0.0000000000
40
0.0870603950
40
0.2031007763
40
0.3217482206
40
0.4414001586
40
0.5604207594
40
0.6771933564
40
0.7902275173
40
0.8981781335
40
1.0000000000
40
1.0000000000
40
1.0000000000
40
1.0000000000
10
12.7600139705
20
21.6053720957
30
0.0000000000
10
12.6713265680
20
21.6304156709
30
0.0000000000
10
12.4622319866
20
21.6813177727
30
0.0000000000
10
12.1259209154
20
21.7368039940
30
0.0000000000
10
11.7519028484
20
21.7687293064
30
0.0000000000
10
11.3734121182
20
21.7724480289
30
0.0000000000
10
10.9976748207
20
21.7479396315
30
0.0000000000
10
10.6318592239
20
21.6955023346
30
0.0000000000
10
10.2829559496
20
21.6157072487
30
0.0000000000
10
9.9577789799
20
21.5093741483
30
0.0000000000
10
9.7546020736
20
21.4184478722
30
0.0000000000
10
9.6592828097
20
21.3681841396
30
0.0000000000
11
12.7600139705
21
21.6053720957
31
0.0000000000
11
12.4914794358
21
21.6711373487
31
0.0000000000
11
12.1280565299
21
21.7316292685
31
0.0000000000
11
11.7527437519
21
21.7639311788
31
0.0000000000
11
11.3728728974
21
21.7676943391
31
0.0000000000
11
10.9958024377
21
21.7428959165
31
0.0000000000
11
10.6288703745
21
21.6898418873
31
0.0000000000
11
10.2791880569
21
21.6091204682
31
0.0000000000
11
9.9537597908
21
21.5015751119
31
0.0000000000
11
9.6592828097
21
21.3681841396
31
0.0000000000
0
SPLINE
5
322
100
AcDbEntity
8
0
100
AcDbSpline
62
0
6
CONTINUOUS
70
0
71
3
72
8
73
4
74
2
42
0.0000001000
43
0.0000001000
44
0.0000000001
12
-0.0074856961
22
0.0050624254
32
0.0000000000
13
-0.0080013977
23
0.0041120828
33
0.0000000000
40
0.0000000000
40
0.0000000000
40
0.0000000000
40
0.0000000000
40
1.0000000000
40
1.0000000000
40
1.0000000000
40
1.0000000000
10
13.6626972890
20
21.1631832812
30
0.0000000000
10
13.6602020570
20
21.1648707563
30
0.0000000000
10
13.6576132700
20
21.1664098195
30
0.0000000000
10
13.6549461374
20
21.1677805138
30
0.0000000000
11
13.6626972890
21
21.1631832812
31
0.0000000000
11
13.6549461374
21
21.1677805138
31
0.0000000000
0
SPLINE
5
323
100
AcDbEntity
8
0
100
AcDbSpline
62
0
6
CONTINUOUS
70
0
71
3
72
10
73
6
74
4
42
0.0000001000
43
0.0000001000
44
0.0000000001
12
-0.8085733905
22
0.4155424942
32
0.0000000000
13
-0.8134730449
23
0.4058670933
33
0.0000000000
40
0.0000000000
40
0.0000000000
40
0.0000000000
40
0.0000000000
40
0.3545041574
40
0.6877149410
40
1.0000000000
40
1.0000000000
40
1.0000000000
40
1.0000000000
10
13.6549461374
20
21.1677805138
30
0.0000000000
10
13.5593985946
20
21.2168843610
30
0.0000000000
10
13.3739305099
20
21.3119249422
30
0.0000000000
10
13.1037975026
20
21.4492497821
30
0.0000000000
10
12.9290405599
20
21.5371281845
30
0.0000000000
10
12.8443620673
20
21.5793769275
30
0.0000000000
11
13.6549461374
21
21.1677805138
31
0.0000000000
11
13.3681065320
21
21.3147081407
31
0.0000000000
11
13.0980415933
21
21.4519197632
31
0.0000000000
11
12.8443620673
21
21.5793769275
31
0.0000000000
0
SPLINE
5
324
100
AcDbEntity
8
0
100
AcDbSpline
62
0
6
CONTINUOUS
70
0
71
3
72
8
73
4
74
2
42
0.0000001000
43
0.0000001000
44
0.0000000001
12
-0.0115769671
22
0.0057761102
32
0.0000000000
13
-0.0124572512
23
0.0037795811
33
0.0000000000
40
0.0000000000
40
0.0000000000
40
0.0000000000
40
0.0000000000
40
1.0000000000
40
1.0000000000
40
1.0000000000
40
1.0000000000
10
12.8443620673
20
21.5793769275
30
0.0000000000
10
12.8405030783
20
21.5813022976
30
0.0000000000
10
12.8364610854
20
21.5828929326
30
0.0000000000
10
12.8323086683
20
21.5841527930
30
0.0000000000
11
12.8443620673
21
21.5793769275
31
0.0000000000
11
12.8323086683
21
21.5841527930
31
0.0000000000
0
SPLINE
5
325
100
AcDbEntity
8
0
100
AcDbSpline
62
0
6
CONTINUOUS
70
0
71
3
72
8
73
4
74
2
42
0.0000001000
43
0.0000001000
44
0.0000000001
12
0.0822376987
22
-0.0410309548
32
0.0000000000
13
0.0821585581
23
-0.0411893672
33
0.0000000000
40
0.0000000000
40
0.0000000000
40
0.0000000000
40
0.0000000000
40
1.0000000000
40
1.0000000000
40
1.0000000000
40
1.0000000000
10
13.6928902047
20
21.1551128588
30
0.0000000000
10
13.7203027710
20
21.1414358739
30
0.0000000000
10
13.7477014337
20
21.1277310075
30
0.0000000000
10
13.7750876198
20
21.1140012185
30
0.0000000000
11
13.6928902047
21
21.1551128588
31
0.0000000000
11
13.7750876198
21
21.1140012185
31
0.0000000000
0
SPLINE
5
326
100
AcDbEntity
8
0
100
AcDbSpline
62
0
6
CONTINUOUS
70
0
71
3
72
10
73
6
74
4
42
0.0000001000
43
0.0000001000
44
0.0000000001
12
0.0867340293
22
0.0433670146
32
0.0000000000
13
0.0867710934
23
-0.0432928069
33
0.0000000000
40
0.0000000000
40
0.0000000000
40
0.0000000000
40
0.0000000000
40
0.3690647074
40
0.7005601128
40
1.0000000000
40
1.0000000000
40
1.0000000000
40
1.0000000000
10
13.5992247097
20
21.1488024024
30
0.0000000000
10
13.6098948661
20
21.1541374806
30
0.0000000000
10
13.6313231039
20
21.1622371070
30
0.0000000000
10
13.6640380190
20
21.1649863621
30
0.0000000000
10
13.6842292959
20
21.1594340566
30
0.0000000000
10
13.6928902047
20
21.1551128588
30
0.0000000000
11
13.5992247097
21
21.1488024024
31
0.0000000000
11
13.6328859171
21
21.1609580916
31
0.0000000000
11
13.6649625687
21
21.1630629510
31
0.0000000000
11
13.6928902047
21
21.1551128588
31
0.0000000000
0
SPLINE
5
327
100
AcDbEntity
8
0
100
AcDbSpline
62
9
6
CONTINUOUS
70
0
71
3
72
23
73
19
74
17
42
0.0000001000
43
0.0000001000
44
0.0000000001
12
2.2641331530
22
2.9638496663
32
0.0000000000
13
3.5666784067
23
-1.0580344089
33
0.0000000000
40
0.0000000000
40
0.0000000000
40
0.0000000000
40
0.0000000000
40
0.0072598419
40
0.0702171342
40
0.1405273129
40
0.2184560307
40
0.3039540600
40
0.3948193318
40
0.4858686495
40
0.5721284451
40
0.6510352309
40
0.7215668152
40
0.7837055367
40
0.8382242825
40
0.8860759449
40
0.9282903307
40
0.9659194976
40
1.0000000000
40
1.0000000000
40
1.0000000000
40
1.0000000000
10
9.2467121925
20
20.9626783297
30
0.0000000000
10
9.2521912754
20
20.9698506897
30
0.0000000000
10
9.3061267514
20
21.0384888177
30
0.0000000000
10
9.4309446233
20
21.1615855233
30
0.0000000000
10
9.6465162576
20
21.3120519556
30
0.0000000000
10
9.9051652372
20
21.4445020842
30
0.0000000000
10
10.2008639380
20
21.5557308575
30
0.0000000000
10
10.5215848583
20
21.6418411535
30
0.0000000000
10
10.8492587268
20
21.7006647666
30
0.0000000000
10
11.1655274859
20
21.7336582922
30
0.0000000000
10
11.4577689677
20
21.7451817863
30
0.0000000000
10
11.7202318863
20
21.7405169356
30
0.0000000000
10
11.9519036840
20
21.7245050379
30
0.0000000000
10
12.1546203142
20
21.7010013966
30
0.0000000000
10
12.3317349662
20
21.6727784881
30
0.0000000000
10
12.4870495840
20
21.6416974512
30
0.0000000000
10
12.6244780293
20
21.6088213627
30
0.0000000000
10
12.7102048339
20
21.5850990820
30
0.0000000000
10
12.7507228979
20
21.5730796339
30
0.0000000000
11
9.2467121925
21
20.9626783297
31
0.0000000000
11
9.2634343326
21
20.9839676387
31
0.0000000000
11
9.4283547040
21
21.1502814528
31
0.0000000000
11
9.6416033086
21
21.3017624383
31
0.0000000000
11
9.8988793947
21
21.4354096635
31
0.0000000000
11
10.1961363097
21
21.5486003881
31
0.0000000000
11
10.5223862374
21
21.6371222898
31
0.0000000000
11
10.8556960332
21
21.6974805151
31
0.0000000000
11
11.1748522975
21
21.7310064977
31
0.0000000000
11
11.4681787766
21
21.7426356213
31
0.0000000000
11
11.7305356082
21
21.7379511973
31
0.0000000000
11
11.9611562366
21
21.7219555925
31
0.0000000000
11
12.1626249460
21
21.6985295237
31
0.0000000000
11
12.3384194688
21
21.6704526755
31
0.0000000000
11
12.4924039053
21
21.6395730473
31
0.0000000000
11
12.6285446866
21
21.6069634124
31
0.0000000000
11
12.7507228979
21
21.5730796339
31
0.0000000000
0
SPLINE
5
328
100
AcDbEntity
8
0
100
AcDbSpline
62
9
6
CONTINUOUS
70
0
71
3
72
10
73
6
74
4
42
0.0000001000
43
0.0000001000
44
0.0000000001
12
0.4054538405
22
0.4700613677
32
0.0000000000
13
0.5484975081
23
0.2893331844
33
0.0000000000
40
0.0000000000
40
0.0000000000
40
0.0000000000
40
0.0000000000
40
0.3483810829
40
0.8009149622
40
1.0000000000
40
1.0000000000
40
1.0000000000
40
1.0000000000
10
9.1675289250
20
20.9954274627
30
0.0000000000
10
9.2146130743
20
21.0500142922
30
0.0000000000
10
9.3346457622
20
21.1651012281
30
0.0000000000
10
9.5052376087
20
21.2830099001
30
0.0000000000
10
9.6227496210
20
21.3489278531
30
0.0000000000
10
9.6591488367
20
21.3681284891
30
0.0000000000
11
9.1675289250
21
20.9954274627
31
0.0000000000
11
9.3221766779
21
21.1462275452
31
0.0000000000
11
9.5515370513
21
21.3076301320
31
0.0000000000
11
9.6591488367
21
21.3681284891
31
0.0000000000
0
SPLINE
5
329
100
AcDbEntity
8
0
100
AcDbSpline
62
9
6
CONTINUOUS
70
0
71
3
72
8
73
4
74
2
42
0.0000001000
43
0.0000001000
44
0.0000000001
12
0.0612270666
22
-0.0501234055
32
0.0000000000
13
0.0584790858
23
-0.0533328571
33
0.0000000000
40
0.0000000000
40
0.0000000000
40
0.0000000000
40
0.0000000000
40
1.0000000000
40
1.0000000000
40
1.0000000000
40
1.0000000000
10
13.6928902047
20
21.1551128588
30
0.0000000000
10
13.7132992269
20
21.1384050570
30
0.0000000000
10
13.7332914765
20
21.1211760217
30
0.0000000000
10
13.7527845051
20
21.1033984027
30
0.0000000000
11
13.6928902047
21
21.1551128588
31
0.0000000000
11
13.7527845051
21
21.1033984027
31
0.0000000000
0
SPLINE
5
32A
100
AcDbEntity
8
0
100
AcDbSpline
62
0
6
CONTINUOUS
70
0
71
3
72
10
73
6
74
4
42
0.0000001000
43
0.0000001000
44
0.0000000001
12
-0.0809117024
22
0.0245489425
32
0.0000000000
13
-0.0751620072
23
-0.0375810036
33
0.0000000000
40
0.0000000000
40
0.0000000000
40
0.0000000000
40
0.0000000000
40
0.1915809123
40
0.5741137005
40
1.0000000000
40
1.0000000000
40
1.0000000000
40
1.0000000000
10
12.8323086683
20
21.5841527930
30
0.0000000000
10
12.8271416224
20
21.5857204959
30
0.0000000000
10
12.8111450697
20
21.5888836262
30
0.0000000000
10
12.7827949665
20
21.5865011757
30
0.0000000000
10
12.7613667286
20
21.5784015493
30
0.0000000000
10
12.7506965723
20
21.5730664711
30
0.0000000000
11
12.8323086683
21
21.5841527930
31
0.0000000000
11
12.8164344312
21
21.5873270197
31
0.0000000000
11
12.7843577797
21
21.5852221603
31
0.0000000000
11
12.7506965723
21
21.5730664711
31
0.0000000000
0
SPLINE
5
32B
100
AcDbEntity
8
0
100
AcDbSpline
62
9
6
CONTINUOUS
70
0
71
3
72
9
73
5
74
3
42
0.0000001000
43
0.0000001000
44
0.0000000001
12
0.0882835829
22
-0.0744019160
32
0.0000000000
13
0.0815041333
23
-0.0818172372
33
0.0000000000
40
0.0000000000
40
0.0000000000
40
0.0000000000
40
0.0000000000
40
0.7898527816
40
1.0000000000
40
1.0000000000
40
1.0000000000
40
1.0000000000
10
13.5992536056
20
21.1488168504
30
0.0000000000
10
13.6224972834
20
21.1292279969
30
0.0000000000
10
13.6511339431
20
21.1034678574
30
0.0000000000
10
13.6785707428
20
21.0764625006
30
0.0000000000
10
13.6842800318
20
21.0707312790
30
0.0000000000
11
13.5992536056
21
21.1488168504
31
0.0000000000
11
13.6669862205
21
21.0877577108
31
0.0000000000
11
13.6842800318
21
21.0707312790
31
0.0000000000
0
SPLINE
5
32C
100
AcDbEntity
8
0
100
AcDbSpline
62
0
6
CONTINUOUS
70
0
71
3
72
11
73
7
74
5
42
0.0000001000
43
0.0000001000
44
0.0000000001
12
0.3335507573
22
0.1365374682
32
0.0000000000
13
0.3212296494
23
-0.1606148247
33
0.0000000000
40
0.0000000000
40
0.0000000000
40
0.0000000000
40
0.0000000000
40
0.0706389269
40
0.3622287278
40
0.6689115234
40
1.0000000000
40
1.0000000000
40
1.0000000000
40
1.0000000000
10
-13.1961381440
20
22.5255834296
30
0.0000000000
10
-13.1882842549
20
22.5287983831
30
0.0000000000
10
-13.1474177726
20
22.5438201174
30
0.0000000000
10
-13.0672356247
20
22.5570123527
30
0.0000000000
10
-12.9555205951
20
22.5435558875
30
0.0000000000
10
-12.8834993068
20
22.5160373623
30
0.0000000000
10
-12.8480474950
20
22.4983114565
30
0.0000000000
11
-13.1961381440
21
22.5255834296
31
0.0000000000
11
-13.1722482336
21
22.5343576251
31
0.0000000000
11
-13.0689969672
21
22.5518541218
31
0.0000000000
11
-12.9595278817
21
22.5396813931
31
0.0000000000
11
-12.8480474950
21
22.4983114565
31
0.0000000000
0
SPLINE
5
32D
100
AcDbEntity
8
0
100
AcDbSpline
62
0
6
CONTINUOUS
70
0
71
3
72
8
73
4
74
2
42
0.0000001000
43
0.0000001000
44
0.0000000001
12
-0.0179311034
22
-0.0352224922
32
0.0000000000
13
-0.0162592855
23
-0.0360388806
33
0.0000000000
40
0.0000000000
40
0.0000000000
40
0.0000000000
40
0.0000000000
40
1.0000000000
40
1.0000000000
40
1.0000000000
40
1.0000000000
10
-13.5116648710
20
-13.0504001114
30
0.0000000000
10
-13.5176419055
20
-13.0621409422
30
0.0000000000
10
-13.5233354432
20
-13.0740280238
30
0.0000000000
10
-13.5287552050
20
-13.0860409840
30
0.0000000000
11
-13.5116648710
21
-13.0504001114
31
0.0000000000
11
-13.5287552050
21
-13.0860409840
31
0.0000000000
0
SPLINE
5
32E
100
AcDbEntity
8
0
100
AcDbSpline
62
0
6
CONTINUOUS
70
0
71
3
72
8
73
4
74
2
42
0.0000001000
43
0.0000001000
44
0.0000000001
12
0.0712974792
22
-0.0331715218
32
0.0000000000
13
0.0743362723
23
-0.0262713847
33
0.0000000000
40
0.0000000000
40
0.0000000000
40
0.0000000000
40
0.0000000000
40
1.0000000000
40
1.0000000000
40
1.0000000000
40
1.0000000000
10
-12.8342380901
20
-14.9562454358
30
0.0000000000
10
-12.8104722637
20
-14.9673026097
30
0.0000000000
10
-12.7861486347
20
-14.9773111396
30
0.0000000000
10
-12.7613698773
20
-14.9860682678
30
0.0000000000
11
-12.8342380901
21
-14.9562454358
31
0.0000000000
11
-12.7613698773
21
-14.9860682678
31
0.0000000000
0
SPLINE
5
32F
100
AcDbEntity
8
0
100
AcDbSpline
62
0
6
CONTINUOUS
70
0
71
3
72
15
73
11
74
9
42
0.0000001000
43
0.0000001000
44
0.0000000001
12
1.0557875728
22
-0.5278937864
32
0.0000000000
13
-0.0968042711
23
-1.1764302707
33
0.0000000000
40
0.0000000000
40
0.0000000000
40
0.0000000000
40
0.0000000000
40
0.1094258525
40
0.2273589642
40
0.3524832539
40
0.4826795988
40
0.6153293924
40
0.7475885812
40
0.8766483845
40
1.0000000000
40
1.0000000000
40
1.0000000000
40
1.0000000000
10
1.4356817982
20
15.3564468098
30
0.0000000000
10
1.4741919500
20
15.3371917340
30
0.0000000000
10
1.5500163403
20
15.2884969839
30
0.0000000000
10
1.6522537139
20
15.1939493834
30
0.0000000000
10
1.7439752816
20
15.0785743813
30
0.0000000000
10
1.8217781503
20
14.9467073262
30
0.0000000000
10
1.8828170521
20
14.8032606811
30
0.0000000000
10
1.9248119361
20
14.6535805450
30
0.0000000000
10
1.9461929103
20
14.5033019171
30
0.0000000000
10
1.9461401653
20
14.4035380504
30
0.0000000000
10
1.9421598442
20
14.3551665256
30
0.0000000000
11
1.4356817982
21
15.3564468098
31
0.0000000000
11
1.5448907388
21
15.2874720689
31
0.0000000000
11
1.6476322029
21
15.1935394499
31
0.0000000000
11
1.7399574491
21
15.0782545690
31
0.0000000000
11
1.8183163207
21
14.9460469944
31
0.0000000000
11
1.8796961987
21
14.8019983396
31
0.0000000000
11
1.9217382759
21
14.6516461175
31
0.0000000000
11
1.9428285473
21
14.5007700253
31
0.0000000000
11
1.9421598442
21
14.3551665256
31
0.0000000000
0
SPLINE
5
330
100
AcDbEntity
8
0
100
AcDbSpline
62
0
6
CONTINUOUS
70
0
71
3
72
12
73
8
74
6
42
0.0000001000
43
0.0000001000
44
0.0000000001
12
-0.0482801368
22
-0.5867325250
32
0.0000000000
13
-0.5600545235
23
-0.1876818309
33
0.0000000000
40
0.0000000000
40
0.0000000000
40
0.0000000000
40
0.0000000000
40
0.2320090472
40
0.4466063456
40
0.6441558557
40
0.8280564210
40
1.0000000000
40
1.0000000000
40
1.0000000000
40
1.0000000000
10
-1.1400213104
20
-23.1015610600
30
0.0000000000
10
-1.1437551199
20
-23.1469368114
30
0.0000000000
10
-1.1576655803
20
-23.2339637853
30
0.0000000000
10
-1.2002456027
20
-23.3538339221
30
0.0000000000
10
-1.2626943996
20
-23.4540175404
30
0.0000000000
10
-1.3426045433
20
-23.5295660224
30
0.0000000000
10
-1.4057682085
20
-23.5616475654
30
0.0000000000
10
-1.4378674683
20
-23.5724044607
30
0.0000000000
11
-1.1400213104
21
-23.1015610600
31
0.0000000000
11
-1.1624209343
21
-23.2362991696
31
0.0000000000
11
-1.2056933040
21
-23.3549940806
31
0.0000000000
11
-1.2681787913
21
-23.4530826323
31
0.0000000000
11
-1.3474772954
21
-23.5267920955
31
0.0000000000
11
-1.4378674683
21
-23.5724044607
31
0.0000000000
0
SPLINE
5
331
100
AcDbEntity
8
0
100
AcDbSpline
62
9
6
CONTINUOUS
70
0
71
3
72
8
73
4
74
2
42
0.0000001000
43
0.0000001000
44
0.0000000001
12
-0.1407129653
22
0.0703715989
32
0.0000000000
13
-0.1287583983
23
0.0912207685
33
0.0000000000
40
0.0000000000
40
0.0000000000
40
0.0000000000
40
0.0000000000
40
1.0000000000
40
1.0000000000
40
1.0000000000
40
1.0000000000
10
-13.5309617176
20
-15.1957851500
30
0.0000000000
10
-13.5778660394
20
-15.1723279504
30
0.0000000000
10
-13.6228469994
20
-15.1449027850
30
0.0000000000
10
-13.6657664655
20
-15.1144958621
30
0.0000000000
11
-13.5309617176
21
-15.1957851500
31
0.0000000000
11
-13.6657664655
21
-15.1144958621
31
0.0000000000
0
SPLINE
5
332
100
AcDbEntity
8
0
100
AcDbSpline
62
9
6
CONTINUOUS
70
0
71
3
72
8
73
4
74
2
42
0.0000001000
43
0.0000001000
44
0.0000000001
12
-0.0677520333
22
0.0479999179
32
0.0000000000
13
-0.0642669243
23
0.0525224214
33
0.0000000000
40
0.0000000000
40
0.0000000000
40
0.0000000000
40
0.0000000000
40
1.0000000000
40
1.0000000000
40
1.0000000000
40
1.0000000000
10
-13.6657664655
20
-15.1144958621
30
0.0000000000
10
-13.6883504766
20
-15.0984958895
30
0.0000000000
10
-13.7103636987
20
-15.0816703242
30
0.0000000000
10
-13.7317860068
20
-15.0641628504
30
0.0000000000
11
-13.6657664655
21
-15.1144958621
31
0.0000000000
11
-13.7317860068
21
-15.0641628504
31
0.0000000000
0
SPLINE
5
333
100
AcDbEntity
8
0
100
AcDbSpline
62
9
6
CONTINUOUS
70
0
71
3
72
8
73
4
74
2
42
0.0000001000
43
0.0000001000
44
0.0000000001
12
-0.0902375312
22
0.0737470121
32
0.0000000000
13
-0.0833575246
23
0.0812264327
33
0.0000000000
40
0.0000000000
40
0.0000000000
40
0.0000000000
40
0.0000000000
40
1.0000000000
40
1.0000000000
40
1.0000000000
40
1.0000000000
10
-13.7317860068
20
-15.0641628504
30
0.0000000000
10
-13.7618651838
20
-15.0395805131
30
0.0000000000
10
-13.7907793670
20
-15.0136537851
30
0.0000000000
10
-13.8185652085
20
-14.9865783075
30
0.0000000000
11
-13.7317860068
21
-15.0641628504
31
0.0000000000
11
-13.8185652085
21
-14.9865783075
31
0.0000000000
0
SPLINE
5
334
100
AcDbEntity
8
0
100
AcDbSpline
62
9
6
CONTINUOUS
70
0
71
3
72
13
73
9
74
7
42
0.0000001000
43
0.0000001000
44
0.0000000001
12
-0.1558966083
22
1.1037343645
32
0.0000000000
13
1.0504695707
23
0.3894049065
33
0.0000000000
40
0.0000000000
40
0.0000000000
40
0.0000000000
40
0.0000000000
40
0.1260030333
40
0.3567399985
40
0.5657720328
40
0.7531614941
40
0.9246280760
40
1.0000000000
40
1.0000000000
40
1.0000000000
40
1.0000000000
10
-14.3187057044
20
-13.9809645969
30
0.0000000000
10
-14.3252535196
20
-13.9346066376
30
0.0000000000
10
-14.3380805749
20
-13.8025616858
30
0.0000000000
10
-14.3302669889
20
-13.5914137709
30
0.0000000000
10
-14.2720532406
20
-13.3638253124
30
0.0000000000
10
-14.1665046624
20
-13.1777958050
30
0.0000000000
10
-14.0427403777
20
-13.0690611010
30
0.0000000000
10
-13.9590073912
20
-13.0298239788
30
0.0000000000
10
-13.9326154203
20
-13.0200405798
30
0.0000000000
11
-14.3187057044
21
-13.9809645969
31
0.0000000000
11
-14.3320998504
21
-13.8411920822
31
0.0000000000
11
-14.3204019679
21
-13.5845621677
31
0.0000000000
11
-14.2597892695
21
-13.3598630861
31
0.0000000000
11
-14.1538422118
21
-13.1801312110
31
0.0000000000
11
-14.0088955749
21
-13.0558907339
31
0.0000000000
11
-13.9326154203
21
-13.0200405798
31
0.0000000000
0
SPLINE
5
335
100
AcDbEntity
8
0
100
AcDbSpline
62
9
6
CONTINUOUS
70
0
71
3
72
12
73
8
74
6
42
0.0000001000
43
0.0000001000
44
0.0000000001
12
-0.8907802423
22
0.4442466450
32
0.0000000000
13
0.0302406780
23
0.9897521473
33
0.0000000000
40
0.0000000000
40
0.0000000000
40
0.0000000000
40
0.0000000000
40
0.0682093676
40
0.2684804468
40
0.4868102573
40
0.7301566806
40
1.0000000000
40
1.0000000000
40
1.0000000000
40
1.0000000000
10
-20.4829927975
20
-17.8071874506
30
0.0000000000
10
-20.5032459832
20
-17.7970868563
30
0.0000000000
10
-20.5805317113
20
-17.7525185128
30
0.0000000000
10
-20.6984870660
20
-17.6389449959
30
0.0000000000
10
-20.8034681452
20
-17.4441139397
30
0.0000000000
10
-20.8628053813
20
-17.2081114025
30
0.0000000000
10
-20.8709549380
20
-17.0378558913
30
0.0000000000
10
-20.8682348564
20
-16.9488298897
30
0.0000000000
11
-20.4829927975
21
-17.8071874506
31
0.0000000000
11
-20.5417264313
21
-17.7732748138
31
0.0000000000
11
-20.6860908353
21
-17.6373106154
31
0.0000000000
11
-20.7915009452
21
-17.4485562095
31
0.0000000000
11
-20.8531285711
21
-17.2156051704
31
0.0000000000
11
-20.8682348564
21
-16.9488298897
31
0.0000000000
0
SPLINE
5
336
100
AcDbEntity
8
0
100
AcDbSpline
62
9
6
CONTINUOUS
70
0
71
3
72
8
73
4
74
2
42
0.0000001000
43
0.0000001000
44
0.0000000001
12
0.0756345398
22
-0.0378335769
32
0.0000000000
13
0.0724726848
23
-0.0438453674
33
0.0000000000
40
0.0000000000
40
0.0000000000
40
0.0000000000
40
0.0000000000
40
1.0000000000
40
1.0000000000
40
1.0000000000
40
1.0000000000
10
-13.4960705650
20
-13.0092389190
30
0.0000000000
10
-13.4708590517
20
-13.0218501113
30
0.0000000000
10
-13.4461644990
20
-13.0355288692
30
0.0000000000
10
-13.4220069374
20
-13.0501439916
30
0.0000000000
11
-13.4960705650
21
-13.0092389190
31
0.0000000000
11
-13.4220069374
21
-13.0501439916
31
0.0000000000
0
SPLINE
5
337
100
AcDbEntity
8
0
100
AcDbSpline
62
9
6
CONTINUOUS
70
0
71
3
72
17
73
13
74
11
42
0.0000001000
43
0.0000001000
44
0.0000000001
12
2.2159335866
22
-1.3406212620
32
0.0000000000
13
-2.0690690947
23
-1.5721181665
33
0.0000000000
40
0.0000000000
40
0.0000000000
40
0.0000000000
40
0.0000000000
40
0.0677506998
40
0.1782376826
40
0.2958611919
40
0.4168722368
40
0.5373879280
40
0.6532326583
40
0.7610682669
40
0.8587373704
40
0.9461799872
40
1.0000000000
40
1.0000000000
40
1.0000000000
40
1.0000000000
10
-13.4220069374
20
-13.0501439916
30
0.0000000000
10
-13.3719632536
20
-13.0804200012
30
0.0000000000
10
-13.2463713733
20
-13.1706409134
30
0.0000000000
10
-13.0664179654
20
-13.3531647927
30
0.0000000000
10
-12.8939489649
20
-13.6014241096
30
0.0000000000
10
-12.7586657665
20
-13.8812064722
30
0.0000000000
10
-12.6679586924
20
-14.1768741607
30
0.0000000000
10
-12.6269082461
20
-14.4720893969
30
0.0000000000
10
-12.6379996652
20
-14.7505608363
30
0.0000000000
10
-12.7013863506
20
-14.9973614004
30
0.0000000000
10
-12.8044122692
20
-15.1791783158
30
0.0000000000
10
-12.8927923084
20
-15.2653528474
30
0.0000000000
10
-12.9299114168
20
-15.2935566540
30
0.0000000000
11
-13.4220069374
21
-13.0501439916
31
0.0000000000
11
-13.2789671787
21
-13.1518604382
31
0.0000000000
11
-13.0768715594
21
-13.3538017871
31
0.0000000000
11
-12.9024250218
21
-13.6029527387
31
0.0000000000
11
-12.7659280387
21
-13.8845224613
31
0.0000000000
11
-12.6750411993
21
-14.1826039150
31
0.0000000000
11
-12.6351792692
21
-14.4794911799
31
0.0000000000
11
-12.6486411744
21
-14.7580074094
31
0.0000000000
11
-12.7146692167
21
-15.0017762042
31
0.0000000000
11
-12.8294352231
21
-15.1965943732
31
0.0000000000
11
-12.9299114168
21
-15.2935566540
31
0.0000000000
0
SPLINE
5
338
100
AcDbEntity
8
0
100
AcDbSpline
62
9
6
CONTINUOUS
70
0
71
3
72
11
73
7
74
5
42
0.0000001000
43
0.0000001000
44
0.0000000001
12
-0.5716206180
22
-0.4343282495
32
0.0000000000
13
-0.6390490850
23
0.3192989595
33
0.0000000000
40
0.0000000000
40
0.0000000000
40
0.0000000000
40
0.0000000000
40
0.0943019118
40
0.3757085290
40
0.6724828775
40
1.0000000000
40
1.0000000000
40
1.0000000000
40
1.0000000000
10
-12.9299114168
20
-15.2935566540
30
0.0000000000
10
-12.9478797225
20
-15.3072093154
30
0.0000000000
10
-13.0226853118
20
-15.3572822877
30
0.0000000000
10
-13.1777874602
20
-15.4111556661
30
0.0000000000
10
-13.3974742488
20
-15.4024259523
30
0.0000000000
10
-13.5391822530
20
-15.3508300945
30
0.0000000000
10
-13.6089487589
20
-15.3159714690
30
0.0000000000
11
-12.9299114168
21
-15.2935566540
31
0.0000000000
11
-12.9861781931
21
-15.3310873094
31
0.0000000000
11
-13.1758755933
21
-15.3976320920
31
0.0000000000
11
-13.3878205601
21
-15.3924222484
31
0.0000000000
11
-13.6089487589
21
-15.3159714690
31
0.0000000000
0
SPLINE
5
339
100
AcDbEntity
8
0
100
AcDbSpline
62
9
6
CONTINUOUS
70
0
71
3
72
10
73
6
74
4
42
0.0000001000
43
0.0000001000
44
0.0000000001
12
-0.4833748644
22
-0.1775961541
32
0.0000000000
13
-0.4577385552
23
0.2287953692
33
0.0000000000
40
0.0000000000
40
0.0000000000
40
0.0000000000
40
0.0000000000
40
0.1958576523
40
0.5776801370
40
1.0000000000
40
1.0000000000
40
1.0000000000
40
1.0000000000
10
-13.0339246834
20
-15.2461997165
30
0.0000000000
10
-13.0654822388
20
-15.2577942384
30
0.0000000000
10
-13.1620348694
20
-15.2826480413
30
0.0000000000
10
-13.3357823849
20
-15.2756195283
30
0.0000000000
10
-13.4665243563
20
-15.2279934264
30
0.0000000000
10
-13.5309617176
20
-15.1957851500
30
0.0000000000
11
-13.0339246834
21
-15.2461997165
31
0.0000000000
11
-13.1313918337
21
-15.2713235421
31
0.0000000000
11
-13.3267224480
21
-15.2664409363
31
0.0000000000
11
-13.5309617176
21
-15.1957851500
31
0.0000000000
0
SPLINE
5
33A
100
AcDbEntity
8
0
100
AcDbSpline
62
9
6
CONTINUOUS
70
0
71
3
72
14
73
10
74
8
42
0.0000001000
43
0.0000001000
44
0.0000000001
12
-0.9095146357
22
-0.3435038030
32
0.0000000000
13
-0.1286760536
23
-0.9636670631
33
0.0000000000
40
0.0000000000
40
0.0000000000
40
0.0000000000
40
0.0000000000
40
0.1225390093
40
0.2572029208
40
0.4014484341
40
0.5518958838
40
0.7047249844
40
0.8555731796
40
1.0000000000
40
1.0000000000
40
1.0000000000
40
1.0000000000
10
-2.1095236487
20
12.8257526780
30
0.0000000000
10
-2.1466739895
20
12.8117218061
30
0.0000000000
10
-2.2213152428
20
12.7730985906
30
0.0000000000
10
-2.3244717482
20
12.6929164664
30
0.0000000000
10
-2.4201124767
20
12.5911457968
30
0.0000000000
10
-2.5039693988
20
12.4722824232
30
0.0000000000
10
-2.5724182493
20
12.3415116521
30
0.0000000000
10
-2.6224200032
20
12.2047374774
30
0.0000000000
10
-2.6426140843
20
12.1107849270
30
0.0000000000
10
-2.6488088421
20
12.0643918037
30
0.0000000000
11
-2.1095236487
21
12.8257526780
31
0.0000000000
11
-2.2158557871
21
12.7720256360
31
0.0000000000
11
-2.3197855312
21
12.6924051189
31
0.0000000000
11
-2.4162334718
21
12.5905984584
31
0.0000000000
11
-2.5007875596
21
12.4712462906
31
0.0000000000
11
-2.5697063076
21
12.3396132202
31
0.0000000000
11
-2.6198077869
21
12.2017788882
31
0.0000000000
11
-2.6488088421
21
12.0643918037
31
0.0000000000
0
SPLINE
5
33B
100
AcDbEntity
8
0
100
AcDbSpline
62
9
6
CONTINUOUS
70
0
71
3
72
14
73
10
74
8
42
0.0000001000
43
0.0000001000
44
0.0000000001
12
-1.9409779433
22
-0.7486284226
32
0.0000000000
13
-0.2741273082
23
-2.0622061270
33
0.0000000000
40
0.0000000000
40
0.0000000000
40
0.0000000000
40
0.0000000000
40
0.1224961269
40
0.2567972753
40
0.4008228441
40
0.5511508901
40
0.7039591293
40
0.8548973528
40
1.0000000000
40
1.0000000000
40
1.0000000000
40
1.0000000000
10
-2.6160016947
20
13.8270329623
30
0.0000000000
10
-2.6952557882
20
13.7964649348
30
0.0000000000
10
-2.8540642889
20
13.7126633341
30
0.0000000000
10
-3.0731200041
20
13.5396865524
30
0.0000000000
10
-3.2759552090
20
13.3209112765
30
0.0000000000
10
-3.4538417168
20
13.0658124328
30
0.0000000000
10
-3.5991481314
20
12.7854476213
30
0.0000000000
10
-3.7055592785
20
12.4920415610
30
0.0000000000
10
-3.7486745110
20
12.2904495074
30
0.0000000000
10
-3.7619333770
20
12.1907056514
30
0.0000000000
11
-2.6160016947
21
13.8270329623
31
0.0000000000
11
-2.8425622622
21
13.7103674147
31
0.0000000000
11
-3.0630536844
21
13.5387751406
31
0.0000000000
11
-3.2676609985
21
13.3198920503
31
0.0000000000
11
-3.4470546510
21
13.0637266740
31
0.0000000000
11
-3.5933713354
21
12.7815068332
31
0.0000000000
11
-3.6999061258
21
12.4861279410
31
0.0000000000
11
-3.7619333770
21
12.1907056514
31
0.0000000000
0
SPLINE
5
33C
100
AcDbEntity
8
0
100
AcDbSpline
62
9
6
CONTINUOUS
70
0
71
3
72
12
73
8
74
6
42
0.0000001000
43
0.0000001000
44
0.0000000001
12
0.0806114600
22
1.1729478398
32
0.0000000000
13
-1.0449053323
23
0.5389598211
33
0.0000000000
40
0.0000000000
40
0.0000000000
40
0.0000000000
40
0.0000000000
40
0.2000491289
40
0.4115329905
40
0.6226657844
40
0.8217414655
40
1.0000000000
40
1.0000000000
40
1.0000000000
40
1.0000000000
10
-2.1095236487
20
12.8257526780
30
0.0000000000
10
-2.1041482312
20
12.9039684092
30
0.0000000000
10
-2.1139653757
20
13.0666334170
30
0.0000000000
10
-2.1790308275
20
13.3033577091
30
0.0000000000
10
-2.2891383484
20
13.5226435774
30
0.0000000000
10
-2.4340977022
20
13.7041949570
30
0.0000000000
10
-2.5539139284
20
13.7950082337
30
0.0000000000
10
-2.6160016928
20
13.8270329630
30
0.0000000000
11
-2.1095236487
21
12.8257526780
31
0.0000000000
11
-2.1215344541
21
13.0606464881
31
0.0000000000
11
-2.1867522731
21
13.3005856593
31
0.0000000000
11
-2.2987963544
21
13.5220923298
31
0.0000000000
11
-2.4467037062
21
13.7034916512
31
0.0000000000
11
-2.6160016928
21
13.8270329630
31
0.0000000000
0
SPLINE
5
33D
100
AcDbEntity
8
0
100
AcDbSpline
62
9
6
CONTINUOUS
70
0
71
3
72
10
73
6
74
4
42
0.0000001000
43
0.0000001000
44
0.0000000001
12
-2.5442506920
22
-19.0761977890
32
0.0000000000
13
-1.5284065500
23
-19.1848001165
33
0.0000000000
40
0.0000000000
40
0.0000000000
40
0.0000000000
40
0.0000000000
40
0.4789379338
40
0.9526120361
40
1.0000000000
40
1.0000000000
40
1.0000000000
40
1.0000000000
10
-2.6488088421
20
12.0643918037
30
0.0000000000
10
-3.0549882319
20
9.0189535525
30
0.0000000000
10
-3.7885233405
20
2.9513441572
30
0.0000000000
10
-4.3976136881
20
-3.4353913444
30
0.0000000000
10
-4.6674213159
20
-6.7672016618
30
0.0000000000
10
-4.6915640074
20
-7.0702445337
30
0.0000000000
11
-2.6488088421
21
12.0643918037
31
0.0000000000
11
-3.7538248076
21
2.9136529120
31
0.0000000000
11
-4.6179526134
21
-6.1612114730
31
0.0000000000
11
-4.6915640074
21
-7.0702445337
31
0.0000000000
0
SPLINE
5
33E
100
AcDbEntity
8
0
100
AcDbSpline
62
9
6
CONTINUOUS
70
0
71
3
72
9
73
5
74
3
42
0.0000001000
43
0.0000001000
44
0.0000000001
12
-1.3499971909
22
-16.9453776974
32
0.0000000000
13
-0.4963119073
23
-16.9914069876
33
0.0000000000
40
0.0000000000
40
0.0000000000
40
0.0000000000
40
0.0000000000
40
0.4764038983
40
1.0000000000
40
1.0000000000
40
1.0000000000
40
1.0000000000
10
-4.6915640074
20
-7.0702445337
30
0.0000000000
10
-4.9059453155
20
-9.7611925314
30
0.0000000000
10
-5.2905757779
20
-15.4148731217
30
0.0000000000
10
-5.5332728722
20
-21.0766926482
30
0.0000000000
10
-5.6198951989
20
-24.0422374686
30
0.0000000000
11
-4.6915640074
21
-7.0702445337
31
0.0000000000
11
-5.2402109260
21
-15.1499106959
31
0.0000000000
11
-5.6198951989
21
-24.0422374686
31
0.0000000000
0
SPLINE
5
33F
100
AcDbEntity
8
0
100
AcDbSpline
62
9
6
CONTINUOUS
70
0
71
3
72
9
73
5
74
3
42
0.0000001000
43
0.0000001000
44
0.0000000001
12
-1.5101467577
22
-11.3229357203
32
0.0000000000
13
-1.1587721605
23
-11.3646176077
33
0.0000000000
40
0.0000000000
40
0.0000000000
40
0.0000000000
40
0.0000000000
40
0.8090453194
40
1.0000000000
40
1.0000000000
40
1.0000000000
40
1.0000000000
10
-3.7619333770
20
12.1907056514
30
0.0000000000
10
-4.1691924323
20
9.1371162694
30
0.0000000000
10
-4.6262433977
20
5.3564465551
30
0.0000000000
10
-5.0239357519
20
1.5693993301
30
0.0000000000
10
-5.0976934079
20
0.8460236881
30
0.0000000000
11
-3.7619333770
21
12.1907056514
31
0.0000000000
11
-4.8698888850
21
3.0154755693
31
0.0000000000
11
-5.0976934079
21
0.8460236881
31
0.0000000000
0
SPLINE
5
340
100
AcDbEntity
8
0
100
AcDbSpline
62
9
6
CONTINUOUS
70
0
71
3
72
8
73
4
74
2
42
0.0000001000
43
0.0000001000
44
0.0000000001
12
-0.4775602226
22
-4.6836552509
32
0.0000000000
13
-0.4159572176
23
-4.6894979350
33
0.0000000000
40
0.0000000000
40
0.0000000000
40
0.0000000000
40
0.0000000000
40
1.0000000000
40
1.0000000000
40
1.0000000000
40
1.0000000000
10
-5.0976934079
20
0.8460236881
30
0.0000000000
10
-5.2568801487
20
-0.7151947288
30
0.0000000000
10
-5.4058958625
20
-2.2774437216
30
0.0000000000
10
-5.5445482684
20
-3.8406097000
30
0.0000000000
11
-5.0976934079
21
0.8460236881
31
0.0000000000
11
-5.5445482684
21
-3.8406097000
31
0.0000000000
0
SPLINE
5
341
100
AcDbEntity
8
0
100
AcDbSpline
62
9
6
CONTINUOUS
70
0
71
3
72
8
73
4
74
2
42
0.0000001000
43
0.0000001000
44
0.0000000001
12
-0.1294868046
22
-1.4598330719
32
0.0000000000
13
-0.1234437607
23
-1.4603559640
33
0.0000000000
40
0.0000000000
40
0.0000000000
40
0.0000000000
40
0.0000000000
40
1.0000000000
40
1.0000000000
40
1.0000000000
40
1.0000000000
10
-5.5445482684
20
-3.8406097000
30
0.0000000000
10
-5.5877105366
20
-4.3272207239
30
0.0000000000
10
-5.6298685310
20
-4.8139206099
30
0.0000000000
10
-5.6710164512
20
-5.3007059312
30
0.0000000000
11
-5.5445482684
21
-3.8406097000
31
0.0000000000
11
-5.6710164512
21
-5.3007059312
31
0.0000000000
0
SPLINE
5
342
100
AcDbEntity
8
0
100
AcDbSpline
62
9
6
CONTINUOUS
70
0
71
3
72
9
73
5
74
3
42
0.0000001000
43
0.0000001000
44
0.0000000001
12
-0.0902670794
22
-1.0678714503
32
0.0000000000
13
-0.0870196352
23
-1.0681415020
33
0.0000000000
40
0.0000000000
40
0.0000000000
40
0.0000000000
40
0.0000000000
40
0.7330967959
40
1.0000000000
40
1.0000000000
40
1.0000000000
40
1.0000000000
10
-5.6710164512
20
-5.3007059312
30
0.0000000000
10
-5.6930746201
20
-5.5616569775
30
0.0000000000
10
-5.7227677014
20
-5.9176476179
30
0.0000000000
10
-5.7519190204
20
-6.2736829595
30
0.0000000000
10
-5.7596609602
20
-6.3687130892
30
0.0000000000
11
-5.6710164512
21
-5.3007059312
31
0.0000000000
11
-5.7363192658
21
-6.0836321970
31
0.0000000000
11
-5.7596609602
21
-6.3687130892
31
0.0000000000
0
SPLINE
5
343
100
AcDbEntity
8
0
100
AcDbSpline
62
9
6
CONTINUOUS
70
0
71
3
72
9
73
5
74
3
42
0.0000001000
43
0.0000001000
44
0.0000000001
12
-1.4350281620
22
-17.6145663256
32
0.0000000000
13
-0.5160286822
23
-17.6649648807
33
0.0000000000
40
0.0000000000
40
0.0000000000
40
0.0000000000
40
0.0000000000
40
0.4950204884
40
1.0000000000
40
1.0000000000
40
1.0000000000
40
1.0000000000
10
-5.7596609602
20
-6.3687130892
30
0.0000000000
10
-5.9964504075
20
-9.2752368312
30
0.0000000000
10
-6.4017723990
20
-15.1527235839
30
0.0000000000
10
-6.6541025110
20
-21.0389836312
30
0.0000000000
10
-6.7409638150
20
-24.0124654104
30
0.0000000000
11
-5.7596609602
21
-6.3687130892
31
0.0000000000
11
-6.3602458493
21
-15.0963394117
31
0.0000000000
11
-6.7409638150
21
-24.0124654104
31
0.0000000000
0
SPLINE
5
344
100
AcDbEntity
8
0
100
AcDbSpline
62
9
6
CONTINUOUS
70
0
71
3
72
12
73
8
74
6
42
0.0000001000
43
0.0000001000
44
0.0000000001
12
-1.0988929668
22
-0.3006690574
32
0.0000000000
13
-1.0183473904
23
0.5108191726
33
0.0000000000
40
0.0000000000
40
0.0000000000
40
0.0000000000
40
0.0000000000
40
0.1780036203
40
0.3834489374
40
0.6004940747
40
0.8115763391
40
1.0000000000
40
1.0000000000
40
1.0000000000
40
1.0000000000
10
-2.6488088421
20
12.0643918037
30
0.0000000000
10
-2.7140111509
20
12.0465517435
30
0.0000000000
10
-2.8589385763
20
12.0245826846
30
0.0000000000
10
-3.0874647154
20
12.0229888315
30
0.0000000000
10
-3.3271353103
20
12.0503723341
30
0.0000000000
10
-3.5554960362
20
12.1042170339
30
0.0000000000
10
-3.6979731105
20
12.1586221839
30
0.0000000000
10
-3.7619333583
20
12.1907056568
30
0.0000000000
11
-2.6488088421
21
12.0643918037
31
0.0000000000
11
-2.8487821160
21
12.0306698656
31
0.0000000000
11
-3.0828225448
21
12.0276026402
31
0.0000000000
11
-3.3285216862
21
12.0554838021
31
0.0000000000
11
-3.5623548223
21
12.1116438409
31
0.0000000000
11
-3.7619333583
21
12.1907056568
31
0.0000000000
0
SPLINE
5
345
100
AcDbEntity
8
0
100
AcDbSpline
62
9
6
CONTINUOUS
70
0
71
3
72
14
73
10
74
8
42
0.0000001000
43
0.0000001000
44
0.0000000001
12
-0.0212388966
22
-0.7304890259
32
0.0000000000
13
0.6930136272
23
0.2319427090
33
0.0000000000
40
0.0000000000
40
0.0000000000
40
0.0000000000
40
0.0000000000
40
0.1704218095
40
0.3255114721
40
0.4656733405
40
0.5953517458
40
0.7223542962
40
0.8551823305
40
1.0000000000
40
1.0000000000
40
1.0000000000
40
1.0000000000
10
-5.6198951989
20
-24.0422374686
30
0.0000000000
10
-5.6211017226
20
-24.0837345558
30
0.0000000000
10
-5.6170189742
20
-24.1634416667
30
0.0000000000
10
-5.5883225576
20
-24.2741423450
30
0.0000000000
10
-5.5376732565
20
-24.3659592812
30
0.0000000000
10
-5.4662072327
20
-24.4336801845
30
0.0000000000
10
-5.3774037218
20
-24.4722752993
30
0.0000000000
10
-5.2775018762
20
-24.4795102142
30
0.0000000000
10
-5.2105746131
20
-24.4649401338
30
0.0000000000
10
-5.1771210736
20
-24.4537436662
30
0.0000000000
11
-5.6198951989
21
-24.0422374686
31
0.0000000000
11
-5.6124474494
21
-24.1665584505
31
0.0000000000
11
-5.5827126076
21
-24.2759275826
31
0.0000000000
11
-5.5319905278
21
-24.3649173020
31
0.0000000000
11
-5.4625870493
21
-24.4294483832
31
0.0000000000
11
-5.3775587661
21
-24.4666569357
31
0.0000000000
11
-5.2808326019
21
-24.4748249516
31
0.0000000000
11
-5.1771210736
21
-24.4537436662
31
0.0000000000
0
SPLINE
5
346
100
AcDbEntity
8
0
100
AcDbSpline
62
9
6
CONTINUOUS
70
0
71
3
72
12
73
8
74
6
42
0.0000001000
43
0.0000001000
44
0.0000000001
12
-0.0295383837
22
-0.9961357430
32
0.0000000000
13
0.8955486389
23
-0.4485287862
33
0.0000000000
40
0.0000000000
40
0.0000000000
40
0.0000000000
40
0.0000000000
40
0.2684742399
40
0.5112918487
40
0.7301442585
40
0.9319883070
40
1.0000000000
40
1.0000000000
40
1.0000000000
40
1.0000000000
10
-6.7409638150
20
-24.0124654104
30
0.0000000000
10
-6.7436072467
20
-24.1016110059
30
0.0000000000
10
-6.7350344899
20
-24.2723409580
30
0.0000000000
10
-6.6742187255
20
-24.5091489533
30
0.0000000000
10
-6.5669914816
20
-24.7049909758
30
0.0000000000
10
-6.4472619421
20
-24.8190619998
30
0.0000000000
10
-6.3691003357
20
-24.8641240977
30
0.0000000000
10
-6.3487977427
20
-24.8742924984
30
0.0000000000
11
-6.7409638150
21
-24.0124654104
31
0.0000000000
11
-6.7252259367
21
-24.2795564876
31
0.0000000000
11
-6.6622212493
21
-24.5131960575
31
0.0000000000
11
-6.5547492374
21
-24.7029814144
31
0.0000000000
11
-6.4077330970
21
-24.8402714809
31
0.0000000000
11
-6.3487977427
21
-24.8742924984
31
0.0000000000
0
SPLINE
5
347
100
AcDbEntity
8
0
100
AcDbSpline
62
9
6
CONTINUOUS
70
0
71
3
72
12
73
8
74
6
42
0.0000001000
43
0.0000001000
44
0.0000000001
12
-1.0531787008
22
-0.4610067146
32
0.0000000000
13
-1.0288927378
23
0.5129252391
33
0.0000000000
40
0.0000000000
40
0.0000000000
40
0.0000000000
40
0.0000000000
40
0.1844457558
40
0.3915517927
40
0.6068654784
40
0.8145320922
40
1.0000000000
40
1.0000000000
40
1.0000000000
40
1.0000000000
10
-5.6198951989
20
-24.0422374685
30
0.0000000000
10
-5.6846466461
20
-24.0705810458
30
0.0000000000
10
-5.8297141050
20
-24.1135041647
30
0.0000000000
10
-6.0613793569
20
-24.1412990241
30
0.0000000000
10
-6.3036707694
20
-24.1348406898
30
0.0000000000
10
-6.5341356796
20
-24.0947221886
30
0.0000000000
10
-6.6773434144
20
-24.0441705588
30
0.0000000000
10
-6.7409522755
20
-24.0124601685
30
0.0000000000
11
-5.6198951989
21
-24.0422374685
31
0.0000000000
11
-5.8222958203
21
-24.1054748230
31
0.0000000000
11
-6.0585300869
21
-24.1352316743
31
0.0000000000
11
-6.3059798229
21
-24.1286589620
31
0.0000000000
11
-6.5409530312
21
-24.0863859887
31
0.0000000000
11
-6.7409522755
21
-24.0124601685
31
0.0000000000
0
SPLINE
5
348
100
AcDbEntity
8
0
100
AcDbSpline
62
9
6
CONTINUOUS
70
0
71
3
72
11
73
7
74
5
42
0.0000001000
43
0.0000001000
44
0.0000000001
12
-0.0561271610
22
-0.5864068137
32
0.0000000000
13
-0.5625415476
23
-0.1868652725
33
0.0000000000
40
0.0000000000
40
0.0000000000
40
0.0000000000
40
0.0000000000
40
0.3643399972
40
0.6838422992
40
0.9698645717
40
1.0000000000
40
1.0000000000
40
1.0000000000
40
1.0000000000
10
-5.1771210736
20
-24.4537436662
30
0.0000000000
10
-5.1839375301
20
-24.5249608185
30
0.0000000000
10
-5.2124584849
20
-24.6581433081
30
0.0000000000
10
-5.3095461550
20
-24.8267159159
30
0.0000000000
10
-5.4144390368
20
-24.9027203034
30
0.0000000000
10
-5.4731815665
20
-24.9239755939
30
0.0000000000
10
-5.4788323767
20
-24.9258526823
30
0.0000000000
11
-5.1771210736
21
-24.4537436662
31
0.0000000000
11
-5.2256643106
21
-24.6628098660
31
0.0000000000
11
-5.3238403971
21
-24.8233906322
31
0.0000000000
11
-5.4620428696
21
-24.9197732459
31
0.0000000000
11
-5.4788323767
21
-24.9258526823
31
0.0000000000
0
SPLINE
5
349
100
AcDbEntity
8
0
100
AcDbSpline
62
9
6
CONTINUOUS
70
0
71
3
72
10
73
6
74
4
42
0.0000001000
43
0.0000001000
44
0.0000000001
12
-0.0092381627
22
-0.3893935659
32
0.0000000000
13
0.3419295854
23
-0.1714705317
33
0.0000000000
40
0.0000000000
40
0.0000000000
40
0.0000000000
40
0.0000000000
40
0.1781388702
40
0.5391326011
40
1.0000000000
40
1.0000000000
40
1.0000000000
40
1.0000000000
10
-21.1017781225
20
-16.6675054259
30
0.0000000000
10
-21.1023266811
20
-16.6906274692
30
0.0000000000
10
-21.0921127357
20
-16.7611868387
30
0.0000000000
10
-21.0101684274
20
-16.8660248877
30
0.0000000000
10
-20.9207628952
20
-16.9224881512
30
0.0000000000
10
-20.8682348290
20
-16.9488298772
30
0.0000000000
11
-21.1017781225
21
-16.6675054259
31
0.0000000000
11
-21.0918688037
21
-16.7357229935
31
0.0000000000
11
-21.0140966967
21
-16.8498244534
31
0.0000000000
11
-20.8682348290
21
-16.9488298772
31
0.0000000000
0
SPLINE
5
34A
100
AcDbEntity
8
0
100
AcDbSpline
62
9
6
CONTINUOUS
70
0
71
3
72
14
73
10
74
8
42
0.0000001000
43
0.0000001000
44
0.0000000001
12
0.2716189910
22
2.0574157179
32
0.0000000000
13
1.9266268546
23
0.7712621317
33
0.0000000000
40
0.0000000000
40
0.0000000000
40
0.0000000000
40
0.0000000000
40
0.1455444946
40
0.2969408323
40
0.4501107556
40
0.6006036405
40
0.7445122143
40
0.8783497232
40
1.0000000000
40
1.0000000000
40
1.0000000000
40
1.0000000000
10
-17.8892044184
20
19.2543411721
30
0.0000000000
10
-17.8760268688
20
19.3541563491
30
0.0000000000
10
-17.8333569844
20
19.5559353226
30
0.0000000000
10
-17.7283649145
20
19.8499381498
30
0.0000000000
10
-17.5851669835
20
20.1312522380
30
0.0000000000
10
-17.4099858967
20
20.3876074803
30
0.0000000000
10
-17.2103429895
20
20.6078973095
30
0.0000000000
10
-16.9948267843
20
20.7825905193
30
0.0000000000
10
-16.8383366638
20
20.8678632479
30
0.0000000000
10
-16.7602117671
20
20.8991379985
30
0.0000000000
11
-17.8892044184
21
19.2543411721
31
0.0000000000
11
-17.8278088403
21
19.5500792983
31
0.0000000000
11
-17.7226510498
21
19.8461466904
31
0.0000000000
11
-17.5783968788
21
20.1293977879
31
0.0000000000
11
-17.4016551192
21
20.3868891106
31
0.0000000000
11
-17.2001742329
21
20.6073354149
31
0.0000000000
11
-16.9831386920
21
20.7806556296
31
0.0000000000
11
-16.7602117671
21
20.8991379985
31
0.0000000000
0
SPLINE
5
34B
100
AcDbEntity
8
0
100
AcDbSpline
62
9
6
CONTINUOUS
70
0
71
3
72
11
73
7
74
5
42
0.0000001000
43
0.0000001000
44
0.0000000001
12
1.1304319111
22
36.3219946850
32
0.0000000000
13
4.7357728709
23
36.0296770666
33
0.0000000000
40
0.0000000000
40
0.0000000000
40
0.0000000000
40
0.0000000000
40
0.2454223026
40
0.4939800921
40
0.7455500835
40
1.0000000000
40
1.0000000000
40
1.0000000000
40
1.0000000000
10
-20.8682348564
20
-16.9488298897
30
0.0000000000
10
-20.7757571222
20
-13.9774206989
30
0.0000000000
10
-20.5108935646
20
-7.9988217598
30
0.0000000000
10
-19.8814299493
20
1.0111225604
30
0.0000000000
10
-19.0179317199
20
10.1114840955
30
0.0000000000
10
-18.2908767555
20
16.1984250657
30
0.0000000000
10
-17.8892044184
20
19.2543411721
30
0.0000000000
11
-20.8682348564
21
-16.9488298897
31
0.0000000000
11
-20.4750060221
21
-8.0389593252
31
0.0000000000
11
-19.8469075794
21
0.9716619598
31
0.0000000000
11
-18.9846490580
21
10.0728556558
31
0.0000000000
11
-17.8892044184
21
19.2543411721
31
0.0000000000
0
SPLINE
5
34C
100
AcDbEntity
8
0
100
AcDbSpline
62
9
6
CONTINUOUS
70
0
71
3
72
20
73
16
74
14
42
0.0000001000
43
0.0000001000
44
0.0000000001
12
-2.9577872399
22
1.4795897919
32
0.0000000000
13
3.0849498850
23
-1.2212979919
33
0.0000000000
40
0.0000000000
40
0.0000000000
40
0.0000000000
40
0.0000000000
40
0.0785631686
40
0.1650158178
40
0.2570496339
40
0.3517014612
40
0.4459280150
40
0.5364820260
40
0.6207962054
40
0.6972373510
40
0.7657947984
40
0.8285268312
40
0.8896009144
40
0.9539043215
40
1.0000000000
40
1.0000000000
40
1.0000000000
40
1.0000000000
10
-13.6089487589
20
-15.3159714690
30
0.0000000000
10
-13.6864064714
20
-15.2772243816
30
0.0000000000
10
-13.8389149635
20
-15.1748170111
30
0.0000000000
10
-14.0393355861
20
-14.9724717326
30
0.0000000000
10
-14.2127082710
20
-14.7246212285
30
0.0000000000
10
-14.3489963661
20
-14.4451942044
30
0.0000000000
10
-14.4405564336
20
-14.1497562140
30
0.0000000000
10
-14.4820985500
20
-13.8546081924
30
0.0000000000
10
-14.4710158890
20
-13.5760422130
30
0.0000000000
10
-14.4071489055
20
-13.3290270036
30
0.0000000000
10
-14.2920549292
20
-13.1271457767
30
0.0000000000
10
-14.1290715432
20
-12.9842406747
30
0.0000000000
10
-13.9283016345
20
-12.9143970096
30
0.0000000000
10
-13.7357395733
20
-12.9217088600
30
0.0000000000
10
-13.6182221706
20
-12.9570007613
30
0.0000000000
10
-13.5708212180
20
-12.9757662811
30
0.0000000000
11
-13.6089487589
21
-15.3159714690
31
0.0000000000
11
-13.8262183159
21
-15.1734820106
31
0.0000000000
11
-14.0289141152
21
-14.9718303800
31
0.0000000000
11
-14.2042597961
21
-14.7230361276
31
0.0000000000
11
-14.3417321670
21
-14.4418035227
31
0.0000000000
11
-14.4334334049
21
-14.1439734634
31
0.0000000000
11
-14.4737547319
21
-13.8472183867
31
0.0000000000
11
-14.4603024486
21
-13.5686976869
31
0.0000000000
11
-14.3938493178
21
-13.3247804212
31
0.0000000000
11
-14.2783303811
21
-13.1296807640
31
0.0000000000
11
-14.1206727460
21
-12.9948206382
31
0.0000000000
11
-13.9300916970
21
-12.9279107767
31
0.0000000000
11
-13.7174839380
21
-12.9328614075
31
0.0000000000
11
-13.5708212180
21
-12.9757662811
31
0.0000000000
0
SPLINE
5
34D
100
AcDbEntity
8
0
100
AcDbSpline
62
9
6
CONTINUOUS
70
0
71
3
72
8
73
4
74
2
42
0.0000001000
43
0.0000001000
44
0.0000000001
12
0.0762727296
22
-0.0301955412
32
0.0000000000
13
0.0731451288
23
-0.0365488084
33
0.0000000000
40
0.0000000000
40
0.0000000000
40
0.0000000000
40
0.0000000000
40
1.0000000000
40
1.0000000000
40
1.0000000000
40
1.0000000000
10
-13.5708212180
20
-12.9757662811
30
0.0000000000
10
-13.5453969748
20
-12.9858314615
30
0.0000000000
10
-13.5204522746
20
-12.9970559828
30
0.0000000000
10
-13.4960705650
20
-13.0092389190
30
0.0000000000
11
-13.5708212180
21
-12.9757662811
31
0.0000000000
11
-13.4960705650
21
-13.0092389190
31
0.0000000000
0
SPLINE
5
34E
100
AcDbEntity
8
0
100
AcDbSpline
62
9
6
CONTINUOUS
70
0
71
3
72
10
73
6
74
4
42
0.0000001000
43
0.0000001000
44
0.0000000001
12
-0.0377062374
22
-0.3740895623
32
0.0000000000
13
0.3320447010
23
-0.1654859893
33
0.0000000000
40
0.0000000000
40
0.0000000000
40
0.0000000000
40
0.0000000000
40
0.1876851910
40
0.5315022892
40
1.0000000000
40
1.0000000000
40
1.0000000000
40
1.0000000000
10
-18.1241018829
20
19.5185430689
30
0.0000000000
10
-18.1264608504
20
19.4951393786
30
0.0000000000
10
-18.1158720883
20
19.4254050440
30
0.0000000000
10
-18.0267548462
20
19.3324653773
30
0.0000000000
10
-17.9410511099
20
19.2801865567
30
0.0000000000
10
-17.8891970491
20
19.2543432876
30
0.0000000000
11
-18.1241018829
21
19.5185430689
31
0.0000000000
11
-18.1143966518
21
19.4484258003
31
0.0000000000
11
-18.0354811659
21
19.3482124559
31
0.0000000000
11
-17.8891970491
21
19.2543432876
31
0.0000000000
0
SPLINE
5
34F
100
AcDbEntity
8
0
100
AcDbSpline
62
9
6
CONTINUOUS
70
0
71
3
72
10
73
6
74
4
42
0.0000001000
43
0.0000001000
44
0.0000000001
12
0.3360814379
22
0.1378432927
32
0.0000000000
13
0.3249637726
23
-0.1575236591
33
0.0000000000
40
0.0000000000
40
0.0000000000
40
0.0000000000
40
0.0000000000
40
0.0131053854
40
0.4812626401
40
1.0000000000
40
1.0000000000
40
1.0000000000
40
1.0000000000
10
-17.1122153573
20
20.9248199293
30
0.0000000000
10
-17.1107471983
20
20.9254220925
30
0.0000000000
10
-17.0566790554
20
20.9471531817
30
0.0000000000
10
-16.9328499710
20
20.9628154470
30
0.0000000000
10
-16.8164020503
20
20.9263758009
30
0.0000000000
10
-16.7602117671
20
20.8991379985
30
0.0000000000
11
-17.1122153573
21
20.9248199293
31
0.0000000000
11
-17.1077984138
21
20.9265950971
31
0.0000000000
11
-16.9404090620
21
20.9503449031
31
0.0000000000
11
-16.7602117671
21
20.8991379985
31
0.0000000000
0
SPLINE
5
350
100
AcDbEntity
8
0
100
AcDbSpline
62
0
6
CONTINUOUS
70
0
71
3
72
19
73
15
74
13
42
0.0000001000
43
0.0000001000
44
0.0000000001
12
1.6172677559
22
-1.1865208274
32
0.0000000000
13
0.8565828929
23
-1.8136045190
33
0.0000000000
40
0.0000000000
40
0.0000000000
40
0.0000000000
40
0.0000000000
40
0.0078429039
40
0.0924000755
40
0.1786103034
40
0.2662505166
40
0.3551580443
40
0.4452660251
40
0.5362730523
40
0.6281709941
40
0.7206347890
40
0.8135740258
40
0.9067584276
40
1.0000000000
40
1.0000000000
40
1.0000000000
40
1.0000000000
10
19.0418948207
20
19.9498011614
30
0.0000000000
10
19.0461228459
20
19.9466992385
30
0.0000000000
10
19.0958409422
20
19.9100267200
30
0.0000000000
10
19.1898099156
20
19.8362647012
30
0.0000000000
10
19.3200702531
20
19.7226828203
30
0.0000000000
10
19.4466763876
20
19.6008166754
30
0.0000000000
10
19.5691874351
20
19.4712306480
30
0.0000000000
10
19.6871625610
20
19.3345194967
30
0.0000000000
10
19.8002610130
20
19.1911957158
30
0.0000000000
10
19.9080581212
20
19.0418989753
30
0.0000000000
10
20.0102368901
20
18.8871541459
30
0.0000000000
10
20.1064178006
20
18.7276080119
30
0.0000000000
10
20.1962882143
20
18.5638314048
30
0.0000000000
10
20.2517967368
20
18.4522068337
30
0.0000000000
10
20.2784197821
20
18.3958390546
30
0.0000000000
11
19.0418948207
21
19.9498011614
31
0.0000000000
11
19.0545550108
21
19.9404630128
31
0.0000000000
11
19.1880181313
21
19.8358349914
31
0.0000000000
11
19.3183980832
21
19.7222746296
31
0.0000000000
11
19.4450912138
21
19.6004398738
31
0.0000000000
11
19.5676412170
21
19.4709164422
31
0.0000000000
11
19.6857544401
21
19.3341374599
31
0.0000000000
11
19.7988597038
21
19.1908845908
31
0.0000000000
11
19.9067835544
21
19.0414788355
31
0.0000000000
11
20.0089904383
21
18.8867435524
31
0.0000000000
11
20.1052402456
21
18.7271196423
31
0.0000000000
11
20.1951545581
21
18.5632819844
31
0.0000000000
11
20.2784197821
21
18.3958390546
31
0.0000000000
0
SPLINE
5
351
100
AcDbEntity
8
0
100
AcDbSpline
62
0
6
CONTINUOUS
70
0
71
3
72
9
73
5
74
3
42
0.0000001000
43
0.0000001000
44
0.0000000001
12
-0.1511735073
22
-0.1342826118
32
0.0000000000
13
-0.1697292690
23
-0.1097794581
33
0.0000000000
40
0.0000000000
40
0.0000000000
40
0.0000000000
40
0.0000000000
40
0.4026586004
40
1.0000000000
40
1.0000000000
40
1.0000000000
40
1.0000000000
10
20.1177405665
20
15.1838480365
30
0.0000000000
10
20.0974501288
20
15.1658246869
30
0.0000000000
10
20.0457190185
20
15.1225708124
30
0.0000000000
10
19.9908059076
20
15.0833329748
30
0.0000000000
10
19.9570104679
20
15.0614743697
30
0.0000000000
11
20.1177405665
21
15.1838480365
31
0.0000000000
11
20.0552742656
21
15.1316427337
31
0.0000000000
11
19.9570104679
21
15.0614743697
31
0.0000000000
0
SPLINE
5
352
100
AcDbEntity
8
0
100
AcDbSpline
62
0
6
CONTINUOUS
70
0
71
3
72
40
73
36
74
34
42
0.0000001000
43
0.0000001000
44
0.0000000001
12
-5.2243025041
22
-2.4902207229
32
0.0000000000
13
-3.3121175300
23
4.7483933968
33
0.0000000000
40
0.0000000000
40
0.0000000000
40
0.0000000000
40
0.0000000000
40
0.0279204866
40
0.0568474894
40
0.0867156089
40
0.1174777987
40
0.1490418359
40
0.1813558040
40
0.2143042128
40
0.2478334414
40
0.2818164837
40
0.3161985060
40
0.3508464057
40
0.3857004909
40
0.4206257438
40
0.4555534354
40
0.4903540860
40
0.5249482766
40
0.5592219786
40
0.5930851857
40
0.6264466540
40
0.6592073031
40
0.6912996442
40
0.7226212164
40
0.7531246451
40
0.7827123738
40
0.8113555079
40
0.8389707853
40
0.8655486715
40
0.8910302433
40
0.9154280866
40
0.9387189954
40
0.9609423074
40
0.9821222099
40
1.0000000000
40
1.0000000000
40
1.0000000000
40
1.0000000000
10
13.6106216277
20
21.0355955045
30
0.0000000000
10
13.5619999384
20
21.0124194464
30
0.0000000000
10
13.4618185509
20
20.9676847934
30
0.0000000000
10
13.3060898491
20
20.9064445591
30
0.0000000000
10
13.1427251582
20
20.8500677979
30
0.0000000000
10
12.9723763545
20
20.7987841770
30
0.0000000000
10
12.7956511110
20
20.7527745310
30
0.0000000000
10
12.6132719603
20
20.7122321203
30
0.0000000000
10
12.4258806738
20
20.6772971533
30
0.0000000000
10
12.2342522549
20
20.6481125294
30
0.0000000000
10
12.0390395498
20
20.6247792716
30
0.0000000000
10
11.8410424473
20
20.6073897227
30
0.0000000000
10
11.6409272324
20
20.5960039857
30
0.0000000000
10
11.4395114640
20
20.5906705717
30
0.0000000000
10
11.2374869328
20
20.5914069237
30
0.0000000000
10
11.0356787999
20
20.5982136575
30
0.0000000000
10
10.8348051316
20
20.6110670684
30
0.0000000000
10
10.6356715906
20
20.6299141090
30
0.0000000000
10
10.4390099993
20
20.6546877837
30
0.0000000000
10
10.2455768388
20
20.6852897230
30
0.0000000000
10
10.0561037320
20
20.7216030862
30
0.0000000000
10
9.8712851091
20
20.7634962684
30
0.0000000000
10
9.6918415551
20
20.8108019363
30
0.0000000000
10
9.5184063313
20
20.8633555433
30
0.0000000000
10
9.3516781115
20
20.9209463984
30
0.0000000000
10
9.1922318389
20
20.9833735200
30
0.0000000000
10
9.0407247807
20
21.0503852682
30
0.0000000000
10
8.8976735883
20
21.1217515151
30
0.0000000000
10
8.7636695187
20
21.1971783235
30
0.0000000000
10
8.6391703338
20
21.2764153769
30
0.0000000000
10
8.5246829155
20
21.3591375383
30
0.0000000000
10
8.4206012014
20
21.4450720364
30
0.0000000000
10
8.3273438827
20
21.5338841689
30
0.0000000000
10
8.2482496285
20
21.6219249667
30
0.0000000000
10
8.2025389690
20
21.6819314459
30
0.0000000000
10
8.1828011884
20
21.7102283727
30
0.0000000000
11
13.6106216277
21
21.0355955045
31
0.0000000000
11
13.4631319415
21
20.9695835545
31
0.0000000000
11
13.3073774751
21
20.9082009929
31
0.0000000000
11
13.1440091334
21
20.8517083970
31
0.0000000000
11
12.9735599852
21
20.8002945866
31
0.0000000000
11
12.7967983500
21
20.7541909724
31
0.0000000000
11
12.6142547185
21
20.7135391945
31
0.0000000000
11
12.4268082689
21
20.6785332277
31
0.0000000000
11
12.2349790465
21
20.6492686787
31
0.0000000000
11
12.0396987829
21
20.6258873096
31
0.0000000000
11
11.8414803021
21
20.6084485448
31
0.0000000000
11
11.6412823839
21
20.5970375027
31
0.0000000000
11
11.4396372394
21
20.5916857810
31
0.0000000000
11
11.2375105426
21
20.5924198452
31
0.0000000000
11
11.0354834731
21
20.5992396042
31
0.0000000000
11
10.8344885432
21
20.6121150691
31
0.0000000000
11
10.6351695197
21
20.6310037293
31
0.0000000000
11
10.4383717098
21
20.6558272331
31
0.0000000000
11
10.2448042957
21
20.6864932222
31
0.0000000000
11
10.0551877453
21
20.7228878088
31
0.0000000000
11
9.8702918741
21
20.7648624046
31
0.0000000000
11
9.6907141652
21
20.8122805864
31
0.0000000000
11
9.5172568531
21
20.8649310373
31
0.0000000000
11
9.3504261897
21
20.9226616842
31
0.0000000000
11
9.1910160096
21
20.9851967911
31
0.0000000000
11
9.0394642282
21
21.0523678453
31
0.0000000000
11
8.8965156959
21
21.1238434977
31
0.0000000000
11
8.7625521114
21
21.1994329384
31
0.0000000000
11
8.6382345945
21
21.2787645772
31
0.0000000000
11
8.5238985461
21
21.3616201733
31
0.0000000000
11
8.4200900671
21
21.4476054115
31
0.0000000000
11
8.3271092849
21
21.5364688347
31
0.0000000000
11
8.2453698428
21
21.6278138925
31
0.0000000000
11
8.1828011884
21
21.7102283727
31
0.0000000000
0
SPLINE
5
353
100
AcDbEntity
8
0
100
AcDbSpline
62
0
6
CONTINUOUS
70
0
71
3
72
33
73
29
74
27
42
0.0000001000
43
0.0000001000
44
0.0000000001
12
2.3714381248
22
-3.4327958754
32
0.0000000000
13
-3.1201043306
23
-2.7714893060
33
0.0000000000
40
0.0000000000
40
0.0000000000
40
0.0000000000
40
0.0000000000
40
0.0444499364
40
0.0891284311
40
0.1339247835
40
0.1787486194
40
0.2235166216
40
0.2681338529
40
0.3124993443
40
0.3565652247
40
0.4001669424
40
0.4433191848
40
0.4858561696
40
0.5277723434
40
0.5689621302
40
0.6093514265
40
0.6489438631
40
0.6875460651
40
0.7252901254
40
0.7619095030
40
0.7975675100
40
0.8321216762
40
0.8656028954
40
0.8981248889
40
0.9295501205
40
0.9602259676
40
0.9901596150
40
1.0000000000
40
1.0000000000
40
1.0000000000
40
1.0000000000
10
19.9067835544
20
19.0414788355
30
0.0000000000
10
19.9419203124
20
18.9906163160
30
0.0000000000
10
20.0102368901
20
18.8871541459
30
0.0000000000
10
20.1064178006
20
18.7276080119
30
0.0000000000
10
20.1962882143
20
18.5638314048
30
0.0000000000
10
20.2795249275
20
18.3964469747
30
0.0000000000
10
20.3558299303
20
18.2260636913
30
0.0000000000
10
20.4249128164
20
18.0533119995
30
0.0000000000
10
20.4865153738
20
17.8787875972
30
0.0000000000
10
20.5403577639
20
17.7031899052
30
0.0000000000
10
20.5862252080
20
17.5270832180
30
0.0000000000
10
20.6238709759
20
17.3512084185
30
0.0000000000
10
20.6531106380
20
17.1761149976
30
0.0000000000
10
20.6737438548
20
17.0025437278
30
0.0000000000
10
20.6856061242
20
16.8311419769
30
0.0000000000
10
20.6885580532
20
16.6625817196
30
0.0000000000
10
20.6824877675
20
16.4976985401
30
0.0000000000
10
20.6673280498
20
16.3370888434
30
0.0000000000
10
20.6430993518
20
16.1817688032
30
0.0000000000
10
20.6098435295
20
16.0323114900
30
0.0000000000
10
20.5677754871
20
15.8897000193
30
0.0000000000
10
20.5171167100
20
15.7545504456
30
0.0000000000
10
20.4582378113
20
15.6275558781
30
0.0000000000
10
20.3916297166
20
15.5093995958
30
0.0000000000
10
20.3177034081
20
15.4003546047
30
0.0000000000
10
20.2370142834
20
15.3007988788
30
0.0000000000
10
20.1687864721
20
15.2303072966
30
0.0000000000
10
20.1279749090
20
15.1929388770
30
0.0000000000
10
20.1177405665
20
15.1838480365
30
0.0000000000
11
19.9067835544
21
19.0414788355
31
0.0000000000
11
20.0089904383
21
18.8867435524
31
0.0000000000
11
20.1052402456
21
18.7271196423
31
0.0000000000
11
20.1951545581
21
18.5632819844
31
0.0000000000
11
20.2784197821
21
18.3958390546
31
0.0000000000
11
20.3547486330
21
18.2253776996
31
0.0000000000
11
20.4238460245
21
18.0525362924
31
0.0000000000
11
20.4854251649
21
17.8779890936
31
0.0000000000
11
20.5392805482
21
17.7022132127
31
0.0000000000
11
20.5850801478
21
17.5261686049
31
0.0000000000
11
20.6227021512
21
17.3501140805
31
0.0000000000
11
20.6518619866
21
17.1750635363
31
0.0000000000
11
20.6724220143
21
17.0014037359
31
0.0000000000
11
20.6841920195
21
16.8299651083
31
0.0000000000
11
20.6870365320
21
16.6614865504
31
0.0000000000
11
20.6808420142
21
16.4964246439
31
0.0000000000
11
20.6655817494
21
16.3361023991
31
0.0000000000
11
20.6411763321
21
16.1805384184
31
0.0000000000
11
20.6078550874
21
16.0314418807
31
0.0000000000
11
20.5656246944
21
15.8887980363
31
0.0000000000
11
20.5148905472
21
15.7538619110
31
0.0000000000
11
20.4560094231
21
15.6271963298
31
0.0000000000
11
20.3892654472
21
15.5090674319
31
0.0000000000
11
20.3156000159
21
15.4006152148
31
0.0000000000
11
20.2349393383
21
15.3012555876
31
0.0000000000
11
20.1480287671
21
15.2115780043
31
0.0000000000
11
20.1177405665
21
15.1838480365
31
0.0000000000
0
SPLINE
5
354
100
AcDbEntity
8
0
100
AcDbSpline
62
0
6
CONTINUOUS
70
0
71
3
72
9
73
5
74
3
42
0.0000001000
43
0.0000001000
44
0.0000000001
12
-0.1511735073
22
-0.1342826118
32
0.0000000000
13
-0.1697292690
23
-0.1097794581
33
0.0000000000
40
0.0000000000
40
0.0000000000
40
0.0000000000
40
0.0000000000
40
0.4026586004
40
1.0000000000
40
1.0000000000
40
1.0000000000
40
1.0000000000
10
20.1177405665
20
15.1838480365
30
0.0000000000
10
20.0974501288
20
15.1658246869
30
0.0000000000
10
20.0457190185
20
15.1225708124
30
0.0000000000
10
19.9908059076
20
15.0833329748
30
0.0000000000
10
19.9570104679
20
15.0614743697
30
0.0000000000
11
20.1177405665
21
15.1838480365
31
0.0000000000
11
20.0552742656
21
15.1316427337
31
0.0000000000
11
19.9570104679
21
15.0614743697
31
0.0000000000
0
SPLINE
5
355
100
AcDbEntity
8
0
100
AcDbSpline
62
0
6
CONTINUOUS
70
0
71
3
72
18
73
14
74
12
42
0.0000001000
43
0.0000001000
44
0.0000000001
12
0.8134822567
22
0.3756930640
32
0.0000000000
13
0.8016850218
23
-0.4008397784
33
0.0000000000
40
0.0000000000
40
0.0000000000
40
0.0000000000
40
0.0000000000
40
0.0893849138
40
0.1790408614
40
0.2685268285
40
0.3627312415
40
0.4548475124
40
0.5475230269
40
0.6418820557
40
0.7327666972
40
0.8282674027
40
0.9200880842
40
1.0000000000
40
1.0000000000
40
1.0000000000
40
1.0000000000
10
11.0460418528
20
25.6239877660
30
0.0000000000
10
11.0702795333
20
25.6351815301
30
0.0000000000
10
11.1197496162
20
25.6556670671
30
0.0000000000
10
11.1961515132
20
25.6803388582
30
0.0000000000
10
11.2756916452
20
25.6991373019
30
0.0000000000
10
11.3572459521
20
25.7114426171
30
0.0000000000
10
11.4404882944
20
25.7169658349
30
0.0000000000
10
11.5239498094
20
25.7155837878
30
0.0000000000
10
11.6066411324
20
25.7072551226
30
0.0000000000
10
11.6891776971
20
25.6919462071
30
0.0000000000
10
11.7694299451
20
25.6700011178
30
0.0000000000
10
11.8444679334
20
25.6425355709
30
0.0000000000
10
11.8911820984
20
25.6212332896
30
0.0000000000
10
11.9125368270
20
25.6105559980
30
0.0000000000
11
11.0460418528
21
25.6239877660
31
0.0000000000
11
11.1200413783
21
25.6546302168
31
0.0000000000
11
11.1964899307
21
25.6793176625
31
0.0000000000
11
11.2745238408
21
25.6977597674
31
0.0000000000
11
11.3579905727
21
25.7103536507
31
0.0000000000
11
11.4403499007
21
25.7158183827
31
0.0000000000
11
11.5233800511
21
25.7144433235
31
0.0000000000
11
11.6075044835
21
25.7059704545
31
0.0000000000
11
11.6875756057
21
25.6911187603
31
0.0000000000
11
11.7701181752
21
25.6685473420
31
0.0000000000
11
11.8473808726
21
25.6402675906
31
0.0000000000
11
11.9125368270
21
25.6105559980
31
0.0000000000
0
SPLINE
5
356
100
AcDbEntity
8
0
100
AcDbSpline
62
0
6
CONTINUOUS
70
0
71
3
72
16
73
12
74
10
42
0.0000001000
43
0.0000001000
44
0.0000000001
12
0.4197982688
22
0.8834101061
32
0.0000000000
13
0.8738172931
23
0.4383203943
33
0.0000000000
40
0.0000000000
40
0.0000000000
40
0.0000000000
40
0.0000000000
40
0.0535906162
40
0.1535483077
40
0.2580847487
40
0.3677339069
40
0.4827905099
40
0.6035090196
40
0.7299548436
40
0.8621532963
40
1.0000000000
40
1.0000000000
40
1.0000000000
40
1.0000000000
10
8.6240066861
20
21.2886161906
30
0.0000000000
10
8.6315057687
20
21.3043970212
30
0.0000000000
10
8.6543961487
20
21.3489467282
30
0.0000000000
10
8.6990055643
20
21.4204124722
30
0.0000000000
10
8.7614935591
20
21.5016811578
30
0.0000000000
10
8.8342560288
20
21.5806983185
30
0.0000000000
10
8.9169986344
20
21.6571736039
30
0.0000000000
10
9.0093733813
20
21.7308046071
30
0.0000000000
10
9.1110159653
20
21.8013131496
30
0.0000000000
10
9.2215068733
20
21.8684168439
30
0.0000000000
10
9.2991890706
20
21.9098622905
30
0.0000000000
10
9.3393400151
20
21.9300026310
30
0.0000000000
11
8.6240066861
21
21.2886161906
31
0.0000000000
11
8.6479285535
21
21.3352466343
31
0.0000000000
11
8.6994877966
21
21.4182549096
31
0.0000000000
11
8.7616033104
21
21.4994042964
31
0.0000000000
11
8.8340529308
21
21.5784052520
31
0.0000000000
11
8.9165117724
21
21.6549027756
31
0.0000000000
11
9.0086737616
21
21.7286135187
31
0.0000000000
11
9.1101387104
21
21.7992167840
31
0.0000000000
11
9.2205147837
21
21.8664404620
31
0.0000000000
11
9.3393400151
21
21.9300026310
31
0.0000000000
0
SPLINE
5
357
100
AcDbEntity
8
0
100
AcDbSpline
62
0
6
CONTINUOUS
70
0
71
3
72
9
73
5
74
3
42
0.0000001000
43
0.0000001000
44
0.0000000001
12
0.0000050574
22
-0.0740330313
32
0.0000000000
13
0.0080667113
23
-0.0735905075
33
0.0000000000
40
0.0000000000
40
0.0000000000
40
0.0000000000
40
0.0000000000
40
0.9645806996
40
1.0000000000
40
1.0000000000
40
1.0000000000
40
1.0000000000
10
8.5507793151
20
21.4120498593
30
0.0000000000
10
8.5507809412
20
21.3882462482
30
0.0000000000
10
8.5520894627
20
21.3635681849
30
0.0000000000
10
8.5547312420
20
21.3390328012
30
0.0000000000
10
8.5548264811
20
21.3381639597
30
0.0000000000
11
8.5507793151
21
21.4120498593
31
0.0000000000
11
8.5545457746
21
21.3407710324
31
0.0000000000
11
8.5548264811
21
21.3381639597
31
0.0000000000
0
SPLINE
5
358
100
AcDbEntity
8
0
100
AcDbSpline
62
0
6
CONTINUOUS
70
0
71
3
72
17
73
13
74
11
42
0.0000001000
43
0.0000001000
44
0.0000000001
12
0.7003168147
22
-0.3500425636
32
0.0000000000
13
0.3398333150
23
-0.7050833423
33
0.0000000000
40
0.0000000000
40
0.0000000000
40
0.0000000000
40
0.0000000000
40
0.0545997533
40
0.1441935784
40
0.2378162820
40
0.3355532605
40
0.4373907563
40
0.5432086946
40
0.6527766974
40
0.7657557470
40
0.8817036838
40
1.0000000000
40
1.0000000000
40
1.0000000000
40
1.0000000000
10
13.0387349003
20
25.0474570705
30
0.0000000000
10
13.0514806087
20
25.0410863246
30
0.0000000000
10
13.0846909086
20
25.0233603211
30
0.0000000000
10
13.1374146729
20
24.9905266026
30
0.0000000000
10
13.1965147481
20
24.9470469345
30
0.0000000000
10
13.2546749334
20
24.8972560806
30
0.0000000000
10
13.3114486051
20
24.8412621515
30
0.0000000000
10
13.3663611789
20
24.7792578381
30
0.0000000000
10
13.4189196655
20
24.7115300631
30
0.0000000000
10
13.4686251638
20
24.6384636116
30
0.0000000000
10
13.5149752875
20
24.5605675160
30
0.0000000000
10
13.5430911429
20
24.5062579982
30
0.0000000000
10
13.5564914860
20
24.4784550775
30
0.0000000000
11
13.0387349003
21
25.0474570705
31
0.0000000000
11
13.0764529914
21
25.0273493779
31
0.0000000000
11
13.1360244620
21
24.9903514419
31
0.0000000000
11
13.1951000911
21
24.9469936971
31
0.0000000000
11
13.2532650733
21
24.8973048081
31
0.0000000000
11
13.3100693468
21
24.8413872283
31
0.0000000000
11
13.3650339730
21
24.7794294509
31
0.0000000000
11
13.4176606246
21
24.7117157942
31
0.0000000000
11
13.4674445875
21
24.6386314668
31
0.0000000000
11
13.5138893007
21
24.5606633382
31
0.0000000000
11
13.5564914860
21
24.4784550775
31
0.0000000000
0
SPLINE
5
359
100
AcDbEntity
8
0
100
AcDbSpline
62
0
6
CONTINUOUS
70
0
71
3
72
12
73
8
74
6
42
0.0000001000
43
0.0000001000
44
0.0000000001
12
0.0794384856
22
-0.0397300228
32
0.0000000000
13
0.0445479325
23
-0.0768293223
33
0.0000000000
40
0.0000000000
40
0.0000000000
40
0.0000000000
40
0.0000000000
40
0.1689358061
40
0.4446982556
40
0.7179283992
40
0.9949015518
40
1.0000000000
40
1.0000000000
40
1.0000000000
40
1.0000000000
10
18.3730364414
20
22.3803054688
30
0.0000000000
10
18.3775097763
20
22.3780681943
30
0.0000000000
10
18.3890163244
20
22.3716427566
30
0.0000000000
10
18.4061552860
20
22.3589458845
30
0.0000000000
10
18.4231817767
20
22.3412727084
30
0.0000000000
10
18.4325414282
20
22.3276931805
30
0.0000000000
10
18.4367400298
20
22.3204751404
30
0.0000000000
10
18.4368157382
20
22.3203445703
30
0.0000000000
11
18.3730364414
21
22.3803054688
31
0.0000000000
11
18.3861236977
21
22.3729785882
31
0.0000000000
11
18.4057643447
21
22.3583869853
31
0.0000000000
11
18.4225945802
21
22.3409379605
31
0.0000000000
11
18.4365880686
21
22.3207359681
31
0.0000000000
11
18.4368157382
21
22.3203445703
31
0.0000000000
0
SPLINE
5
35A
100
AcDbEntity
8
0
100
AcDbSpline
62
0
6
CONTINUOUS
70
0
71
3
72
9
73
5
74
3
42
0.0000001000
43
0.0000001000
44
0.0000000001
12
0.0106959682
22
0.0091088848
32
0.0000000000
13
0.0125651438
23
0.0062858928
33
0.0000000000
40
0.0000000000
40
0.0000000000
40
0.0000000000
40
0.0000000000
40
0.2054428923
40
1.0000000000
40
1.0000000000
40
1.0000000000
40
1.0000000000
10
-2.6198117513
20
22.8213114103
30
0.0000000000
10
-2.6190792811
20
22.8219351955
30
0.0000000000
10
-2.6154395241
20
22.8248838693
30
0.0000000000
10
-2.6114499731
20
22.8273799231
30
0.0000000000
10
-2.6081220650
20
22.8290447567
30
0.0000000000
11
-2.6198117513
21
22.8213114103
31
0.0000000000
11
-2.6175689930
21
22.8231276600
31
0.0000000000
11
-2.6081220650
21
22.8290447567
31
0.0000000000
0
SPLINE
5
35B
100
AcDbEntity
8
0
100
AcDbSpline
62
0
6
CONTINUOUS
70
0
71
3
72
8
73
4
74
2
42
0.0000001000
43
0.0000001000
44
0.0000000001
12
-0.0050308648
22
0.0025152164
32
0.0000000000
13
-0.0052241425
23
0.0020832623
33
0.0000000000
40
0.0000000000
40
0.0000000000
40
0.0000000000
40
0.0000000000
40
1.0000000000
40
1.0000000000
40
1.0000000000
40
1.0000000000
10
-1.3039128454
20
22.8982989406
30
0.0000000000
10
-1.3055898004
20
22.8991373461
30
0.0000000000
10
-1.3073018842
20
22.8999054834
30
0.0000000000
10
-1.3090432650
20
22.9005999042
30
0.0000000000
11
-1.3039128454
21
22.8982989406
31
0.0000000000
11
-1.3090432650
21
22.9005999042
31
0.0000000000
0
SPLINE
5
35C
100
AcDbEntity
8
0
100
AcDbSpline
62
0
6
CONTINUOUS
70
0
71
3
72
9
73
5
74
3
42
0.0000001000
43
0.0000001000
44
0.0000000001
12
0.0795225061
22
0.0420674689
32
0.0000000000
13
0.0728595284
23
0.0528107048
33
0.0000000000
40
0.0000000000
40
0.0000000000
40
0.0000000000
40
0.0000000000
40
0.5842404426
40
1.0000000000
40
1.0000000000
40
1.0000000000
40
1.0000000000
10
18.0041254302
20
-11.3091590311
30
0.0000000000
10
18.0196121849
20
-11.3009665255
30
0.0000000000
10
18.0455315059
20
-11.2858017453
30
0.0000000000
10
18.0703086321
20
-11.2688745544
30
0.0000000000
10
18.0804059806
20
-11.2615557027
30
0.0000000000
11
18.0041254302
21
-11.3091590311
31
0.0000000000
11
18.0495085428
21
-11.2826451939
31
0.0000000000
11
18.0804059806
21
-11.2615557027
31
0.0000000000
0
SPLINE
5
35D
100
AcDbEntity
8
0
100
AcDbSpline
62
0
6
CONTINUOUS
70
0
71
3
72
30
73
26
74
24
42
0.0000001000
43
0.0000001000
44
0.0000000001
12
3.3990611785
22
1.6753110641
32
0.0000000000
13
3.5076353199
23
-1.4341473144
33
0.0000000000
40
0.0000000000
40
0.0000000000
40
0.0000000000
40
0.0000000000
40
0.0373740152
40
0.0761101878
40
0.1161194463
40
0.1573317361
40
0.1996195059
40
0.2429054545
40
0.2870323720
40
0.3319183389
40
0.3773849130
40
0.4233468943
40
0.4696128107
40
0.5160948086
40
0.5625964149
40
0.6090274722
40
0.6551943534
40
0.7010050072
40
0.7462763135
40
0.7909151132
40
0.8347562339
40
0.8777069410
40
0.9196272232
40
0.9604275051
40
1.0000000000
40
1.0000000000
40
1.0000000000
40
1.0000000000
10
10.0220502130
20
21.8394480214
30
0.0000000000
10
10.0643957344
20
21.8603190551
30
0.0000000000
10
10.1517462195
20
21.9005885211
30
0.0000000000
10
10.2877488138
20
21.9556499568
30
0.0000000000
10
10.4306192248
20
22.0062719664
30
0.0000000000
10
10.5797504832
20
22.0522390647
30
0.0000000000
10
10.7345695826
20
22.0933751644
30
0.0000000000
10
10.8944076146
20
22.1295022067
30
0.0000000000
10
11.0586610494
20
22.1604838366
30
0.0000000000
10
11.2266087508
20
22.1861837056
30
0.0000000000
10
11.3976248251
20
22.2065059954
30
0.0000000000
10
11.5709509834
20
22.2213603545
30
0.0000000000
10
11.7459458361
20
22.2306917745
30
0.0000000000
10
11.9218302946
20
22.2344586065
30
0.0000000000
10
12.0979542335
20
22.2326469219
30
0.0000000000
10
12.2735345556
20
22.2252648253
30
0.0000000000
10
12.4479192914
20
22.2123397678
30
0.0000000000
10
12.6203380418
20
22.1939290485
30
0.0000000000
10
12.7901441811
20
22.1701017911
30
0.0000000000
10
12.9565961259
20
22.1409623772
30
0.0000000000
10
13.1190602821
20
22.1066217962
30
0.0000000000
10
13.2768386709
20
22.0672279971
30
0.0000000000
10
13.4293199052
20
22.0229334804
30
0.0000000000
10
13.5758596091
20
21.9739260800
30
0.0000000000
10
13.6707267284
20
21.9376597498
30
0.0000000000
10
13.7169953554
20
21.9187421540
30
0.0000000000
11
10.0220502130
21
21.8394480214
31
0.0000000000
11
10.1506150146
21
21.8988599802
31
0.0000000000
11
10.2866345728
21
21.9540519880
31
0.0000000000
11
10.4295104723
21
22.0047823486
31
0.0000000000
11
10.5787296708
21
22.0508680940
31
0.0000000000
11
10.7335859130
21
22.0920918836
31
0.0000000000
11
10.8935678433
21
22.1283170605
31
0.0000000000
11
11.0578792074
21
22.1593638502
31
0.0000000000
11
11.2260106871
21
22.1851356990
31
0.0000000000
11
11.3970983507
21
22.2055004956
31
0.0000000000
11
11.5706328823
21
22.2203974707
31
0.0000000000
11
11.7457078397
21
22.2297489527
31
0.0000000000
11
11.9218106766
21
22.2335275659
31
0.0000000000
11
12.0980190150
21
22.2317135064
31
0.0000000000
11
12.2738136127
21
22.2243122536
31
0.0000000000
11
12.4482828853
21
22.2113620276
31
0.0000000000
11
12.6208979545
21
22.1929023494
31
0.0000000000
11
12.7907838527
21
22.1690264807
31
0.0000000000
11
12.9574003733
21
22.1398107437
31
0.0000000000
11
13.1199329090
21
22.1053975090
31
0.0000000000
11
13.2778303089
21
22.0659040255
31
0.0000000000
11
13.4303587504
21
22.0215131910
31
0.0000000000
11
13.5769595092
21
21.9723883397
31
0.0000000000
11
13.7169953554
21
21.9187421540
31
0.0000000000
0
SPLINE
5
35E
100
AcDbEntity
8
0
100
AcDbSpline
62
0
6
CONTINUOUS
70
0
71
3
72
11
73
7
74
5
42
0.0000001000
43
0.0000001000
44
0.0000000001
12
0.3868170606
22
-0.2365882163
32
0.0000000000
13
0.3128980793
23
-0.3283324313
33
0.0000000000
40
0.0000000000
40
0.0000000000
40
0.0000000000
40
0.0000000000
40
0.2819750518
40
0.5514714364
40
0.8084978246
40
1.0000000000
40
1.0000000000
40
1.0000000000
40
1.0000000000
10
14.1092532897
20
21.7226131868
30
0.0000000000
10
14.1456108766
20
21.7003758620
30
0.0000000000
10
14.2155133348
20
21.6548678616
30
0.0000000000
10
14.3135968263
20
21.5818391913
30
0.0000000000
10
14.3960392659
20
21.5111164242
30
0.0000000000
10
14.4444169753
20
21.4635512676
30
0.0000000000
10
14.4643905296
20
21.4425924760
30
0.0000000000
11
14.1092532897
21
21.7226131868
31
0.0000000000
11
14.2163106779
21
21.6527127553
31
0.0000000000
11
14.3142133894
21
21.5795858714
31
0.0000000000
11
14.4025375803
21
21.5035503898
31
0.0000000000
11
14.4643905296
21
21.4425924760
31
0.0000000000
0
SPLINE
5
35F
100
AcDbEntity
8
0
100
AcDbSpline
62
0
6
CONTINUOUS
70
0
71
3
72
9
73
5
74
3
42
0.0000001000
43
0.0000001000
44
0.0000000001
12
0.0108509531
22
-0.1030476488
32
0.0000000000
13
0.0000000000
23
-0.1036173784
33
0.0000000000
40
0.0000000000
40
0.0000000000
40
0.0000000000
40
0.0000000000
40
0.4930413809
40
1.0000000000
40
1.0000000000
40
1.0000000000
40
1.0000000000
10
13.5564929675
20
24.4784558206
30
0.0000000000
10
13.5582762904
20
24.4615202356
30
0.0000000000
10
13.5609296955
20
24.4270640486
30
0.0000000000
10
13.5617767796
20
24.3925187789
30
0.0000000000
10
13.5617767796
20
24.3750088712
30
0.0000000000
11
13.5564929675
21
24.4784558206
31
0.0000000000
11
13.5604536692
21
24.4275219285
31
0.0000000000
11
13.5617767796
21
24.3750088712
31
0.0000000000
0
SPLINE
5
360
100
AcDbEntity
8
0
100
AcDbSpline
62
0
6
CONTINUOUS
70
0
71
3
72
17
73
13
74
11
42
0.0000001000
43
0.0000001000
44
0.0000000001
12
0.3283947062
22
0.1565329155
32
0.0000000000
13
0.3262199160
23
-0.1629571567
33
0.0000000000
40
0.0000000000
40
0.0000000000
40
0.0000000000
40
0.0000000000
40
0.1451572016
40
0.2812700165
40
0.4081468558
40
0.5256236273
40
0.6335921479
40
0.7320650244
40
0.8212601377
40
0.9017516855
40
0.9746889252
40
1.0000000000
40
1.0000000000
40
1.0000000000
40
1.0000000000
10
17.1800471956
20
22.7370011009
30
0.0000000000
10
17.1959368144
20
22.7445750609
30
0.0000000000
10
17.2269943745
20
22.7586991539
30
0.0000000000
10
17.2728838641
20
22.7772833301
30
0.0000000000
10
17.3164551766
20
22.7925185353
30
0.0000000000
10
17.3575467117
20
22.8043149698
30
0.0000000000
10
17.3959860599
20
22.8125718152
30
0.0000000000
10
17.4315902440
20
22.8171756932
30
0.0000000000
10
17.4641702696
20
22.8179970148
30
0.0000000000
10
17.4935327750
20
22.8148781115
30
0.0000000000
10
17.5145259127
20
22.8089946644
30
0.0000000000
10
17.5254341714
20
22.8041043388
30
0.0000000000
10
17.5281864969
20
22.8027294652
30
0.0000000000
11
17.1800471956
21
22.7370011009
31
0.0000000000
11
17.2281439764
21
22.7588025546
31
0.0000000000
11
17.2740693223
21
22.7773171516
31
0.0000000000
11
17.3176706708
21
22.7924626804
31
0.0000000000
11
17.3587805050
21
22.8041441238
31
0.0000000000
11
17.3972124233
21
22.8122538342
31
0.0000000000
11
17.4327624934
21
22.8166737774
31
0.0000000000
11
17.4652054724
21
22.8172773700
31
0.0000000000
11
17.4942962560
21
22.8139338635
31
0.0000000000
11
17.5197718389
21
22.8065141321
31
0.0000000000
11
17.5281864969
21
22.8027294652
31
0.0000000000
0
SPLINE
5
361
100
AcDbEntity
8
0
100
AcDbSpline
62
9
6
CONTINUOUS
70
0
71
3
72
25
73
21
74
19
42
0.0000001000
43
0.0000001000
44
0.0000000001
12
0.9805003859
22
0.4902423243
32
0.0000000000
13
1.0206651721
23
-0.3999514344
33
0.0000000000
40
0.0000000000
40
0.0000000000
40
0.0000000000
40
0.0000000000
40
0.0486159936
40
0.0993722266
40
0.1520748349
40
0.2065079021
40
0.2624326998
40
0.3195922882
40
0.3777135757
40
0.4365142592
40
0.4957056498
40
0.5549977874
40
0.6141011718
40
0.6727315420
40
0.7306113606
40
0.7874746053
40
0.8430698023
40
0.8971631016
40
0.9495383397
40
1.0000000000
40
1.0000000000
40
1.0000000000
40
1.0000000000
10
-2.4571223055
20
22.8541430691
30
0.0000000000
10
-2.4412329720
20
22.8620876083
30
0.0000000000
10
-2.4082187781
20
22.8772713564
30
0.0000000000
10
-2.3564438283
20
22.8975278005
30
0.0000000000
10
-2.3016402770
20
22.9156478653
30
0.0000000000
10
-2.2441827194
20
22.9315104815
30
0.0000000000
10
-2.1844562885
20
22.9450141119
30
0.0000000000
10
-2.1228611177
20
22.9560735845
30
0.0000000000
10
-2.0598078494
20
22.9646212188
30
0.0000000000
10
-1.9957150489
20
22.9706068945
30
0.0000000000
10
-1.9310047722
20
22.9739982651
30
0.0000000000
10
-1.8660999820
20
22.9747805135
30
0.0000000000
10
-1.8014211436
20
22.9729560563
30
0.0000000000
10
-1.7373841305
20
22.9685441152
30
0.0000000000
10
-1.6743970971
20
22.9615801865
30
0.0000000000
10
-1.6128579956
20
22.9521153747
30
0.0000000000
10
-1.5531521442
20
22.9402155496
30
0.0000000000
10
-1.4956503336
20
22.9259604360
30
0.0000000000
10
-1.4407125077
20
22.9094443437
30
0.0000000000
10
-1.4053218247
20
22.8967457433
30
0.0000000000
10
-1.3881536717
20
22.8900183388
30
0.0000000000
11
-2.4571223055
21
22.8541430691
31
0.0000000000
11
-2.4087340910
21
22.8764782499
31
0.0000000000
11
-2.3569411868
21
22.8968094228
31
0.0000000000
11
-2.3021041728
21
22.9149960437
31
0.0000000000
11
-2.2445964298
21
22.9309177906
31
0.0000000000
11
-2.1848070851
21
22.9444717105
31
0.0000000000
11
-2.1231381742
21
22.9555722757
31
0.0000000000
11
-2.0600041236
21
22.9641511981
31
0.0000000000
11
-1.9958256075
21
22.9701582298
31
0.0000000000
11
-1.9310275545
21
22.9735609209
31
0.0000000000
11
-1.8660345033
21
22.9743445252
31
0.0000000000
11
-1.8012695781
21
22.9725115592
31
0.0000000000
11
-1.7371501152
21
22.9680813942
31
0.0000000000
11
-1.6740869488
21
22.9610898010
31
0.0000000000
11
-1.6124802016
21
22.9515882326
31
0.0000000000
11
-1.5527172234
21
22.9396429713
31
0.0000000000
11
-1.4951707918
21
22.9253342726
31
0.0000000000
11
-1.4402009025
21
22.9087564501
31
0.0000000000
11
-1.3881536717
21
22.8900183388
31
0.0000000000
0
SPLINE
5
362
100
AcDbEntity
8
0
100
AcDbSpline
62
0
6
CONTINUOUS
70
0
71
3
72
52
73
48
74
46
42
0.0000001000
43
0.0000001000
44
0.0000000001
12
2.8079647602
22
2.2944541183
32
0.0000000000
13
-3.5426695453
23
-0.7737430376
33
0.0000000000
40
0.0000000000
40
0.0000000000
40
0.0000000000
40
0.0000000000
40
0.0616877447
40
0.1178694397
40
0.1690302600
40
0.2155908534
40
0.2579355335
40
0.2964152117
40
0.3313499686
40
0.3630313891
40
0.3917246180
40
0.4176701669
40
0.4410854843
40
0.4621663231
40
0.4810880051
40
0.4980067579
40
0.5130614519
40
0.5263772839
40
0.5380675631
40
0.5482415401
40
0.5570798610
40
0.5648565381
40
0.5718436015
40
0.5782612832
40
0.5842930263
40
0.5901022584
40
0.5958471574
40
0.6016970290
40
0.6078482184
40
0.6145015076
40
0.6218227656
40
0.6299701600
40
0.6391293518
40
0.6495009580
40
0.6612908276
40
0.6747079660
40
0.6899655552
40
0.7072837821
40
0.7268932649
40
0.7490385071
40
0.7739811980
40
0.8020033478
40
0.8334103126
40
0.8685337997
40
0.9077348844
40
0.9514071882
40
1.0000000000
40
1.0000000000
40
1.0000000000
40
1.0000000000
10
18.8787231812
20
14.8594139924
30
0.0000000000
10
18.9364621856
20
14.9065938924
30
0.0000000000
10
19.0463375925
20
14.9972945023
30
0.0000000000
10
19.2024127986
20
15.1291488478
30
0.0000000000
10
19.3430215253
20
15.2509565262
30
0.0000000000
10
19.4694767113
20
15.3635355722
30
0.0000000000
10
19.5829540943
20
15.4676156162
30
0.0000000000
10
19.6845239015
20
15.5638621557
30
0.0000000000
10
19.7751590879
20
15.6528808968
30
0.0000000000
10
19.8557427224
20
15.7352212183
30
0.0000000000
10
19.9270748436
20
15.8113788386
30
0.0000000000
10
19.9898789074
20
15.8817975461
30
0.0000000000
10
20.0448081330
20
15.9468699075
30
0.0000000000
10
20.0924522166
20
16.0069369143
30
0.0000000000
10
20.1333451509
20
16.0622866982
30
0.0000000000
10
20.1679752378
20
16.1131528591
30
0.0000000000
10
20.1967993197
20
16.1597147669
30
0.0000000000
10
20.2202600774
20
16.2020988893
30
0.0000000000
10
20.2388094198
20
16.2403887702
30
0.0000000000
10
20.2529644509
20
16.2747205453
30
0.0000000000
10
20.2633324466
20
16.3054225353
30
0.0000000000
10
20.2705346372
20
16.3330532538
30
0.0000000000
10
20.2750811279
20
16.3582764420
30
0.0000000000
10
20.2773029232
20
16.3816946071
30
0.0000000000
10
20.2773568291
20
16.4037985086
30
0.0000000000
10
20.2752410525
20
16.4249901577
30
0.0000000000
10
20.2707934709
20
16.4456016203
30
0.0000000000
10
20.2636725821
20
16.4658995350
30
0.0000000000
10
20.2533474175
20
16.4860290047
30
0.0000000000
10
20.2391659111
20
16.5059041560
30
0.0000000000
10
20.2205058537
20
16.5251918898
30
0.0000000000
10
20.1968722136
20
16.5434489062
30
0.0000000000
10
20.1678524913
20
16.5602697906
30
0.0000000000
10
20.1330358030
20
16.5753264357
30
0.0000000000
10
20.0919818271
20
16.5883400418
30
0.0000000000
10
20.0442064774
20
16.5990540172
30
0.0000000000
10
19.9891733173
20
16.6072152926
30
0.0000000000
10
19.9262877553
20
16.6125618707
30
0.0000000000
10
19.8548914586
20
16.6148143926
30
0.0000000000
10
19.7742565439
20
16.6136699091
30
0.0000000000
10
19.6835794523
20
16.6087968424
30
0.0000000000
10
19.5819744412
20
16.5998305818
30
0.0000000000
10
19.4684665728
20
16.5863693822
30
0.0000000000
10
19.3419841948
20
16.5679703790
30
0.0000000000
10
19.2013504719
20
16.5441454759
30
0.0000000000
10
19.0452515817
20
16.5143529093
30
0.0000000000
10
18.9361058565
20
16.4914147223
30
0.0000000000
10
18.8787230983
20
16.4788819391
30
0.0000000000
11
18.8787231812
21
14.8594139924
31
0.0000000000
11
19.0511853901
21
15.0018724313
31
0.0000000000
11
19.2067625096
21
15.1334004681
31
0.0000000000
11
19.3469352811
21
15.2549268498
31
0.0000000000
11
19.4729902695
21
15.3672483226
31
0.0000000000
11
19.5860998781
21
15.4710926888
31
0.0000000000
11
19.6873313860
21
15.5671238936
31
0.0000000000
11
19.7776549853
21
15.6559462078
31
0.0000000000
11
19.8579512163
21
15.7381077326
31
0.0000000000
11
19.9290177905
21
15.8141030278
31
0.0000000000
11
19.9915760324
21
15.8843748117
31
0.0000000000
11
20.0462772201
21
15.9493146100
31
0.0000000000
11
20.0937092740
21
16.0092622673
31
0.0000000000
11
20.1344045594
21
16.0645044374
31
0.0000000000
11
20.1688498781
21
16.1152725195
31
0.0000000000
11
20.1975000606
21
16.1617413114
31
0.0000000000
11
20.2207982297
21
16.2040342850
31
0.0000000000
11
20.2391949407
21
16.2422254269
31
0.0000000000
11
20.2531772873
21
16.2763657795
31
0.0000000000
11
20.2633583968
21
16.3067550161
31
0.0000000000
11
20.2704048501
21
16.3340600880
31
0.0000000000
11
20.2748379318
21
16.3590056010
31
0.0000000000
11
20.2769786319
21
16.3821786060
31
0.0000000000
11
20.2769787535
21
16.4040507958
31
0.0000000000
11
20.2748383102
21
16.4250070934
31
0.0000000000
11
20.2704055161
21
16.4453620506
31
0.0000000000
11
20.2633594054
21
16.4653703133
31
0.0000000000
11
20.2531786931
21
16.4852167379
31
0.0000000000
11
20.2391967228
21
16.5048781148
31
0.0000000000
11
20.2208003305
21
16.5240191668
31
0.0000000000
11
20.1975024244
21
16.5421864727
31
0.0000000000
11
20.1688524153
21
16.5589874434
31
0.0000000000
11
20.1344071759
21
16.5740866565
31
0.0000000000
11
20.0937118732
21
16.5871879023
31
0.0000000000
11
20.0462797112
21
16.5980184704
31
0.0000000000
11
19.9915783341
21
16.6063137273
31
0.0000000000
11
19.9290198343
21
16.6118047056
31
0.0000000000
11
19.8579529504
21
16.6142085140
31
0.0000000000
11
19.7776563758
21
16.6132209204
31
0.0000000000
11
19.6873324186
21
16.6085104363
31
0.0000000000
11
19.5861005593
21
16.5997133435
31
0.0000000000
11
19.4729906292
21
16.5864292586
31
0.0000000000
11
19.3469353741
21
16.5682169371
31
0.0000000000
11
19.2067624195
21
16.5445901339
31
0.0000000000
11
19.0511852298
21
16.5150133315
31
0.0000000000
11
18.8787230983
21
16.4788819391
31
0.0000000000
0
SPLINE
5
363
100
AcDbEntity
8
0
100
AcDbSpline
62
9
6
CONTINUOUS
70
0
71
3
72
18
73
14
74
12
42
0.0000001000
43
0.0000001000
44
0.0000000001
12
0.3421819379
22
0.1701299167
32
0.0000000000
13
0.1978664154
23
-0.3095906505
33
0.0000000000
40
0.0000000000
40
0.0000000000
40
0.0000000000
40
0.0000000000
40
0.1612065774
40
0.3104715131
40
0.4468244645
40
0.5693897844
40
0.6773973839
40
0.7701972756
40
0.8472833076
40
0.9083419999
40
0.9533820448
40
0.9831967870
40
1.0000000000
40
1.0000000000
40
1.0000000000
40
1.0000000000
10
18.3470230062
20
21.7335511480
30
0.0000000000
10
18.3654103325
20
21.7426931685
30
0.0000000000
10
18.4009135243
20
21.7601187756
30
0.0000000000
10
18.4523110512
20
21.7845729511
30
0.0000000000
10
18.4995804329
20
21.8062352828
30
0.0000000000
10
18.5424052738
20
21.8249679796
30
0.0000000000
10
18.5805006203
20
21.8406427567
30
0.0000000000
10
18.6136099038
20
21.8531947142
30
0.0000000000
10
18.6415259911
20
21.8624768245
30
0.0000000000
10
18.6640559723
20
21.8686966478
30
0.0000000000
10
18.6811953109
20
21.8713281903
30
0.0000000000
10
18.6929157092
20
21.8718021254
30
0.0000000000
10
18.6987394040
20
21.8683717052
30
0.0000000000
10
18.6998476679
20
21.8666376660
30
0.0000000000
11
18.3470230062
21
21.7335511480
31
0.0000000000
11
18.4023356610
21
21.7606720441
31
0.0000000000
11
18.4538568200
21
21.7851502195
31
0.0000000000
11
18.5012423144
21
21.8068221568
31
0.0000000000
11
18.5441756025
21
21.8255430841
31
0.0000000000
11
18.5823698839
21
21.8411879432
31
0.0000000000
11
18.6155700154
21
21.8536522241
31
0.0000000000
11
18.6435542155
21
21.8628526638
31
0.0000000000
11
18.6661355456
21
21.8687278018
31
0.0000000000
11
18.6831631594
21
21.8712383916
31
0.0000000000
11
18.6945233100
21
21.8703676620
31
0.0000000000
11
18.6998476679
21
21.8666376660
31
0.0000000000
0
SPLINE
5
364
100
AcDbEntity
8
0
100
AcDbSpline
62
0
6
CONTINUOUS
70
0
71
3
72
18
73
14
74
12
42
0.0000001000
43
0.0000001000
44
0.0000000001
12
0.3459745596
22
0.1680568266
32
0.0000000000
13
0.3443637069
23
-0.1722285845
33
0.0000000000
40
0.0000000000
40
0.0000000000
40
0.0000000000
40
0.0000000000
40
0.1297946914
40
0.2520704309
40
0.3667499221
40
0.4738432021
40
0.5734632031
40
0.6658448809
40
0.7513682582
40
0.8305847233
40
0.9042435825
40
0.9733112212
40
1.0000000000
40
1.0000000000
40
1.0000000000
40
1.0000000000
10
18.0041254302
20
22.3249619836
30
0.0000000000
10
18.0190939839
20
22.3322329449
30
0.0000000000
10
18.0484688982
20
22.3457395342
30
0.0000000000
10
18.0921047481
20
22.3633103357
30
0.0000000000
10
18.1338701811
20
22.3775758031
30
0.0000000000
10
18.1736238289
20
22.3885256865
30
0.0000000000
10
18.2112376018
20
22.3961624036
30
0.0000000000
10
18.2465957945
20
22.4004991426
30
0.0000000000
10
18.2795954698
20
22.4015582924
30
0.0000000000
10
18.3101449994
20
22.3993690917
30
0.0000000000
10
18.3381604104
20
22.3939657262
30
0.0000000000
10
18.3588093554
20
22.3869922485
30
0.0000000000
10
18.3699728925
20
22.3818376590
30
0.0000000000
10
18.3730364414
20
22.3803054688
30
0.0000000000
11
18.0041254302
21
22.3249619836
31
0.0000000000
11
18.0495085428
21
22.3457632673
31
0.0000000000
11
18.0931608778
21
22.3632675424
31
0.0000000000
11
18.1349273621
21
22.3774519148
31
0.0000000000
11
18.1746628856
21
22.3883066284
31
0.0000000000
11
18.2122330016
21
22.3958351844
31
0.0000000000
11
18.2475145434
21
22.4000542949
31
0.0000000000
11
18.2803961242
21
22.4009936708
31
0.0000000000
11
18.3107784992
21
22.3986956517
31
0.0000000000
11
18.3385748033
21
22.3932146922
31
0.0000000000
11
18.3637105637
21
22.3846167517
31
0.0000000000
11
18.3730364414
21
22.3803054688
31
0.0000000000
0
SPLINE
5
365
100
AcDbEntity
8
0
100
AcDbSpline
62
9
6
CONTINUOUS
70
0
71
3
72
19
73
15
74
13
42
0.0000001000
43
0.0000001000
44
0.0000000001
12
0.0043621578
22
1.5071270313
32
0.0000000000
13
-0.7596320570
23
1.3016950699
33
0.0000000000
40
0.0000000000
40
0.0000000000
40
0.0000000000
40
0.0000000000
40
0.0762817009
40
0.1544246992
40
0.2342915930
40
0.3157231579
40
0.3985441601
40
0.4825648517
40
0.5675828668
40
0.6533860756
40
0.7397553920
40
0.8264664344
40
0.9132904740
40
1.0000000000
40
1.0000000000
40
1.0000000000
40
1.0000000000
10
18.7611734818
20
20.3019175734
30
0.0000000000
10
18.7612843994
20
20.3402396445
30
0.0000000000
10
18.7593933514
20
20.4178385913
30
0.0000000000
10
18.7505072343
20
20.5352518650
30
0.0000000000
10
18.7355749765
20
20.6546585607
30
0.0000000000
10
18.7146609254
20
20.7755460726
30
0.0000000000
10
18.6878547531
20
20.8974006212
30
0.0000000000
10
18.6552710525
20
21.0197026938
30
0.0000000000
10
18.6170490323
20
21.1419308236
30
0.0000000000
10
18.5733519009
20
21.2635636355
30
0.0000000000
10
18.5243662241
20
21.3840822335
30
0.0000000000
10
18.4703007418
20
21.5029729253
30
0.0000000000
10
18.4113874177
20
21.6197262558
30
0.0000000000
10
18.3689787847
20
21.6959280271
30
0.0000000000
10
18.3470230062
20
21.7335511480
30
0.0000000000
11
18.7611734818
21
20.3019175734
31
0.0000000000
11
18.7584484237
21
20.4168519677
31
0.0000000000
11
18.7496283106
21
20.5342931461
31
0.0000000000
11
18.7347507940
21
20.6537402496
31
0.0000000000
11
18.7138797171
21
20.7746807960
31
0.0000000000
11
18.6871043899
21
20.8965975174
31
0.0000000000
11
18.6545393190
21
21.0189689633
31
0.0000000000
11
18.6163239734
21
21.1412709561
31
0.0000000000
11
18.5726220710
21
21.2629796182
31
0.0000000000
11
18.5236205432
21
21.3835743906
31
0.0000000000
11
18.4695289283
21
21.5025394838
31
0.0000000000
11
18.4105792953
21
21.6193644718
31
0.0000000000
11
18.3470230062
21
21.7335511480
31
0.0000000000
0
SPLINE
5
366
100
AcDbEntity
8
0
100
AcDbSpline
62
9
6
CONTINUOUS
70
0
71
3
72
17
73
13
74
11
42
0.0000001000
43
0.0000001000
44
0.0000000001
12
0.4163435503
22
0.2155681837
32
0.0000000000
13
-0.0000278342
23
0.4693695292
33
0.0000000000
40
0.0000000000
40
0.0000000000
40
0.0000000000
40
0.0000000000
40
0.1329189116
40
0.2587863602
40
0.3775375991
40
0.4893034249
40
0.5944452287
40
0.6935904860
40
0.7876608200
40
0.8778788512
40
0.9657362157
40
1.0000000000
40
1.0000000000
40
1.0000000000
40
1.0000000000
10
18.7611734818
20
20.3019175734
30
0.0000000000
10
18.7796201257
20
20.3114686028
30
0.0000000000
10
18.8149468767
20
20.3312372933
30
0.0000000000
10
18.8642161286
20
20.3638032710
30
0.0000000000
10
18.9080403388
20
20.3982919053
30
0.0000000000
10
18.9461263666
20
20.4344879104
30
0.0000000000
10
18.9782167927
20
20.4721716243
30
0.0000000000
10
19.0040819742
20
20.5111159323
30
0.0000000000
10
19.0235179768
20
20.5510815220
30
0.0000000000
10
19.0363480047
20
20.5918061245
30
0.0000000000
10
19.0412210793
20
20.6247778667
30
0.0000000000
10
19.0418324550
20
20.6438842718
30
0.0000000000
10
19.0418321371
20
20.6492450640
30
0.0000000000
11
18.7611734818
21
20.3019175734
31
0.0000000000
11
18.8154993161
21
20.3324497077
31
0.0000000000
11
18.8646569547
21
20.3650980911
31
0.0000000000
11
18.9083180176
21
20.3996446276
31
0.0000000000
11
18.9461908429
21
20.4358585416
31
0.0000000000
11
18.9780224346
21
20.4734979190
31
0.0000000000
11
19.0036001533
21
20.5123113235
31
0.0000000000
11
19.0227531363
21
20.5520394759
31
0.0000000000
11
19.0353534388
21
20.5924169867
31
0.0000000000
11
19.0413168891
21
20.6331741284
31
0.0000000000
11
19.0418321371
21
20.6492450640
31
0.0000000000
0
SPLINE
5
367
100
AcDbEntity
8
0
100
AcDbSpline
62
9
6
CONTINUOUS
70
0
71
3
72
17
73
13
74
11
42
0.0000001000
43
0.0000001000
44
0.0000000001
12
0.4128699715
22
0.2137696856
32
0.0000000000
13
0.0072514721
23
0.4653911981
33
0.0000000000
40
0.0000000000
40
0.0000000000
40
0.0000000000
40
0.0000000000
40
0.1335941851
40
0.2601262477
40
0.3795306310
40
0.4919360729
40
0.5977003374
40
0.6974454374
40
0.7920856724
40
0.8828349910
40
0.9711763247
40
1.0000000000
40
1.0000000000
40
1.0000000000
40
1.0000000000
10
18.7611734818
20
-10.0431626725
30
0.0000000000
10
18.7795591576
20
-10.0336432102
30
0.0000000000
10
18.8147744137
20
-10.0139418262
30
0.0000000000
10
18.8639025640
20
-9.9814960970
30
0.0000000000
10
18.9076242998
20
-9.9471394801
30
0.0000000000
10
18.9456491656
20
-9.9110851336
30
0.0000000000
10
18.9777220291
20
-9.8735505644
30
0.0000000000
10
19.0036152835
20
-9.8347606134
30
0.0000000000
10
19.0231268224
20
-9.7949519871
30
0.0000000000
10
19.0360812860
20
-9.7543836815
30
0.0000000000
10
19.0409624509
20
-9.7223921130
30
0.0000000000
10
19.0417319755
20
-9.7042241444
30
0.0000000000
10
19.0418016469
20
-9.6997527161
30
0.0000000000
11
18.7611734818
21
-10.0431626725
31
0.0000000000
11
18.8153233958
21
-10.0127379136
31
0.0000000000
11
18.8643413007
21
-9.9802105329
31
0.0000000000
11
18.9079019687
21
-9.9457963454
31
0.0000000000
11
18.9457163801
21
-9.9097236852
31
0.0000000000
11
18.9775336411
21
-9.8722318898
31
0.0000000000
11
19.0031426479
21
-9.8335697126
31
0.0000000000
11
19.0223734879
21
-9.7939936726
31
0.0000000000
11
19.0350985670
21
-9.7537663518
31
0.0000000000
11
19.0412334557
21
-9.7131546536
31
0.0000000000
11
19.0418016469
21
-9.6997527161
31
0.0000000000
0
SPLINE
5
368
100
AcDbEntity
8
0
100
AcDbSpline
62
9
6
CONTINUOUS
70
0
71
3
72
8
73
4
74
2
42
0.0000001000
43
0.0000001000
44
0.0000000001
12
0.0000610446
22
0.0039177744
32
0.0000000000
13
-0.0000001663
23
0.0039182795
33
0.0000000000
40
0.0000000000
40
0.0000000000
40
0.0000000000
40
0.0000000000
40
1.0000000000
40
1.0000000000
40
1.0000000000
40
1.0000000000
10
19.0418016469
20
-9.6997527161
30
0.0000000000
10
19.0418219951
20
-9.6984467913
30
0.0000000000
10
19.0418321382
20
-9.6971407010
30
0.0000000000
10
19.0418320828
20
-9.6958346079
30
0.0000000000
11
19.0418016469
21
-9.6997527161
31
0.0000000000
11
19.0418320828
21
-9.6958346079
31
0.0000000000
0
SPLINE
5
369
100
AcDbEntity
8
0
100
AcDbSpline
62
9
6
CONTINUOUS
70
0
71
3
72
9
73
5
74
3
42
0.0000001000
43
0.0000001000
44
0.0000000001
12
0.0776924171
22
0.0410062346
32
0.0000000000
13
0.0711542095
23
0.0515681931
33
0.0000000000
40
0.0000000000
40
0.0000000000
40
0.0000000000
40
0.0000000000
40
0.6190889221
40
1.0000000000
40
1.0000000000
40
1.0000000000
40
1.0000000000
10
18.3470230062
20
-11.0606457715
30
0.0000000000
10
18.3630558444
20
-11.0521836029
30
0.0000000000
10
18.3883727071
20
-11.0373796002
30
0.0000000000
10
18.4125560632
20
-11.0208311858
30
0.0000000000
10
18.4215905387
20
-11.0142835538
30
0.0000000000
11
18.3470230062
21
-11.0606457715
31
0.0000000000
11
18.3939681826
21
-11.0331850322
31
0.0000000000
11
18.4215905387
21
-11.0142835538
31
0.0000000000
0
SPLINE
5
36A
100
AcDbEntity
8
0
100
AcDbSpline
62
9
6
CONTINUOUS
70
0
71
3
72
9
73
5
74
3
42
0.0000001000
43
0.0000001000
44
0.0000000001
12
0.0699950325
22
0.0506595091
32
0.0000000000
13
0.0640798488
23
0.0580279161
33
0.0000000000
40
0.0000000000
40
0.0000000000
40
0.0000000000
40
0.0000000000
40
0.9448939271
40
1.0000000000
40
1.0000000000
40
1.0000000000
40
1.0000000000
10
18.3470230062
20
-11.0606457715
30
0.0000000000
10
18.3690689666
20
-11.0446898173
30
0.0000000000
10
18.3915255574
20
-11.0265582841
30
0.0000000000
10
18.4129429028
20
-11.0072784098
30
0.0000000000
10
18.4141199657
20
-11.0062125130
30
0.0000000000
11
18.3470230062
21
-11.0606457715
31
0.0000000000
11
18.4105792953
21
-11.0093997990
31
0.0000000000
11
18.4141199657
21
-11.0062125130
31
0.0000000000
0
SPLINE
5
36B
100
AcDbEntity
8
0
100
AcDbSpline
62
9
6
CONTINUOUS
70
0
71
3
72
18
73
14
74
12
42
0.0000001000
43
0.0000001000
44
0.0000000001
12
0.7812084705
22
0.7074283177
32
0.0000000000
13
-0.0030579805
23
1.0533643708
33
0.0000000000
40
0.0000000000
40
0.0000000000
40
0.0000000000
40
0.0000000000
40
0.0742437328
40
0.1547197810
40
0.2373042128
40
0.3223302176
40
0.4100633502
40
0.5007007547
40
0.5943739111
40
0.6911530636
40
0.7910513794
40
0.8940285524
40
1.0000000000
40
1.0000000000
40
1.0000000000
40
1.0000000000
10
18.4141199657
20
-11.0062125130
30
0.0000000000
10
18.4334532433
20
-10.9887051400
30
0.0000000000
10
18.4719645245
20
-10.9502762417
30
0.0000000000
10
18.5251415934
20
-10.8859594322
30
0.0000000000
10
18.5741851217
20
-10.8138230072
30
0.0000000000
10
18.6178836322
20
-10.7354094887
30
0.0000000000
10
18.6560594046
20
-10.6510613983
30
0.0000000000
10
18.6885591274
20
-10.5611425964
30
0.0000000000
10
18.7152525160
20
-10.4660381661
30
0.0000000000
10
18.7360327970
20
-10.3661535739
30
0.0000000000
10
18.7508168523
20
-10.2619125771
30
0.0000000000
10
18.7595458727
20
-10.1537616234
30
0.0000000000
10
18.7612815014
20
-10.0803715215
30
0.0000000000
10
18.7611734818
20
-10.0431626725
30
0.0000000000
11
18.4141199657
21
-11.0062125130
31
0.0000000000
11
18.4695289283
21
-10.9510171371
31
0.0000000000
11
18.5236205432
21
-10.8857468321
31
0.0000000000
11
18.5726220710
21
-10.8138689163
31
0.0000000000
11
18.6163239734
21
-10.7356908662
31
0.0000000000
11
18.6545393190
21
-10.6515470403
31
0.0000000000
11
18.6871043899
21
-10.5617978440
31
0.0000000000
11
18.7138797171
21
-10.4668277399
31
0.0000000000
11
18.7347507940
21
-10.3670429417
31
0.0000000000
11
18.7496283106
21
-10.2628701813
31
0.0000000000
11
18.7584484237
21
-10.1547564228
31
0.0000000000
11
18.7611734818
21
-10.0431626725
31
0.0000000000
0
SPLINE
5
36C
100
AcDbEntity
8
0
100
AcDbSpline
62
9
6
CONTINUOUS
70
0
71
3
72
26
73
22
74
20
42
0.0000001000
43
0.0000001000
44
0.0000000001
12
-0.0005238686
22
-1.0221547008
32
0.0000000000
13
-1.0139353568
23
-0.1286215119
33
0.0000000000
40
0.0000000000
40
0.0000000000
40
0.0000000000
40
0.0000000000
40
0.0675329963
40
0.1907281174
40
0.2991222268
40
0.3953084331
40
0.4806118158
40
0.5558414508
40
0.6218731432
40
0.6798294449
40
0.7309295685
40
0.7759424580
40
0.8150829132
40
0.8486735460
40
0.8773273805
40
0.9024393536
40
0.9250195877
40
0.9455724218
40
0.9645630073
40
0.9825169068
40
1.0000000000
40
1.0000000000
40
1.0000000000
40
1.0000000000
10
19.0418338865
20
17.4284645098
30
0.0000000000
10
19.0418220937
20
17.4054547866
30
0.0000000000
10
19.0410478646
20
17.3404709129
30
0.0000000000
10
19.0365413849
20
17.2386330788
30
0.0000000000
10
19.0270469725
20
17.1273394167
30
0.0000000000
10
19.0148257749
20
17.0293143314
30
0.0000000000
10
19.0006670233
20
16.9429849258
30
0.0000000000
10
18.9851853627
20
16.8673447178
30
0.0000000000
10
18.9688423651
20
16.8014498442
30
0.0000000000
10
18.9519242971
20
16.7442268352
30
0.0000000000
10
18.9345850883
20
16.6946590738
30
0.0000000000
10
18.9169663550
20
16.6520519403
30
0.0000000000
10
18.8992893607
20
16.6160082042
30
0.0000000000
10
18.8818344394
20
16.5861619137
30
0.0000000000
10
18.8647059295
20
16.5617770553
30
0.0000000000
10
18.8477908104
20
16.5419612483
30
0.0000000000
10
18.8308410279
20
16.5259713988
30
0.0000000000
10
18.8137310993
20
16.5134128201
30
0.0000000000
10
18.7964474447
20
16.5040527935
30
0.0000000000
10
18.7789667455
20
16.4976737079
30
0.0000000000
10
18.7670823906
20
16.4952686400
30
0.0000000000
10
18.7611734818
20
16.4945190727
30
0.0000000000
11
19.0418338865
21
17.4284645098
31
0.0000000000
11
19.0410106312
21
17.3594420131
31
0.0000000000
11
19.0354074360
21
17.2336538362
31
0.0000000000
11
19.0259356806
21
17.1232741029
31
0.0000000000
11
19.0137045868
21
17.0257297846
31
0.0000000000
11
18.9995140263
21
16.9397071388
31
0.0000000000
11
18.9840078210
21
16.8643976658
31
0.0000000000
11
18.9676668144
21
16.7989174646
31
0.0000000000
11
18.9507716125
21
16.7421431597
31
0.0000000000
11
18.9334185197
21
16.6928828789
31
0.0000000000
11
18.9157230660
21
16.6504162459
31
0.0000000000
11
18.8979920453
21
16.6145564481
31
0.0000000000
11
18.8805510476
21
16.5849849206
31
0.0000000000
11
18.8636223198
21
16.5610875194
31
0.0000000000
11
18.8468754133
21
16.5416380239
31
0.0000000000
11
18.8300177280
21
16.5258763690
31
0.0000000000
11
18.8130318244
21
16.5135175055
31
0.0000000000
11
18.7959349772
21
16.5043290437
31
0.0000000000
11
18.7786864394
21
16.4980672837
31
0.0000000000
11
18.7611734818
21
16.4945190727
31
0.0000000000
0
SPLINE
5
36D
100
AcDbEntity
8
0
100
AcDbSpline
62
9
6
CONTINUOUS
70
0
71
3
72
16
73
12
74
10
42
0.0000001000
43
0.0000001000
44
0.0000000001
12
-0.4035520321
22
0.2018036023
32
0.0000000000
13
-0.4066845390
23
-0.1946481669
33
0.0000000000
40
0.0000000000
40
0.0000000000
40
0.0000000000
40
0.0000000000
40
0.0179524839
40
0.1292323758
40
0.2419262945
40
0.3571674186
40
0.4759509126
40
0.5990963966
40
0.7272300812
40
0.8607829722
40
1.0000000000
40
1.0000000000
40
1.0000000000
40
1.0000000000
10
11.9125340341
20
25.6105571406
30
0.0000000000
10
11.9101191136
20
25.6117647659
30
0.0000000000
10
11.8926412224
20
25.6202700131
30
0.0000000000
10
11.8587078829
20
25.6336249327
30
0.0000000000
10
11.8090841605
20
25.6459187598
30
0.0000000000
10
11.7571901792
20
25.6519375281
30
0.0000000000
10
11.7033903006
20
25.6516588139
30
0.0000000000
10
11.6480519128
20
25.6451052429
30
0.0000000000
10
11.5915428086
20
25.6323387444
30
0.0000000000
10
11.5342390250
20
25.6134611767
30
0.0000000000
10
11.4965337488
20
25.5972268395
30
0.0000000000
10
11.4776612779
20
25.5881940597
30
0.0000000000
11
11.9125340341
21
25.6105571406
31
0.0000000000
11
11.9052506682
21
25.6141013378
31
0.0000000000
11
11.8585730061
21
25.6324985779
31
0.0000000000
11
11.8092683623
21
25.6447743479
31
0.0000000000
11
11.7576660986
21
25.6508466439
31
0.0000000000
11
11.7041109255
21
25.6506749022
31
0.0000000000
11
11.6489605991
21
25.6442602700
31
0.0000000000
11
11.5925835314
21
25.6316455979
31
0.0000000000
11
11.5353563290
21
25.6129151539
31
0.0000000000
11
11.4776612779
21
25.5881940597
31
0.0000000000
0
SPLINE
5
36E
100
AcDbEntity
8
0
100
AcDbSpline
62
9
6
CONTINUOUS
70
0
71
3
72
43
73
39
74
37
42
0.0000001000
43
0.0000001000
44
0.0000000001
12
4.2552928215
22
-3.4425808825
32
0.0000000000
13
-4.5974354538
23
-2.9735249305
33
0.0000000000
40
0.0000000000
40
0.0000000000
40
0.0000000000
40
0.0000000000
40
0.0022985752
40
0.0325445019
40
0.0634583124
40
0.0949837594
40
0.1270584213
40
0.1596146275
40
0.1925801621
40
0.2258792312
40
0.2594329817
40
0.2931605253
40
0.3269793212
40
0.3608062533
40
0.3945579341
40
0.4281518166
40
0.4615064842
40
0.4945427721
40
0.5271841108
40
0.5593576347
40
0.5909946456
40
0.6220316968
40
0.6524112382
40
0.6820826801
40
0.7110032677
40
0.7391391431
40
0.7664664694
40
0.7929725012
40
0.8186569156
40
0.8435328380
40
0.8676282025
40
0.8909865094
40
0.9136677919
40
0.9357485896
40
0.9573217962
40
0.9784950980
40
0.9993889440
40
1.0000000000
40
1.0000000000
40
1.0000000000
40
1.0000000000
10
19.0418839143
20
19.8595583344
30
0.0000000000
10
19.0451442846
20
19.8569206574
30
0.0000000000
10
19.0912352642
20
19.8194871409
30
0.0000000000
10
19.1791450690
20
19.7440937827
30
0.0000000000
10
19.3022246016
20
19.6280701455
30
0.0000000000
10
19.4222691120
20
19.5042237930
30
0.0000000000
10
19.5388079342
20
19.3730412770
30
0.0000000000
10
19.6513837618
20
19.2350380762
30
0.0000000000
10
19.7595546676
20
19.0907564431
30
0.0000000000
10
19.8628957073
20
18.9407635362
30
0.0000000000
10
19.9610009020
20
18.7856488512
30
0.0000000000
10
20.0534845899
20
18.6260223172
30
0.0000000000
10
20.1399832986
20
18.4625113783
30
0.0000000000
10
20.2201568744
20
18.2957590707
30
0.0000000000
10
20.2936901687
20
18.1264208443
30
0.0000000000
10
20.3602939746
20
17.9551626083
30
0.0000000000
10
20.4197064597
20
17.7826574021
30
0.0000000000
10
20.4716939286
20
17.6095833787
30
0.0000000000
10
20.5160519469
20
17.4366204468
30
0.0000000000
10
20.5526059317
20
17.2644481559
30
0.0000000000
10
20.5812119276
20
17.0937424346
30
0.0000000000
10
20.6017570040
20
16.9251733549
30
0.0000000000
10
20.6141596640
20
16.7594020859
30
0.0000000000
10
20.6183700021
20
16.5970785487
30
0.0000000000
10
20.6143697475
20
16.4388387005
30
0.0000000000
10
20.6021721272
20
16.2853021512
30
0.0000000000
10
20.5818215742
20
16.1370699008
30
0.0000000000
10
20.5533932754
20
15.9947220750
30
0.0000000000
10
20.5169926574
20
15.8588162592
30
0.0000000000
10
20.4727547343
20
15.7298855828
30
0.0000000000
10
20.4208436808
20
15.6084377568
30
0.0000000000
10
20.3614523787
20
15.4949536340
30
0.0000000000
10
20.2948026571
20
15.3898867194
30
0.0000000000
10
20.2211456228
20
15.2936617390
30
0.0000000000
10
20.1407629339
20
15.2066735299
30
0.0000000000
10
20.0539676775
20
15.1292842440
30
0.0000000000
10
19.9908707174
20
15.0834445338
30
0.0000000000
10
19.9579468885
20
15.0620800493
30
0.0000000000
10
19.9570104583
20
15.0614743859
30
0.0000000000
11
19.0418839143
21
19.8595583344
31
0.0000000000
11
19.0516499536
21
19.8516267526
31
0.0000000000
11
19.1773614876
21
19.7439340704
31
0.0000000000
11
19.3005276436
21
19.6279397047
31
0.0000000000
11
19.4206628131
21
19.5041009839
31
0.0000000000
11
19.5372932929
21
19.3729062187
31
0.0000000000
11
19.6499593564
21
19.2348725404
31
0.0000000000
11
19.7582166451
21
19.0905443617
31
0.0000000000
11
19.8616385332
21
18.9404904550
31
0.0000000000
11
19.9598170388
21
18.7853027611
31
0.0000000000
11
20.0523653237
21
18.6255927400
31
0.0000000000
11
20.1389182469
21
18.4619905161
31
0.0000000000
11
20.2191348152
21
18.2951406322
31
0.0000000000
11
20.2926985173
21
18.1257014307
31
0.0000000000
11
20.3593195446
21
17.9543404273
31
0.0000000000
11
20.4187350303
21
17.7817337605
31
0.0000000000
11
20.4707108940
21
17.6085614553
31
0.0000000000
11
20.5150420705
21
17.4355067392
31
0.0000000000
11
20.5515538871
21
17.2632514857
31
0.0000000000
11
20.5801023119
21
17.0924751977
31
0.0000000000
11
20.6005748390
21
16.9238508979
31
0.0000000000
11
20.6128907241
21
16.7580436236
31
0.0000000000
11
20.6170014224
21
16.5957069685
31
0.0000000000
11
20.6128907224
21
16.4374810122
31
0.0000000000
11
20.6005748356
21
16.2839896243
31
0.0000000000
11
20.5801023068
21
16.1358378526
31
0.0000000000
11
20.5515538804
21
15.9936099908
31
0.0000000000
11
20.5150420621
21
15.8578665555
31
0.0000000000
11
20.4707108839
21
15.7291430172
31
0.0000000000
11
20.4187350188
21
15.6079465778
31
0.0000000000
11
20.3593195313
21
15.4947553980
31
0.0000000000
11
20.2926985029
21
15.3900154245
31
0.0000000000
11
20.2191347989
21
15.2941399264
31
0.0000000000
11
20.1389182299
21
15.2075066136
31
0.0000000000
11
20.0523653047
21
15.1304573143
31
0.0000000000
11
19.9598170194
21
15.0632955811
31
0.0000000000
11
19.9570104583
21
15.0614743859
31
0.0000000000
0
SPLINE
5
36F
100
AcDbEntity
8
0
100
AcDbSpline
62
9
6
CONTINUOUS
70
0
71
3
72
13
73
9
74
7
42
0.0000001000
43
0.0000001000
44
0.0000000001
12
0.0831894255
22
0.0416210685
32
0.0000000000
13
0.0830442216
23
-0.0415221109
33
0.0000000000
40
0.0000000000
40
0.0000000000
40
0.0000000000
40
0.0000000000
40
0.0398015084
40
0.2136565539
40
0.3933138876
40
0.5826498345
40
0.7843828888
40
1.0000000000
40
1.0000000000
40
1.0000000000
40
1.0000000000
10
-2.5465647143
20
22.8598228065
30
0.0000000000
10
-2.5454610261
20
22.8603750003
30
0.0000000000
10
-2.5394635063
20
22.8631929623
30
0.0000000000
10
-2.5277685464
20
22.8668873002
30
0.0000000000
10
-2.5109409641
20
22.8685610613
30
0.0000000000
10
-2.4932552196
20
22.8669749643
30
0.0000000000
10
-2.4750207511
20
22.8621988248
30
0.0000000000
10
-2.4630908906
20
22.8571273616
30
0.0000000000
10
-2.4571223055
20
22.8541430691
30
0.0000000000
11
-2.5465647143
21
22.8598228065
31
0.0000000000
11
-2.5432141676
21
22.8613967533
31
0.0000000000
11
-2.5278329787
21
22.8662933285
31
0.0000000000
11
-2.5112419109
21
22.8680184225
31
0.0000000000
11
-2.4937248422
21
22.8665425187
31
0.0000000000
11
-2.4755814945
21
22.8618908705
31
0.0000000000
11
-2.4571223055
21
22.8541430691
31
0.0000000000
0
SPLINE
5
370
100
AcDbEntity
8
0
100
AcDbSpline
62
0
6
CONTINUOUS
70
0
71
3
72
14
73
10
74
8
42
0.0000001000
43
0.0000001000
44
0.0000000001
12
0.0791351001
22
0.0395884654
32
0.0000000000
13
0.0790056663
23
-0.0395028331
33
0.0000000000
40
0.0000000000
40
0.0000000000
40
0.0000000000
40
0.0000000000
40
0.0108975268
40
0.1508652764
40
0.2976080641
40
0.4542147772
40
0.6228187521
40
0.8046187890
40
1.0000000000
40
1.0000000000
40
1.0000000000
40
1.0000000000
10
-2.6081220650
20
22.8290447567
30
0.0000000000
10
-2.6078346061
20
22.8291885621
30
0.0000000000
10
-2.6038387081
20
22.8311465128
30
0.0000000000
10
-2.5955257658
20
22.8341027099
30
0.0000000000
10
-2.5825407092
20
22.8360257838
30
0.0000000000
10
-2.5685893056
20
22.8356627499
30
0.0000000000
10
-2.5538442909
20
22.8330395673
30
0.0000000000
10
-2.5384812637
20
22.8282010377
30
0.0000000000
10
-2.5283042295
20
22.8236975147
30
0.0000000000
10
-2.5231588220
20
22.8211248109
30
0.0000000000
11
-2.6081220650
21
22.8290447567
31
0.0000000000
11
-2.6072561925
21
22.8294690245
31
0.0000000000
11
-2.5956222073
21
22.8336530866
31
0.0000000000
11
-2.5828104421
21
22.8356204620
31
0.0000000000
11
-2.5689800587
21
22.8353398064
31
0.0000000000
11
-2.5543038162
21
22.8328083649
31
0.0000000000
11
-2.5389657851
21
22.8280520134
31
0.0000000000
11
-2.5231588220
21
22.8211248109
31
0.0000000000
0
SPLINE
5
371
100
AcDbEntity
8
0
100
AcDbSpline
62
0
6
CONTINUOUS
70
0
71
3
72
9
73
5
74
3
42
0.0000001000
43
0.0000001000
44
0.0000000001
12
-0.0046364675
22
0.0018489117
32
0.0000000000
13
-0.0047614225
23
0.0014980617
33
0.0000000000
40
0.0000000000
40
0.0000000000
40
0.0000000000
40
0.0000000000
40
0.1904103833
40
1.0000000000
40
1.0000000000
40
1.0000000000
40
1.0000000000
10
-1.3090432650
20
22.9005999042
30
0.0000000000
10
-1.3093375422
20
22.9007172549
30
0.0000000000
10
-1.3108874254
20
22.9013225027
30
0.0000000000
10
-1.3124596087
20
22.9018692272
30
0.0000000000
10
-1.3137445414
20
22.9022734990
30
0.0000000000
11
-1.3090432650
21
22.9005999042
31
0.0000000000
11
-1.3099285784
21
22.9009456240
31
0.0000000000
11
-1.3137445414
21
22.9022734990
31
0.0000000000
0
SPLINE
5
372
100
AcDbEntity
8
0
100
AcDbSpline
62
0
6
CONTINUOUS
70
0
71
3
72
13
73
9
74
7
42
0.0000001000
43
0.0000001000
44
0.0000000001
12
-0.0740256564
22
0.0232903092
32
0.0000000000
13
-0.0674954640
23
-0.0380871352
33
0.0000000000
40
0.0000000000
40
0.0000000000
40
0.0000000000
40
0.0000000000
40
0.1049480215
40
0.2661620546
40
0.4344052790
40
0.6118919984
40
0.8001412687
40
1.0000000000
40
1.0000000000
40
1.0000000000
40
1.0000000000
10
-1.3137445414
20
22.9022734990
30
0.0000000000
10
-1.3163341568
20
22.9030882562
30
0.0000000000
10
-1.3230265043
20
22.9047595356
30
0.0000000000
10
-1.3342500567
20
22.9058526738
30
0.0000000000
10
-1.3473699370
20
22.9049755413
30
0.0000000000
10
-1.3608913972
20
22.9020248019
30
0.0000000000
10
-1.3746673707
20
22.8970481924
30
0.0000000000
10
-1.3836570064
20
22.8925556147
30
0.0000000000
10
-1.3881535257
20
22.8900182658
30
0.0000000000
11
-1.3137445414
21
22.9022734990
31
0.0000000000
11
-1.3216404234
21
22.9042505232
31
0.0000000000
11
-1.3340718971
21
22.9054999802
31
0.0000000000
11
-1.3470850058
21
22.9046807705
31
0.0000000000
11
-1.3605357105
21
22.9018023696
31
0.0000000000
11
-1.3742755896
21
22.8968968058
31
0.0000000000
11
-1.3881535257
21
22.8900182658
31
0.0000000000
0
SPLINE
5
373
100
AcDbEntity
8
0
100
AcDbSpline
62
0
6
CONTINUOUS
70
0
71
3
72
12
73
8
74
6
42
0.0000001000
43
0.0000001000
44
0.0000000001
12
-0.1186155455
22
-0.0259064390
32
0.0000000000
13
-0.1049839928
23
0.0609848544
33
0.0000000000
40
0.0000000000
40
0.0000000000
40
0.0000000000
40
0.0000000000
40
0.2205374340
40
0.4282314194
40
0.6252048294
40
0.8146008629
40
1.0000000000
40
1.0000000000
40
1.0000000000
40
1.0000000000
10
18.8787230983
20
16.4788819391
30
0.0000000000
10
18.8700033757
20
16.4769774925
30
0.0000000000
10
18.8528290156
20
16.4742635334
30
0.0000000000
10
18.8274410441
20
16.4738225960
30
0.0000000000
10
18.8035235535
20
16.4771445513
30
0.0000000000
10
18.7813274784
20
16.4840224113
30
0.0000000000
10
18.7676614624
20
16.4907504483
30
0.0000000000
10
18.7611734818
20
16.4945192948
30
0.0000000000
11
18.8787230983
21
16.4788819391
31
0.0000000000
11
18.8522568960
21
16.4748218336
31
0.0000000000
11
18.8270426568
21
16.4744863037
31
0.0000000000
11
18.8033631649
21
16.4778333332
31
0.0000000000
11
18.7813979412
21
16.4846372859
31
0.0000000000
11
18.7611734818
21
16.4945192948
31
0.0000000000
0
SPLINE
5
374
100
AcDbEntity
8
0
100
AcDbSpline
62
9
6
CONTINUOUS
70
0
71
3
72
26
73
22
74
20
42
0.0000001000
43
0.0000001000
44
0.0000000001
12
0.5182280144
22
-1.6358446979
32
0.0000000000
13
-1.2093933320
23
-1.2168883099
33
0.0000000000
40
0.0000000000
40
0.0000000000
40
0.0000000000
40
0.0000000000
40
0.0440767476
40
0.1241401869
40
0.2083797520
40
0.2953207116
40
0.3823573643
40
0.4656486343
40
0.5404803916
40
0.6066753271
40
0.6657854875
40
0.7187674542
40
0.7661079903
40
0.8082482940
40
0.8457577402
40
0.8793179295
40
0.9094922063
40
0.9365022720
40
0.9604007653
40
0.9813995221
40
1.0000000000
40
1.0000000000
40
1.0000000000
40
1.0000000000
10
19.0419285710
20
18.1306752695
30
0.0000000000
10
19.0495425061
20
18.1066410316
30
0.0000000000
10
19.0696599657
20
18.0385286811
30
0.0000000000
10
19.0973135459
20
17.9225228540
30
0.0000000000
10
19.1213646483
20
17.7807634986
30
0.0000000000
10
19.1366229334
20
17.6337828816
30
0.0000000000
10
19.1426656656
20
17.4866873079
30
0.0000000000
10
19.1401396055
20
17.3464302947
30
0.0000000000
10
19.1308508455
20
17.2184258106
30
0.0000000000
10
19.1169065838
20
17.1047800241
30
0.0000000000
10
19.0997956496
20
17.0042311129
30
0.0000000000
10
19.0804578428
20
16.9150973030
30
0.0000000000
10
19.0596116317
20
16.8363084963
30
0.0000000000
10
19.0378200154
20
16.7670037081
30
0.0000000000
10
19.0154520943
20
16.7062196690
30
0.0000000000
10
18.9926961569
20
16.6529498283
30
0.0000000000
10
18.9696771684
20
16.6064063757
30
0.0000000000
10
18.9466017871
20
16.5661493728
30
0.0000000000
10
18.9237837416
20
16.5318967906
30
0.0000000000
10
18.9014834697
20
16.5031969604
30
0.0000000000
10
18.8862215297
20
16.4864268404
30
0.0000000000
10
18.8787230983
20
16.4788819391
30
0.0000000000
11
19.0419285710
21
18.1306752695
31
0.0000000000
11
19.0633688966
21
18.0581479177
31
0.0000000000
11
19.0953166143
21
17.9245541000
31
0.0000000000
11
19.1195872513
21
17.7820811241
31
0.0000000000
11
19.1350704551
21
17.6337267817
31
0.0000000000
11
19.1412507409
21
17.4845304394
31
0.0000000000
11
19.1386877436
21
17.3416548929
31
0.0000000000
11
19.1293708875
21
17.2136084160
31
0.0000000000
11
19.1154932671
21
17.1008922753
31
0.0000000000
11
19.0984183390
21
17.0009278239
31
0.0000000000
11
19.0790730619
21
16.9121118114
31
0.0000000000
11
19.0582177041
21
16.8336153397
31
0.0000000000
11
19.0364461626
21
16.7646733880
31
0.0000000000
11
19.0141336370
21
16.7043122873
31
0.0000000000
11
18.9914243395
21
16.6514024152
31
0.0000000000
11
18.9683821676
21
16.6050447766
31
0.0000000000
11
18.9452471478
21
16.5648932429
31
0.0000000000
11
18.9224326926
21
16.5308254226
31
0.0000000000
11
18.9002602393
21
16.5024301798
31
0.0000000000
11
18.8787230983
21
16.4788819391
31
0.0000000000
0
SPLINE
5
375
100
AcDbEntity
8
0
100
AcDbSpline
62
9
6
CONTINUOUS
70
0
71
3
72
26
73
22
74
20
42
0.0000001000
43
0.0000001000
44
0.0000000001
12
0.5615182668
22
0.2085636021
32
0.0000000000
13
-0.4381932680
23
-0.4088902122
33
0.0000000000
40
0.0000000000
40
0.0000000000
40
0.0000000000
40
0.0000000000
40
0.0377825085
40
0.0757119166
40
0.1140762726
40
0.1527674403
40
0.1917135364
40
0.2312816412
40
0.2722632268
40
0.3154731577
40
0.3615024906
40
0.4107400171
40
0.4635421995
40
0.5206816383
40
0.5835665192
40
0.6525318473
40
0.7254639890
40
0.8021906778
40
0.8813433648
40
0.9644315065
40
1.0000000000
40
1.0000000000
40
1.0000000000
40
1.0000000000
10
18.8787231812
20
14.8594139924
30
0.0000000000
10
18.8857950375
20
14.8620406778
30
0.0000000000
10
18.9001909712
20
14.8667273806
30
0.0000000000
10
18.9224553494
20
14.8717105144
30
0.0000000000
10
18.9453263314
20
14.8742491652
30
0.0000000000
10
18.9685508896
20
14.8739453894
30
0.0000000000
10
18.9917728551
20
14.8705004947
30
0.0000000000
10
19.0147303281
20
14.8637166600
30
0.0000000000
10
19.0372711806
20
14.8533887053
30
0.0000000000
10
19.0592031505
20
14.8392606098
30
0.0000000000
10
19.0801614986
20
14.8210843880
30
0.0000000000
10
19.0995898588
20
14.7986662496
30
0.0000000000
10
19.1167799389
20
14.7717962653
30
0.0000000000
10
19.1308042640
20
14.7401095632
30
0.0000000000
10
19.1401646590
20
14.7033498631
30
0.0000000000
10
19.1426687179
20
14.6622644986
30
0.0000000000
10
19.1363334316
20
14.6187520219
30
0.0000000000
10
19.1204773154
20
14.5755727039
30
0.0000000000
10
19.0957472541
20
14.5344818902
30
0.0000000000
10
19.0701168754
20
14.5042468133
30
0.0000000000
10
19.0531882458
20
14.4876434864
30
0.0000000000
10
19.0479929543
20
14.4827956168
30
0.0000000000
11
18.8787231812
21
14.8594139924
31
0.0000000000
11
18.9002578794
21
14.8663747694
31
0.0000000000
11
18.9224408553
21
14.8712841304
31
0.0000000000
11
18.9452862489
21
14.8737702199
31
0.0000000000
11
18.9684597757
21
14.8734298139
31
0.0000000000
11
18.9915334902
21
14.8699898569
31
0.0000000000
11
19.0142646863
21
14.8632783039
31
0.0000000000
11
19.0365917737
21
14.8530751232
31
0.0000000000
11
19.0583711127
21
14.8390902000
31
0.0000000000
11
19.0792280866
21
14.8210574720
31
0.0000000000
11
19.0985704701
21
14.7987925450
31
0.0000000000
11
19.1156307677
21
14.7721596664
31
0.0000000000
11
19.1294779567
21
14.7408593141
31
0.0000000000
11
19.1387447639
21
14.7043489055
31
0.0000000000
11
19.1412390451
21
14.6631140130
31
0.0000000000
11
19.1350103664
21
14.6198739405
31
0.0000000000
11
19.1193542248
21
14.5766634739
31
0.0000000000
11
19.0951472538
21
14.5358962412
31
0.0000000000
11
19.0631976422
21
14.4977352830
31
0.0000000000
11
19.0479929543
21
14.4827956168
31
0.0000000000
0
SPLINE
5
376
100
AcDbEntity
8
0
100
AcDbSpline
62
9
6
CONTINUOUS
70
0
71
3
72
8
73
4
74
2
42
0.0000001000
43
0.0000001000
44
0.0000000001
12
-0.0037887159
22
-0.0035353552
32
0.0000000000
13
-0.0038307202
23
-0.0034899409
33
0.0000000000
40
0.0000000000
40
0.0000000000
40
0.0000000000
40
0.0000000000
40
1.0000000000
40
1.0000000000
40
1.0000000000
40
1.0000000000
10
19.0479929543
20
14.4827956168
30
0.0000000000
10
19.0467300490
20
14.4816171651
30
0.0000000000
10
19.0454600074
20
14.4804463444
30
0.0000000000
10
19.0441831007
20
14.4792830308
30
0.0000000000
11
19.0479929543
21
14.4827956168
31
0.0000000000
11
19.0441831007
21
14.4792830308
31
0.0000000000
0
SPLINE
5
377
100
AcDbEntity
8
0
100
AcDbSpline
62
9
6
CONTINUOUS
70
0
71
3
72
8
73
4
74
2
42
0.0000001000
43
0.0000001000
44
0.0000000001
12
-0.0003106101
22
-0.0002829783
32
0.0000000000
13
-0.0003108805
23
-0.0002826824
33
0.0000000000
40
0.0000000000
40
0.0000000000
40
0.0000000000
40
0.0000000000
40
1.0000000000
40
1.0000000000
40
1.0000000000
40
1.0000000000
10
19.0441831007
20
14.4792830308
30
0.0000000000
10
19.0440795640
20
14.4791887047
30
0.0000000000
10
19.0439759821
20
14.4790944279
30
0.0000000000
10
19.0438723553
20
14.4790002004
30
0.0000000000
11
19.0441831007
21
14.4792830308
31
0.0000000000
11
19.0438723553
21
14.4790002004
31
0.0000000000
0
SPLINE
5
378
100
AcDbEntity
8
0
100
AcDbSpline
62
9
6
CONTINUOUS
70
0
71
3
72
8
73
4
74
2
42
0.0000001000
43
0.0000001000
44
0.0000000001
12
-0.0019845429
22
-0.0018045371
32
0.0000000000
13
-0.0019954304
23
-0.0017925372
33
0.0000000000
40
0.0000000000
40
0.0000000000
40
0.0000000000
40
0.0000000000
40
1.0000000000
40
1.0000000000
40
1.0000000000
40
1.0000000000
10
19.0438723553
20
14.4790002004
30
0.0000000000
10
19.0432108410
20
14.4783986881
30
0.0000000000
10
19.0425474933
20
14.4777991843
30
0.0000000000
10
19.0418823498
20
14.4772016719
30
0.0000000000
11
19.0438723553
21
14.4790002004
31
0.0000000000
11
19.0418823498
21
14.4772016719
31
0.0000000000
0
SPLINE
5
379
100
AcDbEntity
8
0
100
AcDbSpline
62
0
6
CONTINUOUS
70
0
71
3
72
12
73
8
74
6
42
0.0000001000
43
0.0000001000
44
0.0000000001
12
0.0955439166
22
0.1544400270
32
0.0000000000
13
0.1406273947
23
0.1149099553
33
0.0000000000
40
0.0000000000
40
0.0000000000
40
0.0000000000
40
0.0000000000
40
0.2030093957
40
0.4057526520
40
0.6071217681
40
0.8056666823
40
1.0000000000
40
1.0000000000
40
1.0000000000
40
1.0000000000
10
18.7611734818
20
14.7220503778
30
0.0000000000
10
18.7676389194
20
14.7325013034
30
0.0000000000
10
18.7810918954
20
14.7530687791
30
0.0000000000
10
18.8029980289
20
14.7826073042
30
0.0000000000
10
18.8266128436
20
14.8104527544
30
0.0000000000
10
18.8517687942
20
14.8362082681
30
0.0000000000
10
18.8696136519
20
14.8519703815
30
0.0000000000
10
18.8787231812
20
14.8594139924
30
0.0000000000
11
18.7611734818
21
14.7220503778
31
0.0000000000
11
18.7813979510
21
14.7528754389
31
0.0000000000
11
18.8033631895
21
14.7824250650
31
0.0000000000
11
18.8270426992
21
14.8102929444
31
0.0000000000
11
18.8522569589
21
14.8360675387
31
0.0000000000
11
18.8787231812
21
14.8594139924
31
0.0000000000
0
SPLINE
5
37A
100
AcDbEntity
8
0
100
AcDbSpline
62
9
6
CONTINUOUS
70
0
71
3
72
26
73
22
74
20
42
0.0000001000
43
0.0000001000
44
0.0000000001
12
0.3679460190
22
0.3343450283
32
0.0000000000
13
0.0091124368
23
-0.4973243940
33
0.0000000000
40
0.0000000000
40
0.0000000000
40
0.0000000000
40
0.0000000000
40
0.0464259377
40
0.0898717096
40
0.1306996075
40
0.1691507387
40
0.2054556519
40
0.2400827855
40
0.2742473728
40
0.3095311292
40
0.3468008509
40
0.3869829663
40
0.4310746930
40
0.4804710675
40
0.5367587285
40
0.6012563057
40
0.6749144893
40
0.7584769196
40
0.8529777768
40
0.9606527485
40
1.0000000000
40
1.0000000000
40
1.0000000000
40
1.0000000000
10
18.7611734818
20
14.7220505997
30
0.0000000000
10
18.7668675615
20
14.7272246936
30
0.0000000000
10
18.7781444015
20
14.7369678310
30
0.0000000000
10
18.7953988074
20
14.7500878669
30
0.0000000000
10
18.8124924785
20
14.7611513361
30
0.0000000000
10
18.8294902439
20
14.7700521243
30
0.0000000000
10
18.8464254061
20
14.7766408192
30
0.0000000000
10
18.8634082527
20
14.7807644728
30
0.0000000000
10
18.8806764827
20
14.7821919681
30
0.0000000000
10
18.8983841964
20
14.7804801823
30
0.0000000000
10
18.9163972558
20
14.7750868824
30
0.0000000000
10
18.9343247513
20
14.7656490309
30
0.0000000000
10
18.9518754170
20
14.7519664847
30
0.0000000000
10
18.9689105588
20
14.7337964270
30
0.0000000000
10
18.9853044797
20
14.7107572296
30
0.0000000000
10
19.0007959608
20
14.6824263529
30
0.0000000000
10
19.0149420922
20
14.6484471474
30
0.0000000000
10
19.0271382806
20
14.6084873357
30
0.0000000000
10
19.0366034584
20
14.5620168885
30
0.0000000000
10
19.0407403363
20
14.5221382570
30
0.0000000000
10
19.0416226612
20
14.4977740082
30
0.0000000000
10
19.0417421777
20
14.4912512256
30
0.0000000000
11
18.7611734818
21
14.7220505997
31
0.0000000000
11
18.7786751589
21
14.7370983707
31
0.0000000000
11
18.7959072128
21
14.7501214275
31
0.0000000000
11
18.8129870096
21
14.7610892864
31
0.0000000000
11
18.8299594246
21
14.7698856870
31
0.0000000000
11
18.8468109377
21
14.7763516952
31
0.0000000000
11
18.8635584264
21
14.7803377942
31
0.0000000000
11
18.8804909512
21
14.7816765044
31
0.0000000000
11
18.8979491654
21
14.7799663823
31
0.0000000000
11
18.9157116250
21
14.7746916009
31
0.0000000000
11
18.9334377086
21
14.7654791832
31
0.0000000000
11
18.9508137540
21
14.7521153109
31
0.0000000000
11
18.9677249019
21
14.7343077156
31
0.0000000000
11
18.9840765698
21
14.7115979243
31
0.0000000000
11
18.9995883161
21
14.6835336928
31
0.0000000000
11
19.0137804244
21
14.6497754857
31
0.0000000000
11
19.0260073072
21
14.6100713502
31
0.0000000000
11
19.0354604474
21
14.5640498786
31
0.0000000000
11
19.0410332198
21
14.5108087436
31
0.0000000000
11
19.0417421777
21
14.4912512256
31
0.0000000000
0
SPLINE
5
37B
100
AcDbEntity
8
0
100
AcDbSpline
62
9
6
CONTINUOUS
70
0
71
3
72
8
73
4
74
2
42
0.0000001000
43
0.0000001000
44
0.0000000001
12
0.0001721350
22
-0.0093945181
32
0.0000000000
13
0.0000110469
23
-0.0093962265
33
0.0000000000
40
0.0000000000
40
0.0000000000
40
0.0000000000
40
0.0000000000
40
1.0000000000
40
1.0000000000
40
1.0000000000
40
1.0000000000
10
19.0417421777
20
14.4912512256
30
0.0000000000
10
19.0417995560
20
14.4881197195
30
0.0000000000
10
19.0418300557
20
14.4849876996
30
0.0000000000
10
19.0418337380
20
14.4818556241
30
0.0000000000
11
19.0417421777
21
14.4912512256
31
0.0000000000
11
19.0418337380
21
14.4818556241
31
0.0000000000
0
SPLINE
5
37C
100
AcDbEntity
8
0
100
AcDbSpline
62
9
6
CONTINUOUS
70
0
71
3
72
15
73
11
74
9
42
0.0000001000
43
0.0000001000
44
0.0000000001
12
-0.3945151521
22
0.2041142431
32
0.0000000000
13
-0.4056645176
23
-0.1817600012
33
0.0000000000
40
0.0000000000
40
0.0000000000
40
0.0000000000
40
0.0000000000
40
0.1425078965
40
0.2791099952
40
0.4100698687
40
0.5358503481
40
0.6571232361
40
0.7747667924
40
0.8898452490
40
1.0000000000
40
1.0000000000
40
1.0000000000
40
1.0000000000
10
11.4776612779
20
25.5881940597
30
0.0000000000
10
11.4589207697
20
25.5978900235
30
0.0000000000
10
11.4214276331
20
25.6154117530
30
0.0000000000
10
11.3642640079
20
25.6361265199
30
0.0000000000
10
11.3077395146
20
25.6505702963
30
0.0000000000
10
11.2522379452
20
25.6586267296
30
0.0000000000
10
11.1981360199
20
25.6602212632
30
0.0000000000
10
11.1458116008
20
25.6553205126
30
0.0000000000
10
11.0961575942
20
25.6440559044
30
0.0000000000
10
11.0648007769
20
25.6324193670
30
0.0000000000
10
11.0499054855
20
25.6257454578
30
0.0000000000
11
11.4776612779
21
25.5881940597
31
0.0000000000
11
11.4202654958
21
25.6148903037
31
0.0000000000
11
11.3631773663
21
25.6354494841
31
0.0000000000
11
11.3067867079
21
25.6497312154
31
0.0000000000
11
11.2514785768
21
25.6576379767
31
0.0000000000
11
11.1976306372
21
25.6591157778
31
0.0000000000
11
11.1456105825
21
25.6541545276
31
0.0000000000
11
11.0957736248
21
25.6427881034
31
0.0000000000
11
11.0499054855
21
25.6257454578
31
0.0000000000
0
SPLINE
5
37D
100
AcDbEntity
8
0
100
AcDbSpline
62
9
6
CONTINUOUS
70
0
71
3
72
9
73
5
74
3
42
0.0000001000
43
0.0000001000
44
0.0000000001
12
-0.0038736307
22
-0.0017355995
32
0.0000000000
13
-0.0038535210
23
-0.0017798133
33
0.0000000000
40
0.0000000000
40
0.0000000000
40
0.0000000000
40
0.0000000000
40
0.3735012990
40
1.0000000000
40
1.0000000000
40
1.0000000000
40
1.0000000000
10
11.0499054855
20
25.6257454578
30
0.0000000000
10
11.0494232169
20
25.6255293749
30
0.0000000000
10
11.0481332426
20
25.6249480833
30
0.0000000000
10
11.0468466114
20
25.6243594137
30
0.0000000000
10
11.0460418694
20
25.6239877301
30
0.0000000000
11
11.0499054855
21
25.6257454578
31
0.0000000000
11
11.0484600691
21
25.6250941193
31
0.0000000000
11
11.0460418694
21
25.6239877301
31
0.0000000000
0
SPLINE
5
37E
100
AcDbEntity
8
0
100
AcDbSpline
62
9
6
CONTINUOUS
70
0
71
3
72
8
73
4
74
2
42
0.0000001000
43
0.0000001000
44
0.0000000001
12
-0.0494399858
22
-0.0228330797
32
0.0000000000
13
-0.0502020998
23
-0.0211267031
33
0.0000000000
40
0.0000000000
40
0.0000000000
40
0.0000000000
40
0.0000000000
40
1.0000000000
40
1.0000000000
40
1.0000000000
40
1.0000000000
10
5.5593422106
20
22.8549181881
30
0.0000000000
10
5.5428622153
20
22.8473071616
30
0.0000000000
10
5.5262449287
20
22.8399890038
30
0.0000000000
10
5.5095108954
20
22.8329467695
30
0.0000000000
11
5.5593422106
21
22.8549181881
31
0.0000000000
11
5.5095108954
21
22.8329467695
31
0.0000000000
0
SPLINE
5
37F
100
AcDbEntity
8
0
100
AcDbSpline
62
9
6
CONTINUOUS
70
0
71
3
72
12
73
8
74
6
42
0.0000001000
43
0.0000001000
44
0.0000000001
12
-0.2180363040
22
0.1128076195
32
0.0000000000
13
-0.2450330367
23
0.0171826668
33
0.0000000000
40
0.0000000000
40
0.0000000000
40
0.0000000000
40
0.0000000000
40
0.2578540087
40
0.5050220516
40
0.7419810374
40
0.9695684142
40
1.0000000000
40
1.0000000000
40
1.0000000000
40
1.0000000000
10
5.5593422106
20
22.8549181881
30
0.0000000000
10
5.5406016989
20
22.8646141537
30
0.0000000000
10
5.5031085556
20
22.8821358860
30
0.0000000000
10
5.4459449205
20
22.9028506548
30
0.0000000000
10
5.3894204187
20
22.9172944307
30
0.0000000000
10
5.3492552837
20
22.9231246728
30
0.0000000000
10
5.3281928833
20
22.9247694955
30
0.0000000000
10
5.3257073020
20
22.9249437941
30
0.0000000000
11
5.5593422106
21
22.8549181881
31
0.0000000000
11
5.5019464175
21
22.8816144366
31
0.0000000000
11
5.4448582781
21
22.9021736189
31
0.0000000000
11
5.3884676114
21
22.9164553496
31
0.0000000000
11
5.3331594737
21
22.9243621082
31
0.0000000000
11
5.3257073020
21
22.9249437941
31
0.0000000000
0
SPLINE
5
380
100
AcDbEntity
8
0
100
AcDbSpline
62
0
6
CONTINUOUS
70
0
71
3
72
10
73
6
74
4
42
0.0000001000
43
0.0000001000
44
0.0000000001
12
0.0480137065
22
-0.0241288565
32
0.0000000000
13
0.0480239769
23
-0.0241084088
33
0.0000000000
40
0.0000000000
40
0.0000000000
40
0.0000000000
40
0.0000000000
40
0.3356593340
40
0.6689922796
40
1.0000000000
40
1.0000000000
40
1.0000000000
40
1.0000000000
10
13.7169953554
20
21.9187421540
30
0.0000000000
10
13.7223674383
20
21.9160424620
30
0.0000000000
10
13.7330747450
20
21.9106625327
30
0.0000000000
10
13.7490810066
20
21.9026229497
30
0.0000000000
10
13.7597153796
20
21.8972834461
30
0.0000000000
10
13.7650141487
20
21.8946234230
30
0.0000000000
11
13.7169953554
21
21.9187421540
31
0.0000000000
11
13.7331121701
21
21.9106442045
31
0.0000000000
11
13.7491184167
21
21.9026046381
31
0.0000000000
11
13.7650141487
21
21.8946234230
31
0.0000000000
0
SPLINE
5
381
100
AcDbEntity
8
0
100
AcDbSpline
62
0
6
CONTINUOUS
70
0
71
3
72
41
73
37
74
35
42
0.0000001000
43
0.0000001000
44
0.0000000001
12
4.5556386745
22
2.2453587843
32
0.0000000000
13
1.8321637608
23
-4.7398186514
33
0.0000000000
40
0.0000000000
40
0.0000000000
40
0.0000000000
40
0.0000000000
40
0.0279736704
40
0.0569680524
40
0.0869213691
40
0.1177723082
40
0.1494359093
40
0.1818404858
40
0.2148825874
40
0.2484842730
40
0.2825277509
40
0.3169321231
40
0.3515691686
40
0.3863577846
40
0.4211631769
40
0.4559064469
40
0.4904501353
40
0.5247197787
40
0.5585792820
40
0.5919608306
40
0.6247339119
40
0.6568397403
40
0.6881578938
40
0.7186414016
40
0.7481849032
40
0.7767567717
40
0.8042724358
40
0.8307203619
40
0.8560437029
40
0.8802576062
40
0.9033416285
40
0.9253465603
40
0.9462989245
40
0.9662960068
40
0.9854218906
40
1.0000000000
40
1.0000000000
40
1.0000000000
40
1.0000000000
10
10.0220502130
20
22.2724607233
30
0.0000000000
10
10.0645295246
20
22.2933976988
30
0.0000000000
10
10.1521613376
20
22.3337881811
30
0.0000000000
10
10.2886189486
20
22.3889995668
30
0.0000000000
10
10.4319783963
20
22.4397408699
30
0.0000000000
10
10.5816396409
20
22.4857993412
30
0.0000000000
10
10.7370068874
20
22.5269920110
30
0.0000000000
10
10.8974256339
20
22.5631450746
30
0.0000000000
10
11.0622625446
20
22.5941157453
30
0.0000000000
10
11.2308152577
20
22.6197717638
30
0.0000000000
10
11.4024247960
20
22.6400127180
30
0.0000000000
10
11.5763524592
20
22.6547512466
30
0.0000000000
10
11.7519245220
20
22.6639301992
30
0.0000000000
10
11.9283786499
20
22.6675096030
30
0.0000000000
10
12.1050370945
20
22.6654757258
30
0.0000000000
10
12.2811272383
20
22.6578374832
30
0.0000000000
10
12.4559778429
20
22.6446240832
30
0.0000000000
10
12.6288197169
20
22.6258938149
30
0.0000000000
10
12.7989983929
20
22.6017177496
30
0.0000000000
10
12.9657618979
20
22.5722029991
30
0.0000000000
10
13.1284824444
20
22.5374608294
30
0.0000000000
10
13.2864388727
20
22.4976455611
30
0.0000000000
10
13.4390395504
20
22.4529063708
30
0.0000000000
10
13.5856072358
20
22.4034420626
30
0.0000000000
10
13.7255953856
20
22.3494367493
30
0.0000000000
10
13.8583829461
20
22.2911297847
30
0.0000000000
10
13.9834766452
20
22.2287363983
30
0.0000000000
10
14.1003225429
20
22.1625311917
30
0.0000000000
10
14.2084875574
20
22.0927556383
30
0.0000000000
10
14.3074934738
20
22.0197128116
30
0.0000000000
10
14.3969718443
20
21.9436645790
30
0.0000000000
10
14.4765246022
20
21.8649349280
30
0.0000000000
10
14.5458477589
20
21.7838010742
30
0.0000000000
10
14.6046214802
20
21.7006034132
30
0.0000000000
10
14.6494076217
20
21.6212921113
30
0.0000000000
10
14.6724677863
20
21.5690006047
30
0.0000000000
10
14.6813709475
20
21.5459680730
30
0.0000000000
11
10.0220502130
21
22.2724607233
31
0.0000000000
11
10.1510257578
21
22.3320505597
31
0.0000000000
11
10.2874922647
21
22.3873902968
31
0.0000000000
11
10.4308709974
21
22.4382457186
31
0.0000000000
11
10.5806031971
21
22.4844182379
31
0.0000000000
11
10.7360300931
21
22.5257051112
31
0.0000000000
11
10.8965695631
21
22.5619513781
31
0.0000000000
11
11.0614920882
21
22.5929926733
31
0.0000000000
11
11.2302026671
21
22.6187167345
31
0.0000000000
11
11.4019126846
21
22.6390036167
31
0.0000000000
11
11.5760238173
21
22.6537824028
31
0.0000000000
11
11.7517020376
21
22.6629825598
31
0.0000000000
11
11.9283543303
21
22.6665728415
31
0.0000000000
11
12.1051165740
21
22.6645359123
31
0.0000000000
11
12.2814088047
21
22.6568782968
31
0.0000000000
11
12.4563533176
21
22.6436383157
31
0.0000000000
11
12.6293901274
21
22.6248582183
31
0.0000000000
11
12.7996451716
21
22.6006330343
31
0.0000000000
11
12.9665846515
21
22.5710386113
31
0.0000000000
11
13.1293555921
21
22.5362262967
31
0.0000000000
11
13.2874559837
21
22.4963033754
31
0.0000000000
11
13.4400711014
21
22.4514756818
31
0.0000000000
11
13.5867358453
21
22.4018797724
31
0.0000000000
11
13.7266901275
21
22.3477727445
31
0.0000000000
11
13.8595105214
21
22.2893182660
31
0.0000000000
11
13.9845067175
21
22.2268201679
31
0.0000000000
11
14.1013014863
21
22.1604670651
31
0.0000000000
11
14.2092877586
21
22.0906038157
31
0.0000000000
11
14.3081388882
21
22.0174417884
31
0.0000000000
11
14.3973424455
21
21.9413601445
31
0.0000000000
11
14.4766266950
21
21.8625907453
31
0.0000000000
11
14.5455828603
21
21.7815395069
31
0.0000000000
11
14.6039984348
21
21.6984564028
31
0.0000000000
11
14.6515746723
21
21.6137659458
31
0.0000000000
11
14.6813709475
21
21.5459680730
31
0.0000000000
0
SPLINE
5
382
100
AcDbEntity
8
0
100
AcDbSpline
62
0
6
CONTINUOUS
70
0
71
3
72
20
73
16
74
14
42
0.0000001000
43
0.0000001000
44
0.0000000001
12
-1.1621140638
22
-0.5803025967
32
0.0000000000
13
0.0000887943
23
-1.2998309662
33
0.0000000000
40
0.0000000000
40
0.0000000000
40
0.0000000000
40
0.0000000000
40
0.1035949487
40
0.2029315819
40
0.2979357345
40
0.3886196468
40
0.4750345354
40
0.5575377023
40
0.6362334278
40
0.7113344977
40
0.7833156948
40
0.8529992282
40
0.9210474642
40
0.9880990121
40
1.0000000000
40
1.0000000000
40
1.0000000000
40
1.0000000000
10
9.3393400151
20
22.3630630504
30
0.0000000000
10
9.2992102994
20
22.3430242445
30
0.0000000000
10
9.2215689095
20
22.3017835332
30
0.0000000000
10
9.1111243174
20
22.2349916680
30
0.0000000000
10
9.0095201370
20
22.1647966484
30
0.0000000000
10
8.9171754112
20
22.0914796737
30
0.0000000000
10
8.8344024407
20
22.0152707206
30
0.0000000000
10
8.7615474026
20
21.9364410788
30
0.0000000000
10
8.6989675236
20
21.8553100302
30
0.0000000000
10
8.6470138454
20
21.7722999488
30
0.0000000000
10
8.6058837946
20
21.6877229755
30
0.0000000000
10
8.5757392729
20
21.6018438931
30
0.0000000000
10
8.5567592571
20
21.5149939972
30
0.0000000000
10
8.5511690488
20
21.4514144844
30
0.0000000000
10
8.5507789629
20
21.4172062835
30
0.0000000000
10
8.5507793151
20
21.4120498593
30
0.0000000000
11
9.3393400151
21
22.3630630504
31
0.0000000000
11
9.2205689791
21
22.2998098181
31
0.0000000000
11
9.1102405205
21
22.2328985244
31
0.0000000000
11
9.0088113020
21
22.1626065035
31
0.0000000000
11
8.9166798550
21
22.0892096225
31
0.0000000000
11
8.8342434814
21
22.0130261893
31
0.0000000000
11
8.7616684247
21
21.9341740646
31
0.0000000000
11
8.6994137436
21
21.8530964096
31
0.0000000000
11
8.6478438263
21
21.7702895309
31
0.0000000000
11
8.6071303324
21
21.6861194623
31
0.0000000000
11
8.5773042990
21
21.6006595471
31
0.0000000000
11
8.5585401871
21
21.5142832090
31
0.0000000000
11
8.5509559191
21
21.4275177262
31
0.0000000000
11
8.5507793151
21
21.4120498593
31
0.0000000000
0
SPLINE
5
383
100
AcDbEntity
8
0
100
AcDbSpline
62
0
6
CONTINUOUS
70
0
71
3
72
9
73
5
74
3
42
0.0000001000
43
0.0000001000
44
0.0000000001
12
-0.0020380283
22
-0.0010223068
32
0.0000000000
13
-0.0020398765
23
-0.0010186140
33
0.0000000000
40
0.0000000000
40
0.0000000000
40
0.0000000000
40
0.0000000000
40
0.5001117328
40
1.0000000000
40
1.0000000000
40
1.0000000000
40
1.0000000000
10
9.3413789676
20
22.3640835119
30
0.0000000000
10
9.3410392204
20
22.3639130894
30
0.0000000000
10
9.3403597234
20
22.3635726277
30
0.0000000000
10
9.3396799185
20
22.3632327814
30
0.0000000000
10
9.3393400151
20
22.3630630504
30
0.0000000000
11
9.3413789676
21
22.3640835119
31
0.0000000000
11
9.3403594946
21
22.3635727055
31
0.0000000000
11
9.3393400151
21
22.3630630504
31
0.0000000000
0
SPLINE
5
384
100
AcDbEntity
8
0
100
AcDbSpline
62
0
6
CONTINUOUS
70
0
71
3
72
10
73
6
74
4
42
0.0000001000
43
0.0000001000
44
0.0000000001
12
0.3128288885
22
-0.1337260017
32
0.0000000000
13
0.2936766765
23
-0.1717514678
33
0.0000000000
40
0.0000000000
40
0.0000000000
40
0.0000000000
40
0.0000000000
40
0.3436742093
40
0.6771155842
40
1.0000000000
40
1.0000000000
40
1.0000000000
40
1.0000000000
10
13.7650141487
20
21.8946234230
30
0.0000000000
10
13.8008512223
20
21.8793040303
30
0.0000000000
10
13.8709018485
20
21.8477941467
30
0.0000000000
10
13.9723926698
20
21.7971310725
30
0.0000000000
10
14.0375256586
20
21.7610490218
30
0.0000000000
10
14.0691335326
20
21.7425637310
30
0.0000000000
11
13.7650141487
21
21.8946234230
31
0.0000000000
11
13.8716179558
21
21.8465979605
31
0.0000000000
11
13.9730826078
21
21.7958656345
31
0.0000000000
11
14.0691335326
21
21.7425637310
31
0.0000000000
0
SPLINE
5
385
100
AcDbEntity
8
0
100
AcDbSpline
62
0
6
CONTINUOUS
70
0
71
3
72
10
73
6
74
4
42
0.0000001000
43
0.0000001000
44
0.0000000001
12
-0.0401259497
22
0.0199380878
32
0.0000000000
13
-0.0401137297
23
0.0199626619
33
0.0000000000
40
0.0000000000
40
0.0000000000
40
0.0000000000
40
0.0000000000
40
0.3304773746
40
0.6638133650
40
1.0000000000
40
1.0000000000
40
1.0000000000
40
1.0000000000
10
14.1092532897
20
21.7226131868
30
0.0000000000
10
14.1048330502
20
21.7248095491
30
0.0000000000
10
14.0959548017
20
21.7292222087
30
0.0000000000
10
14.0825815560
20
21.7358724043
30
0.0000000000
10
14.0736287659
20
21.7403266709
30
0.0000000000
10
14.0691335326
20
21.7425637310
30
0.0000000000
11
14.1092532897
21
21.7226131868
31
0.0000000000
11
14.0959932599
21
21.7292036596
31
0.0000000000
11
14.0826199016
21
21.7358538957
31
0.0000000000
11
14.0691335326
21
21.7425637310
31
0.0000000000
0
SPLINE
5
386
100
AcDbEntity
8
0
100
AcDbSpline
62
0
6
CONTINUOUS
70
0
71
3
72
26
73
22
74
20
42
0.0000001000
43
0.0000001000
44
0.0000000001
12
-1.2123392634
22
1.7380614368
32
0.0000000000
13
1.9093347856
23
0.9176090968
33
0.0000000000
40
0.0000000000
40
0.0000000000
40
0.0000000000
40
0.0000000000
40
0.0063716361
40
0.0591587563
40
0.1098340794
40
0.1587916959
40
0.2064648530
40
0.2533931078
40
0.3000860966
40
0.3471452992
40
0.3950648845
40
0.4443978106
40
0.4955307626
40
0.5488913750
40
0.6047162725
40
0.6632834157
40
0.7246880278
40
0.7890682131
40
0.8564165857
40
0.9267550041
40
1.0000000000
40
1.0000000000
40
1.0000000000
40
1.0000000000
10
8.1828011884
20
21.7102283727
30
0.0000000000
10
8.1802263268
20
21.7139198043
30
0.0000000000
10
8.1565067793
20
21.7483248487
30
0.0000000000
10
8.1157686516
20
21.8144679053
30
0.0000000000
10
8.0689310245
20
21.9115979355
30
0.0000000000
10
8.0343348113
20
22.0099352569
30
0.0000000000
10
8.0121482329
20
22.1091026387
30
0.0000000000
10
8.0025017778
20
22.2086695300
30
0.0000000000
10
8.0054504331
20
22.3082286742
30
0.0000000000
10
8.0209704702
20
22.4073175560
30
0.0000000000
10
8.0489818040
20
22.5055478089
30
0.0000000000
10
8.0893237198
20
22.6024908244
30
0.0000000000
10
8.1418134740
20
22.6978147153
30
0.0000000000
10
8.2062053606
20
22.7911357593
30
0.0000000000
10
8.2822511793
20
22.8821557252
30
0.0000000000
10
8.3696260538
20
22.9705180996
30
0.0000000000
10
8.4680163043
20
23.0559282673
30
0.0000000000
10
8.5770137643
20
23.1380572383
30
0.0000000000
10
8.6962278859
20
23.2166189196
30
0.0000000000
10
8.8251759091
20
23.2913097273
30
0.0000000000
10
8.9155234093
20
23.3374329857
30
0.0000000000
10
8.9621398155
20
23.3598364106
30
0.0000000000
11
8.1828011884
21
21.7102283727
31
0.0000000000
11
8.1751375613
21
21.7213450902
31
0.0000000000
11
8.1166986171
21
21.8166834473
31
0.0000000000
11
8.0702701274
21
21.9134740051
31
0.0000000000
11
8.0360252335
21
22.0113683423
31
0.0000000000
11
8.0141057975
21
22.1099511163
31
0.0000000000
11
8.0045847277
21
22.2089063626
31
0.0000000000
11
8.0075029279
21
22.3077771518
31
0.0000000000
11
8.0228477091
21
22.4062787240
31
0.0000000000
11
8.0505437308
21
22.5039397080
31
0.0000000000
11
8.0905144240
21
22.6005000583
31
0.0000000000
11
8.1425652021
21
22.6954937989
31
0.0000000000
11
8.2065630710
21
22.7886708637
31
0.0000000000
11
8.2821986298
21
22.8795796000
31
0.0000000000
11
8.3692646680
21
22.9679671015
31
0.0000000000
11
8.4673471438
21
23.0534089713
31
0.0000000000
11
8.5761444078
21
23.1356479831
31
0.0000000000
11
8.6951672489
21
23.2143135977
31
0.0000000000
11
8.8240160988
21
23.2891479121
31
0.0000000000
11
8.9621398155
21
23.3598364106
31
0.0000000000
0
SPLINE
5
387
100
AcDbEntity
8
0
100
AcDbSpline
62
0
6
CONTINUOUS
70
0
71
3
72
17
73
13
74
11
42
0.0000001000
43
0.0000001000
44
0.0000000001
12
0.4874775690
22
0.2342773280
32
0.0000000000
13
0.4839201125
23
-0.2418800080
33
0.0000000000
40
0.0000000000
40
0.0000000000
40
0.0000000000
40
0.0000000000
40
0.0999796027
40
0.1997326423
40
0.3000303629
40
0.4016462208
40
0.5053393739
40
0.6118486692
40
0.7218700944
40
0.8360428414
40
0.9549309061
40
1.0000000000
40
1.0000000000
40
1.0000000000
40
1.0000000000
10
12.5172595466
20
25.0683949254
30
0.0000000000
10
12.5335054845
20
25.0762025767
30
0.0000000000
10
12.5667737135
20
25.0901728124
30
0.0000000000
10
12.6186215667
20
25.1059060390
30
0.0000000000
10
12.6721128628
20
25.1162572828
30
0.0000000000
10
12.7270907553
20
25.1211137253
30
0.0000000000
10
12.7833962045
20
25.1203537179
30
0.0000000000
10
12.8408520142
20
25.1138448895
30
0.0000000000
10
12.8992607372
20
25.1014501150
30
0.0000000000
10
12.9583968821
20
25.0830341037
30
0.0000000000
10
13.0048158505
20
25.0639062036
30
0.0000000000
10
13.0314649533
20
25.0510908415
30
0.0000000000
10
13.0387349003
20
25.0474570705
30
0.0000000000
11
12.5172595466
21
25.0683949254
31
0.0000000000
11
12.5671239852
21
25.0893125502
31
0.0000000000
11
12.6187517993
21
25.1049759131
31
0.0000000000
11
12.6720075853
21
25.1152942232
31
0.0000000000
11
12.7267509442
21
25.1201589042
31
0.0000000000
11
12.7828289951
21
25.1194455483
31
0.0000000000
11
12.8400749370
21
25.1130175556
31
0.0000000000
11
12.8982979380
21
25.1007311372
31
0.0000000000
11
12.9572781407
21
25.0824429212
31
0.0000000000
11
13.0167601521
21
25.0580199754
31
0.0000000000
11
13.0387349003
21
25.0474570705
31
0.0000000000
0
SPLINE
5
388
100
AcDbEntity
8
0
100
AcDbSpline
62
0
6
CONTINUOUS
70
0
71
3
72
13
73
9
74
7
42
0.0000001000
43
0.0000001000
44
0.0000000001
12
-0.1961525084
22
-0.1002226116
32
0.0000000000
13
-0.0000000000
23
-0.2196572814
33
0.0000000000
40
0.0000000000
40
0.0000000000
40
0.0000000000
40
0.0000000000
40
0.0932095149
40
0.2503342003
40
0.4167661673
40
0.5962409861
40
0.7905974107
40
1.0000000000
40
1.0000000000
40
1.0000000000
40
1.0000000000
10
-13.9943771532
20
23.4814505001
30
0.0000000000
10
-14.0004715799
20
23.4783365998
30
0.0000000000
10
-14.0161927359
20
23.4687023451
30
0.0000000000
10
-14.0386021263
20
23.4475368688
30
0.0000000000
10
-14.0589675471
20
23.4165001939
30
0.0000000000
10
-14.0736881915
20
23.3795377278
30
0.0000000000
10
-14.0825320921
20
23.3375846658
30
0.0000000000
10
-14.0843546944
20
23.3079713409
30
0.0000000000
10
-14.0843546944
20
23.2926390731
30
0.0000000000
11
-13.9943771532
21
23.4814505001
31
0.0000000000
11
-14.0118653943
21
23.4707352966
31
0.0000000000
11
-14.0370880507
21
23.4471767548
31
0.0000000000
11
-14.0573794100
21
23.4167670915
31
0.0000000000
11
-14.0722415240
21
23.3802528941
31
0.0000000000
11
-14.0813076074
21
23.3385348375
31
0.0000000000
11
-14.0843546944
21
23.2926390731
31
0.0000000000
0
SPLINE
5
389
100
AcDbEntity
8
0
100
AcDbSpline
62
0
6
CONTINUOUS
70
0
71
3
72
9
73
5
74
3
42
0.0000001000
43
0.0000001000
44
0.0000000001
12
-0.0004065111
22
0.0259308417
32
0.0000000000
13
-0.0020642167
23
0.0258517468
33
0.0000000000
40
0.0000000000
40
0.0000000000
40
0.0000000000
40
0.0000000000
40
0.4989863682
40
1.0000000000
40
1.0000000000
40
1.0000000000
40
1.0000000000
10
8.9353923627
20
20.9512102241
30
0.0000000000
10
8.9353247482
20
20.9555232697
30
0.0000000000
10
8.9350485990
20
20.9641654956
30
0.0000000000
10
8.9344740080
20
20.9727926126
30
0.0000000000
10
8.9341292744
20
20.9771099718
30
0.0000000000
11
8.9353923627
21
20.9512102241
31
0.0000000000
11
8.9349748506
21
20.9641442136
31
0.0000000000
11
8.9341292744
21
20.9771099718
31
0.0000000000
0
SPLINE
5
38A
100
AcDbEntity
8
0
100
AcDbSpline
62
0
6
CONTINUOUS
70
0
71
3
72
9
73
5
74
3
42
0.0000001000
43
0.0000001000
44
0.0000000001
12
-0.0005036446
22
-0.0035227343
32
0.0000000000
13
-0.0017167576
23
-0.0031170593
33
0.0000000000
40
0.0000000000
40
0.0000000000
40
0.0000000000
40
0.0000000000
40
0.4474175335
40
1.0000000000
40
1.0000000000
40
1.0000000000
40
1.0000000000
10
8.9353923627
20
-16.5667339782
30
0.0000000000
10
8.9353172495
20
-16.5672593559
30
0.0000000000
10
8.9349777179
20
-16.5684084975
30
0.0000000000
10
8.9344454911
20
-16.5694715830
30
0.0000000000
10
8.9341292744
20
-16.5700457271
30
0.0000000000
11
8.9353923627
21
-16.5667339782
31
0.0000000000
11
8.9349748506
21
-16.5682704212
31
0.0000000000
11
8.9341292744
21
-16.5700457271
31
0.0000000000
0
SPLINE
5
38B
100
AcDbEntity
8
0
100
AcDbSpline
62
0
6
CONTINUOUS
70
0
71
3
72
12
73
8
74
6
42
0.0000001000
43
0.0000001000
44
0.0000000001
12
0.1035245975
22
-0.0518042949
32
0.0000000000
13
0.1037892104
23
0.0505590123
33
0.0000000000
40
0.0000000000
40
0.0000000000
40
0.0000000000
40
0.0000000000
40
0.0702682166
40
0.2823115323
40
0.5037058504
40
0.7425202568
40
1.0000000000
40
1.0000000000
40
1.0000000000
40
1.0000000000
10
1.3856427322
20
-24.6118184861
30
0.0000000000
10
1.3880675618
20
-24.6130318846
30
0.0000000000
10
1.3980165264
20
-24.6174911940
30
0.0000000000
10
1.4170028957
20
-24.6223072571
30
0.0000000000
10
1.4430900084
20
-24.6225478340
30
0.0000000000
10
1.4703207098
20
-24.6170122136
30
0.0000000000
10
1.4881514246
20
-24.6098920535
30
0.0000000000
10
1.4970592976
20
-24.6055527463
30
0.0000000000
11
1.3856427322
21
-24.6118184861
31
0.0000000000
11
1.3930631085
21
-24.6151427162
31
0.0000000000
11
1.4167657969
21
-24.6212631417
31
0.0000000000
11
1.4423220623
21
-24.6216819830
31
0.0000000000
11
1.4693810045
21
-24.6163938806
31
0.0000000000
11
1.4970592976
21
-24.6055527463
31
0.0000000000
0
SPLINE
5
38C
100
AcDbEntity
8
0
100
AcDbSpline
62
0
6
CONTINUOUS
70
0
71
3
72
13
73
9
74
7
42
0.0000001000
43
0.0000001000
44
0.0000000001
12
-0.1410768327
22
0.0705989525
32
0.0000000000
13
0.0000000000
23
0.1573187955
33
0.0000000000
40
0.0000000000
40
0.0000000000
40
0.0000000000
40
0.0000000000
40
0.1002829637
40
0.2556824971
40
0.4210753023
40
0.5986534561
40
0.7921182670
40
1.0000000000
40
1.0000000000
40
1.0000000000
40
1.0000000000
10
-0.2916003950
20
-23.7731968160
30
0.0000000000
10
-0.2963162626
20
-23.7708368586
30
0.0000000000
10
-0.3078317920
20
-23.7637987021
30
0.0000000000
10
-0.3239616052
20
-23.7483949412
30
0.0000000000
10
-0.3383050730
20
-23.7263037353
30
0.0000000000
10
-0.3486844549
20
-23.6999876926
30
0.0000000000
10
-0.3549145830
20
-23.6701520968
30
0.0000000000
10
-0.3561985721
20
-23.6490706151
30
0.0000000000
10
-0.3561985721
20
-23.6381693804
30
0.0000000000
11
-0.2916003950
21
-23.7731968160
31
0.0000000000
11
-0.3050846367
21
-23.7649597344
31
0.0000000000
11
-0.3228617269
21
-23.7481774834
31
0.0000000000
11
-0.3372020939
21
-23.7264665901
31
0.0000000000
11
-0.3476472599
21
-23.7005563622
31
0.0000000000
11
-0.3540541877
21
-23.6708027048
31
0.0000000000
11
-0.3561985721
21
-23.6381693804
31
0.0000000000
0
SPLINE
5
38D
100
AcDbEntity
8
0
100
AcDbSpline
62
0
6
CONTINUOUS
70
0
71
3
72
9
73
5
74
3
42
0.0000001000
43
0.0000001000
44
0.0000000001
12
0.0223544506
22
-0.0111796084
32
0.0000000000
13
0.0243998698
23
-0.0050947154
33
0.0000000000
40
0.0000000000
40
0.0000000000
40
0.0000000000
40
0.0000000000
40
0.0711022819
40
1.0000000000
40
1.0000000000
40
1.0000000000
40
1.0000000000
10
-11.9786725409
20
23.7099139722
30
0.0000000000
10
-11.9781427235
20
23.7096490070
30
0.0000000000
10
-11.9706556135
20
23.7059927307
30
0.0000000000
10
-11.9626820146
20
23.7033387546
30
0.0000000000
10
-11.9551270202
20
23.7017612648
30
0.0000000000
11
-11.9786725409
21
23.7099139722
31
0.0000000000
11
-11.9770755628
21
23.7091341350
31
0.0000000000
11
-11.9551270202
21
23.7017612648
31
0.0000000000
0
SPLINE
5
38E
100
AcDbEntity
8
0
100
AcDbSpline
62
0
6
CONTINUOUS
70
0
71
3
72
13
73
9
74
7
42
0.0000001000
43
0.0000001000
44
0.0000000001
12
-0.1411200199
22
0.0705753522
32
0.0000000000
13
-0.0000000000
23
0.1573462303
33
0.0000000000
40
0.0000000000
40
0.0000000000
40
0.0000000000
40
0.0000000000
40
0.1341877812
40
0.2839661477
40
0.4437692844
40
0.6151905100
40
0.8009213695
40
1.0000000000
40
1.0000000000
40
1.0000000000
40
1.0000000000
10
-13.6559157608
20
24.5485355756
30
0.0000000000
10
-13.6622279549
20
24.5516923589
30
0.0000000000
10
-13.6748062872
20
24.5599089647
30
0.0000000000
10
-13.6909927528
20
24.5769204937
30
0.0000000000
10
-13.7041302737
20
24.5986588166
30
0.0000000000
10
-13.7136323108
20
24.6241972908
30
0.0000000000
10
-13.7193368289
20
24.6529132254
30
0.0000000000
10
-13.7205167365
20
24.6731263513
30
0.0000000000
10
-13.7205167365
20
24.6835677753
30
0.0000000000
11
-13.6559157608
21
24.5485355756
31
0.0000000000
11
-13.6736198171
21
24.5600538424
31
0.0000000000
11
-13.6899631703
21
24.5770332766
31
0.0000000000
11
-13.7031243035
21
24.5984581801
31
0.0000000000
11
-13.7127007832
21
24.6236733721
31
0.0000000000
11
-13.7185554452
21
24.6523049642
31
0.0000000000
11
-13.7205167365
21
24.6835677753
31
0.0000000000
0
SPLINE
5
38F
100
AcDbEntity
8
0
100
AcDbSpline
62
0
6
CONTINUOUS
70
0
71
3
72
9
73
5
74
3
42
0.0000001000
43
0.0000001000
44
0.0000000001
12
0.0223544506
22
-0.0111796084
32
0.0000000000
13
0.0243998698
23
-0.0050947154
33
0.0000000000
40
0.0000000000
40
0.0000000000
40
0.0000000000
40
0.0000000000
40
0.0711022819
40
1.0000000000
40
1.0000000000
40
1.0000000000
40
1.0000000000
10
1.3856456235
20
17.0277548900
30
0.0000000000
10
1.3861754410
20
17.0274899248
30
0.0000000000
10
1.3936625509
20
17.0238336485
30
0.0000000000
10
1.4016361498
20
17.0211796724
30
0.0000000000
10
1.4091911442
20
17.0196021826
30
0.0000000000
11
1.3856456235
21
17.0277548900
31
0.0000000000
11
1.3872426016
21
17.0269750527
31
0.0000000000
11
1.4091911442
21
17.0196021826
31
0.0000000000
0
SPLINE
5
390
100
AcDbEntity
8
0
100
AcDbSpline
62
0
6
CONTINUOUS
70
0
71
3
72
13
73
9
74
7
42
0.0000001000
43
0.0000001000
44
0.0000000001
12
-0.1411200199
22
0.0705753522
32
0.0000000000
13
-0.0000000000
23
0.1573462303
33
0.0000000000
40
0.0000000000
40
0.0000000000
40
0.0000000000
40
0.0000000000
40
0.1341877812
40
0.2839661477
40
0.4437692844
40
0.6151905100
40
0.8009213695
40
1.0000000000
40
1.0000000000
40
1.0000000000
40
1.0000000000
10
-0.2915975964
20
17.8663764934
30
0.0000000000
10
-0.2979097905
20
17.8695332767
30
0.0000000000
10
-0.3104881228
20
17.8777498825
30
0.0000000000
10
-0.3266745884
20
17.8947614115
30
0.0000000000
10
-0.3398121092
20
17.9164997344
30
0.0000000000
10
-0.3493141464
20
17.9420382086
30
0.0000000000
10
-0.3550186644
20
17.9707541432
30
0.0000000000
10
-0.3561985721
20
17.9909672690
30
0.0000000000
10
-0.3561985721
20
18.0014086931
30
0.0000000000
11
-0.2915975964
21
17.8663764934
31
0.0000000000
11
-0.3093016527
21
17.8778947601
31
0.0000000000
11
-0.3256450059
21
17.8948741944
31
0.0000000000
11
-0.3388061390
21
17.9162990978
31
0.0000000000
11
-0.3483826187
21
17.9415142899
31
0.0000000000
11
-0.3542372808
21
17.9701458820
31
0.0000000000
11
-0.3561985721
21
18.0014086931
31
0.0000000000
0
SPLINE
5
391
100
AcDbEntity
8
0
100
AcDbSpline
62
0
6
CONTINUOUS
70
0
71
3
72
13
73
9
74
7
42
0.0000001000
43
0.0000001000
44
0.0000000001
12
-0.1411184857
22
0.0705745873
32
0.0000000000
13
-0.0000000000
23
0.1573445288
33
0.0000000000
40
0.0000000000
40
0.0000000000
40
0.0000000000
40
0.0000000000
40
0.1341870270
40
0.2839657539
40
0.4437691199
40
0.6151904691
40
0.8009213618
40
1.0000000000
40
1.0000000000
40
1.0000000000
40
1.0000000000
10
3.1629410644
20
-22.6427300234
30
0.0000000000
10
3.1566289744
20
-22.6395732920
30
0.0000000000
10
3.1440507826
20
-22.6313568131
30
0.0000000000
10
3.1278644239
20
-22.6143455477
30
0.0000000000
10
3.1147269101
20
-22.5926075001
30
0.0000000000
10
3.1052248078
20
-22.5670693402
30
0.0000000000
10
3.0995202073
20
-22.5383537433
30
0.0000000000
10
3.0983400885
20
-22.5181408415
30
0.0000000000
10
3.0983400885
20
-22.5076995300
30
0.0000000000
11
3.1629410644
21
-22.6427300234
31
0.0000000000
11
3.1452372774
21
-22.6312119782
31
0.0000000000
11
3.1288939888
21
-22.6142327568
31
0.0000000000
11
3.1157328651
21
-22.5928081243
31
0.0000000000
11
3.1061563334
21
-22.5675932432
31
0.0000000000
11
3.1003015567
21
-22.5389619918
31
0.0000000000
11
3.0983400885
21
-22.5076995300
31
0.0000000000
0
SPLINE
5
392
100
AcDbEntity
8
0
100
AcDbSpline
62
0
6
CONTINUOUS
70
0
71
3
72
9
73
5
74
3
42
0.0000001000
43
0.0000001000
44
0.0000000001
12
0.0032858702
22
0.0020479729
32
0.0000000000
13
0.0001131308
23
0.0034647824
33
0.0000000000
40
0.0000000000
40
0.0000000000
40
0.0000000000
40
0.0000000000
40
0.7170165807
40
1.0000000000
40
1.0000000000
40
1.0000000000
40
1.0000000000
10
8.9335883993
20
20.3660203444
30
0.0000000000
10
8.9343737404
20
20.3665098213
30
0.0000000000
10
8.9352982786
20
20.3674175554
30
0.0000000000
10
8.9354983310
20
20.3685339398
30
0.0000000000
10
8.9355090024
20
20.3688607651
30
0.0000000000
11
8.9335883993
21
20.3660203444
31
0.0000000000
11
8.9353270914
21
20.3679188119
31
0.0000000000
11
8.9355090024
21
20.3688607651
31
0.0000000000
0
SPLINE
5
393
100
AcDbEntity
8
0
100
AcDbSpline
62
0
6
CONTINUOUS
70
0
71
3
72
12
73
8
74
6
42
0.0000001000
43
0.0000001000
44
0.0000000001
12
0.0000024720
22
0.1446720053
32
0.0000000000
13
-0.1289551214
23
0.0644775607
33
0.0000000000
40
0.0000000000
40
0.0000000000
40
0.0000000000
40
0.0000000000
40
0.1637122150
40
0.3390315196
40
0.5344106615
40
0.7543496530
40
1.0000000000
40
1.0000000000
40
1.0000000000
40
1.0000000000
10
-1.3746306846
20
25.7948520664
30
0.0000000000
10
-1.3746305497
20
25.8027469246
30
0.0000000000
10
-1.3773272180
20
25.8190954756
30
0.0000000000
10
-1.3889447038
20
25.8423564910
30
0.0000000000
10
-1.4075234233
20
25.8641052217
30
0.0000000000
10
-1.4324753392
20
25.8839979521
30
0.0000000000
10
-1.4519393601
20
25.8951957226
30
0.0000000000
10
-1.4624986502
20
25.9004753677
30
0.0000000000
11
-1.3746306846
21
25.7948520664
31
0.0000000000
11
-1.3783246371
21
25.8181646211
31
0.0000000000
11
-1.3893142793
21
25.8409274868
31
0.0000000000
11
-1.4073294899
21
25.8625826501
31
0.0000000000
11
-1.4319259796
21
25.8825960178
31
0.0000000000
11
-1.4624986502
21
25.9004753677
31
0.0000000000
0
SPLINE
5
394
100
AcDbEntity
8
0
100
AcDbSpline
62
0
6
CONTINUOUS
70
0
71
3
72
13
73
9
74
7
42
0.0000001000
43
0.0000001000
44
0.0000000001
12
0.0000258597
22
0.1446711661
32
0.0000000000
13
-0.1289558739
23
0.0644779370
33
0.0000000000
40
0.0000000000
40
0.0000000000
40
0.0000000000
40
0.0000000000
40
0.0029880403
40
0.1661938042
40
0.3410778189
40
0.5359454890
40
0.7552121694
40
1.0000000000
40
1.0000000000
40
1.0000000000
40
1.0000000000
10
4.1798327774
20
23.0176219792
30
0.0000000000
10
4.1798328032
20
23.0177660736
30
0.0000000000
10
4.1798101824
20
23.0257805260
30
0.0000000000
10
4.1770104826
20
23.0422102973
30
0.0000000000
10
4.1653468561
20
23.0653645930
30
0.0000000000
10
4.1467795951
20
23.0870167977
30
0.0000000000
10
4.1218887763
20
23.1068256976
30
0.0000000000
10
4.1024871402
20
23.1179824725
30
0.0000000000
10
4.0919648640
20
23.1232436106
30
0.0000000000
11
4.1798327774
21
23.0176219792
31
0.0000000000
11
4.1798315561
21
23.0180542585
31
0.0000000000
11
4.1760288637
21
23.0412754808
31
0.0000000000
11
4.1649870035
21
23.0639434383
31
0.0000000000
11
4.1469753811
21
23.0855058021
31
0.0000000000
11
4.1224349102
21
23.1054347050
31
0.0000000000
11
4.0919648640
21
23.1232436106
31
0.0000000000
0
SPLINE
5
395
100
AcDbEntity
8
0
100
AcDbSpline
62
0
6
CONTINUOUS
70
0
71
3
72
17
73
13
74
11
42
0.0000001000
43
0.0000001000
44
0.0000000001
12
0.4608527432
22
-0.2304263716
32
0.0000000000
13
0.0000000000
23
-0.5152490307
33
0.0000000000
40
0.0000000000
40
0.0000000000
40
0.0000000000
40
0.0000000000
40
0.0874854453
40
0.1810663987
40
0.2799044282
40
0.3828032215
40
0.4883360357
40
0.5949178722
40
0.7009068930
40
0.8047067593
40
0.9048273562
40
1.0000000000
40
1.0000000000
40
1.0000000000
40
1.0000000000
10
3.9115128868
20
17.0840359836
30
0.0000000000
10
3.9249521893
20
17.0773163324
30
0.0000000000
10
3.9516875168
20
17.0611851709
30
0.0000000000
10
3.9893081635
20
17.0310754467
30
0.0000000000
10
4.0250225353
20
16.9949101525
30
0.0000000000
10
4.0579687487
20
16.9535667913
30
0.0000000000
10
4.0873604617
20
16.9080406808
30
0.0000000000
10
4.1124867934
20
16.8594331337
30
0.0000000000
10
4.1327401013
20
16.8089214777
30
0.0000000000
10
4.1476298488
20
16.7577237228
30
0.0000000000
10
4.1567946864
20
16.7070842272
30
0.0000000000
10
4.1590002603
20
16.6735177345
30
0.0000000000
10
4.1590002603
20
16.6571718637
30
0.0000000000
11
3.9115128868
21
17.0840359836
31
0.0000000000
11
3.9502274275
21
17.0609469945
31
0.0000000000
11
3.9879885393
21
17.0309632438
31
0.0000000000
11
4.0238674076
21
16.9948220686
31
0.0000000000
11
4.0569792258
21
16.9534147117
31
0.0000000000
11
4.0865109602
21
16.9077573873
31
0.0000000000
11
4.1117336166
21
16.8589761891
31
0.0000000000
11
4.1320249759
21
16.8082751665
31
0.0000000000
11
4.1468870899
21
16.7568988551
31
0.0000000000
11
4.1559531733
21
16.7061147151
31
0.0000000000
11
4.1590002603
21
16.6571718637
31
0.0000000000
0
SPLINE
5
396
100
AcDbEntity
8
0
100
AcDbSpline
62
0
6
CONTINUOUS
70
0
71
3
72
13
73
9
74
7
42
0.0000001000
43
0.0000001000
44
0.0000000001
12
0.0000000000
22
-0.2196572814
32
0.0000000000
13
-0.1961525084
23
-0.1002226116
33
0.0000000000
40
0.0000000000
40
0.0000000000
40
0.0000000000
40
0.0000000000
40
0.2094025893
40
0.4037590139
40
0.5832338327
40
0.7496657997
40
0.9067904851
40
1.0000000000
40
1.0000000000
40
1.0000000000
40
1.0000000000
10
4.1590002603
20
-21.5194099810
30
0.0000000000
10
4.1590002603
20
-21.5347422488
30
0.0000000000
10
4.1571776580
20
-21.5643555737
30
0.0000000000
10
4.1483337574
20
-21.6063086357
30
0.0000000000
10
4.1336131129
20
-21.6432711018
30
0.0000000000
10
4.1132476922
20
-21.6743077767
30
0.0000000000
10
4.0908383018
20
-21.6954732530
30
0.0000000000
10
4.0751171458
20
-21.7051075077
30
0.0000000000
10
4.0690227191
20
-21.7082214080
30
0.0000000000
11
4.1590002603
21
-21.5194099810
31
0.0000000000
11
4.1559531733
21
-21.5653057454
31
0.0000000000
11
4.1468870899
21
-21.6070238020
31
0.0000000000
11
4.1320249759
21
-21.6435379994
31
0.0000000000
11
4.1117336166
21
-21.6739476627
31
0.0000000000
11
4.0865109602
21
-21.6975062045
31
0.0000000000
11
4.0690227191
21
-21.7082214080
31
0.0000000000
0
SPLINE
5
397
100
AcDbEntity
8
0
100
AcDbSpline
62
0
6
CONTINUOUS
70
0
71
3
72
12
73
8
74
6
42
0.0000001000
43
0.0000001000
44
0.0000000001
12
0.1442257105
22
-0.0721128553
32
0.0000000000
13
0.1452198943
23
0.0711107357
33
0.0000000000
40
0.0000000000
40
0.0000000000
40
0.0000000000
40
0.0000000000
40
0.2589093298
40
0.4980032510
40
0.7205148469
40
0.9322066891
40
1.0000000000
40
1.0000000000
40
1.0000000000
40
1.0000000000
10
1.4366391527
20
-22.9248870608
30
0.0000000000
10
1.4490862800
20
-22.9311106244
30
0.0000000000
10
1.4739718065
20
-22.9413494200
30
0.0000000000
10
1.5120730520
20
-22.9495030180
30
0.0000000000
10
1.5485737698
20
-22.9495070265
30
0.0000000000
10
1.5750542756
20
-22.9429970066
30
0.0000000000
10
1.5888568729
20
-22.9369344564
30
0.0000000000
10
1.5921385187
20
-22.9353275123
30
0.0000000000
11
1.4366391527
21
-22.9248870608
31
0.0000000000
11
1.4753536933
21
-22.9405126123
31
0.0000000000
11
1.5131148051
21
-22.9482899733
31
0.0000000000
11
1.5489936735
21
-22.9480276665
31
0.0000000000
11
1.5821054917
21
-22.9397321278
31
0.0000000000
11
1.5921385187
21
-22.9353275123
31
0.0000000000
0
SPLINE
5
398
100
AcDbEntity
8
0
100
AcDbSpline
62
0
6
CONTINUOUS
70
0
71
3
72
12
73
8
74
6
42
0.0000001000
43
0.0000001000
44
0.0000000001
12
-0.1280997254
22
-0.0657175839
32
0.0000000000
13
-0.0000198404
23
-0.1444569908
33
0.0000000000
40
0.0000000000
40
0.0000000000
40
0.0000000000
40
0.0000000000
40
0.2451070430
40
0.4650070858
40
0.6609705450
40
0.8375383260
40
1.0000000000
40
1.0000000000
40
1.0000000000
40
1.0000000000
10
-8.0369389836
20
23.0714038527
30
0.0000000000
10
-8.0474050319
20
23.0660345718
30
0.0000000000
10
-8.0666935175
20
23.0546504365
30
0.0000000000
10
-8.0913607994
20
23.0344730463
30
0.0000000000
10
-8.1096758759
20
23.0124402105
30
0.0000000000
10
-8.1209901505
20
22.9890446509
30
0.0000000000
10
-8.1235753012
20
22.9727178956
30
0.0000000000
10
-8.1235763757
20
22.9648949874
30
0.0000000000
11
-8.0369389836
21
23.0714038527
31
0.0000000000
11
-8.0672016196
21
23.0532522972
31
0.0000000000
11
-8.0915093800
21
23.0329674997
31
0.0000000000
11
-8.1092687187
21
23.0110447049
31
0.0000000000
11
-8.1200449082
21
22.9880207122
31
0.0000000000
11
-8.1235763757
21
22.9648949874
31
0.0000000000
0
SPLINE
5
399
100
AcDbEntity
8
0
100
AcDbSpline
62
0
6
CONTINUOUS
70
0
71
3
72
17
73
13
74
11
42
0.0000001000
43
0.0000001000
44
0.0000000001
12
-0.3892831373
22
0.1946415686
32
0.0000000000
13
-0.3912763246
23
-0.1906030928
33
0.0000000000
40
0.0000000000
40
0.0000000000
40
0.0000000000
40
0.0000000000
40
0.0891031991
40
0.1852014033
40
0.2868711654
40
0.3924014128
40
0.4999155417
40
0.6074372688
40
0.7129896138
40
0.8146951064
40
0.9108405521
40
1.0000000000
40
1.0000000000
40
1.0000000000
40
1.0000000000
10
-1.6429506273
20
25.9907013562
30
0.0000000000
10
-1.6545127516
20
25.9964824184
30
0.0000000000
10
-1.6793297968
20
26.0069594476
30
0.0000000000
10
-1.7191954273
20
26.0191135034
30
0.0000000000
10
-1.7623308105
20
26.0280832712
30
0.0000000000
10
-1.8076972515
20
26.0336489319
30
0.0000000000
10
-1.8542066291
20
26.0356760859
30
0.0000000000
10
-1.9007371718
20
26.0341147336
30
0.0000000000
10
-1.9461665888
20
26.0290035703
30
0.0000000000
10
-1.9894050829
20
26.0204660552
30
0.0000000000
10
-2.0294113271
20
26.0087115703
30
0.0000000000
10
-2.0543483185
20
25.9984840366
30
0.0000000000
10
-2.0659769789
20
25.9928193478
30
0.0000000000
11
-1.6429506273
21
25.9907013562
31
0.0000000000
11
-1.6786053813
21
26.0059548508
31
0.0000000000
11
-1.7185731118
21
26.0182800486
31
0.0000000000
11
-1.7618780635
21
26.0273759718
31
0.0000000000
11
-1.8074600896
21
26.0330199575
31
0.0000000000
11
-1.8542085381
21
26.0350743056
31
0.0000000000
11
-1.9009785302
21
26.0334883940
31
0.0000000000
11
-1.9466244876
21
26.0283013132
31
0.0000000000
11
-1.9900342258
21
26.0196395696
31
0.0000000000
11
-2.0301448171
21
26.0077151912
31
0.0000000000
11
-2.0659769789
21
25.9928193478
31
0.0000000000
0
SPLINE
5
39A
100
AcDbEntity
8
0
100
AcDbSpline
62
0
6
CONTINUOUS
70
0
71
3
72
17
73
13
74
11
42
0.0000001000
43
0.0000001000
44
0.0000000001
12
-0.3905141315
22
0.1952570657
32
0.0000000000
13
-0.3916239349
23
-0.1930215070
33
0.0000000000
40
0.0000000000
40
0.0000000000
40
0.0000000000
40
0.0000000000
40
0.0891659336
40
0.1853519118
40
0.2871213145
40
0.3927472656
40
0.5003366228
40
0.6078965497
40
0.7134351177
40
0.8150632032
40
0.9110602977
40
1.0000000000
40
1.0000000000
40
1.0000000000
40
1.0000000000
10
3.9115128868
20
23.2134695992
30
0.0000000000
10
3.8999060345
20
23.2192730253
30
0.0000000000
10
3.8749872865
20
23.2297858592
30
0.0000000000
10
3.8349535706
20
23.2419666380
30
0.0000000000
10
3.7916337408
20
23.2509378841
30
0.0000000000
10
3.7460785794
20
23.2564780945
30
0.0000000000
10
3.6993887780
20
23.2584524915
30
0.0000000000
10
3.6526987374
20
23.2568119958
30
0.0000000000
10
3.6071428346
20
23.2515975492
30
0.0000000000
10
3.5638217435
20
23.2429360075
30
0.0000000000
10
3.5237862334
20
23.2310413172
30
0.0000000000
10
3.4988591235
20
23.2207035408
30
0.0000000000
10
3.4872488181
20
23.2149811157
30
0.0000000000
11
3.9115128868
21
23.2134695992
31
0.0000000000
11
3.8757169697
21
23.2287745432
31
0.0000000000
11
3.8355794992
21
23.2411281556
31
0.0000000000
11
3.7920876425
21
23.2502265260
31
0.0000000000
11
3.7463140630
21
23.2558452711
31
0.0000000000
11
3.6993823204
21
23.2578462897
31
0.0000000000
11
3.6524503629
21
23.2561798912
31
0.0000000000
11
3.6066763151
21
23.2508874503
31
0.0000000000
11
3.5631837209
21
23.2420989974
31
0.0000000000
11
3.5230454801
21
23.2300312670
31
0.0000000000
11
3.4872488181
21
23.2149811157
31
0.0000000000
0
SPLINE
5
39B
100
AcDbEntity
8
0
100
AcDbSpline
62
0
6
CONTINUOUS
70
0
71
3
72
13
73
9
74
7
42
0.0000001000
43
0.0000001000
44
0.0000000001
12
-0.4312367598
22
0.4734665699
32
0.0000000000
13
-0.5730157043
23
0.2864360409
33
0.0000000000
40
0.0000000000
40
0.0000000000
40
0.0000000000
40
0.0000000000
40
0.2263325555
40
0.4392651718
40
0.6372076945
40
0.8197560175
40
0.9872792954
40
1.0000000000
40
1.0000000000
40
1.0000000000
40
1.0000000000
10
8.9341292744
20
20.9771099718
30
0.0000000000
10
8.9015949684
20
21.0128302714
30
0.0000000000
10
8.8362410891
20
21.0801888741
30
0.0000000000
10
8.7350502063
20
21.1712470672
30
0.0000000000
10
8.6351195157
20
21.2492797716
30
0.0000000000
10
8.5378088328
20
21.3144108126
30
0.0000000000
10
8.4702534272
20
21.3524463165
30
0.0000000000
10
8.4358827195
20
21.3697688519
30
0.0000000000
10
8.4334529983
20
21.3709834080
30
0.0000000000
11
8.9341292744
21
20.9771099718
31
0.0000000000
11
8.8330785098
21
21.0810259511
31
0.0000000000
11
8.7316110970
21
21.1721305123
31
0.0000000000
11
8.6315826131
21
21.2500017524
31
0.0000000000
11
8.5343183920
21
21.3148630624
31
0.0000000000
11
8.4407301171
21
21.3673159369
31
0.0000000000
11
8.4334529983
21
21.3709834080
31
0.0000000000
0
SPLINE
5
39C
100
AcDbEntity
8
0
100
AcDbSpline
62
0
6
CONTINUOUS
70
0
71
3
72
13
73
9
74
7
42
0.0000001000
43
0.0000001000
44
0.0000000001
12
0.4109068760
22
0.2010615886
32
0.0000000000
13
0.4098481622
23
-0.2048837263
33
0.0000000000
40
0.0000000000
40
0.0000000000
40
0.0000000000
40
0.0000000000
40
0.2005143800
40
0.3892497752
40
0.5669911938
40
0.7362259433
40
0.8992258387
40
1.0000000000
40
1.0000000000
40
1.0000000000
40
1.0000000000
10
4.7662116167
20
22.9587330866
30
0.0000000000
10
4.7936758625
20
22.9721716665
30
0.0000000000
10
4.8485656299
20
22.9952330368
30
0.0000000000
10
4.9322979359
20
23.0178757861
30
0.0000000000
10
5.0138150501
20
23.0271248879
30
0.0000000000
10
5.0918663579
20
23.0227056704
30
0.0000000000
10
5.1563573142
20
23.0067597295
30
0.0000000000
10
5.1934994339
20
22.9909539997
30
0.0000000000
10
5.2072668021
20
22.9840716712
30
0.0000000000
11
4.7662116167
21
22.9587330866
31
0.0000000000
11
4.8509149727
21
22.9939362618
31
0.0000000000
11
4.9343577097
21
23.0161113516
31
0.0000000000
11
5.0151898649
21
23.0249107861
31
0.0000000000
11
5.0924661075
21
23.0202240682
31
0.0000000000
11
5.1648064692
21
23.0021418812
31
0.0000000000
11
5.2072668021
21
22.9840716712
31
0.0000000000
0
SPLINE
5
39D
100
AcDbEntity
8
0
100
AcDbSpline
62
0
6
CONTINUOUS
70
0
71
3
72
15
73
11
74
9
42
0.0000001000
43
0.0000001000
44
0.0000000001
12
0.0000000000
22
0.6311300022
32
0.0000000000
13
-0.5654420458
23
0.2826653478
33
0.0000000000
40
0.0000000000
40
0.0000000000
40
0.0000000000
40
0.0000000000
40
0.1606293349
40
0.3126800366
40
0.4557227302
40
0.5905083928
40
0.7175351878
40
0.8389320932
40
0.9563750069
40
1.0000000000
40
1.0000000000
40
1.0000000000
40
1.0000000000
10
1.2245071183
20
24.5645290963
30
0.0000000000
10
1.2245071183
20
24.5983217605
30
0.0000000000
10
1.2213720377
20
24.6641631042
30
0.0000000000
10
1.2064408126
20
24.7590721528
30
0.0000000000
10
1.1815657830
20
24.8462839982
30
0.0000000000
10
1.1470485284
20
24.9244817361
30
0.0000000000
10
1.1032469955
20
24.9925963887
30
0.0000000000
10
1.0507496153
20
25.0494671350
30
0.0000000000
10
1.0026501183
20
25.0849942346
30
0.0000000000
10
0.9728485835
20
25.1012815901
30
0.0000000000
10
0.9646261150
20
25.1053920147
30
0.0000000000
11
1.2245071183
21
24.5645290963
31
0.0000000000
11
1.2194097794
21
24.6657788592
31
0.0000000000
11
1.2041790833
21
24.7605262554
31
0.0000000000
11
1.1790705700
21
24.8472429005
31
0.0000000000
11
1.1443716877
21
24.9249116131
31
0.0000000000
11
1.1007077822
21
24.9921482091
31
0.0000000000
11
1.0485287923
21
25.0482512644
31
0.0000000000
11
0.9888178213
21
25.0921674712
31
0.0000000000
11
0.9646261150
21
25.1053920147
31
0.0000000000
0
SPLINE
5
39E
100
AcDbEntity
8
0
100
AcDbSpline
62
0
6
CONTINUOUS
70
0
71
3
72
10
73
6
74
4
42
0.0000001000
43
0.0000001000
44
0.0000000001
12
0.0556154923
22
0.0171628862
32
0.0000000000
13
0.0478528501
23
-0.0308246041
33
0.0000000000
40
0.0000000000
40
0.0000000000
40
0.0000000000
40
0.0000000000
40
0.4565615055
40
0.7960097470
40
1.0000000000
40
1.0000000000
40
1.0000000000
40
1.0000000000
10
-2.3187597796
20
26.7113209384
30
0.0000000000
10
-2.3102958154
20
26.7139329094
30
0.0000000000
10
-2.2951899652
20
26.7182108379
30
0.0000000000
10
-2.2766055931
20
26.7208274061
30
0.0000000000
10
-2.2649192751
20
26.7207440420
30
0.0000000000
10
-2.2616654368
20
26.7186480691
30
0.0000000000
11
-2.3187597796
21
26.7113209384
31
0.0000000000
11
-2.2930703181
21
26.7181180939
31
0.0000000000
11
-2.2734690590
21
26.7205945254
31
0.0000000000
11
-2.2616654368
21
26.7186480691
31
0.0000000000
0
SPLINE
5
39F
100
AcDbEntity
8
0
100
AcDbSpline
62
0
6
CONTINUOUS
70
0
71
3
72
8
73
4
74
2
42
0.0000001000
43
0.0000001000
44
0.0000000001
12
-0.0189936958
22
-0.0058614358
32
0.0000000000
13
-0.0178492873
23
-0.0089568130
33
0.0000000000
40
0.0000000000
40
0.0000000000
40
0.0000000000
40
0.0000000000
40
1.0000000000
40
1.0000000000
40
1.0000000000
40
1.0000000000
10
-2.3187597796
20
26.7113209384
30
0.0000000000
10
-2.3250910116
20
26.7093671264
30
0.0000000000
10
-2.3312494945
20
26.7068327371
30
0.0000000000
10
-2.3371992569
20
26.7038471327
30
0.0000000000
11
-2.3187597796
21
26.7113209384
31
0.0000000000
11
-2.3371992569
21
26.7038471327
31
0.0000000000
0
SPLINE
5
3A0
100
AcDbEntity
8
0
100
AcDbSpline
62
0
6
CONTINUOUS
70
0
71
3
72
15
73
11
74
9
42
0.0000001000
43
0.0000001000
44
0.0000000001
12
0.7619365976
22
0.4349160100
32
0.0000000000
13
0.7317445571
23
0.4839929935
33
0.0000000000
40
0.0000000000
40
0.0000000000
40
0.0000000000
40
0.0000000000
40
0.1045853351
40
0.2166076899
40
0.3351402480
40
0.4599360516
40
0.5902559263
40
0.7249598041
40
0.8623492495
40
1.0000000000
40
1.0000000000
40
1.0000000000
40
1.0000000000
10
8.1871423855
20
-17.0298867925
30
0.0000000000
10
8.2137048503
20
-17.0147248469
30
0.0000000000
10
8.2685906703
20
-16.9830981657
30
0.0000000000
10
8.3531321266
20
-16.9335130869
30
0.0000000000
10
8.4423693889
20
-16.8802575094
30
0.0000000000
10
8.5357718092
20
-16.8235457277
30
0.0000000000
10
8.6327534192
20
-16.7636230927
30
0.0000000000
10
8.7323649738
20
-16.7009572562
30
0.0000000000
10
8.8332437045
20
-16.6362875921
30
0.0000000000
10
8.9005542119
20
-16.5922530600
30
0.0000000000
10
8.9341292744
20
-16.5700457271
30
0.0000000000
11
8.1871423855
21
-17.0298867925
31
0.0000000000
11
8.2666490956
21
-16.9840858622
31
0.0000000000
11
8.3514282425
21
-16.9343720907
31
0.0000000000
11
8.4407301171
21
-16.8810858314
31
0.0000000000
11
8.5343183920
21
-16.8242657098
31
0.0000000000
11
8.6315826131
21
-16.7641684355
31
0.0000000000
11
8.7316110970
21
-16.7012351364
31
0.0000000000
11
8.8330785098
21
-16.6361728552
31
0.0000000000
11
8.9341292744
21
-16.5700457271
31
0.0000000000
0
SPLINE
5
3A1
100
AcDbEntity
8
0
100
AcDbSpline
62
0
6
CONTINUOUS
70
0
71
3
72
8
73
4
74
2
42
0.0000001000
43
0.0000001000
44
0.0000000001
12
-0.0496543828
22
-0.0283428911
32
0.0000000000
13
-0.0511446455
23
-0.0256282980
33
0.0000000000
40
0.0000000000
40
0.0000000000
40
0.0000000000
40
0.0000000000
40
1.0000000000
40
1.0000000000
40
1.0000000000
40
1.0000000000
10
8.1871423855
20
-17.0298867925
30
0.0000000000
10
8.1705909246
20
-17.0393344229
30
0.0000000000
10
8.1537696461
20
-17.0483214969
30
0.0000000000
10
8.1367214310
20
-17.0568642629
30
0.0000000000
11
8.1871423855
21
-17.0298867925
31
0.0000000000
11
8.1367214310
21
-17.0568642629
31
0.0000000000
0
SPLINE
5
3A2
100
AcDbEntity
8
0
100
AcDbSpline
62
0
6
CONTINUOUS
70
0
71
3
72
14
73
10
74
8
42
0.0000001000
43
0.0000001000
44
0.0000000001
12
0.0000000000
22
0.2525400005
32
0.0000000000
13
0.1603202703
23
0.1951252490
33
0.0000000000
40
0.0000000000
40
0.0000000000
40
0.0000000000
40
0.0000000000
40
0.1318788968
40
0.2706570924
40
0.4139746772
40
0.5610771939
40
0.7087227910
40
0.8559736017
40
1.0000000000
40
1.0000000000
40
1.0000000000
40
1.0000000000
10
3.0983400885
20
17.2919080221
30
0.0000000000
10
3.0983400885
20
17.3030095877
30
0.0000000000
10
3.0997570949
20
17.3258089904
30
0.0000000000
10
3.1056647318
20
17.3602113981
30
0.0000000000
10
3.1152873331
20
17.3950949783
30
0.0000000000
10
3.1283939442
20
17.4296190445
30
0.0000000000
10
3.1447265738
20
17.4631075109
30
0.0000000000
10
3.1638913098
20
17.4947544549
30
0.0000000000
10
3.1785174241
20
17.5144898748
30
0.0000000000
10
3.1862142078
20
17.5238576038
30
0.0000000000
11
3.0983400885
21
17.2919080221
31
0.0000000000
11
3.1003015567
21
17.3251549086
31
0.0000000000
11
3.1061563334
21
17.3597094596
31
0.0000000000
11
3.1157328651
21
17.3946129538
31
0.0000000000
11
3.1288939888
21
17.4293527445
31
0.0000000000
11
3.1452372774
21
17.4628665323
31
0.0000000000
11
3.1645197282
21
17.4946633752
31
0.0000000000
11
3.1862142078
21
17.5238576038
31
0.0000000000
0
SPLINE
5
3A3
100
AcDbEntity
8
0
100
AcDbSpline
62
0
6
CONTINUOUS
70
0
71
3
72
14
73
10
74
8
42
0.0000001000
43
0.0000001000
44
0.0000000001
12
0.0000000000
22
0.2525400005
32
0.0000000000
13
0.1603202703
23
0.1951252490
33
0.0000000000
40
0.0000000000
40
0.0000000000
40
0.0000000000
40
0.0000000000
40
0.1318788968
40
0.2706570924
40
0.4139746772
40
0.5610771939
40
0.7087227910
40
0.8559736017
40
1.0000000000
40
1.0000000000
40
1.0000000000
40
1.0000000000
10
-10.2659780760
20
23.9740671043
30
0.0000000000
10
-10.2659780760
20
23.9851686699
30
0.0000000000
10
-10.2645610696
20
24.0079680726
30
0.0000000000
10
-10.2586534326
20
24.0423704803
30
0.0000000000
10
-10.2490308313
20
24.0772540605
30
0.0000000000
10
-10.2359242202
20
24.1117781267
30
0.0000000000
10
-10.2195915906
20
24.1452665931
30
0.0000000000
10
-10.2004268546
20
24.1769135371
30
0.0000000000
10
-10.1858007404
20
24.1966489570
30
0.0000000000
10
-10.1781039567
20
24.2060166860
30
0.0000000000
11
-10.2659780760
21
23.9740671043
31
0.0000000000
11
-10.2640166078
21
24.0073139908
31
0.0000000000
11
-10.2581618310
21
24.0418685418
31
0.0000000000
11
-10.2485852993
21
24.0767720360
31
0.0000000000
11
-10.2354241756
21
24.1115118267
31
0.0000000000
11
-10.2190808870
21
24.1450256145
31
0.0000000000
11
-10.1997984362
21
24.1768224574
31
0.0000000000
11
-10.1781039567
21
24.2060166860
31
0.0000000000
0
SPLINE
5
3A4
100
AcDbEntity
8
0
100
AcDbSpline
62
0
6
CONTINUOUS
70
0
71
3
72
14
73
10
74
8
42
0.0000001000
43
0.0000001000
44
0.0000000001
12
0.1603213519
22
0.1951265654
32
0.0000000000
13
0.0000000000
23
0.2525417043
33
0.0000000000
40
0.0000000000
40
0.0000000000
40
0.0000000000
40
0.0000000000
40
0.1440265224
40
0.2912774710
40
0.4389231742
40
0.5860257506
40
0.7293433004
40
0.8681213611
40
1.0000000000
40
1.0000000000
40
1.0000000000
40
1.0000000000
10
3.7134589235
20
18.1655653318
30
0.0000000000
10
3.7211557657
20
18.1749331320
30
0.0000000000
10
3.7357819847
20
18.1946687089
30
0.0000000000
10
3.7549468336
20
18.2263159136
30
0.0000000000
10
3.7712795271
20
18.2598046574
30
0.0000000000
10
3.7843861511
20
18.2943289992
30
0.0000000000
10
3.7940086900
20
18.3292128379
30
0.0000000000
10
3.7999162600
20
18.3636154683
30
0.0000000000
10
3.8013330427
20
18.3864150011
30
0.0000000000
10
3.8013330427
20
18.3975166198
30
0.0000000000
11
3.7134589235
21
18.1655653318
31
0.0000000000
11
3.7351535575
21
18.1947597903
31
0.0000000000
11
3.7544361233
21
18.2265568977
31
0.0000000000
11
3.7707794766
21
18.2600709636
31
0.0000000000
11
3.7839406097
21
18.2948110349
31
0.0000000000
11
3.7935170894
21
18.3297147874
31
0.0000000000
11
3.7993717515
21
18.3642695630
31
0.0000000000
11
3.8013330427
21
18.3975166198
31
0.0000000000
0
SPLINE
5
3A5
100
AcDbEntity
8
0
100
AcDbSpline
62
0
6
CONTINUOUS
70
0
71
3
72
13
73
9
74
7
42
0.0000001000
43
0.0000001000
44
0.0000000001
12
0.0000000000
22
0.1573187955
32
0.0000000000
13
-0.1410768327
23
0.0705989525
33
0.0000000000
40
0.0000000000
40
0.0000000000
40
0.0000000000
40
0.0000000000
40
0.2078817330
40
0.4013465439
40
0.5789246977
40
0.7443175029
40
0.8997170363
40
1.0000000000
40
1.0000000000
40
1.0000000000
40
1.0000000000
10
3.8013330427
20
18.7450481366
30
0.0000000000
10
3.8013330427
20
18.7559493712
30
0.0000000000
10
3.8000490537
20
18.7770308529
30
0.0000000000
10
3.7938189255
20
18.8068664487
30
0.0000000000
10
3.7834395437
20
18.8331824914
30
0.0000000000
10
3.7690960759
20
18.8552736973
30
0.0000000000
10
3.7529662627
20
18.8706774582
30
0.0000000000
10
3.7414507333
20
18.8777156147
30
0.0000000000
10
3.7367348656
20
18.8800755721
30
0.0000000000
11
3.8013330427
21
18.7450481366
31
0.0000000000
11
3.7991886584
21
18.7776814609
31
0.0000000000
11
3.7927817306
21
18.8074351184
31
0.0000000000
11
3.7823365646
21
18.8333453462
31
0.0000000000
11
3.7679961976
21
18.8550562395
31
0.0000000000
11
3.7502191074
21
18.8718384905
31
0.0000000000
11
3.7367348656
21
18.8800755721
31
0.0000000000
0
SPLINE
5
3A6
100
AcDbEntity
8
0
100
AcDbSpline
62
0
6
CONTINUOUS
70
0
71
3
72
12
73
8
74
6
42
0.0000001000
43
0.0000001000
44
0.0000000001
12
0.1037892104
22
0.0505590123
32
0.0000000000
13
0.1035245975
23
-0.0518042949
33
0.0000000000
40
0.0000000000
40
0.0000000000
40
0.0000000000
40
0.0000000000
40
0.2574797432
40
0.4962941496
40
0.7176884677
40
0.9297317834
40
1.0000000000
40
1.0000000000
40
1.0000000000
40
1.0000000000
10
1.9357336923
20
19.7186022428
30
0.0000000000
10
1.9446415654
20
19.7229415499
30
0.0000000000
10
1.9624722801
20
19.7300617101
30
0.0000000000
10
1.9897029815
20
19.7355973305
30
0.0000000000
10
2.0157900942
20
19.7353567536
30
0.0000000000
10
2.0347764636
20
19.7305406905
30
0.0000000000
10
2.0447254281
20
19.7260813810
30
0.0000000000
10
2.0471502577
20
19.7248679826
30
0.0000000000
11
1.9357336923
21
19.7186022428
31
0.0000000000
11
1.9634119855
21
19.7294433771
31
0.0000000000
11
1.9904709276
21
19.7347314795
31
0.0000000000
11
2.0160271930
21
19.7343126382
31
0.0000000000
11
2.0397298815
21
19.7281922127
31
0.0000000000
11
2.0471502577
21
19.7248679826
31
0.0000000000
0
SPLINE
5
3A7
100
AcDbEntity
8
0
100
AcDbSpline
62
0
6
CONTINUOUS
70
0
71
3
72
17
73
13
74
11
42
0.0000001000
43
0.0000001000
44
0.0000000001
12
0.0000000000
22
0.3666502398
32
0.0000000000
13
0.3262254999
23
0.1673598566
33
0.0000000000
40
0.0000000000
40
0.0000000000
40
0.0000000000
40
0.0000000000
40
0.0951010066
40
0.1954626647
40
0.2989499556
40
0.4051948209
40
0.5116959089
40
0.6171488294
40
0.7202917296
40
0.8188238537
40
0.9126130540
40
1.0000000000
40
1.0000000000
40
1.0000000000
40
1.0000000000
10
-0.3561985721
20
18.3413826272
30
0.0000000000
10
-0.3561985721
20
18.3530055628
30
0.0000000000
10
-0.3546439141
20
18.3769117206
30
0.0000000000
10
-0.3481856557
20
18.4129394593
30
0.0000000000
10
-0.3376840546
20
18.4494204637
30
0.0000000000
10
-0.3234114249
20
18.4854012280
30
0.0000000000
10
-0.3056841134
20
18.5200803652
30
0.0000000000
10
-0.2849436547
20
18.5525992945
30
0.0000000000
10
-0.2616991655
20
18.5821543723
30
0.0000000000
10
-0.2364652618
20
18.6080885659
30
0.0000000000
10
-0.2098985833
20
18.6297276090
30
0.0000000000
10
-0.1909754062
20
18.6413956566
30
0.0000000000
10
-0.1814727895
20
18.6462706789
30
0.0000000000
11
-0.3561985721
21
18.3413826272
31
0.0000000000
11
-0.3540541877
21
18.3761854333
31
0.0000000000
11
-0.3476472599
21
18.4124210036
31
0.0000000000
11
-0.3372020939
21
18.4488986450
31
0.0000000000
11
-0.3228617269
21
18.4851177414
31
0.0000000000
11
-0.3050846367
21
18.5198851412
31
0.0000000000
11
-0.2842659137
21
18.5524659921
31
0.0000000000
11
-0.2608374264
21
18.5821520055
31
0.0000000000
11
-0.2355768050
21
18.6079792902
31
0.0000000000
11
-0.2088308903
21
18.6295936162
31
0.0000000000
11
-0.1814727895
21
18.6462706789
31
0.0000000000
0
SPLINE
5
3A8
100
AcDbEntity
8
0
100
AcDbSpline
62
0
6
CONTINUOUS
70
0
71
3
72
14
73
10
74
8
42
0.0000001000
43
0.0000001000
44
0.0000000001
12
0.1603213519
22
0.1951265654
32
0.0000000000
13
-0.0000000000
23
0.2525417043
33
0.0000000000
40
0.0000000000
40
0.0000000000
40
0.0000000000
40
0.0000000000
40
0.1440265224
40
0.2912774710
40
0.4389231742
40
0.5860257506
40
0.7293433004
40
0.8681213611
40
1.0000000000
40
1.0000000000
40
1.0000000000
40
1.0000000000
10
-9.6508592410
20
24.8477244140
30
0.0000000000
10
-9.6431623987
20
24.8570922142
30
0.0000000000
10
-9.6285361797
20
24.8768277911
30
0.0000000000
10
-9.6093713308
20
24.9084749958
30
0.0000000000
10
-9.5930386373
20
24.9419637396
30
0.0000000000
10
-9.5799320133
20
24.9764880814
30
0.0000000000
10
-9.5703094745
20
25.0113719201
30
0.0000000000
10
-9.5644019044
20
25.0457745505
30
0.0000000000
10
-9.5629851217
20
25.0685740833
30
0.0000000000
10
-9.5629851217
20
25.0796757020
30
0.0000000000
11
-9.6508592410
21
24.8477244140
31
0.0000000000
11
-9.6291646069
21
24.8769188725
31
0.0000000000
11
-9.6098820411
21
24.9087159799
31
0.0000000000
11
-9.5935386879
21
24.9422300458
31
0.0000000000
11
-9.5803775547
21
24.9769701171
31
0.0000000000
11
-9.5708010750
21
25.0118738696
31
0.0000000000
11
-9.5649464129
21
25.0464286452
31
0.0000000000
11
-9.5629851217
21
25.0796757020
31
0.0000000000
0
SPLINE
5
3A9
100
AcDbEntity
8
0
100
AcDbSpline
62
0
6
CONTINUOUS
70
0
71
3
72
13
73
9
74
7
42
0.0000001000
43
0.0000001000
44
0.0000000001
12
0.0000000000
22
0.1573187955
32
0.0000000000
13
-0.1410768327
23
0.0705989525
33
0.0000000000
40
0.0000000000
40
0.0000000000
40
0.0000000000
40
0.0000000000
40
0.2078817330
40
0.4013465439
40
0.5789246977
40
0.7443175029
40
0.8997170363
40
1.0000000000
40
1.0000000000
40
1.0000000000
40
1.0000000000
10
-9.5629851217
20
25.4272072188
30
0.0000000000
10
-9.5629851217
20
25.4381084534
30
0.0000000000
10
-9.5642691107
20
25.4591899351
30
0.0000000000
10
-9.5704992389
20
25.4890255310
30
0.0000000000
10
-9.5808786207
20
25.5153415736
30
0.0000000000
10
-9.5952220886
20
25.5374327795
30
0.0000000000
10
-9.6113519018
20
25.5528365404
30
0.0000000000
10
-9.6228674311
20
25.5598746969
30
0.0000000000
10
-9.6275832988
20
25.5622346543
30
0.0000000000
11
-9.5629851217
21
25.4272072188
31
0.0000000000
11
-9.5651295060
21
25.4598405432
31
0.0000000000
11
-9.5715364338
21
25.4895942006
31
0.0000000000
11
-9.5819815998
21
25.5155044284
31
0.0000000000
11
-9.5963219669
21
25.5372153217
31
0.0000000000
11
-9.6140990570
21
25.5539975727
31
0.0000000000
11
-9.6275832988
21
25.5622346543
31
0.0000000000
0
SPLINE
5
3AA
100
AcDbEntity
8
0
100
AcDbSpline
62
0
6
CONTINUOUS
70
0
71
3
72
12
73
8
74
6
42
0.0000001000
43
0.0000001000
44
0.0000000001
12
0.1037892104
22
0.0505590123
32
0.0000000000
13
0.1035245975
23
-0.0518042949
33
0.0000000000
40
0.0000000000
40
0.0000000000
40
0.0000000000
40
0.0000000000
40
0.2574797432
40
0.4962941496
40
0.7176884677
40
0.9297317834
40
1.0000000000
40
1.0000000000
40
1.0000000000
40
1.0000000000
10
-11.4285844721
20
26.4007613250
30
0.0000000000
10
-11.4196765990
20
26.4051006322
30
0.0000000000
10
-11.4018458843
20
26.4122207923
30
0.0000000000
10
-11.3746151829
20
26.4177564127
30
0.0000000000
10
-11.3485280702
20
26.4175158358
30
0.0000000000
10
-11.3295417008
20
26.4126997727
30
0.0000000000
10
-11.3195927363
20
26.4082404633
30
0.0000000000
10
-11.3171679067
20
26.4070270648
30
0.0000000000
11
-11.4285844721
21
26.4007613250
31
0.0000000000
11
-11.4009061790
21
26.4116024593
31
0.0000000000
11
-11.3738472368
21
26.4168905617
31
0.0000000000
11
-11.3482909714
21
26.4164717204
31
0.0000000000
11
-11.3245882830
21
26.4103512949
31
0.0000000000
11
-11.3171679067
21
26.4070270648
31
0.0000000000
0
SPLINE
5
3AB
100
AcDbEntity
8
0
100
AcDbSpline
62
0
6
CONTINUOUS
70
0
71
3
72
17
73
13
74
11
42
0.0000001000
43
0.0000001000
44
0.0000000001
12
0.0000000000
22
0.3666502398
32
0.0000000000
13
0.3262254999
23
0.1673598566
33
0.0000000000
40
0.0000000000
40
0.0000000000
40
0.0000000000
40
0.0000000000
40
0.0951010066
40
0.1954626647
40
0.2989499556
40
0.4051948209
40
0.5116959089
40
0.6171488294
40
0.7202917296
40
0.8188238537
40
0.9126130540
40
1.0000000000
40
1.0000000000
40
1.0000000000
40
1.0000000000
10
-13.7205167365
20
25.0235417094
30
0.0000000000
10
-13.7205167365
20
25.0351646450
30
0.0000000000
10
-13.7189620785
20
25.0590708028
30
0.0000000000
10
-13.7125038201
20
25.0950985415
30
0.0000000000
10
-13.7020022190
20
25.1315795459
30
0.0000000000
10
-13.6877295893
20
25.1675603102
30
0.0000000000
10
-13.6700022778
20
25.2022394474
30
0.0000000000
10
-13.6492618191
20
25.2347583767
30
0.0000000000
10
-13.6260173299
20
25.2643134545
30
0.0000000000
10
-13.6007834262
20
25.2902476481
30
0.0000000000
10
-13.5742167477
20
25.3118866912
30
0.0000000000
10
-13.5552935707
20
25.3235547388
30
0.0000000000
10
-13.5457909540
20
25.3284297611
30
0.0000000000
11
-13.7205167365
21
25.0235417094
31
0.0000000000
11
-13.7183723522
21
25.0583445155
31
0.0000000000
11
-13.7119654243
21
25.0945800858
31
0.0000000000
11
-13.7015202583
21
25.1310577272
31
0.0000000000
11
-13.6871798913
21
25.1672768236
31
0.0000000000
11
-13.6694028011
21
25.2020442234
31
0.0000000000
11
-13.6485840781
21
25.2346250743
31
0.0000000000
11
-13.6251555908
21
25.2643110877
31
0.0000000000
11
-13.5998949694
21
25.2901383724
31
0.0000000000
11
-13.5731490548
21
25.3117526985
31
0.0000000000
11
-13.5457909540
21
25.3284297611
31
0.0000000000
0
SPLINE
5
3AC
100
AcDbEntity
8
0
100
AcDbSpline
62
0
6
CONTINUOUS
70
0
71
3
72
13
73
9
74
7
42
0.0000001000
43
0.0000001000
44
0.0000000001
12
0.0000000000
22
0.1573462303
32
0.0000000000
13
-0.1411200199
23
0.0705753522
33
0.0000000000
40
0.0000000000
40
0.0000000000
40
0.0000000000
40
0.0000000000
40
0.1990786305
40
0.3848094900
40
0.5562307156
40
0.7160338523
40
0.8658122188
40
1.0000000000
40
1.0000000000
40
1.0000000000
40
1.0000000000
10
3.8013330427
20
-22.9020875196
30
0.0000000000
10
3.8013330427
20
-22.8916460956
30
0.0000000000
10
3.8001531351
20
-22.8714329697
30
0.0000000000
10
3.7944486171
20
-22.8427170351
30
0.0000000000
10
3.7849465799
20
-22.8171785609
30
0.0000000000
10
3.7718090591
20
-22.7954402380
30
0.0000000000
10
3.7556225935
20
-22.7784287090
30
0.0000000000
10
3.7430442612
20
-22.7702121032
30
0.0000000000
10
3.7367320671
20
-22.7670553199
30
0.0000000000
11
3.8013330427
21
-22.9020875196
31
0.0000000000
11
3.7993717515
21
-22.8708247085
31
0.0000000000
11
3.7935170894
21
-22.8421931164
31
0.0000000000
11
3.7839406097
21
-22.8169779244
31
0.0000000000
11
3.7707794766
21
-22.7955530209
31
0.0000000000
11
3.7544361233
21
-22.7785735866
31
0.0000000000
11
3.7367320671
21
-22.7670553199
31
0.0000000000
0
SPLINE
5
3AD
100
AcDbEntity
8
0
100
AcDbSpline
62
0
6
CONTINUOUS
70
0
71
3
72
17
73
13
74
11
42
0.0000001000
43
0.0000001000
44
0.0000000001
12
0.3262254999
22
0.1673598566
32
0.0000000000
13
0.0000000000
23
0.3666502398
33
0.0000000000
40
0.0000000000
40
0.0000000000
40
0.0000000000
40
0.0000000000
40
0.0873869460
40
0.1811761463
40
0.2797082704
40
0.3828511706
40
0.4883040911
40
0.5948051791
40
0.7010500444
40
0.8045373353
40
0.9048989934
40
1.0000000000
40
1.0000000000
40
1.0000000000
40
1.0000000000
10
3.6266072602
20
-23.5545070880
30
0.0000000000
10
3.6361098769
20
-23.5496320658
30
0.0000000000
10
3.6550330540
20
-23.5379640182
30
0.0000000000
10
3.6815997324
20
-23.5163249750
30
0.0000000000
10
3.7068336362
20
-23.4903907814
30
0.0000000000
10
3.7300781254
20
-23.4608357036
30
0.0000000000
10
3.7508185841
20
-23.4283167743
30
0.0000000000
10
3.7685458956
20
-23.3936376371
30
0.0000000000
10
3.7828185253
20
-23.3576568728
30
0.0000000000
10
3.7933201264
20
-23.3211758684
30
0.0000000000
10
3.7997783848
20
-23.2851481298
30
0.0000000000
10
3.8013330427
20
-23.2612419719
30
0.0000000000
10
3.8013330427
20
-23.2496190363
30
0.0000000000
11
3.6266072602
21
-23.5545070880
31
0.0000000000
11
3.6539653610
21
-23.5378300254
31
0.0000000000
11
3.6807112757
21
-23.5162156993
31
0.0000000000
11
3.7059718971
21
-23.4903884146
31
0.0000000000
11
3.7294003843
21
-23.4607024013
31
0.0000000000
11
3.7502191074
21
-23.4281215503
31
0.0000000000
11
3.7679961976
21
-23.3933541505
31
0.0000000000
11
3.7823365646
21
-23.3571350541
31
0.0000000000
11
3.7927817306
21
-23.3206574127
31
0.0000000000
11
3.7991886584
21
-23.2844218424
31
0.0000000000
11
3.8013330427
21
-23.2496190363
31
0.0000000000
0
SPLINE
5
3AE
100
AcDbEntity
8
0
100
AcDbSpline
62
0
6
CONTINUOUS
70
0
71
3
72
14
73
10
74
8
42
0.0000001000
43
0.0000001000
44
0.0000000001
12
0.0000000000
22
0.2525417043
32
0.0000000000
13
0.1603213519
23
0.1951265654
33
0.0000000000
40
0.0000000000
40
0.0000000000
40
0.0000000000
40
0.0000000000
40
0.1318786389
40
0.2706566996
40
0.4139742494
40
0.5610768258
40
0.7087225290
40
0.8559734776
40
1.0000000000
40
1.0000000000
40
1.0000000000
40
1.0000000000
10
-0.3561985721
20
-23.2981954463
30
0.0000000000
10
-0.3561985721
20
-23.2870938276
30
0.0000000000
10
-0.3547817894
20
-23.2642942948
30
0.0000000000
10
-0.3488742193
20
-23.2298916644
30
0.0000000000
10
-0.3392516805
20
-23.1950078257
30
0.0000000000
10
-0.3261450564
20
-23.1604834839
30
0.0000000000
10
-0.3098123629
20
-23.1269947401
30
0.0000000000
10
-0.2906475140
20
-23.0953475354
30
0.0000000000
10
-0.2760212950
20
-23.0756119585
30
0.0000000000
10
-0.2683244528
20
-23.0662441583
30
0.0000000000
11
-0.3561985721
21
-23.2981954463
31
0.0000000000
11
-0.3542372808
21
-23.2649483895
31
0.0000000000
11
-0.3483826187
21
-23.2303936139
31
0.0000000000
11
-0.3388061390
21
-23.1954898614
31
0.0000000000
11
-0.3256450059
21
-23.1607497901
31
0.0000000000
11
-0.3093016527
21
-23.1272357242
31
0.0000000000
11
-0.2900190868
21
-23.0954386168
31
0.0000000000
11
-0.2683244528
21
-23.0662441583
31
0.0000000000
0
SPLINE
5
3AF
100
AcDbEntity
8
0
100
AcDbSpline
62
0
6
CONTINUOUS
70
0
71
3
72
9
73
5
74
3
42
0.0000001000
43
0.0000001000
44
0.0000000001
12
-0.0220849486
22
0.0110448753
32
0.0000000000
13
-0.0241207855
23
0.0049542358
33
0.0000000000
40
0.0000000000
40
0.0000000000
40
0.0000000000
40
0.0000000000
40
0.0711334077
40
1.0000000000
40
1.0000000000
40
1.0000000000
40
1.0000000000
10
3.7367320671
20
-22.7670553199
30
0.0000000000
10
3.7362084079
20
-22.7667934334
30
0.0000000000
10
3.7288111222
20
-22.7631820470
30
0.0000000000
10
3.7209272541
20
-22.7605727490
30
0.0000000000
10
3.7134589235
20
-22.7590388076
30
0.0000000000
11
3.7367320671
21
-22.7670553199
31
0.0000000000
11
3.7351535575
21
-22.7662847235
31
0.0000000000
11
3.7134589235
21
-22.7590388076
31
0.0000000000
0
SPLINE
5
3B0
100
AcDbEntity
8
0
100
AcDbSpline
62
0
6
CONTINUOUS
70
0
71
3
72
12
73
8
74
6
42
0.0000001000
43
0.0000001000
44
0.0000000001
12
-0.1024460385
22
0.0512669789
32
0.0000000000
13
-0.1022335317
23
-0.0509823104
33
0.0000000000
40
0.0000000000
40
0.0000000000
40
0.0000000000
40
0.0000000000
40
0.0701707674
40
0.2818334567
40
0.5029641069
40
0.7418852029
40
1.0000000000
40
1.0000000000
40
1.0000000000
40
1.0000000000
10
-9.6275832988
20
25.5622346543
30
0.0000000000
10
-9.6299795378
20
25.5634338020
30
0.0000000000
10
-9.6398104330
20
25.5678347121
30
0.0000000000
10
-9.6585886195
20
25.5725440353
30
0.0000000000
10
-9.6843882573
20
25.5726298132
30
0.0000000000
10
-9.7113094848
20
25.5669300015
30
0.0000000000
10
-9.7289149085
20
25.5597109706
30
0.0000000000
10
-9.7377109042
20
25.5553245410
30
0.0000000000
11
-9.6275832988
21
25.5622346543
31
0.0000000000
11
-9.6349177801
21
25.5655160435
31
0.0000000000
11
-9.6583462674
21
25.5714993684
31
0.0000000000
11
-9.6836068887
21
25.5717703877
31
0.0000000000
11
-9.7103528034
21
25.5663257716
31
0.0000000000
11
-9.7377109042
21
25.5553245410
31
0.0000000000
0
SPLINE
5
3B1
100
AcDbEntity
8
0
100
AcDbSpline
62
0
6
CONTINUOUS
70
0
71
3
72
12
73
8
74
6
42
0.0000001000
43
0.0000001000
44
0.0000000001
12
-0.1024460385
22
0.0512669789
32
0.0000000000
13
-0.1022335317
23
-0.0509823104
33
0.0000000000
40
0.0000000000
40
0.0000000000
40
0.0000000000
40
0.0000000000
40
0.0701707674
40
0.2818334567
40
0.5029641069
40
0.7418852029
40
1.0000000000
40
1.0000000000
40
1.0000000000
40
1.0000000000
10
3.7367348656
20
18.8800755721
30
0.0000000000
10
3.7343386266
20
18.8812747198
30
0.0000000000
10
3.7245077314
20
18.8856756298
30
0.0000000000
10
3.7057295449
20
18.8903849530
30
0.0000000000
10
3.6799299071
20
18.8904707310
30
0.0000000000
10
3.6530086796
20
18.8847709193
30
0.0000000000
10
3.6354032560
20
18.8775518884
30
0.0000000000
10
3.6266072602
20
18.8731654588
30
0.0000000000
11
3.7367348656
21
18.8800755721
31
0.0000000000
11
3.7294003843
21
18.8833569612
31
0.0000000000
11
3.7059718971
21
18.8893402862
31
0.0000000000
11
3.6807112757
21
18.8896113054
31
0.0000000000
11
3.6539653610
21
18.8841666894
31
0.0000000000
11
3.6266072602
21
18.8731654588
31
0.0000000000
0
SPLINE
5
3B2
100
AcDbEntity
8
0
100
AcDbSpline
62
0
6
CONTINUOUS
70
0
71
3
72
8
73
4
74
2
42
0.0000001000
43
0.0000001000
44
0.0000000001
12
0.0002454748
22
0.0085435457
32
0.0000000000
13
-0.0053364816
23
0.0075239063
33
0.0000000000
40
0.0000000000
40
0.0000000000
40
0.0000000000
40
0.0000000000
40
1.0000000000
40
1.0000000000
40
1.0000000000
40
1.0000000000
10
8.9354555932
20
-16.5659925049
30
0.0000000000
10
8.9355374182
20
-16.5631446564
30
0.0000000000
10
8.9337980472
20
-16.5604201845
30
0.0000000000
10
8.9320192201
20
-16.5579122158
30
0.0000000000
11
8.9354555932
21
-16.5659925049
31
0.0000000000
11
8.9320192201
21
-16.5579122158
31
0.0000000000
0
SPLINE
5
3B3
100
AcDbEntity
8
0
100
AcDbSpline
62
0
6
CONTINUOUS
70
0
71
3
72
11
73
7
74
5
42
0.0000001000
43
0.0000001000
44
0.0000000001
12
-0.0663186737
22
0.0935027089
32
0.0000000000
13
-0.0863886430
23
0.0648670732
33
0.0000000000
40
0.0000000000
40
0.0000000000
40
0.0000000000
40
0.0000000000
40
0.1581044998
40
0.3820090898
40
0.6646809553
40
1.0000000000
40
1.0000000000
40
1.0000000000
40
1.0000000000
10
8.9320192201
20
-16.5579122158
30
0.0000000000
10
8.9285241265
20
-16.5529844828
30
0.0000000000
10
8.9197113071
20
-16.5430976870
30
0.0000000000
10
8.9018382481
20
-16.5266947626
30
0.0000000000
10
8.8785601838
20
-16.5074461168
30
0.0000000000
10
8.8608967142
20
-16.4938494367
30
0.0000000000
10
8.8512407951
20
-16.4865990484
30
0.0000000000
11
8.9320192201
21
-16.5579122158
31
0.0000000000
11
8.9209793269
21
-16.5448793918
31
0.0000000000
11
8.9033432773
21
-16.5283245798
31
0.0000000000
11
8.8798952890
21
-16.5087612711
31
0.0000000000
11
8.8512407951
21
-16.4865990484
31
0.0000000000
0
SPLINE
5
3B4
100
AcDbEntity
8
0
100
AcDbSpline
62
0
6
CONTINUOUS
70
0
71
3
72
11
73
7
74
5
42
0.0000001000
43
0.0000001000
44
0.0000000001
12
-0.1625542203
22
-0.0815700781
32
0.0000000000
13
-0.0905678769
23
-0.1567410448
33
0.0000000000
40
0.0000000000
40
0.0000000000
40
0.0000000000
40
0.0000000000
40
0.1162303016
40
0.3703269026
40
0.6635318032
40
1.0000000000
40
1.0000000000
40
1.0000000000
40
1.0000000000
10
-2.3371992569
20
26.7038471327
30
0.0000000000
10
-2.3434971656
20
26.7006868278
30
0.0000000000
10
-2.3628181156
20
26.6890068251
30
0.0000000000
10
-2.3924066625
20
26.6616741745
30
0.0000000000
10
-2.4252842159
20
26.6194941832
30
0.0000000000
10
-2.4453612346
20
26.5871778395
30
0.0000000000
10
-2.4555189714
20
26.5695983806
30
0.0000000000
11
-2.3371992569
21
26.7038471327
31
0.0000000000
11
-2.3553487360
21
26.6930029489
31
0.0000000000
11
-2.3897908086
21
26.6625142547
31
0.0000000000
11
-2.4229488735
21
26.6210681936
31
0.0000000000
11
-2.4555189714
21
26.5695983806
31
0.0000000000
0
SPLINE
5
3B5
100
AcDbEntity
8
0
100
AcDbSpline
62
0
6
CONTINUOUS
70
0
71
3
72
13
73
9
74
7
42
0.0000001000
43
0.0000001000
44
0.0000000001
12
-0.4098481622
22
0.2048837263
32
0.0000000000
13
-0.4109068760
23
-0.2010615886
33
0.0000000000
40
0.0000000000
40
0.0000000000
40
0.0000000000
40
0.0000000000
40
0.1007741613
40
0.2637740567
40
0.4330088062
40
0.6107502248
40
0.7994856200
40
1.0000000000
40
1.0000000000
40
1.0000000000
40
1.0000000000
10
0.9646261150
20
25.1053920147
30
0.0000000000
10
0.9508587467
20
25.1122743433
30
0.0000000000
10
0.9137166271
20
25.1280800731
30
0.0000000000
10
0.8492256708
20
25.1440260139
30
0.0000000000
10
0.7711743630
20
25.1484452315
30
0.0000000000
10
0.6896572488
20
25.1391961297
30
0.0000000000
10
0.6059249428
20
25.1165533804
30
0.0000000000
10
0.5510351754
20
25.0934920100
30
0.0000000000
10
0.5235709296
20
25.0800534301
30
0.0000000000
11
0.9646261150
21
25.1053920147
31
0.0000000000
11
0.9221657821
21
25.1234622247
31
0.0000000000
11
0.8498254204
21
25.1415444117
31
0.0000000000
11
0.7725491778
21
25.1462311297
31
0.0000000000
11
0.6917170225
21
25.1374316951
31
0.0000000000
11
0.6082742856
21
25.1152566054
31
0.0000000000
11
0.5235709296
21
25.0800534301
31
0.0000000000
0
SPLINE
5
3B6
100
AcDbEntity
8
0
100
AcDbSpline
62
0
6
CONTINUOUS
70
0
71
3
72
10
73
6
74
4
42
0.0000001000
43
0.0000001000
44
0.0000000001
12
-0.2344480368
22
0.1171946370
32
0.0000000000
13
-0.2568936911
23
0.0516051973
33
0.0000000000
40
0.0000000000
40
0.0000000000
40
0.0000000000
40
0.0000000000
40
0.3436557906
40
0.6870119842
40
1.0000000000
40
1.0000000000
40
1.0000000000
40
1.0000000000
10
8.4334529983
20
21.3709834080
30
0.0000000000
10
8.4065965231
20
21.3844082798
30
0.0000000000
10
8.3519272629
20
21.4092971334
30
0.0000000000
10
8.2695876181
20
21.4387645305
30
0.0000000000
10
8.2139439344
20
21.4529859197
30
0.0000000000
10
8.1871423855
20
21.4583698558
30
0.0000000000
11
8.4334529983
21
21.3709834080
31
0.0000000000
11
8.3514282425
21
21.4081458746
31
0.0000000000
11
8.2666490956
21
21.4382583871
31
0.0000000000
11
8.1871423855
21
21.4583698558
31
0.0000000000
0
SPLINE
5
3B7
100
AcDbEntity
8
0
100
AcDbSpline
62
0
6
CONTINUOUS
70
0
71
3
72
9
73
5
74
3
42
0.0000001000
43
0.0000001000
44
0.0000000001
12
0.0001767801
22
0.0054141286
32
0.0000000000
13
-0.0029429943
23
0.0049589549
33
0.0000000000
40
0.0000000000
40
0.0000000000
40
0.0000000000
40
0.0000000000
40
0.6316411435
40
1.0000000000
40
1.0000000000
40
1.0000000000
40
1.0000000000
10
8.9355090024
20
20.3688607651
30
0.0000000000
10
8.9355462229
20
20.3700006939
30
0.0000000000
10
8.9347203477
20
20.3720154716
30
0.0000000000
10
8.9337780202
20
20.3737458122
30
0.0000000000
10
8.9334166608
20
20.3743547039
30
0.0000000000
11
8.9355090024
21
20.3688607651
31
0.0000000000
11
8.9344564483
21
20.3724324449
31
0.0000000000
11
8.9334166608
21
20.3743547039
31
0.0000000000
0
SPLINE
5
3B8
100
AcDbEntity
8
0
100
AcDbSpline
62
0
6
CONTINUOUS
70
0
71
3
72
14
73
10
74
8
42
0.0000001000
43
0.0000001000
44
0.0000000001
12
-0.0566695584
22
0.0954883889
32
0.0000000000
13
-0.0880104637
23
0.0641532364
33
0.0000000000
40
0.0000000000
40
0.0000000000
40
0.0000000000
40
0.0000000000
40
0.0507979489
40
0.1496779943
40
0.2757326834
40
0.4265637239
40
0.5995479182
40
0.7917799682
40
1.0000000000
40
1.0000000000
40
1.0000000000
40
1.0000000000
10
8.9334166608
20
20.3743547039
30
0.0000000000
10
8.9324570950
20
20.3759715753
30
0.0000000000
10
8.9293337386
20
20.3801437124
30
0.0000000000
10
8.9224396362
20
20.3876406672
30
0.0000000000
10
8.9125260042
20
20.3969250872
30
0.0000000000
10
8.9001231292
20
20.4075908380
30
0.0000000000
10
8.8855422301
20
20.4193456404
30
0.0000000000
10
8.8690353745
20
20.4320365055
30
0.0000000000
10
8.8573493089
20
20.4406845632
30
0.0000000000
10
8.8512407951
20
20.4451372262
30
0.0000000000
11
8.9334166608
21
20.3743547039
31
0.0000000000
11
8.9302657774
21
20.3787916609
31
0.0000000000
11
8.9230591112
21
20.3867939587
31
0.0000000000
11
8.9131115217
21
20.3962555557
31
0.0000000000
11
8.9006857606
21
20.4070002824
31
0.0000000000
11
8.8860425797
21
20.4188541682
31
0.0000000000
11
8.8694590301
21
20.4316332544
31
0.0000000000
11
8.8512407951
21
20.4451372262
31
0.0000000000
0
SPLINE
5
3B9
100
AcDbEntity
8
0
100
AcDbSpline
62
0
6
CONTINUOUS
70
0
71
3
72
12
73
8
74
6
42
0.0000001000
43
0.0000001000
44
0.0000000001
12
-0.0001112880
22
-0.3027556084
32
0.0000000000
13
-0.1478565247
23
-0.2641316829
33
0.0000000000
40
0.0000000000
40
0.0000000000
40
0.0000000000
40
0.0000000000
40
0.1758487554
40
0.3770020419
40
0.5821736245
40
0.7902417506
40
1.0000000000
40
1.0000000000
40
1.0000000000
40
1.0000000000
10
8.9354391351
20
20.9450728860
30
0.0000000000
10
8.9354326118
20
20.9273264870
30
0.0000000000
10
8.9328040662
20
20.8892479026
30
0.0000000000
10
8.9219221740
20
20.8314114068
30
0.0000000000
10
8.9041575374
20
20.7719120804
30
0.0000000000
10
8.8806520269
20
20.7135279888
30
0.0000000000
10
8.8615788370
20
20.6758643134
30
0.0000000000
10
8.8512407951
20
20.6573963803
30
0.0000000000
11
8.9354391351
21
20.9450728860
31
0.0000000000
11
8.9320192201
21
20.8919397360
31
0.0000000000
11
8.9209793269
21
20.8320598942
31
0.0000000000
11
8.9033432773
21
20.7725111990
31
0.0000000000
11
8.8798952890
21
20.7140565688
31
0.0000000000
11
8.8512407951
21
20.6573963803
31
0.0000000000
0
SPLINE
5
3BA
100
AcDbEntity
8
0
100
AcDbSpline
62
0
6
CONTINUOUS
70
0
71
3
72
12
73
8
74
6
42
0.0000001000
43
0.0000001000
44
0.0000000001
12
-0.0000037860
22
-0.1438614601
32
0.0000000000
13
-0.1287763930
23
-0.0630118104
33
0.0000000000
40
0.0000000000
40
0.0000000000
40
0.0000000000
40
0.0000000000
40
0.1638187652
40
0.3390033906
40
0.5342164121
40
0.7541293018
40
1.0000000000
40
1.0000000000
40
1.0000000000
40
1.0000000000
10
-1.3746306846
20
24.5624834644
30
0.0000000000
10
-1.3746308913
20
24.5546277288
30
0.0000000000
10
-1.3773195731
20
24.5383698553
30
0.0000000000
10
-1.3889425761
20
24.5152782642
30
0.0000000000
10
-1.4075303540
20
24.4937643929
30
0.0000000000
10
-1.4324887479
20
24.4741629268
30
0.0000000000
10
-1.4519445363
20
24.4631849210
30
0.0000000000
10
-1.4624986502
20
24.4580206684
30
0.0000000000
11
-1.3746306846
21
24.5624834644
31
0.0000000000
11
-1.3783239368
21
24.5392895921
31
0.0000000000
11
-1.3893130900
21
24.5167057712
31
0.0000000000
11
-1.4073282355
21
24.4952879492
31
0.0000000000
11
-1.4319251003
21
24.4755645411
31
0.0000000000
11
-1.4624986502
21
24.4580206684
31
0.0000000000
0
SPLINE
5
3BB
100
AcDbEntity
8
0
100
AcDbSpline
62
0
6
CONTINUOUS
70
0
71
3
72
12
73
8
74
6
42
0.0000001000
43
0.0000001000
44
0.0000000001
12
-0.0000271067
22
-0.1424881500
32
0.0000000000
13
-0.1272561834
23
-0.0630046818
33
0.0000000000
40
0.0000000000
40
0.0000000000
40
0.0000000000
40
0.0000000000
40
0.1616494759
40
0.3374736946
40
0.5331965554
40
0.7535889118
40
1.0000000000
40
1.0000000000
40
1.0000000000
40
1.0000000000
10
4.1798327730
20
21.7852533717
30
0.0000000000
10
4.1798313124
20
21.7775756601
30
0.0000000000
10
4.1772459976
20
21.7615431790
30
0.0000000000
10
4.1659101444
20
21.7386374888
30
0.0000000000
10
4.1475798307
20
21.7171555038
30
0.0000000000
10
4.1229076985
20
21.6975606231
30
0.0000000000
10
4.1036478461
20
21.6865695968
30
0.0000000000
10
4.0931954012
20
21.6813945794
30
0.0000000000
11
4.1798327730
21
21.7852533717
31
0.0000000000
11
4.1763015881
21
21.7625687474
31
0.0000000000
11
4.1655255864
21
21.7400471497
31
0.0000000000
11
4.1477662746
21
21.7186689473
31
0.0000000000
11
4.1234583726
21
21.6989576726
31
0.0000000000
11
4.0931954012
21
21.6813945794
31
0.0000000000
0
SPLINE
5
3BC
100
AcDbEntity
8
0
100
AcDbSpline
62
0
6
CONTINUOUS
70
0
71
3
72
13
73
9
74
7
42
0.0000001000
43
0.0000001000
44
0.0000000001
12
-0.0000199727
22
-0.1454202046
32
0.0000000000
13
0.1296323661
23
-0.0648161831
33
0.0000000000
40
0.0000000000
40
0.0000000000
40
0.0000000000
40
0.0000000000
40
0.0030152475
40
0.1674532572
40
0.3429528197
40
0.5377595388
40
0.7563608844
40
1.0000000000
40
1.0000000000
40
1.0000000000
40
1.0000000000
10
-8.1235763757
20
22.9648949874
30
0.0000000000
10
-8.1235763958
20
22.9647488281
30
0.0000000000
10
-8.1235535162
20
22.9566318149
30
0.0000000000
10
-8.1207699299
20
22.9400237813
30
0.0000000000
10
-8.1091203528
20
22.9166141946
30
0.0000000000
10
-8.0905530199
20
22.8947688392
30
0.0000000000
10
-8.0656554266
20
22.8748417137
30
0.0000000000
10
-8.0462362847
20
22.8636518731
30
0.0000000000
10
-8.0357084464
20
22.8583879540
30
0.0000000000
11
-8.1235763757
21
22.9648949874
31
0.0000000000
11
-8.1235751385
21
22.9644565126
31
0.0000000000
11
-8.1197724461
21
22.9409292864
31
0.0000000000
11
-8.1087305859
21
22.9180152179
31
0.0000000000
11
-8.0907189635
21
22.8962726300
31
0.0000000000
11
-8.0661784927
21
22.8762338024
31
0.0000000000
11
-8.0357084464
21
22.8583879540
31
0.0000000000
0
SPLINE
5
3BD
100
AcDbEntity
8
0
100
AcDbSpline
62
0
6
CONTINUOUS
70
0
71
3
72
12
73
8
74
6
42
0.0000001000
43
0.0000001000
44
0.0000000001
12
-0.1462308253
22
0.0731154127
32
0.0000000000
13
-0.1459964177
23
-0.0745957438
33
0.0000000000
40
0.0000000000
40
0.0000000000
40
0.0000000000
40
0.0000000000
40
0.2553591691
40
0.4911746382
40
0.7106351586
40
0.9194242855
40
1.0000000000
40
1.0000000000
40
1.0000000000
40
1.0000000000
10
-13.8368673209
20
23.4720158196
30
0.0000000000
10
-13.8493144483
20
23.4782393833
30
0.0000000000
10
-13.8741999748
20
23.4884781788
30
0.0000000000
10
-13.9123012203
20
23.4966317768
30
0.0000000000
10
-13.9488019380
20
23.4966357853
30
0.0000000000
10
-13.9760158118
20
23.4899454728
30
0.0000000000
10
-13.9904558980
20
23.4834540352
30
0.0000000000
10
-13.9943771532
20
23.4814505001
30
0.0000000000
11
-13.8368673209
21
23.4720158196
31
0.0000000000
11
-13.8755818616
21
23.4876413711
31
0.0000000000
11
-13.9133429734
21
23.4954187321
31
0.0000000000
11
-13.9492218417
21
23.4951564253
31
0.0000000000
11
-13.9823336599
21
23.4868608866
31
0.0000000000
11
-13.9943771532
21
23.4814505001
31
0.0000000000
0
SPLINE
5
3BE
100
AcDbEntity
8
0
100
AcDbSpline
62
0
6
CONTINUOUS
70
0
71
3
72
17
73
13
74
11
42
0.0000001000
43
0.0000001000
44
0.0000000001
12
0.0000000000
22
0.5152490307
32
0.0000000000
13
-0.4608527432
23
0.2304263716
33
0.0000000000
40
0.0000000000
40
0.0000000000
40
0.0000000000
40
0.0000000000
40
0.0951726438
40
0.1952932407
40
0.2990931070
40
0.4050821278
40
0.5116639643
40
0.6171967785
40
0.7200955718
40
0.8189336013
40
0.9125145547
40
1.0000000000
40
1.0000000000
40
1.0000000000
40
1.0000000000
10
1.6841265261
20
15.4083984628
30
0.0000000000
10
1.6841265261
20
15.4247443337
30
0.0000000000
10
1.6819209523
20
15.4583108263
30
0.0000000000
10
1.6727561147
20
15.5089503220
30
0.0000000000
10
1.6578663672
20
15.5601480768
30
0.0000000000
10
1.6376130592
20
15.6106597328
30
0.0000000000
10
1.6124867276
20
15.6592672799
30
0.0000000000
10
1.5830950145
20
15.7047933905
30
0.0000000000
10
1.5501488011
20
15.7461367516
30
0.0000000000
10
1.5144344294
20
15.7823020459
30
0.0000000000
10
1.4768137827
20
15.8124117700
30
0.0000000000
10
1.4500784552
20
15.8285429315
30
0.0000000000
10
1.4366391527
20
15.8352625828
30
0.0000000000
11
1.6841265261
21
15.4083984628
31
0.0000000000
11
1.6810794392
21
15.4573413142
31
0.0000000000
11
1.6720133557
21
15.5081254542
31
0.0000000000
11
1.6571512417
21
15.5595017657
31
0.0000000000
11
1.6368598825
21
15.6102027882
31
0.0000000000
11
1.6116372260
21
15.6589839864
31
0.0000000000
11
1.5821054917
21
15.7046413108
31
0.0000000000
11
1.5489936735
21
15.7460486677
31
0.0000000000
11
1.5131148051
21
15.7821898429
31
0.0000000000
11
1.4753536933
21
15.8121735937
31
0.0000000000
11
1.4366391527
21
15.8352625828
31
0.0000000000
0
SPLINE
5
3BF
100
AcDbEntity
8
0
100
AcDbSpline
62
0
6
CONTINUOUS
70
0
71
3
72
17
73
13
74
11
42
0.0000001000
43
0.0000001000
44
0.0000000001
12
0.0000000000
22
0.5152490286
32
0.0000000000
13
-0.4608527413
23
0.2304263707
33
0.0000000000
40
0.0000000000
40
0.0000000000
40
0.0000000000
40
0.0000000000
40
0.0951686493
40
0.1952865842
40
0.2990826087
40
0.4050717387
40
0.5116494140
40
0.6171798582
40
0.7200829815
40
0.8189239543
40
0.9125100339
40
1.0000000000
40
1.0000000000
40
1.0000000000
40
1.0000000000
10
3.4518934791
20
16.3111761623
30
0.0000000000
10
3.4518934791
20
16.3275213470
30
0.0000000000
10
3.4496880722
20
16.3610866936
30
0.0000000000
10
3.4405238528
20
16.4117244627
30
0.0000000000
10
3.4256348448
20
16.4629212798
30
0.0000000000
10
3.4053825229
20
16.5134318704
30
0.0000000000
10
3.3802572460
20
16.5620387107
30
0.0000000000
10
3.3508664026
20
16.6075649244
30
0.0000000000
10
3.3179202715
20
16.6489094377
30
0.0000000000
10
3.2822048543
20
16.6850767012
30
0.0000000000
10
3.2445827993
20
16.7151881489
30
0.0000000000
10
3.2178461026
20
16.7313202838
30
0.0000000000
10
3.2044061056
20
16.7380402823
30
0.0000000000
11
3.4518934791
21
16.3111761623
31
0.0000000000
11
3.4488466407
21
16.3601169668
31
0.0000000000
11
3.4397810921
21
16.4108998088
31
0.0000000000
11
3.4249199586
21
16.4622743431
31
0.0000000000
11
3.4046290658
21
16.5129756126
31
0.0000000000
11
3.3794079448
21
16.5617551908
31
0.0000000000
11
3.3498775439
21
16.6074119231
31
0.0000000000
11
3.3167649454
21
16.6488215124
31
0.0000000000
11
3.2808854635
21
16.6849642151
31
0.0000000000
11
3.2431225644
21
16.7149499620
31
0.0000000000
11
3.2044061056
21
16.7380402823
31
0.0000000000
0
SPLINE
5
3C0
100
AcDbEntity
8
0
100
AcDbSpline
62
0
6
CONTINUOUS
70
0
71
3
72
13
73
9
74
7
42
0.0000001000
43
0.0000001000
44
0.0000000001
12
0.0000000000
22
-0.2196500159
32
0.0000000000
13
-0.1961404309
23
-0.1002301717
33
0.0000000000
40
0.0000000000
40
0.0000000000
40
0.0000000000
40
0.0000000000
40
0.2094012719
40
0.4037602127
40
0.5832359259
40
0.7496749212
40
0.9067994324
40
1.0000000000
40
1.0000000000
40
1.0000000000
40
1.0000000000
10
3.4518934791
20
-21.8805210608
30
0.0000000000
10
3.4518934791
20
-21.8958527250
30
0.0000000000
10
3.4500710029
20
-21.9254651524
30
0.0000000000
10
3.4412277025
20
-21.9674170398
30
0.0000000000
10
3.4265078190
20
-22.0043791920
30
0.0000000000
10
3.4061434273
20
-22.0354157542
30
0.0000000000
10
3.3837355187
20
-22.0565810402
30
0.0000000000
10
3.3680159098
20
-22.0662153302
30
0.0000000000
10
3.3619224433
20
-22.0693291665
30
0.0000000000
11
3.4518934791
21
-21.8805210608
31
0.0000000000
11
3.4488466407
21
-21.9264150269
31
0.0000000000
11
3.4397810921
21
-21.9681323203
31
0.0000000000
11
3.4249199586
21
-22.0046457211
31
0.0000000000
11
3.4046290658
21
-22.0350560978
31
0.0000000000
11
3.3794079448
21
-22.0586145549
31
0.0000000000
11
3.3619224433
21
-22.0693291665
31
0.0000000000
0
SPLINE
5
3C1
100
AcDbEntity
8
0
100
AcDbSpline
62
0
6
CONTINUOUS
70
0
71
3
72
13
73
9
74
7
42
0.0000001000
43
0.0000001000
44
0.0000000001
12
0.0122396445
22
-0.1150171961
32
0.0000000000
13
-0.1041816895
23
-0.0511598424
33
0.0000000000
40
0.0000000000
40
0.0000000000
40
0.0000000000
40
0.0000000000
40
0.2388705532
40
0.4538277329
40
0.6452743789
40
0.8198572347
40
0.9849909277
40
1.0000000000
40
1.0000000000
40
1.0000000000
40
1.0000000000
10
0.1915312995
20
-7.5816744470
30
0.0000000000
10
0.1925058630
20
-7.5908325208
30
0.0000000000
10
0.1932061073
20
-7.6083950687
30
0.0000000000
10
0.1899729804
20
-7.6332074731
30
0.0000000000
10
0.1824018467
20
-7.6545117021
30
0.0000000000
10
0.1705425150
20
-7.6715689099
30
0.0000000000
10
0.1594408322
20
-7.6799657521
30
0.0000000000
10
0.1532297146
20
-7.6831290213
30
0.0000000000
10
0.1527084911
20
-7.6833849752
30
0.0000000000
11
0.1915312995
21
-7.5816744470
31
0.0000000000
11
0.1924190497
21
-7.6092895281
31
0.0000000000
11
0.1889432193
21
-7.6339087414
31
0.0000000000
11
0.1812512864
21
-7.6546738614
31
0.0000000000
11
0.1695268097
21
-7.6711149783
31
0.0000000000
11
0.1542607265
21
-7.6825942663
31
0.0000000000
11
0.1527084911
21
-7.6833849752
31
0.0000000000
0
SPLINE
5
3C2
100
AcDbEntity
8
0
100
AcDbSpline
62
0
6
CONTINUOUS
70
0
71
3
72
17
73
13
74
11
42
0.0000001000
43
0.0000001000
44
0.0000000001
12
0.3895861697
22
-0.1947930849
32
0.0000000000
13
0.3893834854
23
0.1951979274
33
0.0000000000
40
0.0000000000
40
0.0000000000
40
0.0000000000
40
0.0000000000
40
0.0890005659
40
0.1849499553
40
0.2864563904
40
0.3918366128
40
0.4992385642
40
0.6067076896
40
0.7122861312
40
0.8141130460
40
0.9104892925
40
1.0000000000
40
1.0000000000
40
1.0000000000
40
1.0000000000
10
-2.2431993783
20
19.9621334199
30
0.0000000000
10
-2.2316415818
20
19.9563545217
30
0.0000000000
10
-2.2068274439
20
19.9459054064
30
0.0000000000
10
-2.1669556852
20
19.9338608093
30
0.0000000000
10
-2.1238149937
20
19.9250709314
30
0.0000000000
10
-2.0784439763
20
19.9197509775
30
0.0000000000
10
-2.0319304051
20
19.9180292022
30
0.0000000000
10
-1.9853958406
20
19.9199482282
30
0.0000000000
10
-1.9399624001
20
19.9254608125
30
0.0000000000
10
-1.8967198252
20
19.9344340907
30
0.0000000000
10
-1.8567095601
20
19.9466484313
30
0.0000000000
10
-1.8317910238
20
19.9571967727
30
0.0000000000
10
-1.8201730267
20
19.9630208742
30
0.0000000000
11
-2.2431993783
21
19.9621334199
31
0.0000000000
11
-2.2075446243
21
19.9469168683
31
0.0000000000
11
-2.1675768938
21
19.9347015952
31
0.0000000000
11
-2.1242719421
21
19.9257858960
31
0.0000000000
11
-2.0786899161
21
19.9203880214
31
0.0000000000
11
-2.0319414676
21
19.9186396771
31
0.0000000000
11
-1.9851714755
21
19.9205839958
31
0.0000000000
11
-1.9395255180
21
19.9261731045
31
0.0000000000
11
-1.8961157799
21
19.9352706996
31
0.0000000000
11
-1.8560051886
21
19.9476540817
31
0.0000000000
11
-1.8201730267
21
19.9630208742
31
0.0000000000
0
SPLINE
5
3C3
100
AcDbEntity
8
0
100
AcDbSpline
62
0
6
CONTINUOUS
70
0
71
3
72
17
73
13
74
11
42
0.0000001000
43
0.0000001000
44
0.0000000001
12
-0.3889091088
22
-0.1963377245
32
0.0000000000
13
-0.3896652892
23
0.1948326446
33
0.0000000000
40
0.0000000000
40
0.0000000000
40
0.0000000000
40
0.0000000000
40
0.0896005383
40
0.1860363505
40
0.2878952112
40
0.3934811365
40
0.5009374680
40
0.6083108940
40
0.7136525634
40
0.8151165594
40
0.9110269511
40
1.0000000000
40
1.0000000000
40
1.0000000000
40
1.0000000000
10
-1.8201730267
20
18.7488174014
30
0.0000000000
10
-1.8317885152
20
18.7429534128
30
0.0000000000
10
-1.8567027289
20
18.7323248297
30
0.0000000000
10
-1.8967144490
20
18.7199954286
30
0.0000000000
10
-1.9399584438
20
18.7109132030
30
0.0000000000
10
-1.9853931799
20
18.7053003287
30
0.0000000000
10
-2.0319288459
20
18.7032919952
30
0.0000000000
10
-2.0784433705
20
18.7049375407
30
0.0000000000
10
-2.1238152428
20
18.7101961454
30
0.0000000000
10
-2.1669568595
20
18.7189410642
30
0.0000000000
10
-2.2068296922
20
18.7309582280
30
0.0000000000
10
-2.2316428087
20
18.7414002690
30
0.0000000000
10
-2.2431993783
20
18.7471785539
30
0.0000000000
11
-1.8201730267
21
18.7488174014
31
0.0000000000
11
-1.8560056554
21
18.7333326947
31
0.0000000000
11
-1.8961167268
21
18.7208344827
31
0.0000000000
11
-1.9395269227
21
18.7116279312
31
0.0000000000
11
-1.9851731695
21
18.7059384046
31
0.0000000000
11
-2.0319432929
21
18.7039046149
31
0.0000000000
11
-2.0786916064
21
18.7055765903
31
0.0000000000
11
-2.1242733404
21
18.7109130298
31
0.0000000000
11
-2.1675778341
21
18.7197836854
31
0.0000000000
11
-2.2075450864
21
18.7319714057
31
0.0000000000
11
-2.2431993783
21
18.7471785539
31
0.0000000000
0
SPLINE
5
3C4
100
AcDbEntity
8
0
100
AcDbSpline
62
0
6
CONTINUOUS
70
0
71
3
72
13
73
9
74
7
42
0.0000001000
43
0.0000001000
44
0.0000000001
12
-0.1298016753
22
0.0649008377
32
0.0000000000
13
0.0000186465
23
0.1456076944
33
0.0000000000
40
0.0000000000
40
0.0000000000
40
0.0000000000
40
0.0000000000
40
0.2433506852
40
0.4617848989
40
0.6565755890
40
0.8322279170
40
0.9969716939
40
1.0000000000
40
1.0000000000
40
1.0000000000
40
1.0000000000
10
-8.0357084464
20
21.6434330879
30
0.0000000000
10
-8.0462375553
20
21.6486976423
30
0.0000000000
10
-8.0656608911
20
21.6598956439
30
0.0000000000
10
-8.0905599928
20
21.6798521102
30
0.0000000000
10
-8.1091273032
20
21.7017455244
30
0.0000000000
10
-8.1207735304
20
21.7252186856
30
0.0000000000
10
-8.1235534101
20
21.7418715386
30
0.0000000000
10
-8.1235763980
20
21.7500144953
30
0.0000000000
10
-8.1235763792
20
21.7501614768
30
0.0000000000
11
-8.0357084464
21
21.6434330879
31
0.0000000000
11
-8.0661781565
21
21.6612879407
31
0.0000000000
11
-8.0907184830
21
21.6813540098
31
0.0000000000
11
-8.1087301289
21
21.7031414240
31
0.0000000000
11
-8.1197721744
21
21.7261168743
31
0.0000000000
11
-8.1235751332
21
21.7497205351
31
0.0000000000
11
-8.1235763792
21
21.7501614768
31
0.0000000000
0
SPLINE
5
3C5
100
AcDbEntity
8
0
100
AcDbSpline
62
0
6
CONTINUOUS
70
0
71
3
72
12
73
8
74
6
42
0.0000001000
43
0.0000001000
44
0.0000000001
12
0.1274265362
22
0.0635456794
32
0.0000000000
13
0.0000255395
23
0.1428803290
33
0.0000000000
40
0.0000000000
40
0.0000000000
40
0.0000000000
40
0.0000000000
40
0.2461437340
40
0.4664340245
40
0.6622044411
40
0.8381796843
40
1.0000000000
40
1.0000000000
40
1.0000000000
40
1.0000000000
10
4.0931954012
20
22.9132331577
30
0.0000000000
10
4.1036504824
20
22.9184469480
30
0.0000000000
10
4.1229159763
20
22.9295164384
30
0.0000000000
10
4.1475870517
20
22.9492276769
30
0.0000000000
10
4.1659143238
20
22.9708197390
30
0.0000000000
10
4.1772460116
20
22.9938235102
30
0.0000000000
10
4.1798313998
20
23.0099149992
30
0.0000000000
10
4.1798327774
20
23.0176219792
30
0.0000000000
11
4.0931954012
21
22.9132331577
31
0.0000000000
11
4.1234580372
21
22.9309137641
31
0.0000000000
11
4.1477657976
21
22.9507395579
31
0.0000000000
11
4.1655251363
21
22.9722265012
31
0.0000000000
11
4.1763013258
21
22.9948484659
31
0.0000000000
11
4.1798327774
21
23.0176219792
31
0.0000000000
0
SPLINE
5
3C6
100
AcDbEntity
8
0
100
AcDbSpline
62
0
6
CONTINUOUS
70
0
71
3
72
12
73
8
74
6
42
0.0000001000
43
0.0000001000
44
0.0000000001
12
0.1289494975
22
0.0635559375
32
0.0000000000
13
0.0000024649
23
0.1442557351
33
0.0000000000
40
0.0000000000
40
0.0000000000
40
0.0000000000
40
0.0000000000
40
0.2456022684
40
0.4654114574
40
0.6606705777
40
0.8360059861
40
1.0000000000
40
1.0000000000
40
1.0000000000
40
1.0000000000
10
-1.4624986502
20
25.6898548498
30
0.0000000000
10
-1.4519418871
20
25.6950580106
30
0.0000000000
10
-1.4324804050
20
25.7061147761
30
0.0000000000
10
-1.4075230254
20
25.7258331765
30
0.0000000000
10
-1.3889382567
20
25.7474577893
30
0.0000000000
10
-1.3773194975
20
25.7706487332
30
0.0000000000
10
-1.3746308193
20
25.7869663741
30
0.0000000000
10
-1.3746306846
20
25.7948520664
30
0.0000000000
11
-1.4624986502
21
25.6898548498
31
0.0000000000
11
-1.4319254385
21
25.7075167263
31
0.0000000000
11
-1.4073287180
21
25.7273552168
31
0.0000000000
11
-1.3893135474
21
25.7488823815
31
0.0000000000
11
-1.3783242061
21
25.7715671757
31
0.0000000000
11
-1.3746306846
21
25.7948520664
31
0.0000000000
0
SPLINE
5
3C7
100
AcDbEntity
8
0
100
AcDbSpline
62
0
6
CONTINUOUS
70
0
71
3
72
13
73
9
74
7
42
0.0000001000
43
0.0000001000
44
0.0000000001
12
0.1998406808
22
0.0978572385
32
0.0000000000
13
-0.0000000000
23
0.2218990679
33
0.0000000000
40
0.0000000000
40
0.0000000000
40
0.0000000000
40
0.0000000000
40
0.1023705749
40
0.2579078719
40
0.4226584216
40
0.6003200547
40
0.7927129486
40
1.0000000000
40
1.0000000000
40
1.0000000000
40
1.0000000000
10
1.5921385187
20
-22.9353275123
30
0.0000000000
10
1.5989577871
20
-22.9319882784
30
0.0000000000
10
1.6154158029
20
-22.9220918899
30
0.0000000000
10
1.6383739581
20
-22.9004081100
30
0.0000000000
10
1.6587393788
20
-22.8693714350
30
0.0000000000
10
1.6734600232
20
-22.8324089690
30
0.0000000000
10
1.6823039238
20
-22.7904559069
30
0.0000000000
10
1.6841265261
20
-22.7608425821
30
0.0000000000
10
1.6841265261
20
-22.7455103143
30
0.0000000000
11
1.5921385187
21
-22.9353275123
31
0.0000000000
11
1.6116372260
21
-22.9236065378
31
0.0000000000
11
1.6368598825
21
-22.9000479960
31
0.0000000000
11
1.6571512417
21
-22.8696383327
31
0.0000000000
11
1.6720133557
21
-22.8331241353
31
0.0000000000
11
1.6810794392
21
-22.7914060787
31
0.0000000000
11
1.6841265261
21
-22.7455103143
31
0.0000000000
0
SPLINE
5
3C8
100
AcDbEntity
8
0
100
AcDbSpline
62
0
6
CONTINUOUS
70
0
71
3
72
11
73
7
74
5
42
0.0000001000
43
0.0000001000
44
0.0000000001
12
-0.4351467956
22
0.0874129533
32
0.0000000000
13
-0.4398144642
23
-0.0596405499
33
0.0000000000
40
0.0000000000
40
0.0000000000
40
0.0000000000
40
0.0000000000
40
0.2406426210
40
0.4887663275
40
0.7423989614
40
1.0000000000
40
1.0000000000
40
1.0000000000
40
1.0000000000
10
8.1871423855
20
21.4583698558
30
0.0000000000
10
8.1522374304
20
21.4653816165
30
0.0000000000
10
8.0806222489
20
21.4762006262
30
0.0000000000
10
7.9708987118
20
21.4832962248
30
0.0000000000
10
7.8584542072
20
21.4814945754
30
0.0000000000
10
7.7830670719
20
21.4743092920
30
0.0000000000
10
7.7453015176
20
21.4691881361
30
0.0000000000
11
8.1871423855
21
21.4583698558
31
0.0000000000
11
8.0815675006
21
21.4745448306
31
0.0000000000
11
7.9716782357
21
21.4817797325
31
0.0000000000
11
7.8591195180
21
21.4800339978
31
0.0000000000
11
7.7453015176
21
21.4691881361
31
0.0000000000
0
SPLINE
5
3C9
100
AcDbEntity
8
0
100
AcDbSpline
62
0
6
CONTINUOUS
70
0
71
3
72
9
73
5
74
3
42
0.0000001000
43
0.0000001000
44
0.0000000001
12
-0.0241207860
22
0.0049542359
32
0.0000000000
13
-0.0220849478
23
0.0110448753
33
0.0000000000
40
0.0000000000
40
0.0000000000
40
0.0000000000
40
0.0000000000
40
0.9288596728
40
1.0000000000
40
1.0000000000
40
1.0000000000
40
1.0000000000
10
3.1862142078
20
-22.6507465356
30
0.0000000000
10
3.1787459326
20
-22.6492126056
30
0.0000000000
10
3.1708620634
20
-22.6466033150
30
0.0000000000
10
3.1634647746
20
-22.6429919354
30
0.0000000000
10
3.1629410644
20
-22.6427300234
30
0.0000000000
11
3.1862142078
21
-22.6507465356
31
0.0000000000
11
3.1645197282
21
-22.6435006933
31
0.0000000000
11
3.1629410644
21
-22.6427300234
31
0.0000000000
0
SPLINE
5
3CA
100
AcDbEntity
8
0
100
AcDbSpline
62
0
6
CONTINUOUS
70
0
71
3
72
17
73
13
74
11
42
0.0000001000
43
0.0000001000
44
0.0000000001
12
-0.3281832376
22
-0.1645182454
32
0.0000000000
13
0.0000000000
23
-0.3671110057
33
0.0000000000
40
0.0000000000
40
0.0000000000
40
0.0000000000
40
0.0000000000
40
0.0877988990
40
0.1818695997
40
0.2805570128
40
0.3837432653
40
0.4891441471
40
0.5955191608
40
0.7015876633
40
0.8048773159
40
0.9050482431
40
1.0000000000
40
1.0000000000
40
1.0000000000
40
1.0000000000
10
1.4970592976
20
17.8070046353
30
0.0000000000
10
1.4874545887
20
17.8021897950
30
0.0000000000
10
1.4683241427
20
17.7906444203
30
0.0000000000
10
1.4414417641
20
17.7691612658
30
0.0000000000
10
1.4159080823
20
17.7433738498
30
0.0000000000
10
1.3923875594
20
17.7139529882
30
0.0000000000
10
1.3714009051
20
17.6815528456
30
0.0000000000
10
1.3534632594
20
17.6469742986
30
0.0000000000
10
1.3390212731
20
17.6110731842
30
0.0000000000
10
1.3283951312
20
17.5746489262
30
0.0000000000
10
1.3218605323
20
17.5386534057
30
0.0000000000
10
1.3202885682
20
17.5147583354
30
0.0000000000
10
1.3202885682
20
17.5031390570
30
0.0000000000
11
1.4970592976
21
17.8070046353
31
0.0000000000
11
1.4693810045
21
17.7904876688
31
0.0000000000
11
1.4423220623
21
17.7690298565
31
0.0000000000
11
1.4167657969
21
17.7433503939
31
0.0000000000
11
1.3930631085
21
17.7138014811
31
0.0000000000
11
1.3720007283
21
17.6813424587
31
0.0000000000
11
1.3540155795
21
17.6466790882
31
0.0000000000
11
1.3395073764
21
17.6105439098
31
0.0000000000
11
1.3289399628
21
17.5741273922
31
0.0000000000
11
1.3224580499
21
17.5379293144
31
0.0000000000
11
1.3202885682
21
17.5031390570
31
0.0000000000
0
SPLINE
5
3CB
100
AcDbEntity
8
0
100
AcDbSpline
62
0
6
CONTINUOUS
70
0
71
3
72
13
73
9
74
7
42
0.0000001000
43
0.0000001000
44
0.0000000001
12
0.0000000000
22
-0.1580771600
32
0.0000000000
13
0.1417682681
23
-0.0708992473
33
0.0000000000
40
0.0000000000
40
0.0000000000
40
0.0000000000
40
0.0000000000
40
0.1982397194
40
0.3834113548
40
0.5546239440
40
0.7146143823
40
0.8649759067
40
1.0000000000
40
1.0000000000
40
1.0000000000
40
1.0000000000
10
1.3202885682
20
17.1631651229
30
0.0000000000
10
1.3202885682
20
17.1527193990
30
0.0000000000
10
1.3214843056
20
17.1324855511
30
0.0000000000
10
1.3272601367
20
17.1037299277
30
0.0000000000
10
1.3368802396
20
17.0781316691
30
0.0000000000
10
1.3501787628
20
17.0563179014
30
0.0000000000
10
1.3665552413
20
17.0392218983
30
0.0000000000
10
1.3792649129
20
17.0309459255
30
0.0000000000
10
1.3856456235
20
17.0277548900
30
0.0000000000
11
1.3202885682
21
17.1631651229
31
0.0000000000
11
1.3222728140
21
17.1318908346
31
0.0000000000
11
1.3281959975
21
17.1032249818
31
0.0000000000
11
1.3378845579
21
17.0779537494
31
0.0000000000
11
1.3511997257
21
17.0564518286
31
0.0000000000
11
1.3677343575
21
17.0393767551
31
0.0000000000
11
1.3856456235
21
17.0277548900
31
0.0000000000
0
SPLINE
5
3CC
100
AcDbEntity
8
0
100
AcDbSpline
62
0
6
CONTINUOUS
70
0
71
3
72
17
73
13
74
11
42
0.0000001000
43
0.0000001000
44
0.0000000001
12
-0.3281832376
22
-0.1645182454
32
0.0000000000
13
0.0000000000
23
-0.3671110057
33
0.0000000000
40
0.0000000000
40
0.0000000000
40
0.0000000000
40
0.0000000000
40
0.0877988990
40
0.1818695997
40
0.2805570128
40
0.3837432653
40
0.4891441471
40
0.5955191608
40
0.7015876633
40
0.8048773159
40
0.9050482431
40
1.0000000000
40
1.0000000000
40
1.0000000000
40
1.0000000000
10
-11.8672588668
20
24.4891637175
30
0.0000000000
10
-11.8768635758
20
24.4843488772
30
0.0000000000
10
-11.8959940217
20
24.4728035025
30
0.0000000000
10
-11.9228764003
20
24.4513203480
30
0.0000000000
10
-11.9484100821
20
24.4255329320
30
0.0000000000
10
-11.9719306050
20
24.3961120705
30
0.0000000000
10
-11.9929172593
20
24.3637119279
30
0.0000000000
10
-12.0108549050
20
24.3291333808
30
0.0000000000
10
-12.0252968913
20
24.2932322664
30
0.0000000000
10
-12.0359230333
20
24.2568080084
30
0.0000000000
10
-12.0424576321
20
24.2208124879
30
0.0000000000
10
-12.0440295962
20
24.1969174176
30
0.0000000000
10
-12.0440295962
20
24.1852981393
30
0.0000000000
11
-11.8672588668
21
24.4891637175
31
0.0000000000
11
-11.8949371599
21
24.4726467510
31
0.0000000000
11
-11.9219961021
21
24.4511889387
31
0.0000000000
11
-11.9475523675
21
24.4255094761
31
0.0000000000
11
-11.9712550559
21
24.3959605633
31
0.0000000000
11
-11.9923174361
21
24.3635015409
31
0.0000000000
11
-12.0103025849
21
24.3288381704
31
0.0000000000
11
-12.0248107880
21
24.2927029920
31
0.0000000000
11
-12.0353782016
21
24.2562864744
31
0.0000000000
11
-12.0418601145
21
24.2200883966
31
0.0000000000
11
-12.0440295962
21
24.1852981393
31
0.0000000000
0
SPLINE
5
3CD
100
AcDbEntity
8
0
100
AcDbSpline
62
0
6
CONTINUOUS
70
0
71
3
72
13
73
9
74
7
42
0.0000001000
43
0.0000001000
44
0.0000000001
12
0.0000000000
22
-0.1580771600
32
0.0000000000
13
0.1417682681
23
-0.0708992473
33
0.0000000000
40
0.0000000000
40
0.0000000000
40
0.0000000000
40
0.0000000000
40
0.1982397194
40
0.3834113548
40
0.5546239440
40
0.7146143823
40
0.8649759067
40
1.0000000000
40
1.0000000000
40
1.0000000000
40
1.0000000000
10
-12.0440295962
20
23.8453242051
30
0.0000000000
10
-12.0440295962
20
23.8348784812
30
0.0000000000
10
-12.0428338589
20
23.8146446333
30
0.0000000000
10
-12.0370580278
20
23.7858890099
30
0.0000000000
10
-12.0274379249
20
23.7602907513
30
0.0000000000
10
-12.0141394016
20
23.7384769836
30
0.0000000000
10
-11.9977629231
20
23.7213809805
30
0.0000000000
10
-11.9850532516
20
23.7131050077
30
0.0000000000
10
-11.9786725409
20
23.7099139722
30
0.0000000000
11
-12.0440295962
21
23.8453242051
31
0.0000000000
11
-12.0420453505
21
23.8140499168
31
0.0000000000
11
-12.0361221669
21
23.7853840640
31
0.0000000000
11
-12.0264336065
21
23.7601128316
31
0.0000000000
11
-12.0131184387
21
23.7386109108
31
0.0000000000
11
-11.9965838070
21
23.7215358373
31
0.0000000000
11
-11.9786725409
21
23.7099139722
31
0.0000000000
0
SPLINE
5
3CE
100
AcDbEntity
8
0
100
AcDbSpline
62
0
6
CONTINUOUS
70
0
71
3
72
13
73
9
74
7
42
0.0000001000
43
0.0000001000
44
0.0000000001
12
0.0000000000
22
-0.1580496594
32
0.0000000000
13
0.1417254613
23
-0.0709202235
33
0.0000000000
40
0.0000000000
40
0.0000000000
40
0.0000000000
40
0.0000000000
40
0.2070101272
40
0.3999125266
40
0.5773183208
40
0.7429756756
40
0.8990662596
40
1.0000000000
40
1.0000000000
40
1.0000000000
40
1.0000000000
10
1.3202885682
20
-24.4764129506
30
0.0000000000
10
1.3202885682
20
-24.4873189106
30
0.0000000000
10
1.3215899273
20
-24.5084233553
30
0.0000000000
10
1.3278983658
20
-24.5383025408
30
0.0000000000
10
1.3384072892
20
-24.5646835806
30
0.0000000000
10
1.3529265634
20
-24.5868557879
30
0.0000000000
10
1.3692392447
20
-24.6023375413
30
0.0000000000
10
1.3808744386
20
-24.6094324049
30
0.0000000000
10
1.3856427322
20
-24.6118184861
30
0.0000000000
11
1.3202885682
21
-24.4764129506
31
0.0000000000
11
1.3224580499
21
-24.5090588237
31
0.0000000000
11
1.3289399628
21
-24.5388499736
31
0.0000000000
11
1.3395073764
21
-24.5648213252
31
0.0000000000
11
1.3540155795
21
-24.5866161366
31
0.0000000000
11
1.3720007283
21
-24.6035024169
31
0.0000000000
11
1.3856427322
21
-24.6118184861
31
0.0000000000
0
SPLINE
5
3CF
100
AcDbEntity
8
0
100
AcDbSpline
62
0
6
CONTINUOUS
70
0
71
3
72
14
73
10
74
8
42
0.0000001000
43
0.0000001000
44
0.0000000001
12
-0.1618915143
22
-0.1938217939
32
0.0000000000
13
0.0000000000
23
-0.2525386112
33
0.0000000000
40
0.0000000000
40
0.0000000000
40
0.0000000000
40
0.0000000000
40
0.1442287221
40
0.2915661604
40
0.4392076970
40
0.5862445358
40
0.7294680978
40
0.8681597286
40
1.0000000000
40
1.0000000000
40
1.0000000000
40
1.0000000000
10
1.4091911442
20
-23.9050019568
30
0.0000000000
10
1.4014080088
20
-23.9143201800
30
0.0000000000
10
1.3866151758
20
-23.9339622819
30
0.0000000000
10
1.3672231587
20
-23.9654996819
30
0.0000000000
10
1.3506968955
20
-23.9988957395
30
0.0000000000
10
1.3374349438
20
-24.0333468504
30
0.0000000000
10
1.3276984315
20
-24.0681785857
30
0.0000000000
10
1.3217211292
20
-24.1025515766
30
0.0000000000
10
1.3202885682
20
-24.1253407634
30
0.0000000000
10
1.3202885682
20
-24.1364390165
30
0.0000000000
11
1.4091911442
21
-23.9050019568
31
0.0000000000
11
1.3872426016
21
-23.9340694611
31
0.0000000000
11
1.3677343575
21
-23.9657537292
31
0.0000000000
11
1.3511997257
21
-23.9991721559
31
0.0000000000
11
1.3378845579
21
-24.0338352099
31
0.0000000000
11
1.3281959975
21
-24.0686829220
31
0.0000000000
11
1.3222728140
21
-24.1032034369
31
0.0000000000
11
1.3202885682
21
-24.1364390165
31
0.0000000000
0
SPLINE
5
3D0
100
AcDbEntity
8
0
100
AcDbSpline
62
0
6
CONTINUOUS
70
0
71
3
72
15
73
11
74
9
42
0.0000001000
43
0.0000001000
44
0.0000000001
12
0.0627631636
22
-0.5850015930
32
0.0000000000
13
-0.5352556215
23
-0.2471302028
33
0.0000000000
40
0.0000000000
40
0.0000000000
40
0.0000000000
40
0.0000000000
40
0.1659352099
40
0.3204718358
40
0.4633438016
40
0.5955774700
40
0.7183321631
40
0.8346015069
40
0.9472409223
40
1.0000000000
40
1.0000000000
40
1.0000000000
40
1.0000000000
10
0.4916743081
20
-17.5339708724
30
0.0000000000
10
0.4951458477
20
-17.5663283264
30
0.0000000000
10
0.4989248356
20
-17.6291960500
30
0.0000000000
10
0.4943181415
20
-17.7201567648
30
0.0000000000
10
0.4792822370
20
-17.8033397814
30
0.0000000000
10
0.4539709729
20
-17.8775095590
30
0.0000000000
10
0.4186051850
20
-17.9416420712
30
0.0000000000
10
0.3736242006
20
-17.9945973565
30
0.0000000000
10
0.3292008350
20
-18.0281991334
30
0.0000000000
10
0.3003833218
20
-18.0433179338
30
0.0000000000
10
0.2909701241
20
-18.0476640543
30
0.0000000000
11
0.4916743081
21
-17.5339708724
31
0.0000000000
11
0.4971918723
21
-17.6314442752
31
0.0000000000
11
0.4921903563
21
-17.7222295925
31
0.0000000000
11
0.4767862191
21
-17.8048661010
31
0.0000000000
11
0.4511981681
21
-17.8783386997
31
0.0000000000
11
0.4159290652
21
-17.9413654261
31
0.0000000000
11
0.3713996451
21
-17.9932961275
31
0.0000000000
11
0.3184898952
21
-18.0332033729
31
0.0000000000
11
0.2909701241
21
-18.0476640543
31
0.0000000000
0
SPLINE
5
3D1
100
AcDbEntity
8
0
100
AcDbSpline
62
0
6
CONTINUOUS
70
0
71
3
72
10
73
6
74
4
42
0.0000001000
43
0.0000001000
44
0.0000000001
12
-0.1336292343
22
-0.1597985454
32
0.0000000000
13
-0.1557402743
23
-0.1383391256
33
0.0000000000
40
0.0000000000
40
0.0000000000
40
0.0000000000
40
0.0000000000
40
0.2031660955
40
0.8028574956
40
1.0000000000
40
1.0000000000
40
1.0000000000
40
1.0000000000
10
20.2625568261
20
15.3333218774
30
0.0000000000
10
20.2535071828
20
15.3224999952
30
0.0000000000
10
20.2171271797
20
15.2802519292
30
0.0000000000
10
20.1687864721
20
15.2303072966
30
0.0000000000
10
20.1279749090
20
15.1929388770
30
0.0000000000
10
20.1177405665
20
15.1838480365
30
0.0000000000
11
20.2625568261
21
15.3333218774
31
0.0000000000
11
20.2349393383
21
15.3012555876
31
0.0000000000
11
20.1480287671
21
15.2115780043
31
0.0000000000
11
20.1177405665
21
15.1838480365
31
0.0000000000
0
ENDSEC
0
SECTION
2
OBJECTS
0
DICTIONARY
5
C
100
AcDbDictionary
280
0
281
1
3
ACAD_GROUP
350
D
3
ACAD_MLINESTYLE
350
17
3
ACAD_LAYOUT
350
1A
3
ACAD_PLOTSETTINGS
350
19
3
ACAD_PLOTSTYLENAME
350
E
0
DICTIONARY
5
D
102
{ACAD_REACTORS
330
C
102
}
100
AcDbDictionary
280
0
281
1
0
ACDBDICTIONARYWDFLT
5
E
102
{ACAD_REACTORS
330
C
102
}
100
AcDbDictionary
281
1
3
Normal
350
F
100
AcDbDictionaryWithDefault
340
F
0
DICTIONARY
5
17
102
{ACAD_REACTORS
330
C
102
}
100
AcDbDictionary
280
0
281
1
3
Standard
350
18
0
DICTIONARY
5
19
102
{ACAD_REACTORS
330
C
102
}
100
AcDbDictionary
281
1
0
DICTIONARY
5
1A
102
{ACAD_REACTORS
330
C
102
}
100
AcDbDictionary
281
1
3
Layout1
350
1E
3
Model
350
22
0
ACDBPLACEHOLDER
5
F
102
{ACAD_REACTORS
330
E
102
}
0
MLINESTYLE
5
18
102
{ACAD_REACTORS
330
17
102
}
100
AcDbMlineStyle
2
STANDARD
70
0
3

62
256
51
90.0
52
90.0
71
2
49
0.5
62
256
6
BYLAYER
49
-0.5
62
256
6
BYLAYER
0
LAYOUT
5
1E
102
{ACAD_REACTORS
330
1A
102
}
100
AcDbPlotSettings
1

2

4

6

40
0.0
41
0.0
42
0.0
43
0.0
44
0.0
45
0.0
46
0.0
47
0.0
48
0.0
49
0.0
140
0.0
141
0.0
142
1.0
143
1.0
70
0
72
0
73
0
74
0
7

75
0
147
1.0
148
0.0
149
0.0
100
AcDbLayout
1
Layout1
70
0
71
0
10
0.0
20
0.0
11
0.0
21
0.0
12
0.0
22
0.0
32
0.0
14
0.0
24
0.0
34
0.0
15
0.0
25
0.0
35
0.0
146
0.0
13
0.0
23
0.0
33
0.0
16
0.0
26
0.0
36
0.0
17
0.0
27
0.0
37
0.0
76
0
330
1B
331
0
345
0
346
0
0
LAYOUT
5
22
102
{ACAD_REACTORS
330
1A
102
}
100
AcDbPlotSettings
1

2

4

6

40
0.0
41
0.0
42
0.0
43
0.0
44
0.0
45
0.0
46
0.0
47
0.0
48
0.0
49
0.0
140
0.0
141
0.0
142
1.0
143
1.0
70
0
72
0
73
0
74
0
7

75
0
147
1.0
148
0.0
149
0.0
100
AcDbLayout
1
Model
70
0
71
0
10
0.0
20
0.0
11
0.0
21
0.0
12
0.0
22
0.0
32
0.0
14
0.0
24
0.0
34
0.0
15
0.0
25
0.0
35
0.0
146
0.0
13
0.0
23
0.0
33
0.0
16
0.0
26
0.0
36
0.0
17
0.0
27
0.0
37
0.0
76
0
330
1F
331
0
345
0
346
0
0
ENDSEC
0
EOF
