  0
SECTION
  2
HEADER
  9
$ACADVER
  1
AC1024
  9
$DWGCODEPAGE
  3
ANSI_1252
  9
$EXTMAX
 10
297.0
 20
210.0
 30
0.0
  9
$EXTMIN
 10
0.0
 20
0.0
 30
0.0
  9
$LIMMIN
 10
0.0
 20
0.0
  9
$LIMMAX
 10
297.0
 20
210.0
  9
$VIEWCTR
 10
148.5
 20
105.0
  9
$VIEWSIZE
 40
210.0
  9
$CLAYER
  8
0
  9
$LTSCALE
 40
16.335
  9
$CELTYPE
  6
BYLAYER
  9
$DIMSCALE
 40
1.0
  9
$DIMASZ
 40
3.0
  9
$DIMEXO
 40
0.5
  9
$DIMDLI
 40
11.286
  9
$DIMEXE
 40
1.5
  9
$DIMCEN
 40
2.673
  9
$DIMLFAC
 40
1.0
  9
$DIMBLK
  1
_FILLED
  9
$DIMALT
 70
0
  9
$DIMALTF
 40
0.0393700787
  9
$DIMTXT
 40
3.0
  9
$DIMTOL
 70
1
  9
$DIMLIM
 70
0
  9
$DIMTFAC
 40
1.0
  9
$DIMTP
 40
0.01
  9
$DIMTM
 40
0.01
  9
$DIMGAP
 40
0.625
  9
$DIMDSEP
 70
44
  9
$AUNITS
 70
0
  9
$PDMODE
 70
3
  9
$PDSIZE
 40
3.0
  9
$HANDSEED
  5
3F9
  9
$TILEMODE
 70
1
  9
$MEASUREMENT
 70
1
  9
$INSUNITS
 70
4
  0
ENDSEC
  0
SECTION
  2
CLASSES
  0
CLASS
  1
ACDBDICTIONARYWDFLT
  2
AcDbDictionaryWithDefault
  3
AutoCAD 2000
 90
0
 91
1
280
0
281
0
  0
CLASS
  1
ACDBPLACEHOLDER
  2
AcDbPlaceHolder
  3
AutoCAD 2000
 90
0
 91
1
280
0
281
0
  0
CLASS
  1
LAYOUT
  2
AcDbLayout
  3
AutoCAD 2000
 90
0
 91
0
280
0
281
0
  0
ENDSEC
  0
SECTION
  2
TABLES
  0
TABLE
  2
VPORT
  5
8
100
AcDbSymbolTable
 70
2
  0
VPORT
  5
1F4
100
AcDbSymbolTableRecord
100
AcDbViewportTableRecord
  2
*ACTIVE
 70
0
 10
0.0
 20
0.0
 11
1.0
 21
1.0
 12
148.5
 22
105.0
 13
0.0
 23
0.0
 14
1.0
 24
1.0
 15
0.0
 25
0.0
 16
0.0
 26
0.0
 36
1.0
 17
0.0
 27
0.0
 37
0.0
 40
210.0
 41
1.4142857143
 42
50.0
 43
0.0
 44
0.0
 50
0.0
 51
0.0
 71
0
 72
100
 73
1
 74
1
 75
0
 76
0
 77
0
 78
0
  0
ENDTAB
  0
TABLE
  2
LTYPE
  5
5
100
AcDbSymbolTable
 70
6
  0
LTYPE
  5
14
100
AcDbSymbolTableRecord
100
AcDbLinetypeTableRecord
  2
BYBLOCK
 70
0
  3

 72
65
 73
0
 40
0.0
  0
LTYPE
  5
15
100
AcDbSymbolTableRecord
100
AcDbLinetypeTableRecord
  2
BYLAYER
 70
0
  3

 72
65
 73
0
 40
0.0
  0
LTYPE
  5
16
100
AcDbSymbolTableRecord
100
AcDbLinetypeTableRecord
  2
CONTINUOUS
 70
64
  3
Solid line
 72
65
 73
0
 40
0.0
  0
LTYPE
  5
1F5
100
AcDbSymbolTableRecord
100
AcDbLinetypeTableRecord
  2
CENTER
 70
64
  3
____ _ ____ _ ____ _ ____ _ ____ _ ____ _ ____
 72
65
 73
4
 40
0.6
 49
0.375
 74
0
 49
-0.075
 74
0
 49
0.075
 74
0
 49
-0.075
 74
0
  0
LTYPE
  5
1F6
100
AcDbSymbolTableRecord
100
AcDbLinetypeTableRecord
  2
HIDDEN
 70
64
  3
- - - - - - - - - - - - - - - - - - - -
 72
65
 73
2
 40
0.2
 49
0.1
 74
0
 49
-0.1
 74
0
  0
LTYPE
  5
1F7
100
AcDbSymbolTableRecord
100
AcDbLinetypeTableRecord
  2
PHANTOM
 70
64
  3
_____ _ _ _____ _ _ _____ _ _ _____
 72
65
 73
6
 40
0.8
 49
0.45
 74
0
 49
-0.05
 74
0
 49
0.1
 74
0
 49
-0.05
 74
0
 49
0.1
 74
0
 49
-0.05
 74
0
  0
LTYPE
  5
1F8
100
AcDbSymbolTableRecord
100
AcDbLinetypeTableRecord
  2
DOT
 70
64
  3
. . . . . . . . . . . . . . . . . . . .
 72
65
 73
2
 40
0.2
 49
0.1
 74
0
 49
-0.1
 74
0
  0
LTYPE
  5
1F9
100
AcDbSymbolTableRecord
100
AcDbLinetypeTableRecord
  2
DASHED
 70
64
  3
- - - - - - - - - - - - - - - - - - - -
 72
65
 73
2
 40
0.2
 49
0.1
 74
0
 49
-0.1
 74
0
  0
ENDTAB
  0
TABLE
  2
LAYER
  5
2
100
AcDbSymbolTable
 70
36
  0
LAYER
  5
10
100
AcDbSymbolTableRecord
100
AcDbLayerTableRecord
  2
0
 70
0
 62
7
  6
CONTINUOUS
370
-3
390
F
  0
LAYER
  5
1FA
100
AcDbSymbolTableRecord
100
AcDbLayerTableRecord
  2
DEFAULT_1
 70
0
 62
7
  6
CENTER
370
-3
390
F
  0
LAYER
  5
1FB
100
AcDbSymbolTableRecord
100
AcDbLayerTableRecord
  2
DEFAULT_2
 70
0
 62
7
  6
HIDDEN
370
-3
390
F
  0
LAYER
  5
1FC
100
AcDbSymbolTableRecord
100
AcDbLayerTableRecord
  2
DEFAULT_3
 70
0
 62
7
  6
PHANTOM
370
-3
390
F
  0
LAYER
  5
1FD
100
AcDbSymbolTableRecord
100
AcDbLayerTableRecord
  2
218_INCISO
 70
0
 62
7
  6
CONTINUOUS
370
-3
390
F
  0
LAYER
  5
1FE
100
AcDbSymbolTableRecord
100
AcDbLayerTableRecord
  2
218_STAMPATO
 70
0
 62
7
  6
CONTINUOUS
370
-3
390
F
  0
LAYER
  5
1FF
100
AcDbSymbolTableRecord
100
AcDbLayerTableRecord
  2
260
 70
0
 62
7
  6
CONTINUOUS
370
-3
390
F
  0
LAYER
  5
200
100
AcDbSymbolTableRecord
100
AcDbLayerTableRecord
  2
268
 70
0
 62
7
  6
CONTINUOUS
370
-3
390
F
  0
LAYER
  5
201
100
AcDbSymbolTableRecord
100
AcDbLayerTableRecord
  2
284
 70
0
 62
7
  6
CONTINUOUS
370
-3
390
F
  0
LAYER
  5
202
100
AcDbSymbolTableRecord
100
AcDbLayerTableRecord
  2
320
 70
0
 62
7
  6
CONTINUOUS
370
-3
390
F
  0
LAYER
  5
203
100
AcDbSymbolTableRecord
100
AcDbLayerTableRecord
  2
340
 70
0
 62
7
  6
CONTINUOUS
370
-3
390
F
  0
LAYER
  5
204
100
AcDbSymbolTableRecord
100
AcDbLayerTableRecord
  2
712
 70
0
 62
7
  6
CONTINUOUS
370
-3
390
F
  0
LAYER
  5
205
100
AcDbSymbolTableRecord
100
AcDbLayerTableRecord
  2
715
 70
0
 62
7
  6
CONTINUOUS
370
-3
390
F
  0
LAYER
  5
206
100
AcDbSymbolTableRecord
100
AcDbLayerTableRecord
  2
ASSI
 70
0
 62
7
  6
CONTINUOUS
370
-3
390
F
  0
LAYER
  5
207
100
AcDbSymbolTableRecord
100
AcDbLayerTableRecord
  2
COLORE_TOP
 70
0
 62
7
  6
CONTINUOUS
370
-3
390
F
  0
LAYER
  5
208
100
AcDbSymbolTableRecord
100
AcDbLayerTableRecord
  2
COORDINATE
 70
0
 62
7
  6
CONTINUOUS
370
-3
390
F
  0
LAYER
  5
209
100
AcDbSymbolTableRecord
100
AcDbLayerTableRecord
  2
COORD_ORIGINE
 70
0
 62
7
  6
CONTINUOUS
370
-3
390
F
  0
LAYER
  5
20A
100
AcDbSymbolTableRecord
100
AcDbLayerTableRecord
  2
COPY-PUBBLISH
 70
0
 62
7
  6
CONTINUOUS
370
-3
390
F
  0
LAYER
  5
20B
100
AcDbSymbolTableRecord
100
AcDbLayerTableRecord
  2
COPY_PUBLISH
 70
0
 62
7
  6
CONTINUOUS
370
-3
390
F
  0
LAYER
  5
20C
100
AcDbSymbolTableRecord
100
AcDbLayerTableRecord
  2
COSMETIC
 70
0
 62
7
  6
CONTINUOUS
370
-3
390
F
  0
LAYER
  5
20D
100
AcDbSymbolTableRecord
100
AcDbLayerTableRecord
  2
COSMETICHE
 70
0
 62
7
  6
CONTINUOUS
370
-3
390
F
  0
LAYER
  5
20E
100
AcDbSymbolTableRecord
100
AcDbLayerTableRecord
  2
COSMETICI
 70
0
 62
7
  6
CONTINUOUS
370
-3
390
F
  0
LAYER
  5
20F
100
AcDbSymbolTableRecord
100
AcDbLayerTableRecord
  2
CURVA_CENTRALE
 70
0
 62
7
  6
CONTINUOUS
370
-3
390
F
  0
LAYER
  5
210
100
AcDbSymbolTableRecord
100
AcDbLayerTableRecord
  2
CURVE
 70
0
 62
7
  6
CONTINUOUS
370
-3
390
F
  0
LAYER
  5
211
100
AcDbSymbolTableRecord
100
AcDbLayerTableRecord
  2
DRAFT
 70
0
 62
7
  6
CONTINUOUS
370
-3
390
F
  0
LAYER
  5
212
100
AcDbSymbolTableRecord
100
AcDbLayerTableRecord
  2
IGES_SCRITTE
 70
0
 62
7
  6
CONTINUOUS
370
-3
390
F
  0
LAYER
  5
213
100
AcDbSymbolTableRecord
100
AcDbLayerTableRecord
  2
IMPORT
 70
0
 62
7
  6
CONTINUOUS
370
-3
390
F
  0
LAYER
  5
214
100
AcDbSymbolTableRecord
100
AcDbLayerTableRecord
  2
IMPORT_IGES
 70
0
 62
7
  6
CONTINUOUS
370
-3
390
F
  0
LAYER
  5
215
100
AcDbSymbolTableRecord
100
AcDbLayerTableRecord
  2
INCISIONI_LASER
 70
0
 62
7
  6
CONTINUOUS
370
-3
390
F
  0
LAYER
  5
216
100
AcDbSymbolTableRecord
100
AcDbLayerTableRecord
  2
INTF_1
 70
0
 62
7
  6
CONTINUOUS
370
-3
390
F
  0
LAYER
  5
217
100
AcDbSymbolTableRecord
100
AcDbLayerTableRecord
  2
INTF_11
 70
0
 62
7
  6
CONTINUOUS
370
-3
390
F
  0
LAYER
  5
218
100
AcDbSymbolTableRecord
100
AcDbLayerTableRecord
  2
INTF_2
 70
0
 62
7
  6
CONTINUOUS
370
-3
390
F
  0
LAYER
  5
219
100
AcDbSymbolTableRecord
100
AcDbLayerTableRecord
  2
NOTE
 70
0
 62
7
  6
CONTINUOUS
370
-3
390
F
  0
LAYER
  5
21A
100
AcDbSymbolTableRecord
100
AcDbLayerTableRecord
  2
PIANI
 70
0
 62
7
  6
CONTINUOUS
370
-3
390
F
  0
LAYER
  5
21B
100
AcDbSymbolTableRecord
100
AcDbLayerTableRecord
  2
PIANI_DI_RIFERIMENTO
 70
0
 62
7
  6
CONTINUOUS
370
-3
390
F
  0
LAYER
  5
21C
100
AcDbSymbolTableRecord
100
AcDbLayerTableRecord
  2
PIANI_ORIGINE
 70
0
 62
7
  6
CONTINUOUS
370
-3
390
F
  0
LAYER
  5
21D
100
AcDbSymbolTableRecord
100
AcDbLayerTableRecord
  2
PIANI_RIFERIMENTO
 70
0
 62
7
  6
CONTINUOUS
370
-3
390
F
  0
LAYER
  5
21E
100
AcDbSymbolTableRecord
100
AcDbLayerTableRecord
  2
PIANI_SFORMO
 70
0
 62
7
  6
CONTINUOUS
370
-3
390
F
  0
LAYER
  5
21F
100
AcDbSymbolTableRecord
100
AcDbLayerTableRecord
  2
PUNTI
 70
0
 62
7
  6
CONTINUOUS
370
-3
390
F
  0
LAYER
  5
220
100
AcDbSymbolTableRecord
100
AcDbLayerTableRecord
  2
RACCORDO
 70
0
 62
7
  6
CONTINUOUS
370
-3
390
F
  0
LAYER
  5
221
100
AcDbSymbolTableRecord
100
AcDbLayerTableRecord
  2
RGB__255__255__255__
 70
0
 62
7
  6
CONTINUOUS
370
-3
390
F
  0
LAYER
  5
222
100
AcDbSymbolTableRecord
100
AcDbLayerTableRecord
  2
SMUSSO
 70
0
 62
7
  6
CONTINUOUS
370
-3
390
F
  0
LAYER
  5
223
100
AcDbSymbolTableRecord
100
AcDbLayerTableRecord
  2
SUPERFICI
 70
0
 62
7
  6
CONTINUOUS
370
-3
390
F
  0
LAYER
  5
224
100
AcDbSymbolTableRecord
100
AcDbLayerTableRecord
  2
TRACCIABILITA
 70
0
 62
7
  6
CONTINUOUS
370
-3
390
F
  0
LAYER
  5
225
100
AcDbSymbolTableRecord
100
AcDbLayerTableRecord
  2
TRASH
 70
0
 62
7
  6
CONTINUOUS
370
-3
390
F
  0
LAYER
  5
226
100
AcDbSymbolTableRecord
100
AcDbLayerTableRecord
  2
XSEC_DATUMS
 70
0
 62
7
  6
CONTINUOUS
370
-3
390
F
  0
ENDTAB
  0
TABLE
  2
STYLE
  5
3
100
AcDbSymbolTable
 70
1
  0
STYLE
  5
11
100
AcDbSymbolTableRecord
100
AcDbTextStyleTableRecord
  2
STANDARD
 70
0
 40
0.0
 41
0.8
 50
0.0
 71
0
 42
0.2
  3
txt
  4

  0
STYLE
  5
227
100
AcDbSymbolTableRecord
100
AcDbTextStyleTableRecord
  2
TEXTSTYLE_1
 70
0
 40
0.0
 41
0.8
 50
0.0
 71
0
 42
0.2
  3
gdt
  4

  0
ENDTAB
  0
TABLE
  2
VIEW
  5
6
100
AcDbSymbolTable
 70
0
  0
ENDTAB
  0
TABLE
  2
UCS
  5
7
100
AcDbSymbolTable
 70
0
  0
ENDTAB
  0
TABLE
  2
APPID
  5
9
100
AcDbSymbolTable
 70
1
  0
APPID
  5
228
100
AcDbSymbolTableRecord
100
AcDbRegAppTableRecord
  2
ACAD
 70
0
  0
ENDTAB
  0
TABLE
  2
BLOCK_RECORD
  5
1
100
AcDbSymbolTable
 70
0
  0
BLOCK_RECORD
  5
229
100
AcDbSymbolTableRecord
100
AcDbBlockTableRecord
  2
*Model_Space
  0
BLOCK_RECORD
  5
22A
100
AcDbSymbolTableRecord
100
AcDbBlockTableRecord
  2
*Paper_Space
  0
BLOCK_RECORD
  5
22B
100
AcDbSymbolTableRecord
100
AcDbBlockTableRecord
  2
_FILLED
  0
ENDTAB
  0
TABLE
  2
DIMSTYLE
  5
A
100
AcDbSymbolTable
 70
1
100
AcDbDimStyleTable
 71
0
  0
DIMSTYLE
105
22C
100
AcDbSymbolTableRecord
100
AcDbDimStyleTableRecord
  2
STANDARD
 70
0
  3

  4

 40
1.0
 41
3.0
 42
0.5
 43
0.38
 44
1.5
 45
0.0
 46
0.0
 47
0.01
 48
0.01
140
3.0
141
0.09
142
0.0
143
25.4
144
1.0
145
0.0
146
1.0
147
0.625
 71
1
 72
0
 73
0
 74
0
 75
0
 76
0
 77
1
 78
8
 79
2
170
0
171
1
172
0
173
0
174
0
175
0
176
0
177
0
178
0
270
2
179
2
271
2
272
2
273
2
274
2
275
0
280
0
281
0
282
0
283
1
284
8
285
0
286
0
287
3
288
0
340
11
278
44
341
22B
342
22B
343
22B
344
22B
  0
ENDTAB
  0
ENDSEC
  0
SECTION
  2
BLOCKS
  0
BLOCK
  5
20
100
AcDbEntity
  8
0
100
AcDbBlockBegin
  2
*Model_Space
 70
0
 10
0.0
 20
0.0
 30
0.0
  3
*Model_Space
  1

  0
ENDBLK
  5
21
100
AcDbEntity
  8
0
100
AcDbBlockEnd
  0
BLOCK
  5
1C
100
AcDbEntity
  8
0
100
AcDbBlockBegin
  2
*Paper_Space
 70
0
 10
0.0
 20
0.0
 30
0.0
  3
*Paper_Space
  1

  0
ENDBLK
  5
1D
100
AcDbEntity
  8
0
100
AcDbBlockEnd
  0
BLOCK
  5
22D
100
AcDbEntity
  8
0
100
AcDbBlockBegin
  2
_FILLED
 70
64
 10
0.0
 20
0.0
  3
_FILLED
  1

  0
SOLID
  5
22E
100
AcDbEntity
  8
0
  6
BYBLOCK
 62
0
100
AcDbTrace
 10
0.0
 20
0.0
 11
-1.0
 21
0.3166666667
 12
-1.0
 22
-0.3166666667
 13
-1.0
 23
-0.3166666667
  0
ENDBLK
  5
22F
100
AcDbEntity
  8
0
  6
BYBLOCK
 62
0
100
AcDbBlockEnd
  0
ENDSEC
  0
SECTION
  2
ENTITIES
  0
LINE
  5
230
100
AcDbEntity
  8
268
100
AcDbLine
 62
7
  6
CONTINUOUS
 10
-12.4191947717
 20
24.369248505
 11
-10.8364381686
 21
25.1812326023
  0
LINE
  5
231
100
AcDbEntity
  8
268
100
AcDbLine
 62
7
  6
CONTINUOUS
 10
-12.9031450333
 20
22.6265505802
 11
-11.8909276
 21
23.1434780656
  0
LINE
  5
232
100
AcDbEntity
  8
268
100
AcDbLine
 62
250
  6
CONTINUOUS
 10
-12.7456264778
 20
22.6171147734
 11
-11.8909276
 21
23.0535993933
  0
LINE
  5
233
100
AcDbEntity
  8
268
100
AcDbLine
 62
7
  6
CONTINUOUS
 10
-10.8364381686
 20
25.1812326023
 11
-10.3019882899
 21
25.4415800689
  0
LINE
  5
234
100
AcDbEntity
  8
RACCORDO
100
AcDbLine
 62
250
  6
CONTINUOUS
 10
-19.5228640583
 20
-18.6786431851
 11
-19.5781691068
 21
-18.6453260007
  0
LWPOLYLINE
  5
235
100
AcDbEntity
  8
ASSI
100
AcDbPolyline
 62
250
  6
CONTINUOUS
 90
14
 70
0
 10
-19.5228640583
 20
-18.6786431851
 10
-19.5781691068
 20
-18.6453260007
 10
-19.629792177
 20
-18.6054893729
 10
-19.6774865787
 20
-18.5593312091
 10
-19.7210354344
 20
-18.5070636347
 10
-19.7602246035
 20
-18.4489332982
 10
-19.7948437954
 20
-18.3852395538
 10
-19.824713702
 20
-18.3163149223
 10
-19.8496820515
 20
-18.2425160512
 10
-19.869627283
 20
-18.1642058144
 10
-19.8844546755
 20
-18.0817646052
 10
-19.8940896306
 20
-17.9956003391
 10
-19.8984803695
 20
-17.906148339
 10
-19.8976034823
 20
-17.813856215
  0
LWPOLYLINE
  5
236
100
AcDbEntity
  8
RACCORDO
100
AcDbPolyline
 62
250
  6
CONTINUOUS
 90
13
 70
0
 10
-19.5781691068
 20
-18.6453260007
 10
-19.629792177
 20
-18.6054893729
 10
-19.6774865787
 20
-18.5593312091
 10
-19.7210354344
 20
-18.5070636347
 10
-19.7602246035
 20
-18.4489332982
 10
-19.7948437954
 20
-18.3852395538
 10
-19.824713702
 20
-18.3163149223
 10
-19.8496820515
 20
-18.2425160512
 10
-19.869627283
 20
-18.1642058144
 10
-19.8844546755
 20
-18.0817646052
 10
-19.8940896306
 20
-17.9956003391
 10
-19.8984803695
 20
-17.906148339
 10
-19.8976034823
 20
-17.813856215
  0
LWPOLYLINE
  5
237
100
AcDbEntity
  8
ASSI
100
AcDbPolyline
 62
250
  6
CONTINUOUS
 90
4
 70
0
 10
-16.1123428374
 20
19.6877749667
 10
-16.0447879753
 20
19.7608003724
 10
-15.9751909342
 20
19.8288689917
 10
-15.9039128282
 20
19.8916348273
  0
LWPOLYLINE
  5
238
100
AcDbEntity
  8
RACCORDO
100
AcDbPolyline
 62
250
  6
CONTINUOUS
 90
6
 70
0
 10
-15.9039128282
 20
19.8916348273
 10
-15.8313045673
 20
19.9487953011
 10
-15.7577143056
 20
20.0000692528
 10
-15.6835070474
 20
20.0452008788
 10
-15.609063313
 20
20.0839635945
 10
-15.5347588724
 20
20.1161636661
  0
LWPOLYLINE
  5
239
100
AcDbEntity
  8
ASSI
100
AcDbPolyline
 62
250
  6
CONTINUOUS
 90
4
 70
0
 10
-15.9039128282
 20
19.8916348273
 10
-15.8313045673
 20
19.9487953011
 10
-15.7577143056
 20
20.0000692528
 10
-15.6835070474
 20
20.0452008788
  0
LINE
  5
23A
100
AcDbEntity
  8
ASSI
100
AcDbLine
 62
250
  6
CONTINUOUS
 10
-15.6835070474
 20
20.0452008788
 11
-15.609063313
 21
20.0839635945
  0
LINE
  5
23B
100
AcDbEntity
  8
268
100
AcDbLine
 62
7
  6
CONTINUOUS
 10
-9.2100925718
 20
22.6360089964
 11
-10.276923484
 21
22.0974277469
  0
LINE
  5
23C
100
AcDbEntity
  8
268
100
AcDbLine
 62
7
  6
CONTINUOUS
 10
-10.8113733627
 20
23.5653378005
 11
-9.2100925718
 21
24.368059804
  0
LINE
  5
23D
100
AcDbEntity
  8
268
100
AcDbLine
 62
7
  6
CONTINUOUS
 10
-9.2100925718
 20
24.368059804
 11
-8.6818254001
 21
24.631498624
  0
LWPOLYLINE
  5
23E
100
AcDbEntity
  8
ASSI
100
AcDbPolyline
 62
7
  6
CONTINUOUS
 90
10
 70
0
 10
-15.8862295596
 20
20.1421339356
 10
-16.0146238921
 20
20.0826274624
 10
-16.1783273279
 20
19.9810391182
 10
-16.3367923034
 20
19.8508253448
 10
-16.4780308712
 20
19.7018579159
 10
-16.6009317893
 20
19.5383587887
 10
-16.7071377435
 20
19.3596567612
 10
-16.7930089283
 20
19.172678934
 10
-16.8577174738
 20
18.9809141713
 10
-16.9013102747
 20
18.7831324177
  0
LINE
  5
23F
100
AcDbEntity
  8
ASSI
100
AcDbLine
 62
250
  6
CONTINUOUS
 10
-15.609063313
 20
20.0839635945
 11
-15.5347588724
 21
20.1161636661
  0
LWPOLYLINE
  5
240
100
AcDbEntity
  8
RACCORDO
100
AcDbPolyline
 62
7
  6
CONTINUOUS
 90
17
 70
0
 10
-15.8848457623
 20
20.1426885275
 10
-15.902038114
 20
20.1357000135
 10
-15.9947093028
 20
20.0929605782
 10
-16.0848594055
 20
20.0427796739
 10
-16.1724867444
 20
19.985208006
 10
-16.2571813036
 20
19.920565273
 10
-16.3381596901
 20
19.8495494245
 10
-16.4154491757
 20
19.7722508251
 10
-16.4888632276
 20
19.6888811537
 10
-16.5574551642
 20
19.600557412
 10
-16.6211945901
 20
19.507462853
 10
-16.6799251477
 20
19.4097788717
 10
-16.7327792422
 20
19.3089840272
 10
-16.7796954949
 20
19.2053468054
 10
-16.820532205
 20
19.0990409624
 10
-16.8547037738
 20
18.9915893812
 10
-16.8820559184
 20
18.8836115162
  0
LINE
  5
241
100
AcDbEntity
  8
RACCORDO
100
AcDbLine
 62
7
  6
CONTINUOUS
 10
-15.8848502114
 20
20.1426997044
 11
-11.9718790843
 21
21.6993263519
  0
LINE
  5
242
100
AcDbEntity
  8
ASSI
100
AcDbLine
 62
7
  6
CONTINUOUS
 10
-15.8862340164
 20
20.1421450726
 11
-11.9718790843
 21
21.6993263519
  0
LINE
  5
243
100
AcDbEntity
  8
RACCORDO
100
AcDbLine
 62
250
  6
CONTINUOUS
 10
-15.5347588724
 20
20.1161636661
 11
-11.6257863108
 21
21.6711995902
  0
LINE
  5
244
100
AcDbEntity
  8
ASSI
100
AcDbLine
 62
250
  6
CONTINUOUS
 10
-15.5347588724
 20
20.1161636661
 11
-11.6257863108
 21
21.6711995902
  0
LWPOLYLINE
  5
245
100
AcDbEntity
  8
268
100
AcDbPolyline
 62
7
  6
CONTINUOUS
 90
3
 70
0
 10
-1.2275189365
 20
25.8564198922
 10
-1.2400839562
 20
25.8517208413
 10
-1.245734741
 20
25.8490782413
  0
LWPOLYLINE
  5
246
100
AcDbEntity
  8
RACCORDO
100
AcDbPolyline
 62
250
  6
CONTINUOUS
 90
7
 70
0
 10
-15.8846872901
 20
20.1427645628
 10
-15.8296818902
 20
20.1596733444
 10
-15.7734482222
 20
20.1676992661
 10
-15.7151942365
 20
20.1673110607
 10
-15.6555579289
 20
20.1585129799
 10
-15.5951924339
 20
20.1414013798
 10
-15.5347588724
 20
20.1161636661
  0
LWPOLYLINE
  5
247
100
AcDbEntity
  8
ASSI
100
AcDbPolyline
 62
250
  6
CONTINUOUS
 90
7
 70
0
 10
-15.8846872901
 20
20.1427645628
 10
-15.8296818902
 20
20.1596733444
 10
-15.7734482222
 20
20.1676992661
 10
-15.7151942365
 20
20.1673110607
 10
-15.6555579289
 20
20.1585129799
 10
-15.5951924339
 20
20.1414013798
 10
-15.5347588724
 20
20.1161636661
  0
LWPOLYLINE
  5
248
100
AcDbEntity
  8
268
100
AcDbPolyline
 62
7
  6
CONTINUOUS
 90
10
 70
0
 10
-1.2275189365
 20
25.8564198922
 10
-1.2182793156
 20
25.8591656911
 10
-1.2097161618
 20
25.8614314096
 10
-1.2018294749
 20
25.8632170477
 10
-1.1945801166
 20
25.8645434523
 10
-1.1880072253
 20
25.8653897764
 10
-1.1822282159
 20
25.8656934792
 10
-1.1772472587
 20
25.8654541434
 10
-1.1730601835
 20
25.8646721862
 10
-1.1704582113
 20
25.8636694744
  0
LWPOLYLINE
  5
249
100
AcDbEntity
  8
RACCORDO
100
AcDbPolyline
 62
7
  6
CONTINUOUS
 90
12
 70
0
 10
-5.378546053
 20
-25.7509152527
 10
-5.3464488569
 20
-25.7663373624
 10
-5.2647356604
 20
-25.7999493178
 10
-5.1800225504
 20
-25.8268977501
 10
-5.0927514091
 20
-25.8469260575
 10
-5.0031315471
 20
-25.8598534742
 10
-4.9117002403
 20
-25.8654577117
 10
-4.8190551459
 20
-25.8635716861
 10
-4.7253965133
 20
-25.8540399086
 10
-4.6311193918
 20
-25.8367231408
 10
-4.5369036803
 20
-25.8115952358
 10
-4.5206600781
 20
-25.8064580497
  0
LWPOLYLINE
  5
24A
100
AcDbEntity
  8
ASSI
100
AcDbPolyline
 62
7
  6
CONTINUOUS
 90
8
 70
0
 10
-5.381989667
 20
-25.7491728087
 10
-5.3474338735
 20
-25.765876501
 10
-5.1978163655
 20
-25.8218696181
 10
-5.0397746487
 20
-25.8554748326
 10
-4.8764961312
 20
-25.8656288696
 10
-4.7103758132
 20
-25.8518002664
 10
-4.5438693725
 20
-25.8137221671
 10
-4.5219414389
 20
-25.8068688089
  0
LINE
  5
24B
100
AcDbEntity
  8
RACCORDO
100
AcDbLine
 62
7
  6
CONTINUOUS
 10
-5.3776772802
 20
-25.7513648183
 11
-19.5128446887
 21
-18.6837811141
  0
LINE
  5
24C
100
AcDbEntity
  8
RACCORDO
100
AcDbLine
 62
250
  6
CONTINUOUS
 10
-5.7703324409
 20
-24.8774917357
 11
-19.8976034823
 21
-17.813856215
  0
LINE
  5
24D
100
AcDbEntity
  8
ASSI
100
AcDbLine
 62
250
  6
CONTINUOUS
 10
-5.7703324409
 20
-24.8774917357
 11
-19.8976034823
 21
-17.813856215
  0
LINE
  5
24E
100
AcDbEntity
  8
ASSI
100
AcDbLine
 62
7
  6
CONTINUOUS
 10
-5.3776772802
 20
-25.7513648183
 11
-19.5134911774
 21
-18.6834573413
  0
LINE
  5
24F
100
AcDbEntity
  8
RACCORDO
100
AcDbLine
 62
250
  6
CONTINUOUS
 10
-19.5128449591
 20
-18.6837809789
 11
-19.5228640583
 21
-18.6786431851
  0
LINE
  5
250
100
AcDbEntity
  8
ASSI
100
AcDbLine
 62
250
  6
CONTINUOUS
 10
-19.5134911774
 20
-18.6834573413
 11
-19.5228640583
 21
-18.6786431851
  0
LINE
  5
251
100
AcDbEntity
  8
268
100
AcDbLine
 62
7
  6
CONTINUOUS
 10
-8.5949737368
 20
24.0105010373
 11
-9.1222184525
 21
23.3687933093
  0
LWPOLYLINE
  5
252
100
AcDbEntity
  8
268
100
AcDbPolyline
 62
7
  6
CONTINUOUS
 90
12
 70
0
 10
-1.245734741
 20
25.8490782413
 10
-1.2522534663
 20
25.8456061759
 10
-1.2641078928
 20
25.8381019027
 10
-1.2757630729
 20
25.8292293914
 10
-1.2872586677
 20
25.8190442809
 10
-1.2985499654
 20
25.8076132085
 10
-1.3096950318
 20
25.7949661823
 10
-1.3207619112
 20
25.7811366462
 10
-1.3317080303
 20
25.7661671474
 10
-1.3425553315
 20
25.7500842202
 10
-1.3533937602
 20
25.7329159659
 10
-1.3642781282
 20
25.7146973344
  0
LINE
  5
253
100
AcDbEntity
  8
268
100
AcDbLine
 62
7
  6
CONTINUOUS
 10
-6.9456981404
 20
22.2165028065
 11
-6.4523761252
 21
22.4695863384
  0
LINE
  5
254
100
AcDbEntity
  8
268
100
AcDbLine
 62
7
  6
CONTINUOUS
 10
-7.7543115953
 20
22.6076676001
 11
-1.2456651462
 21
25.8491129103
  0
LINE
  5
255
100
AcDbEntity
  8
268
100
AcDbLine
 62
250
  6
CONTINUOUS
 10
-7.6788184548
 20
22.5699210299
 11
-1.3642781282
 21
25.7146973344
  0
LINE
  5
256
100
AcDbEntity
  8
268
100
AcDbLine
 62
7
  6
CONTINUOUS
 10
-0.371257807
 20
24.8349538036
 11
-5.1088732409
 21
22.499903289
  0
LINE
  5
257
100
AcDbEntity
  8
268
100
AcDbLine
 62
7
  6
CONTINUOUS
 10
-6.4523761252
 20
22.4695863384
 11
-0.9747361357
 21
25.1379183016
  0
LINE
  5
258
100
AcDbEntity
  8
268
100
AcDbLine
 62
7
  6
CONTINUOUS
 10
4.2420997119
 20
-23.4879699123
 11
4.7693444276
 21
-23.5962621842
  0
LINE
  5
259
100
AcDbEntity
  8
268
100
AcDbLine
 62
7
  6
CONTINUOUS
 10
0.834992903
 20
-24.5591750041
 11
2.4415253724
 21
-25.3624412388
  0
LWPOLYLINE
  5
25A
100
AcDbEntity
  8
ASSI
100
AcDbPolyline
 62
250
  6
CONTINUOUS
 90
9
 70
0
 10
-20.1319619889
 20
-17.5334071658
 10
-20.1305863685
 20
-17.5627702216
 10
-20.1212726732
 20
-17.601896168
 10
-20.1035076349
 20
-17.6406088542
 10
-20.0774816035
 20
-17.6784934796
 10
-20.0434734439
 20
-17.7151441161
 10
-20.0018475485
 20
-17.750168058
 10
-19.9530499324
 20
-17.7831900287
 10
-19.8976034548
 20
-17.8138562029
  0
LWPOLYLINE
  5
25B
100
AcDbEntity
  8
RACCORDO
100
AcDbPolyline
 62
250
  6
CONTINUOUS
 90
9
 70
0
 10
-20.131951235
 20
-17.5331098725
 10
-20.1305863685
 20
-17.5627702216
 10
-20.1212726732
 20
-17.601896168
 10
-20.1035076349
 20
-17.6406088542
 10
-20.0774816035
 20
-17.6784934796
 10
-20.0434734439
 20
-17.7151441161
 10
-20.0018475485
 20
-17.750168058
 10
-19.9530499324
 20
-17.7831900287
 10
-19.8976034548
 20
-17.8138562029
  0
LWPOLYLINE
  5
25C
100
AcDbEntity
  8
ASSI
100
AcDbPolyline
 62
7
  6
CONTINUOUS
 90
9
 70
0
 10
-20.1319524447
 20
-17.5334075167
 10
-20.1320292916
 20
-17.6495797787
 10
-20.1118122567
 20
-17.8436490787
 10
-20.0657833302
 20
-18.0283253905
 10
-19.9939397252
 20
-18.2010985149
 10
-19.8980283317
 20
-18.3570740675
 10
-19.7816715021
 20
-18.4916262679
 10
-19.6473446046
 20
-18.6035169024
 10
-19.5135565963
 20
-18.6834102192
  0
LWPOLYLINE
  5
25D
100
AcDbEntity
  8
RACCORDO
100
AcDbPolyline
 62
7
  6
CONTINUOUS
 90
15
 70
0
 10
-20.1319417019
 20
-17.5331102266
 10
-20.1330504408
 20
-17.5841588653
 10
-20.12904495
 20
-17.7037312664
 10
-20.1158341962
 20
-17.8193266774
 10
-20.093622041
 20
-17.9308299644
 10
-20.0626473652
 20
-18.037732297
 10
-20.0234449236
 20
-18.1389052849
 10
-19.9767753599
 20
-18.2334749274
 10
-19.9230589014
 20
-18.3214703209
 10
-19.8626161936
 20
-18.4028633128
 10
-19.7963019685
 20
-18.4769870193
 10
-19.7246969944
 20
-18.543683969
 10
-19.6475879329
 20
-18.6033468207
 10
-19.5652875761
 20
-18.6556710447
 10
-19.5118144285
 20
-18.6842800496
  0
LINE
  5
25E
100
AcDbEntity
  8
ASSI
100
AcDbLine
 62
7
  6
CONTINUOUS
 10
-20.1319444653
 20
-17.5329294235
 11
-20.1319619889
 21
-17.5334071658
  0
LINE
  5
25F
100
AcDbEntity
  8
RACCORDO
100
AcDbLine
 62
7
  6
CONTINUOUS
 10
-20.1319444559
 20
-17.5329291753
 11
-20.131951235
 21
-17.5331098725
  0
LINE
  5
260
100
AcDbEntity
  8
ASSI
100
AcDbLine
 62
7
  6
CONTINUOUS
 10
-16.9013102747
 20
18.7831324177
 11
-16.9074465169
 21
18.7421728383
  0
LWPOLYLINE
  5
261
100
AcDbEntity
  8
RACCORDO
100
AcDbPolyline
 62
250
  6
CONTINUOUS
 90
17
 70
0
 10
-16.6713452082
 20
18.4797677544
 10
-16.6553176026
 20
18.5776359836
 10
-16.6341886279
 20
18.6764710479
 10
-16.6080657685
 20
18.7757781735
 10
-16.5770847152
 20
18.875055367
 10
-16.5414001005
 20
18.9738114395
 10
-16.501182013
 20
19.0715680411
 10
-16.4566253685
 20
19.1678509272
 10
-16.4079587134
 20
19.2621630049
 10
-16.355436424
 20
19.3540040693
 10
-16.2993383029
 20
19.4428981964
 10
-16.2399376872
 20
19.528423231
 10
-16.1775058776
 20
19.610180248
 10
-16.1123428374
 20
19.6877749667
 10
-16.0447879753
 20
19.7608003724
 10
-15.9751909342
 20
19.8288689917
 10
-15.9039128282
 20
19.8916348273
  0
LWPOLYLINE
  5
262
100
AcDbEntity
  8
ASSI
100
AcDbPolyline
 62
250
  6
CONTINUOUS
 90
14
 70
0
 10
-16.6713452082
 20
18.4797677544
 10
-16.6553176026
 20
18.5776359836
 10
-16.6341886279
 20
18.6764710479
 10
-16.6080657685
 20
18.7757781735
 10
-16.5770847152
 20
18.875055367
 10
-16.5414001005
 20
18.9738114395
 10
-16.501182013
 20
19.0715680411
 10
-16.4566253685
 20
19.1678509272
 10
-16.4079587134
 20
19.2621630049
 10
-16.355436424
 20
19.3540040693
 10
-16.2993383029
 20
19.4428981964
 10
-16.2399376872
 20
19.528423231
 10
-16.1775058776
 20
19.610180248
 10
-16.1123428374
 20
19.6877749667
  0
LWPOLYLINE
  5
263
100
AcDbEntity
  8
RACCORDO
100
AcDbPolyline
 62
7
  6
CONTINUOUS
 90
3
 70
0
 10
-16.8820559184
 20
18.8836115162
 10
-16.90262807
 20
18.7748807155
 10
-16.9073810816
 20
18.74265785
  0
LINE
  5
264
100
AcDbEntity
  8
268
100
AcDbLine
 62
7
  6
CONTINUOUS
 10
0.9558160214
 20
23.3650795701
 11
-0.4419684851
 21
22.6661873168
  0
LINE
  5
265
100
AcDbEntity
  8
218_STAMPATO
100
AcDbLine
 62
7
  6
CONTINUOUS
 10
-1.5168806995
 20
21.9741441213
 11
-1.4553241814
 21
22.0049223804
  0
LINE
  5
266
100
AcDbEntity
  8
218_STAMPATO
100
AcDbLine
 62
250
  6
CONTINUOUS
 10
-1.4319179788
 20
21.9662237647
 11
-1.3658814623
 21
21.9992420229
  0
LWPOLYLINE
  5
267
100
AcDbEntity
  8
218_STAMPATO
100
AcDbPolyline
 62
250
  6
CONTINUOUS
 90
118
 70
0
 10
-1.3658814623
 20
21.9992420229
 10
-1.3586673169
 20
22.0028049887
 10
-1.3513685171
 20
22.0063222573
 10
-1.3439850629
 20
22.0097938288
 10
-1.3365157267
 20
22.0132202493
 10
-1.3289617361
 20
22.0166009726
 10
-1.3213267744
 20
22.0199343602
 10
-1.3136108189
 20
22.0232203783
 10
-1.3058138923
 20
22.0264590605
 10
-1.297939745
 20
22.0296488695
 10
-1.2899883394
 20
22.0327897792
 10
-1.2819597131
 20
22.0358818157
 10
-1.2738577291
 20
22.0389235189
 10
-1.2656823519
 20
22.0419148625
 10
-1.257433617
 20
22.0448558728
 10
-1.2491154937
 20
22.0477451691
 10
-1.2407279472
 20
22.0505827248
 10
-1.2322710123
 20
22.0533685664
 10
-1.2237487619
 20
22.0561013929
 10
-1.2151611659
 20
22.0587811763
 10
-1.2065082545
 20
22.0614079447
 10
-1.1977941908
 20
22.0639804806
 10
-1.1890189463
 20
22.0664987558
 10
-1.1801825496
 20
22.0689627985
 10
-1.1712892489
 20
22.0713714759
 10
-1.1623390194
 20
22.0737247589
 10
-1.1533318859
 20
22.0760226766
 10
-1.1442721715
 20
22.0782641827
 10
-1.1351598526
 20
22.0804492481
 10
-1.1259949527
 20
22.0825779018
 10
-1.1167818658
 20
22.0846491843
 10
-1.1075205724
 20
22.0866630661
 10
-1.0982110918
 20
22.0886195768
 10
-1.0888578759
 20
22.0905178458
 10
-1.0794609067
 20
22.0923578436
 10
-1.0700202021
 20
22.0941395998
 10
-1.0605402679
 20
22.0958623327
 10
-1.0510210902
 20
22.0975260124
 10
-1.041462683
 20
22.0991306688
 10
-1.0318695938
 20
22.1006756106
 10
-1.0222418099
 20
22.1021608077
 10
-1.0125793441
 20
22.1035862902
 10
-1.002886782
 20
22.1049514564
 10
-0.9931641149
 20
22.1062562762
 10
-0.9834113514
 20
22.1075007797
 10
-0.9736331033
 20
22.1086844559
 10
-0.9638293633
 20
22.1098072747
 10
-0.9540001387
 20
22.1108692662
 10
-0.9441500632
 20
22.1118700093
 10
-0.934279133
 20
22.1128094739
 10
-0.9243873518
 20
22.11368769
 10
-0.9144793645
 20
22.1145043267
 10
-0.9045551689
 20
22.115259354
 10
-0.894614767
 20
22.1159528018
 10
-0.8846628102
 20
22.1165844284
 10
-0.8746992996
 20
22.117154204
 10
-0.8647242339
 20
22.1176621584
 10
-0.8547422616
 20
22.1181081385
 10
-0.8447533853
 20
22.1184921151
 10
-0.8347576024
 20
22.1188141174
 10
-0.8247595526
 20
22.1190740805
 10
-0.8147592416
 20
22.1192719753
 10
-0.8047566638
 20
22.1194078308
 10
-0.7947564431
 20
22.119481669
 10
-0.7847585868
 20
22.1194934612
 10
-0.7747630877
 20
22.1194432361
 10
-0.7647745474
 20
22.1193311016
 10
-0.7547929753
 20
22.1191570294
 10
-0.7448183621
 20
22.1189210477
 10
-0.7348552814
 20
22.1186233491
 10
-0.7249037447
 20
22.1182639059
 10
-0.7149637404
 20
22.1178427458
 10
-0.7050398072
 20
22.1173601448
 10
-0.6951319582
 20
22.1168160754
 10
-0.6852401803
 20
22.1162105652
 10
-0.6753689731
 20
22.115543972
 10
-0.6655183519
 20
22.114816269
 10
-0.6556883014
 20
22.1140274831
 10
-0.6458832746
 20
22.1131780528
 10
-0.6361032879
 20
22.1122679516
 10
-0.6263483249
 20
22.1112972059
 10
-0.6166227896
 20
22.1102663334
 10
-0.6069267012
 20
22.1091753083
 10
-0.5972600404
 20
22.1080241564
 10
-0.5876271542
 20
22.1068134724
 10
-0.5780280619
 20
22.1055432312
 10
-0.5684627441
 20
22.104213458
 10
-0.5589354893
 20
22.1028248237
 10
-0.5494463194
 20
22.1013773036
 10
-0.5399952123
 20
22.0998709225
 10
-0.5305863912
 20
22.0983064253
 10
-0.5212198779
 20
22.0966837877
 10
-0.5118956504
 20
22.0950030339
 10
-0.5026178658
 20
22.093264982
 10
-0.4933865494
 20
22.0914696087
 10
-0.4842016758
 20
22.0896169373
 10
-0.4750673259
 20
22.0877078561
 10
-0.465983525
 20
22.085742342
 10
-0.4569502479
 20
22.0837204182
 10
-0.4479714993
 20
22.081643042
 10
-0.4390473051
 20
22.0795101908
 10
-0.4301776395
 20
22.0773218873
 10
-0.4213664293
 20
22.0750791569
 10
-0.4126136994
 20
22.0727819768
 10
-0.403919425
 20
22.0704303699
 10
-0.3952874574
 20
22.06802543
 10
-0.3867178283
 20
22.0655671364
 10
-0.3782105061
 20
22.0630555098
 10
-0.3697692479
 20
22.0604917069
 10
-0.3613940883
 20
22.0578757082
 10
-0.3530849926
 20
22.0552075333
 10
-0.3448456149
 20
22.0524883964
 10
-0.3366759843
 20
22.049718277
 10
-0.3285760716
 20
22.0468971958
 10
-0.3205494431
 20
22.044026429
 10
-0.3125972874
 20
22.0411064024
 10
-0.3047184159
 20
22.0381366902
 10
-0.2969128285
 20
22.0351172926
  0
LINE
  5
268
100
AcDbEntity
  8
268
100
AcDbLine
 62
7
  6
CONTINUOUS
 10
-0.7955218757
 20
23.3955222014
 11
-0.371257807
 21
23.6031196222
  0
LINE
  5
269
100
AcDbEntity
  8
268
100
AcDbLine
 62
7
  6
CONTINUOUS
 10
1.6148117728
 20
24.2251523839
 11
-0.4419684851
 21
23.2187455061
  0
LWPOLYLINE
  5
26A
100
AcDbEntity
  8
218_STAMPATO
100
AcDbPolyline
 62
7
  6
CONTINUOUS
 90
45
 70
0
 10
-1.5164454708
 20
21.9743594947
 10
-1.5149309475
 20
21.9750747527
 10
-1.5133917144
 20
21.9757492174
 10
-1.5118281705
 20
21.97638269
 10
-1.5102407259
 20
21.976974979
 10
-1.5086296624
 20
21.9775259701
 10
-1.5069953946
 20
21.9780354949
 10
-1.5053383474
 20
21.9785033928
 10
-1.5036588259
 20
21.9789295763
 10
-1.501957259
 20
21.9793139084
 10
-1.5002340858
 20
21.9796562594
 10
-1.4984896337
 20
21.9799565693
 10
-1.4967243452
 20
21.9802147323
 10
-1.4949386727
 20
21.9804306503
 10
-1.4931329649
 20
21.980604291
 10
-1.4913076768
 20
21.9807355802
 10
-1.4894632732
 20
21.9808244517
 10
-1.4876001234
 20
21.9808709006
 10
-1.485718694
 20
21.9808748849
 10
-1.4838194612
 20
21.9808363703
 10
-1.4819028137
 20
21.9807553796
 10
-1.4799692289
 20
21.9806319028
 10
-1.4780191932
 20
21.9804659379
 10
-1.4760531139
 20
21.9802575349
 10
-1.4740714778
 20
21.9800067162
 10
-1.4720747807
 20
21.9797135118
 10
-1.4700634472
 20
21.9793779992
 10
-1.4680379728
 20
21.9790002329
 10
-1.4659988613
 20
21.9785802747
 10
-1.4639465537
 20
21.9781182293
 10
-1.4618815529
 20
21.9776141832
 10
-1.4598043698
 20
21.9770682302
 10
-1.4577154604
 20
21.9764805013
 10
-1.4556153342
 20
21.9758511151
 10
-1.4535045079
 20
21.975180197
 10
-1.4513834514
 20
21.974467904
 10
-1.4492526796
 20
21.9737143863
 10
-1.4471127139
 20
21.9729198007
 10
-1.4449640369
 20
21.9720843296
 10
-1.4428071677
 20
21.9712081544
 10
-1.4406426317
 20
21.9702914629
 10
-1.4384709226
 20
21.9693344622
 10
-1.4362925552
 20
21.9683373647
 10
-1.4341080651
 20
21.9673003885
 10
-1.4319179788
 20
21.9662237647
  0
LWPOLYLINE
  5
26B
100
AcDbEntity
  8
218_STAMPATO
100
AcDbPolyline
 62
250
  6
CONTINUOUS
 90
37
 70
0
 10
-1.4540562357
 20
22.0055415139
 10
-1.4519733292
 20
22.006495705
 10
-1.4498603183
 20
22.0073867936
 10
-1.4477179418
 20
22.0082144681
 10
-1.4455469489
 20
22.0089784391
 10
-1.4433480987
 20
22.0096784395
 10
-1.4411221601
 20
22.0103142244
 10
-1.4388699115
 20
22.0108855716
 10
-1.4365921404
 20
22.0113922812
 10
-1.4342896433
 20
22.0118341762
 10
-1.4319632254
 20
22.0122111019
 10
-1.4296137002
 20
22.0125229265
 10
-1.4272418891
 20
22.0127695411
 10
-1.4248486217
 20
22.0129508594
 10
-1.4224347347
 20
22.0130668179
 10
-1.4200010723
 20
22.0131173762
 10
-1.4175484854
 20
22.0131025165
 10
-1.4150778318
 20
22.0130222441
 10
-1.4125899752
 20
22.012876587
 10
-1.4100857856
 20
22.0126655962
 10
-1.4075661388
 20
22.0123893454
 10
-1.4050319158
 20
22.0120479312
 10
-1.4024840027
 20
22.0116414731
 10
-1.3999232905
 20
22.0111701131
 10
-1.3973506746
 20
22.010634016
 10
-1.3947670546
 20
22.0100333694
 10
-1.3921733339
 20
22.0093683833
 10
-1.3895704196
 20
22.0086392902
 10
-1.3869592217
 20
22.007846345
 10
-1.3843406534
 20
22.006989825
 10
-1.3817156304
 20
22.0060700297
 10
-1.3790850705
 20
22.0050872808
 10
-1.3764498935
 20
22.004041922
 10
-1.373811021
 20
22.0029343186
 10
-1.3711693757
 20
22.0017648581
 10
-1.3685258814
 20
22.0005339494
 10
-1.3658814623
 20
21.9992420229
  0
LINE
  5
26C
100
AcDbEntity
  8
ASSI
100
AcDbLine
 62
250
  6
CONTINUOUS
 10
-12.5274638184
 20
-16.1986213166
 11
-12.6022225774
 21
-16.1652343911
  0
LWPOLYLINE
  5
26D
100
AcDbEntity
  8
RACCORDO
100
AcDbPolyline
 62
250
  6
CONTINUOUS
 90
55
 70
0
 10
-12.7108437991
 20
-15.8541574332
 10
-12.6737031444
 20
-15.8712994275
 10
-12.6364413713
 20
-15.8856490104
 10
-12.59918387
 20
-15.8971572346
 10
-12.5620743891
 20
-15.9057810559
 10
-12.5252193324
 20
-15.9114972918
 10
-12.4886888776
 20
-15.9142882839
 10
-12.4525706206
 20
-15.9141293052
 10
-12.4170284477
 20
-15.9110024331
 10
-12.3822440537
 20
-15.9049169578
 10
-12.3483403521
 20
-15.895896077
 10
-12.3154271216
 20
-15.8839709263
 10
-12.2836544675
 20
-15.8692031928
 10
-12.253154592
 20
-15.8516729968
 10
-12.2239937316
 20
-15.8314377151
 10
-12.1962186666
 20
-15.8085354153
 10
-12.1699070257
 20
-15.783022447
 10
-12.145168409
 20
-15.7549970051
 10
-12.1220954884
 20
-15.7245620276
 10
-12.1007666154
 20
-15.6918211997
 10
-12.0812531032
 20
-15.6568843426
 10
-12.0636251371
 20
-15.6198794352
 10
-12.0479498726
 20
-15.5809580803
 10
-12.034266776
 20
-15.5402302176
 10
-12.022602951
 20
-15.4977640054
 10
-12.0129977695
 20
-15.4536525149
 10
-12.0055047042
 20
-15.4080800075
 10
-12.0001634001
 20
-15.3612576242
 10
-11.996993119
 20
-15.3133627976
 10
-11.9960024989
 20
-15.2645405068
 10
-11.9971948584
 20
-15.2149643754
 10
-12.000564912
 20
-15.1648088878
 10
-12.0061005145
 20
-15.1142387912
 10
-12.0137838361
 20
-15.0634161456
 10
-12.0235907548
 20
-15.0125066956
 10
-12.0354875925
 20
-14.9616901167
 10
-12.0494313232
 20
-14.9111495703
 10
-12.0653713989
 20
-14.8610636935
 10
-12.0832548077
 20
-14.8115950598
 10
-12.1030246956
 20
-14.7629006456
 10
-12.1246180973
 20
-14.7151383791
 10
-12.1479591445
 20
-14.6684786532
 10
-12.1729622569
 20
-14.623092005
 10
-12.1995363021
 20
-14.5791403897
 10
-12.2275951281
 20
-14.536763093
 10
-12.2570528139
 20
-14.496089909
 10
-12.2878308057
 20
-14.4572347468
 10
-12.3198060597
 20
-14.4203580043
 10
-12.3528150002
 20
-14.3856414878
 10
-12.3867054492
 20
-14.3532256061
 10
-12.4213927919
 20
-14.3231725076
 10
-12.4568092517
 20
-14.2955341604
 10
-12.4928534014
 20
-14.2703916865
 10
-12.5293867415
 20
-14.2478434856
 10
-12.5662862813
 20
-14.2279651864
  0
LINE
  5
26E
100
AcDbEntity
  8
268
100
AcDbLine
 62
250
  6
CONTINUOUS
 10
0.7703976102
 20
-24.4241455558
 11
2.3761740724
 21
-25.2270337869
  0
LINE
  5
26F
100
AcDbEntity
  8
268
100
AcDbLine
 62
250
  6
CONTINUOUS
 10
2.3761740724
 20
-24.9736623931
 11
0.7703976102
 21
-24.170774162
  0
LINE
  5
270
100
AcDbEntity
  8
268
100
AcDbLine
 62
250
  6
CONTINUOUS
 10
2.4650766484
 20
-24.7422253335
 11
0.8582717295
 21
-23.938822874
  0
LINE
  5
271
100
AcDbEntity
  8
268
100
AcDbLine
 62
7
  6
CONTINUOUS
 10
-0.0424967387
 20
-22.4945997397
 11
2.5278799959
 21
-23.779788107
  0
LINE
  5
272
100
AcDbEntity
  8
268
100
AcDbLine
 62
7
  6
CONTINUOUS
 10
3.0873946805
 20
-23.997165916
 11
2.6781294351
 21
-23.7925332933
  0
LINE
  5
273
100
AcDbEntity
  8
268
100
AcDbLine
 62
7
  6
CONTINUOUS
 10
-0.0146217317
 20
-22.1810213047
 11
2.7753673693
 21
-23.5760158552
  0
LWPOLYLINE
  5
274
100
AcDbEntity
  8
RACCORDO
100
AcDbPolyline
 62
7
  6
CONTINUOUS
 90
46
 70
0
 10
-12.6848732271
 20
-15.9102482574
 10
-12.7254966761
 20
-15.8884120206
 10
-12.7655600884
 20
-15.8638196491
 10
-12.8049572045
 20
-15.8365478906
 10
-12.8435957267
 20
-15.8066682413
 10
-12.8813623642
 20
-15.7742729113
 10
-12.9181216226
 20
-15.7394854869
 10
-12.9537901772
 20
-15.7023915948
 10
-12.9882542843
 20
-15.663113207
 10
-13.0213414003
 20
-15.6218622075
 10
-13.0529491095
 20
-15.5787947274
 10
-13.083014536
 20
-15.534022607
 10
-13.1114377832
 20
-15.4877196428
 10
-13.1381342447
 20
-15.4400543392
 10
-13.1630505123
 20
-15.3911509023
 10
-13.1861373312
 20
-15.3411248436
 10
-13.2073371355
 20
-15.290109988
 10
-13.2265836091
 20
-15.2382715344
 10
-13.2438178178
 20
-15.1857745372
 10
-13.2589878361
 20
-15.1327833979
 10
-13.2720525556
 20
-15.0794428791
 10
-13.282975481
 20
-15.0258890541
 10
-13.2917223696
 20
-14.9722528822
 10
-13.2982546422
 20
-14.918713866
 10
-13.3025407392
 20
-14.8654769522
 10
-13.304562693
 20
-14.8127144399
 10
-13.3043094028
 20
-14.7605572603
 10
-13.3017711224
 20
-14.7091403987
 10
-13.29693514
 20
-14.6585584431
 10
-13.2898005879
 20
-14.6090120411
 10
-13.2803983043
 20
-14.5607770492
 10
-13.2687520921
 20
-14.5139819499
 10
-13.2548901114
 20
-14.4687550749
 10
-13.2388914922
 20
-14.4253384319
 10
-13.2208194646
 20
-14.3838586774
 10
-13.200722923
 20
-14.344393798
 10
-13.1786902458
 20
-14.3070849944
 10
-13.1547934768
 20
-14.2720186443
 10
-13.129111382
 20
-14.2392798724
 10
-13.1017676304
 20
-14.2089897478
 10
-13.0728799537
 20
-14.1812320828
 10
-13.0425381969
 20
-14.1560489251
 10
-13.0108462541
 20
-14.1334887589
 10
-12.9779225887
 20
-14.113600263
 10
-12.943896821
 20
-14.0964252912
 10
-12.9089005743
 20
-14.0819925592
  0
LWPOLYLINE
  5
275
100
AcDbEntity
  8
RACCORDO
100
AcDbPolyline
 62
250
  6
CONTINUOUS
 90
3
 70
0
 10
-12.5236599919
 20
-16.0455968999
 10
-12.5913575158
 20
-16.0082599583
 10
-12.6583723425
 20
-15.964270233
  0
LWPOLYLINE
  5
276
100
AcDbEntity
  8
ASSI
100
AcDbPolyline
 62
250
  6
CONTINUOUS
 90
3
 70
0
 10
-12.5236599919
 20
-16.0455968999
 10
-12.5913575158
 20
-16.0082599583
 10
-12.6583723425
 20
-15.964270233
  0
LWPOLYLINE
  5
277
100
AcDbEntity
  8
RACCORDO
100
AcDbPolyline
 62
250
  6
CONTINUOUS
 90
37
 70
0
 10
-12.6022225774
 20
-16.1652343911
 10
-12.6762365222
 20
-16.124299345
 10
-12.7485831436
 20
-16.0767703445
 10
-12.8192617241
 20
-16.0226470887
 10
-12.8887408602
 20
-15.9614824524
 10
-12.9565490714
 20
-15.8937223523
 10
-13.0212750025
 20
-15.8207058322
 10
-13.0828311571
 20
-15.7423317547
 10
-13.1412998977
 20
-15.6586991096
 10
-13.195524741
 20
-15.5714471682
 10
-13.2454049168
 20
-15.4805323598
 10
-13.2910350203
 20
-15.3859956803
 10
-13.3315524997
 20
-15.2896036221
 10
-13.3668698039
 20
-15.1912872101
 10
-13.397068584
 20
-15.0911129712
 10
-13.4215418585
 20
-14.99105139
 10
-13.4401697654
 20
-14.8911211692
 10
-13.4530680179
 20
-14.7913018986
 10
-13.4599855126
 20
-14.6935064422
 10
-13.4608059233
 20
-14.5977644971
 10
-13.4556440476
 20
-14.504045754
 10
-13.4445983873
 20
-14.4141742779
 10
-13.4275546384
 20
-14.3282310747
 10
-13.4046286089
 20
-14.2461357818
 10
-13.3762668992
 20
-14.1694716223
 10
-13.3423626599
 20
-14.0983436718
 10
-13.3030268954
 20
-14.0326485852
 10
-13.2590355018
 20
-13.9736579888
 10
-13.2103082443
 20
-13.921511203
 10
-13.1569312323
 20
-13.8760713343
 10
-13.099931651
 20
-13.838196414
 10
-13.0392512386
 20
-13.8080288508
 10
-12.9749544533
 20
-13.7854287834
 10
-12.9082534452
 20
-13.770831199
 10
-12.8390649677
 20
-13.7643981391
 10
-12.7674773892
 20
-13.765969661
 10
-12.6949603711
 20
-13.7754978102
  0
LWPOLYLINE
  5
278
100
AcDbEntity
  8
ASSI
100
AcDbPolyline
 62
250
  6
CONTINUOUS
 90
5
 70
0
 10
-12.6022225774
 20
-16.1652343911
 10
-12.6762365222
 20
-16.124299345
 10
-12.7485831436
 20
-16.0767703445
 10
-12.8192617241
 20
-16.0226470887
 10
-12.8887408602
 20
-15.9614824524
  0
LINE
  5
279
100
AcDbEntity
  8
RACCORDO
100
AcDbLine
 62
250
  6
CONTINUOUS
 10
-12.6583723425
 20
-15.964270233
 11
-12.7242712039
 21
-15.9138830781
  0
LWPOLYLINE
  5
27A
100
AcDbEntity
  8
ASSI
100
AcDbPolyline
 62
250
  6
CONTINUOUS
 90
4
 70
0
 10
-12.6583723425
 20
-15.964270233
 10
-12.7242712039
 20
-15.9138830781
 10
-12.7886606024
 20
-15.8573781242
 10
-12.8253709532
 20
-15.8207616851
  0
LWPOLYLINE
  5
27B
100
AcDbEntity
  8
RACCORDO
100
AcDbPolyline
 62
250
  6
CONTINUOUS
 90
3
 70
0
 10
-12.7242712039
 20
-15.9138830781
 10
-12.7886606024
 20
-15.8573781242
 10
-12.8253709532
 20
-15.8207616851
  0
LWPOLYLINE
  5
27C
100
AcDbEntity
  8
ASSI
100
AcDbPolyline
 62
250
  6
CONTINUOUS
 90
30
 70
0
 10
-12.8887408602
 20
-15.9614824524
 10
-12.9565490714
 20
-15.8937223523
 10
-13.0212750025
 20
-15.8207058322
 10
-13.0828311571
 20
-15.7423317547
 10
-13.1412998977
 20
-15.6586991096
 10
-13.195524741
 20
-15.5714471682
 10
-13.2454049168
 20
-15.4805323598
 10
-13.2910350203
 20
-15.3859956803
 10
-13.3315524997
 20
-15.2896036221
 10
-13.3668698039
 20
-15.1912872101
 10
-13.397068584
 20
-15.0911129712
 10
-13.4215418585
 20
-14.99105139
 10
-13.4401697654
 20
-14.8911211692
 10
-13.4530680179
 20
-14.7913018986
 10
-13.4599855126
 20
-14.6935064422
 10
-13.4608059233
 20
-14.5977644971
 10
-13.4556440476
 20
-14.504045754
 10
-13.4445983873
 20
-14.4141742779
 10
-13.4275546384
 20
-14.3282310747
 10
-13.4046286089
 20
-14.2461357818
 10
-13.3762668992
 20
-14.1694716223
 10
-13.3423626599
 20
-14.0983436718
 10
-13.3030268954
 20
-14.0326485852
 10
-13.2590355018
 20
-13.9736579888
 10
-13.2103082443
 20
-13.921511203
 10
-13.1569312323
 20
-13.8760713343
 10
-13.099931651
 20
-13.838196414
 10
-13.0392512386
 20
-13.8080288508
 10
-12.9749544533
 20
-13.7854287834
 10
-12.9082534452
 20
-13.770831199
  0
LWPOLYLINE
  5
27D
100
AcDbEntity
  8
RACCORDO
100
AcDbPolyline
 62
250
  6
CONTINUOUS
 90
13
 70
0
 10
-19.8976034823
 20
-17.813856215
 10
-19.7719387182
 20
-14.8465641668
 10
-19.6201517048
 20
-11.8676196812
 10
-19.4422612374
 20
-8.877396844
 10
-19.2382893617
 20
-5.8762712075
 10
-19.0082616253
 20
-2.8646195045
 10
-18.7522070717
 20
0.1571804005
 10
-18.4701579894
 20
3.1887492467
 10
-18.1621496392
 20
6.2297064015
 10
-17.8282204994
 20
9.279670149
 10
-17.4684125397
 20
12.3382576869
 10
-17.0827712195
 20
15.4050851734
 10
-16.6713452082
 20
18.4797677544
  0
LWPOLYLINE
  5
27E
100
AcDbEntity
  8
ASSI
100
AcDbPolyline
 62
250
  6
CONTINUOUS
 90
13
 70
0
 10
-19.8976034823
 20
-17.813856215
 10
-19.7719387182
 20
-14.8465641668
 10
-19.6201517048
 20
-11.8676196812
 10
-19.4422612374
 20
-8.877396844
 10
-19.2382893617
 20
-5.8762712075
 10
-19.0082616253
 20
-2.8646195045
 10
-18.7522070717
 20
0.1571804005
 10
-18.4701579894
 20
3.1887492467
 10
-18.1621496392
 20
6.2297064015
 10
-17.8282204994
 20
9.279670149
 10
-17.4684125397
 20
12.3382576869
 10
-17.0827712195
 20
15.4050851734
 10
-16.6713452082
 20
18.4797677544
  0
LINE
  5
27F
100
AcDbEntity
  8
ASSI
100
AcDbLine
 62
7
  6
CONTINUOUS
 10
-19.970197059
 20
-13.8103544084
 11
-20.1319444653
 21
-17.5329294235
  0
LWPOLYLINE
  5
280
100
AcDbEntity
  8
RACCORDO
100
AcDbPolyline
 62
7
  6
CONTINUOUS
 90
3
 70
0
 10
-19.8572760501
 20
-11.6377203608
 10
-20.0091175438
 20
-14.6268295379
 10
-20.1319444559
 20
-17.5329291753
  0
LWPOLYLINE
  5
281
100
AcDbEntity
  8
ASSI
100
AcDbPolyline
 62
250
  6
CONTINUOUS
 90
10
 70
0
 10
-16.9074523479
 20
18.7421736362
 10
-16.9079824322
 20
18.7373748387
 10
-16.9065840618
 20
18.7054015123
 10
-16.8967026017
 20
18.672657939
 10
-16.8784439293
 20
18.6394949578
 10
-16.8520036815
 20
18.6062679018
 10
-16.8176651591
 20
18.5733327904
 10
-16.7757962903
 20
18.5410425153
 10
-16.7268456897
 20
18.5097430584
 10
-16.6713378504
 20
18.4797697855
  0
LWPOLYLINE
  5
282
100
AcDbEntity
  8
RACCORDO
100
AcDbPolyline
 62
250
  6
CONTINUOUS
 90
10
 70
0
 10
-16.9073868978
 20
18.7426586495
 10
-16.9079824322
 20
18.7373748387
 10
-16.9065840618
 20
18.7054015123
 10
-16.8967026017
 20
18.672657939
 10
-16.8784439293
 20
18.6394949578
 10
-16.8520036815
 20
18.6062679018
 10
-16.8176651591
 20
18.5733327904
 10
-16.7757962903
 20
18.5410425153
 10
-16.7268456897
 20
18.5097430584
 10
-16.6713378504
 20
18.4797697855
  0
LWPOLYLINE
  5
283
100
AcDbEntity
  8
RACCORDO
100
AcDbPolyline
 62
7
  6
CONTINUOUS
 90
10
 70
0
 10
-17.3112617526
 20
15.7259997598
 10
-17.6985738917
 20
12.6490653222
 10
-18.0598807267
 20
9.5803472118
 10
-18.3951278356
 20
6.5202778948
 10
-18.7042746981
 20
3.4692374319
 10
-18.9872846777
 20
0.4275854398
 10
-19.2441207207
 20
-2.604304221
 10
-19.4747509877
 20
-5.6260595211
 10
-19.679145851
 20
-8.6373234159
 10
-19.8572760501
 20
-11.6377203608
  0
LWPOLYLINE
  5
284
100
AcDbEntity
  8
ASSI
100
AcDbPolyline
 62
7
  6
CONTINUOUS
 90
9
 70
0
 10
-16.9073754487
 20
18.742741941
 10
-17.42225587
 20
14.8642138848
 10
-17.9289938449
 20
10.7168263367
 10
-18.388310118
 20
6.584880467
 10
-18.8000944317
 20
2.4693572342
 10
-19.1642542331
 20
-1.6288311337
 10
-19.4807071047
 20
-5.7087928371
 10
-19.7493777358
 20
-9.7696224118
 10
-19.970197059
 20
-13.8103544084
  0
LINE
  5
285
100
AcDbEntity
  8
RACCORDO
100
AcDbLine
 62
7
  6
CONTINUOUS
 10
-16.9073754704
 20
18.7427417836
 11
-17.3112617526
 21
15.7259997598
  0
LINE
  5
286
100
AcDbEntity
  8
218_STAMPATO
100
AcDbLine
 62
7
  6
CONTINUOUS
 10
-1.5285700598
 20
21.966411628
 11
-2.4586094952
 21
21.1747714162
  0
LINE
  5
287
100
AcDbEntity
  8
218_STAMPATO
100
AcDbLine
 62
250
  6
CONTINUOUS
 10
-1.4319179788
 20
21.9662237647
 11
-2.3975839207
 21
21.1442586289
  0
LWPOLYLINE
  5
288
100
AcDbEntity
  8
218_STAMPATO
100
AcDbPolyline
 62
7
  6
CONTINUOUS
 90
10
 70
0
 10
-1.5285700487
 20
21.9664116338
 10
-1.527633259
 20
21.9671923863
 10
-1.5263280934
 20
21.9682266572
 10
-1.5249956363
 20
21.9692218758
 10
-1.523636247
 20
21.9701777619
 10
-1.522250135
 20
21.9710941229
 10
-1.5208376665
 20
21.9719707004
 10
-1.5193992188
 20
21.9728072433
 10
-1.5179350258
 20
21.9736035843
 10
-1.516880677
 20
21.9741441326
  0
LINE
  5
289
100
AcDbEntity
  8
268
100
AcDbLine
 62
7
  6
CONTINUOUS
 10
-0.7289321836
 20
19.108119828
 11
-0.2298364508
 21
19.3583165011
  0
LINE
  5
28A
100
AcDbEntity
  8
268
100
AcDbLine
 62
7
  6
CONTINUOUS
 10
-0.2298364508
 20
19.3583165011
 11
5.1844362444
 21
22.0583321115
  0
LINE
  5
28B
100
AcDbEntity
  8
268
100
AcDbLine
 62
7
  6
CONTINUOUS
 10
4.5784896613
 20
22.3600800695
 11
-0.1591257726
 21
20.0250295549
  0
LINE
  5
28C
100
AcDbEntity
  8
268
100
AcDbLine
 62
7
  6
CONTINUOUS
 10
5.8574524599
 20
22.1038320404
 11
5.2710736728
 21
21.8169099727
  0
LWPOLYLINE
  5
28D
100
AcDbEntity
  8
268
100
AcDbPolyline
 62
7
  6
CONTINUOUS
 90
18
 70
0
 10
5.8574524599
 20
22.1038320404
 10
5.8858269806
 20
22.1170139972
 10
5.9140614326
 20
22.1287483889
 10
5.9421558159
 20
22.1390352156
 10
5.9701601289
 20
22.1478873502
 10
5.9980243732
 20
22.1552919197
 10
6.0255985528
 20
22.1612103054
 10
6.0528676815
 20
22.1656337266
 10
6.0798467455
 20
22.168570964
 10
6.1064307081
 20
22.1700097399
 10
6.132635667
 20
22.1699426034
 10
6.1584455245
 20
22.1683770054
 10
6.1837069507
 20
22.165323022
 10
6.208396704
 20
22.1607772376
 10
6.2325380262
 20
22.1547430677
 10
6.2560473124
 20
22.147240835
 10
6.2789430926
 20
22.1382554203
 10
6.2984861446
 20
22.1291861659
  0
LINE
  5
28E
100
AcDbEntity
  8
218_STAMPATO
100
AcDbLine
 62
7
  6
CONTINUOUS
 10
12.137282696
 20
24.7690867198
 11
6.3573832469
 21
22.099737615
  0
LWPOLYLINE
  5
28F
100
AcDbEntity
  8
RACCORDO
100
AcDbPolyline
 62
250
  6
CONTINUOUS
 90
5
 70
0
 10
-12.3085300513
 20
-16.2511816327
 10
-12.3808622081
 20
-16.2415865792
 10
-12.4536772704
 20
-16.2240721474
 10
-12.5274638184
 20
-16.1986213166
 10
-12.6022225774
 20
-16.1652343911
  0
LWPOLYLINE
  5
290
100
AcDbEntity
  8
RACCORDO
100
AcDbPolyline
 62
250
  6
CONTINUOUS
 90
4
 70
0
 10
-12.319205914
 20
-16.1161604218
 10
-12.3870050806
 20
-16.0998283725
 10
-12.455304822
 20
-16.0762526383
 10
-12.5236599919
 20
-16.0455968999
  0
LWPOLYLINE
  5
291
100
AcDbEntity
  8
0
100
AcDbPolyline
 62
7
  6
CONTINUOUS
 90
3
 70
0
 10
-11.8328167538
 20
-15.8103130677
 10
-11.7747344836
 20
-15.8358316575
 10
-11.756956873
 20
-15.841653179
  0
LWPOLYLINE
  5
292
100
AcDbEntity
  8
ASSI
100
AcDbPolyline
 62
7
  6
CONTINUOUS
 90
3
 70
0
 10
-11.8499909532
 20
-15.8027675405
 10
-11.7747344836
 20
-15.8358316575
 10
-11.756956873
 20
-15.841653179
  0
LINE
  5
293
100
AcDbEntity
  8
RACCORDO
100
AcDbLine
 62
250
  6
CONTINUOUS
 10
-12.5481227847
 20
-13.818394063
 11
-12.4733149213
 21
-13.8517792115
  0
LINE
  5
294
100
AcDbEntity
  8
ASSI
100
AcDbLine
 62
250
  6
CONTINUOUS
 10
-12.5481227847
 20
-13.818394063
 11
-12.4733149213
 21
-13.8517792115
  0
LWPOLYLINE
  5
295
100
AcDbEntity
  8
RACCORDO
100
AcDbPolyline
 62
250
  6
CONTINUOUS
 90
55
 70
0
 10
-12.5662862813
 20
-14.2279651864
 10
-12.6034268976
 20
-14.2108231783
 10
-12.6406886517
 20
-14.1964735885
 10
-12.6779461534
 20
-14.1849653646
 10
-12.7150556671
 20
-14.176341555
 10
-12.751910776
 20
-14.170625338
 10
-12.7884412639
 20
-14.1678343578
 10
-12.8245595132
 20
-14.1679933337
 10
-12.8601016592
 20
-14.1711201961
 10
-12.8948860336
 20
-14.1772056643
 10
-12.9287897344
 20
-14.1862265448
 10
-12.9617029711
 20
-14.1981516978
 10
-12.9934756297
 20
-14.2129194329
 10
-13.023975504
 20
-14.2304496284
 10
-13.0531363614
 20
-14.2506849091
 10
-13.0809114239
 20
-14.273587208
 10
-13.1072230636
 20
-14.2991001758
 10
-13.1319616796
 20
-14.3271256175
 10
-13.1550345995
 20
-14.3575605948
 10
-13.1763634712
 20
-14.3903014222
 10
-13.1958769822
 20
-14.4252382789
 10
-13.2135049473
 20
-14.4622431859
 10
-13.2291802113
 20
-14.5011645406
 10
-13.2428633076
 20
-14.5418924032
 10
-13.2545271323
 20
-14.5843586153
 10
-13.2641323131
 20
-14.6284701056
 10
-13.2716253776
 20
-14.6740426126
 10
-13.276966681
 20
-14.7208649957
 10
-13.2801369618
 20
-14.7687598222
 10
-13.2811275817
 20
-14.8175821129
 10
-13.279935222
 20
-14.8671582443
 10
-13.2765651684
 20
-14.9173137319
 10
-13.2710295658
 20
-14.9678838284
 10
-13.2633462443
 20
-15.0187064741
 10
-13.2535393258
 20
-15.0696159241
 10
-13.2416424885
 20
-15.1204325031
 10
-13.2276987581
 20
-15.1709730497
 10
-13.2117586824
 20
-15.2210589265
 10
-13.1938752737
 20
-15.2705275603
 10
-13.1741053864
 20
-15.3192219746
 10
-13.1525119864
 20
-15.3669842418
 10
-13.1291709415
 20
-15.4136439684
 10
-13.1041678299
 20
-15.459030617
 10
-13.0775937815
 20
-15.5029822311
 10
-13.0495349509
 20
-15.5453595261
 10
-13.0200772654
 20
-15.5860327102
 10
-12.9892992867
 20
-15.6248878772
 10
-12.9573240507
 20
-15.6617646261
 10
-12.9243151152
 20
-15.6964811445
 10
-12.8904246433
 20
-15.7288970179
 10
-12.8557372648
 20
-15.7589501035
 10
-12.8203207831
 20
-15.7865884428
 10
-12.7842766345
 20
-15.8117309172
 10
-12.7477433097
 20
-15.8342791235
 10
-12.7108437991
 20
-15.8541574332
  0
LWPOLYLINE
  5
296
100
AcDbEntity
  8
RACCORDO
100
AcDbPolyline
 62
250
  6
CONTINUOUS
 90
12
 70
0
 10
-12.4894032177
 20
-14.1209608609
 10
-12.5302856234
 20
-14.1020921791
 10
-12.5713013357
 20
-14.0862970904
 10
-12.6123123526
 20
-14.0736294642
 10
-12.6531604824
 20
-14.0641365712
 10
-12.6937286131
 20
-14.0578440284
 10
-12.7339394358
 20
-14.0547715869
 10
-12.7736964562
 20
-14.0549466443
 10
-12.8128192955
 20
-14.0583887534
 10
-12.851108017
 20
-14.0650874739
 10
-12.8884273722
 20
-14.0750171774
 10
-12.9089005758
 20
-14.0819925598
  0
LINE
  5
297
100
AcDbEntity
  8
268
100
AcDbLine
 62
250
  6
CONTINUOUS
 10
4.2420997119
 20
-23.4879699123
 11
4.1986773859
 21
-23.4662587493
  0
LINE
  5
298
100
AcDbEntity
  8
268
100
AcDbLine
 62
7
  6
CONTINUOUS
 10
0.0649954169
 20
-21.2853723493
 11
3.5885401676
 21
-23.0471447247
  0
LINE
  5
299
100
AcDbEntity
  8
268
100
AcDbLine
 62
250
  6
CONTINUOUS
 10
4.1542255926
 20
-23.2887027668
 11
4.7693444276
 21
-23.5962621842
  0
LINE
  5
29A
100
AcDbEntity
  8
268
100
AcDbLine
 62
7
  6
CONTINUOUS
 10
4.1542255926
 20
-23.2850826172
 11
4.792623254
 21
-23.6042814479
  0
LINE
  5
29B
100
AcDbEntity
  8
268
100
AcDbLine
 62
7
  6
CONTINUOUS
 10
0.2054196708
 20
-19.7056770387
 11
3.5885401676
 21
-21.3972372872
  0
LWPOLYLINE
  5
29C
100
AcDbEntity
  8
RACCORDO
100
AcDbPolyline
 62
7
  6
CONTINUOUS
 90
25
 70
0
 10
-12.4474748885
 20
-13.912449257
 10
-12.4304306784
 20
-13.9212034657
 10
-12.3592750834
 20
-13.9626854485
 10
-12.2888337227
 20
-14.011796896
 10
-12.2197780263
 20
-14.0681271882
 10
-12.1526598033
 20
-14.131206647
 10
-12.0879437308
 20
-14.2006250548
 10
-12.0261510827
 20
-14.2758426555
 10
-11.9677681385
 20
-14.3562411635
 10
-11.9131734357
 20
-14.4413338452
 10
-11.8627999268
 20
-14.5304794659
 10
-11.8170258711
 20
-14.6229761595
 10
-11.7761437866
 20
-14.7182755992
 10
-11.7404869338
 20
-14.8156547097
 10
-11.7103193626
 20
-14.9143646975
 10
-11.6858501448
 20
-15.013813656
 10
-11.667302391
 20
-15.1132267488
 10
-11.6548200755
 20
-15.2118208826
 10
-11.6485192425
 20
-15.3089445304
 10
-11.6484881883
 20
-15.4038091451
 10
-11.6547262766
 20
-15.4956062984
 10
-11.6672067837
 20
-15.5835767576
 10
-11.6858369109
 20
-15.6669710721
 10
-11.710413033
 20
-15.7450266747
 10
-11.7406536832
 20
-15.8169399986
  0
LINE
  5
29D
100
AcDbEntity
  8
ASSI
100
AcDbLine
 62
7
  6
CONTINUOUS
 10
-12.4470647123
 20
-13.9126505313
 11
-12.3961343083
 21
-13.9401958108
  0
LINE
  5
29E
100
AcDbEntity
  8
RACCORDO
100
AcDbLine
 62
250
  6
CONTINUOUS
 10
-12.4733149213
 20
-13.8517792115
 11
-12.399304184
 21
-13.8927387954
  0
LINE
  5
29F
100
AcDbEntity
  8
ASSI
100
AcDbLine
 62
250
  6
CONTINUOUS
 10
-12.4733149213
 20
-13.8517792115
 11
-12.399304184
 21
-13.8927387954
  0
LWPOLYLINE
  5
2A0
100
AcDbEntity
  8
RACCORDO
100
AcDbPolyline
 62
250
  6
CONTINUOUS
 90
3
 70
0
 10
-12.399304184
 20
-13.8927387954
 10
-12.3270134022
 20
-13.9403111942
 10
-12.2564418584
 20
-13.9944961146
  0
LINE
  5
2A1
100
AcDbEntity
  8
ASSI
100
AcDbLine
 62
250
  6
CONTINUOUS
 10
-12.399304184
 20
-13.8927387954
 11
-12.3270134022
 21
-13.9403111942
  0
LWPOLYLINE
  5
2A2
100
AcDbEntity
  8
ASSI
100
AcDbPolyline
 62
7
  6
CONTINUOUS
 90
15
 70
0
 10
-12.3961343083
 20
-13.9401958108
 10
-12.2593467256
 20
-14.0348305597
 10
-12.1281803423
 20
-14.1564162244
 10
-12.0067061522
 20
-14.3015332691
 10
-11.8981923671
 20
-14.4666633574
 10
-11.8060653869
 20
-14.64716501
 10
-11.7332181047
 20
-14.8377546194
 10
-11.6816571892
 20
-15.0337464106
 10
-11.6532394058
 20
-15.2292742281
 10
-11.6490410957
 20
-15.4181792574
 10
-11.6692893022
 20
-15.5947173132
 10
-11.713253368
 20
-15.7526932432
 10
-11.7791342638
 20
-15.8867959944
 10
-11.8646080357
 20
-15.9932225108
 10
-11.9670705757
 20
-16.0691482512
  0
LINE
  5
2A3
100
AcDbEntity
  8
ASSI
100
AcDbLine
 62
250
  6
CONTINUOUS
 10
-12.3270134022
 20
-13.9403111942
 11
-12.2564418584
 21
-13.9944961146
  0
LINE
  5
2A4
100
AcDbEntity
  8
RACCORDO
100
AcDbLine
 62
250
  6
CONTINUOUS
 10
-12.2564418584
 20
-13.9944961146
 11
-12.1871196252
 21
-14.0557413613
  0
LINE
  5
2A5
100
AcDbEntity
  8
ASSI
100
AcDbLine
 62
250
  6
CONTINUOUS
 10
-12.2564418584
 20
-13.9944961146
 11
-12.1871196252
 21
-14.0557413613
  0
LWPOLYLINE
  5
2A6
100
AcDbEntity
  8
RACCORDO
100
AcDbPolyline
 62
250
  6
CONTINUOUS
 90
17
 70
0
 10
-12.1871196252
 20
-14.0557413613
 10
-12.1195137473
 20
-14.1235979505
 10
-12.055028445
 20
-14.1967201931
 10
-11.9937482994
 20
-14.2752064981
 10
-11.9355836004
 20
-14.3589563547
 10
-11.8816772168
 20
-14.4463257272
 10
-11.8321246186
 20
-14.5373550085
 10
-11.7868241682
 20
-14.6320012702
 10
-11.7466239558
 20
-14.7284958542
 10
-11.7116058692
 20
-14.8269048573
 10
-11.6816821261
 20
-14.9271597478
 10
-11.6574480727
 20
-15.0272906455
 10
-11.639018852
 20
-15.1272778536
 10
-11.6262751688
 20
-15.2271393396
 10
-11.6194632198
 20
-15.3249627509
 10
-11.6186975372
 20
-15.4207189978
 10
-11.6238620485
 20
-15.5144365117
  0
LWPOLYLINE
  5
2A7
100
AcDbEntity
  8
ASSI
100
AcDbPolyline
 62
250
  6
CONTINUOUS
 90
4
 70
0
 10
-12.1871196252
 20
-14.0557413613
 10
-12.1195137473
 20
-14.1235979505
 10
-12.055028445
 20
-14.1967201931
 10
-11.9937482994
 20
-14.2752064981
  0
LWPOLYLINE
  5
2A8
100
AcDbEntity
  8
ASSI
100
AcDbPolyline
 62
250
  6
CONTINUOUS
 90
12
 70
0
 10
-11.9937482994
 20
-14.2752064981
 10
-11.9355836004
 20
-14.3589563547
 10
-11.8816772168
 20
-14.4463257272
 10
-11.8321246186
 20
-14.5373550085
 10
-11.7868241682
 20
-14.6320012702
 10
-11.7466239558
 20
-14.7284958542
 10
-11.7116058692
 20
-14.8269048573
 10
-11.6816821261
 20
-14.9271597478
 10
-11.6574480727
 20
-15.0272906455
 10
-11.639018852
 20
-15.1272778536
 10
-11.6262751688
 20
-15.2271393396
 10
-11.6194632198
 20
-15.3249627509
  0
LINE
  5
2A9
100
AcDbEntity
  8
268
100
AcDbLine
 62
7
  6
CONTINUOUS
 10
0.9451233927
 20
17.6870894228
 11
2.5278799959
 21
18.4990735201
  0
LINE
  5
2AA
100
AcDbEntity
  8
268
100
AcDbLine
 62
7
  6
CONTINUOUS
 10
-0.7289321836
 20
17.8939163552
 11
-0.2298364508
 21
18.1458809358
  0
LINE
  5
2AB
100
AcDbEntity
  8
268
100
AcDbLine
 62
7
  6
CONTINUOUS
 10
-0.2298364508
 20
18.1458809358
 11
5.1844362444
 21
20.8264935332
  0
LINE
  5
2AC
100
AcDbEntity
  8
268
100
AcDbLine
 62
7
  6
CONTINUOUS
 10
2.5278799959
 20
18.4990735201
 11
3.0623298745
 21
18.7594209867
  0
LINE
  5
2AD
100
AcDbEntity
  8
218_STAMPATO
100
AcDbLine
 62
250
  6
CONTINUOUS
 10
12.5689021211
 20
24.7332930135
 11
6.6018433832
 21
21.9775075468
  0
LINE
  5
2AE
100
AcDbEntity
  8
ASSI
100
AcDbLine
 62
7
  6
CONTINUOUS
 10
-12.7259035436
 20
-13.8354791353
 11
-12.6304669424
 21
-13.8473986086
  0
LINE
  5
2AF
100
AcDbEntity
  8
RACCORDO
100
AcDbLine
 62
250
  6
CONTINUOUS
 10
-12.6949603711
 20
-13.7754978102
 11
-12.622004843
 21
-13.792967028
  0
LINE
  5
2B0
100
AcDbEntity
  8
RACCORDO
100
AcDbLine
 62
7
  6
CONTINUOUS
 10
-12.6408869819
 20
-13.8453296744
 11
-12.5807076833
 21
-13.8597769284
  0
LWPOLYLINE
  5
2B1
100
AcDbEntity
  8
ASSI
100
AcDbPolyline
 62
7
  6
CONTINUOUS
 90
3
 70
0
 10
-12.6304669424
 20
-13.8473986086
 10
-12.5325453652
 20
-13.8755876759
 10
-12.4476380971
 20
-13.9123613886
  0
LWPOLYLINE
  5
2B2
100
AcDbEntity
  8
RACCORDO
100
AcDbPolyline
 62
7
  6
CONTINUOUS
 90
4
 70
0
 10
-12.5807076833
 20
-13.8597769284
 10
-12.5198029437
 20
-13.8803865929
 10
-12.4586444278
 20
-13.9069590422
 10
-12.4475456899
 20
-13.9124078363
  0
LINE
  5
2B3
100
AcDbEntity
  8
RACCORDO
100
AcDbLine
 62
250
  6
CONTINUOUS
 10
-12.622004843
 20
-13.792967028
 11
-12.5481227847
 21
-13.818394063
  0
LINE
  5
2B4
100
AcDbEntity
  8
ASSI
100
AcDbLine
 62
250
  6
CONTINUOUS
 10
-12.622004843
 20
-13.792967028
 11
-12.5481227847
 21
-13.818394063
  0
LWPOLYLINE
  5
2B5
100
AcDbEntity
  8
RACCORDO
100
AcDbPolyline
 62
250
  6
CONTINUOUS
 90
16
 70
0
 10
-13.3034842917
 20
-14.8408551228
 10
-13.3117143717
 20
-14.7785423052
 10
-13.318295105
 20
-14.6882266028
 10
-13.31933349
 20
-14.599781924
 10
-13.3148427075
 20
-14.5138004242
 10
-13.3048117619
 20
-14.4308399513
 10
-13.2893265855
 20
-14.3514509161
 10
-13.2685112306
 20
-14.2761499949
 10
-13.2424659631
 20
-14.205408706
 10
-13.211373406
 20
-14.139686603
 10
-13.1754594362
 20
-14.0794238703
 10
-13.1349386706
 20
-14.0250112919
 10
-13.0900959028
 20
-13.9768085311
 10
-13.0412389055
 20
-13.9351238126
 10
-12.9886571785
 20
-13.9002101409
 10
-12.9327064708
 20
-13.8722988518
  0
LWPOLYLINE
  5
2B6
100
AcDbEntity
  8
ASSI
100
AcDbPolyline
 62
250
  6
CONTINUOUS
 90
12
 70
0
 10
-13.3034842917
 20
-14.8408551228
 10
-13.3117143717
 20
-14.7785423052
 10
-13.318295105
 20
-14.6882266028
 10
-13.31933349
 20
-14.599781924
 10
-13.3148427075
 20
-14.5138004242
 10
-13.3048117619
 20
-14.4308399513
 10
-13.2893265855
 20
-14.3514509161
 10
-13.2685112306
 20
-14.2761499949
 10
-13.2424659631
 20
-14.205408706
 10
-13.211373406
 20
-14.139686603
 10
-13.1754594362
 20
-14.0794238703
 10
-13.1349386706
 20
-14.0250112919
  0
LINE
  5
2B7
100
AcDbEntity
  8
268
100
AcDbLine
 62
7
  6
CONTINUOUS
 10
-12.9931138512
 20
22.4377380269
 11
-12.9931138512
 21
22.4133425216
  0
LINE
  5
2B8
100
AcDbEntity
  8
268
100
AcDbLine
 62
250
  6
CONTINUOUS
 10
4.6683064257
 20
17.205368951
 11
10.0266332059
 21
20.0963091779
  0
LINE
  5
2B9
100
AcDbEntity
  8
268
100
AcDbLine
 62
250
  6
CONTINUOUS
 10
4.2132963177
 20
16.6238636436
 11
9.9424816383
 21
19.59023618
  0
LINE
  5
2BA
100
AcDbEntity
  8
268
100
AcDbLine
 62
7
  6
CONTINUOUS
 10
2.5529448018
 20
16.8831787182
 11
4.1542255926
 21
17.6859007217
  0
LINE
  5
2BB
100
AcDbEntity
  8
268
100
AcDbLine
 62
7
  6
CONTINUOUS
 10
4.1542255926
 20
17.6859007217
 11
4.6824927643
 21
17.9493395418
  0
LINE
  5
2BC
100
AcDbEntity
  8
268
100
AcDbLine
 62
250
  6
CONTINUOUS
 10
4.0647033827
 20
18.3202116035
 11
8.8365423608
 21
20.6142870899
  0
LINE
  5
2BD
100
AcDbEntity
  8
268
100
AcDbLine
 62
250
  6
CONTINUOUS
 10
4.2923188825
 20
18.2064038536
 11
9.2783832287
 21
20.6034688096
  0
LINE
  5
2BE
100
AcDbEntity
  8
ASSI
100
AcDbLine
 62
7
  6
CONTINUOUS
 10
-12.8179247851
 20
-13.8401134735
 11
-12.7259035436
 21
-13.8354791353
  0
LWPOLYLINE
  5
2BF
100
AcDbEntity
  8
RACCORDO
100
AcDbPolyline
 62
7
  6
CONTINUOUS
 90
3
 70
0
 10
-12.7576249519
 20
-13.8351757003
 10
-12.6999559433
 20
-13.8371255726
 10
-12.6408869819
 20
-13.8453296744
  0
LWPOLYLINE
  5
2C0
100
AcDbEntity
  8
ASSI
100
AcDbPolyline
 62
250
  6
CONTINUOUS
 90
4
 70
0
 10
-11.6194632198
 20
-15.3249627509
 10
-11.6186975372
 20
-15.4207189978
 10
-11.6238620485
 20
-15.5144365117
 10
-11.6348599595
 20
-15.6042904262
  0
LINE
  5
2C1
100
AcDbEntity
  8
268
100
AcDbLine
 62
7
  6
CONTINUOUS
 10
-12.5939205542
 20
23.8109890595
 11
-12.5939205542
 21
24.0643604533
  0
LINE
  5
2C2
100
AcDbEntity
  8
268
100
AcDbLine
 62
7
  6
CONTINUOUS
 10
-12.1799410528
 20
22.0067561224
 11
-12.1799410528
 21
21.6165568184
  0
LINE
  5
2C3
100
AcDbEntity
  8
268
100
AcDbLine
 62
7
  6
CONTINUOUS
 10
-11.8909276
 20
22.9044298049
 11
-11.8909276
 21
23.3567607805
  0
LINE
  5
2C4
100
AcDbEntity
  8
268
100
AcDbLine
 62
7
  6
CONTINUOUS
 10
-10.9881440921
 20
23.2614722222
 11
-10.9881440921
 21
23.0081008285
  0
LINE
  5
2C5
100
AcDbEntity
  8
284
100
AcDbLine
 62
7
  6
CONTINUOUS
 10
-6.0030426793
 20
18.9183069356
 11
-6.0199614898
 21
18.8682871796
  0
LWPOLYLINE
  5
2C6
100
AcDbEntity
  8
268
100
AcDbPolyline
 62
7
  6
CONTINUOUS
 90
5
 70
0
 10
10.024886269
 20
19.5109989251
 10
10.0251342812
 20
19.5111390229
 10
10.0260615172
 20
19.5119666943
 10
10.0265679346
 20
19.5130177657
 10
10.0266796981
 20
19.5139496896
  0
LINE
  5
2C7
100
AcDbEntity
  8
268
100
AcDbLine
 62
250
  6
CONTINUOUS
 10
4.3016862725
 20
16.7591568248
 11
9.9424816383
 21
19.8024953341
  0
LINE
  5
2C8
100
AcDbEntity
  8
268
100
AcDbLine
 62
7
  6
CONTINUOUS
 10
4.3330624483
 20
16.5639805783
 11
10.0248857135
 21
19.5110083442
  0
LINE
  5
2C9
100
AcDbEntity
  8
268
100
AcDbLine
 62
250
  6
CONTINUOUS
 10
4.2956469488
 20
15.8831392361
 11
2.5278799959
 21
14.9803615366
  0
LINE
  5
2CA
100
AcDbEntity
  8
268
100
AcDbLine
 62
250
  6
CONTINUOUS
 10
4.5431343222
 20
15.4562751161
 11
2.7753673693
 21
14.5534974166
  0
LINE
  5
2CB
100
AcDbEntity
  8
268
100
AcDbLine
 62
7
  6
CONTINUOUS
 10
4.1542255926
 20
15.9538499142
 11
3.0873946805
 21
15.4152686647
  0
LINE
  5
2CC
100
AcDbEntity
  8
268
100
AcDbLine
 62
250
  6
CONTINUOUS
 10
5.00275373
 20
16.2291349374
 11
4.2956469488
 21
15.8831392361
  0
LINE
  5
2CD
100
AcDbEntity
  8
268
100
AcDbLine
 62
250
  6
CONTINUOUS
 10
5.2502411034
 20
15.8022708175
 11
4.5431343222
 21
15.4562751161
  0
LINE
  5
2CE
100
AcDbEntity
  8
218_STAMPATO
100
AcDbLine
 62
7
  6
CONTINUOUS
 10
4.9426187091
 20
16.2592024479
 11
10.608483278
 21
19.0113909921
  0
LWPOLYLINE
  5
2CF
100
AcDbEntity
  8
218_STAMPATO
100
AcDbPolyline
 62
7
  6
CONTINUOUS
 90
67
 70
0
 10
11.361177362
 20
17.7131857311
 10
19.1026101258
 20
21.4735488907
 10
19.1098148136
 20
21.4769559642
 10
19.1169795624
 20
21.4802820305
 10
19.1241034714
 20
21.4835270068
 10
19.1311859057
 20
21.4866907569
 10
19.1382264965
 20
21.4897730869
 10
19.1452244823
 20
21.4927739165
 10
19.1521791142
 20
21.4956931663
 10
19.1590900479
 20
21.4985306524
 10
19.1659565345
 20
21.5012863247
 10
19.1727778386
 20
21.5039601338
 10
19.1795536415
 20
21.5065519072
 10
19.1862832076
 20
21.5090616244
 10
19.192965815
 20
21.5114892662
 10
19.1996011721
 20
21.5138346724
 10
19.2061885568
 20
21.5160978521
 10
19.2127272613
 20
21.518278816
 10
19.2192170219
 20
21.5203774169
 10
19.2256571306
 20
21.5223936934
 10
19.2320468939
 20
21.5243276859
 10
19.2383860774
 20
21.526179261
 10
19.2446739871
 20
21.5279484865
 10
19.2509099446
 20
21.5296354323
 10
19.2570937454
 20
21.5312399794
 10
19.2632247103
 20
21.5327622246
 10
19.2693021761
 20
21.5342022666
 10
19.275325969
 20
21.535560002
 10
19.2812954252
 20
21.5368355556
 10
19.2872098969
 20
21.5380290552
 10
19.2930692418
 20
21.5391404128
 10
19.2988728117
 20
21.5401697813
 10
19.3046199749
 20
21.5411173168
 10
19.310310621
 20
21.5419829472
 10
19.3159441179
 20
21.5427668531
 10
19.3215198501
 20
21.5434692186
 10
19.3270377397
 20
21.5440899873
 10
19.332497171
 20
21.5446293674
 10
19.3378975451
 20
21.5450875701
 10
19.343238817
 20
21.5454645554
 10
19.3485203876
 20
21.5457605581
 10
19.3537416749
 20
21.5459758161
 10
19.358902667
 20
21.5461103056
 10
19.3640027819
 20
21.5461642877
 10
19.3690414545
 20
21.5461380265
 10
19.3740187062
 20
21.5460315143
 10
19.3789339723
 20
21.5458450376
 10
19.3837867052
 20
21.5455788862
 10
19.388576959
 20
21.5452330683
 10
19.3933041869
 20
21.5448078955
 10
19.3979678587
 20
21.5443036823
 10
19.4025680622
 20
21.5437204528
 10
19.4071042688
 20
21.5430585425
 10
19.4115759657
 20
21.5423182903
 10
19.4159832718
 20
21.5414997357
 10
19.4203256766
 20
21.540603238
 10
19.4246026855
 20
21.5396291597
 10
19.4288144498
 20
21.5385775552
 10
19.4329604774
 20
21.5374488067
 10
19.4370402916
 20
21.5362432994
 10
19.4410540757
 20
21.5349611026
 10
19.4450013559
 20
21.5336026204
 10
19.4488816739
 20
21.5321682602
 10
19.4526952438
 20
21.5306581053
 10
19.4564416108
 20
21.5290725812
 10
19.4601203345
 20
21.5274121168
 10
19.4637316595
 20
21.5256768088
  0
LINE
  5
2D0
100
AcDbEntity
  8
218_STAMPATO
100
AcDbLine
 62
250
  6
CONTINUOUS
 10
19.5321708577
 20
20.9241882277
 11
19.5479786054
 21
20.9315919367
  0
LINE
  5
2D1
100
AcDbEntity
  8
218_STAMPATO
100
AcDbLine
 62
250
  6
CONTINUOUS
 10
19.5479786054
 20
20.9315919367
 11
19.5633694991
 21
20.9387132013
  0
LINE
  5
2D2
100
AcDbEntity
  8
218_STAMPATO
100
AcDbLine
 62
250
  6
CONTINUOUS
 10
19.5633694991
 20
20.9387132013
 11
19.5783332238
 21
20.9455472489
  0
LINE
  5
2D3
100
AcDbEntity
  8
218_STAMPATO
100
AcDbLine
 62
250
  6
CONTINUOUS
 10
19.5783332238
 20
20.9455472489
 11
19.5928597507
 21
20.9520894993
  0
LINE
  5
2D4
100
AcDbEntity
  8
218_STAMPATO
100
AcDbLine
 62
250
  6
CONTINUOUS
 10
19.5928597507
 20
20.9520894993
 11
19.606939344
 21
20.9583355677
  0
LINE
  5
2D5
100
AcDbEntity
  8
218_STAMPATO
100
AcDbLine
 62
250
  6
CONTINUOUS
 10
19.606939344
 20
20.9583355677
 11
19.6205625676
 21
20.9642812681
  0
LINE
  5
2D6
100
AcDbEntity
  8
218_STAMPATO
100
AcDbLine
 62
250
  6
CONTINUOUS
 10
19.6205625676
 20
20.9642812681
 11
19.633720291
 21
20.9699226156
  0
LINE
  5
2D7
100
AcDbEntity
  8
218_STAMPATO
100
AcDbLine
 62
250
  6
CONTINUOUS
 10
19.633720291
 20
20.9699226156
 11
19.6464036959
 21
20.9752558293
  0
LWPOLYLINE
  5
2D8
100
AcDbEntity
  8
RACCORDO
100
AcDbPolyline
 62
250
  6
CONTINUOUS
 90
22
 70
0
 10
-1.3905488
 20
13.0440586298
 10
-1.466084206
 20
13.012474041
 10
-1.5417391546
 20
12.9743169324
 10
-1.6171378758
 20
12.9297810378
 10
-1.6919054674
 20
12.8790957511
 10
-1.765671307
 20
12.8225140667
 10
-1.8380703857
 20
12.7603087174
 10
-1.9087515488
 20
12.6927821591
 10
-1.9773539268
 20
12.6202805114
 10
-2.043511757
 20
12.5431831876
 10
-2.1068845105
 20
12.4618966426
 10
-2.167173344
 20
12.3768157169
 10
-2.2240941962
 20
12.2883329555
 10
-2.2773730373
 20
12.1968701668
 10
-2.3267307574
 20
12.1029036216
 10
-2.3719022986
 20
12.006928184
 10
-2.4126577695
 20
11.909440274
 10
-2.4488035995
 20
11.8109148091
 10
-2.4801630539
 20
11.7118268163
 10
-2.5065792851
 20
11.6126663765
 10
-2.5279188176
 20
11.5139365911
 10
-2.5440741668
 20
11.4161322337
  0
LWPOLYLINE
  5
2D9
100
AcDbEntity
  8
ASSI
100
AcDbPolyline
 62
250
  6
CONTINUOUS
 90
22
 70
0
 10
-1.3905488
 20
13.0440586298
 10
-1.466084206
 20
13.012474041
 10
-1.5417391546
 20
12.9743169324
 10
-1.6171378758
 20
12.9297810378
 10
-1.6919054674
 20
12.8790957511
 10
-1.765671307
 20
12.8225140667
 10
-1.8380703857
 20
12.7603087174
 10
-1.9087515488
 20
12.6927821591
 10
-1.9773539268
 20
12.6202805114
 10
-2.043511757
 20
12.5431831876
 10
-2.1068845105
 20
12.4618966426
 10
-2.167173344
 20
12.3768157169
 10
-2.2240941962
 20
12.2883329555
 10
-2.2773730373
 20
12.1968701668
 10
-2.3267307574
 20
12.1029036216
 10
-2.3719022986
 20
12.006928184
 10
-2.4126577695
 20
11.909440274
 10
-2.4488035995
 20
11.8109148091
 10
-2.4801630539
 20
11.7118268163
 10
-2.5065792851
 20
11.6126663765
 10
-2.5279188176
 20
11.5139365911
 10
-2.5440741668
 20
11.4161322337
  0
LWPOLYLINE
  5
2DA
100
AcDbEntity
  8
RACCORDO
100
AcDbPolyline
 62
250
  6
CONTINUOUS
 90
22
 70
0
 10
-0.8889771865
 20
12.0409832358
 10
-0.9246710755
 20
12.0263348593
 10
-0.9601194284
 20
12.0087960887
 10
-0.9953222451
 20
11.9883669241
 10
-1.0304679754
 20
11.9649118739
 10
-1.0653681696
 20
11.9385664297
 10
-1.0994574785
 20
11.909737066
 10
-1.1327115167
 20
11.8783887927
 10
-1.1651546695
 20
11.8445565998
 10
-1.1962947435
 20
11.8087519315
 10
-1.2261071536
 20
11.7709512934
 10
-1.254616485
 20
11.7311781798
 10
-1.2814042988
 20
11.6900145178
 10
-1.3064501576
 20
11.6474297619
 10
-1.3297744989
 20
11.6034544576
 10
-1.351020197
 20
11.5587621684
 10
-1.3701542295
 20
11.5133313446
 10
-1.3872096188
 20
11.4671835358
 10
-1.4019283063
 20
11.4210569546
 10
-1.4142242725
 20
11.3751976717
 10
-1.4241835368
 20
11.3293596163
 10
-1.4318060993
 20
11.2835427884
  0
LWPOLYLINE
  5
2DB
100
AcDbEntity
  8
ASSI
100
AcDbPolyline
 62
250
  6
CONTINUOUS
 90
22
 70
0
 10
-0.8889771865
 20
12.0409832358
 10
-0.9246710755
 20
12.0263348593
 10
-0.9601194284
 20
12.0087960887
 10
-0.9953222451
 20
11.9883669241
 10
-1.0304679754
 20
11.9649118739
 10
-1.0653681696
 20
11.9385664297
 10
-1.0994574785
 20
11.909737066
 10
-1.1327115167
 20
11.8783887927
 10
-1.1651546695
 20
11.8445565998
 10
-1.1962947435
 20
11.8087519315
 10
-1.2261071536
 20
11.7709512934
 10
-1.254616485
 20
11.7311781798
 10
-1.2814042988
 20
11.6900145178
 10
-1.3064501576
 20
11.6474297619
 10
-1.3297744989
 20
11.6034544576
 10
-1.351020197
 20
11.5587621684
 10
-1.3701542295
 20
11.5133313446
 10
-1.3872096188
 20
11.4671835358
 10
-1.4019283063
 20
11.4210569546
 10
-1.4142242725
 20
11.3751976717
 10
-1.4241835368
 20
11.3293596163
 10
-1.4318060993
 20
11.2835427884
  0
LINE
  5
2DC
100
AcDbEntity
  8
218_STAMPATO
100
AcDbLine
 62
250
  6
CONTINUOUS
 10
19.6464036959
 20
20.9752558293
 11
19.6586042818
 21
20.9802773349
  0
LWPOLYLINE
  5
2DD
100
AcDbEntity
  8
218_STAMPATO
100
AcDbPolyline
 62
250
  6
CONTINUOUS
 90
40
 70
0
 10
19.6586042818
 20
20.9802773349
 10
19.6703138719
 20
20.984983767
 10
19.6759820779
 20
20.9872178364
 10
19.6815246181
 20
20.9893719712
 10
19.6869405637
 20
20.9914458105
 10
19.6922290072
 20
20.9934390066
 10
19.6973890624
 20
20.9953512258
 10
19.7024198648
 20
20.9971821475
 10
19.7073205715
 20
20.9989314649
 10
19.7120903612
 20
21.0005988851
 10
19.7167284347
 20
21.0021841284
 10
19.7212340149
 20
21.0036869295
 10
19.7256063469
 20
21.0051070364
 10
19.729844698
 20
21.0064442111
 10
19.733948358
 20
21.0076982297
 10
19.7379166394
 20
21.008868882
 10
19.7417488773
 20
21.0099559719
 10
19.7454444294
 20
21.0109593171
 10
19.7490026766
 20
21.0118787497
 10
19.7524230227
 20
21.0127141155
 10
19.7557048946
 20
21.0134652745
 10
19.7588477423
 20
21.014132101
 10
19.7618510393
 20
21.0147144831
 10
19.7647142823
 20
21.0152123233
 10
19.7674369915
 20
21.0156255381
 10
19.7700187108
 20
21.0159540584
 10
19.7724590076
 20
21.0161978291
 10
19.7747574729
 20
21.0163568092
 10
19.7769137217
 20
21.0164309723
 10
19.7789273926
 20
21.0164203059
 10
19.7807981483
 20
21.0163248117
 10
19.7825256752
 20
21.0161445057
 10
19.7841096839
 20
21.0158794182
 10
19.7855499091
 20
21.0155295936
 10
19.7868461093
 20
21.0150950905
 10
19.7879980674
 20
21.0145759817
 10
19.7890055904
 20
21.0139723542
 10
19.7898685094
 20
21.0132843092
 10
19.7905866798
 20
21.0125119618
 10
19.7911070968
 20
21.0117484616
  0
LINE
  5
2DE
100
AcDbEntity
  8
RACCORDO
100
AcDbLine
 62
250
  6
CONTINUOUS
 10
2.6579429824
 20
14.5293349435
 11
-1.3905488
 21
13.0440586298
  0
LINE
  5
2DF
100
AcDbEntity
  8
ASSI
100
AcDbLine
 62
250
  6
CONTINUOUS
 10
2.6579429824
 20
14.5293349435
 11
-1.3905488
 21
13.0440586298
  0
LINE
  5
2E0
100
AcDbEntity
  8
RACCORDO
100
AcDbLine
 62
250
  6
CONTINUOUS
 10
3.1595145958
 20
13.5262595495
 11
-0.8889771865
 21
12.0409832358
  0
LINE
  5
2E1
100
AcDbEntity
  8
ASSI
100
AcDbLine
 62
250
  6
CONTINUOUS
 10
3.1595145958
 20
13.5262595495
 11
-0.8889771865
 21
12.0409832358
  0
LINE
  5
2E2
100
AcDbEntity
  8
268
100
AcDbLine
 62
7
  6
CONTINUOUS
 10
2.7753673693
 20
14.5291019113
 11
3.5885401676
 21
14.8134035793
  0
LWPOLYLINE
  5
2E3
100
AcDbEntity
  8
RACCORDO
100
AcDbPolyline
 62
7
  6
CONTINUOUS
 90
3
 70
0
 10
-12.8673825316
 20
-13.8500504366
 10
-12.8134940067
 20
-13.8394913039
 10
-12.7576249519
 20
-13.8351757003
  0
LWPOLYLINE
  5
2E4
100
AcDbEntity
  8
ASSI
100
AcDbPolyline
 62
250
  6
CONTINUOUS
 90
5
 70
0
 10
-12.9082534452
 20
-13.770831199
 10
-12.8390649677
 20
-13.7643981391
 10
-12.7674773892
 20
-13.765969661
 10
-12.6949603711
 20
-13.7754978102
 10
-12.622004843
 20
-13.792967028
  0
LINE
  5
2E5
100
AcDbEntity
  8
268
100
AcDbLine
 62
7
  6
CONTINUOUS
 10
-10.276923484
 20
22.0974277469
 11
-10.276923484
 21
22.7345973056
  0
LINE
  5
2E6
100
AcDbEntity
  8
268
100
AcDbLine
 62
7
  6
CONTINUOUS
 10
-9.2100925718
 20
22.6360089964
 11
-9.2100925718
 21
24.368059804
  0
LINE
  5
2E7
100
AcDbEntity
  8
268
100
AcDbLine
 62
7
  6
CONTINUOUS
 10
-8.5070996176
 20
24.5033813017
 11
-8.5070996176
 21
24.2424523254
  0
LWPOLYLINE
  5
2E8
100
AcDbEntity
  8
RACCORDO
100
AcDbPolyline
 62
250
  6
CONTINUOUS
 90
6
 70
0
 10
-11.6238620485
 20
-15.5144365117
 10
-11.6348599595
 20
-15.6042904262
 10
-11.6518075008
 20
-15.6902013031
 10
-11.674589934
 20
-15.7722491777
 10
-11.7027669446
 20
-15.8488496121
 10
-11.7364504589
 20
-15.9198992269
  0
LINE
  5
2E9
100
AcDbEntity
  8
218_STAMPATO
100
AcDbLine
 62
250
  6
CONTINUOUS
 10
19.4382638494
 20
20.8786501018
 11
5.2502411034
 21
13.6604539829
  0
LINE
  5
2EA
100
AcDbEntity
  8
218_STAMPATO
100
AcDbLine
 62
250
  6
CONTINUOUS
 10
19.4382638494
 20
20.8786501018
 11
19.4561677907
 21
20.8875136548
  0
LINE
  5
2EB
100
AcDbEntity
  8
218_STAMPATO
100
AcDbLine
 62
250
  6
CONTINUOUS
 10
19.4561677907
 20
20.8875136548
 11
19.4737164102
 21
20.8961243049
  0
LINE
  5
2EC
100
AcDbEntity
  8
218_STAMPATO
100
AcDbLine
 62
250
  6
CONTINUOUS
 10
19.4737164102
 20
20.8961243049
 11
19.4908979467
 21
20.9044762813
  0
LINE
  5
2ED
100
AcDbEntity
  8
218_STAMPATO
100
AcDbLine
 62
250
  6
CONTINUOUS
 10
19.4908979467
 20
20.9044762813
 11
19.507700885
 21
20.9125639865
  0
LWPOLYLINE
  5
2EE
100
AcDbEntity
  8
218_STAMPATO
100
AcDbPolyline
 62
250
  6
CONTINUOUS
 90
3
 70
0
 10
19.507700885
 20
20.9125639865
 10
19.5241139637
 20
20.9203819999
 10
19.5321708577
 20
20.9241882277
  0
LINE
  5
2EF
100
AcDbEntity
  8
ASSI
100
AcDbLine
 62
7
  6
CONTINUOUS
 10
-12.9125087436
 20
-13.8642735699
 11
-12.8179247851
 21
-13.8401134735
  0
LINE
  5
2F0
100
AcDbEntity
  8
268
100
AcDbLine
 62
7
  6
CONTINUOUS
 10
-7.0323355688
 20
22.1099956379
 11
-7.0323355688
 21
20.8952621376
  0
LINE
  5
2F1
100
AcDbEntity
  8
268
100
AcDbLine
 62
250
  6
CONTINUOUS
 10
-6.9444676032
 20
22.0034869078
 11
-6.9444676032
 21
20.7885320417
  0
LINE
  5
2F2
100
AcDbEntity
  8
268
100
AcDbLine
 62
7
  6
CONTINUOUS
 10
-6.7705741767
 20
19.3020726844
 11
-6.7705741767
 21
19.2435935231
  0
LWPOLYLINE
  5
2F3
100
AcDbEntity
  8
ASSI
100
AcDbPolyline
 62
250
  6
CONTINUOUS
 90
3
 70
0
 10
-11.6348599595
 20
-15.6042904262
 10
-11.6518075008
 20
-15.6902013031
 10
-11.674589934
 20
-15.7722491777
  0
LINE
  5
2F4
100
AcDbEntity
  8
268
100
AcDbLine
 62
7
  6
CONTINUOUS
 10
4.7693444276
 20
17.3283419551
 11
4.2420997119
 21
16.6866342271
  0
LWPOLYLINE
  5
2F5
100
AcDbEntity
  8
218_STAMPATO
100
AcDbPolyline
 62
250
  6
CONTINUOUS
 90
60
 70
0
 10
19.852414325
 20
19.4470165272
 10
19.861345831
 20
19.4517012522
 10
19.8701553091
 20
19.4564433902
 10
19.878841283
 20
19.4612421466
 10
19.8874022975
 20
19.4660967173
 10
19.8958369181
 20
19.4710062889
 10
19.9041437313
 20
19.4759700387
 10
19.9123213455
 20
19.480987135
 10
19.9203683904
 20
19.4860567371
 10
19.9282835175
 20
19.4911779957
 10
19.9360654007
 20
19.4963500526
 10
19.943712736
 20
19.5015720411
 10
19.9512242421
 20
19.5068430864
 10
19.9585986603
 20
19.5121623051
 10
19.9658347551
 20
19.517528806
 10
19.9729313138
 20
19.5229416899
 10
19.9798871475
 20
19.5284000498
 10
19.9867010907
 20
19.5339029712
 10
19.9933720015
 20
19.5394495319
 10
19.9998987623
 20
19.5450388026
 10
20.0062802794
 20
19.5506698468
 10
20.0125154836
 20
19.556341721
 10
20.01860333
 20
19.5620534746
 10
20.0245427987
 20
19.5678041509
 10
20.0303328943
 20
19.573592786
 10
20.0359726468
 20
19.5794184102
 10
20.0414611112
 20
19.5852800472
 10
20.0467973677
 20
19.5911767149
 10
20.0519805223
 20
19.5971074253
 10
20.0570097065
 20
19.6030711847
 10
20.0618840775
 20
19.6090669936
 10
20.0666028188
 20
19.6150938476
 10
20.0711651395
 20
19.6211507368
 10
20.0755702753
 20
19.6272366462
 10
20.079817488
 20
19.6333505562
 10
20.083906066
 20
19.6394914422
 10
20.0878353242
 20
19.6456582754
 10
20.0916046042
 20
19.6518500224
 10
20.0952132744
 20
19.6580656457
 10
20.0986607302
 20
19.6643041039
 10
20.1019463939
 20
19.6705643517
 10
20.105069715
 20
19.6768453401
 10
20.1080301702
 20
19.6831460167
 10
20.1108272633
 20
19.6894653257
 10
20.1134605258
 20
19.6958022083
 10
20.1159295163
 20
19.7021556026
 10
20.1182338213
 20
19.7085244442
 10
20.1203730545
 20
19.7149076659
 10
20.1223468576
 20
19.7213041981
 10
20.1241548998
 20
19.727712969
 10
20.1257968782
 20
19.7341329048
 10
20.1272725176
 20
19.7405629298
 10
20.1285815708
 20
19.7470019665
 10
20.1297238184
 20
19.753448936
 10
20.1306990691
 20
19.7599027582
 10
20.1315071594
 20
19.7663623515
 10
20.1321479539
 20
19.7728266337
 10
20.1326213453
 20
19.7792945217
 10
20.1329272542
 20
19.7857649315
 10
20.1330656294
 20
19.7922367791
  0
LINE
  5
2F6
100
AcDbEntity
  8
218_STAMPATO
100
AcDbLine
 62
250
  6
CONTINUOUS
 10
19.852414325
 20
19.4470165272
 11
5.2502411034
 21
12.0181201994
  0
LWPOLYLINE
  5
2F7
100
AcDbEntity
  8
RACCORDO
100
AcDbPolyline
 62
250
  6
CONTINUOUS
 90
22
 70
0
 10
-4.649461018
 20
-24.9132981837
 10
-4.6497614559
 20
-24.9565509195
 10
-4.6475823317
 20
-24.9981667693
 10
-4.6429236455
 20
-25.0381457332
 10
-4.6357388518
 20
-25.0766901244
 10
-4.626074496
 20
-25.1135976298
 10
-4.6140702141
 20
-25.1482613093
 10
-4.5996885215
 20
-25.1806315049
 10
-4.5829669028
 20
-25.2107578747
 10
-4.5641574478
 20
-25.2381824535
 10
-4.543232127
 20
-25.2628604109
 10
-4.5202189698
 20
-25.2848365774
 10
-4.4954541543
 20
-25.3037874791
 10
-4.4689052559
 20
-25.3196709209
 10
-4.4406046991
 20
-25.332529098
 10
-4.410985935
 20
-25.3421651215
 10
-4.3800195711
 20
-25.348523253
 10
-4.347735
 20
-25.351659231
 10
-4.3146538509
 20
-25.3515433814
 10
-4.2809500003
 20
-25.3481658129
 10
-4.2464495718
 20
-25.341536417
 10
-4.2111525652
 20
-25.3316551935
  0
LWPOLYLINE
  5
2F8
100
AcDbEntity
  8
ASSI
100
AcDbPolyline
 62
250
  6
CONTINUOUS
 90
22
 70
0
 10
-4.649461018
 20
-24.9132981837
 10
-4.6497614559
 20
-24.9565509195
 10
-4.6475823317
 20
-24.9981667693
 10
-4.6429236455
 20
-25.0381457332
 10
-4.6357388518
 20
-25.0766901244
 10
-4.626074496
 20
-25.1135976298
 10
-4.6140702141
 20
-25.1482613093
 10
-4.5996885215
 20
-25.1806315049
 10
-4.5829669028
 20
-25.2107578747
 10
-4.5641574478
 20
-25.2381824535
 10
-4.543232127
 20
-25.2628604109
 10
-4.5202189698
 20
-25.2848365774
 10
-4.4954541543
 20
-25.3037874791
 10
-4.4689052559
 20
-25.3196709209
 10
-4.4406046991
 20
-25.332529098
 10
-4.410985935
 20
-25.3421651215
 10
-4.3800195711
 20
-25.348523253
 10
-4.347735
 20
-25.351659231
 10
-4.3146538509
 20
-25.3515433814
 10
-4.2809500003
 20
-25.3481658129
 10
-4.2464495718
 20
-25.341536417
 10
-4.2111525652
 20
-25.3316551935
  0
LWPOLYLINE
  5
2F9
100
AcDbEntity
  8
RACCORDO
100
AcDbPolyline
 62
250
  6
CONTINUOUS
 90
15
 70
0
 10
-5.7703324409
 20
-24.8774917357
 10
-5.7710816269
 20
-24.9698477103
 10
-5.766480357
 20
-25.0594049759
 10
-5.756552041
 20
-25.1457159224
 10
-5.7413462124
 20
-25.2283463497
 10
-5.7209397149
 20
-25.3068872195
 10
-5.6954340061
 20
-25.3809547703
 10
-5.6649493734
 20
-25.4501867648
 10
-5.6296393621
 20
-25.5142259189
 10
-5.5896938365
 20
-25.5727344336
 10
-5.5453223577
 20
-25.6254133196
 10
-5.4967397957
 20
-25.6720155635
 10
-5.4441757725
 20
-25.7123226679
 10
-5.3878758108
 20
-25.7461373088
 10
-5.3784825761
 20
-25.7509613777
  0
LWPOLYLINE
  5
2FA
100
AcDbEntity
  8
ASSI
100
AcDbPolyline
 62
250
  6
CONTINUOUS
 90
15
 70
0
 10
-5.7703324409
 20
-24.8774917357
 10
-5.7710816269
 20
-24.9698477103
 10
-5.766480357
 20
-25.0594049759
 10
-5.756552041
 20
-25.1457159224
 10
-5.7413462124
 20
-25.2283463497
 10
-5.7209397149
 20
-25.3068872195
 10
-5.6954340061
 20
-25.3809547703
 10
-5.6649493734
 20
-25.4501867648
 10
-5.6296393621
 20
-25.5142259189
 10
-5.5896938365
 20
-25.5727344336
 10
-5.5453223577
 20
-25.6254133196
 10
-5.4967397957
 20
-25.6720155635
 10
-5.4441757725
 20
-25.7123226679
 10
-5.3878758108
 20
-25.7461373088
 10
-5.3819176427
 20
-25.749222597
  0
LWPOLYLINE
  5
2FB
100
AcDbEntity
  8
RACCORDO
100
AcDbPolyline
 62
250
  6
CONTINUOUS
 90
6
 70
0
 10
-4.8972095974
 20
-9.9201455184
 10
-5.1258465396
 20
-12.9324926186
 10
-5.3275010646
 20
-15.9347769304
 10
-5.5021477991
 20
-18.926621634
 10
-5.6497645229
 20
-21.9076512644
 10
-5.7703324409
 20
-24.8774917357
  0
LWPOLYLINE
  5
2FC
100
AcDbEntity
  8
ASSI
100
AcDbPolyline
 62
250
  6
CONTINUOUS
 90
6
 70
0
 10
-4.8972095974
 20
-9.9201455184
 10
-5.1258465396
 20
-12.9324926186
 10
-5.3275010646
 20
-15.9347769304
 10
-5.5021477991
 20
-18.926621634
 10
-5.6497645229
 20
-21.9076512644
 10
-5.7703324409
 20
-24.8774917357
  0
LWPOLYLINE
  5
2FD
100
AcDbEntity
  8
ASSI
100
AcDbPolyline
 62
250
  6
CONTINUOUS
 90
3
 70
0
 10
-11.674589934
 20
-15.7722491777
 10
-11.7027669446
 20
-15.8488496121
 10
-11.7364504589
 20
-15.9198992269
  0
LINE
  5
2FE
100
AcDbEntity
  8
0
100
AcDbLine
 62
7
  6
CONTINUOUS
 10
-12.4889230939
 20
-13.8944806742
 11
-12.5087553981
 21
-13.9345789663
  0
LINE
  5
2FF
100
AcDbEntity
  8
ASSI
100
AcDbLine
 62
7
  6
CONTINUOUS
 10
-12.4889230939
 20
-13.8944806742
 11
-12.5087553981
 21
-13.9345789663
  0
LINE
  5
300
100
AcDbEntity
  8
RACCORDO
100
AcDbLine
 62
250
  6
CONTINUOUS
 10
-4.6416187581
 20
-6.8981137563
 11
-4.8972095974
 21
-9.9201455184
  0
LINE
  5
301
100
AcDbEntity
  8
ASSI
100
AcDbLine
 62
250
  6
CONTINUOUS
 10
-4.6416187581
 20
-6.8981137563
 11
-4.8972095974
 21
-9.9201455184
  0
LWPOLYLINE
  5
302
100
AcDbEntity
  8
RACCORDO
100
AcDbPolyline
 62
250
  6
CONTINUOUS
 90
7
 70
0
 10
-3.5237802055
 20
-6.9818622285
 10
-3.7786743845
 20
-9.9957175527
 10
-4.0067194048
 20
-13.0002937287
 10
-4.2078291864
 20
-15.9944535958
 10
-4.3819750357
 20
-18.9778181006
 10
-4.5291856462
 20
-21.9507662966
 10
-4.649461018
 20
-24.9132981837
  0
LWPOLYLINE
  5
303
100
AcDbEntity
  8
ASSI
100
AcDbPolyline
 62
250
  6
CONTINUOUS
 90
7
 70
0
 10
-3.5237802055
 20
-6.9818622285
 10
-3.7786743845
 20
-9.9957175527
 10
-4.0067194048
 20
-13.0002937287
 10
-4.2078291864
 20
-15.9944535958
 10
-4.3819750357
 20
-18.9778181006
 10
-4.5291856462
 20
-21.9507662966
 10
-4.649461018
 20
-24.9132981837
  0
LINE
  5
304
100
AcDbEntity
  8
RACCORDO
100
AcDbLine
 62
250
  6
CONTINUOUS
 10
-4.3591059614
 20
-3.8667767673
 11
-4.6416187581
 21
-6.8981137563
  0
LINE
  5
305
100
AcDbEntity
  8
ASSI
100
AcDbLine
 62
250
  6
CONTINUOUS
 10
-4.3591059614
 20
-3.8667767673
 11
-4.6416187581
 21
-6.8981137563
  0
LWPOLYLINE
  5
306
100
AcDbEntity
  8
RACCORDO
100
AcDbPolyline
 62
250
  6
CONTINUOUS
 90
3
 70
0
 10
-3.7134603263
 20
2.2222900624
 10
-4.049706817
 20
-0.8265150097
 10
-4.3591059614
 20
-3.8667767673
  0
LWPOLYLINE
  5
307
100
AcDbEntity
  8
ASSI
100
AcDbPolyline
 62
250
  6
CONTINUOUS
 90
3
 70
0
 10
-3.7134603263
 20
2.2222900624
 10
-4.049706817
 20
-0.8265150097
 10
-4.3591059614
 20
-3.8667767673
  0
LWPOLYLINE
  5
308
100
AcDbEntity
  8
ASSI
100
AcDbPolyline
 62
250
  6
CONTINUOUS
 90
4
 70
0
 10
-2.5980887964
 20
2.1142414738
 10
-2.9334238959
 20
-0.9263081884
 10
-3.24202663
 20
-3.9587247826
 10
-3.5237802055
 20
-6.9818622285
  0
LWPOLYLINE
  5
309
100
AcDbEntity
  8
RACCORDO
100
AcDbPolyline
 62
250
  6
CONTINUOUS
 90
4
 70
0
 10
-2.5440741668
 20
11.4161322337
 10
-2.9605970241
 20
8.3439980757
 10
-3.3504086337
 20
5.2792557339
 10
-3.7134603263
 20
2.2222900624
  0
LWPOLYLINE
  5
30A
100
AcDbEntity
  8
ASSI
100
AcDbPolyline
 62
250
  6
CONTINUOUS
 90
4
 70
0
 10
-2.5440741668
 20
11.4161322337
 10
-2.9605970241
 20
8.3439980757
 10
-3.3504086337
 20
5.2792557339
 10
-3.7134603263
 20
2.2222900624
  0
LWPOLYLINE
  5
30B
100
AcDbEntity
  8
RACCORDO
100
AcDbPolyline
 62
250
  6
CONTINUOUS
 90
7
 70
0
 10
-1.4318060993
 20
11.2835427884
 10
-1.8472993637
 20
8.2189759489
 10
-2.2360602627
 20
5.1625421773
 10
-2.5980887964
 20
2.1142414738
 10
-2.9334238959
 20
-0.9263081884
 10
-3.24202663
 20
-3.9587247826
 10
-3.5237802055
 20
-6.9818622285
  0
LWPOLYLINE
  5
30C
100
AcDbEntity
  8
ASSI
100
AcDbPolyline
 62
250
  6
CONTINUOUS
 90
4
 70
0
 10
-1.4318060993
 20
11.2835427884
 10
-1.8472993637
 20
8.2189759489
 10
-2.2360602627
 20
5.1625421773
 10
-2.5980887964
 20
2.1142414738
  0
LWPOLYLINE
  5
30D
100
AcDbEntity
  8
RACCORDO
100
AcDbPolyline
 62
7
  6
CONTINUOUS
 90
6
 70
0
 10
-11.7406536832
 20
-15.8169399986
 10
-11.776180402
 20
-15.8820487263
 10
-11.8166075454
 20
-15.9399434996
 10
-11.8616036802
 20
-15.990286488
 10
-11.91067089
 20
-16.0327167099
 10
-11.9635105139
 20
-16.0671643724
  0
LWPOLYLINE
  5
30E
100
AcDbEntity
  8
RACCORDO
100
AcDbPolyline
 62
250
  6
CONTINUOUS
 90
3
 70
0
 10
-11.7364504589
 20
-15.9198992269
 10
-11.775532702
 20
-15.9855031099
 10
-11.8192463292
 20
-16.0443905751
  0
LWPOLYLINE
  5
30F
100
AcDbEntity
  8
ASSI
100
AcDbPolyline
 62
250
  6
CONTINUOUS
 90
3
 70
0
 10
-11.7364504589
 20
-15.9198992269
 10
-11.775532702
 20
-15.9855031099
 10
-11.8192463292
 20
-16.0443905751
  0
LINE
  5
310
100
AcDbEntity
  8
268
100
AcDbLine
 62
7
  6
CONTINUOUS
 10
1.5287120838
 20
-4.8193681447
 11
1.8561285537
 21
-4.9830763797
  0
LWPOLYLINE
  5
311
100
AcDbEntity
  8
268
100
AcDbPolyline
 62
7
  6
CONTINUOUS
 90
13
 70
0
 10
10.0232600632
 20
-17.412813262
 10
10.0203688982
 20
-17.408920071
 10
10.016680134
 20
-17.4045377308
 10
10.0122201701
 20
-17.399780438
 10
10.0070273118
 20
-17.3946405834
 10
10.0011446546
 20
-17.3890932246
 10
9.9945841204
 20
-17.383225626
 10
9.9873772173
 20
-17.3770283181
 10
9.9795600716
 20
-17.3704831934
 10
9.9711361322
 20
-17.3636623173
 10
9.9621232408
 20
-17.3565802925
 10
9.9525613954
 20
-17.3491966492
 10
9.9424816383
 20
-17.3415000946
  0
LINE
  5
312
100
AcDbEntity
  8
268
100
AcDbLine
 62
7
  6
CONTINUOUS
 10
0.8936053864
 20
-11.9639677694
 11
1.5829151513
 21
-18.3888719186
  0
LINE
  5
313
100
AcDbEntity
  8
268
100
AcDbLine
 62
7
  6
CONTINUOUS
 10
-1.8208267084
 20
16.8271989502
 11
-1.8208267084
 21
16.7687197889
  0
LINE
  5
314
100
AcDbEntity
  8
268
100
AcDbLine
 62
250
  6
CONTINUOUS
 10
-1.1519585351
 20
17.8922775077
 11
-1.1519585351
 21
19.1072323737
  0
LINE
  5
315
100
AcDbEntity
  8
268
100
AcDbLine
 62
7
  6
CONTINUOUS
 10
-0.7955218757
 20
22.1462658423
 11
-0.7955218757
 21
23.3955222014
  0
LINE
  5
316
100
AcDbEntity
  8
268
100
AcDbLine
 62
250
  6
CONTINUOUS
 10
-0.7289321836
 20
17.8939163552
 11
-0.7289321836
 21
19.108119828
  0
LINE
  5
317
100
AcDbEntity
  8
268
100
AcDbLine
 62
7
  6
CONTINUOUS
 10
-0.4419684851
 20
22.6661873168
 11
-0.4419684851
 21
23.2187455061
  0
LINE
  5
318
100
AcDbEntity
  8
268
100
AcDbLine
 62
250
  6
CONTINUOUS
 10
-0.371257807
 20
24.8349538036
 11
-0.371257807
 21
23.6031196222
  0
LINE
  5
319
100
AcDbEntity
  8
268
100
AcDbLine
 62
7
  6
CONTINUOUS
 10
-0.2833898414
 20
24.9399510172
 11
-0.2833898414
 21
23.7075824114
  0
LINE
  5
31A
100
AcDbEntity
  8
268
100
AcDbLine
 62
7
  6
CONTINUOUS
 10
-0.2298364508
 20
19.3583165011
 11
-0.2298364508
 21
18.1458809358
  0
LWPOLYLINE
  5
31B
100
AcDbEntity
  8
RACCORDO
100
AcDbPolyline
 62
250
  6
CONTINUOUS
 90
16
 70
0
 10
-0.8889771865
 20
12.0409832358
 10
-0.8863720859
 20
12.1174647281
 10
-0.8898823881
 20
12.1962446193
 10
-0.8994696805
 20
12.2764601404
 10
-0.9150289963
 20
12.3572327948
 10
-0.9363899625
 20
12.4376779712
 10
-0.9633186624
 20
12.5169146319
 10
-0.9955202033
 20
12.5940749801
 10
-1.0326419387
 20
12.6683139434
 10
-1.0742773234
 20
12.738818424
 10
-1.1199703854
 20
12.8048162421
 10
-1.169220706
 20
12.865584564
 10
-1.2214888844
 20
12.9204578077
 10
-1.2762024752
 20
12.9688349727
 10
-1.3327622617
 20
13.0101862154
 10
-1.3905487981
 20
13.0440586305
  0
LWPOLYLINE
  5
31C
100
AcDbEntity
  8
ASSI
100
AcDbPolyline
 62
250
  6
CONTINUOUS
 90
16
 70
0
 10
-0.8889771865
 20
12.0409832358
 10
-0.8863720859
 20
12.1174647281
 10
-0.8898823881
 20
12.1962446193
 10
-0.8994696805
 20
12.2764601404
 10
-0.9150289963
 20
12.3572327948
 10
-0.9363899625
 20
12.4376779712
 10
-0.9633186624
 20
12.5169146319
 10
-0.9955202033
 20
12.5940749801
 10
-1.0326419387
 20
12.6683139434
 10
-1.0742773234
 20
12.738818424
 10
-1.1199703854
 20
12.8048162421
 10
-1.169220706
 20
12.865584564
 10
-1.2214888844
 20
12.9204578077
 10
-1.2762024752
 20
12.9688349727
 10
-1.3327622617
 20
13.0101862154
 10
-1.3905487981
 20
13.0440586305
  0
LWPOLYLINE
  5
31D
100
AcDbEntity
  8
RACCORDO
100
AcDbPolyline
 62
250
  6
CONTINUOUS
 90
11
 70
0
 10
-4.2111525652
 20
-25.3316551935
 10
-4.2219303069
 20
-25.4057224048
 10
-4.2386770052
 20
-25.4758424994
 10
-4.261209251
 20
-25.5412475246
 10
-4.2892802719
 20
-25.6012211667
 10
-4.3225826351
 20
-25.6551065965
 10
-4.3607516142
 20
-25.7023136628
 10
-4.4033691839
 20
-25.7423253555
 10
-4.4499685982
 20
-25.7747034678
 10
-4.5000395019
 20
-25.7990933958
 10
-4.5201901402
 20
-25.8063146383
  0
LWPOLYLINE
  5
31E
100
AcDbEntity
  8
ASSI
100
AcDbPolyline
 62
250
  6
CONTINUOUS
 90
11
 70
0
 10
-4.2111525652
 20
-25.3316551935
 10
-4.2219303069
 20
-25.4057224048
 10
-4.2386770052
 20
-25.4758424994
 10
-4.261209251
 20
-25.5412475246
 10
-4.2892802719
 20
-25.6012211667
 10
-4.3225826351
 20
-25.6551065965
 10
-4.3607516142
 20
-25.7023136628
 10
-4.4033691839
 20
-25.7423253555
 10
-4.4499685982
 20
-25.7747034678
 10
-4.5000395019
 20
-25.7990933958
 10
-4.5201901402
 20
-25.8063146383
  0
LWPOLYLINE
  5
31F
100
AcDbEntity
  8
ASSI
100
AcDbPolyline
 62
250
  6
CONTINUOUS
 90
5
 70
0
 10
-13.1349386706
 20
-14.0250112919
 10
-13.0900959028
 20
-13.9768085311
 10
-13.0412389055
 20
-13.9351238126
 10
-12.9886571785
 20
-13.9002101409
 10
-12.9327064708
 20
-13.8722988518
  0
LINE
  5
320
100
AcDbEntity
  8
268
100
AcDbLine
 62
7
  6
CONTINUOUS
 10
1.241577909
 20
-8.0494690491
 11
1.2827721427
 21
-8.4365754932
  0
LINE
  5
321
100
AcDbEntity
  8
268
100
AcDbLine
 62
7
  6
CONTINUOUS
 10
1.8561285537
 20
-4.9830763797
 11
3.5885401676
 21
-21.3972372872
  0
LINE
  5
322
100
AcDbEntity
  8
268
100
AcDbLine
 62
7
  6
CONTINUOUS
 10
0.7703976102
 20
-24.4241455558
 11
0.7703976102
 21
-24.170774162
  0
LINE
  5
323
100
AcDbEntity
  8
268
100
AcDbLine
 62
7
  6
CONTINUOUS
 10
0.7703976102
 20
17.1288299773
 11
0.7703976102
 21
17.3822013711
  0
LINE
  5
324
100
AcDbEntity
  8
268
100
AcDbLine
 62
7
  6
CONTINUOUS
 10
1.4733905645
 20
16.2222707227
 11
1.4733905645
 21
16.6746016983
  0
LINE
  5
325
100
AcDbEntity
  8
268
100
AcDbLine
 62
7
  6
CONTINUOUS
 10
2.3157479615
 20
23.7096280501
 11
2.3157479615
 21
23.4388277575
  0
LINE
  5
326
100
AcDbEntity
  8
268
100
AcDbLine
 62
7
  6
CONTINUOUS
 10
2.3761740724
 20
16.57931314
 11
2.3761740724
 21
16.3259417462
  0
LINE
  5
327
100
AcDbEntity
  8
268
100
AcDbLine
 62
7
  6
CONTINUOUS
 10
2.3761740724
 20
-24.9736623931
 11
2.3761740724
 21
-25.2270337869
  0
LINE
  5
328
100
AcDbEntity
  8
RACCORDO
100
AcDbLine
 62
7
  6
CONTINUOUS
 10
-0.1784548071
 20
-24.0240529299
 11
3.1595145958
 21
13.5262595495
  0
LINE
  5
329
100
AcDbEntity
  8
ASSI
100
AcDbLine
 62
7
  6
CONTINUOUS
 10
-0.1784548071
 20
-24.0240529299
 11
3.1595145958
 21
13.5262595495
  0
LINE
  5
32A
100
AcDbEntity
  8
268
100
AcDbLine
 62
7
  6
CONTINUOUS
 10
3.5885401676
 20
13.1634961417
 11
1.8561285537
 21
-4.9830763797
  0
LWPOLYLINE
  5
32B
100
AcDbEntity
  8
RACCORDO
100
AcDbPolyline
 62
250
  6
CONTINUOUS
 90
3
 70
0
 10
-11.8192463292
 20
-16.0443905751
 10
-11.8676783164
 20
-16.0964240159
 10
-11.9207475674
 20
-16.1417434786
  0
LWPOLYLINE
  5
32C
100
AcDbEntity
  8
ASSI
100
AcDbPolyline
 62
250
  6
CONTINUOUS
 90
12
 70
0
 10
-11.8192463292
 20
-16.0443905751
 10
-11.8676783164
 20
-16.0964240159
 10
-11.9207475674
 20
-16.1417434786
 10
-11.9774364082
 20
-16.1794955006
 10
-12.0378097477
 20
-16.2095397852
 10
-12.1018088808
 20
-16.2320192158
 10
-12.1682315986
 20
-16.2465054737
 10
-12.2371664693
 20
-16.2528390674
 10
-12.3085300513
 20
-16.2511816327
 10
-12.3808622081
 20
-16.2415865792
 10
-12.4536772704
 20
-16.2240721474
 10
-12.5274638184
 20
-16.1986213166
  0
LWPOLYLINE
  5
32D
100
AcDbEntity
  8
268
100
AcDbPolyline
 62
7
  6
CONTINUOUS
 90
24
 70
0
 10
2.3157479615
 20
23.7096280501
 10
2.3151747771
 20
23.7441004563
 10
2.3134756641
 20
23.7778503772
 10
2.3106506225
 20
23.810877813
 10
2.306690188
 20
23.8432393704
 10
2.3016038249
 20
23.8748784426
 10
2.2954199265
 20
23.9056252092
 10
2.2881373111
 20
23.9354607366
 10
2.2797571604
 20
23.9644039583
 10
2.2703114132
 20
23.9923418543
 10
2.2597875546
 20
24.0192880171
 10
2.2481980996
 20
24.045228854
 10
2.2356125308
 20
24.0700105669
 10
2.222037345
 20
24.0936078683
 10
2.2074660454
 20
24.1160460456
 10
2.1919486254
 20
24.1372471629
 10
2.175465338
 20
24.1572242528
 10
2.1580359302
 20
24.1759642827
 10
2.1397696355
 20
24.1933502182
 10
2.1206809796
 20
24.2093591446
 10
2.1007554369
 20
24.2240139766
 10
2.0800586644
 20
24.237266425
 10
2.0585661499
 20
24.2491222863
 10
2.0558454575
 20
24.2505065095
  0
LINE
  5
32E
100
AcDbEntity
  8
268
100
AcDbLine
 62
7
  6
CONTINUOUS
 10
2.7753673693
 20
14.5534974166
 11
2.7753673693
 21
14.5291019113
  0
LINE
  5
32F
100
AcDbEntity
  8
268
100
AcDbLine
 62
7
  6
CONTINUOUS
 10
2.7753673693
 20
-23.5760158552
 11
2.7753673693
 21
-23.6004113605
  0
LINE
  5
330
100
AcDbEntity
  8
268
100
AcDbLine
 62
7
  6
CONTINUOUS
 10
3.0873946805
 20
-23.997165916
 11
3.0873946805
 21
-23.592543825
  0
LINE
  5
331
100
AcDbEntity
  8
268
100
AcDbLine
 62
7
  6
CONTINUOUS
 10
3.0873946805
 20
15.4152686647
 11
3.0873946805
 21
16.0524382234
  0
LINE
  5
332
100
AcDbEntity
  8
268
100
AcDbLine
 62
7
  6
CONTINUOUS
 10
3.5885401676
 20
14.8134035793
 11
3.5885401676
 21
13.1634961417
  0
LINE
  5
333
100
AcDbEntity
  8
268
100
AcDbLine
 62
7
  6
CONTINUOUS
 10
3.5885401676
 20
-21.3972372872
 11
3.5885401676
 21
-23.0471447247
  0
LINE
  5
334
100
AcDbEntity
  8
268
100
AcDbLine
 62
7
  6
CONTINUOUS
 10
4.1542255926
 20
-23.0705308567
 11
4.1542255926
 21
-24.5761389829
  0
LINE
  5
335
100
AcDbEntity
  8
268
100
AcDbLine
 62
7
  6
CONTINUOUS
 10
4.1542255926
 20
15.9538499142
 11
4.1542255926
 21
17.6859007217
  0
LWPOLYLINE
  5
336
100
AcDbEntity
  8
268
100
AcDbPolyline
 62
7
  6
CONTINUOUS
 90
31
 70
0
 10
4.5431343222
 20
15.4562751161
 10
4.5427946547
 20
15.4723081482
 10
4.5417782172
 20
15.4886367174
 10
4.5400874839
 20
15.5052159206
 10
4.5377264794
 20
15.5220000202
 10
4.5347016677
 20
15.5389430143
 10
4.5310219353
 20
15.5559987626
 10
4.5266970823
 20
15.5731203812
 10
4.5217386524
 20
15.5902607921
 10
4.5161608018
 20
15.6073732968
 10
4.5099785576
 20
15.6244108667
 10
4.5032085673
 20
15.6413266588
 10
4.495869909
 20
15.6580745664
 10
4.4879824669
 20
15.6746085736
 10
4.479567583
 20
15.6908832263
 10
4.4706487879
 20
15.7068541446
 10
4.4612503342
 20
15.7224774586
 10
4.4513977325
 20
15.7377102226
 10
4.4411183871
 20
15.7525108769
 10
4.4304403217
 20
15.7668387781
 10
4.4193925879
 20
15.7806545462
 10
4.4080057886
 20
15.7939204662
 10
4.3963110288
 20
15.8066001222
 10
4.3843401857
 20
15.8186586701
 10
4.3721263067
 20
15.8300631689
 10
4.3597028122
 20
15.840782327
 10
4.3471036199
 20
15.8507866944
 10
4.3343634076
 20
15.8600489158
 10
4.3215171114
 20
15.8685436071
 10
4.308599831
 20
15.8762474247
 10
4.2956469488
 20
15.8831392361
  0
LINE
  5
337
100
AcDbEntity
  8
268
100
AcDbLine
 62
7
  6
CONTINUOUS
 10
4.8572185469
 20
17.8212222195
 11
4.8572185469
 21
17.5602932431
  0
LINE
  5
338
100
AcDbEntity
  8
268
100
AcDbLine
 62
7
  6
CONTINUOUS
 10
4.8572185469
 20
-23.7393108962
 11
4.8572185469
 21
-24.0002398726
  0
LINE
  5
339
100
AcDbEntity
  8
268
100
AcDbLine
 62
250
  6
CONTINUOUS
 10
5.1844362444
 20
22.0583321115
 11
5.1844362444
 21
20.8264935332
  0
LINE
  5
33A
100
AcDbEntity
  8
218_STAMPATO
100
AcDbLine
 62
7
  6
CONTINUOUS
 10
5.2502411034
 20
12.0181201994
 11
5.2502411034
 21
-18.5901604091
  0
LINE
  5
33B
100
AcDbEntity
  8
268
100
AcDbLine
 62
7
  6
CONTINUOUS
 10
5.2502411034
 20
-22.3743110272
 11
5.2502411034
 21
15.8022708175
  0
LINE
  5
33C
100
AcDbEntity
  8
268
100
AcDbLine
 62
7
  6
CONTINUOUS
 10
5.2710736728
 20
22.1627192602
 11
5.2710736728
 21
20.9303506544
  0
LWPOLYLINE
  5
33D
100
AcDbEntity
  8
268
100
AcDbPolyline
 62
7
  6
CONTINUOUS
 90
18
 70
0
 10
4.5431343222
 20
-22.735422107
 10
4.5427956778
 20
-22.751115983
 10
4.5417790343
 20
-22.7664280118
 10
4.5400874839
 20
-22.7813160731
 10
4.5377262667
 20
-22.7957390619
 10
4.5347018552
 20
-22.8096574443
 10
4.5310219353
 20
-22.8230333665
 10
4.5266968715
 20
-22.8358300267
 10
4.5217388218
 20
-22.8480121978
 10
4.5161608018
 20
-22.8595467673
 10
4.509978354
 20
-22.8704019911
 10
4.5032087146
 20
-22.8805479684
 10
4.495869909
 20
-22.889957144
 10
4.4879822754
 20
-22.8986036134
 10
4.4795677044
 20
-22.9064635386
 10
4.4706487879
 20
-22.9135156011
 10
4.4612501595
 20
-22.9197403741
 10
4.4531655287
 20
-22.9242346484
  0
LWPOLYLINE
  5
33E
100
AcDbEntity
  8
RACCORDO
100
AcDbPolyline
 62
250
  6
CONTINUOUS
 90
7
 70
0
 10
-11.9207475674
 20
-16.1417434786
 10
-11.9774364082
 20
-16.1794955006
 10
-12.0378097477
 20
-16.2095397852
 10
-12.1018088808
 20
-16.2320192158
 10
-12.1682315986
 20
-16.2465054737
 10
-12.2371664693
 20
-16.2528390674
 10
-12.3085300513
 20
-16.2511816327
  0
LINE
  5
33F
100
AcDbEntity
  8
268
100
AcDbLine
 62
250
  6
CONTINUOUS
 10
1.2037136758
 20
-8.4754207628
 11
1.2827721427
 21
-8.4365754932
  0
LINE
  5
340
100
AcDbEntity
  8
268
100
AcDbLine
 62
7
  6
CONTINUOUS
 10
1.1960324709
 20
-8.5618300757
 11
1.2439413983
 21
-8.5382900898
  0
LINE
  5
341
100
AcDbEntity
  8
ASSI
100
AcDbLine
 62
250
  6
CONTINUOUS
 10
-12.9327064708
 20
-13.8722988518
 11
-12.9124016359
 21
-13.8642212814
  0
LINE
  5
342
100
AcDbEntity
  8
RACCORDO
100
AcDbLine
 62
250
  6
CONTINUOUS
 10
-12.9327064708
 20
-13.8722988518
 11
-12.9072958524
 21
-13.8623495185
  0
LINE
  5
343
100
AcDbEntity
  8
DRAFT
100
AcDbLine
 62
7
  6
CONTINUOUS
 10
-12.9089005756
 20
-14.0819925597
 11
-12.4480099637
 21
-13.9122003316
  0
LINE
  5
344
100
AcDbEntity
  8
ASSI
100
AcDbLine
 62
250
  6
CONTINUOUS
 10
-12.9124016359
 20
-13.8642212814
 11
-12.9072958524
 21
-13.8623495185
  0
LINE
  5
345
100
AcDbEntity
  8
RACCORDO
100
AcDbLine
 62
7
  6
CONTINUOUS
 10
-12.9072958524
 20
-13.8623495185
 11
-12.9061832971
 21
-13.8619499699
  0
LWPOLYLINE
  5
346
100
AcDbEntity
  8
268
100
AcDbPolyline
 62
7
  6
CONTINUOUS
 90
4
 70
0
 10
10.026679697
 20
-17.4209128504
 10
10.0264451709
 20
-17.4191248556
 10
10.0253043948
 20
-17.4161926299
 10
10.0232600632
 20
-17.412813262
  0
LWPOLYLINE
  5
347
100
AcDbEntity
  8
268
100
AcDbPolyline
 62
7
  6
CONTINUOUS
 90
5
 70
0
 10
10.0266796981
 20
19.5139496896
 10
10.0266670296
 20
19.5142969456
 10
10.0263726264
 20
19.5158147344
 10
10.0256972915
 20
19.5175313987
 10
10.0246531985
 20
19.5194511025
  0
LWPOLYLINE
  5
348
100
AcDbEntity
  8
268
100
AcDbPolyline
 62
7
  6
CONTINUOUS
 90
7
 70
0
 10
10.0266332059
 20
20.0963091779
 10
10.0265415978
 20
20.1006169792
 10
10.026402427
 20
20.1049283098
 10
10.0262156936
 20
20.1092431698
 10
10.0259813975
 20
20.1135615592
 10
10.0256995387
 20
20.1178834779
 10
10.0253701172
 20
20.122208926
  0
LINE
  5
349
100
AcDbEntity
  8
268
100
AcDbLine
 62
7
  6
CONTINUOUS
 10
10.0266332059
 20
20.0963091779
 11
10.026679697
 21
20.0903315234
  0
LINE
  5
34A
100
AcDbEntity
  8
268
100
AcDbLine
 62
250
  6
CONTINUOUS
 10
9.9424816383
 20
19.8024953341
 11
9.9424816383
 21
19.59023618
  0
LINE
  5
34B
100
AcDbEntity
  8
268
100
AcDbLine
 62
250
  6
CONTINUOUS
 10
9.9424816383
 20
-17.1517303905
 11
9.9424816383
 21
-17.3415000946
  0
LINE
  5
34C
100
AcDbEntity
  8
268
100
AcDbLine
 62
7
  6
CONTINUOUS
 10
10.0266796982
 20
20.0903488791
 11
10.0266796982
 21
19.5139573968
  0
LINE
  5
34D
100
AcDbEntity
  8
268
100
AcDbLine
 62
7
  6
CONTINUOUS
 10
10.0266796982
 20
-17.1072050694
 11
10.0266796982
 21
-17.4209561285
  0
LWPOLYLINE
  5
34E
100
AcDbEntity
  8
268
100
AcDbPolyline
 62
7
  6
CONTINUOUS
 90
16
 70
0
 10
10.026679697
 20
20.0903315234
 10
10.0264451709
 20
20.0766575316
 10
10.0253043948
 20
20.0568923404
 10
10.0232600632
 20
20.0370386898
 10
10.0203688982
 20
20.0171029059
 10
10.016680134
 20
19.9971206696
 10
10.0122201701
 20
19.977158848
 10
10.0070273118
 20
19.9572381303
 10
10.0011446546
 20
19.9373703789
 10
9.9945841204
 20
19.9176101528
 10
9.9873772173
 20
19.8979730861
 10
9.9795600716
 20
19.8784711215
 10
9.9711361322
 20
19.8591555226
 10
9.9621232408
 20
19.8400527962
 10
9.9525613954
 20
19.8211623023
 10
9.9424816383
 20
19.8024953341
  0
LINE
  5
34F
100
AcDbEntity
  8
268
100
AcDbLine
 62
7
  6
CONTINUOUS
 10
10.0266332059
 20
-17.4216350244
 11
10.026679697
 21
-17.4209128504
  0
LWPOLYLINE
  5
350
100
AcDbEntity
  8
RACCORDO
100
AcDbPolyline
 62
7
  6
CONTINUOUS
 90
3
 70
0
 10
-11.9635105139
 20
-16.0671643724
 10
-12.0202936431
 20
-16.0936738888
 10
-12.0295689485
 20
-16.0971049813
  0
LINE
  5
351
100
AcDbEntity
  8
ASSI
100
AcDbLine
 62
7
  6
CONTINUOUS
 10
-11.9670705757
 20
-16.0691482512
 11
-12.0463422941
 21
-16.1027676602
  0
LWPOLYLINE
  5
352
100
AcDbEntity
  8
RACCORDO
100
AcDbPolyline
 62
250
  6
CONTINUOUS
 90
45
 70
0
 10
-12.2348258035
 20
-15.9520436355
 10
-12.2132710174
 20
-15.9438022603
 10
-12.1782973823
 20
-15.927546773
 10
-12.1447247734
 20
-15.9082504723
 10
-12.1126260888
 20
-15.8859765462
 10
-12.0820528122
 20
-15.8607669156
 10
-12.053090388
 20
-15.8326836135
 10
-12.0258594619
 20
-15.8018347201
 10
-12.0004620445
 20
-15.7683335402
 10
-11.9769843831
 20
-15.7322942032
 10
-11.9555049734
 20
-15.6938375962
 10
-11.9361010696
 20
-15.6531045939
 10
-11.918846591
 20
-15.6102620734
 10
-11.9037849815
 20
-15.5654310486
 10
-11.8909460773
 20
-15.5186865427
 10
-11.8803732186
 20
-15.4701310026
 10
-11.8721252637
 20
-15.4199672546
 10
-11.86624585
 20
-15.3684277121
 10
-11.8627561787
 20
-15.3157076834
 10
-11.8616657591
 20
-15.2619667531
 10
-11.8629782446
 20
-15.2073960362
 10
-11.8666878174
 20
-15.1521875956
 10
-11.8727811087
 20
-15.096522776
 10
-11.8812384919
 20
-15.0405799642
 10
-11.8920334147
 20
-14.9845416028
 10
-11.9051288064
 20
-14.9286054684
 10
-11.9204773071
 20
-14.8729731754
 10
-11.9380232776
 20
-14.8178413581
 10
-11.9577083639
 20
-14.7633889685
 10
-11.9794699814
 20
-14.7097887965
 10
-12.0032388177
 20
-14.6572146775
 10
-12.0289313658
 20
-14.6058541722
 10
-12.056453433
 20
-14.5558950054
 10
-12.0857047171
 20
-14.5075154631
 10
-12.1165903719
 20
-14.4608688549
 10
-12.1490157933
 20
-14.4160980191
 10
-12.1828944874
 20
-14.373328289
 10
-12.2180910541
 20
-14.3327362572
 10
-12.2544254992
 20
-14.2945221565
 10
-12.2917303437
 20
-14.2588406554
 10
-12.3299123831
 20
-14.2257600829
 10
-12.3688969404
 20
-14.1953374548
 10
-12.4085723676
 20
-14.1676619854
 10
-12.4487862488
 20
-14.1428420408
 10
-12.4894032177
 20
-14.1209608609
  0
LINE
  5
353
100
AcDbEntity
  8
RACCORDO
100
AcDbLine
 62
7
  6
CONTINUOUS
 10
-12.0284708227
 20
-16.0967259485
 11
-12.029661471
 21
-16.0971534135
  0
LINE
  5
354
100
AcDbEntity
  8
DRAFT
100
AcDbLine
 62
7
  6
CONTINUOUS
 10
-12.2348258022
 20
-15.9520436351
 11
-11.7224436721
 21
-15.7714004125
  0
LINE
  5
355
100
AcDbEntity
  8
RACCORDO
100
AcDbLine
 62
7
  6
CONTINUOUS
 10
-12.9062728017
 20
-13.8619973289
 11
-12.8673825316
 21
-13.8500504366
  0
LINE
  5
356
100
AcDbEntity
  8
RACCORDO
100
AcDbLine
 62
250
  6
CONTINUOUS
 10
-2.5440741668
 20
11.4161322337
 11
-16.6713452082
 21
18.4797677544
  0
LINE
  5
357
100
AcDbEntity
  8
ASSI
100
AcDbLine
 62
250
  6
CONTINUOUS
 10
-2.5440741668
 20
11.4161322337
 11
-16.6713452082
 21
18.4797677544
  0
LINE
  5
358
100
AcDbEntity
  8
RACCORDO
100
AcDbLine
 62
250
  6
CONTINUOUS
 10
-1.3905488
 20
13.0440586298
 11
-15.5347588724
 21
20.1161636661
  0
LINE
  5
359
100
AcDbEntity
  8
ASSI
100
AcDbLine
 62
250
  6
CONTINUOUS
 10
-1.3905488
 20
13.0440586298
 11
-15.5347588724
 21
20.1161636661
  0
LWPOLYLINE
  5
35A
100
AcDbEntity
  8
268
100
AcDbPolyline
 62
7
  6
CONTINUOUS
 90
7
 70
0
 10
10.0266332059
 20
-17.4216350244
 10
10.0265415978
 20
-17.4221206319
 10
10.026402427
 20
-17.4226327797
 10
10.0262156936
 20
-17.4231714677
 10
10.0259813975
 20
-17.423736696
 10
10.0256995387
 20
-17.4243284646
 10
10.0253701172
 20
-17.4249467735
  0
LINE
  5
35B
100
AcDbEntity
  8
ASSI
100
AcDbLine
 62
250
  6
CONTINUOUS
 10
-12.0284708227
 20
-16.0967259485
 11
-12.0463812429
 21
-16.1027994597
  0
LWPOLYLINE
  5
35C
100
AcDbEntity
  8
RACCORDO
100
AcDbPolyline
 62
250
  6
CONTINUOUS
 90
6
 70
0
 10
-12.029661471
 20
-16.0971534135
 10
-12.0619212863
 20
-16.1074656827
 10
-12.1232419912
 20
-16.1207712154
 10
-12.1868667756
 20
-16.1266815723
 10
-12.2523423456
 20
-16.1251374835
 10
-12.319205914
 20
-16.1161604218
  0
LWPOLYLINE
  5
35D
100
AcDbEntity
  8
RACCORDO
100
AcDbPolyline
 62
7
  6
CONTINUOUS
 90
13
 70
0
 10
-12.234825801
 20
-15.9520436346
 10
-12.269039005
 20
-15.9627317828
 10
-12.3041741592
 20
-15.9709776044
 10
-12.3401306657
 20
-15.9767240243
 10
-12.3767834908
 20
-15.9799220989
 10
-12.4140469992
 20
-15.980537436
 10
-12.4518826718
 20
-15.9785349282
 10
-12.4902294711
 20
-15.973873255
 10
-12.5289431933
 20
-15.9665259854
 10
-12.567869339
 20
-15.9564881699
 10
-12.6068913786
 20
-15.9437621065
 10
-12.6459261629
 20
-15.9283461542
 10
-12.6848732271
 20
-15.9102482574
  0
LWPOLYLINE
  5
35E
100
AcDbEntity
  8
ASSI
100
AcDbPolyline
 62
250
  6
CONTINUOUS
 90
9
 70
0
 10
-12.0463812429
 20
-16.1027994597
 10
-12.0619212863
 20
-16.1074656827
 10
-12.1232419912
 20
-16.1207712154
 10
-12.1868667756
 20
-16.1266815723
 10
-12.2523423456
 20
-16.1251374835
 10
-12.319205914
 20
-16.1161604218
 10
-12.3870050806
 20
-16.0998283725
 10
-12.455304822
 20
-16.0762526383
 10
-12.5236599919
 20
-16.0455968999
  0
LWPOLYLINE
  5
35F
100
AcDbEntity
  8
RACCORDO
100
AcDbPolyline
 62
250
  6
CONTINUOUS
 90
16
 70
0
 10
-1.4318060993
 20
11.2835427884
 10
-1.4933182791
 20
11.269696587
 10
-1.560126573
 20
11.2590667864
 10
-1.6315151403
 20
11.2517672835
 10
-1.7067190631
 20
11.2478762913
 10
-1.7849325427
 20
11.2474355012
 10
-1.8653175334
 20
11.2504496362
 10
-1.9470127221
 20
11.2568864004
 10
-2.0291427571
 20
11.2666768246
 10
-2.1108276273
 20
11.2797160061
 10
-2.1911920918
 20
11.2958642319
 10
-2.2693750572
 20
11.3149484763
 10
-2.3445388049
 20
11.3367642544
 10
-2.4158779665
 20
11.3610778137
 10
-2.4826281537
 20
11.3876286379
 10
-2.5440741481
 20
11.4161322389
  0
LWPOLYLINE
  5
360
100
AcDbEntity
  8
ASSI
100
AcDbPolyline
 62
250
  6
CONTINUOUS
 90
16
 70
0
 10
-1.4318060993
 20
11.2835427884
 10
-1.4933182791
 20
11.269696587
 10
-1.560126573
 20
11.2590667864
 10
-1.6315151403
 20
11.2517672835
 10
-1.7067190631
 20
11.2478762913
 10
-1.7849325427
 20
11.2474355012
 10
-1.8653175334
 20
11.2504496362
 10
-1.9470127221
 20
11.2568864004
 10
-2.0291427571
 20
11.2666768246
 10
-2.1108276273
 20
11.2797160061
 10
-2.1911920918
 20
11.2958642319
 10
-2.2693750572
 20
11.3149484763
 10
-2.3445388049
 20
11.3367642544
 10
-2.4158779665
 20
11.3610778137
 10
-2.4826281537
 20
11.3876286379
 10
-2.5440741481
 20
11.4161322389
  0
LINE
  5
361
100
AcDbEntity
  8
268
100
AcDbLine
 62
7
  6
CONTINUOUS
 10
3.1468969286
 20
13.3843177612
 11
3.5885401676
 21
13.1634961417
  0
LINE
  5
362
100
AcDbEntity
  8
RACCORDO
100
AcDbLine
 62
7
  6
CONTINUOUS
 10
-11.6257863108
 20
21.6711995902
 11
2.6579429824
 21
14.5293349435
  0
LINE
  5
363
100
AcDbEntity
  8
ASSI
100
AcDbLine
 62
7
  6
CONTINUOUS
 10
-11.6257863108
 20
21.6711995902
 11
2.6579429824
 21
14.5293349435
  0
LINE
  5
364
100
AcDbEntity
  8
268
100
AcDbLine
 62
7
  6
CONTINUOUS
 10
-12.9931138512
 20
22.4133425216
 11
2.7753673693
 21
14.5291019113
  0
LINE
  5
365
100
AcDbEntity
  8
268
100
AcDbLine
 62
7
  6
CONTINUOUS
 10
2.5278799959
 20
14.9803615366
 11
-12.7456264778
 21
22.6171147734
  0
LINE
  5
366
100
AcDbEntity
  8
268
100
AcDbLine
 62
7
  6
CONTINUOUS
 10
3.0873946805
 20
15.4152686647
 11
1.4733905645
 21
16.2222707227
  0
LINE
  5
367
100
AcDbEntity
  8
268
100
AcDbLine
 62
7
  6
CONTINUOUS
 10
-10.276923484
 20
22.0974277469
 11
-11.8909276
 21
22.9044298049
  0
LINE
  5
368
100
AcDbEntity
  8
268
100
AcDbLine
 62
7
  6
CONTINUOUS
 10
-6.9444676032
 20
20.7885320417
 11
-1.1519585351
 21
17.8922775077
  0
LINE
  5
369
100
AcDbEntity
  8
268
100
AcDbLine
 62
7
  6
CONTINUOUS
 10
-12.5293252614
 20
23.6759596112
 11
-10.9227927921
 21
22.8726933766
  0
LINE
  5
36A
100
AcDbEntity
  8
268
100
AcDbLine
 62
7
  6
CONTINUOUS
 10
0.834992903
 20
16.993800529
 11
2.4415253724
 21
16.1905342944
  0
LINE
  5
36B
100
AcDbEntity
  8
268
100
AcDbLine
 62
7
  6
CONTINUOUS
 10
0.8582717295
 20
-23.938822874
 11
1.4370620697
 21
-23.2343791439
  0
LINE
  5
36C
100
AcDbEntity
  8
268
100
AcDbLine
 62
7
  6
CONTINUOUS
 10
2.4650766484
 20
-24.7422253335
 11
3.0873946805
 21
-23.997165916
  0
LINE
  5
36D
100
AcDbEntity
  8
268
100
AcDbLine
 62
250
  6
CONTINUOUS
 10
1.5829151513
 20
-18.3888719186
 11
0.2685135132
 21
-18.9959061528
  0
LINE
  5
36E
100
AcDbEntity
  8
268
100
AcDbLine
 62
7
  6
CONTINUOUS
 10
1.3822200941
 20
-18.9025677614
 11
0.2294865152
 21
-19.4349383284
  0
LINE
  5
36F
100
AcDbEntity
  8
268
100
AcDbLine
 62
7
  6
CONTINUOUS
 10
3.0873946805
 20
16.0524382234
 11
2.4650766484
 21
16.1823788059
  0
LINE
  5
370
100
AcDbEntity
  8
268
100
AcDbLine
 62
250
  6
CONTINUOUS
 10
-12.5939205542
 20
23.8109890595
 11
-10.9881440921
 21
23.0081008285
  0
LINE
  5
371
100
AcDbEntity
  8
268
100
AcDbLine
 62
250
  6
CONTINUOUS
 10
0.7703976102
 20
17.1288299773
 11
2.3761740724
 21
16.3259417462
  0
LINE
  5
372
100
AcDbEntity
  8
268
100
AcDbLine
 62
250
  6
CONTINUOUS
 10
2.3761740724
 20
16.57931314
 11
0.7703976102
 21
17.3822013711
  0
LINE
  5
373
100
AcDbEntity
  8
268
100
AcDbLine
 62
250
  6
CONTINUOUS
 10
-10.9881440921
 20
23.2614722222
 11
-12.5939205542
 21
24.0643604533
  0
LINE
  5
374
100
AcDbEntity
  8
268
100
AcDbLine
 62
7
  6
CONTINUOUS
 10
-9.2100925718
 20
22.6360089964
 11
-7.0323355688
 21
21.5471304949
  0
LINE
  5
375
100
AcDbEntity
  8
268
100
AcDbLine
 62
7
  6
CONTINUOUS
 10
-0.2298364508
 20
18.1458809358
 11
0.8512855004
 21
17.6053199603
  0
LINE
  5
376
100
AcDbEntity
  8
268
100
AcDbLine
 62
7
  6
CONTINUOUS
 10
4.1542255926
 20
15.9538499142
 11
4.2956469488
 21
15.8831392361
  0
LINE
  5
377
100
AcDbEntity
  8
268
100
AcDbLine
 62
250
  6
CONTINUOUS
 10
2.5529448018
 20
16.8831787182
 11
0.9451233927
 21
17.6870894228
  0
LINE
  5
378
100
AcDbEntity
  8
268
100
AcDbLine
 62
250
  6
CONTINUOUS
 10
-10.8113733627
 20
23.5653378005
 11
-12.4191947717
 21
24.369248505
  0
LINE
  5
379
100
AcDbEntity
  8
268
100
AcDbLine
 62
7
  6
CONTINUOUS
 10
-6.9444676032
 20
22.0034869078
 11
-1.1519585351
 21
19.1072323737
  0
LINE
  5
37A
100
AcDbEntity
  8
268
100
AcDbLine
 62
7
  6
CONTINUOUS
 10
5.00275373
 20
16.2291349374
 11
4.2030217062
 21
16.6290009494
  0
LINE
  5
37B
100
AcDbEntity
  8
268
100
AcDbLine
 62
7
  6
CONTINUOUS
 10
-7.6788184548
 20
22.5699210299
 11
-9.1612964582
 21
23.3111600316
  0
LINE
  5
37C
100
AcDbEntity
  8
268
100
AcDbLine
 62
7
  6
CONTINUOUS
 10
-6.4523761252
 20
22.4695863384
 11
-0.2298364508
 21
19.3583165011
  0
LINE
  5
37D
100
AcDbEntity
  8
268
100
AcDbLine
 62
7
  6
CONTINUOUS
 10
-10.8364381686
 20
25.1812326023
 11
-9.2100925718
 21
24.368059804
  0
LINE
  5
37E
100
AcDbEntity
  8
268
100
AcDbLine
 62
7
  6
CONTINUOUS
 10
2.5278799959
 20
18.4990735201
 11
4.1542255926
 21
17.6859007217
  0
LINE
  5
37F
100
AcDbEntity
  8
218_STAMPATO
100
AcDbLine
 62
250
  6
CONTINUOUS
 10
19.852414325
 20
-10.8980637187
 11
19.8523842352
 21
19.4659769997
  0
LINE
  5
380
100
AcDbEntity
  8
218_STAMPATO
100
AcDbLine
 62
7
  6
CONTINUOUS
 10
11.361177362
 20
-16.2540265756
 11
10.608483278
 21
-16.7995377526
  0
LWPOLYLINE
  5
381
100
AcDbEntity
  8
218_STAMPATO
100
AcDbPolyline
 62
250
  6
CONTINUOUS
 90
10
 70
0
 10
19.4382638494
 20
-11.9155468177
 10
19.4472594908
 20
-11.910704525
 10
19.4561677907
 20
-11.9057196018
 10
19.4649872565
 20
-11.9005928834
 10
19.4737164102
 20
-11.8953252288
 10
19.4823537894
 20
-11.8899175207
 10
19.4908979467
 20
-11.8843706652
 10
19.4993474505
 20
-11.8786855917
 10
19.507700885
 20
-11.8728632527
 10
19.5128314434
 20
-11.8691846849
  0
LWPOLYLINE
  5
382
100
AcDbEntity
  8
218_STAMPATO
100
AcDbPolyline
 62
7
  6
CONTINUOUS
 90
12
 70
0
 10
19.0953662734
 20
-12.1640600773
 10
19.1026101258
 20
-12.1601667886
 10
19.1098148136
 20
-12.156169681
 10
19.1169795624
 20
-12.1520694016
 10
19.1241034714
 20
-12.1478665766
 10
19.1311859057
 20
-12.1435618965
 10
19.1382264965
 20
-12.1391561105
 10
19.1452244823
 20
-12.1346498847
 10
19.1521791142
 20
-12.1300439039
 10
19.1590900479
 20
-12.1253389495
 10
19.1659565345
 20
-12.1205357046
 10
19.171624084
 20
-12.1164729306
  0
LINE
  5
383
100
AcDbEntity
  8
218_STAMPATO
100
AcDbLine
 62
7
  6
CONTINUOUS
 10
19.0953662734
 20
-12.1640600773
 11
11.361177362
 21
-16.2540265756
  0
LINE
  5
384
100
AcDbEntity
  8
218_STAMPATO
100
AcDbLine
 62
7
  6
CONTINUOUS
 10
5.2502411034
 20
-19.6330644785
 11
10.608483278
 21
-16.7995377526
  0
LINE
  5
385
100
AcDbEntity
  8
218_STAMPATO
100
AcDbLine
 62
250
  6
CONTINUOUS
 10
5.2502411034
 20
-19.3894783449
 11
19.4382638494
 21
-11.9155468177
  0
LWPOLYLINE
  5
386
100
AcDbEntity
  8
218_STAMPATO
100
AcDbPolyline
 62
250
  6
CONTINUOUS
 90
61
 70
0
 10
5.2502411034
 20
-18.5901604091
 10
19.8612438745
 20
-10.8934331612
 10
19.8699542015
 20
-10.888746494
 10
19.8785438797
 20
-10.8840044844
 10
19.8870115028
 20
-10.8792079087
 10
19.8953556844
 20
-10.8743575523
 10
19.9035750584
 20
-10.8694542095
 10
19.9116682789
 20
-10.8644986829
 10
19.9196340209
 20
-10.8594917839
 10
19.9274709802
 20
-10.8544343324
 10
19.9351778735
 20
-10.8493271563
 10
19.9427534391
 20
-10.844171092
 10
19.9501964367
 20
-10.8389669834
 10
19.9575056475
 20
-10.8337156829
 10
19.9646798749
 20
-10.82841805
 10
19.9717179442
 20
-10.8230749523
 10
19.9786187031
 20
-10.8176872644
 10
19.9853810217
 20
-10.8122558687
 10
19.9920037929
 20
-10.8067816542
 10
19.9984859323
 20
-10.8012655173
 10
20.0048263785
 20
-10.7957083613
 10
20.0110240936
 20
-10.7901110958
 10
20.0170780627
 20
-10.7844746374
 10
20.0229872945
 20
-10.778799909
 10
20.0287508217
 20
-10.7730878395
 10
20.0343677005
 20
-10.7673393644
 10
20.0398370113
 20
-10.7615554247
 10
20.0451578587
 20
-10.7557369675
 10
20.0503293713
 20
-10.7498849454
 10
20.0553507026
 20
-10.7440003165
 10
20.0602210303
 20
-10.7380840444
 10
20.0649395571
 20
-10.7321370978
 10
20.0695055103
 20
-10.7261604502
 10
20.0739181425
 20
-10.7201550803
 10
20.0781767311
 20
-10.7141219713
 10
20.0822805789
 20
-10.708062111
 10
20.0862290139
 20
-10.7019764916
 10
20.0900213898
 20
-10.6958661094
 10
20.0936570854
 20
-10.689731965
 10
20.0971355057
 20
-10.6835750627
 10
20.1004560811
 20
-10.6773964104
 10
20.1036182678
 20
-10.67119702
 10
20.1066215482
 20
-10.6649779063
 10
20.1094654305
 20
-10.6587400876
 10
20.1121494492
 20
-10.6524845853
 10
20.1146731647
 20
-10.6462124235
 10
20.1170361638
 20
-10.6399246292
 10
20.1192380597
 20
-10.6336222318
 10
20.1212784918
 20
-10.6273062634
 10
20.1231571261
 20
-10.6209777579
 10
20.124873655
 20
-10.6146377515
 10
20.1264277974
 20
-10.6082872823
 10
20.1278192988
 20
-10.6019273901
 10
20.1290479315
 20
-10.5955591161
 10
20.1301134943
 20
-10.589183503
 10
20.1310158127
 20
-10.5828015946
 10
20.131754739
 20
-10.576414436
 10
20.1323301521
 20
-10.5700230728
 10
20.132741958
 20
-10.5636285515
 10
20.1329900891
 20
-10.5572319191
 10
20.1330745247
 20
-10.5507345608
  0
LINE
  5
387
100
AcDbEntity
  8
268
100
AcDbLine
 62
250
  6
CONTINUOUS
 10
5.2502411034
 20
-19.6688859915
 11
9.9424816383
 21
-17.3415000946
  0
LWPOLYLINE
  5
388
100
AcDbEntity
  8
218_STAMPATO
100
AcDbPolyline
 62
7
  6
CONTINUOUS
 90
4
 70
0
 10
-0.2126716244
 20
22.0433984076
 10
-0.2139214485
 20
22.0440071439
 10
-0.2158878614
 20
22.0449009854
 10
-0.2178103786
 20
22.0457021105
  0
LINE
  5
389
100
AcDbEntity
  8
268
100
AcDbLine
 62
7
  6
CONTINUOUS
 10
-5.1088732409
 20
22.499903289
 11
-0.1591257726
 21
20.0250295549
  0
LINE
  5
38A
100
AcDbEntity
  8
268
100
AcDbLine
 62
250
  6
CONTINUOUS
 10
-10.3019882899
 20
25.4415800689
 11
-8.6818254001
 21
24.631498624
  0
LINE
  5
38B
100
AcDbEntity
  8
268
100
AcDbLine
 62
250
  6
CONTINUOUS
 10
3.0623298745
 20
18.7594209867
 11
4.6824927643
 21
17.9493395418
  0
LINE
  5
38C
100
AcDbEntity
  8
268
100
AcDbLine
 62
7
  6
CONTINUOUS
 10
-10.1905688605
 20
25.4478477251
 11
-8.5716949104
 21
24.63841075
  0
LINE
  5
38D
100
AcDbEntity
  8
268
100
AcDbLine
 62
7
  6
CONTINUOUS
 10
3.173749304
 20
18.7656886429
 11
4.792623254
 21
17.9562516678
  0
LINE
  5
38E
100
AcDbEntity
  8
218_STAMPATO
100
AcDbLine
 62
7
  6
CONTINUOUS
 10
1.1550362077
 20
20.6727466715
 11
-1.4319179788
 21
21.9662237647
  0
LINE
  5
38F
100
AcDbEntity
  8
218_STAMPATO
100
AcDbLine
 62
250
  6
CONTINUOUS
 10
1.7959994025
 20
20.9886611771
 11
-0.2969128285
 21
22.0351172926
  0
LINE
  5
390
100
AcDbEntity
  8
218_STAMPATO
100
AcDbLine
 62
7
  6
CONTINUOUS
 10
1.846762827
 20
21.0136811819
 11
-0.2126716389
 21
22.0433984148
  0
LWPOLYLINE
  5
391
100
AcDbEntity
  8
268
100
AcDbPolyline
 62
7
  6
CONTINUOUS
 90
20
 70
0
 10
10.0246531985
 20
19.5194511025
 10
10.0232530469
 20
19.5215821673
 10
10.0215066206
 20
19.5238906147
 10
10.0194250107
 20
19.5263802537
 10
10.0170200463
 20
19.5290576966
 10
10.0142999544
 20
19.5318929125
 10
10.0112750231
 20
19.5348894389
 10
10.0079565218
 20
19.5380525171
 10
10.0043523649
 20
19.5413545095
 10
10.000472508
 20
19.5447984923
 10
9.9963278365
 20
19.5483887366
 10
9.9919266038
 20
19.5520992362
 10
9.9872782652
 20
19.5559328281
 10
9.9823938113
 20
19.5598927017
 10
9.9772834229
 20
19.563953122
 10
9.9719565479
 20
19.5681163373
 10
9.9664243445
 20
19.5723847087
 10
9.9606998733
 20
19.5767322082
 10
9.9547946899
 20
19.5811510904
 10
9.9424816383
 20
19.59023618
  0
LINE
  5
392
100
AcDbEntity
  8
218_STAMPATO
100
AcDbLine
 62
7
  6
CONTINUOUS
 10
11.361177362
 20
17.7131857311
 11
10.608483278
 21
19.0113909921
  0
LWPOLYLINE
  5
393
100
AcDbEntity
  8
218_STAMPATO
100
AcDbPolyline
 62
250
  6
CONTINUOUS
 90
72
 70
0
 10
19.8523842352
 20
19.4659769997
 10
19.8521844686
 20
19.4850185775
 10
19.8518150428
 20
19.5041389922
 10
19.8512759905
 20
19.523335961
 10
19.8505673759
 20
19.5426072023
 10
19.8496892942
 20
19.5619504364
 10
19.8486418447
 20
19.5813633631
 10
19.8474251464
 20
19.6008436668
 10
19.8460393551
 20
19.6203890323
 10
19.8444846316
 20
19.6399971306
 10
19.8427611554
 20
19.6596656281
 10
19.8408691408
 20
19.6793921916
 10
19.838808809
 20
19.6991744727
 10
19.8365804005
 20
19.7190101156
 10
19.8341841885
 20
19.7388967666
 10
19.8316204547
 20
19.7588320589
 10
19.8288895
 20
19.7788136183
 10
19.8259916566
 20
19.7988390713
 10
19.8229272663
 20
19.818906034
 10
19.8196966902
 20
19.8390121178
 10
19.8163003185
 20
19.8591549347
 10
19.8127385531
 20
19.8793320872
 10
19.8090118145
 20
19.8995411738
 10
19.8051205509
 20
19.9197797944
 10
19.8010652234
 20
19.9400455408
 10
19.7968463118
 20
19.9603360008
 10
19.7924643218
 20
19.9806487637
 10
19.7879197734
 20
20.0009814127
 10
19.7832132051
 20
20.021331528
 10
19.7783451796
 20
20.041696691
 10
19.7733162752
 20
20.0620744788
 10
19.7681270886
 20
20.0824624667
 10
19.7627782385
 20
20.1028582312
 10
19.7572703612
 20
20.1232593461
 10
19.7516041107
 20
20.1436633841
 10
19.7457801616
 20
20.1640679194
 10
19.7397992068
 20
20.184470525
 10
19.7336619575
 20
20.2048687737
 10
19.7273691429
 20
20.2252602399
 10
19.7209215124
 20
20.2456424984
 10
19.7143198331
 20
20.2660131247
 10
19.7075648884
 20
20.2863696958
 10
19.7006574832
 20
20.3067097909
 10
19.6935984399
 20
20.3270309909
 10
19.686388595
 20
20.3473308777
 10
19.6790288083
 20
20.3676070377
 10
19.6715199565
 20
20.3878570596
 10
19.6638629283
 20
20.4080785336
 10
19.6560586374
 20
20.4282690554
 10
19.6481080137
 20
20.4484262243
 10
19.6400119973
 20
20.4685476414
 10
19.6317715544
 20
20.4886309151
 10
19.6233876674
 20
20.5086736573
 10
19.6148613273
 20
20.5286734813
 10
19.6061935516
 20
20.5486280104
 10
19.5973853745
 20
20.568534872
 10
19.5884378365
 20
20.5883916942
 10
19.5793520065
 20
20.6081961164
 10
19.5701289683
 20
20.6279457852
 10
19.5607698098
 20
20.6476383487
 10
19.5512756491
 20
20.6672714667
 10
19.5416476194
 20
20.6868428058
 10
19.5318868557
 20
20.7063500349
 10
19.5219945234
 20
20.7257908381
 10
19.5119718045
 20
20.7451629034
 10
19.501819882
 20
20.7644639174
 10
19.4915399711
 20
20.7836915839
 10
19.4811332978
 20
20.8028436217
 10
19.4706010851
 20
20.8219177538
 10
19.4599445846
 20
20.8409117135
 10
19.4491650766
 20
20.859823245
 10
19.0953662734
 20
21.4700609374
  0
LWPOLYLINE
  5
394
100
AcDbEntity
  8
218_STAMPATO
100
AcDbPolyline
 62
7
  6
CONTINUOUS
 90
61
 70
0
 10
20.1330745245
 20
19.7943456649
 10
20.1329837811
 20
19.8137062927
 10
20.1326814481
 20
19.8346927667
 10
20.1321675496
 20
19.8557093285
 10
20.1314425923
 20
19.8767573978
 10
20.1305072085
 20
19.8978336404
 10
20.1293623739
 20
19.9189296531
 10
20.1280088185
 20
19.9400445699
 10
20.1264472259
 20
19.9611774824
 10
20.1246789145
 20
19.9823197857
 10
20.1227047144
 20
20.0034707124
 10
20.1205254076
 20
20.0246293343
 10
20.1181426914
 20
20.0457867172
 10
20.115557502
 20
20.0669420217
 10
20.1127707181
 20
20.0880944202
 10
20.1097843925
 20
20.1092348923
 10
20.1065995522
 20
20.1303626096
 10
20.1032171857
 20
20.1514767755
 10
20.0996396788
 20
20.1725683314
 10
20.0958682472
 20
20.1936359566
 10
20.0919038986
 20
20.2146793839
 10
20.0877490327
 20
20.2356910538
 10
20.0834050406
 20
20.2566692007
 10
20.0788728699
 20
20.2776140335
 10
20.0741545021
 20
20.2985208573
 10
20.0692511317
 20
20.3193887682
 10
20.0641638297
 20
20.3402171192
 10
20.0588946021
 20
20.3610014945
 10
20.0534445985
 20
20.3817410243
 10
20.0478148627
 20
20.4024350279
 10
20.0420074259
 20
20.4230792777
 10
20.0360234997
 20
20.4436725416
 10
20.0298640054
 20
20.4642144974
 10
20.023530628
 20
20.4847021943
 10
20.0170244378
 20
20.5051346691
 10
20.0103463729
 20
20.5255113076
 10
20.0034979513
 20
20.5458295971
 10
19.9964801395
 20
20.5660887032
 10
19.9892938395
 20
20.5862878488
 10
19.9819405394
 20
20.6064245362
 10
19.9744212217
 20
20.6264977075
 10
19.9667366356
 20
20.6465067717
 10
19.9588880009
 20
20.6664498755
 10
19.9508761925
 20
20.6863259912
 10
19.9427018999
 20
20.706134445
 10
19.934366083
 20
20.725873858
 10
19.9258694486
 20
20.7455433384
 10
19.9172126766
 20
20.7651420117
 10
19.9083966415
 20
20.7846684668
 10
19.8994219606
 20
20.8041217997
 10
19.8902892396
 20
20.823501077
 10
19.8809992985
 20
20.8428048025
 10
19.8715527063
 20
20.8620319928
 10
19.8619499448
 20
20.8811817357
 10
19.8521917128
 20
20.9002526246
 10
19.8422784989
 20
20.9192436322
 10
19.8322107227
 20
20.9381537486
 10
19.821988942
 20
20.9569816719
 10
19.8116135314
 20
20.9757263538
 10
19.8010848567
 20
20.994386715
 10
19.7911070967
 20
21.0117484616
  0
LINE
  5
395
100
AcDbEntity
  8
218_STAMPATO
100
AcDbLine
 62
7
  6
CONTINUOUS
 10
20.1330745247
 20
-10.5507345334
 11
20.1330745247
 21
19.7943457124
  0
LWPOLYLINE
  5
396
100
AcDbEntity
  8
218_STAMPATO
100
AcDbPolyline
 62
250
  6
CONTINUOUS
 90
73
 70
0
 10
19.4382638494
 20
-11.9155468177
 10
19.4491650766
 20
-11.9075111971
 10
19.4599445846
 20
-11.8992721063
 10
19.4706010851
 20
-11.8908305292
 10
19.4811332978
 20
-11.8821874775
 10
19.4915399711
 20
-11.8733439787
 10
19.501819882
 20
-11.864301076
 10
19.5119718045
 20
-11.8550598462
 10
19.5219945234
 20
-11.8456213935
 10
19.5318868557
 20
-11.8359868366
 10
19.5416476194
 20
-11.8261573251
 10
19.5512756491
 20
-11.8161340304
 10
19.5607698098
 20
-11.8059181394
 10
19.5701289683
 20
-11.7955108694
 10
19.5793520065
 20
-11.7849134611
 10
19.5884378365
 20
-11.7741271701
 10
19.5973853745
 20
-11.7631532809
 10
19.6061935516
 20
-11.7519931018
 10
19.6148613273
 20
-11.7406479568
 10
19.6233876674
 20
-11.7291191972
 10
19.6317715544
 20
-11.7174081964
 10
19.6400119973
 20
-11.7055163439
 10
19.6481080137
 20
-11.6934450557
 10
19.6560586374
 20
-11.6811957696
 10
19.6638629283
 20
-11.6687699391
 10
19.6715199565
 20
-11.6561690434
 10
19.6790288083
 20
-11.6433945829
 10
19.686388595
 20
-11.6304480746
 10
19.6935984399
 20
-11.6173310591
 10
19.7006574832
 20
-11.6040450981
 10
19.7075648884
 20
-11.59059177
 10
19.7143198331
 20
-11.5769726756
 10
19.7209215124
 20
-11.5631894357
 10
19.7273691429
 20
-11.5492436885
 10
19.7336619575
 20
-11.5351370929
 10
19.7397992068
 20
-11.5208713274
 10
19.7457801616
 20
-11.5064480882
 10
19.7516041107
 20
-11.4918690905
 10
19.7572703612
 20
-11.4771360689
 10
19.7627782385
 20
-11.4622507754
 10
19.7681270886
 20
-11.4472149802
 10
19.7733162752
 20
-11.4320304717
 10
19.7783451796
 20
-11.4166990565
 10
19.7832132051
 20
-11.4012225572
 10
19.7879197734
 20
-11.3856028145
 10
19.7924643218
 20
-11.3698416874
 10
19.7968463118
 20
-11.3539410495
 10
19.8010652234
 20
-11.3379027914
 10
19.8051205509
 20
-11.3217288225
 10
19.8090118145
 20
-11.3054210651
 10
19.8127385531
 20
-11.288981458
 10
19.8163003185
 20
-11.2724119582
 10
19.8196966902
 20
-11.2557145348
 10
19.8229272663
 20
-11.2388911729
 10
19.8259916566
 20
-11.2219438761
 10
19.8288895
 20
-11.2048746581
 10
19.8316204547
 20
-11.187685548
 10
19.8341841885
 20
-11.1703785944
 10
19.8365804005
 20
-11.1529558543
 10
19.838808809
 20
-11.1354193976
 10
19.8408691408
 20
-11.1177713133
 10
19.8427611554
 20
-11.1000136981
 10
19.8444846316
 20
-11.0821486621
 10
19.8460393551
 20
-11.0641783334
 10
19.8474251464
 20
-11.0461048451
 10
19.8486418447
 20
-11.0279303462
 10
19.8496892942
 20
-11.0096570071
 10
19.8505673759
 20
-10.9912870019
 10
19.8512759905
 20
-10.9728225094
 10
19.8518150428
 20
-10.9542657253
 10
19.8521844686
 20
-10.9356188542
 10
19.8523842352
 20
-10.9168841103
 10
19.852414325
 20
-10.8980637187
  0
LWPOLYLINE
  5
397
100
AcDbEntity
  8
218_STAMPATO
100
AcDbPolyline
 62
7
  6
CONTINUOUS
 90
82
 70
0
 10
19.5128319999
 20
-11.8691842813
 10
19.5247317728
 20
-11.8604629113
 10
19.5382298376
 20
-11.8503313556
 10
19.5516163042
 20
-11.8400264971
 10
19.5648879771
 20
-11.829550402
 10
19.5780436745
 20
-11.8189036178
 10
19.5910841957
 20
-11.8080850252
 10
19.6040074704
 20
-11.7970958008
 10
19.6168113301
 20
-11.7859372541
 10
19.6294963489
 20
-11.7746082719
 10
19.6420603806
 20
-11.7631100908
 10
19.654501314
 20
-11.7514439861
 10
19.6668196629
 20
-11.7396087326
 10
19.6790133926
 20
-11.7276054484
 10
19.6910802588
 20
-11.7154355203
 10
19.7030203692
 20
-11.7030979688
 10
19.7148316539
 20
-11.6905939804
 10
19.7265119464
 20
-11.6779248944
 10
19.73806113
 20
-11.6650898162
 10
19.7494770897
 20
-11.6520900224
 10
19.7607577506
 20
-11.6389268032
 10
19.7719029828
 20
-11.6255991478
 10
19.7829106164
 20
-11.6121084108
 10
19.7937786645
 20
-11.5984558134
 10
19.804507175
 20
-11.584639977
 10
19.8150939733
 20
-11.5706622749
 10
19.8255370836
 20
-11.5565238894
 10
19.8358367392
 20
-11.5422229793
 10
19.845990838
 20
-11.5277608068
 10
19.8559973177
 20
-11.5131386315
 10
19.8658563399
 20
-11.498354412
 10
19.8755658602
 20
-11.483409289
 10
19.8851237379
 20
-11.468304606
 10
19.8945298626
 20
-11.4530384334
 10
19.9037823492
 20
-11.4376115849
 10
19.9128788725
 20
-11.422025683
 10
19.9218185723
 20
-11.406279834
 10
19.930599406
 20
-11.3903751352
 10
19.9392192604
 20
-11.3743129162
 10
19.9476771153
 20
-11.3580924632
 10
19.9559709042
 20
-11.3417149776
 10
19.9640986003
 20
-11.3251816657
 10
19.972059202
 20
-11.3084916583
 10
19.9798506106
 20
-11.2916462818
 10
19.9874708846
 20
-11.2746465828
 10
19.9949191992
 20
-11.2574910961
 10
20.0021936313
 20
-11.2401807241
 10
20.0092920604
 20
-11.22271687
 10
20.0162133072
 20
-11.2050986393
 10
20.02295567
 20
-11.1873263428
 10
20.029516831
 20
-11.1694019154
 10
20.0358947281
 20
-11.1513267569
 10
20.04208746
 20
-11.1331019518
 10
20.0480931078
 20
-11.1147286592
 10
20.0539096989
 20
-11.0962082715
 10
20.0595354115
 20
-11.0775418555
 10
20.0649684072
 20
-11.0587305525
 10
20.0702067945
 20
-11.0397757366
 10
20.0752491241
 20
-11.0206772626
 10
20.080093293
 20
-11.00143742
 10
20.0847366427
 20
-10.982061135
 10
20.0891778387
 20
-10.9625483411
 10
20.0934150133
 20
-10.9429012471
 10
20.0974451437
 20
-10.9231281538
 10
20.1012669218
 20
-10.9032301236
 10
20.1048790184
 20
-10.883208268
 10
20.1082789173
 20
-10.8630709531
 10
20.1114655609
 20
-10.8428192614
 10
20.1144378704
 20
-10.8224542731
 10
20.1171938244
 20
-10.8019843459
 10
20.1197326142
 20
-10.7814103959
 10
20.1220533615
 20
-10.7607336373
 10
20.124154469
 20
-10.7399628787
 10
20.1260353316
 20
-10.7190991353
 10
20.1276953056
 20
-10.6981434642
 10
20.1291332597
 20
-10.6771047682
 10
20.1303487825
 20
-10.6559840989
 10
20.1313414342
 20
-10.634782456
 10
20.1321105287
 20
-10.6135086215
 10
20.1326557742
 20
-10.5921661279
 10
20.1329770259
 20
-10.5707535256
 10
20.1330745245
 20
-10.5507345608
  0
LINE
  5
398
100
AcDbEntity
  8
218_STAMPATO
100
AcDbLine
 62
250
  6
CONTINUOUS
 10
19.0953662734
 20
-12.1640600773
 11
19.4382638494
 21
-11.9155468177
  0
LINE
  5
399
100
AcDbEntity
  8
218_STAMPATO
100
AcDbLine
 62
7
  6
CONTINUOUS
 10
19.171624137
 20
-12.1164729302
 11
19.5128314434
 21
-11.8691846849
  0
LINE
  5
39A
100
AcDbEntity
  8
268
100
AcDbLine
 62
7
  6
CONTINUOUS
 10
3.5885401676
 20
-23.0471447247
 11
2.7753673693
 21
-23.5760158552
  0
LWPOLYLINE
  5
39B
100
AcDbEntity
  8
268
100
AcDbPolyline
 62
7
  6
CONTINUOUS
 90
25
 70
0
 10
9.2783832287
 20
-17.8847878387
 10
9.3042996391
 20
-17.8699556221
 10
9.3308018757
 20
-17.8546886453
 10
9.3578899387
 20
-17.8389869084
 10
9.3855915951
 20
-17.8228378057
 10
9.4138790778
 20
-17.8062539428
 10
9.4426690857
 20
-17.7892731369
 10
9.4719426048
 20
-17.771906563
 10
9.5017186492
 20
-17.754143046
 10
9.5319709602
 20
-17.7359868777
 10
9.5627133946
 20
-17.7174299807
 10
9.5939320956
 20
-17.6984804324
 10
9.6255592352
 20
-17.679166756
 10
9.6576059698
 20
-17.6594821212
 10
9.6900611429
 20
-17.6394333584
 10
9.7228234563
 20
-17.6190694817
 10
9.7559082304
 20
-17.5983806424
 10
9.7893001448
 20
-17.5773766893
 10
9.8228519402
 20
-17.5561361826
 10
9.8565832552
 20
-17.5346458967
 10
9.8904744512
 20
-17.5129190572
 10
9.924319353
 20
-17.4910739014
 10
9.9580492353
 20
-17.4691498418
 10
9.9917328234
 20
-17.4471074658
 10
10.0253701172
 20
-17.4249467735
  0
LWPOLYLINE
  5
39C
100
AcDbEntity
  8
268
100
AcDbPolyline
 62
7
  6
CONTINUOUS
 90
3
 70
0
 10
9.2783832287
 20
-17.8847878387
 10
9.2437987516
 20
-17.9036635363
 10
9.2286319716
 20
-17.9114282725
  0
LINE
  5
39D
100
AcDbEntity
  8
268
100
AcDbLine
 62
250
  6
CONTINUOUS
 10
5.2502411034
 20
-19.9066910222
 11
9.2783832287
 21
-17.8847878387
  0
LINE
  5
39E
100
AcDbEntity
  8
268
100
AcDbLine
 62
7
  6
CONTINUOUS
 10
5.2502411034
 20
-19.908359103
 11
9.2286246817
 21
-17.9114319411
  0
LINE
  5
39F
100
AcDbEntity
  8
268
100
AcDbLine
 62
250
  6
CONTINUOUS
 10
5.2502411034
 20
-19.7907607193
 11
10.0266332059
 21
-17.4216350244
  0
LWPOLYLINE
  5
3A0
100
AcDbEntity
  8
RACCORDO
100
AcDbPolyline
 62
250
  6
CONTINUOUS
 90
16
 70
0
 10
-4.649461018
 20
-24.9132981837
 10
-4.711862314
 20
-24.9371499956
 10
-4.7795500526
 20
-24.9576782148
 10
-4.8517989801
 20
-24.9746628875
 10
-4.9278349712
 20
-24.9879220282
 10
-5.006843323
 20
-24.9973135692
 10
-5.087977485
 20
-25.0027368828
 10
-5.170368129
 20
-25.0041338601
 10
-5.2531324642
 20
-25.0014895326
 10
-5.3353836957
 20
-24.9948322338
 10
-5.4162405264
 20
-24.9842332944
 10
-5.4948365997
 20
-24.969806279
 10
-5.5703297824
 20
-24.9517057688
 10
-5.6419111878
 20
-24.9301257054
 10
-5.7088138428
 20
-24.9052973126
 10
-5.7703209056
 20
-24.8774866193
  0
LWPOLYLINE
  5
3A1
100
AcDbEntity
  8
ASSI
100
AcDbPolyline
 62
250
  6
CONTINUOUS
 90
16
 70
0
 10
-4.649461018
 20
-24.9132981837
 10
-4.711862314
 20
-24.9371499956
 10
-4.7795500526
 20
-24.9576782148
 10
-4.8517989801
 20
-24.9746628875
 10
-4.9278349712
 20
-24.9879220282
 10
-5.006843323
 20
-24.9973135692
 10
-5.087977485
 20
-25.0027368828
 10
-5.170368129
 20
-25.0041338601
 10
-5.2531324642
 20
-25.0014895326
 10
-5.3353836957
 20
-24.9948322338
 10
-5.4162405264
 20
-24.9842332944
 10
-5.4948365997
 20
-24.969806279
 10
-5.5703297824
 20
-24.9517057688
 10
-5.6419111878
 20
-24.9301257054
 10
-5.7088138428
 20
-24.9052973126
 10
-5.7703209056
 20
-24.8774866193
  0
LWPOLYLINE
  5
3A2
100
AcDbEntity
  8
268
100
AcDbPolyline
 62
7
  6
CONTINUOUS
 90
13
 70
0
 10
9.2783832287
 20
20.6034688096
 10
9.2437324188
 20
20.6098984907
 10
9.2085281957
 20
20.6152816435
 10
9.1728083438
 20
20.6196437844
 10
9.1365830269
 20
20.6230377075
 10
9.0999152888
 20
20.6254674572
 10
9.0629190789
 20
20.6268786863
 10
9.025632044
 20
20.6272888213
 10
8.9880810621
 20
20.6267249397
 10
8.9503603612
 20
20.6251329516
 10
8.9125209865
 20
20.6225038606
 10
8.8745718003
 20
20.6188818794
 10
8.8365423608
 20
20.6142870899
  0
LINE
  5
3A3
100
AcDbEntity
  8
268
100
AcDbLine
 62
7
  6
CONTINUOUS
 10
-10.276923484
 20
22.7345973056
 11
-10.8992415161
 21
22.8645378881
  0
LWPOLYLINE
  5
3A4
100
AcDbEntity
  8
218_STAMPATO
100
AcDbPolyline
 62
7
  6
CONTINUOUS
 90
35
 70
0
 10
-0.2178103786
 20
22.0457021105
 10
-0.2199043203
 20
22.0464961817
 10
-0.2219529667
 20
22.0471969973
 10
-0.2240275468
 20
22.0478329381
 10
-0.2261273916
 20
22.0484038181
 10
-0.2282517182
 20
22.0489094215
 10
-0.2303997392
 20
22.049349557
 10
-0.2325707645
 20
22.0497241096
 10
-0.2347639851
 20
22.0500329312
 10
-0.2369785881
 20
22.0502758986
 10
-0.2392138649
 20
22.0504529679
 10
-0.2414689831
 20
22.0505640594
 10
-0.2437431067
 20
22.0506091181
 10
-0.2460355115
 20
22.0505881714
 10
-0.248345344
 20
22.0505012079
 10
-0.2506717481
 20
22.0503482414
 10
-0.2530139864
 20
22.05012937
 10
-0.2553711871
 20
22.0498446511
 10
-0.2577424768
 20
22.0494941664
 10
-0.2601271075
 20
22.049078085
 10
-0.2625241918
 20
22.0485965325
 10
-0.2649328416
 20
22.0480496583
 10
-0.2673523013
 20
22.047437702
 10
-0.2697816707
 20
22.0467608566
 10
-0.2722200497
 20
22.0460193391
 10
-0.2746666777
 20
22.0452134583
 10
-0.2771206446
 20
22.0443434743
 10
-0.2795810412
 20
22.0434096706
 10
-0.2820471044
 20
22.0424124246
 10
-0.284517917
 20
22.0413520623
 10
-0.2869925638
 20
22.0402289329
 10
-0.2894702817
 20
22.039043481
 10
-0.2919502029
 20
22.0377961229
 10
-0.2944313552
 20
22.0364872469
 10
-0.2969128178
 20
22.0351172873
  0
LWPOLYLINE
  5
3A5
100
AcDbEntity
  8
218_STAMPATO
100
AcDbPolyline
 62
7
  6
CONTINUOUS
 90
104
 70
0
 10
-0.2178103903
 20
22.0457021163
 10
-0.2207408624
 20
22.0468652394
 10
-0.2317032291
 20
22.0511342858
 10
-0.2427406983
 20
22.0553048166
 10
-0.2538526044
 20
22.0593777299
 10
-0.2650369041
 20
22.0633533807
 10
-0.2762915307
 20
22.0672320994
 10
-0.287615693
 20
22.0710146147
 10
-0.2990073548
 20
22.0747012157
 10
-0.3104645041
 20
22.0782921735
 10
-0.3219862765
 20
22.0817881003
 10
-0.3335706361
 20
22.0851892233
 10
-0.3452156168
 20
22.0884957685
 10
-0.356920359
 20
22.0917082717
 10
-0.3686828805
 20
22.0948269185
 10
-0.3805011972
 20
22.0978518877
 10
-0.3923743756
 20
22.1007836226
 10
-0.4043004531
 20
22.1036222696
 10
-0.4162774483
 20
22.1063679803
 10
-0.4283043524
 20
22.1090211144
 10
-0.4403791412
 20
22.1115817763
 10
-0.4524999094
 20
22.1140501121
 10
-0.4646657904
 20
22.1164264514
 10
-0.4768746905
 20
22.1187108665
 10
-0.4891247911
 20
22.1209034915
 10
-0.5014156064
 20
22.1230046649
 10
-0.5137451765
 20
22.1250144594
 10
-0.5261115755
 20
22.1269329505
 10
-0.5385143349
 20
22.1287604176
 10
-0.550951522
 20
22.1304969131
 10
-0.5634212055
 20
22.1321424782
 10
-0.5759228851
 20
22.1336973361
 10
-0.5884546534
 20
22.1351615153
 10
-0.60101457
 20
22.1365350311
 10
-0.6136020578
 20
22.1378180511
 10
-0.6262152433
 20
22.1390105816
 10
-0.6388521615
 20
22.1401126204
 10
-0.6515120767
 20
22.1411242766
 10
-0.6641930789
 20
22.1420455344
 10
-0.6768932423
 20
22.142876389
 10
-0.6896117906
 20
22.143616905
 10
-0.7023468065
 20
22.1442670536
 10
-0.7150963715
 20
22.1448268243
 10
-0.7278596924
 20
22.1452962402
 10
-0.7406348547
 20
22.1456752659
 10
-0.7534199349
 20
22.1459638809
 10
-0.7662141132
 20
22.1461620695
 10
-0.7790154857
 20
22.146269793
 10
-0.7918221136
 20
22.1462870176
 10
-0.8046331184
 20
22.1462136947
 10
-0.8174465806
 20
22.1460497816
 10
-0.8302605687
 20
22.145795231
 10
-0.8430741902
 20
22.1454499681
 10
-0.8558855184
 20
22.1450139416
 10
-0.8686926169
 20
22.1444870919
 10
-0.8814945906
 20
22.1438693194
 10
-0.8942895252
 20
22.1431605584
 10
-0.9070754572
 20
22.142360741
 10
-0.9198514306
 20
22.1414697439
 10
-0.9326155393
 20
22.1404874852
 10
-0.9453657962
 20
22.1394138942
 10
-0.9581011322
 20
22.1382488253
 10
-0.970819596
 20
22.1369921885
 10
-0.9835192315
 20
22.1356439079
 10
-0.9961989649
 20
22.1342038048
 10
-1.0088568307
 20
22.1326717806
 10
-1.021490872
 20
22.1310477515
 10
-1.0341000305
 20
22.1293314984
 10
-1.0466823141
 20
22.1275229184
 10
-1.0592357751
 20
22.1256219095
 10
-1.0717594393
 20
22.1236281991
 10
-1.0842513128
 20
22.1215416714
 10
-1.0967094249
 20
22.1193622017
 10
-1.1091328748
 20
22.1170894604
 10
-1.1215196683
 20
22.1147233081
 10
-1.1338678009
 20
22.1122635939
 10
-1.1461764125
 20
22.109709931
 10
-1.1584435037
 20
22.1070621455
 10
-1.1706670327
 20
22.1043200599
 10
-1.1828461357
 20
22.1014832289
 10
-1.1949790646
 20
22.0985513723
 10
-1.2070634769
 20
22.0955243463
 10
-1.2190976784
 20
22.0924018519
 10
-1.2310798552
 20
22.0891835909
 10
-1.2430077123
 20
22.0858693976
 10
-1.2548789101
 20
22.082459119
 10
-1.2666913934
 20
22.0789525121
 10
-1.2784431209
 20
22.0753493361
 10
-1.2901318669
 20
22.0716493868
 10
-1.3017555846
 20
22.0678524036
 10
-1.3133122315
 20
22.0639581181
 10
-1.3247997096
 20
22.0599662563
 10
-1.336216002
 20
22.0558765196
 10
-1.3475590282
 20
22.0516886079
 10
-1.358826754
 20
22.047402188
 10
-1.3700171205
 20
22.0430169299
 10
-1.3811280815
 20
22.0385324651
 10
-1.3921577892
 20
22.0339483366
 10
-1.4031041361
 20
22.0292641643
 10
-1.4139650613
 20
22.024479517
 10
-1.4247389811
 20
22.019593732
 10
-1.4354240369
 20
22.0146062116
 10
-1.446017826
 20
22.009516598
 10
-1.4553243833
 20
22.004922279
  0
LINE
  5
3A6
100
AcDbEntity
  8
268
100
AcDbLine
 62
7
  6
CONTINUOUS
 10
2.3585499721
 20
21.2659280882
 11
-0.4419684851
 21
22.6661873168
  0
LINE
  5
3A7
100
AcDbEntity
  8
268
100
AcDbLine
 62
7
  6
CONTINUOUS
 10
-0.7955218757
 20
23.3955222014
 11
-0.4419684851
 21
23.2187455061
  0
LINE
  5
3A8
100
AcDbEntity
  8
268
100
AcDbLine
 62
7
  6
CONTINUOUS
 10
3.7663656684
 20
21.9598047466
 11
0.9558160214
 21
23.3650795701
  0
LINE
  5
3A9
100
AcDbEntity
  8
218_STAMPATO
100
AcDbLine
 62
7
  6
CONTINUOUS
 10
9.8206946303
 20
19.405285316
 11
10.608483278
 21
19.0113909921
  0
LINE
  5
3AA
100
AcDbEntity
  8
268
100
AcDbLine
 62
7
  6
CONTINUOUS
 10
2.3157479615
 20
23.4388277575
 11
4.5254888497
 21
22.3339573134
  0
LINE
  5
3AB
100
AcDbEntity
  8
268
100
AcDbLine
 62
7
  6
CONTINUOUS
 10
5.2710736728
 20
21.9611649018
 11
5.4168870829
 21
21.8882581968
  0
LWPOLYLINE
  5
3AC
100
AcDbEntity
  8
268
100
AcDbPolyline
 62
7
  6
CONTINUOUS
 90
17
 70
0
 10
10.0253701172
 20
20.122208926
 10
9.9917328234
 20
20.1582710765
 10
9.9580492353
 20
20.1929097361
 10
9.924319353
 20
20.2261249049
 10
9.8904744512
 20
20.2579322089
 10
9.8565832552
 20
20.288316022
 10
9.8228519402
 20
20.3172294661
 10
9.7893001448
 20
20.3446486414
 10
9.7559082304
 20
20.3705974477
 10
9.7228234563
 20
20.3951007062
 10
9.6900611429
 20
20.4181444131
 10
9.6576059698
 20
20.4397425722
 10
9.6255592352
 20
20.4599620162
 10
9.5939320956
 20
20.4787959302
 10
9.5627133946
 20
20.4962511292
 10
9.5319709602
 20
20.5124148907
 10
9.5248211819
 20
20.5160297778
  0
LINE
  5
3AD
100
AcDbEntity
  8
268
100
AcDbLine
 62
7
  6
CONTINUOUS
 10
4.1542255926
 20
-24.5761389829
 11
4.6824927643
 21
-24.3051279243
  0
LINE
  5
3AE
100
AcDbEntity
  8
268
100
AcDbLine
 62
250
  6
CONTINUOUS
 10
4.5431343222
 20
-22.735422107
 11
5.2502411034
 21
-22.3743110272
  0
LINE
  5
3AF
100
AcDbEntity
  8
268
100
AcDbLine
 62
7
  6
CONTINUOUS
 10
4.4531655044
 20
-22.9242346603
 11
5.1602722856
 21
-22.5631235805
  0
LINE
  5
3B0
100
AcDbEntity
  8
268
100
AcDbLine
 62
7
  6
CONTINUOUS
 10
4.4531655287
 20
-22.9242346484
 11
4.4511579334
 21
-22.9252383546
  0
LINE
  5
3B1
100
AcDbEntity
  8
268
100
AcDbLine
 62
250
  6
CONTINUOUS
 10
2.7753673693
 20
-23.6004113605
 11
4.5431343222
 21
-22.735422107
  0
LINE
  5
3B2
100
AcDbEntity
  8
268
100
AcDbLine
 62
7
  6
CONTINUOUS
 10
2.6833909313
 20
-23.7902276321
 11
4.4511578842
 21
-22.9252383786
  0
LINE
  5
3B3
100
AcDbEntity
  8
268
100
AcDbLine
 62
7
  6
CONTINUOUS
 10
2.5529448018
 20
-25.3561735826
 11
4.1542255926
 21
-24.5761389829
  0
LINE
  5
3B4
100
AcDbEntity
  8
RACCORDO
100
AcDbLine
 62
250
  6
CONTINUOUS
 10
-4.2111525652
 20
-25.3316551935
 11
-0.1784548071
 21
-24.0240529299
  0
LINE
  5
3B5
100
AcDbEntity
  8
ASSI
100
AcDbLine
 62
250
  6
CONTINUOUS
 10
-4.2111525652
 20
-25.3316551935
 11
-0.1784548071
 21
-24.0240529299
  0
LINE
  5
3B6
100
AcDbEntity
  8
RACCORDO
100
AcDbLine
 62
7
  6
CONTINUOUS
 10
-0.4836419482
 20
-24.4974638715
 11
-4.5206575568
 21
-25.8064658358
  0
LINE
  5
3B7
100
AcDbEntity
  8
ASSI
100
AcDbLine
 62
7
  6
CONTINUOUS
 10
-0.4836419482
 20
-24.4974638715
 11
-4.5219389249
 21
-25.8068766172
  0
LINE
  5
3B8
100
AcDbEntity
  8
268
100
AcDbLine
 62
7
  6
CONTINUOUS
 10
0.9558160214
 20
23.3650795701
 11
2.3157479615
 21
23.4388277575
  0
LWPOLYLINE
  5
3B9
100
AcDbEntity
  8
268
100
AcDbPolyline
 62
7
  6
CONTINUOUS
 90
18
 70
0
 10
2.0558454575
 20
24.2505065095
 10
2.0363024055
 20
24.2595757639
 10
2.0134066253
 20
24.2685611785
 10
1.989897339
 20
24.2760634113
 10
1.9657560169
 20
24.2820975811
 10
1.9410662636
 20
24.2866433655
 10
1.9158048373
 20
24.2896973489
 10
1.8899949799
 20
24.2912629469
 10
1.863790021
 20
24.2913300835
 10
1.8372060584
 20
24.2898913075
 10
1.8102269944
 20
24.2869540702
 10
1.7829578657
 20
24.2825306489
 10
1.7553836861
 20
24.2766122633
 10
1.7275194418
 20
24.2692076938
 10
1.6995151287
 20
24.2603555592
 10
1.6714207455
 20
24.2500687325
 10
1.6431862935
 20
24.2383343407
 10
1.6148117728
 20
24.2251523839
  0
LWPOLYLINE
  5
3BA
100
AcDbEntity
  8
268
100
AcDbPolyline
 62
7
  6
CONTINUOUS
 90
10
 70
0
 10
9.5248211819
 20
20.5160297778
 10
9.5017186492
 20
20.5272827699
 10
9.4719426048
 20
20.5408592116
 10
9.4426690857
 20
20.5532448284
 10
9.4138790778
 20
20.5644466249
 10
9.3855915951
 20
20.5744575964
 10
9.3578899387
 20
20.5833573409
 10
9.3308018757
 20
20.5911723909
 10
9.3042996391
 20
20.5978762138
 10
9.2783832287
 20
20.6034688096
  0
LINE
  5
3BB
100
AcDbEntity
  8
268
100
AcDbLine
 62
7
  6
CONTINUOUS
 10
-0.5517097841
 20
25.13580031
 11
-0.371257807
 21
25.0455743215
  0
LINE
  5
3BC
100
AcDbEntity
  8
268
100
AcDbLine
 62
7
  6
CONTINUOUS
 10
5.00275373
 20
22.358568553
 11
5.1832057072
 21
22.2683425644
  0
LINE
  5
3BD
100
AcDbEntity
  8
268
100
AcDbLine
 62
250
  6
CONTINUOUS
 10
-1.3642781282
 20
25.7146973344
 11
1.6148117728
 21
24.2251523839
  0
LINE
  5
3BE
100
AcDbEntity
  8
268
100
AcDbLine
 62
250
  6
CONTINUOUS
 10
5.8574524599
 20
22.1038320404
 11
8.8365423608
 21
20.6142870899
  0
LINE
  5
3BF
100
AcDbEntity
  8
268
100
AcDbLine
 62
7
  6
CONTINUOUS
 10
-1.1704684673
 20
25.8636634721
 11
2.0558547758
 21
24.2505018505
  0
LINE
  5
3C0
100
AcDbEntity
  8
268
100
AcDbLine
 62
7
  6
CONTINUOUS
 10
6.2984954629
 20
22.129181507
 11
9.5248187061
 21
20.5160198854
  0
LWPOLYLINE
  5
3C1
100
AcDbEntity
  8
218_STAMPATO
100
AcDbPolyline
 62
250
  6
CONTINUOUS
 90
52
 70
0
 10
12.9996959224
 20
24.7576627644
 10
12.9927097753
 20
24.7609644696
 10
12.9854688504
 20
24.7642012883
 10
12.9781560583
 20
24.7672868064
 10
12.9707726246
 20
24.7702205069
 10
12.9633197863
 20
24.7730018983
 10
12.9557987922
 20
24.7756305145
 10
12.9482109025
 20
24.7781059151
 10
12.9405573887
 20
24.7804276853
 10
12.9328395331
 20
24.782595436
 10
12.925058629
 20
24.7846088041
 10
12.9172159801
 20
24.7864674522
 10
12.9093129004
 20
24.7881710689
 10
12.9013507143
 20
24.7897193686
 10
12.8933307558
 20
24.791112092
 10
12.8852543688
 20
24.7923490058
 10
12.8771229066
 20
24.7934299025
 10
12.8689377316
 20
24.7943546012
 10
12.8607002153
 20
24.7951229469
 10
12.8524117379
 20
24.7957348109
 10
12.8440736884
 20
24.7961900906
 10
12.8356874638
 20
24.7964887097
 10
12.8272544693
 20
24.7966306183
 10
12.8187761179
 20
24.7966157925
 10
12.8102538302
 20
24.7964442348
 10
12.8016890342
 20
24.7961159739
 10
12.793083165
 20
24.795631065
 10
12.7844376646
 20
24.7949895891
 10
12.7757539816
 20
24.7941916538
 10
12.7670335711
 20
24.7932373929
 10
12.7582778942
 20
24.7921269661
 10
12.749488418
 20
24.7908605596
 10
12.7406666152
 20
24.7894383855
 10
12.7318139641
 20
24.7878606822
 10
12.7229319479
 20
24.786127714
 10
12.714022055
 20
24.7842397713
 10
12.7050857782
 20
24.7821971704
 10
12.6961246149
 20
24.7800002536
 10
12.6871400667
 20
24.777649389
 10
12.6781336388
 20
24.7751449704
 10
12.6691068405
 20
24.7724874176
 10
12.6600611843
 20
24.7696771759
 10
12.6509981859
 20
24.766714716
 10
12.6419193637
 20
24.7636005344
 10
12.6328262391
 20
24.760335153
 10
12.6237203357
 20
24.7569191187
 10
12.6146031793
 20
24.7533530041
 10
12.6054762975
 20
24.7496374067
 10
12.5963412195
 20
24.7457729489
 10
12.5871994762
 20
24.7417602785
 10
12.5780525991
 20
24.7376000677
 10
12.5689021211
 20
24.7332930135
  0
LINE
  5
3C2
100
AcDbEntity
  8
218_STAMPATO
100
AcDbLine
 62
250
  6
CONTINUOUS
 10
13.0037750016
 20
24.7556563431
 11
12.9996959224
 21
24.7576627644
  0
LINE
  5
3C3
100
AcDbEntity
  8
218_STAMPATO
100
AcDbLine
 62
250
  6
CONTINUOUS
 10
19.0953662734
 20
21.4700609374
 11
12.5689021211
 21
24.7332930135
  0
LINE
  5
3C4
100
AcDbEntity
  8
218_STAMPATO
100
AcDbLine
 62
7
  6
CONTINUOUS
 10
19.4642647042
 20
21.5254114919
 11
13.0037750016
 21
24.7556563431
  0
LWPOLYLINE
  5
3C5
100
AcDbEntity
  8
218_STAMPATO
100
AcDbPolyline
 62
250
  6
CONTINUOUS
 90
52
 70
0
 10
12.5689021211
 20
24.7332930135
 10
12.5598099805
 20
24.7379218754
 10
12.5507172836
 20
24.7424005788
 10
12.5416255876
 20
24.7467283565
 10
12.5325364498
 20
24.7509044673
 10
12.5234514269
 20
24.7549281959
 10
12.5143720751
 20
24.7587988532
 10
12.5052999494
 20
24.7625157762
 10
12.4962366037
 20
24.7660783282
 10
12.4871835903
 20
24.7694858991
 10
12.4781424599
 20
24.7727379053
 10
12.4691147609
 20
24.7758337896
 10
12.4601020396
 20
24.778773022
 10
12.4511058397
 20
24.7815550988
 10
12.4421277021
 20
24.7841795438
 10
12.4331691646
 20
24.7866459072
 10
12.4242317614
 20
24.7889537667
 10
12.4153170235
 20
24.7911027271
 10
12.4064264777
 20
24.7930924201
 10
12.3975616467
 20
24.7949225051
 10
12.388724049
 20
24.7965926686
 10
12.3799151982
 20
24.7981026246
 10
12.371136603
 20
24.7994521143
 10
12.3623897672
 20
24.8006409067
 10
12.3536761887
 20
24.8016687981
 10
12.3449973601
 20
24.8025356125
 10
12.3363547679
 20
24.8032412015
 10
12.3277498923
 20
24.8037854441
 10
12.3191842072
 20
24.8041682472
 10
12.3106591796
 20
24.8043895452
 10
12.3021762698
 20
24.8044493001
 10
12.2937369307
 20
24.8043475018
 10
12.2853426078
 20
24.8040841677
 10
12.2769947387
 20
24.8036593429
 10
12.2686947534
 20
24.8030731002
 10
12.2604440735
 20
24.8023255399
 10
12.252244112
 20
24.8014167901
 10
12.2440962736
 20
24.8003470065
 10
12.2360019536
 20
24.7991163723
 10
12.2279625386
 20
24.7977250982
 10
12.2199794055
 20
24.7961734226
 10
12.2120539216
 20
24.7944616113
 10
12.2041874444
 20
24.7925899573
 10
12.1963813212
 20
24.7905587814
 10
12.1886368891
 20
24.7883684314
 10
12.1809554746
 20
24.7860192824
 10
12.1733383932
 20
24.7835117368
 10
12.1657869497
 20
24.7808462242
 10
12.1583024373
 20
24.7780232009
 10
12.1508861382
 20
24.7750431507
 10
12.1435393225
 20
24.7719065839
 10
12.137282696
 20
24.7690867198
  0
LWPOLYLINE
  5
3C6
100
AcDbEntity
  8
218_STAMPATO
100
AcDbPolyline
 62
7
  6
CONTINUOUS
 90
24
 70
0
 10
19.4642647042
 20
21.5254114919
 10
19.4672751498
 20
21.5238671035
 10
19.4707503833
 20
21.5219834502
 10
19.4741576342
 20
21.520025959
 10
19.4774964852
 20
21.5179950957
 10
19.4807665326
 20
21.5158913297
 10
19.4839680793
 20
21.5137147834
 10
19.4871007269
 20
21.5114659421
 10
19.49016409
 20
21.5091452937
 10
19.4931584995
 20
21.5067529732
 10
19.4960835759
 20
21.5042894838
 10
19.4989389521
 20
21.5017553318
 10
19.5017249859
 20
21.4991506638
 10
19.5044413167
 20
21.4964760005
 10
19.5070875957
 20
21.4937318657
 10
19.509664207
 20
21.4909184171
 10
19.5121708085
 20
21.4880361919
 10
19.51460707
 20
21.4850857308
 10
19.5169734005
 20
21.4820672019
 10
19.5192694768
 20
21.4789811586
 10
19.5214949869
 20
21.4758281573
 10
19.523650364
 20
21.4726083762
 10
19.5257353037
 20
21.4693223839
 10
19.527749512
 20
21.465970752
  0
LINE
  5
3C7
100
AcDbEntity
  8
218_STAMPATO
100
AcDbLine
 62
7
  6
CONTINUOUS
 10
19.7911070981
 20
21.0117484593
 11
19.527749512
 21
21.465970752
  0
ARC
  5
3C8
100
AcDbEntity
  8
218_STAMPATO
100
AcDbCircle
 62
7
  6
CONTINUOUS
 10
12.5565614061
 20
23.8612291521
 40
1.0
100
AcDbArc
 50
63.4349488046
 51
114.7890578208
  0
ELLIPSE
  5
3C9
100
AcDbEntity
  8
RACCORDO
100
AcDbEllipse
 62
7
  6
CONTINUOUS
 10
-11.6896611472
 20
20.950618214
 30
0.0
 11
-0.2714549605
 21
0.7527883138
 31
0.0
 40
0.6648474984
 41
-0.6093959365
 42
0.0216334957
  0
ELLIPSE
  5
3CA
100
AcDbEntity
  8
RACCORDO
100
AcDbEllipse
 62
7
  6
CONTINUOUS
 10
-0.7442068939
 20
-23.7409476794
 30
0.0
 11
-0.2714549605
 21
0.7527883138
 31
0.0
 40
0.6648474984
 41
-3.163226158
 42
-2.1804968498
  0
ELLIPSE
  5
3CB
100
AcDbEntity
  8
RACCORDO
100
AcDbEllipse
 62
7
  6
CONTINUOUS
 10
2.5937234932
 20
13.8089258938
 30
0.0
 11
-0.2711888907
 21
0.7526410468
 31
0.0
 40
0.6652277853
 41
-2.1799207184
 42
-0.6094289781
  0
ELLIPSE
  5
3CC
100
AcDbEntity
  8
ASSI
100
AcDbEllipse
 62
7
  6
CONTINUOUS
 10
-11.6896611472
 20
20.950618214
 30
0.0
 11
-0.2714549605
 21
0.7527883138
 31
0.0
 40
0.6648474984
 41
-0.6093959365
 42
0.0216334957
  0
ELLIPSE
  5
3CD
100
AcDbEntity
  8
ASSI
100
AcDbEllipse
 62
7
  6
CONTINUOUS
 10
-0.7442068939
 20
-23.7409476794
 30
0.0
 11
-0.2714549605
 21
0.7527883138
 31
0.0
 40
0.6648474984
 41
-3.163226158
 42
-2.1804968498
  0
ELLIPSE
  5
3CE
100
AcDbEntity
  8
ASSI
100
AcDbEllipse
 62
7
  6
CONTINUOUS
 10
2.5937234932
 20
13.8089258938
 30
0.0
 11
-0.2711888907
 21
0.7526410468
 31
0.0
 40
0.6652277853
 41
-2.1799207184
 42
-0.6094289781
  0
ELLIPSE
  5
3CF
100
AcDbEntity
  8
268
100
AcDbEllipse
 62
7
  6
CONTINUOUS
 10
0.9461458487
 20
-24.3352429798
 30
0.0
 11
0.110769438
 21
0.2241226716
 31
0.0
 40
0.6088015717
 41
-4.0304836828
 42
-3.1444065583
  0
ELLIPSE
  5
3D0
100
AcDbEntity
  8
268
100
AcDbEllipse
 62
7
  6
CONTINUOUS
 10
-12.4181723157
 20
23.8998916356
 30
0.0
 11
0.110769438
 21
0.2241226716
 31
0.0
 40
0.6088015717
 41
-4.0304836828
 42
-3.144406558
  0
ELLIPSE
  5
3D1
100
AcDbEntity
  8
268
100
AcDbEllipse
 62
7
  6
CONTINUOUS
 10
0.9461458487
 20
17.2177325533
 30
0.0
 11
0.110769438
 21
0.2241226716
 31
0.0
 40
0.6088015717
 41
-4.0304836828
 42
-3.144406558
  0
ELLIPSE
  5
3D2
100
AcDbEntity
  8
268
100
AcDbEllipse
 62
7
  6
CONTINUOUS
 10
5.00275373
 20
15.9260145042
 30
0.0
 11
-0.1565168911
 21
0.3130623908
 31
0.0
 40
0.6123677712
 41
-2.2554744912
 42
-0.6846781644
  0
ELLIPSE
  5
3D3
100
AcDbEntity
  8
268
100
AcDbEllipse
 62
7
  6
CONTINUOUS
 10
5.00275373
 20
-22.2505673405
 30
0.0
 11
-0.1565168911
 21
0.3130623908
 31
0.0
 40
0.6123677712
 41
-3.1363565269
 42
-2.2554744912
  0
ELLIPSE
  5
3D4
100
AcDbEntity
  8
268
100
AcDbEllipse
 62
7
  6
CONTINUOUS
 10
-0.7638418185
 20
25.0312458094
 30
0.0
 11
0.2999991737
 21
-0.0014183462
 31
0.0
 40
0.4964289597
 41
0.7877451926
 42
2.3527237553
  0
ELLIPSE
  5
3D5
100
AcDbEntity
  8
268
100
AcDbEllipse
 62
7
  6
CONTINUOUS
 10
4.7906216957
 20
22.2540140523
 30
0.0
 11
0.2999991737
 21
-0.0014183462
 31
0.0
 40
0.4964289597
 41
0.7877451926
 42
2.3585415194
  0
ELLIPSE
  5
3D6
100
AcDbEntity
  8
268
100
AcDbEllipse
 62
7
  6
CONTINUOUS
 10
4.3299738312
 20
16.5435855151
 30
0.0
 11
0.110769438
 21
0.2241226716
 31
0.0
 40
0.6088015717
 41
1.2055040732
 42
2.2526937431
  0
ELLIPSE
  5
3D7
100
AcDbEntity
  8
268
100
AcDbEllipse
 62
7
  6
CONTINUOUS
 10
-9.0343443333
 20
23.2257445973
 30
0.0
 11
0.110769438
 21
0.2241226716
 31
0.0
 40
0.6088015717
 41
1.2055040732
 42
2.2526937431
  0
ELLIPSE
  5
3D8
100
AcDbEntity
  8
268
100
AcDbEllipse
 62
7
  6
CONTINUOUS
 10
4.6814703083
 20
17.4713906671
 30
0.0
 11
0.110769438
 21
0.2241226716
 31
0.0
 40
0.6088015717
 41
-1.9360885804
 42
-0.8888910292
  0
ELLIPSE
  5
3D9
100
AcDbEntity
  8
268
100
AcDbEllipse
 62
7
  6
CONTINUOUS
 10
3.0612954519
 20
18.5424070717
 30
0.0
 11
0.1128509832
 21
0.2230818409
 31
0.0
 40
0.6159267166
 41
0.0028868672
 42
0.6817883054
  0
ELLIPSE
  5
3DA
100
AcDbEntity
  8
268
100
AcDbEllipse
 62
7
  6
CONTINUOUS
 10
0.9461458487
 20
17.4711039471
 30
0.0
 11
0.110769438
 21
0.2241226716
 31
0.0
 40
0.6088015717
 41
0.6877230618
 42
2.2527016244
  0
ELLIPSE
  5
3DB
100
AcDbEntity
  8
268
100
AcDbEllipse
 62
7
  6
CONTINUOUS
 10
-8.6828478561
 20
24.1535497493
 30
0.0
 11
0.110769438
 21
0.2241226716
 31
0.0
 40
0.6088015717
 41
-1.9360885804
 42
-0.8888910292
  0
ELLIPSE
  5
3DC
100
AcDbEntity
  8
268
100
AcDbEllipse
 62
7
  6
CONTINUOUS
 10
-10.3030227125
 20
25.2245661539
 30
0.0
 11
0.1128509832
 21
0.2230818409
 31
0.0
 40
0.6159267166
 41
0.0028868672
 42
0.6817883054
  0
ELLIPSE
  5
3DD
100
AcDbEntity
  8
268
100
AcDbEllipse
 62
7
  6
CONTINUOUS
 10
-12.4181723157
 20
24.1532630293
 30
0.0
 11
0.110769438
 21
0.2241226716
 31
0.0
 40
0.6088015717
 41
0.6877230618
 42
2.2527016244
  0
ELLIPSE
  5
3DE
100
AcDbEntity
  8
268
100
AcDbEllipse
 62
7
  6
CONTINUOUS
 10
4.6814703083
 20
-24.0891424486
 30
0.0
 11
0.110769438
 21
0.2241226716
 31
0.0
 40
0.6088015717
 41
-2.4538695918
 42
-0.8888910292
  0
ELLIPSE
  5
3DF
100
AcDbEntity
  8
268
100
AcDbEllipse
 62
7
  6
CONTINUOUS
 10
0.9461458487
 20
-24.081871586
 30
0.0
 11
0.110769438
 21
0.2241226716
 31
0.0
 40
0.6088015717
 41
1.2055040732
 42
2.2527016244
  0
ELLIPSE
  5
3E0
100
AcDbEntity
  8
268
100
AcDbEllipse
 62
7
  6
CONTINUOUS
 10
4.6814703083
 20
-23.8282134723
 30
0.0
 11
0.110769438
 21
0.2241226716
 31
0.0
 40
0.6088015717
 41
5.394294278
 42
6.4414918292
  0
ELLIPSE
  5
3E1
100
AcDbEntity
  8
268
100
AcDbEllipse
 62
7
  6
CONTINUOUS
 10
-8.6828478561
 20
24.4144787257
 30
0.0
 11
0.110769438
 21
0.2241226716
 31
0.0
 40
0.6088015717
 41
5.394294278
 42
6.9592728406
  0
ELLIPSE
  5
3E2
100
AcDbEntity
  8
268
100
AcDbEllipse
 62
7
  6
CONTINUOUS
 10
4.6814703083
 20
17.7323196435
 30
0.0
 11
0.110769438
 21
0.2241226716
 31
0.0
 40
0.6088015717
 41
5.394294278
 42
6.9592728406
  0
ELLIPSE
  5
3E3
100
AcDbEntity
  8
268
100
AcDbEllipse
 62
7
  6
CONTINUOUS
 10
-0.5833898414
 20
23.7091856394
 30
0.0
 11
0.2999981629
 21
-0.0021225547
 31
0.0
 40
0.4946372042
 41
-0.7818985079
 42
0.0034996555
  0
ELLIPSE
  5
3E4
100
AcDbEntity
  8
268
100
AcDbEllipse
 62
7
  6
CONTINUOUS
 10
4.9710736728
 20
20.9319538823
 30
0.0
 11
0.2999981629
 21
-0.0021225547
 31
0.0
 40
0.4946372042
 41
-0.7760807437
 42
0.0034996555
  0
ELLIPSE
  5
3E5
100
AcDbEntity
  8
268
100
AcDbEllipse
 62
7
  6
CONTINUOUS
 10
-6.7323355688
 20
22.1110644415
 30
0.0
 11
0.2999991335
 21
0.0014318851
 31
0.0
 40
0.5035541159
 41
8.6427941204
 42
10.207772683
  0
ELLIPSE
  5
3E6
100
AcDbEntity
  8
268
100
AcDbEllipse
 62
7
  6
CONTINUOUS
 10
2.5278799959
 20
-23.4766676737
 30
0.0
 11
-0.1565168911
 21
0.3130623908
 31
0.0
 40
0.6123677712
 41
2.4569144891
 42
4.0277108159
  0
ELLIPSE
  5
3E7
100
AcDbEntity
  8
268
100
AcDbEllipse
 62
7
  6
CONTINUOUS
 10
-12.7456264778
 20
22.3139943402
 30
0.0
 11
-0.1565168911
 21
0.3130623908
 31
0.0
 40
0.6123677712
 41
-0.6846781644
 42
0.8861181623
  0
ELLIPSE
  5
3E8
100
AcDbEntity
  8
268
100
AcDbEllipse
 62
7
  6
CONTINUOUS
 10
2.5278799959
 20
14.6772411033
 30
0.0
 11
-0.1565168911
 21
0.3130623908
 31
0.0
 40
0.6123677712
 41
-2.2554744912
 42
-0.6846781644
  0
ELLIPSE
  5
3E9
100
AcDbEntity
  8
268
100
AcDbEllipse
 62
7
  6
CONTINUOUS
 10
1.1413454013
 20
-8.3658621226
 30
0.0
 11
-0.1085782352
 21
0.1690527654
 31
0.0
 40
0.5459771812
 41
-3.2041463442
 42
-2.3138348679
  0
ELLIPSE
  5
3EA
100
AcDbEntity
  8
268
100
AcDbEllipse
 62
7
  6
CONTINUOUS
 10
-0.9398265008
 20
19.2148099074
 30
0.0
 11
0.2999991335
 21
0.0014318851
 31
0.0
 40
0.5035541159
 41
-2.3585979313
 42
-0.7936193687
  0
ELLIPSE
  5
3EB
100
AcDbEntity
  8
268
100
AcDbEllipse
 62
7
  6
CONTINUOUS
 10
-0.9398265008
 20
18.0006108316
 30
0.0
 11
0.2999980272
 21
0.0021530184
 31
0.0
 40
0.5053247124
 41
-2.3598210761
 42
-0.7948425135
  0
ELLIPSE
  5
3EC
100
AcDbEntity
  8
268
100
AcDbEllipse
 62
7
  6
CONTINUOUS
 10
-6.7323355688
 20
20.8968653656
 30
0.0
 11
0.2999980272
 21
0.0021530184
 31
0.0
 40
0.5053247124
 41
3.1379660677
 42
3.9233642311
  0
ELLIPSE
  5
3ED
100
AcDbEntity
  8
268
100
AcDbEllipse
 62
7
  6
CONTINUOUS
 10
4.9710736728
 20
22.1637880637
 30
0.0
 11
0.2999991737
 21
-0.0014183462
 31
0.0
 40
0.4964289597
 41
-0.77723337
 42
0.7877451926
  0
ELLIPSE
  5
3EE
100
AcDbEntity
  8
268
100
AcDbEllipse
 62
7
  6
CONTINUOUS
 10
-0.5833898414
 20
24.9410198208
 30
0.0
 11
0.2999991737
 21
-0.0014183462
 31
0.0
 40
0.4964289597
 41
-0.7830511342
 42
0.7877451926
  0
ELLIPSE
  5
3EF
100
AcDbEntity
  8
268
100
AcDbEllipse
 62
7
  6
CONTINUOUS
 10
4.3299738312
 20
-23.2560186243
 30
0.0
 11
0.110769438
 21
0.2241226716
 31
0.0
 40
0.6088015717
 41
2.2527095058
 42
3.2998991756
  0
ELLIPSE
  5
3F0
100
AcDbEntity
  8
268
100
AcDbEllipse
 62
7
  6
CONTINUOUS
 10
2.5539792244
 20
16.6671872593
 30
0.0
 11
0.1128509832
 21
0.2230818409
 31
0.0
 40
0.6159267166
 41
0.6934238338
 42
2.2584023964
  0
ELLIPSE
  5
3F1
100
AcDbEntity
  8
268
100
AcDbEllipse
 62
7
  6
CONTINUOUS
 10
2.5539792244
 20
16.4138158655
 30
0.0
 11
0.1128509832
 21
0.2230818409
 31
0.0
 40
0.6159267166
 41
-4.0247829108
 42
-2.9775853596
  0
ELLIPSE
  5
3F2
100
AcDbEntity
  8
268
100
AcDbEllipse
 62
7
  6
CONTINUOUS
 10
-10.81033894
 20
23.3493463415
 30
0.0
 11
0.1128509832
 21
0.2230818409
 31
0.0
 40
0.6159267166
 41
0.6934238338
 42
2.2584023964
  0
ELLIPSE
  5
3F3
100
AcDbEntity
  8
268
100
AcDbEllipse
 62
7
  6
CONTINUOUS
 10
-10.81033894
 20
23.0959749477
 30
0.0
 11
0.1128509832
 21
0.2230818409
 31
0.0
 40
0.6159267166
 41
-4.0247829108
 42
-2.9775853596
  0
ELLIPSE
  5
3F4
100
AcDbEntity
  8
268
100
AcDbEllipse
 62
7
  6
CONTINUOUS
 10
0.8756736897
 20
-18.0350133069
 30
0.0
 11
-0.542618321
 21
0.8478124368
 31
0.0
 40
0.5451249042
 41
-3.2164266024
 42
-2.3115524019
  0
ELLIPSE
  5
3F5
100
AcDbEntity
  8
268
100
AcDbEllipse
 62
7
  6
CONTINUOUS
 10
2.5539792244
 20
-25.1391596676
 30
0.0
 11
0.1128509832
 21
0.2230818409
 31
0.0
 40
0.6159267166
 41
-4.0247829108
 42
-2.4598043482
  0
ELLIPSE
  5
3F6
100
AcDbEntity
  8
268
100
AcDbEllipse
 62
7
  6
CONTINUOUS
 10
2.5539792244
 20
-24.8857882739
 30
0.0
 11
0.1128509832
 21
0.2230818409
 31
0.0
 40
0.6159267166
 41
1.2112048452
 42
2.2584023964
  0
ENDSEC
  0
SECTION
  2
OBJECTS
  0
DICTIONARY
  5
C
100
AcDbDictionary
280
0
281
1
  3
ACAD_GROUP
350
D
  3
ACAD_MLINESTYLE
350
17
  3
ACAD_LAYOUT
350
1A
  3
ACAD_PLOTSETTINGS
350
19
  3
ACAD_PLOTSTYLENAME
350
E
  0
DICTIONARY
  5
D
102
{ACAD_REACTORS
330
C
102
}
100
AcDbDictionary
280
0
281
1
  0
ACDBDICTIONARYWDFLT
  5
E
102
{ACAD_REACTORS
330
C
102
}
100
AcDbDictionary
281
1
  3
Normal
350
F
100
AcDbDictionaryWithDefault
340
F
  0
DICTIONARY
  5
17
102
{ACAD_REACTORS
330
C
102
}
100
AcDbDictionary
280
0
281
1
  3
Standard
350
18
  0
DICTIONARY
  5
19
102
{ACAD_REACTORS
330
C
102
}
100
AcDbDictionary
281
1
  0
DICTIONARY
  5
1A
102
{ACAD_REACTORS
330
C
102
}
100
AcDbDictionary
281
1
  3
Model
350
3F7
  3
Layout1
350
3F8
  0
ACDBPLACEHOLDER
  5
F
102
{ACAD_REACTORS
330
E
102
}
  0
MLINESTYLE
  5
18
102
{ACAD_REACTORS
330
17
102
}
100
AcDbMlineStyle
  2
STANDARD
 70
0
  3

 62
256
 51
90.0
 52
90.0
 71
2
 49
0.5
 62
256
  6
BYLAYER
 49
-0.5
 62
256
  6
BYLAYER
  0
LAYOUT
  5
3F7
102
{ACAD_REACTORS
330
1A
102
}
100
AcDbPlotSettings
  1

  2
none_device
  4
ISO_A4_(297.00_x_210.00_MM)
  6

 40
0.0
 41
0.0
 42
0.0
 43
0.0
 44
297.0
 45
210.0
 46
0.0
 47
0.0
 48
0.0
 49
0.0
140
0.0
141
0.0
142
1.0
143
1.0
 70
1024
 72
1
 73
0
 74
0
  7

 75
0
147
1.0
148
0.0
149
0.0
100
AcDbLayout
  1
Model
 70
0
 71
0
 10
0.0
 20
0.0
 11
297.0
 21
210.0
 12
0.0
 22
0.0
 32
0.0
 14
0.0
 24
0.0
 34
0.0
 15
0.0
 25
0.0
 35
0.0
146
0.0
 13
0.0
 23
0.0
 33
0.0
 16
1.0
 26
0.0
 36
0.0
 17
0.0
 27
1.0
 37
0.0
 76
0
330
229
345
0
346
0
  0
LAYOUT
  5
3F8
102
{ACAD_REACTORS
330
1A
102
}
100
AcDbPlotSettings
  1

  2
none_device
  4
ISO_A4_(297.00_x_210.00_MM)
  6

 40
0.0
 41
0.0
 42
0.0
 43
0.0
 44
297.0
 45
210.0
 46
0.0
 47
0.0
 48
0.0
 49
0.0
140
0.0
141
0.0
142
1.0
143
1.0
 70
0
 72
1
 73
0
 74
0
  7

 75
0
147
1.0
148
0.0
149
0.0
100
AcDbLayout
  1
Layout1
 70
0
 71
1
 10
0.0
 20
0.0
 11
297.0
 21
210.0
 12
0.0
 22
0.0
 32
0.0
 14
0.0
 24
0.0
 34
0.0
 15
0.0
 25
0.0
 35
0.0
146
0.0
 13
0.0
 23
0.0
 33
0.0
 16
1.0
 26
0.0
 36
0.0
 17
0.0
 27
1.0
 37
0.0
 76
0
330
22A
345
0
346
0
  0
ENDSEC
  0
EOF
