0
SECTION
2
HEADER
9
$ACADVER
1
AC1014
9
$HANDSEED
5
       361
9
$EXTMAX
10
297.0000000000
20
210.0000000000
9
$EXTMIN
10
0.0000000000
20
0.0000000000
9
$LIMMIN
10
0.0000000000
20
0.0000000000
9
$LIMMAX
10
297.0000000000
20
210.0000000000
9
$VIEWCTR
10
148.5000000000
20
105.0000000000
9
$VIEWSIZE
40
210.0000000000
9
$CLAYER
8
0
9
$LTSCALE
40
16.3350000000
9
$CELTYPE
6
BYLAYER
9
$DIMSCALE
40
1
9
$DIMASZ
40
3.0000000000
9
$DIMEXO
40
1.8562500000
9
$DIMDLI
40
11.2860000000
9
$DIMEXE
40
5.3460000000
9
$DIMCEN
40
2.6730000000
9
$DIMLFAC
40
1.0000000000
9
$DIMTXT
40
3.0000000000
9
$DIMTOL
70
1
9
$DIMLIM
70
0
9
$DIMTFAC
40
1.0000000000
9
$DIMTP
40
0.0100000000
9
$DIMTM
40
0.0100000000
9
$MEASUREMENT
70
1
0
ENDSEC
0
SECTION
2
CLASSES
0
ENDSEC
0
SECTION
2
TABLES
0
TABLE
2
VPORT
5
8
100
AcDbSymbolTable
70
2
0
VPORT
5
1F4
100
AcDbSymbolTableRecord
100
AcDbViewportTableRecord
2
*ACTIVE
70
0
10
0.0
20
0.0
11
1.0
21
1.0
12
148.5000000000
22
105.0000000000
13
0.0
23
0.0
14
1.0
24
1.0
15
0.0
25
0.0
16
0.0
26
0.0
36
1.0
17
0.0
27
0.0
37
0.0
40
210.0000000000
41
1.4142857143
42
50.0
43
0.0
44
0.0
50
0.0
51
0.0
71
0
72
100
73
1
74
1
75
0
76
0
77
0
78
0
0
ENDTAB
0
TABLE
2
LTYPE
5
5
100
AcDbSymbolTable
70
6
0
LTYPE
5
14
100
AcDbSymbolTableRecord
100
AcDbLinetypeTableRecord
2
BYBLOCK
70
0
3

72
65
73
0
40
0.0
0
LTYPE
5
15
100
AcDbSymbolTableRecord
100
AcDbLinetypeTableRecord
2
BYLAYER
70
0
3

72
65
73
0
40
0.0
0
LTYPE
5
16
100
AcDbSymbolTableRecord
100
AcDbLinetypeTableRecord
2
CONTINUOUS
70
64
3
Solid line
72
65
73
0
40
0
0
LTYPE
5
1F5
100
AcDbSymbolTableRecord
100
AcDbLinetypeTableRecord
2
CENTER
70
64
3
____ _ ____ _ ____ _ ____ _ ____ _ ____ _ ____
72
65
73
4
40
0.6
49
0.375
74
0
49
-0.075
74
0
49
0.075
74
0
49
-0.075
74
0
0
LTYPE
5
1F6
100
AcDbSymbolTableRecord
100
AcDbLinetypeTableRecord
2
HIDDEN
70
64
3
- - - - - - - - - - - - - - - - - - - -
72
65
73
2
40
0.2
49
0.1
74
0
49
-0.1
74
0
0
LTYPE
5
1F7
100
AcDbSymbolTableRecord
100
AcDbLinetypeTableRecord
2
PHANTOM
70
64
3
_____ _ _ _____ _ _ _____ _ _ _____
72
65
73
6
40
0.8
49
0.45
74
0
49
-0.05
74
0
49
0.1
74
0
49
-0.05
74
0
49
0.1
74
0
49
-0.05
74
0
0
LTYPE
5
1F8
100
AcDbSymbolTableRecord
100
AcDbLinetypeTableRecord
2
DOT
70
64
3
. . . . . . . . . . . . . . . . . . . .
72
65
73
2
40
0.2
49
0.1
74
0
49
-0.1
74
0
0
LTYPE
5
1F9
100
AcDbSymbolTableRecord
100
AcDbLinetypeTableRecord
2
DASHED
70
64
3
- - - - - - - - - - - - - - - - - - - -
72
65
73
2
40
0.2
49
0.1
74
0
49
-0.1
74
0
0
ENDTAB
0
TABLE
2
LAYER
5
2
100
AcDbSymbolTable
70
36
0
LAYER
5
10
100
AcDbSymbolTableRecord
100
AcDbLayerTableRecord
2
0
70
0
62
7
6
CONTINUOUS
0
LAYER
5
1FA
100
AcDbSymbolTableRecord
100
AcDbLayerTableRecord
2
DEFAULT_1
70
0
62
7
6
CENTER
0
LAYER
5
1FB
100
AcDbSymbolTableRecord
100
AcDbLayerTableRecord
2
DEFAULT_2
70
0
62
8
6
HIDDEN
0
LAYER
5
1FC
100
AcDbSymbolTableRecord
100
AcDbLayerTableRecord
2
DEFAULT_3
70
0
62
7
6
PHANTOM
0
LAYER
5
1FD
100
AcDbSymbolTableRecord
100
AcDbLayerTableRecord
2
218_INCISO
70
0
62
7
6
CONTINUOUS
0
LAYER
5
1FE
100
AcDbSymbolTableRecord
100
AcDbLayerTableRecord
2
218_STAMPATO
70
0
62
7
6
CONTINUOUS
0
LAYER
5
1FF
100
AcDbSymbolTableRecord
100
AcDbLayerTableRecord
2
260
70
0
62
7
6
CONTINUOUS
0
LAYER
5
200
100
AcDbSymbolTableRecord
100
AcDbLayerTableRecord
2
268
70
0
62
7
6
CONTINUOUS
0
LAYER
5
201
100
AcDbSymbolTableRecord
100
AcDbLayerTableRecord
2
284
70
0
62
7
6
CONTINUOUS
0
LAYER
5
202
100
AcDbSymbolTableRecord
100
AcDbLayerTableRecord
2
320
70
0
62
7
6
CONTINUOUS
0
LAYER
5
203
100
AcDbSymbolTableRecord
100
AcDbLayerTableRecord
2
340
70
0
62
7
6
CONTINUOUS
0
LAYER
5
204
100
AcDbSymbolTableRecord
100
AcDbLayerTableRecord
2
712
70
0
62
7
6
CONTINUOUS
0
LAYER
5
205
100
AcDbSymbolTableRecord
100
AcDbLayerTableRecord
2
715
70
0
62
7
6
CONTINUOUS
0
LAYER
5
206
100
AcDbSymbolTableRecord
100
AcDbLayerTableRecord
2
ASSI
70
0
62
7
6
CONTINUOUS
0
LAYER
5
207
100
AcDbSymbolTableRecord
100
AcDbLayerTableRecord
2
COORDINATE
70
0
62
7
6
CONTINUOUS
0
LAYER
5
208
100
AcDbSymbolTableRecord
100
AcDbLayerTableRecord
2
COORD_ORIGINE
70
0
62
7
6
CONTINUOUS
0
LAYER
5
209
100
AcDbSymbolTableRecord
100
AcDbLayerTableRecord
2
COPY-PUBBLISH
70
0
62
7
6
CONTINUOUS
0
LAYER
5
20A
100
AcDbSymbolTableRecord
100
AcDbLayerTableRecord
2
COSMETICHE
70
0
62
7
6
CONTINUOUS
0
LAYER
5
20B
100
AcDbSymbolTableRecord
100
AcDbLayerTableRecord
2
COSMETICI
70
0
62
7
6
CONTINUOUS
0
LAYER
5
20C
100
AcDbSymbolTableRecord
100
AcDbLayerTableRecord
2
CURVE
70
0
62
7
6
CONTINUOUS
0
LAYER
5
20D
100
AcDbSymbolTableRecord
100
AcDbLayerTableRecord
2
DRAFT
70
0
62
7
6
CONTINUOUS
0
LAYER
5
20E
100
AcDbSymbolTableRecord
100
AcDbLayerTableRecord
2
IGES_SCRITTE
70
0
62
7
6
CONTINUOUS
0
LAYER
5
20F
100
AcDbSymbolTableRecord
100
AcDbLayerTableRecord
2
IMPORT
70
0
62
7
6
CONTINUOUS
0
LAYER
5
210
100
AcDbSymbolTableRecord
100
AcDbLayerTableRecord
2
INCISIONI_LASER
70
0
62
7
6
CONTINUOUS
0
LAYER
5
211
100
AcDbSymbolTableRecord
100
AcDbLayerTableRecord
2
NOTE
70
0
62
7
6
CONTINUOUS
0
LAYER
5
212
100
AcDbSymbolTableRecord
100
AcDbLayerTableRecord
2
PIANI
70
0
62
7
6
CONTINUOUS
0
LAYER
5
213
100
AcDbSymbolTableRecord
100
AcDbLayerTableRecord
2
PIANI_DI_RIFERIMENTO
70
0
62
7
6
CONTINUOUS
0
LAYER
5
214
100
AcDbSymbolTableRecord
100
AcDbLayerTableRecord
2
PIANI_ORIGINE
70
0
62
7
6
CONTINUOUS
0
LAYER
5
215
100
AcDbSymbolTableRecord
100
AcDbLayerTableRecord
2
PIANI_RIFERIMENTO
70
0
62
7
6
CONTINUOUS
0
LAYER
5
216
100
AcDbSymbolTableRecord
100
AcDbLayerTableRecord
2
PIANI_SFORMO
70
0
62
7
6
CONTINUOUS
0
LAYER
5
217
100
AcDbSymbolTableRecord
100
AcDbLayerTableRecord
2
PUNTI
70
0
62
7
6
CONTINUOUS
0
LAYER
5
218
100
AcDbSymbolTableRecord
100
AcDbLayerTableRecord
2
RACCORDO
70
0
62
7
6
CONTINUOUS
0
LAYER
5
219
100
AcDbSymbolTableRecord
100
AcDbLayerTableRecord
2
SMUSSO
70
0
62
7
6
CONTINUOUS
0
LAYER
5
21A
100
AcDbSymbolTableRecord
100
AcDbLayerTableRecord
2
SUPERFICI
70
0
62
7
6
CONTINUOUS
0
LAYER
5
21B
100
AcDbSymbolTableRecord
100
AcDbLayerTableRecord
2
TRASH
70
0
62
7
6
CONTINUOUS
0
LAYER
5
21C
100
AcDbSymbolTableRecord
100
AcDbLayerTableRecord
2
XSEC_DATUMS
70
0
62
7
6
CONTINUOUS
0
ENDTAB
0
TABLE
2
STYLE
5
3
100
AcDbSymbolTable
70
1
0
STYLE
5
11
100
AcDbSymbolTableRecord
100
AcDbTextStyleTableRecord
2
STANDARD
70
0
40
0.0
41
0.8000000000
50
0.0
71
0
42
0.2
3
txt
4

0
ENDTAB
0
TABLE
2
VIEW
5
6
100
AcDbSymbolTable
70
0
0
ENDTAB
0
TABLE
2
UCS
5
7
100
AcDbSymbolTable
70
0
0
ENDTAB
0
TABLE
2
APPID
5
9
100
AcDbSymbolTable
70
1
0
APPID
5
21D
100
AcDbSymbolTableRecord
100
AcDbRegAppTableRecord
2
ACAD
70
0
0
ENDTAB
0
TABLE
2
DIMSTYLE
5
A
100
AcDbSymbolTable
70
1
0
DIMSTYLE
105
21E
100
AcDbSymbolTableRecord
100
AcDbDimStyleTableRecord
2
STANDARD
70
0
3

4

5

6

7

40
1.0
41
3.0000000000
42
0.0625
43
0.38
44
0.18
45
0.0
46
0.0
47
0.0100000000
48
0.0100000000
140
3.0000000000
141
0.09
142
0.0
143
25.4
144
1.0000000000
145
0.0
146
1.0000000000
147
0.09
71
1
72
0
73
0
74
0
75
0
76
0
77
1
78
8
170
0
171
2
172
0
173
0
174
0
175
0
176
0
177
0
178
0
270
2
271
2
272
2
273
2
274
2
340
11
275
0
280
0
281
0
282
0
283
1
284
8
285
0
286
0
287
3
288
0
0
ENDTAB
0
TABLE
2
BLOCK_RECORD
5
1
100
AcDbSymbolTable
70
0
0
BLOCK_RECORD
5
1B
100
AcDbSymbolTableRecord
100
AcDbBlockTableRecord
2
*MODEL_SPACE
0
BLOCK_RECORD
5
1C
100
AcDbSymbolTableRecord
100
AcDbBlockTableRecord
2
*PAPER_SPACE
0
ENDTAB
0
ENDSEC
0
SECTION
2
BLOCKS
0
BLOCK
5
1E
100
AcDbEntity
8
0
100
AcDbBlockBegin
2
*MODEL_SPACE
70
0
10
0.0
20
0.0
30
0.0
3
*MODEL_SPACE
1

0
ENDBLK
5
1F
100
AcDbEntity
8
0
100
AcDbBlockEnd
0
BLOCK
5
20
100
AcDbEntity
8
0
100
AcDbBlockBegin
2
*PAPER_SPACE
70
0
10
0.0
20
0.0
30
0.0
3
*PAPER_SPACE
1

0
ENDBLK
5
21
100
AcDbEntity
8
0
100
AcDbBlockEnd
0
ENDSEC
0
SECTION
2
ENTITIES
0
LINE
5
21F
100
AcDbEntity
8
0
100
AcDbLine
62
7
6
CONTINUOUS
10
-12.3457607231
20
24.6089464162
11
-10.7630041200
21
25.4209305135
0
LINE
5
220
100
AcDbEntity
8
0
100
AcDbLine
62
7
6
CONTINUOUS
10
-12.7943604964
20
22.7619658043
11
-11.8174935514
21
23.2608402130
0
LINE
5
221
100
AcDbEntity
8
0
100
AcDbLine
62
7
6
CONTINUOUS
10
-10.7630041200
20
25.4209305135
11
-10.2285542413
21
25.6812779801
0
LINE
5
222
100
AcDbEntity
8
0
100
AcDbLine
62
9
6
CONTINUOUS
10
-12.6368370901
20
22.7525324747
11
-11.8174935514
21
23.1709615407
0
LINE
5
223
100
AcDbEntity
8
0
100
AcDbLine
62
7
6
CONTINUOUS
10
-9.0659478451
20
22.7537490282
11
-10.1327787573
21
22.2151677787
0
LINE
5
224
100
AcDbEntity
8
0
100
AcDbLine
62
7
6
CONTINUOUS
10
-10.6672286359
20
23.7696803726
11
-9.0659478451
21
24.5724023761
0
LINE
5
225
100
AcDbEntity
8
0
100
AcDbLine
62
7
6
CONTINUOUS
10
-9.0659478451
20
24.5724023761
11
-8.5376806734
21
24.8358411962
0
LINE
5
226
100
AcDbEntity
8
0
100
AcDbLine
62
7
6
CONTINUOUS
10
-15.9613460073
20
20.5051061883
11
-11.9885456896
21
22.0855336016
0
LINE
5
227
100
AcDbEntity
8
0
100
AcDbLine
62
9
6
CONTINUOUS
10
-15.6112546784
20
20.4785701459
11
-11.7867842467
21
21.9999901145
0
LINE
5
228
100
AcDbEntity
8
0
100
AcDbLine
62
7
6
CONTINUOUS
10
-5.2052191005
20
-25.8867950562
11
-19.6211423427
21
-18.6788334351
0
LINE
5
229
100
AcDbEntity
8
0
100
AcDbLine
62
9
6
CONTINUOUS
10
-5.5979313584
20
-25.0137907169
11
-20.0059088932
21
-17.8098019495
0
LINE
5
22A
100
AcDbEntity
8
0
100
AcDbLine
62
7
6
CONTINUOUS
10
-8.4508290101
20
24.1282410691
11
-8.9780737258
21
23.4865333411
0
LINE
5
22B
100
AcDbEntity
8
0
100
AcDbLine
62
7
6
CONTINUOUS
10
-6.8369087528
20
22.3519205078
11
-6.3435867375
21
22.6050040397
0
LINE
5
22C
100
AcDbEntity
8
0
100
AcDbLine
62
7
6
CONTINUOUS
10
-7.6455222076
20
22.7430853014
11
-1.1374855810
21
25.9842269070
0
LINE
5
22D
100
AcDbEntity
8
0
100
AcDbLine
62
9
6
CONTINUOUS
10
-7.5700290671
20
22.7053387312
11
-1.2554887405
21
25.8501150357
0
LINE
5
22E
100
AcDbEntity
8
0
100
AcDbLine
62
7
6
CONTINUOUS
10
-0.2624684193
20
24.9703715050
11
-5.0000838533
21
22.6353209903
0
LINE
5
22F
100
AcDbEntity
8
0
100
AcDbLine
62
7
6
CONTINUOUS
10
-6.3435867375
20
22.6050040397
11
-0.8659467481
21
25.2733360029
0
LINE
5
230
100
AcDbEntity
8
0
100
AcDbLine
62
7
6
CONTINUOUS
10
4.3862444386
20
-23.3702298805
11
4.9134891543
21
-23.4785221525
0
LINE
5
231
100
AcDbEntity
8
0
100
AcDbLine
62
7
6
CONTINUOUS
10
-20.2402481274
20
-17.5288168899
11
-20.2402548387
21
-17.5289982771
0
LINE
5
232
100
AcDbEntity
8
0
100
AcDbLine
62
7
6
CONTINUOUS
10
1.0646054091
20
23.5004972714
11
-0.3331790975
21
22.8016050181
0
LINE
5
233
100
AcDbEntity
8
0
100
AcDbLine
62
7
6
CONTINUOUS
10
-1.4080844320
20
22.1095652626
11
-1.3465347937
21
22.1403400817
0
LINE
5
234
100
AcDbEntity
8
0
100
AcDbLine
62
9
6
CONTINUOUS
10
-1.3231285911
20
22.1016414660
11
-1.2570920747
21
22.1346597242
0
LINE
5
235
100
AcDbEntity
8
0
100
AcDbLine
62
7
6
CONTINUOUS
10
-0.6867324880
20
23.5309399027
11
-0.2624684193
21
23.7385373236
0
LINE
5
236
100
AcDbEntity
8
0
100
AcDbLine
62
7
6
CONTINUOUS
10
1.7236011604
20
24.3605700852
11
-0.3331790975
21
23.3541632074
0
LINE
5
237
100
AcDbEntity
8
0
100
AcDbLine
62
7
6
CONTINUOUS
10
0.9084251376
20
-24.4926812666
11
2.5856719131
21
-25.3313046544
0
LINE
5
238
100
AcDbEntity
8
0
100
AcDbLine
62
9
6
CONTINUOUS
10
0.8438316588
20
-24.3576527253
11
2.5203187991
21
-25.1958962955
0
LINE
5
239
100
AcDbEntity
8
0
100
AcDbLine
62
9
6
CONTINUOUS
10
2.5203187991
20
-24.8559223613
11
0.8438316588
21
-24.0176787912
0
LINE
5
23A
100
AcDbEntity
8
0
100
AcDbLine
62
9
6
CONTINUOUS
10
2.6092213751
20
-24.6244853017
11
0.9317057781
21
-23.7857275032
0
LINE
5
23B
100
AcDbEntity
8
0
100
AcDbLine
62
7
6
CONTINUOUS
10
0.2077140052
20
-22.4298927165
11
2.6366693835
21
-23.6443704056
0
LINE
5
23C
100
AcDbEntity
8
0
100
AcDbLine
62
7
6
CONTINUOUS
10
3.2315394072
20
-23.8794258842
11
2.7902030475
21
-23.6587577044
0
LINE
5
23D
100
AcDbEntity
8
0
100
AcDbLine
62
7
6
CONTINUOUS
10
0.2355890122
20
-22.1163142815
11
2.8841567569
21
-23.4405981538
0
LINE
5
23E
100
AcDbEntity
8
0
100
AcDbLine
62
7
6
CONTINUOUS
10
-16.9837552338
20
19.1059459222
11
-16.9837666472
21
19.1058631593
0
LINE
5
23F
100
AcDbEntity
8
0
100
AcDbLine
62
7
6
CONTINUOUS
10
-1.4197952888
20
22.1018168877
11
-2.3498201076
21
21.3101891175
0
LINE
5
240
100
AcDbEntity
8
0
100
AcDbLine
62
9
6
CONTINUOUS
10
-1.3231285911
20
22.1016414660
11
-2.2887945331
21
21.2796763302
0
LINE
5
241
100
AcDbEntity
8
0
100
AcDbLine
62
7
6
CONTINUOUS
10
-0.6201427959
20
19.2435375294
11
-0.1210470631
21
19.4937342025
0
LINE
5
242
100
AcDbEntity
8
0
100
AcDbLine
62
7
6
CONTINUOUS
10
-0.1210470631
20
19.4937342025
11
5.2932256321
21
22.1937498128
0
LINE
5
243
100
AcDbEntity
8
0
100
AcDbLine
62
7
6
CONTINUOUS
10
4.6872790490
20
22.4954977708
11
-0.0503363850
21
20.1604472562
0
LINE
5
244
100
AcDbEntity
8
0
100
AcDbLine
62
7
6
CONTINUOUS
10
5.9662418475
20
22.2392497417
11
5.3798630605
21
21.9523276740
0
LINE
5
245
100
AcDbEntity
8
0
100
AcDbLine
62
7
6
CONTINUOUS
10
12.2460720837
20
24.9045044212
11
6.4661726346
21
22.2351553163
0
LINE
5
246
100
AcDbEntity
8
0
100
AcDbLine
62
9
6
CONTINUOUS
10
4.3862444386
20
-23.3702298805
11
4.3428221127
21
-23.3485187175
0
LINE
5
247
100
AcDbEntity
8
0
100
AcDbLine
62
7
6
CONTINUOUS
10
0.3152061608
20
-21.2206653261
11
3.6973295553
21
-22.9117270234
0
LINE
5
248
100
AcDbEntity
8
0
100
AcDbLine
62
9
6
CONTINUOUS
10
4.2983703193
20
-23.1709627350
11
4.9134891543
21
-23.4785221525
0
LINE
5
249
100
AcDbEntity
8
0
100
AcDbLine
62
7
6
CONTINUOUS
10
4.2983703193
20
-23.1673425854
11
4.9149372141
21
-23.4756260328
0
LINE
5
24A
100
AcDbEntity
8
0
100
AcDbLine
62
7
6
CONTINUOUS
10
0.4556304147
20
-19.6409700155
11
3.6973295553
21
-21.2618195858
0
LINE
5
24B
100
AcDbEntity
8
0
100
AcDbLine
62
7
6
CONTINUOUS
10
1.0185574413
20
17.9267873340
11
2.6013140445
21
18.7387714313
0
LINE
5
24C
100
AcDbEntity
8
0
100
AcDbLine
62
7
6
CONTINUOUS
10
-0.6201427959
20
18.0293340565
11
-0.1210470631
21
18.2812986372
0
LINE
5
24D
100
AcDbEntity
8
0
100
AcDbLine
62
7
6
CONTINUOUS
10
-0.1210470631
20
18.2812986372
11
5.2932256321
21
20.9619112345
0
LINE
5
24E
100
AcDbEntity
8
0
100
AcDbLine
62
7
6
CONTINUOUS
10
2.6013140445
20
18.7387714313
11
3.1357639232
21
18.9991188979
0
LINE
5
24F
100
AcDbEntity
8
0
100
AcDbLine
62
9
6
CONTINUOUS
10
12.6776915087
20
24.8687107149
11
6.7106327708
21
22.1129252482
0
LINE
5
250
100
AcDbEntity
8
0
100
AcDbLine
62
9
6
CONTINUOUS
10
4.8666927658
20
17.3891262636
11
10.1354225935
21
20.2317268793
0
LINE
5
251
100
AcDbEntity
8
0
100
AcDbLine
62
9
6
CONTINUOUS
10
4.3711581603
20
16.7846893523
11
10.0512710259
21
19.7256538813
0
LINE
5
252
100
AcDbEntity
8
0
100
AcDbLine
62
7
6
CONTINUOUS
10
2.6970895285
20
17.0875212904
11
4.2983703193
21
17.8902432939
0
LINE
5
253
100
AcDbEntity
8
0
100
AcDbLine
62
7
6
CONTINUOUS
10
4.2983703193
20
17.8902432939
11
4.8266374911
21
18.1536821139
0
LINE
5
254
100
AcDbEntity
8
0
100
AcDbLine
62
9
6
CONTINUOUS
10
4.2617948689
20
18.4980807959
11
8.9453317485
21
20.7497047912
0
LINE
5
255
100
AcDbEntity
8
0
100
AcDbLine
62
9
6
CONTINUOUS
10
4.4894103688
20
18.3842730460
11
9.3871726164
21
20.7388865109
0
LINE
5
256
100
AcDbEntity
8
0
100
AcDbLine
62
7
6
CONTINUOUS
10
2.8841567569
20
14.6645196127
11
3.6973295553
21
14.9488212806
0
LINE
5
257
100
AcDbEntity
8
0
100
AcDbLine
62
7
6
CONTINUOUS
10
-12.8843244635
20
22.5731557282
11
-12.8843244635
21
22.5487602229
0
LINE
5
258
100
AcDbEntity
8
0
100
AcDbLine
62
7
6
CONTINUOUS
10
-12.5204865056
20
23.9640844304
11
-12.5204865056
21
24.3040583645
0
LINE
5
259
100
AcDbEntity
8
0
100
AcDbLine
62
7
6
CONTINUOUS
10
-12.0711516651
20
22.1421738237
11
-12.0711516651
21
22.0526719589
0
LINE
5
25A
100
AcDbEntity
8
0
100
AcDbLine
62
7
6
CONTINUOUS
10
-11.8174935514
20
23.0575251757
11
-11.8174935514
21
23.5098561514
0
LINE
5
25B
100
AcDbEntity
8
0
100
AcDbLine
62
7
6
CONTINUOUS
10
-10.8439993654
20
23.4658147944
11
-10.8439993654
21
23.1258408603
0
LINE
5
25C
100
AcDbEntity
8
0
100
AcDbLine
62
9
6
CONTINUOUS
10
4.5000726126
20
16.9429141375
11
10.0512710259
21
19.9379130354
0
LINE
5
25D
100
AcDbEntity
8
0
100
AcDbLine
62
7
6
CONTINUOUS
10
4.4418518360
20
16.6993982796
11
10.1334807383
21
19.6463254112
0
LINE
5
25E
100
AcDbEntity
8
0
100
AcDbLine
62
9
6
CONTINUOUS
10
4.4044363365
20
16.0185569374
11
2.6366693835
21
15.1157792379
0
LINE
5
25F
100
AcDbEntity
8
0
100
AcDbLine
62
9
6
CONTINUOUS
10
4.6519237099
20
15.5916928174
11
2.8841567569
21
14.6889151180
0
LINE
5
260
100
AcDbEntity
8
0
100
AcDbLine
62
7
6
CONTINUOUS
10
4.2983703193
20
16.0715899460
11
3.2315394072
21
15.5330086965
0
LINE
5
261
100
AcDbEntity
8
0
100
AcDbLine
62
9
6
CONTINUOUS
10
5.1115431177
20
16.3645526388
11
4.4044363365
21
16.0185569374
0
LINE
5
262
100
AcDbEntity
8
0
100
AcDbLine
62
9
6
CONTINUOUS
10
5.3590304911
20
15.9376885188
11
4.6519237099
21
15.5916928174
0
LINE
5
263
100
AcDbEntity
8
0
100
AcDbLine
62
7
6
CONTINUOUS
10
5.0514080968
20
16.3946201492
11
10.7172726657
21
19.1468086935
0
LINE
5
264
100
AcDbEntity
8
0
100
AcDbLine
62
7
6
CONTINUOUS
10
19.2041556610
20
21.6054786387
11
11.4699667496
21
17.8486034324
0
LINE
5
265
100
AcDbEntity
8
0
100
AcDbLine
62
9
6
CONTINUOUS
10
2.7746347087
20
14.7192806368
11
-1.1863388899
21
13.2661122517
0
LINE
5
266
100
AcDbEntity
8
0
100
AcDbLine
62
9
6
CONTINUOUS
10
3.4257346917
20
13.7710629422
11
-0.6847672765
21
12.2630368577
0
LINE
5
267
100
AcDbEntity
8
0
100
AcDbLine
62
7
6
CONTINUOUS
10
-10.1327787573
20
22.2151677787
11
-10.1327787573
21
22.8523373374
0
LINE
5
268
100
AcDbEntity
8
0
100
AcDbLine
62
7
6
CONTINUOUS
10
-9.0659478451
20
22.7537490282
11
-9.0659478451
21
24.5724023761
0
LINE
5
269
100
AcDbEntity
8
0
100
AcDbLine
62
9
6
CONTINUOUS
10
19.5470532370
20
21.0140678031
11
5.3590304911
21
13.7958716842
0
LINE
5
26A
100
AcDbEntity
8
0
100
AcDbLine
62
7
6
CONTINUOUS
10
-8.3629548908
20
24.7077238739
11
-8.3629548908
21
24.3601923571
0
LINE
5
26B
100
AcDbEntity
8
0
100
AcDbLine
62
7
6
CONTINUOUS
10
-6.9235461812
20
22.2454135659
11
-6.9235461812
21
21.0306801797
0
LINE
5
26C
100
AcDbEntity
8
0
100
AcDbLine
62
9
6
CONTINUOUS
10
-6.8356782155
20
22.1389046091
11
-6.8356782155
21
20.9239497430
0
LINE
5
26D
100
AcDbEntity
8
0
100
AcDbLine
62
7
6
CONTINUOUS
10
4.9134891543
20
17.4460819869
11
4.3862444386
21
16.8043742589
0
LINE
5
26E
100
AcDbEntity
8
0
100
AcDbLine
62
9
6
CONTINUOUS
10
19.9612037127
20
19.5824342285
11
5.3590304911
21
12.1535379007
0
LINE
5
26F
100
AcDbEntity
8
0
100
AcDbLine
62
7
6
CONTINUOUS
10
1.7789228277
20
-4.7546611215
11
1.9649179414
21
-4.8476586784
0
LINE
5
270
100
AcDbEntity
8
0
100
AcDbLine
62
7
6
CONTINUOUS
10
1.0831728247
20
-12.5814644457
11
1.6917045390
21
-18.2534542173
0
LINE
5
271
100
AcDbEntity
8
0
100
AcDbLine
62
9
6
CONTINUOUS
10
-1.0431691475
20
18.0276952090
11
-1.0431691475
21
19.2426500751
0
LINE
5
272
100
AcDbEntity
8
0
100
AcDbLine
62
7
6
CONTINUOUS
10
-0.6867324880
20
22.2816450695
11
-0.6867324880
21
23.5309399027
0
LINE
5
273
100
AcDbEntity
8
0
100
AcDbLine
62
9
6
CONTINUOUS
10
-0.6201427959
20
18.0293340565
11
-0.6201427959
21
19.2435375294
0
LINE
5
274
100
AcDbEntity
8
0
100
AcDbLine
62
7
6
CONTINUOUS
10
-0.3331790975
20
22.8016050181
11
-0.3331790975
21
23.3541632074
0
LINE
5
275
100
AcDbEntity
8
0
100
AcDbLine
62
9
6
CONTINUOUS
10
-0.2624684193
20
24.9703715050
11
-0.2624684193
21
23.7385373236
0
LINE
5
276
100
AcDbEntity
8
0
100
AcDbLine
62
7
6
CONTINUOUS
10
-0.1746004537
20
25.0753687189
11
-0.1746004537
21
23.8430001141
0
LINE
5
277
100
AcDbEntity
8
0
100
AcDbLine
62
7
6
CONTINUOUS
10
-0.1210470631
20
19.4937342025
11
-0.1210470631
21
18.2812986372
0
LINE
5
278
100
AcDbEntity
8
0
100
AcDbLine
62
7
6
CONTINUOUS
10
1.9649179414
20
-4.8476586784
11
3.6973295553
21
-21.2618195858
0
LINE
5
279
100
AcDbEntity
8
0
100
AcDbLine
62
7
6
CONTINUOUS
10
0.8438316588
20
-24.3576527253
11
0.8438316588
21
-24.0176787912
0
LINE
5
27A
100
AcDbEntity
8
0
100
AcDbLine
62
7
6
CONTINUOUS
10
0.8438316588
20
17.2819253482
11
0.8438316588
21
17.6218992823
0
LINE
5
27B
100
AcDbEntity
8
0
100
AcDbLine
62
7
6
CONTINUOUS
10
1.5468246131
20
16.3753660935
11
1.5468246131
21
16.8276970692
0
LINE
5
27C
100
AcDbEntity
8
0
100
AcDbLine
62
7
6
CONTINUOUS
10
2.4245373492
20
23.8450457514
11
2.4245373492
21
23.5742454588
0
LINE
5
27D
100
AcDbEntity
8
0
100
AcDbLine
62
7
6
CONTINUOUS
10
0.0557465848
20
-24.1394422762
11
3.4257346917
21
13.7710629422
0
LINE
5
27E
100
AcDbEntity
8
0
100
AcDbLine
62
7
6
CONTINUOUS
10
3.6973295553
20
13.2989138430
11
1.9649179414
21
-4.8476586784
0
LINE
5
27F
100
AcDbEntity
8
0
100
AcDbLine
62
7
6
CONTINUOUS
10
2.5203187991
20
16.7836557122
11
2.5203187991
21
16.4436817780
0
LINE
5
280
100
AcDbEntity
8
0
100
AcDbLine
62
7
6
CONTINUOUS
10
2.5203187991
20
-24.8559223613
11
2.5203187991
21
-25.1958962955
0
LINE
5
281
100
AcDbEntity
8
0
100
AcDbLine
62
7
6
CONTINUOUS
10
2.8841567569
20
14.6889151180
11
2.8841567569
21
14.6645196127
0
LINE
5
282
100
AcDbEntity
8
0
100
AcDbLine
62
7
6
CONTINUOUS
10
2.8841567569
20
-23.4405981538
11
2.8841567569
21
-23.4649936591
0
LINE
5
283
100
AcDbEntity
8
0
100
AcDbLine
62
7
6
CONTINUOUS
10
3.2315394072
20
-23.8794258842
11
3.2315394072
21
-23.4398263386
0
LINE
5
284
100
AcDbEntity
8
0
100
AcDbLine
62
7
6
CONTINUOUS
10
3.2315394072
20
15.5330086965
11
3.2315394072
21
16.1701782552
0
LINE
5
285
100
AcDbEntity
8
0
100
AcDbLine
62
7
6
CONTINUOUS
10
3.6973295553
20
14.9488212806
11
3.6973295553
21
13.2989138430
0
LINE
5
286
100
AcDbEntity
8
0
100
AcDbLine
62
7
6
CONTINUOUS
10
3.6973295553
20
-21.2618195858
11
3.6973295553
21
-22.9117270234
0
LINE
5
287
100
AcDbEntity
8
0
100
AcDbLine
62
7
6
CONTINUOUS
10
4.2983703193
20
-22.9178133703
11
4.2983703193
21
-24.5450014915
0
LINE
5
288
100
AcDbEntity
8
0
100
AcDbLine
62
7
6
CONTINUOUS
10
4.2983703193
20
16.0715899460
11
4.2983703193
21
17.8902432939
0
LINE
5
289
100
AcDbEntity
8
0
100
AcDbLine
62
7
6
CONTINUOUS
10
5.0013632736
20
18.0255647917
11
5.0013632736
21
17.6780332749
0
LINE
5
28A
100
AcDbEntity
8
0
100
AcDbLine
62
7
6
CONTINUOUS
10
5.0013632736
20
-23.6215708644
11
5.0013632736
21
-23.9691023812
0
LINE
5
28B
100
AcDbEntity
8
0
100
AcDbLine
62
9
6
CONTINUOUS
10
5.2932256321
20
22.1937498128
11
5.2932256321
21
20.9619112345
0
LINE
5
28C
100
AcDbEntity
8
0
100
AcDbLine
62
7
6
CONTINUOUS
10
5.3590304911
20
-22.2388933259
11
5.3590304911
21
15.9376885188
0
LINE
5
28D
100
AcDbEntity
8
0
100
AcDbLine
62
7
6
CONTINUOUS
10
5.3798630605
20
22.2981371882
11
5.3798630605
21
21.0657686964
0
LINE
5
28E
100
AcDbEntity
8
0
100
AcDbLine
62
7
6
CONTINUOUS
10
10.1354225935
20
20.2317268793
11
10.1354690642
21
20.2255895412
0
LINE
5
28F
100
AcDbEntity
8
0
100
AcDbLine
62
9
6
CONTINUOUS
10
10.0512710259
20
19.9379130354
11
10.0512710259
21
19.7256538813
0
LINE
5
290
100
AcDbEntity
8
0
100
AcDbLine
62
9
6
CONTINUOUS
10
10.0512710259
20
-17.0163126892
11
10.0512710259
21
-17.2060823933
0
LINE
5
291
100
AcDbEntity
8
0
100
AcDbLine
62
7
6
CONTINUOUS
10
10.1354690858
20
20.2255339137
11
10.1354690858
21
19.6495707241
0
LINE
5
292
100
AcDbEntity
8
0
100
AcDbLine
62
7
6
CONTINUOUS
10
10.1354690858
20
-16.9717873681
11
10.1354690858
21
-17.2853057604
0
LINE
5
293
100
AcDbEntity
8
0
100
AcDbLine
62
7
6
CONTINUOUS
10
10.1354225935
20
-17.2862173231
11
10.1354690642
21
-17.2854753683
0
LINE
5
294
100
AcDbEntity
8
0
100
AcDbLine
62
9
6
CONTINUOUS
10
-2.3397366128
20
11.6391009212
11
-16.7477141476
21
18.8430896886
0
LINE
5
295
100
AcDbEntity
8
0
100
AcDbLine
62
9
6
CONTINUOUS
10
-1.1863388899
20
13.2661122517
11
-15.6112546784
21
20.4785701459
0
LINE
5
296
100
AcDbEntity
8
0
100
AcDbLine
62
7
6
CONTINUOUS
10
3.3971076725
20
13.4490247844
11
3.6973295553
21
13.2989138430
0
LINE
5
297
100
AcDbEntity
8
0
100
AcDbLine
62
7
6
CONTINUOUS
10
-12.8843244635
20
22.5487602229
11
2.8841567569
21
14.6645196127
0
LINE
5
298
100
AcDbEntity
8
0
100
AcDbLine
62
7
6
CONTINUOUS
10
2.6366693835
20
15.1157792379
11
-12.6368370901
21
22.7525324747
0
LINE
5
299
100
AcDbEntity
8
0
100
AcDbLine
62
7
6
CONTINUOUS
10
3.2315394072
20
15.5330086965
11
1.5468246131
21
16.3753660935
0
LINE
5
29A
100
AcDbEntity
8
0
100
AcDbLine
62
7
6
CONTINUOUS
10
-10.1327787573
20
22.2151677787
11
-11.8174935514
21
23.0575251757
0
LINE
5
29B
100
AcDbEntity
8
0
100
AcDbLine
62
7
6
CONTINUOUS
10
-6.8356782155
20
20.9239497430
11
-1.0431691475
21
18.0276952090
0
LINE
5
29C
100
AcDbEntity
8
0
100
AcDbLine
62
7
6
CONTINUOUS
10
0.9317057781
20
-23.7857275032
11
1.5104961183
21
-23.0812837730
0
LINE
5
29D
100
AcDbEntity
8
0
100
AcDbLine
62
7
6
CONTINUOUS
10
2.6092213751
20
-24.6244853017
11
3.2315394072
21
-23.8794258842
0
LINE
5
29E
100
AcDbEntity
8
0
100
AcDbLine
62
9
6
CONTINUOUS
10
1.6917045390
20
-18.2534542173
11
0.5313335087
21
-18.7893520124
0
LINE
5
29F
100
AcDbEntity
8
0
100
AcDbLine
62
7
6
CONTINUOUS
10
1.4908509530
20
-18.7672232739
11
0.4923065107
21
-19.2283841880
0
LINE
5
2A0
100
AcDbEntity
8
0
100
AcDbLine
62
7
6
CONTINUOUS
10
3.2315394072
20
16.1701782552
11
2.6092213751
21
16.3001188377
0
LINE
5
2A1
100
AcDbEntity
8
0
100
AcDbLine
62
7
6
CONTINUOUS
10
-12.4558917597
20
23.8290552555
11
-10.7786475185
21
22.9904331349
0
LINE
5
2A2
100
AcDbEntity
8
0
100
AcDbLine
62
7
6
CONTINUOUS
10
0.9084264048
20
17.1468961733
11
2.5856706459
21
16.3082740527
0
LINE
5
2A3
100
AcDbEntity
8
0
100
AcDbLine
62
9
6
CONTINUOUS
10
-12.5204865056
20
23.9640844304
11
-10.8439993654
21
23.1258408603
0
LINE
5
2A4
100
AcDbEntity
8
0
100
AcDbLine
62
9
6
CONTINUOUS
10
0.8438316588
20
17.2819253482
11
2.5203187991
21
16.4436817780
0
LINE
5
2A5
100
AcDbEntity
8
0
100
AcDbLine
62
9
6
CONTINUOUS
10
2.5203187991
20
16.7836557122
11
0.8438316588
21
17.6218992823
0
LINE
5
2A6
100
AcDbEntity
8
0
100
AcDbLine
62
9
6
CONTINUOUS
10
-10.8439993654
20
23.4658147944
11
-12.5204865056
21
24.3040583645
0
LINE
5
2A7
100
AcDbEntity
8
0
100
AcDbLine
62
7
6
CONTINUOUS
10
-9.0659478451
20
22.7537490282
11
-6.9235461812
21
21.6825481962
0
LINE
5
2A8
100
AcDbEntity
8
0
100
AcDbLine
62
7
6
CONTINUOUS
10
-0.1210470631
20
18.2812986372
11
0.8835412972
21
17.7790044570
0
LINE
5
2A9
100
AcDbEntity
8
0
100
AcDbLine
62
7
6
CONTINUOUS
10
4.2983703193
20
16.0715899460
11
4.4044363365
21
16.0185569374
0
LINE
5
2AA
100
AcDbEntity
8
0
100
AcDbLine
62
9
6
CONTINUOUS
10
2.6970895285
20
17.0875212904
11
1.0185574413
21
17.9267873340
0
LINE
5
2AB
100
AcDbEntity
8
0
100
AcDbLine
62
9
6
CONTINUOUS
10
-10.6672286359
20
23.7696803726
11
-12.3457607231
21
24.6089464162
0
LINE
5
2AC
100
AcDbEntity
8
0
100
AcDbLine
62
7
6
CONTINUOUS
10
-6.8356782155
20
22.1389046091
11
-1.0431691475
21
19.2426500751
0
LINE
5
2AD
100
AcDbEntity
8
0
100
AcDbLine
62
7
6
CONTINUOUS
10
5.1115431177
20
16.3645526388
11
4.3471664329
21
16.7467409812
0
LINE
5
2AE
100
AcDbEntity
8
0
100
AcDbLine
62
7
6
CONTINUOUS
10
-7.5700290671
20
22.7053387312
11
-9.0171517315
21
23.4289000634
0
LINE
5
2AF
100
AcDbEntity
8
0
100
AcDbLine
62
7
6
CONTINUOUS
10
-6.3435867375
20
22.6050040397
11
-0.1210470631
21
19.4937342025
0
LINE
5
2B0
100
AcDbEntity
8
0
100
AcDbLine
62
9
6
CONTINUOUS
10
19.9612037127
20
-10.7626460174
11
19.9612037127
21
19.5824342285
0
LINE
5
2B1
100
AcDbEntity
8
0
100
AcDbLine
62
7
6
CONTINUOUS
10
11.4699667496
20
-16.1186088742
11
10.7172726657
21
-16.6641200513
0
LINE
5
2B2
100
AcDbEntity
8
0
100
AcDbLine
62
7
6
CONTINUOUS
10
19.2041556610
20
-12.0286423760
11
11.4699667496
21
-16.1186088742
0
LINE
5
2B3
100
AcDbEntity
8
0
100
AcDbLine
62
7
6
CONTINUOUS
10
5.3590304911
20
-19.4976467772
11
10.7172726657
21
-16.6641200513
0
LINE
5
2B4
100
AcDbEntity
8
0
100
AcDbLine
62
9
6
CONTINUOUS
10
5.3590304911
20
-18.4547427077
11
19.9612037127
21
-10.7626460174
0
LINE
5
2B5
100
AcDbEntity
8
0
100
AcDbLine
62
9
6
CONTINUOUS
10
5.3590304911
20
-19.2540606436
11
19.5470532370
21
-11.7801291163
0
LINE
5
2B6
100
AcDbEntity
8
0
100
AcDbLine
62
9
6
CONTINUOUS
10
5.3590304911
20
-19.5334682902
11
10.0512710259
21
-17.2060823933
0
LINE
5
2B7
100
AcDbEntity
8
0
100
AcDbLine
62
9
6
CONTINUOUS
10
5.3590304911
20
-19.6553430179
11
10.1354225935
21
-17.2862173231
0
LINE
5
2B8
100
AcDbEntity
8
0
100
AcDbLine
62
7
6
CONTINUOUS
10
-10.7630041200
20
25.4209305135
11
-9.0659478451
21
24.5724023761
0
LINE
5
2B9
100
AcDbEntity
8
0
100
AcDbLine
62
7
6
CONTINUOUS
10
2.6013140445
20
18.7387714313
11
4.2983703193
21
17.8902432939
0
LINE
5
2BA
100
AcDbEntity
8
0
100
AcDbLine
62
7
6
CONTINUOUS
10
-5.0000838533
20
22.6353209903
11
-0.0503363850
21
20.1604472562
0
LINE
5
2BB
100
AcDbEntity
8
0
100
AcDbLine
62
9
6
CONTINUOUS
10
-10.2285542413
20
25.6812779801
11
-8.5376806734
21
24.8358411962
0
LINE
5
2BC
100
AcDbEntity
8
0
100
AcDbLine
62
9
6
CONTINUOUS
10
3.1357639232
20
18.9991188979
11
4.8266374911
21
18.1536821139
0
LINE
5
2BD
100
AcDbEntity
8
0
100
AcDbLine
62
7
6
CONTINUOUS
10
-10.1171366259
20
25.6875465433
11
-8.4275483696
21
24.8427524152
0
LINE
5
2BE
100
AcDbEntity
8
0
100
AcDbLine
62
7
6
CONTINUOUS
10
3.2471815385
20
19.0053874611
11
4.9367697948
21
18.1605933330
0
LINE
5
2BF
100
AcDbEntity
8
0
100
AcDbLine
62
7
6
CONTINUOUS
10
1.2638255953
20
20.8081643728
11
-1.3231285911
21
22.1016414660
0
LINE
5
2C0
100
AcDbEntity
8
0
100
AcDbLine
62
9
6
CONTINUOUS
10
1.9047887901
20
21.1240788785
11
-0.1881234408
21
22.1705349939
0
LINE
5
2C1
100
AcDbEntity
8
0
100
AcDbLine
62
7
6
CONTINUOUS
10
1.9555522147
20
21.1490988832
11
-0.1038745682
21
22.1788122746
0
LINE
5
2C2
100
AcDbEntity
8
0
100
AcDbLine
62
7
6
CONTINUOUS
10
11.4699667496
20
17.8486034324
11
10.7172726657
21
19.1468086935
0
LINE
5
2C3
100
AcDbEntity
8
0
100
AcDbLine
62
7
6
CONTINUOUS
10
20.2418639123
20
-10.4153168321
11
20.2418639123
21
19.9297634138
0
LINE
5
2C4
100
AcDbEntity
8
0
100
AcDbLine
62
9
6
CONTINUOUS
10
19.2041556610
20
-12.0286423760
11
19.5470532370
21
-11.7801291163
0
LINE
5
2C5
100
AcDbEntity
8
0
100
AcDbLine
62
7
6
CONTINUOUS
10
19.2805049572
20
-11.9809889636
11
19.6216208311
21
-11.7337669835
0
LINE
5
2C6
100
AcDbEntity
8
0
100
AcDbLine
62
7
6
CONTINUOUS
10
3.6973295553
20
-22.9117270234
11
2.8841567569
21
-23.4405981538
0
LINE
5
2C7
100
AcDbEntity
8
0
100
AcDbLine
62
9
6
CONTINUOUS
10
4.6519237099
20
-22.6000044057
11
5.3590304911
21
-22.2388933259
0
LINE
5
2C8
100
AcDbEntity
8
0
100
AcDbLine
62
9
6
CONTINUOUS
10
5.3590304911
20
-19.7712733209
11
9.3871726164
21
-17.7493701374
0
LINE
5
2C9
100
AcDbEntity
8
0
100
AcDbLine
62
7
6
CONTINUOUS
10
5.3590304911
20
-19.7729414017
11
9.3367935621
21
-17.7763256998
0
LINE
5
2CA
100
AcDbEntity
8
0
100
AcDbLine
62
7
6
CONTINUOUS
10
-10.1327787573
20
22.8523373374
11
-10.7550967893
21
22.9822779199
0
LINE
5
2CB
100
AcDbEntity
8
0
100
AcDbLine
62
7
6
CONTINUOUS
10
2.4673393598
20
21.4013457895
11
-0.3331790975
21
22.8016050181
0
LINE
5
2CC
100
AcDbEntity
8
0
100
AcDbLine
62
7
6
CONTINUOUS
10
-0.6867324880
20
23.5309399027
11
-0.3331790975
21
23.3541632074
0
LINE
5
2CD
100
AcDbEntity
8
0
100
AcDbLine
62
7
6
CONTINUOUS
10
3.8751550560
20
22.0952224479
11
1.0646054091
21
23.5004972714
0
LINE
5
2CE
100
AcDbEntity
8
0
100
AcDbLine
62
7
6
CONTINUOUS
10
9.9294840180
20
19.5407030173
11
10.7172726657
21
19.1468086935
0
LINE
5
2CF
100
AcDbEntity
8
0
100
AcDbLine
62
7
6
CONTINUOUS
10
2.4245373492
20
23.5742454588
11
4.6342782373
21
22.4693750147
0
LINE
5
2D0
100
AcDbEntity
8
0
100
AcDbLine
62
7
6
CONTINUOUS
10
5.3798630605
20
22.0965826031
11
5.5256764705
21
22.0236758981
0
LINE
5
2D1
100
AcDbEntity
8
0
100
AcDbLine
62
7
6
CONTINUOUS
10
4.2983703193
20
-24.5450014915
11
4.8266374911
21
-24.2739904329
0
LINE
5
2D2
100
AcDbEntity
8
0
100
AcDbLine
62
7
6
CONTINUOUS
10
4.5619597418
20
-22.7888144822
11
5.2690665240
21
-22.4277034019
0
LINE
5
2D3
100
AcDbEntity
8
0
100
AcDbLine
62
7
6
CONTINUOUS
10
4.5619549358
20
-22.7888169371
11
4.5599473389
21
-22.7898206445
0
LINE
5
2D4
100
AcDbEntity
8
0
100
AcDbLine
62
9
6
CONTINUOUS
10
2.8841567569
20
-23.4649936591
11
4.6519237099
21
-22.6000044057
0
LINE
5
2D5
100
AcDbEntity
8
0
100
AcDbLine
62
7
6
CONTINUOUS
10
2.7921758380
20
-23.6548121234
11
4.5599427923
21
-22.7898228692
0
LINE
5
2D6
100
AcDbEntity
8
0
100
AcDbLine
62
7
6
CONTINUOUS
10
2.6970895285
20
-25.3250360912
11
4.2983703193
21
-24.5450014915
0
LINE
5
2D7
100
AcDbEntity
8
0
100
AcDbLine
62
9
6
CONTINUOUS
10
-4.0387194444
20
-25.4670729019
11
0.0557465848
21
-24.1394422762
0
LINE
5
2D8
100
AcDbEntity
8
0
100
AcDbLine
62
7
6
CONTINUOUS
10
-0.2494420964
20
-24.6128537172
11
-4.3482244803
21
-25.9418835586
0
LINE
5
2D9
100
AcDbEntity
8
0
100
AcDbLine
62
7
6
CONTINUOUS
10
1.0646054091
20
23.5004972714
11
2.4245373492
21
23.5742454588
0
LINE
5
2DA
100
AcDbEntity
8
0
100
AcDbLine
62
7
6
CONTINUOUS
10
-0.4429203965
20
25.2712180114
11
-0.2624684193
21
25.1809920228
0
LINE
5
2DB
100
AcDbEntity
8
0
100
AcDbLine
62
7
6
CONTINUOUS
10
5.1115431177
20
22.4939862543
11
5.2919950948
21
22.4037602657
0
LINE
5
2DC
100
AcDbEntity
8
0
100
AcDbLine
62
9
6
CONTINUOUS
10
-1.2554887405
20
25.8501150357
11
1.7236011604
21
24.3605700852
0
LINE
5
2DD
100
AcDbEntity
8
0
100
AcDbLine
62
9
6
CONTINUOUS
10
5.9662418475
20
22.2392497417
11
8.9453317485
21
20.7497047912
0
LINE
5
2DE
100
AcDbEntity
8
0
100
AcDbLine
62
7
6
CONTINUOUS
10
-1.0618457287
20
25.9991644979
11
2.1646441635
21
24.3859195518
0
LINE
5
2DF
100
AcDbEntity
8
0
100
AcDbLine
62
7
6
CONTINUOUS
10
6.4072848506
20
22.2645992083
11
9.6337747428
21
20.6513542622
0
LINE
5
2E0
100
AcDbEntity
8
0
100
AcDbLine
62
9
6
CONTINUOUS
10
19.2041556610
20
21.6054786387
11
12.6776915087
21
24.8687107149
0
LINE
5
2E1
100
AcDbEntity
8
0
100
AcDbLine
62
7
6
CONTINUOUS
10
19.5729477341
20
21.6608823721
11
13.1125643893
21
24.8910740445
0
LINE
5
2E2
100
AcDbEntity
8
0
100
AcDbLine
62
9
6
CONTINUOUS
10
19.5470532370
20
21.0140678031
11
19.2041556610
21
21.6054786387
0
LINE
5
2E3
100
AcDbEntity
8
0
100
AcDbLine
62
7
6
CONTINUOUS
10
19.8998964858
20
21.1471661606
11
19.6368495495
21
21.6008550149
0
SPLINE
5
2E4
100
AcDbEntity
8
0
100
AcDbSpline
62
7
6
CONTINUOUS
70
0
71
3
72
12
73
8
74
6
42
0.0000001000
43
0.0000001000
44
0.0000000001
12
-0.0514731955
22
-1.3801140885
32
0.0000000000
13
1.2383434279
23
-0.6176334833
33
0.0000000000
40
0.0000000000
40
0.0000000000
40
0.0000000000
40
0.0000000000
40
0.2075207109
40
0.4486454377
40
0.6726986139
40
0.8858173544
40
1.0000000000
40
1.0000000000
40
1.0000000000
40
1.0000000000
10
-20.2402466230
20
-17.5289985772
30
0.0000000000
10
-20.2438072077
20
-17.6244659961
30
0.0000000000
10
-20.2330340965
20
-17.8320488457
30
0.0000000000
10
-20.1479888304
20
-18.1328238538
30
0.0000000000
10
-19.9847154082
20
-18.4030137251
30
0.0000000000
10
-19.7974550836
20
-18.5782765463
30
0.0000000000
10
-19.6672031543
20
-18.6557993274
30
0.0000000000
10
-19.6200707113
20
-18.6793070025
30
0.0000000000
11
-20.2402466230
21
-17.5289985772
31
0.0000000000
11
-20.2240106782
21
-17.8150060386
31
0.0000000000
11
-20.1315462115
21
-18.1343598274
31
0.0000000000
11
-19.9707238495
21
-18.3981303045
31
0.0000000000
11
-19.7557596336
21
-18.5984825644
31
0.0000000000
11
-19.6200707113
21
-18.6793070025
31
0.0000000000
0
SPLINE
5
2E5
100
AcDbEntity
8
0
100
AcDbSpline
62
7
6
CONTINUOUS
70
0
71
3
72
11
73
7
74
5
42
0.0000001000
43
0.0000001000
44
0.0000000001
12
-5.0406724134
22
-36.4466368606
32
0.0000000000
13
-1.3791304987
23
-36.7677022392
33
0.0000000000
40
0.0000000000
40
0.0000000000
40
0.0000000000
40
0.0000000000
40
0.2535217899
40
0.5060388621
40
0.7555525882
40
1.0000000000
40
1.0000000000
40
1.0000000000
40
1.0000000000
10
-16.9837610391
20
19.1059467236
30
0.0000000000
10
-17.4097344699
20
16.0259411862
30
0.0000000000
10
-18.1873852735
20
9.8678254824
30
0.0000000000
10
-19.1240662727
20
0.6478840353
30
0.0000000000
10
-19.8211641636
20
-8.4816701749
30
0.0000000000
10
-20.1278731699
20
-14.5328936726
30
0.0000000000
10
-20.2402481302
20
-17.5288168898
30
0.0000000000
11
-16.9837610391
21
19.1059467236
31
0.0000000000
11
-18.1512050635
21
9.8513239425
31
0.0000000000
11
-19.0889385111
21
0.6077724783
31
0.0000000000
11
-19.7864545449
21
-8.5461824744
31
0.0000000000
11
-20.2402481302
21
-17.5288168898
31
0.0000000000
0
SPLINE
5
2E6
100
AcDbEntity
8
0
100
AcDbSpline
62
7
6
CONTINUOUS
70
0
71
3
72
13
73
9
74
7
42
0.0000001000
43
0.0000001000
44
0.0000000001
12
-1.6816618515
22
-0.6698346965
32
0.0000000000
13
-0.2477084917
23
-1.7918249230
33
0.0000000000
40
0.0000000000
40
0.0000000000
40
0.0000000000
40
0.0000000000
40
0.1234482278
40
0.2996564296
40
0.4831667944
40
0.6713415230
40
0.8593998965
40
1.0000000000
40
1.0000000000
40
1.0000000000
40
1.0000000000
10
-15.9613377043
20
20.5050853360
30
0.0000000000
10
-16.0305370961
20
20.4775220340
30
0.0000000000
10
-16.1930226864
20
20.3958519248
30
0.0000000000
10
-16.4249893249
20
20.2168179137
30
0.0000000000
10
-16.6434959453
20
19.9668812594
30
0.0000000000
10
-16.8177775365
20
19.6762142860
30
0.0000000000
10
-16.9304735396
20
19.3844079541
30
0.0000000000
10
-16.9721654272
20
19.1898411967
30
0.0000000000
10
-16.9837747070
20
19.1058642735
30
0.0000000000
11
-15.9613377043
21
20.5050853360
31
0.0000000000
11
-16.1612537534
21
20.4052476528
31
0.0000000000
11
-16.4144675010
21
20.2121320627
31
0.0000000000
11
-16.6337122076
21
19.9632911782
31
0.0000000000
11
-16.8090318755
21
19.6718886561
31
0.0000000000
11
-16.9310085071
21
19.3546645438
31
0.0000000000
11
-16.9837747070
21
19.1058642735
31
0.0000000000
0
SPLINE
5
2E7
100
AcDbEntity
8
0
100
AcDbSpline
62
7
6
CONTINUOUS
70
0
71
3
72
8
73
4
74
2
42
0.0000001000
43
0.0000001000
44
0.0000000001
12
0.0174868734
22
0.0069660757
32
0.0000000000
13
0.0178323139
23
0.0060175907
33
0.0000000000
40
0.0000000000
40
0.0000000000
40
0.0000000000
40
0.0000000000
40
1.0000000000
40
1.0000000000
40
1.0000000000
40
1.0000000000
10
-11.9884379374
20
22.0855656303
30
0.0000000000
10
-11.9826089796
20
22.0878876555
30
0.0000000000
10
-11.9767188440
20
22.0900544182
30
0.0000000000
10
-11.9707747394
20
22.0920602818
30
0.0000000000
11
-11.9884379374
21
22.0855656303
31
0.0000000000
11
-11.9707747394
21
22.0920602818
31
0.0000000000
0
SPLINE
5
2E8
100
AcDbEntity
8
0
100
AcDbSpline
62
7
6
CONTINUOUS
70
0
71
3
72
11
73
7
74
5
42
0.0000001000
43
0.0000001000
44
0.0000000001
12
0.7888143443
22
-0.3952621701
32
0.0000000000
13
0.8385516129
23
0.2713212558
33
0.0000000000
40
0.0000000000
40
0.0000000000
40
0.0000000000
40
0.0000000000
40
0.1405134899
40
0.4456035224
40
0.7614050107
40
1.0000000000
40
1.0000000000
40
1.0000000000
40
1.0000000000
10
-5.2061041688
20
-25.8863137326
30
0.0000000000
10
-5.1691578166
20
-25.9048269549
30
0.0000000000
10
-5.0485424249
20
-25.9568462032
30
0.0000000000
10
-4.8286882527
20
-26.0068639110
30
0.0000000000
10
-4.5742884610
20
-26.0008970339
30
0.0000000000
10
-4.4149203174
20
-25.9634484957
30
0.0000000000
10
-4.3482289130
20
-25.9418698650
30
0.0000000000
11
-5.2061041688
21
-25.8863137326
31
0.0000000000
11
-5.0922891698
21
-25.9353718833
31
0.0000000000
11
-4.8306954251
21
-25.9952714993
31
0.0000000000
11
-4.5529701872
21
-25.9894586164
31
0.0000000000
11
-4.3482289130
21
-25.9418698650
31
0.0000000000
0
SPLINE
5
2E9
100
AcDbEntity
8
0
100
AcDbSpline
62
7
6
CONTINUOUS
70
0
71
3
72
15
73
11
74
9
42
0.0000001000
43
0.0000001000
44
0.0000000001
12
0.8566489549
22
-0.6361219127
32
0.0000000000
13
-0.0942694667
23
-1.0604794432
33
0.0000000000
40
0.0000000000
40
0.0000000000
40
0.0000000000
40
0.0000000000
40
0.0124254369
40
0.1430511595
40
0.2816344919
40
0.4258746213
40
0.5729086865
40
0.7196151237
40
0.8629021370
40
1.0000000000
40
1.0000000000
40
1.0000000000
40
1.0000000000
10
3.0227056490
20
14.7131263283
30
0.0000000000
10
3.0262537282
20
14.7104916307
30
0.0000000000
10
3.0668263283
20
14.6797960713
30
0.0000000000
10
3.1403779072
20
14.6115137468
30
0.0000000000
10
3.2316573864
20
14.4959520019
30
0.0000000000
10
3.3088565543
20
14.3638429830
30
0.0000000000
10
3.3691551500
20
14.2201080818
30
0.0000000000
10
3.4103016472
20
14.0701039224
30
0.0000000000
10
3.4307583625
20
13.9194777934
30
0.0000000000
10
3.4300427392
20
13.8195260974
30
0.0000000000
10
3.4257346917
20
13.7710629422
30
0.0000000000
11
3.0227056490
21
14.7131263283
31
0.0000000000
11
3.0332777637
21
14.7051291103
31
0.0000000000
11
3.1357400627
21
14.6110943535
31
0.0000000000
11
3.2276119333
21
14.4956435966
31
0.0000000000
11
3.3053606296
21
14.3632127780
31
0.0000000000
11
3.3659969833
21
14.2188920909
31
0.0000000000
11
3.4071907720
21
14.0682295068
31
0.0000000000
11
3.4273606070
21
13.9170166559
31
0.0000000000
11
3.4257346917
21
13.7710629422
31
0.0000000000
0
SPLINE
5
2EA
100
AcDbEntity
8
0
100
AcDbSpline
62
7
6
CONTINUOUS
70
0
71
3
72
12
73
8
74
6
42
0.0000001000
43
0.0000001000
44
0.0000000001
12
-0.0527163453
22
-0.5930297731
32
0.0000000000
13
-0.5681904480
23
-0.1842368261
33
0.0000000000
40
0.0000000000
40
0.0000000000
40
0.0000000000
40
0.0000000000
40
0.2302653256
40
0.4435293723
40
0.6400788048
40
0.8231509824
40
1.0000000000
40
1.0000000000
40
1.0000000000
40
1.0000000000
10
0.0557465848
20
-24.1394422762
30
0.0000000000
10
0.0517003360
20
-24.1849603408
30
0.0000000000
10
0.0371541245
20
-24.2722690657
30
0.0000000000
10
-0.0063624513
20
-24.3924582789
30
0.0000000000
10
-0.0696647602
20
-24.4929168770
30
0.0000000000
10
-0.1511331610
20
-24.5694920661
30
0.0000000000
10
-0.2159422174
20
-24.6019913237
30
0.0000000000
10
-0.2494368583
20
-24.6128520243
30
0.0000000000
11
0.0557465848
21
-24.1394422762
31
0.0000000000
11
0.0323897483
21
-24.2745305999
31
0.0000000000
11
-0.0118030587
21
-24.3935622701
31
0.0000000000
11
-0.0751368352
21
-24.4919611842
31
0.0000000000
11
-0.1551788636
21
-24.5659426796
31
0.0000000000
11
-0.2494368583
21
-24.6128520243
31
0.0000000000
0
SPLINE
5
2EB
100
AcDbEntity
8
0
100
AcDbSpline
62
9
6
CONTINUOUS
70
0
71
3
72
8
73
4
74
2
42
0.0000001000
43
0.0000001000
44
0.0000000001
12
-0.0141101540
22
0.0070411492
32
0.0000000000
13
-0.0139046883
23
0.0074336806
33
0.0000000000
40
0.0000000000
40
0.0000000000
40
0.0000000000
40
0.0000000000
40
1.0000000000
40
1.0000000000
40
1.0000000000
40
1.0000000000
10
-19.6210807211
20
-18.6787598143
30
0.0000000000
10
-19.6257841058
20
-18.6764127646
30
0.0000000000
10
-19.6304543042
20
-18.6739998980
30
0.0000000000
10
-19.6350892004
20
-18.6715220044
30
0.0000000000
11
-19.6210807211
21
-18.6787598143
31
0.0000000000
11
-19.6350892004
21
-18.6715220044
31
0.0000000000
0
SPLINE
5
2EC
100
AcDbEntity
8
0
100
AcDbSpline
62
9
6
CONTINUOUS
70
0
71
3
72
12
73
8
74
6
42
0.0000001000
43
0.0000001000
44
0.0000000001
12
-0.8732598826
22
0.4668594443
32
0.0000000000
13
0.0363584443
23
0.9844375596
33
0.0000000000
40
0.0000000000
40
0.0000000000
40
0.0000000000
40
0.0000000000
40
0.0604378675
40
0.2621474815
40
0.4823887715
40
0.7279105994
40
1.0000000000
40
1.0000000000
40
1.0000000000
40
1.0000000000
10
-19.6350892004
20
-18.6715220044
30
0.0000000000
10
-19.6526818554
20
-18.6621166747
30
0.0000000000
10
-19.7267833928
20
-18.6172577167
30
0.0000000000
10
-19.8415264266
20
-18.5037723455
30
0.0000000000
10
-19.9446868381
20
-18.3072441995
30
0.0000000000
10
-20.0022006727
20
-18.0699601648
30
0.0000000000
10
-20.0092064756
20
-17.8990869580
30
0.0000000000
10
-20.0059088932
20
-17.8098019495
30
0.0000000000
11
-19.6350892004
21
-18.6715220044
31
0.0000000000
11
-19.6862256065
21
-18.6405386249
31
0.0000000000
11
-19.8290851602
21
-18.5024256832
31
0.0000000000
11
-19.9328016002
21
-18.3118600901
31
0.0000000000
11
-19.9926282922
21
-18.0775103857
31
0.0000000000
11
-20.0059088932
21
-17.8098019495
31
0.0000000000
0
SPLINE
5
2ED
100
AcDbEntity
8
0
100
AcDbSpline
62
9
6
CONTINUOUS
70
0
71
3
72
10
73
6
74
4
42
0.0000001000
43
0.0000001000
44
0.0000000001
12
-0.0113716471
22
-0.3890604166
32
0.0000000000
13
0.3416568335
23
-0.1713418521
33
0.0000000000
40
0.0000000000
40
0.0000000000
40
0.0000000000
40
0.0000000000
40
0.1795290511
40
0.5391469778
40
1.0000000000
40
1.0000000000
40
1.0000000000
40
1.0000000000
10
-20.2394518164
20
-17.5290217483
30
0.0000000000
10
-20.2401323300
20
-17.5523042974
30
0.0000000000
10
-20.2299882465
20
-17.6229364142
30
0.0000000000
10
-20.1475799519
20
-17.7272766208
30
0.0000000000
10
-20.0583933930
20
-17.7834808002
30
0.0000000000
10
-20.0059088649
20
-17.8098019370
30
0.0000000000
11
-20.2394518164
21
-17.5290217483
31
0.0000000000
11
-20.2295749704
21
-17.5977493071
31
0.0000000000
11
-20.1517781247
21
-17.7110648596
31
0.0000000000
11
-20.0059088649
21
-17.8098019370
31
0.0000000000
0
SPLINE
5
2EE
100
AcDbEntity
8
0
100
AcDbSpline
62
9
6
CONTINUOUS
70
0
71
3
72
10
73
6
74
4
42
0.0000001000
43
0.0000001000
44
0.0000000001
12
-0.0392792093
22
-0.3724517816
32
0.0000000000
13
0.3310965981
23
-0.1650053519
33
0.0000000000
40
0.0000000000
40
0.0000000000
40
0.0000000000
40
0.0000000000
40
0.1875381171
40
0.5305333582
40
1.0000000000
40
1.0000000000
40
1.0000000000
40
1.0000000000
10
-16.9828232799
20
19.1057636706
30
0.0000000000
10
-16.9852787296
20
19.0824807020
30
0.0000000000
10
-16.9745288391
20
19.0128899828
30
0.0000000000
10
-16.8849744465
20
18.9209721990
30
0.0000000000
10
-16.7995197367
20
18.8689132133
30
0.0000000000
10
-16.7477068007
20
18.8430917105
30
0.0000000000
11
-16.9828232799
21
19.1057636706
31
0.0000000000
11
-16.9730852176
21
19.0358837086
31
0.0000000000
11
-16.8940379094
21
18.9366287605
31
0.0000000000
11
-16.7477068007
21
18.8430917105
31
0.0000000000
0
SPLINE
5
2EF
100
AcDbEntity
8
0
100
AcDbSpline
62
9
6
CONTINUOUS
70
0
71
3
72
14
73
10
74
8
42
0.0000001000
43
0.0000001000
44
0.0000000001
12
-0.9113571564
22
-0.3345350981
32
0.0000000000
13
-0.1349908856
23
-0.9613860094
33
0.0000000000
40
0.0000000000
40
0.0000000000
40
0.0000000000
40
0.0000000000
40
0.1221593296
40
0.2565011522
40
0.4005455661
40
0.5509524486
40
0.7039209253
40
0.8550898989
40
1.0000000000
40
1.0000000000
40
1.0000000000
40
1.0000000000
10
-0.6847672765
20
12.2630368577
30
0.0000000000
10
-0.7218775363
20
12.2494146633
30
0.0000000000
10
-0.7965351726
20
12.2115677351
30
0.0000000000
10
-0.8998711579
20
12.1323956553
30
0.0000000000
10
-0.9958717991
20
12.0314884631
30
0.0000000000
10
-1.0802606788
20
11.9132985055
30
0.0000000000
10
-1.1493961688
20
11.7829766746
30
0.0000000000
10
-1.2002110946
20
11.6464020247
30
0.0000000000
10
-1.2210159005
20
11.5524615186
30
0.0000000000
10
-1.2275364148
20
11.5060233373
30
0.0000000000
11
-0.6847672765
21
12.2630368577
31
0.0000000000
11
-0.7910651429
21
12.2104499425
31
0.0000000000
11
-0.8951571527
21
12.1318714807
31
0.0000000000
11
-0.9919617616
21
12.0309541560
31
0.0000000000
11
-1.0770547484
21
11.9122936744
31
0.0000000000
11
-1.1466741922
21
11.7811194086
31
0.0000000000
11
-1.1976087144
21
11.6434843457
31
0.0000000000
11
-1.2275364148
21
11.5060233373
31
0.0000000000
0
SPLINE
5
2F0
100
AcDbEntity
8
0
100
AcDbSpline
62
9
6
CONTINUOUS
70
0
71
3
72
14
73
10
74
8
42
0.0000001000
43
0.0000001000
44
0.0000000001
12
-1.9450130264
22
-0.7293801114
32
0.0000000000
13
-0.2876245664
23
-2.0572659353
33
0.0000000000
40
0.0000000000
40
0.0000000000
40
0.0000000000
40
0.0000000000
40
0.1221100971
40
0.2560865318
40
0.3999100921
40
0.5501980234
40
0.7031471264
40
0.8544086444
40
1.0000000000
40
1.0000000000
40
1.0000000000
40
1.0000000000
10
-1.1863388899
20
13.2661122517
30
0.0000000000
10
-1.2655074664
20
13.2364240263
30
0.0000000000
10
-1.4243538143
20
13.1542874742
30
0.0000000000
10
-1.6437949569
20
12.9834748839
30
0.0000000000
10
-1.8474013893
20
12.7665469449
30
0.0000000000
10
-2.0264264725
20
12.5128888529
30
0.0000000000
10
-2.1732017443
20
12.2334847634
30
0.0000000000
10
-2.2813544018
20
11.9405061089
30
0.0000000000
10
-2.3257780626
20
11.7389409666
30
0.0000000000
10
-2.3397366128
20
11.6391009212
30
0.0000000000
11
-1.1863388899
21
13.2661122517
31
0.0000000000
11
-1.4128268036
21
13.1518987979
31
0.0000000000
11
-1.6336678068
21
12.9825370044
31
0.0000000000
11
-1.8390400901
21
12.7655568127
31
0.0000000000
11
-2.0195874887
21
12.5108710734
31
0.0000000000
11
-2.1674030523
21
12.2296329842
31
0.0000000000
11
-2.2757196053
21
11.9346812062
31
0.0000000000
11
-2.3397366128
21
11.6391009212
31
0.0000000000
0
SPLINE
5
2F1
100
AcDbEntity
8
0
100
AcDbSpline
62
9
6
CONTINUOUS
70
0
71
3
72
12
73
8
74
6
42
0.0000001000
43
0.0000001000
44
0.0000000001
12
0.0884069686
22
1.1724960655
32
0.0000000000
13
-1.0450894364
23
0.5388421715
33
0.0000000000
40
0.0000000000
40
0.0000000000
40
0.0000000000
40
0.0000000000
40
0.2004640949
40
0.4120494200
40
0.6230494852
40
0.8218917489
40
1.0000000000
40
1.0000000000
40
1.0000000000
40
1.0000000000
10
-0.6847672765
20
12.2630368577
30
0.0000000000
10
-0.6788598022
20
12.3413846452
30
0.0000000000
10
-0.6875909805
20
12.5043364926
30
0.0000000000
10
-0.7512906940
20
12.7416304783
30
0.0000000000
10
-0.8603334876
20
12.9613829679
30
0.0000000000
10
-1.0046396418
20
13.1432621121
30
0.0000000000
10
-1.1242925375
20
13.2341215068
30
0.0000000000
10
-1.1863388881
20
13.2661122524
30
0.0000000000
11
-0.6847672765
21
12.2630368577
31
0.0000000000
11
-0.6952597709
21
12.4985137655
31
0.0000000000
11
-0.7591087541
21
12.7389682583
31
0.0000000000
11
-0.8700674157
21
12.9608720495
31
0.0000000000
11
-1.0172789761
21
13.1425114313
31
0.0000000000
11
-1.1863388881
21
13.2661122524
31
0.0000000000
0
SPLINE
5
2F2
100
AcDbEntity
8
0
100
AcDbSpline
62
9
6
CONTINUOUS
70
0
71
3
72
10
73
6
74
4
42
0.0000001000
43
0.0000001000
44
0.0000000001
12
-2.6984527884
22
-19.2390520591
32
0.0000000000
13
-1.6733440998
23
-19.3556501950
33
0.0000000000
40
0.0000000000
40
0.0000000000
40
0.0000000000
40
0.0000000000
40
0.4805731410
40
0.9558939814
40
1.0000000000
40
1.0000000000
40
1.0000000000
40
1.0000000000
10
-1.2275364148
20
11.5060233373
30
0.0000000000
10
-1.6598043923
20
8.4240994444
30
0.0000000000
10
-2.4440533292
20
2.2830435202
30
0.0000000000
10
-3.1015051848
20
-4.1599767051
30
0.0000000000
10
-3.3952973006
20
-7.5109059124
30
0.0000000000
10
-3.4198988160
20
-7.7954728015
30
0.0000000000
11
-1.2275364148
21
11.5060233373
31
0.0000000000
11
-2.4089846402
21
2.2448044939
31
0.0000000000
11
-3.3450598751
21
-6.9418626210
31
0.0000000000
11
-3.4198988160
21
-7.7954728015
31
0.0000000000
0
SPLINE
5
2F3
100
AcDbEntity
8
0
100
AcDbSpline
62
9
6
CONTINUOUS
70
0
71
3
72
8
73
4
74
2
42
0.0000001000
43
0.0000001000
44
0.0000000001
12
-0.0818111315
22
-0.9463132204
32
0.0000000000
13
-0.0792610024
23
-0.9465307653
33
0.0000000000
40
0.0000000000
40
0.0000000000
40
0.0000000000
40
0.0000000000
40
1.0000000000
40
1.0000000000
40
1.0000000000
40
1.0000000000
10
-3.4198988160
20
-7.7954728015
30
0.0000000000
10
-3.4471691931
20
-8.1109105417
30
0.0000000000
10
-3.4740153952
20
-8.4263850414
30
0.0000000000
10
-3.5004357293
20
-8.7418952965
30
0.0000000000
11
-3.4198988160
21
-7.7954728015
31
0.0000000000
11
-3.5004357293
21
-8.7418952965
31
0.0000000000
0
SPLINE
5
2F4
100
AcDbEntity
8
0
100
AcDbSpline
62
9
6
CONTINUOUS
70
0
71
3
72
9
73
5
74
3
42
0.0000001000
43
0.0000001000
44
0.0000000001
12
-1.3633416450
22
-16.2809549689
32
0.0000000000
13
-0.5808291090
23
-16.3271995189
33
0.0000000000
40
0.0000000000
40
0.0000000000
40
0.0000000000
40
0.0000000000
40
0.4481030422
40
1.0000000000
40
1.0000000000
40
1.0000000000
40
1.0000000000
10
-3.5004357293
20
-8.7418952965
30
0.0000000000
10
-3.7040749089
20
-11.1737437801
30
0.0000000000
10
-4.1020618342
20
-16.6054691162
30
0.0000000000
10
-4.3701900350
20
-22.0454833417
30
0.0000000000
10
-4.4770426411
20
-25.0491272564
30
0.0000000000
11
-3.5004357293
21
-8.7418952965
31
0.0000000000
11
-4.0346780567
21
-16.0433534534
31
0.0000000000
11
-4.4770426411
21
-25.0491272564
31
0.0000000000
0
SPLINE
5
2F5
100
AcDbEntity
8
0
100
AcDbSpline
62
9
6
CONTINUOUS
70
0
71
3
72
11
73
7
74
5
42
0.0000001000
43
0.0000001000
44
0.0000000001
12
-5.1132039902
22
-36.4560510697
32
0.0000000000
13
-1.3088547540
23
-36.7896101348
33
0.0000000000
40
0.0000000000
40
0.0000000000
40
0.0000000000
40
0.0000000000
40
0.2542929917
40
0.5058055507
40
0.7544130335
40
1.0000000000
40
1.0000000000
40
1.0000000000
40
1.0000000000
10
-2.3397366128
20
11.6391009212
30
0.0000000000
10
-2.7731539260
20
8.5489281576
30
0.0000000000
10
-3.5594871624
20
2.3914506875
30
0.0000000000
10
-4.4993323276
20
-6.8190768677
30
0.0000000000
10
-5.1921974579
20
-15.9443574431
30
0.0000000000
10
-5.4907854688
20
-22.0021078000
30
0.0000000000
10
-5.5979313584
20
-25.0137907169
30
0.0000000000
11
-2.3397366128
21
11.6391009212
31
0.0000000000
11
-3.5243285564
21
2.3530949760
31
0.0000000000
11
-4.4628984134
21
-6.8581139873
31
0.0000000000
11
-5.1543649061
21
-15.9839138126
31
0.0000000000
11
-5.5979313584
21
-25.0137907169
31
0.0000000000
0
SPLINE
5
2F6
100
AcDbEntity
8
0
100
AcDbSpline
62
9
6
CONTINUOUS
70
0
71
3
72
12
73
8
74
6
42
0.0000001000
43
0.0000001000
44
0.0000000001
12
-1.1013842663
22
-0.2884792779
32
0.0000000000
13
-1.0176702488
23
0.5105045156
33
0.0000000000
40
0.0000000000
40
0.0000000000
40
0.0000000000
40
0.0000000000
40
0.1775762533
40
0.3829156791
40
0.6000769417
40
0.8113833799
40
1.0000000000
40
1.0000000000
40
1.0000000000
40
1.0000000000
10
-1.2275364148
20
11.5060233373
30
0.0000000000
10
-1.2927296453
20
11.4889476475
30
0.0000000000
10
-1.4375538487
20
11.4684774714
30
0.0000000000
10
-1.6657595173
20
11.4687178963
30
0.0000000000
10
-1.9051703942
20
11.4975582762
30
0.0000000000
10
-2.1333390833
20
11.5523457952
30
0.0000000000
10
-2.2757534193
20
11.6070043810
30
0.0000000000
10
-2.3397365936
20
11.6391009265
30
0.0000000000
11
-1.2275364148
21
11.5060233373
31
0.0000000000
11
-1.4272246803
21
11.4743970039
31
0.0000000000
11
-1.6610083212
21
11.4732142761
31
0.0000000000
11
-1.9065034592
21
11.5025883954
31
0.0000000000
11
-2.1402048856
21
11.5597069039
31
0.0000000000
11
-2.3397365936
21
11.6391009265
31
0.0000000000
0
SPLINE
5
2F7
100
AcDbEntity
8
0
100
AcDbSpline
62
9
6
CONTINUOUS
70
0
71
3
72
14
73
10
74
8
42
0.0000001000
43
0.0000001000
44
0.0000000001
12
-0.0258994508
22
-0.7307844530
32
0.0000000000
13
0.6956419102
23
0.2253864037
33
0.0000000000
40
0.0000000000
40
0.0000000000
40
0.0000000000
40
0.0000000000
40
0.1708461067
40
0.3264073056
40
0.4669611204
40
0.5968012547
40
0.7236226855
40
0.8559300019
40
1.0000000000
40
1.0000000000
40
1.0000000000
40
1.0000000000
10
-4.4770426411
20
-25.0491272564
30
0.0000000000
10
-4.4785175812
20
-25.0907444826
30
0.0000000000
10
-4.4749686492
20
-25.1707383172
30
0.0000000000
10
-4.4471239631
20
-25.2820377545
30
0.0000000000
10
-4.3973259619
20
-25.3746520138
30
0.0000000000
10
-4.3266602559
20
-25.4433977894
30
0.0000000000
10
-4.2384767194
20
-25.4832113830
30
0.0000000000
10
-4.1389531680
20
-25.4917053854
30
0.0000000000
10
-4.0721264873
20
-25.4778967082
30
0.0000000000
10
-4.0387194444
20
-25.4670729019
30
0.0000000000
11
-4.4770426411
21
-25.0491272564
31
0.0000000000
11
-4.4704424663
21
-25.1738828510
31
0.0000000000
11
-4.4415480530
21
-25.2839050102
31
0.0000000000
11
-4.3916171462
21
-25.3737406010
31
0.0000000000
11
-4.3229173152
21
-25.4392755805
31
0.0000000000
11
-4.2384713718
21
-25.4776043216
31
0.0000000000
11
-4.1421758253
21
-25.4869586986
31
0.0000000000
11
-4.0387194444
21
-25.4670729019
31
0.0000000000
0
SPLINE
5
2F8
100
AcDbEntity
8
0
100
AcDbSpline
62
9
6
CONTINUOUS
70
0
71
3
72
12
73
8
74
6
42
0.0000001000
43
0.0000001000
44
0.0000000001
12
-0.0362627973
22
-1.0066473530
32
0.0000000000
13
0.9052102620
23
-0.4535148315
33
0.0000000000
40
0.0000000000
40
0.0000000000
40
0.0000000000
40
0.0000000000
40
0.2664410323
40
0.5075579090
40
0.7248288988
40
0.9249038228
40
1.0000000000
40
1.0000000000
40
1.0000000000
40
1.0000000000
10
-5.5979313584
20
-25.0137907169
30
0.0000000000
10
-5.6011519907
20
-25.1031947702
30
0.0000000000
10
-5.5937240589
20
-25.2745408824
30
0.0000000000
10
-5.5347336905
20
-25.5126325257
30
0.0000000000
10
-5.4293278732
20
-25.7101787045
30
0.0000000000
10
-5.3089583286
20
-25.8279369106
30
0.0000000000
10
-5.2286706690
20
-25.8749498017
30
0.0000000000
10
-5.2060113923
20
-25.8863022117
30
0.0000000000
11
-5.5979313584
21
-25.0137907169
31
0.0000000000
11
-5.5840172158
21
-25.2818159239
31
0.0000000000
11
-5.5228123020
21
-25.5168547392
31
0.0000000000
11
-5.4170335857
21
-25.7084514705
31
0.0000000000
11
-5.2715226381
21
-25.8478901091
31
0.0000000000
11
-5.2060113923
21
-25.8863022117
31
0.0000000000
0
SPLINE
5
2F9
100
AcDbEntity
8
0
100
AcDbSpline
62
9
6
CONTINUOUS
70
0
71
3
72
12
73
8
74
6
42
0.0000001000
43
0.0000001000
44
0.0000000001
12
-1.0563622844
22
-0.4521286323
32
0.0000000000
13
-1.0283609076
23
0.5126357575
33
0.0000000000
40
0.0000000000
40
0.0000000000
40
0.0000000000
40
0.0000000000
40
0.1840519948
40
0.3910585016
40
0.6064820934
40
0.8143591951
40
1.0000000000
40
1.0000000000
40
1.0000000000
40
1.0000000000
10
-4.4770426411
20
-25.0491272564
30
0.0000000000
10
-4.5418511697
20
-25.0768656486
30
0.0000000000
10
-4.6869790038
20
-25.1185714965
30
0.0000000000
10
-4.9185345276
20
-25.1448309134
30
0.0000000000
10
-5.1607293080
20
-25.1371596600
30
0.0000000000
10
-5.3911050448
20
-25.0962605916
30
0.0000000000
10
-5.5342845905
20
-25.0455076365
30
0.0000000000
10
-5.5979198393
20
-25.0137855983
30
0.0000000000
11
-4.4770426411
21
-25.0491272564
31
0.0000000000
11
-4.6793858698
21
-25.1106357257
31
0.0000000000
11
-4.9155691726
21
-25.1388396874
31
0.0000000000
11
-5.1629792301
21
-25.1310387594
31
0.0000000000
11
-5.3979278197
21
-25.0879798402
31
0.0000000000
11
-5.5979198393
21
-25.0137855983
31
0.0000000000
0
SPLINE
5
2FA
100
AcDbEntity
8
0
100
AcDbSpline
62
9
6
CONTINUOUS
70
0
71
3
72
11
73
7
74
5
42
0.0000001000
43
0.0000001000
44
0.0000000001
12
-0.0606005596
22
-0.5926285512
32
0.0000000000
13
-0.5708219146
23
-0.1833626536
33
0.0000000000
40
0.0000000000
40
0.0000000000
40
0.0000000000
40
0.0000000000
40
0.3617258477
40
0.6795662800
40
0.9642805007
40
1.0000000000
40
1.0000000000
40
1.0000000000
40
1.0000000000
10
-4.0387194444
20
-25.4670729019
30
0.0000000000
10
-4.0460263740
20
-25.5385292569
30
0.0000000000
10
-4.0755732055
20
-25.6721727911
30
0.0000000000
10
-4.1740651727
20
-25.8410842397
30
0.0000000000
10
-4.2806402903
20
-25.9180343675
30
0.0000000000
10
-4.3409722215
20
-25.9395127379
30
0.0000000000
10
-4.3477687125
20
-25.9416959453
30
0.0000000000
11
-4.0387194444
21
-25.4670729019
31
0.0000000000
11
-4.0887761302
21
-25.6766652330
31
0.0000000000
11
-4.1883184933
21
-25.8377313712
31
0.0000000000
11
-4.3276063810
21
-25.9345111043
31
0.0000000000
11
-4.3477687125
21
-25.9416959453
31
0.0000000000
0
SPLINE
5
2FB
100
AcDbEntity
8
0
100
AcDbSpline
62
9
6
CONTINUOUS
70
0
71
3
72
9
73
5
74
3
42
0.0000001000
43
0.0000001000
44
0.0000000001
12
0.3352834098
22
0.1336093334
32
0.0000000000
13
0.3228763770
23
-0.1565751146
33
0.0000000000
40
0.0000000000
40
0.0000000000
40
0.0000000000
40
0.0000000000
40
0.4773562297
40
1.0000000000
40
1.0000000000
40
1.0000000000
40
1.0000000000
10
-15.9611828278
20
20.5051703694
30
0.0000000000
10
-15.9078329530
20
20.5264301186
30
0.0000000000
10
-15.7848216556
20
20.5424178894
30
0.0000000000
10
-15.6675044540
20
20.5058478153
30
0.0000000000
10
-15.6112546784
20
20.4785701459
30
0.0000000000
11
-15.9611828278
21
20.5051703694
31
0.0000000000
11
-15.7916900425
21
20.5297175406
31
0.0000000000
11
-15.6112546784
21
20.4785701459
31
0.0000000000
0
SPLINE
5
2FC
100
AcDbEntity
8
0
100
AcDbSpline
62
9
6
CONTINUOUS
70
0
71
3
72
14
73
10
74
8
42
0.0000001000
43
0.0000001000
44
0.0000000001
12
0.2850541809
22
2.0523819732
32
0.0000000000
13
1.9308208186
23
0.7519698242
33
0.0000000000
40
0.0000000000
40
0.0000000000
40
0.0000000000
40
0.0000000000
40
0.1460412394
40
0.2977664606
40
0.4510802939
40
0.6015333595
40
0.7452372224
40
0.8787442239
40
1.0000000000
40
1.0000000000
40
1.0000000000
40
1.0000000000
10
-16.7477141476
20
18.8430896886
30
0.0000000000
10
-16.7338375923
20
18.9430004910
30
0.0000000000
10
-16.6898607572
20
19.1447517862
30
0.0000000000
10
-16.5831285347
20
19.4383280642
30
0.0000000000
10
-16.4384624661
20
19.7186817106
30
0.0000000000
10
-16.2621431417
20
19.9735961259
30
0.0000000000
10
-16.0617290554
20
20.1920386903
30
0.0000000000
10
-15.8458272428
20
20.3645686046
30
0.0000000000
10
-15.6892957373
20
20.4481765844
30
0.0000000000
10
-15.6112546784
20
20.4785701459
30
0.0000000000
11
-16.7477141476
21
18.8430896886
31
0.0000000000
11
-16.6843307620
21
19.1389867846
31
0.0000000000
11
-16.5773923690
21
19.4346276425
31
0.0000000000
11
-16.4316396926
21
19.7168971754
31
0.0000000000
11
-16.2537438440
21
19.9729086897
31
0.0000000000
11
-16.0514970441
21
20.1914516230
31
0.0000000000
11
-15.8341105518
21
20.3625406720
31
0.0000000000
11
-15.6112546784
21
20.4785701459
31
0.0000000000
0
SPLINE
5
2FD
100
AcDbEntity
8
0
100
AcDbSpline
62
9
6
CONTINUOUS
70
0
71
3
72
11
73
7
74
5
42
0.0000001000
43
0.0000001000
44
0.0000000001
12
1.3797151331
22
36.7858943086
32
0.0000000000
13
5.0432622410
23
36.4646560371
33
0.0000000000
40
0.0000000000
40
0.0000000000
40
0.0000000000
40
0.0000000000
40
0.2454386335
40
0.4940048522
40
0.7455709106
40
1.0000000000
40
1.0000000000
40
1.0000000000
40
1.0000000000
10
-20.0059088932
20
-17.8098019495
30
0.0000000000
10
-19.8930304275
20
-14.8002420720
30
0.0000000000
10
-19.5858177998
20
-8.7454992959
30
0.0000000000
10
-18.8887211174
20
0.3774303691
30
0.0000000000
10
-17.9531627027
20
9.5898670368
30
0.0000000000
10
-17.1754316874
20
15.7505332787
30
0.0000000000
10
-16.7477141476
20
18.8430896886
30
0.0000000000
11
-20.0059088932
21
-17.8098019495
31
0.0000000000
11
-19.5495823948
21
-8.7863050683
31
0.0000000000
11
-18.8538609205
21
0.3373672663
31
0.0000000000
11
-17.9195460453
21
9.5507037205
31
0.0000000000
11
-16.7477141476
21
18.8430896886
31
0.0000000000
0
SPLINE
5
2FE
100
AcDbEntity
8
0
100
AcDbSpline
62
7
6
CONTINUOUS
70
0
71
3
72
18
73
14
74
12
42
0.0000001000
43
0.0000001000
44
0.0000000001
12
0.8134822567
22
0.3756930640
32
0.0000000000
13
0.8016850218
23
-0.4008397784
33
0.0000000000
40
0.0000000000
40
0.0000000000
40
0.0000000000
40
0.0000000000
40
0.0893849138
40
0.1790408614
40
0.2685268285
40
0.3627312415
40
0.4548475124
40
0.5475230269
40
0.6418820557
40
0.7327666972
40
0.8282674027
40
0.9200880842
40
1.0000000000
40
1.0000000000
40
1.0000000000
40
1.0000000000
10
12.2460720837
20
24.9045044212
30
0.0000000000
10
12.2703097641
20
24.9156981852
30
0.0000000000
10
12.3197798471
20
24.9361837223
30
0.0000000000
10
12.3961817440
20
24.9608555133
30
0.0000000000
10
12.4757218760
20
24.9796539570
30
0.0000000000
10
12.5572761829
20
24.9919592722
30
0.0000000000
10
12.6405185253
20
24.9974824900
30
0.0000000000
10
12.7239800402
20
24.9961004429
30
0.0000000000
10
12.8066713633
20
24.9877717778
30
0.0000000000
10
12.8892079280
20
24.9724628623
30
0.0000000000
10
12.9694601759
20
24.9505177729
30
0.0000000000
10
13.0444981643
20
24.9230522260
30
0.0000000000
10
13.0912123292
20
24.9017499447
30
0.0000000000
10
13.1125670579
20
24.8910726532
30
0.0000000000
11
12.2460720837
21
24.9045044212
31
0.0000000000
11
12.3200716092
21
24.9351468719
31
0.0000000000
11
12.3965201616
21
24.9598343177
31
0.0000000000
11
12.4745540717
21
24.9782764225
31
0.0000000000
11
12.5580208035
21
24.9908703058
31
0.0000000000
11
12.6403801315
21
24.9963350379
31
0.0000000000
11
12.7234102819
21
24.9949599786
31
0.0000000000
11
12.8075347143
21
24.9864871096
31
0.0000000000
11
12.8876058365
21
24.9716354154
31
0.0000000000
11
12.9701484060
21
24.9490639971
31
0.0000000000
11
13.0474111035
21
24.9207842457
31
0.0000000000
11
13.1125670579
21
24.8910726532
31
0.0000000000
0
SPLINE
5
2FF
100
AcDbEntity
8
0
100
AcDbSpline
62
7
6
CONTINUOUS
70
0
71
3
72
20
73
16
74
14
42
0.0000001000
43
0.0000001000
44
0.0000000001
12
1.2252731435
22
0.8880436950
32
0.0000000000
13
0.0000031288
23
1.5131802467
33
0.0000000000
40
0.0000000000
40
0.0000000000
40
0.0000000000
40
0.0000000000
40
0.0630693233
40
0.1339828920
40
0.2056263483
40
0.2782020352
40
0.3519136970
40
0.4269570099
40
0.5035547107
40
0.5820106242
40
0.6625621039
40
0.7451653798
40
0.8297982536
40
0.9164330869
40
1.0000000000
40
1.0000000000
40
1.0000000000
40
1.0000000000
10
19.6216319556
20
-11.7337588625
30
0.0000000000
10
19.6473910050
20
-11.7150894242
30
0.0000000000
10
19.7007629239
20
-11.6735281069
30
0.0000000000
10
19.7778158428
20
-11.6039637523
30
0.0000000000
10
19.8526346047
20
-11.5252283980
30
0.0000000000
10
19.9221241948
20
-11.4399253219
30
0.0000000000
10
19.9859166252
20
-11.3481839788
30
0.0000000000
10
20.0436305250
20
-11.2501400575
30
0.0000000000
10
20.0948916323
20
-11.1458994137
30
0.0000000000
10
20.1393068759
20
-11.0355618702
30
0.0000000000
10
20.1764154227
20
-10.9193729853
30
0.0000000000
10
20.2057426712
20
-10.7977746252
30
0.0000000000
10
20.2268681515
20
-10.6713752573
30
0.0000000000
10
20.2392288439
20
-10.5433425142
30
0.0000000000
10
20.2418638177
20
-10.4574685596
30
0.0000000000
10
20.2418639048
20
-10.4153179589
30
0.0000000000
11
19.6216319556
21
-11.7337588625
31
0.0000000000
11
19.6969367667
21
-11.6751269594
31
0.0000000000
11
19.7765919015
21
-11.6032342449
31
0.0000000000
11
19.8512811697
21
-11.5246642477
31
0.0000000000
11
19.9206588052
21
-11.4395390829
31
0.0000000000
11
19.9843596931
21
-11.3479846168
31
0.0000000000
11
20.0419948730
21
-11.2501493248
31
0.0000000000
11
20.0931810810
21
-11.1461628055
31
0.0000000000
11
20.1375597540
21
-11.0360563728
31
0.0000000000
11
20.1746991487
21
-10.9199682239
31
0.0000000000
11
20.2040686095
21
-10.7984788179
31
0.0000000000
11
20.2252499818
21
-10.6721826893
31
0.0000000000
11
20.2379213844
21
-10.5417073428
31
0.0000000000
11
20.2418639048
21
-10.4153179589
31
0.0000000000
0
SPLINE
5
300
100
AcDbEntity
8
0
100
AcDbSpline
62
7
6
CONTINUOUS
70
0
71
3
72
17
73
13
74
11
42
0.0000001000
43
0.0000001000
44
0.0000000001
12
-0.0000003619
22
1.2787589490
32
0.0000000000
13
-0.6413999662
23
1.1062504870
33
0.0000000000
40
0.0000000000
40
0.0000000000
40
0.0000000000
40
0.0000000000
40
0.0931726255
40
0.1936012838
40
0.2946374052
40
0.3960993816
40
0.4977637442
40
0.5994160614
40
0.7010265346
40
0.8026116490
40
0.9041760118
40
1.0000000000
40
1.0000000000
40
1.0000000000
40
1.0000000000
10
20.2418639069
20
19.9297617192
30
0.0000000000
10
20.2418638957
20
19.9694768287
30
0.0000000000
10
20.2394776389
20
20.0520178799
30
0.0000000000
10
20.2286351255
20
20.1772025542
30
0.0000000000
10
20.2101465842
20
20.3050611405
30
0.0000000000
10
20.1845271592
20
20.4322153929
30
0.0000000000
10
20.1520885461
20
20.5580709665
30
0.0000000000
10
20.1131458280
20
20.6821313927
30
0.0000000000
10
20.0679795564
20
20.8040252110
30
0.0000000000
10
20.0168097108
20
20.9234817219
30
0.0000000000
10
19.9608882585
20
21.0380452585
30
0.0000000000
10
19.9203836370
20
21.1118310789
30
0.0000000000
10
19.8998964694
20
21.1471661901
30
0.0000000000
11
20.2418639069
21
19.9297617192
31
0.0000000000
11
20.2384696577
21
20.0488584536
31
0.0000000000
11
20.2274442787
21
20.1768043060
31
0.0000000000
11
20.2090032042
21
20.3046782167
31
0.0000000000
11
20.1834189007
21
20.4318719987
31
0.0000000000
11
20.1510055829
21
20.5577664440
31
0.0000000000
11
20.1121009527
21
20.6817924890
31
0.0000000000
11
20.0669726713
21
20.8036348504
31
0.0000000000
11
20.0158338188
21
20.9230438749
31
0.0000000000
11
19.9588656409
21
21.0397547610
31
0.0000000000
11
19.8998964694
21
21.1471661901
31
0.0000000000
0
SPLINE
5
301
100
AcDbEntity
8
0
100
AcDbSpline
62
7
6
CONTINUOUS
70
0
71
3
72
12
73
8
74
6
42
0.0000001000
43
0.0000001000
44
0.0000000001
12
0.0794384856
22
-0.0397300228
32
0.0000000000
13
0.0445479325
23
-0.0768293223
33
0.0000000000
40
0.0000000000
40
0.0000000000
40
0.0000000000
40
0.0000000000
40
0.1689358061
40
0.4446982556
40
0.7179283992
40
0.9949015518
40
1.0000000000
40
1.0000000000
40
1.0000000000
40
1.0000000000
10
19.5730666722
20
21.6608221239
30
0.0000000000
10
19.5775400071
20
21.6585848494
30
0.0000000000
10
19.5890465552
20
21.6521594117
30
0.0000000000
10
19.6061855168
20
21.6394625396
30
0.0000000000
10
19.6232120075
20
21.6217893635
30
0.0000000000
10
19.6325716591
20
21.6082098357
30
0.0000000000
10
19.6367702606
20
21.6009917955
30
0.0000000000
10
19.6368459690
20
21.6008612254
30
0.0000000000
11
19.5730666722
21
21.6608221239
31
0.0000000000
11
19.5861539285
21
21.6534952434
31
0.0000000000
11
19.6057945755
21
21.6389036404
31
0.0000000000
11
19.6226248110
21
21.6214546156
31
0.0000000000
11
19.6366182995
21
21.6012526232
31
0.0000000000
11
19.6368459690
21
21.6008612254
31
0.0000000000
0
SPLINE
5
302
100
AcDbEntity
8
0
100
AcDbSpline
62
7
6
CONTINUOUS
70
0
71
3
72
9
73
5
74
3
42
0.0000001000
43
0.0000001000
44
0.0000000001
12
0.0106959682
22
0.0091088848
32
0.0000000000
13
0.0125651438
23
0.0062858928
33
0.0000000000
40
0.0000000000
40
0.0000000000
40
0.0000000000
40
0.0000000000
40
0.2054428923
40
1.0000000000
40
1.0000000000
40
1.0000000000
40
1.0000000000
10
-1.4197815204
20
22.1018280654
30
0.0000000000
10
-1.4190490502
20
22.1024518506
30
0.0000000000
10
-1.4154092932
20
22.1054005244
30
0.0000000000
10
-1.4114197423
20
22.1078965782
30
0.0000000000
10
-1.4080918342
20
22.1095614118
30
0.0000000000
11
-1.4197815204
21
22.1018280654
31
0.0000000000
11
-1.4175387621
21
22.1036443151
31
0.0000000000
11
-1.4080918342
21
22.1095614118
31
0.0000000000
0
SPLINE
5
303
100
AcDbEntity
8
0
100
AcDbSpline
62
7
6
CONTINUOUS
70
0
71
3
72
24
73
20
74
18
42
0.0000001000
43
0.0000001000
44
0.0000000001
12
-1.1802138618
22
0.4703283964
32
0.0000000000
13
-1.1361660762
23
-0.5680996616
33
0.0000000000
40
0.0000000000
40
0.0000000000
40
0.0000000000
40
0.0000000000
40
0.0282422458
40
0.0868493739
40
0.1464689383
40
0.2070024884
40
0.2683257947
40
0.3302891698
40
0.3927307106
40
0.4554840717
40
0.5183771559
40
0.5812354225
40
0.6438834671
40
0.7061504238
40
0.7678441923
40
0.8287658525
40
0.8887502679
40
0.9476753427
40
1.0000000000
40
1.0000000000
40
1.0000000000
40
1.0000000000
10
-0.1090129616
20
22.1811169275
30
0.0000000000
10
-0.1201235916
20
22.1855446375
30
0.0000000000
10
-0.1545071373
20
22.1986234506
30
0.0000000000
10
-0.2134482197
20
22.2180130567
30
0.0000000000
10
-0.2865939937
20
22.2376096202
30
0.0000000000
10
-0.3617815121
20
22.2536062373
30
0.0000000000
10
-0.4386407589
20
22.2660503310
30
0.0000000000
10
-0.5167992714
20
22.2749705382
30
0.0000000000
10
-0.5958844484
20
22.2803823739
30
0.0000000000
10
-0.6755247110
20
22.2822907929
30
0.0000000000
10
-0.7553482092
20
22.2806913346
30
0.0000000000
10
-0.8349792001
20
22.2755705929
30
0.0000000000
10
-0.9140373499
20
22.2669060324
30
0.0000000000
10
-0.9921243402
20
22.2546667599
30
0.0000000000
10
-1.0688156080
20
22.2388158492
30
0.0000000000
10
-1.1436653539
20
22.2193115753
30
0.0000000000
10
-1.2162261894
20
22.1960994821
30
0.0000000000
10
-1.2838902135
20
22.1699405848
30
0.0000000000
10
-1.3267223754
20
22.1502466085
30
0.0000000000
10
-1.3465388756
20
22.1403380684
30
0.0000000000
11
-0.1090129616
21
22.1811169275
31
0.0000000000
11
-0.1425455559
21
22.1938834899
31
0.0000000000
11
-0.2132374923
21
22.2172179235
31
0.0000000000
11
-0.2863716613
21
22.2368740476
31
0.0000000000
11
-0.3615689277
21
22.2529216786
31
0.0000000000
11
-0.4384554933
21
22.2654070532
31
0.0000000000
11
-0.5166516195
21
22.2743577125
31
0.0000000000
11
-0.5957795478
21
22.2797888215
31
0.0000000000
11
-0.6754666776
21
22.2817054340
31
0.0000000000
11
-0.7553382577
21
22.2801029749
31
0.0000000000
11
-0.8350163834
21
22.2749678745
31
0.0000000000
11
-0.9141168343
21
22.2662775209
31
0.0000000000
11
-0.9922502851
21
22.2539990120
31
0.0000000000
11
-1.0689837925
21
22.2380953305
31
0.0000000000
11
-1.1438525563
21
22.2185280621
31
0.0000000000
11
-1.2164012855
21
22.1952459101
31
0.0000000000
11
-1.2861817440
21
22.1681751514
31
0.0000000000
11
-1.3465388756
21
22.1403380684
31
0.0000000000
0
SPLINE
5
304
100
AcDbEntity
8
0
100
AcDbSpline
62
7
6
CONTINUOUS
70
0
71
3
72
8
73
4
74
2
42
0.0000001000
43
0.0000001000
44
0.0000000001
12
-0.0050308648
22
0.0025152164
32
0.0000000000
13
-0.0052241425
23
0.0020832623
33
0.0000000000
40
0.0000000000
40
0.0000000000
40
0.0000000000
40
0.0000000000
40
1.0000000000
40
1.0000000000
40
1.0000000000
40
1.0000000000
10
-0.1038826146
20
22.1788155958
30
0.0000000000
10
-0.1055595695
20
22.1796540012
30
0.0000000000
10
-0.1072716534
20
22.1804221386
30
0.0000000000
10
-0.1090130342
20
22.1811165593
30
0.0000000000
11
-0.1038826146
21
22.1788155958
31
0.0000000000
11
-0.1090130342
21
22.1811165593
31
0.0000000000
0
SPLINE
5
305
100
AcDbEntity
8
0
100
AcDbSpline
62
7
6
CONTINUOUS
70
0
71
3
72
9
73
5
74
3
42
0.0000001000
43
0.0000001000
44
0.0000000001
12
0.0795225061
22
0.0420674689
32
0.0000000000
13
0.0728595284
23
0.0528107048
33
0.0000000000
40
0.0000000000
40
0.0000000000
40
0.0000000000
40
0.0000000000
40
0.5842404426
40
1.0000000000
40
1.0000000000
40
1.0000000000
40
1.0000000000
10
19.2041556610
20
-12.0286423760
30
0.0000000000
10
19.2196424158
20
-12.0204498704
30
0.0000000000
10
19.2455617367
20
-12.0052850901
30
0.0000000000
10
19.2703388630
20
-11.9883578993
30
0.0000000000
10
19.2804362114
20
-11.9810390476
30
0.0000000000
11
19.2041556610
21
-12.0286423760
31
0.0000000000
11
19.2495387737
21
-12.0021285388
31
0.0000000000
11
19.2804362114
21
-11.9810390476
31
0.0000000000
0
SPLINE
5
306
100
AcDbEntity
8
0
100
AcDbSpline
62
9
6
CONTINUOUS
70
0
71
3
72
25
73
21
74
19
42
0.0000001000
43
0.0000001000
44
0.0000000001
12
0.9805003859
22
0.4902423243
32
0.0000000000
13
1.0206651721
23
-0.3999514344
33
0.0000000000
40
0.0000000000
40
0.0000000000
40
0.0000000000
40
0.0000000000
40
0.0486159936
40
0.0993722266
40
0.1520748349
40
0.2065079021
40
0.2624326998
40
0.3195922882
40
0.3777135757
40
0.4365142592
40
0.4957056498
40
0.5549977874
40
0.6141011718
40
0.6727315420
40
0.7306113606
40
0.7874746053
40
0.8430698023
40
0.8971631016
40
0.9495383397
40
1.0000000000
40
1.0000000000
40
1.0000000000
40
1.0000000000
10
-1.2570920747
20
22.1346597242
30
0.0000000000
10
-1.2412027412
20
22.1426042635
30
0.0000000000
10
-1.2081885473
20
22.1577880115
30
0.0000000000
10
-1.1564135975
20
22.1780444556
30
0.0000000000
10
-1.1016100461
20
22.1961645204
30
0.0000000000
10
-1.0441524886
20
22.2120271366
30
0.0000000000
10
-0.9844260577
20
22.2255307670
30
0.0000000000
10
-0.9228308869
20
22.2365902397
30
0.0000000000
10
-0.8597776185
20
22.2451378739
30
0.0000000000
10
-0.7956848181
20
22.2511235497
30
0.0000000000
10
-0.7309745413
20
22.2545149203
30
0.0000000000
10
-0.6660697512
20
22.2552971686
30
0.0000000000
10
-0.6013909127
20
22.2534727114
30
0.0000000000
10
-0.5373538997
20
22.2490607704
30
0.0000000000
10
-0.4743668663
20
22.2420968416
30
0.0000000000
10
-0.4128277648
20
22.2326320298
30
0.0000000000
10
-0.3531219133
20
22.2207322047
30
0.0000000000
10
-0.2956201027
20
22.2064770911
30
0.0000000000
10
-0.2406822769
20
22.1899609988
30
0.0000000000
10
-0.2052915939
20
22.1772623984
30
0.0000000000
10
-0.1881234408
20
22.1705349939
30
0.0000000000
11
-1.2570920747
21
22.1346597242
31
0.0000000000
11
-1.2087038602
21
22.1569949050
31
0.0000000000
11
-1.1569109559
21
22.1773260779
31
0.0000000000
11
-1.1020739419
21
22.1955126988
31
0.0000000000
11
-1.0445661989
21
22.2114344458
31
0.0000000000
11
-0.9847768542
21
22.2249883656
31
0.0000000000
11
-0.9231079434
21
22.2360889308
31
0.0000000000
11
-0.8599738927
21
22.2446678533
31
0.0000000000
11
-0.7957953767
21
22.2506748849
31
0.0000000000
11
-0.7309973236
21
22.2540775760
31
0.0000000000
11
-0.6660042725
21
22.2548611804
31
0.0000000000
11
-0.6012393473
21
22.2530282144
31
0.0000000000
11
-0.5371198844
21
22.2485980493
31
0.0000000000
11
-0.4740567180
21
22.2416064561
31
0.0000000000
11
-0.4124499707
21
22.2321048877
31
0.0000000000
11
-0.3526869925
21
22.2201596265
31
0.0000000000
11
-0.2951405610
21
22.2058509278
31
0.0000000000
11
-0.2401706717
21
22.1892731052
31
0.0000000000
11
-0.1881234408
21
22.1705349939
31
0.0000000000
0
SPLINE
5
307
100
AcDbEntity
8
0
100
AcDbSpline
62
9
6
CONTINUOUS
70
0
71
3
72
16
73
12
74
10
42
0.0000001000
43
0.0000001000
44
0.0000000001
12
-0.4035520321
22
0.2018036023
32
0.0000000000
13
-0.4066845390
23
-0.1946481669
33
0.0000000000
40
0.0000000000
40
0.0000000000
40
0.0000000000
40
0.0000000000
40
0.0179524839
40
0.1292323758
40
0.2419262945
40
0.3571674186
40
0.4759509126
40
0.5990963966
40
0.7272300812
40
0.8607829722
40
1.0000000000
40
1.0000000000
40
1.0000000000
40
1.0000000000
10
13.1125642649
20
24.8910737957
30
0.0000000000
10
13.1101493445
20
24.8922814210
30
0.0000000000
10
13.0926714533
20
24.9007866682
30
0.0000000000
10
13.0587381138
20
24.9141415878
30
0.0000000000
10
13.0091143914
20
24.9264354149
30
0.0000000000
10
12.9572204101
20
24.9324541832
30
0.0000000000
10
12.9034205314
20
24.9321754690
30
0.0000000000
10
12.8480821437
20
24.9256218981
30
0.0000000000
10
12.7915730395
20
24.9128553995
30
0.0000000000
10
12.7342692559
20
24.8939778319
30
0.0000000000
10
12.6965639797
20
24.8777434946
30
0.0000000000
10
12.6776915087
20
24.8687107149
30
0.0000000000
11
13.1125642649
21
24.8910737957
31
0.0000000000
11
13.1052808990
21
24.8946179929
31
0.0000000000
11
13.0586032370
21
24.9130152330
31
0.0000000000
11
13.0092985931
21
24.9252910030
31
0.0000000000
11
12.9576963295
21
24.9313632990
31
0.0000000000
11
12.9041411564
21
24.9311915573
31
0.0000000000
11
12.8489908300
21
24.9247769251
31
0.0000000000
11
12.7926137622
21
24.9121622531
31
0.0000000000
11
12.7353865599
21
24.8934318090
31
0.0000000000
11
12.6776915087
21
24.8687107149
31
0.0000000000
0
SPLINE
5
308
100
AcDbEntity
8
0
100
AcDbSpline
62
9
6
CONTINUOUS
70
0
71
3
72
18
73
14
74
12
42
0.0000001000
43
0.0000001000
44
0.0000000001
12
0.3421819379
22
0.1701299167
32
0.0000000000
13
0.1978664154
23
-0.3095906505
33
0.0000000000
40
0.0000000000
40
0.0000000000
40
0.0000000000
40
0.0000000000
40
0.1612065774
40
0.3104715131
40
0.4468244645
40
0.5693897844
40
0.6773973839
40
0.7701972756
40
0.8472833076
40
0.9083419999
40
0.9533820448
40
0.9831967870
40
1.0000000000
40
1.0000000000
40
1.0000000000
40
1.0000000000
10
19.5470532370
20
21.0140678031
30
0.0000000000
10
19.5654405634
20
21.0232098236
30
0.0000000000
10
19.6009437552
20
21.0406354307
30
0.0000000000
10
19.6523412821
20
21.0650896062
30
0.0000000000
10
19.6996106637
20
21.0867519379
30
0.0000000000
10
19.7424355046
20
21.1054846347
30
0.0000000000
10
19.7805308511
20
21.1211594118
30
0.0000000000
10
19.8136401347
20
21.1337113693
30
0.0000000000
10
19.8415562220
20
21.1429934796
30
0.0000000000
10
19.8640862032
20
21.1492133030
30
0.0000000000
10
19.8812255418
20
21.1518448454
30
0.0000000000
10
19.8929459401
20
21.1523187805
30
0.0000000000
10
19.8987696349
20
21.1488883603
30
0.0000000000
10
19.8998778987
20
21.1471543211
30
0.0000000000
11
19.5470532370
21
21.0140678031
31
0.0000000000
11
19.6023658919
21
21.0411886992
31
0.0000000000
11
19.6538870508
21
21.0656668747
31
0.0000000000
11
19.7012725452
21
21.0873388119
31
0.0000000000
11
19.7442058334
21
21.1060597393
31
0.0000000000
11
19.7824001148
21
21.1217045983
31
0.0000000000
11
19.8156002463
21
21.1341688793
31
0.0000000000
11
19.8435844463
21
21.1433693189
31
0.0000000000
11
19.8661657765
21
21.1492444569
31
0.0000000000
11
19.8831933903
21
21.1517550467
31
0.0000000000
11
19.8945535408
21
21.1508843171
31
0.0000000000
11
19.8998778987
21
21.1471543211
31
0.0000000000
0
SPLINE
5
309
100
AcDbEntity
8
0
100
AcDbSpline
62
7
6
CONTINUOUS
70
0
71
3
72
18
73
14
74
12
42
0.0000001000
43
0.0000001000
44
0.0000000001
12
0.3459745596
22
0.1680568266
32
0.0000000000
13
0.3443637069
23
-0.1722285845
33
0.0000000000
40
0.0000000000
40
0.0000000000
40
0.0000000000
40
0.0000000000
40
0.1297946914
40
0.2520704309
40
0.3667499221
40
0.4738432021
40
0.5734632031
40
0.6658448809
40
0.7513682582
40
0.8305847233
40
0.9042435825
40
0.9733112212
40
1.0000000000
40
1.0000000000
40
1.0000000000
40
1.0000000000
10
19.2041556610
20
21.6054786387
30
0.0000000000
10
19.2191242148
20
21.6127496000
30
0.0000000000
10
19.2484991290
20
21.6262561893
30
0.0000000000
10
19.2921349790
20
21.6438269908
30
0.0000000000
10
19.3339004119
20
21.6580924582
30
0.0000000000
10
19.3736540597
20
21.6690423416
30
0.0000000000
10
19.4112678326
20
21.6766790587
30
0.0000000000
10
19.4466260254
20
21.6810157977
30
0.0000000000
10
19.4796257007
20
21.6820749475
30
0.0000000000
10
19.5101752302
20
21.6798857468
30
0.0000000000
10
19.5381906412
20
21.6744823814
30
0.0000000000
10
19.5588395863
20
21.6675089037
30
0.0000000000
10
19.5700031233
20
21.6623543141
30
0.0000000000
10
19.5730666722
20
21.6608221239
30
0.0000000000
11
19.2041556610
21
21.6054786387
31
0.0000000000
11
19.2495387737
21
21.6262799224
31
0.0000000000
11
19.2931911086
21
21.6437841975
31
0.0000000000
11
19.3349575930
21
21.6579685699
31
0.0000000000
11
19.3746931165
21
21.6688232835
31
0.0000000000
11
19.4122632324
21
21.6763518395
31
0.0000000000
11
19.4475447743
21
21.6805709500
31
0.0000000000
11
19.4804263550
21
21.6815103260
31
0.0000000000
11
19.5108087301
21
21.6792123068
31
0.0000000000
11
19.5386050342
21
21.6737313473
31
0.0000000000
11
19.5637407946
21
21.6651334068
31
0.0000000000
11
19.5730666722
21
21.6608221239
31
0.0000000000
0
SPLINE
5
30A
100
AcDbEntity
8
0
100
AcDbSpline
62
9
6
CONTINUOUS
70
0
71
3
72
19
73
15
74
13
42
0.0000001000
43
0.0000001000
44
0.0000000001
12
0.0043621578
22
1.5071270313
32
0.0000000000
13
-0.7596320570
23
1.3016950699
33
0.0000000000
40
0.0000000000
40
0.0000000000
40
0.0000000000
40
0.0000000000
40
0.0762817009
40
0.1544246992
40
0.2342915930
40
0.3157231579
40
0.3985441601
40
0.4825648517
40
0.5675828668
40
0.6533860756
40
0.7397553920
40
0.8264664344
40
0.9132904740
40
1.0000000000
40
1.0000000000
40
1.0000000000
40
1.0000000000
10
19.9612037127
20
19.5824342285
30
0.0000000000
10
19.9613146303
20
19.6207562996
30
0.0000000000
10
19.9594235822
20
19.6983552464
30
0.0000000000
10
19.9505374651
20
19.8157685201
30
0.0000000000
10
19.9356052073
20
19.9351752159
30
0.0000000000
10
19.9146911562
20
20.0560627277
30
0.0000000000
10
19.8878849839
20
20.1779172763
30
0.0000000000
10
19.8553012834
20
20.3002193489
30
0.0000000000
10
19.8170792631
20
20.4224474788
30
0.0000000000
10
19.7733821318
20
20.5440802906
30
0.0000000000
10
19.7243964550
20
20.6645988886
30
0.0000000000
10
19.6703309727
20
20.7834895804
30
0.0000000000
10
19.6114176485
20
20.9002429110
30
0.0000000000
10
19.5690090156
20
20.9764446823
30
0.0000000000
10
19.5470532370
20
21.0140678031
30
0.0000000000
11
19.9612037127
21
19.5824342285
31
0.0000000000
11
19.9584786545
21
19.6973686229
31
0.0000000000
11
19.9496585415
21
19.8148098012
31
0.0000000000
11
19.9347810249
21
19.9342569047
31
0.0000000000
11
19.9139099479
21
20.0551974511
31
0.0000000000
11
19.8871346208
21
20.1771141725
31
0.0000000000
11
19.8545695499
21
20.2994856184
31
0.0000000000
11
19.8163542042
21
20.4217876112
31
0.0000000000
11
19.7726523019
21
20.5434962734
31
0.0000000000
11
19.7236507740
21
20.6640910457
31
0.0000000000
11
19.6695591592
21
20.7830561389
31
0.0000000000
11
19.6106095262
21
20.8998811270
31
0.0000000000
11
19.5470532370
21
21.0140678031
31
0.0000000000
0
SPLINE
5
30B
100
AcDbEntity
8
0
100
AcDbSpline
62
9
6
CONTINUOUS
70
0
71
3
72
17
73
13
74
11
42
0.0000001000
43
0.0000001000
44
0.0000000001
12
0.4163435503
22
0.2155681837
32
0.0000000000
13
-0.0000278342
23
0.4693695292
33
0.0000000000
40
0.0000000000
40
0.0000000000
40
0.0000000000
40
0.0000000000
40
0.1329189116
40
0.2587863602
40
0.3775375991
40
0.4893034249
40
0.5944452287
40
0.6935904860
40
0.7876608200
40
0.8778788512
40
0.9657362157
40
1.0000000000
40
1.0000000000
40
1.0000000000
40
1.0000000000
10
19.9612037127
20
19.5824342285
30
0.0000000000
10
19.9796503565
20
19.5919852579
30
0.0000000000
10
20.0149771075
20
19.6117539484
30
0.0000000000
10
20.0642463595
20
19.6443199261
30
0.0000000000
10
20.1080705697
20
19.6788085605
30
0.0000000000
10
20.1461565974
20
19.7150045655
30
0.0000000000
10
20.1782470235
20
19.7526882794
30
0.0000000000
10
20.2041122051
20
19.7916325875
30
0.0000000000
10
20.2235482077
20
19.8315981772
30
0.0000000000
10
20.2363782356
20
19.8723227796
30
0.0000000000
10
20.2412513101
20
19.9052945218
30
0.0000000000
10
20.2418626859
20
19.9244009270
30
0.0000000000
10
20.2418623680
20
19.9297617191
30
0.0000000000
11
19.9612037127
21
19.5824342285
31
0.0000000000
11
20.0155295469
21
19.6129663628
31
0.0000000000
11
20.0646871855
21
19.6456147462
31
0.0000000000
11
20.1083482485
21
19.6801612827
31
0.0000000000
11
20.1462210737
21
19.7163751968
31
0.0000000000
11
20.1780526655
21
19.7540145742
31
0.0000000000
11
20.2036303842
21
19.7928279786
31
0.0000000000
11
20.2227833671
21
19.8325561311
31
0.0000000000
11
20.2353836696
21
19.8729336419
31
0.0000000000
11
20.2413471199
21
19.9136907835
31
0.0000000000
11
20.2418623680
21
19.9297617191
31
0.0000000000
0
SPLINE
5
30C
100
AcDbEntity
8
0
100
AcDbSpline
62
9
6
CONTINUOUS
70
0
71
3
72
17
73
13
74
11
42
0.0000001000
43
0.0000001000
44
0.0000000001
12
0.4163466417
22
0.2155697843
32
0.0000000000
13
-0.0000136022
23
0.4693687958
33
0.0000000000
40
0.0000000000
40
0.0000000000
40
0.0000000000
40
0.0000000000
40
0.1321832954
40
0.2573957836
40
0.3755722869
40
0.4868383898
40
0.5915444751
40
0.6903002791
40
0.7840025186
40
0.8738424804
40
0.9612766423
40
1.0000000000
40
1.0000000000
40
1.0000000000
40
1.0000000000
10
19.9612037127
20
-10.7626460174
30
0.0000000000
10
19.9795484030
20
-10.7531477759
30
0.0000000000
10
20.0146886876
20
-10.7334916318
30
0.0000000000
10
20.0637218963
20
-10.7011266926
30
0.0000000000
10
20.1073745714
20
-10.6668587602
30
0.0000000000
10
20.1453580537
20
-10.6308995693
30
0.0000000000
10
20.1774187409
20
-10.5934651855
30
0.0000000000
10
20.2033303869
20
-10.5547789301
30
0.0000000000
10
20.2228921060
20
-10.5150757728
30
0.0000000000
10
20.2359295017
20
-10.4746125337
30
0.0000000000
10
20.2411481902
20
-10.4411144603
30
0.0000000000
10
20.2418624681
20
-10.4213764708
30
0.0000000000
10
20.2418622925
20
-10.4153179589
30
0.0000000000
11
19.9612037127
21
-10.7626460174
31
0.0000000000
11
20.0152353505
21
-10.7322934159
31
0.0000000000
11
20.0641592262
21
-10.6998473300
31
0.0000000000
11
20.1076522199
21
-10.6655220512
31
0.0000000000
11
20.1454270804
21
-10.6295442821
31
0.0000000000
11
20.1772343223
21
-10.5921516393
31
0.0000000000
11
20.2028638733
21
-10.5535910841
31
0.0000000000
11
20.2221464620
21
-10.5141172911
31
0.0000000000
11
20.2349547359
21
-10.4739909665
31
0.0000000000
11
20.2412041021
21
-10.4334771263
31
0.0000000000
11
20.2418622925
21
-10.4153179589
31
0.0000000000
0
SPLINE
5
30D
100
AcDbEntity
8
0
100
AcDbSpline
62
9
6
CONTINUOUS
70
0
71
3
72
9
73
5
74
3
42
0.0000001000
43
0.0000001000
44
0.0000000001
12
0.0776818456
22
0.0410006550
32
0.0000000000
13
0.0711550206
23
0.0515703585
33
0.0000000000
40
0.0000000000
40
0.0000000000
40
0.0000000000
40
0.0000000000
40
0.7330140175
40
1.0000000000
40
1.0000000000
40
1.0000000000
40
1.0000000000
10
19.5470532370
20
-11.7801291163
30
0.0000000000
10
19.5660338643
20
-11.7701110981
30
0.0000000000
10
19.5912432268
20
-11.7550976211
30
0.0000000000
10
19.6152882617
20
-11.7383563596
30
0.0000000000
10
19.6216207261
20
-11.7337668386
30
0.0000000000
11
19.5470532370
21
-11.7801291163
31
0.0000000000
11
19.6023658921
21
-11.7471725648
31
0.0000000000
11
19.6216207261
21
-11.7337668386
31
0.0000000000
0
SPLINE
5
30E
100
AcDbEntity
8
0
100
AcDbSpline
62
9
6
CONTINUOUS
70
0
71
3
72
9
73
5
74
3
42
0.0000001000
43
0.0000001000
44
0.0000000001
12
0.0700040723
22
0.0506660517
32
0.0000000000
13
0.0640873174
23
0.0580362931
33
0.0000000000
40
0.0000000000
40
0.0000000000
40
0.0000000000
40
0.0000000000
40
0.9447719108
40
1.0000000000
40
1.0000000000
40
1.0000000000
40
1.0000000000
10
19.5470532370
20
-11.7801291163
30
0.0000000000
10
19.5690991974
20
-11.7641731622
30
0.0000000000
10
19.5915586885
20
-11.7460392873
30
0.0000000000
10
19.6129786657
20
-11.7267567747
30
0.0000000000
10
19.6141584723
20
-11.7256883635
30
0.0000000000
11
19.5470532370
21
-11.7801291163
31
0.0000000000
11
19.6106095262
21
-11.7288831439
31
0.0000000000
11
19.6141584723
21
-11.7256883635
31
0.0000000000
0
SPLINE
5
30F
100
AcDbEntity
8
0
100
AcDbSpline
62
9
6
CONTINUOUS
70
0
71
3
72
18
73
14
74
12
42
0.0000001000
43
0.0000001000
44
0.0000000001
12
0.7811903553
22
0.7074315830
32
0.0000000000
13
-0.0030579481
23
1.0533532118
33
0.0000000000
40
0.0000000000
40
0.0000000000
40
0.0000000000
40
0.0000000000
40
0.0742339255
40
0.1547108263
40
0.2372961330
40
0.3223230385
40
0.4100571006
40
0.5006954653
40
0.5943696140
40
0.6911497917
40
0.7910491659
40
0.8940274298
40
1.0000000000
40
1.0000000000
40
1.0000000000
40
1.0000000000
10
19.6141584723
20
-11.7256883635
30
0.0000000000
10
19.6334887479
20
-11.7081832224
30
0.0000000000
10
19.6719971293
20
-11.6697567153
30
0.0000000000
10
19.7251718243
20
-11.6054427771
30
0.0000000000
10
19.7742153526
20
-11.5333063521
30
0.0000000000
10
19.8179138631
20
-11.4548928335
30
0.0000000000
10
19.8560896355
20
-11.3705447431
30
0.0000000000
10
19.8885893583
20
-11.2806259413
30
0.0000000000
10
19.9152827468
20
-11.1855215110
30
0.0000000000
10
19.9360630278
20
-11.0856369187
30
0.0000000000
10
19.9508470831
20
-10.9813959219
30
0.0000000000
10
19.9595761035
20
-10.8732449683
30
0.0000000000
10
19.9613117322
20
-10.7998548664
30
0.0000000000
10
19.9612037127
20
-10.7626460174
30
0.0000000000
11
19.6141584723
21
-11.7256883635
31
0.0000000000
11
19.6695591592
21
-11.6705004819
31
0.0000000000
11
19.7236507740
21
-11.6052301770
31
0.0000000000
11
19.7726523019
21
-11.5333522612
31
0.0000000000
11
19.8163542042
21
-11.4551742111
31
0.0000000000
11
19.8545695499
21
-11.3710303852
31
0.0000000000
11
19.8871346208
21
-11.2812811888
31
0.0000000000
11
19.9139099479
21
-11.1863110848
31
0.0000000000
11
19.9347810249
21
-11.0865262866
31
0.0000000000
11
19.9496585415
21
-10.9823535262
31
0.0000000000
11
19.9584786545
21
-10.8742397677
31
0.0000000000
11
19.9612037127
21
-10.7626460174
31
0.0000000000
0
SPLINE
5
310
100
AcDbEntity
8
0
100
AcDbSpline
62
9
6
CONTINUOUS
70
0
71
3
72
13
73
9
74
7
42
0.0000001000
43
0.0000001000
44
0.0000000001
12
0.0831894255
22
0.0416210685
32
0.0000000000
13
0.0830442216
23
-0.0415221109
33
0.0000000000
40
0.0000000000
40
0.0000000000
40
0.0000000000
40
0.0000000000
40
0.0398015084
40
0.2136565539
40
0.3933138876
40
0.5826498345
40
0.7843828888
40
1.0000000000
40
1.0000000000
40
1.0000000000
40
1.0000000000
10
-1.3465344835
20
22.1403394617
30
0.0000000000
10
-1.3454307953
20
22.1408916554
30
0.0000000000
10
-1.3394332754
20
22.1437096174
30
0.0000000000
10
-1.3277383156
20
22.1474039553
30
0.0000000000
10
-1.3109107333
20
22.1490777164
30
0.0000000000
10
-1.2932249887
20
22.1474916194
30
0.0000000000
10
-1.2749905203
20
22.1427154799
30
0.0000000000
10
-1.2630606597
20
22.1376440168
30
0.0000000000
10
-1.2570920747
20
22.1346597242
30
0.0000000000
11
-1.3465344835
21
22.1403394617
31
0.0000000000
11
-1.3431839368
21
22.1419134084
31
0.0000000000
11
-1.3278027478
21
22.1468099836
31
0.0000000000
11
-1.3112116801
21
22.1485350776
31
0.0000000000
11
-1.2936946114
21
22.1470591738
31
0.0000000000
11
-1.2755512637
21
22.1424075256
31
0.0000000000
11
-1.2570920747
21
22.1346597242
31
0.0000000000
0
SPLINE
5
311
100
AcDbEntity
8
0
100
AcDbSpline
62
7
6
CONTINUOUS
70
0
71
3
72
14
73
10
74
8
42
0.0000001000
43
0.0000001000
44
0.0000000001
12
0.0791351001
22
0.0395884654
32
0.0000000000
13
0.0790056663
23
-0.0395028331
33
0.0000000000
40
0.0000000000
40
0.0000000000
40
0.0000000000
40
0.0000000000
40
0.0108975268
40
0.1508652764
40
0.2976080641
40
0.4542147772
40
0.6228187521
40
0.8046187890
40
1.0000000000
40
1.0000000000
40
1.0000000000
40
1.0000000000
10
-1.4080918342
20
22.1095614118
30
0.0000000000
10
-1.4078043752
20
22.1097052173
30
0.0000000000
10
-1.4038084772
20
22.1116631680
30
0.0000000000
10
-1.3954955349
20
22.1146193651
30
0.0000000000
10
-1.3825104783
20
22.1165424389
30
0.0000000000
10
-1.3685590748
20
22.1161794050
30
0.0000000000
10
-1.3538140600
20
22.1135562224
30
0.0000000000
10
-1.3384510328
20
22.1087176928
30
0.0000000000
10
-1.3282739987
20
22.1042141698
30
0.0000000000
10
-1.3231285911
20
22.1016414660
30
0.0000000000
11
-1.4080918342
21
22.1095614118
31
0.0000000000
11
-1.4072259616
21
22.1099856796
31
0.0000000000
11
-1.3955919764
21
22.1141697417
31
0.0000000000
11
-1.3827802113
21
22.1161371171
31
0.0000000000
11
-1.3689498279
21
22.1158564615
31
0.0000000000
11
-1.3542735853
21
22.1133250200
31
0.0000000000
11
-1.3389355542
21
22.1085686685
31
0.0000000000
11
-1.3231285911
21
22.1016414660
31
0.0000000000
0
SPLINE
5
312
100
AcDbEntity
8
0
100
AcDbSpline
62
7
6
CONTINUOUS
70
0
71
3
72
14
73
10
74
8
42
0.0000001000
43
0.0000001000
44
0.0000000001
12
-0.0767194535
22
0.0305938721
32
0.0000000000
13
-0.0718368564
23
-0.0405369472
33
0.0000000000
40
0.0000000000
40
0.0000000000
40
0.0000000000
40
0.0000000000
40
0.0115072713
40
0.1590396405
40
0.3105108561
40
0.4685864605
40
0.6353469381
40
0.8122195419
40
1.0000000000
40
1.0000000000
40
1.0000000000
40
1.0000000000
10
-0.1090130342
20
22.1811165593
30
0.0000000000
10
-0.1093073114
20
22.1812339100
30
0.0000000000
10
-0.1133860195
20
22.1828266941
30
0.0000000000
10
-0.1216508635
20
22.1851451520
30
0.0000000000
10
-0.1342198258
20
22.1863693289
30
0.0000000000
10
-0.1473397061
20
22.1854921964
30
0.0000000000
10
-0.1608611663
20
22.1825414571
30
0.0000000000
10
-0.1746371398
20
22.1775648475
30
0.0000000000
10
-0.1836267756
20
22.1730722698
30
0.0000000000
10
-0.1881232948
20
22.1705349210
30
0.0000000000
11
-0.1090130342
21
22.1811165593
31
0.0000000000
11
-0.1098983476
21
22.1814622791
31
0.0000000000
11
-0.1216101926
21
22.1847671783
31
0.0000000000
11
-0.1340416662
21
22.1860166353
31
0.0000000000
11
-0.1470547749
21
22.1851974256
31
0.0000000000
11
-0.1605054797
21
22.1823190247
31
0.0000000000
11
-0.1742453588
21
22.1774134610
31
0.0000000000
11
-0.1881232948
21
22.1705349210
31
0.0000000000
0
SPLINE
5
313
100
AcDbEntity
8
0
100
AcDbSpline
62
9
6
CONTINUOUS
70
0
71
3
72
15
73
11
74
9
42
0.0000001000
43
0.0000001000
44
0.0000000001
12
-0.3945151521
22
0.2041142431
32
0.0000000000
13
-0.4056645176
23
-0.1817600012
33
0.0000000000
40
0.0000000000
40
0.0000000000
40
0.0000000000
40
0.0000000000
40
0.1425078965
40
0.2791099952
40
0.4100698687
40
0.5358503481
40
0.6571232361
40
0.7747667924
40
0.8898452490
40
1.0000000000
40
1.0000000000
40
1.0000000000
40
1.0000000000
10
12.6776915087
20
24.8687107149
30
0.0000000000
10
12.6589510006
20
24.8784066787
30
0.0000000000
10
12.6214578640
20
24.8959284081
30
0.0000000000
10
12.5642942388
20
24.9166431750
30
0.0000000000
10
12.5077697455
20
24.9310869514
30
0.0000000000
10
12.4522681760
20
24.9391433848
30
0.0000000000
10
12.3981662507
20
24.9407379183
30
0.0000000000
10
12.3458418316
20
24.9358371677
30
0.0000000000
10
12.2961878250
20
24.9245725596
30
0.0000000000
10
12.2648310077
20
24.9129360221
30
0.0000000000
10
12.2499357164
20
24.9062621129
30
0.0000000000
11
12.6776915087
21
24.8687107149
31
0.0000000000
11
12.6202957267
21
24.8954069588
31
0.0000000000
11
12.5632075971
21
24.9159661392
31
0.0000000000
11
12.5068169387
21
24.9302478705
31
0.0000000000
11
12.4515088077
21
24.9381546319
31
0.0000000000
11
12.3976608680
21
24.9396324329
31
0.0000000000
11
12.3456408134
21
24.9346711827
31
0.0000000000
11
12.2958038557
21
24.9233047585
31
0.0000000000
11
12.2499357164
21
24.9062621129
31
0.0000000000
0
SPLINE
5
314
100
AcDbEntity
8
0
100
AcDbSpline
62
9
6
CONTINUOUS
70
0
71
3
72
9
73
5
74
3
42
0.0000001000
43
0.0000001000
44
0.0000000001
12
-0.0038736307
22
-0.0017355995
32
0.0000000000
13
-0.0038535210
23
-0.0017798133
33
0.0000000000
40
0.0000000000
40
0.0000000000
40
0.0000000000
40
0.0000000000
40
0.3735012990
40
1.0000000000
40
1.0000000000
40
1.0000000000
40
1.0000000000
10
12.2499357164
20
24.9062621129
30
0.0000000000
10
12.2494534477
20
24.9060460300
30
0.0000000000
10
12.2481634735
20
24.9054647384
30
0.0000000000
10
12.2468768422
20
24.9048760688
30
0.0000000000
10
12.2460721003
20
24.9045043852
30
0.0000000000
11
12.2499357164
21
24.9062621129
31
0.0000000000
11
12.2484903000
21
24.9056107744
31
0.0000000000
11
12.2460721003
21
24.9045043852
31
0.0000000000
0
SPLINE
5
315
100
AcDbEntity
8
0
100
AcDbSpline
62
7
6
CONTINUOUS
70
0
71
3
72
13
73
9
74
7
42
0.0000001000
43
0.0000001000
44
0.0000000001
12
-0.1961525084
22
-0.1002226116
32
0.0000000000
13
-0.0000000000
23
-0.2196572814
33
0.0000000000
40
0.0000000000
40
0.0000000000
40
0.0000000000
40
0.0000000000
40
0.0932095149
40
0.2503342003
40
0.4167661673
40
0.5962409861
40
0.7905974107
40
1.0000000000
40
1.0000000000
40
1.0000000000
40
1.0000000000
10
-12.7943469223
20
22.7619671552
30
0.0000000000
10
-12.8004413491
20
22.7588532549
30
0.0000000000
10
-12.8161625051
20
22.7492190002
30
0.0000000000
10
-12.8385718955
20
22.7280535239
30
0.0000000000
10
-12.8589373162
20
22.6970168490
30
0.0000000000
10
-12.8736579606
20
22.6600543829
30
0.0000000000
10
-12.8825018612
20
22.6181013209
30
0.0000000000
10
-12.8843244635
20
22.5884879960
30
0.0000000000
10
-12.8843244635
20
22.5731557282
30
0.0000000000
11
-12.7943469223
21
22.7619671552
31
0.0000000000
11
-12.8118351634
21
22.7512519517
31
0.0000000000
11
-12.8370578199
21
22.7276934099
31
0.0000000000
11
-12.8573491791
21
22.6972837466
31
0.0000000000
11
-12.8722112931
21
22.6607695492
31
0.0000000000
11
-12.8812773766
21
22.6190514926
31
0.0000000000
11
-12.8843244635
21
22.5731557282
31
0.0000000000
0
SPLINE
5
316
100
AcDbEntity
8
0
100
AcDbSpline
62
7
6
CONTINUOUS
70
0
71
3
72
9
73
5
74
3
42
0.0000001000
43
0.0000001000
44
0.0000000001
12
-0.0004065111
22
0.0259308417
32
0.0000000000
13
-0.0020642167
23
0.0258517468
33
0.0000000000
40
0.0000000000
40
0.0000000000
40
0.0000000000
40
0.0000000000
40
0.4989863682
40
1.0000000000
40
1.0000000000
40
1.0000000000
40
1.0000000000
10
10.1354225935
20
20.2317268793
30
0.0000000000
10
10.1353549790
20
20.2360399248
30
0.0000000000
10
10.1350788298
20
20.2446821508
30
0.0000000000
10
10.1345042388
20
20.2533092677
30
0.0000000000
10
10.1341595053
20
20.2576266269
30
0.0000000000
11
10.1354225935
21
20.2317268793
31
0.0000000000
11
10.1350050814
21
20.2446608687
31
0.0000000000
11
10.1341595053
21
20.2576266269
31
0.0000000000
0
SPLINE
5
317
100
AcDbEntity
8
0
100
AcDbSpline
62
7
6
CONTINUOUS
70
0
71
3
72
9
73
5
74
3
42
0.0000001000
43
0.0000001000
44
0.0000000001
12
-0.0005036446
22
-0.0035227343
32
0.0000000000
13
-0.0017167576
23
-0.0031170593
33
0.0000000000
40
0.0000000000
40
0.0000000000
40
0.0000000000
40
0.0000000000
40
0.4474175335
40
1.0000000000
40
1.0000000000
40
1.0000000000
40
1.0000000000
10
10.1354225935
20
-17.2862173231
30
0.0000000000
10
10.1353474804
20
-17.2867427008
30
0.0000000000
10
10.1350079488
20
-17.2878918424
30
0.0000000000
10
10.1344757220
20
-17.2889549279
30
0.0000000000
10
10.1341595053
20
-17.2895290720
30
0.0000000000
11
10.1354225935
21
-17.2862173231
31
0.0000000000
11
10.1350050814
21
-17.2877537661
31
0.0000000000
11
10.1341595053
21
-17.2895290720
31
0.0000000000
0
SPLINE
5
318
100
AcDbEntity
8
0
100
AcDbSpline
62
7
6
CONTINUOUS
70
0
71
3
72
12
73
8
74
6
42
0.0000001000
43
0.0000001000
44
0.0000000001
12
0.1035245975
22
-0.0518042949
32
0.0000000000
13
0.1037892104
23
0.0505590123
33
0.0000000000
40
0.0000000000
40
0.0000000000
40
0.0000000000
40
0.0000000000
40
0.0702682166
40
0.2823115323
40
0.5037058504
40
0.7425202568
40
1.0000000000
40
1.0000000000
40
1.0000000000
40
1.0000000000
10
2.5856729630
20
-25.3313018310
30
0.0000000000
10
2.5880977927
20
-25.3325152294
30
0.0000000000
10
2.5980467572
20
-25.3369745389
30
0.0000000000
10
2.6170331266
20
-25.3417906020
30
0.0000000000
10
2.6431202393
20
-25.3420311789
30
0.0000000000
10
2.6703509407
20
-25.3364955585
30
0.0000000000
10
2.6881816554
20
-25.3293753984
30
0.0000000000
10
2.6970895285
20
-25.3250360912
30
0.0000000000
11
2.5856729630
21
-25.3313018310
31
0.0000000000
11
2.5930933393
21
-25.3346260611
31
0.0000000000
11
2.6167960278
21
-25.3407464866
31
0.0000000000
11
2.6423522932
21
-25.3411653279
31
0.0000000000
11
2.6694112353
21
-25.3358772255
31
0.0000000000
11
2.6970895285
21
-25.3250360912
31
0.0000000000
0
SPLINE
5
319
100
AcDbEntity
8
0
100
AcDbSpline
62
7
6
CONTINUOUS
70
0
71
3
72
13
73
9
74
7
42
0.0000001000
43
0.0000001000
44
0.0000000001
12
-0.1410768327
22
0.0705989525
32
0.0000000000
13
0.0000000000
23
0.1573187955
33
0.0000000000
40
0.0000000000
40
0.0000000000
40
0.0000000000
40
0.0000000000
40
0.1002829637
40
0.2556824971
40
0.4210753023
40
0.5986534561
40
0.7921182670
40
1.0000000000
40
1.0000000000
40
1.0000000000
40
1.0000000000
10
0.9084298359
20
-24.4926801608
30
0.0000000000
10
0.9037139683
20
-24.4903202035
30
0.0000000000
10
0.8921984389
20
-24.4832820469
30
0.0000000000
10
0.8760686257
20
-24.4678782861
30
0.0000000000
10
0.8617251578
20
-24.4457870801
30
0.0000000000
10
0.8513457760
20
-24.4194710375
30
0.0000000000
10
0.8451156478
20
-24.3896354417
30
0.0000000000
10
0.8438316588
20
-24.3685539599
30
0.0000000000
10
0.8438316588
20
-24.3576527253
30
0.0000000000
11
0.9084298359
21
-24.4926801608
31
0.0000000000
11
0.8949455941
21
-24.4844430792
31
0.0000000000
11
0.8771685040
21
-24.4676608283
31
0.0000000000
11
0.8628281369
21
-24.4459499349
31
0.0000000000
11
0.8523829709
21
-24.4200397071
31
0.0000000000
11
0.8459760431
21
-24.3902860497
31
0.0000000000
11
0.8438316588
21
-24.3576527253
31
0.0000000000
0
SPLINE
5
31A
100
AcDbEntity
8
0
100
AcDbSpline
62
7
6
CONTINUOUS
70
0
71
3
72
9
73
5
74
3
42
0.0000001000
43
0.0000001000
44
0.0000000001
12
0.0223544506
22
-0.0111796084
32
0.0000000000
13
0.0243998698
23
-0.0050947154
33
0.0000000000
40
0.0000000000
40
0.0000000000
40
0.0000000000
40
0.0000000000
40
0.0711022819
40
1.0000000000
40
1.0000000000
40
1.0000000000
40
1.0000000000
10
-10.7786423101
20
22.9904306273
30
0.0000000000
10
-10.7781124926
20
22.9901656621
30
0.0000000000
10
-10.7706253827
20
22.9865093859
30
0.0000000000
10
-10.7626517838
20
22.9838554097
30
0.0000000000
10
-10.7550967893
20
22.9822779199
30
0.0000000000
11
-10.7786423101
21
22.9904306273
31
0.0000000000
11
-10.7770453320
21
22.9896507901
31
0.0000000000
11
-10.7550967893
21
22.9822779199
31
0.0000000000
0
SPLINE
5
31B
100
AcDbEntity
8
0
100
AcDbSpline
62
7
6
CONTINUOUS
70
0
71
3
72
13
73
9
74
7
42
0.0000001000
43
0.0000001000
44
0.0000000001
12
-0.1411200199
22
0.0705753522
32
0.0000000000
13
-0.0000000000
23
0.1573462303
33
0.0000000000
40
0.0000000000
40
0.0000000000
40
0.0000000000
40
0.0000000000
40
0.1341877812
40
0.2839661477
40
0.4437692844
40
0.6151905100
40
0.8009213695
40
1.0000000000
40
1.0000000000
40
1.0000000000
40
1.0000000000
10
-12.4558855300
20
23.8290522308
30
0.0000000000
10
-12.4621977241
20
23.8322090141
30
0.0000000000
10
-12.4747760564
20
23.8404256198
30
0.0000000000
10
-12.4909625220
20
23.8574371488
30
0.0000000000
10
-12.5041000428
20
23.8791754717
30
0.0000000000
10
-12.5136020800
20
23.9047139460
30
0.0000000000
10
-12.5193065980
20
23.9334298805
30
0.0000000000
10
-12.5204865056
20
23.9536430064
30
0.0000000000
10
-12.5204865056
20
23.9640844304
30
0.0000000000
11
-12.4558855300
21
23.8290522308
31
0.0000000000
11
-12.4735895862
21
23.8405704975
31
0.0000000000
11
-12.4899329395
21
23.8575499317
31
0.0000000000
11
-12.5030940726
21
23.8789748352
31
0.0000000000
11
-12.5126705523
21
23.9041900272
31
0.0000000000
11
-12.5185252144
21
23.9328216193
31
0.0000000000
11
-12.5204865056
21
23.9640844304
31
0.0000000000
0
SPLINE
5
31C
100
AcDbEntity
8
0
100
AcDbSpline
62
7
6
CONTINUOUS
70
0
71
3
72
9
73
5
74
3
42
0.0000001000
43
0.0000001000
44
0.0000000001
12
0.0223544506
22
-0.0111796084
32
0.0000000000
13
0.0243998698
23
-0.0050947154
33
0.0000000000
40
0.0000000000
40
0.0000000000
40
0.0000000000
40
0.0000000000
40
0.0711022819
40
1.0000000000
40
1.0000000000
40
1.0000000000
40
1.0000000000
10
2.5856758543
20
16.3082715451
30
0.0000000000
10
2.5862056718
20
16.3080065799
30
0.0000000000
10
2.5936927817
20
16.3043503036
30
0.0000000000
10
2.6016663806
20
16.3016963275
30
0.0000000000
10
2.6092213751
20
16.3001188377
30
0.0000000000
11
2.5856758543
21
16.3082715451
31
0.0000000000
11
2.5872728325
21
16.3074917079
31
0.0000000000
11
2.6092213751
21
16.3001188377
31
0.0000000000
0
SPLINE
5
31D
100
AcDbEntity
8
0
100
AcDbSpline
62
7
6
CONTINUOUS
70
0
71
3
72
13
73
9
74
7
42
0.0000001000
43
0.0000001000
44
0.0000000001
12
-0.1411200199
22
0.0705753522
32
0.0000000000
13
-0.0000000000
23
0.1573462303
33
0.0000000000
40
0.0000000000
40
0.0000000000
40
0.0000000000
40
0.0000000000
40
0.1341877812
40
0.2839661477
40
0.4437692844
40
0.6151905100
40
0.8009213695
40
1.0000000000
40
1.0000000000
40
1.0000000000
40
1.0000000000
10
0.9084326344
20
17.1468931485
30
0.0000000000
10
0.9021204403
20
17.1500499318
30
0.0000000000
10
0.8895421080
20
17.1582665376
30
0.0000000000
10
0.8733556424
20
17.1752780666
30
0.0000000000
10
0.8602181216
20
17.1970163895
30
0.0000000000
10
0.8507160845
20
17.2225548638
30
0.0000000000
10
0.8450115664
20
17.2512707983
30
0.0000000000
10
0.8438316588
20
17.2714839242
30
0.0000000000
10
0.8438316588
20
17.2819253482
30
0.0000000000
11
0.9084326344
21
17.1468931485
31
0.0000000000
11
0.8907285782
21
17.1584114153
31
0.0000000000
11
0.8743852250
21
17.1753908495
31
0.0000000000
11
0.8612240918
21
17.1968157530
31
0.0000000000
11
0.8516476121
21
17.2220309450
31
0.0000000000
11
0.8457929500
21
17.2506625371
31
0.0000000000
11
0.8438316588
21
17.2819253482
31
0.0000000000
0
SPLINE
5
31E
100
AcDbEntity
8
0
100
AcDbSpline
62
7
6
CONTINUOUS
70
0
71
3
72
13
73
9
74
7
42
0.0000001000
43
0.0000001000
44
0.0000000001
12
-0.1411184857
22
0.0705745873
32
0.0000000000
13
0.0000000000
23
0.1573445288
33
0.0000000000
40
0.0000000000
40
0.0000000000
40
0.0000000000
40
0.0000000000
40
0.1341870270
40
0.2839657539
40
0.4437691199
40
0.6151904691
40
0.8009213618
40
1.0000000000
40
1.0000000000
40
1.0000000000
40
1.0000000000
10
4.3629712953
20
-23.3622133683
30
0.0000000000
10
4.3566592053
20
-23.3590566369
30
0.0000000000
10
4.3440810135
20
-23.3508401580
30
0.0000000000
10
4.3278946547
20
-23.3338288926
30
0.0000000000
10
4.3147571409
20
-23.3120908450
30
0.0000000000
10
4.3052550387
20
-23.2865526851
30
0.0000000000
10
4.2995504382
20
-23.2578370882
30
0.0000000000
10
4.2983703193
20
-23.2376241864
30
0.0000000000
10
4.2983703193
20
-23.2271828749
30
0.0000000000
11
4.3629712953
21
-23.3622133683
31
0.0000000000
11
4.3452675083
21
-23.3506953231
31
0.0000000000
11
4.3289242196
21
-23.3337161017
31
0.0000000000
11
4.3157630959
21
-23.3122914692
31
0.0000000000
11
4.3061865642
21
-23.2870765881
31
0.0000000000
11
4.3003317875
21
-23.2584453366
31
0.0000000000
11
4.2983703193
21
-23.2271828749
31
0.0000000000
0
SPLINE
5
31F
100
AcDbEntity
8
0
100
AcDbSpline
62
7
6
CONTINUOUS
70
0
71
3
72
9
73
5
74
3
42
0.0000001000
43
0.0000001000
44
0.0000000001
12
0.0032858702
22
0.0020479729
32
0.0000000000
13
0.0001131308
23
0.0034647824
33
0.0000000000
40
0.0000000000
40
0.0000000000
40
0.0000000000
40
0.0000000000
40
0.7170165808
40
1.0000000000
40
1.0000000000
40
1.0000000000
40
1.0000000000
10
10.1336186302
20
19.6465369995
30
0.0000000000
10
10.1344039713
20
19.6470264764
30
0.0000000000
10
10.1353285094
20
19.6479342105
30
0.0000000000
10
10.1355285619
20
19.6490505949
30
0.0000000000
10
10.1355392333
20
19.6493774203
30
0.0000000000
11
10.1336186302
21
19.6465369995
31
0.0000000000
11
10.1353573223
21
19.6484354670
31
0.0000000000
11
10.1355392333
21
19.6493774203
31
0.0000000000
0
SPLINE
5
320
100
AcDbEntity
8
0
100
AcDbSpline
62
7
6
CONTINUOUS
70
0
71
3
72
12
73
8
74
6
42
0.0000001000
43
0.0000001000
44
0.0000000001
12
0.0000024720
22
0.1446720053
32
0.0000000000
13
-0.1289551214
23
0.0644775607
33
0.0000000000
40
0.0000000000
40
0.0000000000
40
0.0000000000
40
0.0000000000
40
0.1637122150
40
0.3390315196
40
0.5344106615
40
0.7543496530
40
1.0000000000
40
1.0000000000
40
1.0000000000
40
1.0000000000
10
-0.1746004537
20
25.0753687215
30
0.0000000000
10
-0.1746003188
20
25.0832635797
30
0.0000000000
10
-0.1772969872
20
25.0996121307
30
0.0000000000
10
-0.1889144730
20
25.1228731461
30
0.0000000000
10
-0.2074931924
20
25.1446218768
30
0.0000000000
10
-0.2324451084
20
25.1645146072
30
0.0000000000
10
-0.2519091292
20
25.1757123777
30
0.0000000000
10
-0.2624684193
20
25.1809920228
30
0.0000000000
11
-0.1746004537
21
25.0753687215
31
0.0000000000
11
-0.1782944063
21
25.0986812763
31
0.0000000000
11
-0.1892840485
21
25.1214441420
31
0.0000000000
11
-0.2072992591
21
25.1430993052
31
0.0000000000
11
-0.2318957488
21
25.1631126730
31
0.0000000000
11
-0.2624684193
21
25.1809920228
31
0.0000000000
0
SPLINE
5
321
100
AcDbEntity
8
0
100
AcDbSpline
62
7
6
CONTINUOUS
70
0
71
3
72
13
73
9
74
7
42
0.0000001000
43
0.0000001000
44
0.0000000001
12
0.0000258596
22
0.1446711661
32
0.0000000000
13
-0.1289558739
23
0.0644779370
33
0.0000000000
40
0.0000000000
40
0.0000000000
40
0.0000000000
40
0.0000000000
40
0.0029880403
40
0.1661938042
40
0.3410778189
40
0.5359454890
40
0.7552121694
40
1.0000000000
40
1.0000000000
40
1.0000000000
40
1.0000000000
10
5.3798630083
20
22.2981386343
30
0.0000000000
10
5.3798630341
20
22.2982827287
30
0.0000000000
10
5.3798404133
20
22.3062971811
30
0.0000000000
10
5.3770407135
20
22.3227269524
30
0.0000000000
10
5.3653770870
20
22.3458812482
30
0.0000000000
10
5.3468098260
20
22.3675334528
30
0.0000000000
10
5.3219190072
20
22.3873423527
30
0.0000000000
10
5.3025173710
20
22.3984991276
30
0.0000000000
10
5.2919950948
20
22.4037602657
30
0.0000000000
11
5.3798630083
21
22.2981386343
31
0.0000000000
11
5.3798617870
21
22.2985709136
31
0.0000000000
11
5.3760590946
21
22.3217921359
31
0.0000000000
11
5.3650172344
21
22.3444600934
31
0.0000000000
11
5.3470056119
21
22.3660224573
31
0.0000000000
11
5.3224651411
21
22.3859513602
31
0.0000000000
11
5.2919950948
21
22.4037602657
31
0.0000000000
0
SPLINE
5
322
100
AcDbEntity
8
0
100
AcDbSpline
62
7
6
CONTINUOUS
70
0
71
3
72
17
73
13
74
11
42
0.0000001000
43
0.0000001000
44
0.0000000001
12
0.4608527432
22
-0.2304263716
32
0.0000000000
13
0.0000000000
23
-0.5152490307
33
0.0000000000
40
0.0000000000
40
0.0000000000
40
0.0000000000
40
0.0000000000
40
0.0874854453
40
0.1810663987
40
0.2799044282
40
0.3828032215
40
0.4883360357
40
0.5949178722
40
0.7009068930
40
0.8047067593
40
0.9048273562
40
1.0000000000
40
1.0000000000
40
1.0000000000
40
1.0000000000
10
5.1115431177
20
16.3645526388
30
0.0000000000
10
5.1249824202
20
16.3578329875
30
0.0000000000
10
5.1517177477
20
16.3417018260
30
0.0000000000
10
5.1893383944
20
16.3115921019
30
0.0000000000
10
5.2250527661
20
16.2754268076
30
0.0000000000
10
5.2579989795
20
16.2340834465
30
0.0000000000
10
5.2873906926
20
16.1885573359
30
0.0000000000
10
5.3125170242
20
16.1399497888
30
0.0000000000
10
5.3327703322
20
16.0894381328
30
0.0000000000
10
5.3476600797
20
16.0382403780
30
0.0000000000
10
5.3568249173
20
15.9876008823
30
0.0000000000
10
5.3590304911
20
15.9540343897
30
0.0000000000
10
5.3590304911
20
15.9376885188
30
0.0000000000
11
5.1115431177
21
16.3645526388
31
0.0000000000
11
5.1502576583
21
16.3414636497
31
0.0000000000
11
5.1880187701
21
16.3114798989
31
0.0000000000
11
5.2238976385
21
16.2753387237
31
0.0000000000
11
5.2570094567
21
16.2339313668
31
0.0000000000
11
5.2865411910
21
16.1882740424
31
0.0000000000
11
5.3117638475
21
16.1394928442
31
0.0000000000
11
5.3320552067
21
16.0887918217
31
0.0000000000
11
5.3469173207
21
16.0374155102
31
0.0000000000
11
5.3559834042
21
15.9866313702
31
0.0000000000
11
5.3590304911
21
15.9376885188
31
0.0000000000
0
SPLINE
5
323
100
AcDbEntity
8
0
100
AcDbSpline
62
7
6
CONTINUOUS
70
0
71
3
72
13
73
9
74
7
42
0.0000001000
43
0.0000001000
44
0.0000000001
12
0.0000000000
22
-0.2196572814
32
0.0000000000
13
-0.1961525084
23
-0.1002226116
33
0.0000000000
40
0.0000000000
40
0.0000000000
40
0.0000000000
40
0.0000000000
40
0.2094025893
40
0.4037590139
40
0.5832338327
40
0.7496657997
40
0.9067904851
40
1.0000000000
40
1.0000000000
40
1.0000000000
40
1.0000000000
10
5.3590304911
20
-22.2388933259
30
0.0000000000
10
5.3590304911
20
-22.2542255937
30
0.0000000000
10
5.3572078888
20
-22.2838389185
30
0.0000000000
10
5.3483639882
20
-22.3257919806
30
0.0000000000
10
5.3336433438
20
-22.3627544466
30
0.0000000000
10
5.3132779231
20
-22.3937911216
30
0.0000000000
10
5.2908685326
20
-22.4149565979
30
0.0000000000
10
5.2751473766
20
-22.4245908526
30
0.0000000000
10
5.2690529499
20
-22.4277047529
30
0.0000000000
11
5.3590304911
21
-22.2388933259
31
0.0000000000
11
5.3559834042
21
-22.2847890903
31
0.0000000000
11
5.3469173207
21
-22.3265071469
31
0.0000000000
11
5.3320552067
21
-22.3630213443
31
0.0000000000
11
5.3117638475
21
-22.3934310076
31
0.0000000000
11
5.2865411910
21
-22.4169895494
31
0.0000000000
11
5.2690529499
21
-22.4277047529
31
0.0000000000
0
SPLINE
5
324
100
AcDbEntity
8
0
100
AcDbSpline
62
7
6
CONTINUOUS
70
0
71
3
72
12
73
8
74
6
42
0.0000001000
43
0.0000001000
44
0.0000000001
12
0.1442257105
22
-0.0721128553
32
0.0000000000
13
0.1452198943
23
0.0711107357
33
0.0000000000
40
0.0000000000
40
0.0000000000
40
0.0000000000
40
0.0000000000
40
0.2589093298
40
0.4980032510
40
0.7205148469
40
0.9322066891
40
1.0000000000
40
1.0000000000
40
1.0000000000
40
1.0000000000
10
2.6366693835
20
-23.6443704056
30
0.0000000000
10
2.6491165109
20
-23.6505939693
30
0.0000000000
10
2.6740020374
20
-23.6608327649
30
0.0000000000
10
2.7121032829
20
-23.6689863628
30
0.0000000000
10
2.7486040006
20
-23.6689903714
30
0.0000000000
10
2.7750845065
20
-23.6624803515
30
0.0000000000
10
2.7888871037
20
-23.6564178012
30
0.0000000000
10
2.7921687495
20
-23.6548108572
30
0.0000000000
11
2.6366693835
21
-23.6443704056
31
0.0000000000
11
2.6753839242
21
-23.6599959572
31
0.0000000000
11
2.7131450360
21
-23.6677733182
31
0.0000000000
11
2.7490239043
21
-23.6675110114
31
0.0000000000
11
2.7821357225
21
-23.6592154727
31
0.0000000000
11
2.7921687495
21
-23.6548108572
31
0.0000000000
0
SPLINE
5
325
100
AcDbEntity
8
0
100
AcDbSpline
62
7
6
CONTINUOUS
70
0
71
3
72
12
73
8
74
6
42
0.0000001000
43
0.0000001000
44
0.0000000001
12
-0.1280997254
22
-0.0657175839
32
0.0000000000
13
-0.0000198404
23
-0.1444569908
33
0.0000000000
40
0.0000000000
40
0.0000000000
40
0.0000000000
40
0.0000000000
40
0.2451070430
40
0.4650070858
40
0.6609705450
40
0.8375383260
40
1.0000000000
40
1.0000000000
40
1.0000000000
40
1.0000000000
10
-6.8369087528
20
22.3519205078
30
0.0000000000
10
-6.8473748011
20
22.3465512269
30
0.0000000000
10
-6.8666632866
20
22.3351670916
30
0.0000000000
10
-6.8913305685
20
22.3149897014
30
0.0000000000
10
-6.9096456450
20
22.2929568657
30
0.0000000000
10
-6.9209599196
20
22.2695613060
30
0.0000000000
10
-6.9235450704
20
22.2532345507
30
0.0000000000
10
-6.9235461448
20
22.2454116425
30
0.0000000000
11
-6.8369087528
21
22.3519205078
31
0.0000000000
11
-6.8671713887
21
22.3337689524
31
0.0000000000
11
-6.8914791492
21
22.3134841548
31
0.0000000000
11
-6.9092384879
21
22.2915613600
31
0.0000000000
11
-6.9200146774
21
22.2685373673
31
0.0000000000
11
-6.9235461448
21
22.2454116425
31
0.0000000000
0
SPLINE
5
326
100
AcDbEntity
8
0
100
AcDbSpline
62
7
6
CONTINUOUS
70
0
71
3
72
17
73
13
74
11
42
0.0000001000
43
0.0000001000
44
0.0000000001
12
-0.3892831373
22
0.1946415686
32
0.0000000000
13
-0.3912763246
23
-0.1906030928
33
0.0000000000
40
0.0000000000
40
0.0000000000
40
0.0000000000
40
0.0000000000
40
0.0891031991
40
0.1852014033
40
0.2868711654
40
0.3924014128
40
0.4999155417
40
0.6074372688
40
0.7129896138
40
0.8146951064
40
0.9108405521
40
1.0000000000
40
1.0000000000
40
1.0000000000
40
1.0000000000
10
-0.4429203965
20
25.2712180114
30
0.0000000000
10
-0.4544825208
20
25.2769990735
30
0.0000000000
10
-0.4792995659
20
25.2874761027
30
0.0000000000
10
-0.5191651964
20
25.2996301585
30
0.0000000000
10
-0.5623005796
20
25.3085999263
30
0.0000000000
10
-0.6076670206
20
25.3141655870
30
0.0000000000
10
-0.6541763983
20
25.3161927410
30
0.0000000000
10
-0.7007069410
20
25.3146313887
30
0.0000000000
10
-0.7461363579
20
25.3095202254
30
0.0000000000
10
-0.7893748520
20
25.3009827103
30
0.0000000000
10
-0.8293810962
20
25.2892282255
30
0.0000000000
10
-0.8543180877
20
25.2790006918
30
0.0000000000
10
-0.8659467481
20
25.2733360029
30
0.0000000000
11
-0.4429203965
21
25.2712180114
31
0.0000000000
11
-0.4785751505
21
25.2864715059
31
0.0000000000
11
-0.5185428810
21
25.2987967037
31
0.0000000000
11
-0.5618478327
21
25.3078926269
31
0.0000000000
11
-0.6074298587
21
25.3135366126
31
0.0000000000
11
-0.6541783072
21
25.3155909607
31
0.0000000000
11
-0.7009482993
21
25.3140050491
31
0.0000000000
11
-0.7465942568
21
25.3088179683
31
0.0000000000
11
-0.7900039949
21
25.3001562247
31
0.0000000000
11
-0.8301145862
21
25.2882318464
31
0.0000000000
11
-0.8659467481
21
25.2733360029
31
0.0000000000
0
SPLINE
5
327
100
AcDbEntity
8
0
100
AcDbSpline
62
7
6
CONTINUOUS
70
0
71
3
72
17
73
13
74
11
42
0.0000001000
43
0.0000001000
44
0.0000000001
12
-0.3905141315
22
0.1952570657
32
0.0000000000
13
-0.3916239349
23
-0.1930215070
33
0.0000000000
40
0.0000000000
40
0.0000000000
40
0.0000000000
40
0.0000000000
40
0.0891659336
40
0.1853519118
40
0.2871213145
40
0.3927472656
40
0.5003366228
40
0.6078965497
40
0.7134351177
40
0.8150632032
40
0.9110602977
40
1.0000000000
40
1.0000000000
40
1.0000000000
40
1.0000000000
10
5.1115431177
20
22.4939862543
30
0.0000000000
10
5.0999362653
20
22.4997896805
30
0.0000000000
10
5.0750175174
20
22.5103025143
30
0.0000000000
10
5.0349838015
20
22.5224832931
30
0.0000000000
10
4.9916639716
20
22.5314545393
30
0.0000000000
10
4.9461088103
20
22.5369947496
30
0.0000000000
10
4.8994190089
20
22.5389691467
30
0.0000000000
10
4.8527289683
20
22.5373286509
30
0.0000000000
10
4.8071730654
20
22.5321142044
30
0.0000000000
10
4.7638519743
20
22.5234526627
30
0.0000000000
10
4.7238164643
20
22.5115579723
30
0.0000000000
10
4.6988893544
20
22.5012201959
30
0.0000000000
10
4.6872790490
20
22.4954977708
30
0.0000000000
11
5.1115431177
21
22.4939862543
31
0.0000000000
11
5.0757472005
21
22.5092911983
31
0.0000000000
11
5.0356097300
21
22.5216448107
31
0.0000000000
11
4.9921178733
21
22.5307431811
31
0.0000000000
11
4.9463442939
21
22.5363619262
31
0.0000000000
11
4.8994125512
21
22.5383629448
31
0.0000000000
11
4.8524805937
21
22.5366965463
31
0.0000000000
11
4.8067065459
21
22.5314041054
31
0.0000000000
11
4.7632139517
21
22.5226156525
31
0.0000000000
11
4.7230757110
21
22.5105479221
31
0.0000000000
11
4.6872790490
21
22.4954977708
31
0.0000000000
0
SPLINE
5
328
100
AcDbEntity
8
0
100
AcDbSpline
62
7
6
CONTINUOUS
70
0
71
3
72
13
73
9
74
7
42
0.0000001000
43
0.0000001000
44
0.0000000001
12
-0.4312367598
22
0.4734665699
32
0.0000000000
13
-0.5730157043
23
0.2864360409
33
0.0000000000
40
0.0000000000
40
0.0000000000
40
0.0000000000
40
0.0000000000
40
0.2263325555
40
0.4392651718
40
0.6372076945
40
0.8197560175
40
0.9872792954
40
1.0000000000
40
1.0000000000
40
1.0000000000
40
1.0000000000
10
10.1341595053
20
20.2576266269
30
0.0000000000
10
10.1016251993
20
20.2933469265
30
0.0000000000
10
10.0362713199
20
20.3607055292
30
0.0000000000
10
9.9350804372
20
20.4517637223
30
0.0000000000
10
9.8351497465
20
20.5297964267
30
0.0000000000
10
9.7378390637
20
20.5949274677
30
0.0000000000
10
9.6702836580
20
20.6329629717
30
0.0000000000
10
9.6359129503
20
20.6502855070
30
0.0000000000
10
9.6334832291
20
20.6515000631
30
0.0000000000
11
10.1341595053
21
20.2576266269
31
0.0000000000
11
10.0331087406
21
20.3615426062
31
0.0000000000
11
9.9316413278
21
20.4526471674
31
0.0000000000
11
9.8316128439
21
20.5305184076
31
0.0000000000
11
9.7343486228
21
20.5953797175
31
0.0000000000
11
9.6407603479
21
20.6478325920
31
0.0000000000
11
9.6334832291
21
20.6515000631
31
0.0000000000
0
SPLINE
5
329
100
AcDbEntity
8
0
100
AcDbSpline
62
7
6
CONTINUOUS
70
0
71
3
72
13
73
9
74
7
42
0.0000001000
43
0.0000001000
44
0.0000000001
12
0.4109068760
22
0.2010615886
32
0.0000000000
13
0.4098481622
23
-0.2048837263
33
0.0000000000
40
0.0000000000
40
0.0000000000
40
0.0000000000
40
0.0000000000
40
0.2005143800
40
0.3892497752
40
0.5669911938
40
0.7362259433
40
0.8992258387
40
1.0000000000
40
1.0000000000
40
1.0000000000
40
1.0000000000
10
5.9662418475
20
22.2392497417
30
0.0000000000
10
5.9937060934
20
22.2526883216
30
0.0000000000
10
6.0485958608
20
22.2757496920
30
0.0000000000
10
6.1323281668
20
22.2983924412
30
0.0000000000
10
6.2138452810
20
22.3076415431
30
0.0000000000
10
6.2918965888
20
22.3032223255
30
0.0000000000
10
6.3563875450
20
22.2872763847
30
0.0000000000
10
6.3935296647
20
22.2714706549
30
0.0000000000
10
6.4072970330
20
22.2645883263
30
0.0000000000
11
5.9662418475
21
22.2392497417
31
0.0000000000
11
6.0509452035
21
22.2744529169
31
0.0000000000
11
6.1343879405
21
22.2966280067
31
0.0000000000
11
6.2152200958
21
22.3054274413
31
0.0000000000
11
6.2924963384
21
22.3007407233
31
0.0000000000
11
6.3648367001
21
22.2826585363
31
0.0000000000
11
6.4072970330
21
22.2645883263
31
0.0000000000
0
SPLINE
5
32A
100
AcDbEntity
8
0
100
AcDbSpline
62
7
6
CONTINUOUS
70
0
71
3
72
15
73
11
74
9
42
0.0000001000
43
0.0000001000
44
0.0000000001
12
0.0000000000
22
0.6311300022
32
0.0000000000
13
-0.5654420458
23
0.2826653478
33
0.0000000000
40
0.0000000000
40
0.0000000000
40
0.0000000000
40
0.0000000000
40
0.1606293349
40
0.3126800366
40
0.4557227302
40
0.5905083928
40
0.7175351878
40
0.8389320932
40
0.9563750069
40
1.0000000000
40
1.0000000000
40
1.0000000000
40
1.0000000000
10
2.4245373492
20
23.8450457514
30
0.0000000000
10
2.4245373492
20
23.8788384156
30
0.0000000000
10
2.4214022686
20
23.9446797593
30
0.0000000000
10
2.4064710434
20
24.0395888079
30
0.0000000000
10
2.3815960139
20
24.1268006534
30
0.0000000000
10
2.3470787592
20
24.2049983912
30
0.0000000000
10
2.3032772263
20
24.2731130438
30
0.0000000000
10
2.2507798461
20
24.3299837902
30
0.0000000000
10
2.2026803491
20
24.3655108897
30
0.0000000000
10
2.1728788143
20
24.3817982452
30
0.0000000000
10
2.1646563459
20
24.3859086699
30
0.0000000000
11
2.4245373492
21
23.8450457514
31
0.0000000000
11
2.4194400102
21
23.9462955143
31
0.0000000000
11
2.4042093142
21
24.0410429105
31
0.0000000000
11
2.3791008008
21
24.1277595556
31
0.0000000000
11
2.3444019185
21
24.2054282683
31
0.0000000000
11
2.3007380131
21
24.2726648642
31
0.0000000000
11
2.2485590232
21
24.3287679195
31
0.0000000000
11
2.1888480521
21
24.3726841263
31
0.0000000000
11
2.1646563459
21
24.3859086699
31
0.0000000000
0
SPLINE
5
32B
100
AcDbEntity
8
0
100
AcDbSpline
62
7
6
CONTINUOUS
70
0
71
3
72
10
73
6
74
4
42
0.0000001000
43
0.0000001000
44
0.0000000001
12
0.0556154923
22
0.0171628862
32
0.0000000000
13
0.0478528501
23
-0.0308246041
33
0.0000000000
40
0.0000000000
40
0.0000000000
40
0.0000000000
40
0.0000000000
40
0.4565615055
40
0.7960097470
40
1.0000000000
40
1.0000000000
40
1.0000000000
40
1.0000000000
10
-1.1187295488
20
25.9918375935
30
0.0000000000
10
-1.1102655845
20
25.9944495646
30
0.0000000000
10
-1.0951597344
20
25.9987274931
30
0.0000000000
10
-1.0765753622
20
26.0013440612
30
0.0000000000
10
-1.0648890443
20
26.0012606971
30
0.0000000000
10
-1.0616352059
20
25.9991647242
30
0.0000000000
11
-1.1187295488
21
25.9918375935
31
0.0000000000
11
-1.0930400872
21
25.9986347490
31
0.0000000000
11
-1.0734388282
21
26.0011111805
31
0.0000000000
11
-1.0616352059
21
25.9991647242
31
0.0000000000
0
SPLINE
5
32C
100
AcDbEntity
8
0
100
AcDbSpline
62
7
6
CONTINUOUS
70
0
71
3
72
8
73
4
74
2
42
0.0000001000
43
0.0000001000
44
0.0000000001
12
-0.0189936958
22
-0.0058614358
32
0.0000000000
13
-0.0178492873
23
-0.0089568130
33
0.0000000000
40
0.0000000000
40
0.0000000000
40
0.0000000000
40
0.0000000000
40
1.0000000000
40
1.0000000000
40
1.0000000000
40
1.0000000000
10
-1.1187295488
20
25.9918375935
30
0.0000000000
10
-1.1250607807
20
25.9898837816
30
0.0000000000
10
-1.1312192636
20
25.9873493922
30
0.0000000000
10
-1.1371690261
20
25.9843637878
30
0.0000000000
11
-1.1187295488
21
25.9918375935
31
0.0000000000
11
-1.1371690261
21
25.9843637878
31
0.0000000000
0
SPLINE
5
32D
100
AcDbEntity
8
0
100
AcDbSpline
62
7
6
CONTINUOUS
70
0
71
3
72
15
73
11
74
9
42
0.0000001000
43
0.0000001000
44
0.0000000001
12
0.7619365976
22
0.4349160100
32
0.0000000000
13
0.7317445571
23
0.4839929935
33
0.0000000000
40
0.0000000000
40
0.0000000000
40
0.0000000000
40
0.0000000000
40
0.1045853351
40
0.2166076899
40
0.3351402480
40
0.4599360516
40
0.5902559263
40
0.7249598041
40
0.8623492495
40
1.0000000000
40
1.0000000000
40
1.0000000000
40
1.0000000000
10
9.3871726164
20
-17.7493701374
30
0.0000000000
10
9.4137350812
20
-17.7342081918
30
0.0000000000
10
9.4686209012
20
-17.7025815106
30
0.0000000000
10
9.5531623574
20
-17.6529964318
30
0.0000000000
10
9.6423996198
20
-17.5997408542
30
0.0000000000
10
9.7358020401
20
-17.5430290726
30
0.0000000000
10
9.8327836501
20
-17.4831064376
30
0.0000000000
10
9.9323952047
20
-17.4204406011
30
0.0000000000
10
10.0332739354
20
-17.3557709369
30
0.0000000000
10
10.1005844428
20
-17.3117364049
30
0.0000000000
10
10.1341595053
20
-17.2895290720
30
0.0000000000
11
9.3871726164
21
-17.7493701374
31
0.0000000000
11
9.4666793264
21
-17.7035692071
31
0.0000000000
11
9.5514584734
21
-17.6538554355
31
0.0000000000
11
9.6407603479
21
-17.6005691763
31
0.0000000000
11
9.7343486228
21
-17.5437490547
31
0.0000000000
11
9.8316128439
21
-17.4836517804
31
0.0000000000
11
9.9316413278
21
-17.4207184813
31
0.0000000000
11
10.0331087406
21
-17.3556562001
31
0.0000000000
11
10.1341595053
21
-17.2895290720
31
0.0000000000
0
SPLINE
5
32E
100
AcDbEntity
8
0
100
AcDbSpline
62
7
6
CONTINUOUS
70
0
71
3
72
8
73
4
74
2
42
0.0000001000
43
0.0000001000
44
0.0000000001
12
-0.0496543828
22
-0.0283428911
32
0.0000000000
13
-0.0511446455
23
-0.0256282980
33
0.0000000000
40
0.0000000000
40
0.0000000000
40
0.0000000000
40
0.0000000000
40
1.0000000000
40
1.0000000000
40
1.0000000000
40
1.0000000000
10
9.3871726164
20
-17.7493701374
30
0.0000000000
10
9.3706211555
20
-17.7588177677
30
0.0000000000
10
9.3537998770
20
-17.7678048418
30
0.0000000000
10
9.3367516618
20
-17.7763476078
30
0.0000000000
11
9.3871726164
21
-17.7493701374
31
0.0000000000
11
9.3367516618
21
-17.7763476078
31
0.0000000000
0
SPLINE
5
32F
100
AcDbEntity
8
0
100
AcDbSpline
62
7
6
CONTINUOUS
70
0
71
3
72
14
73
10
74
8
42
0.0000001000
43
0.0000001000
44
0.0000000001
12
0.0000000000
22
0.2525400005
32
0.0000000000
13
0.1603202703
23
0.1951252490
33
0.0000000000
40
0.0000000000
40
0.0000000000
40
0.0000000000
40
0.0000000000
40
0.1318788968
40
0.2706570924
40
0.4139746772
40
0.5610771939
40
0.7087227910
40
0.8559736017
40
1.0000000000
40
1.0000000000
40
1.0000000000
40
1.0000000000
10
4.2983703193
20
16.5724246772
30
0.0000000000
10
4.2983703193
20
16.5835262428
30
0.0000000000
10
4.2997873257
20
16.6063256455
30
0.0000000000
10
4.3056949627
20
16.6407280532
30
0.0000000000
10
4.3153175640
20
16.6756116334
30
0.0000000000
10
4.3284241750
20
16.7101356996
30
0.0000000000
10
4.3447568047
20
16.7436241660
30
0.0000000000
10
4.3639215406
20
16.7752711100
30
0.0000000000
10
4.3785476549
20
16.7950065299
30
0.0000000000
10
4.3862444386
20
16.8043742589
30
0.0000000000
11
4.2983703193
21
16.5724246772
31
0.0000000000
11
4.3003317875
21
16.6056715638
31
0.0000000000
11
4.3061865642
21
16.6402261147
31
0.0000000000
11
4.3157630959
21
16.6751296089
31
0.0000000000
11
4.3289242196
21
16.7098693996
31
0.0000000000
11
4.3452675083
21
16.7433831874
31
0.0000000000
11
4.3645499591
21
16.7751800303
31
0.0000000000
11
4.3862444386
21
16.8043742589
31
0.0000000000
0
SPLINE
5
330
100
AcDbEntity
8
0
100
AcDbSpline
62
7
6
CONTINUOUS
70
0
71
3
72
14
73
10
74
8
42
0.0000001000
43
0.0000001000
44
0.0000000001
12
0.0000000000
22
0.2525400005
32
0.0000000000
13
0.1603202703
23
0.1951252490
33
0.0000000000
40
0.0000000000
40
0.0000000000
40
0.0000000000
40
0.0000000000
40
0.1318788968
40
0.2706570924
40
0.4139746772
40
0.5610771939
40
0.7087227910
40
0.8559736017
40
1.0000000000
40
1.0000000000
40
1.0000000000
40
1.0000000000
10
-9.0659478451
20
23.2545837595
30
0.0000000000
10
-9.0659478451
20
23.2656853250
30
0.0000000000
10
-9.0645308387
20
23.2884847277
30
0.0000000000
10
-9.0586232018
20
23.3228871354
30
0.0000000000
10
-9.0490006005
20
23.3577707156
30
0.0000000000
10
-9.0358939894
20
23.3922947818
30
0.0000000000
10
-9.0195613597
20
23.4257832482
30
0.0000000000
10
-9.0003966238
20
23.4574301922
30
0.0000000000
10
-8.9857705095
20
23.4771656122
30
0.0000000000
10
-8.9780737258
20
23.4865333411
30
0.0000000000
11
-9.0659478451
21
23.2545837595
31
0.0000000000
11
-9.0639863769
21
23.2878306460
31
0.0000000000
11
-9.0581316002
21
23.3223851970
31
0.0000000000
11
-9.0485550685
21
23.3572886911
31
0.0000000000
11
-9.0353939448
21
23.3920284818
31
0.0000000000
11
-9.0190506561
21
23.4255422696
31
0.0000000000
11
-8.9997682053
21
23.4573391125
31
0.0000000000
11
-8.9780737258
21
23.4865333411
31
0.0000000000
0
SPLINE
5
331
100
AcDbEntity
8
0
100
AcDbSpline
62
7
6
CONTINUOUS
70
0
71
3
72
14
73
10
74
8
42
0.0000001000
43
0.0000001000
44
0.0000000001
12
0.1603213519
22
0.1951265654
32
0.0000000000
13
-0.0000000000
23
0.2525417043
33
0.0000000000
40
0.0000000000
40
0.0000000000
40
0.0000000000
40
0.0000000000
40
0.1440265224
40
0.2912774710
40
0.4389231742
40
0.5860257506
40
0.7293433004
40
0.8681213611
40
1.0000000000
40
1.0000000000
40
1.0000000000
40
1.0000000000
10
4.9134891543
20
17.4460819869
30
0.0000000000
10
4.9211859966
20
17.4554497871
30
0.0000000000
10
4.9358122156
20
17.4751853640
30
0.0000000000
10
4.9549770645
20
17.5068325687
30
0.0000000000
10
4.9713097580
20
17.5403213125
30
0.0000000000
10
4.9844163820
20
17.5748456543
30
0.0000000000
10
4.9940389208
20
17.6097294930
30
0.0000000000
10
4.9999464909
20
17.6441321234
30
0.0000000000
10
5.0013632736
20
17.6669316562
30
0.0000000000
10
5.0013632736
20
17.6780332749
30
0.0000000000
11
4.9134891543
21
17.4460819869
31
0.0000000000
11
4.9351837884
21
17.4752764454
31
0.0000000000
11
4.9544663542
21
17.5070735528
31
0.0000000000
11
4.9708097074
21
17.5405876187
31
0.0000000000
11
4.9839708406
21
17.5753276900
31
0.0000000000
11
4.9935473203
21
17.6102314425
31
0.0000000000
11
4.9994019823
21
17.6447862181
31
0.0000000000
11
5.0013632736
21
17.6780332749
31
0.0000000000
0
SPLINE
5
332
100
AcDbEntity
8
0
100
AcDbSpline
62
7
6
CONTINUOUS
70
0
71
3
72
13
73
9
74
7
42
0.0000001000
43
0.0000001000
44
0.0000000001
12
0.0000000000
22
0.1573187955
32
0.0000000000
13
-0.1410768327
23
0.0705989525
33
0.0000000000
40
0.0000000000
40
0.0000000000
40
0.0000000000
40
0.0000000000
40
0.2078817330
40
0.4013465439
40
0.5789246977
40
0.7443175029
40
0.8997170363
40
1.0000000000
40
1.0000000000
40
1.0000000000
40
1.0000000000
10
5.0013632736
20
18.0255647917
30
0.0000000000
10
5.0013632736
20
18.0364660263
30
0.0000000000
10
5.0000792846
20
18.0575475080
30
0.0000000000
10
4.9938491564
20
18.0873831039
30
0.0000000000
10
4.9834697746
20
18.1136991465
30
0.0000000000
10
4.9691263067
20
18.1357903524
30
0.0000000000
10
4.9529964935
20
18.1511941133
30
0.0000000000
10
4.9414809641
20
18.1582322698
30
0.0000000000
10
4.9367650965
20
18.1605922272
30
0.0000000000
11
5.0013632736
21
18.0255647917
31
0.0000000000
11
4.9992188893
21
18.0581981161
31
0.0000000000
11
4.9928119614
21
18.0879517735
31
0.0000000000
11
4.9823667954
21
18.1138620013
31
0.0000000000
11
4.9680264284
21
18.1355728946
31
0.0000000000
11
4.9502493382
21
18.1523551456
31
0.0000000000
11
4.9367650965
21
18.1605922272
31
0.0000000000
0
SPLINE
5
333
100
AcDbEntity
8
0
100
AcDbSpline
62
7
6
CONTINUOUS
70
0
71
3
72
12
73
8
74
6
42
0.0000001000
43
0.0000001000
44
0.0000000001
12
0.1037892104
22
0.0505590123
32
0.0000000000
13
0.1035245975
23
-0.0518042949
33
0.0000000000
40
0.0000000000
40
0.0000000000
40
0.0000000000
40
0.0000000000
40
0.2574797432
40
0.4962941496
40
0.7176884677
40
0.9297317834
40
1.0000000000
40
1.0000000000
40
1.0000000000
40
1.0000000000
10
3.1357639232
20
18.9991188979
30
0.0000000000
10
3.1446717962
20
19.0034582051
30
0.0000000000
10
3.1625025110
20
19.0105783652
30
0.0000000000
10
3.1897332124
20
19.0161139856
30
0.0000000000
10
3.2158203251
20
19.0158734087
30
0.0000000000
10
3.2348066944
20
19.0110573456
30
0.0000000000
10
3.2447556590
20
19.0065980362
30
0.0000000000
10
3.2471804886
20
19.0053846377
30
0.0000000000
11
3.1357639232
21
18.9991188979
31
0.0000000000
11
3.1634422163
21
19.0099600322
31
0.0000000000
11
3.1905011585
21
19.0152481346
31
0.0000000000
11
3.2160574239
21
19.0148292933
31
0.0000000000
11
3.2397601123
21
19.0087088678
31
0.0000000000
11
3.2471804886
21
19.0053846377
31
0.0000000000
0
SPLINE
5
334
100
AcDbEntity
8
0
100
AcDbSpline
62
7
6
CONTINUOUS
70
0
71
3
72
17
73
13
74
11
42
0.0000001000
43
0.0000001000
44
0.0000000001
12
0.0000000000
22
0.3666502398
32
0.0000000000
13
0.3262254999
23
0.1673598566
33
0.0000000000
40
0.0000000000
40
0.0000000000
40
0.0000000000
40
0.0000000000
40
0.0951010066
40
0.1954626647
40
0.2989499556
40
0.4051948209
40
0.5116959089
40
0.6171488294
40
0.7202917296
40
0.8188238537
40
0.9126130540
40
1.0000000000
40
1.0000000000
40
1.0000000000
40
1.0000000000
10
0.8438316588
20
17.6218992823
30
0.0000000000
10
0.8438316588
20
17.6335222179
30
0.0000000000
10
0.8453863167
20
17.6574283758
30
0.0000000000
10
0.8518445752
20
17.6934561144
30
0.0000000000
10
0.8623461763
20
17.7299371188
30
0.0000000000
10
0.8766188060
20
17.7659178831
30
0.0000000000
10
0.8943461175
20
17.8005970203
30
0.0000000000
10
0.9150865762
20
17.8331159496
30
0.0000000000
10
0.9383310653
20
17.8626710274
30
0.0000000000
10
0.9635649691
20
17.8886052210
30
0.0000000000
10
0.9901316476
20
17.9102442642
30
0.0000000000
10
1.0090548246
20
17.9219123118
30
0.0000000000
10
1.0185574413
20
17.9267873340
30
0.0000000000
11
0.8438316588
21
17.6218992823
31
0.0000000000
11
0.8459760431
21
17.6567020884
31
0.0000000000
11
0.8523829709
21
17.6929376587
31
0.0000000000
11
0.8628281369
21
17.7294153001
31
0.0000000000
11
0.8771685040
21
17.7656343965
31
0.0000000000
11
0.8949455941
21
17.8004017963
31
0.0000000000
11
0.9157643172
21
17.8329826473
31
0.0000000000
11
0.9391928045
21
17.8626686606
31
0.0000000000
11
0.9644534259
21
17.8884959453
31
0.0000000000
11
0.9911993405
21
17.9101102714
31
0.0000000000
11
1.0185574413
21
17.9267873340
31
0.0000000000
0
SPLINE
5
335
100
AcDbEntity
8
0
100
AcDbSpline
62
7
6
CONTINUOUS
70
0
71
3
72
14
73
10
74
8
42
0.0000001000
43
0.0000001000
44
0.0000000001
12
0.1603213519
22
0.1951265654
32
0.0000000000
13
0.0000000000
23
0.2525417043
33
0.0000000000
40
0.0000000000
40
0.0000000000
40
0.0000000000
40
0.0000000000
40
0.1440265224
40
0.2912774710
40
0.4389231742
40
0.5860257506
40
0.7293433004
40
0.8681213611
40
1.0000000000
40
1.0000000000
40
1.0000000000
40
1.0000000000
10
-8.4508290101
20
24.1282410691
30
0.0000000000
10
-8.4431321679
20
24.1376088694
30
0.0000000000
10
-8.4285059489
20
24.1573444463
30
0.0000000000
10
-8.4093411000
20
24.1889916509
30
0.0000000000
10
-8.3930084065
20
24.2224803947
30
0.0000000000
10
-8.3799017824
20
24.2570047365
30
0.0000000000
10
-8.3702792436
20
24.2918885752
30
0.0000000000
10
-8.3643716735
20
24.3262912056
30
0.0000000000
10
-8.3629548908
20
24.3490907384
30
0.0000000000
10
-8.3629548908
20
24.3601923571
30
0.0000000000
11
-8.4508290101
21
24.1282410691
31
0.0000000000
11
-8.4291343761
21
24.1574355277
31
0.0000000000
11
-8.4098518102
21
24.1892326350
31
0.0000000000
11
-8.3935084570
21
24.2227467010
31
0.0000000000
11
-8.3803473239
21
24.2574867722
31
0.0000000000
11
-8.3707708442
21
24.2923905247
31
0.0000000000
11
-8.3649161821
21
24.3269453004
31
0.0000000000
11
-8.3629548908
21
24.3601923571
31
0.0000000000
0
SPLINE
5
336
100
AcDbEntity
8
0
100
AcDbSpline
62
7
6
CONTINUOUS
70
0
71
3
72
13
73
9
74
7
42
0.0000001000
43
0.0000001000
44
0.0000000001
12
0.0000000000
22
0.1573187955
32
0.0000000000
13
-0.1410768327
23
0.0705989525
33
0.0000000000
40
0.0000000000
40
0.0000000000
40
0.0000000000
40
0.0000000000
40
0.2078817330
40
0.4013465439
40
0.5789246977
40
0.7443175029
40
0.8997170363
40
1.0000000000
40
1.0000000000
40
1.0000000000
40
1.0000000000
10
-8.3629548908
20
24.7077238739
30
0.0000000000
10
-8.3629548908
20
24.7186251085
30
0.0000000000
10
-8.3642388799
20
24.7397065903
30
0.0000000000
10
-8.3704690080
20
24.7695421861
30
0.0000000000
10
-8.3808483899
20
24.7958582287
30
0.0000000000
10
-8.3951918577
20
24.8179494347
30
0.0000000000
10
-8.4113216709
20
24.8333531955
30
0.0000000000
10
-8.4228372003
20
24.8403913520
30
0.0000000000
10
-8.4275530679
20
24.8427513094
30
0.0000000000
11
-8.3629548908
21
24.7077238739
31
0.0000000000
11
-8.3650992752
21
24.7403571983
31
0.0000000000
11
-8.3715062030
21
24.7701108557
31
0.0000000000
11
-8.3819513690
21
24.7960210835
31
0.0000000000
11
-8.3962917360
21
24.8177319768
31
0.0000000000
11
-8.4140688262
21
24.8345142278
31
0.0000000000
11
-8.4275530679
21
24.8427513094
31
0.0000000000
0
SPLINE
5
337
100
AcDbEntity
8
0
100
AcDbSpline
62
7
6
CONTINUOUS
70
0
71
3
72
12
73
8
74
6
42
0.0000001000
43
0.0000001000
44
0.0000000001
12
0.1037892104
22
0.0505590123
32
0.0000000000
13
0.1035245975
23
-0.0518042949
33
0.0000000000
40
0.0000000000
40
0.0000000000
40
0.0000000000
40
0.0000000000
40
0.2574797432
40
0.4962941496
40
0.7176884677
40
0.9297317834
40
1.0000000000
40
1.0000000000
40
1.0000000000
40
1.0000000000
10
-10.2285542413
20
25.6812779801
30
0.0000000000
10
-10.2196463682
20
25.6856172873
30
0.0000000000
10
-10.2018156535
20
25.6927374475
30
0.0000000000
10
-10.1745849521
20
25.6982730679
30
0.0000000000
10
-10.1484978393
20
25.6980324909
30
0.0000000000
10
-10.1295114700
20
25.6932164278
30
0.0000000000
10
-10.1195625054
20
25.6887571184
30
0.0000000000
10
-10.1171376758
20
25.6875437199
30
0.0000000000
11
-10.2285542413
21
25.6812779801
31
0.0000000000
11
-10.2008759481
21
25.6921191145
31
0.0000000000
11
-10.1738170059
21
25.6974072168
31
0.0000000000
11
-10.1482607406
21
25.6969883755
31
0.0000000000
11
-10.1245580521
21
25.6908679500
31
0.0000000000
11
-10.1171376758
21
25.6875437199
31
0.0000000000
0
SPLINE
5
338
100
AcDbEntity
8
0
100
AcDbSpline
62
7
6
CONTINUOUS
70
0
71
3
72
17
73
13
74
11
42
0.0000001000
43
0.0000001000
44
0.0000000001
12
0.0000000000
22
0.3666502398
32
0.0000000000
13
0.3262254999
23
0.1673598566
33
0.0000000000
40
0.0000000000
40
0.0000000000
40
0.0000000000
40
0.0000000000
40
0.0951010066
40
0.1954626647
40
0.2989499556
40
0.4051948209
40
0.5116959089
40
0.6171488294
40
0.7202917296
40
0.8188238537
40
0.9126130540
40
1.0000000000
40
1.0000000000
40
1.0000000000
40
1.0000000000
10
-12.5204865056
20
24.3040583645
30
0.0000000000
10
-12.5204865056
20
24.3156813002
30
0.0000000000
10
-12.5189318477
20
24.3395874580
30
0.0000000000
10
-12.5124735892
20
24.3756151966
30
0.0000000000
10
-12.5019719882
20
24.4120962010
30
0.0000000000
10
-12.4876993585
20
24.4480769653
30
0.0000000000
10
-12.4699720470
20
24.4827561026
30
0.0000000000
10
-12.4492315883
20
24.5152750318
30
0.0000000000
10
-12.4259870991
20
24.5448301096
30
0.0000000000
10
-12.4007531953
20
24.5707643032
30
0.0000000000
10
-12.3741865169
20
24.5924033464
30
0.0000000000
10
-12.3552633398
20
24.6040713940
30
0.0000000000
10
-12.3457607231
20
24.6089464162
30
0.0000000000
11
-12.5204865056
21
24.3040583645
31
0.0000000000
11
-12.5183421213
21
24.3388611706
31
0.0000000000
11
-12.5119351935
21
24.3750967409
31
0.0000000000
11
-12.5014900275
21
24.4115743823
31
0.0000000000
11
-12.4871496605
21
24.4477934787
31
0.0000000000
11
-12.4693725703
21
24.4825608785
31
0.0000000000
11
-12.4485538472
21
24.5151417295
31
0.0000000000
11
-12.4251253599
21
24.5448277429
31
0.0000000000
11
-12.3998647386
21
24.5706550275
31
0.0000000000
11
-12.3731188239
21
24.5922693536
31
0.0000000000
11
-12.3457607231
21
24.6089464162
31
0.0000000000
0
SPLINE
5
339
100
AcDbEntity
8
0
100
AcDbSpline
62
7
6
CONTINUOUS
70
0
71
3
72
13
73
9
74
7
42
0.0000001000
43
0.0000001000
44
0.0000000001
12
0.0000000000
22
0.1573462303
32
0.0000000000
13
-0.1411200199
23
0.0705753522
33
0.0000000000
40
0.0000000000
40
0.0000000000
40
0.0000000000
40
0.0000000000
40
0.1990786305
40
0.3848094900
40
0.5562307156
40
0.7160338523
40
0.8658122188
40
1.0000000000
40
1.0000000000
40
1.0000000000
40
1.0000000000
10
5.0013632736
20
-23.6215708644
30
0.0000000000
10
5.0013632736
20
-23.6111294404
30
0.0000000000
10
5.0001833660
20
-23.5909163146
30
0.0000000000
10
4.9944788479
20
-23.5622003800
30
0.0000000000
10
4.9849768108
20
-23.5366619058
30
0.0000000000
10
4.9718392899
20
-23.5149235828
30
0.0000000000
10
4.9556528243
20
-23.4979120538
30
0.0000000000
10
4.9430744921
20
-23.4896954481
30
0.0000000000
10
4.9367622979
20
-23.4865386648
30
0.0000000000
11
5.0013632736
21
-23.6215708644
31
0.0000000000
11
4.9994019823
21
-23.5903080534
31
0.0000000000
11
4.9935473203
21
-23.5616764613
31
0.0000000000
11
4.9839708406
21
-23.5364612692
31
0.0000000000
11
4.9708097074
21
-23.5150363657
31
0.0000000000
11
4.9544663542
21
-23.4980569315
31
0.0000000000
11
4.9367622979
21
-23.4865386648
31
0.0000000000
0
SPLINE
5
33A
100
AcDbEntity
8
0
100
AcDbSpline
62
7
6
CONTINUOUS
70
0
71
3
72
17
73
13
74
11
42
0.0000001000
43
0.0000001000
44
0.0000000001
12
0.3262254999
22
0.1673598566
32
0.0000000000
13
0.0000000000
23
0.3666502398
33
0.0000000000
40
0.0000000000
40
0.0000000000
40
0.0000000000
40
0.0000000000
40
0.0873869460
40
0.1811761463
40
0.2797082704
40
0.3828511706
40
0.4883040911
40
0.5948051791
40
0.7010500444
40
0.8045373353
40
0.9048989934
40
1.0000000000
40
1.0000000000
40
1.0000000000
40
1.0000000000
10
4.8266374911
20
-24.2739904329
30
0.0000000000
10
4.8361401078
20
-24.2691154106
30
0.0000000000
10
4.8550632848
20
-24.2574473630
30
0.0000000000
10
4.8816299633
20
-24.2358083199
30
0.0000000000
10
4.9068638671
20
-24.2098741263
30
0.0000000000
10
4.9301083562
20
-24.1803190485
30
0.0000000000
10
4.9508488149
20
-24.1478001192
30
0.0000000000
10
4.9685761264
20
-24.1131209820
30
0.0000000000
10
4.9828487561
20
-24.0771402177
30
0.0000000000
10
4.9933503572
20
-24.0406592133
30
0.0000000000
10
4.9998086156
20
-24.0046314746
30
0.0000000000
10
5.0013632736
20
-23.9807253168
30
0.0000000000
10
5.0013632736
20
-23.9691023812
30
0.0000000000
11
4.8266374911
21
-24.2739904329
31
0.0000000000
11
4.8539955919
21
-24.2573133702
31
0.0000000000
11
4.8807415065
21
-24.2356990442
31
0.0000000000
11
4.9060021279
21
-24.2098717595
31
0.0000000000
11
4.9294306152
21
-24.1801857461
31
0.0000000000
11
4.9502493382
21
-24.1476048952
31
0.0000000000
11
4.9680264284
21
-24.1128374954
31
0.0000000000
11
4.9823667954
21
-24.0766183990
31
0.0000000000
11
4.9928119614
21
-24.0401407576
31
0.0000000000
11
4.9992188893
21
-24.0039051873
31
0.0000000000
11
5.0013632736
21
-23.9691023812
31
0.0000000000
0
SPLINE
5
33B
100
AcDbEntity
8
0
100
AcDbSpline
62
7
6
CONTINUOUS
70
0
71
3
72
14
73
10
74
8
42
0.0000001000
43
0.0000001000
44
0.0000000001
12
-0.0000000000
22
0.2525417043
32
0.0000000000
13
0.1603213519
23
0.1951265654
33
0.0000000000
40
0.0000000000
40
0.0000000000
40
0.0000000000
40
0.0000000000
40
0.1318786389
40
0.2706566996
40
0.4139742494
40
0.5610768258
40
0.7087225290
40
0.8559734776
40
1.0000000000
40
1.0000000000
40
1.0000000000
40
1.0000000000
10
0.8438316588
20
-24.0176787912
30
0.0000000000
10
0.8438316588
20
-24.0065771725
30
0.0000000000
10
0.8452484415
20
-23.9837776397
30
0.0000000000
10
0.8511560116
20
-23.9493750093
30
0.0000000000
10
0.8607785504
20
-23.9144911706
30
0.0000000000
10
0.8738851744
20
-23.8799668288
30
0.0000000000
10
0.8902178679
20
-23.8464780850
30
0.0000000000
10
0.9093827168
20
-23.8148308803
30
0.0000000000
10
0.9240089358
20
-23.7950953034
30
0.0000000000
10
0.9317057781
20
-23.7857275032
30
0.0000000000
11
0.8438316588
21
-24.0176787912
31
0.0000000000
11
0.8457929500
21
-23.9844317344
31
0.0000000000
11
0.8516476121
21
-23.9498769587
31
0.0000000000
11
0.8612240918
21
-23.9149732063
31
0.0000000000
11
0.8743852250
21
-23.8802331350
31
0.0000000000
11
0.8907285782
21
-23.8467190690
31
0.0000000000
11
0.9100111440
21
-23.8149219617
31
0.0000000000
11
0.9317057781
21
-23.7857275032
31
0.0000000000
0
SPLINE
5
33C
100
AcDbEntity
8
0
100
AcDbSpline
62
7
6
CONTINUOUS
70
0
71
3
72
9
73
5
74
3
42
0.0000001000
43
0.0000001000
44
0.0000000001
12
-0.0220849486
22
0.0110448753
32
0.0000000000
13
-0.0241207855
23
0.0049542358
33
0.0000000000
40
0.0000000000
40
0.0000000000
40
0.0000000000
40
0.0000000000
40
0.0711334077
40
1.0000000000
40
1.0000000000
40
1.0000000000
40
1.0000000000
10
4.9367622979
20
-23.4865386648
30
0.0000000000
10
4.9362386387
20
-23.4862767783
30
0.0000000000
10
4.9288413530
20
-23.4826653919
30
0.0000000000
10
4.9209574849
20
-23.4800560938
30
0.0000000000
10
4.9134891543
20
-23.4785221525
30
0.0000000000
11
4.9367622979
21
-23.4865386648
31
0.0000000000
11
4.9351837884
21
-23.4857680684
31
0.0000000000
11
4.9134891543
21
-23.4785221525
31
0.0000000000
0
SPLINE
5
33D
100
AcDbEntity
8
0
100
AcDbSpline
62
7
6
CONTINUOUS
70
0
71
3
72
12
73
8
74
6
42
0.0000001000
43
0.0000001000
44
0.0000000001
12
-0.1024460385
22
0.0512669789
32
0.0000000000
13
-0.1022335317
23
-0.0509823104
33
0.0000000000
40
0.0000000000
40
0.0000000000
40
0.0000000000
40
0.0000000000
40
0.0701707674
40
0.2818334567
40
0.5029641069
40
0.7418852029
40
1.0000000000
40
1.0000000000
40
1.0000000000
40
1.0000000000
10
-8.4275530679
20
24.8427513094
30
0.0000000000
10
-8.4299493070
20
24.8439504572
30
0.0000000000
10
-8.4397802022
20
24.8483513672
30
0.0000000000
10
-8.4585583886
20
24.8530606904
30
0.0000000000
10
-8.4843580264
20
24.8531464683
30
0.0000000000
10
-8.5112792540
20
24.8474466566
30
0.0000000000
10
-8.5288846776
20
24.8402276257
30
0.0000000000
10
-8.5376806734
20
24.8358411962
30
0.0000000000
11
-8.4275530679
21
24.8427513094
31
0.0000000000
11
-8.4348875492
21
24.8460326986
31
0.0000000000
11
-8.4583160365
21
24.8520160235
31
0.0000000000
11
-8.4835766579
21
24.8522870428
31
0.0000000000
11
-8.5103225726
21
24.8468424267
31
0.0000000000
11
-8.5376806734
21
24.8358411962
31
0.0000000000
0
SPLINE
5
33E
100
AcDbEntity
8
0
100
AcDbSpline
62
7
6
CONTINUOUS
70
0
71
3
72
12
73
8
74
6
42
0.0000001000
43
0.0000001000
44
0.0000000001
12
-0.1024460385
22
0.0512669789
32
0.0000000000
13
-0.1022335317
23
-0.0509823104
33
0.0000000000
40
0.0000000000
40
0.0000000000
40
0.0000000000
40
0.0000000000
40
0.0701707674
40
0.2818334567
40
0.5029641069
40
0.7418852029
40
1.0000000000
40
1.0000000000
40
1.0000000000
40
1.0000000000
10
4.9367650965
20
18.1605922272
30
0.0000000000
10
4.9343688575
20
18.1617913750
30
0.0000000000
10
4.9245379623
20
18.1661922850
30
0.0000000000
10
4.9057597758
20
18.1709016082
30
0.0000000000
10
4.8799601380
20
18.1709873861
30
0.0000000000
10
4.8530389105
20
18.1652875744
30
0.0000000000
10
4.8354334868
20
18.1580685435
30
0.0000000000
10
4.8266374911
20
18.1536821139
30
0.0000000000
11
4.9367650965
21
18.1605922272
31
0.0000000000
11
4.9294306152
21
18.1638736164
31
0.0000000000
11
4.9060021279
21
18.1698569413
31
0.0000000000
11
4.8807415065
21
18.1701279606
31
0.0000000000
11
4.8539955919
21
18.1646833445
31
0.0000000000
11
4.8266374911
21
18.1536821139
31
0.0000000000
0
SPLINE
5
33F
100
AcDbEntity
8
0
100
AcDbSpline
62
7
6
CONTINUOUS
70
0
71
3
72
8
73
4
74
2
42
0.0000001000
43
0.0000001000
44
0.0000000001
12
0.0002454748
22
0.0085435457
32
0.0000000000
13
-0.0053364816
23
0.0075239063
33
0.0000000000
40
0.0000000000
40
0.0000000000
40
0.0000000000
40
0.0000000000
40
1.0000000000
40
1.0000000000
40
1.0000000000
40
1.0000000000
10
10.1354858241
20
-17.2854758498
30
0.0000000000
10
10.1355676490
20
-17.2826280013
30
0.0000000000
10
10.1338282781
20
-17.2799035294
30
0.0000000000
10
10.1320494509
20
-17.2773955607
30
0.0000000000
11
10.1354858241
21
-17.2854758498
31
0.0000000000
11
10.1320494509
21
-17.2773955607
31
0.0000000000
0
SPLINE
5
340
100
AcDbEntity
8
0
100
AcDbSpline
62
7
6
CONTINUOUS
70
0
71
3
72
11
73
7
74
5
42
0.0000001000
43
0.0000001000
44
0.0000000001
12
-0.0663186737
22
0.0935027089
32
0.0000000000
13
-0.0863886430
23
0.0648670732
33
0.0000000000
40
0.0000000000
40
0.0000000000
40
0.0000000000
40
0.0000000000
40
0.1581044998
40
0.3820090898
40
0.6646809553
40
1.0000000000
40
1.0000000000
40
1.0000000000
40
1.0000000000
10
10.1320494509
20
-17.2773955607
30
0.0000000000
10
10.1285543573
20
-17.2724678276
30
0.0000000000
10
10.1197415380
20
-17.2625810319
30
0.0000000000
10
10.1018684789
20
-17.2461781075
30
0.0000000000
10
10.0785904147
20
-17.2269294617
30
0.0000000000
10
10.0609269450
20
-17.2133327816
30
0.0000000000
10
10.0512710259
20
-17.2060823933
30
0.0000000000
11
10.1320494509
21
-17.2773955607
31
0.0000000000
11
10.1210095578
21
-17.2643627367
31
0.0000000000
11
10.1033735081
21
-17.2478079247
31
0.0000000000
11
10.0799255198
21
-17.2282446160
31
0.0000000000
11
10.0512710259
21
-17.2060823933
31
0.0000000000
0
SPLINE
5
341
100
AcDbEntity
8
0
100
AcDbSpline
62
7
6
CONTINUOUS
70
0
71
3
72
11
73
7
74
5
42
0.0000001000
43
0.0000001000
44
0.0000000001
12
-0.1625542203
22
-0.0815700781
32
0.0000000000
13
-0.0905678769
23
-0.1567410448
33
0.0000000000
40
0.0000000000
40
0.0000000000
40
0.0000000000
40
0.0000000000
40
0.1162303016
40
0.3703269026
40
0.6635318032
40
1.0000000000
40
1.0000000000
40
1.0000000000
40
1.0000000000
10
-1.1371690261
20
25.9843637878
30
0.0000000000
10
-1.1434669347
20
25.9812034829
30
0.0000000000
10
-1.1627878847
20
25.9695234802
30
0.0000000000
10
-1.1923764317
20
25.9421908297
30
0.0000000000
10
-1.2252539850
20
25.9000108383
30
0.0000000000
10
-1.2453310038
20
25.8676944946
30
0.0000000000
10
-1.2554887405
20
25.8501150357
30
0.0000000000
11
-1.1371690261
21
25.9843637878
31
0.0000000000
11
-1.1553185052
21
25.9735196040
31
0.0000000000
11
-1.1897605777
21
25.9430309098
31
0.0000000000
11
-1.2229186427
21
25.9015848487
31
0.0000000000
11
-1.2554887405
21
25.8501150357
31
0.0000000000
0
SPLINE
5
342
100
AcDbEntity
8
0
100
AcDbSpline
62
7
6
CONTINUOUS
70
0
71
3
72
13
73
9
74
7
42
0.0000001000
43
0.0000001000
44
0.0000000001
12
-0.4098481622
22
0.2048837263
32
0.0000000000
13
-0.4109068760
23
-0.2010615886
33
0.0000000000
40
0.0000000000
40
0.0000000000
40
0.0000000000
40
0.0000000000
40
0.1007741613
40
0.2637740567
40
0.4330088062
40
0.6107502248
40
0.7994856200
40
1.0000000000
40
1.0000000000
40
1.0000000000
40
1.0000000000
10
2.1646563459
20
24.3859086699
30
0.0000000000
10
2.1508889776
20
24.3927909984
30
0.0000000000
10
2.1137468579
20
24.4085967282
30
0.0000000000
10
2.0492559017
20
24.4245426691
30
0.0000000000
10
1.9712045939
20
24.4289618866
30
0.0000000000
10
1.8896874797
20
24.4197127848
30
0.0000000000
10
1.8059551737
20
24.3970700355
30
0.0000000000
10
1.7510654062
20
24.3740086652
30
0.0000000000
10
1.7236011604
20
24.3605700852
30
0.0000000000
11
2.1646563459
21
24.3859086699
31
0.0000000000
11
2.1221960130
21
24.4039788798
31
0.0000000000
11
2.0498556513
21
24.4220610669
31
0.0000000000
11
1.9725794086
21
24.4267477848
31
0.0000000000
11
1.8917472534
21
24.4179483503
31
0.0000000000
11
1.8083045164
21
24.3957732605
31
0.0000000000
11
1.7236011604
21
24.3605700852
31
0.0000000000
0
SPLINE
5
343
100
AcDbEntity
8
0
100
AcDbSpline
62
7
6
CONTINUOUS
70
0
71
3
72
10
73
6
74
4
42
0.0000001000
43
0.0000001000
44
0.0000000001
12
-0.2344480368
22
0.1171946370
32
0.0000000000
13
-0.2568936911
23
0.0516051973
33
0.0000000000
40
0.0000000000
40
0.0000000000
40
0.0000000000
40
0.0000000000
40
0.3436557906
40
0.6870119842
40
1.0000000000
40
1.0000000000
40
1.0000000000
40
1.0000000000
10
9.6334832291
20
20.6515000631
30
0.0000000000
10
9.6066267540
20
20.6649249350
30
0.0000000000
10
9.5519574937
20
20.6898137886
30
0.0000000000
10
9.4696178490
20
20.7192811856
30
0.0000000000
10
9.4139741653
20
20.7335025748
30
0.0000000000
10
9.3871726164
20
20.7388865109
30
0.0000000000
11
9.6334832291
21
20.6515000631
31
0.0000000000
11
9.5514584734
21
20.6886625297
31
0.0000000000
11
9.4666793264
21
20.7187750422
31
0.0000000000
11
9.3871726164
21
20.7388865109
31
0.0000000000
0
SPLINE
5
344
100
AcDbEntity
8
0
100
AcDbSpline
62
7
6
CONTINUOUS
70
0
71
3
72
9
73
5
74
3
42
0.0000001000
43
0.0000001000
44
0.0000000001
12
0.0001767801
22
0.0054141286
32
0.0000000000
13
-0.0029429943
23
0.0049589549
33
0.0000000000
40
0.0000000000
40
0.0000000000
40
0.0000000000
40
0.0000000000
40
0.6316411435
40
1.0000000000
40
1.0000000000
40
1.0000000000
40
1.0000000000
10
10.1355392333
20
19.6493774203
30
0.0000000000
10
10.1355764538
20
19.6505173491
30
0.0000000000
10
10.1347505785
20
19.6525321267
30
0.0000000000
10
10.1338082510
20
19.6542624674
30
0.0000000000
10
10.1334468917
20
19.6548713590
30
0.0000000000
11
10.1355392333
21
19.6493774203
31
0.0000000000
11
10.1344866792
21
19.6529491000
31
0.0000000000
11
10.1334468917
21
19.6548713590
31
0.0000000000
0
SPLINE
5
345
100
AcDbEntity
8
0
100
AcDbSpline
62
7
6
CONTINUOUS
70
0
71
3
72
14
73
10
74
8
42
0.0000001000
43
0.0000001000
44
0.0000000001
12
-0.0566695584
22
0.0954883889
32
0.0000000000
13
-0.0880104637
23
0.0641532364
33
0.0000000000
40
0.0000000000
40
0.0000000000
40
0.0000000000
40
0.0000000000
40
0.0507979489
40
0.1496779943
40
0.2757326834
40
0.4265637239
40
0.5995479182
40
0.7917799682
40
1.0000000000
40
1.0000000000
40
1.0000000000
40
1.0000000000
10
10.1334468917
20
19.6548713590
30
0.0000000000
10
10.1324873259
20
19.6564882304
30
0.0000000000
10
10.1293639695
20
19.6606603675
30
0.0000000000
10
10.1224698670
20
19.6681573223
30
0.0000000000
10
10.1125562350
20
19.6774417423
30
0.0000000000
10
10.1001533601
20
19.6881074931
30
0.0000000000
10
10.0855724610
20
19.6998622955
30
0.0000000000
10
10.0690656054
20
19.7125531607
30
0.0000000000
10
10.0573795398
20
19.7212012183
30
0.0000000000
10
10.0512710259
20
19.7256538813
30
0.0000000000
11
10.1334468917
21
19.6548713590
31
0.0000000000
11
10.1302960082
21
19.6593083160
31
0.0000000000
11
10.1230893420
21
19.6673106139
31
0.0000000000
11
10.1131417525
21
19.6767722108
31
0.0000000000
11
10.1007159914
21
19.6875169375
31
0.0000000000
11
10.0860728106
21
19.6993708234
31
0.0000000000
11
10.0694892610
21
19.7121499095
31
0.0000000000
11
10.0512710259
21
19.7256538813
31
0.0000000000
0
SPLINE
5
346
100
AcDbEntity
8
0
100
AcDbSpline
62
7
6
CONTINUOUS
70
0
71
3
72
12
73
8
74
6
42
0.0000001000
43
0.0000001000
44
0.0000000001
12
-0.0001112880
22
-0.3027556084
32
0.0000000000
13
-0.1478565247
23
-0.2641316829
33
0.0000000000
40
0.0000000000
40
0.0000000000
40
0.0000000000
40
0.0000000000
40
0.1758487554
40
0.3770020419
40
0.5821736245
40
0.7902417506
40
1.0000000000
40
1.0000000000
40
1.0000000000
40
1.0000000000
10
10.1354693659
20
20.2255895411
30
0.0000000000
10
10.1354628426
20
20.2078431421
30
0.0000000000
10
10.1328342970
20
20.1697645577
30
0.0000000000
10
10.1219524049
20
20.1119280619
30
0.0000000000
10
10.1041877682
20
20.0524287355
30
0.0000000000
10
10.0806822577
20
19.9940446440
30
0.0000000000
10
10.0616090679
20
19.9563809685
30
0.0000000000
10
10.0512710259
20
19.9379130354
30
0.0000000000
11
10.1354693659
21
20.2255895411
31
0.0000000000
11
10.1320494509
21
20.1724563911
31
0.0000000000
11
10.1210095578
21
20.1125765493
31
0.0000000000
11
10.1033735081
21
20.0530278541
31
0.0000000000
11
10.0799255198
21
19.9945732239
31
0.0000000000
11
10.0512710259
21
19.9379130354
31
0.0000000000
0
SPLINE
5
347
100
AcDbEntity
8
0
100
AcDbSpline
62
7
6
CONTINUOUS
70
0
71
3
72
12
73
8
74
6
42
0.0000001000
43
0.0000001000
44
0.0000000001
12
-0.0000037860
22
-0.1438614601
32
0.0000000000
13
-0.1287763930
23
-0.0630118104
33
0.0000000000
40
0.0000000000
40
0.0000000000
40
0.0000000000
40
0.0000000000
40
0.1638187652
40
0.3390033906
40
0.5342164121
40
0.7541293018
40
1.0000000000
40
1.0000000000
40
1.0000000000
40
1.0000000000
10
-0.1746004537
20
23.8430001195
30
0.0000000000
10
-0.1746006605
20
23.8351443839
30
0.0000000000
10
-0.1772893423
20
23.8188865104
30
0.0000000000
10
-0.1889123452
20
23.7957949194
30
0.0000000000
10
-0.2075001232
20
23.7742810480
30
0.0000000000
10
-0.2324585171
20
23.7546795819
30
0.0000000000
10
-0.2519143055
20
23.7437015762
30
0.0000000000
10
-0.2624684193
20
23.7385373236
30
0.0000000000
11
-0.1746004537
21
23.8430001195
31
0.0000000000
11
-0.1782937059
21
23.8198062472
31
0.0000000000
11
-0.1892828591
21
23.7972224263
31
0.0000000000
11
-0.2072980046
21
23.7758046043
31
0.0000000000
11
-0.2318948694
21
23.7560811962
31
0.0000000000
11
-0.2624684193
21
23.7385373236
31
0.0000000000
0
SPLINE
5
348
100
AcDbEntity
8
0
100
AcDbSpline
62
7
6
CONTINUOUS
70
0
71
3
72
12
73
8
74
6
42
0.0000001000
43
0.0000001000
44
0.0000000001
12
-0.0000271067
22
-0.1424881500
32
0.0000000000
13
-0.1272561834
23
-0.0630046818
33
0.0000000000
40
0.0000000000
40
0.0000000000
40
0.0000000000
40
0.0000000000
40
0.1616494759
40
0.3374736946
40
0.5331965554
40
0.7535889118
40
1.0000000000
40
1.0000000000
40
1.0000000000
40
1.0000000000
10
5.3798630039
20
21.0657700268
30
0.0000000000
10
5.3798615433
20
21.0580923153
30
0.0000000000
10
5.3772762284
20
21.0420598341
30
0.0000000000
10
5.3659403752
20
21.0191541439
30
0.0000000000
10
5.3476100615
20
20.9976721589
30
0.0000000000
10
5.3229379293
20
20.9780772783
30
0.0000000000
10
5.3036780769
20
20.9670862519
30
0.0000000000
10
5.2932256321
20
20.9619112345
30
0.0000000000
11
5.3798630039
21
21.0657700268
31
0.0000000000
11
5.3763318189
21
21.0430854025
31
0.0000000000
11
5.3655558173
21
21.0205638049
31
0.0000000000
11
5.3477965054
21
20.9991856025
31
0.0000000000
11
5.3234886034
21
20.9794743277
31
0.0000000000
11
5.2932256321
21
20.9619112345
31
0.0000000000
0
SPLINE
5
349
100
AcDbEntity
8
0
100
AcDbSpline
62
7
6
CONTINUOUS
70
0
71
3
72
13
73
9
74
7
42
0.0000001000
43
0.0000001000
44
0.0000000001
12
-0.0000199727
22
-0.1454202046
32
0.0000000000
13
0.1296323661
23
-0.0648161831
33
0.0000000000
40
0.0000000000
40
0.0000000000
40
0.0000000000
40
0.0000000000
40
0.0030152475
40
0.1674532572
40
0.3429528197
40
0.5377595388
40
0.7563608844
40
1.0000000000
40
1.0000000000
40
1.0000000000
40
1.0000000000
10
-6.9235461448
20
22.2454116425
30
0.0000000000
10
-6.9235461649
20
22.2452654832
30
0.0000000000
10
-6.9235232854
20
22.2371484700
30
0.0000000000
10
-6.9207396990
20
22.2205404364
30
0.0000000000
10
-6.9090901220
20
22.1971308497
30
0.0000000000
10
-6.8905227890
20
22.1752854943
30
0.0000000000
10
-6.8656251957
20
22.1553583688
30
0.0000000000
10
-6.8462060539
20
22.1441685283
30
0.0000000000
10
-6.8356782155
20
22.1389046091
30
0.0000000000
11
-6.9235461448
21
22.2454116425
31
0.0000000000
11
-6.9235449077
21
22.2449731677
31
0.0000000000
11
-6.9197422153
21
22.2214459416
31
0.0000000000
11
-6.9087003551
21
22.1985318730
31
0.0000000000
11
-6.8906887326
21
22.1767892852
31
0.0000000000
11
-6.8661482618
21
22.1567504575
31
0.0000000000
11
-6.8356782155
21
22.1389046091
31
0.0000000000
0
SPLINE
5
34A
100
AcDbEntity
8
0
100
AcDbSpline
62
7
6
CONTINUOUS
70
0
71
3
72
12
73
8
74
6
42
0.0000001000
43
0.0000001000
44
0.0000000001
12
-0.1462308253
22
0.0731154127
32
0.0000000000
13
-0.1459964177
23
-0.0745957438
33
0.0000000000
40
0.0000000000
40
0.0000000000
40
0.0000000000
40
0.0000000000
40
0.2553591691
40
0.4911746382
40
0.7106351586
40
0.9194242855
40
1.0000000000
40
1.0000000000
40
1.0000000000
40
1.0000000000
10
-12.6368370901
20
22.7525324747
30
0.0000000000
10
-12.6492842175
20
22.7587560384
30
0.0000000000
10
-12.6741697439
20
22.7689948339
30
0.0000000000
10
-12.7122709894
20
22.7771484319
30
0.0000000000
10
-12.7487717072
20
22.7771524404
30
0.0000000000
10
-12.7759855810
20
22.7704621280
30
0.0000000000
10
-12.7904256671
20
22.7639706904
30
0.0000000000
10
-12.7943469223
20
22.7619671552
30
0.0000000000
11
-12.6368370901
21
22.7525324747
31
0.0000000000
11
-12.6755516307
21
22.7681580262
31
0.0000000000
11
-12.7133127426
21
22.7759353873
31
0.0000000000
11
-12.7491916109
21
22.7756730804
31
0.0000000000
11
-12.7823034291
21
22.7673775417
31
0.0000000000
11
-12.7943469223
21
22.7619671552
31
0.0000000000
0
SPLINE
5
34B
100
AcDbEntity
8
0
100
AcDbSpline
62
7
6
CONTINUOUS
70
0
71
3
72
17
73
13
74
11
42
0.0000001000
43
0.0000001000
44
0.0000000001
12
0.0000000000
22
0.5152490307
32
0.0000000000
13
-0.4608527432
23
0.2304263716
33
0.0000000000
40
0.0000000000
40
0.0000000000
40
0.0000000000
40
0.0000000000
40
0.0951726438
40
0.1952932407
40
0.2990931070
40
0.4050821278
40
0.5116639643
40
0.6171967785
40
0.7200955718
40
0.8189336013
40
0.9125145547
40
1.0000000000
40
1.0000000000
40
1.0000000000
40
1.0000000000
10
2.8841567569
20
14.6889151180
30
0.0000000000
10
2.8841567569
20
14.7052609888
30
0.0000000000
10
2.8819511831
20
14.7388274814
30
0.0000000000
10
2.8727863455
20
14.7894669771
30
0.0000000000
10
2.8578965980
20
14.8406647320
30
0.0000000000
10
2.8376432901
20
14.8911763880
30
0.0000000000
10
2.8125169584
20
14.9397839351
30
0.0000000000
10
2.7831252454
20
14.9853100456
30
0.0000000000
10
2.7501790319
20
15.0266534067
30
0.0000000000
10
2.7144646602
20
15.0628187010
30
0.0000000000
10
2.6768440135
20
15.0929284251
30
0.0000000000
10
2.6501086860
20
15.1090595866
30
0.0000000000
10
2.6366693835
20
15.1157792379
30
0.0000000000
11
2.8841567569
21
14.6889151180
31
0.0000000000
11
2.8811096700
21
14.7378579693
31
0.0000000000
11
2.8720435866
21
14.7886421094
31
0.0000000000
11
2.8571814726
21
14.8400184208
31
0.0000000000
11
2.8368901133
21
14.8907194433
31
0.0000000000
11
2.8116674569
21
14.9395006416
31
0.0000000000
11
2.7821357225
21
14.9851579659
31
0.0000000000
11
2.7490239043
21
15.0265653228
31
0.0000000000
11
2.7131450360
21
15.0627064980
31
0.0000000000
11
2.6753839242
21
15.0926902488
31
0.0000000000
11
2.6366693835
21
15.1157792379
31
0.0000000000
0
SPLINE
5
34C
100
AcDbEntity
8
0
100
AcDbSpline
62
7
6
CONTINUOUS
70
0
71
3
72
17
73
13
74
11
42
0.0000001000
43
0.0000001000
44
0.0000000001
12
0.0000000000
22
0.5152490286
32
0.0000000000
13
-0.4608527413
23
0.2304263707
33
0.0000000000
40
0.0000000000
40
0.0000000000
40
0.0000000000
40
0.0000000000
40
0.0951686493
40
0.1952865842
40
0.2990826087
40
0.4050717387
40
0.5116494140
40
0.6171798582
40
0.7200829815
40
0.8189239543
40
0.9125100339
40
1.0000000000
40
1.0000000000
40
1.0000000000
40
1.0000000000
10
4.6519237099
20
15.5916928174
30
0.0000000000
10
4.6519237099
20
15.6080380022
30
0.0000000000
10
4.6497183030
20
15.6416033487
30
0.0000000000
10
4.6405540837
20
15.6922411178
30
0.0000000000
10
4.6256650756
20
15.7434379349
30
0.0000000000
10
4.6054127537
20
15.7939485256
30
0.0000000000
10
4.5802874769
20
15.8425553658
30
0.0000000000
10
4.5508966335
20
15.8880815795
30
0.0000000000
10
4.5179505023
20
15.9294260929
30
0.0000000000
10
4.4822350852
20
15.9655933563
30
0.0000000000
10
4.4446130301
20
15.9957048040
30
0.0000000000
10
4.4178763334
20
16.0118369389
30
0.0000000000
10
4.4044363365
20
16.0185569374
30
0.0000000000
11
4.6519237099
21
15.5916928174
31
0.0000000000
11
4.6488768716
21
15.6406336219
31
0.0000000000
11
4.6398113230
21
15.6914164639
31
0.0000000000
11
4.6249501895
21
15.7427909982
31
0.0000000000
11
4.6046592966
21
15.7934922677
31
0.0000000000
11
4.5794381756
21
15.8422718459
31
0.0000000000
11
4.5499077747
21
15.8879285782
31
0.0000000000
11
4.5167951763
21
15.9293381675
31
0.0000000000
11
4.4809156944
21
15.9654808702
31
0.0000000000
11
4.4431527952
21
15.9954666171
31
0.0000000000
11
4.4044363365
21
16.0185569374
31
0.0000000000
0
SPLINE
5
34D
100
AcDbEntity
8
0
100
AcDbSpline
62
7
6
CONTINUOUS
70
0
71
3
72
13
73
9
74
7
42
0.0000001000
43
0.0000001000
44
0.0000000001
12
0.0000000000
22
-0.2196500159
32
0.0000000000
13
-0.1961404309
23
-0.1002301717
33
0.0000000000
40
0.0000000000
40
0.0000000000
40
0.0000000000
40
0.0000000000
40
0.2094012719
40
0.4037602127
40
0.5832359259
40
0.7496749212
40
0.9067994324
40
1.0000000000
40
1.0000000000
40
1.0000000000
40
1.0000000000
10
4.6519237099
20
-22.6000044057
30
0.0000000000
10
4.6519237099
20
-22.6153360699
30
0.0000000000
10
4.6501012337
20
-22.6449484973
30
0.0000000000
10
4.6412579334
20
-22.6869003847
30
0.0000000000
10
4.6265380498
20
-22.7238625368
30
0.0000000000
10
4.6061736582
20
-22.7548990990
30
0.0000000000
10
4.5837657496
20
-22.7760643851
30
0.0000000000
10
4.5680461407
20
-22.7856986750
30
0.0000000000
10
4.5619526742
20
-22.7888125113
30
0.0000000000
11
4.6519237099
21
-22.6000044057
31
0.0000000000
11
4.6488768716
21
-22.6458983718
31
0.0000000000
11
4.6398113230
21
-22.6876156652
31
0.0000000000
11
4.6249501895
21
-22.7241290659
31
0.0000000000
11
4.6046592966
21
-22.7545394427
31
0.0000000000
11
4.5794381756
21
-22.7780978998
31
0.0000000000
11
4.5619526742
21
-22.7888125113
31
0.0000000000
0
SPLINE
5
34E
100
AcDbEntity
8
0
100
AcDbSpline
62
7
6
CONTINUOUS
70
0
71
3
72
17
73
13
74
11
42
0.0000001000
43
0.0000001000
44
0.0000000001
12
0.3895861697
22
-0.1947930849
32
0.0000000000
13
0.3893834854
23
0.1951979274
33
0.0000000000
40
0.0000000000
40
0.0000000000
40
0.0000000000
40
0.0000000000
40
0.0890005659
40
0.1849499553
40
0.2864563904
40
0.3918366128
40
0.4992385642
40
0.6067076896
40
0.7122861312
40
0.8141130460
40
0.9104892925
40
1.0000000000
40
1.0000000000
40
1.0000000000
40
1.0000000000
10
-1.0431691475
20
19.2426500751
30
0.0000000000
10
-1.0316113510
20
19.2368711768
30
0.0000000000
10
-1.0067972130
20
19.2264220615
30
0.0000000000
10
-0.9669254543
20
19.2143774644
30
0.0000000000
10
-0.9237847628
20
19.2055875865
30
0.0000000000
10
-0.8784137454
20
19.2002676326
30
0.0000000000
10
-0.8319001742
20
19.1985458573
30
0.0000000000
10
-0.7853656098
20
19.2004648833
30
0.0000000000
10
-0.7399321692
20
19.2059774677
30
0.0000000000
10
-0.6966895943
20
19.2149507458
30
0.0000000000
10
-0.6566793292
20
19.2271650864
30
0.0000000000
10
-0.6317607930
20
19.2377134278
30
0.0000000000
10
-0.6201427959
20
19.2435375294
30
0.0000000000
11
-1.0431691475
21
19.2426500751
31
0.0000000000
11
-1.0075143935
21
19.2274335234
31
0.0000000000
11
-0.9675466630
21
19.2152182503
31
0.0000000000
11
-0.9242417113
21
19.2063025511
31
0.0000000000
11
-0.8786596852
21
19.2009046765
31
0.0000000000
11
-0.8319112367
21
19.1991563322
31
0.0000000000
11
-0.7851412446
21
19.2011006509
31
0.0000000000
11
-0.7394952872
21
19.2066897597
31
0.0000000000
11
-0.6960855490
21
19.2157873548
31
0.0000000000
11
-0.6559749577
21
19.2281707369
31
0.0000000000
11
-0.6201427959
21
19.2435375294
31
0.0000000000
0
SPLINE
5
34F
100
AcDbEntity
8
0
100
AcDbSpline
62
7
6
CONTINUOUS
70
0
71
3
72
17
73
13
74
11
42
0.0000001000
43
0.0000001000
44
0.0000000001
12
-0.3889091088
22
-0.1963377245
32
0.0000000000
13
-0.3896652892
23
0.1948326446
33
0.0000000000
40
0.0000000000
40
0.0000000000
40
0.0000000000
40
0.0000000000
40
0.0896005383
40
0.1860363505
40
0.2878952112
40
0.3934811365
40
0.5009374680
40
0.6083108940
40
0.7136525634
40
0.8151165594
40
0.9110269511
40
1.0000000000
40
1.0000000000
40
1.0000000000
40
1.0000000000
10
-0.6201427959
20
18.0293340565
30
0.0000000000
10
-0.6317582844
20
18.0234700679
30
0.0000000000
10
-0.6566724981
20
18.0128414848
30
0.0000000000
10
-0.6966842182
20
18.0005120837
30
0.0000000000
10
-0.7399282129
20
17.9914298581
30
0.0000000000
10
-0.7853629490
20
17.9858169839
30
0.0000000000
10
-0.8318986150
20
17.9838086503
30
0.0000000000
10
-0.8784131396
20
17.9854541958
30
0.0000000000
10
-0.9237850120
20
17.9907128005
30
0.0000000000
10
-0.9669266286
20
17.9994577193
30
0.0000000000
10
-1.0067994614
20
18.0114748831
30
0.0000000000
10
-1.0316125779
20
18.0219169242
30
0.0000000000
10
-1.0431691475
20
18.0276952090
30
0.0000000000
11
-0.6201427959
21
18.0293340565
31
0.0000000000
11
-0.6559754245
21
18.0138493498
31
0.0000000000
11
-0.6960864960
21
18.0013511378
31
0.0000000000
11
-0.7394966919
21
17.9921445863
31
0.0000000000
11
-0.7851429387
21
17.9864550597
31
0.0000000000
11
-0.8319130620
21
17.9844212700
31
0.0000000000
11
-0.8786613755
21
17.9860932455
31
0.0000000000
11
-0.9242431096
21
17.9914296849
31
0.0000000000
11
-0.9675476032
21
18.0003003405
31
0.0000000000
11
-1.0075148556
21
18.0124880608
31
0.0000000000
11
-1.0431691475
21
18.0276952090
31
0.0000000000
0
SPLINE
5
350
100
AcDbEntity
8
0
100
AcDbSpline
62
7
6
CONTINUOUS
70
0
71
3
72
13
73
9
74
7
42
0.0000001000
43
0.0000001000
44
0.0000000001
12
-0.1298016753
22
0.0649008377
32
0.0000000000
13
0.0000186465
23
0.1456076944
33
0.0000000000
40
0.0000000000
40
0.0000000000
40
0.0000000000
40
0.0000000000
40
0.2433506852
40
0.4617848989
40
0.6565755890
40
0.8322279170
40
0.9969716939
40
1.0000000000
40
1.0000000000
40
1.0000000000
40
1.0000000000
10
-6.8356782155
20
20.9239497430
30
0.0000000000
10
-6.8462073244
20
20.9292142974
30
0.0000000000
10
-6.8656306603
20
20.9404122991
30
0.0000000000
10
-6.8905297620
20
20.9603687653
30
0.0000000000
10
-6.9090970724
20
20.9822621796
30
0.0000000000
10
-6.9207432996
20
21.0057353407
30
0.0000000000
10
-6.9235231793
20
21.0223881937
30
0.0000000000
10
-6.9235461672
20
21.0305311504
30
0.0000000000
10
-6.9235461484
20
21.0306781319
30
0.0000000000
11
-6.8356782155
21
20.9239497430
31
0.0000000000
11
-6.8661479256
21
20.9418045958
31
0.0000000000
11
-6.8906882522
21
20.9618706649
31
0.0000000000
11
-6.9086998980
21
20.9836580791
31
0.0000000000
11
-6.9197419435
21
21.0066335295
31
0.0000000000
11
-6.9235449024
21
21.0302371902
31
0.0000000000
11
-6.9235461484
21
21.0306781319
31
0.0000000000
0
SPLINE
5
351
100
AcDbEntity
8
0
100
AcDbSpline
62
7
6
CONTINUOUS
70
0
71
3
72
12
73
8
74
6
42
0.0000001000
43
0.0000001000
44
0.0000000001
12
0.1274265362
22
0.0635456794
32
0.0000000000
13
0.0000255395
23
0.1428803290
33
0.0000000000
40
0.0000000000
40
0.0000000000
40
0.0000000000
40
0.0000000000
40
0.2461437340
40
0.4664340245
40
0.6622044411
40
0.8381796843
40
1.0000000000
40
1.0000000000
40
1.0000000000
40
1.0000000000
10
5.2932256321
20
22.1937498128
30
0.0000000000
10
5.3036807132
20
22.1989636031
30
0.0000000000
10
5.3229462071
20
22.2100330935
30
0.0000000000
10
5.3476172826
20
22.2297443320
30
0.0000000000
10
5.3659445547
20
22.2513363941
30
0.0000000000
10
5.3772762424
20
22.2743401653
30
0.0000000000
10
5.3798616307
20
22.2904316543
30
0.0000000000
10
5.3798630083
20
22.2981386343
30
0.0000000000
11
5.2932256321
21
22.1937498128
31
0.0000000000
11
5.3234882680
21
22.2114304192
31
0.0000000000
11
5.3477960285
21
22.2312562130
31
0.0000000000
11
5.3655553672
21
22.2527431563
31
0.0000000000
11
5.3763315567
21
22.2753651211
31
0.0000000000
11
5.3798630083
21
22.2981386343
31
0.0000000000
0
SPLINE
5
352
100
AcDbEntity
8
0
100
AcDbSpline
62
7
6
CONTINUOUS
70
0
71
3
72
12
73
8
74
6
42
0.0000001000
43
0.0000001000
44
0.0000000001
12
0.1289494975
22
0.0635559375
32
0.0000000000
13
0.0000024649
23
0.1442557351
33
0.0000000000
40
0.0000000000
40
0.0000000000
40
0.0000000000
40
0.0000000000
40
0.2456022684
40
0.4654114574
40
0.6606705777
40
0.8360059861
40
1.0000000000
40
1.0000000000
40
1.0000000000
40
1.0000000000
10
-0.2624684193
20
24.9703715050
30
0.0000000000
10
-0.2519116563
20
24.9755746658
30
0.0000000000
10
-0.2324501741
20
24.9866314312
30
0.0000000000
10
-0.2074927946
20
25.0063498316
30
0.0000000000
10
-0.1889080259
20
25.0279744444
30
0.0000000000
10
-0.1772892666
20
25.0511653883
30
0.0000000000
10
-0.1746005884
20
25.0674830292
30
0.0000000000
10
-0.1746004537
20
25.0753687215
30
0.0000000000
11
-0.2624684193
21
24.9703715050
31
0.0000000000
11
-0.2318952076
21
24.9880333814
31
0.0000000000
11
-0.2072984871
21
25.0078718719
31
0.0000000000
11
-0.1892833165
21
25.0293990367
31
0.0000000000
11
-0.1782939753
21
25.0520838308
31
0.0000000000
11
-0.1746004537
21
25.0753687215
31
0.0000000000
0
SPLINE
5
353
100
AcDbEntity
8
0
100
AcDbSpline
62
7
6
CONTINUOUS
70
0
71
3
72
13
73
9
74
7
42
0.0000001000
43
0.0000001000
44
0.0000000001
12
0.1998406808
22
0.0978572385
32
0.0000000000
13
-0.0000000000
23
0.2218990679
33
0.0000000000
40
0.0000000000
40
0.0000000000
40
0.0000000000
40
0.0000000000
40
0.1023705749
40
0.2579078719
40
0.4226584216
40
0.6003200547
40
0.7927129486
40
1.0000000000
40
1.0000000000
40
1.0000000000
40
1.0000000000
10
2.7921687495
20
-23.6548108572
30
0.0000000000
10
2.7989880180
20
-23.6514716232
30
0.0000000000
10
2.8154460337
20
-23.6415752348
30
0.0000000000
10
2.8384041889
20
-23.6198914549
30
0.0000000000
10
2.8587696096
20
-23.5888547799
30
0.0000000000
10
2.8734902541
20
-23.5518923139
30
0.0000000000
10
2.8823341546
20
-23.5099392518
30
0.0000000000
10
2.8841567569
20
-23.4803259270
30
0.0000000000
10
2.8841567569
20
-23.4649936591
30
0.0000000000
11
2.7921687495
21
-23.6548108572
31
0.0000000000
11
2.8116674569
21
-23.6430898827
31
0.0000000000
11
2.8368901133
21
-23.6195313409
31
0.0000000000
11
2.8571814726
21
-23.5891216776
31
0.0000000000
11
2.8720435866
21
-23.5526074801
31
0.0000000000
11
2.8811096700
21
-23.5108894235
31
0.0000000000
11
2.8841567569
21
-23.4649936591
31
0.0000000000
0
SPLINE
5
354
100
AcDbEntity
8
0
100
AcDbSpline
62
7
6
CONTINUOUS
70
0
71
3
72
11
73
7
74
5
42
0.0000001000
43
0.0000001000
44
0.0000000001
12
-0.4351467956
22
0.0874129533
32
0.0000000000
13
-0.4398144642
23
-0.0596405499
33
0.0000000000
40
0.0000000000
40
0.0000000000
40
0.0000000000
40
0.0000000000
40
0.2406426210
40
0.4887663275
40
0.7423989614
40
1.0000000000
40
1.0000000000
40
1.0000000000
40
1.0000000000
10
9.3871726164
20
20.7388865109
30
0.0000000000
10
9.3522676613
20
20.7458982716
30
0.0000000000
10
9.2806524797
20
20.7567172813
30
0.0000000000
10
9.1709289426
20
20.7638128800
30
0.0000000000
10
9.0584844380
20
20.7620112305
30
0.0000000000
10
8.9830973027
20
20.7548259471
30
0.0000000000
10
8.9453317485
20
20.7497047912
30
0.0000000000
11
9.3871726164
21
20.7388865109
31
0.0000000000
11
9.2815977315
21
20.7550614857
31
0.0000000000
11
9.1717084666
21
20.7622963877
31
0.0000000000
11
9.0591497489
21
20.7605506529
31
0.0000000000
11
8.9453317485
21
20.7497047912
31
0.0000000000
0
SPLINE
5
355
100
AcDbEntity
8
0
100
AcDbSpline
62
7
6
CONTINUOUS
70
0
71
3
72
9
73
5
74
3
42
0.0000001000
43
0.0000001000
44
0.0000000001
12
-0.0241207860
22
0.0049542359
32
0.0000000000
13
-0.0220849478
23
0.0110448753
33
0.0000000000
40
0.0000000000
40
0.0000000000
40
0.0000000000
40
0.0000000000
40
0.9288596728
40
1.0000000000
40
1.0000000000
40
1.0000000000
40
1.0000000000
10
4.3862444386
20
-23.3702298805
30
0.0000000000
10
4.3787761635
20
-23.3686959505
30
0.0000000000
10
4.3708922943
20
-23.3660866598
30
0.0000000000
10
4.3634950054
20
-23.3624752803
30
0.0000000000
10
4.3629712953
20
-23.3622133683
30
0.0000000000
11
4.3862444386
21
-23.3702298805
31
0.0000000000
11
4.3645499591
21
-23.3629840382
31
0.0000000000
11
4.3629712953
21
-23.3622133683
31
0.0000000000
0
SPLINE
5
356
100
AcDbEntity
8
0
100
AcDbSpline
62
7
6
CONTINUOUS
70
0
71
3
72
17
73
13
74
11
42
0.0000001000
43
0.0000001000
44
0.0000000001
12
-0.3281832376
22
-0.1645182454
32
0.0000000000
13
-0.0000000000
23
-0.3671110057
33
0.0000000000
40
0.0000000000
40
0.0000000000
40
0.0000000000
40
0.0000000000
40
0.0877988990
40
0.1818695997
40
0.2805570128
40
0.3837432653
40
0.4891441471
40
0.5955191608
40
0.7015876633
40
0.8048773159
40
0.9050482431
40
1.0000000000
40
1.0000000000
40
1.0000000000
40
1.0000000000
10
2.6970895285
20
17.0875212904
30
0.0000000000
10
2.6874848195
20
17.0827064501
30
0.0000000000
10
2.6683543735
20
17.0711610754
30
0.0000000000
10
2.6414719950
20
17.0496779209
30
0.0000000000
10
2.6159383132
20
17.0238905049
30
0.0000000000
10
2.5924177903
20
16.9944696434
30
0.0000000000
10
2.5714311359
20
16.9620695008
30
0.0000000000
10
2.5534934903
20
16.9274909538
30
0.0000000000
10
2.5390515040
20
16.8915898393
30
0.0000000000
10
2.5284253620
20
16.8551655813
30
0.0000000000
10
2.5218907631
20
16.8191700609
30
0.0000000000
10
2.5203187991
20
16.7952749905
30
0.0000000000
10
2.5203187991
20
16.7836557122
30
0.0000000000
11
2.6970895285
21
17.0875212904
31
0.0000000000
11
2.6694112353
21
17.0710043240
31
0.0000000000
11
2.6423522932
21
17.0495465116
31
0.0000000000
11
2.6167960278
21
17.0238670490
31
0.0000000000
11
2.5930933393
21
16.9943181362
31
0.0000000000
11
2.5720309592
21
16.9618591138
31
0.0000000000
11
2.5540458104
21
16.9271957433
31
0.0000000000
11
2.5395376073
21
16.8910605650
31
0.0000000000
11
2.5289701937
21
16.8546440473
31
0.0000000000
11
2.5224882807
21
16.8184459696
31
0.0000000000
11
2.5203187991
21
16.7836557122
31
0.0000000000
0
SPLINE
5
357
100
AcDbEntity
8
0
100
AcDbSpline
62
7
6
CONTINUOUS
70
0
71
3
72
13
73
9
74
7
42
0.0000001000
43
0.0000001000
44
0.0000000001
12
0.0000000000
22
-0.1580771600
32
0.0000000000
13
0.1417682681
23
-0.0708992473
33
0.0000000000
40
0.0000000000
40
0.0000000000
40
0.0000000000
40
0.0000000000
40
0.1982397194
40
0.3834113548
40
0.5546239440
40
0.7146143823
40
0.8649759067
40
1.0000000000
40
1.0000000000
40
1.0000000000
40
1.0000000000
10
2.5203187991
20
16.4436817780
30
0.0000000000
10
2.5203187991
20
16.4332360541
30
0.0000000000
10
2.5215145364
20
16.4130022062
30
0.0000000000
10
2.5272903675
20
16.3842465828
30
0.0000000000
10
2.5369104704
20
16.3586483243
30
0.0000000000
10
2.5502089936
20
16.3368345565
30
0.0000000000
10
2.5665854722
20
16.3197385534
30
0.0000000000
10
2.5792951437
20
16.3114625806
30
0.0000000000
10
2.5856758543
20
16.3082715451
30
0.0000000000
11
2.5203187991
21
16.4436817780
31
0.0000000000
11
2.5223030448
21
16.4124074897
31
0.0000000000
11
2.5282262284
21
16.3837416369
31
0.0000000000
11
2.5379147888
21
16.3584704045
31
0.0000000000
11
2.5512299566
21
16.3369684837
31
0.0000000000
11
2.5677645883
21
16.3198934102
31
0.0000000000
11
2.5856758543
21
16.3082715451
31
0.0000000000
0
SPLINE
5
358
100
AcDbEntity
8
0
100
AcDbSpline
62
7
6
CONTINUOUS
70
0
71
3
72
17
73
13
74
11
42
0.0000001000
43
0.0000001000
44
0.0000000001
12
-0.3281832376
22
-0.1645182454
32
0.0000000000
13
-0.0000000000
23
-0.3671110057
33
0.0000000000
40
0.0000000000
40
0.0000000000
40
0.0000000000
40
0.0000000000
40
0.0877988990
40
0.1818695997
40
0.2805570128
40
0.3837432653
40
0.4891441471
40
0.5955191608
40
0.7015876633
40
0.8048773159
40
0.9050482431
40
1.0000000000
40
1.0000000000
40
1.0000000000
40
1.0000000000
10
-10.6672286359
20
23.7696803726
30
0.0000000000
10
-10.6768333449
20
23.7648655324
30
0.0000000000
10
-10.6959637909
20
23.7533201576
30
0.0000000000
10
-10.7228461695
20
23.7318370031
30
0.0000000000
10
-10.7483798512
20
23.7060495871
30
0.0000000000
10
-10.7719003742
20
23.6766287256
30
0.0000000000
10
-10.7928870285
20
23.6442285830
30
0.0000000000
10
-10.8108246741
20
23.6096500360
30
0.0000000000
10
-10.8252666604
20
23.5737489215
30
0.0000000000
10
-10.8358928024
20
23.5373246635
30
0.0000000000
10
-10.8424274013
20
23.5013291431
30
0.0000000000
10
-10.8439993654
20
23.4774340727
30
0.0000000000
10
-10.8439993654
20
23.4658147944
30
0.0000000000
11
-10.6672286359
21
23.7696803726
31
0.0000000000
11
-10.6949069291
21
23.7531634062
31
0.0000000000
11
-10.7219658713
21
23.7317055938
31
0.0000000000
11
-10.7475221366
21
23.7060261312
31
0.0000000000
11
-10.7712248251
21
23.6764772184
31
0.0000000000
11
-10.7922872053
21
23.6440181960
31
0.0000000000
11
-10.8102723541
21
23.6093548255
31
0.0000000000
11
-10.8247805572
21
23.5732196472
31
0.0000000000
11
-10.8353479708
21
23.5368031295
31
0.0000000000
11
-10.8418298837
21
23.5006050518
31
0.0000000000
11
-10.8439993654
21
23.4658147944
31
0.0000000000
0
SPLINE
5
359
100
AcDbEntity
8
0
100
AcDbSpline
62
7
6
CONTINUOUS
70
0
71
3
72
13
73
9
74
7
42
0.0000001000
43
0.0000001000
44
0.0000000001
12
0.0000000000
22
-0.1580771600
32
0.0000000000
13
0.1417682681
23
-0.0708992473
33
0.0000000000
40
0.0000000000
40
0.0000000000
40
0.0000000000
40
0.0000000000
40
0.1982397194
40
0.3834113548
40
0.5546239440
40
0.7146143823
40
0.8649759067
40
1.0000000000
40
1.0000000000
40
1.0000000000
40
1.0000000000
10
-10.8439993654
20
23.1258408603
30
0.0000000000
10
-10.8439993654
20
23.1153951363
30
0.0000000000
10
-10.8428036280
20
23.0951612885
30
0.0000000000
10
-10.8370277969
20
23.0664056650
30
0.0000000000
10
-10.8274076940
20
23.0408074065
30
0.0000000000
10
-10.8141091708
20
23.0189936387
30
0.0000000000
10
-10.7977326923
20
23.0018976356
30
0.0000000000
10
-10.7850230207
20
22.9936216628
30
0.0000000000
10
-10.7786423101
20
22.9904306273
30
0.0000000000
11
-10.8439993654
21
23.1258408603
31
0.0000000000
11
-10.8420151196
21
23.0945665720
31
0.0000000000
11
-10.8360919360
21
23.0659007191
31
0.0000000000
11
-10.8264033756
21
23.0406294867
31
0.0000000000
11
-10.8130882079
21
23.0191275659
31
0.0000000000
11
-10.7965535761
21
23.0020524924
31
0.0000000000
11
-10.7786423101
21
22.9904306273
31
0.0000000000
0
SPLINE
5
35A
100
AcDbEntity
8
0
100
AcDbSpline
62
7
6
CONTINUOUS
70
0
71
3
72
13
73
9
74
7
42
0.0000001000
43
0.0000001000
44
0.0000000001
12
0.0000000000
22
-0.1580496594
32
0.0000000000
13
0.1417254613
23
-0.0709202235
33
0.0000000000
40
0.0000000000
40
0.0000000000
40
0.0000000000
40
0.0000000000
40
0.2070101272
40
0.3999125266
40
0.5773183208
40
0.7429756756
40
0.8990662596
40
1.0000000000
40
1.0000000000
40
1.0000000000
40
1.0000000000
10
2.5203187991
20
-25.1958962955
30
0.0000000000
10
2.5203187991
20
-25.2068022555
30
0.0000000000
10
2.5216201581
20
-25.2279067002
30
0.0000000000
10
2.5279285966
20
-25.2577858857
30
0.0000000000
10
2.5384375201
20
-25.2841669255
30
0.0000000000
10
2.5529567943
20
-25.3063391328
30
0.0000000000
10
2.5692694756
20
-25.3218208862
30
0.0000000000
10
2.5809046694
20
-25.3289157498
30
0.0000000000
10
2.5856729630
20
-25.3313018310
30
0.0000000000
11
2.5203187991
21
-25.1958962955
31
0.0000000000
11
2.5224882807
21
-25.2285421685
31
0.0000000000
11
2.5289701937
21
-25.2583333185
31
0.0000000000
11
2.5395376073
21
-25.2843046701
31
0.0000000000
11
2.5540458104
21
-25.3060994815
31
0.0000000000
11
2.5720309592
21
-25.3229857618
31
0.0000000000
11
2.5856729630
21
-25.3313018310
31
0.0000000000
0
SPLINE
5
35B
100
AcDbEntity
8
0
100
AcDbSpline
62
7
6
CONTINUOUS
70
0
71
3
72
14
73
10
74
8
42
0.0000001000
43
0.0000001000
44
0.0000000001
12
-0.1618915143
22
-0.1938217939
32
0.0000000000
13
-0.0000000000
23
-0.2525386112
33
0.0000000000
40
0.0000000000
40
0.0000000000
40
0.0000000000
40
0.0000000000
40
0.1442287221
40
0.2915661604
40
0.4392076970
40
0.5862445358
40
0.7294680978
40
0.8681597286
40
1.0000000000
40
1.0000000000
40
1.0000000000
40
1.0000000000
10
2.6092213751
20
-24.6244853017
30
0.0000000000
10
2.6014382397
20
-24.6338035249
30
0.0000000000
10
2.5866454067
20
-24.6534456267
30
0.0000000000
10
2.5672533895
20
-24.6849830268
30
0.0000000000
10
2.5507271264
20
-24.7183790844
30
0.0000000000
10
2.5374651746
20
-24.7528301953
30
0.0000000000
10
2.5277286623
20
-24.7876619306
30
0.0000000000
10
2.5217513600
20
-24.8220349215
30
0.0000000000
10
2.5203187991
20
-24.8448241083
30
0.0000000000
10
2.5203187991
20
-24.8559223613
30
0.0000000000
11
2.6092213751
21
-24.6244853017
31
0.0000000000
11
2.5872728325
21
-24.6535528059
31
0.0000000000
11
2.5677645883
21
-24.6852370741
31
0.0000000000
11
2.5512299566
21
-24.7186555008
31
0.0000000000
11
2.5379147888
21
-24.7533185547
31
0.0000000000
11
2.5282262284
21
-24.7881662669
31
0.0000000000
11
2.5223030448
21
-24.8226867818
31
0.0000000000
11
2.5203187991
21
-24.8559223613
31
0.0000000000
0
SPLINE
5
35C
100
AcDbEntity
8
0
100
AcDbSpline
62
7
6
CONTINUOUS
70
0
71
3
72
15
73
11
74
9
42
0.0000001000
43
0.0000001000
44
0.0000000001
12
0.0627631636
22
-0.5850015930
32
0.0000000000
13
-0.5352556215
23
-0.2471302028
33
0.0000000000
40
0.0000000000
40
0.0000000000
40
0.0000000000
40
0.0000000000
40
0.1659352099
40
0.3204718358
40
0.4633438016
40
0.5955774700
40
0.7183321631
40
0.8346015069
40
0.9472409223
40
1.0000000000
40
1.0000000000
40
1.0000000000
40
1.0000000000
10
1.6917045390
20
-18.2534542173
30
0.0000000000
10
1.6951760785
20
-18.2858116713
30
0.0000000000
10
1.6989550664
20
-18.3486793948
30
0.0000000000
10
1.6943483723
20
-18.4396401097
30
0.0000000000
10
1.6793124679
20
-18.5228231263
30
0.0000000000
10
1.6540012038
20
-18.5969929038
30
0.0000000000
10
1.6186354158
20
-18.6611254161
30
0.0000000000
10
1.5736544314
20
-18.7140807014
30
0.0000000000
10
1.5292310659
20
-18.7476824783
30
0.0000000000
10
1.5004135526
20
-18.7628012787
30
0.0000000000
10
1.4910003550
20
-18.7671473992
30
0.0000000000
11
1.6917045390
21
-18.2534542173
31
0.0000000000
11
1.6972221031
21
-18.3509276201
31
0.0000000000
11
1.6922205872
21
-18.4417129374
31
0.0000000000
11
1.6768164500
21
-18.5243494459
31
0.0000000000
11
1.6512283990
21
-18.5978220445
31
0.0000000000
11
1.6159592960
21
-18.6608487710
31
0.0000000000
11
1.5714298759
21
-18.7127794724
31
0.0000000000
11
1.5185201261
21
-18.7526867178
31
0.0000000000
11
1.4910003550
21
-18.7671473992
31
0.0000000000
0
ENDSEC
0
SECTION
2
OBJECTS
0
DICTIONARY
5
35D
100
AcDbDictionary
3
ACAD_GROUP
350
35E
3
ACAD_MLINESTYLE
350
35F
0
DICTIONARY
5
35E
102
{ACAD_REACTORS
330
35D
102
}
100
AcDbDictionary
0
DICTIONARY
5
35F
102
{ACAD_REACTORS
330
35D
102
}
100
AcDbDictionary
3
STANDARD
350
360
0
MLINESTYLE
5
360
102
{ACAD_REACTORS
330
35F
102
}
100
AcDbMlineStyle
2
STANDARD
70
0
3

62
256
51
90.0
52
90.0
71
2
49
0.5
62
256
6
BYLAYER
49
-0.5
62
256
6
BYLAYER
0
ENDSEC
0
EOF
