0
SECTION
2
HEADER
9
$ACADVER
1
AC1015
9
$DWGCODEPAGE
3
ANSI_1252
9
$EXTMAX
10
431.8000000000
20
558.8000000000
30
0.0000000000
9
$EXTMIN
10
0.0000000000
20
0.0000000000
30
0.0000000000
9
$LIMMIN
10
0.0000000000
20
0.0000000000
9
$LIMMAX
10
431.8000000000
20
558.8000000000
9
$VIEWCTR
10
215.9000000000
20
279.4000000000
9
$VIEWSIZE
40
558.8000000000
9
$CLAYER
8
0
9
$LTSCALE
40
36.4254814815
9
$CELTYPE
6
BYLAYER
9
$DIMSCALE
40
1
9
$DIMASZ
40
3.0000000000
9
$DIMEXO
40
4.1392592593
9
$DIMDLI
40
25.1666962963
9
$DIMEXE
40
11.9210666667
9
$DIMCEN
40
5.9605333333
9
$DIMLFAC
40
1.0000000000
9
$DIMBLK
1
_FILLED
9
$DIMTXT
40
3.0000000000
9
$DIMTOL
70
1
9
$DIMLIM
70
0
9
$DIMTFAC
40
1.0000000000
9
$DIMTP
40
0.0100000000
9
$DIMTM
40
0.0100000000
9
$PDMODE
70
3
9
$PDSIZE
40
3.0000000000
9
$HANDSEED
5
37D
9
$MEASUREMENT
70
1
9
$INSUNITS
70
4
0
ENDSEC
0
SECTION
2
CLASSES
0
CLASS
1
ACDBDICTIONARYWDFLT
2
AcDbDictionaryWithDefault
3
AutoCAD 2000
90
0
280
0
281
0
0
CLASS
1
ACDBPLACEHOLDER
2
AcDbPlaceHolder
3
AutoCAD 2000
90
0
280
0
281
0
0
CLASS
1
LAYOUT
2
AcDbLayout
3
AutoCAD 2000
90
0
280
0
281
0
0
ENDSEC
0
SECTION
2
TABLES
0
TABLE
2
VPORT
5
8
100
AcDbSymbolTable
70
2
0
VPORT
5
1F4
100
AcDbSymbolTableRecord
100
AcDbViewportTableRecord
2
*ACTIVE
70
0
10
0.0
20
0.0
11
1.0
21
1.0
12
215.9000000000
22
279.4000000000
13
0.0
23
0.0
14
1.0
24
1.0
15
0.0
25
0.0
16
0.0
26
0.0
36
1.0
17
0.0
27
0.0
37
0.0
40
558.8000000000
41
0.7727272727
42
50.0
43
0.0
44
0.0
50
0.0
51
0.0
71
0
72
100
73
1
74
1
75
0
76
0
77
0
78
0
0
ENDTAB
0
TABLE
2
LTYPE
5
5
100
AcDbSymbolTable
70
6
0
LTYPE
5
14
100
AcDbSymbolTableRecord
100
AcDbLinetypeTableRecord
2
BYBLOCK
70
0
3

72
65
73
0
40
0.0
0
LTYPE
5
15
100
AcDbSymbolTableRecord
100
AcDbLinetypeTableRecord
2
BYLAYER
70
0
3

72
65
73
0
40
0.0
0
LTYPE
5
16
100
AcDbSymbolTableRecord
100
AcDbLinetypeTableRecord
2
CONTINUOUS
70
64
3
Solid line
72
65
73
0
40
0
0
LTYPE
5
1F5
100
AcDbSymbolTableRecord
100
AcDbLinetypeTableRecord
2
CENTER
70
64
3
____ _ ____ _ ____ _ ____ _ ____ _ ____ _ ____
72
65
73
4
40
0.6
49
0.375
74
0
49
-0.075
74
0
49
0.075
74
0
49
-0.075
74
0
0
LTYPE
5
1F6
100
AcDbSymbolTableRecord
100
AcDbLinetypeTableRecord
2
HIDDEN
70
64
3
- - - - - - - - - - - - - - - - - - - -
72
65
73
2
40
0.2
49
0.1
74
0
49
-0.1
74
0
0
LTYPE
5
1F7
100
AcDbSymbolTableRecord
100
AcDbLinetypeTableRecord
2
PHANTOM
70
64
3
_____ _ _ _____ _ _ _____ _ _ _____
72
65
73
6
40
0.8
49
0.45
74
0
49
-0.05
74
0
49
0.1
74
0
49
-0.05
74
0
49
0.1
74
0
49
-0.05
74
0
0
LTYPE
5
1F8
100
AcDbSymbolTableRecord
100
AcDbLinetypeTableRecord
2
DOT
70
64
3
. . . . . . . . . . . . . . . . . . . .
72
65
73
2
40
0.2
49
0.1
74
0
49
-0.1
74
0
0
LTYPE
5
1F9
100
AcDbSymbolTableRecord
100
AcDbLinetypeTableRecord
2
DASHED
70
64
3
- - - - - - - - - - - - - - - - - - - -
72
65
73
2
40
0.2
49
0.1
74
0
49
-0.1
74
0
0
ENDTAB
0
TABLE
2
LAYER
5
2
100
AcDbSymbolTable
70
36
0
LAYER
5
10
100
AcDbSymbolTableRecord
100
AcDbLayerTableRecord
2
0
70
0
62
7
6
CONTINUOUS
370
-3
390
F
0
LAYER
5
1FA
100
AcDbSymbolTableRecord
100
AcDbLayerTableRecord
2
DEFAULT_1
70
0
62
7
6
CENTER
370
-3
390
F
0
LAYER
5
1FB
100
AcDbSymbolTableRecord
100
AcDbLayerTableRecord
2
DEFAULT_2
70
0
62
9
6
HIDDEN
370
-3
390
F
0
LAYER
5
1FC
100
AcDbSymbolTableRecord
100
AcDbLayerTableRecord
2
DEFAULT_3
70
0
62
7
6
PHANTOM
370
-3
390
F
0
LAYER
5
1FD
100
AcDbSymbolTableRecord
100
AcDbLayerTableRecord
2
_BLACK_HOLE
70
0
62
7
6
CONTINUOUS
370
-3
390
F
0
LAYER
5
1FE
100
AcDbSymbolTableRecord
100
AcDbLayerTableRecord
2
218_INCISO
70
0
62
7
6
CONTINUOUS
370
-3
390
F
0
LAYER
5
1FF
100
AcDbSymbolTableRecord
100
AcDbLayerTableRecord
2
218_STAMPATO
70
0
62
7
6
CONTINUOUS
370
-3
390
F
0
LAYER
5
200
100
AcDbSymbolTableRecord
100
AcDbLayerTableRecord
2
260
70
0
62
7
6
CONTINUOUS
370
-3
390
F
0
LAYER
5
201
100
AcDbSymbolTableRecord
100
AcDbLayerTableRecord
2
268
70
0
62
7
6
CONTINUOUS
370
-3
390
F
0
LAYER
5
202
100
AcDbSymbolTableRecord
100
AcDbLayerTableRecord
2
284
70
0
62
7
6
CONTINUOUS
370
-3
390
F
0
LAYER
5
203
100
AcDbSymbolTableRecord
100
AcDbLayerTableRecord
2
320
70
0
62
7
6
CONTINUOUS
370
-3
390
F
0
LAYER
5
204
100
AcDbSymbolTableRecord
100
AcDbLayerTableRecord
2
340
70
0
62
7
6
CONTINUOUS
370
-3
390
F
0
LAYER
5
205
100
AcDbSymbolTableRecord
100
AcDbLayerTableRecord
2
712
70
0
62
7
6
CONTINUOUS
370
-3
390
F
0
LAYER
5
206
100
AcDbSymbolTableRecord
100
AcDbLayerTableRecord
2
715
70
0
62
7
6
CONTINUOUS
370
-3
390
F
0
LAYER
5
207
100
AcDbSymbolTableRecord
100
AcDbLayerTableRecord
2
ASSI
70
0
62
7
6
CONTINUOUS
370
-3
390
F
0
LAYER
5
208
100
AcDbSymbolTableRecord
100
AcDbLayerTableRecord
2
COLORE_TOP
70
0
62
7
6
CONTINUOUS
370
-3
390
F
0
LAYER
5
209
100
AcDbSymbolTableRecord
100
AcDbLayerTableRecord
2
COORDINATE
70
0
62
7
6
CONTINUOUS
370
-3
390
F
0
LAYER
5
20A
100
AcDbSymbolTableRecord
100
AcDbLayerTableRecord
2
COORD_ORIGINE
70
0
62
7
6
CONTINUOUS
370
-3
390
F
0
LAYER
5
20B
100
AcDbSymbolTableRecord
100
AcDbLayerTableRecord
2
COPY-PUBBLISH
70
0
62
7
6
CONTINUOUS
370
-3
390
F
0
LAYER
5
20C
100
AcDbSymbolTableRecord
100
AcDbLayerTableRecord
2
COSMETICHE
70
0
62
7
6
CONTINUOUS
370
-3
390
F
0
LAYER
5
20D
100
AcDbSymbolTableRecord
100
AcDbLayerTableRecord
2
COSMETICI
70
0
62
7
6
CONTINUOUS
370
-3
390
F
0
LAYER
5
20E
100
AcDbSymbolTableRecord
100
AcDbLayerTableRecord
2
CURVE
70
0
62
7
6
CONTINUOUS
370
-3
390
F
0
LAYER
5
20F
100
AcDbSymbolTableRecord
100
AcDbLayerTableRecord
2
DRAFT
70
0
62
7
6
CONTINUOUS
370
-3
390
F
0
LAYER
5
210
100
AcDbSymbolTableRecord
100
AcDbLayerTableRecord
2
IGES_SCRITTE
70
0
62
7
6
CONTINUOUS
370
-3
390
F
0
LAYER
5
211
100
AcDbSymbolTableRecord
100
AcDbLayerTableRecord
2
IMPORT
70
0
62
7
6
CONTINUOUS
370
-3
390
F
0
LAYER
5
212
100
AcDbSymbolTableRecord
100
AcDbLayerTableRecord
2
INCISIONI_LASER
70
0
62
7
6
CONTINUOUS
370
-3
390
F
0
LAYER
5
213
100
AcDbSymbolTableRecord
100
AcDbLayerTableRecord
2
NOTE
70
0
62
7
6
CONTINUOUS
370
-3
390
F
0
LAYER
5
214
100
AcDbSymbolTableRecord
100
AcDbLayerTableRecord
2
PIANI
70
0
62
7
6
CONTINUOUS
370
-3
390
F
0
LAYER
5
215
100
AcDbSymbolTableRecord
100
AcDbLayerTableRecord
2
PIANI_DI_RIFERIMENTO
70
0
62
7
6
CONTINUOUS
370
-3
390
F
0
LAYER
5
216
100
AcDbSymbolTableRecord
100
AcDbLayerTableRecord
2
PIANI_ORIGINE
70
0
62
7
6
CONTINUOUS
370
-3
390
F
0
LAYER
5
217
100
AcDbSymbolTableRecord
100
AcDbLayerTableRecord
2
PIANI_RIFERIMENTO
70
0
62
7
6
CONTINUOUS
370
-3
390
F
0
LAYER
5
218
100
AcDbSymbolTableRecord
100
AcDbLayerTableRecord
2
PIANI_SFORMO
70
0
62
7
6
CONTINUOUS
370
-3
390
F
0
LAYER
5
219
100
AcDbSymbolTableRecord
100
AcDbLayerTableRecord
2
PUNTI
70
0
62
7
6
CONTINUOUS
370
-3
390
F
0
LAYER
5
21A
100
AcDbSymbolTableRecord
100
AcDbLayerTableRecord
2
RACCORDO
70
0
62
7
6
CONTINUOUS
370
-3
390
F
0
LAYER
5
21B
100
AcDbSymbolTableRecord
100
AcDbLayerTableRecord
2
SMUSSO
70
0
62
7
6
CONTINUOUS
370
-3
390
F
0
LAYER
5
21C
100
AcDbSymbolTableRecord
100
AcDbLayerTableRecord
2
SUPERFICI
70
0
62
7
6
CONTINUOUS
370
-3
390
F
0
LAYER
5
21D
100
AcDbSymbolTableRecord
100
AcDbLayerTableRecord
2
TRASH
70
0
62
7
6
CONTINUOUS
370
-3
390
F
0
LAYER
5
21E
100
AcDbSymbolTableRecord
100
AcDbLayerTableRecord
2
XSEC_DATUMS
70
0
62
7
6
CONTINUOUS
370
-3
390
F
0
ENDTAB
0
TABLE
2
STYLE
5
3
100
AcDbSymbolTable
70
1
0
STYLE
5
11
100
AcDbSymbolTableRecord
100
AcDbTextStyleTableRecord
2
STANDARD
70
0
40
0.0
41
0.8000000000
50
0.0
71
0
42
0.2
3
txt
4

0
ENDTAB
0
TABLE
2
VIEW
5
6
100
AcDbSymbolTable
70
0
0
ENDTAB
0
TABLE
2
UCS
5
7
100
AcDbSymbolTable
70
0
0
ENDTAB
0
TABLE
2
APPID
5
9
100
AcDbSymbolTable
70
1
0
APPID
5
21F
100
AcDbSymbolTableRecord
100
AcDbRegAppTableRecord
2
ACAD
70
0
0
ENDTAB
0
TABLE
2
BLOCK_RECORD
5
1
100
AcDbSymbolTable
70
0
0
BLOCK_RECORD
5
1F
100
AcDbSymbolTableRecord
100
AcDbBlockTableRecord
2
*MODEL_SPACE
0
BLOCK_RECORD
5
1B
100
AcDbSymbolTableRecord
100
AcDbBlockTableRecord
2
*PAPER_SPACE
0
ENDTAB
0
TABLE
2
DIMSTYLE
5
A
100
AcDbSymbolTable
70
1
100
AcDbDimStyleTable
71
0
0
DIMSTYLE
105
220
100
AcDbSymbolTableRecord
100
AcDbDimStyleTableRecord
2
STANDARD
70
0
3

4

40
1.0
41
3.0000000000
42
0.0625
43
0.38
44
0.18
45
0.0
46
0.0
47
0.0100000000
48
0.0100000000
140
3.0000000000
141
0.09
142
0.0
143
25.4
144
1.0000000000
145
0.0
146
1.0000000000
147
0.09
71
1
72
0
73
0
74
0
75
0
76
0
77
1
78
8
170
0
171
2
172
0
173
0
174
0
175
0
176
0
177
0
178
0
270
2
271
2
272
2
273
2
274
2
275
0
280
0
281
0
282
0
283
1
284
8
285
0
286
0
287
3
288
0
340
11
0
ENDTAB
0
ENDSEC
0
SECTION
2
BLOCKS
0
BLOCK
5
20
100
AcDbEntity
8
0
100
AcDbBlockBegin
2
*MODEL_SPACE
70
0
10
0.0
20
0.0
30
0.0
3
*MODEL_SPACE
1

0
ENDBLK
5
21
100
AcDbEntity
8
0
100
AcDbBlockEnd
0
BLOCK
5
1C
100
AcDbEntity
8
0
100
AcDbBlockBegin
2
*PAPER_SPACE
70
0
10
0.0
20
0.0
30
0.0
3
*PAPER_SPACE
1

0
ENDBLK
5
1D
100
AcDbEntity
8
0
100
AcDbBlockEnd
0
ENDSEC
0
SECTION
2
ENTITIES
0
LINE
5
221
100
AcDbEntity
8
0
100
AcDbLine
62
0
6
CONTINUOUS
10
-12.4762031692
20
24.4369708968
11
-10.8934465660
21
25.2489549942
0
LINE
5
222
100
AcDbEntity
8
0
100
AcDbLine
62
0
6
CONTINUOUS
10
-12.9248029425
20
22.5899902849
11
-11.9479359975
21
23.0888646936
0
LINE
5
223
100
AcDbEntity
8
0
100
AcDbLine
62
9
6
CONTINUOUS
10
-12.7672795362
20
22.5805569553
11
-11.9479359975
21
22.9989860213
0
LINE
5
224
100
AcDbEntity
8
0
100
AcDbLine
62
0
6
CONTINUOUS
10
-10.7976710820
20
23.5977048533
11
-9.1963902912
21
24.4004268568
0
LINE
5
225
100
AcDbEntity
8
0
100
AcDbLine
62
0
6
CONTINUOUS
10
-9.1963902912
20
24.4004268568
11
-8.6681231195
21
24.6638656768
0
LINE
5
226
100
AcDbEntity
8
0
100
AcDbLine
62
0
6
CONTINUOUS
10
-10.8934465660
20
25.2489549942
11
-10.3589966874
21
25.5093024607
0
LINE
5
227
100
AcDbEntity
8
0
100
AcDbLine
62
0
6
CONTINUOUS
10
-9.1963902912
20
22.5817735088
11
-10.2632212033
21
22.0431922593
0
LWPOLYLINE
5
228
100
AcDbEntity
8
0
100
AcDbPolyline
62
0
6
CONTINUOUS
90
19
70
0
10
-15.9064988206
20
20.1061307095
10
-15.9236911743
20
20.0991421947
10
-16.0163623642
20
20.0564027586
10
-16.1065124671
20
20.0062218539
10
-16.1941398052
20
19.9486501863
10
-16.2788343630
20
19.8840074541
10
-16.3598127485
20
19.8129916064
10
-16.4371022340
20
19.7356930072
10
-16.5105162860
20
19.6523233357
10
-16.5791082227
20
19.5639995939
10
-16.6428476486
20
19.4709050348
10
-16.7015782062
20
19.3732210535
10
-16.7544323006
20
19.2724262092
10
-16.8013485531
20
19.1687889878
10
-16.8421852630
20
19.0624831455
10
-16.8763568318
20
18.9550315647
10
-16.9037089765
20
18.8470536995
10
-16.9242811283
20
18.7383228983
10
-16.9290341400
20
18.7061000319
0
LINE
5
229
100
AcDbEntity
8
0
100
AcDbLine
62
0
6
CONTINUOUS
10
-15.9065032697
20
20.1061418864
11
-11.9935761314
21
21.6627510346
0
LINE
5
22A
100
AcDbEntity
8
0
100
AcDbLine
62
9
6
CONTINUOUS
10
-15.5564119309
20
20.0796058480
11
-11.6474393693
21
21.6346417721
0
LWPOLYLINE
5
22B
100
AcDbEntity
8
0
100
AcDbPolyline
62
0
6
CONTINUOUS
90
12
70
0
10
-5.4001991114
20
-25.7874730707
10
-5.3681019155
20
-25.8028951804
10
-5.2863887188
20
-25.8365071358
10
-5.2016756083
20
-25.8634555683
10
-5.1144044661
20
-25.8834838758
10
-5.0247846036
20
-25.8964112925
10
-4.9333532973
20
-25.9020155298
10
-4.8407082037
20
-25.9001295041
10
-4.7470495717
20
-25.8905977267
10
-4.6527724505
20
-25.8732809589
10
-4.5585567389
20
-25.8481530539
10
-4.5423131365
20
-25.8430158678
0
LINE
5
22C
100
AcDbEntity
8
0
100
AcDbLine
62
0
6
CONTINUOUS
10
-5.3993052245
20
-25.7879351935
11
-19.5345228613
21
-18.7203263751
0
LINE
5
22D
100
AcDbEntity
8
0
100
AcDbLine
62
9
6
CONTINUOUS
10
-5.7919854993
20
-24.9140495538
11
-19.9192565407
21
-17.8504140331
0
LINE
5
22E
100
AcDbEntity
8
0
100
AcDbLine
62
0
6
CONTINUOUS
10
-8.5812714562
20
23.9562655498
11
-9.1085161719
21
23.3145578217
0
LINE
5
22F
100
AcDbEntity
8
0
100
AcDbLine
62
0
6
CONTINUOUS
10
-6.9673511989
20
22.1799449884
11
-6.4740291836
21
22.4330285203
0
LINE
5
230
100
AcDbEntity
8
0
100
AcDbLine
62
0
6
CONTINUOUS
10
-7.7759646537
20
22.5711097821
11
-1.2679280271
21
25.8122513876
0
LINE
5
231
100
AcDbEntity
8
0
100
AcDbLine
62
9
6
CONTINUOUS
10
-7.7004715132
20
22.5333632118
11
-1.3859311866
21
25.6781395163
0
LINE
5
232
100
AcDbEntity
8
0
100
AcDbLine
62
0
6
CONTINUOUS
10
-0.3929108654
20
24.7983959856
11
-5.1305262994
21
22.4633454710
0
LINE
5
233
100
AcDbEntity
8
0
100
AcDbLine
62
0
6
CONTINUOUS
10
-6.4740291836
20
22.4330285203
11
-0.9963891942
21
25.1013604835
0
LINE
5
234
100
AcDbEntity
8
0
100
AcDbLine
62
0
6
CONTINUOUS
10
4.2558019925
20
-23.5422053999
11
4.7830467082
21
-23.6504976718
0
LINE
5
235
100
AcDbEntity
8
0
100
AcDbLine
62
0
6
CONTINUOUS
10
0.7779826915
20
-24.6646567860
11
2.4552294670
21
-25.5032801738
0
LINE
5
236
100
AcDbEntity
8
0
100
AcDbLine
62
9
6
CONTINUOUS
10
0.7133892127
20
-24.5296282447
11
2.3898763530
21
-25.3678718148
0
LWPOLYLINE
5
237
100
AcDbEntity
8
0
100
AcDbPolyline
62
0
6
CONTINUOUS
90
15
70
0
10
-20.1535947603
20
-17.5696680447
10
-20.1547034992
20
-17.6207166831
10
-20.1506980085
20
-17.7402890841
10
-20.1374872547
20
-17.8558844950
10
-20.1152750995
20
-17.9673877821
10
-20.0843004237
20
-18.0742901148
10
-20.0450979821
20
-18.1754631028
10
-19.9984284183
20
-18.2700327454
10
-19.9447119600
20
-18.3580281388
10
-19.8842692522
20
-18.4394211307
10
-19.8179550271
20
-18.5135448372
10
-19.7463500530
20
-18.5802417869
10
-19.6692409915
20
-18.6399046386
10
-19.5869406346
20
-18.6922288627
10
-19.5334674869
20
-18.7208378676
0
LINE
5
238
100
AcDbEntity
8
0
100
AcDbLine
62
0
6
CONTINUOUS
10
-20.1535975143
20
-17.5694869934
11
-20.1536042935
21
-17.5696676905
0
LINE
5
239
100
AcDbEntity
8
0
100
AcDbLine
62
0
6
CONTINUOUS
10
0.9341629630
20
23.3285217520
11
-0.4636215435
21
22.6296294988
0
LINE
5
23A
100
AcDbEntity
8
0
100
AcDbLine
62
0
6
CONTINUOUS
10
-1.5385268781
20
21.9375897432
11
-1.4769772398
21
21.9683645623
0
LINE
5
23B
100
AcDbEntity
8
0
100
AcDbLine
62
9
6
CONTINUOUS
10
-1.4535710372
20
21.9296659466
11
-1.3875345208
21
21.9626842049
0
LINE
5
23C
100
AcDbEntity
8
0
100
AcDbLine
62
0
6
CONTINUOUS
10
-0.8171749341
20
23.3589643834
11
-0.3929108654
21
23.5665618042
0
LINE
5
23D
100
AcDbEntity
8
0
100
AcDbLine
62
0
6
CONTINUOUS
10
1.5931587143
20
24.1885945659
11
-0.4636215435
21
23.1821876881
0
LINE
5
23E
100
AcDbEntity
8
0
100
AcDbLine
62
9
6
CONTINUOUS
10
2.3898763530
20
-25.0278978807
11
0.7133892127
21
-24.1896543106
0
LINE
5
23F
100
AcDbEntity
8
0
100
AcDbLine
62
9
6
CONTINUOUS
10
2.4787789290
20
-24.7964608211
11
0.8012633320
21
-23.9577030226
0
LINE
5
240
100
AcDbEntity
8
0
100
AcDbLine
62
0
6
CONTINUOUS
10
-0.0641497971
20
-22.5311575577
11
2.5062269374
21
-23.8163459250
0
LINE
5
241
100
AcDbEntity
8
0
100
AcDbLine
62
0
6
CONTINUOUS
10
3.1010969611
20
-24.0514014036
11
2.6597606014
21
-23.8307332237
0
LINE
5
242
100
AcDbEntity
8
0
100
AcDbLine
62
0
6
CONTINUOUS
10
-0.0362747902
20
-22.2175791227
11
2.7537143109
21
-23.6125736732
0
LWPOLYLINE
5
243
100
AcDbEntity
8
0
100
AcDbPolyline
62
0
6
CONTINUOUS
90
13
70
0
10
-16.9290285288
20
18.7061839655
10
-17.3329148110
20
15.6894419418
10
-17.7202269501
20
12.6125075042
10
-18.0815337851
20
9.5437893937
10
-18.4167808940
20
6.4837200768
10
-18.7259277565
20
3.4326796138
10
-19.0089377361
20
0.3910276218
10
-19.2657737792
20
-2.6408620390
10
-19.4964040461
20
-5.6626173392
10
-19.7007989095
20
-8.6738812340
10
-19.8789291086
20
-11.6742781789
10
-20.0307706022
20
-14.6633873559
10
-20.1535975143
20
-17.5694869934
0
LINE
5
244
100
AcDbEntity
8
0
100
AcDbLine
62
0
6
CONTINUOUS
10
-1.5502377349
20
21.9298413683
11
-2.4802625537
21
21.1382135981
0
LINE
5
245
100
AcDbEntity
8
0
100
AcDbLine
62
9
6
CONTINUOUS
10
-1.4535710372
20
21.9296659466
11
-2.4192369792
21
21.1077008109
0
LINE
5
246
100
AcDbEntity
8
0
100
AcDbLine
62
0
6
CONTINUOUS
10
-0.7505852420
20
19.0715620100
11
-0.2514895092
21
19.3217586831
0
LINE
5
247
100
AcDbEntity
8
0
100
AcDbLine
62
0
6
CONTINUOUS
10
-0.2514895092
20
19.3217586831
11
5.1627831860
21
22.0217742935
0
LINE
5
248
100
AcDbEntity
8
0
100
AcDbLine
62
0
6
CONTINUOUS
10
4.5568366029
20
22.3235222514
11
-0.1807788311
21
19.9884717368
0
LINE
5
249
100
AcDbEntity
8
0
100
AcDbLine
62
0
6
CONTINUOUS
10
5.8357994014
20
22.0672742223
11
5.2494206144
21
21.7803521547
0
LINE
5
24A
100
AcDbEntity
8
0
100
AcDbLine
62
0
6
CONTINUOUS
10
12.1156296376
20
24.7325289018
11
6.3357301885
21
22.0631797969
0
LINE
5
24B
100
AcDbEntity
8
0
100
AcDbLine
62
9
6
CONTINUOUS
10
4.2558019925
20
-23.5422053999
11
4.2123796666
21
-23.5204942369
0
LINE
5
24C
100
AcDbEntity
8
0
100
AcDbLine
62
0
6
CONTINUOUS
10
0.0433423584
20
-21.3219301674
11
3.5668871092
21
-23.0837025428
0
LINE
5
24D
100
AcDbEntity
8
0
100
AcDbLine
62
9
6
CONTINUOUS
10
4.1679278732
20
-23.3429382543
11
4.7830467082
21
-23.6504976718
0
LINE
5
24E
100
AcDbEntity
8
0
100
AcDbLine
62
0
6
CONTINUOUS
10
4.1679278732
20
-23.3393181048
11
4.7844947680
21
-23.6476015522
0
LINE
5
24F
100
AcDbEntity
8
0
100
AcDbLine
62
0
6
CONTINUOUS
10
0.1837666123
20
-19.7422348568
11
3.5668871092
21
-21.4337951052
0
LWPOLYLINE
5
250
100
AcDbEntity
8
0
100
AcDbPolyline
62
0
6
CONTINUOUS
90
32
70
0
10
-12.4691279469
20
-13.9490070751
10
-12.4520837368
20
-13.9577612837
10
-12.3809281419
20
-13.9992432665
10
-12.3104867812
20
-14.0483547140
10
-12.2414310848
20
-14.1046850061
10
-12.1743128618
20
-14.1677644650
10
-12.1095967893
20
-14.2371828727
10
-12.0478041412
20
-14.3124004734
10
-11.9894211970
20
-14.3927989815
10
-11.9348264941
20
-14.4778916632
10
-11.8844529852
20
-14.5670372840
10
-11.8386789295
20
-14.6595339775
10
-11.7977968450
20
-14.7548334173
10
-11.7621399922
20
-14.8522125278
10
-11.7319724210
20
-14.9509225156
10
-11.7075032032
20
-15.0503714742
10
-11.6889554494
20
-15.1497845669
10
-11.6764731339
20
-15.2483787007
10
-11.6701723009
20
-15.3455023484
10
-11.6701412467
20
-15.4403669631
10
-11.6763793350
20
-15.5321641162
10
-11.6888598422
20
-15.6201345759
10
-11.7074899699
20
-15.7035288922
10
-11.7320660929
20
-15.7815844969
10
-11.7623067440
20
-15.8534978214
10
-11.7978334626
20
-15.9186065478
10
-11.8382606051
20
-15.9765013192
10
-11.8832567390
20
-16.0268443064
10
-11.9323239484
20
-16.0692745279
10
-11.9851635723
20
-16.1037221904
10
-12.0419467015
20
-16.1302317068
10
-12.0512220069
20
-16.1336627993
0
LINE
5
251
100
AcDbEntity
8
0
100
AcDbLine
62
0
6
CONTINUOUS
10
0.8881149952
20
17.7548118146
11
2.4708715984
21
18.5667959120
0
LINE
5
252
100
AcDbEntity
8
0
100
AcDbLine
62
0
6
CONTINUOUS
10
-0.7505852420
20
17.8573585372
11
-0.2514895092
21
18.1093231178
0
LINE
5
253
100
AcDbEntity
8
0
100
AcDbLine
62
0
6
CONTINUOUS
10
-0.2514895092
20
18.1093231178
11
5.1627831860
21
20.7899357151
0
LINE
5
254
100
AcDbEntity
8
0
100
AcDbLine
62
0
6
CONTINUOUS
10
2.4708715984
20
18.5667959120
11
3.0053214771
21
18.8271433785
0
LINE
5
255
100
AcDbEntity
8
0
100
AcDbLine
62
9
6
CONTINUOUS
10
12.5472490626
20
24.6967351955
11
6.5801903247
21
21.9409497288
0
LWPOLYLINE
5
256
100
AcDbEntity
8
0
100
AcDbPolyline
62
0
6
CONTINUOUS
90
4
70
0
10
-12.6023607489
20
-13.8963347444
10
-12.5414560074
20
-13.9169444089
10
-12.4802974890
20
-13.9435168589
10
-12.4691987484
20
-13.9489656543
0
LINE
5
257
100
AcDbEntity
8
0
100
AcDbLine
62
0
6
CONTINUOUS
10
-13.0147669096
20
22.4011802088
11
-13.0147669096
21
22.3767847035
0
LINE
5
258
100
AcDbEntity
8
0
100
AcDbLine
62
9
6
CONTINUOUS
10
4.7362503197
20
17.2171507443
11
10.0049801474
21
20.0597513599
0
LINE
5
259
100
AcDbEntity
8
0
100
AcDbLine
62
9
6
CONTINUOUS
10
4.2407157142
20
16.6127138329
11
9.9208285798
21
19.5536783619
0
LINE
5
25A
100
AcDbEntity
8
0
100
AcDbLine
62
0
6
CONTINUOUS
10
2.5666470824
20
16.9155457710
11
4.1679278732
21
17.7182677745
0
LINE
5
25B
100
AcDbEntity
8
0
100
AcDbLine
62
0
6
CONTINUOUS
10
4.1679278732
20
17.7182677745
11
4.6961950450
21
17.9817065946
0
LINE
5
25C
100
AcDbEntity
8
0
100
AcDbLine
62
9
6
CONTINUOUS
10
4.1313524228
20
18.3261052765
11
8.8148893024
21
20.5777292718
0
LINE
5
25D
100
AcDbEntity
8
0
100
AcDbLine
62
9
6
CONTINUOUS
10
4.3589679227
20
18.2122975266
11
9.2567301703
21
20.5669109915
0
LINE
5
25E
100
AcDbEntity
8
0
100
AcDbLine
62
0
6
CONTINUOUS
10
-12.6509289517
20
23.7921089110
11
-12.6509289517
21
24.1320828452
0
LINE
5
25F
100
AcDbEntity
8
0
100
AcDbLine
62
0
6
CONTINUOUS
10
-12.2015941112
20
21.9701983043
11
-12.2015941112
21
21.5799990003
0
LINE
5
260
100
AcDbEntity
8
0
100
AcDbLine
62
0
6
CONTINUOUS
10
-11.9479359975
20
22.8855496564
11
-11.9479359975
21
23.3378806320
0
LINE
5
261
100
AcDbEntity
8
0
100
AcDbLine
62
0
6
CONTINUOUS
10
-10.9744418114
20
23.2938392750
11
-10.9744418114
21
22.9538653409
0
LINE
5
262
100
AcDbEntity
8
0
100
AcDbLine
62
0
6
CONTINUOUS
10
-6.0246957377
20
18.8817491176
11
-6.0416145483
21
18.8317293616
0
LINE
5
263
100
AcDbEntity
8
0
100
AcDbLine
62
9
6
CONTINUOUS
10
4.3696301665
20
16.7709386181
11
9.9208285798
21
19.7659375160
0
LINE
5
264
100
AcDbEntity
8
0
100
AcDbLine
62
0
6
CONTINUOUS
10
4.3114093899
20
16.5274227602
11
10.0030382922
21
19.4743498918
0
LINE
5
265
100
AcDbEntity
8
0
100
AcDbLine
62
9
6
CONTINUOUS
10
4.2739938904
20
15.8465814180
11
2.5062269374
21
14.9438037185
0
LINE
5
266
100
AcDbEntity
8
0
100
AcDbLine
62
9
6
CONTINUOUS
10
4.5214812638
20
15.4197172981
11
2.7537143109
21
14.5169395986
0
LINE
5
267
100
AcDbEntity
8
0
100
AcDbLine
62
0
6
CONTINUOUS
10
4.1679278732
20
15.8996144266
11
3.1010969611
21
15.3610331771
0
LINE
5
268
100
AcDbEntity
8
0
100
AcDbLine
62
9
6
CONTINUOUS
10
4.9811006716
20
16.1925771194
11
4.2739938904
21
15.8465814180
0
LINE
5
269
100
AcDbEntity
8
0
100
AcDbLine
62
9
6
CONTINUOUS
10
5.2285880450
20
15.7657129995
11
4.5214812638
21
15.4197172981
0
LINE
5
26A
100
AcDbEntity
8
0
100
AcDbLine
62
0
6
CONTINUOUS
10
4.9209656507
20
16.2226446298
11
10.5868302196
21
18.9748331741
0
LINE
5
26B
100
AcDbEntity
8
0
100
AcDbLine
62
0
6
CONTINUOUS
10
19.0737132149
20
21.4335031193
11
11.3395243035
21
17.6766279130
0
LINE
5
26C
100
AcDbEntity
8
0
100
AcDbLine
62
9
6
CONTINUOUS
10
2.6362899240
20
14.4927771255
11
-1.4122018584
21
13.0075008118
0
LINE
5
26D
100
AcDbEntity
8
0
100
AcDbLine
62
9
6
CONTINUOUS
10
3.1378615374
20
13.4897017315
11
-0.9106302449
21
12.0044254178
0
LINE
5
26E
100
AcDbEntity
8
0
100
AcDbLine
62
0
6
CONTINUOUS
10
2.7537143109
20
14.4925440933
11
3.5668871092
21
14.7768457612
0
LINE
5
26F
100
AcDbEntity
8
0
100
AcDbLine
62
0
6
CONTINUOUS
10
-10.2632212033
20
22.0431922593
11
-10.2632212033
21
22.6803618180
0
LINE
5
270
100
AcDbEntity
8
0
100
AcDbLine
62
0
6
CONTINUOUS
10
-9.1963902912
20
22.5817735088
11
-9.1963902912
21
24.4004268568
0
LINE
5
271
100
AcDbEntity
8
0
100
AcDbLine
62
0
6
CONTINUOUS
10
-8.4933973369
20
24.5357483545
11
-8.4933973369
21
24.1882168378
0
LINE
5
272
100
AcDbEntity
8
0
100
AcDbLine
62
9
6
CONTINUOUS
10
19.4166107909
20
20.8420922837
11
5.2285880450
21
13.6238961648
0
LINE
5
273
100
AcDbEntity
8
0
100
AcDbLine
62
0
6
CONTINUOUS
10
-7.0539886273
20
22.0734380465
11
-7.0539886273
21
20.8587046603
0
LINE
5
274
100
AcDbEntity
8
0
100
AcDbLine
62
9
6
CONTINUOUS
10
-6.9661206616
20
21.9669290897
11
-6.9661206616
21
20.7519742236
0
LINE
5
275
100
AcDbEntity
8
0
100
AcDbLine
62
0
6
CONTINUOUS
10
-6.7922272352
20
19.2655148663
11
-6.7922272352
21
19.2070357050
0
LINE
5
276
100
AcDbEntity
8
0
100
AcDbLine
62
0
6
CONTINUOUS
10
4.7830467082
20
17.2741064676
11
4.2558019925
21
16.6323987395
0
LINE
5
277
100
AcDbEntity
8
0
100
AcDbLine
62
9
6
CONTINUOUS
10
19.8307612666
20
19.4104587091
11
5.2285880450
21
11.9815623813
0
LINE
5
278
100
AcDbEntity
8
0
100
AcDbLine
62
0
6
CONTINUOUS
10
1.5070590253
20
-4.8559259627
11
1.8344754953
21
-5.0196341977
0
LINE
5
279
100
AcDbEntity
8
0
100
AcDbLine
62
0
6
CONTINUOUS
10
0.8719523280
20
-12.0005255875
11
1.5612620929
21
-18.4254297366
0
LINE
5
27A
100
AcDbEntity
8
0
100
AcDbLine
62
0
6
CONTINUOUS
10
-1.8424797669
20
16.7906411322
11
-1.8424797669
21
16.7321619709
0
LINE
5
27B
100
AcDbEntity
8
0
100
AcDbLine
62
9
6
CONTINUOUS
10
-1.1736115936
20
17.8557196896
11
-1.1736115936
21
19.0706745557
0
LINE
5
27C
100
AcDbEntity
8
0
100
AcDbLine
62
0
6
CONTINUOUS
10
-0.8171749341
20
22.1096695502
11
-0.8171749341
21
23.3589643834
0
LINE
5
27D
100
AcDbEntity
8
0
100
AcDbLine
62
9
6
CONTINUOUS
10
-0.7505852420
20
17.8573585372
11
-0.7505852420
21
19.0715620100
0
LINE
5
27E
100
AcDbEntity
8
0
100
AcDbLine
62
0
6
CONTINUOUS
10
-0.4636215435
20
22.6296294988
11
-0.4636215435
21
23.1821876881
0
LINE
5
27F
100
AcDbEntity
8
0
100
AcDbLine
62
9
6
CONTINUOUS
10
-0.3929108654
20
24.7983959856
11
-0.3929108654
21
23.5665618042
0
LINE
5
280
100
AcDbEntity
8
0
100
AcDbLine
62
0
6
CONTINUOUS
10
-0.3050428998
20
24.9033931996
11
-0.3050428998
21
23.6710245947
0
LINE
5
281
100
AcDbEntity
8
0
100
AcDbLine
62
0
6
CONTINUOUS
10
-0.2514895092
20
19.3217586831
11
-0.2514895092
21
18.1093231178
0
LINE
5
282
100
AcDbEntity
8
0
100
AcDbLine
62
0
6
CONTINUOUS
10
1.2199248505
20
-8.0860268672
11
1.2611190843
21
-8.4731333113
0
LINE
5
283
100
AcDbEntity
8
0
100
AcDbLine
62
0
6
CONTINUOUS
10
1.8344754953
20
-5.0196341977
11
3.5668871092
21
-21.4337951052
0
LINE
5
284
100
AcDbEntity
8
0
100
AcDbLine
62
0
6
CONTINUOUS
10
0.7133892127
20
-24.5296282447
11
0.7133892127
21
-24.1896543106
0
LINE
5
285
100
AcDbEntity
8
0
100
AcDbLine
62
0
6
CONTINUOUS
10
0.7133892127
20
17.1099498288
11
0.7133892127
21
17.4499237629
0
LINE
5
286
100
AcDbEntity
8
0
100
AcDbLine
62
0
6
CONTINUOUS
10
1.4163821670
20
16.2033905741
11
1.4163821670
21
16.6557215498
0
LINE
5
287
100
AcDbEntity
8
0
100
AcDbLine
62
0
6
CONTINUOUS
10
2.2940949031
20
23.6730702321
11
2.2940949031
21
23.4022699394
0
LINE
5
288
100
AcDbEntity
8
0
100
AcDbLine
62
0
6
CONTINUOUS
10
2.3898763530
20
16.6116801928
11
2.3898763530
21
16.2717062587
0
LINE
5
289
100
AcDbEntity
8
0
100
AcDbLine
62
0
6
CONTINUOUS
10
2.3898763530
20
-25.0278978807
11
2.3898763530
21
-25.3678718148
0
LINE
5
28A
100
AcDbEntity
8
0
100
AcDbLine
62
0
6
CONTINUOUS
10
-0.2001078655
20
-24.0606107480
11
3.1378615374
21
13.4897017315
0
LINE
5
28B
100
AcDbEntity
8
0
100
AcDbLine
62
0
6
CONTINUOUS
10
3.5668871092
20
13.1269383236
11
1.8344754953
21
-5.0196341977
0
LINE
5
28C
100
AcDbEntity
8
0
100
AcDbLine
62
0
6
CONTINUOUS
10
2.7537143109
20
14.5169395986
11
2.7537143109
21
14.4925440933
0
LINE
5
28D
100
AcDbEntity
8
0
100
AcDbLine
62
0
6
CONTINUOUS
10
2.7537143109
20
-23.6125736732
11
2.7537143109
21
-23.6369691785
0
LINE
5
28E
100
AcDbEntity
8
0
100
AcDbLine
62
0
6
CONTINUOUS
10
3.1010969611
20
-24.0514014036
11
3.1010969611
21
-23.6118018579
0
LINE
5
28F
100
AcDbEntity
8
0
100
AcDbLine
62
0
6
CONTINUOUS
10
3.1010969611
20
15.3610331771
11
3.1010969611
21
15.9982027358
0
LINE
5
290
100
AcDbEntity
8
0
100
AcDbLine
62
0
6
CONTINUOUS
10
3.5668871092
20
14.7768457612
11
3.5668871092
21
13.1269383236
0
LINE
5
291
100
AcDbEntity
8
0
100
AcDbLine
62
0
6
CONTINUOUS
10
3.5668871092
20
-21.4337951052
11
3.5668871092
21
-23.0837025428
0
LINE
5
292
100
AcDbEntity
8
0
100
AcDbLine
62
0
6
CONTINUOUS
10
4.1679278732
20
15.8996144266
11
4.1679278732
21
17.7182677745
0
LINE
5
293
100
AcDbEntity
8
0
100
AcDbLine
62
0
6
CONTINUOUS
10
4.1679278732
20
-23.0897888897
11
4.1679278732
21
-24.7169770109
0
LINE
5
294
100
AcDbEntity
8
0
100
AcDbLine
62
0
6
CONTINUOUS
10
4.8709208275
20
17.8535892723
11
4.8709208275
21
17.5060577556
0
LINE
5
295
100
AcDbEntity
8
0
100
AcDbLine
62
0
6
CONTINUOUS
10
4.8709208275
20
-23.7935463838
11
4.8709208275
21
-24.1410779006
0
LINE
5
296
100
AcDbEntity
8
0
100
AcDbLine
62
9
6
CONTINUOUS
10
5.1627831860
20
22.0217742935
11
5.1627831860
21
20.7899357151
0
LINE
5
297
100
AcDbEntity
8
0
100
AcDbLine
62
0
6
CONTINUOUS
10
5.2285880450
20
-22.4108688452
11
5.2285880450
21
15.7657129995
0
LINE
5
298
100
AcDbEntity
8
0
100
AcDbLine
62
0
6
CONTINUOUS
10
5.2494206144
20
22.1261616688
11
5.2494206144
21
20.8937931771
0
LINE
5
299
100
AcDbEntity
8
0
100
AcDbLine
62
9
6
CONTINUOUS
10
1.1820606174
20
-8.5119785808
11
1.2611190843
21
-8.4731333113
0
LINE
5
29A
100
AcDbEntity
8
0
100
AcDbLine
62
0
6
CONTINUOUS
10
1.1743794125
20
-8.5983878937
11
1.2222695874
21
-8.5748571219
0
LINE
5
29B
100
AcDbEntity
8
0
100
AcDbLine
62
0
6
CONTINUOUS
10
-12.9305536358
20
-14.1185503784
11
-12.4692726341
21
-13.9486143306
0
LINE
5
29C
100
AcDbEntity
8
0
100
AcDbLine
62
0
6
CONTINUOUS
10
-12.9289605220
20
-13.8989115221
11
-12.9278363554
21
-13.8985077879
0
LINE
5
29D
100
AcDbEntity
8
0
100
AcDbLine
62
0
6
CONTINUOUS
10
10.0049801474
20
20.0597513599
11
10.0050266181
21
20.0536140218
0
LINE
5
29E
100
AcDbEntity
8
0
100
AcDbLine
62
9
6
CONTINUOUS
10
9.9208285798
20
19.7659375160
11
9.9208285798
21
19.5536783619
0
LINE
5
29F
100
AcDbEntity
8
0
100
AcDbLine
62
9
6
CONTINUOUS
10
9.9208285798
20
-17.1882882085
11
9.9208285798
21
-17.3780579126
0
LINE
5
2A0
100
AcDbEntity
8
0
100
AcDbLine
62
0
6
CONTINUOUS
10
10.0050266397
20
20.0535583943
11
10.0050266397
21
19.4775952048
0
LINE
5
2A1
100
AcDbEntity
8
0
100
AcDbLine
62
0
6
CONTINUOUS
10
10.0050266397
20
-17.1437628875
11
10.0050266397
21
-17.4572812797
0
LINE
5
2A2
100
AcDbEntity
8
0
100
AcDbLine
62
0
6
CONTINUOUS
10
10.0049801474
20
-17.4581928425
11
10.0050266181
21
-17.4574508877
0
LINE
5
2A3
100
AcDbEntity
8
0
100
AcDbLine
62
0
6
CONTINUOUS
10
-12.0501151850
20
-16.1332806319
11
-12.0513145295
21
-16.1337112316
0
LINE
5
2A4
100
AcDbEntity
8
0
100
AcDbLine
62
0
6
CONTINUOUS
10
-12.2564788624
20
-15.9886014537
11
-11.7429930200
21
-15.8075691112
0
LWPOLYLINE
5
2A5
100
AcDbEntity
8
0
100
AcDbPolyline
62
0
6
CONTINUOUS
90
7
70
0
10
-12.9279258601
20
-13.8985551469
10
-12.8890355929
20
-13.8866082553
10
-12.8351470721
20
-13.8760491229
10
-12.7792780203
20
-13.8717335186
10
-12.7216090120
20
-13.8736833897
10
-12.6625400493
20
-13.8818874907
10
-12.6023607489
20
-13.8963347444
0
LINE
5
2A6
100
AcDbEntity
8
0
100
AcDbLine
62
9
6
CONTINUOUS
10
-2.5657272252
20
11.3795744157
11
-16.6929982666
21
18.4432099364
0
LINE
5
2A7
100
AcDbEntity
8
0
100
AcDbLine
62
9
6
CONTINUOUS
10
-1.4122018584
20
13.0075008118
11
-15.5564119309
21
20.0796058480
0
LINE
5
2A8
100
AcDbEntity
8
0
100
AcDbLine
62
0
6
CONTINUOUS
10
3.1252438702
20
13.3477599432
11
3.5668871092
21
13.1269383236
0
LINE
5
2A9
100
AcDbEntity
8
0
100
AcDbLine
62
0
6
CONTINUOUS
10
-11.6474393693
20
21.6346417721
11
2.6362899240
21
14.4927771255
0
LINE
5
2AA
100
AcDbEntity
8
0
100
AcDbLine
62
0
6
CONTINUOUS
10
-13.0147669096
20
22.3767847035
11
2.7537143109
21
14.4925440933
0
LINE
5
2AB
100
AcDbEntity
8
0
100
AcDbLine
62
0
6
CONTINUOUS
10
2.5062269374
20
14.9438037185
11
-12.7672795362
21
22.5805569553
0
LINE
5
2AC
100
AcDbEntity
8
0
100
AcDbLine
62
0
6
CONTINUOUS
10
3.1010969611
20
15.3610331771
11
1.4163821670
21
16.2033905741
0
LINE
5
2AD
100
AcDbEntity
8
0
100
AcDbLine
62
0
6
CONTINUOUS
10
-10.2632212033
20
22.0431922593
11
-11.9479359975
21
22.8855496564
0
LINE
5
2AE
100
AcDbEntity
8
0
100
AcDbLine
62
0
6
CONTINUOUS
10
-6.9661206616
20
20.7519742236
11
-1.1736115936
21
17.8557196896
0
LINE
5
2AF
100
AcDbEntity
8
0
100
AcDbLine
62
0
6
CONTINUOUS
10
-12.5863342058
20
23.6570797361
11
-10.9090899646
21
22.8184576156
0
LINE
5
2B0
100
AcDbEntity
8
0
100
AcDbLine
62
0
6
CONTINUOUS
10
0.7779839587
20
16.9749206539
11
2.4552281998
21
16.1362985333
0
LINE
5
2B1
100
AcDbEntity
8
0
100
AcDbLine
62
0
6
CONTINUOUS
10
0.8012633320
20
-23.9577030226
11
1.3800536722
21
-23.2532592924
0
LINE
5
2B2
100
AcDbEntity
8
0
100
AcDbLine
62
9
6
CONTINUOUS
10
1.5612620929
20
-18.4254297366
11
0.2468604548
21
-19.0324639709
0
LINE
5
2B3
100
AcDbEntity
8
0
100
AcDbLine
62
0
6
CONTINUOUS
10
1.3604085069
20
-18.9391987933
11
0.2078334568
21
-19.4714961465
0
LINE
5
2B4
100
AcDbEntity
8
0
100
AcDbLine
62
0
6
CONTINUOUS
10
3.1010969611
20
15.9982027358
11
2.4787789290
21
16.1281433183
0
LINE
5
2B5
100
AcDbEntity
8
0
100
AcDbLine
62
9
6
CONTINUOUS
10
-12.6509289517
20
23.7921089110
11
-10.9744418114
21
22.9538653409
0
LINE
5
2B6
100
AcDbEntity
8
0
100
AcDbLine
62
9
6
CONTINUOUS
10
0.7133892127
20
17.1099498288
11
2.3898763530
21
16.2717062587
0
LINE
5
2B7
100
AcDbEntity
8
0
100
AcDbLine
62
9
6
CONTINUOUS
10
2.3898763530
20
16.6116801928
11
0.7133892127
21
17.4499237629
0
LINE
5
2B8
100
AcDbEntity
8
0
100
AcDbLine
62
9
6
CONTINUOUS
10
-10.9744418114
20
23.2938392750
11
-12.6509289517
21
24.1320828452
0
LINE
5
2B9
100
AcDbEntity
8
0
100
AcDbLine
62
0
6
CONTINUOUS
10
-9.1963902912
20
22.5817735088
11
-7.0539886273
21
21.5105726768
0
LINE
5
2BA
100
AcDbEntity
8
0
100
AcDbLine
62
0
6
CONTINUOUS
10
-0.2514895092
20
18.1093231178
11
0.7530988511
21
17.6070289377
0
LINE
5
2BB
100
AcDbEntity
8
0
100
AcDbLine
62
0
6
CONTINUOUS
10
4.1679278732
20
15.8996144266
11
4.2739938904
21
15.8465814180
0
LINE
5
2BC
100
AcDbEntity
8
0
100
AcDbLine
62
9
6
CONTINUOUS
10
2.5666470824
20
16.9155457710
11
0.8881149952
21
17.7548118146
0
LINE
5
2BD
100
AcDbEntity
8
0
100
AcDbLine
62
9
6
CONTINUOUS
10
-10.7976710820
20
23.5977048533
11
-12.4762031692
21
24.4369708968
0
LINE
5
2BE
100
AcDbEntity
8
0
100
AcDbLine
62
0
6
CONTINUOUS
10
-6.9661206616
20
21.9669290897
11
-1.1736115936
21
19.0706745557
0
LINE
5
2BF
100
AcDbEntity
8
0
100
AcDbLine
62
0
6
CONTINUOUS
10
4.9811006716
20
16.1925771194
11
4.2167239868
21
16.5747654618
0
LINE
5
2C0
100
AcDbEntity
8
0
100
AcDbLine
62
0
6
CONTINUOUS
10
-7.7004715132
20
22.5333632118
11
-9.1475941776
21
23.2569245440
0
LINE
5
2C1
100
AcDbEntity
8
0
100
AcDbLine
62
0
6
CONTINUOUS
10
-6.4740291836
20
22.4330285203
11
-0.2514895092
21
19.3217586831
0
LINE
5
2C2
100
AcDbEntity
8
0
100
AcDbLine
62
0
6
CONTINUOUS
10
-10.8934465660
20
25.2489549942
11
-9.1963902912
21
24.4004268568
0
LINE
5
2C3
100
AcDbEntity
8
0
100
AcDbLine
62
0
6
CONTINUOUS
10
2.4708715984
20
18.5667959120
11
4.1679278732
21
17.7182677745
0
LINE
5
2C4
100
AcDbEntity
8
0
100
AcDbLine
62
9
6
CONTINUOUS
10
19.8307612666
20
-10.9346215367
11
19.8307612666
21
19.4104587091
0
LINE
5
2C5
100
AcDbEntity
8
0
100
AcDbLine
62
0
6
CONTINUOUS
10
2.4787789290
20
-24.7964608211
11
3.1010969611
21
-24.0514014036
0
LINE
5
2C6
100
AcDbEntity
8
0
100
AcDbLine
62
0
6
CONTINUOUS
10
11.3395243035
20
-16.2905843936
11
10.5868302196
21
-16.8360955707
0
LINE
5
2C7
100
AcDbEntity
8
0
100
AcDbLine
62
0
6
CONTINUOUS
10
19.0737132149
20
-12.2006178953
11
11.3395243035
21
-16.2905843936
0
LINE
5
2C8
100
AcDbEntity
8
0
100
AcDbLine
62
0
6
CONTINUOUS
10
5.2285880450
20
-19.6696222966
11
10.5868302196
21
-16.8360955707
0
LINE
5
2C9
100
AcDbEntity
8
0
100
AcDbLine
62
9
6
CONTINUOUS
10
5.2285880450
20
-18.6267182271
11
19.8307612666
21
-10.9346215367
0
LINE
5
2CA
100
AcDbEntity
8
0
100
AcDbLine
62
9
6
CONTINUOUS
10
5.2285880450
20
-19.4260361630
11
19.4166107909
21
-11.9521046357
0
LINE
5
2CB
100
AcDbEntity
8
0
100
AcDbLine
62
9
6
CONTINUOUS
10
5.2285880450
20
-19.7054438096
11
9.9208285798
21
-17.3780579126
0
LINE
5
2CC
100
AcDbEntity
8
0
100
AcDbLine
62
0
6
CONTINUOUS
10
-5.1305262994
20
22.4633454710
11
-0.1807788311
21
19.9884717368
0
LINE
5
2CD
100
AcDbEntity
8
0
100
AcDbLine
62
9
6
CONTINUOUS
10
-10.3589966874
20
25.5093024607
11
-8.6681231195
21
24.6638656768
0
LINE
5
2CE
100
AcDbEntity
8
0
100
AcDbLine
62
9
6
CONTINUOUS
10
3.0053214771
20
18.8271433785
11
4.6961950450
21
17.9817065946
0
LINE
5
2CF
100
AcDbEntity
8
0
100
AcDbLine
62
0
6
CONTINUOUS
10
-10.2475790720
20
25.5155710240
11
-8.5579908157
21
24.6707768958
0
LINE
5
2D0
100
AcDbEntity
8
0
100
AcDbLine
62
0
6
CONTINUOUS
10
3.1167390924
20
18.8334119417
11
4.8063273487
21
17.9886178136
0
LINE
5
2D1
100
AcDbEntity
8
0
100
AcDbLine
62
0
6
CONTINUOUS
10
1.1333831493
20
20.6361888534
11
-1.4535710372
21
21.9296659466
0
LINE
5
2D2
100
AcDbEntity
8
0
100
AcDbLine
62
9
6
CONTINUOUS
10
1.7743463440
20
20.9521033591
11
-0.3185658869
21
21.9985594746
0
LINE
5
2D3
100
AcDbEntity
8
0
100
AcDbLine
62
0
6
CONTINUOUS
10
1.8251097686
20
20.9771233638
11
-0.2343170143
21
22.0068367552
0
LINE
5
2D4
100
AcDbEntity
8
0
100
AcDbLine
62
0
6
CONTINUOUS
10
11.3395243035
20
17.6766279130
11
10.5868302196
21
18.9748331741
0
LWPOLYLINE
5
2D5
100
AcDbEntity
8
0
100
AcDbPolyline
62
0
6
CONTINUOUS
90
31
70
0
10
20.1114214566
20
19.7577861998
10
20.1111409583
20
19.7918524557
10
20.1100124875
20
19.8343357114
10
20.1080272116
20
19.8768829343
10
20.1051914540
20
19.9194993552
10
20.1015126855
20
19.9621644841
10
20.0970018326
20
20.0048287866
10
20.0916668505
20
20.0474861537
10
20.0855149806
20
20.0901288308
10
20.0785607581
20
20.1327026974
10
20.0708127789
20
20.1752011758
10
20.0622785614
20
20.2176176778
10
20.0529764546
20
20.2598964793
10
20.0429159790
20
20.3020288118
10
20.0321048051
20
20.3440104111
10
20.0205631368
20
20.3857909246
10
20.0083030181
20
20.4273541073
10
19.9953304422
20
20.4687034611
10
19.9816585066
20
20.5098169696
10
19.9672963068
20
20.5506849198
10
19.9522503816
20
20.5913037453
10
19.9365302252
20
20.6316593310
10
19.9201426211
20
20.6717445597
10
19.9030934100
20
20.7115524822
10
19.8853913727
20
20.7510683555
10
19.8670423582
20
20.7902838248
10
19.8480507066
20
20.8291916782
10
19.8284231948
20
20.8677792416
10
19.8081641732
20
20.9060374358
10
19.7872768778
20
20.9439585285
10
19.7694540165
20
20.9751906667
0
LINE
5
2D6
100
AcDbEntity
8
0
100
AcDbLine
62
0
6
CONTINUOUS
10
20.1114214662
20
-10.5872923515
11
20.1114214662
21
19.7577878944
0
LWPOLYLINE
5
2D7
100
AcDbEntity
8
0
100
AcDbPolyline
62
0
6
CONTINUOUS
90
40
70
0
10
19.4911895300
20
-11.9057344101
10
19.5107925487
20
-11.8912621403
10
19.5388895254
20
-11.8695669415
10
19.5664943206
20
-11.8471024787
10
19.5935788786
20
-11.8238863411
10
19.6201301540
20
-11.7999246279
10
19.6461494555
20
-11.7752097643
10
19.6716168558
20
-11.7497530965
10
19.6965130234
20
-11.7235663990
10
19.7208387236
20
-11.6966397671
10
19.7445747268
20
-11.6689841289
10
19.7677012083
20
-11.6406123373
10
19.7902163591
20
-11.6115146023
10
19.8121016197
20
-11.5817010093
10
19.8333370324
20
-11.5511853014
10
19.8539172470
20
-11.5199601362
10
19.8738233768
20
-11.4880370427
10
19.8930370176
20
-11.4554283290
10
19.9115524269
20
-11.4221248441
10
19.9293500333
20
-11.3881403919
10
19.9464131493
20
-11.3534845540
10
19.9627386349
20
-11.3181383249
10
19.9783101947
20
-11.2821069117
10
19.9931069067
20
-11.2454066973
10
20.0071173079
20
-11.2080318921
10
20.0203290869
20
-11.1699755653
10
20.0327177585
20
-11.1312649775
10
20.0442567026
20
-11.0919437433
10
20.0549318752
20
-11.0520216104
10
20.0647286831
20
-11.0115100516
10
20.0736261634
20
-10.9704543373
10
20.0816136652
20
-10.9288628062
10
20.0886795039
20
-10.8867474553
10
20.0948075357
20
-10.8441582087
10
20.0999896127
20
-10.8011044291
10
20.1042170765
20
-10.7575961418
10
20.1074789383
20
-10.7136828622
10
20.1097683999
20
-10.6693862175
10
20.1110801187
20
-10.6247030030
10
20.1114214566
20
-10.5872934782
0
LINE
5
2D8
100
AcDbEntity
8
0
100
AcDbLine
62
9
6
CONTINUOUS
10
19.0737132149
20
-12.2006178953
11
19.4166107909
21
-11.9521046357
0
LINE
5
2D9
100
AcDbEntity
8
0
100
AcDbLine
62
0
6
CONTINUOUS
10
19.1500625111
20
-12.1529644830
11
19.4911783850
21
-11.9057425029
0
LINE
5
2DA
100
AcDbEntity
8
0
100
AcDbLine
62
0
6
CONTINUOUS
10
3.5668871092
20
-23.0837025428
11
2.7537143109
21
-23.6125736732
0
LINE
5
2DB
100
AcDbEntity
8
0
100
AcDbLine
62
9
6
CONTINUOUS
10
5.2285880450
20
-19.9432488403
11
9.2567301703
21
-17.9213456567
0
LINE
5
2DC
100
AcDbEntity
8
0
100
AcDbLine
62
0
6
CONTINUOUS
10
5.2285880450
20
-19.9449169211
11
9.2063511160
21
-17.9483012192
0
LINE
5
2DD
100
AcDbEntity
8
0
100
AcDbLine
62
9
6
CONTINUOUS
10
5.2285880450
20
-19.8273185373
11
10.0049801474
21
-17.4581928425
0
LINE
5
2DE
100
AcDbEntity
8
0
100
AcDbLine
62
0
6
CONTINUOUS
10
-10.2632212033
20
22.6803618180
11
-10.8855392354
21
22.8103024005
0
LWPOLYLINE
5
2DF
100
AcDbEntity
8
0
100
AcDbPolyline
62
0
6
CONTINUOUS
90
51
70
0
10
-0.2394555221
20
22.0091411211
10
-0.2500266289
20
22.0132933358
10
-0.2729880020
20
22.0219079705
10
-0.2962586041
20
22.0301008100
10
-0.3198245789
20
22.0378767997
10
-0.3436799384
20
22.0452424041
10
-0.3678066844
20
22.0521994125
10
-0.3921869328
20
22.0587499617
10
-0.4168141074
20
22.0648985282
10
-0.4416703228
20
22.0706461759
10
-0.4667382409
20
22.0759943497
10
-0.4920113738
20
22.0809461592
10
-0.5174723682
20
22.0855022453
10
-0.5431036982
20
22.0896634002
10
-0.5688979393
20
22.0934315338
10
-0.5948375435
20
22.0968069603
10
-0.6209053799
20
22.0997901368
10
-0.6470940656
20
22.1023821931
10
-0.6733860379
20
22.1045832433
10
-0.6997643186
20
22.1063934487
10
-0.7262219939
20
22.1078133021
10
-0.7527418392
20
22.1088427545
10
-0.7793066015
20
22.1094816701
10
-0.8059091237
20
22.1097299146
10
-0.8325322221
20
22.1095872627
10
-0.8591585433
20
22.1090533457
10
-0.8857807038
20
22.1081274555
10
-0.9123815776
20
22.1068091651
10
-0.9389435617
20
22.1050978852
10
-0.9654588295
20
22.1029923552
10
-0.9919100819
20
22.1004919198
10
-1.0182795639
20
22.0975957581
10
-1.0445592804
20
22.0943020015
10
-1.0707332152
20
22.0906094707
10
-1.0967818399
20
22.0865172405
10
-1.1226927312
20
22.0820234926
10
-1.1484494490
20
22.0771268013
10
-1.1740325204
20
22.0718260933
10
-1.1994262386
20
22.0661198112
10
-1.2246127053
20
22.0600065843
10
-1.2495737828
20
22.0534849360
10
-1.2742950024
20
22.0465525427
10
-1.2987584696
20
22.0392075025
10
-1.3229458746
20
22.0314479472
10
-1.3468437316
20
22.0232703908
10
-1.3704332013
20
22.0146724089
10
-1.3936966637
20
22.0056510062
10
-1.4166241901
20
21.9961996320
10
-1.4392004823
20
21.9863126829
10
-1.4614021978
20
21.9759880314
10
-1.4769812993
20
21.9683625043
0
LINE
5
2E0
100
AcDbEntity
8
0
100
AcDbLine
62
0
6
CONTINUOUS
10
2.3368969137
20
21.2293702701
11
-0.4636215435
21
22.6296294988
0
LINE
5
2E1
100
AcDbEntity
8
0
100
AcDbLine
62
0
6
CONTINUOUS
10
-0.8171749341
20
23.3589643834
11
-0.4636215435
21
23.1821876881
0
LINE
5
2E2
100
AcDbEntity
8
0
100
AcDbLine
62
0
6
CONTINUOUS
10
3.7447126099
20
21.9232469285
11
0.9341629630
21
23.3285217520
0
LINE
5
2E3
100
AcDbEntity
8
0
100
AcDbLine
62
0
6
CONTINUOUS
10
9.7990415719
20
19.3687274979
11
10.5868302196
21
18.9748331741
0
LINE
5
2E4
100
AcDbEntity
8
0
100
AcDbLine
62
0
6
CONTINUOUS
10
2.2940949031
20
23.4022699394
11
4.5038357912
21
22.2973994953
0
LINE
5
2E5
100
AcDbEntity
8
0
100
AcDbLine
62
0
6
CONTINUOUS
10
5.2494206144
20
21.9246070838
11
5.3952340244
21
21.8517003787
0
LINE
5
2E6
100
AcDbEntity
8
0
100
AcDbLine
62
0
6
CONTINUOUS
10
4.1679278732
20
-24.7169770109
11
4.6961950450
21
-24.4459659523
0
LINE
5
2E7
100
AcDbEntity
8
0
100
AcDbLine
62
9
6
CONTINUOUS
10
4.5214812638
20
-22.7719799250
11
5.2285880450
21
-22.4108688452
0
LINE
5
2E8
100
AcDbEntity
8
0
100
AcDbLine
62
0
6
CONTINUOUS
10
4.4315172957
20
-22.9607900016
11
5.1386240779
21
-22.5996789213
0
LINE
5
2E9
100
AcDbEntity
8
0
100
AcDbLine
62
0
6
CONTINUOUS
10
4.4315124897
20
-22.9607924565
11
4.4295048928
21
-22.9617961639
0
LINE
5
2EA
100
AcDbEntity
8
0
100
AcDbLine
62
9
6
CONTINUOUS
10
2.7537143109
20
-23.6369691785
11
4.5214812638
21
-22.7719799250
0
LINE
5
2EB
100
AcDbEntity
8
0
100
AcDbLine
62
0
6
CONTINUOUS
10
2.6617333919
20
-23.8267876428
11
4.4295003462
21
-22.9617983886
0
LINE
5
2EC
100
AcDbEntity
8
0
100
AcDbLine
62
0
6
CONTINUOUS
10
2.5666470824
20
-25.4970116106
11
4.1679278732
21
-24.7169770109
0
LINE
5
2ED
100
AcDbEntity
8
0
100
AcDbLine
62
9
6
CONTINUOUS
10
-4.2328056237
20
-25.3682130115
11
-0.2001078655
21
-24.0606107480
0
LINE
5
2EE
100
AcDbEntity
8
0
100
AcDbLine
62
0
6
CONTINUOUS
10
-0.5052965467
20
-24.5340221889
11
-4.5423106153
21
-25.8430236539
0
LINE
5
2EF
100
AcDbEntity
8
0
100
AcDbLine
62
0
6
CONTINUOUS
10
0.9341629630
20
23.3285217520
11
2.2940949031
21
23.4022699394
0
LINE
5
2F0
100
AcDbEntity
8
0
100
AcDbLine
62
0
6
CONTINUOUS
10
-0.5733628426
20
25.0992424920
11
-0.3929108654
21
25.0090165034
0
LINE
5
2F1
100
AcDbEntity
8
0
100
AcDbLine
62
0
6
CONTINUOUS
10
4.9811006716
20
22.3220107349
11
5.1615526487
21
22.2317847463
0
LINE
5
2F2
100
AcDbEntity
8
0
100
AcDbLine
62
9
6
CONTINUOUS
10
-1.3859311866
20
25.6781395163
11
1.5931587143
21
24.1885945659
0
LINE
5
2F3
100
AcDbEntity
8
0
100
AcDbLine
62
9
6
CONTINUOUS
10
5.8357994014
20
22.0672742223
11
8.8148893024
21
20.5777292718
0
LINE
5
2F4
100
AcDbEntity
8
0
100
AcDbLine
62
0
6
CONTINUOUS
10
-1.1922881748
20
25.8271889785
11
2.0342017174
21
24.2139440325
0
LINE
5
2F5
100
AcDbEntity
8
0
100
AcDbLine
62
0
6
CONTINUOUS
10
6.2768424045
20
22.0926236889
11
9.5033322967
21
20.4793787428
0
LINE
5
2F6
100
AcDbEntity
8
0
100
AcDbLine
62
9
6
CONTINUOUS
10
19.0737132149
20
21.4335031193
11
12.5472490626
21
24.6967351955
0
LINE
5
2F7
100
AcDbEntity
8
0
100
AcDbLine
62
0
6
CONTINUOUS
10
19.4425052880
20
21.4889068527
11
12.9821219432
21
24.7190985251
0
LINE
5
2F8
100
AcDbEntity
8
0
100
AcDbLine
62
9
6
CONTINUOUS
10
19.4166107909
20
20.8420922837
11
19.0737132149
21
21.4335031193
0
LINE
5
2F9
100
AcDbEntity
8
0
100
AcDbLine
62
0
6
CONTINUOUS
10
19.7694540397
20
20.9751906412
11
19.5064071034
21
21.4288794956
0
SPLINE
5
2FA
100
AcDbEntity
8
0
100
AcDbSpline
62
0
6
CONTINUOUS
70
0
71
3
72
11
73
7
74
5
42
0.0000001000
43
0.0000001000
44
0.0000000001
12
-0.4374099277
22
-0.1542113483
32
0.0000000000
13
-0.4148335409
23
0.2074167702
33
0.0000000000
40
0.0000000000
40
0.0000000000
40
0.0000000000
40
0.0000000000
40
0.2332014903
40
0.4741828615
40
0.7287406665
40
1.0000000000
40
1.0000000000
40
1.0000000000
40
1.0000000000
10
-12.2564788595
20
-15.9886014527
30
0.0000000000
10
-12.2904804085
20
-16.0005888914
30
0.0000000000
10
-12.3625378134
20
-16.0173951301
30
0.0000000000
10
-12.4759986606
20
-16.0188392480
30
0.0000000000
10
-12.5931002963
20
-15.9960205918
30
0.0000000000
10
-12.6690171289
20
-15.9655606537
30
0.0000000000
10
-12.7065262855
20
-15.9468060754
30
0.0000000000
11
-12.2564788595
21
-15.9886014527
31
0.0000000000
11
-12.3617837243
21
-16.0132818424
31
0.0000000000
11
-12.4735357303
21
-16.0150927462
31
0.0000000000
11
-12.5895223975
21
-15.9930459879
31
0.0000000000
11
-12.7065262855
21
-15.9468060754
31
0.0000000000
0
SPLINE
5
2FB
100
AcDbEntity
8
0
100
AcDbSpline
62
0
6
CONTINUOUS
70
0
71
3
72
22
73
18
74
16
42
0.0000001000
43
0.0000001000
44
0.0000000001
12
-1.9696727411
22
0.9848363691
32
0.0000000000
13
2.0663966188
23
0.7612610802
33
0.0000000000
40
0.0000000000
40
0.0000000000
40
0.0000000000
40
0.0000000000
40
0.0639811469
40
0.1316820142
40
0.2027446637
40
0.2761229465
40
0.3508358318
40
0.4260859464
40
0.5008355756
40
0.5742184330
40
0.6452116268
40
0.7132788092
40
0.7776047320
40
0.8378616260
40
0.8944690196
40
0.9481356068
40
1.0000000000
40
1.0000000000
40
1.0000000000
40
1.0000000000
10
-12.7065262855
20
-15.9468060754
30
0.0000000000
10
-12.7485335925
20
-15.9258024220
30
0.0000000000
10
-12.8311244811
20
-15.8745351246
30
0.0000000000
10
-12.9440602567
20
-15.7768339228
30
0.0000000000
10
-13.0467330887
20
-15.6591216751
30
0.0000000000
10
-13.1363895428
20
-15.5250662268
30
0.0000000000
10
-13.2108498737
20
-15.3785893659
30
0.0000000000
10
-13.2683785961
20
-15.2236122893
30
0.0000000000
10
-13.3076027069
20
-15.0640211792
30
0.0000000000
10
-13.3274072386
20
-14.9039982652
30
0.0000000000
10
-13.3270747975
20
-14.7476116088
30
0.0000000000
10
-13.3062961893
20
-14.5992419220
30
0.0000000000
10
-13.2653507099
20
-14.4632304663
30
0.0000000000
10
-13.2053395988
20
-14.3437028391
30
0.0000000000
10
-13.1280700354
20
-14.2440916210
30
0.0000000000
10
-13.0360962128
20
-14.1670912601
30
0.0000000000
10
-12.9662777684
20
-14.1317111586
30
0.0000000000
10
-12.9305536328
20
-14.1185503773
30
0.0000000000
11
-12.7065262855
21
-15.9468060754
31
0.0000000000
11
-12.8266102629
21
-15.8731057086
31
0.0000000000
11
-12.9397746810
21
-15.7760433049
31
0.0000000000
11
-13.0429944587
21
-15.6584200256
31
0.0000000000
11
-13.1330908416
21
-15.5242774609
31
0.0000000000
11
-13.2077903896
21
-15.3776826618
31
0.0000000000
11
-13.2654708762
21
-15.2223323554
31
0.0000000000
11
-13.3046285394
21
-15.0624468724
31
0.0000000000
11
-13.3241937977
21
-14.9020347704
31
0.0000000000
11
-13.3234241808
21
-14.7456982170
31
0.0000000000
11
-13.3020513628
21
-14.5973348675
31
0.0000000000
11
-13.2605445507
21
-14.4618962502
31
0.0000000000
11
-13.2003433043
21
-14.3436428127
31
0.0000000000
11
-13.1234206890
21
-14.2455475660
31
0.0000000000
11
-13.0324993127
21
-14.1700465771
31
0.0000000000
11
-12.9305536328
21
-14.1185503773
31
0.0000000000
0
SPLINE
5
2FC
100
AcDbEntity
8
0
100
AcDbSpline
62
9
6
CONTINUOUS
70
0
71
3
72
25
73
21
74
19
42
0.0000001000
43
0.0000001000
44
0.0000000001
12
-2.1310220421
22
1.0655110210
32
0.0000000000
13
2.1310220421
23
-1.0655110210
33
0.0000000000
40
0.0000000000
40
0.0000000000
40
0.0000000000
40
0.0000000000
40
0.0502205533
40
0.0971512176
40
0.1420006760
40
0.1860118413
40
0.2306789069
40
0.2776905144
40
0.3280166982
40
0.3820852775
40
0.4401483004
40
0.5015627215
40
0.5655501889
40
0.6311871422
40
0.6973510937
40
0.7629637551
40
0.8268945600
40
0.8882498403
40
0.9460034561
40
1.0000000000
40
1.0000000000
40
1.0000000000
40
1.0000000000
10
-12.5879393397
20
-14.2645230045
30
0.0000000000
10
-12.6236130418
20
-14.2466861535
30
0.0000000000
10
-12.6959579608
20
-14.2182109976
30
0.0000000000
10
-12.8082170185
20
-14.1999820909
30
0.0000000000
10
-12.9168778516
20
-14.2090169388
30
0.0000000000
10
-13.0177687691
20
-14.2455705088
30
0.0000000000
10
-13.1069692571
20
-14.3080992695
30
0.0000000000
10
-13.1816338312
20
-14.3939351446
30
0.0000000000
10
-13.2398778805
20
-14.5000325085
30
0.0000000000
10
-13.2804059120
20
-14.6231833723
30
0.0000000000
10
-13.3022027530
20
-14.7597990597
30
0.0000000000
10
-13.3046851781
20
-14.9059190927
30
0.0000000000
10
-13.2878212357
20
-15.0570870657
30
0.0000000000
10
-13.2521449275
20
-15.2087990111
30
0.0000000000
10
-13.1987254259
20
-15.3565715485
30
0.0000000000
10
-13.1291687897
20
-15.4959682495
30
0.0000000000
10
-13.0455247358
20
-15.6228741759
30
0.0000000000
10
-12.9503653760
20
-15.7333584025
30
0.0000000000
10
-12.8465410824
20
-15.8241906969
30
0.0000000000
10
-12.7708527992
20
-15.8715372804
30
0.0000000000
10
-12.7324968575
20
-15.8907152513
30
0.0000000000
11
-12.5879393397
21
-14.2645230045
31
0.0000000000
11
-12.6995991505
21
-14.2215232010
31
0.0000000000
11
-12.8100939395
21
-14.2043921847
31
0.0000000000
11
-12.9165385307
21
-14.2137633573
31
0.0000000000
11
-13.0151283208
21
-14.2494770582
31
0.0000000000
11
-13.1025641405
21
-14.3101447185
31
0.0000000000
11
-13.1766872906
21
-14.3941178888
31
0.0000000000
11
-13.2351576813
21
-14.4988002633
31
0.0000000000
11
-13.2761799489
21
-14.6209154483
31
0.0000000000
11
-13.2986196403
21
-14.7574217094
31
0.0000000000
11
-13.3015883368
21
-14.9037148313
31
0.0000000000
11
-13.2849994782
21
-15.0552632718
31
0.0000000000
11
-13.2493521163
21
-15.2075298586
31
0.0000000000
11
-13.1957586813
21
-15.3557792414
31
0.0000000000
11
-13.1258211390
21
-15.4955880018
31
0.0000000000
11
-13.0417301882
21
-15.6225907076
31
0.0000000000
11
-12.9459679466
21
-15.7330391930
31
0.0000000000
11
-12.8419737686
21
-15.8231463129
31
0.0000000000
11
-12.7324968575
21
-15.8907152513
31
0.0000000000
0
SPLINE
5
2FD
100
AcDbEntity
8
0
100
AcDbSpline
62
9
6
CONTINUOUS
70
0
71
3
72
11
73
7
74
5
42
0.0000001000
43
0.0000001000
44
0.0000000001
12
-0.3868372279
22
0.1934186140
32
0.0000000000
13
-0.4070477542
23
-0.1499361792
33
0.0000000000
40
0.0000000000
40
0.0000000000
40
0.0000000000
40
0.0000000000
40
0.3045282916
40
0.5891081365
40
0.8610674131
40
1.0000000000
40
1.0000000000
40
1.0000000000
40
1.0000000000
10
-12.5110562761
20
-14.1575186790
30
0.0000000000
10
-12.5503239029
20
-14.1378848656
30
0.0000000000
10
-12.6299575657
20
-14.1065420166
30
0.0000000000
10
-12.7535259377
20
-14.0864744609
30
0.0000000000
10
-12.8545490876
20
-14.0948753658
30
0.0000000000
10
-12.9116965216
20
-14.1116240248
30
0.0000000000
10
-12.9305472541
20
-14.1185676986
30
0.0000000000
11
-12.5110562761
21
-14.1575186790
31
0.0000000000
11
-12.6339653434
21
-14.1101873005
31
0.0000000000
11
-12.7555920722
21
-14.0913294202
31
0.0000000000
11
-12.8727604572
21
-14.1016451560
31
0.0000000000
11
-12.9305472541
21
-14.1185676986
31
0.0000000000
0
SPLINE
5
2FE
100
AcDbEntity
8
0
100
AcDbSpline
62
9
6
CONTINUOUS
70
0
71
3
72
25
73
21
74
19
42
0.0000001000
43
0.0000001000
44
0.0000000001
12
2.1310220383
22
-1.0655110191
32
0.0000000000
13
-2.1310220383
23
1.0655110191
33
0.0000000000
40
0.0000000000
40
0.0000000000
40
0.0000000000
40
0.0000000000
40
0.0502205725
40
0.0971511910
40
0.1420006727
40
0.1860118336
40
0.2306789022
40
0.2776905108
40
0.3280166958
40
0.3820852755
40
0.4401482990
40
0.5015627203
40
0.5655501878
40
0.6311871412
40
0.6973510928
40
0.7629637546
40
0.8268945588
40
0.8882498449
40
0.9460034434
40
1.0000000000
40
1.0000000000
40
1.0000000000
40
1.0000000000
10
-12.7324968575
20
-15.8907152513
30
0.0000000000
10
-12.6968231419
20
-15.9085521091
30
0.0000000000
10
-12.6244782196
20
-15.9370271818
30
0.0000000000
10
-12.5122191887
20
-15.9552562180
30
0.0000000000
10
-12.4035583726
20
-15.9462213127
30
0.0000000000
10
-12.3026674401
20
-15.9096677534
30
0.0000000000
10
-12.2134669508
20
-15.8471389902
30
0.0000000000
10
-12.1388023737
20
-15.7613031139
30
0.0000000000
10
-12.0805583202
20
-15.6552057496
30
0.0000000000
10
-12.0400302885
20
-15.5320548843
30
0.0000000000
10
-12.0182334445
20
-15.3954391967
30
0.0000000000
10
-12.0157510193
20
-15.2493191632
30
0.0000000000
10
-12.0326149611
20
-15.0981511899
30
0.0000000000
10
-12.0682912717
20
-14.9464392456
30
0.0000000000
10
-12.1217107695
20
-14.7986667051
30
0.0000000000
10
-12.1912674222
20
-14.6592700163
30
0.0000000000
10
-12.2749114440
20
-14.5323640569
30
0.0000000000
10
-12.3700708753
20
-14.4218799144
30
0.0000000000
10
-12.4738950586
20
-14.3310474898
30
0.0000000000
10
-12.5495833891
20
-14.2837009798
30
0.0000000000
10
-12.5879393397
20
-14.2645230045
30
0.0000000000
11
-12.7324968575
21
-15.8907152513
31
0.0000000000
11
-12.6208369901
21
-15.9337150343
31
0.0000000000
11
-12.5103423181
21
-15.9508460928
31
0.0000000000
11
-12.4038976732
21
-15.9414749009
31
0.0000000000
11
-12.3053078930
21
-15.9057612035
31
0.0000000000
11
-12.2178720667
21
-15.8450935408
31
0.0000000000
11
-12.1437489140
21
-15.7611203696
31
0.0000000000
11
-12.0852785198
21
-15.6564379938
31
0.0000000000
11
-12.0442562512
21
-15.5343228085
31
0.0000000000
11
-12.0218165577
21
-15.3978165467
31
0.0000000000
11
-12.0188478605
21
-15.2515234245
31
0.0000000000
11
-12.0354367191
21
-15.0999749840
31
0.0000000000
11
-12.0710840819
21
-14.9477083975
31
0.0000000000
11
-12.1246775174
21
-14.7994590149
31
0.0000000000
11
-12.1946150646
21
-14.6596502562
31
0.0000000000
11
-12.2787060079
21
-14.5326475477
31
0.0000000000
11
-12.3744682853
21
-14.4221990752
31
0.0000000000
11
-12.4784623833
21
-14.3320919265
31
0.0000000000
11
-12.5879393397
21
-14.2645230045
31
0.0000000000
0
SPLINE
5
2FF
100
AcDbEntity
8
0
100
AcDbSpline
62
9
6
CONTINUOUS
70
0
71
3
72
22
73
18
74
16
42
0.0000001000
43
0.0000001000
44
0.0000000001
12
2.0773073842
22
0.7327138310
32
0.0000000000
13
-1.9643462506
23
0.9821731254
33
0.0000000000
40
0.0000000000
40
0.0000000000
40
0.0000000000
40
0.0000000000
40
0.0279803988
40
0.0813193463
40
0.1374580114
40
0.1975547605
40
0.2621204665
40
0.3314561162
40
0.4047938169
40
0.4812041063
40
0.5595841201
40
0.6385934468
40
0.7169444574
40
0.7932870790
40
0.8665542077
40
0.9355202625
40
1.0000000000
40
1.0000000000
40
1.0000000000
40
1.0000000000
10
-12.2564565362
20
-15.9885741265
30
0.0000000000
10
-12.2370819066
20
-15.9817402515
30
0.0000000000
10
-12.1821525106
20
-15.9579659406
30
0.0000000000
10
-12.0988573475
20
-15.8995765504
30
0.0000000000
10
-12.0166706180
20
-15.8050931015
30
0.0000000000
10
-11.9525587538
20
-15.6883068347
30
0.0000000000
10
-11.9079476873
20
-15.5527490388
30
0.0000000000
10
-11.8839549252
20
-15.4023698886
30
0.0000000000
10
-11.8812224052
20
-15.2415288786
30
0.0000000000
10
-11.8997853222
20
-15.0751313733
30
0.0000000000
10
-11.9390558552
20
-14.9081350857
30
0.0000000000
10
-11.9978571677
20
-14.7454751040
30
0.0000000000
10
-12.0744212518
20
-14.5920347094
30
0.0000000000
10
-12.1664923067
20
-14.4523436911
30
0.0000000000
10
-12.2712380706
20
-14.3307282151
30
0.0000000000
10
-12.3855229299
20
-14.2307458032
30
0.0000000000
10
-12.4688360993
20
-14.1786287674
30
0.0000000000
10
-12.5110562761
20
-14.1575186790
30
0.0000000000
11
-12.2564565362
21
-15.9885741265
31
0.0000000000
11
-12.1999508457
21
-15.9641048012
31
0.0000000000
11
-12.1037062474
21
-15.8973250709
31
0.0000000000
11
-12.0221155078
21
-15.8048919343
31
0.0000000000
11
-11.9577544854
21
-15.6896632268
31
0.0000000000
11
-11.9125994022
21
-15.5552454448
31
0.0000000000
11
-11.8878990176
21
-15.4049867457
31
0.0000000000
11
-11.8846312410
21
-15.2439552094
31
0.0000000000
11
-11.9028913572
21
-15.0771389054
31
0.0000000000
11
-11.9421300357
21
-14.9095321043
31
0.0000000000
11
-12.0011227796
21
-14.7463472214
31
0.0000000000
11
-12.0781062159
21
-14.5924533007
31
0.0000000000
11
-12.1706690011
21
-14.4526556400
31
0.0000000000
11
-12.2760788082
21
-14.3310797230
31
0.0000000000
11
-12.3905500789
21
-14.2318952138
31
0.0000000000
11
-12.5110562761
21
-14.1575186790
31
0.0000000000
0
SPLINE
5
300
100
AcDbEntity
8
0
100
AcDbSpline
62
0
6
CONTINUOUS
70
0
71
3
72
11
73
7
74
5
42
0.0000001000
43
0.0000001000
44
0.0000000001
12
0.3326638619
22
0.1325200677
32
0.0000000000
13
0.3191833561
23
-0.1595916781
33
0.0000000000
40
0.0000000000
40
0.0000000000
40
0.0000000000
40
0.0000000000
40
0.0623902608
40
0.3571798206
40
0.6665748523
40
1.0000000000
40
1.0000000000
40
1.0000000000
40
1.0000000000
10
-11.9934683793
20
21.6627830633
30
0.0000000000
10
-11.9865500509
20
21.6655390505
30
0.0000000000
10
-11.9464497286
20
21.6800647294
30
0.0000000000
10
-11.8670797672
20
21.6932184035
30
0.0000000000
10
-11.7550683601
20
21.6798932486
30
0.0000000000
10
-11.6829139552
20
21.6523790650
30
0.0000000000
10
-11.6474393693
20
21.6346417721
30
0.0000000000
11
-11.9934683793
21
21.6627830633
31
0.0000000000
11
-11.9724669024
21
21.6703854426
31
0.0000000000
11
-11.8687622612
21
21.6880478149
31
0.0000000000
11
-11.7590140110
21
21.6759772237
31
0.0000000000
11
-11.6474393693
21
21.6346417721
31
0.0000000000
0
SPLINE
5
301
100
AcDbEntity
8
0
100
AcDbSpline
62
0
6
CONTINUOUS
70
0
71
3
72
8
73
4
74
2
42
0.0000001000
43
0.0000001000
44
0.0000000001
12
-0.0213855510
22
-0.0400455493
32
0.0000000000
13
-0.0191935754
23
-0.0411576531
33
0.0000000000
40
0.0000000000
40
0.0000000000
40
0.0000000000
40
0.0000000000
40
1.0000000000
40
1.0000000000
40
1.0000000000
40
1.0000000000
10
-12.5109258382
20
-13.9301470490
30
0.0000000000
10
-12.5180543552
20
-13.9434955655
30
0.0000000000
10
-12.5248105378
20
-13.9570445205
30
0.0000000000
10
-12.5312083962
20
-13.9707637382
30
0.0000000000
11
-12.5109258382
21
-13.9301470490
31
0.0000000000
11
-12.5312083962
21
-13.9707637382
31
0.0000000000
0
SPLINE
5
302
100
AcDbEntity
8
0
100
AcDbSpline
62
0
6
CONTINUOUS
70
0
71
3
72
8
73
4
74
2
42
0.0000001000
43
0.0000001000
44
0.0000000001
12
0.0764106342
22
-0.0361932790
32
0.0000000000
13
0.0799694098
23
-0.0282315451
33
0.0000000000
40
0.0000000000
40
0.0000000000
40
0.0000000000
40
0.0000000000
40
1.0000000000
40
1.0000000000
40
1.0000000000
40
1.0000000000
10
-11.8547835768
20
-15.8475333001
30
0.0000000000
10
-11.8293133654
20
-15.8595977264
30
0.0000000000
10
-11.8031847055
20
-15.8704600258
30
0.0000000000
10
-11.7765282355
20
-15.8798705408
30
0.0000000000
11
-11.8547835768
21
-15.8475333001
31
0.0000000000
11
-11.7765282355
21
-15.8798705408
31
0.0000000000
0
SPLINE
5
303
100
AcDbEntity
8
0
100
AcDbSpline
62
0
6
CONTINUOUS
70
0
71
3
72
15
73
11
74
9
42
0.0000001000
43
0.0000001000
44
0.0000000001
12
1.0559052887
22
-0.5279526443
32
0.0000000000
13
-0.1045296779
23
-1.1759011522
33
0.0000000000
40
0.0000000000
40
0.0000000000
40
0.0000000000
40
0.0000000000
40
0.1093617684
40
0.2271657974
40
0.3521463495
40
0.4822284502
40
0.6148302452
40
0.7471365710
40
0.8763591096
40
1.0000000000
40
1.0000000000
40
1.0000000000
40
1.0000000000
10
2.6362899240
20
14.4927771255
30
0.0000000000
10
2.6747818138
20
14.4735311806
30
0.0000000000
10
2.7505287675
20
14.4248229351
30
0.0000000000
10
2.8525047528
20
14.3301525361
30
0.0000000000
10
2.9437842320
20
14.2145907912
30
0.0000000000
10
3.0209833998
20
14.0824817724
30
0.0000000000
10
3.0812819956
20
13.9387468712
30
0.0000000000
10
3.1224284929
20
13.7887427117
30
0.0000000000
10
3.1428852082
20
13.6381165827
30
0.0000000000
10
3.1421695849
20
13.5381648866
30
0.0000000000
10
3.1378615374
20
13.4897017315
30
0.0000000000
11
2.6362899240
21
14.4927771255
31
0.0000000000
11
2.7454046093
21
14.4237678995
31
0.0000000000
11
2.8478669083
21
14.3297331428
31
0.0000000000
11
2.9397387789
21
14.2142823859
31
0.0000000000
11
3.0174874752
21
14.0818515674
31
0.0000000000
11
3.0781238289
21
13.9375308803
31
0.0000000000
11
3.1193176176
21
13.7868682961
31
0.0000000000
11
3.1394874526
21
13.6356554451
31
0.0000000000
11
3.1378615374
21
13.4897017315
31
0.0000000000
0
SPLINE
5
304
100
AcDbEntity
8
0
100
AcDbSpline
62
0
6
CONTINUOUS
70
0
71
3
72
12
73
8
74
6
42
0.0000001000
43
0.0000001000
44
0.0000000001
12
-0.0527163453
22
-0.5930297731
32
0.0000000000
13
-0.5681904480
23
-0.1842368261
33
0.0000000000
40
0.0000000000
40
0.0000000000
40
0.0000000000
40
0.0000000000
40
0.2302653255
40
0.4435293721
40
0.6400788046
40
0.8231509822
40
1.0000000000
40
1.0000000000
40
1.0000000000
40
1.0000000000
10
-0.2001078655
20
-24.0606107480
30
0.0000000000
10
-0.2041541143
20
-24.1061288125
30
0.0000000000
10
-0.2187003258
20
-24.1934375374
30
0.0000000000
10
-0.2622169016
20
-24.3136267505
30
0.0000000000
10
-0.3255192105
20
-24.4140853487
30
0.0000000000
10
-0.4069876112
20
-24.4906605378
30
0.0000000000
10
-0.4717966677
20
-24.5231597955
30
0.0000000000
10
-0.5052913086
20
-24.5340204960
30
0.0000000000
11
-0.2001078655
21
-24.0606107480
31
0.0000000000
11
-0.2234647020
21
-24.1956990716
31
0.0000000000
11
-0.2676575090
21
-24.3147307418
31
0.0000000000
11
-0.3309912854
21
-24.4131296558
31
0.0000000000
11
-0.4110333139
21
-24.4871111513
31
0.0000000000
11
-0.5052913086
21
-24.5340204960
31
0.0000000000
0
SPLINE
5
305
100
AcDbEntity
8
0
100
AcDbSpline
62
9
6
CONTINUOUS
70
0
71
3
72
8
73
4
74
2
42
0.0000001000
43
0.0000001000
44
0.0000000001
12
-0.1406576130
22
0.0703440275
32
0.0000000000
13
-0.1286153843
23
0.0913265051
33
0.0000000000
40
0.0000000000
40
0.0000000000
40
0.0000000000
40
0.0000000000
40
1.0000000000
40
1.0000000000
40
1.0000000000
40
1.0000000000
10
-12.5453130503
20
-16.0821547179
30
0.0000000000
10
-12.5921989213
20
-16.0587067088
30
0.0000000000
10
-12.6371506359
20
-16.0312660365
30
0.0000000000
10
-12.6800224307
20
-16.0008238681
30
0.0000000000
11
-12.5453130503
21
-16.0821547179
31
0.0000000000
11
-12.6800224307
21
-16.0008238681
31
0.0000000000
0
SPLINE
5
306
100
AcDbEntity
8
0
100
AcDbSpline
62
9
6
CONTINUOUS
70
0
71
3
72
8
73
4
74
2
42
0.0000001000
43
0.0000001000
44
0.0000000001
12
-0.0676493130
22
0.0480360523
32
0.0000000000
13
-0.0641331394
23
0.0525856608
33
0.0000000000
40
0.0000000000
40
0.0000000000
40
0.0000000000
40
0.0000000000
40
1.0000000000
40
1.0000000000
40
1.0000000000
40
1.0000000000
10
-12.6800224307
20
-16.0008238681
30
0.0000000000
10
-12.7025722017
20
-15.9848118507
30
0.0000000000
10
-12.7245465492
20
-15.9679694497
30
0.0000000000
10
-12.7459242624
20
-15.9504408962
30
0.0000000000
11
-12.6800224307
21
-16.0008238681
31
0.0000000000
11
-12.7459242624
21
-15.9504408962
31
0.0000000000
0
SPLINE
5
307
100
AcDbEntity
8
0
100
AcDbSpline
62
9
6
CONTINUOUS
70
0
71
3
72
8
73
4
74
2
42
0.0000001000
43
0.0000001000
44
0.0000000001
12
-0.1064603093
22
0.0872916212
32
0.0000000000
13
-0.0967775523
23
0.0976551755
33
0.0000000000
40
0.0000000000
40
0.0000000000
40
0.0000000000
40
0.0000000000
40
1.0000000000
40
1.0000000000
40
1.0000000000
40
1.0000000000
10
-12.7459242624
20
-15.9504408962
30
0.0000000000
10
-12.7814110322
20
-15.9213436891
30
0.0000000000
10
-12.8152537379
20
-15.8903557447
30
0.0000000000
10
-12.8475129220
20
-15.8578040196
30
0.0000000000
11
-12.7459242624
21
-15.9504408962
31
0.0000000000
11
-12.8475129220
21
-15.8578040196
31
0.0000000000
0
SPLINE
5
308
100
AcDbEntity
8
0
100
AcDbSpline
62
9
6
CONTINUOUS
70
0
71
3
72
13
73
9
74
7
42
0.0000001000
43
0.0000001000
44
0.0000000001
12
-0.1605632836
22
1.1264969001
32
0.0000000000
13
1.0759118464
23
0.3874974560
33
0.0000000000
40
0.0000000000
40
0.0000000000
40
0.0000000000
40
0.0000000000
40
0.1348390209
40
0.3616199293
40
0.5674192015
40
0.7522060234
40
0.9213946885
40
1.0000000000
40
1.0000000000
40
1.0000000000
40
1.0000000000
10
-13.3257201597
20
-14.8774960106
30
0.0000000000
10
-13.3329368917
20
-14.8268640976
30
0.0000000000
10
-13.3458805177
20
-14.6901751898
30
0.0000000000
10
-13.3363801761
20
-14.4740717519
30
0.0000000000
10
-13.2763798310
20
-14.2457840749
30
0.0000000000
10
-13.1692250300
20
-14.0591958473
30
0.0000000000
10
-13.0431559856
20
-13.9489627455
30
0.0000000000
10
-12.9571118603
20
-13.9091741963
30
0.0000000000
10
-12.9289210651
20
-13.8990210769
30
0.0000000000
11
-13.3257201597
21
-14.8774960106
31
0.0000000000
11
-13.3399481635
21
-14.7247844209
31
0.0000000000
11
-13.3264648204
21
-14.4673977694
31
0.0000000000
11
-13.2641190215
21
-14.2419665240
31
0.0000000000
11
-13.1565917291
21
-14.0615691099
31
0.0000000000
11
-13.0103102369
21
-13.9367679590
31
0.0000000000
11
-12.9289210651
21
-13.8990210769
31
0.0000000000
0
SPLINE
5
309
100
AcDbEntity
8
0
100
AcDbSpline
62
9
6
CONTINUOUS
70
0
71
3
72
8
73
4
74
2
42
0.0000001000
43
0.0000001000
44
0.0000000001
12
0.0756177018
22
-0.0378252715
32
0.0000000000
13
0.0724347944
23
-0.0438759929
33
0.0000000000
40
0.0000000000
40
0.0000000000
40
0.0000000000
40
0.0000000000
40
1.0000000000
40
1.0000000000
40
1.0000000000
40
1.0000000000
10
-12.4949679797
20
-13.8883370295
30
0.0000000000
10
-12.4697620792
20
-13.9009454534
30
0.0000000000
10
-12.4450761240
20
-13.9146282767
30
0.0000000000
10
-12.4209311925
20
-13.9292536077
30
0.0000000000
11
-12.4949679797
21
-13.8883370295
31
0.0000000000
11
-12.4209311925
21
-13.9292536077
31
0.0000000000
0
SPLINE
5
30A
100
AcDbEntity
8
0
100
AcDbSpline
62
9
6
CONTINUOUS
70
0
71
3
72
17
73
13
74
11
42
0.0000001000
43
0.0000001000
44
0.0000000001
12
2.2192636027
22
-1.3442765293
32
0.0000000000
13
-2.0755521473
23
-1.5709889354
33
0.0000000000
40
0.0000000000
40
0.0000000000
40
0.0000000000
40
0.0000000000
40
0.0675818692
40
0.1777610426
40
0.2950748092
40
0.4158348710
40
0.5362063958
40
0.6520488324
40
0.7600416460
40
0.8580209523
40
0.9458832561
40
1.0000000000
40
1.0000000000
40
1.0000000000
40
1.0000000000
10
-12.4209311925
20
-13.9292536077
30
0.0000000000
10
-12.3709371983
20
-13.9595365145
30
0.0000000000
10
-12.2455387368
20
-14.0498184202
30
0.0000000000
10
-12.0661706350
20
-14.2326420730
30
0.0000000000
10
-11.8947696085
20
-14.4814135433
30
0.0000000000
10
-11.7609164193
20
-14.7618457167
30
0.0000000000
10
-11.6719157946
20
-15.0582678506
30
0.0000000000
10
-11.6327551008
20
-15.3543000108
30
0.0000000000
10
-11.6458171574
20
-15.6335944248
30
0.0000000000
10
-11.7111399980
20
-15.8811502379
30
0.0000000000
10
-11.8157268560
20
-16.0634968961
30
0.0000000000
10
-11.9049338315
20
-16.1499968260
30
0.0000000000
10
-11.9423745395
20
-16.1783357613
30
0.0000000000
11
-12.4209311925
21
-13.9292536077
31
0.0000000000
11
-12.2780949169
21
-14.0310539326
31
0.0000000000
11
-12.0766815034
21
-14.2332780111
31
0.0000000000
11
-11.9033302753
21
-14.4828835453
31
0.0000000000
11
-11.7682770143
21
-14.7650536722
31
0.0000000000
11
-11.6791011311
21
-15.0638484636
31
0.0000000000
11
-11.6411162783
21
-15.3615205690
31
0.0000000000
11
-11.6565130180
21
-15.6408482443
31
0.0000000000
11
-11.7244200030
21
-15.8854074302
31
0.0000000000
11
-11.8408993877
21
-16.0809483931
31
0.0000000000
11
-11.9423745395
21
-16.1783357613
31
0.0000000000
0
SPLINE
5
30B
100
AcDbEntity
8
0
100
AcDbSpline
62
9
6
CONTINUOUS
70
0
71
3
72
11
73
7
74
5
42
0.0000001000
43
0.0000001000
44
0.0000000001
12
-0.5744087008
22
-0.4347709184
32
0.0000000000
13
-0.6413156851
23
0.3204302347
33
0.0000000000
40
0.0000000000
40
0.0000000000
40
0.0000000000
40
0.0000000000
40
0.0946348108
40
0.3767068305
40
0.6733789495
40
1.0000000000
40
1.0000000000
40
1.0000000000
40
1.0000000000
10
-11.9423745395
20
-16.1783357613
30
0.0000000000
10
-11.9604942257
20
-16.1920505825
30
0.0000000000
10
-12.0358279739
20
-16.2423263672
30
0.0000000000
10
-12.1915959297
20
-16.2965802901
30
0.0000000000
10
-12.4119995180
20
-16.2882554616
30
0.0000000000
10
-12.5540532349
20
-16.2366786292
30
0.0000000000
10
-12.6238756359
20
-16.2017922092
30
0.0000000000
11
-11.9423745395
21
-16.1783357613
31
0.0000000000
11
-11.9990894666
21
-16.2160533187
31
0.0000000000
11
-12.1898846571
21
-16.2830632918
31
0.0000000000
11
-12.4025152665
21
-16.2781443972
31
0.0000000000
11
-12.6238756359
21
-16.2017922092
31
0.0000000000
0
SPLINE
5
30C
100
AcDbEntity
8
0
100
AcDbSpline
62
9
6
CONTINUOUS
70
0
71
3
72
10
73
6
74
4
42
0.0000001000
43
0.0000001000
44
0.0000000001
12
-0.4817607665
22
-0.1721300693
32
0.0000000000
13
-0.4547526469
23
0.2273023596
33
0.0000000000
40
0.0000000000
40
0.0000000000
40
0.0000000000
40
0.0000000000
40
0.1890048187
40
0.5745668988
40
1.0000000000
40
1.0000000000
40
1.0000000000
40
1.0000000000
10
-12.0513550949
20
-16.1335976963
30
0.0000000000
10
-12.0817067970
20
-16.1444421671
30
0.0000000000
10
-12.1771330630
20
-16.1686368812
30
0.0000000000
10
-12.3497625639
20
-16.1619969013
30
0.0000000000
10
-12.4808241073
20
-16.1143887005
30
0.0000000000
10
-12.5453130503
20
-16.0821547179
30
0.0000000000
11
-12.0513550949
21
-16.1335976963
31
0.0000000000
11
-12.1448950497
21
-16.1573290334
31
0.0000000000
11
-12.3408589725
21
-16.1527182398
31
0.0000000000
11
-12.5453130503
21
-16.0821547179
31
0.0000000000
0
SPLINE
5
30D
100
AcDbEntity
8
0
100
AcDbSpline
62
9
6
CONTINUOUS
70
0
71
3
72
14
73
10
74
8
42
0.0000001000
43
0.0000001000
44
0.0000000001
12
-0.9117605400
22
-0.3346834625
32
0.0000000000
13
-0.1345824283
23
-0.9618772647
33
0.0000000000
40
0.0000000000
40
0.0000000000
40
0.0000000000
40
0.0000000000
40
0.1221622432
40
0.2565120186
40
0.4005663505
40
0.5509809882
40
0.7039510796
40
0.8551114649
40
1.0000000000
40
1.0000000000
40
1.0000000000
40
1.0000000000
10
-0.9106302449
20
12.0044254178
30
0.0000000000
10
-0.9477578159
20
11.9907968569
30
0.0000000000
10
-1.0224501455
20
11.9529273211
30
0.0000000000
10
-1.1258280814
20
11.8737035406
30
0.0000000000
10
-1.2218602284
20
11.7727292673
30
0.0000000000
10
-1.3062650428
20
11.6544636214
30
0.0000000000
10
-1.3753970131
20
11.5240652788
30
0.0000000000
10
-1.4261865192
20
11.3874217639
30
0.0000000000
10
-1.4469593408
20
11.2934399663
30
0.0000000000
10
-1.4534591578
20
11.2469849704
30
0.0000000000
11
-0.9106302449
21
12.0044254178
31
0.0000000000
11
-1.0169753035
21
11.9518091061
31
0.0000000000
11
-1.1211105369
21
11.8731792479
31
0.0000000000
11
-1.2179478019
21
11.7721941134
31
0.0000000000
11
-1.3030573572
21
11.6534566997
31
0.0000000000
11
-1.3726732554
21
11.5222043503
31
0.0000000000
11
-1.4235813648
21
11.3844991366
31
0.0000000000
11
-1.4534591578
21
11.2469849704
31
0.0000000000
0
SPLINE
5
30E
100
AcDbEntity
8
0
100
AcDbSpline
62
9
6
CONTINUOUS
70
0
71
3
72
14
73
10
74
8
42
0.0000001000
43
0.0000001000
44
0.0000000001
12
-1.9458754819
22
-0.7297038219
32
0.0000000000
13
-0.2867601655
23
-2.0583167070
33
0.0000000000
40
0.0000000000
40
0.0000000000
40
0.0000000000
40
0.0000000000
40
0.1221133298
40
0.2560976825
40
0.3999311358
40
0.5502267758
40
0.7031774123
40
0.8544302015
40
1.0000000000
40
1.0000000000
40
1.0000000000
40
1.0000000000
10
-1.4122018584
20
13.0075008118
30
0.0000000000
10
-1.4914076366
20
12.9777986240
30
0.0000000000
10
-1.6503279650
20
12.8956128746
30
0.0000000000
10
-1.8698581431
20
12.7246888863
30
0.0000000000
10
-2.0735311634
20
12.5076172229
30
0.0000000000
10
-2.2525899131
20
12.2537973408
30
0.0000000000
10
-2.3993577592
20
11.9742299674
30
0.0000000000
10
-2.5074566960
20
11.6811041946
30
0.0000000000
10
-2.5518126854
20
11.4794506650
30
0.0000000000
10
-2.5657272252
20
11.3795744157
30
0.0000000000
11
-1.4122018584
21
13.0075008118
31
0.0000000000
11
-1.6387909342
21
12.8932232198
31
0.0000000000
11
-1.8597234442
21
12.7237508994
31
0.0000000000
11
-2.0651648154
21
12.5066253696
31
0.0000000000
11
-2.2457472547
21
12.2517751374
31
0.0000000000
11
-2.3935553570
21
11.9703703659
31
0.0000000000
11
-2.5018161123
21
11.6752689982
31
0.0000000000
11
-2.5657272252
21
11.3795744157
31
0.0000000000
0
SPLINE
5
30F
100
AcDbEntity
8
0
100
AcDbSpline
62
9
6
CONTINUOUS
70
0
71
3
72
12
73
8
74
6
42
0.0000001000
43
0.0000001000
44
0.0000000001
12
0.0884069685
22
1.1724960655
32
0.0000000000
13
-1.0450894363
23
0.5388421715
33
0.0000000000
40
0.0000000000
40
0.0000000000
40
0.0000000000
40
0.0000000000
40
0.2004640921
40
0.4120494159
40
0.6230494815
40
0.8218917468
40
1.0000000000
40
1.0000000000
40
1.0000000000
40
1.0000000000
10
-0.9106302449
20
12.0044254178
30
0.0000000000
10
-0.9047227707
20
12.0827732042
30
0.0000000000
10
-0.9134539487
20
12.2457250500
30
0.0000000000
10
-0.9771536610
20
12.4830190344
30
0.0000000000
10
-1.0861964539
20
12.7027715247
30
0.0000000000
10
-1.2305026085
20
12.8846506707
30
0.0000000000
10
-1.3501555052
20
12.9755100665
30
0.0000000000
10
-1.4122018565
20
13.0075008125
30
0.0000000000
11
-0.9106302449
21
12.0044254178
31
0.0000000000
11
-0.9211227389
21
12.2399023224
31
0.0000000000
11
-0.9849717209
21
12.4803568139
31
0.0000000000
11
-1.0959303818
21
12.7022606059
31
0.0000000000
11
-1.2431419428
21
12.8838999896
31
0.0000000000
11
-1.4122018565
21
13.0075008125
31
0.0000000000
0
SPLINE
5
310
100
AcDbEntity
8
0
100
AcDbSpline
62
9
6
CONTINUOUS
70
0
71
3
72
10
73
6
74
4
42
0.0000001000
43
0.0000001000
44
0.0000000001
12
-2.6759239975
22
-19.1462179927
32
0.0000000000
13
-1.6602902655
23
-19.2613517898
33
0.0000000000
40
0.0000000000
40
0.0000000000
40
0.0000000000
40
0.0000000000
40
0.4781206014
40
0.9510638209
40
1.0000000000
40
1.0000000000
40
1.0000000000
40
1.0000000000
10
-1.4534591578
20
11.2469849704
30
0.0000000000
10
-1.8799306215
20
8.1955845498
30
0.0000000000
10
-2.6541373847
20
2.1151828397
30
0.0000000000
10
-3.3075467935
20
-4.2963815839
30
0.0000000000
10
-3.6008600191
20
-7.6466945745
30
0.0000000000
10
-3.6279427731
20
-7.9608868946
30
0.0000000000
11
-1.4534591578
21
11.2469849704
31
0.0000000000
11
-2.6197418549
21
2.0776836558
31
0.0000000000
11
-3.5454332639
21
-7.0184200465
31
0.0000000000
11
-3.6279427731
21
-7.9608868946
31
0.0000000000
0
SPLINE
5
311
100
AcDbEntity
8
0
100
AcDbSpline
62
9
6
CONTINUOUS
70
0
71
3
72
9
73
5
74
3
42
0.0000001000
43
0.0000001000
44
0.0000000001
12
-1.4618973084
22
-16.9597563283
32
0.0000000000
13
-0.6142591302
23
-17.0111494587
33
0.0000000000
40
0.0000000000
40
0.0000000000
40
0.0000000000
40
0.0000000000
40
0.4754054670
40
1.0000000000
40
1.0000000000
40
1.0000000000
40
1.0000000000
10
-3.6279427731
20
-7.9608868946
30
0.0000000000
10
-3.8596074306
20
-10.6484738540
30
0.0000000000
10
-4.2821141229
20
-16.3073242530
30
0.0000000000
10
-4.5637017492
20
-21.9752040000
30
0.0000000000
10
-4.6711140764
20
-24.9498560018
30
0.0000000000
11
-3.6279427731
21
-7.9608868946
31
0.0000000000
11
-4.2294822448
21
-16.0310114139
31
0.0000000000
11
-4.6711140764
21
-24.9498560018
31
0.0000000000
0
SPLINE
5
312
100
AcDbEntity
8
0
100
AcDbSpline
62
9
6
CONTINUOUS
70
0
71
3
72
11
73
7
74
5
42
0.0000001000
43
0.0000001000
44
0.0000000001
12
-5.0454617649
22
-36.1008778358
32
0.0000000000
13
-1.3154739786
23
-36.4280056159
33
0.0000000000
40
0.0000000000
40
0.0000000000
40
0.0000000000
40
0.0000000000
40
0.2542515055
40
0.5057486292
40
0.7543692046
40
1.0000000000
40
1.0000000000
40
1.0000000000
40
1.0000000000
10
-2.5657272252
20
11.3795744157
30
0.0000000000
10
-2.9933326418
20
8.3200069021
30
0.0000000000
10
-3.7695971138
20
2.2233458582
30
0.0000000000
10
-4.6989942697
20
-6.8963971598
30
0.0000000000
10
-5.3862338576
20
-15.9325554199
30
0.0000000000
10
-5.6842785260
20
-21.9314362219
30
0.0000000000
10
-5.7919854993
20
-24.9140495538
30
0.0000000000
11
-2.5657272252
21
11.3795744157
31
0.0000000000
11
-3.7351133848
21
2.1857322444
31
0.0000000000
11
-4.6632718166
21
-6.9346715743
31
0.0000000000
11
-5.3491541231
21
-15.9713347485
31
0.0000000000
11
-5.7919854993
21
-24.9140495538
31
0.0000000000
0
SPLINE
5
313
100
AcDbEntity
8
0
100
AcDbSpline
62
9
6
CONTINUOUS
70
0
71
3
72
12
73
8
74
6
42
0.0000001000
43
0.0000001000
44
0.0000000001
12
-1.1012101583
22
-0.2893479007
32
0.0000000000
13
-1.0177235375
23
0.5105142716
33
0.0000000000
40
0.0000000000
40
0.0000000000
40
0.0000000000
40
0.0000000000
40
0.1776067039
40
0.3829538537
40
0.6001070177
40
0.8113974821
40
1.0000000000
40
1.0000000000
40
1.0000000000
40
1.0000000000
10
-1.4534591578
20
11.2469849704
30
0.0000000000
10
-1.5186532599
20
11.2298549281
30
0.0000000000
10
-1.6634851874
20
11.2092779786
30
0.0000000000
10
-1.8917140381
20
11.2093871058
30
0.0000000000
10
-2.1311437366
20
11.2381223557
30
0.0000000000
10
-2.3593263586
20
11.2928407827
30
0.0000000000
10
-2.5017454660
20
11.3474796618
30
0.0000000000
10
-2.5657272066
20
11.3795744208
30
0.0000000000
11
-1.4534591578
21
11.2469849704
31
0.0000000000
11
-1.6531681987
21
11.2152094655
31
0.0000000000
11
-1.8869705918
21
11.2138918182
31
0.0000000000
11
-2.1324806858
21
11.2431581881
31
0.0000000000
11
-2.3661918633
21
11.3002064364
31
0.0000000000
11
-2.5657272066
21
11.3795744208
31
0.0000000000
0
SPLINE
5
314
100
AcDbEntity
8
0
100
AcDbSpline
62
9
6
CONTINUOUS
70
0
71
3
72
14
73
10
74
8
42
0.0000001000
43
0.0000001000
44
0.0000000001
12
-0.0263044367
22
-0.7311793179
32
0.0000000000
13
0.6960311289
23
0.2255122744
33
0.0000000000
40
0.0000000000
40
0.0000000000
40
0.0000000000
40
0.0000000000
40
0.1708715826
40
0.3264550956
40
0.4670205099
40
0.5968575736
40
0.7236634557
40
0.8559496629
40
1.0000000000
40
1.0000000000
40
1.0000000000
40
1.0000000000
10
-4.6711140764
20
-24.9498560018
30
0.0000000000
10
-4.6726123033
20
-24.9915019242
30
0.0000000000
10
-4.6691039692
20
-25.0715540365
30
0.0000000000
10
-4.6413024925
20
-25.1829452976
30
0.0000000000
10
-4.5915259783
20
-25.2756465785
30
0.0000000000
10
-4.5208578571
20
-25.3444678019
30
0.0000000000
10
-4.4326479140
20
-25.3843350850
30
0.0000000000
10
-4.3330824532
20
-25.3928529316
30
0.0000000000
10
-4.2662267966
20
-25.3790413846
30
0.0000000000
10
-4.2328056237
20
-25.3682130115
30
0.0000000000
11
-4.6711140764
21
-24.9498560018
31
0.0000000000
11
-4.6645767039
21
-25.0747035512
31
0.0000000000
11
-4.6357232725
21
-25.1848191274
31
0.0000000000
11
-4.5858105062
21
-25.2747402716
31
0.0000000000
11
-4.5171072127
21
-25.3403452971
31
0.0000000000
11
-4.4326389935
21
-25.3787229395
31
0.0000000000
11
-4.3363069094
21
-25.3881011994
31
0.0000000000
11
-4.2328056237
21
-25.3682130115
31
0.0000000000
0
SPLINE
5
315
100
AcDbEntity
8
0
100
AcDbSpline
62
9
6
CONTINUOUS
70
0
71
3
72
12
73
8
74
6
42
0.0000001000
43
0.0000001000
44
0.0000000001
12
-0.0368274896
22
-1.0075059850
32
0.0000000000
13
0.9060039452
23
-0.4539179450
33
0.0000000000
40
0.0000000000
40
0.0000000000
40
0.0000000000
40
0.0000000000
40
0.2663991115
40
0.5074762022
40
0.7246982598
40
0.9247066201
40
1.0000000000
40
1.0000000000
40
1.0000000000
40
1.0000000000
10
-5.7919854993
20
-24.9140495538
30
0.0000000000
10
-5.7952557695
20
-25.0035157868
30
0.0000000000
10
-5.7879140182
20
-25.1749874774
30
0.0000000000
10
-5.7290153151
20
-25.4132761974
30
0.0000000000
10
-5.6236552889
20
-25.6110082274
30
0.0000000000
10
-5.5032226904
20
-25.7289541899
30
0.0000000000
10
-5.4228357348
20
-25.7760498137
30
0.0000000000
10
-5.4000970351
20
-25.7874421525
30
0.0000000000
11
-5.7919854993
21
-24.9140495538
31
0.0000000000
11
-5.7782050995
21
-25.1822737405
31
0.0000000000
11
-5.7170870645
21
-25.4175125883
31
0.0000000000
11
-5.6113468949
21
-25.6092922517
31
0.0000000000
11
-5.4658288309
21
-25.7488804859
31
0.0000000000
11
-5.4000970351
21
-25.7874421525
31
0.0000000000
0
SPLINE
5
316
100
AcDbEntity
8
0
100
AcDbSpline
62
9
6
CONTINUOUS
70
0
71
3
72
12
73
8
74
6
42
0.0000001000
43
0.0000001000
44
0.0000000001
12
-1.0566239635
22
-0.4513896080
32
0.0000000000
13
-1.0283104552
23
0.5126249957
33
0.0000000000
40
0.0000000000
40
0.0000000000
40
0.0000000000
40
0.0000000000
40
0.1840192588
40
0.3910172372
40
0.6064497124
40
0.8143443146
40
1.0000000000
40
1.0000000000
40
1.0000000000
40
1.0000000000
10
-4.6711140765
20
-24.9498560018
30
0.0000000000
10
-4.7359271293
20
-24.9775441288
30
0.0000000000
10
-4.8810595695
20
-25.0191486703
30
0.0000000000
10
-5.1126055382
20
-25.0452796381
30
0.0000000000
10
-5.3547918763
20
-25.0375059927
30
0.0000000000
10
-5.5851599014
20
-24.9965398666
30
0.0000000000
10
-5.7283367365
20
-24.9457683523
30
0.0000000000
10
-5.7919739640
20
-24.9140444373
30
0.0000000000
11
-4.6711140765
21
-24.9498560018
31
0.0000000000
11
-4.8734520385
21
-25.0112207056
31
0.0000000000
11
-5.1096305434
21
-25.0392947009
31
0.0000000000
11
-5.3570367542
21
-25.0313900518
31
0.0000000000
11
-5.5919828408
21
-24.9882635868
31
0.0000000000
11
-5.7919739640
21
-24.9140444373
31
0.0000000000
0
SPLINE
5
317
100
AcDbEntity
8
0
100
AcDbSpline
62
9
6
CONTINUOUS
70
0
71
3
72
11
73
7
74
5
42
0.0000001000
43
0.0000001000
44
0.0000000001
12
-0.0606005596
22
-0.5926285512
32
0.0000000000
13
-0.5708219146
23
-0.1833626536
33
0.0000000000
40
0.0000000000
40
0.0000000000
40
0.0000000000
40
0.0000000000
40
0.3617258477
40
0.6795662800
40
0.9642805007
40
1.0000000000
40
1.0000000000
40
1.0000000000
40
1.0000000000
10
-4.2328056237
20
-25.3682130115
30
0.0000000000
10
-4.2401125533
20
-25.4396693666
30
0.0000000000
10
-4.2696593848
20
-25.5733129007
30
0.0000000000
10
-4.3681513520
20
-25.7422243493
30
0.0000000000
10
-4.4747264696
20
-25.8191744771
30
0.0000000000
10
-4.5350584007
20
-25.8406528475
30
0.0000000000
10
-4.5418548917
20
-25.8428360549
30
0.0000000000
11
-4.2328056237
21
-25.3682130115
31
0.0000000000
11
-4.2828623095
21
-25.5778053426
31
0.0000000000
11
-4.3824046726
21
-25.7388714809
31
0.0000000000
11
-4.5216925603
21
-25.8356512139
31
0.0000000000
11
-4.5418548917
21
-25.8428360549
31
0.0000000000
0
SPLINE
5
318
100
AcDbEntity
8
0
100
AcDbSpline
62
9
6
CONTINUOUS
70
0
71
3
72
10
73
6
74
4
42
0.0000001000
43
0.0000001000
44
0.0000000001
12
-0.0115380446
22
-0.3890217378
32
0.0000000000
13
0.3416270571
23
-0.1713221388
33
0.0000000000
40
0.0000000000
40
0.0000000000
40
0.0000000000
40
0.0000000000
40
0.1796302937
40
0.5391392957
40
1.0000000000
40
1.0000000000
40
1.0000000000
40
1.0000000000
10
-20.1528000204
20
-17.5696915445
30
0.0000000000
10
-20.1534908812
20
-17.5929849075
30
0.0000000000
10
-20.1433516803
20
-17.6636197752
30
0.0000000000
10
-20.0609054859
20
-17.7679144761
30
0.0000000000
10
-19.9717373420
20
-17.8240954737
30
0.0000000000
10
-19.9192565133
20
-17.8504140209
30
0.0000000000
11
-20.1528000204
21
-17.5696915445
31
0.0000000000
11
-20.1429257316
21
-17.6384539861
31
0.0000000000
11
-20.0651265023
21
-17.7517019342
31
0.0000000000
11
-19.9192565133
21
-17.8504140209
31
0.0000000000
0
SPLINE
5
319
100
AcDbEntity
8
0
100
AcDbSpline
62
9
6
CONTINUOUS
70
0
71
3
72
14
73
10
74
8
42
0.0000001000
43
0.0000001000
44
0.0000000001
12
0.2842092895
22
2.0534294910
32
0.0000000000
13
1.9316794504
23
0.7523045234
33
0.0000000000
40
0.0000000000
40
0.0000000000
40
0.0000000000
40
0.0000000000
40
0.1460192798
40
0.2977356888
40
0.4510511663
40
0.6015121326
40
0.7452260643
40
0.8787410629
40
1.0000000000
40
1.0000000000
40
1.0000000000
40
1.0000000000
10
-16.6929982666
20
18.4432099364
30
0.0000000000
10
-16.6791649214
20
18.5431567015
30
0.0000000000
10
-16.6352544046
20
18.7449958666
30
0.0000000000
10
-16.5285747921
20
19.0387185274
30
0.0000000000
10
-16.3839158261
20
19.3192351373
30
0.0000000000
10
-16.2075632343
20
19.5743113982
30
0.0000000000
10
-16.0070835739
20
19.7928980618
30
0.0000000000
10
-15.7910942020
20
19.9655400034
30
0.0000000000
10
-15.6344897298
20
20.0491979657
30
0.0000000000
10
-15.5564119309
20
20.0796058480
30
0.0000000000
11
-16.6929982666
21
18.4432099364
31
0.0000000000
11
-16.6297188269
21
18.7392203555
31
0.0000000000
11
-16.5228350714
21
19.0350102231
31
0.0000000000
11
-16.3770894824
21
19.3174462513
31
0.0000000000
11
-16.1991589361
21
19.5736224299
31
0.0000000000
11
-15.9968439927
21
19.7923111736
31
0.0000000000
11
-15.7793673641
21
19.9635114347
31
0.0000000000
11
-15.5564119309
21
20.0796058480
31
0.0000000000
0
SPLINE
5
31A
100
AcDbEntity
8
0
100
AcDbSpline
62
9
6
CONTINUOUS
70
0
71
3
72
11
73
7
74
5
42
0.0000001000
43
0.0000001000
44
0.0000000001
12
1.3849487429
22
36.4243367419
32
0.0000000000
13
4.9768793528
23
36.1092932915
33
0.0000000000
40
0.0000000000
40
0.0000000000
40
0.0000000000
40
0.0000000000
40
0.2454839832
40
0.4940636411
40
0.7456136783
40
1.0000000000
40
1.0000000000
40
1.0000000000
40
1.0000000000
10
-19.9192565407
20
-17.8504140331
30
0.0000000000
10
-19.8059289627
20
-14.8698836107
30
0.0000000000
10
-19.4994282912
20
-8.8739525046
30
0.0000000000
10
-18.8080396302
20
0.1599029448
30
0.0000000000
10
-17.8828451370
20
9.2815198576
30
0.0000000000
10
-17.1150149440
20
15.3813065032
30
0.0000000000
10
-16.6929982666
20
18.4432099364
30
0.0000000000
11
-19.9192565407
21
-17.8504140331
31
0.0000000000
11
-19.4639142959
21
-8.9139546621
31
0.0000000000
11
-18.7738601302
21
0.1206225825
31
0.0000000000
11
-17.8498735578
21
9.2431123309
31
0.0000000000
11
-16.6929982666
21
18.4432099364
31
0.0000000000
0
SPLINE
5
31B
100
AcDbEntity
8
0
100
AcDbSpline
62
9
6
CONTINUOUS
70
0
71
3
72
20
73
16
74
14
42
0.0000001000
43
0.0000001000
44
0.0000000001
12
-2.9641896178
22
1.4827962273
32
0.0000000000
13
3.0923595202
23
-1.2224120571
33
0.0000000000
40
0.0000000000
40
0.0000000000
40
0.0000000000
40
0.0000000000
40
0.0783515222
40
0.1645332896
40
0.2562929899
40
0.3507157031
40
0.4447965973
40
0.5353167914
40
0.6197234599
40
0.6963785947
40
0.7652373473
40
0.8282835639
40
0.8895835553
40
0.9539528237
40
1.0000000000
40
1.0000000000
40
1.0000000000
40
1.0000000000
10
-12.6238756359
20
-16.2017922092
30
0.0000000000
10
-12.7012918921
20
-16.1630657620
30
0.0000000000
10
-12.8536244405
20
-16.0606015783
30
0.0000000000
10
-13.0534070808
20
-15.8579039389
30
0.0000000000
10
-13.2257113030
20
-15.6095318198
30
0.0000000000
10
-13.3605686891
20
-15.3294445101
30
0.0000000000
10
-13.4504212664
20
-15.0332430417
30
0.0000000000
10
-13.4900723895
20
-14.7372729253
30
0.0000000000
10
-13.4770182028
20
-14.4578842903
30
0.0000000000
10
-13.4112155132
20
-14.2101197129
30
0.0000000000
10
-13.2943815354
20
-14.0076397428
30
0.0000000000
10
-13.1300536781
20
-13.8642434241
30
0.0000000000
10
-12.9283145972
20
-13.7938829415
30
0.0000000000
10
-12.7350471097
20
-13.8008507160
30
0.0000000000
10
-12.6172108034
20
-13.8361135001
30
0.0000000000
10
-12.5697459954
20
-13.8548763746
30
0.0000000000
11
-12.6238756359
21
-16.2017922092
31
0.0000000000
11
-12.8409147826
21
-16.0592049068
31
0.0000000000
11
-13.0429280609
21
-15.8572636502
31
0.0000000000
11
-13.2171777994
21
-15.6080049862
31
0.0000000000
11
-13.3532055582
21
-15.3261614402
31
0.0000000000
11
-13.4431949170
21
-15.0276092080
31
0.0000000000
11
-13.4816385711
21
-14.7300642602
31
0.0000000000
11
-13.4662514457
21
-14.4507320960
31
0.0000000000
11
-13.3979199577
21
-14.2060294403
31
0.0000000000
11
-13.2806885602
21
-14.0102158069
31
0.0000000000
11
-13.1215847094
21
-13.8747542321
31
0.0000000000
11
-12.9299065037
21
-13.8073890170
31
0.0000000000
11
-12.7166134295
21
-13.8120556282
31
0.0000000000
11
-12.5697459954
21
-13.8548763746
31
0.0000000000
0
SPLINE
5
31C
100
AcDbEntity
8
0
100
AcDbSpline
62
9
6
CONTINUOUS
70
0
71
3
72
8
73
4
74
2
42
0.0000001000
43
0.0000001000
44
0.0000000001
12
0.0763082892
22
-0.0301647244
32
0.0000000000
13
0.0731620124
23
-0.0365570755
33
0.0000000000
40
0.0000000000
40
0.0000000000
40
0.0000000000
40
0.0000000000
40
1.0000000000
40
1.0000000000
40
1.0000000000
40
1.0000000000
10
-12.5697459954
20
-13.8548763746
30
0.0000000000
10
-12.5443098990
20
-13.8649312828
30
0.0000000000
10
-12.5193553172
20
-13.8761513377
30
0.0000000000
10
-12.4949679797
20
-13.8883370295
30
0.0000000000
11
-12.5697459954
21
-13.8548763746
31
0.0000000000
11
-12.4949679797
21
-13.8883370295
31
0.0000000000
0
SPLINE
5
31D
100
AcDbEntity
8
0
100
AcDbSpline
62
9
6
CONTINUOUS
70
0
71
3
72
10
73
6
74
4
42
0.0000001000
43
0.0000001000
44
0.0000000001
12
-0.0391737529
22
-0.3725746819
32
0.0000000000
13
0.3311672627
23
-0.1650460867
33
0.0000000000
40
0.0000000000
40
0.0000000000
40
0.0000000000
40
0.0000000000
40
0.1875559273
40
0.5306075251
40
1.0000000000
40
1.0000000000
40
1.0000000000
40
1.0000000000
10
-16.9280909152
20
18.7060008581
30
0.0000000000
10
-16.9305400051
20
18.6827079948
30
0.0000000000
10
-16.9198024548
20
18.6131053009
30
0.0000000000
10
-16.8302791711
20
18.5211116261
30
0.0000000000
10
-16.7448067158
20
18.4690357645
30
0.0000000000
10
-16.6929909088
20
18.4432119675
30
0.0000000000
11
-16.9280909152
21
18.7060008581
31
0.0000000000
11
-16.9183556601
21
18.6361001209
31
0.0000000000
11
-16.8393182175
21
18.5367749724
31
0.0000000000
11
-16.6929909088
21
18.4432119675
31
0.0000000000
0
SPLINE
5
31E
100
AcDbEntity
8
0
100
AcDbSpline
62
9
6
CONTINUOUS
70
0
71
3
72
9
73
5
74
3
42
0.0000001000
43
0.0000001000
44
0.0000000001
12
0.3352834098
22
0.1336093334
32
0.0000000000
13
0.3228763770
23
-0.1565751146
33
0.0000000000
40
0.0000000000
40
0.0000000000
40
0.0000000000
40
0.0000000000
40
0.4773562297
40
1.0000000000
40
1.0000000000
40
1.0000000000
40
1.0000000000
10
-15.9063400803
20
20.1062060715
30
0.0000000000
10
-15.8529902055
20
20.1274658207
30
0.0000000000
10
-15.7299789081
20
20.1434535915
30
0.0000000000
10
-15.6126617065
20
20.1068835174
30
0.0000000000
10
-15.5564119309
20
20.0796058480
30
0.0000000000
11
-15.9063400803
21
20.1062060715
31
0.0000000000
11
-15.7368472949
21
20.1307532427
31
0.0000000000
11
-15.5564119309
21
20.0796058480
31
0.0000000000
0
SPLINE
5
31F
100
AcDbEntity
8
0
100
AcDbSpline
62
9
6
CONTINUOUS
70
0
71
3
72
8
73
4
74
2
42
0.0000001000
43
0.0000001000
44
0.0000000001
12
-0.0143229270
22
0.0071474377
32
0.0000000000
13
-0.0141111513
23
0.0075518278
33
0.0000000000
40
0.0000000000
40
0.0000000000
40
0.0000000000
40
0.0000000000
40
1.0000000000
40
1.0000000000
40
1.0000000000
40
1.0000000000
10
-19.5344610030
20
-18.7202524147
30
0.0000000000
10
-19.5392353120
20
-18.7178699354
30
0.0000000000
10
-19.5439754313
20
-18.7154196434
30
0.0000000000
10
-19.5486791484
20
-18.7129023675
30
0.0000000000
11
-19.5344610030
21
-18.7202524147
31
0.0000000000
11
-19.5486791484
21
-18.7129023675
31
0.0000000000
0
SPLINE
5
320
100
AcDbEntity
8
0
100
AcDbSpline
62
9
6
CONTINUOUS
70
0
71
3
72
12
73
8
74
6
42
0.0000001000
43
0.0000001000
44
0.0000000001
12
-0.8736331544
22
0.4675399628
32
0.0000000000
13
0.0368945774
23
0.9850594019
33
0.0000000000
40
0.0000000000
40
0.0000000000
40
0.0000000000
40
0.0000000000
40
0.0604224159
40
0.2621111233
40
0.4823538102
40
0.7278916149
40
1.0000000000
40
1.0000000000
40
1.0000000000
40
1.0000000000
10
-19.5486791484
20
-18.7129023675
30
0.0000000000
10
-19.5662748237
20
-18.7034857361
30
0.0000000000
10
-19.6403947238
20
-18.6585704049
30
0.0000000000
10
-19.7551436709
20
-18.5449562577
30
0.0000000000
10
-19.8582584734
20
-18.3482424913
30
0.0000000000
10
-19.9156819204
20
-18.1107611148
30
0.0000000000
10
-19.9226029820
20
-17.9397616741
30
0.0000000000
10
-19.9192565407
20
-17.8504140331
30
0.0000000000
11
-19.5486791484
21
-18.7129023675
31
0.0000000000
11
-19.5998221653
21
-18.6818838188
31
0.0000000000
11
-19.7426884928
21
-18.5436214527
31
0.0000000000
11
-19.8463667604
21
-18.3528727404
31
0.0000000000
11
-19.9061077339
21
-18.1183224232
31
0.0000000000
11
-19.9192565407
21
-17.8504140331
31
0.0000000000
0
SPLINE
5
321
100
AcDbEntity
8
0
100
AcDbSpline
62
0
6
CONTINUOUS
70
0
71
3
72
18
73
14
74
12
42
0.0000001000
43
0.0000001000
44
0.0000000001
12
0.8134822567
22
0.3756930640
32
0.0000000000
13
0.8016850218
23
-0.4008397784
33
0.0000000000
40
0.0000000000
40
0.0000000000
40
0.0000000000
40
0.0000000000
40
0.0893849138
40
0.1790408614
40
0.2685268285
40
0.3627312415
40
0.4548475124
40
0.5475230269
40
0.6418820557
40
0.7327666972
40
0.8282674027
40
0.9200880842
40
1.0000000000
40
1.0000000000
40
1.0000000000
40
1.0000000000
10
12.1156296376
20
24.7325289018
30
0.0000000000
10
12.1398673180
20
24.7437226658
30
0.0000000000
10
12.1893374010
20
24.7642082029
30
0.0000000000
10
12.2657392979
20
24.7888799940
30
0.0000000000
10
12.3452794299
20
24.8076784376
30
0.0000000000
10
12.4268337368
20
24.8199837528
30
0.0000000000
10
12.5100760792
20
24.8255069707
30
0.0000000000
10
12.5935375941
20
24.8241249236
30
0.0000000000
10
12.6762289172
20
24.8157962584
30
0.0000000000
10
12.7587654819
20
24.8004873429
30
0.0000000000
10
12.8390177298
20
24.7785422535
30
0.0000000000
10
12.9140557182
20
24.7510767066
30
0.0000000000
10
12.9607698831
20
24.7297744253
30
0.0000000000
10
12.9821246118
20
24.7190971338
30
0.0000000000
11
12.1156296376
21
24.7325289018
31
0.0000000000
11
12.1896291631
21
24.7631713526
31
0.0000000000
11
12.2660777155
21
24.7878587983
31
0.0000000000
11
12.3441116256
21
24.8063009031
31
0.0000000000
11
12.4275783574
21
24.8188947864
31
0.0000000000
11
12.5099376854
21
24.8243595185
31
0.0000000000
11
12.5929678358
21
24.8229844592
31
0.0000000000
11
12.6770922683
21
24.8145115903
31
0.0000000000
11
12.7571633904
21
24.7996598961
31
0.0000000000
11
12.8397059599
21
24.7770884778
31
0.0000000000
11
12.9169686574
21
24.7488087263
31
0.0000000000
11
12.9821246118
21
24.7190971338
31
0.0000000000
0
SPLINE
5
322
100
AcDbEntity
8
0
100
AcDbSpline
62
0
6
CONTINUOUS
70
0
71
3
72
12
73
8
74
6
42
0.0000001000
43
0.0000001000
44
0.0000000001
12
0.0794384856
22
-0.0397300228
32
0.0000000000
13
0.0445479325
23
-0.0768293223
33
0.0000000000
40
0.0000000000
40
0.0000000000
40
0.0000000000
40
0.0000000000
40
0.1689358061
40
0.4446982556
40
0.7179283992
40
0.9949015518
40
1.0000000000
40
1.0000000000
40
1.0000000000
40
1.0000000000
10
19.4426242261
20
21.4888466045
30
0.0000000000
10
19.4470975610
20
21.4866093300
30
0.0000000000
10
19.4586041091
20
21.4801838923
30
0.0000000000
10
19.4757430707
20
21.4674870202
30
0.0000000000
10
19.4927695614
20
21.4498138441
30
0.0000000000
10
19.5021292130
20
21.4362343163
30
0.0000000000
10
19.5063278145
20
21.4290162761
30
0.0000000000
10
19.5064035229
20
21.4288857060
30
0.0000000000
11
19.4426242261
21
21.4888466045
31
0.0000000000
11
19.4557114824
21
21.4815197240
31
0.0000000000
11
19.4753521294
21
21.4669281210
31
0.0000000000
11
19.4921823649
21
21.4494790962
31
0.0000000000
11
19.5061758534
21
21.4292771039
31
0.0000000000
11
19.5064035229
21
21.4288857060
31
0.0000000000
0
SPLINE
5
323
100
AcDbEntity
8
0
100
AcDbSpline
62
0
6
CONTINUOUS
70
0
71
3
72
9
73
5
74
3
42
0.0000001000
43
0.0000001000
44
0.0000000001
12
0.0106959682
22
0.0091088848
32
0.0000000000
13
0.0125651438
23
0.0062858928
33
0.0000000000
40
0.0000000000
40
0.0000000000
40
0.0000000000
40
0.0000000000
40
0.2054428923
40
1.0000000000
40
1.0000000000
40
1.0000000000
40
1.0000000000
10
-1.5502239665
20
21.9298525460
30
0.0000000000
10
-1.5494914963
20
21.9304763313
30
0.0000000000
10
-1.5458517393
20
21.9334250050
30
0.0000000000
10
-1.5418621884
20
21.9359210588
30
0.0000000000
10
-1.5385342803
20
21.9375858924
30
0.0000000000
11
-1.5502239665
21
21.9298525460
31
0.0000000000
11
-1.5479812082
21
21.9316687958
31
0.0000000000
11
-1.5385342803
21
21.9375858924
31
0.0000000000
0
SPLINE
5
324
100
AcDbEntity
8
0
100
AcDbSpline
62
0
6
CONTINUOUS
70
0
71
3
72
8
73
4
74
2
42
0.0000001000
43
0.0000001000
44
0.0000000001
12
-0.0050308648
22
0.0025152164
32
0.0000000000
13
-0.0052241425
23
0.0020832623
33
0.0000000000
40
0.0000000000
40
0.0000000000
40
0.0000000000
40
0.0000000000
40
1.0000000000
40
1.0000000000
40
1.0000000000
40
1.0000000000
10
-0.2343250607
20
22.0068400764
30
0.0000000000
10
-0.2360020156
20
22.0076784818
30
0.0000000000
10
-0.2377140994
20
22.0084466192
30
0.0000000000
10
-0.2394554803
20
22.0091410400
30
0.0000000000
11
-0.2343250607
21
22.0068400764
31
0.0000000000
11
-0.2394554803
21
22.0091410400
31
0.0000000000
0
SPLINE
5
325
100
AcDbEntity
8
0
100
AcDbSpline
62
0
6
CONTINUOUS
70
0
71
3
72
9
73
5
74
3
42
0.0000001000
43
0.0000001000
44
0.0000000001
12
0.0795225061
22
0.0420674689
32
0.0000000000
13
0.0728595284
23
0.0528107048
33
0.0000000000
40
0.0000000000
40
0.0000000000
40
0.0000000000
40
0.0000000000
40
0.5842404426
40
1.0000000000
40
1.0000000000
40
1.0000000000
40
1.0000000000
10
19.0737132149
20
-12.2006178953
30
0.0000000000
10
19.0891999697
20
-12.1924253898
30
0.0000000000
10
19.1151192906
20
-12.1772606095
30
0.0000000000
10
19.1398964169
20
-12.1603334187
30
0.0000000000
10
19.1499937653
20
-12.1530145669
30
0.0000000000
11
19.0737132149
21
-12.2006178953
31
0.0000000000
11
19.1190963276
21
-12.1741040582
31
0.0000000000
11
19.1499937653
21
-12.1530145669
31
0.0000000000
0
SPLINE
5
326
100
AcDbEntity
8
0
100
AcDbSpline
62
9
6
CONTINUOUS
70
0
71
3
72
25
73
21
74
19
42
0.0000001000
43
0.0000001000
44
0.0000000001
12
0.9805003859
22
0.4902423243
32
0.0000000000
13
1.0206651721
23
-0.3999514344
33
0.0000000000
40
0.0000000000
40
0.0000000000
40
0.0000000000
40
0.0000000000
40
0.0486159936
40
0.0993722266
40
0.1520748349
40
0.2065079021
40
0.2624326998
40
0.3195922882
40
0.3777135757
40
0.4365142592
40
0.4957056498
40
0.5549977874
40
0.6141011718
40
0.6727315420
40
0.7306113606
40
0.7874746053
40
0.8430698023
40
0.8971631016
40
0.9495383397
40
1.0000000000
40
1.0000000000
40
1.0000000000
40
1.0000000000
10
-1.3875345208
20
21.9626842049
30
0.0000000000
10
-1.3716451873
20
21.9706287441
30
0.0000000000
10
-1.3386309934
20
21.9858124922
30
0.0000000000
10
-1.2868560436
20
22.0060689362
30
0.0000000000
10
-1.2320524922
20
22.0241890011
30
0.0000000000
10
-1.1745949347
20
22.0400516172
30
0.0000000000
10
-1.1148685038
20
22.0535552477
30
0.0000000000
10
-1.0532733330
20
22.0646147203
30
0.0000000000
10
-0.9902200646
20
22.0731623545
30
0.0000000000
10
-0.9261272642
20
22.0791480303
30
0.0000000000
10
-0.8614169874
20
22.0825394009
30
0.0000000000
10
-0.7965121973
20
22.0833216493
30
0.0000000000
10
-0.7318333588
20
22.0814971920
30
0.0000000000
10
-0.6677963458
20
22.0770852510
30
0.0000000000
10
-0.6048093124
20
22.0701213222
30
0.0000000000
10
-0.5432702109
20
22.0606565105
30
0.0000000000
10
-0.4835643594
20
22.0487566854
30
0.0000000000
10
-0.4260625488
20
22.0345015717
30
0.0000000000
10
-0.3711247230
20
22.0179854794
30
0.0000000000
10
-0.3357340400
20
22.0052868790
30
0.0000000000
10
-0.3185658869
20
21.9985594746
30
0.0000000000
11
-1.3875345208
21
21.9626842049
31
0.0000000000
11
-1.3391463063
21
21.9850193857
31
0.0000000000
11
-1.2873534020
21
22.0053505585
31
0.0000000000
11
-1.2325163880
21
22.0235371794
31
0.0000000000
11
-1.1750086450
21
22.0394589264
31
0.0000000000
11
-1.1152193003
21
22.0530128462
31
0.0000000000
11
-1.0535503895
21
22.0641134114
31
0.0000000000
11
-0.9904163388
21
22.0726923339
31
0.0000000000
11
-0.9262378228
21
22.0786993655
31
0.0000000000
11
-0.8614397697
21
22.0821020567
31
0.0000000000
11
-0.7964467186
21
22.0828856610
31
0.0000000000
11
-0.7316817934
21
22.0810526950
31
0.0000000000
11
-0.6675623304
21
22.0766225300
31
0.0000000000
11
-0.6044991641
21
22.0696309368
31
0.0000000000
11
-0.5428924168
21
22.0601293683
31
0.0000000000
11
-0.4831294386
21
22.0481841071
31
0.0000000000
11
-0.4255830071
21
22.0338754084
31
0.0000000000
11
-0.3706131178
21
22.0172975858
31
0.0000000000
11
-0.3185658869
21
21.9985594746
31
0.0000000000
0
SPLINE
5
327
100
AcDbEntity
8
0
100
AcDbSpline
62
9
6
CONTINUOUS
70
0
71
3
72
16
73
12
74
10
42
0.0000001000
43
0.0000001000
44
0.0000000001
12
-0.4035520321
22
0.2018036023
32
0.0000000000
13
-0.4066845390
23
-0.1946481669
33
0.0000000000
40
0.0000000000
40
0.0000000000
40
0.0000000000
40
0.0000000000
40
0.0179524839
40
0.1292323758
40
0.2419262945
40
0.3571674186
40
0.4759509126
40
0.5990963966
40
0.7272300812
40
0.8607829722
40
1.0000000000
40
1.0000000000
40
1.0000000000
40
1.0000000000
10
12.9821218188
20
24.7190982764
30
0.0000000000
10
12.9797068984
20
24.7203059017
30
0.0000000000
10
12.9622290072
20
24.7288111488
30
0.0000000000
10
12.9282956677
20
24.7421660685
30
0.0000000000
10
12.8786719453
20
24.7544598956
30
0.0000000000
10
12.8267779640
20
24.7604786638
30
0.0000000000
10
12.7729780853
20
24.7601999496
30
0.0000000000
10
12.7176396976
20
24.7536463787
30
0.0000000000
10
12.6611305934
20
24.7408798802
30
0.0000000000
10
12.6038268098
20
24.7220023125
30
0.0000000000
10
12.5661215336
20
24.7057679752
30
0.0000000000
10
12.5472490626
20
24.6967351955
30
0.0000000000
11
12.9821218188
21
24.7190982764
31
0.0000000000
11
12.9748384529
21
24.7226424735
31
0.0000000000
11
12.9281607909
21
24.7410397136
31
0.0000000000
11
12.8788561471
21
24.7533154836
31
0.0000000000
11
12.8272538834
21
24.7593877796
31
0.0000000000
11
12.7736987103
21
24.7592160379
31
0.0000000000
11
12.7185483839
21
24.7528014057
31
0.0000000000
11
12.6621713161
21
24.7401867337
31
0.0000000000
11
12.6049441138
21
24.7214562896
31
0.0000000000
11
12.5472490626
21
24.6967351955
31
0.0000000000
0
SPLINE
5
328
100
AcDbEntity
8
0
100
AcDbSpline
62
9
6
CONTINUOUS
70
0
71
3
72
18
73
14
74
12
42
0.0000001000
43
0.0000001000
44
0.0000000001
12
0.3421819379
22
0.1701299167
32
0.0000000000
13
0.1978664154
23
-0.3095906505
33
0.0000000000
40
0.0000000000
40
0.0000000000
40
0.0000000000
40
0.0000000000
40
0.1612065774
40
0.3104715131
40
0.4468244645
40
0.5693897844
40
0.6773973839
40
0.7701972756
40
0.8472833076
40
0.9083419999
40
0.9533820448
40
0.9831967870
40
1.0000000000
40
1.0000000000
40
1.0000000000
40
1.0000000000
10
19.4166107909
20
20.8420922837
30
0.0000000000
10
19.4349981173
20
20.8512343043
30
0.0000000000
10
19.4705013091
20
20.8686599113
30
0.0000000000
10
19.5218988360
20
20.8931140868
30
0.0000000000
10
19.5691682176
20
20.9147764185
30
0.0000000000
10
19.6119930585
20
20.9335091153
30
0.0000000000
10
19.6500884050
20
20.9491838925
30
0.0000000000
10
19.6831976886
20
20.9617358499
30
0.0000000000
10
19.7111137759
20
20.9710179602
30
0.0000000000
10
19.7336437571
20
20.9772377836
30
0.0000000000
10
19.7507830957
20
20.9798693260
30
0.0000000000
10
19.7625034940
20
20.9803432611
30
0.0000000000
10
19.7683271888
20
20.9769128410
30
0.0000000000
10
19.7694354526
20
20.9751788018
30
0.0000000000
11
19.4166107909
21
20.8420922837
31
0.0000000000
11
19.4719234458
21
20.8692131798
31
0.0000000000
11
19.5234446047
21
20.8936913553
31
0.0000000000
11
19.5708300991
21
20.9153632925
31
0.0000000000
11
19.6137633873
21
20.9340842199
31
0.0000000000
11
19.6519576687
21
20.9497290790
31
0.0000000000
11
19.6851578002
21
20.9621933599
31
0.0000000000
11
19.7131420002
21
20.9713937995
31
0.0000000000
11
19.7357233304
21
20.9772689376
31
0.0000000000
11
19.7527509442
21
20.9797795273
31
0.0000000000
11
19.7641110948
21
20.9789087977
31
0.0000000000
11
19.7694354526
21
20.9751788018
31
0.0000000000
0
SPLINE
5
329
100
AcDbEntity
8
0
100
AcDbSpline
62
0
6
CONTINUOUS
70
0
71
3
72
18
73
14
74
12
42
0.0000001000
43
0.0000001000
44
0.0000000001
12
0.3459745596
22
0.1680568266
32
0.0000000000
13
0.3443637069
23
-0.1722285845
33
0.0000000000
40
0.0000000000
40
0.0000000000
40
0.0000000000
40
0.0000000000
40
0.1297946914
40
0.2520704309
40
0.3667499221
40
0.4738432021
40
0.5734632031
40
0.6658448809
40
0.7513682582
40
0.8305847233
40
0.9042435825
40
0.9733112212
40
1.0000000000
40
1.0000000000
40
1.0000000000
40
1.0000000000
10
19.0737132149
20
21.4335031193
30
0.0000000000
10
19.0886817687
20
21.4407740806
30
0.0000000000
10
19.1180566829
20
21.4542806699
30
0.0000000000
10
19.1616925329
20
21.4718514714
30
0.0000000000
10
19.2034579658
20
21.4861169388
30
0.0000000000
10
19.2432116136
20
21.4970668222
30
0.0000000000
10
19.2808253865
20
21.5047035394
30
0.0000000000
10
19.3161835793
20
21.5090402783
30
0.0000000000
10
19.3491832546
20
21.5100994281
30
0.0000000000
10
19.3797327841
20
21.5079102274
30
0.0000000000
10
19.4077481951
20
21.5025068620
30
0.0000000000
10
19.4283971402
20
21.4955333843
30
0.0000000000
10
19.4395606772
20
21.4903787947
30
0.0000000000
10
19.4426242261
20
21.4888466045
30
0.0000000000
11
19.0737132149
21
21.4335031193
31
0.0000000000
11
19.1190963276
21
21.4543044030
31
0.0000000000
11
19.1627486625
21
21.4718086782
31
0.0000000000
11
19.2045151469
21
21.4859930505
31
0.0000000000
11
19.2442506704
21
21.4968477642
31
0.0000000000
11
19.2818207863
21
21.5043763202
31
0.0000000000
11
19.3171023282
21
21.5085954307
31
0.0000000000
11
19.3499839089
21
21.5095348066
31
0.0000000000
11
19.3803662840
21
21.5072367875
31
0.0000000000
11
19.4081625881
21
21.5017558280
31
0.0000000000
11
19.4332983485
21
21.4931578875
31
0.0000000000
11
19.4426242261
21
21.4888466045
31
0.0000000000
0
SPLINE
5
32A
100
AcDbEntity
8
0
100
AcDbSpline
62
9
6
CONTINUOUS
70
0
71
3
72
19
73
15
74
13
42
0.0000001000
43
0.0000001000
44
0.0000000001
12
0.0043621578
22
1.5071270313
32
0.0000000000
13
-0.7596320570
23
1.3016950699
33
0.0000000000
40
0.0000000000
40
0.0000000000
40
0.0000000000
40
0.0000000000
40
0.0762817009
40
0.1544246992
40
0.2342915930
40
0.3157231579
40
0.3985441601
40
0.4825648517
40
0.5675828668
40
0.6533860756
40
0.7397553920
40
0.8264664344
40
0.9132904740
40
1.0000000000
40
1.0000000000
40
1.0000000000
40
1.0000000000
10
19.8307612666
20
19.4104587091
30
0.0000000000
10
19.8308721842
20
19.4487807802
30
0.0000000000
10
19.8289811361
20
19.5263797270
30
0.0000000000
10
19.8200950191
20
19.6437930007
30
0.0000000000
10
19.8051627612
20
19.7631996965
30
0.0000000000
10
19.7842487101
20
19.8840872083
30
0.0000000000
10
19.7574425378
20
20.0059417570
30
0.0000000000
10
19.7248588373
20
20.1282438296
30
0.0000000000
10
19.6866368170
20
20.2504719594
30
0.0000000000
10
19.6429396857
20
20.3721047713
30
0.0000000000
10
19.5939540089
20
20.4926233692
30
0.0000000000
10
19.5398885266
20
20.6115140610
30
0.0000000000
10
19.4809752024
20
20.7282673916
30
0.0000000000
10
19.4385665695
20
20.8044691629
30
0.0000000000
10
19.4166107909
20
20.8420922837
30
0.0000000000
11
19.8307612666
21
19.4104587091
31
0.0000000000
11
19.8280362084
21
19.5253931035
31
0.0000000000
11
19.8192160954
21
19.6428342818
31
0.0000000000
11
19.8043385788
21
19.7622813853
31
0.0000000000
11
19.7834675018
21
19.8832219317
31
0.0000000000
11
19.7566921747
21
20.0051386531
31
0.0000000000
11
19.7241271038
21
20.1275100991
31
0.0000000000
11
19.6859117581
21
20.2498120918
31
0.0000000000
11
19.6422098558
21
20.3715207540
31
0.0000000000
11
19.5932083279
21
20.4921155263
31
0.0000000000
11
19.5391167131
21
20.6110806195
31
0.0000000000
11
19.4801670801
21
20.7279056076
31
0.0000000000
11
19.4166107909
21
20.8420922837
31
0.0000000000
0
SPLINE
5
32B
100
AcDbEntity
8
0
100
AcDbSpline
62
9
6
CONTINUOUS
70
0
71
3
72
17
73
13
74
11
42
0.0000001000
43
0.0000001000
44
0.0000000001
12
0.4163435503
22
0.2155681837
32
0.0000000000
13
-0.0000278342
23
0.4693695292
33
0.0000000000
40
0.0000000000
40
0.0000000000
40
0.0000000000
40
0.0000000000
40
0.1329189116
40
0.2587863602
40
0.3775375991
40
0.4893034249
40
0.5944452287
40
0.6935904860
40
0.7876608200
40
0.8778788512
40
0.9657362157
40
1.0000000000
40
1.0000000000
40
1.0000000000
40
1.0000000000
10
19.8307612666
20
19.4104587091
30
0.0000000000
10
19.8492079104
20
19.4200097386
30
0.0000000000
10
19.8845346614
20
19.4397784290
30
0.0000000000
10
19.9338039134
20
19.4723444067
30
0.0000000000
10
19.9776281236
20
19.5068330411
30
0.0000000000
10
20.0157141513
20
19.5430290461
30
0.0000000000
10
20.0478045774
20
19.5807127600
30
0.0000000000
10
20.0736697590
20
19.6196570681
30
0.0000000000
10
20.0931057616
20
19.6596226578
30
0.0000000000
10
20.1059357895
20
19.7003472602
30
0.0000000000
10
20.1108088640
20
19.7333190024
30
0.0000000000
10
20.1114202398
20
19.7524254076
30
0.0000000000
10
20.1114199219
20
19.7577861997
30
0.0000000000
11
19.8307612666
21
19.4104587091
31
0.0000000000
11
19.8850871008
21
19.4409908434
31
0.0000000000
11
19.9342447394
21
19.4736392268
31
0.0000000000
11
19.9779058024
21
19.5081857634
31
0.0000000000
11
20.0157786276
21
19.5443996774
31
0.0000000000
11
20.0476102194
21
19.5820390548
31
0.0000000000
11
20.0731879381
21
19.6208524592
31
0.0000000000
11
20.0923409210
21
19.6605806117
31
0.0000000000
11
20.1049412235
21
19.7009581225
31
0.0000000000
11
20.1109046738
21
19.7417152641
31
0.0000000000
11
20.1114199219
21
19.7577861997
31
0.0000000000
0
SPLINE
5
32C
100
AcDbEntity
8
0
100
AcDbSpline
62
9
6
CONTINUOUS
70
0
71
3
72
17
73
13
74
11
42
0.0000001000
43
0.0000001000
44
0.0000000001
12
0.4163466417
22
0.2155697843
32
0.0000000000
13
-0.0000136022
23
0.4693687958
33
0.0000000000
40
0.0000000000
40
0.0000000000
40
0.0000000000
40
0.0000000000
40
0.1321832954
40
0.2573957836
40
0.3755722869
40
0.4868383898
40
0.5915444751
40
0.6903002791
40
0.7840025186
40
0.8738424804
40
0.9612766423
40
1.0000000000
40
1.0000000000
40
1.0000000000
40
1.0000000000
10
19.8307612666
20
-10.9346215367
30
0.0000000000
10
19.8491059570
20
-10.9251232952
30
0.0000000000
10
19.8842462415
20
-10.9054671512
30
0.0000000000
10
19.9332794502
20
-10.8731022120
30
0.0000000000
10
19.9769321253
20
-10.8388342796
30
0.0000000000
10
20.0149156076
20
-10.8028750887
30
0.0000000000
10
20.0469762949
20
-10.7654407048
30
0.0000000000
10
20.0728879408
20
-10.7267544495
30
0.0000000000
10
20.0924496599
20
-10.6870512922
30
0.0000000000
10
20.1054870556
20
-10.6465880531
30
0.0000000000
10
20.1107057441
20
-10.6130899796
30
0.0000000000
10
20.1114200220
20
-10.5933519902
30
0.0000000000
10
20.1114198464
20
-10.5872934783
30
0.0000000000
11
19.8307612666
21
-10.9346215367
31
0.0000000000
11
19.8847929045
21
-10.9042689352
31
0.0000000000
11
19.9337167801
21
-10.8718228493
31
0.0000000000
11
19.9772097738
21
-10.8374975705
31
0.0000000000
11
20.0149846343
21
-10.8015198014
31
0.0000000000
11
20.0467918762
21
-10.7641271587
31
0.0000000000
11
20.0724214272
21
-10.7255666034
31
0.0000000000
11
20.0917040159
21
-10.6860928104
31
0.0000000000
11
20.1045122898
21
-10.6459664859
31
0.0000000000
11
20.1107616560
21
-10.6054526457
31
0.0000000000
11
20.1114198464
21
-10.5872934783
31
0.0000000000
0
SPLINE
5
32D
100
AcDbEntity
8
0
100
AcDbSpline
62
9
6
CONTINUOUS
70
0
71
3
72
9
73
5
74
3
42
0.0000001000
43
0.0000001000
44
0.0000000001
12
0.0776818456
22
0.0410006550
32
0.0000000000
13
0.0711550206
23
0.0515703585
33
0.0000000000
40
0.0000000000
40
0.0000000000
40
0.0000000000
40
0.0000000000
40
0.7330140175
40
1.0000000000
40
1.0000000000
40
1.0000000000
40
1.0000000000
10
19.4166107909
20
-11.9521046357
30
0.0000000000
10
19.4355914182
20
-11.9420866174
30
0.0000000000
10
19.4608007807
20
-11.9270731405
30
0.0000000000
10
19.4848458156
20
-11.9103318790
30
0.0000000000
10
19.4911782800
20
-11.9057423580
30
0.0000000000
11
19.4166107909
21
-11.9521046357
31
0.0000000000
11
19.4719234460
21
-11.9191480842
31
0.0000000000
11
19.4911782800
21
-11.9057423580
31
0.0000000000
0
SPLINE
5
32E
100
AcDbEntity
8
0
100
AcDbSpline
62
9
6
CONTINUOUS
70
0
71
3
72
9
73
5
74
3
42
0.0000001000
43
0.0000001000
44
0.0000000001
12
0.0700040723
22
0.0506660517
32
0.0000000000
13
0.0640873174
23
0.0580362931
33
0.0000000000
40
0.0000000000
40
0.0000000000
40
0.0000000000
40
0.0000000000
40
0.9447719108
40
1.0000000000
40
1.0000000000
40
1.0000000000
40
1.0000000000
10
19.4166107909
20
-11.9521046357
30
0.0000000000
10
19.4386567513
20
-11.9361486816
30
0.0000000000
10
19.4611162424
20
-11.9180148066
30
0.0000000000
10
19.4825362196
20
-11.8987322941
30
0.0000000000
10
19.4837160263
20
-11.8976638829
30
0.0000000000
11
19.4166107909
21
-11.9521046357
31
0.0000000000
11
19.4801670801
21
-11.9008586632
31
0.0000000000
11
19.4837160263
21
-11.8976638829
31
0.0000000000
0
SPLINE
5
32F
100
AcDbEntity
8
0
100
AcDbSpline
62
9
6
CONTINUOUS
70
0
71
3
72
18
73
14
74
12
42
0.0000001000
43
0.0000001000
44
0.0000000001
12
0.7811903553
22
0.7074315830
32
0.0000000000
13
-0.0030579481
23
1.0533532118
33
0.0000000000
40
0.0000000000
40
0.0000000000
40
0.0000000000
40
0.0000000000
40
0.0742339255
40
0.1547108263
40
0.2372961330
40
0.3223230385
40
0.4100571006
40
0.5006954653
40
0.5943696140
40
0.6911497917
40
0.7910491659
40
0.8940274298
40
1.0000000000
40
1.0000000000
40
1.0000000000
40
1.0000000000
10
19.4837160263
20
-11.8976638829
30
0.0000000000
10
19.5030463018
20
-11.8801587418
30
0.0000000000
10
19.5415546832
20
-11.8417322347
30
0.0000000000
10
19.5947293782
20
-11.7774182965
30
0.0000000000
10
19.6437729065
20
-11.7052818714
30
0.0000000000
10
19.6874714170
20
-11.6268683529
30
0.0000000000
10
19.7256471894
20
-11.5425202625
30
0.0000000000
10
19.7581469122
20
-11.4526014607
30
0.0000000000
10
19.7848403007
20
-11.3574970304
30
0.0000000000
10
19.8056205817
20
-11.2576124381
30
0.0000000000
10
19.8204046371
20
-11.1533714413
30
0.0000000000
10
19.8291336574
20
-11.0452204877
30
0.0000000000
10
19.8308692861
20
-10.9718303858
30
0.0000000000
10
19.8307612666
20
-10.9346215367
30
0.0000000000
11
19.4837160263
21
-11.8976638829
31
0.0000000000
11
19.5391167131
21
-11.8424760013
31
0.0000000000
11
19.5932083279
21
-11.7772056964
31
0.0000000000
11
19.6422098558
21
-11.7053277806
31
0.0000000000
11
19.6859117581
21
-11.6271497305
31
0.0000000000
11
19.7241271038
21
-11.5430059046
31
0.0000000000
11
19.7566921747
21
-11.4532567082
31
0.0000000000
11
19.7834675018
21
-11.3582866042
31
0.0000000000
11
19.8043385788
21
-11.2585018059
31
0.0000000000
11
19.8192160954
21
-11.1543290456
31
0.0000000000
11
19.8280362084
21
-11.0462152871
31
0.0000000000
11
19.8307612666
21
-10.9346215367
31
0.0000000000
0
SPLINE
5
330
100
AcDbEntity
8
0
100
AcDbSpline
62
9
6
CONTINUOUS
70
0
71
3
72
13
73
9
74
7
42
0.0000001000
43
0.0000001000
44
0.0000000001
12
0.0831894255
22
0.0416210685
32
0.0000000000
13
0.0830442216
23
-0.0415221109
33
0.0000000000
40
0.0000000000
40
0.0000000000
40
0.0000000000
40
0.0000000000
40
0.0398015084
40
0.2136565539
40
0.3933138876
40
0.5826498345
40
0.7843828888
40
1.0000000000
40
1.0000000000
40
1.0000000000
40
1.0000000000
10
-1.4769769296
20
21.9683639423
30
0.0000000000
10
-1.4758732414
20
21.9689161361
30
0.0000000000
10
-1.4698757215
20
21.9717340980
30
0.0000000000
10
-1.4581807617
20
21.9754284359
30
0.0000000000
10
-1.4413531794
20
21.9771021971
30
0.0000000000
10
-1.4236674348
20
21.9755161001
30
0.0000000000
10
-1.4054329664
20
21.9707399606
30
0.0000000000
10
-1.3935031058
20
21.9656684974
30
0.0000000000
10
-1.3875345208
20
21.9626842049
30
0.0000000000
11
-1.4769769296
21
21.9683639423
31
0.0000000000
11
-1.4736263829
21
21.9699378891
31
0.0000000000
11
-1.4582451939
21
21.9748344642
31
0.0000000000
11
-1.4416541262
21
21.9765595582
31
0.0000000000
11
-1.4241370575
21
21.9750836544
31
0.0000000000
11
-1.4059937098
21
21.9704320062
31
0.0000000000
11
-1.3875345208
21
21.9626842049
31
0.0000000000
0
SPLINE
5
331
100
AcDbEntity
8
0
100
AcDbSpline
62
0
6
CONTINUOUS
70
0
71
3
72
14
73
10
74
8
42
0.0000001000
43
0.0000001000
44
0.0000000001
12
0.0791351001
22
0.0395884654
32
0.0000000000
13
0.0790056663
23
-0.0395028331
33
0.0000000000
40
0.0000000000
40
0.0000000000
40
0.0000000000
40
0.0000000000
40
0.0108975268
40
0.1508652764
40
0.2976080641
40
0.4542147772
40
0.6228187521
40
0.8046187890
40
1.0000000000
40
1.0000000000
40
1.0000000000
40
1.0000000000
10
-1.5385342803
20
21.9375858924
30
0.0000000000
10
-1.5382468213
20
21.9377296979
30
0.0000000000
10
-1.5342509233
20
21.9396876486
30
0.0000000000
10
-1.5259379810
20
21.9426438457
30
0.0000000000
10
-1.5129529244
20
21.9445669196
30
0.0000000000
10
-1.4990015209
20
21.9442038856
30
0.0000000000
10
-1.4842565061
20
21.9415807030
30
0.0000000000
10
-1.4688934789
20
21.9367421734
30
0.0000000000
10
-1.4587164448
20
21.9322386504
30
0.0000000000
10
-1.4535710372
20
21.9296659466
30
0.0000000000
11
-1.5385342803
21
21.9375858924
31
0.0000000000
11
-1.5376684077
21
21.9380101603
31
0.0000000000
11
-1.5260344225
21
21.9421942223
31
0.0000000000
11
-1.5132226574
21
21.9441615977
31
0.0000000000
11
-1.4993922740
21
21.9438809422
31
0.0000000000
11
-1.4847160314
21
21.9413495007
31
0.0000000000
11
-1.4693780003
21
21.9365931491
31
0.0000000000
11
-1.4535710372
21
21.9296659466
31
0.0000000000
0
SPLINE
5
332
100
AcDbEntity
8
0
100
AcDbSpline
62
0
6
CONTINUOUS
70
0
71
3
72
14
73
10
74
8
42
0.0000001000
43
0.0000001000
44
0.0000000001
12
-0.0767194535
22
0.0305938721
32
0.0000000000
13
-0.0718368564
23
-0.0405369472
33
0.0000000000
40
0.0000000000
40
0.0000000000
40
0.0000000000
40
0.0000000000
40
0.0115072713
40
0.1590396405
40
0.3105108561
40
0.4685864605
40
0.6353469381
40
0.8122195419
40
1.0000000000
40
1.0000000000
40
1.0000000000
40
1.0000000000
10
-0.2394554803
20
22.0091410400
30
0.0000000000
10
-0.2397497575
20
22.0092583906
30
0.0000000000
10
-0.2438284656
20
22.0108511747
30
0.0000000000
10
-0.2520933096
20
22.0131696327
30
0.0000000000
10
-0.2646622719
20
22.0143938096
30
0.0000000000
10
-0.2777821522
20
22.0135166770
30
0.0000000000
10
-0.2913036124
20
22.0105659377
30
0.0000000000
10
-0.3050795859
20
22.0055893282
30
0.0000000000
10
-0.3140692217
20
22.0010967504
30
0.0000000000
10
-0.3185657409
20
21.9985594016
30
0.0000000000
11
-0.2394554803
21
22.0091410400
31
0.0000000000
11
-0.2403407937
21
22.0094867598
31
0.0000000000
11
-0.2520526387
21
22.0127916589
31
0.0000000000
11
-0.2644841123
21
22.0140411159
31
0.0000000000
11
-0.2774972210
21
22.0132219062
31
0.0000000000
11
-0.2909479258
21
22.0103435053
31
0.0000000000
11
-0.3046878049
21
22.0054379416
31
0.0000000000
11
-0.3185657409
21
21.9985594016
31
0.0000000000
0
SPLINE
5
333
100
AcDbEntity
8
0
100
AcDbSpline
62
9
6
CONTINUOUS
70
0
71
3
72
16
73
12
74
10
42
0.0000001000
43
0.0000001000
44
0.0000000001
12
-0.3982823192
22
0.2060632999
32
0.0000000000
13
-0.4074120624
23
-0.1881700932
33
0.0000000000
40
0.0000000000
40
0.0000000000
40
0.0000000000
40
0.0000000000
40
0.1411599806
40
0.2764700237
40
0.4061912087
40
0.5307819892
40
0.6509078134
40
0.7674386340
40
0.8814286171
40
0.9940742405
40
1.0000000000
40
1.0000000000
40
1.0000000000
40
1.0000000000
10
12.5472490626
20
24.6967351955
30
0.0000000000
10
12.5285085545
20
24.7064311593
30
0.0000000000
10
12.4910154179
20
24.7239528887
30
0.0000000000
10
12.4338517927
20
24.7446676556
30
0.0000000000
10
12.3773272994
20
24.7591114320
30
0.0000000000
10
12.3218257300
20
24.7671678654
30
0.0000000000
10
12.2677238046
20
24.7687623989
30
0.0000000000
10
12.2153993855
20
24.7638616483
30
0.0000000000
10
12.1652288917
20
24.7524798689
30
0.0000000000
10
12.1325634959
20
24.7402800612
30
0.0000000000
10
12.1164343961
20
24.7329005494
30
0.0000000000
10
12.1156296542
20
24.7325288659
30
0.0000000000
11
12.5472490626
21
24.6967351955
31
0.0000000000
11
12.4898532806
21
24.7234314394
31
0.0000000000
11
12.4327651510
21
24.7439906198
31
0.0000000000
11
12.3763744926
21
24.7582723512
31
0.0000000000
11
12.3210663616
21
24.7661791125
31
0.0000000000
11
12.2672184220
21
24.7676569135
31
0.0000000000
11
12.2151983673
21
24.7626956633
31
0.0000000000
11
12.1653614096
21
24.7513292391
31
0.0000000000
11
12.1180478539
21
24.7336352550
31
0.0000000000
11
12.1156296542
21
24.7325288659
31
0.0000000000
0
SPLINE
5
334
100
AcDbEntity
8
0
100
AcDbSpline
62
0
6
CONTINUOUS
70
0
71
3
72
13
73
9
74
7
42
0.0000001000
43
0.0000001000
44
0.0000000001
12
-0.1961525084
22
-0.1002226116
32
0.0000000000
13
0.0000000000
23
-0.2196572814
33
0.0000000000
40
0.0000000000
40
0.0000000000
40
0.0000000000
40
0.0000000000
40
0.0932095149
40
0.2503342003
40
0.4167661673
40
0.5962409861
40
0.7905974107
40
1.0000000000
40
1.0000000000
40
1.0000000000
40
1.0000000000
10
-12.9247893684
20
22.5899916359
30
0.0000000000
10
-12.9308837951
20
22.5868777355
30
0.0000000000
10
-12.9466049512
20
22.5772434808
30
0.0000000000
10
-12.9690143416
20
22.5560780046
30
0.0000000000
10
-12.9893797623
20
22.5250413296
30
0.0000000000
10
-13.0041004067
20
22.4880788636
30
0.0000000000
10
-13.0129443073
20
22.4461258015
30
0.0000000000
10
-13.0147669096
20
22.4165124766
30
0.0000000000
10
-13.0147669096
20
22.4011802088
30
0.0000000000
11
-12.9247893684
21
22.5899916359
31
0.0000000000
11
-12.9422776095
21
22.5792764324
31
0.0000000000
11
-12.9675002660
21
22.5557178905
31
0.0000000000
11
-12.9877916252
21
22.5253082273
31
0.0000000000
11
-13.0026537392
21
22.4887940298
31
0.0000000000
11
-13.0117198227
21
22.4470759732
31
0.0000000000
11
-13.0147669096
21
22.4011802088
31
0.0000000000
0
SPLINE
5
335
100
AcDbEntity
8
0
100
AcDbSpline
62
0
6
CONTINUOUS
70
0
71
3
72
9
73
5
74
3
42
0.0000001000
43
0.0000001000
44
0.0000000001
12
-0.0004065111
22
0.0259308417
32
0.0000000000
13
-0.0020642167
23
0.0258517468
33
0.0000000000
40
0.0000000000
40
0.0000000000
40
0.0000000000
40
0.0000000000
40
0.4989863682
40
1.0000000000
40
1.0000000000
40
1.0000000000
40
1.0000000000
10
10.0049801474
20
20.0597513599
30
0.0000000000
10
10.0049125329
20
20.0640644054
30
0.0000000000
10
10.0046363837
20
20.0727066314
30
0.0000000000
10
10.0040617927
20
20.0813337484
30
0.0000000000
10
10.0037170592
20
20.0856511075
30
0.0000000000
11
10.0049801474
21
20.0597513599
31
0.0000000000
11
10.0045626353
21
20.0726853494
31
0.0000000000
11
10.0037170592
21
20.0856511075
31
0.0000000000
0
SPLINE
5
336
100
AcDbEntity
8
0
100
AcDbSpline
62
0
6
CONTINUOUS
70
0
71
3
72
9
73
5
74
3
42
0.0000001000
43
0.0000001000
44
0.0000000001
12
-0.0005036446
22
-0.0035227343
32
0.0000000000
13
-0.0017167576
23
-0.0031170593
33
0.0000000000
40
0.0000000000
40
0.0000000000
40
0.0000000000
40
0.0000000000
40
0.4474175335
40
1.0000000000
40
1.0000000000
40
1.0000000000
40
1.0000000000
10
10.0049801474
20
-17.4581928425
30
0.0000000000
10
10.0049050343
20
-17.4587182202
30
0.0000000000
10
10.0045655027
20
-17.4598673618
30
0.0000000000
10
10.0040332759
20
-17.4609304473
30
0.0000000000
10
10.0037170592
20
-17.4615045913
30
0.0000000000
11
10.0049801474
21
-17.4581928425
31
0.0000000000
11
10.0045626353
21
-17.4597292854
31
0.0000000000
11
10.0037170592
21
-17.4615045913
31
0.0000000000
0
SPLINE
5
337
100
AcDbEntity
8
0
100
AcDbSpline
62
0
6
CONTINUOUS
70
0
71
3
72
12
73
8
74
6
42
0.0000001000
43
0.0000001000
44
0.0000000001
12
0.1035245975
22
-0.0518042949
32
0.0000000000
13
0.1037892104
23
0.0505590123
33
0.0000000000
40
0.0000000000
40
0.0000000000
40
0.0000000000
40
0.0000000000
40
0.0702682166
40
0.2823115323
40
0.5037058504
40
0.7425202568
40
1.0000000000
40
1.0000000000
40
1.0000000000
40
1.0000000000
10
2.4552305170
20
-25.5032773503
30
0.0000000000
10
2.4576553466
20
-25.5044907488
30
0.0000000000
10
2.4676043111
20
-25.5089500582
30
0.0000000000
10
2.4865906805
20
-25.5137661214
30
0.0000000000
10
2.5126777932
20
-25.5140066983
30
0.0000000000
10
2.5399084946
20
-25.5084710779
30
0.0000000000
10
2.5577392093
20
-25.5013509177
30
0.0000000000
10
2.5666470824
20
-25.4970116106
30
0.0000000000
11
2.4552305170
21
-25.5032773503
31
0.0000000000
11
2.4626508932
21
-25.5066015805
31
0.0000000000
11
2.4863535817
21
-25.5127220060
31
0.0000000000
11
2.5119098471
21
-25.5131408472
31
0.0000000000
11
2.5389687892
21
-25.5078527449
31
0.0000000000
11
2.5666470824
21
-25.4970116106
31
0.0000000000
0
SPLINE
5
338
100
AcDbEntity
8
0
100
AcDbSpline
62
0
6
CONTINUOUS
70
0
71
3
72
13
73
9
74
7
42
0.0000001000
43
0.0000001000
44
0.0000000001
12
-0.1410768327
22
0.0705989525
32
0.0000000000
13
0.0000000000
23
0.1573187955
33
0.0000000000
40
0.0000000000
40
0.0000000000
40
0.0000000000
40
0.0000000000
40
0.1002829637
40
0.2556824971
40
0.4210753023
40
0.5986534561
40
0.7921182670
40
1.0000000000
40
1.0000000000
40
1.0000000000
40
1.0000000000
10
0.7779873898
20
-24.6646556802
30
0.0000000000
10
0.7732715222
20
-24.6622957228
30
0.0000000000
10
0.7617559928
20
-24.6552575663
30
0.0000000000
10
0.7456261796
20
-24.6398538055
30
0.0000000000
10
0.7312827117
20
-24.6177625995
30
0.0000000000
10
0.7209033299
20
-24.5914465569
30
0.0000000000
10
0.7146732017
20
-24.5616109611
30
0.0000000000
10
0.7133892127
20
-24.5405294793
30
0.0000000000
10
0.7133892127
20
-24.5296282447
30
0.0000000000
11
0.7779873898
21
-24.6646556802
31
0.0000000000
11
0.7645031481
21
-24.6564185986
31
0.0000000000
11
0.7467260579
21
-24.6396363476
31
0.0000000000
11
0.7323856909
21
-24.6179254543
31
0.0000000000
11
0.7219405248
21
-24.5920152265
31
0.0000000000
11
0.7155335970
21
-24.5622615691
31
0.0000000000
11
0.7133892127
21
-24.5296282447
31
0.0000000000
0
SPLINE
5
339
100
AcDbEntity
8
0
100
AcDbSpline
62
0
6
CONTINUOUS
70
0
71
3
72
9
73
5
74
3
42
0.0000001000
43
0.0000001000
44
0.0000000001
12
0.0223544506
22
-0.0111796084
32
0.0000000000
13
0.0243998698
23
-0.0050947154
33
0.0000000000
40
0.0000000000
40
0.0000000000
40
0.0000000000
40
0.0000000000
40
0.0711022819
40
1.0000000000
40
1.0000000000
40
1.0000000000
40
1.0000000000
10
-10.9090847562
20
22.8184551079
30
0.0000000000
10
-10.9085549387
20
22.8181901427
30
0.0000000000
10
-10.9010678288
20
22.8145338665
30
0.0000000000
10
-10.8930942299
20
22.8118798904
30
0.0000000000
10
-10.8855392354
20
22.8103024005
30
0.0000000000
11
-10.9090847562
21
22.8184551079
31
0.0000000000
11
-10.9074877780
21
22.8176752707
31
0.0000000000
11
-10.8855392354
21
22.8103024005
31
0.0000000000
0
SPLINE
5
33A
100
AcDbEntity
8
0
100
AcDbSpline
62
0
6
CONTINUOUS
70
0
71
3
72
13
73
9
74
7
42
0.0000001000
43
0.0000001000
44
0.0000000001
12
-0.1411200199
22
0.0705753522
32
0.0000000000
13
-0.0000000000
23
0.1573462303
33
0.0000000000
40
0.0000000000
40
0.0000000000
40
0.0000000000
40
0.0000000000
40
0.1341877812
40
0.2839661477
40
0.4437692844
40
0.6151905100
40
0.8009213695
40
1.0000000000
40
1.0000000000
40
1.0000000000
40
1.0000000000
10
-12.5863279761
20
23.6570767114
30
0.0000000000
10
-12.5926401702
20
23.6602334947
30
0.0000000000
10
-12.6052185025
20
23.6684501004
30
0.0000000000
10
-12.6214049681
20
23.6854616294
30
0.0000000000
10
-12.6345424889
20
23.7071999524
30
0.0000000000
10
-12.6440445261
20
23.7327384266
30
0.0000000000
10
-12.6497490441
20
23.7614543611
30
0.0000000000
10
-12.6509289517
20
23.7816674870
30
0.0000000000
10
-12.6509289517
20
23.7921089110
30
0.0000000000
11
-12.5863279761
21
23.6570767114
31
0.0000000000
11
-12.6040320323
21
23.6685949781
31
0.0000000000
11
-12.6203753856
21
23.6855744123
31
0.0000000000
11
-12.6335365187
21
23.7069993158
31
0.0000000000
11
-12.6431129984
21
23.7322145079
31
0.0000000000
11
-12.6489676605
21
23.7608461000
31
0.0000000000
11
-12.6509289517
21
23.7921089110
31
0.0000000000
0
SPLINE
5
33B
100
AcDbEntity
8
0
100
AcDbSpline
62
0
6
CONTINUOUS
70
0
71
3
72
9
73
5
74
3
42
0.0000001000
43
0.0000001000
44
0.0000000001
12
0.0223544506
22
-0.0111796084
32
0.0000000000
13
0.0243998698
23
-0.0050947154
33
0.0000000000
40
0.0000000000
40
0.0000000000
40
0.0000000000
40
0.0000000000
40
0.0711022819
40
1.0000000000
40
1.0000000000
40
1.0000000000
40
1.0000000000
10
2.4552334082
20
16.1362960257
30
0.0000000000
10
2.4557632257
20
16.1360310605
30
0.0000000000
10
2.4632503357
20
16.1323747843
30
0.0000000000
10
2.4712239345
20
16.1297208082
30
0.0000000000
10
2.4787789290
20
16.1281433183
30
0.0000000000
11
2.4552334082
21
16.1362960257
31
0.0000000000
11
2.4568303864
21
16.1355161885
31
0.0000000000
11
2.4787789290
21
16.1281433183
31
0.0000000000
0
SPLINE
5
33C
100
AcDbEntity
8
0
100
AcDbSpline
62
0
6
CONTINUOUS
70
0
71
3
72
13
73
9
74
7
42
0.0000001000
43
0.0000001000
44
0.0000000001
12
-0.1411200199
22
0.0705753522
32
0.0000000000
13
0.0000000000
23
0.1573462303
33
0.0000000000
40
0.0000000000
40
0.0000000000
40
0.0000000000
40
0.0000000000
40
0.1341877812
40
0.2839661477
40
0.4437692844
40
0.6151905100
40
0.8009213695
40
1.0000000000
40
1.0000000000
40
1.0000000000
40
1.0000000000
10
0.7779901884
20
16.9749176292
30
0.0000000000
10
0.7716779942
20
16.9780744125
30
0.0000000000
10
0.7590996619
20
16.9862910182
30
0.0000000000
10
0.7429131963
20
17.0033025472
30
0.0000000000
10
0.7297756755
20
17.0250408701
30
0.0000000000
10
0.7202736384
20
17.0505793444
30
0.0000000000
10
0.7145691203
20
17.0792952789
30
0.0000000000
10
0.7133892127
20
17.0995084048
30
0.0000000000
10
0.7133892127
20
17.1099498288
30
0.0000000000
11
0.7779901884
21
16.9749176292
31
0.0000000000
11
0.7602861321
21
16.9864358959
31
0.0000000000
11
0.7439427789
21
17.0034153301
31
0.0000000000
11
0.7307816457
21
17.0248402336
31
0.0000000000
11
0.7212051660
21
17.0500554257
31
0.0000000000
11
0.7153505040
21
17.0786870177
31
0.0000000000
11
0.7133892127
21
17.1099498288
31
0.0000000000
0
SPLINE
5
33D
100
AcDbEntity
8
0
100
AcDbSpline
62
0
6
CONTINUOUS
70
0
71
3
72
13
73
9
74
7
42
0.0000001000
43
0.0000001000
44
0.0000000001
12
-0.1411184857
22
0.0705745873
32
0.0000000000
13
0.0000000000
23
0.1573445288
33
0.0000000000
40
0.0000000000
40
0.0000000000
40
0.0000000000
40
0.0000000000
40
0.1341870270
40
0.2839657539
40
0.4437691199
40
0.6151904691
40
0.8009213618
40
1.0000000000
40
1.0000000000
40
1.0000000000
40
1.0000000000
10
4.2325288492
20
-23.5341888876
30
0.0000000000
10
4.2262167592
20
-23.5310321563
30
0.0000000000
10
4.2136385674
20
-23.5228156773
30
0.0000000000
10
4.1974522086
20
-23.5058044119
30
0.0000000000
10
4.1843146948
20
-23.4840663644
30
0.0000000000
10
4.1748125926
20
-23.4585282044
30
0.0000000000
10
4.1691079921
20
-23.4298126076
30
0.0000000000
10
4.1679278732
20
-23.4095997057
30
0.0000000000
10
4.1679278732
20
-23.3991583942
30
0.0000000000
11
4.2325288492
21
-23.5341888876
31
0.0000000000
11
4.2148250622
21
-23.5226708424
31
0.0000000000
11
4.1984817735
21
-23.5056916211
31
0.0000000000
11
4.1853206498
21
-23.4842669886
31
0.0000000000
11
4.1757441182
21
-23.4590521074
31
0.0000000000
11
4.1698893414
21
-23.4304208560
31
0.0000000000
11
4.1679278732
21
-23.3991583942
31
0.0000000000
0
SPLINE
5
33E
100
AcDbEntity
8
0
100
AcDbSpline
62
0
6
CONTINUOUS
70
0
71
3
72
9
73
5
74
3
42
0.0000001000
43
0.0000001000
44
0.0000000001
12
0.0032858702
22
0.0020479729
32
0.0000000000
13
0.0001131308
23
0.0034647824
33
0.0000000000
40
0.0000000000
40
0.0000000000
40
0.0000000000
40
0.0000000000
40
0.7170165807
40
1.0000000000
40
1.0000000000
40
1.0000000000
40
1.0000000000
10
10.0031761841
20
19.4745614802
30
0.0000000000
10
10.0039615252
20
19.4750509570
30
0.0000000000
10
10.0048860633
20
19.4759586911
30
0.0000000000
10
10.0050861158
20
19.4770750756
30
0.0000000000
10
10.0050967872
20
19.4774019009
30
0.0000000000
11
10.0031761841
21
19.4745614802
31
0.0000000000
11
10.0049148762
21
19.4764599476
31
0.0000000000
11
10.0050967872
21
19.4774019009
31
0.0000000000
0
SPLINE
5
33F
100
AcDbEntity
8
0
100
AcDbSpline
62
0
6
CONTINUOUS
70
0
71
3
72
12
73
8
74
6
42
0.0000001000
43
0.0000001000
44
0.0000000001
12
0.0000024720
22
0.1446720053
32
0.0000000000
13
-0.1289551214
23
0.0644775607
33
0.0000000000
40
0.0000000000
40
0.0000000000
40
0.0000000000
40
0.0000000000
40
0.1637122150
40
0.3390315196
40
0.5344106615
40
0.7543496530
40
1.0000000000
40
1.0000000000
40
1.0000000000
40
1.0000000000
10
-0.3050428998
20
24.9033932022
30
0.0000000000
10
-0.3050427649
20
24.9112880603
30
0.0000000000
10
-0.3077394333
20
24.9276366114
30
0.0000000000
10
-0.3193569191
20
24.9508976268
30
0.0000000000
10
-0.3379356385
20
24.9726463574
30
0.0000000000
10
-0.3628875545
20
24.9925390878
30
0.0000000000
10
-0.3823515753
20
25.0037368584
30
0.0000000000
10
-0.3929108654
20
25.0090165034
30
0.0000000000
11
-0.3050428998
21
24.9033932022
31
0.0000000000
11
-0.3087368524
21
24.9267057569
31
0.0000000000
11
-0.3197264946
21
24.9494686226
31
0.0000000000
11
-0.3377417052
21
24.9711237859
31
0.0000000000
11
-0.3623381949
21
24.9911371536
31
0.0000000000
11
-0.3929108654
21
25.0090165034
31
0.0000000000
0
SPLINE
5
340
100
AcDbEntity
8
0
100
AcDbSpline
62
0
6
CONTINUOUS
70
0
71
3
72
13
73
9
74
7
42
0.0000001000
43
0.0000001000
44
0.0000000001
12
0.0000258596
22
0.1446711661
32
0.0000000000
13
-0.1289558739
23
0.0644779370
33
0.0000000000
40
0.0000000000
40
0.0000000000
40
0.0000000000
40
0.0000000000
40
0.0029880403
40
0.1661938042
40
0.3410778189
40
0.5359454890
40
0.7552121694
40
1.0000000000
40
1.0000000000
40
1.0000000000
40
1.0000000000
10
5.2494205622
20
22.1261631149
30
0.0000000000
10
5.2494205880
20
22.1263072094
30
0.0000000000
10
5.2493979672
20
22.1343216618
30
0.0000000000
10
5.2465982674
20
22.1507514331
30
0.0000000000
10
5.2349346409
20
22.1739057288
30
0.0000000000
10
5.2163673799
20
22.1955579334
30
0.0000000000
10
5.1914765611
20
22.2153668333
30
0.0000000000
10
5.1720749249
20
22.2265236082
30
0.0000000000
10
5.1615526487
20
22.2317847463
30
0.0000000000
11
5.2494205622
21
22.1261631149
31
0.0000000000
11
5.2494193409
21
22.1265953942
31
0.0000000000
11
5.2456166485
21
22.1498166165
31
0.0000000000
11
5.2345747883
21
22.1724845740
31
0.0000000000
11
5.2165631658
21
22.1940469379
31
0.0000000000
11
5.1920226950
21
22.2139758408
31
0.0000000000
11
5.1615526487
21
22.2317847463
31
0.0000000000
0
SPLINE
5
341
100
AcDbEntity
8
0
100
AcDbSpline
62
0
6
CONTINUOUS
70
0
71
3
72
17
73
13
74
11
42
0.0000001000
43
0.0000001000
44
0.0000000001
12
0.4608527432
22
-0.2304263716
32
0.0000000000
13
0.0000000000
23
-0.5152490307
33
0.0000000000
40
0.0000000000
40
0.0000000000
40
0.0000000000
40
0.0000000000
40
0.0874854453
40
0.1810663987
40
0.2799044282
40
0.3828032215
40
0.4883360357
40
0.5949178722
40
0.7009068930
40
0.8047067593
40
0.9048273562
40
1.0000000000
40
1.0000000000
40
1.0000000000
40
1.0000000000
10
4.9811006716
20
16.1925771194
30
0.0000000000
10
4.9945399741
20
16.1858574682
30
0.0000000000
10
5.0212753016
20
16.1697263066
30
0.0000000000
10
5.0588959483
20
16.1396165825
30
0.0000000000
10
5.0946103200
20
16.1034512882
30
0.0000000000
10
5.1275565334
20
16.0621079271
30
0.0000000000
10
5.1569482465
20
16.0165818166
30
0.0000000000
10
5.1820745781
20
15.9679742695
30
0.0000000000
10
5.2023278861
20
15.9174626135
30
0.0000000000
10
5.2172176336
20
15.8662648586
30
0.0000000000
10
5.2263824712
20
15.8156253629
30
0.0000000000
10
5.2285880450
20
15.7820588703
30
0.0000000000
10
5.2285880450
20
15.7657129995
30
0.0000000000
11
4.9811006716
21
16.1925771194
31
0.0000000000
11
5.0198152122
21
16.1694881303
31
0.0000000000
11
5.0575763241
21
16.1395043795
31
0.0000000000
11
5.0934551924
21
16.1033632043
31
0.0000000000
11
5.1265670106
21
16.0619558474
31
0.0000000000
11
5.1560987449
21
16.0162985231
31
0.0000000000
11
5.1813214014
21
15.9675173248
31
0.0000000000
11
5.2016127606
21
15.9168163023
31
0.0000000000
11
5.2164748746
21
15.8654399909
31
0.0000000000
11
5.2255409581
21
15.8146558508
31
0.0000000000
11
5.2285880450
21
15.7657129995
31
0.0000000000
0
SPLINE
5
342
100
AcDbEntity
8
0
100
AcDbSpline
62
0
6
CONTINUOUS
70
0
71
3
72
13
73
9
74
7
42
0.0000001000
43
0.0000001000
44
0.0000000001
12
0.0000000000
22
-0.2196572814
32
0.0000000000
13
-0.1961525084
23
-0.1002226116
33
0.0000000000
40
0.0000000000
40
0.0000000000
40
0.0000000000
40
0.0000000000
40
0.2094025893
40
0.4037590139
40
0.5832338327
40
0.7496657997
40
0.9067904851
40
1.0000000000
40
1.0000000000
40
1.0000000000
40
1.0000000000
10
5.2285880450
20
-22.4108688452
30
0.0000000000
10
5.2285880450
20
-22.4262011131
30
0.0000000000
10
5.2267654427
20
-22.4558144379
30
0.0000000000
10
5.2179215421
20
-22.4977675000
30
0.0000000000
10
5.2032008977
20
-22.5347299660
30
0.0000000000
10
5.1828354770
20
-22.5657666410
30
0.0000000000
10
5.1604260865
20
-22.5869321173
30
0.0000000000
10
5.1447049305
20
-22.5965663719
30
0.0000000000
10
5.1386105038
20
-22.5996802723
30
0.0000000000
11
5.2285880450
21
-22.4108688452
31
0.0000000000
11
5.2255409581
21
-22.4567646096
31
0.0000000000
11
5.2164748746
21
-22.4984826662
31
0.0000000000
11
5.2016127606
21
-22.5349968637
31
0.0000000000
11
5.1813214014
21
-22.5654065270
31
0.0000000000
11
5.1560987449
21
-22.5889650688
31
0.0000000000
11
5.1386105038
21
-22.5996802723
31
0.0000000000
0
SPLINE
5
343
100
AcDbEntity
8
0
100
AcDbSpline
62
0
6
CONTINUOUS
70
0
71
3
72
12
73
8
74
6
42
0.0000001000
43
0.0000001000
44
0.0000000001
12
0.1442257105
22
-0.0721128553
32
0.0000000000
13
0.1452198943
23
0.0711107357
33
0.0000000000
40
0.0000000000
40
0.0000000000
40
0.0000000000
40
0.0000000000
40
0.2589093298
40
0.4980032510
40
0.7205148469
40
0.9322066891
40
1.0000000000
40
1.0000000000
40
1.0000000000
40
1.0000000000
10
2.5062269374
20
-23.8163459250
30
0.0000000000
10
2.5186740648
20
-23.8225694887
30
0.0000000000
10
2.5435595913
20
-23.8328082842
30
0.0000000000
10
2.5816608368
20
-23.8409618822
30
0.0000000000
10
2.6181615545
20
-23.8409658908
30
0.0000000000
10
2.6446420604
20
-23.8344558709
30
0.0000000000
10
2.6584446576
20
-23.8283933206
30
0.0000000000
10
2.6617263034
20
-23.8267863765
30
0.0000000000
11
2.5062269374
21
-23.8163459250
31
0.0000000000
11
2.5449414781
21
-23.8319714765
31
0.0000000000
11
2.5827025899
21
-23.8397488376
31
0.0000000000
11
2.6185814582
21
-23.8394865308
31
0.0000000000
11
2.6516932764
21
-23.8311909921
31
0.0000000000
11
2.6617263034
21
-23.8267863765
31
0.0000000000
0
SPLINE
5
344
100
AcDbEntity
8
0
100
AcDbSpline
62
0
6
CONTINUOUS
70
0
71
3
72
12
73
8
74
6
42
0.0000001000
43
0.0000001000
44
0.0000000001
12
-0.1280997254
22
-0.0657175839
32
0.0000000000
13
-0.0000198404
23
-0.1444569908
33
0.0000000000
40
0.0000000000
40
0.0000000000
40
0.0000000000
40
0.0000000000
40
0.2451070430
40
0.4650070858
40
0.6609705450
40
0.8375383260
40
1.0000000000
40
1.0000000000
40
1.0000000000
40
1.0000000000
10
-6.9673511989
20
22.1799449884
30
0.0000000000
10
-6.9778172472
20
22.1745757075
30
0.0000000000
10
-6.9971057327
20
22.1631915722
30
0.0000000000
10
-7.0217730146
20
22.1430141821
30
0.0000000000
10
-7.0400880911
20
22.1209813463
30
0.0000000000
10
-7.0514023657
20
22.0975857867
30
0.0000000000
10
-7.0539875165
20
22.0812590313
30
0.0000000000
10
-7.0539885909
20
22.0734361232
30
0.0000000000
11
-6.9673511989
21
22.1799449884
31
0.0000000000
11
-6.9976138348
21
22.1617934330
31
0.0000000000
11
-7.0219215953
21
22.1415086355
31
0.0000000000
11
-7.0396809340
21
22.1195858406
31
0.0000000000
11
-7.0504571235
21
22.0965618479
31
0.0000000000
11
-7.0539885909
21
22.0734361232
31
0.0000000000
0
SPLINE
5
345
100
AcDbEntity
8
0
100
AcDbSpline
62
0
6
CONTINUOUS
70
0
71
3
72
17
73
13
74
11
42
0.0000001000
43
0.0000001000
44
0.0000000001
12
-0.3892831373
22
0.1946415686
32
0.0000000000
13
-0.3912763246
23
-0.1906030928
33
0.0000000000
40
0.0000000000
40
0.0000000000
40
0.0000000000
40
0.0000000000
40
0.0891031991
40
0.1852014033
40
0.2868711654
40
0.3924014128
40
0.4999155417
40
0.6074372688
40
0.7129896138
40
0.8146951064
40
0.9108405521
40
1.0000000000
40
1.0000000000
40
1.0000000000
40
1.0000000000
10
-0.5733628426
20
25.0992424920
30
0.0000000000
10
-0.5849249669
20
25.1050235541
30
0.0000000000
10
-0.6097420120
20
25.1155005833
30
0.0000000000
10
-0.6496076425
20
25.1276546392
30
0.0000000000
10
-0.6927430257
20
25.1366244069
30
0.0000000000
10
-0.7381094667
20
25.1421900676
30
0.0000000000
10
-0.7846188444
20
25.1442172216
30
0.0000000000
10
-0.8311493871
20
25.1426558693
30
0.0000000000
10
-0.8765788040
20
25.1375447060
30
0.0000000000
10
-0.9198172981
20
25.1290071910
30
0.0000000000
10
-0.9598235423
20
25.1172527061
30
0.0000000000
10
-0.9847605338
20
25.1070251724
30
0.0000000000
10
-0.9963891942
20
25.1013604835
30
0.0000000000
11
-0.5733628426
21
25.0992424920
31
0.0000000000
11
-0.6090175966
21
25.1144959866
31
0.0000000000
11
-0.6489853271
21
25.1268211844
31
0.0000000000
11
-0.6922902788
21
25.1359171076
31
0.0000000000
11
-0.7378723048
21
25.1415610932
31
0.0000000000
11
-0.7846207533
21
25.1436154413
31
0.0000000000
11
-0.8313907454
21
25.1420295297
31
0.0000000000
11
-0.8770367029
21
25.1368424489
31
0.0000000000
11
-0.9204464410
21
25.1281807053
31
0.0000000000
11
-0.9605570323
21
25.1162563270
31
0.0000000000
11
-0.9963891942
21
25.1013604835
31
0.0000000000
0
SPLINE
5
346
100
AcDbEntity
8
0
100
AcDbSpline
62
0
6
CONTINUOUS
70
0
71
3
72
17
73
13
74
11
42
0.0000001000
43
0.0000001000
44
0.0000000001
12
-0.3905141315
22
0.1952570657
32
0.0000000000
13
-0.3916239349
23
-0.1930215070
33
0.0000000000
40
0.0000000000
40
0.0000000000
40
0.0000000000
40
0.0000000000
40
0.0891659336
40
0.1853519118
40
0.2871213145
40
0.3927472656
40
0.5003366228
40
0.6078965497
40
0.7134351177
40
0.8150632032
40
0.9110602977
40
1.0000000000
40
1.0000000000
40
1.0000000000
40
1.0000000000
10
4.9811006716
20
22.3220107349
30
0.0000000000
10
4.9694938192
20
22.3278141611
30
0.0000000000
10
4.9445750713
20
22.3383269950
30
0.0000000000
10
4.9045413554
20
22.3505077738
30
0.0000000000
10
4.8612215255
20
22.3594790199
30
0.0000000000
10
4.8156663642
20
22.3650192302
30
0.0000000000
10
4.7689765628
20
22.3669936273
30
0.0000000000
10
4.7222865222
20
22.3653531315
30
0.0000000000
10
4.6767306193
20
22.3601386850
30
0.0000000000
10
4.6334095282
20
22.3514771433
30
0.0000000000
10
4.5933740182
20
22.3395824529
30
0.0000000000
10
4.5684469083
20
22.3292446766
30
0.0000000000
10
4.5568366029
20
22.3235222514
30
0.0000000000
11
4.9811006716
21
22.3220107349
31
0.0000000000
11
4.9453047544
21
22.3373156789
31
0.0000000000
11
4.9051672839
21
22.3496692913
31
0.0000000000
11
4.8616754272
21
22.3587676617
31
0.0000000000
11
4.8159018478
21
22.3643864068
31
0.0000000000
11
4.7689701051
21
22.3663874254
31
0.0000000000
11
4.7220381476
21
22.3647210270
31
0.0000000000
11
4.6762640998
21
22.3594285860
31
0.0000000000
11
4.6327715056
21
22.3506401332
31
0.0000000000
11
4.5926332649
21
22.3385724027
31
0.0000000000
11
4.5568366029
21
22.3235222514
31
0.0000000000
0
SPLINE
5
347
100
AcDbEntity
8
0
100
AcDbSpline
62
0
6
CONTINUOUS
70
0
71
3
72
13
73
9
74
7
42
0.0000001000
43
0.0000001000
44
0.0000000001
12
-0.4312367598
22
0.4734665699
32
0.0000000000
13
-0.5730157043
23
0.2864360409
33
0.0000000000
40
0.0000000000
40
0.0000000000
40
0.0000000000
40
0.0000000000
40
0.2263325555
40
0.4392651718
40
0.6372076945
40
0.8197560175
40
0.9872792954
40
1.0000000000
40
1.0000000000
40
1.0000000000
40
1.0000000000
10
10.0037170592
20
20.0856511075
30
0.0000000000
10
9.9711827532
20
20.1213714071
30
0.0000000000
10
9.9058288738
20
20.1887300098
30
0.0000000000
10
9.8046379911
20
20.2797882029
30
0.0000000000
10
9.7047073004
20
20.3578209073
30
0.0000000000
10
9.6073966176
20
20.4229519483
30
0.0000000000
10
9.5398412119
20
20.4609874523
30
0.0000000000
10
9.5054705042
20
20.4783099876
30
0.0000000000
10
9.5030407830
20
20.4795245437
30
0.0000000000
11
10.0037170592
21
20.0856511075
31
0.0000000000
11
9.9026662945
21
20.1895670869
31
0.0000000000
11
9.8011988817
21
20.2806716481
31
0.0000000000
11
9.7011703978
21
20.3585428882
31
0.0000000000
11
9.6039061767
21
20.4234041982
31
0.0000000000
11
9.5103179018
21
20.4758570726
31
0.0000000000
11
9.5030407830
21
20.4795245437
31
0.0000000000
0
SPLINE
5
348
100
AcDbEntity
8
0
100
AcDbSpline
62
0
6
CONTINUOUS
70
0
71
3
72
13
73
9
74
7
42
0.0000001000
43
0.0000001000
44
0.0000000001
12
0.4109068760
22
0.2010615886
32
0.0000000000
13
0.4098481622
23
-0.2048837263
33
0.0000000000
40
0.0000000000
40
0.0000000000
40
0.0000000000
40
0.0000000000
40
0.2005143800
40
0.3892497752
40
0.5669911938
40
0.7362259433
40
0.8992258387
40
1.0000000000
40
1.0000000000
40
1.0000000000
40
1.0000000000
10
5.8357994014
20
22.0672742223
30
0.0000000000
10
5.8632636473
20
22.0807128022
30
0.0000000000
10
5.9181534147
20
22.1037741726
30
0.0000000000
10
6.0018857207
20
22.1264169219
30
0.0000000000
10
6.0834028349
20
22.1356660237
30
0.0000000000
10
6.1614541427
20
22.1312468061
30
0.0000000000
10
6.2259450989
20
22.1153008653
30
0.0000000000
10
6.2630872186
20
22.0994951355
30
0.0000000000
10
6.2768545869
20
22.0926128069
30
0.0000000000
11
5.8357994014
21
22.0672742223
31
0.0000000000
11
5.9205027574
21
22.1024773975
31
0.0000000000
11
6.0039454944
21
22.1246524873
31
0.0000000000
11
6.0847776497
21
22.1334519219
31
0.0000000000
11
6.1620538923
21
22.1287652039
31
0.0000000000
11
6.2343942540
21
22.1106830169
31
0.0000000000
11
6.2768545869
21
22.0926128069
31
0.0000000000
0
SPLINE
5
349
100
AcDbEntity
8
0
100
AcDbSpline
62
0
6
CONTINUOUS
70
0
71
3
72
15
73
11
74
9
42
0.0000001000
43
0.0000001000
44
0.0000000001
12
0.0000000000
22
0.6311300022
32
0.0000000000
13
-0.5654420458
23
0.2826653478
33
0.0000000000
40
0.0000000000
40
0.0000000000
40
0.0000000000
40
0.0000000000
40
0.1606293349
40
0.3126800366
40
0.4557227302
40
0.5905083928
40
0.7175351878
40
0.8389320932
40
0.9563750069
40
1.0000000000
40
1.0000000000
40
1.0000000000
40
1.0000000000
10
2.2940949031
20
23.6730702321
30
0.0000000000
10
2.2940949031
20
23.7068628962
30
0.0000000000
10
2.2909598225
20
23.7727042399
30
0.0000000000
10
2.2760285973
20
23.8676132885
30
0.0000000000
10
2.2511535678
20
23.9548251340
30
0.0000000000
10
2.2166363131
20
24.0330228718
30
0.0000000000
10
2.1728347802
20
24.1011375244
30
0.0000000000
10
2.1203374000
20
24.1580082708
30
0.0000000000
10
2.0722379030
20
24.1935353704
30
0.0000000000
10
2.0424363682
20
24.2098227259
30
0.0000000000
10
2.0342138998
20
24.2139331505
30
0.0000000000
11
2.2940949031
21
23.6730702321
31
0.0000000000
11
2.2889975641
21
23.7743199950
31
0.0000000000
11
2.2737668681
21
23.8690673911
31
0.0000000000
11
2.2486583547
21
23.9557840362
31
0.0000000000
11
2.2139594724
21
24.0334527489
31
0.0000000000
11
2.1702955670
21
24.1006893448
31
0.0000000000
11
2.1181165771
21
24.1567924002
31
0.0000000000
11
2.0584056060
21
24.2007086069
31
0.0000000000
11
2.0342138998
21
24.2139331505
31
0.0000000000
0
SPLINE
5
34A
100
AcDbEntity
8
0
100
AcDbSpline
62
0
6
CONTINUOUS
70
0
71
3
72
10
73
6
74
4
42
0.0000001000
43
0.0000001000
44
0.0000000001
12
0.0556154923
22
0.0171628862
32
0.0000000000
13
0.0478528501
23
-0.0308246041
33
0.0000000000
40
0.0000000000
40
0.0000000000
40
0.0000000000
40
0.0000000000
40
0.4565615055
40
0.7960097470
40
1.0000000000
40
1.0000000000
40
1.0000000000
40
1.0000000000
10
-1.2491719949
20
25.8198620741
30
0.0000000000
10
-1.2407080306
20
25.8224740452
30
0.0000000000
10
-1.2256021805
20
25.8267519737
30
0.0000000000
10
-1.2070178083
20
25.8293685419
30
0.0000000000
10
-1.1953314904
20
25.8292851778
30
0.0000000000
10
-1.1920776520
20
25.8271892048
30
0.0000000000
11
-1.2491719949
21
25.8198620741
31
0.0000000000
11
-1.2234825333
21
25.8266592296
31
0.0000000000
11
-1.2038812743
21
25.8291356611
31
0.0000000000
11
-1.1920776520
21
25.8271892048
31
0.0000000000
0
SPLINE
5
34B
100
AcDbEntity
8
0
100
AcDbSpline
62
0
6
CONTINUOUS
70
0
71
3
72
8
73
4
74
2
42
0.0000001000
43
0.0000001000
44
0.0000000001
12
-0.0189936958
22
-0.0058614358
32
0.0000000000
13
-0.0178492873
23
-0.0089568130
33
0.0000000000
40
0.0000000000
40
0.0000000000
40
0.0000000000
40
0.0000000000
40
1.0000000000
40
1.0000000000
40
1.0000000000
40
1.0000000000
10
-1.2491719949
20
25.8198620741
30
0.0000000000
10
-1.2555032268
20
25.8179082622
30
0.0000000000
10
-1.2616617097
20
25.8153738728
30
0.0000000000
10
-1.2676114721
20
25.8123882685
30
0.0000000000
11
-1.2491719949
21
25.8198620741
31
0.0000000000
11
-1.2676114721
21
25.8123882685
31
0.0000000000
0
SPLINE
5
34C
100
AcDbEntity
8
0
100
AcDbSpline
62
0
6
CONTINUOUS
70
0
71
3
72
15
73
11
74
9
42
0.0000001000
43
0.0000001000
44
0.0000000001
12
0.7619365976
22
0.4349160100
32
0.0000000000
13
0.7317445571
23
0.4839929935
33
0.0000000000
40
0.0000000000
40
0.0000000000
40
0.0000000000
40
0.0000000000
40
0.1045853351
40
0.2166076899
40
0.3351402480
40
0.4599360516
40
0.5902559263
40
0.7249598041
40
0.8623492495
40
1.0000000000
40
1.0000000000
40
1.0000000000
40
1.0000000000
10
9.2567301703
20
-17.9213456567
30
0.0000000000
10
9.2832926351
20
-17.9061837112
30
0.0000000000
10
9.3381784551
20
-17.8745570300
30
0.0000000000
10
9.4227199113
20
-17.8249719511
30
0.0000000000
10
9.5119571737
20
-17.7717163736
30
0.0000000000
10
9.6053595940
20
-17.7150045920
30
0.0000000000
10
9.7023412040
20
-17.6550819569
30
0.0000000000
10
9.8019527586
20
-17.5924161204
30
0.0000000000
10
9.9028314893
20
-17.5277464563
30
0.0000000000
10
9.9701419967
20
-17.4837119243
30
0.0000000000
10
10.0037170592
20
-17.4615045913
30
0.0000000000
11
9.2567301703
21
-17.9213456567
31
0.0000000000
11
9.3362368803
21
-17.8755447264
31
0.0000000000
11
9.4210160273
21
-17.8258309549
31
0.0000000000
11
9.5103179018
21
-17.7725446957
31
0.0000000000
11
9.6039061767
21
-17.7157245740
31
0.0000000000
11
9.7011703978
21
-17.6556272998
31
0.0000000000
11
9.8011988817
21
-17.5926940006
31
0.0000000000
11
9.9026662945
21
-17.5276317195
31
0.0000000000
11
10.0037170592
21
-17.4615045913
31
0.0000000000
0
SPLINE
5
34D
100
AcDbEntity
8
0
100
AcDbSpline
62
0
6
CONTINUOUS
70
0
71
3
72
8
73
4
74
2
42
0.0000001000
43
0.0000001000
44
0.0000000001
12
-0.0496543828
22
-0.0283428911
32
0.0000000000
13
-0.0511446455
23
-0.0256282980
33
0.0000000000
40
0.0000000000
40
0.0000000000
40
0.0000000000
40
0.0000000000
40
1.0000000000
40
1.0000000000
40
1.0000000000
40
1.0000000000
10
9.2567301703
20
-17.9213456567
30
0.0000000000
10
9.2401787094
20
-17.9307932871
30
0.0000000000
10
9.2233574309
20
-17.9397803612
30
0.0000000000
10
9.2063092157
20
-17.9483231272
30
0.0000000000
11
9.2567301703
21
-17.9213456567
31
0.0000000000
11
9.2063092157
21
-17.9483231272
31
0.0000000000
0
SPLINE
5
34E
100
AcDbEntity
8
0
100
AcDbSpline
62
0
6
CONTINUOUS
70
0
71
3
72
14
73
10
74
8
42
0.0000001000
43
0.0000001000
44
0.0000000001
12
0.0000000000
22
0.2525400005
32
0.0000000000
13
0.1603202703
23
0.1951252490
33
0.0000000000
40
0.0000000000
40
0.0000000000
40
0.0000000000
40
0.0000000000
40
0.1318788968
40
0.2706570924
40
0.4139746772
40
0.5610771939
40
0.7087227910
40
0.8559736017
40
1.0000000000
40
1.0000000000
40
1.0000000000
40
1.0000000000
10
4.1679278732
20
16.4004491579
30
0.0000000000
10
4.1679278732
20
16.4115507234
30
0.0000000000
10
4.1693448796
20
16.4343501261
30
0.0000000000
10
4.1752525166
20
16.4687525338
30
0.0000000000
10
4.1848751179
20
16.5036361140
30
0.0000000000
10
4.1979817289
20
16.5381601802
30
0.0000000000
10
4.2143143586
20
16.5716486466
30
0.0000000000
10
4.2334790945
20
16.6032955906
30
0.0000000000
10
4.2481052088
20
16.6230310106
30
0.0000000000
10
4.2558019925
20
16.6323987395
30
0.0000000000
11
4.1679278732
21
16.4004491579
31
0.0000000000
11
4.1698893414
21
16.4336960444
31
0.0000000000
11
4.1757441182
21
16.4682505954
31
0.0000000000
11
4.1853206498
21
16.5031540895
31
0.0000000000
11
4.1984817735
21
16.5378938802
31
0.0000000000
11
4.2148250622
21
16.5714076680
31
0.0000000000
11
4.2341075130
21
16.6032045109
31
0.0000000000
11
4.2558019925
21
16.6323987395
31
0.0000000000
0
SPLINE
5
34F
100
AcDbEntity
8
0
100
AcDbSpline
62
0
6
CONTINUOUS
70
0
71
3
72
14
73
10
74
8
42
0.0000001000
43
0.0000001000
44
0.0000000001
12
0.0000000000
22
0.2525400005
32
0.0000000000
13
0.1603202703
23
0.1951252490
33
0.0000000000
40
0.0000000000
40
0.0000000000
40
0.0000000000
40
0.0000000000
40
0.1318788968
40
0.2706570924
40
0.4139746772
40
0.5610771939
40
0.7087227910
40
0.8559736017
40
1.0000000000
40
1.0000000000
40
1.0000000000
40
1.0000000000
10
-9.1963902912
20
23.0826082401
30
0.0000000000
10
-9.1963902912
20
23.0937098056
30
0.0000000000
10
-9.1949732848
20
23.1165092083
30
0.0000000000
10
-9.1890656479
20
23.1509116160
30
0.0000000000
10
-9.1794430466
20
23.1857951963
30
0.0000000000
10
-9.1663364355
20
23.2203192625
30
0.0000000000
10
-9.1500038058
20
23.2538077288
30
0.0000000000
10
-9.1308390699
20
23.2854546728
30
0.0000000000
10
-9.1162129556
20
23.3051900928
30
0.0000000000
10
-9.1085161719
20
23.3145578217
30
0.0000000000
11
-9.1963902912
21
23.0826082401
31
0.0000000000
11
-9.1944288230
21
23.1158551266
31
0.0000000000
11
-9.1885740463
21
23.1504096776
31
0.0000000000
11
-9.1789975146
21
23.1853131717
31
0.0000000000
11
-9.1658363909
21
23.2200529625
31
0.0000000000
11
-9.1494931022
21
23.2535667502
31
0.0000000000
11
-9.1302106514
21
23.2853635932
31
0.0000000000
11
-9.1085161719
21
23.3145578217
31
0.0000000000
0
SPLINE
5
350
100
AcDbEntity
8
0
100
AcDbSpline
62
0
6
CONTINUOUS
70
0
71
3
72
14
73
10
74
8
42
0.0000001000
43
0.0000001000
44
0.0000000001
12
0.1603213519
22
0.1951265654
32
0.0000000000
13
0.0000000000
23
0.2525417043
33
0.0000000000
40
0.0000000000
40
0.0000000000
40
0.0000000000
40
0.0000000000
40
0.1440265224
40
0.2912774710
40
0.4389231742
40
0.5860257506
40
0.7293433004
40
0.8681213611
40
1.0000000000
40
1.0000000000
40
1.0000000000
40
1.0000000000
10
4.7830467082
20
17.2741064676
30
0.0000000000
10
4.7907435505
20
17.2834742678
30
0.0000000000
10
4.8053697695
20
17.3032098447
30
0.0000000000
10
4.8245346184
20
17.3348570493
30
0.0000000000
10
4.8408673119
20
17.3683457931
30
0.0000000000
10
4.8539739359
20
17.4028701349
30
0.0000000000
10
4.8635964747
20
17.4377539736
30
0.0000000000
10
4.8695040448
20
17.4721566041
30
0.0000000000
10
4.8709208275
20
17.4949561368
30
0.0000000000
10
4.8709208275
20
17.5060577556
30
0.0000000000
11
4.7830467082
21
17.2741064676
31
0.0000000000
11
4.8047413423
21
17.3033009261
31
0.0000000000
11
4.8240239081
21
17.3350980334
31
0.0000000000
11
4.8403672613
21
17.3686120994
31
0.0000000000
11
4.8535283945
21
17.4033521706
31
0.0000000000
11
4.8631048742
21
17.4382559231
31
0.0000000000
11
4.8689595362
21
17.4728106988
31
0.0000000000
11
4.8709208275
21
17.5060577556
31
0.0000000000
0
SPLINE
5
351
100
AcDbEntity
8
0
100
AcDbSpline
62
0
6
CONTINUOUS
70
0
71
3
72
13
73
9
74
7
42
0.0000001000
43
0.0000001000
44
0.0000000001
12
0.0000000000
22
0.1573187955
32
0.0000000000
13
-0.1410768327
23
0.0705989525
33
0.0000000000
40
0.0000000000
40
0.0000000000
40
0.0000000000
40
0.0000000000
40
0.2078817330
40
0.4013465439
40
0.5789246977
40
0.7443175029
40
0.8997170363
40
1.0000000000
40
1.0000000000
40
1.0000000000
40
1.0000000000
10
4.8709208275
20
17.8535892723
30
0.0000000000
10
4.8709208275
20
17.8644905069
30
0.0000000000
10
4.8696368385
20
17.8855719887
30
0.0000000000
10
4.8634067103
20
17.9154075845
30
0.0000000000
10
4.8530273285
20
17.9417236271
30
0.0000000000
10
4.8386838606
20
17.9638148331
30
0.0000000000
10
4.8225540474
20
17.9792185939
30
0.0000000000
10
4.8110385180
20
17.9862567504
30
0.0000000000
10
4.8063226504
20
17.9886167078
30
0.0000000000
11
4.8709208275
21
17.8535892723
31
0.0000000000
11
4.8687764432
21
17.8862225967
31
0.0000000000
11
4.8623695153
21
17.9159762541
31
0.0000000000
11
4.8519243493
21
17.9418864819
31
0.0000000000
11
4.8375839823
21
17.9635973752
31
0.0000000000
11
4.8198068921
21
17.9803796262
31
0.0000000000
11
4.8063226504
21
17.9886167078
31
0.0000000000
0
SPLINE
5
352
100
AcDbEntity
8
0
100
AcDbSpline
62
0
6
CONTINUOUS
70
0
71
3
72
12
73
8
74
6
42
0.0000001000
43
0.0000001000
44
0.0000000001
12
0.1037892104
22
0.0505590123
32
0.0000000000
13
0.1035245975
23
-0.0518042949
33
0.0000000000
40
0.0000000000
40
0.0000000000
40
0.0000000000
40
0.0000000000
40
0.2574797432
40
0.4962941496
40
0.7176884677
40
0.9297317834
40
1.0000000000
40
1.0000000000
40
1.0000000000
40
1.0000000000
10
3.0053214771
20
18.8271433785
30
0.0000000000
10
3.0142293501
20
18.8314826857
30
0.0000000000
10
3.0320600649
20
18.8386028459
30
0.0000000000
10
3.0592907663
20
18.8441384663
30
0.0000000000
10
3.0853778790
20
18.8438978893
30
0.0000000000
10
3.1043642483
20
18.8390818262
30
0.0000000000
10
3.1143132129
20
18.8346225168
30
0.0000000000
10
3.1167380425
20
18.8334091183
30
0.0000000000
11
3.0053214771
21
18.8271433785
31
0.0000000000
11
3.0329997702
21
18.8379845129
31
0.0000000000
11
3.0600587124
21
18.8432726152
31
0.0000000000
11
3.0856149778
21
18.8428537739
31
0.0000000000
11
3.1093176662
21
18.8367333484
31
0.0000000000
11
3.1167380425
21
18.8334091183
31
0.0000000000
0
SPLINE
5
353
100
AcDbEntity
8
0
100
AcDbSpline
62
0
6
CONTINUOUS
70
0
71
3
72
17
73
13
74
11
42
0.0000001000
43
0.0000001000
44
0.0000000001
12
0.0000000000
22
0.3666502398
32
0.0000000000
13
0.3262254999
23
0.1673598566
33
0.0000000000
40
0.0000000000
40
0.0000000000
40
0.0000000000
40
0.0000000000
40
0.0951010066
40
0.1954626647
40
0.2989499556
40
0.4051948209
40
0.5116959089
40
0.6171488294
40
0.7202917296
40
0.8188238537
40
0.9126130540
40
1.0000000000
40
1.0000000000
40
1.0000000000
40
1.0000000000
10
0.7133892127
20
17.4499237629
30
0.0000000000
10
0.7133892127
20
17.4615466986
30
0.0000000000
10
0.7149438706
20
17.4854528564
30
0.0000000000
10
0.7214021291
20
17.5214805950
30
0.0000000000
10
0.7319037302
20
17.5579615994
30
0.0000000000
10
0.7461763599
20
17.5939423637
30
0.0000000000
10
0.7639036714
20
17.6286215010
30
0.0000000000
10
0.7846441301
20
17.6611404303
30
0.0000000000
10
0.8078886192
20
17.6906955080
30
0.0000000000
10
0.8331225230
20
17.7166297017
30
0.0000000000
10
0.8596892015
20
17.7382687448
30
0.0000000000
10
0.8786123785
20
17.7499367924
30
0.0000000000
10
0.8881149952
20
17.7548118146
30
0.0000000000
11
0.7133892127
21
17.4499237629
31
0.0000000000
11
0.7155335970
21
17.4847265690
31
0.0000000000
11
0.7219405248
21
17.5209621393
31
0.0000000000
11
0.7323856909
21
17.5574397807
31
0.0000000000
11
0.7467260579
21
17.5936588772
31
0.0000000000
11
0.7645031481
21
17.6284262770
31
0.0000000000
11
0.7853218711
21
17.6610071279
31
0.0000000000
11
0.8087503584
21
17.6906931413
31
0.0000000000
11
0.8340109798
21
17.7165204259
31
0.0000000000
11
0.8607568944
21
17.7381347520
31
0.0000000000
11
0.8881149952
21
17.7548118146
31
0.0000000000
0
SPLINE
5
354
100
AcDbEntity
8
0
100
AcDbSpline
62
0
6
CONTINUOUS
70
0
71
3
72
14
73
10
74
8
42
0.0000001000
43
0.0000001000
44
0.0000000001
12
0.1603213519
22
0.1951265654
32
0.0000000000
13
-0.0000000000
23
0.2525417043
33
0.0000000000
40
0.0000000000
40
0.0000000000
40
0.0000000000
40
0.0000000000
40
0.1440265224
40
0.2912774710
40
0.4389231742
40
0.5860257506
40
0.7293433004
40
0.8681213611
40
1.0000000000
40
1.0000000000
40
1.0000000000
40
1.0000000000
10
-8.5812714562
20
23.9562655498
30
0.0000000000
10
-8.5735746140
20
23.9656333500
30
0.0000000000
10
-8.5589483950
20
23.9853689269
30
0.0000000000
10
-8.5397835461
20
24.0170161316
30
0.0000000000
10
-8.5234508526
20
24.0505048753
30
0.0000000000
10
-8.5103442285
20
24.0850292171
30
0.0000000000
10
-8.5007216897
20
24.1199130559
30
0.0000000000
10
-8.4948141196
20
24.1543156863
30
0.0000000000
10
-8.4933973369
20
24.1771152190
30
0.0000000000
10
-8.4933973369
20
24.1882168378
30
0.0000000000
11
-8.5812714562
21
23.9562655498
31
0.0000000000
11
-8.5595768222
21
23.9854600083
31
0.0000000000
11
-8.5402942563
21
24.0172571156
31
0.0000000000
11
-8.5239509031
21
24.0507711816
31
0.0000000000
11
-8.5107897700
21
24.0855112528
31
0.0000000000
11
-8.5012132903
21
24.1204150053
31
0.0000000000
11
-8.4953586282
21
24.1549697810
31
0.0000000000
11
-8.4933973369
21
24.1882168378
31
0.0000000000
0
SPLINE
5
355
100
AcDbEntity
8
0
100
AcDbSpline
62
0
6
CONTINUOUS
70
0
71
3
72
13
73
9
74
7
42
0.0000001000
43
0.0000001000
44
0.0000000001
12
0.0000000000
22
0.1573187955
32
0.0000000000
13
-0.1410768327
23
0.0705989525
33
0.0000000000
40
0.0000000000
40
0.0000000000
40
0.0000000000
40
0.0000000000
40
0.2078817330
40
0.4013465439
40
0.5789246977
40
0.7443175029
40
0.8997170363
40
1.0000000000
40
1.0000000000
40
1.0000000000
40
1.0000000000
10
-8.4933973369
20
24.5357483545
30
0.0000000000
10
-8.4933973369
20
24.5466495891
30
0.0000000000
10
-8.4946813259
20
24.5677310709
30
0.0000000000
10
-8.5009114541
20
24.5975666667
30
0.0000000000
10
-8.5112908360
20
24.6238827093
30
0.0000000000
10
-8.5256343038
20
24.6459739153
30
0.0000000000
10
-8.5417641170
20
24.6613776761
30
0.0000000000
10
-8.5532796464
20
24.6684158326
30
0.0000000000
10
-8.5579955140
20
24.6707757900
30
0.0000000000
11
-8.4933973369
21
24.5357483545
31
0.0000000000
11
-8.4955417213
21
24.5683816789
31
0.0000000000
11
-8.5019486491
21
24.5981353363
31
0.0000000000
11
-8.5123938151
21
24.6240455641
31
0.0000000000
11
-8.5267341821
21
24.6457564574
31
0.0000000000
11
-8.5445112723
21
24.6625387084
31
0.0000000000
11
-8.5579955140
21
24.6707757900
31
0.0000000000
0
SPLINE
5
356
100
AcDbEntity
8
0
100
AcDbSpline
62
0
6
CONTINUOUS
70
0
71
3
72
12
73
8
74
6
42
0.0000001000
43
0.0000001000
44
0.0000000001
12
0.1037892104
22
0.0505590123
32
0.0000000000
13
0.1035245975
23
-0.0518042949
33
0.0000000000
40
0.0000000000
40
0.0000000000
40
0.0000000000
40
0.0000000000
40
0.2574797432
40
0.4962941496
40
0.7176884677
40
0.9297317834
40
1.0000000000
40
1.0000000000
40
1.0000000000
40
1.0000000000
10
-10.3589966874
20
25.5093024607
30
0.0000000000
10
-10.3500888143
20
25.5136417679
30
0.0000000000
10
-10.3322580995
20
25.5207619281
30
0.0000000000
10
-10.3050273982
20
25.5262975485
30
0.0000000000
10
-10.2789402854
20
25.5260569715
30
0.0000000000
10
-10.2599539161
20
25.5212409084
30
0.0000000000
10
-10.2500049515
20
25.5167815990
30
0.0000000000
10
-10.2475801219
20
25.5155682005
30
0.0000000000
11
-10.3589966874
21
25.5093024607
31
0.0000000000
11
-10.3313183942
21
25.5201435951
31
0.0000000000
11
-10.3042594520
21
25.5254316974
31
0.0000000000
11
-10.2787031867
21
25.5250128562
31
0.0000000000
11
-10.2550004982
21
25.5188924306
31
0.0000000000
11
-10.2475801219
21
25.5155682005
31
0.0000000000
0
SPLINE
5
357
100
AcDbEntity
8
0
100
AcDbSpline
62
0
6
CONTINUOUS
70
0
71
3
72
17
73
13
74
11
42
0.0000001000
43
0.0000001000
44
0.0000000001
12
0.0000000000
22
0.3666502398
32
0.0000000000
13
0.3262254999
23
0.1673598566
33
0.0000000000
40
0.0000000000
40
0.0000000000
40
0.0000000000
40
0.0000000000
40
0.0951010066
40
0.1954626647
40
0.2989499556
40
0.4051948209
40
0.5116959089
40
0.6171488294
40
0.7202917296
40
0.8188238537
40
0.9126130540
40
1.0000000000
40
1.0000000000
40
1.0000000000
40
1.0000000000
10
-12.6509289517
20
24.1320828452
30
0.0000000000
10
-12.6509289517
20
24.1437057808
30
0.0000000000
10
-12.6493742938
20
24.1676119386
30
0.0000000000
10
-12.6429160353
20
24.2036396773
30
0.0000000000
10
-12.6324144342
20
24.2401206816
30
0.0000000000
10
-12.6181418045
20
24.2761014460
30
0.0000000000
10
-12.6004144931
20
24.3107805832
30
0.0000000000
10
-12.5796740343
20
24.3432995125
30
0.0000000000
10
-12.5564295452
20
24.3728545902
30
0.0000000000
10
-12.5311956414
20
24.3987887839
30
0.0000000000
10
-12.5046289630
20
24.4204278270
30
0.0000000000
10
-12.4857057859
20
24.4320958746
30
0.0000000000
10
-12.4762031692
20
24.4369708968
30
0.0000000000
11
-12.6509289517
21
24.1320828452
31
0.0000000000
11
-12.6487845674
21
24.1668856512
31
0.0000000000
11
-12.6423776396
21
24.2031212215
31
0.0000000000
11
-12.6319324736
21
24.2395988630
31
0.0000000000
11
-12.6175921066
21
24.2758179594
31
0.0000000000
11
-12.5998150164
21
24.3105853592
31
0.0000000000
11
-12.5789962933
21
24.3431662101
31
0.0000000000
11
-12.5555678060
21
24.3728522235
31
0.0000000000
11
-12.5303071847
21
24.3986795081
31
0.0000000000
11
-12.5035612700
21
24.4202938342
31
0.0000000000
11
-12.4762031692
21
24.4369708968
31
0.0000000000
0
SPLINE
5
358
100
AcDbEntity
8
0
100
AcDbSpline
62
0
6
CONTINUOUS
70
0
71
3
72
13
73
9
74
7
42
0.0000001000
43
0.0000001000
44
0.0000000001
12
0.0000000000
22
0.1573462303
32
0.0000000000
13
-0.1411200199
23
0.0705753522
33
0.0000000000
40
0.0000000000
40
0.0000000000
40
0.0000000000
40
0.0000000000
40
0.1990786305
40
0.3848094900
40
0.5562307156
40
0.7160338523
40
0.8658122188
40
1.0000000000
40
1.0000000000
40
1.0000000000
40
1.0000000000
10
4.8709208275
20
-23.7935463838
30
0.0000000000
10
4.8709208275
20
-23.7831049598
30
0.0000000000
10
4.8697409199
20
-23.7628918339
30
0.0000000000
10
4.8640364018
20
-23.7341758994
30
0.0000000000
10
4.8545343647
20
-23.7086374252
30
0.0000000000
10
4.8413968438
20
-23.6868991022
30
0.0000000000
10
4.8252103782
20
-23.6698875732
30
0.0000000000
10
4.8126320460
20
-23.6616709675
30
0.0000000000
10
4.8063198518
20
-23.6585141842
30
0.0000000000
11
4.8709208275
21
-23.7935463838
31
0.0000000000
11
4.8689595362
21
-23.7622835728
31
0.0000000000
11
4.8631048742
21
-23.7336519807
31
0.0000000000
11
4.8535283945
21
-23.7084367886
31
0.0000000000
11
4.8403672613
21
-23.6870118851
31
0.0000000000
11
4.8240239081
21
-23.6700324509
31
0.0000000000
11
4.8063198518
21
-23.6585141842
31
0.0000000000
0
SPLINE
5
359
100
AcDbEntity
8
0
100
AcDbSpline
62
0
6
CONTINUOUS
70
0
71
3
72
17
73
13
74
11
42
0.0000001000
43
0.0000001000
44
0.0000000001
12
0.3262254999
22
0.1673598566
32
0.0000000000
13
0.0000000000
23
0.3666502398
33
0.0000000000
40
0.0000000000
40
0.0000000000
40
0.0000000000
40
0.0000000000
40
0.0873869460
40
0.1811761463
40
0.2797082704
40
0.3828511706
40
0.4883040911
40
0.5948051791
40
0.7010500444
40
0.8045373353
40
0.9048989934
40
1.0000000000
40
1.0000000000
40
1.0000000000
40
1.0000000000
10
4.6961950450
20
-24.4459659523
30
0.0000000000
10
4.7056976617
20
-24.4410909300
30
0.0000000000
10
4.7246208387
20
-24.4294228824
30
0.0000000000
10
4.7511875172
20
-24.4077838393
30
0.0000000000
10
4.7764214210
20
-24.3818496457
30
0.0000000000
10
4.7996659101
20
-24.3522945679
30
0.0000000000
10
4.8204063688
20
-24.3197756386
30
0.0000000000
10
4.8381336803
20
-24.2850965014
30
0.0000000000
10
4.8524063100
20
-24.2491157370
30
0.0000000000
10
4.8629079111
20
-24.2126347327
30
0.0000000000
10
4.8693661695
20
-24.1766069940
30
0.0000000000
10
4.8709208275
20
-24.1527008362
30
0.0000000000
10
4.8709208275
20
-24.1410779006
30
0.0000000000
11
4.6961950450
21
-24.4459659523
31
0.0000000000
11
4.7235531458
21
-24.4292888896
31
0.0000000000
11
4.7502990604
21
-24.4076745635
31
0.0000000000
11
4.7755596818
21
-24.3818472789
31
0.0000000000
11
4.7989881691
21
-24.3521612655
31
0.0000000000
11
4.8198068921
21
-24.3195804146
31
0.0000000000
11
4.8375839823
21
-24.2848130148
31
0.0000000000
11
4.8519243493
21
-24.2485939184
31
0.0000000000
11
4.8623695153
21
-24.2121162769
31
0.0000000000
11
4.8687764432
21
-24.1758807066
31
0.0000000000
11
4.8709208275
21
-24.1410779006
31
0.0000000000
0
SPLINE
5
35A
100
AcDbEntity
8
0
100
AcDbSpline
62
0
6
CONTINUOUS
70
0
71
3
72
14
73
10
74
8
42
0.0000001000
43
0.0000001000
44
0.0000000001
12
0.0000000000
22
0.2525417043
32
0.0000000000
13
0.1603213519
23
0.1951265654
33
0.0000000000
40
0.0000000000
40
0.0000000000
40
0.0000000000
40
0.0000000000
40
0.1318786389
40
0.2706566996
40
0.4139742494
40
0.5610768258
40
0.7087225290
40
0.8559734776
40
1.0000000000
40
1.0000000000
40
1.0000000000
40
1.0000000000
10
0.7133892127
20
-24.1896543106
30
0.0000000000
10
0.7133892127
20
-24.1785526918
30
0.0000000000
10
0.7148059954
20
-24.1557531591
30
0.0000000000
10
0.7207135655
20
-24.1213505286
30
0.0000000000
10
0.7303361043
20
-24.0864666899
30
0.0000000000
10
0.7434427283
20
-24.0519423481
30
0.0000000000
10
0.7597754218
20
-24.0184536043
30
0.0000000000
10
0.7789402707
20
-23.9868063997
30
0.0000000000
10
0.7935664897
20
-23.9670708228
30
0.0000000000
10
0.8012633320
20
-23.9577030226
30
0.0000000000
11
0.7133892127
21
-24.1896543106
31
0.0000000000
11
0.7153505040
21
-24.1564072538
31
0.0000000000
11
0.7212051660
21
-24.1218524781
31
0.0000000000
11
0.7307816457
21
-24.0869487256
31
0.0000000000
11
0.7439427789
21
-24.0522086544
31
0.0000000000
11
0.7602861321
21
-24.0186945884
31
0.0000000000
11
0.7795686979
21
-23.9868974811
31
0.0000000000
11
0.8012633320
21
-23.9577030226
31
0.0000000000
0
SPLINE
5
35B
100
AcDbEntity
8
0
100
AcDbSpline
62
0
6
CONTINUOUS
70
0
71
3
72
9
73
5
74
3
42
0.0000001000
43
0.0000001000
44
0.0000000001
12
-0.0220849486
22
0.0110448753
32
0.0000000000
13
-0.0241207855
23
0.0049542358
33
0.0000000000
40
0.0000000000
40
0.0000000000
40
0.0000000000
40
0.0000000000
40
0.0711334077
40
1.0000000000
40
1.0000000000
40
1.0000000000
40
1.0000000000
10
4.8063198518
20
-23.6585141842
30
0.0000000000
10
4.8057961926
20
-23.6582522976
30
0.0000000000
10
4.7983989069
20
-23.6546409113
30
0.0000000000
10
4.7905150388
20
-23.6520316132
30
0.0000000000
10
4.7830467082
20
-23.6504976718
30
0.0000000000
11
4.8063198518
21
-23.6585141842
31
0.0000000000
11
4.8047413423
21
-23.6577435877
31
0.0000000000
11
4.7830467082
21
-23.6504976718
31
0.0000000000
0
SPLINE
5
35C
100
AcDbEntity
8
0
100
AcDbSpline
62
0
6
CONTINUOUS
70
0
71
3
72
12
73
8
74
6
42
0.0000001000
43
0.0000001000
44
0.0000000001
12
-0.1024460385
22
0.0512669789
32
0.0000000000
13
-0.1022335317
23
-0.0509823104
33
0.0000000000
40
0.0000000000
40
0.0000000000
40
0.0000000000
40
0.0000000000
40
0.0701707674
40
0.2818334567
40
0.5029641069
40
0.7418852029
40
1.0000000000
40
1.0000000000
40
1.0000000000
40
1.0000000000
10
-8.5579955140
20
24.6707757900
30
0.0000000000
10
-8.5603917531
20
24.6719749378
30
0.0000000000
10
-8.5702226483
20
24.6763758478
30
0.0000000000
10
-8.5890008347
20
24.6810851710
30
0.0000000000
10
-8.6148004725
20
24.6811709490
30
0.0000000000
10
-8.6417217000
20
24.6754711373
30
0.0000000000
10
-8.6593271237
20
24.6682521064
30
0.0000000000
10
-8.6681231195
20
24.6638656768
30
0.0000000000
11
-8.5579955140
21
24.6707757900
31
0.0000000000
11
-8.5653299953
21
24.6740571792
31
0.0000000000
11
-8.5887584826
21
24.6800405041
31
0.0000000000
11
-8.6140191040
21
24.6803115234
31
0.0000000000
11
-8.6407650187
21
24.6748669073
31
0.0000000000
11
-8.6681231195
21
24.6638656768
31
0.0000000000
0
SPLINE
5
35D
100
AcDbEntity
8
0
100
AcDbSpline
62
0
6
CONTINUOUS
70
0
71
3
72
12
73
8
74
6
42
0.0000001000
43
0.0000001000
44
0.0000000001
12
-0.1024460385
22
0.0512669789
32
0.0000000000
13
-0.1022335317
23
-0.0509823104
33
0.0000000000
40
0.0000000000
40
0.0000000000
40
0.0000000000
40
0.0000000000
40
0.0701707674
40
0.2818334567
40
0.5029641069
40
0.7418852029
40
1.0000000000
40
1.0000000000
40
1.0000000000
40
1.0000000000
10
4.8063226504
20
17.9886167078
30
0.0000000000
10
4.8039264114
20
17.9898158556
30
0.0000000000
10
4.7940955162
20
17.9942167656
30
0.0000000000
10
4.7753173297
20
17.9989260888
30
0.0000000000
10
4.7495176919
20
17.9990118667
30
0.0000000000
10
4.7225964644
20
17.9933120551
30
0.0000000000
10
4.7049910407
20
17.9860930241
30
0.0000000000
10
4.6961950450
20
17.9817065946
30
0.0000000000
11
4.8063226504
21
17.9886167078
31
0.0000000000
11
4.7989881691
21
17.9918980970
31
0.0000000000
11
4.7755596818
21
17.9978814219
31
0.0000000000
11
4.7502990604
21
17.9981524412
31
0.0000000000
11
4.7235531458
21
17.9927078251
31
0.0000000000
11
4.6961950450
21
17.9817065946
31
0.0000000000
0
SPLINE
5
35E
100
AcDbEntity
8
0
100
AcDbSpline
62
0
6
CONTINUOUS
70
0
71
3
72
8
73
4
74
2
42
0.0000001000
43
0.0000001000
44
0.0000000001
12
0.0002454748
22
0.0085435457
32
0.0000000000
13
-0.0053364816
23
0.0075239063
33
0.0000000000
40
0.0000000000
40
0.0000000000
40
0.0000000000
40
0.0000000000
40
1.0000000000
40
1.0000000000
40
1.0000000000
40
1.0000000000
10
10.0050433780
20
-17.4574513692
30
0.0000000000
10
10.0051252029
20
-17.4546035206
30
0.0000000000
10
10.0033858320
20
-17.4518790488
30
0.0000000000
10
10.0016070048
20
-17.4493710800
30
0.0000000000
11
10.0050433780
21
-17.4574513692
31
0.0000000000
11
10.0016070048
21
-17.4493710800
31
0.0000000000
0
SPLINE
5
35F
100
AcDbEntity
8
0
100
AcDbSpline
62
0
6
CONTINUOUS
70
0
71
3
72
11
73
7
74
5
42
0.0000001000
43
0.0000001000
44
0.0000000001
12
-0.0663186737
22
0.0935027089
32
0.0000000000
13
-0.0863886430
23
0.0648670732
33
0.0000000000
40
0.0000000000
40
0.0000000000
40
0.0000000000
40
0.0000000000
40
0.1581044998
40
0.3820090898
40
0.6646809553
40
1.0000000000
40
1.0000000000
40
1.0000000000
40
1.0000000000
10
10.0016070048
20
-17.4493710800
30
0.0000000000
10
9.9981119112
20
-17.4444433470
30
0.0000000000
10
9.9892990919
20
-17.4345565513
30
0.0000000000
10
9.9714260328
20
-17.4181536269
30
0.0000000000
10
9.9481479686
20
-17.3989049810
30
0.0000000000
10
9.9304844989
20
-17.3853083010
30
0.0000000000
10
9.9208285798
20
-17.3780579126
30
0.0000000000
11
10.0016070048
21
-17.4493710800
31
0.0000000000
11
9.9905671117
21
-17.4363382560
31
0.0000000000
11
9.9729310620
21
-17.4197834441
31
0.0000000000
11
9.9494830737
21
-17.4002201354
31
0.0000000000
11
9.9208285798
21
-17.3780579126
31
0.0000000000
0
SPLINE
5
360
100
AcDbEntity
8
0
100
AcDbSpline
62
0
6
CONTINUOUS
70
0
71
3
72
11
73
7
74
5
42
0.0000001000
43
0.0000001000
44
0.0000000001
12
-0.1625542203
22
-0.0815700781
32
0.0000000000
13
-0.0905678769
23
-0.1567410448
33
0.0000000000
40
0.0000000000
40
0.0000000000
40
0.0000000000
40
0.0000000000
40
0.1162303016
40
0.3703269026
40
0.6635318032
40
1.0000000000
40
1.0000000000
40
1.0000000000
40
1.0000000000
10
-1.2676114721
20
25.8123882685
30
0.0000000000
10
-1.2739093808
20
25.8092279635
30
0.0000000000
10
-1.2932303308
20
25.7975479608
30
0.0000000000
10
-1.3228188778
20
25.7702153103
30
0.0000000000
10
-1.3556964311
20
25.7280353190
30
0.0000000000
10
-1.3757734499
20
25.6957189752
30
0.0000000000
10
-1.3859311866
20
25.6781395163
30
0.0000000000
11
-1.2676114721
21
25.8123882685
31
0.0000000000
11
-1.2857609513
21
25.8015440846
31
0.0000000000
11
-1.3202030238
21
25.7710553904
31
0.0000000000
11
-1.3533610888
21
25.7296093293
31
0.0000000000
11
-1.3859311866
21
25.6781395163
31
0.0000000000
0
SPLINE
5
361
100
AcDbEntity
8
0
100
AcDbSpline
62
0
6
CONTINUOUS
70
0
71
3
72
13
73
9
74
7
42
0.0000001000
43
0.0000001000
44
0.0000000001
12
-0.4098481622
22
0.2048837263
32
0.0000000000
13
-0.4109068760
23
-0.2010615886
33
0.0000000000
40
0.0000000000
40
0.0000000000
40
0.0000000000
40
0.0000000000
40
0.1007741613
40
0.2637740567
40
0.4330088062
40
0.6107502248
40
0.7994856200
40
1.0000000000
40
1.0000000000
40
1.0000000000
40
1.0000000000
10
2.0342138998
20
24.2139331505
30
0.0000000000
10
2.0204465315
20
24.2208154790
30
0.0000000000
10
1.9833044118
20
24.2366212088
30
0.0000000000
10
1.9188134556
20
24.2525671497
30
0.0000000000
10
1.8407621478
20
24.2569863673
30
0.0000000000
10
1.7592450336
20
24.2477372654
30
0.0000000000
10
1.6755127276
20
24.2250945162
30
0.0000000000
10
1.6206229601
20
24.2020331458
30
0.0000000000
10
1.5931587143
20
24.1885945659
30
0.0000000000
11
2.0342138998
21
24.2139331505
31
0.0000000000
11
1.9917535669
21
24.2320033605
31
0.0000000000
11
1.9194132052
21
24.2500855475
31
0.0000000000
11
1.8421369626
21
24.2547722655
31
0.0000000000
11
1.7613048073
21
24.2459728309
31
0.0000000000
11
1.6778620703
21
24.2237977411
31
0.0000000000
11
1.5931587143
21
24.1885945659
31
0.0000000000
0
SPLINE
5
362
100
AcDbEntity
8
0
100
AcDbSpline
62
0
6
CONTINUOUS
70
0
71
3
72
10
73
6
74
4
42
0.0000001000
43
0.0000001000
44
0.0000000001
12
-0.2344480368
22
0.1171946370
32
0.0000000000
13
-0.2568936911
23
0.0516051973
33
0.0000000000
40
0.0000000000
40
0.0000000000
40
0.0000000000
40
0.0000000000
40
0.3436557906
40
0.6870119842
40
1.0000000000
40
1.0000000000
40
1.0000000000
40
1.0000000000
10
9.5030407830
20
20.4795245437
30
0.0000000000
10
9.4761843079
20
20.4929494156
30
0.0000000000
10
9.4215150476
20
20.5178382692
30
0.0000000000
10
9.3391754029
20
20.5473056662
30
0.0000000000
10
9.2835317192
20
20.5615270554
30
0.0000000000
10
9.2567301703
20
20.5669109915
30
0.0000000000
11
9.5030407830
21
20.4795245437
31
0.0000000000
11
9.4210160273
21
20.5166870103
31
0.0000000000
11
9.3362368803
21
20.5467995228
31
0.0000000000
11
9.2567301703
21
20.5669109915
31
0.0000000000
0
SPLINE
5
363
100
AcDbEntity
8
0
100
AcDbSpline
62
0
6
CONTINUOUS
70
0
71
3
72
9
73
5
74
3
42
0.0000001000
43
0.0000001000
44
0.0000000001
12
0.0001767801
22
0.0054141286
32
0.0000000000
13
-0.0029429943
23
0.0049589549
33
0.0000000000
40
0.0000000000
40
0.0000000000
40
0.0000000000
40
0.0000000000
40
0.6316411435
40
1.0000000000
40
1.0000000000
40
1.0000000000
40
1.0000000000
10
10.0050967872
20
19.4774019009
30
0.0000000000
10
10.0051340077
20
19.4785418297
30
0.0000000000
10
10.0043081324
20
19.4805566074
30
0.0000000000
10
10.0033658049
20
19.4822869480
30
0.0000000000
10
10.0030044456
20
19.4828958396
30
0.0000000000
11
10.0050967872
21
19.4774019009
31
0.0000000000
11
10.0040442331
21
19.4809735806
31
0.0000000000
11
10.0030044456
21
19.4828958396
31
0.0000000000
0
SPLINE
5
364
100
AcDbEntity
8
0
100
AcDbSpline
62
0
6
CONTINUOUS
70
0
71
3
72
14
73
10
74
8
42
0.0000001000
43
0.0000001000
44
0.0000000001
12
-0.0566695584
22
0.0954883889
32
0.0000000000
13
-0.0880104637
23
0.0641532364
33
0.0000000000
40
0.0000000000
40
0.0000000000
40
0.0000000000
40
0.0000000000
40
0.0507979489
40
0.1496779943
40
0.2757326834
40
0.4265637239
40
0.5995479182
40
0.7917799682
40
1.0000000000
40
1.0000000000
40
1.0000000000
40
1.0000000000
10
10.0030044456
20
19.4828958396
30
0.0000000000
10
10.0020448798
20
19.4845127111
30
0.0000000000
10
9.9989215234
20
19.4886848481
30
0.0000000000
10
9.9920274209
20
19.4961818029
30
0.0000000000
10
9.9821137889
20
19.5054662230
30
0.0000000000
10
9.9697109140
20
19.5161319737
30
0.0000000000
10
9.9551300149
20
19.5278867762
30
0.0000000000
10
9.9386231593
20
19.5405776413
30
0.0000000000
10
9.9269370937
20
19.5492256989
30
0.0000000000
10
9.9208285798
20
19.5536783619
30
0.0000000000
11
10.0030044456
21
19.4828958396
31
0.0000000000
11
9.9998535621
21
19.4873327966
31
0.0000000000
11
9.9926468959
21
19.4953350945
31
0.0000000000
11
9.9826993064
21
19.5047966915
31
0.0000000000
11
9.9702735453
21
19.5155414182
31
0.0000000000
11
9.9556303645
21
19.5273953040
31
0.0000000000
11
9.9390468149
21
19.5401743902
31
0.0000000000
11
9.9208285798
21
19.5536783619
31
0.0000000000
0
SPLINE
5
365
100
AcDbEntity
8
0
100
AcDbSpline
62
0
6
CONTINUOUS
70
0
71
3
72
12
73
8
74
6
42
0.0000001000
43
0.0000001000
44
0.0000000001
12
-0.0001112880
22
-0.3027556084
32
0.0000000000
13
-0.1478565247
23
-0.2641316829
33
0.0000000000
40
0.0000000000
40
0.0000000000
40
0.0000000000
40
0.0000000000
40
0.1758487554
40
0.3770020419
40
0.5821736245
40
0.7902417506
40
1.0000000000
40
1.0000000000
40
1.0000000000
40
1.0000000000
10
10.0050269198
20
20.0536140217
30
0.0000000000
10
10.0050203965
20
20.0358676227
30
0.0000000000
10
10.0023918509
20
19.9977890383
30
0.0000000000
10
9.9915099588
20
19.9399525426
30
0.0000000000
10
9.9737453221
20
19.8804532161
30
0.0000000000
10
9.9502398116
20
19.8220691246
30
0.0000000000
10
9.9311666218
20
19.7844054492
30
0.0000000000
10
9.9208285798
20
19.7659375160
30
0.0000000000
11
10.0050269198
21
20.0536140217
31
0.0000000000
11
10.0016070048
21
20.0004808718
31
0.0000000000
11
9.9905671117
21
19.9406010299
31
0.0000000000
11
9.9729310620
21
19.8810523347
31
0.0000000000
11
9.9494830737
21
19.8225977046
31
0.0000000000
11
9.9208285798
21
19.7659375160
31
0.0000000000
0
SPLINE
5
366
100
AcDbEntity
8
0
100
AcDbSpline
62
0
6
CONTINUOUS
70
0
71
3
72
12
73
8
74
6
42
0.0000001000
43
0.0000001000
44
0.0000000001
12
-0.0000037860
22
-0.1438614601
32
0.0000000000
13
-0.1287763930
23
-0.0630118104
33
0.0000000000
40
0.0000000000
40
0.0000000000
40
0.0000000000
40
0.0000000000
40
0.1638187652
40
0.3390033906
40
0.5342164121
40
0.7541293018
40
1.0000000000
40
1.0000000000
40
1.0000000000
40
1.0000000000
10
-0.3050428998
20
23.6710246001
30
0.0000000000
10
-0.3050431066
20
23.6631688645
30
0.0000000000
10
-0.3077317884
20
23.6469109910
30
0.0000000000
10
-0.3193547913
20
23.6238194000
30
0.0000000000
10
-0.3379425693
20
23.6023055286
30
0.0000000000
10
-0.3629009632
20
23.5827040626
30
0.0000000000
10
-0.3823567515
20
23.5717260568
30
0.0000000000
10
-0.3929108654
20
23.5665618042
30
0.0000000000
11
-0.3050428998
21
23.6710246001
31
0.0000000000
11
-0.3087361520
21
23.6478307278
31
0.0000000000
11
-0.3197253052
21
23.6252469070
31
0.0000000000
11
-0.3377404507
21
23.6038290849
31
0.0000000000
11
-0.3623373155
21
23.5841056769
31
0.0000000000
11
-0.3929108654
21
23.5665618042
31
0.0000000000
0
SPLINE
5
367
100
AcDbEntity
8
0
100
AcDbSpline
62
0
6
CONTINUOUS
70
0
71
3
72
12
73
8
74
6
42
0.0000001000
43
0.0000001000
44
0.0000000001
12
-0.0000271067
22
-0.1424881500
32
0.0000000000
13
-0.1272561834
23
-0.0630046818
33
0.0000000000
40
0.0000000000
40
0.0000000000
40
0.0000000000
40
0.0000000000
40
0.1616494759
40
0.3374736946
40
0.5331965554
40
0.7535889118
40
1.0000000000
40
1.0000000000
40
1.0000000000
40
1.0000000000
10
5.2494205578
20
20.8937945075
30
0.0000000000
10
5.2494190972
20
20.8861167959
30
0.0000000000
10
5.2468337823
20
20.8700843148
30
0.0000000000
10
5.2354979291
20
20.8471786246
30
0.0000000000
10
5.2171676154
20
20.8256966395
30
0.0000000000
10
5.1924954832
20
20.8061017589
30
0.0000000000
10
5.1732356309
20
20.7951107325
30
0.0000000000
10
5.1627831860
20
20.7899357151
30
0.0000000000
11
5.2494205578
21
20.8937945075
31
0.0000000000
11
5.2458893728
21
20.8711098831
31
0.0000000000
11
5.2351133712
21
20.8485882855
31
0.0000000000
11
5.2173540593
21
20.8272100831
31
0.0000000000
11
5.1930461573
21
20.8074988084
31
0.0000000000
11
5.1627831860
21
20.7899357151
31
0.0000000000
0
SPLINE
5
368
100
AcDbEntity
8
0
100
AcDbSpline
62
0
6
CONTINUOUS
70
0
71
3
72
13
73
9
74
7
42
0.0000001000
43
0.0000001000
44
0.0000000001
12
-0.0000199727
22
-0.1454202046
32
0.0000000000
13
0.1296323661
23
-0.0648161831
33
0.0000000000
40
0.0000000000
40
0.0000000000
40
0.0000000000
40
0.0000000000
40
0.0030152475
40
0.1674532572
40
0.3429528197
40
0.5377595388
40
0.7563608844
40
1.0000000000
40
1.0000000000
40
1.0000000000
40
1.0000000000
10
-7.0539885909
20
22.0734361232
30
0.0000000000
10
-7.0539886110
20
22.0732899638
30
0.0000000000
10
-7.0539657314
20
22.0651729506
30
0.0000000000
10
-7.0511821451
20
22.0485649171
30
0.0000000000
10
-7.0395325681
20
22.0251553303
30
0.0000000000
10
-7.0209652351
20
22.0033099749
30
0.0000000000
10
-6.9960676418
20
21.9833828494
30
0.0000000000
10
-6.9766485000
20
21.9721930089
30
0.0000000000
10
-6.9661206616
20
21.9669290897
30
0.0000000000
11
-7.0539885909
21
22.0734361232
31
0.0000000000
11
-7.0539873538
21
22.0729976483
31
0.0000000000
11
-7.0501846614
21
22.0494704222
31
0.0000000000
11
-7.0391428012
21
22.0265563536
31
0.0000000000
11
-7.0211311787
21
22.0048137658
31
0.0000000000
11
-6.9965907079
21
21.9847749382
31
0.0000000000
11
-6.9661206616
21
21.9669290897
31
0.0000000000
0
SPLINE
5
369
100
AcDbEntity
8
0
100
AcDbSpline
62
0
6
CONTINUOUS
70
0
71
3
72
12
73
8
74
6
42
0.0000001000
43
0.0000001000
44
0.0000000001
12
-0.1462308253
22
0.0731154127
32
0.0000000000
13
-0.1459964177
23
-0.0745957438
33
0.0000000000
40
0.0000000000
40
0.0000000000
40
0.0000000000
40
0.0000000000
40
0.2553591691
40
0.4911746382
40
0.7106351586
40
0.9194242855
40
1.0000000000
40
1.0000000000
40
1.0000000000
40
1.0000000000
10
-12.7672795362
20
22.5805569553
30
0.0000000000
10
-12.7797266635
20
22.5867805190
30
0.0000000000
10
-12.8046121900
20
22.5970193146
30
0.0000000000
10
-12.8427134355
20
22.6051729125
30
0.0000000000
10
-12.8792141533
20
22.6051769211
30
0.0000000000
10
-12.9064280271
20
22.5984866086
30
0.0000000000
10
-12.9208681132
20
22.5919951710
30
0.0000000000
10
-12.9247893684
20
22.5899916359
30
0.0000000000
11
-12.7672795362
21
22.5805569553
31
0.0000000000
11
-12.8059940768
21
22.5961825069
31
0.0000000000
11
-12.8437551887
21
22.6039598679
31
0.0000000000
11
-12.8796340570
21
22.6036975611
31
0.0000000000
11
-12.9127458752
21
22.5954020224
31
0.0000000000
11
-12.9247893684
21
22.5899916359
31
0.0000000000
0
SPLINE
5
36A
100
AcDbEntity
8
0
100
AcDbSpline
62
0
6
CONTINUOUS
70
0
71
3
72
17
73
13
74
11
42
0.0000001000
43
0.0000001000
44
0.0000000001
12
0.0000000000
22
0.5152490307
32
0.0000000000
13
-0.4608527432
23
0.2304263716
33
0.0000000000
40
0.0000000000
40
0.0000000000
40
0.0000000000
40
0.0000000000
40
0.0951726438
40
0.1952932407
40
0.2990931070
40
0.4050821278
40
0.5116639643
40
0.6171967785
40
0.7200955718
40
0.8189336013
40
0.9125145547
40
1.0000000000
40
1.0000000000
40
1.0000000000
40
1.0000000000
10
2.7537143109
20
14.5169395986
30
0.0000000000
10
2.7537143109
20
14.5332854694
30
0.0000000000
10
2.7515087370
20
14.5668519620
30
0.0000000000
10
2.7423438994
20
14.6174914577
30
0.0000000000
10
2.7274541519
20
14.6686892126
30
0.0000000000
10
2.7072008440
20
14.7192008686
30
0.0000000000
10
2.6820745123
20
14.7678084157
30
0.0000000000
10
2.6526827993
20
14.8133345262
30
0.0000000000
10
2.6197365859
20
14.8546778874
30
0.0000000000
10
2.5840222141
20
14.8908431816
30
0.0000000000
10
2.5464015674
20
14.9209529057
30
0.0000000000
10
2.5196662399
20
14.9370840673
30
0.0000000000
10
2.5062269374
20
14.9438037185
30
0.0000000000
11
2.7537143109
21
14.5169395986
31
0.0000000000
11
2.7506672239
21
14.5658824499
31
0.0000000000
11
2.7416011405
21
14.6166665900
31
0.0000000000
11
2.7267390265
21
14.6680429014
31
0.0000000000
11
2.7064476672
21
14.7187439240
31
0.0000000000
11
2.6812250108
21
14.7675251222
31
0.0000000000
11
2.6516932764
21
14.8131824466
31
0.0000000000
11
2.6185814582
21
14.8545898035
31
0.0000000000
11
2.5827025899
21
14.8907309786
31
0.0000000000
11
2.5449414781
21
14.9207147294
31
0.0000000000
11
2.5062269374
21
14.9438037185
31
0.0000000000
0
SPLINE
5
36B
100
AcDbEntity
8
0
100
AcDbSpline
62
0
6
CONTINUOUS
70
0
71
3
72
17
73
13
74
11
42
0.0000001000
43
0.0000001000
44
0.0000000001
12
0.0000000000
22
0.5152490286
32
0.0000000000
13
-0.4608527413
23
0.2304263707
33
0.0000000000
40
0.0000000000
40
0.0000000000
40
0.0000000000
40
0.0000000000
40
0.0951686493
40
0.1952865842
40
0.2990826087
40
0.4050717387
40
0.5116494140
40
0.6171798582
40
0.7200829815
40
0.8189239543
40
0.9125100339
40
1.0000000000
40
1.0000000000
40
1.0000000000
40
1.0000000000
10
4.5214812638
20
15.4197172981
30
0.0000000000
10
4.5214812638
20
15.4360624828
30
0.0000000000
10
4.5192758569
20
15.4696278293
30
0.0000000000
10
4.5101116376
20
15.5202655984
30
0.0000000000
10
4.4952226295
20
15.5714624155
30
0.0000000000
10
4.4749703076
20
15.6219730062
30
0.0000000000
10
4.4498450308
20
15.6705798464
30
0.0000000000
10
4.4204541874
20
15.7161060601
30
0.0000000000
10
4.3875080562
20
15.7574505735
30
0.0000000000
10
4.3517926391
20
15.7936178370
30
0.0000000000
10
4.3141705840
20
15.8237292846
30
0.0000000000
10
4.2874338873
20
15.8398614196
30
0.0000000000
10
4.2739938904
20
15.8465814180
30
0.0000000000
11
4.5214812638
21
15.4197172981
31
0.0000000000
11
4.5184344255
21
15.4686581026
31
0.0000000000
11
4.5093688769
21
15.5194409445
31
0.0000000000
11
4.4945077434
21
15.5708154788
31
0.0000000000
11
4.4742168505
21
15.6215167484
31
0.0000000000
11
4.4489957295
21
15.6702963265
31
0.0000000000
11
4.4194653286
21
15.7159530588
31
0.0000000000
11
4.3863527302
21
15.7573626482
31
0.0000000000
11
4.3504732483
21
15.7935053508
31
0.0000000000
11
4.3127103491
21
15.8234910978
31
0.0000000000
11
4.2739938904
21
15.8465814180
31
0.0000000000
0
SPLINE
5
36C
100
AcDbEntity
8
0
100
AcDbSpline
62
0
6
CONTINUOUS
70
0
71
3
72
13
73
9
74
7
42
0.0000001000
43
0.0000001000
44
0.0000000001
12
0.0000000000
22
-0.2196500159
32
0.0000000000
13
-0.1961404309
23
-0.1002301717
33
0.0000000000
40
0.0000000000
40
0.0000000000
40
0.0000000000
40
0.0000000000
40
0.2094012719
40
0.4037602127
40
0.5832359259
40
0.7496749212
40
0.9067994324
40
1.0000000000
40
1.0000000000
40
1.0000000000
40
1.0000000000
10
4.5214812638
20
-22.7719799250
30
0.0000000000
10
4.5214812638
20
-22.7873115893
30
0.0000000000
10
4.5196587876
20
-22.8169240167
30
0.0000000000
10
4.5108154873
20
-22.8588759041
30
0.0000000000
10
4.4960956037
20
-22.8958380562
30
0.0000000000
10
4.4757312121
20
-22.9268746184
30
0.0000000000
10
4.4533233035
20
-22.9480399044
30
0.0000000000
10
4.4376036946
20
-22.9576741944
30
0.0000000000
10
4.4315102281
20
-22.9607880307
30
0.0000000000
11
4.5214812638
21
-22.7719799250
31
0.0000000000
11
4.5184344255
21
-22.8178738912
31
0.0000000000
11
4.5093688769
21
-22.8595911845
31
0.0000000000
11
4.4945077434
21
-22.8961045853
31
0.0000000000
11
4.4742168505
21
-22.9265149620
31
0.0000000000
11
4.4489957295
21
-22.9500734192
31
0.0000000000
11
4.4315102281
21
-22.9607880307
31
0.0000000000
0
SPLINE
5
36D
100
AcDbEntity
8
0
100
AcDbSpline
62
0
6
CONTINUOUS
70
0
71
3
72
13
73
9
74
7
42
0.0000001000
43
0.0000001000
44
0.0000000001
12
0.0122396445
22
-0.1150171961
32
0.0000000000
13
-0.1041816895
23
-0.0511598424
33
0.0000000000
40
0.0000000000
40
0.0000000000
40
0.0000000000
40
0.0000000000
40
0.2388705532
40
0.4538277329
40
0.6452743789
40
0.8198572347
40
0.9849909277
40
1.0000000000
40
1.0000000000
40
1.0000000000
40
1.0000000000
10
1.2611190843
20
-8.4731333113
30
0.0000000000
10
1.2620936478
20
-8.4822913850
30
0.0000000000
10
1.2627938921
20
-8.4998539330
30
0.0000000000
10
1.2595607651
20
-8.5246663374
30
0.0000000000
10
1.2519896314
20
-8.5459705664
30
0.0000000000
10
1.2401302997
20
-8.5630277741
30
0.0000000000
10
1.2290286170
20
-8.5714246164
30
0.0000000000
10
1.2228174994
20
-8.5745878856
30
0.0000000000
10
1.2222962759
20
-8.5748438395
30
0.0000000000
11
1.2611190843
21
-8.4731333113
31
0.0000000000
11
1.2620068344
21
-8.5007483923
31
0.0000000000
11
1.2585310040
21
-8.5253676057
31
0.0000000000
11
1.2508390711
21
-8.5461327256
31
0.0000000000
11
1.2391145945
21
-8.5625738425
31
0.0000000000
11
1.2238485113
21
-8.5740531306
31
0.0000000000
11
1.2222962759
21
-8.5748438395
31
0.0000000000
0
SPLINE
5
36E
100
AcDbEntity
8
0
100
AcDbSpline
62
0
6
CONTINUOUS
70
0
71
3
72
17
73
13
74
11
42
0.0000001000
43
0.0000001000
44
0.0000000001
12
0.3895861697
22
-0.1947930849
32
0.0000000000
13
0.3893834854
23
0.1951979274
33
0.0000000000
40
0.0000000000
40
0.0000000000
40
0.0000000000
40
0.0000000000
40
0.0890005659
40
0.1849499553
40
0.2864563904
40
0.3918366128
40
0.4992385642
40
0.6067076896
40
0.7122861312
40
0.8141130460
40
0.9104892925
40
1.0000000000
40
1.0000000000
40
1.0000000000
40
1.0000000000
10
-1.1736115936
20
19.0706745557
30
0.0000000000
10
-1.1620537971
20
19.0648956574
30
0.0000000000
10
-1.1372396591
20
19.0544465422
30
0.0000000000
10
-1.0973679004
20
19.0424019450
30
0.0000000000
10
-1.0542272089
20
19.0336120671
30
0.0000000000
10
-1.0088561915
20
19.0282921133
30
0.0000000000
10
-0.9623426203
20
19.0265703379
30
0.0000000000
10
-0.9158080559
20
19.0284893639
30
0.0000000000
10
-0.8703746153
20
19.0340019483
30
0.0000000000
10
-0.8271320404
20
19.0429752264
30
0.0000000000
10
-0.7871217753
20
19.0551895670
30
0.0000000000
10
-0.7622032391
20
19.0657379085
30
0.0000000000
10
-0.7505852420
20
19.0715620100
30
0.0000000000
11
-1.1736115936
21
19.0706745557
31
0.0000000000
11
-1.1379568396
21
19.0554580040
31
0.0000000000
11
-1.0979891090
21
19.0432427310
31
0.0000000000
11
-1.0546841574
21
19.0343270317
31
0.0000000000
11
-1.0091021313
21
19.0289291571
31
0.0000000000
11
-0.9623536828
21
19.0271808129
31
0.0000000000
11
-0.9155836907
21
19.0291251315
31
0.0000000000
11
-0.8699377333
21
19.0347142403
31
0.0000000000
11
-0.8265279951
21
19.0438118354
31
0.0000000000
11
-0.7864174038
21
19.0561952175
31
0.0000000000
11
-0.7505852420
21
19.0715620100
31
0.0000000000
0
SPLINE
5
36F
100
AcDbEntity
8
0
100
AcDbSpline
62
0
6
CONTINUOUS
70
0
71
3
72
17
73
13
74
11
42
0.0000001000
43
0.0000001000
44
0.0000000001
12
-0.3889091088
22
-0.1963377245
32
0.0000000000
13
-0.3896652892
23
0.1948326446
33
0.0000000000
40
0.0000000000
40
0.0000000000
40
0.0000000000
40
0.0000000000
40
0.0896005383
40
0.1860363505
40
0.2878952112
40
0.3934811365
40
0.5009374680
40
0.6083108940
40
0.7136525634
40
0.8151165594
40
0.9110269511
40
1.0000000000
40
1.0000000000
40
1.0000000000
40
1.0000000000
10
-0.7505852420
20
17.8573585372
30
0.0000000000
10
-0.7622007305
20
17.8514945486
30
0.0000000000
10
-0.7871149442
20
17.8408659655
30
0.0000000000
10
-0.8271266643
20
17.8285365643
30
0.0000000000
10
-0.8703706590
20
17.8194543388
30
0.0000000000
10
-0.9158053951
20
17.8138414645
30
0.0000000000
10
-0.9623410611
20
17.8118331310
30
0.0000000000
10
-1.0088555857
20
17.8134786765
30
0.0000000000
10
-1.0542274581
20
17.8187372811
30
0.0000000000
10
-1.0973690747
20
17.8274822000
30
0.0000000000
10
-1.1372419075
20
17.8394993637
30
0.0000000000
10
-1.1620550240
20
17.8499414048
30
0.0000000000
10
-1.1736115936
20
17.8557196896
30
0.0000000000
11
-0.7505852420
21
17.8573585372
31
0.0000000000
11
-0.7864178706
21
17.8418738304
31
0.0000000000
11
-0.8265289421
21
17.8293756184
31
0.0000000000
11
-0.8699391380
21
17.8201690670
31
0.0000000000
11
-0.9155853848
21
17.8144795404
31
0.0000000000
11
-0.9623555081
21
17.8124457506
31
0.0000000000
11
-1.0091038216
21
17.8141177261
31
0.0000000000
11
-1.0546855557
21
17.8194541655
31
0.0000000000
11
-1.0979900493
21
17.8283248211
31
0.0000000000
11
-1.1379573017
21
17.8405125414
31
0.0000000000
11
-1.1736115936
21
17.8557196896
31
0.0000000000
0
SPLINE
5
370
100
AcDbEntity
8
0
100
AcDbSpline
62
0
6
CONTINUOUS
70
0
71
3
72
13
73
9
74
7
42
0.0000001000
43
0.0000001000
44
0.0000000001
12
-0.1298016753
22
0.0649008377
32
0.0000000000
13
0.0000186465
23
0.1456076944
33
0.0000000000
40
0.0000000000
40
0.0000000000
40
0.0000000000
40
0.0000000000
40
0.2433506852
40
0.4617848989
40
0.6565755890
40
0.8322279170
40
0.9969716939
40
1.0000000000
40
1.0000000000
40
1.0000000000
40
1.0000000000
10
-6.9661206616
20
20.7519742236
30
0.0000000000
10
-6.9766497705
20
20.7572387781
30
0.0000000000
10
-6.9960731064
20
20.7684367797
30
0.0000000000
10
-7.0209722081
20
20.7883932459
30
0.0000000000
10
-7.0395395185
20
20.8102866602
30
0.0000000000
10
-7.0511857457
20
20.8337598213
30
0.0000000000
10
-7.0539656254
20
20.8504126743
30
0.0000000000
10
-7.0539886133
20
20.8585556310
30
0.0000000000
10
-7.0539885945
20
20.8587026126
30
0.0000000000
11
-6.9661206616
21
20.7519742236
31
0.0000000000
11
-6.9965903717
21
20.7698290765
31
0.0000000000
11
-7.0211306983
21
20.7898951456
31
0.0000000000
11
-7.0391423441
21
20.8116825597
31
0.0000000000
11
-7.0501843896
21
20.8346580101
31
0.0000000000
11
-7.0539873485
21
20.8582616708
31
0.0000000000
11
-7.0539885945
21
20.8587026126
31
0.0000000000
0
SPLINE
5
371
100
AcDbEntity
8
0
100
AcDbSpline
62
0
6
CONTINUOUS
70
0
71
3
72
12
73
8
74
6
42
0.0000001000
43
0.0000001000
44
0.0000000001
12
0.1274265362
22
0.0635456794
32
0.0000000000
13
0.0000255395
23
0.1428803290
33
0.0000000000
40
0.0000000000
40
0.0000000000
40
0.0000000000
40
0.0000000000
40
0.2461437340
40
0.4664340245
40
0.6622044411
40
0.8381796843
40
1.0000000000
40
1.0000000000
40
1.0000000000
40
1.0000000000
10
5.1627831860
20
22.0217742935
30
0.0000000000
10
5.1732382671
20
22.0269880837
30
0.0000000000
10
5.1925037610
20
22.0380575741
30
0.0000000000
10
5.2171748365
20
22.0577688127
30
0.0000000000
10
5.2355021086
20
22.0793608747
30
0.0000000000
10
5.2468337963
20
22.1023646459
30
0.0000000000
10
5.2494191846
20
22.1184561350
30
0.0000000000
10
5.2494205622
20
22.1261631149
30
0.0000000000
11
5.1627831860
21
22.0217742935
31
0.0000000000
11
5.1930458219
21
22.0394548999
31
0.0000000000
11
5.2173535824
21
22.0592806936
31
0.0000000000
11
5.2351129211
21
22.0807676369
31
0.0000000000
11
5.2458891106
21
22.1033896017
31
0.0000000000
11
5.2494205622
21
22.1261631149
31
0.0000000000
0
SPLINE
5
372
100
AcDbEntity
8
0
100
AcDbSpline
62
0
6
CONTINUOUS
70
0
71
3
72
12
73
8
74
6
42
0.0000001000
43
0.0000001000
44
0.0000000001
12
0.1289494975
22
0.0635559375
32
0.0000000000
13
0.0000024649
23
0.1442557351
33
0.0000000000
40
0.0000000000
40
0.0000000000
40
0.0000000000
40
0.0000000000
40
0.2456022684
40
0.4654114574
40
0.6606705777
40
0.8360059861
40
1.0000000000
40
1.0000000000
40
1.0000000000
40
1.0000000000
10
-0.3929108654
20
24.7983959856
30
0.0000000000
10
-0.3823541024
20
24.8035991464
30
0.0000000000
10
-0.3628926202
20
24.8146559119
30
0.0000000000
10
-0.3379352407
20
24.8343743122
30
0.0000000000
10
-0.3193504720
20
24.8559989250
30
0.0000000000
10
-0.3077317127
20
24.8791898690
30
0.0000000000
10
-0.3050430345
20
24.8955075098
30
0.0000000000
10
-0.3050428998
20
24.9033932022
30
0.0000000000
11
-0.3929108654
21
24.7983959856
31
0.0000000000
11
-0.3623376537
21
24.8160578621
31
0.0000000000
11
-0.3377409332
21
24.8358963526
31
0.0000000000
11
-0.3197257626
21
24.8574235173
31
0.0000000000
11
-0.3087364214
21
24.8801083115
31
0.0000000000
11
-0.3050428998
21
24.9033932022
31
0.0000000000
0
SPLINE
5
373
100
AcDbEntity
8
0
100
AcDbSpline
62
0
6
CONTINUOUS
70
0
71
3
72
13
73
9
74
7
42
0.0000001000
43
0.0000001000
44
0.0000000001
12
0.1998406808
22
0.0978572385
32
0.0000000000
13
-0.0000000000
23
0.2218990679
33
0.0000000000
40
0.0000000000
40
0.0000000000
40
0.0000000000
40
0.0000000000
40
0.1023705749
40
0.2579078719
40
0.4226584216
40
0.6003200547
40
0.7927129486
40
1.0000000000
40
1.0000000000
40
1.0000000000
40
1.0000000000
10
2.6617263034
20
-23.8267863765
30
0.0000000000
10
2.6685455719
20
-23.8234471426
30
0.0000000000
10
2.6850035876
20
-23.8135507541
30
0.0000000000
10
2.7079617428
20
-23.7918669743
30
0.0000000000
10
2.7283271635
20
-23.7608302993
30
0.0000000000
10
2.7430478080
20
-23.7238678333
30
0.0000000000
10
2.7518917086
20
-23.6819147712
30
0.0000000000
10
2.7537143109
20
-23.6523014463
30
0.0000000000
10
2.7537143109
20
-23.6369691785
30
0.0000000000
11
2.6617263034
21
-23.8267863765
31
0.0000000000
11
2.6812250108
21
-23.8150654020
31
0.0000000000
11
2.7064476672
21
-23.7915068602
31
0.0000000000
11
2.7267390265
21
-23.7610971970
31
0.0000000000
11
2.7416011405
21
-23.7245829995
31
0.0000000000
11
2.7506672239
21
-23.6828649429
31
0.0000000000
11
2.7537143109
21
-23.6369691785
31
0.0000000000
0
SPLINE
5
374
100
AcDbEntity
8
0
100
AcDbSpline
62
0
6
CONTINUOUS
70
0
71
3
72
11
73
7
74
5
42
0.0000001000
43
0.0000001000
44
0.0000000001
12
-0.4351467956
22
0.0874129533
32
0.0000000000
13
-0.4398144642
23
-0.0596405499
33
0.0000000000
40
0.0000000000
40
0.0000000000
40
0.0000000000
40
0.0000000000
40
0.2406426210
40
0.4887663275
40
0.7423989614
40
1.0000000000
40
1.0000000000
40
1.0000000000
40
1.0000000000
10
9.2567301703
20
20.5669109915
30
0.0000000000
10
9.2218252152
20
20.5739227523
30
0.0000000000
10
9.1502100337
20
20.5847417619
30
0.0000000000
10
9.0404864966
20
20.5918373606
30
0.0000000000
10
8.9280419919
20
20.5900357111
30
0.0000000000
10
8.8526548566
20
20.5828504277
30
0.0000000000
10
8.8148893024
20
20.5777292718
30
0.0000000000
11
9.2567301703
21
20.5669109915
31
0.0000000000
11
9.1511552854
21
20.5830859663
31
0.0000000000
11
9.0412660205
21
20.5903208683
31
0.0000000000
11
8.9287073028
21
20.5885751335
31
0.0000000000
11
8.8148893024
21
20.5777292718
31
0.0000000000
0
SPLINE
5
375
100
AcDbEntity
8
0
100
AcDbSpline
62
0
6
CONTINUOUS
70
0
71
3
72
9
73
5
74
3
42
0.0000001000
43
0.0000001000
44
0.0000000001
12
-0.0241207860
22
0.0049542359
32
0.0000000000
13
-0.0220849478
23
0.0110448753
33
0.0000000000
40
0.0000000000
40
0.0000000000
40
0.0000000000
40
0.0000000000
40
0.9288596728
40
1.0000000000
40
1.0000000000
40
1.0000000000
40
1.0000000000
10
4.2558019925
20
-23.5422053999
30
0.0000000000
10
4.2483337174
20
-23.5406714699
30
0.0000000000
10
4.2404498482
20
-23.5380621792
30
0.0000000000
10
4.2330525593
20
-23.5344507997
30
0.0000000000
10
4.2325288492
20
-23.5341888876
30
0.0000000000
11
4.2558019925
21
-23.5422053999
31
0.0000000000
11
4.2341075130
21
-23.5349595576
31
0.0000000000
11
4.2325288492
21
-23.5341888876
31
0.0000000000
0
SPLINE
5
376
100
AcDbEntity
8
0
100
AcDbSpline
62
0
6
CONTINUOUS
70
0
71
3
72
17
73
13
74
11
42
0.0000001000
43
0.0000001000
44
0.0000000001
12
-0.3281832376
22
-0.1645182454
32
0.0000000000
13
0.0000000000
23
-0.3671110057
33
0.0000000000
40
0.0000000000
40
0.0000000000
40
0.0000000000
40
0.0000000000
40
0.0877988990
40
0.1818695997
40
0.2805570128
40
0.3837432653
40
0.4891441471
40
0.5955191608
40
0.7015876633
40
0.8048773159
40
0.9050482431
40
1.0000000000
40
1.0000000000
40
1.0000000000
40
1.0000000000
10
2.5666470824
20
16.9155457710
30
0.0000000000
10
2.5570423734
20
16.9107309308
30
0.0000000000
10
2.5379119275
20
16.8991855560
30
0.0000000000
10
2.5110295489
20
16.8777024015
30
0.0000000000
10
2.4854958671
20
16.8519149855
30
0.0000000000
10
2.4619753442
20
16.8224941240
30
0.0000000000
10
2.4409886898
20
16.7900939814
30
0.0000000000
10
2.4230510442
20
16.7555154344
30
0.0000000000
10
2.4086090579
20
16.7196143199
30
0.0000000000
10
2.3979829159
20
16.6831900619
30
0.0000000000
10
2.3914483170
20
16.6471945415
30
0.0000000000
10
2.3898763530
20
16.6232994711
30
0.0000000000
10
2.3898763530
20
16.6116801928
30
0.0000000000
11
2.5666470824
21
16.9155457710
31
0.0000000000
11
2.5389687892
21
16.8990288046
31
0.0000000000
11
2.5119098471
21
16.8775709923
31
0.0000000000
11
2.4863535817
21
16.8518915296
31
0.0000000000
11
2.4626508932
21
16.8223426168
31
0.0000000000
11
2.4415885131
21
16.7898835944
31
0.0000000000
11
2.4236033643
21
16.7552202240
31
0.0000000000
11
2.4090951612
21
16.7190850456
31
0.0000000000
11
2.3985277476
21
16.6826685280
31
0.0000000000
11
2.3920458346
21
16.6464704502
31
0.0000000000
11
2.3898763530
21
16.6116801928
31
0.0000000000
0
SPLINE
5
377
100
AcDbEntity
8
0
100
AcDbSpline
62
0
6
CONTINUOUS
70
0
71
3
72
13
73
9
74
7
42
0.0000001000
43
0.0000001000
44
0.0000000001
12
0.0000000000
22
-0.1580771600
32
0.0000000000
13
0.1417682681
23
-0.0708992473
33
0.0000000000
40
0.0000000000
40
0.0000000000
40
0.0000000000
40
0.0000000000
40
0.1982397194
40
0.3834113548
40
0.5546239440
40
0.7146143823
40
0.8649759067
40
1.0000000000
40
1.0000000000
40
1.0000000000
40
1.0000000000
10
2.3898763530
20
16.2717062587
30
0.0000000000
10
2.3898763530
20
16.2612605347
30
0.0000000000
10
2.3910720903
20
16.2410266869
30
0.0000000000
10
2.3968479214
20
16.2122710634
30
0.0000000000
10
2.4064680243
20
16.1866728049
30
0.0000000000
10
2.4197665475
20
16.1648590371
30
0.0000000000
10
2.4361430261
20
16.1477630341
30
0.0000000000
10
2.4488526976
20
16.1394870613
30
0.0000000000
10
2.4552334082
20
16.1362960257
30
0.0000000000
11
2.3898763530
21
16.2717062587
31
0.0000000000
11
2.3918605987
21
16.2404319704
31
0.0000000000
11
2.3977837823
21
16.2117661175
31
0.0000000000
11
2.4074723427
21
16.1864948851
31
0.0000000000
11
2.4207875105
21
16.1649929643
31
0.0000000000
11
2.4373221422
21
16.1479178908
31
0.0000000000
11
2.4552334082
21
16.1362960257
31
0.0000000000
0
SPLINE
5
378
100
AcDbEntity
8
0
100
AcDbSpline
62
0
6
CONTINUOUS
70
0
71
3
72
17
73
13
74
11
42
0.0000001000
43
0.0000001000
44
0.0000000001
12
-0.3281832376
22
-0.1645182454
32
0.0000000000
13
0.0000000000
23
-0.3671110057
33
0.0000000000
40
0.0000000000
40
0.0000000000
40
0.0000000000
40
0.0000000000
40
0.0877988990
40
0.1818695997
40
0.2805570128
40
0.3837432653
40
0.4891441471
40
0.5955191608
40
0.7015876633
40
0.8048773159
40
0.9050482431
40
1.0000000000
40
1.0000000000
40
1.0000000000
40
1.0000000000
10
-10.7976710820
20
23.5977048533
30
0.0000000000
10
-10.8072757910
20
23.5928900130
30
0.0000000000
10
-10.8264062370
20
23.5813446383
30
0.0000000000
10
-10.8532886156
20
23.5598614837
30
0.0000000000
10
-10.8788222973
20
23.5340740677
30
0.0000000000
10
-10.9023428203
20
23.5046532062
30
0.0000000000
10
-10.9233294746
20
23.4722530636
30
0.0000000000
10
-10.9412671202
20
23.4376745166
30
0.0000000000
10
-10.9557091065
20
23.4017734021
30
0.0000000000
10
-10.9663352485
20
23.3653491441
30
0.0000000000
10
-10.9728698474
20
23.3293536237
30
0.0000000000
10
-10.9744418114
20
23.3054585533
30
0.0000000000
10
-10.9744418114
20
23.2938392750
30
0.0000000000
11
-10.7976710820
21
23.5977048533
31
0.0000000000
11
-10.8253493752
21
23.5811878868
31
0.0000000000
11
-10.8524083174
21
23.5597300745
31
0.0000000000
11
-10.8779645827
21
23.5340506118
31
0.0000000000
11
-10.9016672712
21
23.5045016990
31
0.0000000000
11
-10.9227296514
21
23.4720426767
31
0.0000000000
11
-10.9407148002
21
23.4373793062
31
0.0000000000
11
-10.9552230032
21
23.4012441278
31
0.0000000000
11
-10.9657904169
21
23.3648276102
31
0.0000000000
11
-10.9722723298
21
23.3286295324
31
0.0000000000
11
-10.9744418114
21
23.2938392750
31
0.0000000000
0
SPLINE
5
379
100
AcDbEntity
8
0
100
AcDbSpline
62
0
6
CONTINUOUS
70
0
71
3
72
13
73
9
74
7
42
0.0000001000
43
0.0000001000
44
0.0000000001
12
0.0000000000
22
-0.1580771600
32
0.0000000000
13
0.1417682681
23
-0.0708992473
33
0.0000000000
40
0.0000000000
40
0.0000000000
40
0.0000000000
40
0.0000000000
40
0.1982397194
40
0.3834113548
40
0.5546239440
40
0.7146143823
40
0.8649759067
40
1.0000000000
40
1.0000000000
40
1.0000000000
40
1.0000000000
10
-10.9744418114
20
22.9538653409
30
0.0000000000
10
-10.9744418114
20
22.9434196169
30
0.0000000000
10
-10.9732460741
20
22.9231857691
30
0.0000000000
10
-10.9674702430
20
22.8944301456
30
0.0000000000
10
-10.9578501401
20
22.8688318871
30
0.0000000000
10
-10.9445516169
20
22.8470181194
30
0.0000000000
10
-10.9281751384
20
22.8299221163
30
0.0000000000
10
-10.9154654668
20
22.8216461435
30
0.0000000000
10
-10.9090847562
20
22.8184551079
30
0.0000000000
11
-10.9744418114
21
22.9538653409
31
0.0000000000
11
-10.9724575657
21
22.9225910526
31
0.0000000000
11
-10.9665343821
21
22.8939251997
31
0.0000000000
11
-10.9568458217
21
22.8686539673
31
0.0000000000
11
-10.9435306540
21
22.8471520465
31
0.0000000000
11
-10.9269960222
21
22.8300769730
31
0.0000000000
11
-10.9090847562
21
22.8184551079
31
0.0000000000
0
SPLINE
5
37A
100
AcDbEntity
8
0
100
AcDbSpline
62
0
6
CONTINUOUS
70
0
71
3
72
13
73
9
74
7
42
0.0000001000
43
0.0000001000
44
0.0000000001
12
0.0000000000
22
-0.1580496594
32
0.0000000000
13
0.1417254613
23
-0.0709202235
33
0.0000000000
40
0.0000000000
40
0.0000000000
40
0.0000000000
40
0.0000000000
40
0.2070101272
40
0.3999125266
40
0.5773183208
40
0.7429756756
40
0.8990662596
40
1.0000000000
40
1.0000000000
40
1.0000000000
40
1.0000000000
10
2.3898763530
20
-25.3678718148
30
0.0000000000
10
2.3898763530
20
-25.3787777749
30
0.0000000000
10
2.3911777120
20
-25.3998822196
30
0.0000000000
10
2.3974861505
20
-25.4297614051
30
0.0000000000
10
2.4079950740
20
-25.4561424449
30
0.0000000000
10
2.4225143482
20
-25.4783146522
30
0.0000000000
10
2.4388270295
20
-25.4937964056
30
0.0000000000
10
2.4504622233
20
-25.5008912692
30
0.0000000000
10
2.4552305170
20
-25.5032773503
30
0.0000000000
11
2.3898763530
21
-25.3678718148
31
0.0000000000
11
2.3920458346
21
-25.4005176879
31
0.0000000000
11
2.3985277476
21
-25.4303088379
31
0.0000000000
11
2.4090951612
21
-25.4562801895
31
0.0000000000
11
2.4236033643
21
-25.4780750008
31
0.0000000000
11
2.4415885131
21
-25.4949612811
31
0.0000000000
11
2.4552305170
21
-25.5032773503
31
0.0000000000
0
SPLINE
5
37B
100
AcDbEntity
8
0
100
AcDbSpline
62
0
6
CONTINUOUS
70
0
71
3
72
14
73
10
74
8
42
0.0000001000
43
0.0000001000
44
0.0000000001
12
-0.1618915143
22
-0.1938217939
32
0.0000000000
13
-0.0000000000
23
-0.2525386112
33
0.0000000000
40
0.0000000000
40
0.0000000000
40
0.0000000000
40
0.0000000000
40
0.1442287221
40
0.2915661604
40
0.4392076970
40
0.5862445358
40
0.7294680978
40
0.8681597286
40
1.0000000000
40
1.0000000000
40
1.0000000000
40
1.0000000000
10
2.4787789290
20
-24.7964608211
30
0.0000000000
10
2.4709957936
20
-24.8057790443
30
0.0000000000
10
2.4562029606
20
-24.8254211461
30
0.0000000000
10
2.4368109434
20
-24.8569585462
30
0.0000000000
10
2.4202846803
20
-24.8903546038
30
0.0000000000
10
2.4070227285
20
-24.9248057146
30
0.0000000000
10
2.3972862162
20
-24.9596374500
30
0.0000000000
10
2.3913089139
20
-24.9940104408
30
0.0000000000
10
2.3898763530
20
-25.0167996277
30
0.0000000000
10
2.3898763530
20
-25.0278978807
30
0.0000000000
11
2.4787789290
21
-24.7964608211
31
0.0000000000
11
2.4568303864
21
-24.8255283253
31
0.0000000000
11
2.4373221422
21
-24.8572125935
31
0.0000000000
11
2.4207875105
21
-24.8906310202
31
0.0000000000
11
2.4074723427
21
-24.9252940741
31
0.0000000000
11
2.3977837823
21
-24.9601417862
31
0.0000000000
11
2.3918605987
21
-24.9946623012
31
0.0000000000
11
2.3898763530
21
-25.0278978807
31
0.0000000000
0
SPLINE
5
37C
100
AcDbEntity
8
0
100
AcDbSpline
62
0
6
CONTINUOUS
70
0
71
3
72
15
73
11
74
9
42
0.0000001000
43
0.0000001000
44
0.0000000001
12
0.0627631636
22
-0.5850015930
32
0.0000000000
13
-0.5352556215
23
-0.2471302028
33
0.0000000000
40
0.0000000000
40
0.0000000000
40
0.0000000000
40
0.0000000000
40
0.1659352099
40
0.3204718358
40
0.4633438016
40
0.5955774700
40
0.7183321631
40
0.8346015069
40
0.9472409223
40
1.0000000000
40
1.0000000000
40
1.0000000000
40
1.0000000000
10
1.5612620929
20
-18.4254297366
30
0.0000000000
10
1.5647336324
20
-18.4577871907
30
0.0000000000
10
1.5685126203
20
-18.5206549142
30
0.0000000000
10
1.5639059262
20
-18.6116156291
30
0.0000000000
10
1.5488700218
20
-18.6947986456
30
0.0000000000
10
1.5235587577
20
-18.7689684232
30
0.0000000000
10
1.4881929697
20
-18.8331009355
30
0.0000000000
10
1.4432119853
20
-18.8860562208
30
0.0000000000
10
1.3987886198
20
-18.9196579977
30
0.0000000000
10
1.3699711065
20
-18.9347767981
30
0.0000000000
10
1.3605579089
20
-18.9391229186
30
0.0000000000
11
1.5612620929
21
-18.4254297366
31
0.0000000000
11
1.5667796570
21
-18.5229031395
31
0.0000000000
11
1.5617781411
21
-18.6136884568
31
0.0000000000
11
1.5463740039
21
-18.6963249653
31
0.0000000000
11
1.5207859529
21
-18.7697975639
31
0.0000000000
11
1.4855168499
21
-18.8328242904
31
0.0000000000
11
1.4409874298
21
-18.8847549918
31
0.0000000000
11
1.3880776800
21
-18.9246622372
31
0.0000000000
11
1.3605579089
21
-18.9391229186
31
0.0000000000
0
ENDSEC
0
SECTION
2
OBJECTS
0
DICTIONARY
5
C
100
AcDbDictionary
280
0
281
1
3
ACAD_GROUP
350
D
3
ACAD_MLINESTYLE
350
17
3
ACAD_LAYOUT
350
1A
3
ACAD_PLOTSETTINGS
350
19
3
ACAD_PLOTSTYLENAME
350
E
0
DICTIONARY
5
D
102
{ACAD_REACTORS
330
C
102
}
100
AcDbDictionary
280
0
281
1
0
ACDBDICTIONARYWDFLT
5
E
102
{ACAD_REACTORS
330
C
102
}
100
AcDbDictionary
281
1
3
Normal
350
F
100
AcDbDictionaryWithDefault
340
F
0
DICTIONARY
5
17
102
{ACAD_REACTORS
330
C
102
}
100
AcDbDictionary
280
0
281
1
3
Standard
350
18
0
DICTIONARY
5
19
102
{ACAD_REACTORS
330
C
102
}
100
AcDbDictionary
281
1
0
DICTIONARY
5
1A
102
{ACAD_REACTORS
330
C
102
}
100
AcDbDictionary
281
1
3
Layout1
350
1E
3
Model
350
22
0
ACDBPLACEHOLDER
5
F
102
{ACAD_REACTORS
330
E
102
}
0
MLINESTYLE
5
18
102
{ACAD_REACTORS
330
17
102
}
100
AcDbMlineStyle
2
STANDARD
70
0
3

62
256
51
90.0
52
90.0
71
2
49
0.5
62
256
6
BYLAYER
49
-0.5
62
256
6
BYLAYER
0
LAYOUT
5
1E
102
{ACAD_REACTORS
330
1A
102
}
100
AcDbPlotSettings
1

2

4

6

40
0.0
41
0.0
42
0.0
43
0.0
44
0.0
45
0.0
46
0.0
47
0.0
48
0.0
49
0.0
140
0.0
141
0.0
142
1.0
143
1.0
70
0
72
0
73
0
74
0
7

75
0
147
1.0
148
0.0
149
0.0
100
AcDbLayout
1
Layout1
70
0
71
0
10
0.0
20
0.0
11
0.0
21
0.0
12
0.0
22
0.0
32
0.0
14
0.0
24
0.0
34
0.0
15
0.0
25
0.0
35
0.0
146
0.0
13
0.0
23
0.0
33
0.0
16
0.0
26
0.0
36
0.0
17
0.0
27
0.0
37
0.0
76
0
330
1B
331
0
345
0
346
0
0
LAYOUT
5
22
102
{ACAD_REACTORS
330
1A
102
}
100
AcDbPlotSettings
1

2

4

6

40
0.0
41
0.0
42
0.0
43
0.0
44
0.0
45
0.0
46
0.0
47
0.0
48
0.0
49
0.0
140
0.0
141
0.0
142
1.0
143
1.0
70
0
72
0
73
0
74
0
7

75
0
147
1.0
148
0.0
149
0.0
100
AcDbLayout
1
Model
70
0
71
0
10
0.0
20
0.0
11
0.0
21
0.0
12
0.0
22
0.0
32
0.0
14
0.0
24
0.0
34
0.0
15
0.0
25
0.0
35
0.0
146
0.0
13
0.0
23
0.0
33
0.0
16
0.0
26
0.0
36
0.0
17
0.0
27
0.0
37
0.0
76
0
330
1F
331
0
345
0
346
0
0
ENDSEC
0
EOF
