  0
SECTION
  2
HEADER
  9
$ACADVER
  1
AC1024
  9
$DWGCODEPAGE
  3
ANSI_1252
  9
$EXTMAX
 10
297.0
 20
210.0
 30
0.0
  9
$EXTMIN
 10
0.0
 20
0.0
 30
0.0
  9
$LIMMIN
 10
0.0
 20
0.0
  9
$LIMMAX
 10
297.0
 20
210.0
  9
$VIEWCTR
 10
148.5
 20
105.0
  9
$VIEWSIZE
 40
210.0
  9
$CLAYER
  8
0
  9
$LTSCALE
 40
16.335
  9
$CELTYPE
  6
BYLAYER
  9
$DIMSCALE
 40
1.0
  9
$DIMASZ
 40
3.0
  9
$DIMEXO
 40
0.5
  9
$DIMDLI
 40
11.286
  9
$DIMEXE
 40
1.5
  9
$DIMCEN
 40
2.673
  9
$DIMLFAC
 40
1.0
  9
$DIMBLK
  1
_FILLED
  9
$DIMALT
 70
0
  9
$DIMALTF
 40
0.0393700787
  9
$DIMTXT
 40
3.0
  9
$DIMTOL
 70
1
  9
$DIMLIM
 70
0
  9
$DIMTFAC
 40
1.0
  9
$DIMTP
 40
0.01
  9
$DIMTM
 40
0.01
  9
$DIMGAP
 40
0.625
  9
$DIMDSEP
 70
44
  9
$AUNITS
 70
0
  9
$PDMODE
 70
3
  9
$PDSIZE
 40
3.0
  9
$HANDSEED
  5
421
  9
$TILEMODE
 70
1
  9
$MEASUREMENT
 70
1
  9
$INSUNITS
 70
4
  0
ENDSEC
  0
SECTION
  2
CLASSES
  0
CLASS
  1
ACDBDICTIONARYWDFLT
  2
AcDbDictionaryWithDefault
  3
AutoCAD 2000
 90
0
 91
1
280
0
281
0
  0
CLASS
  1
ACDBPLACEHOLDER
  2
AcDbPlaceHolder
  3
AutoCAD 2000
 90
0
 91
1
280
0
281
0
  0
CLASS
  1
LAYOUT
  2
AcDbLayout
  3
AutoCAD 2000
 90
0
 91
0
280
0
281
0
  0
ENDSEC
  0
SECTION
  2
TABLES
  0
TABLE
  2
VPORT
  5
8
100
AcDbSymbolTable
 70
2
  0
VPORT
  5
1F4
100
AcDbSymbolTableRecord
100
AcDbViewportTableRecord
  2
*ACTIVE
 70
0
 10
0.0
 20
0.0
 11
1.0
 21
1.0
 12
148.5
 22
105.0
 13
0.0
 23
0.0
 14
1.0
 24
1.0
 15
0.0
 25
0.0
 16
0.0
 26
0.0
 36
1.0
 17
0.0
 27
0.0
 37
0.0
 40
210.0
 41
1.4142857143
 42
50.0
 43
0.0
 44
0.0
 50
0.0
 51
0.0
 71
0
 72
100
 73
1
 74
1
 75
0
 76
0
 77
0
 78
0
  0
ENDTAB
  0
TABLE
  2
LTYPE
  5
5
100
AcDbSymbolTable
 70
6
  0
LTYPE
  5
14
100
AcDbSymbolTableRecord
100
AcDbLinetypeTableRecord
  2
BYBLOCK
 70
0
  3

 72
65
 73
0
 40
0.0
  0
LTYPE
  5
15
100
AcDbSymbolTableRecord
100
AcDbLinetypeTableRecord
  2
BYLAYER
 70
0
  3

 72
65
 73
0
 40
0.0
  0
LTYPE
  5
16
100
AcDbSymbolTableRecord
100
AcDbLinetypeTableRecord
  2
CONTINUOUS
 70
64
  3
Solid line
 72
65
 73
0
 40
0.0
  0
LTYPE
  5
1F5
100
AcDbSymbolTableRecord
100
AcDbLinetypeTableRecord
  2
CENTER
 70
64
  3
____ _ ____ _ ____ _ ____ _ ____ _ ____ _ ____
 72
65
 73
4
 40
0.6
 49
0.375
 74
0
 49
-0.075
 74
0
 49
0.075
 74
0
 49
-0.075
 74
0
  0
LTYPE
  5
1F6
100
AcDbSymbolTableRecord
100
AcDbLinetypeTableRecord
  2
HIDDEN
 70
64
  3
- - - - - - - - - - - - - - - - - - - -
 72
65
 73
2
 40
0.2
 49
0.1
 74
0
 49
-0.1
 74
0
  0
LTYPE
  5
1F7
100
AcDbSymbolTableRecord
100
AcDbLinetypeTableRecord
  2
PHANTOM
 70
64
  3
_____ _ _ _____ _ _ _____ _ _ _____
 72
65
 73
6
 40
0.8
 49
0.45
 74
0
 49
-0.05
 74
0
 49
0.1
 74
0
 49
-0.05
 74
0
 49
0.1
 74
0
 49
-0.05
 74
0
  0
LTYPE
  5
1F8
100
AcDbSymbolTableRecord
100
AcDbLinetypeTableRecord
  2
DOT
 70
64
  3
. . . . . . . . . . . . . . . . . . . .
 72
65
 73
2
 40
0.2
 49
0.1
 74
0
 49
-0.1
 74
0
  0
LTYPE
  5
1F9
100
AcDbSymbolTableRecord
100
AcDbLinetypeTableRecord
  2
DASHED
 70
64
  3
- - - - - - - - - - - - - - - - - - - -
 72
65
 73
2
 40
0.2
 49
0.1
 74
0
 49
-0.1
 74
0
  0
ENDTAB
  0
TABLE
  2
LAYER
  5
2
100
AcDbSymbolTable
 70
36
  0
LAYER
  5
10
100
AcDbSymbolTableRecord
100
AcDbLayerTableRecord
  2
0
 70
0
 62
7
  6
CONTINUOUS
370
-3
390
F
  0
LAYER
  5
1FA
100
AcDbSymbolTableRecord
100
AcDbLayerTableRecord
  2
DEFAULT_1
 70
0
 62
7
  6
CENTER
370
-3
390
F
  0
LAYER
  5
1FB
100
AcDbSymbolTableRecord
100
AcDbLayerTableRecord
  2
DEFAULT_2
 70
0
 62
7
  6
HIDDEN
370
-3
390
F
  0
LAYER
  5
1FC
100
AcDbSymbolTableRecord
100
AcDbLayerTableRecord
  2
DEFAULT_3
 70
0
 62
7
  6
PHANTOM
370
-3
390
F
  0
LAYER
  5
1FD
100
AcDbSymbolTableRecord
100
AcDbLayerTableRecord
  2
218
 70
0
 62
7
  6
CONTINUOUS
370
-3
390
F
  0
LAYER
  5
1FE
100
AcDbSymbolTableRecord
100
AcDbLayerTableRecord
  2
ASSI
 70
0
 62
7
  6
CONTINUOUS
370
-3
390
F
  0
LAYER
  5
1FF
100
AcDbSymbolTableRecord
100
AcDbLayerTableRecord
  2
COLORE_TOP
 70
0
 62
7
  6
CONTINUOUS
370
-3
390
F
  0
LAYER
  5
200
100
AcDbSymbolTableRecord
100
AcDbLayerTableRecord
  2
COORDINATE
 70
0
 62
7
  6
CONTINUOUS
370
-3
390
F
  0
LAYER
  5
201
100
AcDbSymbolTableRecord
100
AcDbLayerTableRecord
  2
COORD_ORIGINE
 70
0
 62
7
  6
CONTINUOUS
370
-3
390
F
  0
LAYER
  5
202
100
AcDbSymbolTableRecord
100
AcDbLayerTableRecord
  2
COPY-PUBBLISH
 70
0
 62
7
  6
CONTINUOUS
370
-3
390
F
  0
LAYER
  5
203
100
AcDbSymbolTableRecord
100
AcDbLayerTableRecord
  2
COSMETICHE
 70
0
 62
7
  6
CONTINUOUS
370
-3
390
F
  0
LAYER
  5
204
100
AcDbSymbolTableRecord
100
AcDbLayerTableRecord
  2
CURVE
 70
0
 62
7
  6
CONTINUOUS
370
-3
390
F
  0
LAYER
  5
205
100
AcDbSymbolTableRecord
100
AcDbLayerTableRecord
  2
DRAFT
 70
0
 62
7
  6
CONTINUOUS
370
-3
390
F
  0
LAYER
  5
206
100
AcDbSymbolTableRecord
100
AcDbLayerTableRecord
  2
IGES
 70
0
 62
7
  6
CONTINUOUS
370
-3
390
F
  0
LAYER
  5
207
100
AcDbSymbolTableRecord
100
AcDbLayerTableRecord
  2
IMPORT
 70
0
 62
7
  6
CONTINUOUS
370
-3
390
F
  0
LAYER
  5
208
100
AcDbSymbolTableRecord
100
AcDbLayerTableRecord
  2
IMPORTED
 70
0
 62
7
  6
CONTINUOUS
370
-3
390
F
  0
LAYER
  5
209
100
AcDbSymbolTableRecord
100
AcDbLayerTableRecord
  2
INTF_1
 70
0
 62
7
  6
CONTINUOUS
370
-3
390
F
  0
LAYER
  5
20A
100
AcDbSymbolTableRecord
100
AcDbLayerTableRecord
  2
INTF_11
 70
0
 62
7
  6
CONTINUOUS
370
-3
390
F
  0
LAYER
  5
20B
100
AcDbSymbolTableRecord
100
AcDbLayerTableRecord
  2
INTF_2
 70
0
 62
7
  6
CONTINUOUS
370
-3
390
F
  0
LAYER
  5
20C
100
AcDbSymbolTableRecord
100
AcDbLayerTableRecord
  2
NOTE
 70
0
 62
7
  6
CONTINUOUS
370
-3
390
F
  0
LAYER
  5
20D
100
AcDbSymbolTableRecord
100
AcDbLayerTableRecord
  2
PIANI
 70
0
 62
7
  6
CONTINUOUS
370
-3
390
F
  0
LAYER
  5
20E
100
AcDbSymbolTableRecord
100
AcDbLayerTableRecord
  2
PIANI_DI_RIFERIMENTO
 70
0
 62
7
  6
CONTINUOUS
370
-3
390
F
  0
LAYER
  5
20F
100
AcDbSymbolTableRecord
100
AcDbLayerTableRecord
  2
PIANI_ORIGINE
 70
0
 62
7
  6
CONTINUOUS
370
-3
390
F
  0
LAYER
  5
210
100
AcDbSymbolTableRecord
100
AcDbLayerTableRecord
  2
PIANI_RIFERIMENTO
 70
0
 62
7
  6
CONTINUOUS
370
-3
390
F
  0
LAYER
  5
211
100
AcDbSymbolTableRecord
100
AcDbLayerTableRecord
  2
PIANI_SFORMO
 70
0
 62
7
  6
CONTINUOUS
370
-3
390
F
  0
LAYER
  5
212
100
AcDbSymbolTableRecord
100
AcDbLayerTableRecord
  2
PUNTI
 70
0
 62
7
  6
CONTINUOUS
370
-3
390
F
  0
LAYER
  5
213
100
AcDbSymbolTableRecord
100
AcDbLayerTableRecord
  2
RACCORDO
 70
0
 62
7
  6
CONTINUOUS
370
-3
390
F
  0
LAYER
  5
214
100
AcDbSymbolTableRecord
100
AcDbLayerTableRecord
  2
RGB__255__255__255__
 70
0
 62
7
  6
CONTINUOUS
370
-3
390
F
  0
LAYER
  5
215
100
AcDbSymbolTableRecord
100
AcDbLayerTableRecord
  2
RGB____0____0____0__
 70
0
 62
7
  6
CONTINUOUS
370
-3
390
F
  0
LAYER
  5
216
100
AcDbSymbolTableRecord
100
AcDbLayerTableRecord
  2
RINTRACCIABILITA
 70
0
 62
7
  6
CONTINUOUS
370
-3
390
F
  0
LAYER
  5
217
100
AcDbSymbolTableRecord
100
AcDbLayerTableRecord
  2
SMUSSO
 70
0
 62
7
  6
CONTINUOUS
370
-3
390
F
  0
LAYER
  5
218
100
AcDbSymbolTableRecord
100
AcDbLayerTableRecord
  2
SNAPLINE
 70
0
 62
7
  6
CONTINUOUS
370
-3
390
F
  0
LAYER
  5
219
100
AcDbSymbolTableRecord
100
AcDbLayerTableRecord
  2
SUPERFICI
 70
0
 62
7
  6
CONTINUOUS
370
-3
390
F
  0
LAYER
  5
21A
100
AcDbSymbolTableRecord
100
AcDbLayerTableRecord
  2
TRASH
 70
0
 62
7
  6
CONTINUOUS
370
-3
390
F
  0
LAYER
  5
21B
100
AcDbSymbolTableRecord
100
AcDbLayerTableRecord
  2
XSEC_DATUMS
 70
0
 62
7
  6
CONTINUOUS
370
-3
390
F
  0
ENDTAB
  0
TABLE
  2
STYLE
  5
3
100
AcDbSymbolTable
 70
1
  0
STYLE
  5
11
100
AcDbSymbolTableRecord
100
AcDbTextStyleTableRecord
  2
STANDARD
 70
0
 40
0.0
 41
0.8
 50
0.0
 71
0
 42
0.2
  3
txt
  4

  0
STYLE
  5
21C
100
AcDbSymbolTableRecord
100
AcDbTextStyleTableRecord
  2
TEXTSTYLE_1
 70
0
 40
0.0
 41
0.8
 50
0.0
 71
0
 42
0.2
  3
gdt
  4

  0
ENDTAB
  0
TABLE
  2
VIEW
  5
6
100
AcDbSymbolTable
 70
0
  0
ENDTAB
  0
TABLE
  2
UCS
  5
7
100
AcDbSymbolTable
 70
0
  0
ENDTAB
  0
TABLE
  2
APPID
  5
9
100
AcDbSymbolTable
 70
1
  0
APPID
  5
21D
100
AcDbSymbolTableRecord
100
AcDbRegAppTableRecord
  2
ACAD
 70
0
  0
ENDTAB
  0
TABLE
  2
BLOCK_RECORD
  5
1
100
AcDbSymbolTable
 70
0
  0
BLOCK_RECORD
  5
21E
100
AcDbSymbolTableRecord
100
AcDbBlockTableRecord
  2
*Model_Space
  0
BLOCK_RECORD
  5
21F
100
AcDbSymbolTableRecord
100
AcDbBlockTableRecord
  2
*Paper_Space
  0
BLOCK_RECORD
  5
220
100
AcDbSymbolTableRecord
100
AcDbBlockTableRecord
  2
_FILLED
  0
ENDTAB
  0
TABLE
  2
DIMSTYLE
  5
A
100
AcDbSymbolTable
 70
1
100
AcDbDimStyleTable
 71
0
  0
DIMSTYLE
105
221
100
AcDbSymbolTableRecord
100
AcDbDimStyleTableRecord
  2
STANDARD
 70
0
  3

  4

 40
1.0
 41
3.0
 42
0.5
 43
0.38
 44
1.5
 45
0.0
 46
0.0
 47
0.01
 48
0.01
140
3.0
141
0.09
142
0.0
143
25.4
144
1.0
145
0.0
146
1.0
147
0.625
 71
1
 72
0
 73
0
 74
0
 75
0
 76
0
 77
1
 78
8
 79
2
170
0
171
1
172
0
173
0
174
0
175
0
176
0
177
0
178
0
270
2
179
2
271
2
272
2
273
2
274
2
275
0
280
0
281
0
282
0
283
1
284
8
285
0
286
0
287
3
288
0
340
11
278
44
341
220
342
220
343
220
344
220
  0
ENDTAB
  0
ENDSEC
  0
SECTION
  2
BLOCKS
  0
BLOCK
  5
20
100
AcDbEntity
  8
0
100
AcDbBlockBegin
  2
*Model_Space
 70
0
 10
0.0
 20
0.0
 30
0.0
  3
*Model_Space
  1

  0
ENDBLK
  5
21
100
AcDbEntity
  8
0
100
AcDbBlockEnd
  0
BLOCK
  5
1C
100
AcDbEntity
  8
0
100
AcDbBlockBegin
  2
*Paper_Space
 70
0
 10
0.0
 20
0.0
 30
0.0
  3
*Paper_Space
  1

  0
ENDBLK
  5
1D
100
AcDbEntity
  8
0
100
AcDbBlockEnd
  0
BLOCK
  5
222
100
AcDbEntity
  8
0
100
AcDbBlockBegin
  2
_FILLED
 70
64
 10
0.0
 20
0.0
  3
_FILLED
  1

  0
SOLID
  5
223
100
AcDbEntity
  8
0
  6
BYBLOCK
 62
0
100
AcDbTrace
 10
0.0
 20
0.0
 11
-1.0
 21
0.3166666667
 12
-1.0
 22
-0.3166666667
 13
-1.0
 23
-0.3166666667
  0
ENDBLK
  5
224
100
AcDbEntity
  8
0
  6
BYBLOCK
 62
0
100
AcDbBlockEnd
  0
ENDSEC
  0
SECTION
  2
ENTITIES
  0
LWPOLYLINE
  5
225
100
AcDbEntity
  8
RACCORDO
100
AcDbPolyline
 62
7
  6
CONTINUOUS
 90
16
 70
0
 10
-20.2031705675
 20
16.6691434715
 10
-20.2418697152
 20
16.6422933679
 10
-20.3388002898
 20
16.5666236464
 10
-20.429933003
 20
16.4832674647
 10
-20.515574234
 20
16.3923963089
 10
-20.5954582476
 20
16.2945330402
 10
-20.6687468546
 20
16.1910052496
 10
-20.7354144722
 20
16.0821175947
 10
-20.7952618591
 20
15.9681758207
 10
-20.8473983104
 20
15.8509219237
 10
-20.8916862886
 20
15.7306750552
 10
-20.9279000715
 20
15.6077050444
 10
-20.9553671487
 20
15.4836916309
 10
-20.9738439778
 20
15.3592441465
 10
-20.9830534174
 20
15.2341160142
 10
-20.9832716499
 20
15.1287477676
  0
LINE
  5
226
100
AcDbEntity
  8
RACCORDO
100
AcDbLine
 62
7
  6
CONTINUOUS
 10
-20.2033645667
 20
16.6690262532
 11
-16.2805540056
 21
19.2988267388
  0
LINE
  5
227
100
AcDbEntity
  8
RACCORDO
100
AcDbLine
 62
250
  6
CONTINUOUS
 10
-19.8219318802
 20
16.6608772239
 11
-15.9076631747
 21
19.2849513621
  0
LWPOLYLINE
  5
228
100
AcDbEntity
  8
RACCORDO
100
AcDbPolyline
 62
250
  6
CONTINUOUS
 90
9
 70
0
 10
-20.2031764398
 20
16.6691522512
 10
-20.1936742378
 20
16.6752139681
 10
-20.1506975864
 20
16.6962042471
 10
-20.1034185524
 20
16.7096185911
 10
-20.0523549842
 20
16.7153100723
 10
-19.9980661825
 20
16.7132163516
 10
-19.9411467741
 20
16.7033603618
 10
-19.8822201985
 20
16.6858500556
 10
-19.8219318802
 20
16.6608772239
  0
LINE
  5
229
100
AcDbEntity
  8
RACCORDO
100
AcDbLine
 62
7
  6
CONTINUOUS
 10
-13.2135745853
 20
22.8957221989
 11
-11.6308179821
 21
23.7077062962
  0
LINE
  5
22A
100
AcDbEntity
  8
RACCORDO
100
AcDbLine
 62
7
  6
CONTINUOUS
 10
-13.6975248468
 20
21.1530242741
 11
-12.6853074135
 21
21.6699517595
  0
LINE
  5
22B
100
AcDbEntity
  8
RACCORDO
100
AcDbLine
 62
250
  6
CONTINUOUS
 10
-13.5400062913
 20
21.1435884673
 11
-12.6853074135
 21
21.5800730873
  0
LINE
  5
22C
100
AcDbEntity
  8
RACCORDO
100
AcDbLine
 62
7
  6
CONTINUOUS
 10
-11.6057531762
 20
22.0918114944
 11
-10.0044723854
 21
22.8945334979
  0
LINE
  5
22D
100
AcDbEntity
  8
RACCORDO
100
AcDbLine
 62
7
  6
CONTINUOUS
 10
-10.0044723854
 20
22.8945334979
 11
-9.4762052136
 21
23.1579723179
  0
LINE
  5
22E
100
AcDbEntity
  8
RACCORDO
100
AcDbLine
 62
7
  6
CONTINUOUS
 10
-11.6308179821
 20
23.7077062962
 11
-11.0963681034
 21
23.9680537628
  0
LWPOLYLINE
  5
22F
100
AcDbEntity
  8
RACCORDO
100
AcDbPolyline
 62
7
  6
CONTINUOUS
 90
15
 70
0
 10
-3.0272760945
 20
-26.5514603448
 10
-3.005667443
 20
-26.5619847692
 10
-2.9238101657
 20
-26.5966709909
 10
-2.8392693222
 20
-26.6245372652
 10
-2.7524457037
 20
-26.6454373152
 10
-2.6633526475
 20
-26.6593024052
 10
-2.5725058566
 20
-26.6659460887
 10
-2.4805192213
 20
-26.6652301556
 10
-2.3874437736
 20
-26.6570162693
 10
-2.2937204504
 20
-26.6411658785
 10
-2.1999254738
 20
-26.6176243966
 10
-2.1061486557
 20
-26.5862131663
 10
-2.0126583407
 20
-26.5467425625
 10
-1.9200534915
 20
-26.4992149741
 10
-1.8932651937
 20
-26.4838228137
  0
LINE
  5
230
100
AcDbEntity
  8
RACCORDO
100
AcDbLine
 62
7
  6
CONTINUOUS
 10
-3.0265242403
 20
-26.5518457341
 11
-17.3627158233
 21
-19.3837499426
  0
LINE
  5
231
100
AcDbEntity
  8
RACCORDO
100
AcDbLine
 62
250
  6
CONTINUOUS
 10
-3.4043006073
 20
-25.9541062477
 11
-17.7330341151
 21
-18.7897394938
  0
LWPOLYLINE
  5
232
100
AcDbEntity
  8
RACCORDO
100
AcDbPolyline
 62
250
  6
CONTINUOUS
 90
11
 70
0
 10
-17.3627151338
 20
-19.3837502873
 10
-17.4202022668
 20
-19.3505415108
 10
-17.4725557724
 20
-19.3114395129
 10
-17.5210109101
 20
-19.2658847452
 10
-17.5653146823
 20
-19.2141160005
 10
-17.6052375287
 20
-19.1564055442
 10
-17.6405818259
 20
-19.0930417738
 10
-17.6711773487
 20
-19.0243348954
 10
-17.6968698764
 20
-18.9506279183
 10
-17.7175241903
 20
-18.8722974476
 10
-17.7330341151
 20
-18.7897394938
  0
LWPOLYLINE
  5
233
100
AcDbEntity
  8
RACCORDO
100
AcDbPolyline
 62
7
  6
CONTINUOUS
 90
12
 70
0
 10
-2.0401145545
 20
24.3755519352
 10
-2.0466332798
 20
24.3720798698
 10
-2.0584877064
 20
24.3645755966
 10
-2.0701428864
 20
24.3557030853
 10
-2.0816384812
 20
24.3455179748
 10
-2.0929297789
 20
24.3340869024
 10
-2.1040748453
 20
24.3214398763
 10
-2.1151417247
 20
24.3076103401
 10
-2.1260878439
 20
24.2926408413
 10
-2.136935145
 20
24.2765579141
 10
-2.1477735738
 20
24.2593896598
 10
-2.1586579417
 20
24.2411710283
  0
LINE
  5
234
100
AcDbEntity
  8
DRAFT
100
AcDbLine
 62
7
  6
CONTINUOUS
 10
-10.0044723854
 20
21.1624826903
 11
-11.0713032975
 21
20.6239014408
  0
LINE
  5
235
100
AcDbEntity
  8
RACCORDO
100
AcDbLine
 62
7
  6
CONTINUOUS
 10
-8.5486914088
 20
21.134141294
 11
-2.0400449597
 21
24.3755866042
  0
LINE
  5
236
100
AcDbEntity
  8
RACCORDO
100
AcDbLine
 62
250
  6
CONTINUOUS
 10
-8.4731982683
 20
21.0963947238
 11
-2.1586579417
 21
24.2411710283
  0
LWPOLYLINE
  5
237
100
AcDbEntity
  8
218
100
AcDbPolyline
 62
7
  6
CONTINUOUS
 90
36
 70
0
 10
4.4193535998
 20
26.7502811124
 10
4.4360316359
 20
26.7579607576
 10
4.4604686264
 20
26.7685534985
 10
4.4849809184
 20
26.7784150237
 10
4.5094396361
 20
26.7875163792
 10
4.5339018109
 20
26.7959022868
 10
4.558621644
 20
26.8036675583
 10
4.5836819059
 20
26.8108298734
 10
4.6089581247
 20
26.8173458715
 10
4.6344026984
 20
26.8232014236
 10
4.6599745355
 20
26.8283874821
 10
4.6856686058
 20
26.8329038921
 10
4.7114909137
 20
26.8367511161
 10
4.7374187314
 20
26.8399244498
 10
4.7634308208
 20
26.8424203378
 10
4.7895362228
 20
26.8442377846
 10
4.8157131533
 20
26.8453725214
 10
4.8419405001
 20
26.8458211711
 10
4.8682287116
 20
26.8455804566
 10
4.8945605764
 20
26.8446459119
 10
4.9209105325
 20
26.8430140505
 10
4.9472764042
 20
26.840680225
 10
4.9736421895
 20
26.8376402716
 10
4.9999803921
 20
26.833891967
 10
5.0262712836
 20
26.8294330462
 10
5.0525022286
 20
26.8242602753
 10
5.0786416696
 20
26.8183746663
 10
5.1046417421
 20
26.8117834383
 10
5.1304547508
 20
26.8044975333
 10
5.1560857032
 20
26.7965145836
 10
5.1815651089
 20
26.7878208585
 10
5.2068839689
 20
26.7784123844
 10
5.2320056795
 20
26.7682958314
 10
5.2569176383
 20
26.7574696067
 10
5.2816052169
 20
26.7459325992
 10
5.2931428088
 20
26.7402562267
  0
LWPOLYLINE
  5
238
100
AcDbEntity
  8
RACCORDO
100
AcDbPolyline
 62
7
  6
CONTINUOUS
 90
3
 70
0
 10
-2.02189875
 20
24.3828935861
 10
-2.0344637697
 20
24.3781945353
 10
-2.0401145545
 20
24.3755519352
  0
LWPOLYLINE
  5
239
100
AcDbEntity
  8
RACCORDO
100
AcDbPolyline
 62
7
  6
CONTINUOUS
 90
10
 70
0
 10
-2.02189875
 20
24.3828935861
 10
-2.0126591292
 20
24.385639385
 10
-2.0040959753
 20
24.3879051035
 10
-1.9962092884
 20
24.3896907416
 10
-1.9889599301
 20
24.3910171462
 10
-1.9823870388
 20
24.3918634703
 10
-1.9766080294
 20
24.3921671731
 10
-1.9716270722
 20
24.3919278373
 10
-1.967439997
 20
24.3911458801
 10
-1.9648380248
 20
24.3901431683
  0
LINE
  5
23A
100
AcDbEntity
  8
RACCORDO
100
AcDbLine
 62
7
  6
CONTINUOUS
 10
3.4477198983
 20
-24.9614962184
 11
3.9749646141
 21
-25.0697884903
  0
LINE
  5
23B
100
AcDbEntity
  8
RACCORDO
100
AcDbLine
 62
7
  6
CONTINUOUS
 10
0.0406130895
 20
-26.0327013102
 11
1.6471455588
 21
-26.8359675449
  0
LINE
  5
23C
100
AcDbEntity
  8
RACCORDO
100
AcDbLine
 62
250
  6
CONTINUOUS
 10
-0.0239822034
 20
-25.8976718619
 11
1.5817942588
 21
-26.700560093
  0
LINE
  5
23D
100
AcDbEntity
  8
RACCORDO
100
AcDbLine
 62
250
  6
CONTINUOUS
 10
1.5817942588
 20
-26.4471886992
 11
-0.0239822034
 21
-25.6443004681
  0
LINE
  5
23E
100
AcDbEntity
  8
RACCORDO
100
AcDbLine
 62
250
  6
CONTINUOUS
 10
1.6706968348
 20
-26.2157516396
 11
0.0638919159
 21
-25.4123491801
  0
LWPOLYLINE
  5
23F
100
AcDbEntity
  8
RACCORDO
100
AcDbPolyline
 62
7
  6
CONTINUOUS
 90
13
 70
0
 10
-20.9832800467
 20
15.1288042135
 10
-20.8796680742
 20
12.2856052308
 10
-20.7472837506
 20
9.394512999
 10
-20.588158654
 20
6.519398478
 10
-20.4023115379
 20
3.6606782074
 10
-20.1897669129
 20
0.8187149594
 10
-19.9505497407
 20
-2.0061494642
 10
-19.6846872064
 20
-4.8135587329
 10
-19.3922119468
 20
-7.6031600046
 10
-19.0731561272
 20
-10.3746162916
 10
-18.7275557763
 20
-13.1275728059
 10
-18.3554611599
 20
-15.8616339766
 10
-17.9666918473
 20
-18.5121837735
  0
LINE
  5
240
100
AcDbEntity
  8
RACCORDO
100
AcDbLine
 62
7
  6
CONTINUOUS
 10
-20.9832734634
 20
15.1288044272
 11
-20.9832716499
 21
15.1287477676
  0
LWPOLYLINE
  5
241
100
AcDbEntity
  8
RACCORDO
100
AcDbPolyline
 62
250
  6
CONTINUOUS
 90
22
 70
0
 10
-20.7489909927
 20
14.8462294916
 10
-20.7491699698
 20
14.9386510982
 10
-20.7440475524
 20
15.0335524725
 10
-20.73365168
 20
15.1304533017
 10
-20.71804007
 20
15.2288585007
 10
-20.6972921557
 20
15.3282755998
 10
-20.6715056134
 20
15.4282177009
 10
-20.6408072275
 20
15.528196313
 10
-20.6053558646
 20
15.6276905995
 10
-20.5653363222
 20
15.7261658844
 10
-20.5209673817
 20
15.8231053078
 10
-20.4724699887
 20
15.9180426993
 10
-20.4200647812
 20
16.0105299064
 10
-20.3640068158
 20
16.1001183673
 10
-20.304591462
 20
16.186334922
 10
-20.2421260326
 20
16.2687164121
 10
-20.1769404652
 20
16.3468390602
 10
-20.1093611079
 20
16.4203216753
 10
-20.0397121429
 20
16.48879827
 10
-19.9683424669
 20
16.5519242644
 10
-19.8956249115
 20
16.6093804312
 10
-19.8219318802
 20
16.6608772239
  0
LINE
  5
242
100
AcDbEntity
  8
RACCORDO
100
AcDbLine
 62
7
  6
CONTINUOUS
 10
-9.3893535504
 20
22.5369747313
 11
-9.9165982661
 21
21.8952670032
  0
LINE
  5
243
100
AcDbEntity
  8
RACCORDO
100
AcDbLine
 62
7
  6
CONTINUOUS
 10
-11.1009811132
 20
16.9129679343
 11
-11.1311464917
 21
16.8966930206
  0
LINE
  5
244
100
AcDbEntity
  8
RACCORDO
100
AcDbLine
 62
7
  6
CONTINUOUS
 10
-7.740077954
 20
20.7429765004
 11
-7.2467559387
 21
20.9960600323
  0
LINE
  5
245
100
AcDbEntity
  8
218
100
AcDbLine
 62
7
  6
CONTINUOUS
 10
6.42795962
 20
25.8694145396
 11
2.2115798423
 21
23.7241049229
  0
LINE
  5
246
100
AcDbEntity
  8
RACCORDO
100
AcDbLine
 62
7
  6
CONTINUOUS
 10
-1.1656376205
 20
23.3614274976
 11
-5.9032530545
 21
21.0263769829
  0
LINE
  5
247
100
AcDbEntity
  8
RACCORDO
100
AcDbLine
 62
7
  6
CONTINUOUS
 10
-1.5899016892
 20
21.9219958953
 11
-1.1656376205
 21
22.1295933162
  0
LINE
  5
248
100
AcDbEntity
  8
RACCORDO
100
AcDbLine
 62
7
  6
CONTINUOUS
 10
-7.2467559387
 20
20.9960600323
 11
-1.7691159493
 21
23.6643919955
  0
LINE
  5
249
100
AcDbEntity
  8
218
100
AcDbLine
 62
7
  6
CONTINUOUS
 10
5.3906676069
 20
26.4516940578
 11
1.8175939084
 21
24.7462607409
  0
LINE
  5
24A
100
AcDbEntity
  8
218
100
AcDbLine
 62
7
  6
CONTINUOUS
 10
4.4193849985
 20
26.7502959217
 11
-1.2952004549
 21
24.055313253
  0
LINE
  5
24B
100
AcDbEntity
  8
218
100
AcDbLine
 62
250
  6
CONTINUOUS
 10
4.858269749
 20
26.7178929867
 11
-1.0488228818
 21
23.9321244665
  0
LWPOLYLINE
  5
24C
100
AcDbEntity
  8
218
100
AcDbPolyline
 62
250
  6
CONTINUOUS
 90
25
 70
0
 10
4.858269749
 20
26.7178929867
 10
4.8775423534
 20
26.7267952484
 10
4.8967914656
 20
26.7350424431
 10
4.9160027721
 20
26.7426284366
 10
4.9351619798
 20
26.7495475841
 10
4.9542548497
 20
26.755794742
 10
4.9732672073
 20
26.7613652699
 10
4.9921849345
 20
26.7662550263
 10
5.0109939435
 20
26.770460365
 10
5.0296802102
 20
26.7739781483
 10
5.0482298268
 20
26.7768057589
 10
5.0666290128
 20
26.7789410968
 10
5.084864089
 20
26.7803825742
 10
5.1029214972
 20
26.7811291192
 10
5.1207878084
 20
26.7811801761
 10
5.1384497349
 20
26.7805357069
 10
5.1558941426
 20
26.7791961908
 10
5.1731080605
 20
26.7771626239
 10
5.1900786883
 20
26.7744365183
 10
5.2067934069
 20
26.7710199013
 10
5.2232397871
 20
26.7669153132
 10
5.2394055994
 20
26.7621258065
 10
5.2552788229
 20
26.7566549424
 10
5.2708476543
 20
26.7505067892
 10
5.2861005166
 20
26.7436859186
  0
LINE
  5
24D
100
AcDbEntity
  8
218
100
AcDbLine
 62
250
  6
CONTINUOUS
 10
-1.7090655199
 20
20.5159192381
 11
-1.6992587161
 21
20.5188408643
  0
LINE
  5
24E
100
AcDbEntity
  8
218
100
AcDbLine
 62
250
  6
CONTINUOUS
 10
-1.6992587161
 20
20.5188408643
 11
-1.6892648189
 21
20.5217279837
  0
LINE
  5
24F
100
AcDbEntity
  8
RACCORDO
100
AcDbLine
 62
7
  6
CONTINUOUS
 10
0.9011618981
 20
-24.837145271
 11
1.7335001823
 21
-25.253314413
  0
LINE
  5
250
100
AcDbEntity
  8
DRAFT
100
AcDbLine
 62
7
  6
CONTINUOUS
 10
2.2930148669
 20
-25.4706922221
 11
1.8837496215
 21
-25.2660595994
  0
LINE
  5
251
100
AcDbEntity
  8
ASSI
100
AcDbLine
 62
7
  6
CONTINUOUS
 10
1.2018352214
 20
-24.6599659941
 11
1.9809875557
 21
-25.0495421612
  0
LINE
  5
252
100
AcDbEntity
  8
RACCORDO
100
AcDbLine
 62
250
  6
CONTINUOUS
 10
3.4477198983
 20
-24.9614962184
 11
3.4042975724
 21
-24.9397850554
  0
LINE
  5
253
100
AcDbEntity
  8
0
100
AcDbLine
 62
7
  6
CONTINUOUS
 10
2.0606243402
 20
-24.1539030238
 11
2.7941603541
 21
-24.5206710308
  0
LINE
  5
254
100
AcDbEntity
  8
RACCORDO
100
AcDbLine
 62
250
  6
CONTINUOUS
 10
3.3598457791
 20
-24.7622290728
 11
3.9749646141
 21
-25.0697884903
  0
LINE
  5
255
100
AcDbEntity
  8
RACCORDO
100
AcDbLine
 62
7
  6
CONTINUOUS
 10
3.3598457791
 20
-24.7586089233
 11
3.9982434405
 21
-25.077807754
  0
LWPOLYLINE
  5
256
100
AcDbEntity
  8
RACCORDO
100
AcDbPolyline
 62
250
  6
CONTINUOUS
 90
8
 70
0
 10
-17.9666054785
 20
-18.5127483659
 10
-17.957805765
 20
-18.5516977778
 10
-17.9394342175
 20
-18.5983315175
 10
-17.9129715117
 20
-18.6427791099
 10
-17.8786980252
 20
-18.6845696243
 10
-17.8369768922
 20
-18.723260282
 10
-17.7882501563
 20
-18.7584411479
 10
-17.7330340869
 20
-18.7897394738
  0
LWPOLYLINE
  5
257
100
AcDbEntity
  8
RACCORDO
100
AcDbPolyline
 62
7
  6
CONTINUOUS
 90
13
 70
0
 10
-17.9665946038
 20
-18.512746697
 10
-17.9600513074
 20
-18.5519036632
 10
-17.9352918127
 20
-18.6618384126
 10
-17.9022611682
 20
-18.7661527245
 10
-17.8615621018
 20
-18.8642122192
 10
-17.8136717438
 20
-18.9559562901
 10
-17.7588287398
 20
-19.0415326824
 10
-17.6976753348
 20
-19.120372246
 10
-17.6308192184
 20
-19.1921674501
 10
-17.5583446181
 20
-19.2570955885
 10
-17.4806901573
 20
-19.3148362983
 10
-17.3987745347
 20
-19.3648306724
 10
-17.3619209294
 20
-19.3841375548
  0
LINE
  5
258
100
AcDbEntity
  8
RACCORDO
100
AcDbLine
 62
7
  6
CONTINUOUS
 10
-17.9666918473
 20
-18.5121837735
 11
-17.9666054785
 21
-18.5127483659
  0
LWPOLYLINE
  5
259
100
AcDbEntity
  8
RACCORDO
100
AcDbPolyline
 62
250
  6
CONTINUOUS
 90
13
 70
0
 10
-17.7330341151
 20
-18.7897394938
 10
-18.1293512196
 20
-16.0858158777
 10
-18.4994408592
 20
-13.3626930351
 10
-18.8432550055
 20
-10.6207215546
 10
-19.1607489612
 20
-7.8602545072
 10
-19.4518817907
 20
-5.0816470919
 10
-19.7166163218
 20
-2.2852565868
 10
-19.9549187204
 20
0.5285573154
 10
-20.1667580955
 20
3.359432451
 10
-20.3521069218
 20
6.2070045454
 10
-20.510941441
 20
9.0709072896
 10
-20.6432416691
 20
11.9507723849
 10
-20.7489909927
 20
14.8462294916
  0
LWPOLYLINE
  5
25A
100
AcDbEntity
  8
RACCORDO
100
AcDbPolyline
 62
250
  6
CONTINUOUS
 90
9
 70
0
 10
-20.9832716499
 20
15.1287477676
 10
-20.9817023152
 20
15.1087402599
 10
-20.9721467515
 20
15.0663326939
 10
-20.9542373231
 20
15.0248569143
 10
-20.9281637819
 20
14.9847523609
 10
-20.8942023797
 20
14.9464439452
 10
-20.8527129405
 20
14.9103375486
 10
-20.8041350489
 20
14.8768157218
 10
-20.7489833921
 20
14.8462336315
  0
LINE
  5
25B
100
AcDbEntity
  8
0
100
AcDbLine
 62
7
  6
CONTINUOUS
 10
-9.6540421617
 20
16.9550928565
 11
-10.0056587498
 21
16.7340224101
  0
LINE
  5
25C
100
AcDbEntity
  8
RACCORDO
100
AcDbLine
 62
250
  6
CONTINUOUS
 10
-10.6231527275
 20
16.9008893405
 11
-10.8715293545
 21
16.766884452
  0
LINE
  5
25D
100
AcDbEntity
  8
0
100
AcDbLine
 62
7
  6
CONTINUOUS
 10
1.9674039294
 20
22.3877493608
 11
2.3901012807
 21
22.6106460323
  0
LWPOLYLINE
  5
25E
100
AcDbEntity
  8
218
100
AcDbPolyline
 62
7
  6
CONTINUOUS
 90
38
 70
0
 10
2.2115798423
 20
23.7241049229
 10
2.1710613852
 20
23.7030459649
 10
2.1314471284
 20
23.6815612328
 10
2.0927549637
 20
23.6596604303
 10
2.055002367
 20
23.6373534491
 10
2.0182063893
 20
23.6146503643
 10
1.98238365
 20
23.59156143
 10
1.9475503287
 20
23.5680970744
 10
1.913722158
 20
23.5442678955
 10
1.8809144168
 20
23.5200846558
 10
1.849141923
 20
23.4955582779
 10
1.8184190269
 20
23.4706998394
 10
1.7887596046
 20
23.4455205678
 10
1.7601770522
 20
23.4200318355
 10
1.7326842791
 20
23.3942451547
 10
1.7062937028
 20
23.3681721721
 10
1.6810172426
 20
23.3418246638
 10
1.656866315
 20
23.3152145299
 10
1.6338518278
 20
23.2883537891
 10
1.6119841759
 20
23.2612545732
 10
1.5912732358
 20
23.2339291219
 10
1.5717283618
 20
23.2063897768
 10
1.5533583816
 20
23.1786489764
 10
1.5361715921
 20
23.15071925
 10
1.5201757558
 20
23.1226132122
 10
1.5053780974
 20
23.0943435575
 10
1.4917853003
 20
23.065923054
 10
1.479403504
 20
23.0373645381
 10
1.4682383006
 20
23.0086809085
 10
1.4582947331
 20
22.9798851203
 10
1.4495772925
 20
22.9509901794
 10
1.4420899162
 20
22.9220091364
 10
1.4358359859
 20
22.892955081
 10
1.4308183262
 20
22.8638411354
 10
1.4270392034
 20
22.8346804494
 10
1.4245003243
 20
22.8054861936
 10
1.4232028358
 20
22.7762715537
 10
1.4230185774
 20
22.7603546845
  0
LINE
  5
25F
100
AcDbEntity
  8
218
100
AcDbLine
 62
7
  6
CONTINUOUS
 10
6.4340166068
 20
25.4319260724
 11
2.2115798423
 21
23.31388588
  0
LINE
  5
260
100
AcDbEntity
  8
0
100
AcDbLine
 62
7
  6
CONTINUOUS
 10
0.1614362079
 20
21.891553264
 11
-1.2363482987
 21
21.1926610107
  0
LINE
  5
261
100
AcDbEntity
  8
0
100
AcDbLine
 62
7
  6
CONTINUOUS
 10
2.5183887094
 20
22.3875543009
 11
3.0133634563
 21
22.6350416743
  0
LINE
  5
262
100
AcDbEntity
  8
RACCORDO
100
AcDbLine
 62
7
  6
CONTINUOUS
 10
5.4815413688
 20
22.8155415266
 11
4.1700770578
 21
22.1598093711
  0
LWPOLYLINE
  5
263
100
AcDbEntity
  8
218
100
AcDbPolyline
 62
7
  6
CONTINUOUS
 90
6
 70
0
 10
-2.2264156752
 20
20.4062241187
 10
-2.2351164409
 20
20.4018777081
 10
-2.2432182019
 20
20.3971987897
 10
-2.2510354762
 20
20.3920412947
 10
-2.2585627594
 20
20.3864093333
 10
-2.264425208
 20
20.3815172511
  0
LINE
  5
264
100
AcDbEntity
  8
RACCORDO
100
AcDbLine
 62
7
  6
CONTINUOUS
 10
0.8204319592
 20
22.7516260778
 11
-1.2363482987
 21
21.7452192
  0
LINE
  5
265
100
AcDbEntity
  8
218
100
AcDbLine
 62
250
  6
CONTINUOUS
 10
-1.9555092498
 20
20.4139627771
 11
-1.9014217354
 21
20.4400319965
  0
LINE
  5
266
100
AcDbEntity
  8
218
100
AcDbLine
 62
250
  6
CONTINUOUS
 10
-1.966207904
 20
20.4088827865
 11
-1.9555092498
 21
20.4139627771
  0
LINE
  5
267
100
AcDbEntity
  8
218
100
AcDbLine
 62
250
  6
CONTINUOUS
 10
-1.9014217354
 20
20.4400319965
 11
-1.8890930509
 21
20.4458687799
  0
LINE
  5
268
100
AcDbEntity
  8
218
100
AcDbLine
 62
250
  6
CONTINUOUS
 10
-1.9741349801
 20
20.405174697
 11
-1.966207904
 21
20.4088827865
  0
LINE
  5
269
100
AcDbEntity
  8
218
100
AcDbLine
 62
250
  6
CONTINUOUS
 10
-1.8890930509
 20
20.4458687799
 11
-1.8795771878
 21
20.4503099366
  0
LINE
  5
26A
100
AcDbEntity
  8
218
100
AcDbLine
 62
250
  6
CONTINUOUS
 10
-2.0142196059
 20
20.3866583654
 11
-1.9741349801
 21
20.405174697
  0
LINE
  5
26B
100
AcDbEntity
  8
218
100
AcDbLine
 62
7
  6
CONTINUOUS
 10
-2.175683009
 20
20.4296156662
 11
-2.2264166715
 21
20.4062236586
  0
LINE
  5
26C
100
AcDbEntity
  8
218
100
AcDbLine
 62
250
  6
CONTINUOUS
 10
-1.8795771878
 20
20.4503099366
 11
-1.8698131092
 21
20.4547993653
  0
LWPOLYLINE
  5
26D
100
AcDbEntity
  8
218
100
AcDbPolyline
 62
250
  6
CONTINUOUS
 90
17
 70
0
 10
-1.0222467668
 20
20.5139639007
 10
-1.0164333213
 20
20.5165997681
 10
-1.0106338904
 20
20.5189360244
 10
-1.004858288
 20
20.5209687161
 10
-0.999116288
 20
20.5226944033
 10
-0.9934176073
 20
20.5241101656
 10
-0.9877718895
 20
20.5252136074
 10
-0.9821886885
 20
20.5260028613
 10
-0.9766774527
 20
20.5264765916
 10
-0.9712475084
 20
20.5266339968
 10
-0.9659080444
 20
20.5264748104
 10
-0.9606680966
 20
20.5259993019
 10
-0.9555365321
 20
20.5252082759
 10
-0.950522035
 20
20.524103071
 10
-0.9456330909
 20
20.5226855575
 10
-0.9408779734
 20
20.5209581343
 10
-0.9363249632
 20
20.5189502874
  0
LINE
  5
26E
100
AcDbEntity
  8
218
100
AcDbLine
 62
250
  6
CONTINUOUS
 10
-1.8698131092
 20
20.4547993653
 11
-1.8631586076
 21
20.4578162715
  0
LWPOLYLINE
  5
26F
100
AcDbEntity
  8
218
100
AcDbPolyline
 62
250
  6
CONTINUOUS
 90
22
 70
0
 10
-2.1925703205
 20
20.4218550251
 10
-2.1894420074
 20
20.4232649571
 10
-2.1801935449
 20
20.4270388512
 10
-2.1707339306
 20
20.4303213067
 10
-2.1610732903
 20
20.4331088099
 10
-2.1512219646
 20
20.4353983771
 10
-2.1411904986
 20
20.4371875575
 10
-2.1309896302
 20
20.438474436
 10
-2.1206302782
 20
20.439257635
 10
-2.1101235317
 20
20.4395363162
 10
-2.099480637
 20
20.4393101813
 10
-2.0887129865
 20
20.4385794724
 10
-2.0778321058
 20
20.4373449716
 10
-2.0668496422
 20
20.4356080004
 10
-2.0557773512
 20
20.433370418
 10
-2.0446270848
 20
20.4306346195
 10
-2.0334107784
 20
20.4274035333
 10
-2.0221404379
 20
20.4236806181
 10
-2.0108281274
 20
20.4194698589
 10
-1.9994859555
 20
20.4147757629
 10
-1.9881260631
 20
20.4096033548
 10
-1.9767606099
 20
20.4039581711
  0
LINE
  5
270
100
AcDbEntity
  8
218
100
AcDbLine
 62
250
  6
CONTINUOUS
 10
-1.8631586076
 20
20.4578162715
 11
-1.8563828188
 21
20.460850131
  0
LINE
  5
271
100
AcDbEntity
  8
218
100
AcDbLine
 62
250
  6
CONTINUOUS
 10
-1.8563828188
 20
20.460850131
 11
-1.8494809227
 21
20.4638987948
  0
LINE
  5
272
100
AcDbEntity
  8
218
100
AcDbLine
 62
250
  6
CONTINUOUS
 10
-1.8494809227
 20
20.4638987948
 11
-1.8424495833
 21
20.4669608682
  0
LINE
  5
273
100
AcDbEntity
  8
218
100
AcDbLine
 62
250
  6
CONTINUOUS
 10
-1.8424495833
 20
20.4669608682
 11
-1.8352835096
 21
20.4700343638
  0
LINE
  5
274
100
AcDbEntity
  8
218
100
AcDbLine
 62
250
  6
CONTINUOUS
 10
-1.8352835096
 20
20.4700343638
 11
-1.8279781257
 21
20.4731169103
  0
LINE
  5
275
100
AcDbEntity
  8
218
100
AcDbLine
 62
250
  6
CONTINUOUS
 10
-1.8279781257
 20
20.4731169103
 11
-1.820530398
 21
20.4762069072
  0
LINE
  5
276
100
AcDbEntity
  8
218
100
AcDbLine
 62
250
  6
CONTINUOUS
 10
-1.820530398
 20
20.4762069072
 11
-1.8129359027
 21
20.4793018803
  0
LINE
  5
277
100
AcDbEntity
  8
218
100
AcDbLine
 62
250
  6
CONTINUOUS
 10
-1.8129359027
 20
20.4793018803
 11
-1.8051902172
 21
20.4823992858
  0
LINE
  5
278
100
AcDbEntity
  8
218
100
AcDbLine
 62
250
  6
CONTINUOUS
 10
-1.8051902172
 20
20.4823992858
 11
-1.7972904878
 21
20.4854973738
  0
LINE
  5
279
100
AcDbEntity
  8
218
100
AcDbLine
 62
250
  6
CONTINUOUS
 10
-1.7972904878
 20
20.4854973738
 11
-1.7892324928
 21
20.4885934704
  0
LINE
  5
27A
100
AcDbEntity
  8
218
100
AcDbLine
 62
250
  6
CONTINUOUS
 10
-1.7892324928
 20
20.4885934704
 11
-1.7810125433
 21
20.4916846276
  0
LINE
  5
27B
100
AcDbEntity
  8
218
100
AcDbLine
 62
250
  6
CONTINUOUS
 10
-1.7810125433
 20
20.4916846276
 11
-1.7726282357
 21
20.4947688477
  0
LINE
  5
27C
100
AcDbEntity
  8
218
100
AcDbLine
 62
250
  6
CONTINUOUS
 10
-1.7726282357
 20
20.4947688477
 11
-1.7640762443
 21
20.497843015
  0
LINE
  5
27D
100
AcDbEntity
  8
218
100
AcDbLine
 62
250
  6
CONTINUOUS
 10
-1.7640762443
 20
20.497843015
 11
-1.7553524577
 21
20.5009042168
  0
LINE
  5
27E
100
AcDbEntity
  8
218
100
AcDbLine
 62
250
  6
CONTINUOUS
 10
-1.7553524577
 20
20.5009042168
 11
-1.7464544687
 21
20.5039503723
  0
LINE
  5
27F
100
AcDbEntity
  8
218
100
AcDbLine
 62
250
  6
CONTINUOUS
 10
-1.7464544687
 20
20.5039503723
 11
-1.7373788802
 21
20.5069782478
  0
LINE
  5
280
100
AcDbEntity
  8
218
100
AcDbLine
 62
250
  6
CONTINUOUS
 10
-1.7373788802
 20
20.5069782478
 11
-1.7281233907
 21
20.5099841772
  0
LINE
  5
281
100
AcDbEntity
  8
218
100
AcDbLine
 62
250
  6
CONTINUOUS
 10
-1.7281233907
 20
20.5099841772
 11
-1.7186863992
 21
20.5129657299
  0
LINE
  5
282
100
AcDbEntity
  8
218
100
AcDbLine
 62
250
  6
CONTINUOUS
 10
-1.7186863992
 20
20.5129657299
 11
-1.7090655199
 21
20.5159192381
  0
LINE
  5
283
100
AcDbEntity
  8
0
100
AcDbLine
 62
7
  6
CONTINUOUS
 10
2.3038487339
 20
-22.6256077831
 11
2.7941603541
 21
-22.8707635932
  0
LINE
  5
284
100
AcDbEntity
  8
218
100
AcDbLine
 62
7
  6
CONTINUOUS
 10
-3.118525677
 20
19.6340132942
 11
-2.264424413
 21
20.3815176316
  0
LINE
  5
285
100
AcDbEntity
  8
218
100
AcDbLine
 62
250
  6
CONTINUOUS
 10
-2.9646231222
 20
19.5570620168
 11
-2.0158245306
 21
20.3874448911
  0
LWPOLYLINE
  5
286
100
AcDbEntity
  8
ASSI
100
AcDbPolyline
 62
7
  6
CONTINUOUS
 90
40
 70
0
 10
-7.1637045457
 20
15.7203813062
 10
-7.1354886003
 20
15.7357884726
 10
-7.1074256051
 20
15.7524785239
 10
-7.0795155599
 20
15.7704514601
 10
-7.0517147264
 20
15.7897398244
 10
-7.0240668429
 20
15.8103110736
 10
-6.9967031249
 20
15.8320675777
 10
-6.9696249229
 20
15.8550149708
 10
-6.9428308862
 20
15.8791476188
 10
-6.9164481778
 20
15.9043509896
 10
-6.8904787529
 20
15.9306301728
 10
-6.8649206563
 20
15.9579800788
 10
-6.8398951853
 20
15.9862709064
 10
-6.8154048715
 20
16.0155071284
 10
-6.7914471833
 20
16.0456842722
 10
-6.7681358224
 20
16.0766591186
 10
-6.7454738611
 20
16.1084354596
 10
-6.7234582271
 20
16.1410095033
 10
-6.7021934054
 20
16.1742266553
 10
-6.6816829648
 20
16.2080899724
 10
-6.6619233365
 20
16.2425963978
 10
-6.6430082985
 20
16.2775821659
 10
-6.6249418655
 20
16.3130495552
 10
-6.6077200228
 20
16.3489962872
 10
-6.5914245042
 20
16.3852517609
 10
-6.5760597131
 20
16.4218174437
 10
-6.561621246
 20
16.4586918682
 10
-6.5481776273
 20
16.4957000304
 10
-6.5357335858
 20
16.5328425661
 10
-6.5242843927
 20
16.5701188395
 10
-6.5138843849
 20
16.6073519396
 10
-6.50453855
 20
16.6445416611
 10
-6.4962419005
 20
16.6816882094
 10
-6.489033812
 20
16.718615289
 10
-6.4829194587
 20
16.7553218567
 10
-6.4778936664
 20
16.7918089558
 10
-6.4739802871
 20
16.8279034206
 10
-6.4711872715
 20
16.8635475291
 10
-6.469506669
 20
16.8987990034
 10
-6.4689384794
 20
16.9336578433
  0
LINE
  5
287
100
AcDbEntity
  8
ASSI
100
AcDbLine
 62
7
  6
CONTINUOUS
 10
-7.1739429273
 20
15.7150432393
 11
-7.1637045457
 21
15.7203813062
  0
LINE
  5
288
100
AcDbEntity
  8
RACCORDO
100
AcDbLine
 62
7
  6
CONTINUOUS
 10
-1.5233119971
 20
17.634593522
 11
-1.0242162643
 21
17.8847901951
  0
LINE
  5
289
100
AcDbEntity
  8
RACCORDO
100
AcDbLine
 62
7
  6
CONTINUOUS
 10
6.3300720765
 20
22.3912787431
 11
5.961623549
 21
22.2070544793
  0
LINE
  5
28A
100
AcDbEntity
  8
RACCORDO
100
AcDbLine
 62
7
  6
CONTINUOUS
 10
-1.0242162643
 20
17.8847901951
 11
4.3900564309
 21
20.5848058055
  0
LINE
  5
28B
100
AcDbEntity
  8
RACCORDO
100
AcDbLine
 62
7
  6
CONTINUOUS
 10
3.7841098478
 20
20.8865537634
 11
-0.9535055862
 21
18.5515032488
  0
LINE
  5
28C
100
AcDbEntity
  8
RACCORDO
100
AcDbLine
 62
7
  6
CONTINUOUS
 10
5.0630726463
 20
20.6303057343
 11
4.4766938593
 21
20.3433836666
  0
LINE
  5
28D
100
AcDbEntity
  8
218
100
AcDbLine
 62
7
  6
CONTINUOUS
 10
10.0511187897
 20
24.1214684664
 11
6.4876879532
 21
22.4112137186
  0
LWPOLYLINE
  5
28E
100
AcDbEntity
  8
RACCORDO
100
AcDbPolyline
 62
7
  6
CONTINUOUS
 90
18
 70
0
 10
5.0630726463
 20
20.6303057343
 10
5.0914471671
 20
20.6434876911
 10
5.1196816191
 20
20.6552220828
 10
5.1477760023
 20
20.6655089095
 10
5.1757803154
 20
20.6743610441
 10
5.2036445597
 20
20.6817656137
 10
5.2312187393
 20
20.6876839993
 10
5.258487868
 20
20.6921074206
 10
5.285466932
 20
20.6950446579
 10
5.3120508946
 20
20.6964834339
 10
5.3382558534
 20
20.6964162973
 10
5.3640657109
 20
20.6948506993
 10
5.3893271372
 20
20.6917967159
 10
5.4140168905
 20
20.6872509315
 10
5.4381582126
 20
20.6812167617
 10
5.4616674989
 20
20.6737145289
 10
5.4845632791
 20
20.6647291142
 10
5.5041112636
 20
20.6556464274
  0
LWPOLYLINE
  5
28F
100
AcDbEntity
  8
RACCORDO
100
AcDbPolyline
 62
7
  6
CONTINUOUS
 90
10
 70
0
 10
6.3300431806
 20
22.3912642951
 10
6.3414396449
 20
22.3964329504
 10
6.3526600474
 20
22.4004848467
 10
6.3637043881
 20
22.4034199843
 10
6.374667647
 20
22.4052385156
 10
6.3854548442
 20
22.4059402881
 10
6.3957810396
 20
22.4055248437
 10
6.4055512534
 20
22.4039920298
 10
6.4148604654
 20
22.4013419991
 10
6.4237086757
 20
22.3975747515
  0
LINE
  5
290
100
AcDbEntity
  8
RACCORDO
100
AcDbLine
 62
7
  6
CONTINUOUS
 10
-13.7874936647
 20
20.9642117208
 11
-13.7874936647
 21
20.9398162155
  0
LINE
  5
291
100
AcDbEntity
  8
RACCORDO
100
AcDbLine
 62
7
  6
CONTINUOUS
 10
-13.3883003678
 20
22.3374627535
 11
-13.3883003678
 21
22.5908341472
  0
LINE
  5
292
100
AcDbEntity
  8
ASSI
100
AcDbLine
 62
7
  6
CONTINUOUS
 10
-12.9743208663
 20
19.5742104459
 11
-13.1343182052
 21
17.8982788774
  0
LWPOLYLINE
  5
293
100
AcDbEntity
  8
RACCORDO
100
AcDbPolyline
 62
250
  6
CONTINUOUS
 90
45
 70
0
 10
2.0942616748
 20
22.3343562685
 10
2.0986696966
 20
22.3388008233
 10
2.1591731749
 20
22.3927433455
 10
2.2250455265
 20
22.444996245
 10
2.2962876818
 20
22.4956010525
 10
2.3724217795
 20
22.544224331
 10
2.4534384085
 20
22.5908520735
 10
2.5393469799
 20
22.6354982871
 10
2.6296978656
 20
22.6778715562
 10
2.7247481458
 20
22.7180307542
 10
2.8242407403
 20
22.7559170077
 10
2.9269547807
 20
22.7910622809
 10
3.0332956494
 20
22.8234400008
 10
3.142857964
 20
22.8530767403
 10
3.2532047084
 20
22.8795841825
 10
3.3643092253
 20
22.902783576
 10
3.4761981721
 20
22.922853672
 10
3.5865145042
 20
22.9399424078
 10
3.6949049941
 20
22.9539163036
 10
3.8017228693
 20
22.9649088392
 10
3.9056707685
 20
22.9734683905
 10
4.0065066029
 20
22.97957096
 10
4.1044724612
 20
22.9832405452
 10
4.1989972475
 20
22.985097514
 10
4.2899189876
 20
22.9851633829
 10
4.3773996558
 20
22.9834166353
 10
4.4613540791
 20
22.98041309
 10
4.5416581525
 20
22.9761942893
 10
4.6184359811
 20
22.9707186908
 10
4.6919747076
 20
22.9644174852
 10
4.7622412413
 20
22.9573314514
 10
4.8292686728
 20
22.9494198105
 10
4.893443417
 20
22.9409914164
 10
4.9547511638
 20
22.9320807758
 10
5.0132062232
 20
22.922653382
 10
5.0692379397
 20
22.9129145682
 10
5.1228425233
 20
22.9028930465
 10
5.1740237639
 20
22.8925601047
 10
5.2232223762
 20
22.88203494
 10
5.2704415211
 20
22.8713404009
 10
5.3156780377
 20
22.8604536387
 10
5.3593631576
 20
22.8494253051
 10
5.4016406247
 20
22.8382722838
 10
5.4423666951
 20
22.826977691
 10
5.4815413688
 20
22.8155415266
  0
LWPOLYLINE
  5
294
100
AcDbEntity
  8
RACCORDO
100
AcDbPolyline
 62
250
  6
CONTINUOUS
 90
7
 70
0
 10
2.0242084841
 20
22.3632128754
 10
2.0529951489
 20
22.3886894379
 10
2.1238709807
 20
22.4444629055
 10
2.2003641185
 20
22.498290841
 10
2.2823555223
 20
22.5500920247
 10
2.3696041192
 20
22.5997096641
 10
2.3901012807
 20
22.6106460323
  0
LINE
  5
295
100
AcDbEntity
  8
0
100
AcDbLine
 62
7
  6
CONTINUOUS
 10
-5.4114014746
 20
14.8337725129
 11
-5.7630180627
 21
14.6127020666
  0
LINE
  5
296
100
AcDbEntity
  8
RACCORDO
100
AcDbLine
 62
7
  6
CONTINUOUS
 10
0.1507435792
 20
16.2135631167
 11
1.7335001823
 21
17.025547214
  0
LINE
  5
297
100
AcDbEntity
  8
218
100
AcDbLine
 62
7
  6
CONTINUOUS
 10
13.8525808224
 20
22.1571039384
 11
9.6362010447
 21
20.0117943217
  0
LINE
  5
298
100
AcDbEntity
  8
RACCORDO
100
AcDbLine
 62
7
  6
CONTINUOUS
 10
-1.5233119971
 20
16.4203900491
 11
-1.0242162643
 21
16.6723546298
  0
LINE
  5
299
100
AcDbEntity
  8
RACCORDO
100
AcDbLine
 62
7
  6
CONTINUOUS
 10
-1.0242162643
 20
16.6723546298
 11
4.3900564309
 21
19.3529672271
  0
LINE
  5
29A
100
AcDbEntity
  8
RACCORDO
100
AcDbLine
 62
7
  6
CONTINUOUS
 10
1.7335001823
 20
17.025547214
 11
2.267950061
 21
17.2858946806
  0
LINE
  5
29B
100
AcDbEntity
  8
RACCORDO
100
AcDbLine
 62
250
  6
CONTINUOUS
 10
3.2703235691
 20
16.8466852974
 11
8.0421625473
 21
19.1407607838
  0
LINE
  5
29C
100
AcDbEntity
  8
RACCORDO
100
AcDbLine
 62
250
  6
CONTINUOUS
 10
3.497939069
 20
16.7328775475
 11
8.4840034152
 21
19.1299425035
  0
LINE
  5
29D
100
AcDbEntity
  8
218
100
AcDbLine
 62
7
  6
CONTINUOUS
 10
12.8152888094
 20
22.7393834565
 11
9.2422151109
 21
21.0339501397
  0
LINE
  5
29E
100
AcDbEntity
  8
ASSI
100
AcDbLine
 62
7
  6
CONTINUOUS
 10
-12.9743208663
 20
20.5332298163
 11
-12.9743208663
 21
19.5742104459
  0
LINE
  5
29F
100
AcDbEntity
  8
DRAFT
100
AcDbLine
 62
7
  6
CONTINUOUS
 10
-12.6853074135
 20
21.4309034988
 11
-12.6853074135
 21
21.8832344744
  0
LINE
  5
2A0
100
AcDbEntity
  8
RACCORDO
100
AcDbLine
 62
7
  6
CONTINUOUS
 10
-11.7825239056
 20
21.7879459161
 11
-11.7825239056
 21
21.5345745224
  0
LINE
  5
2A1
100
AcDbEntity
  8
DRAFT
100
AcDbLine
 62
7
  6
CONTINUOUS
 10
-11.0713032975
 20
20.6239014408
 11
-11.0713032975
 21
21.2610709995
  0
LINE
  5
2A2
100
AcDbEntity
  8
DRAFT
100
AcDbLine
 62
7
  6
CONTINUOUS
 10
-10.0056587498
 20
16.7340224101
 11
-10.0733280413
 21
16.3677837954
  0
LWPOLYLINE
  5
2A3
100
AcDbEntity
  8
RACCORDO
100
AcDbPolyline
 62
7
  6
CONTINUOUS
 90
4
 70
0
 10
9.6829912624
 20
18.8683984269
 10
9.5733155295
 20
18.8058244077
 10
9.4611612932
 20
18.7416634753
 10
9.3658889547
 20
18.6870198279
  0
LWPOLYLINE
  5
2A4
100
AcDbEntity
  8
RACCORDO
100
AcDbPolyline
 62
7
  6
CONTINUOUS
 90
5
 70
0
 10
9.2305064555
 20
18.037472619
 10
9.2307544677
 20
18.0376127168
 10
9.2316817036
 20
18.0384403882
 10
9.2321881211
 20
18.0394914596
 10
9.2322998846
 20
18.0404233836
  0
LINE
  5
2A5
100
AcDbEntity
  8
RACCORDO
100
AcDbLine
 62
250
  6
CONTINUOUS
 10
3.8739266122
 20
15.7318426449
 11
9.2322533923
 21
18.6227828719
  0
LINE
  5
2A6
100
AcDbEntity
  8
RACCORDO
100
AcDbLine
 62
250
  6
CONTINUOUS
 10
3.507306459
 20
15.2856305188
 11
9.1481018247
 21
18.328969028
  0
LINE
  5
2A7
100
AcDbEntity
  8
0
100
AcDbLine
 62
7
  6
CONTINUOUS
 10
9.3238557732
 20
18.7063387876
 11
9.9561438394
 21
19.0397567873
  0
LINE
  5
2A8
100
AcDbEntity
  8
218
100
AcDbLine
 62
7
  6
CONTINUOUS
 10
4.0959927018
 20
14.8117992387
 11
9.6906775167
 21
17.7507429565
  0
LWPOLYLINE
  5
2A9
100
AcDbEntity
  8
218
100
AcDbPolyline
 62
7
  6
CONTINUOUS
 90
38
 70
0
 10
9.6362010447
 20
20.0117943217
 10
9.5956825877
 20
19.9907353637
 10
9.5560683308
 20
19.9692506316
 10
9.5173761662
 20
19.9473498291
 10
9.4796235694
 20
19.9250428479
 10
9.4428275918
 20
19.9023397631
 10
9.4070048525
 20
19.8792508287
 10
9.3721715311
 20
19.8557864732
 10
9.3383433605
 20
19.8319572942
 10
9.3055356193
 20
19.8077740546
 10
9.2737631255
 20
19.7832476767
 10
9.2430402293
 20
19.7583892382
 10
9.2133808071
 20
19.7332099666
 10
9.1847982546
 20
19.7077212343
 10
9.1573054816
 20
19.6819345534
 10
9.1309149052
 20
19.6558615708
 10
9.1056384451
 20
19.6295140626
 10
9.0814875174
 20
19.6029039287
 10
9.0584730303
 20
19.5760431879
 10
9.0366053783
 20
19.548943972
 10
9.0158944382
 20
19.5216185207
 10
8.9963495643
 20
19.4940791756
 10
8.9779795841
 20
19.4663383752
 10
8.9607927945
 20
19.4384086487
 10
8.9447969582
 20
19.410302611
 10
8.9299992998
 20
19.3820329563
 10
8.9164065028
 20
19.3536124528
 10
8.9040247064
 20
19.3250539369
 10
8.892859503
 20
19.2963703072
 10
8.8829159355
 20
19.2675745191
 10
8.874198495
 20
19.2386795782
 10
8.8667111187
 20
19.2096985352
 10
8.8604571883
 20
19.1806444797
 10
8.8554395286
 20
19.1515305342
 10
8.8516604058
 20
19.1223698482
 10
8.8491215268
 20
19.0931755923
 10
8.8478240382
 20
19.0639609525
 10
8.8476397799
 20
19.0480440833
  0
LINE
  5
2AA
100
AcDbEntity
  8
RACCORDO
100
AcDbLine
 62
250
  6
CONTINUOUS
 10
3.4189165042
 20
15.1503373375
 11
9.1481018247
 21
18.1167098739
  0
LINE
  5
2AB
100
AcDbEntity
  8
RACCORDO
100
AcDbLine
 62
7
  6
CONTINUOUS
 10
3.5386826348
 20
15.0904542722
 11
9.2305058999
 21
18.0374820381
  0
LINE
  5
2AC
100
AcDbEntity
  8
RACCORDO
100
AcDbLine
 62
250
  6
CONTINUOUS
 10
3.5012671353
 20
14.40961293
 11
1.7335001823
 21
13.5068352305
  0
LINE
  5
2AD
100
AcDbEntity
  8
DRAFT
100
AcDbLine
 62
7
  6
CONTINUOUS
 10
3.3598457791
 20
14.4803236081
 11
2.2930148669
 21
13.9417423586
  0
LINE
  5
2AE
100
AcDbEntity
  8
218
100
AcDbLine
 62
7
  6
CONTINUOUS
 10
13.8586378093
 20
21.7196154712
 11
9.6362010447
 21
19.6015752788
  0
LINE
  5
2AF
100
AcDbEntity
  8
RACCORDO
100
AcDbLine
 62
7
  6
CONTINUOUS
 10
1.7585649882
 20
15.4096524122
 11
3.3598457791
 21
16.2123744157
  0
LINE
  5
2B0
100
AcDbEntity
  8
RACCORDO
100
AcDbLine
 62
7
  6
CONTINUOUS
 10
3.3598457791
 20
16.2123744157
 11
3.8881129508
 21
16.4758132357
  0
LINE
  5
2B1
100
AcDbEntity
  8
RACCORDO
100
AcDbLine
 62
250
  6
CONTINUOUS
 10
4.2083739165
 20
14.7556086314
 11
3.5012671353
 21
14.40961293
  0
LINE
  5
2B2
100
AcDbEntity
  8
ASSI
100
AcDbLine
 62
7
  6
CONTINUOUS
 10
1.9809875557
 20
13.0555756053
 11
2.7941603541
 21
13.3398772732
  0
LINE
  5
2B3
100
AcDbEntity
  8
RACCORDO
100
AcDbLine
 62
7
  6
CONTINUOUS
 10
-10.0044723854
 20
21.1624826903
 11
-10.0044723854
 21
22.8945334979
  0
LINE
  5
2B4
100
AcDbEntity
  8
RACCORDO
100
AcDbLine
 62
7
  6
CONTINUOUS
 10
-9.3014794311
 20
23.0298549956
 11
-9.3014794311
 21
22.7689260193
  0
LINE
  5
2B5
100
AcDbEntity
  8
DRAFT
100
AcDbLine
 62
7
  6
CONTINUOUS
 10
-7.5649539903
 20
16.8695270078
 11
-7.6523344355
 21
15.9542389934
  0
LWPOLYLINE
  5
2B6
100
AcDbEntity
  8
RACCORDO
100
AcDbPolyline
 62
250
  6
CONTINUOUS
 90
5
 70
0
 10
9.6829912624
 20
18.8683984269
 10
9.7591417304
 20
18.9225353784
 10
9.8408000561
 20
18.9746279495
 10
9.92774718
 20
19.0245361598
 10
9.9561438394
 20
19.0397567873
  0
LWPOLYLINE
  5
2B7
100
AcDbEntity
  8
RACCORDO
100
AcDbPolyline
 62
250
  6
CONTINUOUS
 90
43
 70
0
 10
9.8074652646
 20
18.8862073085
 10
9.8803175679
 20
18.9366215352
 10
9.9577799978
 20
18.9848760134
 10
10.0398525543
 20
19.0309707432
 10
10.1267747926
 20
19.0750142811
 10
10.2183071574
 20
19.1168980706
 10
10.313730983
 20
19.1562964421
 10
10.4130764967
 20
19.1931903129
 10
10.5163134713
 20
19.2275987658
 10
10.6226325582
 20
19.2592533788
 10
10.7320523582
 20
19.2881315268
 10
10.8445542705
 20
19.3142558349
 10
10.9592731454
 20
19.3374257579
 10
11.0762236254
 20
19.3576193707
 10
11.1953910678
 20
19.3748585983
 10
11.3158663946
 20
19.3890086704
 10
11.4376792325
 20
19.4000463566
 10
11.5607999548
 20
19.4079948873
 10
11.6842306025
 20
19.4127891833
 10
11.8079829629
 20
19.4143993232
 10
11.9320452488
 20
19.4128552284
 10
12.0553841394
 20
19.4081815841
 10
12.1779239326
 20
19.400361293
 10
12.2997403305
 20
19.3894114523
 10
12.4200271185
 20
19.3754080392
 10
12.538754927
 20
19.3583494112
 10
12.6559531256
 20
19.3382372106
 10
12.7709036085
 20
19.3151523413
 10
12.8838215788
 20
19.2890030943
 10
12.9944918334
 20
19.2598811785
 10
13.1015506575
 20
19.2281426248
 10
13.2051208694
 20
19.1935924491
 10
13.3050796508
 20
19.1564256355
 10
13.3996948321
 20
19.117583167
 10
13.4886310303
 20
19.077001725
 10
13.5722236285
 20
19.0347446281
 10
13.6497466062
 20
18.9919428155
 10
13.7208089152
 20
18.9487001121
 10
13.7858016037
 20
18.904912693
 10
13.8451717958
 20
18.8614000234
 10
13.8987738549
 20
18.8182617278
 10
13.9467534176
 20
18.7753981816
 10
13.9880273607
 20
18.7352437749
  0
LINE
  5
2B8
100
AcDbEntity
  8
0
100
AcDbLine
 62
7
  6
CONTINUOUS
 10
11.8547378278
 20
18.7735405138
 11
11.5496812228
 21
18.5682962278
  0
LWPOLYLINE
  5
2B9
100
AcDbEntity
  8
RACCORDO
100
AcDbPolyline
 62
250
  6
CONTINUOUS
 90
22
 70
0
 10
-5.4675618637
 20
9.4836922157
 10
-5.5431123781
 20
9.4331241645
 10
-5.6176584318
 20
9.3765822468
 10
-5.6908276213
 20
9.3143560092
 10
-5.7622556985
 20
9.2467689706
 10
-5.8315851832
 20
9.1741614192
 10
-5.8984661432
 20
9.0968864674
 10
-5.9625718664
 20
9.0153251242
 10
-6.0235727792
 20
8.929901349
 10
-6.0811369098
 20
8.8410659706
 10
-6.1349671791
 20
8.7492912944
 10
-6.18481024
 20
8.655026737
 10
-6.230425924
 20
8.5587106853
 10
-6.271592231
 20
8.4608087827
 10
-6.3080914342
 20
8.3618384163
 10
-6.3397223681
 20
8.2623260782
 10
-6.3663241059
 20
8.1627915749
 10
-6.3877719235
 20
8.0637244274
 10
-6.4039579581
 20
7.9656064407
 10
-6.4147993806
 20
7.8689283866
 10
-6.4202418694
 20
7.774187048
 10
-6.4202574849
 20
7.6818627377
  0
LWPOLYLINE
  5
2BA
100
AcDbEntity
  8
RACCORDO
100
AcDbPolyline
 62
250
  6
CONTINUOUS
 90
22
 70
0
 10
-4.8527596757
 20
8.5353392369
 10
-4.8886235423
 20
8.511885108
 10
-4.9237224666
 20
8.4858924566
 10
-4.9580564486
 20
8.4573612827
 10
-4.9918066364
 20
8.4261133911
 10
-5.024791882
 20
8.392326977
 10
-5.0564687403
 20
8.3565366261
 10
-5.0868045243
 20
8.3187175171
 10
-5.1158319211
 20
8.2788944714
 10
-5.1431055469
 20
8.2376765382
 10
-5.1685943551
 20
8.1950496794
 10
-5.1923293923
 20
8.1510279331
 10
-5.2139584144
 20
8.106262464
 10
-5.2334536778
 20
8.0607315458
 10
-5.2508429261
 20
8.0144569048
 10
-5.2658571465
 20
7.9681548837
 10
-5.278456353
 20
7.921815996
 10
-5.2886805315
 20
7.8754497281
 10
-5.2963806278
 20
7.8298008826
 10
-5.3015069568
 20
7.7851177267
 10
-5.3041092036
 20
7.7411519931
 10
-5.3041873679
 20
7.6979036817
  0
LINE
  5
2BB
100
AcDbEntity
  8
RACCORDO
100
AcDbLine
 62
250
  6
CONTINUOUS
 10
-1.3413927755
 20
12.0018161625
 11
-5.4675618637
 21
9.4836922157
  0
LINE
  5
2BC
100
AcDbEntity
  8
RACCORDO
100
AcDbLine
 62
250
  6
CONTINUOUS
 10
-0.716523732
 20
11.0596067977
 11
-4.8527596757
 21
8.5353392369
  0
LINE
  5
2BD
100
AcDbEntity
  8
RACCORDO
100
AcDbLine
 62
250
  6
CONTINUOUS
 10
3.7487545087
 20
13.98274881
 11
1.9809875557
 21
13.0799711106
  0
LINE
  5
2BE
100
AcDbEntity
  8
218
100
AcDbLine
 62
250
  6
CONTINUOUS
 10
18.6438840358
 20
19.4051237957
 11
4.4558612899
 21
12.1869276768
  0
LINE
  5
2BF
100
AcDbEntity
  8
RACCORDO
100
AcDbLine
 62
250
  6
CONTINUOUS
 10
0.1700497772
 20
11.5042880882
 11
-0.7157105003
 21
11.0579927803
  0
LINE
  5
2C0
100
AcDbEntity
  8
RACCORDO
100
AcDbLine
 62
250
  6
CONTINUOUS
 10
0.7885353378
 20
10.2402970032
 11
-0.581179594
 21
9.5501584152
  0
LINE
  5
2C1
100
AcDbEntity
  8
RACCORDO
100
AcDbLine
 62
250
  6
CONTINUOUS
 10
4.4558612899
 20
14.3287445114
 11
3.7487545087
 21
13.98274881
  0
LINE
  5
2C2
100
AcDbEntity
  8
218
100
AcDbLine
 62
250
  6
CONTINUOUS
 10
10.4362044524
 20
16.4648991976
 11
18.0081378501
 21
20.1429589362
  0
LINE
  5
2C3
100
AcDbEntity
  8
218
100
AcDbLine
 62
250
  6
CONTINUOUS
 10
10.7738727862
 20
15.8825074706
 11
18.5080616977
 21
19.6393826769
  0
LINE
  5
2C4
100
AcDbEntity
  8
218
100
AcDbLine
 62
7
  6
CONTINUOUS
 10
17.4757399922
 20
20.4091578651
 11
13.9123091556
 21
18.6989031173
  0
LWPOLYLINE
  5
2C5
100
AcDbEntity
  8
RACCORDO
100
AcDbPolyline
 62
250
  6
CONTINUOUS
 90
16
 70
0
 10
-5.3041873679
 20
7.6979036817
 10
-5.3667154956
 20
7.6685579548
 10
-5.4344165862
 20
7.642617001
 10
-5.5065733334
 20
7.6203556698
 10
-5.5824212222
 20
7.6020098245
 10
-5.6611566295
 20
7.5877738428
 10
-5.7419453381
 20
7.5777985577
 10
-5.8239313758
 20
7.5721896594
 10
-5.9062460844
 20
7.5710065753
 10
-5.9880173235
 20
7.5742618403
 10
-6.0683787108
 20
7.5819209642
 10
-6.1464788015
 20
7.5939027972
 10
-6.22149011
 20
7.6100803895
 10
-6.2926178766
 20
7.6302823364
 10
-6.3591084887
 20
7.6542945942
 10
-6.4202574652
 20
7.6818627484
  0
LINE
  5
2C6
100
AcDbEntity
  8
RACCORDO
100
AcDbLine
 62
7
  6
CONTINUOUS
 10
-7.8267153824
 20
20.6364693318
 11
-7.8267153824
 21
19.4217358316
  0
LINE
  5
2C7
100
AcDbEntity
  8
RACCORDO
100
AcDbLine
 62
250
  6
CONTINUOUS
 10
-7.7388474167
 20
20.5299606017
 11
-7.7388474167
 21
19.3150057356
  0
LINE
  5
2C8
100
AcDbEntity
  8
0
100
AcDbLine
 62
7
  6
CONTINUOUS
 10
-7.5649539903
 20
17.8285463783
 11
-7.5649539903
 21
16.8695270078
  0
LINE
  5
2C9
100
AcDbEntity
  8
DRAFT
100
AcDbLine
 62
7
  6
CONTINUOUS
 10
-5.7630180627
 20
14.6127020666
 11
-5.8306873542
 21
14.2464634519
  0
LINE
  5
2CA
100
AcDbEntity
  8
RACCORDO
100
AcDbLine
 62
7
  6
CONTINUOUS
 10
3.9749646141
 20
15.8548156491
 11
3.4477198983
 21
15.213107921
  0
LWPOLYLINE
  5
2CB
100
AcDbEntity
  8
218
100
AcDbPolyline
 62
250
  6
CONTINUOUS
 90
30
 70
0
 10
19.0580345115
 20
17.9734902211
 10
19.07669565
 20
17.9834164501
 10
19.0948087449
 20
17.9935932764
 10
19.1123603454
 20
18.0040131401
 10
19.1293374176
 20
18.0146683046
 10
19.1457273541
 20
18.0255508516
 10
19.1615179838
 20
18.0366526882
 10
19.1766975804
 20
18.0479655677
 10
19.1912548714
 20
18.059481087
 10
19.2051790466
 20
18.0711906831
 10
19.2184597658
 20
18.0830856582
 10
19.2310871666
 20
18.0951571769
 10
19.2430518718
 20
18.1073962636
 10
19.2543449965
 20
18.1197938274
 10
19.2649581542
 20
18.1323406597
 10
19.2748834636
 20
18.1450274328
 10
19.2841135541
 20
18.1578447229
 10
19.2926415713
 20
18.1707830101
 10
19.3004611824
 20
18.1838326767
 10
19.3075665804
 20
18.1969840293
 10
19.3139524888
 20
18.2102273002
 10
19.3196141654
 20
18.2235526465
 10
19.3245474059
 20
18.2369501703
 10
19.3287485467
 20
18.250409921
 10
19.3322144681
 20
18.2639218967
 10
19.3349425963
 20
18.2774760608
 10
19.3369309053
 20
18.2910623463
 10
19.3381779186
 20
18.304670659
 10
19.3386827102
 20
18.3182908904
 10
19.3386947108
 20
18.3207273898
  0
LINE
  5
2CC
100
AcDbEntity
  8
218
100
AcDbLine
 62
250
  6
CONTINUOUS
 10
19.0580345115
 20
17.9734902211
 11
4.4558612899
 21
10.5445938933
  0
LWPOLYLINE
  5
2CD
100
AcDbEntity
  8
RACCORDO
100
AcDbPolyline
 62
250
  6
CONTINUOUS
 90
22
 70
0
 10
-2.296273042
 20
-25.8483693864
 10
-2.2888515883
 20
-25.8870855432
 10
-2.2790418221
 20
-25.9235793733
 10
-2.2668437432
 20
-25.9578508768
 10
-2.2521699004
 20
-25.9900681738
 10
-2.2351077451
 20
-26.0200631441
 10
-2.2159196308
 20
-26.0473314277
 10
-2.1945735671
 20
-26.0718165806
 10
-2.1711015446
 20
-26.0935750467
 10
-2.1458618886
 20
-26.1122717975
 10
-2.1188322296
 20
-26.1278575273
 10
-2.0900349371
 20
-26.1403815417
 10
-2.0598954448
 20
-26.149656729
 10
-2.0283860669
 20
-26.1556348194
 10
-1.9955344893
 20
-26.1583640827
 10
-1.9618492034
 20
-26.1578022163
 10
-1.9273085205
 20
-26.1538896365
 10
-1.8919341293
 20
-26.1466859271
 10
-1.8562995882
 20
-26.1363275366
 10
-1.8205960832
 20
-26.122859948
 10
-1.7846324282
 20
-26.1062376782
 10
-1.7484086233
 20
-26.0864607274
  0
LWPOLYLINE
  5
2CE
100
AcDbEntity
  8
RACCORDO
100
AcDbPolyline
 62
250
  6
CONTINUOUS
 90
11
 70
0
 10
-3.4043006073
 20
-25.9541062477
 10
-3.3885961554
 20
-26.0367614651
 10
-3.3676218113
 20
-26.1152519509
 10
-3.3414837506
 20
-26.1891816945
 10
-3.3103137501
 20
-26.2581758117
 10
-3.2742694723
 20
-26.3218895724
 10
-3.2335314671
 20
-26.3800076081
 10
-3.1882954074
 20
-26.4322424966
 10
-3.1387928041
 20
-26.4783209971
 10
-3.0852928312
 20
-26.5179962286
 10
-3.0272429198
 20
-26.5514857675
  0
LWPOLYLINE
  5
2CF
100
AcDbEntity
  8
RACCORDO
100
AcDbPolyline
 62
250
  6
CONTINUOUS
 90
4
 70
0
 10
-4.5337588577
 20
-17.7754696285
 10
-4.1849569728
 20
-20.5199349783
 10
-3.8084548799
 20
-23.2462640476
 10
-3.4043006073
 20
-25.9541062477
  0
LWPOLYLINE
  5
2D0
100
AcDbEntity
  8
RACCORDO
100
AcDbPolyline
 62
250
  6
CONTINUOUS
 90
4
 70
0
 10
-5.4135351013
 20
-9.436797197
 10
-5.1480875257
 20
-12.2335442244
 10
-4.8548161122
 20
-15.0132209318
 10
-4.5337588577
 20
-17.7754696285
  0
LWPOLYLINE
  5
2D1
100
AcDbEntity
  8
RACCORDO
100
AcDbPolyline
 62
250
  6
CONTINUOUS
 90
7
 70
0
 10
-4.3001830946
 20
-9.3750970403
 10
-4.0354480421
 20
-12.1642730546
 10
-3.7429296087
 20
-14.93678545
 10
-3.4227415194
 20
-17.6915588214
 10
-3.0749216827
 20
-20.4282347004
 10
-2.6994321903
 20
-23.1471715554
 10
-2.296273042
 20
-25.8483693864
  0
LWPOLYLINE
  5
2D2
100
AcDbEntity
  8
RACCORDO
100
AcDbPolyline
 62
250
  6
CONTINUOUS
 90
7
 70
0
 10
-6.4202574849
 20
7.6818627377
 10
-6.3223453292
 20
4.7903242149
 10
-6.1964575543
 20
1.9136653462
 10
-6.0426107736
 20
-0.9477435287
 10
-5.8608252462
 20
-3.7935339737
 10
-5.6511244552
 20
-6.6233398172
 10
-5.4135351013
 20
-9.436797197
  0
LWPOLYLINE
  5
2D3
100
AcDbEntity
  8
RACCORDO
100
AcDbPolyline
 62
250
  6
CONTINUOUS
 90
7
 70
0
 10
-5.3041873679
 20
7.6979036817
 10
-5.2065138835
 20
4.813478
 10
-5.0809761747
 20
1.9446225429
 10
-4.9275742413
 20
-0.9086626897
 10
-4.7462811357
 20
-3.7467421625
 10
-4.5371238056
 20
-6.5692514108
 10
-4.3001830946
 20
-9.3750970403
  0
LINE
  5
2D4
100
AcDbEntity
  8
ASSI
100
AcDbLine
 62
7
  6
CONTINUOUS
 10
-6.4689384794
 20
16.9336578433
 11
-6.4689384794
 21
17.2805386229
  0
LWPOLYLINE
  5
2D5
100
AcDbEntity
  8
218
100
AcDbPolyline
 62
250
  6
CONTINUOUS
 90
56
 70
0
 10
19.1755841926
 20
12.5309866252
 10
19.182688778
 20
12.5335374771
 10
19.189867534
 20
12.5358573255
 10
19.197119462
 20
12.5379475689
 10
19.2044412974
 20
12.5398255666
 10
19.2118339509
 20
12.5414771187
 10
19.2193022192
 20
12.5428568349
 10
19.2268562407
 20
12.5439692809
 10
19.2344819517
 20
12.5448148612
 10
19.2421470505
 20
12.5453428578
 10
19.2498513045
 20
12.5455528263
 10
19.2575892438
 20
12.545452119
 10
19.2653199387
 20
12.5450025319
 10
19.2730318638
 20
12.5442057685
 10
19.2807290803
 20
12.5430689254
 10
19.2883931936
 20
12.5415627966
 10
19.2960113207
 20
12.5396963879
 10
19.3035867638
 20
12.5374719098
 10
19.3111239965
 20
12.5348515927
 10
19.3186175454
 20
12.5318481374
 10
19.3260600049
 20
12.5284640406
 10
19.3334506642
 20
12.5246489355
 10
19.340786714
 20
12.5204156508
 10
19.3480535059
 20
12.5157722477
 10
19.3552296265
 20
12.5106647232
 10
19.362308688
 20
12.5051078778
 10
19.3692742121
 20
12.4991147892
 10
19.3760863414
 20
12.4926328799
 10
19.3827335966
 20
12.485683177
 10
19.3891985626
 20
12.4782807795
 10
19.3954286102
 20
12.4703690377
 10
19.4014067146
 20
12.4619843873
 10
19.407113988
 20
12.4531367641
 10
19.412489012
 20
12.4437374597
 10
19.4175158576
 20
12.4338392924
 10
19.4221633592
 20
12.4234525529
 10
19.4263366224
 20
12.4124387055
 10
19.430025176
 20
12.4008183078
 10
19.4331721473
 20
12.3886646578
 10
19.4356044021
 20
12.3759301988
 10
19.4372820985
 20
12.3625808954
 10
19.4381665114
 20
12.3487665951
 10
19.4381004591
 20
12.3346965408
 10
19.4370351383
 20
12.3204080896
 10
19.4349752717
 20
12.3059387597
 10
19.4318738157
 20
12.2914562419
 10
19.4276847008
 20
12.2769360692
 10
19.4224346124
 20
12.2624464027
 10
19.4162191275
 20
12.2482442349
 10
19.4090678644
 20
12.2343784337
 10
19.4009768577
 20
12.2207755284
 10
19.3920129537
 20
12.2074754238
 10
19.3821859634
 20
12.1944630495
 10
19.3715102639
 20
12.1817285974
 10
19.3600635673
 20
12.1693130044
 10
19.3478682395
 20
12.1572083359
  0
LINE
  5
2D6
100
AcDbEntity
  8
ASSI
100
AcDbLine
 62
7
  6
CONTINUOUS
 10
0.844312631
 20
-6.3478846311
 11
1.0617487402
 21
-6.4566026858
  0
LINE
  5
2D7
100
AcDbEntity
  8
RACCORDO
100
AcDbLine
 62
7
  6
CONTINUOUS
 10
-5.33658905
 20
13.9994142998
 11
-5.4114014746
 21
14.8337725129
  0
LWPOLYLINE
  5
2D8
100
AcDbEntity
  8
RACCORDO
100
AcDbPolyline
 62
250
  6
CONTINUOUS
 90
9
 70
0
 10
-1.7484086233
 20
-26.0864607274
 10
-1.7457714827
 20
-26.1540969032
 10
-1.7491957676
 20
-26.217793921
 10
-1.7586439717
 20
-26.2768541055
 10
-1.7740126085
 20
-26.3306305692
 10
-1.7951333451
 20
-26.378534297
 10
-1.8217748454
 20
-26.4200405982
 10
-1.8536453045
 20
-26.4546948532
 10
-1.8930250306
 20
-26.4836898133
  0
LINE
  5
2D9
100
AcDbEntity
  8
0
100
AcDbLine
 62
7
  6
CONTINUOUS
 10
-2.615206522
 20
15.3536726441
 11
-2.615206522
 21
14.3946532737
  0
LINE
  5
2DA
100
AcDbEntity
  8
DRAFT
100
AcDbLine
 62
7
  6
CONTINUOUS
 10
-2.615206522
 20
14.3946532737
 11
-2.751677741
 21
12.9651518473
  0
LWPOLYLINE
  5
2DB
100
AcDbEntity
  8
RACCORDO
100
AcDbPolyline
 62
7
  6
CONTINUOUS
 90
13
 70
0
 10
9.2288802497
 20
-18.8863395681
 10
9.2259890846
 20
-18.8824463771
 10
9.2223003205
 20
-18.8780640369
 10
9.2178403566
 20
-18.8733067441
 10
9.2126474983
 20
-18.8681668894
 10
9.2067648411
 20
-18.8626195307
 10
9.2002043069
 20
-18.8567519321
 10
9.1929974037
 20
-18.8505546241
 10
9.185180258
 20
-18.8440094995
 10
9.1767563186
 20
-18.8371886234
 10
9.1677434272
 20
-18.8301065986
 10
9.1581815819
 20
-18.8227229553
 10
9.1481018247
 20
-18.8150264006
  0
LWPOLYLINE
  5
2DC
100
AcDbEntity
  8
RACCORDO
100
AcDbPolyline
 62
250
  6
CONTINUOUS
 90
16
 70
0
 10
-4.8527596757
 20
8.5353392369
 10
-4.8624817189
 20
8.6055416999
 10
-4.8781297181
 20
8.6781736452
 10
-4.8995323138
 20
8.7524395585
 10
-4.926455117
 20
8.8275260248
 10
-4.9586032721
 20
8.9026106293
 10
-4.9956246846
 20
8.976870965
 10
-5.0371138851
 20
9.0494936583
 10
-5.0826164609
 20
9.1196832584
 10
-5.1316340253
 20
9.1866709443
 10
-5.1836297008
 20
9.2497229829
 10
-5.2380339823
 20
9.3081487381
 10
-5.2942509583
 20
9.3613082242
 10
-5.3516648722
 20
9.408619155
 10
-5.4096468692
 20
9.4495633154
 10
-5.4675618618
 20
9.4836922169
  0
LINE
  5
2DD
100
AcDbEntity
  8
RACCORDO
100
AcDbLine
 62
7
  6
CONTINUOUS
 10
2.3952270376
 20
-23.6447197641
 11
-0.716523732
 21
11.0596067977
  0
LINE
  5
2DE
100
AcDbEntity
  8
RACCORDO
100
AcDbLine
 62
250
  6
CONTINUOUS
 10
-1.9463383487
 20
16.4187512016
 11
-1.9463383487
 21
17.6337060677
  0
LINE
  5
2DF
100
AcDbEntity
  8
DRAFT
100
AcDbLine
 62
7
  6
CONTINUOUS
 10
-1.5899016892
 20
20.5953154599
 11
-1.5899016892
 21
21.9219958953
  0
LINE
  5
2E0
100
AcDbEntity
  8
RACCORDO
100
AcDbLine
 62
250
  6
CONTINUOUS
 10
-1.5233119971
 20
16.4203900491
 11
-1.5233119971
 21
17.634593522
  0
LINE
  5
2E1
100
AcDbEntity
  8
DRAFT
100
AcDbLine
 62
7
  6
CONTINUOUS
 10
-1.2363482987
 20
21.1926610107
 11
-1.2363482987
 21
21.7452192
  0
LINE
  5
2E2
100
AcDbEntity
  8
RACCORDO
100
AcDbLine
 62
250
  6
CONTINUOUS
 10
-1.1656376205
 20
23.3614274976
 11
-1.1656376205
 21
22.1295933162
  0
LINE
  5
2E3
100
AcDbEntity
  8
RACCORDO
100
AcDbLine
 62
7
  6
CONTINUOUS
 10
-1.0777696549
 20
23.4664247112
 11
-1.0777696549
 21
22.2340561054
  0
LINE
  5
2E4
100
AcDbEntity
  8
DRAFT
100
AcDbLine
 62
7
  6
CONTINUOUS
 10
-1.0242162643
 20
17.8847901951
 11
-1.0242162643
 21
16.6723546298
  0
LINE
  5
2E5
100
AcDbEntity
  8
RACCORDO
100
AcDbLine
 62
7
  6
CONTINUOUS
 10
-0.0239822034
 20
-25.8976718619
 11
-0.0239822034
 21
-25.6443004681
  0
LINE
  5
2E6
100
AcDbEntity
  8
RACCORDO
100
AcDbLine
 62
7
  6
CONTINUOUS
 10
-0.0239822034
 20
15.6553036713
 11
-0.0239822034
 21
15.908675065
  0
LINE
  5
2E7
100
AcDbEntity
  8
RACCORDO
100
AcDbLine
 62
7
  6
CONTINUOUS
 10
0.043817121
 20
2.5797768834
 11
0.7885353378
 21
10.2402970032
  0
LINE
  5
2E8
100
AcDbEntity
  8
0
100
AcDbLine
 62
7
  6
CONTINUOUS
 10
11.8547378278
 20
18.7735405138
 11
12.1975039488
 21
19.2431471447
  0
LINE
  5
2E9
100
AcDbEntity
  8
0
100
AcDbLine
 62
7
  6
CONTINUOUS
 10
12.5123152969
 20
18.6535489807
 11
12.855081418
 21
19.1231556115
  0
LWPOLYLINE
  5
2EA
100
AcDbEntity
  8
218
100
AcDbPolyline
 62
7
  6
CONTINUOUS
 90
16
 70
0
 10
19.1755845816
 20
2.1993041136
 10
19.1666233665
 20
2.1975368661
 10
19.1578012592
 20
2.1961834671
 10
19.1491182598
 20
2.1952439164
 10
19.1405638944
 20
2.1947197713
 10
19.1321486369
 20
2.1946094745
 10
19.1239039088
 20
2.1949083549
 10
19.1158335348
 20
2.1956232128
 10
19.1079336902
 20
2.1967472479
 10
19.1002243217
 20
2.1982553877
 10
19.0927110966
 20
2.2001533092
 10
19.0853883477
 20
2.2024353356
 10
19.0782590202
 20
2.2050593642
 10
19.0713240959
 20
2.2080113608
 10
19.064582593
 20
2.2113053597
 10
19.0580345115
 20
2.2149413609
  0
LINE
  5
2EB
100
AcDbEntity
  8
ASSI
100
AcDbLine
 62
7
  6
CONTINUOUS
 10
1.0617487402
 20
-6.4566026858
 11
2.7941603541
 21
-22.8707635932
  0
LWPOLYLINE
  5
2EC
100
AcDbEntity
  8
RACCORDO
100
AcDbPolyline
 62
7
  6
CONTINUOUS
 90
24
 70
0
 10
1.521368148
 20
22.236101744
 10
1.5207949635
 20
22.2705741502
 10
1.5190958506
 20
22.3043240712
 10
1.516270809
 20
22.3373515069
 10
1.5123103744
 20
22.3697130643
 10
1.5072240113
 20
22.4013521365
 10
1.501040113
 20
22.4320989031
 10
1.4937574975
 20
22.4619344305
 10
1.4853773469
 20
22.4908776523
 10
1.4759315996
 20
22.5188155482
 10
1.4654077411
 20
22.545761711
 10
1.4538182861
 20
22.571702548
 10
1.4412327173
 20
22.5964842609
 10
1.4276575314
 20
22.6200815623
 10
1.4130862319
 20
22.6425197396
 10
1.3975688119
 20
22.6637208568
 10
1.3810855245
 20
22.6836979467
 10
1.3636561166
 20
22.7024379766
 10
1.345389822
 20
22.7198239121
 10
1.3263011661
 20
22.7358328385
 10
1.3063756234
 20
22.7504876705
 10
1.2856788509
 20
22.7637401189
 10
1.2641863363
 20
22.7755959802
 10
-1.9648482809
 20
24.390137166
  0
LWPOLYLINE
  5
2ED
100
AcDbEntity
  8
218
100
AcDbPolyline
 62
7
  6
CONTINUOUS
 90
4
 70
0
 10
1.4230185774
 20
22.7603546845
 10
1.4231473237
 20
22.7470497249
 10
1.4243338132
 20
22.7178339053
 10
1.4264631939
 20
22.6922277032
  0
LINE
  5
2EE
100
AcDbEntity
  8
DRAFT
100
AcDbLine
 62
7
  6
CONTINUOUS
 10
0.6790107509
 20
14.7487444166
 11
0.6790107509
 21
15.2010753922
  0
LINE
  5
2EF
100
AcDbEntity
  8
RACCORDO
100
AcDbLine
 62
7
  6
CONTINUOUS
 10
1.521368148
 20
22.236101744
 11
1.521368148
 21
21.9653014514
  0
LINE
  5
2F0
100
AcDbEntity
  8
RACCORDO
100
AcDbLine
 62
7
  6
CONTINUOUS
 10
1.5817942588
 20
15.1057868339
 11
1.5817942588
 21
14.8524154402
  0
LINE
  5
2F1
100
AcDbEntity
  8
RACCORDO
100
AcDbLine
 62
7
  6
CONTINUOUS
 10
1.5817942588
 20
-26.4471886992
 11
1.5817942588
 21
-26.700560093
  0
LINE
  5
2F2
100
AcDbEntity
  8
RACCORDO
100
AcDbLine
 62
7
  6
CONTINUOUS
 10
1.9809875557
 20
13.0799711106
 11
1.9809875557
 21
13.0555756053
  0
LINE
  5
2F3
100
AcDbEntity
  8
RACCORDO
100
AcDbLine
 62
7
  6
CONTINUOUS
 10
1.9809875557
 20
-25.0495421612
 11
1.9809875557
 21
-25.0739376665
  0
LINE
  5
2F4
100
AcDbEntity
  8
218
100
AcDbLine
 62
250
  6
CONTINUOUS
 10
2.2115798423
 20
23.31388588
 11
2.2115798423
 21
23.7241049229
  0
LINE
  5
2F5
100
AcDbEntity
  8
DRAFT
100
AcDbLine
 62
7
  6
CONTINUOUS
 10
2.2930148669
 20
-25.4706922221
 11
2.2930148669
 21
-25.066070131
  0
LINE
  5
2F6
100
AcDbEntity
  8
DRAFT
100
AcDbLine
 62
7
  6
CONTINUOUS
 10
2.2930148669
 20
13.9417423586
 11
2.2930148669
 21
14.5789119173
  0
LINE
  5
2F7
100
AcDbEntity
  8
ASSI
100
AcDbLine
 62
7
  6
CONTINUOUS
 10
2.7941603541
 20
11.6899698356
 11
1.0617487402
 21
-6.4566026858
  0
LINE
  5
2F8
100
AcDbEntity
  8
RACCORDO
100
AcDbLine
 62
7
  6
CONTINUOUS
 10
0.4883923291
 20
-1.596257923
 11
0.4520674021
 21
-1.973303399
  0
LWPOLYLINE
  5
2F9
100
AcDbEntity
  8
218
100
AcDbPolyline
 62
7
  6
CONTINUOUS
 90
136
 70
0
 10
19.1755841926
 20
12.5309866252
 10
19.2349810684
 20
12.579714793
 10
19.2924983134
 20
12.627225874
 10
19.3481359275
 20
12.6735198682
 10
19.4018388255
 20
12.7185622208
 10
19.4536620926
 20
12.7623874867
 10
19.5037709847
 20
12.8050993303
 10
19.5521727479
 20
12.8467026789
 10
19.598860136
 20
12.8871926053
 10
19.6439766672
 20
12.9266579928
 10
19.6875265473
 20
12.9651013658
 10
19.7295055704
 20
13.0025202
 10
19.7700446369
 20
13.0389958056
 10
19.8091476676
 20
13.0745305599
 10
19.8468107416
 20
13.1091220857
 10
19.8831529971
 20
13.1428445617
 10
19.9181780939
 20
13.1757002468
 10
19.9518823721
 20
13.2076868822
 10
19.9843739899
 20
13.2388718691
 10
20.0156562916
 20
13.2692573026
 10
20.0457259329
 20
13.2988410878
 10
20.0746810392
 20
13.3276843412
 10
20.1025246891
 20
13.3557890477
 10
20.129253804
 20
13.3831532226
 10
20.154957274
 20
13.4098320281
 10
20.1796379452
 20
13.4358273917
 10
20.2032929714
 20
13.461137386
 10
20.2260027052
 20
13.4858113905
 10
20.2477697564
 20
13.5098513076
 10
20.2685915151
 20
13.5332552349
 10
20.2885405034
 20
13.5560668454
 10
20.3076190853
 20
13.5782880612
 10
20.3258248968
 20
13.5999169601
 10
20.3432233684
 20
13.6209914481
 10
20.3598165777
 20
13.6415135079
 10
20.3756024471
 20
13.6614811569
 10
20.3906401732
 20
13.6809263525
 10
20.4049314604
 20
13.6998511518
 10
20.4184746044
 20
13.7182534977
 10
20.4313236885
 20
13.7361591764
 10
20.4434799229
 20
13.753570314
 10
20.4549420975
 20
13.7704847845
 10
20.4657606649
 20
13.7869219957
 10
20.475936078
 20
13.8028838826
 10
20.4854678839
 20
13.8183685103
 10
20.494405177
 20
13.8333894822
 10
20.502747695
 20
13.8479486791
 10
20.5104957003
 20
13.8620442202
 10
20.5176990742
 20
13.8756840656
 10
20.5243563854
 20
13.8888689214
 10
20.5304690652
 20
13.9015980816
 10
20.5360912892
 20
13.9138773881
 10
20.5412184273
 20
13.925697699
 10
20.5458551096
 20
13.9370681561
 10
20.5500694016
 20
13.9480220266
 10
20.5538593621
 20
13.958545879
 10
20.5572269323
 20
13.9686531447
 10
20.5602460011
 20
13.9784173846
 10
20.5629218754
 20
13.9878363195
 10
20.5652492483
 20
13.9969122284
 10
20.5672860881
 20
14.0057255094
 10
20.569039794
 20
14.0142811584
 10
20.5705029667
 20
14.0225741793
 10
20.571711377
 20
14.030669982
 10
20.5726713109
 20
14.0385728161
 10
20.5733764824
 20
14.046278432
 10
20.5738438037
 20
14.0538394906
 10
20.5740789354
 20
14.0612591639
 10
20.5740762169
 20
14.0685342799
 10
20.5738355788
 20
14.0757079837
 10
20.5733626712
 20
14.0827830068
 10
20.5726518438
 20
14.0897566177
 10
20.5716860768
 20
14.0966637668
 10
20.5704716916
 20
14.1035065858
 10
20.5690023666
 20
14.110282943
 10
20.567242117
 20
14.117021393
 10
20.5651986021
 20
14.1237242776
 10
20.5628641626
 20
14.130389255
 10
20.5601798356
 20
14.137037854
 10
20.5571508008
 20
14.1436784674
 10
20.5537718784
 20
14.1503027025
 10
20.5499685669
 20
14.1569069099
 10
20.5457384493
 20
14.1635028808
 10
20.5410839425
 20
14.170078824
 10
20.5359377962
 20
14.1765957169
 10
20.5302956073
 20
14.1830573001
 10
20.5241617787
 20
14.189459833
 10
20.5174822689
 20
14.1957530715
 10
20.5102557986
 20
14.2019347303
 10
20.502483647
 20
14.2080070948
 10
20.4941156096
 20
14.2139267764
 10
20.4851512831
 20
14.2196917501
 10
20.4755910708
 20
14.2253040408
 10
20.4653859783
 20
14.230726335
 10
20.4545365187
 20
14.2359571296
 10
20.443042179
 20
14.2409979277
 10
20.4308524249
 20
14.2458159243
 10
20.4179684614
 20
14.2504102577
 10
20.4043890835
 20
14.2547817896
 10
20.3900601424
 20
14.2589003002
 10
20.374983353
 20
14.2627655006
 10
20.3591570005
 20
14.2663776798
 10
20.3425217904
 20
14.2697074843
 10
20.3250798109
 20
14.2727550876
 10
20.3068289739
 20
14.2755203163
 10
20.2877037213
 20
14.2779732966
 10
20.2677064073
 20
14.2801145594
 10
20.2468346777
 20
14.2819435739
 10
20.2250159118
 20
14.2834288733
 10
20.2022527873
 20
14.284571262
 10
20.1785426265
 20
14.2853699358
 10
20.1538047769
 20
14.285791015
 10
20.1280418597
 20
14.2858355143
 10
20.1012512536
 20
14.285502419
 10
20.0733444418
 20
14.2847548059
 10
20.0443254118
 20
14.2835939497
 10
20.0141901762
 20
14.2820185756
 10
19.9828382563
 20
14.2799879359
 10
19.950271007
 20
14.2775032256
 10
19.9164870733
 20
14.2745632496
 10
19.881381912
 20
14.2711236752
 10
19.844950624
 20
14.2671845498
 10
19.8071981084
 20
14.262745826
 10
19.7680345186
 20
14.2577630289
 10
19.7274686092
 20
14.2522378316
 10
19.6854916256
 20
14.2461685609
 10
19.6419874582
 20
14.2395057231
 10
19.5969710107
 20
14.2322530308
 10
19.5504273793
 20
14.2244067712
 10
19.5021957432
 20
14.2159063121
 10
19.4522762761
 20
14.2067532766
 10
19.4006688043
 20
14.1969460416
 10
19.347211986
 20
14.1864191048
 10
19.2918520404
 20
14.1751506325
 10
19.2346427482
 20
14.1631624584
 10
19.1755841095
 20
14.1504545828
  0
LINE
  5
2FA
100
AcDbEntity
  8
218
100
AcDbLine
 62
7
  6
CONTINUOUS
 10
19.3386947111
 20
12.1411183987
 11
20.2538714977
 21
12.7330470175
  0
LINE
  5
2FB
100
AcDbEntity
  8
RACCORDO
100
AcDbLine
 62
250
  6
CONTINUOUS
 10
0.4883923291
 20
-1.596257923
 11
0.4212191775
 21
-1.6292633591
  0
LWPOLYLINE
  5
2FC
100
AcDbEntity
  8
RACCORDO
100
AcDbPolyline
 62
7
  6
CONTINUOUS
 90
31
 70
0
 10
3.7487545087
 20
13.98274881
 10
3.7484148412
 20
13.9987818421
 10
3.7473984037
 20
14.0151104113
 10
3.7457076704
 20
14.0316896145
 10
3.7433466659
 20
14.0484737142
 10
3.7403218542
 20
14.0654167082
 10
3.7366421218
 20
14.0824724565
 10
3.7323172687
 20
14.0995940752
 10
3.7273588389
 20
14.116734486
 10
3.7217809883
 20
14.1338469908
 10
3.7155987441
 20
14.1508845606
 10
3.7088287538
 20
14.1678003528
 10
3.7014900954
 20
14.1845482603
 10
3.6936026534
 20
14.2010822675
 10
3.6851877695
 20
14.2173569202
 10
3.6762689744
 20
14.2333278385
 10
3.6668705207
 20
14.2489511526
 10
3.6570179189
 20
14.2641839165
 10
3.6467385735
 20
14.2789845708
 10
3.6360605081
 20
14.293312472
 10
3.6250127743
 20
14.3071282401
 10
3.6136259751
 20
14.3203941601
 10
3.6019312153
 20
14.3330738162
 10
3.5899603721
 20
14.345132364
 10
3.5777464932
 20
14.3565368628
 10
3.5653229987
 20
14.367256021
 10
3.5527238064
 20
14.3772603883
 10
3.539983594
 20
14.3865226097
 10
3.5271372979
 20
14.395017301
 10
3.5142200175
 20
14.4027211186
 10
3.5012671353
 20
14.40961293
  0
LINE
  5
2FD
100
AcDbEntity
  8
ASSI
100
AcDbLine
 62
7
  6
CONTINUOUS
 10
2.7941603541
 20
13.3398772732
 11
2.7941603541
 21
11.6899698356
  0
LINE
  5
2FE
100
AcDbEntity
  8
ASSI
100
AcDbLine
 62
7
  6
CONTINUOUS
 10
2.7941603541
 20
-22.8707635932
 11
2.7941603541
 21
-24.5206710308
  0
LINE
  5
2FF
100
AcDbEntity
  8
218
100
AcDbLine
 62
7
  6
CONTINUOUS
 10
2.8942900402
 20
23.6563439722
 11
2.8942900402
 21
23.2233312703
  0
LINE
  5
300
100
AcDbEntity
  8
RACCORDO
100
AcDbLine
 62
7
  6
CONTINUOUS
 10
3.3598457791
 20
-24.5440571628
 11
3.3598457791
 21
-26.049665289
  0
LINE
  5
301
100
AcDbEntity
  8
RACCORDO
100
AcDbLine
 62
7
  6
CONTINUOUS
 10
3.3598457791
 20
14.4803236081
 11
3.3598457791
 21
16.2123744157
  0
LINE
  5
302
100
AcDbEntity
  8
0
100
AcDbLine
 62
7
  6
CONTINUOUS
 10
3.7203323964
 20
22.2815572043
 11
3.7203323964
 21
21.9797150225
  0
LINE
  5
303
100
AcDbEntity
  8
RACCORDO
100
AcDbLine
 62
7
  6
CONTINUOUS
 10
4.0628387333
 20
16.3476959134
 11
4.0628387333
 21
16.0867669371
  0
LINE
  5
304
100
AcDbEntity
  8
RACCORDO
100
AcDbLine
 62
7
  6
CONTINUOUS
 10
4.0628387333
 20
-25.2128372023
 11
4.0628387333
 21
-25.4737661787
  0
LINE
  5
305
100
AcDbEntity
  8
0
100
AcDbLine
 62
7
  6
CONTINUOUS
 10
4.1700770578
 20
22.1598093711
 11
4.1700770578
 21
21.9611752703
  0
LINE
  5
306
100
AcDbEntity
  8
218
100
AcDbLine
 62
7
  6
CONTINUOUS
 10
4.3497952727
 20
23.5969214063
 11
4.3497952727
 21
23.0108985391
  0
LINE
  5
307
100
AcDbEntity
  8
RACCORDO
100
AcDbLine
 62
250
  6
CONTINUOUS
 10
4.3900564309
 20
20.5848058055
 11
4.3900564309
 21
19.3529672271
  0
LINE
  5
308
100
AcDbEntity
  8
218
100
AcDbLine
 62
7
  6
CONTINUOUS
 10
4.4558612899
 20
10.5445938933
 11
4.4558612899
 21
-20.0636867151
  0
LINE
  5
309
100
AcDbEntity
  8
RACCORDO
100
AcDbLine
 62
7
  6
CONTINUOUS
 10
4.4558612899
 20
-23.8478373333
 11
4.4558612899
 21
14.3287445114
  0
LINE
  5
30A
100
AcDbEntity
  8
RACCORDO
100
AcDbLine
 62
7
  6
CONTINUOUS
 10
4.4766938593
 20
20.6891929541
 11
4.4766938593
 21
19.4568243483
  0
LWPOLYLINE
  5
30B
100
AcDbEntity
  8
RACCORDO
100
AcDbPolyline
 62
7
  6
CONTINUOUS
 90
18
 70
0
 10
3.7487545087
 20
-24.2089484131
 10
3.7484158642
 20
-24.2246422891
 10
3.7473992208
 20
-24.2399543179
 10
3.7457076704
 20
-24.2548423792
 10
3.7433464532
 20
-24.269265368
 10
3.7403220417
 20
-24.2831837504
 10
3.7366421218
 20
-24.2965596726
 10
3.732317058
 20
-24.3093563328
 10
3.7273590083
 20
-24.3215385039
 10
3.7217809883
 20
-24.3330730733
 10
3.7155985404
 20
-24.3439282972
 10
3.708828901
 20
-24.3540742744
 10
3.7014900954
 20
-24.3634834501
 10
3.6936024619
 20
-24.3721299194
 10
3.6851878909
 20
-24.3799898447
 10
3.6762689744
 20
-24.3870419072
 10
3.666870346
 20
-24.3932666802
 10
3.6587857152
 20
-24.3977609545
  0
LINE
  5
30C
100
AcDbEntity
  8
218
100
AcDbLine
 62
250
  6
CONTINUOUS
 10
19.3478682395
 20
12.1572083359
 11
19.3386947111
 21
12.1488284317
  0
LWPOLYLINE
  5
30D
100
AcDbEntity
  8
218
100
AcDbPolyline
 62
250
  6
CONTINUOUS
 90
57
 70
0
 10
19.0580345115
 20
12.3936232475
 10
19.0638964309
 20
12.3988641845
 10
19.0697305927
 20
12.403880004
 10
19.0755359109
 20
12.4086707938
 10
19.0813055435
 20
12.4132379548
 10
19.0870442424
 20
12.4175801934
 10
19.0927678029
 20
12.4216937677
 10
19.0984766442
 20
12.4255823631
 10
19.1041670211
 20
12.4292428682
 10
19.1098476242
 20
12.4326616936
 10
19.1155181317
 20
12.435840929
 10
19.1211747206
 20
12.4387792766
 10
19.1268202815
 20
12.4414582575
 10
19.1324509368
 20
12.4438780447
 10
19.1380659377
 20
12.4460392961
 10
19.1436722869
 20
12.4479244437
 10
19.1492556863
 20
12.4495350769
 10
19.1548251074
 20
12.450870527
 10
19.1604202809
 20
12.4519105754
 10
19.1660312774
 20
12.4526658972
 10
19.171658538
 20
12.453127949
 10
19.1773528303
 20
12.4532491474
 10
19.1831242685
 20
12.4530362676
 10
19.1889461012
 20
12.4524865412
 10
19.1948107424
 20
12.4515389234
 10
19.2007132292
 20
12.4501897866
 10
19.2066404385
 20
12.448446488
 10
19.2125726921
 20
12.4462642322
 10
19.2184999207
 20
12.4436382771
 10
19.2244138765
 20
12.440576378
 10
19.2302983439
 20
12.4370520819
 10
19.2361353161
 20
12.4330693941
 10
19.2419243346
 20
12.4286265618
 10
19.2476740331
 20
12.4236886366
 10
19.2533678814
 20
12.4182634802
 10
19.2589988996
 20
12.4123457689
 10
19.2645848445
 20
12.4058816789
 10
19.2701109109
 20
12.3988730232
 10
19.2755592553
 20
12.3913212014
 10
19.2809362024
 20
12.3831727826
 10
19.2862224363
 20
12.3744252894
 10
19.2913949293
 20
12.3650844238
 10
19.296447725
 20
12.3551096873
 10
19.3013547693
 20
12.344498749
 10
19.3060898678
 20
12.3332563329
 10
19.3106397283
 20
12.3213528835
 10
19.3149697124
 20
12.3087926475
 10
19.3190506082
 20
12.2955721377
 10
19.3228666621
 20
12.2816505154
 10
19.3263714295
 20
12.2670457149
 10
19.329529418
 20
12.2517381452
 10
19.3323201238
 20
12.2356311682
 10
19.3346862626
 20
12.2186957191
 10
19.3365634366
 20
12.2009555143
 10
19.3378936425
 20
12.182392577
 10
19.3386028161
 20
12.1628358914
 10
19.3386947108
 20
12.1527966643
  0
LINE
  5
30E
100
AcDbEntity
  8
RACCORDO
100
AcDbLine
 62
250
  6
CONTINUOUS
 10
-6.4202574849
 20
7.6818627377
 11
-20.7489909927
 21
14.8462294916
  0
LINE
  5
30F
100
AcDbEntity
  8
218
100
AcDbLine
 62
7
  6
CONTINUOUS
 10
6.4340166068
 20
25.7588921201
 11
6.4340166068
 21
25.4319260724
  0
LWPOLYLINE
  5
310
100
AcDbEntity
  8
218
100
AcDbPolyline
 62
250
  6
CONTINUOUS
 90
56
 70
0
 10
19.1755845517
 20
0.5798363464
 10
19.1826507822
 20
0.5823718754
 10
19.1897805856
 20
0.5846782433
 10
19.1969730003
 20
0.5867567928
 10
19.2042085147
 20
0.5886225993
 10
19.2115044093
 20
0.5902635704
 10
19.218914346
 20
0.5916410027
 10
19.2264632432
 20
0.5927668713
 10
19.23412211
 20
0.5936344159
 10
19.2418626923
 20
0.594178097
 10
19.2496998816
 20
0.5943961084
 10
19.2576124486
 20
0.5942980106
 10
19.2655171392
 20
0.5938361529
 10
19.2733939986
 20
0.5930076714
 10
19.2812550176
 20
0.5918248124
 10
19.2890642881
 20
0.5902631138
 10
19.2968001426
 20
0.5883326425
 10
19.3044744929
 20
0.5860347072
 10
19.3121004876
 20
0.5833332161
 10
19.3196719484
 20
0.5802435515
 10
19.3271818268
 20
0.5767659268
 10
19.3346393765
 20
0.5728445912
 10
19.3420516545
 20
0.5684856837
 10
19.3493930241
 20
0.5637053273
 10
19.3566210545
 20
0.5584659017
 10
19.3637262947
 20
0.5527785124
 10
19.3706954774
 20
0.5466597642
 10
19.3774785499
 20
0.5400825797
 10
19.38405329
 20
0.5330800013
 10
19.3904156109
 20
0.5256519511
 10
19.3965388634
 20
0.5177264527
 10
19.4024096038
 20
0.5093455136
 10
19.408006339
 20
0.5005123505
 10
19.4132820708
 20
0.491107403
 10
19.4182284402
 20
0.4811723755
 10
19.4228040245
 20
0.4707322698
 10
19.4269006589
 20
0.4596576612
 10
19.4305054777
 20
0.4479591848
 10
19.4335622567
 20
0.4357226251
 10
19.4358921198
 20
0.4229392226
 10
19.4374530673
 20
0.4095952246
 10
19.4382133387
 20
0.3958138731
 10
19.4380239004
 20
0.3817726058
 10
19.4368347216
 20
0.367489907
 10
19.4346500911
 20
0.3530246835
 10
19.4314320915
 20
0.3385733651
 10
19.4271389413
 20
0.3241211566
 10
19.4217974613
 20
0.3097199174
 10
19.4155071623
 20
0.2956147951
 10
19.4083008382
 20
0.281854457
 10
19.4001726003
 20
0.2683633524
 10
19.3911834809
 20
0.2551699327
 10
19.3813410237
 20
0.2422563673
 10
19.3706610875
 20
0.2296165609
 10
19.3592202844
 20
0.2172911767
 10
19.3470399936
 20
0.2052719344
  0
LINE
  5
311
100
AcDbEntity
  8
RACCORDO
100
AcDbLine
 62
250
  6
CONTINUOUS
 10
-5.4675618637
 20
9.4836922157
 11
-19.8219318802
 21
16.6608772239
  0
LWPOLYLINE
  5
312
100
AcDbEntity
  8
RACCORDO
100
AcDbPolyline
 62
7
  6
CONTINUOUS
 90
4
 70
0
 10
9.2322998835
 20
-18.8944391565
 10
9.2320653573
 20
-18.8926511617
 10
9.2309245813
 20
-18.889718936
 10
9.2288802497
 20
-18.8863395681
  0
LWPOLYLINE
  5
313
100
AcDbEntity
  8
218
100
AcDbPolyline
 62
7
  6
CONTINUOUS
 90
4
 70
0
 10
8.8476397799
 20
19.0480440833
 10
8.8477685261
 20
19.0347391236
 10
8.8489550156
 20
19.0055233041
 10
8.8510843962
 20
18.9799171041
  0
LINE
  5
314
100
AcDbEntity
  8
RACCORDO
100
AcDbLine
 62
7
  6
CONTINUOUS
 10
9.2322533923
 20
18.6227828719
 11
9.2322998835
 21
18.6168052174
  0
LINE
  5
315
100
AcDbEntity
  8
RACCORDO
100
AcDbLine
 62
250
  6
CONTINUOUS
 10
9.1481018247
 20
18.328969028
 11
9.1481018247
 21
18.1167098739
  0
LINE
  5
316
100
AcDbEntity
  8
RACCORDO
100
AcDbLine
 62
250
  6
CONTINUOUS
 10
9.1481018247
 20
-18.6475368024
 11
9.1481018247
 21
-18.8150264006
  0
LINE
  5
317
100
AcDbEntity
  8
RACCORDO
100
AcDbLine
 62
7
  6
CONTINUOUS
 10
9.2322998846
 20
18.6168225731
 11
9.2322998846
 21
18.0404310907
  0
LINE
  5
318
100
AcDbEntity
  8
RACCORDO
100
AcDbLine
 62
7
  6
CONTINUOUS
 10
9.2322998846
 20
-18.603306722
 11
9.2322998846
 21
-18.8944824346
  0
LWPOLYLINE
  5
319
100
AcDbEntity
  8
RACCORDO
100
AcDbPolyline
 62
7
  6
CONTINUOUS
 90
16
 70
0
 10
9.2322998835
 20
18.6168052174
 10
9.2320653573
 20
18.6031312255
 10
9.2309245813
 20
18.5833660343
 10
9.2288802497
 20
18.5635123837
 10
9.2259890846
 20
18.5435765998
 10
9.2223003205
 20
18.5235943635
 10
9.2178403566
 20
18.5036325419
 10
9.2126474983
 20
18.4837118243
 10
9.2067648411
 20
18.4638440729
 10
9.2002043069
 20
18.4440838467
 10
9.1929974037
 20
18.4244467801
 10
9.185180258
 20
18.4049448155
 10
9.1767563186
 20
18.3856292166
 10
9.1677434272
 20
18.3665264901
 10
9.1581815819
 20
18.3476359963
 10
9.1481018247
 20
18.328969028
  0
LINE
  5
31A
100
AcDbEntity
  8
0
100
AcDbLine
 62
7
  6
CONTINUOUS
 10
12.0448539429
 20
18.2606010718
 11
12.1975039488
 21
19.2431471447
  0
LWPOLYLINE
  5
31B
100
AcDbEntity
  8
RACCORDO
100
AcDbPolyline
 62
7
  6
CONTINUOUS
 90
5
 70
0
 10
9.2322998846
 20
18.0404233836
 10
9.2322872161
 20
18.0407706396
 10
9.2319928129
 20
18.0422884283
 10
9.231317478
 20
18.0440050926
 10
9.230273385
 20
18.0459247964
  0
LWPOLYLINE
  5
31C
100
AcDbEntity
  8
RACCORDO
100
AcDbPolyline
 62
7
  6
CONTINUOUS
 90
7
 70
0
 10
9.2322533923
 20
18.6227828719
 10
9.2321617843
 20
18.6270906731
 10
9.2320226135
 20
18.6314020038
 10
9.2318358801
 20
18.6357168638
 10
9.231601584
 20
18.6400352531
 10
9.2313197252
 20
18.6443571718
 10
9.2309903037
 20
18.6486826199
  0
LINE
  5
31D
100
AcDbEntity
  8
218
100
AcDbLine
 62
250
  6
CONTINUOUS
 10
9.6362010447
 20
19.6015752788
 11
9.6362010447
 21
20.0117943217
  0
LINE
  5
31E
100
AcDbEntity
  8
218
100
AcDbLine
 62
7
  6
CONTINUOUS
 10
10.3189112426
 20
19.944033371
 11
10.3189112426
 21
19.5110206691
  0
LINE
  5
31F
100
AcDbEntity
  8
0
100
AcDbLine
 62
7
  6
CONTINUOUS
 10
11.5496812228
 20
18.5682962278
 11
11.5496812228
 21
18.2494276659
  0
LINE
  5
320
100
AcDbEntity
  8
RACCORDO
100
AcDbLine
 62
7
  6
CONTINUOUS
 10
9.2322533923
 20
-18.8951613305
 11
9.2322998835
 21
-18.8944391565
  0
LINE
  5
321
100
AcDbEntity
  8
0
100
AcDbLine
 62
7
  6
CONTINUOUS
 10
12.4812619478
 20
18.3983059155
 11
12.5123152969
 21
18.6535489807
  0
LWPOLYLINE
  5
322
100
AcDbEntity
  8
218
100
AcDbPolyline
 62
7
  6
CONTINUOUS
 90
16
 70
0
 10
19.0580345115
 20
12.3936230253
 10
19.0645825815
 20
12.4040397599
 10
19.0713240703
 20
12.4143147792
 10
19.0782589778
 20
12.4244480834
 10
19.0853882854
 20
12.4344547209
 10
19.0927110118
 20
12.4443196432
 10
19.1002242127
 20
12.4539977049
 10
19.1079335556
 20
12.4634890995
 10
19.1158333732
 20
12.4727936335
 10
19.1239037184
 20
12.4818655803
 10
19.1321484161
 20
12.4907020999
 10
19.1405636416
 20
12.4993060324
 10
19.1491179741
 20
12.5076401718
 10
19.1578009399
 20
12.5156921161
 10
19.1666230128
 20
12.5234742672
 10
19.1755841926
 20
12.5309866252
  0
LWPOLYLINE
  5
323
100
AcDbEntity
  8
218
100
AcDbPolyline
 62
250
  6
CONTINUOUS
 90
105
 70
0
 10
20.253871498
 20
0.7818964455
 10
20.2588789207
 20
0.7851541948
 10
20.2902732857
 20
0.8064645141
 10
20.321029412
 20
0.8288892685
 10
20.3511338978
 20
0.8524186867
 10
20.3805736151
 20
0.8770425117
 10
20.4093356893
 20
0.902749979
 10
20.4374075337
 20
0.9295298384
 10
20.4647768741
 20
0.9573703764
 10
20.4914317796
 20
0.9862594523
 10
20.5173606384
 20
1.0161844809
 10
20.5425521445
 20
1.0471324188
 10
20.5669952792
 20
1.0790897342
 10
20.5906793443
 20
1.11204244
 10
20.6135939839
 20
1.1459761226
 10
20.6357292102
 20
1.1808759856
 10
20.6570753805
 20
1.2167268257
 10
20.6776231862
 20
1.253513015
 10
20.6973636396
 20
1.2912184688
 10
20.7162881016
 20
1.3298266863
 10
20.734388299
 20
1.3693207827
 10
20.7516563418
 20
1.4096835359
 10
20.7680847058
 20
1.4508973588
 10
20.7836662253
 20
1.492944281
 10
20.7983940858
 20
1.5358059205
 10
20.8122618443
 20
1.5794635265
 10
20.82526344
 20
1.6238980124
 10
20.8373932041
 20
1.6690899971
 10
20.848645849
 20
1.7150197799
 10
20.8590164645
 20
1.7616673266
 10
20.8685005166
 20
1.8090122497
 10
20.8770938585
 20
1.8570338492
 10
20.8847927362
 20
1.9057111398
 10
20.8915937917
 20
1.9550228822
 10
20.8974940584
 20
2.0049475653
 10
20.9024909604
 20
2.0554634017
 10
20.9065823141
 20
2.1065483228
 10
20.9097663317
 20
2.1581800093
 10
20.912041623
 20
2.2103359104
 10
20.9134071951
 20
2.2629932581
 10
20.913862452
 20
2.3161290643
 10
20.913407195
 20
2.3697201275
 10
20.9120416227
 20
2.4237430474
 10
20.9097663313
 20
2.4781742397
 10
20.9065823136
 20
2.532989944
 10
20.9024909598
 20
2.5881662188
 10
20.8974940577
 20
2.6436789573
 10
20.8915937909
 20
2.6995039071
 10
20.8847927352
 20
2.755616705
 10
20.8770938574
 20
2.8119928733
 10
20.8685005154
 20
2.8686078148
 10
20.8590164632
 20
2.9254367901
 10
20.8486458475
 20
2.9824549523
 10
20.8373932026
 20
3.03963738
 10
20.8252634383
 20
3.0969591289
 10
20.8122618425
 20
3.1543952105
 10
20.7983940839
 20
3.211920575
 10
20.7836662233
 20
3.269510075
 10
20.7680847037
 20
3.3271385168
 10
20.7516563395
 20
3.3847807036
 10
20.7343882966
 20
3.4424114998
 10
20.7162880991
 20
3.5000057936
 10
20.697363637
 20
3.557538473
 10
20.6776231835
 20
3.6149843802
 10
20.6570753777
 20
3.6723183752
 10
20.6357292074
 20
3.7295153856
 10
20.6135939809
 20
3.786550475
 10
20.5906793412
 20
3.8433987972
 10
20.566995276
 20
3.900035568
 10
20.5425521413
 20
3.956436018
 10
20.517360635
 20
4.012575462
 10
20.4914317761
 20
4.0684293495
 10
20.4647768705
 20
4.1239733309
 10
20.43740753
 20
4.1791832093
 10
20.4093356855
 20
4.2340349131
 10
20.3805736112
 20
4.2885044545
 10
20.3511338939
 20
4.3425679967
 10
20.3210294081
 20
4.3962019006
 10
20.2902732815
 20
4.4493827815
 10
20.2588789164
 20
4.5020874658
 10
20.2268600017
 20
4.5542929691
 10
20.1942305351
 20
4.6059764654
 10
20.1610047904
 20
4.6571153458
 10
20.127197293
 20
4.7076872565
 10
20.0928227892
 20
4.7576701414
 10
20.0578962648
 20
4.8070422102
 10
20.0224329553
 20
4.8557819239
 10
19.9864483593
 20
4.9038679797
 10
19.949958209
 20
4.9512793543
 10
19.91297845
 20
4.9979953316
 10
19.8755252181
 20
5.0439955289
 10
19.8376148522
 20
5.0892598787
 10
19.7992638975
 20
5.1337686256
 10
19.7604891075
 20
5.1775023249
 10
19.7213074221
 20
5.2204418701
 10
19.681735954
 20
5.2625685078
 10
19.6417919781
 20
5.303863848
 10
19.6014929331
 20
5.3443098622
 10
19.5608564157
 20
5.3838888896
 10
19.5199001694
 20
5.4225836485
 10
19.4786420735
 20
5.4603772467
 10
19.4371001381
 20
5.4972531858
 10
19.3952925071
 20
5.5331953594
 10
19.3532374469
 20
5.5681880639
 10
19.3386947111
 20
5.5798912639
  0
LINE
  5
324
100
AcDbEntity
  8
218
100
AcDbLine
 62
7
  6
CONTINUOUS
 10
19.3386947111
 20
0.1899678265
 11
20.2538714977
 21
0.7818964453
  0
LWPOLYLINE
  5
325
100
AcDbEntity
  8
218
100
AcDbPolyline
 62
7
  6
CONTINUOUS
 90
16
 70
0
 10
19.1755841095
 20
14.1504545828
 10
19.1666229363
 20
14.148687374
 10
19.1578008701
 20
14.1473340067
 10
19.149117911
 20
14.1463944809
 10
19.1405635854
 20
14.1458703527
 10
19.132148367
 20
14.1457600661
 10
19.1239036759
 20
14.1460589526
 10
19.1158333369
 20
14.1467738128
 10
19.1079335253
 20
14.1478978462
 10
19.1002241879
 20
14.149405982
 10
19.0927109924
 20
14.1513038956
 10
19.0853882711
 20
14.1535859116
 10
19.0782589679
 20
14.1562099339
 10
19.0713240643
 20
14.1591619305
 10
19.0645825788
 20
14.1624559335
 10
19.0580345115
 20
14.1660919427
  0
LINE
  5
326
100
AcDbEntity
  8
RACCORDO
100
AcDbLine
 62
7
  6
CONTINUOUS
 10
-15.9076631747
 20
19.2849513621
 11
-1.3413927755
 21
12.0018161625
  0
LINE
  5
327
100
AcDbEntity
  8
RACCORDO
100
AcDbLine
 62
7
  6
CONTINUOUS
 10
-10.6231527275
 20
16.9008893405
 11
-10.0296566621
 21
16.6041413078
  0
LINE
  5
328
100
AcDbEntity
  8
RACCORDO
100
AcDbLine
 62
7
  6
CONTINUOUS
 10
-2.751677741
 20
12.9651518473
 11
0.1700497772
 21
11.5042880882
  0
LINE
  5
329
100
AcDbEntity
  8
0
100
AcDbLine
 62
7
  6
CONTINUOUS
 10
-10.0056587498
 20
16.7340224101
 11
-5.7630180627
 21
14.6127020666
  0
LINE
  5
32A
100
AcDbEntity
  8
0
100
AcDbLine
 62
7
  6
CONTINUOUS
 10
-9.6540421617
 20
16.9550928565
 11
-5.4114014746
 21
14.8337725129
  0
LINE
  5
32B
100
AcDbEntity
  8
ASSI
100
AcDbLine
 62
250
  6
CONTINUOUS
 10
-7.1637045457
 20
15.7203813062
 11
-2.7016341199
 21
13.4893460933
  0
LINE
  5
32C
100
AcDbEntity
  8
218
100
AcDbLine
 62
250
  6
CONTINUOUS
 10
1.8175939084
 20
24.7462607409
 11
2.2115798423
 21
23.7241049229
  0
LINE
  5
32D
100
AcDbEntity
  8
0
100
AcDbLine
 62
7
  6
CONTINUOUS
 10
3.2148628142
 20
22.0393172485
 11
3.0133634563
 21
22.6350416743
  0
LWPOLYLINE
  5
32E
100
AcDbEntity
  8
218
100
AcDbPolyline
 62
250
  6
CONTINUOUS
 90
25
 70
0
 10
12.5994821029
 20
-8.2881820223
 10
12.5994740389
 20
-8.2864932123
 10
12.5989525994
 20
-8.2741109372
 10
12.5975872758
 20
-8.2607722664
 10
12.5953362315
 20
-8.2464569903
 10
12.5921573274
 20
-8.2311575755
 10
12.5880099601
 20
-8.2148395312
 10
12.5828529526
 20
-8.1974739138
 10
12.5766466419
 20
-8.1790540377
 10
12.5693558072
 20
-8.1595769493
 10
12.5609370877
 20
-8.1389922431
 10
12.551359856
 20
-8.117306534
 10
12.5406195493
 20
-8.0946017555
 10
12.5286970818
 20
-8.070849352
 10
12.5155649881
 20
-8.046029524
 10
12.5012210771
 20
-8.0202378473
 10
12.4856423556
 20
-7.9934218744
 10
12.4688226205
 20
-7.9655810991
 10
12.4508008303
 20
-7.9368909619
 10
12.4315618724
 20
-7.9072904944
 10
12.4111214363
 20
-7.8767882531
 10
12.3895923466
 20
-7.8456711385
 10
12.3670341386
 20
-7.8140234104
 10
12.3434356852
 20
-7.7817207038
 10
12.3188219033
 20
-7.7487428343
  0
LINE
  5
32F
100
AcDbEntity
  8
218
100
AcDbLine
 62
7
  6
CONTINUOUS
 10
11.7744164752
 20
19.4407431171
 11
11.7744164752
 21
19.8846108051
  0
LINE
  5
330
100
AcDbEntity
  8
0
100
AcDbLine
 62
7
  6
CONTINUOUS
 10
11.8547378278
 20
18.2519378096
 11
11.8547378278
 21
18.7735405138
  0
LINE
  5
331
100
AcDbEntity
  8
218
100
AcDbLine
 62
250
  6
CONTINUOUS
 10
12.3188219033
 20
-15.9216557727
 11
12.3188219033
 21
-7.7487427918
  0
LINE
  5
332
100
AcDbEntity
  8
0
100
AcDbLine
 62
7
  6
CONTINUOUS
 10
12.4812619478
 20
18.3983059155
 11
12.4812619478
 21
18.3016019364
  0
LINE
  5
333
100
AcDbEntity
  8
218
100
AcDbLine
 62
7
  6
CONTINUOUS
 10
12.599482103
 20
-15.5743265874
 11
12.599482103
 21
-8.2881894089
  0
LINE
  5
334
100
AcDbEntity
  8
218
100
AcDbLine
 62
7
  6
CONTINUOUS
 10
13.8586378093
 20
22.0465815189
 11
13.8586378093
 21
21.7196154712
  0
LWPOLYLINE
  5
335
100
AcDbEntity
  8
218
100
AcDbPolyline
 62
7
  6
CONTINUOUS
 90
35
 70
0
 10
12.5994819573
 20
-8.2881915928
 10
12.5996639743
 20
-8.2749541974
 10
12.6002889366
 20
-8.2603192969
 10
12.6013818997
 20
-8.2454354369
 10
12.6029568269
 20
-8.2303992713
 10
12.6050296216
 20
-8.2152273874
 10
12.6076155435
 20
-8.1999390496
 10
12.6107117034
 20
-8.1846345603
 10
12.6143217314
 20
-8.1693435266
 10
12.6184535001
 20
-8.154073803
 10
12.6230971667
 20
-8.1388911647
 10
12.6282499685
 20
-8.1238214784
 10
12.6339134321
 20
-8.1088754961
 10
12.6400763592
 20
-8.0940943468
 10
12.6467343735
 20
-8.0794959688
 10
12.6538827961
 20
-8.0650975058
 10
12.6615047179
 20
-8.0509368554
 10
12.6695913253
 20
-8.0370313731
 10
12.6781346755
 20
-8.0233956175
 10
12.6871146614
 20
-8.010060863
 10
12.6965198302
 20
-7.9970415873
 10
12.7063387199
 20
-7.9843512235
 10
12.7165474898
 20
-7.9720168136
 10
12.7271322667
 20
-7.9600500901
 10
12.7380787952
 20
-7.9484623116
 10
12.74935938
 20
-7.9372767898
 10
12.7609590046
 20
-7.9265014384
 10
12.7728602838
 20
-7.916145631
 10
12.7850287794
 20
-7.9062311737
 10
12.7974471488
 20
-7.8967628824
 10
12.8100964582
 20
-7.8877461045
 10
12.8229367059
 20
-7.8791988891
 10
12.8359407871
 20
-7.8711270583
 10
12.84909626
 20
-7.8635263672
 10
12.8547423111
 20
-7.8604312589
  0
LWPOLYLINE
  5
336
100
AcDbEntity
  8
RACCORDO
100
AcDbPolyline
 62
7
  6
CONTINUOUS
 90
7
 70
0
 10
9.2322533923
 20
-18.8951613305
 10
9.2321617843
 20
-18.895646938
 10
9.2320226135
 20
-18.8961590857
 10
9.2318358801
 20
-18.8966977738
 10
9.231601584
 20
-18.8972630021
 10
9.2313197252
 20
-18.8978547707
 10
9.2309903037
 20
-18.8984730796
  0
LINE
  5
337
100
AcDbEntity
  8
218
100
AcDbLine
 62
250
  6
CONTINUOUS
 10
19.3470399936
 20
0.2052719344
 11
19.3386947111
 21
0.1976868716
  0
LWPOLYLINE
  5
338
100
AcDbEntity
  8
218
100
AcDbPolyline
 62
250
  6
CONTINUOUS
 90
57
 70
0
 10
19.0580345115
 20
0.4424726752
 10
19.0638460245
 20
0.4476707452
 10
19.0696368227
 20
0.4526513934
 10
19.0754056688
 20
0.4574147883
 10
19.0811463492
 20
0.4619636544
 10
19.0868626564
 20
0.4662955416
 10
19.0925679153
 20
0.4704030369
 10
19.0982624543
 20
0.4742894596
 10
19.1039424206
 20
0.4779521598
 10
19.1096141465
 20
0.481375057
 10
19.1152772638
 20
0.4845598066
 10
19.1209279285
 20
0.4875055789
 10
19.1265668556
 20
0.490192698
 10
19.132190739
 20
0.4926209301
 10
19.1377983245
 20
0.4947913202
 10
19.1433930361
 20
0.4966862133
 10
19.1489615695
 20
0.4983062497
 10
19.1545122518
 20
0.499651592
 10
19.1600791706
 20
0.5007044658
 10
19.1656462266
 20
0.5014752158
 10
19.1712211713
 20
0.5019552623
 10
19.1768690323
 20
0.5021000225
 10
19.1825916636
 20
0.5019231384
 10
19.1883706602
 20
0.5014149964
 10
19.1942350333
 20
0.5004978046
 10
19.2001949112
 20
0.4991681667
 10
19.2062167811
 20
0.4974348053
 10
19.2122631231
 20
0.4952382256
 10
19.2183273019
 20
0.4925649247
 10
19.224393921
 20
0.4894323314
 10
19.2304160768
 20
0.4858260716
 10
19.2363665759
 20
0.4817517387
 10
19.2422553645
 20
0.477205517
 10
19.2480919278
 20
0.4721584912
 10
19.2538572192
 20
0.4666225839
 10
19.2595477075
 20
0.4605880458
 10
19.2651899785
 20
0.4539945702
 10
19.2707716245
 20
0.4468413688
 10
19.2762710731
 20
0.4391325365
 10
19.2816933459
 20
0.4308162836
 10
19.2870272156
 20
0.421871574
 10
19.2922395167
 20
0.412322779
 10
19.2972996353
 20
0.4021862042
 10
19.3021740928
 20
0.3914821426
 10
19.3068529493
 20
0.3801911897
 10
19.3113360557
 20
0.368270133
 10
19.3155883344
 20
0.3557358898
 10
19.3195860455
 20
0.3425716942
 10
19.3233291773
 20
0.3286848937
 10
19.3267728267
 20
0.314079852
 10
19.329874714
 20
0.2987509977
 10
19.3326123505
 20
0.2825916929
 10
19.3349285713
 20
0.2655423116
 10
19.3367501382
 20
0.2476573098
 10
19.3380106513
 20
0.2290002638
 10
19.3386392335
 20
0.2094477248
 10
19.3386947108
 20
0.2016485554
  0
LWPOLYLINE
  5
339
100
AcDbEntity
  8
218
100
AcDbPolyline
 62
7
  6
CONTINUOUS
 90
136
 70
0
 10
19.1755845517
 20
0.5798363464
 10
19.2349814094
 20
0.6285645014
 10
19.292498637
 20
0.6760755701
 10
19.3481362345
 20
0.7223695525
 10
19.4018391167
 20
0.7674118938
 10
19.4536623688
 20
0.8112371489
 10
19.5037712465
 20
0.8539489822
 10
19.5521729958
 20
0.8955523207
 10
19.5988603707
 20
0.9360422374
 10
19.6439768892
 20
0.9755076157
 10
19.6875267572
 20
1.0139509798
 10
19.7295057687
 20
1.0513698054
 10
19.7700448242
 20
1.0878454027
 10
19.8091478442
 20
1.1233801491
 10
19.8468109082
 20
1.1579716672
 10
19.8831531539
 20
1.1916941358
 10
19.9181782415
 20
1.2245498139
 10
19.9518825109
 20
1.2565364424
 10
19.9843741203
 20
1.2877214228
 10
20.015656414
 20
1.3181068501
 10
20.0457260476
 20
1.3476906291
 10
20.0746811467
 20
1.3765338767
 10
20.1025247896
 20
1.4046385777
 10
20.1292538979
 20
1.4320027472
 10
20.1549573616
 20
1.4586815475
 10
20.1796380268
 20
1.4846769062
 10
20.2032930474
 20
1.5099868957
 10
20.2260027757
 20
1.5346608956
 10
20.2477698218
 20
1.5587008082
 10
20.2685915756
 20
1.5821047313
 10
20.2885405593
 20
1.6049163377
 10
20.3076191369
 20
1.6271375496
 10
20.3258249443
 20
1.6487664447
 10
20.3432234119
 20
1.6698409291
 10
20.3598166176
 20
1.6903629855
 10
20.3756024834
 20
1.7103306311
 10
20.3906402062
 20
1.7297758235
 10
20.4049314904
 20
1.7487006198
 10
20.4184746315
 20
1.7671029627
 10
20.4313237128
 20
1.7850086386
 10
20.4434799448
 20
1.8024197735
 10
20.454942117
 20
1.8193342414
 10
20.4657606822
 20
1.8357714501
 10
20.4759360932
 20
1.8517333346
 10
20.4854678972
 20
1.8672179601
 10
20.4944051886
 20
1.8822389297
 10
20.502747705
 20
1.8967981246
 10
20.5104957088
 20
1.9108936637
 10
20.5176990813
 20
1.9245335072
 10
20.5243563913
 20
1.9377183612
 10
20.5304690701
 20
1.9504475198
 10
20.5360912931
 20
1.9627268246
 10
20.5412184304
 20
1.974547134
 10
20.5458551119
 20
1.9859175897
 10
20.5500694032
 20
1.9968714588
 10
20.5538593632
 20
2.0073953101
 10
20.557226933
 20
2.0175025747
 10
20.5602460015
 20
2.0272668134
 10
20.5629218755
 20
2.0366857473
 10
20.5652492481
 20
2.0457616554
 10
20.5672860877
 20
2.0545749355
 10
20.5690397935
 20
2.0631305837
 10
20.5705029662
 20
2.0714236039
 10
20.5717113765
 20
2.0795194058
 10
20.5726713104
 20
2.0874222392
 10
20.573376482
 20
2.0951278544
 10
20.5738438034
 20
2.1026889123
 10
20.5740789353
 20
2.110108585
 10
20.5740762171
 20
2.1173837004
 10
20.5738355792
 20
2.1245574036
 10
20.5733626719
 20
2.1316324261
 10
20.5726518449
 20
2.1386060364
 10
20.5716860783
 20
2.1455131848
 10
20.5704716936
 20
2.1523560033
 10
20.5690023692
 20
2.1591323599
 10
20.5672421203
 20
2.1658708092
 10
20.5651986061
 20
2.1725736932
 10
20.5628641674
 20
2.17923867
 10
20.5601798414
 20
2.1858872684
 10
20.5571508076
 20
2.1925278811
 10
20.5537718864
 20
2.1991521155
 10
20.5499685763
 20
2.2057563223
 10
20.5457384601
 20
2.2123522925
 10
20.541083955
 20
2.2189282351
 10
20.5359378104
 20
2.2254451275
 10
20.5302956234
 20
2.2319067102
 10
20.524161797
 20
2.2383092427
 10
20.5174822893
 20
2.2446024808
 10
20.5102558215
 20
2.2507841394
 10
20.5024836725
 20
2.2568565037
 10
20.4941156378
 20
2.2627761851
 10
20.4851513142
 20
2.2685411587
 10
20.475591105
 20
2.2741534495
 10
20.4653860157
 20
2.2795757438
 10
20.4545365596
 20
2.2848065386
 10
20.4430422235
 20
2.2898473369
 10
20.4308524733
 20
2.2946653338
 10
20.4179685138
 20
2.2992596677
 10
20.4043891403
 20
2.3036312001
 10
20.3900602036
 20
2.3077497113
 10
20.3749834191
 20
2.3116149124
 10
20.3591570715
 20
2.3152270924
 10
20.3425218667
 20
2.3185568978
 10
20.3250798926
 20
2.3216045021
 10
20.3068290614
 20
2.3243697319
 10
20.2877038148
 20
2.3268227134
 10
20.2677065071
 20
2.3289639775
 10
20.2468347841
 20
2.3307929934
 10
20.2250160252
 20
2.3322782943
 10
20.2022529079
 20
2.3334206848
 10
20.1785427547
 20
2.3342193603
 10
20.153804913
 20
2.3346404415
 10
20.1280420041
 20
2.3346849428
 10
20.1012514067
 20
2.3343518498
 10
20.073344604
 20
2.3336042391
 10
20.0443255835
 20
2.3324433854
 10
20.0141903577
 20
2.330868014
 10
19.9828384481
 20
2.3288373772
 10
19.9502712096
 20
2.3263526699
 10
19.9164872873
 20
2.3234126972
 10
19.8813821378
 20
2.3199731262
 10
19.844950862
 20
2.3160340044
 10
19.8071983591
 20
2.3115952845
 10
19.7680347825
 20
2.3066124914
 10
19.7274688866
 20
2.3010872983
 10
19.6854919171
 20
2.2950180321
 10
19.6419877645
 20
2.2883551989
 10
19.5969713324
 20
2.2811025116
 10
19.5504277172
 20
2.2732562573
 10
19.502196098
 20
2.2647558037
 10
19.4522766484
 20
2.2556027739
 10
19.4006691949
 20
2.2457955449
 10
19.3472123957
 20
2.2352686146
 10
19.2918524701
 20
2.2240001489
 10
19.2346431987
 20
2.2120119819
 10
19.1755845816
 20
2.1993041136
  0
LWPOLYLINE
  5
33A
100
AcDbEntity
  8
218
100
AcDbPolyline
 62
250
  6
CONTINUOUS
 90
31
 70
0
 10
18.8203469854
 20
-4.6417588566
 10
18.8348871336
 20
-4.6330851862
 10
18.8490506211
 20
-4.6237528895
 10
18.862826696
 20
-4.6137690507
 10
18.8762049005
 20
-4.6031412483
 10
18.8891750788
 20
-4.5918775497
 10
18.9017273851
 20
-4.5799865051
 10
18.9138522904
 20
-4.5674771411
 10
18.9255405903
 20
-4.5543589534
 10
18.9367834121
 20
-4.5406418999
 10
18.9475722208
 20
-4.5263363935
 10
18.9578988264
 20
-4.5114532936
 10
18.9677553899
 20
-4.4960038978
 10
18.9771344287
 20
-4.479999934
 10
18.9860288229
 20
-4.463453551
 10
18.9944318207
 20
-4.4463773091
 10
19.002337043
 20
-4.4287841713
 10
19.0097384889
 20
-4.4106874926
 10
19.0166305397
 20
-4.3921010103
 10
19.0230079635
 20
-4.3730388337
 10
19.0288659191
 20
-4.3535154329
 10
19.0341999597
 20
-4.3335456284
 10
19.0390060358
 20
-4.3131445798
 10
19.0432804992
 20
-4.2923277738
 10
19.047020105
 20
-4.2711110124
 10
19.0502220144
 20
-4.2495104019
 10
19.052883797
 20
-4.2275423385
 10
19.0550034319
 20
-4.2052234992
 10
19.05657931
 20
-4.1825708287
 10
19.0576102352
 20
-4.1596015238
 10
19.058095425
 20
-4.13633302
  0
LWPOLYLINE
  5
33B
100
AcDbEntity
  8
218
100
AcDbPolyline
 62
7
  6
CONTINUOUS
 90
41
 70
0
 10
18.8135169899
 20
-4.6455354983
 10
18.8296371643
 20
-4.6366457994
 10
18.8528667616
 20
-4.6231408612
 10
18.8757406011
 20
-4.6090068242
 10
18.8982403299
 20
-4.5942533494
 10
18.9203449416
 20
-4.5788927972
 10
18.9420414008
 20
-4.562932806
 10
18.963323125
 20
-4.5463759073
 10
18.9841802821
 20
-4.5292262601
 10
19.0045884866
 20
-4.5115003623
 10
19.0245199039
 20
-4.4932201076
 10
19.0439521019
 20
-4.4744051428
 10
19.0628773969
 20
-4.4550619724
 10
19.0812905861
 20
-4.4351935707
 10
19.0991787819
 20
-4.4148103834
 10
19.1165246252
 20
-4.3939286357
 10
19.1333156661
 20
-4.3725596659
 10
19.1495381019
 20
-4.3507169805
 10
19.1651772315
 20
-4.3284161776
 10
19.1802195621
 20
-4.3056722007
 10
19.1946517565
 20
-4.282500734
 10
19.2084609396
 20
-4.2589177838
 10
19.2216348558
 20
-4.2349393661
 10
19.2341614991
 20
-4.2105821272
 10
19.2460290998
 20
-4.1858634852
 10
19.2572263897
 20
-4.1608011814
 10
19.2677429199
 20
-4.1354124766
 10
19.2775681042
 20
-4.1097164158
 10
19.2866913846
 20
-4.0837340291
 10
19.2951042303
 20
-4.0574826153
 10
19.3027974406
 20
-4.0309833173
 10
19.309761059
 20
-4.0042636532
 10
19.3159862742
 20
-3.9773528299
 10
19.3214692757
 20
-3.9502622239
 10
19.3262074735
 20
-3.9229928199
 10
19.3301966092
 20
-3.8955460174
 10
19.3334269076
 20
-3.8679616354
 10
19.3358898943
 20
-3.8402987468
 10
19.3375825729
 20
-3.8126029171
 10
19.3385061638
 20
-3.7848718058
 10
19.3386947111
 20
-3.7654523157
  0
LINE
  5
33C
100
AcDbEntity
  8
218
100
AcDbLine
 62
250
  6
CONTINUOUS
 10
19.0580345115
 20
-4.1127829808
 11
12.3188219033
 21
-7.7487427918
  0
LINE
  5
33D
100
AcDbEntity
  8
218
100
AcDbLine
 62
7
  6
CONTINUOUS
 10
18.8135185316
 20
-4.6455346666
 11
12.8547432452
 21
-7.8604306379
  0
LWPOLYLINE
  5
33E
100
AcDbEntity
  8
218
100
AcDbPolyline
 62
250
  6
CONTINUOUS
 90
29
 70
0
 10
19.0580345115
 20
-4.1127829808
 10
19.0766958268
 20
-4.1028535411
 10
19.0948090905
 20
-4.0926735403
 10
19.1123608508
 20
-4.0822505381
 10
19.1293380742
 20
-4.0715922742
 10
19.1457281519
 20
-4.0607066641
 10
19.1615189096
 20
-4.0496017932
 10
19.1766986202
 20
-4.0382859089
 10
19.1912560117
 20
-4.026767414
 10
19.2051802735
 20
-4.0150548624
 10
19.2184610651
 20
-4.003156952
 10
19.231088524
 20
-3.9910825186
 10
19.2430532725
 20
-3.9788405292
 10
19.2543464253
 20
-3.9664400751
 10
19.2649595962
 20
-3.9538903649
 10
19.2748849034
 20
-3.9412007186
 10
19.2841149764
 20
-3.9283805597
 10
19.2926429609
 20
-3.9154394088
 10
19.3004625237
 20
-3.9023868765
 10
19.3075678581
 20
-3.8892326559
 10
19.3139536876
 20
-3.8759865156
 10
19.31961527
 20
-3.8626582927
 10
19.3245484012
 20
-3.8492578851
 10
19.3287494179
 20
-3.8357952441
 10
19.3322152005
 20
-3.8222803678
 10
19.3349431754
 20
-3.8087232925
 10
19.3369313171
 20
-3.795134086
 10
19.3381781493
 20
-3.7815228402
 10
19.3386667584
 20
-3.7683313115
  0
LWPOLYLINE
  5
33F
100
AcDbEntity
  8
218
100
AcDbPolyline
 62
250
  6
CONTINUOUS
 90
28
 70
0
 10
12.854736349
 20
-7.8604343586
 10
12.8519711022
 20
-7.8616881795
 10
12.8475430044
 20
-7.8630376112
 10
12.8420804539
 20
-7.8640766937
 10
12.8355427952
 20
-7.8647780256
 10
12.8279043716
 20
-7.8651096742
 10
12.8190975034
 20
-7.865064716
 10
12.8090812669
 20
-7.8646213086
 10
12.7978251831
 20
-7.8637510907
 10
12.7852767201
 20
-7.8624408782
 10
12.7713881992
 20
-7.8606733414
 10
12.7561298017
 20
-7.8584242102
 10
12.7394756059
 20
-7.8556739209
 10
12.7213606559
 20
-7.8524106474
 10
12.7017679995
 20
-7.8486165742
 10
12.6807491664
 20
-7.8442734296
 10
12.6582657062
 20
-7.8393872516
 10
12.634284108
 20
-7.8339490427
 10
12.6088716688
 20
-7.8279302488
 10
12.5819709358
 20
-7.821339982
 10
12.5535720101
 20
-7.8141843371
 10
12.523823832
 20
-7.806442283
 10
12.4926669697
 20
-7.7981320234
 10
12.4601096928
 20
-7.7892753708
 10
12.4264240836
 20
-7.7798747274
 10
12.3917011981
 20
-7.769958044
 10
12.3558360549
 20
-7.7595686172
 10
12.3188219374
 20
-7.7487427734
  0
LINE
  5
340
100
AcDbEntity
  8
0
100
AcDbLine
 62
7
  6
CONTINUOUS
 10
-12.9743208663
 20
19.5742104459
 11
-7.5649539903
 21
16.8695270078
  0
LINE
  5
341
100
AcDbEntity
  8
0
100
AcDbLine
 62
7
  6
CONTINUOUS
 10
-2.615206522
 20
14.3946532737
 11
2.7941603541
 21
11.6899698356
  0
LINE
  5
342
100
AcDbEntity
  8
ASSI
100
AcDbLine
 62
250
  6
CONTINUOUS
 10
-6.4689384794
 20
16.9336578433
 11
-2.615206522
 21
15.0067918646
  0
LINE
  5
343
100
AcDbEntity
  8
ASSI
100
AcDbLine
 62
7
  6
CONTINUOUS
 10
-13.7874936647
 20
20.9398162155
 11
1.9809875557
 21
13.0555756053
  0
LINE
  5
344
100
AcDbEntity
  8
RACCORDO
100
AcDbLine
 62
7
  6
CONTINUOUS
 10
1.7335001823
 20
13.5068352305
 11
-13.5400062913
 21
21.1435884673
  0
LINE
  5
345
100
AcDbEntity
  8
DRAFT
100
AcDbLine
 62
7
  6
CONTINUOUS
 10
2.2930148669
 20
13.9417423586
 11
0.6790107509
 21
14.7487444166
  0
LINE
  5
346
100
AcDbEntity
  8
DRAFT
100
AcDbLine
 62
7
  6
CONTINUOUS
 10
-11.0713032975
 20
20.6239014408
 11
-12.6853074135
 21
21.4309034988
  0
LINE
  5
347
100
AcDbEntity
  8
RACCORDO
100
AcDbLine
 62
7
  6
CONTINUOUS
 10
-7.7388474167
 20
19.3150057356
 11
-1.9463383487
 21
16.4187512016
  0
LINE
  5
348
100
AcDbEntity
  8
RACCORDO
100
AcDbLine
 62
7
  6
CONTINUOUS
 10
-13.3237050749
 20
22.2024333052
 11
-11.7171726056
 21
21.3991670705
  0
LINE
  5
349
100
AcDbEntity
  8
RACCORDO
100
AcDbLine
 62
7
  6
CONTINUOUS
 10
0.0406130895
 20
15.5202742229
 11
1.6471455588
 21
14.7170079883
  0
LWPOLYLINE
  5
34A
100
AcDbEntity
  8
218
100
AcDbPolyline
 62
7
  6
CONTINUOUS
 90
16
 70
0
 10
19.0580345115
 20
0.4424724621
 10
19.0645825914
 20
0.4528891986
 10
19.0713240928
 20
0.4631642264
 10
19.0782590154
 20
0.4732975455
 10
19.0853883412
 20
0.4833042066
 10
19.0927110882
 20
0.4931691591
 10
19.1002243114
 20
0.5028472506
 10
19.1079336778
 20
0.5123386729
 10
19.1158335203
 20
0.5216432344
 10
19.123903892
 20
0.5307152071
 10
19.1321486179
 20
0.5395517515
 10
19.1405638731
 20
0.5481557073
 10
19.1491182362
 20
0.5564898655
 10
19.1578012334
 20
0.5645418233
 10
19.1666233386
 20
0.5723239836
 10
19.1755845517
 20
0.5798363464
  0
LINE
  5
34B
100
AcDbEntity
  8
RACCORDO
100
AcDbLine
 62
7
  6
CONTINUOUS
 10
0.0638919159
 20
-25.4123491801
 11
0.1942181677
 21
-25.2537295478
  0
LINE
  5
34C
100
AcDbEntity
  8
RACCORDO
100
AcDbLine
 62
7
  6
CONTINUOUS
 10
2.2930148669
 20
14.5789119173
 11
1.6706968348
 21
14.7088524998
  0
LINE
  5
34D
100
AcDbEntity
  8
RACCORDO
100
AcDbLine
 62
250
  6
CONTINUOUS
 10
-13.3883003678
 20
22.3374627535
 11
-11.7825239056
 21
21.5345745224
  0
LINE
  5
34E
100
AcDbEntity
  8
RACCORDO
100
AcDbLine
 62
250
  6
CONTINUOUS
 10
-0.0239822034
 20
15.6553036713
 11
1.5817942588
 21
14.8524154402
  0
LINE
  5
34F
100
AcDbEntity
  8
RACCORDO
100
AcDbLine
 62
250
  6
CONTINUOUS
 10
1.5817942588
 20
15.1057868339
 11
-0.0239822034
 21
15.908675065
  0
LINE
  5
350
100
AcDbEntity
  8
RACCORDO
100
AcDbLine
 62
250
  6
CONTINUOUS
 10
-11.7825239056
 20
21.7879459161
 11
-13.3883003678
 21
22.5908341472
  0
LINE
  5
351
100
AcDbEntity
  8
DRAFT
100
AcDbLine
 62
7
  6
CONTINUOUS
 10
-10.0044723854
 20
21.1624826903
 11
-7.8267153824
 21
20.0736041888
  0
LINE
  5
352
100
AcDbEntity
  8
DRAFT
100
AcDbLine
 62
7
  6
CONTINUOUS
 10
-1.0242162643
 20
16.6723546298
 11
0.0569056869
 21
16.1317936542
  0
LINE
  5
353
100
AcDbEntity
  8
RACCORDO
100
AcDbLine
 62
7
  6
CONTINUOUS
 10
3.3598457791
 20
14.4803236081
 11
3.5012671353
 21
14.40961293
  0
LINE
  5
354
100
AcDbEntity
  8
RACCORDO
100
AcDbLine
 62
250
  6
CONTINUOUS
 10
1.7585649882
 20
15.4096524122
 11
0.1507435792
 21
16.2135631167
  0
LINE
  5
355
100
AcDbEntity
  8
RACCORDO
100
AcDbLine
 62
250
  6
CONTINUOUS
 10
-11.6057531762
 20
22.0918114944
 11
-13.2135745853
 21
22.8957221989
  0
LINE
  5
356
100
AcDbEntity
  8
RACCORDO
100
AcDbLine
 62
7
  6
CONTINUOUS
 10
-7.7388474167
 20
20.5299606017
 11
-1.9463383487
 21
17.6337060677
  0
LINE
  5
357
100
AcDbEntity
  8
RACCORDO
100
AcDbLine
 62
7
  6
CONTINUOUS
 10
4.2083739165
 20
14.7556086314
 11
3.4086418927
 21
15.1554746433
  0
LINE
  5
358
100
AcDbEntity
  8
RACCORDO
100
AcDbLine
 62
7
  6
CONTINUOUS
 10
-8.4731982683
 20
21.0963947238
 11
-9.9556762718
 21
21.8376337255
  0
LINE
  5
359
100
AcDbEntity
  8
DRAFT
100
AcDbLine
 62
7
  6
CONTINUOUS
 10
-7.2467559387
 20
20.9960600323
 11
-1.0242162643
 21
17.8847901951
  0
LINE
  5
35A
100
AcDbEntity
  8
DRAFT
100
AcDbLine
 62
7
  6
CONTINUOUS
 10
-11.6308179821
 20
23.7077062962
 11
-10.0044723854
 21
22.8945334979
  0
LINE
  5
35B
100
AcDbEntity
  8
DRAFT
100
AcDbLine
 62
7
  6
CONTINUOUS
 10
1.7335001823
 20
17.025547214
 11
3.3598457791
 21
16.2123744157
  0
LINE
  5
35C
100
AcDbEntity
  8
DRAFT
100
AcDbLine
 62
7
  6
CONTINUOUS
 10
-5.9032530545
 20
21.0263769829
 11
-0.9535055862
 21
18.5515032488
  0
LWPOLYLINE
  5
35D
100
AcDbEntity
  8
218
100
AcDbPolyline
 62
7
  6
CONTINUOUS
 90
104
 70
0
 10
19.3386947111
 20
5.6701399021
 10
19.351416056
 20
5.6608850767
 10
19.3962376678
 20
5.6270167552
 10
19.4407215148
 20
5.592141843
 10
19.4848791748
 20
5.5562570555
 10
19.5287097519
 20
5.5193668643
 10
19.5721815043
 20
5.4815015307
 10
19.6152591249
 20
5.442696694
 10
19.6579220455
 20
5.4029766721
 10
19.7001597524
 20
5.3623568683
 10
19.7419522537
 20
5.320861939
 10
19.7832783797
 20
5.2785186689
 10
19.8241291334
 20
5.2353418848
 10
19.8645022552
 20
5.1913385082
 10
19.9043930789
 20
5.1465168258
 10
19.9437755514
 20
5.1009091491
 10
19.9826154767
 20
5.054559527
 10
20.0208843751
 20
5.0075080623
 10
20.0585830016
 20
4.9597598207
 10
20.0957207388
 20
4.9113066591
 10
20.1322964411
 20
4.8621515196
 10
20.1682816367
 20
4.8123339453
 10
20.203644588
 20
4.7619009053
 10
20.2383618757
 20
4.7108904632
 10
20.2724308987
 20
4.6593109885
 10
20.3058514706
 20
4.6071656237
 10
20.3386154422
 20
4.5544685145
 10
20.3707041398
 20
4.5012509585
 10
20.4021012767
 20
4.4475417153
 10
20.4327926209
 20
4.3933671187
 10
20.4627675545
 20
4.3387477384
 10
20.4920155882
 20
4.2837040591
 10
20.5205241921
 20
4.2282607522
 10
20.548282129
 20
4.1724405735
 10
20.5752808112
 20
4.1162611313
 10
20.6015094724
 20
4.0597445365
 10
20.6269559552
 20
4.0029164498
 10
20.6516096613
 20
3.9457997782
 10
20.6754601805
 20
3.8884174751
 10
20.6984963831
 20
3.8307948515
 10
20.7207070523
 20
3.7729583729
 10
20.742079518
 20
3.7149396788
 10
20.7626068686
 20
3.6567558264
 10
20.7822861922
 20
3.5984111761
 10
20.8011129715
 20
3.5399121154
 10
20.8190711479
 20
3.481300851
 10
20.8361415753
 20
3.4226352972
 10
20.852309446
 20
3.3639658439
 10
20.8675749028
 20
3.3052910209
 10
20.8819411748
 20
3.2465906913
 10
20.8954053657
 20
3.1878610756
 10
20.9079514362
 20
3.1291548725
 10
20.9195631784
 20
3.0705361688
 10
20.9302300839
 20
3.0120520576
 10
20.9399506297
 20
2.9537036768
 10
20.9487230142
 20
2.8954856265
 10
20.9565421478
 20
2.8374053813
 10
20.9633983733
 20
2.7795039985
 10
20.9692830424
 20
2.7218258279
 10
20.974190461
 20
2.664397219
 10
20.9781156457
 20
2.6072392707
 10
20.9810530484
 20
2.5503872019
 10
20.9829981973
 20
2.4938741588
 10
20.9839476949
 20
2.4377131912
 10
20.9838975618
 20
2.3819086455
 10
20.9828422485
 20
2.3264502164
 10
20.9807770619
 20
2.271395185
 10
20.9777030452
 20
2.2168467403
 10
20.9736246197
 20
2.1628725605
 10
20.9685401494
 20
2.1094453548
 10
20.9624427818
 20
2.0565244967
 10
20.9553205561
 20
2.0040676529
 10
20.9471780001
 20
1.9521626342
 10
20.9380373662
 20
1.9009605169
 10
20.9279171418
 20
1.8505389377
 10
20.9168126935
 20
1.800852437
 10
20.9047161232
 20
1.7518639798
 10
20.8916166077
 20
1.7035439026
 10
20.8775288305
 20
1.6559602602
 10
20.8624857321
 20
1.6092201358
 10
20.8465040439
 20
1.5633586538
 10
20.8295863011
 20
1.5183677809
 10
20.8117515869
 20
1.4742840105
 10
20.7930155708
 20
1.4311294178
 10
20.7733857536
 20
1.3889058245
 10
20.752870465
 20
1.3476184292
 10
20.7314616032
 20
1.3072433911
 10
20.7091893009
 20
1.2678305495
 10
20.6861264914
 20
1.2294895308
 10
20.6623335897
 20
1.1922871576
 10
20.6377927636
 20
1.1561633323
 10
20.6124610624
 20
1.1210373129
 10
20.586321138
 20
1.0868796038
 10
20.5594180564
 20
1.0537438223
 10
20.531800387
 20
1.0216776846
 10
20.5035032234
 20
0.9907052321
 10
20.4745311014
 20
0.9608151173
 10
20.4448898182
 20
0.9320001
 10
20.4146017765
 20
0.9042699538
 10
20.3836845327
 20
0.8776288989
 10
20.3521353191
 20
0.852064828
 10
20.3199660189
 20
0.8275800145
 10
20.2872045162
 20
0.8041882908
 10
20.2538714977
 20
0.7818964453
  0
LINE
  5
35E
100
AcDbEntity
  8
218
100
AcDbLine
 62
250
  6
CONTINUOUS
 10
9.2422151109
 20
21.0339501397
 11
9.6362010447
 21
20.0117943217
  0
LINE
  5
35F
100
AcDbEntity
  8
RACCORDO
100
AcDbLine
 62
7
  6
CONTINUOUS
 10
1.6706968348
 20
-26.2157516396
 11
2.2930148669
 21
-25.4706922221
  0
LWPOLYLINE
  5
360
100
AcDbEntity
  8
218
100
AcDbPolyline
 62
7
  6
CONTINUOUS
 90
21
 70
0
 10
-2.0158245306
 20
20.3874448911
 10
-2.027661575
 20
20.3929189222
 10
-2.0394324671
 20
20.3979369504
 10
-2.0511246572
 20
20.4024932616
 10
-2.0627247985
 20
20.4065827766
 10
-2.0742212084
 20
20.4102007823
 10
-2.0856038674
 20
20.4133427875
 10
-2.0968601175
 20
20.4160051917
 10
-2.1079778513
 20
20.4181847809
 10
-2.1189479328
 20
20.4198781817
 10
-2.1297580075
 20
20.4210833405
 10
-2.1403961032
 20
20.4217985143
 10
-2.1508537525
 20
20.4220213696
 10
-2.1611185256
 20
20.4217514564
 10
-2.1711791801
 20
20.4209886239
 10
-2.181029135
 20
20.4197315064
 10
-2.1906571957
 20
20.4179810186
 10
-2.2000516085
 20
20.4157385243
 10
-2.2092051825
 20
20.4130041038
 10
-2.2181050399
 20
20.4097812901
 10
-2.2264156752
 20
20.4062241187
  0
LWPOLYLINE
  5
361
100
AcDbEntity
  8
218
100
AcDbPolyline
 62
7
  6
CONTINUOUS
 90
64
 70
0
 10
-0.9352685315
 20
20.5184347333
 10
-0.9457097834
 20
20.5235302161
 10
-0.9632158651
 20
20.5315375052
 10
-0.9811932029
 20
20.5391131632
 10
-0.9996103068
 20
20.5462509977
 10
-1.0184581011
 20
20.5529567227
 10
-1.0377490707
 20
20.5592436203
 10
-1.0574605458
 20
20.5651130935
 10
-1.0775700642
 20
20.5705683552
 10
-1.0980862321
 20
20.5756211307
 10
-1.118956953
 20
20.5802682843
 10
-1.1401937885
 20
20.5845220513
 10
-1.1618989203
 20
20.5884073822
 10
-1.1840238236
 20
20.5919171552
 10
-1.2065872419
 20
20.5950556893
 10
-1.2297929995
 20
20.5978452177
 10
-1.2537174291
 20
20.6002802076
 10
-1.2782606802
 20
20.6023358381
 10
-1.3033603177
 20
20.603995785
 10
-1.3291191446
 20
20.6052536913
 10
-1.3554065799
 20
20.6060896001
 10
-1.3818067884
 20
20.6064891824
 10
-1.4082827793
 20
20.6064602499
 10
-1.4348442071
 20
20.6060098588
 10
-1.4611460366
 20
20.6051569109
 10
-1.4870981628
 20
20.6039253865
 10
-1.5127725236
 20
20.6023312986
 10
-1.5380694502
 20
20.6003990808
 10
-1.562969045
 20
20.598149494
 10
-1.587480119
 20
20.5955998216
 10
-1.6115469925
 20
20.5927736818
 10
-1.635151017
 20
20.5896915148
 10
-1.6583057601
 20
20.5863689607
 10
-1.6810039359
 20
20.582823554
 10
-1.7032378683
 20
20.5790725858
 10
-1.7250135977
 20
20.5751305764
 10
-1.7463433144
 20
20.5710100309
 10
-1.76722743
 20
20.5667249445
 10
-1.7876654931
 20
20.5622891459
 10
-1.8076667607
 20
20.5577139254
 10
-1.8272335076
 20
20.5530116314
 10
-1.8463642134
 20
20.5481953018
 10
-1.8650607596
 20
20.5432769828
 10
-1.8833328197
 20
20.5382663413
 10
-1.9011716717
 20
20.5331778805
 10
-1.9185506605
 20
20.5280318302
 10
-1.9354577455
 20
20.5228449425
 10
-1.9519076738
 20
20.5176257689
 10
-1.9679125713
 20
20.5123830611
 10
-1.9834522521
 20
20.5071361075
 10
-1.9985481395
 20
20.5018902844
 10
-2.0132698801
 20
20.4966326337
 10
-2.0276160247
 20
20.4913739548
 10
-2.0415811792
 20
20.4861266513
 10
-2.0552215003
 20
20.4808794169
 10
-2.0685196854
 20
20.4756482738
 10
-2.0814758004
 20
20.4704428977
 10
-2.0941619977
 20
20.4652432383
 10
-2.1065408129
 20
20.4600733613
 10
-2.1186130075
 20
20.4549423091
 10
-2.130490466
 20
20.4498109419
 10
-2.1421269878
 20
20.4447073691
 10
-2.153489268
 20
20.4396556285
 10
-2.175683009
 20
20.4296156662
  0
LINE
  5
362
100
AcDbEntity
  8
RACCORDO
100
AcDbLine
 62
250
  6
CONTINUOUS
 10
-11.0963681034
 20
23.9680537628
 11
-9.4762052136
 21
23.1579723179
  0
LINE
  5
363
100
AcDbEntity
  8
RACCORDO
100
AcDbLine
 62
250
  6
CONTINUOUS
 10
2.267950061
 20
17.2858946806
 11
3.8881129508
 21
16.4758132357
  0
LINE
  5
364
100
AcDbEntity
  8
RACCORDO
100
AcDbLine
 62
7
  6
CONTINUOUS
 10
-10.984948674
 20
23.974321419
 11
-9.3660747239
 21
23.164884444
  0
LINE
  5
365
100
AcDbEntity
  8
RACCORDO
100
AcDbLine
 62
7
  6
CONTINUOUS
 10
2.3793694904
 20
17.2921623368
 11
3.9982434405
 21
16.4827253617
  0
LINE
  5
366
100
AcDbEntity
  8
218
100
AcDbLine
 62
7
  6
CONTINUOUS
 10
-2.0142196059
 20
20.3866583654
 11
0.3606563941
 21
19.1992203654
  0
LINE
  5
367
100
AcDbEntity
  8
218
100
AcDbLine
 62
250
  6
CONTINUOUS
 10
0.9884213989
 20
19.5086298179
 11
-1.0248060555
 21
20.5152299255
  0
LINE
  5
368
100
AcDbEntity
  8
218
100
AcDbLine
 62
7
  6
CONTINUOUS
 10
1.0367255371
 20
19.5324377027
 11
-0.9352721904
 21
20.5184365665
  0
LINE
  5
369
100
AcDbEntity
  8
0
100
AcDbLine
 62
7
  6
CONTINUOUS
 10
1.5641701586
 20
19.7924017821
 11
-1.2363482987
 21
21.1926610107
  0
LWPOLYLINE
  5
36A
100
AcDbEntity
  8
RACCORDO
100
AcDbPolyline
 62
7
  6
CONTINUOUS
 90
20
 70
0
 10
9.230273385
 20
18.0459247964
 10
9.2288732333
 20
18.0480558612
 10
9.227126807
 20
18.0503643086
 10
9.2250451972
 20
18.0528539477
 10
9.2226402327
 20
18.0555313905
 10
9.2199201408
 20
18.0583666065
 10
9.2168952096
 20
18.0613631328
 10
9.2135767082
 20
18.064526211
 10
9.2099725513
 20
18.0678282034
 10
9.2060926945
 20
18.0712721862
 10
9.201948023
 20
18.0748624306
 10
9.1975467902
 20
18.0785729301
 10
9.1928984517
 20
18.082406522
 10
9.1880139978
 20
18.0863663956
 10
9.1829036094
 20
18.090426816
 10
9.1775767343
 20
18.0945900312
 10
9.172044531
 20
18.0988584026
 10
9.1663200598
 20
18.1032059021
 10
9.1604148764
 20
18.1076247843
 10
9.1481018247
 20
18.1167098739
  0
LINE
  5
36B
100
AcDbEntity
  8
218
100
AcDbLine
 62
7
  6
CONTINUOUS
 10
10.7738727862
 20
15.8825074706
 11
9.6906775167
 21
17.7507429565
  0
LWPOLYLINE
  5
36C
100
AcDbEntity
  8
218
100
AcDbPolyline
 62
7
  6
CONTINUOUS
 90
31
 70
0
 10
19.3386947002
 20
18.3207273889
 10
19.3384074085
 20
18.3552950243
 10
19.3372703372
 20
18.3977861245
 10
19.335276261
 20
18.4403409295
 10
19.3324315093
 20
18.4829646504
 10
19.3287435664
 20
18.5256367994
 10
19.3242233731
 20
18.5683078651
 10
19.3188788888
 20
18.6109717443
 10
19.3127173661
 20
18.6536206779
 10
19.3057533468
 20
18.6962005603
 10
19.2979954342
 20
18.7387048096
 10
19.2894511524
 20
18.7811268345
 10
19.2801388539
 20
18.8234109289
 10
19.2700680716
 20
18.8655483167
 10
19.2592464676
 20
18.9075347342
 10
19.2476942545
 20
18.9493198533
 10
19.2354234828
 20
18.9908874185
 10
19.2224401331
 20
19.0322409336
 10
19.208757303
 20
19.0733584254
 10
19.1943840742
 20
19.1142301703
 10
19.1793269883
 20
19.1548526027
 10
19.1635955161
 20
19.19521166
 10
19.1471964256
 20
19.2353002172
 10
19.130135566
 20
19.2751113205
 10
19.1124216666
 20
19.3146302775
 10
19.0940605637
 20
19.3538487611
 10
19.0750566125
 20
19.3927594949
 10
19.0554166075
 20
19.4313497295
 10
19.0351448967
 20
19.4696103974
 10
19.0142445872
 20
19.5075339214
 10
18.9967272567
 20
19.5382221755
  0
LINE
  5
36D
100
AcDbEntity
  8
218
100
AcDbLine
 62
250
  6
CONTINUOUS
 10
19.058095425
 20
-4.13633302
 11
19.0580345115
 21
0.4424724621
  0
LINE
  5
36E
100
AcDbEntity
  8
218
100
AcDbLine
 62
250
  6
CONTINUOUS
 10
19.0580345115
 20
2.2149413609
 11
19.0580345115
 21
12.3936230253
  0
LINE
  5
36F
100
AcDbEntity
  8
218
100
AcDbLine
 62
250
  6
CONTINUOUS
 10
19.0580345115
 20
14.1660919427
 11
19.0580345115
 21
17.9734902211
  0
LINE
  5
370
100
AcDbEntity
  8
218
100
AcDbLine
 62
7
  6
CONTINUOUS
 10
19.3386947111
 20
-3.7654537955
 11
19.3386947111
 21
0.2016376802
  0
LINE
  5
371
100
AcDbEntity
  8
218
100
AcDbLine
 62
7
  6
CONTINUOUS
 10
19.3386947111
 20
3.1504344582
 11
19.3386947111
 21
12.152787317
  0
LINE
  5
372
100
AcDbEntity
  8
218
100
AcDbLine
 62
7
  6
CONTINUOUS
 10
19.3386947111
 20
15.1015862219
 11
19.3386947111
 21
18.3207399558
  0
LINE
  5
373
100
AcDbEntity
  8
218
100
AcDbLine
 62
7
  6
CONTINUOUS
 10
19.3386947097
 20
15.1016924498
 11
19.3386947111
 21
15.1015868849
  0
LWPOLYLINE
  5
374
100
AcDbEntity
  8
218
100
AcDbPolyline
 62
250
  6
CONTINUOUS
 90
57
 70
0
 10
19.3386947111
 20
3.1504348365
 10
19.3386408359
 20
3.132357725
 10
19.3380154709
 20
3.0863169475
 10
19.3367566476
 20
3.0422632853
 10
19.3349352137
 20
2.9999550997
 10
19.3326179425
 20
2.959441632
 10
19.3298784582
 20
2.9208469168
 10
19.3267740194
 20
2.8840521054
 10
19.3233272986
 20
2.848741188
 10
19.3195808551
 20
2.8148998007
 10
19.3155796583
 20
2.7825435063
 10
19.3113234457
 20
2.75140211
 10
19.3068359395
 20
2.7214331411
 10
19.3021522997
 20
2.6926789245
 10
19.2972723786
 20
2.6649975614
 10
19.2922055603
 20
2.6383259119
 10
19.2869857738
 20
2.6127262559
 10
19.2816449835
 20
2.588244829
 10
19.2762170479
 20
2.564935315
 10
19.2707128765
 20
2.5427406361
 10
19.2651274482
 20
2.5215408386
 10
19.2594826107
 20
2.5013479201
 10
19.2537907469
 20
2.4821465244
 10
19.2480247358
 20
2.4637768753
 10
19.242188044
 20
2.4462094258
 10
19.236299868
 20
2.4294715256
 10
19.2303504202
 20
2.4134898793
 10
19.2243296982
 20
2.3982219638
 10
19.2182649772
 20
2.3837085128
 10
19.2122030246
 20
2.3700006986
 10
19.2061592833
 20
2.3571196346
 10
19.2001403432
 20
2.3450402756
 10
19.1941834164
 20
2.3337432884
 10
19.1883219273
 20
2.323267538
 10
19.1825457939
 20
2.313568841
 10
19.1768258778
 20
2.3045034178
 10
19.1711804958
 20
2.2960728654
 10
19.1656078396
 20
2.2882715689
 10
19.1600429585
 20
2.2809466057
 10
19.1544780727
 20
2.2740704256
 10
19.1489292866
 20
2.2676688199
 10
19.1433626533
 20
2.2616704513
 10
19.1377698819
 20
2.2560600736
 10
19.1321642337
 20
2.2508521312
 10
19.1265423161
 20
2.246020418
 10
19.1209053958
 20
2.2415638576
 10
19.1152567618
 20
2.2374827156
 10
19.1095956863
 20
2.2337529001
 10
19.1039260075
 20
2.2303748447
 10
19.0982480942
 20
2.2273472911
 10
19.09255561
 20
2.224643742
 10
19.0868524025
 20
2.2222632701
 10
19.0811381437
 20
2.2202061344
 10
19.075399514
 20
2.2184479027
 10
19.0696327215
 20
2.2169804102
 10
19.0638439754
 20
2.2158115481
 10
19.0580345115
 20
2.2149411482
  0
LWPOLYLINE
  5
375
100
AcDbEntity
  8
218
100
AcDbPolyline
 62
250
  6
CONTINUOUS
 90
57
 70
0
 10
19.3386947111
 20
15.1015868849
 10
19.3385949919
 20
15.0769973429
 10
19.3378711077
 20
15.0309909867
 10
19.3365282511
 20
14.9872347548
 10
19.3346413173
 20
14.9453667836
 10
19.3322672536
 20
14.9052081381
 10
19.32946922
 20
14.8667981541
 10
19.326304873
 20
14.8301028198
 10
19.3227952199
 20
14.7948327082
 10
19.3189763545
 20
14.7609410912
 10
19.3148943477
 20
14.7284762851
 10
19.3105640877
 20
14.6972919237
 10
19.3060142494
 20
14.6673683663
 10
19.3012796482
 20
14.6387244997
 10
19.2963736276
 20
14.6112720886
 10
19.2913222527
 20
14.5850124517
 10
19.2861515164
 20
14.5599418806
 10
19.2808676291
 20
14.5359649486
 10
19.275493673
 20
14.5130889948
 10
19.2700488492
 20
14.4913034479
 10
19.2645269026
 20
14.4704866681
 10
19.2589456283
 20
14.4506400075
 10
19.2533198436
 20
14.4317588942
 10
19.2476319937
 20
14.4137138087
 10
19.2418891244
 20
14.3964864404
 10
19.2361077161
 20
14.3800925455
 10
19.230279194
 20
14.3644546012
 10
19.2244042798
 20
14.3495517003
 10
19.2185007486
 20
14.3354024773
 10
19.2125840869
 20
14.3219888756
 10
19.2066627186
 20
14.3093139614
 10
19.200746462
 20
14.2973716651
 10
19.194853489
 20
14.2861298628
 10
19.1889961781
 20
14.2755974641
 10
19.1831799792
 20
14.2657619014
 10
19.1774127613
 20
14.2565586261
 10
19.1717209068
 20
14.2480088449
 10
19.1660945039
 20
14.2400873976
 10
19.1604840095
 20
14.2326610127
 10
19.1548895176
 20
14.2257122797
 10
19.1493204109
 20
14.2192564821
 10
19.143736604
 20
14.213210839
 10
19.1381289802
 20
14.2075578009
 10
19.1325119289
 20
14.2023140177
 10
19.1268784346
 20
14.197448748
 10
19.1212290751
 20
14.1929597475
 10
19.1155678504
 20
14.1888484509
 10
19.109892315
 20
14.1850898128
 10
19.1042062923
 20
14.1816839623
 10
19.0985100926
 20
14.1786299861
 10
19.0927954809
 20
14.1759014553
 10
19.0870662095
 20
14.1734971595
 10
19.0813218685
 20
14.1714177309
 10
19.0755471487
 20
14.1696398413
 10
19.0697374795
 20
14.1681557527
 10
19.0638995653
 20
14.1669730778
 10
19.0580345115
 20
14.1660917205
  0
LWPOLYLINE
  5
376
100
AcDbEntity
  8
218
100
AcDbPolyline
 62
7
  6
CONTINUOUS
 90
7
 70
0
 10
19.3386952288
 20
12.1528043433
 10
19.3387474153
 20
12.1545788145
 10
19.3389479465
 20
12.1566496409
 10
19.3392218673
 20
12.1582512124
 10
19.3394929825
 20
12.1593726406
 10
19.3396747259
 20
12.1599564856
 10
19.3396959382
 20
12.1600139662
  0
LWPOLYLINE
  5
377
100
AcDbEntity
  8
218
100
AcDbPolyline
 62
7
  6
CONTINUOUS
 90
7
 70
0
 10
19.3386952157
 20
0.2016523897
 10
19.3387473981
 20
0.2034272468
 10
19.338947799
 20
0.20549821
 10
19.3392217615
 20
0.2071000623
 10
19.3394928748
 20
0.208221663
 10
19.3396746025
 20
0.2088056006
 10
19.3396958429
 20
0.2088631589
  0
LWPOLYLINE
  5
378
100
AcDbEntity
  8
218
100
AcDbPolyline
 62
250
  6
CONTINUOUS
 90
34
 70
0
 10
11.9682277168
 20
-16.8878928991
 10
11.988402298
 20
-16.8692132672
 10
12.0080552307
 20
-16.8497493411
 10
12.0271773499
 20
-16.8295102372
 10
12.0457595787
 20
-16.8085055346
 10
12.0637929755
 20
-16.7867453027
 10
12.0812689647
 20
-16.7642399323
 10
12.0981791904
 20
-16.74100018
 10
12.1145156019
 20
-16.7170370914
 10
12.1302704925
 20
-16.6923620165
 10
12.1454363564
 20
-16.6669867012
 10
12.1600059532
 20
-16.6409232331
 10
12.1739723949
 20
-16.6141839664
 10
12.1873290425
 20
-16.5867816025
 10
12.2000695128
 20
-16.5587292049
 10
12.2121877405
 20
-16.5300401405
 10
12.2236779673
 20
-16.5007280556
 10
12.2345347188
 20
-16.4708069005
 10
12.2447528114
 20
-16.4402909442
 10
12.254327395
 20
-16.4091947214
 10
12.2632539249
 20
-16.3775330065
 10
12.2715281385
 20
-16.3453208402
 10
12.2791461232
 20
-16.3125735358
 10
12.2861042647
 20
-16.2793066673
 10
12.2923992155
 20
-16.245536042
 10
12.2980280199
 20
-16.2112776548
 10
12.3029880052
 20
-16.1765478445
 10
12.3072767321
 20
-16.1413632817
 10
12.310892195
 20
-16.1057407914
 10
12.3138327201
 20
-16.0696972078
 10
12.3160968452
 20
-16.0332495232
 10
12.3176834911
 20
-15.9964150055
 10
12.3185919745
 20
-15.9592111979
 10
12.3188219033
 20
-15.9216557727
  0
LWPOLYLINE
  5
379
100
AcDbEntity
  8
218
100
AcDbPolyline
 62
250
  6
CONTINUOUS
 90
4
 70
0
 10
11.9046714276
 20
-16.9391388717
 10
11.9263522412
 20
-16.9228640821
 10
11.9475410456
 20
-16.9057793702
 10
11.9682277168
 20
-16.8878928991
  0
LWPOLYLINE
  5
37A
100
AcDbEntity
  8
218
100
AcDbPolyline
 62
7
  6
CONTINUOUS
 90
40
 70
0
 10
11.979250134
 20
-16.8927686698
 10
11.9988838193
 20
-16.878273341
 10
12.0269790158
 20
-16.8565783031
 10
12.0545820607
 20
-16.834114076
 10
12.0816649024
 20
-16.8108982469
 10
12.1082144973
 20
-16.7869369139
 10
12.1342321535
 20
-16.762222503
 10
12.1596979468
 20
-16.736766359
 10
12.1845925481
 20
-16.7105802547
 10
12.2089167224
 20
-16.6836542863
 10
12.2326512429
 20
-16.6559993807
 10
12.2557762876
 20
-16.627628389
 10
12.2782900476
 20
-16.5985315219
 10
12.3001739661
 20
-16.5687188635
 10
12.3214080881
 20
-16.5382041549
 10
12.3419870641
 20
-16.5069800542
 10
12.36189201
 20
-16.4750580886
 10
12.3811045241
 20
-16.4424505648
 10
12.3996188643
 20
-16.4091483325
 10
12.417415462
 20
-16.3751651934
 10
12.4344776317
 20
-16.3405107282
 10
12.450802233
 20
-16.3051659351
 10
12.4663729722
 20
-16.2691360213
 10
12.4811689307
 20
-16.2324373666
 10
12.4951786471
 20
-16.1950641819
 10
12.5083898117
 20
-16.1570095373
 10
12.5207779425
 20
-16.1183006896
 10
12.5323164234
 20
-16.078981246
 10
12.542991212
 20
-16.0390609527
 10
12.5527877167
 20
-15.998551281
 10
12.5616849773
 20
-15.9574974942
 10
12.5696723436
 20
-15.9159079297
 10
12.5767381322
 20
-15.8737945829
 10
12.5828662009
 20
-15.8312073699
 10
12.5880484023
 20
-15.7881556521
 10
12.5922760785
 20
-15.7446494537
 10
12.5955382413
 20
-15.7007382818
 10
12.5978280926
 20
-15.6564437602
 10
12.5991402899
 20
-15.6117626853
 10
12.5994820933
 20
-15.5743277111
  0
LINE
  5
37B
100
AcDbEntity
  8
218
100
AcDbLine
 62
7
  6
CONTINUOUS
 10
9.6906775167
 20
-18.3625163813
 11
10.7738727862
 21
-17.577476165
  0
LINE
  5
37C
100
AcDbEntity
  8
218
100
AcDbLine
 62
250
  6
CONTINUOUS
 10
11.6987168806
 20
-17.0884033734
 11
11.9046714276
 21
-16.9391388717
  0
LINE
  5
37D
100
AcDbEntity
  8
218
100
AcDbLine
 62
7
  6
CONTINUOUS
 10
11.7732844747
 20
-17.0420412406
 11
11.9792390217
 21
-16.8927767389
  0
LWPOLYLINE
  5
37E
100
AcDbEntity
  8
218
100
AcDbPolyline
 62
7
  6
CONTINUOUS
 90
6
 70
0
 10
11.7732844747
 20
-17.0420412406
 10
11.7600194711
 20
-17.051491183
 10
11.7465936806
 20
-17.0607296774
 10
11.7330122003
 20
-17.0697526618
 10
11.7192744235
 20
-17.0785599154
 10
11.7053918254
 20
-17.0871436047
  0
LWPOLYLINE
  5
37F
100
AcDbEntity
  8
RACCORDO
100
AcDbPolyline
 62
250
  6
CONTINUOUS
 90
16
 70
0
 10
-2.296273042
 20
-25.8483693864
 10
-2.3579737599
 20
-25.8869376899
 10
-2.4248560634
 20
-25.922003507
 10
-2.4962113317
 20
-25.953195314
 10
-2.5712835523
 20
-25.980182632
 10
-2.6492773317
 20
-26.0026795293
 10
-2.7293663223
 20
-26.0204476502
 10
-2.8107019776
 20
-26.0332987407
 10
-2.8924225426
 20
-26.0410966429
 10
-2.9736621843
 20
-26.0437587377
 10
-3.053560165
 20
-26.0412568201
 10
-3.131269962
 20
-26.033617398
 10
-3.2059682363
 20
-26.0209214115
 10
-3.2768635565
 20
-26.0033033754
 10
-3.3432047833
 20
-25.9809499534
 10
-3.4042890285
 20
-25.9540979811
  0
LINE
  5
380
100
AcDbEntity
  8
218
100
AcDbLine
 62
7
  6
CONTINUOUS
 10
11.7053918254
 20
-17.0871436047
 11
11.6913879822
 21
-17.0954896204
  0
LWPOLYLINE
  5
381
100
AcDbEntity
  8
218
100
AcDbPolyline
 62
7
  6
CONTINUOUS
 90
4
 70
0
 10
11.6913879822
 20
-17.0954896204
 10
11.6772747692
 20
-17.1035922563
 10
11.6630523531
 20
-17.1114528844
 10
11.6539233961
 20
-17.1163410047
  0
LWPOLYLINE
  5
382
100
AcDbEntity
  8
218
100
AcDbPolyline
 62
250
  6
CONTINUOUS
 90
4
 70
0
 10
11.6539289507
 20
-17.1163380674
 10
11.6690769491
 20
-17.1078667703
 10
11.6841073802
 20
-17.0985013867
 10
11.6987168806
 20
-17.0884033734
  0
LWPOLYLINE
  5
383
100
AcDbEntity
  8
218
100
AcDbPolyline
 62
250
  6
CONTINUOUS
 90
5
 70
0
 10
11.9046714276
 20
-16.9391388717
 10
11.923507943
 20
-16.9287786638
 10
11.9419500598
 20
-16.9177904266
 10
11.9599840827
 20
-16.9061823201
 10
11.9792390217
 20
-16.8927767389
  0
LWPOLYLINE
  5
384
100
AcDbEntity
  8
218
100
AcDbPolyline
 62
250
  6
CONTINUOUS
 90
5
 70
0
 10
11.6987168806
 20
-17.0884033734
 10
11.7175533959
 20
-17.0780431655
 10
11.7359955126
 20
-17.0670549284
 10
11.7540295355
 20
-17.055446822
 10
11.7732844747
 20
-17.0420412406
  0
LWPOLYLINE
  5
385
100
AcDbEntity
  8
218
100
AcDbPolyline
 62
250
  6
CONTINUOUS
 90
29
 70
0
 10
12.3188219033
 20
-15.9216557727
 10
12.3374830418
 20
-15.9117264297
 10
12.3555961368
 20
-15.9015465318
 10
12.3731477373
 20
-15.8911236385
 10
12.3901248094
 20
-15.88046549
 10
12.406514746
 20
-15.8695800011
 10
12.4223053756
 20
-15.8584752554
 10
12.4374849722
 20
-15.8471594993
 10
12.4520422633
 20
-15.8356411359
 10
12.4659664385
 20
-15.823928719
 10
12.4792471576
 20
-15.8120309462
 10
12.4918745584
 20
-15.7999566527
 10
12.5038392636
 20
-15.7877148052
 10
12.5151323883
 20
-15.7753144944
 10
12.525745546
 20
-15.7627649289
 10
12.5356708554
 20
-15.750075428
 10
12.5449009459
 20
-15.737255415
 10
12.5534289631
 20
-15.7243144103
 10
12.5612485742
 20
-15.7112620237
 10
12.5683539722
 20
-15.6981079481
 10
12.5747398806
 20
-15.6848619519
 10
12.5804015572
 20
-15.6715338714
 10
12.5853347977
 20
-15.6581336043
 10
12.5895359385
 20
-15.6446711016
 10
12.5930018599
 20
-15.6311563607
 10
12.5957299881
 20
-15.6175994177
 10
12.5977182971
 20
-15.6040103401
 10
12.5989653104
 20
-15.5903992191
 10
12.599470102
 20
-15.5767761626
  0
LINE
  5
386
100
AcDbEntity
  8
218
100
AcDbLine
 62
250
  6
CONTINUOUS
 10
11.6987168806
 20
-17.0884033734
 11
10.7738727862
 21
-17.577476165
  0
LINE
  5
387
100
AcDbEntity
  8
218
100
AcDbLine
 62
7
  6
CONTINUOUS
 10
11.6539289507
 20
-17.1163380674
 11
10.752180684
 21
-17.5931974049
  0
LINE
  5
388
100
AcDbEntity
  8
218
100
AcDbLine
 62
250
  6
CONTINUOUS
 10
4.4558612899
 20
-20.0636867151
 11
12.3188219033
 21
-15.9216557727
  0
LINE
  5
389
100
AcDbEntity
  8
218
100
AcDbLine
 62
250
  6
CONTINUOUS
 10
4.4558612899
 20
-20.863004651
 11
11.9046714276
 21
-16.9391388717
  0
LINE
  5
38A
100
AcDbEntity
  8
218
100
AcDbLine
 62
250
  6
CONTINUOUS
 10
-1.6892648189
 20
20.5217279837
 11
-1.6790822736
 21
20.5245765781
  0
LWPOLYLINE
  5
38B
100
AcDbEntity
  8
218
100
AcDbPolyline
 62
250
  6
CONTINUOUS
 90
3
 70
0
 10
-1.6790822736
 20
20.5245765781
 10
-1.6687103724
 20
20.5273823524
 10
-1.6634533061
 20
20.5287686513
  0
LWPOLYLINE
  5
38C
100
AcDbEntity
  8
218
100
AcDbPolyline
 62
250
  6
CONTINUOUS
 90
4
 70
0
 10
-1.6634533061
 20
20.5287686513
 10
-1.6527967107
 20
20.5315036365
 10
-1.6473971816
 20
20.5328523227
 10
-1.6419503189
 20
20.5341869315
  0
LWPOLYLINE
  5
38D
100
AcDbEntity
  8
218
100
AcDbPolyline
 62
250
  6
CONTINUOUS
 90
128
 70
0
 10
-1.6419503189
 20
20.5341869315
 10
-1.6309144409
 20
20.5368139525
 10
-1.6253258596
 20
20.538104759
 10
-1.6196901028
 20
20.5393799409
 10
-1.6140073706
 20
20.5406394576
 10
-1.6082786216
 20
20.5418815998
 10
-1.6025036945
 20
20.5431063898
 10
-1.5966827507
 20
20.5443138052
 10
-1.5908172332
 20
20.5455020696
 10
-1.5849073228
 20
20.5466711386
 10
-1.5789528387
 20
20.5478210565
 10
-1.5729546817
 20
20.5489501804
 10
-1.56691262
 20
20.5500585474
 10
-1.5608268854
 20
20.5511461203
 10
-1.5546990738
 20
20.5522111451
 10
-1.548520867
 20
20.5532547959
 10
-1.5423005831
 20
20.5542758984
 10
-1.5360647727
 20
20.5552691762
 10
-1.5298170078
 20
20.5562336817
 10
-1.5235537163
 20
20.5571703625
 10
-1.5172907327
 20
20.5580767844
 10
-1.5110305496
 20
20.5589523864
 10
-1.5047706744
 20
20.5597977296
 10
-1.4985194632
 20
20.5606120631
 10
-1.4922780161
 20
20.5613951475
 10
-1.4860452331
 20
20.5621472222
 10
-1.4798261706
 20
20.562868255
 10
-1.4736212044
 20
20.5635581484
 10
-1.4674299586
 20
20.5642169999
 10
-1.4612563623
 20
20.5648450696
 10
-1.4551008094
 20
20.5654422859
 10
-1.448962906
 20
20.5660087203
 10
-1.4428453989
 20
20.5665448474
 10
-1.436748564
 20
20.5670506299
 10
-1.4306721253
 20
20.567526105
 10
-1.4246180027
 20
20.5679718583
 10
-1.418585819
 20
20.5683878997
 10
-1.4125759514
 20
20.5687742194
 10
-1.4065914503
 20
20.5691313729
 10
-1.4006325073
 20
20.5694593266
 10
-1.3946989309
 20
20.5697581143
 10
-1.3887931968
 20
20.5700283931
 10
-1.3829154738
 20
20.5702701419
 10
-1.3770655932
 20
20.5704833819
 10
-1.3712455253
 20
20.5706688338
 10
-1.3654551914
 20
20.5708264873
 10
-1.3596946701
 20
20.5709563527
 10
-1.3539661682
 20
20.5710591817
 10
-1.348269663
 20
20.5711349577
 10
-1.342605177
 20
20.5711836973
 10
-1.3369749852
 20
20.571206202
 10
-1.3313792129
 20
20.5712024558
 10
-1.3258177347
 20
20.5711724747
 10
-1.3202924492
 20
20.5711171084
 10
-1.3148035488
 20
20.5710363505
 10
-1.3093508411
 20
20.5709302074
 10
-1.3039356479
 20
20.570799548
 10
-1.2985580237
 20
20.5706443702
 10
-1.293217914
 20
20.5704646762
 10
-1.2879164759
 20
20.5702613421
 10
-1.2826534267
 20
20.570034344
 10
-1.2774290491
 20
20.5697837058
 10
-1.2722453488
 20
20.5695103758
 10
-1.2671025358
 20
20.5692143485
 10
-1.2620004
 20
20.5688956294
 10
-1.256940318
 20
20.5685551832
 10
-1.2519225024
 20
20.5681930173
 10
-1.2469467406
 20
20.5678091242
 10
-1.2420137707
 20
20.567404446
 10
-1.2371236764
 20
20.5669789887
 10
-1.2322763742
 20
20.5665327463
 10
-1.2274723519
 20
20.5660666423
 10
-1.2227116619
 20
20.5655806828
 10
-1.2179942519
 20
20.5650748618
 10
-1.213320453
 20
20.5645500844
 10
-1.2086903219
 20
20.5640063593
 10
-1.2041038019
 20
20.5634436778
 10
-1.1995610546
 20
20.5628629197
 10
-1.1950621593
 20
20.5622640994
 10
-1.1906070367
 20
20.5616472023
 10
-1.1861956105
 20
20.5610130644
 10
-1.1818279322
 20
20.5603616996
 10
-1.1775039504
 20
20.5596930939
 10
-1.1732234344
 20
20.5590080409
 10
-1.1689864216
 20
20.5583065544
 10
-1.1647928746
 20
20.5575886205
 10
-1.1606424505
 20
20.5568549911
 10
-1.1565351988
 20
20.5561056843
 10
-1.1524710701
 20
20.5553406821
 10
-1.1484495728
 20
20.5545606818
 10
-1.1444707438
 20
20.5537657017
 10
-1.1405345462
 20
20.5529557235
 10
-1.1366403784
 20
20.5521313897
 10
-1.1327882814
 20
20.5512927221
 10
-1.1289782141
 20
20.5504396989
 10
-1.125209452
 20
20.5495728975
 10
-1.121482037
 20
20.5486923431
 10
-1.1177959273
 20
20.5477980105
 10
-1.1141502725
 20
20.5468904014
 10
-1.110545089
 20
20.5459695373
 10
-1.1069803604
 20
20.5450353967
 10
-1.1034551879
 20
20.5440884161
 10
-1.0999695717
 20
20.5431286141
 10
-1.0965235115
 20
20.5421559722
 10
-1.0931161072
 20
20.5411708712
 10
-1.0897473687
 20
20.5401733335
 10
-1.0864172861
 20
20.5391633366
 10
-1.0831249298
 20
20.538141194
 10
-1.079870307
 20
20.5371069294
 10
-1.0766534105
 20
20.5360605191
 10
-1.0734732883
 20
20.5350022056
 10
-1.0703299322
 20
20.5339320091
 10
-1.0672233503
 20
20.5328499094
 10
-1.064152615
 20
20.5317560887
 10
-1.0611177031
 20
20.5306505616
 10
-1.0581186377
 20
20.5295333135
 10
-1.0551545608
 20
20.5284044822
 10
-1.0522254368
 20
20.527264077
 10
-1.0493313013
 20
20.5261120887
 10
-1.0464714025
 20
20.5249486277
 10
-1.0436457149
 20
20.5237737043
 10
-1.0408542642
 20
20.5225873082
 10
-1.0380963756
 20
20.5213895187
 10
-1.0353720367
 20
20.520180354
 10
-1.0326812599
 20
20.5189597958
 10
-1.0300234083
 20
20.517727869
 10
-1.0273982694
 20
20.5164845816
 10
-1.0248060555
 20
20.5152299255
  0
LWPOLYLINE
  5
38E
100
AcDbEntity
  8
RACCORDO
100
AcDbPolyline
 62
7
  6
CONTINUOUS
 90
10
 70
0
 10
9.8074265382
 20
18.8862143751
 10
9.7922862545
 20
18.8884475234
 10
9.77737987
 20
18.889609263
 10
9.7627073849
 20
18.8896995938
 10
9.7481426175
 20
18.8886942034
 10
9.7338117494
 20
18.8866174043
 10
9.7200933254
 20
18.8835421334
 10
9.707113527
 20
18.8794927031
 10
9.6947461726
 20
18.8744448009
 10
9.6829912624
 20
18.8683984269
  0
LINE
  5
38F
100
AcDbEntity
  8
RACCORDO
100
AcDbLine
 62
7
  6
CONTINUOUS
 10
12.7688379118
 20
18.3458304545
 11
12.4812619478
 21
18.3983059155
  0
LINE
  5
390
100
AcDbEntity
  8
RACCORDO
100
AcDbLine
 62
7
  6
CONTINUOUS
 10
11.5496812228
 20
18.5682962278
 11
9.8074652646
 21
18.8862073085
  0
LWPOLYLINE
  5
391
100
AcDbEntity
  8
RACCORDO
100
AcDbPolyline
 62
7
  6
CONTINUOUS
 90
13
 70
0
 10
8.4840034152
 20
19.1299425035
 10
8.4493526052
 20
19.1363721846
 10
8.4141483822
 20
19.1417553374
 10
8.3784285303
 20
19.1461174783
 10
8.3422032134
 20
19.1495114014
 10
8.3055354753
 20
19.1519411511
 10
8.2685392654
 20
19.1533523803
 10
8.2312522304
 20
19.1537625152
 10
8.1937012486
 20
19.1531986337
 10
8.1559805477
 20
19.1516066455
 10
8.1181411729
 20
19.1489775545
 10
8.0801919867
 20
19.1453555733
 10
8.0421625473
 20
19.1407607838
  0
LINE
  5
392
100
AcDbEntity
  8
RACCORDO
100
AcDbLine
 62
7
  6
CONTINUOUS
 10
-11.0713032975
 20
21.2610709995
 11
-11.6936213296
 21
21.391011582
  0
LINE
  5
393
100
AcDbEntity
  8
DRAFT
100
AcDbLine
 62
7
  6
CONTINUOUS
 10
-1.5899016892
 20
21.9219958953
 11
-1.2363482987
 21
21.7452192
  0
LINE
  5
394
100
AcDbEntity
  8
0
100
AcDbLine
 62
7
  6
CONTINUOUS
 10
2.9719858548
 20
20.4862784405
 11
0.1614362079
 21
21.891553264
  0
LINE
  5
395
100
AcDbEntity
  8
218
100
AcDbLine
 62
7
  6
CONTINUOUS
 10
9.1748415132
 20
18.0086609582
 11
9.6906775167
 21
17.7507429565
  0
LINE
  5
396
100
AcDbEntity
  8
0
100
AcDbLine
 62
7
  6
CONTINUOUS
 10
1.521368148
 20
21.9653014514
 11
3.7311090361
 21
20.8604310073
  0
LINE
  5
397
100
AcDbEntity
  8
0
100
AcDbLine
 62
7
  6
CONTINUOUS
 10
4.4766938593
 20
20.4876385957
 11
4.6225072693
 21
20.4147318907
  0
LINE
  5
398
100
AcDbEntity
  8
RACCORDO
100
AcDbLine
 62
7
  6
CONTINUOUS
 10
-1.3460895977
 20
23.662274004
 11
-1.1656376205
 21
23.5720480154
  0
LINE
  5
399
100
AcDbEntity
  8
RACCORDO
100
AcDbLine
 62
7
  6
CONTINUOUS
 10
4.2083739165
 20
20.8850422469
 11
4.3888258936
 21
20.7948162583
  0
LINE
  5
39A
100
AcDbEntity
  8
RACCORDO
100
AcDbLine
 62
250
  6
CONTINUOUS
 10
-2.1586579417
 20
24.2411710283
 11
0.8204319592
 21
22.7516260778
  0
LINE
  5
39B
100
AcDbEntity
  8
RACCORDO
100
AcDbLine
 62
250
  6
CONTINUOUS
 10
5.0630726463
 20
20.6303057343
 11
8.0421625473
 21
19.1407607838
  0
LWPOLYLINE
  5
39C
100
AcDbEntity
  8
RACCORDO
100
AcDbPolyline
 62
7
  6
CONTINUOUS
 90
17
 70
0
 10
9.2309903037
 20
18.6486826199
 10
9.1973530099
 20
18.6847447704
 10
9.1636694218
 20
18.71938343
 10
9.1299395394
 20
18.7525985988
 10
9.0960946377
 20
18.7844059028
 10
9.0622034417
 20
18.8147897159
 10
9.0284721266
 20
18.84370316
 10
8.9949203312
 20
18.8711223353
 10
8.9615284168
 20
18.8970711417
 10
8.9284436427
 20
18.9215744002
 10
8.8956813293
 20
18.944618107
 10
8.8632261562
 20
18.9662162661
 10
8.8311794216
 20
18.9864357101
 10
8.7995522821
 20
19.0052696241
 10
8.7683335811
 20
19.0227248231
 10
8.7375911467
 20
19.0388885846
 10
8.7304413684
 20
19.0425034717
  0
LWPOLYLINE
  5
39D
100
AcDbEntity
  8
218
100
AcDbPolyline
 62
250
  6
CONTINUOUS
 90
57
 70
0
 10
19.3386947111
 20
3.85102753
 10
19.3469603963
 20
3.8246698229
 10
19.3591398951
 20
3.7825188586
 10
19.3705809862
 20
3.7393581271
 10
19.3812621891
 20
3.6952157401
 10
19.3911068414
 20
3.6501753309
 10
19.4000989482
 20
3.6042579034
 10
19.4082311577
 20
3.5574419391
 10
19.4154428313
 20
3.5097495418
 10
19.4217398394
 20
3.460925096
 10
19.4270893753
 20
3.411224194
 10
19.4313919908
 20
3.3614463937
 10
19.4346210807
 20
3.3116261144
 10
19.4368174571
 20
3.2617506731
 10
19.4380172691
 20
3.2125656899
 10
19.4382158387
 20
3.1640836106
 10
19.4374634415
 20
3.1163236114
 10
19.4359085684
 20
3.0700535404
 10
19.4335826772
 20
3.0254842219
 10
19.4305279855
 20
2.9824405654
 10
19.4269237683
 20
2.9411164167
 10
19.4228262702
 20
2.9016753514
 10
19.41824851
 20
2.8639812038
 10
19.4132993804
 20
2.8277759818
 10
19.4080206576
 20
2.7930810467
 10
19.4024205464
 20
2.7598920298
 10
19.3965459898
 20
2.7279087196
 10
19.3904186438
 20
2.6970969927
 10
19.3840518699
 20
2.6675012843
 10
19.3774718236
 20
2.6389368747
 10
19.3706821312
 20
2.6113496256
 10
19.3637054804
 20
2.584800332
 10
19.3565928198
 20
2.5592756909
 10
19.349357322
 20
2.5347865958
 10
19.342008608
 20
2.5113271613
 10
19.334590447
 20
2.4888585331
 10
19.3271291079
 20
2.4674232605
 10
19.3196169992
 20
2.4469824984
 10
19.3120444452
 20
2.4273747915
 10
19.3044185296
 20
2.4085863047
 10
19.2967454208
 20
2.3906332486
 10
19.2890114447
 20
2.3733987238
 10
19.2812046228
 20
2.3568450135
 10
19.2733466854
 20
2.341011455
 10
19.2654731926
 20
2.3258965316
 10
19.257572094
 20
2.3114868121
 10
19.2496633918
 20
2.2977971446
 10
19.2418301458
 20
2.2848684786
 10
19.2340935863
 20
2.2727419921
 10
19.2264388092
 20
2.2613779215
 10
19.2188938542
 20
2.2506957836
 10
19.2114876166
 20
2.2407241307
 10
19.2041952656
 20
2.2314355506
 10
19.1969632005
 20
2.2226653995
 10
19.1897741607
 20
2.2143589977
 10
19.1826476344
 20
2.2065717755
 10
19.1755845816
 20
2.1993041136
  0
LINE
  5
39E
100
AcDbEntity
  8
ASSI
100
AcDbLine
 62
7
  6
CONTINUOUS
 10
2.7941603541
 20
-24.5206710308
 11
1.9809875557
 21
-25.0495421612
  0
LINE
  5
39F
100
AcDbEntity
  8
RACCORDO
100
AcDbLine
 62
250
  6
CONTINUOUS
 10
-1.7484086233
 20
-26.0864607274
 11
2.3952270376
 21
-23.6447197641
  0
LINE
  5
3A0
100
AcDbEntity
  8
RACCORDO
100
AcDbLine
 62
7
  6
CONTINUOUS
 10
2.249295847
 20
-24.042723619
 11
-1.8932615535
 21
-26.4838290067
  0
LWPOLYLINE
  5
3A1
100
AcDbEntity
  8
RACCORDO
100
AcDbPolyline
 62
7
  6
CONTINUOUS
 90
25
 70
0
 10
8.4840034152
 20
-19.3583141448
 10
8.5099198255
 20
-19.3434819281
 10
8.5364220622
 20
-19.3282149514
 10
8.5635101252
 20
-19.3125132145
 10
8.5912117816
 20
-19.2963641117
 10
8.6194992642
 20
-19.2797802489
 10
8.6482892722
 20
-19.2627994429
 10
8.6775627913
 20
-19.2454328691
 10
8.7073388356
 20
-19.2276693521
 10
8.7375911467
 20
-19.2095131837
 10
8.7683335811
 20
-19.1909562868
 10
8.7995522821
 20
-19.1720067385
 10
8.8311794216
 20
-19.1526930621
 10
8.8632261562
 20
-19.1330084273
 10
8.8956813293
 20
-19.1129596645
 10
8.9284436427
 20
-19.0925957878
 10
8.9615284168
 20
-19.0719069485
 10
8.9949203312
 20
-19.0509029954
 10
9.0284721266
 20
-19.0296624886
 10
9.0622034417
 20
-19.0081722027
 10
9.0960946377
 20
-18.9864453633
 10
9.1299395394
 20
-18.9646002075
 10
9.1636694218
 20
-18.9426761478
 10
9.1973530099
 20
-18.9206337719
 10
9.2309903037
 20
-18.8984730796
  0
LWPOLYLINE
  5
3A2
100
AcDbEntity
  8
RACCORDO
100
AcDbPolyline
 62
7
  6
CONTINUOUS
 90
3
 70
0
 10
8.4840034152
 20
-19.3583141448
 10
8.4494189381
 20
-19.3771898424
 10
8.4342521581
 20
-19.3849545786
  0
LINE
  5
3A3
100
AcDbEntity
  8
218
100
AcDbLine
 62
7
  6
CONTINUOUS
 10
4.4558612899
 20
-21.1124175416
 11
9.6906775167
 21
-18.3625163813
  0
LINE
  5
3A4
100
AcDbEntity
  8
RACCORDO
100
AcDbLine
 62
250
  6
CONTINUOUS
 10
4.4558612899
 20
-21.3802173283
 11
8.4840034152
 21
-19.3583141448
  0
LINE
  5
3A5
100
AcDbEntity
  8
RACCORDO
100
AcDbLine
 62
7
  6
CONTINUOUS
 10
4.4558612899
 20
-21.3818854091
 11
8.4342448681
 21
-19.3849582471
  0
LINE
  5
3A6
100
AcDbEntity
  8
RACCORDO
100
AcDbLine
 62
250
  6
CONTINUOUS
 10
4.4558612899
 20
-21.1424122976
 11
9.1481018247
 21
-18.8150264006
  0
LINE
  5
3A7
100
AcDbEntity
  8
RACCORDO
100
AcDbLine
 62
250
  6
CONTINUOUS
 10
4.4558612899
 20
-21.2642870253
 11
9.2322533923
 21
-18.8951613305
  0
LINE
  5
3A8
100
AcDbEntity
  8
0
100
AcDbLine
 62
7
  6
CONTINUOUS
 10
0.1614362079
 20
21.891553264
 11
1.521368148
 21
21.9653014514
  0
LINE
  5
3A9
100
AcDbEntity
  8
0
100
AcDbLine
 62
7
  6
CONTINUOUS
 10
12.1975039488
 20
19.2431471447
 11
12.855081418
 21
19.1231556115
  0
LINE
  5
3AA
100
AcDbEntity
  8
0
100
AcDbLine
 62
7
  6
CONTINUOUS
 10
4.1700770578
 20
22.1598093711
 11
3.7203323964
 21
22.2815572043
  0
LWPOLYLINE
  5
3AB
100
AcDbEntity
  8
RACCORDO
100
AcDbPolyline
 62
7
  6
CONTINUOUS
 90
18
 70
0
 10
1.2614705765
 20
22.776966771
 10
1.241922592
 20
22.7860494578
 10
1.2190268118
 20
22.7950348724
 10
1.1955175255
 20
22.8025371052
 10
1.1713762034
 20
22.8085712751
 10
1.1466864501
 20
22.8131170595
 10
1.1214250238
 20
22.8161710429
 10
1.0956151663
 20
22.8177366408
 10
1.0694102074
 20
22.8178037774
 10
1.0428262448
 20
22.8163650015
 10
1.0158471808
 20
22.8134277641
 10
0.9885780522
 20
22.8090043429
 10
0.9610038725
 20
22.8030859572
 10
0.9331396283
 20
22.7956813877
 10
0.9051353152
 20
22.7868292531
 10
0.877040932
 20
22.7765424264
 10
0.84880648
 20
22.7648080346
 10
0.8204319592
 20
22.7516260778
  0
LWPOLYLINE
  5
3AC
100
AcDbEntity
  8
RACCORDO
100
AcDbPolyline
 62
7
  6
CONTINUOUS
 90
10
 70
0
 10
8.7304413684
 20
19.0425034717
 10
8.7073388356
 20
19.0537564638
 10
8.6775627913
 20
19.0673329056
 10
8.6482892722
 20
19.0797185223
 10
8.6194992642
 20
19.0909203188
 10
8.5912117816
 20
19.1009312904
 10
8.5635101252
 20
19.1098310348
 10
8.5364220622
 20
19.1176460848
 10
8.5099198255
 20
19.1243499077
 10
8.4840034152
 20
19.1299425035
  0
LINE
  5
3AD
100
AcDbEntity
  8
RACCORDO
100
AcDbLine
 62
7
  6
CONTINUOUS
 10
5.5041156494
 20
20.6556552009
 11
8.7304388926
 21
19.0424935793
  0
LINE
  5
3AE
100
AcDbEntity
  8
0
100
AcDbLine
 62
7
  6
CONTINUOUS
 10
3.2203118603
 20
22.0365927255
 11
2.5183887094
 21
22.3875543009
  0
LINE
  5
3AF
100
AcDbEntity
  8
0
100
AcDbLine
 62
7
  6
CONTINUOUS
 10
3.7203323964
 20
22.2815572043
 11
3.0133634563
 21
22.6350416743
  0
LINE
  5
3B0
100
AcDbEntity
  8
218
100
AcDbLine
 62
7
  6
CONTINUOUS
 10
9.8865969919
 20
19.7271777945
 11
10.3189112426
 21
19.5110206691
  0
LINE
  5
3B1
100
AcDbEntity
  8
218
100
AcDbLine
 62
7
  6
CONTINUOUS
 10
2.8942900402
 20
23.2233312703
 11
2.4619757894
 21
23.4394883957
  0
LINE
  5
3B2
100
AcDbEntity
  8
RACCORDO
100
AcDbLine
 62
7
  6
CONTINUOUS
 10
6.4237086757
 20
22.3975747515
 11
6.4406384373
 21
22.3891034132
  0
LWPOLYLINE
  5
3B3
100
AcDbEntity
  8
RACCORDO
100
AcDbPolyline
 62
7
  6
CONTINUOUS
 90
10
 70
0
 10
6.3857646084
 20
22.4102424065
 10
6.2882875547
 20
22.4602978382
 10
6.1926743529
 20
22.5092737138
 10
6.0989250029
 20
22.5571700334
 10
6.0070539216
 20
22.6039882212
 10
5.9170466922
 20
22.6497268529
 10
5.8288600642
 20
22.694381656
 10
5.7424796208
 20
22.7379512061
 10
5.6579197788
 20
22.7804369275
 10
5.5751805383
 20
22.8218388202
  0
LINE
  5
3B4
100
AcDbEntity
  8
RACCORDO
100
AcDbLine
 62
7
  6
CONTINUOUS
 10
6.3935230371
 20
22.4056559344
 11
6.3857646084
 21
22.4102424065
  0
LINE
  5
3B5
100
AcDbEntity
  8
RACCORDO
100
AcDbLine
 62
250
  6
CONTINUOUS
 10
6.4237086757
 20
22.3975747515
 11
6.4362420738
 21
22.3870952165
  0
LWPOLYLINE
  5
3B6
100
AcDbEntity
  8
RACCORDO
100
AcDbPolyline
 62
250
  6
CONTINUOUS
 90
3
 70
0
 10
6.3300720765
 20
22.3912787431
 10
6.3529325059
 20
22.3717000096
 10
6.3690230147
 20
22.3571948466
  0
LINE
  5
3B7
100
AcDbEntity
  8
RACCORDO
100
AcDbLine
 62
7
  6
CONTINUOUS
 10
3.3598457791
 20
-26.049665289
 11
3.8881129508
 21
-25.7786542304
  0
LINE
  5
3B8
100
AcDbEntity
  8
RACCORDO
100
AcDbLine
 62
250
  6
CONTINUOUS
 10
3.7487545087
 20
-24.2089484131
 11
4.4558612899
 21
-23.8478373333
  0
LINE
  5
3B9
100
AcDbEntity
  8
RACCORDO
100
AcDbLine
 62
7
  6
CONTINUOUS
 10
3.6587856908
 20
-24.3977609664
 11
4.365892472
 21
-24.0366498866
  0
LINE
  5
3BA
100
AcDbEntity
  8
RACCORDO
100
AcDbLine
 62
7
  6
CONTINUOUS
 10
3.6587857152
 20
-24.3977609545
 11
3.6567781198
 21
-24.3987646607
  0
LINE
  5
3BB
100
AcDbEntity
  8
RACCORDO
100
AcDbLine
 62
250
  6
CONTINUOUS
 10
1.9809875557
 20
-25.0739376665
 11
3.7487545087
 21
-24.2089484131
  0
LINE
  5
3BC
100
AcDbEntity
  8
RACCORDO
100
AcDbLine
 62
7
  6
CONTINUOUS
 10
1.8890111177
 20
-25.2637539382
 11
3.6567780707
 21
-24.3987646847
  0
LINE
  5
3BD
100
AcDbEntity
  8
RACCORDO
100
AcDbLine
 62
7
  6
CONTINUOUS
 10
1.7585649882
 20
-26.8296998887
 11
3.3598457791
 21
-26.049665289
  0
LWPOLYLINE
  5
3BE
100
AcDbEntity
  8
RACCORDO
100
AcDbPolyline
 62
7
  6
CONTINUOUS
 90
9
 70
0
 10
5.5631398565
 20
22.8266566009
 10
5.5570231159
 20
22.8282560986
 10
5.5472529022
 20
22.8297889124
 10
5.5369267068
 20
22.8302043568
 10
5.5261395096
 20
22.8295025843
 10
5.5151762507
 20
22.827684053
 10
5.50413191
 20
22.8247489155
 10
5.4929115075
 20
22.8206970191
 10
5.4815150432
 20
22.8155283638
  0
LWPOLYLINE
  5
3BF
100
AcDbEntity
  8
RACCORDO
100
AcDbPolyline
 62
7
  6
CONTINUOUS
 90
28
 70
0
 10
5.5631297203
 20
22.8266326484
 10
5.4544143737
 20
22.8579184942
 10
5.3395593307
 20
22.8872721712
 10
5.2222979068
 20
22.9135992414
 10
5.102924742
 20
22.9368613331
 10
4.9817043703
 20
22.9570318859
 10
4.8588750008
 20
22.9740911612
 10
4.7347262035
 20
22.9880150028
 10
4.6095427404
 20
22.9987856718
 10
4.4835622229
 20
23.0063930715
 10
4.3570758367
 20
23.0108264502
 10
4.2303731138
 20
23.0120810049
 10
4.1036913683
 20
23.0101562318
 10
3.9773200986
 20
23.0050548968
 10
3.851550508
 20
22.9967856847
 10
3.7266209086
 20
22.9853578092
 10
3.602822034
 20
22.9707879769
 10
3.4804372816
 20
22.9530979554
 10
3.3596888455
 20
22.93230378
 10
3.2408539244
 20
22.90843218
 10
3.1242181009
 20
22.8815171282
 10
3.0100065279
 20
22.8515823609
 10
2.8984913497
 20
22.818665257
 10
2.7899451533
 20
22.7828086222
 10
2.6845782617
 20
22.7440370046
 10
2.5826314793
 20
22.7023841963
 10
2.4843853419
 20
22.6579034217
 10
2.3901012807
 20
22.6106460323
  0
LWPOLYLINE
  5
3C0
100
AcDbEntity
  8
RACCORDO
100
AcDbPolyline
 62
7
  6
CONTINUOUS
 90
3
 70
0
 10
5.5751805383
 20
22.8218388202
 10
5.566332328
 20
22.8256060678
 10
5.5631398565
 20
22.8266566009
  0
LWPOLYLINE
  5
3C1
100
AcDbEntity
  8
218
100
AcDbPolyline
 62
7
  6
CONTINUOUS
 90
10
 70
0
 10
14.0618751783
 20
19.5661960707
 10
14.0979807979
 20
19.5504883458
 10
14.1335154003
 20
19.5344798584
 10
14.1684789854
 20
19.5181706083
 10
14.2028817226
 20
19.5015555109
 10
14.2367134426
 20
19.4846396509
 10
14.2699436374
 20
19.4674382823
 10
14.3025621376
 20
19.4499564897
 10
14.3345791125
 20
19.4321891885
 10
14.3659945622
 20
19.4141363787
  0
LWPOLYLINE
  5
3C2
100
AcDbEntity
  8
218
100
AcDbPolyline
 62
7
  6
CONTINUOUS
 90
10
 70
0
 10
6.6372539758
 20
23.2785066719
 10
6.6733595955
 20
23.2627989471
 10
6.7088941978
 20
23.2467904596
 10
6.743857783
 20
23.2304812095
 10
6.7782605202
 20
23.2138661121
 10
6.8120922402
 20
23.1969502521
 10
6.8453224349
 20
23.1797488835
 10
6.8779409351
 20
23.1622670909
 10
6.9099579101
 20
23.1444997897
 10
6.9413733598
 20
23.1264469799
  0
LWPOLYLINE
  5
3C3
100
AcDbEntity
  8
RACCORDO
100
AcDbPolyline
 62
7
  6
CONTINUOUS
 90
31
 70
0
 10
13.6633997891
 20
19.0397567873
 10
13.5619186145
 20
19.0904296429
 10
13.4558571267
 20
19.1379031485
 10
13.345537799
 20
19.1821113187
 10
13.2312879958
 20
19.2229930533
 10
13.113423872
 20
19.2604970478
 10
12.992268521
 20
19.294574259
 10
12.8681931001
 20
19.3251694213
 10
12.741514485
 20
19.3522487307
 10
12.6124976394
 20
19.3757902829
 10
12.4814911853
 20
19.3957578083
 10
12.3488501296
 20
19.4121215897
 10
12.2148591672
 20
19.4248652843
 10
12.0798750083
 20
19.4339684094
 10
11.9442561967
 20
19.4394180984
 10
11.8082950865
 20
19.4412092002
 10
11.6723506564
 20
19.4393389522
 10
11.5367823121
 20
19.433812384
 10
11.4018827481
 20
19.4246369581
 10
11.2680083554
 20
19.4118277451
 10
11.1355153312
 20
19.395407553
 10
11.0046904436
 20
19.3753955719
 10
10.875884139
 20
19.3518235954
 10
10.7494439167
 20
19.3247305202
 10
10.6256406596
 20
19.294142951
 10
10.5048086071
 20
19.2601042131
 10
10.3872900433
 20
19.2226668909
 10
10.2733487729
 20
19.1818623403
 10
10.1632837561
 20
19.137732514
 10
10.0574410572
 20
19.0903426663
 10
9.9561438394
 20
19.0397567873
  0
LINE
  5
3C4
100
AcDbEntity
  8
218
100
AcDbLine
 62
7
  6
CONTINUOUS
 10
6.4537161348
 20
23.3546157399
 11
7.0852474559
 21
23.0388500793
  0
LINE
  5
3C5
100
AcDbEntity
  8
218
100
AcDbLine
 62
7
  6
CONTINUOUS
 10
13.8783373373
 20
19.6423051386
 11
14.5098686583
 21
19.3265394781
  0
LINE
  5
3C6
100
AcDbEntity
  8
218
100
AcDbLine
 62
7
  6
CONTINUOUS
 10
14.0618751783
 20
19.5661960707
 11
14.3659945622
 21
19.4141363787
  0
LINE
  5
3C7
100
AcDbEntity
  8
218
100
AcDbLine
 62
7
  6
CONTINUOUS
 10
6.9413733598
 20
23.1264469799
 11
6.6372539758
 21
23.2785066719
  0
LINE
  5
3C8
100
AcDbEntity
  8
0
100
AcDbLine
 62
7
  6
CONTINUOUS
 10
14.1203960609
 20
18.7987736169
 11
13.6633997891
 21
19.0397567873
  0
LWPOLYLINE
  5
3C9
100
AcDbEntity
  8
RACCORDO
100
AcDbPolyline
 62
250
  6
CONTINUOUS
 90
8
 70
0
 10
13.6633997891
 20
19.0397567873
 10
13.6890731355
 20
19.0260175705
 10
13.7698792131
 20
18.9799610519
 10
13.8438422376
 20
18.9335578045
 10
13.91141279
 20
18.8869381705
 10
13.9726709276
 20
18.8404707583
 10
14.0278641945
 20
18.7944302637
 10
14.0565238529
 20
18.7681183995
  0
LWPOLYLINE
  5
3CA
100
AcDbEntity
  8
218
100
AcDbPolyline
 62
250
  6
CONTINUOUS
 90
57
 70
0
 10
19.3386947111
 20
15.8022180682
 10
19.3480357563
 20
15.7722387228
 10
19.3602343881
 20
15.7297043363
 10
19.3716784132
 20
15.686165375
 10
19.3823498784
 20
15.6416283413
 10
19.3921819121
 20
15.5961058929
 10
19.4011748735
 20
15.5494920582
 10
19.4092992668
 20
15.501889143
 10
19.4164518481
 20
15.453627754
 10
19.4226170755
 20
15.4046437825
 10
19.4277966746
 20
15.3550090678
 10
19.4319336497
 20
15.3052695181
 10
19.435013174
 20
15.2553650451
 10
19.4370614638
 20
15.2053759677
 10
19.4381121016
 20
15.1560725848
 10
19.4381563719
 20
15.1074279155
 10
19.4372479612
 20
15.0595001442
 10
19.4355475246
 20
15.01320083
 10
19.4330959076
 20
14.968846245
 10
19.4299324812
 20
14.9261579299
 10
19.4262298336
 20
14.8851600498
 10
19.4220444333
 20
14.845975264
 10
19.4173869235
 20
14.8085072975
 10
19.412351866
 20
14.7724484727
 10
19.4069703881
 20
14.7377669217
 10
19.4012583686
 20
14.7045104715
 10
19.3952768702
 20
14.6724876482
 10
19.3890448358
 20
14.6416729266
 10
19.3825791376
 20
14.6121022484
 10
19.3759317145
 20
14.5836746412
 10
19.3691195952
 20
14.5563900973
 10
19.3621545141
 20
14.5302558152
 10
19.3550766088
 20
14.5051806841
 10
19.3479023888
 20
14.4811740715
 10
19.3406381477
 20
14.458231604
 10
19.3333054203
 20
14.4362408662
 10
19.325918841
 20
14.4152087075
 10
19.3184811865
 20
14.3951317003
 10
19.3109932735
 20
14.3758814444
 10
19.3034624304
 20
14.3574501061
 10
19.2958941706
 20
14.3398478316
 10
19.2882843092
 20
14.3229727699
 10
19.2806297151
 20
14.3068050254
 10
19.2729430726
 20
14.2913661266
 10
19.2652425097
 20
14.2766161387
 10
19.2575243828
 20
14.2625473623
 10
19.2497997683
 20
14.2491688292
 10
19.2421080199
 20
14.2364656348
 10
19.2344545265
 20
14.2244489953
 10
19.2268395643
 20
14.213108891
 10
19.2192940433
 20
14.2023985123
 10
19.2118312758
 20
14.1923336315
 10
19.2044418508
 20
14.1828995119
 10
19.1971218066
 20
14.1740034633
 10
19.1898705115
 20
14.1656148301
 10
19.1826909469
 20
14.1577650705
 10
19.1755841095
 20
14.1504545828
  0
LWPOLYLINE
  5
3CB
100
AcDbEntity
  8
218
100
AcDbPolyline
 62
250
  6
CONTINUOUS
 90
26
 70
0
 10
18.4430107306
 20
20.1653222658
 10
18.4359614344
 20
20.168755274
 10
18.4207087247
 20
20.1755756969
 10
18.4051400636
 20
20.181723427
 10
18.3892670276
 20
20.1871938928
 10
18.3731014194
 20
20.1919830268
 10
18.3566552592
 20
20.1960872679
 10
18.3399407759
 20
20.1995035643
 10
18.322970398
 20
20.2022293758
 10
18.3057567439
 20
20.2042626755
 10
18.2883126134
 20
20.2056019515
 10
18.2706509765
 20
20.2062462079
 10
18.2527849667
 20
20.2061949658
 10
18.2347278708
 20
20.2054482633
 10
18.2164931173
 20
20.204006656
 10
18.1980942634
 20
20.2018712161
 10
18.1795449877
 20
20.1990435314
 10
18.1608590697
 20
20.1955257016
 10
18.1420504165
 20
20.1913203444
 10
18.1231330513
 20
20.1864305969
 10
18.1041210613
 20
20.1808601055
 10
18.0850285634
 20
20.1746130112
 10
18.0658697316
 20
20.1676939545
 10
18.0466588039
 20
20.1601080784
 10
18.0274100725
 20
20.1518610278
 10
18.0081378501
 20
20.1429589362
  0
LWPOLYLINE
  5
3CC
100
AcDbEntity
  8
218
100
AcDbPolyline
 62
250
  6
CONTINUOUS
 90
24
 70
0
 10
4.858269749
 20
26.7178929867
 10
4.83785099
 20
26.7278763932
 10
4.8174390636
 20
26.7371137393
 10
4.7970512349
 20
26.7455972119
 10
4.7767047483
 20
26.7533196354
 10
4.7564168136
 20
26.760274478
 10
4.7362045909
 20
26.7664558571
 10
4.7160851761
 20
26.7718585444
 10
4.696075587
 20
26.7764779699
 10
4.676192748
 20
26.7803102266
 10
4.6564534768
 20
26.783352073
 10
4.6368744694
 20
26.7856009362
 10
4.6174722861
 20
26.7870549141
 10
4.598263338
 20
26.7877127768
 10
4.5792638724
 20
26.7875739679
 10
4.5604899597
 20
26.7866386049
 10
4.5419574794
 20
26.7849074788
 10
4.5236821067
 20
26.7823820539
 10
4.5056792996
 20
26.7790644663
 10
4.4879642852
 20
26.7749575221
 10
4.4705520474
 20
26.770064695
 10
4.453457314
 20
26.7643901236
 10
4.4366945441
 20
26.7579386075
 10
4.4193849985
 20
26.7502959217
  0
LINE
  5
3CD
100
AcDbEntity
  8
218
100
AcDbLine
 62
7
  6
CONTINUOUS
 10
16.96745338
 20
20.1652076858
 11
13.8586378093
 21
21.7196154712
  0
LINE
  5
3CE
100
AcDbEntity
  8
218
100
AcDbLine
 62
7
  6
CONTINUOUS
 10
9.5428321776
 20
23.877518287
 11
6.4340166068
 21
25.4319260724
  0
LINE
  5
3CF
100
AcDbEntity
  8
218
100
AcDbLine
 62
250
  6
CONTINUOUS
 10
17.4757399922
 20
20.4091578651
 11
18.0081378501
 21
20.1429589362
  0
LINE
  5
3D0
100
AcDbEntity
  8
218
100
AcDbLine
 62
250
  6
CONTINUOUS
 10
12.8152888094
 20
22.7393834565
 11
10.0511187897
 21
24.1214684664
  0
LINE
  5
3D1
100
AcDbEntity
  8
218
100
AcDbLine
 62
250
  6
CONTINUOUS
 10
5.3906676069
 20
26.4516940578
 11
4.858269749
 21
26.7178929867
  0
LINE
  5
3D2
100
AcDbEntity
  8
218
100
AcDbLine
 62
7
  6
CONTINUOUS
 10
17.822446103
 20
20.4756045796
 11
18.4430107306
 21
20.1653222658
  0
LINE
  5
3D3
100
AcDbEntity
  8
218
100
AcDbLine
 62
7
  6
CONTINUOUS
 10
13.3383284597
 20
22.7176634013
 11
10.3978249005
 21
24.1879151809
  0
LINE
  5
3D4
100
AcDbEntity
  8
218
100
AcDbLine
 62
7
  6
CONTINUOUS
 10
5.9137072572
 20
26.4299740025
 11
5.2931426295
 21
26.7402563164
  0
LWPOLYLINE
  5
3D5
100
AcDbEntity
  8
218
100
AcDbPolyline
 62
7
  6
CONTINUOUS
 90
104
 70
0
 10
19.3386947111
 20
17.6212904743
 10
19.3514160558
 20
17.6120356491
 10
19.3962376676
 20
17.5781673276
 10
19.4407215146
 20
17.5432924154
 10
19.4848791746
 20
17.5074076278
 10
19.5287097517
 20
17.4705174367
 10
19.5721815042
 20
17.432652103
 10
19.6152591247
 20
17.3938472664
 10
19.6579220454
 20
17.3541272445
 10
19.7001597522
 20
17.3135074407
 10
19.7419522536
 20
17.2720125113
 10
19.7832783796
 20
17.2296692413
 10
19.8241291333
 20
17.1864924571
 10
19.8645022551
 20
17.1424890805
 10
19.9043930788
 20
17.0976673981
 10
19.9437755513
 20
17.0520597214
 10
19.9826154766
 20
17.0057100993
 10
20.020884375
 20
16.9586586346
 10
20.0585830015
 20
16.910910393
 10
20.0957207388
 20
16.8624572314
 10
20.132296441
 20
16.813302092
 10
20.1682816366
 20
16.7634845176
 10
20.2036445879
 20
16.7130514776
 10
20.2383618756
 20
16.6620410355
 10
20.2724308986
 20
16.6104615608
 10
20.3058514705
 20
16.558316196
 10
20.3386154422
 20
16.5056190868
 10
20.3707041398
 20
16.4524015307
 10
20.4021012767
 20
16.3986922876
 10
20.4327926209
 20
16.344517691
 10
20.4627675545
 20
16.2898983107
 10
20.4920155882
 20
16.2348546314
 10
20.5205241921
 20
16.1794113244
 10
20.548282129
 20
16.1235911458
 10
20.5752808112
 20
16.0674117035
 10
20.6015094724
 20
16.0108951087
 10
20.6269559552
 20
15.954067022
 10
20.6516096613
 20
15.8969503504
 10
20.6754601805
 20
15.8395680473
 10
20.6984963831
 20
15.7819454236
 10
20.7207070523
 20
15.7241089451
 10
20.742079518
 20
15.666090251
 10
20.7626068687
 20
15.6079063986
 10
20.7822861923
 20
15.5495617482
 10
20.8011129715
 20
15.4910626875
 10
20.8190711479
 20
15.4324514231
 10
20.8361415753
 20
15.3737858693
 10
20.852309446
 20
15.315116416
 10
20.8675749028
 20
15.256441593
 10
20.8819411749
 20
15.1977412634
 10
20.8954053658
 20
15.1390116477
 10
20.9079514362
 20
15.0803054446
 10
20.9195631785
 20
15.0216867409
 10
20.930230084
 20
14.9632026297
 10
20.9399506297
 20
14.9048542489
 10
20.9487230142
 20
14.8466361986
 10
20.9565421478
 20
14.7885559533
 10
20.9633983733
 20
14.7306545706
 10
20.9692830424
 20
14.6729763999
 10
20.9741904611
 20
14.615547791
 10
20.9781156457
 20
14.5583898427
 10
20.9810530484
 20
14.5015377739
 10
20.9829981973
 20
14.4450247308
 10
20.9839476949
 20
14.3888637632
 10
20.9838975618
 20
14.3330592175
 10
20.9828422485
 20
14.2776007883
 10
20.9807770619
 20
14.2225457569
 10
20.9777030452
 20
14.1679973123
 10
20.9736246197
 20
14.1140231324
 10
20.9685401494
 20
14.0605959267
 10
20.9624427817
 20
14.0076750686
 10
20.955320556
 20
13.9552182248
 10
20.9471780001
 20
13.9033132061
 10
20.9380373661
 20
13.8521110888
 10
20.9279171418
 20
13.8016895096
 10
20.9168126934
 20
13.7520030089
 10
20.9047161231
 20
13.7030145518
 10
20.8916166076
 20
13.6546944745
 10
20.8775288304
 20
13.6071108321
 10
20.862485732
 20
13.5603707077
 10
20.8465040438
 20
13.5145092257
 10
20.829586301
 20
13.4695183528
 10
20.8117515868
 20
13.4254345825
 10
20.7930155706
 20
13.3822799897
 10
20.7733857535
 20
13.3400563964
 10
20.7528704649
 20
13.2987690011
 10
20.731461603
 20
13.2583939631
 10
20.7091893008
 20
13.2189811214
 10
20.6861264912
 20
13.1806401027
 10
20.6623335895
 20
13.1434377296
 10
20.6377927634
 20
13.1073139042
 10
20.6124610621
 20
13.0721878848
 10
20.5863211377
 20
13.0380301757
 10
20.5594180562
 20
13.0048943943
 10
20.5318003868
 20
12.9728282566
 10
20.5035032232
 20
12.941855804
 10
20.4745311011
 20
12.9119656893
 10
20.444889818
 20
12.883150672
 10
20.4146017762
 20
12.8554205258
 10
20.3836845324
 20
12.8287794709
 10
20.3521353188
 20
12.8032154
 10
20.3199660185
 20
12.7787305865
 10
20.2872045159
 20
12.7553388628
 10
20.2538714977
 20
12.7330470175
  0
LWPOLYLINE
  5
3D6
100
AcDbEntity
  8
218
100
AcDbPolyline
 62
250
  6
CONTINUOUS
 90
105
 70
0
 10
19.3386947111
 20
17.5310418359
 10
19.3532374557
 20
17.5193386289
 10
19.3952925159
 20
17.484345924
 10
19.4371001469
 20
17.4484037502
 10
19.4786420825
 20
17.4115278107
 10
19.5199001784
 20
17.3737342122
 10
19.5608564248
 20
17.3350394529
 10
19.6014929422
 20
17.2954604252
 10
19.6417919873
 20
17.2550144107
 10
19.6817359631
 20
17.2137190703
 10
19.7213074312
 20
17.1715924324
 10
19.7604891166
 20
17.1286528868
 10
19.7992639068
 20
17.084919187
 10
19.8376148616
 20
17.0404104398
 10
19.8755252273
 20
16.9951460897
 10
19.9129784591
 20
16.9491458923
 10
19.949958218
 20
16.9024299148
 10
19.9864483683
 20
16.8550185398
 10
20.0224329645
 20
16.8069324835
 10
20.0578962741
 20
16.7581927693
 10
20.0928227983
 20
16.7088207004
 10
20.1271973019
 20
16.6588378154
 10
20.1610047992
 20
16.6082659046
 10
20.1942305439
 20
16.5571270237
 10
20.2268600106
 20
16.5054435268
 10
20.2588789253
 20
16.4532380231
 10
20.2902732903
 20
16.4005333386
 10
20.3210294165
 20
16.3473524578
 10
20.3511339021
 20
16.2937185538
 10
20.3805736195
 20
16.2396550111
 10
20.4093356938
 20
16.1851854692
 10
20.4374075382
 20
16.1303337649
 10
20.4647768785
 20
16.0751238864
 10
20.4914317839
 20
16.0195799051
 10
20.5173606426
 20
15.9637260175
 10
20.5425521487
 20
15.9075865731
 10
20.5669952834
 20
15.8511861226
 10
20.5906793485
 20
15.7945493514
 10
20.613593988
 20
15.7377010291
 10
20.6357292141
 20
15.6806659398
 10
20.6570753843
 20
15.6234689293
 10
20.6776231899
 20
15.566134934
 10
20.6973636433
 20
15.5086890264
 10
20.7162881052
 20
15.4511563467
 10
20.7343883025
 20
15.3935620528
 10
20.7516563451
 20
15.3359312566
 10
20.768084709
 20
15.2782890697
 10
20.7836662284
 20
15.2206606278
 10
20.7983940888
 20
15.1630711275
 10
20.8122618471
 20
15.1055457628
 10
20.8252634427
 20
15.0481096811
 10
20.8373932066
 20
14.9907879321
 10
20.8486458513
 20
14.9336055044
 10
20.8590164667
 20
14.876587342
 10
20.8685005186
 20
14.8197583667
 10
20.8770938603
 20
14.7631434251
 10
20.8847927379
 20
14.7067672567
 10
20.8915937932
 20
14.6506544588
 10
20.8974940597
 20
14.5948295089
 10
20.9024909615
 20
14.5393167704
 10
20.906582315
 20
14.4841404956
 10
20.9097663323
 20
14.4293247914
 10
20.9120416234
 20
14.3748935989
 10
20.9134071953
 20
14.320870679
 10
20.913862452
 20
14.2672796158
 10
20.9134071947
 20
14.2141438097
 10
20.9120416223
 20
14.1614864621
 10
20.9097663306
 20
14.1093305612
 10
20.9065823127
 20
14.0576988746
 10
20.9024909586
 20
14.0066139535
 10
20.8974940562
 20
13.9560981171
 10
20.8915937892
 20
13.9061734342
 10
20.8847927333
 20
13.856861692
 10
20.8770938552
 20
13.8081844016
 10
20.8685005129
 20
13.7601628022
 10
20.8590164604
 20
13.7128178792
 10
20.8486458445
 20
13.6661703327
 10
20.8373931992
 20
13.6202405501
 10
20.8252634347
 20
13.5750485655
 10
20.8122618386
 20
13.5306140799
 10
20.7983940797
 20
13.4869564741
 10
20.7836662188
 20
13.4440948349
 10
20.7680846989
 20
13.4020479129
 10
20.7516563344
 20
13.3608340903
 10
20.7343882912
 20
13.3204713372
 10
20.7162880934
 20
13.280977241
 10
20.697363631
 20
13.242369024
 10
20.6776231773
 20
13.2046635706
 10
20.6570753711
 20
13.1678773816
 10
20.6357292004
 20
13.1320265417
 10
20.6135939736
 20
13.0971266789
 10
20.5906793335
 20
13.0631929966
 10
20.5669952681
 20
13.0302402913
 10
20.5425521331
 20
12.9982829765
 10
20.5173606266
 20
12.9673350391
 10
20.4914317673
 20
12.9374100107
 10
20.4647768612
 20
12.9085209351
 10
20.4374075203
 20
12.8806803974
 10
20.4093356756
 20
12.8539005385
 10
20.3805736012
 20
12.8281930719
 10
20.3511338837
 20
12.8035692474
 10
20.3210293974
 20
12.7800398297
 10
20.2902732704
 20
12.7576150755
 10
20.2588789048
 20
12.7363047567
 10
20.2538714982
 20
12.7330470178
  0
LWPOLYLINE
  5
3D7
100
AcDbEntity
  8
218
100
AcDbPolyline
 62
250
  6
CONTINUOUS
 90
34
 70
0
 10
18.9967272679
 20
19.538222182
 10
18.9957701327
 20
19.5394832552
 10
18.9938974026
 20
19.5408990165
 10
18.9913843402
 20
19.5419403095
 10
18.9882328116
 20
19.5426063609
 10
18.9844451573
 20
19.542896676
 10
18.9800241899
 20
19.5428110393
 10
18.9749731925
 20
19.5423495144
 10
18.969295916
 20
19.541512444
 10
18.9629965764
 20
19.5403004497
 10
18.9560798515
 20
19.5387144316
 10
18.9485508779
 20
19.5367555674
 10
18.9404152464
 20
19.5344253118
 10
18.9316789988
 20
19.5317253953
 10
18.9223486226
 20
19.5286578228
 10
18.9124310465
 20
19.5252248723
 10
18.9019336355
 20
19.5214290932
 10
18.8908641849
 20
19.5172733042
 10
18.8792309151
 20
19.5127605915
 10
18.8670424648
 20
19.5078943061
 10
18.8543078854
 20
19.5026780619
 10
18.8410366336
 20
19.4971157324
 10
18.8272385646
 20
19.4912114483
 10
18.8129239252
 20
19.4849695941
 10
18.7981033452
 20
19.478394805
 10
18.7827878307
 20
19.4714919635
 10
18.766988755
 20
19.4642661958
 10
18.7507178505
 20
19.4567228677
 10
18.7339872002
 20
19.4488675808
 10
18.7168092282
 20
19.4407061687
 10
18.6991966912
 20
19.432244692
 10
18.6811626681
 20
19.4234894343
 10
18.6627205513
 20
19.4144468971
 10
18.6438840358
 20
19.4051237957
  0
LWPOLYLINE
  5
3D8
100
AcDbEntity
  8
218
100
AcDbPolyline
 62
250
  6
CONTINUOUS
 90
34
 70
0
 10
18.8609049464
 20
19.7724810343
 10
18.8599477943
 20
19.7737421367
 10
18.858075064
 20
19.775157898
 10
18.8555620015
 20
19.7761991909
 10
18.8524104728
 20
19.7768652422
 10
18.8486228184
 20
19.7771555572
 10
18.8442018509
 20
19.7770699205
 10
18.8391508534
 20
19.7766083955
 10
18.8334735768
 20
19.7757713251
 10
18.8271742371
 20
19.7745593307
 10
18.8202575122
 20
19.7729733125
 10
18.8127285384
 20
19.7710144483
 10
18.804592907
 20
19.7686841926
 10
18.7958566593
 20
19.7659842761
 10
18.786526283
 20
19.7629167035
 10
18.7766087069
 20
19.759483753
 10
18.7661112959
 20
19.7556879739
 10
18.7550418453
 20
19.7515321849
 10
18.7434085754
 20
19.7470194721
 10
18.7312201252
 20
19.7421531867
 10
18.7184855458
 20
19.7369369425
 10
18.705214294
 20
19.731374613
 10
18.6914162251
 20
19.7254703289
 10
18.6771015857
 20
19.7192284747
 10
18.6622810059
 20
19.7126536857
 10
18.6469654914
 20
19.7057508442
 10
18.6311664158
 20
19.6985250765
 10
18.6148955114
 20
19.6909817484
 10
18.5981648612
 20
19.6831264617
 10
18.5809868894
 20
19.6749650496
 10
18.5633743525
 20
19.666503573
 10
18.5453403296
 20
19.6577483153
 10
18.5268982129
 20
19.6487057782
 10
18.5080616977
 20
19.6393826769
  0
LWPOLYLINE
  5
3D9
100
AcDbEntity
  8
218
100
AcDbPolyline
 62
7
  6
CONTINUOUS
 90
23
 70
0
 10
18.8609049464
 20
19.7724810343
 10
18.8473248529
 20
19.7952046646
 10
18.8331518358
 20
19.8175550287
 10
18.8183961195
 20
19.839517015
 10
18.8030693474
 20
19.8610743487
 10
18.7871815176
 20
19.8822139435
 10
18.7707406313
 20
19.9029255945
 10
18.7537556981
 20
19.9231977782
 10
18.7362407304
 20
19.943013578
 10
18.7182118497
 20
19.9623551099
 10
18.6996854603
 20
19.9812057291
 10
18.6806713958
 20
19.9995563453
 10
18.6611763197
 20
20.0174006279
 10
18.6412111506
 20
20.0347280072
 10
18.6207919814
 20
20.0515239508
 10
18.5999333305
 20
20.0677761559
 10
18.5786478047
 20
20.0834743614
 10
18.5569519675
 20
20.0986059265
 10
18.5348671797
 20
20.1131560124
 10
18.5124138159
 20
20.1271118728
 10
18.4896033925
 20
20.1404670271
 10
18.4664444229
 20
20.1532165188
 10
18.4430112583
 20
20.165322002
  0
LWPOLYLINE
  5
3DA
100
AcDbEntity
  8
218
100
AcDbPolyline
 62
250
  6
CONTINUOUS
 90
28
 70
0
 10
18.5080616977
 20
19.6393826769
 10
18.4934521972
 20
19.664376996
 10
18.4784217661
 20
19.6890384971
 10
18.4629831176
 20
19.7133463208
 10
18.4471493101
 20
19.7372799068
 10
18.4309337363
 20
19.7608190115
 10
18.4143501117
 20
19.7839437247
 10
18.3974124633
 20
19.806634487
 10
18.3801351174
 20
19.8288721059
 10
18.3625326877
 20
19.8506377722
 10
18.3446200627
 20
19.8719130759
 10
18.3264123935
 20
19.8926800217
 10
18.3079250807
 20
19.9129210444
 10
18.2891737613
 20
19.9326190235
 10
18.2701742958
 20
19.9517572979
 10
18.2509427543
 20
19.97031968
 10
18.2314954036
 20
19.9882904691
 10
18.2118486926
 20
20.0056544652
 10
18.1920192392
 20
20.0223969811
 10
18.1720238156
 20
20.0385038556
 10
18.1518793345
 20
20.0539614652
 10
18.1316028348
 20
20.0687567352
 10
18.1112114668
 20
20.0828771515
 10
18.0907224781
 20
20.0963107705
 10
18.0701531989
 20
20.1090462299
 10
18.0495210272
 20
20.1210727575
 10
18.0288434144
 20
20.132380181
 10
18.0081378501
 20
20.1429589362
  0
LINE
  5
3DB
100
AcDbEntity
  8
218
100
AcDbLine
 62
250
  6
CONTINUOUS
 10
18.5080616977
 20
19.6393826769
 11
18.6438840358
 21
19.4051237957
  0
LINE
  5
3DC
100
AcDbEntity
  8
218
100
AcDbLine
 62
7
  6
CONTINUOUS
 10
18.8609049464
 20
19.7724810343
 11
18.9967272846
 21
19.5382221531
  0
LWPOLYLINE
  5
3DD
100
AcDbEntity
  8
218
100
AcDbPolyline
 62
250
  6
CONTINUOUS
 90
37
 70
0
 10
18.6438840358
 20
19.4051237957
 10
18.6655648436
 20
19.3673851241
 10
18.6867536437
 20
19.3293168768
 10
18.7074403124
 20
19.2909371458
 10
18.7276148926
 20
19.2522642228
 10
18.7472678256
 20
19.2133164406
 10
18.7663899455
 20
19.1741121593
 10
18.7849721755
 20
19.134669901
 10
18.8030055739
 20
19.0950085233
 10
18.8204815642
 20
19.05514706
 10
18.8373917899
 20
19.0151045301
 10
18.853728201
 20
18.9748999075
 10
18.8694830915
 20
18.9345522911
 10
18.884648956
 20
18.894080871
 10
18.8992185537
 20
18.853504892
 10
18.9131849963
 20
18.8128436244
 10
18.9265416449
 20
18.7721163845
 10
18.9392821163
 20
18.7313425703
 10
18.9514003448
 20
18.6905416244
 10
18.9628905721
 20
18.6497329634
 10
18.9737473238
 20
18.6089359999
 10
18.9839654165
 20
18.568170177
 10
18.9935400002
 20
18.5274549282
 10
19.0024665301
 20
18.4868095968
 10
19.0107407438
 20
18.4462534576
 10
19.0183587288
 20
18.4058058198
 10
19.0253168706
 20
18.3654859332
 10
19.0316118217
 20
18.3253129086
 10
19.0372406265
 20
18.2853058176
 10
19.0422006122
 20
18.2454837667
 10
19.0464893393
 20
18.2058658014
 10
19.0501048023
 20
18.1664709066
 10
19.0530453273
 20
18.1273177235
 10
19.0553094525
 20
18.0884246267
 10
19.0568960988
 20
18.0498100557
 10
19.0578045825
 20
18.0114925007
 10
19.0580345115
 20
17.9734902211
  0
ELLIPSE
  5
3DE
100
AcDbEntity
  8
RACCORDO
100
AcDbEllipse
 62
7
  6
CONTINUOUS
 10
-15.8484014289
 20
18.6254017512
 30
0.0
 11
-0.4261128038
 21
0.6773481015
 31
0.0
 40
0.5566415623
 41
-0.7420776615
 42
0.0161673196
  0
ELLIPSE
  5
3DF
100
AcDbEntity
  8
RACCORDO
100
AcDbEllipse
 62
7
  6
CONTINUOUS
 10
-1.2823895618
 20
11.3423958177
 30
0.0
 11
-0.4259942844
 21
0.6772075271
 31
0.0
 40
0.556894982
 41
-2.3128365429
 42
-0.7422686502
  0
ELLIPSE
  5
3E0
100
AcDbEntity
  8
RACCORDO
100
AcDbEllipse
 62
7
  6
CONTINUOUS
 10
1.8293341921
 20
-23.3616294464
 30
0.0
 11
-0.4261128038
 21
0.6773481015
 31
0.0
 40
0.5566415623
 41
-3.1577599578
 42
-2.3131024224
  0
ELLIPSE
  5
3E1
100
AcDbEntity
  8
RACCORDO
100
AcDbEllipse
 62
7
  6
CONTINUOUS
 10
0.1517660352
 20
-25.8087692859
 30
0.0
 11
0.110769438
 21
0.2241226716
 31
0.0
 40
0.6088015717
 41
-4.0304836828
 42
-3.1444065583
  0
ELLIPSE
  5
3E2
100
AcDbEntity
  8
RACCORDO
100
AcDbEllipse
 62
7
  6
CONTINUOUS
 10
-13.2125521292
 20
22.4263653295
 30
0.0
 11
0.110769438
 21
0.2241226716
 31
0.0
 40
0.6088015717
 41
-4.0304836828
 42
-3.144406558
  0
ELLIPSE
  5
3E3
100
AcDbEntity
  8
RACCORDO
100
AcDbEllipse
 62
7
  6
CONTINUOUS
 10
0.1517660352
 20
15.7442062473
 30
0.0
 11
0.110769438
 21
0.2241226716
 31
0.0
 40
0.6088015717
 41
-4.0304836828
 42
-3.144406558
  0
ELLIPSE
  5
3E4
100
AcDbEntity
  8
RACCORDO
100
AcDbEllipse
 62
7
  6
CONTINUOUS
 10
4.2083739165
 20
14.4524881981
 30
0.0
 11
-0.1565168911
 21
0.3130623908
 31
0.0
 40
0.6123677712
 41
-2.2554744912
 42
-0.6846781644
  0
ELLIPSE
  5
3E5
100
AcDbEntity
  8
RACCORDO
100
AcDbEllipse
 62
7
  6
CONTINUOUS
 10
4.2083739165
 20
-23.7240936465
 30
0.0
 11
-0.1565168911
 21
0.3130623908
 31
0.0
 40
0.6123677712
 41
-3.1363565269
 42
-2.2554744912
  0
ELLIPSE
  5
3E6
100
AcDbEntity
  8
RACCORDO
100
AcDbEllipse
 62
7
  6
CONTINUOUS
 10
-1.558221632
 20
23.5577195033
 30
0.0
 11
0.2999991737
 21
-0.0014183462
 31
0.0
 40
0.4964289597
 41
0.7877451926
 42
2.3527237553
  0
ELLIPSE
  5
3E7
100
AcDbEntity
  8
RACCORDO
100
AcDbEllipse
 62
7
  6
CONTINUOUS
 10
3.9962418821
 20
20.7804877462
 30
0.0
 11
0.2999991737
 21
-0.0014183462
 31
0.0
 40
0.4964289597
 41
0.7877451926
 42
2.3585415194
  0
ELLIPSE
  5
3E8
100
AcDbEntity
  8
RACCORDO
100
AcDbEllipse
 62
7
  6
CONTINUOUS
 10
3.5355940176
 20
15.070059209
 30
0.0
 11
0.110769438
 21
0.2241226716
 31
0.0
 40
0.6088015717
 41
1.2055040732
 42
2.2526937431
  0
ELLIPSE
  5
3E9
100
AcDbEntity
  8
RACCORDO
100
AcDbEllipse
 62
7
  6
CONTINUOUS
 10
-9.8287241468
 20
21.7522182912
 30
0.0
 11
0.110769438
 21
0.2241226716
 31
0.0
 40
0.6088015717
 41
1.2055040732
 42
2.2526937431
  0
ELLIPSE
  5
3EA
100
AcDbEntity
  8
RACCORDO
100
AcDbEllipse
 62
7
  6
CONTINUOUS
 10
3.8870904948
 20
15.9978643611
 30
0.0
 11
0.110769438
 21
0.2241226716
 31
0.0
 40
0.6088015717
 41
-1.9360885804
 42
-0.8888910292
  0
ELLIPSE
  5
3EB
100
AcDbEntity
  8
RACCORDO
100
AcDbEllipse
 62
7
  6
CONTINUOUS
 10
2.2669156384
 20
17.0688807656
 30
0.0
 11
0.1128509832
 21
0.2230818409
 31
0.0
 40
0.6159267166
 41
0.0028868672
 42
0.6817883054
  0
ELLIPSE
  5
3EC
100
AcDbEntity
  8
RACCORDO
100
AcDbEllipse
 62
7
  6
CONTINUOUS
 10
0.1517660352
 20
15.997577641
 30
0.0
 11
0.110769438
 21
0.2241226716
 31
0.0
 40
0.6088015717
 41
0.6877230618
 42
2.2527016244
  0
ELLIPSE
  5
3ED
100
AcDbEntity
  8
RACCORDO
100
AcDbEllipse
 62
7
  6
CONTINUOUS
 10
-9.4772276697
 20
22.6800234433
 30
0.0
 11
0.110769438
 21
0.2241226716
 31
0.0
 40
0.6088015717
 41
-1.9360885804
 42
-0.8888910292
  0
ELLIPSE
  5
3EE
100
AcDbEntity
  8
RACCORDO
100
AcDbEllipse
 62
7
  6
CONTINUOUS
 10
-11.097402526
 20
23.7510398478
 30
0.0
 11
0.1128509832
 21
0.2230818409
 31
0.0
 40
0.6159267166
 41
0.0028868672
 42
0.6817883054
  0
ELLIPSE
  5
3EF
100
AcDbEntity
  8
RACCORDO
100
AcDbEllipse
 62
7
  6
CONTINUOUS
 10
-13.2125521292
 20
22.6797367232
 30
0.0
 11
0.110769438
 21
0.2241226716
 31
0.0
 40
0.6088015717
 41
0.6877230618
 42
2.2527016244
  0
ELLIPSE
  5
3F0
100
AcDbEntity
  8
RACCORDO
100
AcDbEllipse
 62
7
  6
CONTINUOUS
 10
3.8870904948
 20
-25.5626687547
 30
0.0
 11
0.110769438
 21
0.2241226716
 31
0.0
 40
0.6088015717
 41
-2.4538695918
 42
-0.8888910292
  0
ELLIPSE
  5
3F1
100
AcDbEntity
  8
RACCORDO
100
AcDbEllipse
 62
7
  6
CONTINUOUS
 10
0.1517660352
 20
-25.5553978921
 30
0.0
 11
0.110769438
 21
0.2241226716
 31
0.0
 40
0.6088015717
 41
1.2055040732
 42
2.2527016244
  0
ELLIPSE
  5
3F2
100
AcDbEntity
  8
RACCORDO
100
AcDbEllipse
 62
7
  6
CONTINUOUS
 10
3.8870904948
 20
-25.3017397783
 30
0.0
 11
0.110769438
 21
0.2241226716
 31
0.0
 40
0.6088015717
 41
5.394294278
 42
6.4414918292
  0
ELLIPSE
  5
3F3
100
AcDbEntity
  8
RACCORDO
100
AcDbEllipse
 62
7
  6
CONTINUOUS
 10
-9.4772276697
 20
22.9409524196
 30
0.0
 11
0.110769438
 21
0.2241226716
 31
0.0
 40
0.6088015717
 41
5.394294278
 42
6.9592728406
  0
ELLIPSE
  5
3F4
100
AcDbEntity
  8
RACCORDO
100
AcDbEllipse
 62
7
  6
CONTINUOUS
 10
3.8870904948
 20
16.2587933374
 30
0.0
 11
0.110769438
 21
0.2241226716
 31
0.0
 40
0.6088015717
 41
5.394294278
 42
6.9592728406
  0
ELLIPSE
  5
3F5
100
AcDbEntity
  8
RACCORDO
100
AcDbEllipse
 62
7
  6
CONTINUOUS
 10
-1.3777696549
 20
22.2356593334
 30
0.0
 11
0.2999981629
 21
-0.0021225547
 31
0.0
 40
0.4946372042
 41
-0.7818985079
 42
0.0034996555
  0
ELLIPSE
  5
3F6
100
AcDbEntity
  8
RACCORDO
100
AcDbEllipse
 62
7
  6
CONTINUOUS
 10
4.1766938593
 20
19.4584275763
 30
0.0
 11
0.2999981629
 21
-0.0021225547
 31
0.0
 40
0.4946372042
 41
-0.7760807437
 42
0.0034996555
  0
ELLIPSE
  5
3F7
100
AcDbEntity
  8
RACCORDO
100
AcDbEllipse
 62
7
  6
CONTINUOUS
 10
-7.5267153824
 20
20.6375381354
 30
0.0
 11
0.2999991335
 21
0.0014318851
 31
0.0
 40
0.5035541159
 41
8.6427941204
 42
10.207772683
  0
ELLIPSE
  5
3F8
100
AcDbEntity
  8
RACCORDO
100
AcDbEllipse
 62
7
  6
CONTINUOUS
 10
1.7335001823
 20
-24.9501939798
 30
0.0
 11
-0.1565168911
 21
0.3130623908
 31
0.0
 40
0.6123677712
 41
2.4569144891
 42
4.0277108159
  0
ELLIPSE
  5
3F9
100
AcDbEntity
  8
RACCORDO
100
AcDbEllipse
 62
7
  6
CONTINUOUS
 10
-13.5400062913
 20
20.8404680341
 30
0.0
 11
-0.1565168911
 21
0.3130623908
 31
0.0
 40
0.6123677712
 41
-0.6846781644
 42
0.8861181623
  0
ELLIPSE
  5
3FA
100
AcDbEntity
  8
RACCORDO
100
AcDbEllipse
 62
7
  6
CONTINUOUS
 10
1.7335001823
 20
13.2037147973
 30
0.0
 11
-0.1565168911
 21
0.3130623908
 31
0.0
 40
0.6123677712
 41
-2.2554744912
 42
-0.6846781644
  0
ELLIPSE
  5
3FB
100
AcDbEntity
  8
RACCORDO
100
AcDbEllipse
 62
7
  6
CONTINUOUS
 10
0.3469655878
 20
-1.5255445523
 30
0.0
 11
-0.0646337196
 21
0.1902471476
 31
0.0
 40
0.6675902134
 41
-2.1647611171
 42
-0.8340475656
  0
ELLIPSE
  5
3FC
100
AcDbEntity
  8
RACCORDO
100
AcDbEllipse
 62
7
  6
CONTINUOUS
 10
-1.7342063143
 20
17.7412836014
 30
0.0
 11
0.2999991335
 21
0.0014318851
 31
0.0
 40
0.5035541159
 41
-2.3585979313
 42
-0.7936193687
  0
ELLIPSE
  5
3FD
100
AcDbEntity
  8
RACCORDO
100
AcDbEllipse
 62
7
  6
CONTINUOUS
 10
-1.7342063143
 20
16.5270845255
 30
0.0
 11
0.2999980272
 21
0.0021530184
 31
0.0
 40
0.5053247124
 41
-2.3598210761
 42
-0.7948425135
  0
ELLIPSE
  5
3FE
100
AcDbEntity
  8
RACCORDO
100
AcDbEllipse
 62
7
  6
CONTINUOUS
 10
-7.5267153824
 20
19.4233390595
 30
0.0
 11
0.2999980272
 21
0.0021530184
 31
0.0
 40
0.5053247124
 41
3.1379660677
 42
3.9233642311
  0
ELLIPSE
  5
3FF
100
AcDbEntity
  8
RACCORDO
100
AcDbEllipse
 62
7
  6
CONTINUOUS
 10
4.1766938593
 20
20.6902617577
 30
0.0
 11
0.2999991737
 21
-0.0014183462
 31
0.0
 40
0.4964289597
 41
-0.77723337
 42
0.7877451926
  0
ELLIPSE
  5
400
100
AcDbEntity
  8
RACCORDO
100
AcDbEllipse
 62
7
  6
CONTINUOUS
 10
-1.3777696549
 20
23.4674935147
 30
0.0
 11
0.2999991737
 21
-0.0014183462
 31
0.0
 40
0.4964289597
 41
-0.7830511342
 42
0.7877451926
  0
ELLIPSE
  5
401
100
AcDbEntity
  8
RACCORDO
100
AcDbEllipse
 62
7
  6
CONTINUOUS
 10
3.5355940176
 20
-24.7295449304
 30
0.0
 11
0.110769438
 21
0.2241226716
 31
0.0
 40
0.6088015717
 41
2.2527095058
 42
3.2998991756
  0
ELLIPSE
  5
402
100
AcDbEntity
  8
RACCORDO
100
AcDbEllipse
 62
7
  6
CONTINUOUS
 10
1.7595994108
 20
15.1936609532
 30
0.0
 11
0.1128509832
 21
0.2230818409
 31
0.0
 40
0.6159267166
 41
0.6934238338
 42
2.2584023964
  0
ELLIPSE
  5
403
100
AcDbEntity
  8
RACCORDO
100
AcDbEllipse
 62
7
  6
CONTINUOUS
 10
1.7595994108
 20
14.9402895595
 30
0.0
 11
0.1128509832
 21
0.2230818409
 31
0.0
 40
0.6159267166
 41
-4.0247829108
 42
-2.9775853596
  0
ELLIPSE
  5
404
100
AcDbEntity
  8
RACCORDO
100
AcDbEllipse
 62
7
  6
CONTINUOUS
 10
-11.6047187536
 20
21.8758200354
 30
0.0
 11
0.1128509832
 21
0.2230818409
 31
0.0
 40
0.6159267166
 41
0.6934238338
 42
2.2584023964
  0
ELLIPSE
  5
405
100
AcDbEntity
  8
RACCORDO
100
AcDbEllipse
 62
7
  6
CONTINUOUS
 10
-11.6047187536
 20
21.6224486417
 30
0.0
 11
0.1128509832
 21
0.2230818409
 31
0.0
 40
0.6159267166
 41
-4.0247829108
 42
-2.9775853596
  0
ELLIPSE
  5
406
100
AcDbEntity
  8
RACCORDO
100
AcDbEllipse
 62
7
  6
CONTINUOUS
 10
0.0812938761
 20
10.593626842
 30
0.0
 11
-0.3205676932
 21
0.9531531496
 31
0.0
 40
0.66789399
 41
-2.1618296722
 42
-0.5913379319
  0
ELLIPSE
  5
407
100
AcDbEntity
  8
RACCORDO
100
AcDbEllipse
 62
7
  6
CONTINUOUS
 10
1.7595994108
 20
-26.6126859737
 30
0.0
 11
0.1128509832
 21
0.2230818409
 31
0.0
 40
0.6159267166
 41
-4.0247829108
 42
-2.4598043482
  0
ELLIPSE
  5
408
100
AcDbEntity
  8
RACCORDO
100
AcDbEllipse
 62
7
  6
CONTINUOUS
 10
1.7595994108
 20
-26.3593145799
 30
0.0
 11
0.1128509832
 21
0.2230818409
 31
0.0
 40
0.6159267166
 41
1.2112048452
 42
2.2584023964
  0
ELLIPSE
  5
409
100
AcDbEntity
  8
RACCORDO
100
AcDbEllipse
 62
7
  6
CONTINUOUS
 10
-10.7084398797
 20
15.9884937199
 30
0.0
 11
-0.3234211751
 21
0.9546019167
 31
0.0
 40
0.6648686735
 41
-0.5912965599
 42
0.1123536606
  0
ELLIPSE
  5
40A
100
AcDbEntity
  8
218
100
AcDbEllipse
 62
7
  6
CONTINUOUS
 10
4.1730185774
 20
22.3500147305
 30
0.0
 11
2.7499924258
 21
-0.0130015067
 31
0.0
 40
0.4964289597
 41
2.3672681657
 42
2.9293761837
  0
ELLIPSE
  5
40B
100
AcDbEntity
  8
218
100
AcDbEllipse
 62
7
  6
CONTINUOUS
 10
11.5976397799
 20
18.6377041292
 30
0.0
 11
2.7499924258
 21
-0.0130015067
 31
0.0
 40
0.4964289597
 41
2.3672681657
 42
2.9293761949
  0
ELLIPSE
  5
40C
100
AcDbEntity
  8
218
100
AcDbEllipse
 62
7
  6
CONTINUOUS
 10
12.269391222
 20
18.5357806794
 30
0.0
 11
2.7583876426
 21
-0.0130411979
 31
0.0
 40
0.4964289597
 41
0.8884696282
 42
2.3585415194
  0
ELLIPSE
  5
40D
100
AcDbEntity
  8
218
100
AcDbEllipse
 62
7
  6
CONTINUOUS
 10
12.269391222
 20
18.5357806794
 30
0.0
 11
2.7583876426
 21
-0.0130411979
 31
0.0
 40
0.4964289597
 41
0.4412294433
 42
0.6870207571
  0
ELLIPSE
  5
40E
100
AcDbEntity
  8
218
100
AcDbEllipse
 62
7
  6
CONTINUOUS
 10
4.8447700196
 20
22.2480912807
 30
0.0
 11
2.7583876426
 21
-0.0130411979
 31
0.0
 40
0.4964289597
 41
0.4412294433
 42
0.6870207571
  0
ELLIPSE
  5
40F
100
AcDbEntity
  8
218
100
AcDbEllipse
 62
7
  6
CONTINUOUS
 10
4.8447700196
 20
22.2480912807
 30
0.0
 11
2.7583876426
 21
-0.0130411979
 31
0.0
 40
0.4964289597
 41
0.8884696282
 42
2.3585415194
  0
ELLIPSE
  5
410
100
AcDbEntity
  8
218
100
AcDbEllipse
 62
7
  6
CONTINUOUS
 10
17.0550899261
 20
19.7412486793
 30
0.0
 11
0.79574694
 21
0.7129684349
 31
0.0
 40
0.2882345029
 41
0.1134874791
 42
0.7807533904
  0
ELLIPSE
  5
411
100
AcDbEntity
  8
218
100
AcDbEllipse
 62
7
  6
CONTINUOUS
 10
9.6304687236
 20
23.4535592806
 30
0.0
 11
0.79574694
 21
0.7129684349
 31
0.0
 40
0.2882345029
 41
0.1134874791
 42
0.7807533904
  0
ELLIPSE
  5
412
100
AcDbEntity
  8
218
100
AcDbEllipse
 62
7
  6
CONTINUOUS
 10
13.1577018555
 20
21.6899427146
 30
0.0
 11
0.4410298232
 21
0.8975092442
 31
0.0
 40
0.607010042
 41
-0.8902711325
 42
-0.7587130969
  0
ELLIPSE
  5
413
100
AcDbEntity
  8
218
100
AcDbEllipse
 62
7
  6
CONTINUOUS
 10
5.733080653
 20
25.4022533158
 30
0.0
 11
0.4410298232
 21
0.8975092442
 31
0.0
 40
0.607010042
 41
-0.8902711325
 42
-0.7587130969
  0
ELLIPSE
  5
414
100
AcDbEntity
  8
218
100
AcDbEllipse
 62
7
  6
CONTINUOUS
 10
5.7866362431
 20
25.3754755208
 30
0.0
 11
-0.3106730325
 21
1.1082908718
 31
0.0
 40
0.6760995073
 41
4.9783291412
 42
6.4001141399
  0
ELLIPSE
  5
415
100
AcDbEntity
  8
218
100
AcDbEllipse
 62
7
  6
CONTINUOUS
 10
13.2112574455
 20
21.6631649196
 30
0.0
 11
-0.3106730325
 21
1.1082908718
 31
0.0
 40
0.6760995073
 41
4.9783291412
 42
6.4001141399
  0
ELLIPSE
  5
416
100
AcDbEntity
  8
218
100
AcDbEllipse
 62
7
  6
CONTINUOUS
 10
11.5741066917
 20
19.8649163648
 30
0.0
 11
3.3022643479
 21
-0.04629945
 31
0.0
 40
0.4892378494
 41
2.3616770883
 42
5.5059722822
  0
ELLIPSE
  5
417
100
AcDbEntity
  8
218
100
AcDbEllipse
 62
7
  6
CONTINUOUS
 10
-3.1968171981
 20
19.4073133522
 30
0.0
 11
1.2141619185
 21
0.9541526469
 31
0.0
 40
0.2329077568
 41
0.1095198182
 42
0.114024621
  0
ELLIPSE
  5
418
100
AcDbEntity
  8
218
100
AcDbEllipse
 62
7
  6
CONTINUOUS
 10
12.269391222
 20
20.5162687921
 30
0.0
 11
2.7583515655
 21
-1.4175703156
 31
0.0
 40
0.0109499087
 41
-0.8804952881
 42
-0.85781018
  0
ELLIPSE
  5
419
100
AcDbEntity
  8
218
100
AcDbEllipse
 62
7
  6
CONTINUOUS
 10
4.8447700196
 20
24.2285793933
 30
0.0
 11
2.7583515655
 21
-1.4175703156
 31
0.0
 40
0.0109499087
 41
-0.7017315251
 42
-0.679046417
  0
ELLIPSE
  5
41A
100
AcDbEntity
  8
218
100
AcDbEllipse
 62
7
  6
CONTINUOUS
 10
4.8447700196
 20
22.6811039825
 30
0.0
 11
2.7583876426
 21
-0.0130411979
 31
0.0
 40
0.4964289597
 41
0.1877225706
 42
2.3585415194
  0
ELLIPSE
  5
41B
100
AcDbEntity
  8
218
100
AcDbEllipse
 62
7
  6
CONTINUOUS
 10
12.269391222
 20
18.9687933813
 30
0.0
 11
2.7583876426
 21
-0.0130411979
 31
0.0
 40
0.4964289597
 41
0.1877225706
 42
2.3585415194
  0
ELLIPSE
  5
41C
100
AcDbEntity
  8
218
100
AcDbEllipse
 62
7
  6
CONTINUOUS
 10
4.8447700196
 20
24.2285793933
 30
0.0
 11
2.7583515655
 21
-1.4175703156
 31
0.0
 40
0.0109499087
 41
-0.8804952881
 42
-0.85781018
  0
ELLIPSE
  5
41D
100
AcDbEntity
  8
218
100
AcDbEllipse
 62
7
  6
CONTINUOUS
 10
12.269391222
 20
20.5162687921
 30
0.0
 11
2.7583515655
 21
-1.4175703156
 31
0.0
 40
0.0109499087
 41
-0.7017315251
 42
-0.679046417
  0
ELLIPSE
  5
41E
100
AcDbEntity
  8
218
100
AcDbEllipse
 62
7
  6
CONTINUOUS
 10
4.1494854892
 20
23.577226966
 30
0.0
 11
3.3022643479
 21
-0.04629945
 31
0.0
 40
0.4892378494
 41
2.3616770883
 42
5.5059722822
  0
ENDSEC
  0
SECTION
  2
OBJECTS
  0
DICTIONARY
  5
C
100
AcDbDictionary
280
0
281
1
  3
ACAD_GROUP
350
D
  3
ACAD_MLINESTYLE
350
17
  3
ACAD_LAYOUT
350
1A
  3
ACAD_PLOTSETTINGS
350
19
  3
ACAD_PLOTSTYLENAME
350
E
  0
DICTIONARY
  5
D
102
{ACAD_REACTORS
330
C
102
}
100
AcDbDictionary
280
0
281
1
  0
ACDBDICTIONARYWDFLT
  5
E
102
{ACAD_REACTORS
330
C
102
}
100
AcDbDictionary
281
1
  3
Normal
350
F
100
AcDbDictionaryWithDefault
340
F
  0
DICTIONARY
  5
17
102
{ACAD_REACTORS
330
C
102
}
100
AcDbDictionary
280
0
281
1
  3
Standard
350
18
  0
DICTIONARY
  5
19
102
{ACAD_REACTORS
330
C
102
}
100
AcDbDictionary
281
1
  0
DICTIONARY
  5
1A
102
{ACAD_REACTORS
330
C
102
}
100
AcDbDictionary
281
1
  3
Model
350
41F
  3
Layout1
350
420
  0
ACDBPLACEHOLDER
  5
F
102
{ACAD_REACTORS
330
E
102
}
  0
MLINESTYLE
  5
18
102
{ACAD_REACTORS
330
17
102
}
100
AcDbMlineStyle
  2
STANDARD
 70
0
  3

 62
256
 51
90.0
 52
90.0
 71
2
 49
0.5
 62
256
  6
BYLAYER
 49
-0.5
 62
256
  6
BYLAYER
  0
LAYOUT
  5
41F
102
{ACAD_REACTORS
330
1A
102
}
100
AcDbPlotSettings
  1

  2
none_device
  4
ISO_A4_(297.00_x_210.00_MM)
  6

 40
0.0
 41
0.0
 42
0.0
 43
0.0
 44
297.0
 45
210.0
 46
0.0
 47
0.0
 48
0.0
 49
0.0
140
0.0
141
0.0
142
1.0
143
1.0
 70
1024
 72
1
 73
0
 74
0
  7

 75
0
147
1.0
148
0.0
149
0.0
100
AcDbLayout
  1
Model
 70
0
 71
0
 10
0.0
 20
0.0
 11
297.0
 21
210.0
 12
0.0
 22
0.0
 32
0.0
 14
0.0
 24
0.0
 34
0.0
 15
0.0
 25
0.0
 35
0.0
146
0.0
 13
0.0
 23
0.0
 33
0.0
 16
1.0
 26
0.0
 36
0.0
 17
0.0
 27
1.0
 37
0.0
 76
0
330
21E
345
0
346
0
  0
LAYOUT
  5
420
102
{ACAD_REACTORS
330
1A
102
}
100
AcDbPlotSettings
  1

  2
none_device
  4
ISO_A4_(297.00_x_210.00_MM)
  6

 40
0.0
 41
0.0
 42
0.0
 43
0.0
 44
297.0
 45
210.0
 46
0.0
 47
0.0
 48
0.0
 49
0.0
140
0.0
141
0.0
142
1.0
143
1.0
 70
0
 72
1
 73
0
 74
0
  7

 75
0
147
1.0
148
0.0
149
0.0
100
AcDbLayout
  1
Layout1
 70
0
 71
1
 10
0.0
 20
0.0
 11
297.0
 21
210.0
 12
0.0
 22
0.0
 32
0.0
 14
0.0
 24
0.0
 34
0.0
 15
0.0
 25
0.0
 35
0.0
146
0.0
 13
0.0
 23
0.0
 33
0.0
 16
1.0
 26
0.0
 36
0.0
 17
0.0
 27
1.0
 37
0.0
 76
0
330
21F
345
0
346
0
  0
ENDSEC
  0
EOF
