  0
SECTION
  2
HEADER
  9
$ACADVER
  1
AC1024
  9
$DWGCODEPAGE
  3
ANSI_1252
  9
$EXTMAX
 10
297.0
 20
210.0
 30
0.0
  9
$EXTMIN
 10
0.0
 20
0.0
 30
0.0
  9
$LIMMIN
 10
0.0
 20
0.0
  9
$LIMMAX
 10
297.0
 20
210.0
  9
$VIEWCTR
 10
148.5
 20
105.0
  9
$VIEWSIZE
 40
210.0
  9
$CLAYER
  8
0
  9
$LTSCALE
 40
16.335
  9
$CELTYPE
  6
BYLAYER
  9
$DIMSCALE
 40
1.0
  9
$DIMASZ
 40
3.0
  9
$DIMEXO
 40
0.5
  9
$DIMDLI
 40
11.286
  9
$DIMEXE
 40
1.5
  9
$DIMCEN
 40
2.673
  9
$DIMLFAC
 40
1.0
  9
$DIMBLK
  1
_FILLED
  9
$DIMALT
 70
0
  9
$DIMALTF
 40
0.0393700787
  9
$DIMTXT
 40
3.0
  9
$DIMTOL
 70
1
  9
$DIMLIM
 70
0
  9
$DIMTFAC
 40
1.0
  9
$DIMTP
 40
0.01
  9
$DIMTM
 40
0.01
  9
$DIMGAP
 40
0.625
  9
$DIMDSEP
 70
44
  9
$AUNITS
 70
0
  9
$PDMODE
 70
3
  9
$PDSIZE
 40
3.0
  9
$HANDSEED
  5
5B9
  9
$TILEMODE
 70
1
  9
$MEASUREMENT
 70
1
  9
$INSUNITS
 70
4
  0
ENDSEC
  0
SECTION
  2
CLASSES
  0
CLASS
  1
ACDBDICTIONARYWDFLT
  2
AcDbDictionaryWithDefault
  3
AutoCAD 2000
 90
0
 91
1
280
0
281
0
  0
CLASS
  1
ACDBPLACEHOLDER
  2
AcDbPlaceHolder
  3
AutoCAD 2000
 90
0
 91
1
280
0
281
0
  0
CLASS
  1
LAYOUT
  2
AcDbLayout
  3
AutoCAD 2000
 90
0
 91
0
280
0
281
0
  0
ENDSEC
  0
SECTION
  2
TABLES
  0
TABLE
  2
VPORT
  5
8
100
AcDbSymbolTable
 70
2
  0
VPORT
  5
1F4
100
AcDbSymbolTableRecord
100
AcDbViewportTableRecord
  2
*ACTIVE
 70
0
 10
0.0
 20
0.0
 11
1.0
 21
1.0
 12
148.5
 22
105.0
 13
0.0
 23
0.0
 14
1.0
 24
1.0
 15
0.0
 25
0.0
 16
0.0
 26
0.0
 36
1.0
 17
0.0
 27
0.0
 37
0.0
 40
210.0
 41
1.4142857143
 42
50.0
 43
0.0
 44
0.0
 50
0.0
 51
0.0
 71
0
 72
100
 73
1
 74
1
 75
0
 76
0
 77
0
 78
0
  0
ENDTAB
  0
TABLE
  2
LTYPE
  5
5
100
AcDbSymbolTable
 70
6
  0
LTYPE
  5
14
100
AcDbSymbolTableRecord
100
AcDbLinetypeTableRecord
  2
BYBLOCK
 70
0
  3

 72
65
 73
0
 40
0.0
  0
LTYPE
  5
15
100
AcDbSymbolTableRecord
100
AcDbLinetypeTableRecord
  2
BYLAYER
 70
0
  3

 72
65
 73
0
 40
0.0
  0
LTYPE
  5
16
100
AcDbSymbolTableRecord
100
AcDbLinetypeTableRecord
  2
CONTINUOUS
 70
64
  3
Solid line
 72
65
 73
0
 40
0.0
  0
LTYPE
  5
1F5
100
AcDbSymbolTableRecord
100
AcDbLinetypeTableRecord
  2
CENTER
 70
64
  3
____ _ ____ _ ____ _ ____ _ ____ _ ____ _ ____
 72
65
 73
4
 40
0.6
 49
0.375
 74
0
 49
-0.075
 74
0
 49
0.075
 74
0
 49
-0.075
 74
0
  0
LTYPE
  5
1F6
100
AcDbSymbolTableRecord
100
AcDbLinetypeTableRecord
  2
HIDDEN
 70
64
  3
- - - - - - - - - - - - - - - - - - - -
 72
65
 73
2
 40
0.2
 49
0.1
 74
0
 49
-0.1
 74
0
  0
LTYPE
  5
1F7
100
AcDbSymbolTableRecord
100
AcDbLinetypeTableRecord
  2
PHANTOM
 70
64
  3
_____ _ _ _____ _ _ _____ _ _ _____
 72
65
 73
6
 40
0.8
 49
0.45
 74
0
 49
-0.05
 74
0
 49
0.1
 74
0
 49
-0.05
 74
0
 49
0.1
 74
0
 49
-0.05
 74
0
  0
LTYPE
  5
1F8
100
AcDbSymbolTableRecord
100
AcDbLinetypeTableRecord
  2
DOT
 70
64
  3
. . . . . . . . . . . . . . . . . . . .
 72
65
 73
2
 40
0.2
 49
0.1
 74
0
 49
-0.1
 74
0
  0
LTYPE
  5
1F9
100
AcDbSymbolTableRecord
100
AcDbLinetypeTableRecord
  2
DASHED
 70
64
  3
- - - - - - - - - - - - - - - - - - - -
 72
65
 73
2
 40
0.2
 49
0.1
 74
0
 49
-0.1
 74
0
  0
ENDTAB
  0
TABLE
  2
LAYER
  5
2
100
AcDbSymbolTable
 70
36
  0
LAYER
  5
10
100
AcDbSymbolTableRecord
100
AcDbLayerTableRecord
  2
0
 70
0
 62
7
  6
CONTINUOUS
370
-3
390
F
  0
LAYER
  5
1FA
100
AcDbSymbolTableRecord
100
AcDbLayerTableRecord
  2
DEFAULT_1
 70
0
 62
7
  6
CENTER
370
-3
390
F
  0
LAYER
  5
1FB
100
AcDbSymbolTableRecord
100
AcDbLayerTableRecord
  2
DEFAULT_2
 70
0
 62
7
  6
HIDDEN
370
-3
390
F
  0
LAYER
  5
1FC
100
AcDbSymbolTableRecord
100
AcDbLayerTableRecord
  2
DEFAULT_3
 70
0
 62
7
  6
PHANTOM
370
-3
390
F
  0
LAYER
  5
1FD
100
AcDbSymbolTableRecord
100
AcDbLayerTableRecord
  2
218
 70
0
 62
7
  6
CONTINUOUS
370
-3
390
F
  0
LAYER
  5
1FE
100
AcDbSymbolTableRecord
100
AcDbLayerTableRecord
  2
268
 70
0
 62
7
  6
CONTINUOUS
370
-3
390
F
  0
LAYER
  5
1FF
100
AcDbSymbolTableRecord
100
AcDbLayerTableRecord
  2
284
 70
0
 62
7
  6
CONTINUOUS
370
-3
390
F
  0
LAYER
  5
200
100
AcDbSymbolTableRecord
100
AcDbLayerTableRecord
  2
320
 70
0
 62
7
  6
CONTINUOUS
370
-3
390
F
  0
LAYER
  5
201
100
AcDbSymbolTableRecord
100
AcDbLayerTableRecord
  2
712
 70
0
 62
7
  6
CONTINUOUS
370
-3
390
F
  0
LAYER
  5
202
100
AcDbSymbolTableRecord
100
AcDbLayerTableRecord
  2
ASSI
 70
0
 62
7
  6
CONTINUOUS
370
-3
390
F
  0
LAYER
  5
203
100
AcDbSymbolTableRecord
100
AcDbLayerTableRecord
  2
COLORE_TOP
 70
0
 62
7
  6
CONTINUOUS
370
-3
390
F
  0
LAYER
  5
204
100
AcDbSymbolTableRecord
100
AcDbLayerTableRecord
  2
COORDINATE
 70
0
 62
7
  6
CONTINUOUS
370
-3
390
F
  0
LAYER
  5
205
100
AcDbSymbolTableRecord
100
AcDbLayerTableRecord
  2
COORD_ORIGINE
 70
0
 62
7
  6
CONTINUOUS
370
-3
390
F
  0
LAYER
  5
206
100
AcDbSymbolTableRecord
100
AcDbLayerTableRecord
  2
COPY-PUBBLISH
 70
0
 62
7
  6
CONTINUOUS
370
-3
390
F
  0
LAYER
  5
207
100
AcDbSymbolTableRecord
100
AcDbLayerTableRecord
  2
COPY_PUBLISH
 70
0
 62
7
  6
CONTINUOUS
370
-3
390
F
  0
LAYER
  5
208
100
AcDbSymbolTableRecord
100
AcDbLayerTableRecord
  2
COSMETIC
 70
0
 62
7
  6
CONTINUOUS
370
-3
390
F
  0
LAYER
  5
209
100
AcDbSymbolTableRecord
100
AcDbLayerTableRecord
  2
COSMETICHE
 70
0
 62
7
  6
CONTINUOUS
370
-3
390
F
  0
LAYER
  5
20A
100
AcDbSymbolTableRecord
100
AcDbLayerTableRecord
  2
COSMETICI
 70
0
 62
7
  6
CONTINUOUS
370
-3
390
F
  0
LAYER
  5
20B
100
AcDbSymbolTableRecord
100
AcDbLayerTableRecord
  2
CURVE
 70
0
 62
7
  6
CONTINUOUS
370
-3
390
F
  0
LAYER
  5
20C
100
AcDbSymbolTableRecord
100
AcDbLayerTableRecord
  2
DRAFT
 70
0
 62
7
  6
CONTINUOUS
370
-3
390
F
  0
LAYER
  5
20D
100
AcDbSymbolTableRecord
100
AcDbLayerTableRecord
  2
IMPORT
 70
0
 62
7
  6
CONTINUOUS
370
-3
390
F
  0
LAYER
  5
20E
100
AcDbSymbolTableRecord
100
AcDbLayerTableRecord
  2
IMPORTED
 70
0
 62
7
  6
CONTINUOUS
370
-3
390
F
  0
LAYER
  5
20F
100
AcDbSymbolTableRecord
100
AcDbLayerTableRecord
  2
IMPORT_IGES
 70
0
 62
7
  6
CONTINUOUS
370
-3
390
F
  0
LAYER
  5
210
100
AcDbSymbolTableRecord
100
AcDbLayerTableRecord
  2
INTF_1
 70
0
 62
7
  6
CONTINUOUS
370
-3
390
F
  0
LAYER
  5
211
100
AcDbSymbolTableRecord
100
AcDbLayerTableRecord
  2
INTF_11
 70
0
 62
7
  6
CONTINUOUS
370
-3
390
F
  0
LAYER
  5
212
100
AcDbSymbolTableRecord
100
AcDbLayerTableRecord
  2
INTF_2
 70
0
 62
7
  6
CONTINUOUS
370
-3
390
F
  0
LAYER
  5
213
100
AcDbSymbolTableRecord
100
AcDbLayerTableRecord
  2
NOTE
 70
0
 62
7
  6
CONTINUOUS
370
-3
390
F
  0
LAYER
  5
214
100
AcDbSymbolTableRecord
100
AcDbLayerTableRecord
  2
PIANI
 70
0
 62
7
  6
CONTINUOUS
370
-3
390
F
  0
LAYER
  5
215
100
AcDbSymbolTableRecord
100
AcDbLayerTableRecord
  2
PIANI_DI_RIFERIMENTO
 70
0
 62
7
  6
CONTINUOUS
370
-3
390
F
  0
LAYER
  5
216
100
AcDbSymbolTableRecord
100
AcDbLayerTableRecord
  2
PIANI_ORIGINE
 70
0
 62
7
  6
CONTINUOUS
370
-3
390
F
  0
LAYER
  5
217
100
AcDbSymbolTableRecord
100
AcDbLayerTableRecord
  2
PIANI_RIFERIMENTO
 70
0
 62
7
  6
CONTINUOUS
370
-3
390
F
  0
LAYER
  5
218
100
AcDbSymbolTableRecord
100
AcDbLayerTableRecord
  2
PIANI_SFORMO
 70
0
 62
7
  6
CONTINUOUS
370
-3
390
F
  0
LAYER
  5
219
100
AcDbSymbolTableRecord
100
AcDbLayerTableRecord
  2
PREM_14013
 70
0
 62
7
  6
CONTINUOUS
370
-3
390
F
  0
LAYER
  5
21A
100
AcDbSymbolTableRecord
100
AcDbLayerTableRecord
  2
PUNTI
 70
0
 62
7
  6
CONTINUOUS
370
-3
390
F
  0
LAYER
  5
21B
100
AcDbSymbolTableRecord
100
AcDbLayerTableRecord
  2
RACCORDO
 70
0
 62
7
  6
CONTINUOUS
370
-3
390
F
  0
LAYER
  5
21C
100
AcDbSymbolTableRecord
100
AcDbLayerTableRecord
  2
RGB__255__255__255__
 70
0
 62
7
  6
CONTINUOUS
370
-3
390
F
  0
LAYER
  5
21D
100
AcDbSymbolTableRecord
100
AcDbLayerTableRecord
  2
RINTRACCIABILITA
 70
0
 62
7
  6
CONTINUOUS
370
-3
390
F
  0
LAYER
  5
21E
100
AcDbSymbolTableRecord
100
AcDbLayerTableRecord
  2
SMUSSO
 70
0
 62
7
  6
CONTINUOUS
370
-3
390
F
  0
LAYER
  5
21F
100
AcDbSymbolTableRecord
100
AcDbLayerTableRecord
  2
SUPERFICI
 70
0
 62
7
  6
CONTINUOUS
370
-3
390
F
  0
LAYER
  5
220
100
AcDbSymbolTableRecord
100
AcDbLayerTableRecord
  2
TRASH
 70
0
 62
7
  6
CONTINUOUS
370
-3
390
F
  0
LAYER
  5
221
100
AcDbSymbolTableRecord
100
AcDbLayerTableRecord
  2
XSEC_DATUMS
 70
0
 62
7
  6
CONTINUOUS
370
-3
390
F
  0
ENDTAB
  0
TABLE
  2
STYLE
  5
3
100
AcDbSymbolTable
 70
1
  0
STYLE
  5
11
100
AcDbSymbolTableRecord
100
AcDbTextStyleTableRecord
  2
STANDARD
 70
0
 40
0.0
 41
0.8
 50
0.0
 71
0
 42
0.2
  3
txt
  4

  0
STYLE
  5
222
100
AcDbSymbolTableRecord
100
AcDbTextStyleTableRecord
  2
TEXTSTYLE_1
 70
0
 40
0.0
 41
0.8
 50
0.0
 71
0
 42
0.2
  3
gdt
  4

  0
ENDTAB
  0
TABLE
  2
VIEW
  5
6
100
AcDbSymbolTable
 70
0
  0
ENDTAB
  0
TABLE
  2
UCS
  5
7
100
AcDbSymbolTable
 70
0
  0
ENDTAB
  0
TABLE
  2
APPID
  5
9
100
AcDbSymbolTable
 70
1
  0
APPID
  5
223
100
AcDbSymbolTableRecord
100
AcDbRegAppTableRecord
  2
ACAD
 70
0
  0
ENDTAB
  0
TABLE
  2
BLOCK_RECORD
  5
1
100
AcDbSymbolTable
 70
0
  0
BLOCK_RECORD
  5
224
100
AcDbSymbolTableRecord
100
AcDbBlockTableRecord
  2
*Model_Space
  0
BLOCK_RECORD
  5
225
100
AcDbSymbolTableRecord
100
AcDbBlockTableRecord
  2
*Paper_Space
  0
BLOCK_RECORD
  5
226
100
AcDbSymbolTableRecord
100
AcDbBlockTableRecord
  2
_FILLED
  0
ENDTAB
  0
TABLE
  2
DIMSTYLE
  5
A
100
AcDbSymbolTable
 70
1
100
AcDbDimStyleTable
 71
0
  0
DIMSTYLE
105
227
100
AcDbSymbolTableRecord
100
AcDbDimStyleTableRecord
  2
STANDARD
 70
0
  3

  4

 40
1.0
 41
3.0
 42
0.5
 43
0.38
 44
1.5
 45
0.0
 46
0.0
 47
0.01
 48
0.01
140
3.0
141
0.09
142
0.0
143
25.4
144
1.0
145
0.0
146
1.0
147
0.625
 71
1
 72
0
 73
0
 74
0
 75
0
 76
0
 77
1
 78
8
 79
2
170
0
171
1
172
0
173
0
174
0
175
0
176
0
177
0
178
0
270
2
179
2
271
2
272
2
273
2
274
2
275
0
280
0
281
0
282
0
283
1
284
8
285
0
286
0
287
3
288
0
340
11
278
44
341
226
342
226
343
226
344
226
  0
ENDTAB
  0
ENDSEC
  0
SECTION
  2
BLOCKS
  0
BLOCK
  5
20
100
AcDbEntity
  8
0
100
AcDbBlockBegin
  2
*Model_Space
 70
0
 10
0.0
 20
0.0
 30
0.0
  3
*Model_Space
  1

  0
ENDBLK
  5
21
100
AcDbEntity
  8
0
100
AcDbBlockEnd
  0
BLOCK
  5
1C
100
AcDbEntity
  8
0
100
AcDbBlockBegin
  2
*Paper_Space
 70
0
 10
0.0
 20
0.0
 30
0.0
  3
*Paper_Space
  1

  0
ENDBLK
  5
1D
100
AcDbEntity
  8
0
100
AcDbBlockEnd
  0
BLOCK
  5
228
100
AcDbEntity
  8
0
100
AcDbBlockBegin
  2
_FILLED
 70
64
 10
0.0
 20
0.0
  3
_FILLED
  1

  0
SOLID
  5
229
100
AcDbEntity
  8
0
  6
BYBLOCK
 62
0
100
AcDbTrace
 10
0.0
 20
0.0
 11
-1.0
 21
0.3166666667
 12
-1.0
 22
-0.3166666667
 13
-1.0
 23
-0.3166666667
  0
ENDBLK
  5
22A
100
AcDbEntity
  8
0
  6
BYBLOCK
 62
0
100
AcDbBlockEnd
  0
ENDSEC
  0
SECTION
  2
ENTITIES
  0
LINE
  5
22B
100
AcDbEntity
  8
268
100
AcDbLine
 62
7
  6
CONTINUOUS
 10
-15.4342832533
 20
27.1022168288
 11
-13.8515266502
 21
27.9142009261
  0
LINE
  5
22C
100
AcDbEntity
  8
268
100
AcDbLine
 62
7
  6
CONTINUOUS
 10
-13.8515266502
 20
27.9142009261
 11
-13.3170767715
 21
28.1745483927
  0
LINE
  5
22D
100
AcDbEntity
  8
RACCORDO
100
AcDbLine
 62
7
  6
CONTINUOUS
 10
8.2070196802
 20
-31.0200907527
 11
8.3033183558
 21
-30.9931158693
  0
LWPOLYLINE
  5
22E
100
AcDbEntity
  8
RACCORDO
100
AcDbPolyline
 62
250
  6
CONTINUOUS
 90
19
 70
0
 10
8.6129508517
 20
-30.518282819
 10
8.5717733847
 20
-30.5294966651
 10
8.531775057
 20
-30.5362871521
 10
8.4929558686
 20
-30.53865428
 10
8.4550423852
 20
-30.536562707
 10
8.4183080411
 20
-30.5300477748
 10
8.3835731395
 20
-30.5192155085
 10
8.3509027746
 20
-30.5039696657
 10
8.3202318522
 20
-30.4844064888
 10
8.292185392
 20
-30.4609207299
 10
8.2668174774
 20
-30.433429868
 10
8.2440740251
 20
-30.4020164242
 10
8.2244178052
 20
-30.3673227138
 10
8.2079140191
 20
-30.3292529777
 10
8.1944974655
 20
-30.2879029749
 10
8.18443531
 20
-30.2442022975
 10
8.1778166081
 20
-30.1984608094
 10
8.1745523044
 20
-30.1503686466
 10
8.174642399
 20
-30.0999258092
  0
LWPOLYLINE
  5
22F
100
AcDbEntity
  8
ASSI
100
AcDbPolyline
 62
250
  6
CONTINUOUS
 90
19
 70
0
 10
8.6129508517
 20
-30.518282819
 10
8.5717733847
 20
-30.5294966651
 10
8.531775057
 20
-30.5362871521
 10
8.4929558686
 20
-30.53865428
 10
8.4550423852
 20
-30.536562707
 10
8.4183080411
 20
-30.5300477748
 10
8.3835731395
 20
-30.5192155085
 10
8.3509027746
 20
-30.5039696657
 10
8.3202318522
 20
-30.4844064888
 10
8.292185392
 20
-30.4609207299
 10
8.2668174774
 20
-30.433429868
 10
8.2440740251
 20
-30.4020164242
 10
8.2244178052
 20
-30.3673227138
 10
8.2079140191
 20
-30.3292529777
 10
8.1944974655
 20
-30.2879029749
 10
8.18443531
 20
-30.2442022975
 10
8.1778166081
 20
-30.1984608094
 10
8.1745523044
 20
-30.1503686466
 10
8.174642399
 20
-30.0999258092
  0
LWPOLYLINE
  5
230
100
AcDbEntity
  8
RACCORDO
100
AcDbPolyline
 62
250
  6
CONTINUOUS
 90
6
 70
0
 10
16.1125641277
 20
-28.7490569631
 10
16.0876843456
 20
-28.7536922314
 10
16.0621700465
 20
-28.7569573322
 10
16.0363253777
 20
-28.7588307611
 10
16.0104096742
 20
-28.7593129168
 10
15.9846069749
 20
-28.7583927447
  0
LWPOLYLINE
  5
231
100
AcDbEntity
  8
ASSI
100
AcDbPolyline
 62
7
  6
CONTINUOUS
 90
3
 70
0
 10
8.0471655968
 20
-31.0468520588
 10
8.2155290463
 20
-31.0180399992
 10
8.3032507276
 20
-30.9931376557
  0
LWPOLYLINE
  5
232
100
AcDbEntity
  8
RACCORDO
100
AcDbPolyline
 62
7
  6
CONTINUOUS
 90
3
 70
0
 10
8.0067610921
 20
-31.0500925468
 10
8.1065082384
 20
-31.039515188
 10
8.2070196802
 20
-31.0200907527
  0
LINE
  5
233
100
AcDbEntity
  8
ASSI
100
AcDbLine
 62
7
  6
CONTINUOUS
 10
7.878838537
 20
-31.050899297
 11
8.0471655968
 21
-31.0468520588
  0
LWPOLYLINE
  5
234
100
AcDbEntity
  8
ASSI
100
AcDbPolyline
 62
250
  6
CONTINUOUS
 90
4
 70
0
 10
-19.1429940176
 20
22.2810064306
 10
-19.2144151413
 20
22.1837147885
 10
-19.2815224514
 20
22.0815624426
 10
-19.3438546682
 20
21.9752430813
  0
LWPOLYLINE
  5
235
100
AcDbEntity
  8
RACCORDO
100
AcDbPolyline
 62
250
  6
CONTINUOUS
 90
13
 70
0
 10
-18.9891782532
 20
22.4583992552
 10
-19.0677482604
 20
22.3727761444
 10
-19.1429940176
 20
22.2810064306
 10
-19.2144151413
 20
22.1837147885
 10
-19.2815224514
 20
22.0815624426
 10
-19.3438546682
 20
21.9752430813
 10
-19.4009962153
 20
21.8654781975
 10
-19.452556812
 20
21.7530107647
 10
-19.4981790989
 20
21.6386081009
 10
-19.5375539669
 20
21.5230557941
 10
-19.5704128759
 20
21.407142737
 10
-19.5965289253
 20
21.2916555728
 10
-19.6157230117
 20
21.1773807392
  0
LWPOLYLINE
  5
236
100
AcDbEntity
  8
ASSI
100
AcDbPolyline
 62
250
  6
CONTINUOUS
 90
3
 70
0
 10
-18.9891782532
 20
22.4583992552
 10
-19.0677482604
 20
22.3727761444
 10
-19.1429940176
 20
22.2810064306
  0
LWPOLYLINE
  5
237
100
AcDbEntity
  8
ASSI
100
AcDbPolyline
 62
250
  6
CONTINUOUS
 90
3
 70
0
 10
-18.8242358681
 20
22.6089271229
 10
-18.9078207829
 20
22.5372960458
 10
-18.9891782532
 20
22.4583992552
  0
LWPOLYLINE
  5
238
100
AcDbEntity
  8
ASSI
100
AcDbPolyline
 62
7
  6
CONTINUOUS
 90
10
 70
0
 10
-18.859573279
 20
22.8277595854
 10
-19.0353666135
 20
22.7366447844
 10
-19.2049128472
 20
22.6154180547
 10
-19.3603316545
 20
22.4693300923
 10
-19.5024134631
 20
22.2973744323
 10
-19.6276061823
 20
22.1014722258
 10
-19.7269676288
 20
21.8959943276
 10
-19.7994648367
 20
21.6878557332
 10
-19.8467965204
 20
21.4737657467
 10
-19.8518118365
 20
21.4398374387
  0
LINE
  5
239
100
AcDbEntity
  8
268
100
AcDbLine
 62
7
  6
CONTINUOUS
 10
-15.9182335149
 20
25.359518904
 11
-14.9060160816
 21
25.8764463894
  0
LINE
  5
23A
100
AcDbEntity
  8
268
100
AcDbLine
 62
250
  6
CONTINUOUS
 10
-15.7607149594
 20
25.3500830972
 11
-14.9060160816
 21
25.7865677172
  0
LINE
  5
23B
100
AcDbEntity
  8
268
100
AcDbLine
 62
7
  6
CONTINUOUS
 10
-12.2251810534
 20
25.3689773202
 11
-13.2920119656
 21
24.8303960707
  0
LINE
  5
23C
100
AcDbEntity
  8
268
100
AcDbLine
 62
7
  6
CONTINUOUS
 10
-13.8264618443
 20
26.2983061243
 11
-12.2251810534
 21
27.1010281278
  0
LINE
  5
23D
100
AcDbEntity
  8
268
100
AcDbLine
 62
7
  6
CONTINUOUS
 10
-12.2251810534
 20
27.1010281278
 11
-11.6969138817
 21
27.3644669478
  0
LWPOLYLINE
  5
23E
100
AcDbEntity
  8
RACCORDO
100
AcDbPolyline
 62
250
  6
CONTINUOUS
 90
7
 70
0
 10
-18.4791366759
 20
22.8137766508
 10
-18.5658413567
 20
22.7755680191
 10
-18.6526569941
 20
22.7284683443
 10
-18.7389872398
 20
22.6727965967
 10
-18.8242358681
 20
22.6089271229
 10
-18.9078207829
 20
22.5372960458
 10
-18.9891782532
 20
22.4583992552
  0
LWPOLYLINE
  5
23F
100
AcDbEntity
  8
ASSI
100
AcDbPolyline
 62
250
  6
CONTINUOUS
 90
5
 70
0
 10
-18.4791366759
 20
22.8137766508
 10
-18.5658413567
 20
22.7755680191
 10
-18.6526569941
 20
22.7284683443
 10
-18.7389872398
 20
22.6727965967
 10
-18.8242358681
 20
22.6089271229
  0
LWPOLYLINE
  5
240
100
AcDbEntity
  8
RACCORDO
100
AcDbPolyline
 62
7
  6
CONTINUOUS
 90
16
 70
0
 10
-18.8292291908
 20
22.8402938557
 10
-18.9141522195
 20
22.8029133384
 10
-19.0064210887
 20
22.7539153077
 10
-19.0963723478
 20
22.6971028094
 10
-19.1834827125
 20
22.6327611044
 10
-19.2668829602
 20
22.5616460614
 10
-19.3466021697
 20
22.4838142199
 10
-19.4224218001
 20
22.3994381789
 10
-19.4933104398
 20
22.3097586697
 10
-19.5592016069
 20
22.2149292206
 10
-19.619912854
 20
22.1151427257
 10
-19.6744918826
 20
22.0120463254
 10
-19.7228389285
 20
21.9059011242
 10
-19.7648311324
 20
21.7968778669
 10
-19.7998077477
 20
21.6866501136
 10
-19.8275895504
 20
21.5759143231
  0
LINE
  5
241
100
AcDbEntity
  8
ASSI
100
AcDbLine
 62
7
  6
CONTINUOUS
 10
-18.8294616343
 20
22.8402011628
 11
-18.859573279
 21
22.8277595854
  0
LINE
  5
242
100
AcDbEntity
  8
RACCORDO
100
AcDbLine
 62
7
  6
CONTINUOUS
 10
-14.9162568878
 20
24.3969393366
 11
-18.8292355014
 21
22.8403097066
  0
LINE
  5
243
100
AcDbEntity
  8
RACCORDO
100
AcDbLine
 62
250
  6
CONTINUOUS
 10
-14.5701641143
 20
24.3688125749
 11
-18.4791366759
 21
22.8137766508
  0
LINE
  5
244
100
AcDbEntity
  8
ASSI
100
AcDbLine
 62
250
  6
CONTINUOUS
 10
-14.5701641143
 20
24.3688125749
 11
-18.4791366759
 21
22.8137766508
  0
LINE
  5
245
100
AcDbEntity
  8
ASSI
100
AcDbLine
 62
7
  6
CONTINUOUS
 10
-14.9162568878
 20
24.3969393366
 11
-18.8294679468
 21
22.8402170043
  0
LWPOLYLINE
  5
246
100
AcDbEntity
  8
268
100
AcDbPolyline
 62
7
  6
CONTINUOUS
 90
3
 70
0
 10
-4.2426074181
 20
28.589388216
 10
-4.2551724378
 20
28.5846891652
 10
-4.2608232226
 20
28.5820465651
  0
LWPOLYLINE
  5
247
100
AcDbEntity
  8
268
100
AcDbPolyline
 62
7
  6
CONTINUOUS
 90
10
 70
0
 10
-4.2426074181
 20
28.589388216
 10
-4.2333677972
 20
28.5921340149
 10
-4.2248046434
 20
28.5943997334
 10
-4.2169179565
 20
28.5961853715
 10
-4.2096685982
 20
28.5975117761
 10
-4.2030957069
 20
28.5983581002
 10
-4.1973166975
 20
28.598661803
 10
-4.1923357403
 20
28.5984224672
 10
-4.1881486651
 20
28.59764051
 10
-4.1855466929
 20
28.5966377982
  0
LWPOLYLINE
  5
248
100
AcDbEntity
  8
RACCORDO
100
AcDbPolyline
 62
7
  6
CONTINUOUS
 90
3
 70
0
 10
7.8110378427
 20
-31.0454132411
 10
7.9082290142
 20
-31.0519945323
 10
8.0067610921
 20
-31.0500925468
  0
LINE
  5
249
100
AcDbEntity
  8
ASSI
100
AcDbLine
 62
7
  6
CONTINUOUS
 10
7.7147954404
 20
-31.0303268242
 11
7.878838537
 21
-31.050899297
  0
LWPOLYLINE
  5
24A
100
AcDbEntity
  8
RACCORDO
100
AcDbPolyline
 62
7
  6
CONTINUOUS
 90
3
 70
0
 10
7.623481223
 20
-31.0076800009
 10
7.7159056622
 20
-31.0305511233
 10
7.8110378427
 20
-31.0454132411
  0
LWPOLYLINE
  5
24B
100
AcDbEntity
  8
ASSI
100
AcDbPolyline
 62
250
  6
CONTINUOUS
 90
4
 70
0
 10
-19.3438546682
 20
21.9752430813
 10
-19.4009962153
 20
21.8654781975
 10
-19.452556812
 20
21.7530107647
 10
-19.4981790989
 20
21.6386081009
  0
LINE
  5
24C
100
AcDbEntity
  8
268
100
AcDbLine
 62
7
  6
CONTINUOUS
 10
-11.6100622184
 20
26.7434693612
 11
-12.1373069341
 21
26.1017616331
  0
LWPOLYLINE
  5
24D
100
AcDbEntity
  8
268
100
AcDbPolyline
 62
7
  6
CONTINUOUS
 90
12
 70
0
 10
-4.2608232226
 20
28.5820465651
 10
-4.2673419479
 20
28.5785744997
 10
-4.2791963744
 20
28.5710702265
 10
-4.2908515545
 20
28.5621977152
 10
-4.3023471493
 20
28.5520126047
 10
-4.313638447
 20
28.5405815323
 10
-4.3247835134
 20
28.5279345062
 10
-4.3358503928
 20
28.51410497
 10
-4.3467965119
 20
28.4991354712
 10
-4.3576438131
 20
28.483052544
 10
-4.3684822418
 20
28.4658842897
 10
-4.3793666098
 20
28.4476656582
  0
LINE
  5
24E
100
AcDbEntity
  8
268
100
AcDbLine
 62
7
  6
CONTINUOUS
 10
-9.960786622
 20
24.9494711303
 11
-9.4674646068
 21
25.2025546622
  0
LINE
  5
24F
100
AcDbEntity
  8
268
100
AcDbLine
 62
7
  6
CONTINUOUS
 10
-10.7694000769
 20
25.3406359239
 11
-4.2607536278
 21
28.5820812341
  0
LINE
  5
250
100
AcDbEntity
  8
268
100
AcDbLine
 62
250
  6
CONTINUOUS
 10
-10.6939069364
 20
25.3028893537
 11
-4.3793666098
 21
28.4476656582
  0
LINE
  5
251
100
AcDbEntity
  8
268
100
AcDbLine
 62
7
  6
CONTINUOUS
 10
-3.3863462886
 20
27.5679221275
 11
-8.1239617225
 21
25.2328716128
  0
LINE
  5
252
100
AcDbEntity
  8
268
100
AcDbLine
 62
7
  6
CONTINUOUS
 10
-9.4674646068
 20
25.2025546622
 11
-3.9898246173
 21
27.8708866254
  0
LINE
  5
253
100
AcDbEntity
  8
218
100
AcDbLine
 62
7
  6
CONTINUOUS
 10
3.1699589388
 20
30.6581886877
 11
-0.4031147597
 21
28.9527553708
  0
LINE
  5
254
100
AcDbEntity
  8
218
100
AcDbLine
 62
7
  6
CONTINUOUS
 10
2.1986763304
 20
30.9567905516
 11
-3.515909123
 21
28.2618078829
  0
LINE
  5
255
100
AcDbEntity
  8
218
100
AcDbLine
 62
250
  6
CONTINUOUS
 10
2.6375610809
 20
30.9243876166
 11
-3.2695315499
 21
28.1386190964
  0
LWPOLYLINE
  5
256
100
AcDbEntity
  8
218
100
AcDbPolyline
 62
250
  6
CONTINUOUS
 90
26
 70
0
 10
2.6375610809
 20
30.9243876166
 10
2.6568336854
 20
30.9332898783
 10
2.6760827976
 20
30.9415370729
 10
2.695294104
 20
30.9491230665
 10
2.7144533117
 20
30.956042214
 10
2.7335461816
 20
30.9622893719
 10
2.7525585392
 20
30.9678598998
 10
2.7714762664
 20
30.9727496562
 10
2.7902852754
 20
30.9769549948
 10
2.8089715422
 20
30.9804727782
 10
2.8275211587
 20
30.9833003888
 10
2.8459203447
 20
30.9854357266
 10
2.8641554209
 20
30.9868772041
 10
2.8822128292
 20
30.9876237491
 10
2.9000791404
 20
30.987674806
 10
2.9177410669
 20
30.9870303368
 10
2.9351854745
 20
30.9856908207
 10
2.9523993924
 20
30.9836572538
 10
2.9693700203
 20
30.9809311482
 10
2.9860847388
 20
30.9775145311
 10
3.002531119
 20
30.9734099431
 10
3.0186969313
 20
30.9686204364
 10
3.0345701548
 20
30.9631495723
 10
3.0501389862
 20
30.9570014191
 10
3.0653918486
 20
30.9501805485
 10
3.0724339615
 20
30.9467509462
  0
LINE
  5
257
100
AcDbEntity
  8
ASSI
100
AcDbLine
 62
7
  6
CONTINUOUS
 10
7.5589107343
 20
-30.9864124303
 11
7.7147954404
 21
-31.0303268242
  0
LINE
  5
258
100
AcDbEntity
  8
RACCORDO
100
AcDbLine
 62
7
  6
CONTINUOUS
 10
7.5339201937
 20
-30.9769549842
 11
7.623481223
 21
-31.0076800009
  0
LWPOLYLINE
  5
259
100
AcDbEntity
  8
RACCORDO
100
AcDbPolyline
 62
250
  6
CONTINUOUS
 90
3
 70
0
 10
-22.5401538499
 20
-15.9351656939
 10
-22.4766908196
 20
-15.9759451502
 10
-22.4572257047
 20
-15.9861665231
  0
LWPOLYLINE
  5
25A
100
AcDbEntity
  8
RACCORDO
100
AcDbPolyline
 62
7
  6
CONTINUOUS
 90
14
 70
0
 10
-23.0771690182
 20
-14.8657252105
 10
-23.0745417092
 20
-14.989362106
 10
-23.0621744084
 20
-15.1087570625
 10
-23.0403605231
 20
-15.223363818
 10
-23.0094013247
 20
-15.3330029682
 10
-22.9695226587
 20
-15.4374329572
 10
-22.9210777407
 20
-15.5359950387
 10
-22.8644806851
 20
-15.6281802647
 10
-22.80013728
 20
-15.713554403
 10
-22.7286955987
 20
-15.7914186569
 10
-22.6508730023
 20
-15.8611853798
 10
-22.5673785643
 20
-15.9224723281
 10
-22.4790982085
 20
-15.9748830306
 10
-22.4558346978
 20
-15.9868382571
  0
LWPOLYLINE
  5
25B
100
AcDbEntity
  8
RACCORDO
100
AcDbPolyline
 62
7
  6
CONTINUOUS
 90
3
 70
0
 10
-19.8275895504
 20
21.5759143231
 10
-19.8482432205
 20
21.4644475782
 10
-19.8517545907
 20
21.4402612338
  0
LWPOLYLINE
  5
25C
100
AcDbEntity
  8
ASSI
100
AcDbPolyline
 62
250
  6
CONTINUOUS
 90
4
 70
0
 10
-19.4981790989
 20
21.6386081009
 10
-19.5375539669
 20
21.5230557941
 10
-19.5704128759
 20
21.407142737
 10
-19.5965289253
 20
21.2916555728
  0
LINE
  5
25D
100
AcDbEntity
  8
PREM_14013
100
AcDbLine
 62
7
  6
CONTINUOUS
 10
-0.2533047387
 20
26.5942439907
 11
0.1693926126
 21
26.8171406622
  0
LWPOLYLINE
  5
25E
100
AcDbEntity
  8
218
100
AcDbPolyline
 62
7
  6
CONTINUOUS
 90
38
 70
0
 10
-0.0091288258
 20
27.9305995528
 10
-0.0496472828
 20
27.9095405948
 10
-0.0892615397
 20
27.8880558627
 10
-0.1279537043
 20
27.8661550602
 10
-0.1657063011
 20
27.843848079
 10
-0.2025022787
 20
27.8211449942
 10
-0.2383250181
 20
27.7980560599
 10
-0.2731583394
 20
27.7745917043
 10
-0.3069865101
 20
27.7507625254
 10
-0.3397942512
 20
27.7265792857
 10
-0.371566745
 20
27.7020529078
 10
-0.4022896412
 20
27.6771944693
 10
-0.4319490634
 20
27.6520151977
 10
-0.4605316159
 20
27.6265264654
 10
-0.4880243889
 20
27.6007397845
 10
-0.5144149653
 20
27.574666802
 10
-0.5396914255
 20
27.5483192937
 10
-0.5638423531
 20
27.5217091598
 10
-0.5868568402
 20
27.494848419
 10
-0.6087244922
 20
27.4677492031
 10
-0.6294354323
 20
27.4404237518
 10
-0.6489803062
 20
27.4128844067
 10
-0.6673502865
 20
27.3851436063
 10
-0.684537076
 20
27.3572138799
 10
-0.7005329123
 20
27.3291078421
 10
-0.7153305707
 20
27.3008381874
 10
-0.7289233677
 20
27.2724176839
 10
-0.7413051641
 20
27.243859168
 10
-0.7524703675
 20
27.2151755384
 10
-0.762413935
 20
27.1863797502
 10
-0.7711313756
 20
27.1574848093
 10
-0.7786187519
 20
27.1285037663
 10
-0.7848726822
 20
27.0994497108
 10
-0.7898903419
 20
27.0703357653
 10
-0.7936694647
 20
27.0411750793
 10
-0.7962083437
 20
27.0119808234
 10
-0.7975058323
 20
26.9827661836
 10
-0.7976900906
 20
26.9668493144
  0
LINE
  5
25F
100
AcDbEntity
  8
218
100
AcDbLine
 62
7
  6
CONTINUOUS
 10
4.2072509519
 20
30.0759091695
 11
-0.0091288258
 21
27.9305995528
  0
LINE
  5
260
100
AcDbEntity
  8
218
100
AcDbLine
 62
7
  6
CONTINUOUS
 10
4.2133079388
 20
29.6384207023
 11
-0.0091288258
 21
27.5203805099
  0
LINE
  5
261
100
AcDbEntity
  8
268
100
AcDbLine
 62
7
  6
CONTINUOUS
 10
-2.0592724602
 20
26.0980478939
 11
-3.4570569667
 21
25.3991556406
  0
LINE
  5
262
100
AcDbEntity
  8
PREM_14013
100
AcDbLine
 62
7
  6
CONTINUOUS
 10
0.2976800414
 20
26.5940489308
 11
0.7926547882
 21
26.8415363042
  0
LWPOLYLINE
  5
263
100
AcDbEntity
  8
218
100
AcDbPolyline
 62
7
  6
CONTINUOUS
 90
6
 70
0
 10
-4.4471243432
 20
24.6127187486
 10
-4.4558251089
 20
24.6083723379
 10
-4.46392687
 20
24.6036934196
 10
-4.4717441442
 20
24.5985359246
 10
-4.4792714274
 20
24.5929039632
 10
-4.4851338761
 20
24.588011881
  0
LINE
  5
264
100
AcDbEntity
  8
268
100
AcDbLine
 62
7
  6
CONTINUOUS
 10
-3.8106103573
 20
26.1284905252
 11
-3.3863462886
 21
26.3360879461
  0
LINE
  5
265
100
AcDbEntity
  8
268
100
AcDbLine
 62
7
  6
CONTINUOUS
 10
-1.4002767088
 20
26.9581207077
 11
-3.4570569667
 21
25.9517138299
  0
LINE
  5
266
100
AcDbEntity
  8
218
100
AcDbLine
 62
250
  6
CONTINUOUS
 10
-4.1762179179
 20
24.620457407
 11
-4.1221304035
 21
24.6465266264
  0
LINE
  5
267
100
AcDbEntity
  8
218
100
AcDbLine
 62
250
  6
CONTINUOUS
 10
-4.186916572
 20
24.6153774164
 11
-4.1762179179
 21
24.620457407
  0
LINE
  5
268
100
AcDbEntity
  8
218
100
AcDbLine
 62
250
  6
CONTINUOUS
 10
-4.1221304035
 20
24.6465266264
 11
-4.109801719
 21
24.6523634098
  0
LINE
  5
269
100
AcDbEntity
  8
218
100
AcDbLine
 62
250
  6
CONTINUOUS
 10
-4.1948436481
 20
24.6116693269
 11
-4.186916572
 21
24.6153774164
  0
LINE
  5
26A
100
AcDbEntity
  8
218
100
AcDbLine
 62
250
  6
CONTINUOUS
 10
-4.109801719
 20
24.6523634098
 11
-4.1002858558
 21
24.6568045665
  0
LINE
  5
26B
100
AcDbEntity
  8
218
100
AcDbLine
 62
250
  6
CONTINUOUS
 10
-4.2349282739
 20
24.5931529953
 11
-4.1948436481
 21
24.6116693269
  0
LINE
  5
26C
100
AcDbEntity
  8
218
100
AcDbLine
 62
7
  6
CONTINUOUS
 10
-4.3963916679
 20
24.6361103003
 11
-4.4471253396
 21
24.6127182885
  0
LINE
  5
26D
100
AcDbEntity
  8
218
100
AcDbLine
 62
250
  6
CONTINUOUS
 10
-4.1002858558
 20
24.6568045665
 11
-4.0905217773
 21
24.6612939951
  0
LWPOLYLINE
  5
26E
100
AcDbEntity
  8
218
100
AcDbPolyline
 62
250
  6
CONTINUOUS
 90
17
 70
0
 10
-3.2429554348
 20
24.7204585306
 10
-3.2371419894
 20
24.723094398
 10
-3.2313425584
 20
24.7254306543
 10
-3.2255669561
 20
24.727463346
 10
-3.2198249561
 20
24.7291890331
 10
-3.2141262753
 20
24.7306047955
 10
-3.2084805575
 20
24.7317082373
 10
-3.2028973566
 20
24.7324974912
 10
-3.1973861208
 20
24.7329712215
 10
-3.1919561765
 20
24.7331286267
 10
-3.1866167125
 20
24.7329694403
 10
-3.1813767646
 20
24.7324939318
 10
-3.1762452002
 20
24.7317029058
 10
-3.171230703
 20
24.7305977009
 10
-3.166341759
 20
24.7291801874
 10
-3.1615866414
 20
24.7274527642
 10
-3.1570336313
 20
24.7254449173
  0
LINE
  5
26F
100
AcDbEntity
  8
218
100
AcDbLine
 62
250
  6
CONTINUOUS
 10
-4.0905217773
 20
24.6612939951
 11
-4.0838672757
 21
24.6643109014
  0
LWPOLYLINE
  5
270
100
AcDbEntity
  8
218
100
AcDbPolyline
 62
250
  6
CONTINUOUS
 90
22
 70
0
 10
-4.4132789886
 20
24.628349655
 10
-4.4101506754
 20
24.629759587
 10
-4.400902213
 20
24.6335334811
 10
-4.3914425987
 20
24.6368159366
 10
-4.3817819583
 20
24.6396034398
 10
-4.3719306327
 20
24.641893007
 10
-4.3618991667
 20
24.6436821874
 10
-4.3516982982
 20
24.6449690658
 10
-4.3413389463
 20
24.6457522649
 10
-4.3308321998
 20
24.6460309461
 10
-4.3201893051
 20
24.6458048112
 10
-4.3094216545
 20
24.6450741023
 10
-4.2985407739
 20
24.6438396015
 10
-4.2875583102
 20
24.6421026303
 10
-4.2764860193
 20
24.6398650478
 10
-4.2653357529
 20
24.6371292493
 10
-4.2541194465
 20
24.6338981632
 10
-4.242849106
 20
24.630175248
 10
-4.2315367954
 20
24.6259644888
 10
-4.2201946236
 20
24.6212703928
 10
-4.2088347312
 20
24.6160979847
 10
-4.197469278
 20
24.6104528009
  0
LINE
  5
271
100
AcDbEntity
  8
218
100
AcDbLine
 62
250
  6
CONTINUOUS
 10
-4.0838672757
 20
24.6643109014
 11
-4.0770914869
 21
24.6673447609
  0
LINE
  5
272
100
AcDbEntity
  8
218
100
AcDbLine
 62
250
  6
CONTINUOUS
 10
-4.0770914869
 20
24.6673447609
 11
-4.0701895907
 21
24.6703934247
  0
LINE
  5
273
100
AcDbEntity
  8
218
100
AcDbLine
 62
250
  6
CONTINUOUS
 10
-4.0701895907
 20
24.6703934247
 11
-4.0631582514
 21
24.6734554981
  0
LINE
  5
274
100
AcDbEntity
  8
218
100
AcDbLine
 62
250
  6
CONTINUOUS
 10
-4.0631582514
 20
24.6734554981
 11
-4.0559921777
 21
24.6765289937
  0
LINE
  5
275
100
AcDbEntity
  8
218
100
AcDbLine
 62
250
  6
CONTINUOUS
 10
-4.0559921777
 20
24.6765289937
 11
-4.0486867938
 21
24.6796115401
  0
LINE
  5
276
100
AcDbEntity
  8
218
100
AcDbLine
 62
250
  6
CONTINUOUS
 10
-4.0486867938
 20
24.6796115401
 11
-4.0412390661
 21
24.6827015371
  0
LINE
  5
277
100
AcDbEntity
  8
218
100
AcDbLine
 62
250
  6
CONTINUOUS
 10
-4.0412390661
 20
24.6827015371
 11
-4.0336445708
 21
24.6857965102
  0
LINE
  5
278
100
AcDbEntity
  8
218
100
AcDbLine
 62
250
  6
CONTINUOUS
 10
-4.0336445708
 20
24.6857965102
 11
-4.0258988853
 21
24.6888939157
  0
LINE
  5
279
100
AcDbEntity
  8
218
100
AcDbLine
 62
250
  6
CONTINUOUS
 10
-4.0258988853
 20
24.6888939157
 11
-4.0179991559
 21
24.6919920036
  0
LINE
  5
27A
100
AcDbEntity
  8
218
100
AcDbLine
 62
250
  6
CONTINUOUS
 10
-4.0179991559
 20
24.6919920036
 11
-4.0099411609
 21
24.6950881003
  0
LINE
  5
27B
100
AcDbEntity
  8
218
100
AcDbLine
 62
250
  6
CONTINUOUS
 10
-4.0099411609
 20
24.6950881003
 11
-4.0017212114
 21
24.6981792575
  0
LINE
  5
27C
100
AcDbEntity
  8
218
100
AcDbLine
 62
250
  6
CONTINUOUS
 10
-4.0017212114
 20
24.6981792575
 11
-3.9933369038
 21
24.7012634775
  0
LINE
  5
27D
100
AcDbEntity
  8
218
100
AcDbLine
 62
250
  6
CONTINUOUS
 10
-3.9933369038
 20
24.7012634775
 11
-3.9847849123
 21
24.7043376449
  0
LINE
  5
27E
100
AcDbEntity
  8
218
100
AcDbLine
 62
250
  6
CONTINUOUS
 10
-3.9847849123
 20
24.7043376449
 11
-3.9760611257
 21
24.7073988467
  0
LINE
  5
27F
100
AcDbEntity
  8
218
100
AcDbLine
 62
250
  6
CONTINUOUS
 10
-3.9760611257
 20
24.7073988467
 11
-3.9671631368
 21
24.7104450022
  0
LINE
  5
280
100
AcDbEntity
  8
218
100
AcDbLine
 62
250
  6
CONTINUOUS
 10
-3.9671631368
 20
24.7104450022
 11
-3.9580875483
 21
24.7134728777
  0
LINE
  5
281
100
AcDbEntity
  8
218
100
AcDbLine
 62
250
  6
CONTINUOUS
 10
-3.9580875483
 20
24.7134728777
 11
-3.9488320588
 21
24.7164788071
  0
LINE
  5
282
100
AcDbEntity
  8
218
100
AcDbLine
 62
250
  6
CONTINUOUS
 10
-3.9488320588
 20
24.7164788071
 11
-3.9393950673
 21
24.7194603598
  0
LINE
  5
283
100
AcDbEntity
  8
218
100
AcDbLine
 62
250
  6
CONTINUOUS
 10
-3.9393950673
 20
24.7194603598
 11
-3.929774188
 21
24.722413868
  0
LINE
  5
284
100
AcDbEntity
  8
218
100
AcDbLine
 62
250
  6
CONTINUOUS
 10
-3.929774188
 20
24.722413868
 11
-3.9199673842
 21
24.7253354942
  0
LINE
  5
285
100
AcDbEntity
  8
218
100
AcDbLine
 62
250
  6
CONTINUOUS
 10
-3.9199673842
 20
24.7253354942
 11
-3.909973487
 21
24.7282226136
  0
LINE
  5
286
100
AcDbEntity
  8
RACCORDO
100
AcDbLine
 62
250
  6
CONTINUOUS
 10
17.6147251126
 20
-29.0694167914
 11
17.0843950268
 21
-28.9595818344
  0
LINE
  5
287
100
AcDbEntity
  8
RACCORDO
100
AcDbLine
 62
250
  6
CONTINUOUS
 10
17.526336765
 20
-28.7493342699
 11
16.9960066791
 21
-28.6394993129
  0
LINE
  5
288
100
AcDbEntity
  8
ASSI
100
AcDbLine
 62
7
  6
CONTINUOUS
 10
7.4415471396
 20
-30.9354988186
 11
7.5589107343
 21
-30.9864124303
  0
LINE
  5
289
100
AcDbEntity
  8
RACCORDO
100
AcDbLine
 62
7
  6
CONTINUOUS
 10
7.4460127133
 20
-30.9377630764
 11
7.5339201937
 21
-30.9769549842
  0
LWPOLYLINE
  5
28A
100
AcDbEntity
  8
RACCORDO
100
AcDbPolyline
 62
250
  6
CONTINUOUS
 90
16
 70
0
 10
7.053770999
 20
-30.0641193511
 10
7.1152785739
 20
-30.0919302024
 10
7.1821818653
 20
-30.1167586849
 10
7.2537640144
 20
-30.1383387649
 10
7.3292580292
 20
-30.1564392153
 10
7.4078550028
 20
-30.1708660925
 10
7.4887127804
 20
-30.1814648141
 10
7.5709649829
 20
-30.1881218164
 10
7.6537302905
 20
-30.1907657708
 10
7.7361218853
 20
-30.1893683476
 10
7.8172569536
 20
-30.18394452
 10
7.8962661455
 20
-30.1745524035
 10
7.9723028894
 20
-30.1612926333
 10
8.0445524628
 20
-30.1443072857
 10
8.1122407225
 20
-30.1237783562
 10
8.174642399
 20
-30.0999258092
  0
LWPOLYLINE
  5
28B
100
AcDbEntity
  8
ASSI
100
AcDbPolyline
 62
250
  6
CONTINUOUS
 90
16
 70
0
 10
7.053770999
 20
-30.0641193511
 10
7.1152785739
 20
-30.0919302024
 10
7.1821818653
 20
-30.1167586849
 10
7.2537640144
 20
-30.1383387649
 10
7.3292580292
 20
-30.1564392153
 10
7.4078550028
 20
-30.1708660925
 10
7.4887127804
 20
-30.1814648141
 10
7.5709649829
 20
-30.1881218164
 10
7.6537302905
 20
-30.1907657708
 10
7.7361218853
 20
-30.1893683476
 10
7.8172569536
 20
-30.18394452
 10
7.8962661455
 20
-30.1745524035
 10
7.9723028894
 20
-30.1612926333
 10
8.0445524628
 20
-30.1443072857
 10
8.1122407225
 20
-30.1237783562
 10
8.174642399
 20
-30.0999258092
  0
LINE
  5
28C
100
AcDbEntity
  8
RACCORDO
100
AcDbLine
 62
7
  6
CONTINUOUS
 10
7.4464280683
 20
-30.9379934096
 11
-22.4572244237
 21
-15.9861671636
  0
LINE
  5
28D
100
AcDbEntity
  8
RACCORDO
100
AcDbLine
 62
250
  6
CONTINUOUS
 10
7.0537709761
 20
-30.0641193612
 11
-22.8419812857
 21
-15.1162432303
  0
LINE
  5
28E
100
AcDbEntity
  8
ASSI
100
AcDbLine
 62
250
  6
CONTINUOUS
 10
7.0537709761
 20
-30.0641193612
 11
-22.8419812857
 21
-15.1162432303
  0
LINE
  5
28F
100
AcDbEntity
  8
ASSI
100
AcDbLine
 62
7
  6
CONTINUOUS
 10
-22.4593038478
 20
-15.9851219789
 11
7.4464280683
 21
-30.9379934096
  0
LINE
  5
290
100
AcDbEntity
  8
ASSI
100
AcDbLine
 62
250
  6
CONTINUOUS
 10
7.4464293357
 20
-30.9379940433
 11
7.4414338573
 21
-30.9354656946
  0
LWPOLYLINE
  5
291
100
AcDbEntity
  8
RACCORDO
100
AcDbPolyline
 62
250
  6
CONTINUOUS
 90
13
 70
0
 10
7.4458867125
 20
-30.9377223721
 10
7.4266153024
 20
-30.9275982112
 10
7.3619998944
 20
-30.8862425661
 10
7.3025637626
 20
-30.8361194618
 10
7.2487088705
 20
-30.7775689031
 10
7.2007977813
 20
-30.7109876175
 10
7.1591609331
 20
-30.6368281915
 10
7.1240802303
 20
-30.5555913037
 10
7.0957935089
 20
-30.4678297295
 10
7.0744991745
 20
-30.3741461188
 10
7.0603430228
 20
-30.275180014
 10
7.0534181185
 20
-30.1716027242
 10
7.0537709761
 20
-30.0641193612
  0
LWPOLYLINE
  5
292
100
AcDbEntity
  8
ASSI
100
AcDbPolyline
 62
250
  6
CONTINUOUS
 90
13
 70
0
 10
7.4414338573
 20
-30.9354656946
 10
7.4266153024
 20
-30.9275982112
 10
7.3619998944
 20
-30.8862425661
 10
7.3025637626
 20
-30.8361194618
 10
7.2487088705
 20
-30.7775689031
 10
7.2007977813
 20
-30.7109876175
 10
7.1591609331
 20
-30.6368281915
 10
7.1240802303
 20
-30.5555913037
 10
7.0957935089
 20
-30.4678297295
 10
7.0744991745
 20
-30.3741461188
 10
7.0603430228
 20
-30.275180014
 10
7.0534181185
 20
-30.1716027242
 10
7.0537709761
 20
-30.0641193612
  0
LWPOLYLINE
  5
293
100
AcDbEntity
  8
RACCORDO
100
AcDbPolyline
 62
250
  6
CONTINUOUS
 90
9
 70
0
 10
-22.8419667486
 20
-15.1162367799
 10
-22.8974128047
 20
-15.0855709432
 10
-22.9462101947
 20
-15.0525493781
 10
-22.9878360717
 20
-15.0175258987
 10
-23.0218444291
 20
-14.9808757694
 10
-23.0478708792
 20
-14.9429916834
 10
-23.0656365579
 20
-14.9042795548
 10
-23.0749511121
 20
-14.8651541704
 10
-23.0763301032
 20
-14.835525598
  0
LWPOLYLINE
  5
294
100
AcDbEntity
  8
ASSI
100
AcDbPolyline
 62
250
  6
CONTINUOUS
 90
9
 70
0
 10
-22.8419667486
 20
-15.1162367799
 10
-22.8974128047
 20
-15.0855709432
 10
-22.9462101947
 20
-15.0525493781
 10
-22.9878360717
 20
-15.0175258987
 10
-23.0218444291
 20
-14.9808757694
 10
-23.0478708792
 20
-14.9429916834
 10
-23.0656365579
 20
-14.9042795548
 10
-23.0749511121
 20
-14.8651541704
 10
-23.0763222761
 20
-14.8353165144
  0
LWPOLYLINE
  5
295
100
AcDbEntity
  8
RACCORDO
100
AcDbPolyline
 62
250
  6
CONTINUOUS
 90
11
 70
0
 10
-22.8419812857
 20
-15.1162432303
 10
-22.8424929483
 20
-15.2236471908
 10
-22.8358382414
 20
-15.3270893819
 10
-22.8220636795
 20
-15.4258646918
 10
-22.8012663812
 20
-15.5192997844
 10
-22.7735880883
 20
-15.6067571444
 10
-22.7392150456
 20
-15.6876402021
 10
-22.6983871723
 20
-15.7613951407
 10
-22.6513842896
 20
-15.827522323
 10
-22.5985184245
 20
-15.8855783682
 10
-22.5401538499
 20
-15.9351656939
  0
LWPOLYLINE
  5
296
100
AcDbEntity
  8
ASSI
100
AcDbPolyline
 62
250
  6
CONTINUOUS
 90
13
 70
0
 10
-22.8419812857
 20
-15.1162432303
 10
-22.8424929483
 20
-15.2236471908
 10
-22.8358382414
 20
-15.3270893819
 10
-22.8220636795
 20
-15.4258646918
 10
-22.8012663812
 20
-15.5192997844
 10
-22.7735880883
 20
-15.6067571444
 10
-22.7392150456
 20
-15.6876402021
 10
-22.6983871723
 20
-15.7613951407
 10
-22.6513842896
 20
-15.827522323
 10
-22.5985184245
 20
-15.8855783682
 10
-22.5401538499
 20
-15.9351656939
 10
-22.4766908196
 20
-15.9759451502
 10
-22.4593038478
 20
-15.9851219789
  0
LWPOLYLINE
  5
297
100
AcDbEntity
  8
ASSI
100
AcDbPolyline
 62
7
  6
CONTINUOUS
 90
9
 70
0
 10
-23.0763060597
 20
-14.8352107256
 10
-23.0774420501
 20
-14.8964607922
 10
-23.0612040956
 20
-15.1152735941
 10
-23.0115703882
 20
-15.3263822592
 10
-22.9272110545
 20
-15.5246990166
 10
-22.8112199668
 20
-15.7000186782
 10
-22.6707349576
 20
-15.8446525452
 10
-22.5091719339
 20
-15.9583197039
 10
-22.4591824468
 20
-15.9851599464
  0
LINE
  5
298
100
AcDbEntity
  8
RACCORDO
100
AcDbLine
 62
7
  6
CONTINUOUS
 10
-23.0763179437
 20
-14.8355260494
 11
-23.0771690182
 21
-14.8657252105
  0
LINE
  5
299
100
AcDbEntity
  8
RACCORDO
100
AcDbLine
 62
7
  6
CONTINUOUS
 10
-23.0763301032
 20
-14.835525598
 11
-23.0763222653
 21
-14.8353162306
  0
LINE
  5
29A
100
AcDbEntity
  8
ASSI
100
AcDbLine
 62
7
  6
CONTINUOUS
 10
-23.0763222761
 20
-14.8353165144
 11
-23.0763182046
 21
-14.8352102699
  0
LINE
  5
29B
100
AcDbEntity
  8
ASSI
100
AcDbLine
 62
250
  6
CONTINUOUS
 10
-22.7163165218
 20
-12.148951183
 11
-22.8419812857
 21
-15.1162432303
  0
LINE
  5
29C
100
AcDbEntity
  8
ASSI
100
AcDbLine
 62
7
  6
CONTINUOUS
 10
-22.9158515359
 20
-11.1388970977
 11
-23.0763222761
 21
-14.8353165144
  0
LWPOLYLINE
  5
29D
100
AcDbEntity
  8
RACCORDO
100
AcDbPolyline
 62
7
  6
CONTINUOUS
 90
3
 70
0
 10
-22.8018976246
 20
-8.9445328375
 10
-22.9538284833
 20
-11.9363840598
 10
-23.0763222653
 20
-14.8353162306
  0
LWPOLYLINE
  5
29E
100
AcDbEntity
  8
RACCORDO
100
AcDbPolyline
 62
7
  6
CONTINUOUS
 90
10
 70
0
 10
-20.2528971628
 20
18.4447151504
 10
-20.6407338947
 20
15.3648813588
 10
-21.0025174081
 20
12.2932771298
 10
-21.3381931285
 20
9.2303360749
 10
-21.6477204222
 20
6.1764392835
 10
-21.9310625346
 20
3.1319474199
 10
-22.1881823064
 20
0.0972354569
 10
-22.4190478213
 20
-2.9273236197
 10
-22.6236293699
 20
-5.9413719505
 10
-22.8018976246
 20
-8.9445328375
  0
LWPOLYLINE
  5
29F
100
AcDbEntity
  8
ASSI
100
AcDbPolyline
 62
7
  6
CONTINUOUS
 90
9
 70
0
 10
-19.851753241
 20
21.440354966
 10
-20.3558955496
 20
17.645867849
 10
-20.8654382397
 20
13.4823778801
 10
-21.3271986467
 20
9.3344308567
 10
-21.7410648143
 20
5.2030204586
 10
-22.1069430826
 20
1.0890692278
 10
-22.424750058
 20
-3.0065215113
 10
-22.6944095003
 20
-7.0828360761
 10
-22.9158515359
 20
-11.1388970977
  0
LWPOLYLINE
  5
2A0
100
AcDbEntity
  8
RACCORDO
100
AcDbPolyline
 62
250
  6
CONTINUOUS
 90
13
 70
0
 10
-19.6157230117
 20
21.1773807392
 10
-20.0271490231
 20
18.1026981569
 10
-20.4127903434
 20
15.0358706693
 10
-20.7725983031
 20
11.9772831307
 10
-21.106527443
 20
8.9273193829
 10
-21.4145357932
 20
5.886362228
 10
-21.6965848755
 20
2.854793382
 10
-21.9526394291
 20
-0.1670065229
 10
-22.1826671654
 20
-3.1786582257
 10
-22.3866390412
 20
-6.1797838617
 10
-22.5645295085
 20
-9.1700066982
 10
-22.7163165218
 20
-12.148951183
 10
-22.8419812857
 20
-15.1162432303
  0
LWPOLYLINE
  5
2A1
100
AcDbEntity
  8
ASSI
100
AcDbPolyline
 62
250
  6
CONTINUOUS
 90
12
 70
0
 10
-19.6157230117
 20
21.1773807392
 10
-20.0271490231
 20
18.1026981569
 10
-20.4127903434
 20
15.0358706693
 10
-20.7725983031
 20
11.9772831307
 10
-21.106527443
 20
8.9273193829
 10
-21.4145357932
 20
5.886362228
 10
-21.6965848755
 20
2.854793382
 10
-21.9526394291
 20
-0.1670065229
 10
-22.1826671654
 20
-3.1786582257
 10
-22.3866390412
 20
-6.1797838617
 10
-22.5645295085
 20
-9.1700066982
 10
-22.7163165218
 20
-12.148951183
  0
LINE
  5
2A2
100
AcDbEntity
  8
RACCORDO
100
AcDbLine
 62
7
  6
CONTINUOUS
 10
-19.8517532703
 20
21.4403547538
 11
-20.2528971628
 21
18.4447151504
  0
LINE
  5
2A3
100
AcDbEntity
  8
ASSI
100
AcDbLine
 62
250
  6
CONTINUOUS
 10
-19.5965289253
 20
21.2916555728
 11
-19.6157230117
 21
21.1773807392
  0
LINE
  5
2A4
100
AcDbEntity
  8
218
100
AcDbLine
 62
7
  6
CONTINUOUS
 10
-5.339234345
 20
23.8405079241
 11
-4.4851330811
 21
24.5880122615
  0
LINE
  5
2A5
100
AcDbEntity
  8
218
100
AcDbLine
 62
250
  6
CONTINUOUS
 10
-5.1853317903
 20
23.7635566467
 11
-4.2365331987
 21
24.593939521
  0
LINE
  5
2A6
100
AcDbEntity
  8
268
100
AcDbLine
 62
7
  6
CONTINUOUS
 10
-3.7440206652
 20
21.8410881519
 11
-3.2449249324
 21
22.091284825
  0
LINE
  5
2A7
100
AcDbEntity
  8
PREM_14013
100
AcDbLine
 62
7
  6
CONTINUOUS
 10
3.2608327007
 20
27.0220361565
 11
1.9493683897
 21
26.366304001
  0
LINE
  5
2A8
100
AcDbEntity
  8
PREM_14013
100
AcDbLine
 62
7
  6
CONTINUOUS
 10
4.1093634085
 20
26.597773373
 11
3.7409148809
 21
26.4135491092
  0
LINE
  5
2A9
100
AcDbEntity
  8
268
100
AcDbLine
 62
7
  6
CONTINUOUS
 10
-3.2449249324
 20
22.091284825
 11
2.1693477628
 21
24.7913004353
  0
LINE
  5
2AA
100
AcDbEntity
  8
268
100
AcDbLine
 62
7
  6
CONTINUOUS
 10
1.5634011797
 20
25.0930483933
 11
-3.1742142542
 21
22.7579978787
  0
LINE
  5
2AB
100
AcDbEntity
  8
268
100
AcDbLine
 62
7
  6
CONTINUOUS
 10
2.8423639783
 20
24.8368003642
 11
2.2559851912
 21
24.5498782965
  0
LINE
  5
2AC
100
AcDbEntity
  8
218
100
AcDbLine
 62
7
  6
CONTINUOUS
 10
7.8304101216
 20
28.3279630963
 11
4.2669792851
 21
26.6177083485
  0
LWPOLYLINE
  5
2AD
100
AcDbEntity
  8
268
100
AcDbPolyline
 62
7
  6
CONTINUOUS
 90
18
 70
0
 10
2.8423639783
 20
24.8368003642
 10
2.870738499
 20
24.849982321
 10
2.898972951
 20
24.8617167127
 10
2.9270673343
 20
24.8720035394
 10
2.9550716473
 20
24.880855674
 10
2.9829358916
 20
24.8882602436
 10
3.0105100712
 20
24.8941786292
 10
3.0377791999
 20
24.8986020504
 10
3.0647582639
 20
24.9015392878
 10
3.0913422265
 20
24.9029780638
 10
3.1175471854
 20
24.9029109272
 10
3.1433570428
 20
24.9013453292
 10
3.1686184691
 20
24.8982913458
 10
3.1933082224
 20
24.8937455614
 10
3.2174495446
 20
24.8877113916
 10
3.2409588308
 20
24.8802091588
 10
3.263854611
 20
24.8712237441
 10
3.283397663
 20
24.8621544898
  0
LWPOLYLINE
  5
2AE
100
AcDbEntity
  8
PREM_14013
100
AcDbPolyline
 62
7
  6
CONTINUOUS
 90
10
 70
0
 10
4.1093345126
 20
26.597758925
 10
4.1207309768
 20
26.6029275803
 10
4.1319513793
 20
26.6069794766
 10
4.14299572
 20
26.6099146142
 10
4.153958979
 20
26.6117331455
 10
4.1647461761
 20
26.612434918
 10
4.1750723716
 20
26.6120194736
 10
4.1848425853
 20
26.6104866597
 10
4.1941517973
 20
26.607836629
 10
4.2030000076
 20
26.6040693814
  0
LINE
  5
2AF
100
AcDbEntity
  8
RACCORDO
100
AcDbLine
 62
250
  6
CONTINUOUS
 10
18.1450551985
 20
-20.2906031707
 11
22.3436652812
 21
-19.9943952479
  0
LINE
  5
2B0
100
AcDbEntity
  8
RACCORDO
100
AcDbLine
 62
7
  6
CONTINUOUS
 10
21.8759950525
 20
-19.3587717511
 11
18.1450551985
 21
-19.5574232329
  0
LINE
  5
2B1
100
AcDbEntity
  8
RACCORDO
100
AcDbLine
 62
250
  6
CONTINUOUS
 10
16.9788313043
 20
-28.6342517657
 11
16.9960066791
 21
-28.6394993129
  0
LINE
  5
2B2
100
AcDbEntity
  8
RACCORDO
100
AcDbLine
 62
7
  6
CONTINUOUS
 10
15.2048246749
 20
-30.6166093854
 11
13.8613217907
 21
-29.9448579432
  0
LINE
  5
2B3
100
AcDbEntity
  8
RACCORDO
100
AcDbLine
 62
250
  6
CONTINUOUS
 10
15.1398513785
 20
-30.4813909353
 11
13.7963484942
 21
-29.8096394931
  0
LWPOLYLINE
  5
2B4
100
AcDbEntity
  8
RACCORDO
100
AcDbPolyline
 62
250
  6
CONTINUOUS
 90
3
 70
0
 10
-15.7546060548
 20
-13.1682061594
 10
-15.823652887
 20
-13.1053921044
 10
-15.8407645671
 20
-13.0875573987
  0
LWPOLYLINE
  5
2B5
100
AcDbEntity
  8
ASSI
100
AcDbPolyline
 62
250
  6
CONTINUOUS
 90
25
 70
0
 10
-15.9977486478
 20
-13.132269403
 10
-16.0664061867
 20
-13.0506744512
 10
-16.131157963
 20
-12.9629652754
 10
-16.1921082442
 20
-12.8693058186
 10
-16.2477848173
 20
-12.7718991071
 10
-16.298027753
 20
-12.6707022396
 10
-16.3429890479
 20
-12.5657548132
 10
-16.3816659226
 20
-12.4593842503
 10
-16.4139232861
 20
-12.3515377
 10
-16.4398892762
 20
-12.2422651342
 10
-16.4589587444
 20
-12.1340493747
 10
-16.4709703324
 20
-12.0269134902
 10
-16.4760813623
 20
-11.9208327607
 10
-16.4741684617
 20
-11.8182198878
 10
-16.465069077
 20
-11.7191541666
 10
-16.4489457333
 20
-11.6235563182
 10
-16.4261667878
 20
-11.5336028858
 10
-16.3965797311
 20
-11.4494271179
 10
-16.3603410686
 20
-11.3708974403
 10
-16.3182864511
 20
-11.2997947158
 10
-16.2702900335
 20
-11.2362962631
 10
-16.2164845951
 20
-11.1802276342
 10
-16.1580965435
 20
-11.1328431981
 10
-16.0950307682
 20
-11.0943426459
 10
-16.0273903512
 20
-11.064529567
  0
LWPOLYLINE
  5
2B6
100
AcDbEntity
  8
PREM_14013
100
AcDbPolyline
 62
250
  6
CONTINUOUS
 90
45
 70
0
 10
-0.1264469932
 20
26.5408508984
 10
-0.1220389715
 20
26.5452954531
 10
-0.0615354931
 20
26.5992379754
 10
0.0043368585
 20
26.6514908749
 10
0.0755790138
 20
26.7020956824
 10
0.1517131115
 20
26.7507189609
 10
0.2327297405
 20
26.7973467034
 10
0.3186383118
 20
26.841992917
 10
0.4089891975
 20
26.8843661861
 10
0.5040394777
 20
26.9245253841
 10
0.6035320722
 20
26.9624116376
 10
0.7062461126
 20
26.9975569108
 10
0.8125869814
 20
27.0299346306
 10
0.9221492959
 20
27.0595713702
 10
1.0324960403
 20
27.0860788124
 10
1.1436005573
 20
27.1092782058
 10
1.255489504
 20
27.1293483019
 10
1.3658058361
 20
27.1464370377
 10
1.474196326
 20
27.1604109335
 10
1.5810142013
 20
27.1714034691
 10
1.6849621004
 20
27.1799630203
 10
1.7857979348
 20
27.1860655899
 10
1.8837637931
 20
27.1897351751
 10
1.9782885794
 20
27.1915921439
 10
2.0692103195
 20
27.1916580127
 10
2.1566909877
 20
27.1899112652
 10
2.2406454111
 20
27.1869077199
 10
2.3209494845
 20
27.1826889192
 10
2.3977273131
 20
27.1772133207
 10
2.4712660395
 20
27.1709121151
 10
2.5415325732
 20
27.1638260813
 10
2.6085600048
 20
27.1559144404
 10
2.6727347489
 20
27.1474860463
 10
2.7340424957
 20
27.1385754057
 10
2.7924975552
 20
27.1291480119
 10
2.8485292717
 20
27.1194091981
 10
2.9021338552
 20
27.1093876764
 10
2.9533150959
 20
27.0990547346
 10
3.0025137082
 20
27.0885295699
 10
3.0497328531
 20
27.0778350307
 10
3.0949693696
 20
27.0669482686
 10
3.1386544895
 20
27.055919935
 10
3.1809319566
 20
27.0447669137
 10
3.221658027
 20
27.0334723208
 10
3.2608327007
 20
27.0220361565
  0
LWPOLYLINE
  5
2B7
100
AcDbEntity
  8
PREM_14013
100
AcDbPolyline
 62
250
  6
CONTINUOUS
 90
7
 70
0
 10
-0.1965001839
 20
26.5697075053
 10
-0.1677135192
 20
26.5951840678
 10
-0.0968376873
 20
26.6509575354
 10
-0.0203445495
 20
26.7047854709
 10
0.0616468542
 20
26.7565866546
 10
0.1488954512
 20
26.8062042939
 10
0.1693926126
 20
26.8171406622
  0
LWPOLYLINE
  5
2B8
100
AcDbEntity
  8
218
100
AcDbPolyline
 62
7
  6
CONTINUOUS
 90
38
 70
0
 10
7.4154923766
 20
24.2182889516
 10
7.3749739196
 20
24.1972299936
 10
7.3353596628
 20
24.1757452615
 10
7.2966674981
 20
24.153844459
 10
7.2589149014
 20
24.1315374777
 10
7.2221189237
 20
24.108834393
 10
7.1862961844
 20
24.0857454586
 10
7.1514628631
 20
24.0622811031
 10
7.1176346924
 20
24.0384519241
 10
7.0848269512
 20
24.0142686844
 10
7.0530544574
 20
23.9897423066
 10
7.0223315613
 20
23.9648838681
 10
6.992672139
 20
23.9397045965
 10
6.9640895866
 20
23.9142158642
 10
6.9365968135
 20
23.8884291833
 10
6.9102062371
 20
23.8623562007
 10
6.884929777
 20
23.8360086925
 10
6.8607788494
 20
23.8093985586
 10
6.8377643622
 20
23.7825378178
 10
6.8158967103
 20
23.7554386019
 10
6.7951857702
 20
23.7281131505
 10
6.7756408962
 20
23.7005738055
 10
6.757270916
 20
23.672833005
 10
6.7400841265
 20
23.6449032786
 10
6.7240882902
 20
23.6167972409
 10
6.7092906318
 20
23.5885275862
 10
6.6956978347
 20
23.5601070827
 10
6.6833160384
 20
23.5315485668
 10
6.672150835
 20
23.5028649371
 10
6.6622072675
 20
23.4740691489
 10
6.6534898269
 20
23.4451742081
 10
6.6460024506
 20
23.4161931651
 10
6.6397485203
 20
23.3871391096
 10
6.6347308606
 20
23.3580251641
 10
6.6309517378
 20
23.3288644781
 10
6.6284128587
 20
23.2996702222
 10
6.6271153702
 20
23.2704555824
 10
6.6269311118
 20
23.2545387132
  0
LINE
  5
2B9
100
AcDbEntity
  8
268
100
AcDbLine
 62
7
  6
CONTINUOUS
 10
-2.0699650889
 20
20.4200577466
 11
-0.4872084857
 21
21.2320418439
  0
LINE
  5
2BA
100
AcDbEntity
  8
218
100
AcDbLine
 62
7
  6
CONTINUOUS
 10
11.6318721544
 20
26.3635985683
 11
7.4154923766
 21
24.2182889516
  0
LINE
  5
2BB
100
AcDbEntity
  8
268
100
AcDbLine
 62
7
  6
CONTINUOUS
 10
-3.7440206652
 20
20.626884679
 11
-3.2449249324
 21
20.8788492597
  0
LINE
  5
2BC
100
AcDbEntity
  8
218
100
AcDbLine
 62
7
  6
CONTINUOUS
 10
11.6379291412
 20
25.9261101011
 11
7.4154923766
 21
23.8080699087
  0
LINE
  5
2BD
100
AcDbEntity
  8
268
100
AcDbLine
 62
7
  6
CONTINUOUS
 10
-0.4621436798
 20
19.6161470421
 11
1.139137111
 21
20.4188690456
  0
LINE
  5
2BE
100
AcDbEntity
  8
268
100
AcDbLine
 62
7
  6
CONTINUOUS
 10
1.139137111
 20
20.4188690456
 11
1.6674042827
 21
20.6823078656
  0
LINE
  5
2BF
100
AcDbEntity
  8
268
100
AcDbLine
 62
7
  6
CONTINUOUS
 10
-3.2449249324
 20
20.8788492597
 11
2.1693477628
 21
23.559461857
  0
LINE
  5
2C0
100
AcDbEntity
  8
268
100
AcDbLine
 62
7
  6
CONTINUOUS
 10
-0.4872084857
 20
21.2320418439
 11
0.0472413929
 21
21.4923893105
  0
LINE
  5
2C1
100
AcDbEntity
  8
268
100
AcDbLine
 62
250
  6
CONTINUOUS
 10
1.0496149011
 20
21.0531799273
 11
5.8214538792
 21
23.3472554137
  0
LINE
  5
2C2
100
AcDbEntity
  8
268
100
AcDbLine
 62
250
  6
CONTINUOUS
 10
1.2772304009
 20
20.9393721774
 11
6.2632947471
 21
23.3364371334
  0
LINE
  5
2C3
100
AcDbEntity
  8
218
100
AcDbLine
 62
7
  6
CONTINUOUS
 10
10.5945801413
 20
26.9458780864
 11
7.0215064428
 21
25.2404447696
  0
LWPOLYLINE
  5
2C4
100
AcDbEntity
  8
RACCORDO
100
AcDbPolyline
 62
7
  6
CONTINUOUS
 90
18
 70
0
 10
21.8759810363
 20
-19.3587266696
 10
21.9129228894
 20
-19.3600183057
 10
21.9499425543
 20
-19.3673307045
 10
21.9881017498
 20
-19.3808749063
 10
22.0271502318
 20
-19.4003991474
 10
22.0653094273
 20
-19.425014141
 10
22.1023290921
 20
-19.4547214071
 10
22.1384594705
 20
-19.4895194258
 10
22.1726727215
 20
-19.5285143515
 10
22.2051229055
 20
-19.5720983677
 10
22.2356559621
 20
-19.6198792909
 10
22.2627818695
 20
-19.6697867243
 10
22.286275874
 20
-19.7216991282
 10
22.3063627292
 20
-19.7757380423
 10
22.3222266737
 20
-19.8301976891
 10
22.3335957869
 20
-19.8845094761
 10
22.3407419895
 20
-19.9392419956
 10
22.3436652812
 20
-19.9943952479
  0
LWPOLYLINE
  5
2C5
100
AcDbEntity
  8
0
100
AcDbPolyline
 62
7
  6
CONTINUOUS
 90
3
 70
0
 10
-14.8479052354
 20
-13.0773447439
 10
-14.7898229652
 20
-13.1028633336
 10
-14.7716145614
 20
-13.1088259243
  0
LWPOLYLINE
  5
2C6
100
AcDbEntity
  8
ASSI
100
AcDbPolyline
 62
7
  6
CONTINUOUS
 90
3
 70
0
 10
-14.8650794348
 20
-13.0697992167
 10
-14.7898229652
 20
-13.1028633336
 10
-14.7716145614
 20
-13.1088259243
  0
LINE
  5
2C7
100
AcDbEntity
  8
ASSI
100
AcDbLine
 62
250
  6
CONTINUOUS
 10
-15.464843143
 20
-13.345465547
 11
-15.5387484735
 21
-13.3126285761
  0
LWPOLYLINE
  5
2C8
100
AcDbEntity
  8
RACCORDO
100
AcDbPolyline
 62
250
  6
CONTINUOUS
 90
3
 70
0
 10
17.5494332776
 20
-28.7572631315
 10
17.5435963776
 20
-28.754616553
 10
17.526336765
 20
-28.7493342699
  0
LINE
  5
2C9
100
AcDbEntity
  8
RACCORDO
100
AcDbLine
 62
250
  6
CONTINUOUS
 10
16.9725916279
 20
-28.6314119368
 11
16.9788313043
 21
-28.6342517657
  0
LWPOLYLINE
  5
2CA
100
AcDbEntity
  8
RACCORDO
100
AcDbPolyline
 62
250
  6
CONTINUOUS
 90
55
 70
0
 10
-15.7259322807
 20
-13.1211891094
 10
-15.688791626
 20
-13.1383311037
 10
-15.6515298529
 20
-13.1526806866
 10
-15.6142723516
 20
-13.1641889108
 10
-15.5771628707
 20
-13.1728127321
 10
-15.540307814
 20
-13.178528968
 10
-15.5037773592
 20
-13.1813199601
 10
-15.4676591022
 20
-13.1811609814
 10
-15.4321169293
 20
-13.1780341093
 10
-15.3973325353
 20
-13.171948634
 10
-15.3634288337
 20
-13.1629277532
 10
-15.3305156032
 20
-13.1510026025
 10
-15.2987429491
 20
-13.136234869
 10
-15.2682430736
 20
-13.118704673
 10
-15.2390822132
 20
-13.0984693912
 10
-15.2113071482
 20
-13.0755670915
 10
-15.1849955073
 20
-13.0500541232
 10
-15.1602568906
 20
-13.0220286813
 10
-15.13718397
 20
-12.9915937038
 10
-15.115855097
 20
-12.9588528759
 10
-15.0963415848
 20
-12.9239160188
 10
-15.0787136187
 20
-12.8869111114
 10
-15.0630383542
 20
-12.8479897565
 10
-15.0493552576
 20
-12.8072618938
 10
-15.0376914326
 20
-12.7647956816
 10
-15.0280862511
 20
-12.720684191
 10
-15.0205931858
 20
-12.6751116837
 10
-15.0152518817
 20
-12.6282893004
 10
-15.0120816006
 20
-12.5803944738
 10
-15.0110909805
 20
-12.531572183
 10
-15.01228334
 20
-12.4819960516
 10
-15.0156533936
 20
-12.431840564
 10
-15.0211889961
 20
-12.3812704674
 10
-15.0288723177
 20
-12.3304478218
 10
-15.0386792364
 20
-12.2795383718
 10
-15.0505760741
 20
-12.2287217929
 10
-15.0645198048
 20
-12.1781812465
 10
-15.0804598805
 20
-12.1280953697
 10
-15.0983432893
 20
-12.0786267359
 10
-15.1181131772
 20
-12.0299323218
 10
-15.1397065789
 20
-11.9821700552
 10
-15.1630476261
 20
-11.9355103294
 10
-15.1880507385
 20
-11.8901236812
 10
-15.2146247837
 20
-11.8461720659
 10
-15.2426836097
 20
-11.8037947692
 10
-15.2721412955
 20
-11.7631215852
 10
-15.3029192873
 20
-11.724266423
 10
-15.3348945413
 20
-11.6873896805
 10
-15.3679034818
 20
-11.652673164
 10
-15.4017939308
 20
-11.6202572823
 10
-15.4364812735
 20
-11.5902041838
 10
-15.4718977333
 20
-11.5625658366
 10
-15.507941883
 20
-11.5374233627
 10
-15.5444752231
 20
-11.5148751618
 10
-15.5813747629
 20
-11.4949968626
  0
LINE
  5
2CB
100
AcDbEntity
  8
RACCORDO
100
AcDbLine
 62
250
  6
CONTINUOUS
 10
15.1398513785
 20
-30.1300769632
 11
13.7963484942
 21
-29.4583255211
  0
LINE
  5
2CC
100
AcDbEntity
  8
RACCORDO
100
AcDbLine
 62
250
  6
CONTINUOUS
 10
15.2282397261
 20
-29.8983827894
 11
13.8847368419
 21
-29.2266313472
  0
LINE
  5
2CD
100
AcDbEntity
  8
RACCORDO
100
AcDbLine
 62
250
  6
CONTINUOUS
 10
14.4150669278
 20
-28.5864663043
 11
15.758569812
 21
-29.2582177464
  0
LINE
  5
2CE
100
AcDbEntity
  8
RACCORDO
100
AcDbLine
 62
250
  6
CONTINUOUS
 10
14.5034552754
 20
-28.3547721305
 11
15.8469581597
 21
-29.0265235726
  0
LINE
  5
2CF
100
AcDbEntity
  8
RACCORDO
100
AcDbLine
 62
7
  6
CONTINUOUS
 10
12.807516501
 20
-27.3897561682
 11
15.63299212
 21
-28.8024939777
  0
LINE
  5
2D0
100
AcDbEntity
  8
DRAFT
100
AcDbLine
 62
7
  6
CONTINUOUS
 10
12.8465889934
 20
-26.9502122048
 11
15.9867070706
 21
-28.5202712434
  0
LINE
  5
2D1
100
AcDbEntity
  8
RACCORDO
100
AcDbLine
 62
250
  6
CONTINUOUS
 10
16.9897342136
 20
-28.6363630801
 11
16.9960066791
 21
-28.6394993129
  0
LINE
  5
2D2
100
AcDbEntity
  8
DRAFT
100
AcDbLine
 62
7
  6
CONTINUOUS
 10
12.8915899905
 20
-26.4439758387
 11
16.454349165
 21
-28.225355426
  0
LINE
  5
2D3
100
AcDbEntity
  8
RACCORDO
100
AcDbLine
 62
250
  6
CONTINUOUS
 10
16.9808416362
 20
-28.4765867055
 11
17.526336765
 21
-28.7493342699
  0
LINE
  5
2D4
100
AcDbEntity
  8
RACCORDO
100
AcDbLine
 62
7
  6
CONTINUOUS
 10
16.9808416362
 20
-28.472966556
 11
17.5497518162
 21
-28.757421646
  0
LWPOLYLINE
  5
2D5
100
AcDbEntity
  8
RACCORDO
100
AcDbPolyline
 62
7
  6
CONTINUOUS
 90
46
 70
0
 10
-15.6999617087
 20
-13.1772799336
 10
-15.7405851577
 20
-13.1554436967
 10
-15.78064857
 20
-13.1308513253
 10
-15.8200456861
 20
-13.1035795667
 10
-15.8586842083
 20
-13.0736999175
 10
-15.8964508458
 20
-13.0413045875
 10
-15.9332101042
 20
-13.0065171631
 10
-15.9688786588
 20
-12.969423271
 10
-16.0033427659
 20
-12.9301448832
 10
-16.0364298819
 20
-12.8888938837
 10
-16.0680375911
 20
-12.8458264036
 10
-16.0981030176
 20
-12.8010542832
 10
-16.1265262648
 20
-12.7547513189
 10
-16.1532227263
 20
-12.7070860154
 10
-16.1781389939
 20
-12.6581825785
 10
-16.2012258128
 20
-12.6081565198
 10
-16.2224256171
 20
-12.5571416642
 10
-16.2416720907
 20
-12.5053032105
 10
-16.2589062994
 20
-12.4528062134
 10
-16.2740763177
 20
-12.3998150741
 10
-16.2871410372
 20
-12.3464745553
 10
-16.2980639626
 20
-12.2929207303
 10
-16.3068108512
 20
-12.2392845584
 10
-16.3133431238
 20
-12.1857455422
 10
-16.3176292208
 20
-12.1325086284
 10
-16.3196511746
 20
-12.079746116
 10
-16.3193978844
 20
-12.0275889365
 10
-16.316859604
 20
-11.9761720749
 10
-16.3120236216
 20
-11.9255901193
 10
-16.3048890695
 20
-11.8760437173
 10
-16.2954867859
 20
-11.8278087254
 10
-16.2838405737
 20
-11.7810136261
 10
-16.269978593
 20
-11.7357867511
 10
-16.2539799738
 20
-11.6923701081
 10
-16.2359079462
 20
-11.6508903535
 10
-16.2158114046
 20
-11.6114254742
 10
-16.1937787274
 20
-11.5741166706
 10
-16.1698819584
 20
-11.5390503205
 10
-16.1441998636
 20
-11.5063115486
 10
-16.116856112
 20
-11.476021424
 10
-16.0879684353
 20
-11.448263759
 10
-16.0576266785
 20
-11.4230806013
 10
-16.0259347357
 20
-11.4005204351
 10
-15.9930110703
 20
-11.3806319392
 10
-15.9589853026
 20
-11.3634569674
 10
-15.9239890559
 20
-11.3490242354
  0
LWPOLYLINE
  5
2D6
100
AcDbEntity
  8
RACCORDO
100
AcDbPolyline
 62
250
  6
CONTINUOUS
 90
3
 70
0
 10
-15.5387484735
 20
-13.3126285761
 10
-15.6116331821
 20
-13.2721404208
 10
-15.6837681847
 20
-13.2238993209
  0
LWPOLYLINE
  5
2D7
100
AcDbEntity
  8
ASSI
100
AcDbPolyline
 62
250
  6
CONTINUOUS
 90
3
 70
0
 10
-15.5387484735
 20
-13.3126285761
 10
-15.6116331821
 20
-13.2721404208
 10
-15.6837681847
 20
-13.2238993209
  0
LWPOLYLINE
  5
2D8
100
AcDbEntity
  8
RACCORDO
100
AcDbPolyline
 62
250
  6
CONTINUOUS
 90
33
 70
0
 10
-15.617311059
 20
-13.4322660673
 10
-15.6971502416
 20
-13.3877997373
 10
-15.7749953576
 20
-13.3356813076
 10
-15.8508454359
 20
-13.275910371
 10
-15.9252965166
 20
-13.20791696
 10
-15.9977486478
 20
-13.132269403
 10
-16.0664061867
 20
-13.0506744512
 10
-16.131157963
 20
-12.9629652754
 10
-16.1921082442
 20
-12.8693058186
 10
-16.2477848173
 20
-12.7718991071
 10
-16.298027753
 20
-12.6707022396
 10
-16.3429890479
 20
-12.5657548132
 10
-16.3816659226
 20
-12.4593842503
 10
-16.4139232861
 20
-12.3515377
 10
-16.4398892762
 20
-12.2422651342
 10
-16.4589587444
 20
-12.1340493747
 10
-16.4709703324
 20
-12.0269134902
 10
-16.4760813623
 20
-11.9208327607
 10
-16.4741684617
 20
-11.8182198878
 10
-16.465069077
 20
-11.7191541666
 10
-16.4489457333
 20
-11.6235563182
 10
-16.4261667878
 20
-11.5336028858
 10
-16.3965797311
 20
-11.4494271179
 10
-16.3603410686
 20
-11.3708974403
 10
-16.3182864511
 20
-11.2997947158
 10
-16.2702900335
 20
-11.2362962631
 10
-16.2164845951
 20
-11.1802276342
 10
-16.1580965435
 20
-11.1328431981
 10
-16.0950307682
 20
-11.0943426459
 10
-16.0273903512
 20
-11.064529567
 10
-15.9567005243
 20
-11.044064804
 10
-15.8828551773
 20
-11.0331759986
 10
-15.8059672953
 20
-11.0316383276
  0
LWPOLYLINE
  5
2D9
100
AcDbEntity
  8
ASSI
100
AcDbPolyline
 62
250
  6
CONTINUOUS
 90
6
 70
0
 10
-15.617311059
 20
-13.4322660673
 10
-15.6971502416
 20
-13.3877997373
 10
-15.7749953576
 20
-13.3356813076
 10
-15.8508454359
 20
-13.275910371
 10
-15.9252965166
 20
-13.20791696
 10
-15.9977486478
 20
-13.132269403
  0
LWPOLYLINE
  5
2DA
100
AcDbEntity
  8
RACCORDO
100
AcDbPolyline
 62
250
  6
CONTINUOUS
 90
8
 70
0
 10
13.8613217907
 20
-29.9448579432
 10
13.8486107317
 20
-29.9371938476
 10
13.8332176613
 20
-29.9235447196
 10
13.8202455068
 20
-29.9063956506
 10
13.8099217198
 20
-29.8860510846
 10
13.8024225416
 20
-29.8628688801
 10
13.7978730339
 20
-29.8372501491
 10
13.7963484942
 20
-29.8096394931
  0
LWPOLYLINE
  5
2DB
100
AcDbEntity
  8
RACCORDO
100
AcDbPolyline
 62
250
  6
CONTINUOUS
 90
8
 70
0
 10
15.2046630447
 20
-30.6165283754
 10
15.1921136159
 20
-30.6089452898
 10
15.1767205456
 20
-30.5952961618
 10
15.1637483911
 20
-30.5781470928
 10
15.153424604
 20
-30.5578025267
 10
15.1459254258
 20
-30.5346203222
 10
15.1413759182
 20
-30.5090015912
 10
15.1398513785
 20
-30.4813909353
  0
LINE
  5
2DC
100
AcDbEntity
  8
RACCORDO
100
AcDbLine
 62
250
  6
CONTINUOUS
 10
-15.408570821
 20
-11.1633041197
 11
-15.3307934096
 21
-11.2154710709
  0
LINE
  5
2DD
100
AcDbEntity
  8
ASSI
100
AcDbLine
 62
250
  6
CONTINUOUS
 10
-15.408570821
 20
-11.1633041197
 11
-15.3307934096
 21
-11.2154710709
  0
LINE
  5
2DE
100
AcDbEntity
  8
RACCORDO
100
AcDbLine
 62
250
  6
CONTINUOUS
 10
-15.6837681847
 20
-13.2238993209
 11
-15.7546060548
 21
-13.1682061594
  0
LWPOLYLINE
  5
2DF
100
AcDbEntity
  8
ASSI
100
AcDbPolyline
 62
250
  6
CONTINUOUS
 90
4
 70
0
 10
-15.6837681847
 20
-13.2238993209
 10
-15.7546060548
 20
-13.1682061594
 10
-15.823652887
 20
-13.1053921044
 10
-15.8407645671
 20
-13.0875573987
  0
LINE
  5
2E0
100
AcDbEntity
  8
RACCORDO
100
AcDbLine
 62
250
  6
CONTINUOUS
 10
-15.3307934096
 20
-11.2154710709
 11
-15.2550701983
 21
-11.2753113445
  0
LINE
  5
2E1
100
AcDbEntity
  8
ASSI
100
AcDbLine
 62
250
  6
CONTINUOUS
 10
-15.3307934096
 20
-11.2154710709
 11
-15.2550701983
 21
-11.2753113445
  0
LWPOLYLINE
  5
2E2
100
AcDbEntity
  8
ASSI
100
AcDbPolyline
 62
7
  6
CONTINUOUS
 90
11
 70
0
 10
-15.3179187641
 20
-11.2684133319
 10
-15.1815767135
 20
-11.384534204
 10
-15.0541630638
 20
-11.5263589006
 10
-14.9393039785
 20
-11.6902820248
 10
-14.8407986022
 20
-11.8714656278
 10
-14.7618270955
 20
-12.064353079
 10
-14.7046776847
 20
-12.2639895055
 10
-14.6713951582
 20
-12.4641209291
 10
-14.6632092611
 20
-12.6582924781
 10
-14.6805157503
 20
-12.8404760185
 10
-14.7226291154
 20
-13.0040895198
  0
LWPOLYLINE
  5
2E3
100
AcDbEntity
  8
RACCORDO
100
AcDbPolyline
 62
250
  6
CONTINUOUS
 90
3
 70
0
 10
-15.2550701983
 20
-11.2753113445
 10
-15.1808034143
 20
-11.3433954588
 10
-15.1085869204
 20
-11.4191512962
  0
LINE
  5
2E4
100
AcDbEntity
  8
ASSI
100
AcDbLine
 62
250
  6
CONTINUOUS
 10
-15.2550701983
 20
-11.2753113445
 11
-15.1808034143
 21
-11.3433954588
  0
LINE
  5
2E5
100
AcDbEntity
  8
ASSI
100
AcDbLine
 62
250
  6
CONTINUOUS
 10
-15.1808034143
 20
-11.3433954588
 11
-15.1085869204
 21
-11.4191512962
  0
LWPOLYLINE
  5
2E6
100
AcDbEntity
  8
RACCORDO
100
AcDbPolyline
 62
250
  6
CONTINUOUS
 90
14
 70
0
 10
-15.1085869204
 20
-11.4191512962
 10
-15.0402065166
 20
-11.5008642264
 10
-14.9757693297
 20
-11.5886976281
 10
-14.915161337
 20
-11.6824852957
 10
-14.8598368894
 20
-11.7800183327
 10
-14.8099490433
 20
-11.8813353455
 10
-14.7653368193
 20
-11.9863944673
 10
-14.7269850568
 20
-12.092866721
 10
-14.6950217186
 20
-12.2008020069
 10
-14.6693118925
 20
-12.3101475479
 10
-14.6504488845
 20
-12.4184214901
 10
-14.6385893355
 20
-12.5256004585
 10
-14.633572559
 20
-12.6317061335
 10
-14.6355196183
 20
-12.7343257876
  0
LWPOLYLINE
  5
2E7
100
AcDbEntity
  8
ASSI
100
AcDbPolyline
 62
250
  6
CONTINUOUS
 90
5
 70
0
 10
-15.1085869204
 20
-11.4191512962
 10
-15.0402065166
 20
-11.5008642264
 10
-14.9757693297
 20
-11.5886976281
 10
-14.915161337
 20
-11.6824852957
 10
-14.8598368894
 20
-11.7800183327
  0
LWPOLYLINE
  5
2E8
100
AcDbEntity
  8
ASSI
100
AcDbPolyline
 62
250
  6
CONTINUOUS
 90
8
 70
0
 10
-14.8598368894
 20
-11.7800183327
 10
-14.8099490433
 20
-11.8813353455
 10
-14.7653368193
 20
-11.9863944673
 10
-14.7269850568
 20
-12.092866721
 10
-14.6950217186
 20
-12.2008020069
 10
-14.6693118925
 20
-12.3101475479
 10
-14.6504488845
 20
-12.4184214901
 10
-14.6385893355
 20
-12.5256004585
  0
LWPOLYLINE
  5
2E9
100
AcDbEntity
  8
ASSI
100
AcDbPolyline
 62
250
  6
CONTINUOUS
 90
4
 70
0
 10
-14.6385893355
 20
-12.5256004585
 10
-14.633572559
 20
-12.6317061335
 10
-14.6355196183
 20
-12.7343257876
 10
-14.6445931065
 20
-12.8333817736
  0
LINE
  5
2EA
100
AcDbEntity
  8
268
100
AcDbLine
 62
7
  6
CONTINUOUS
 10
-16.0082023328
 20
25.1707063507
 11
-16.0082023328
 21
25.1463108454
  0
LINE
  5
2EB
100
AcDbEntity
  8
268
100
AcDbLine
 62
7
  6
CONTINUOUS
 10
-15.6090090358
 20
26.5439573834
 11
-15.6090090358
 21
26.7973287771
  0
LINE
  5
2EC
100
AcDbEntity
  8
268
100
AcDbLine
 62
7
  6
CONTINUOUS
 10
-15.1950295344
 20
24.7397244462
 11
-15.1950295344
 21
24.2860402517
  0
LINE
  5
2ED
100
AcDbEntity
  8
284
100
AcDbLine
 62
7
  6
CONTINUOUS
 10
-9.0181311609
 20
21.6512752594
 11
-9.0350499714
 21
21.6012555035
  0
LWPOLYLINE
  5
2EE
100
AcDbEntity
  8
RACCORDO
100
AcDbPolyline
 62
250
  6
CONTINUOUS
 90
13
 70
0
 10
0.6088070251
 20
19.1796463712
 10
0.5862462589
 20
19.1665955627
 10
0.5638984045
 20
19.1500892049
 10
0.5421460565
 20
19.1303325344
 10
0.5213281108
 20
19.1075392336
 10
0.5018810628
 20
19.0820871834
 10
0.4842925673
 20
19.0545682646
 10
0.4688994969
 20
19.0255260662
 10
0.4559273424
 20
18.9954048427
 10
0.4456035553
 20
18.9647364896
 10
0.4381043771
 20
18.9340551069
 10
0.4335548695
 20
18.9038868682
 10
0.4320303298
 20
18.8747516726
  0
LWPOLYLINE
  5
2EF
100
AcDbEntity
  8
PREM_14013
100
AcDbPolyline
 62
7
  6
CONTINUOUS
 90
4
 70
0
 10
7.4622825943
 20
23.0748930568
 10
7.3526068614
 20
23.0123190376
 10
7.2404526252
 20
22.9481581052
 10
7.1451802866
 20
22.8935144578
  0
LWPOLYLINE
  5
2F0
100
AcDbEntity
  8
268
100
AcDbPolyline
 62
7
  6
CONTINUOUS
 90
5
 70
0
 10
7.0097977874
 20
22.2439672489
 10
7.0100457996
 20
22.2441073467
 10
7.0109730356
 20
22.2449350181
 10
7.011479453
 20
22.2459860895
 10
7.0115912165
 20
22.2469180135
  0
LINE
  5
2F1
100
AcDbEntity
  8
268
100
AcDbLine
 62
250
  6
CONTINUOUS
 10
1.6532179441
 20
19.9383372748
 11
7.0115447243
 21
22.8292775018
  0
LINE
  5
2F2
100
AcDbEntity
  8
268
100
AcDbLine
 62
250
  6
CONTINUOUS
 10
2.7348564738
 20
20.2734939336
 11
6.9273931567
 21
22.5354636579
  0
LINE
  5
2F3
100
AcDbEntity
  8
PREM_14013
100
AcDbLine
 62
7
  6
CONTINUOUS
 10
7.1031471051
 20
22.9128334175
 11
7.7354351713
 21
23.2462514172
  0
LINE
  5
2F4
100
AcDbEntity
  8
218
100
AcDbLine
 62
7
  6
CONTINUOUS
 10
3.5454487026
 20
19.8956480223
 11
7.4699688486
 21
21.9572375864
  0
LINE
  5
2F5
100
AcDbEntity
  8
268
100
AcDbLine
 62
250
  6
CONTINUOUS
 10
2.8807536341
 20
20.2279955565
 11
6.9273931567
 21
22.3232045038
  0
LINE
  5
2F6
100
AcDbEntity
  8
268
100
AcDbLine
 62
7
  6
CONTINUOUS
 10
3.0005197647
 20
20.1681124912
 11
7.0097972319
 21
22.243976668
  0
LINE
  5
2F7
100
AcDbEntity
  8
268
100
AcDbLine
 62
250
  6
CONTINUOUS
 10
0.6674457999
 20
18.3029981636
 11
-0.4872084857
 21
17.7133298604
  0
LINE
  5
2F8
100
AcDbEntity
  8
268
100
AcDbLine
 62
250
  6
CONTINUOUS
 10
1.0659138063
 20
17.9532380694
 11
-0.2397211123
 21
17.2864657404
  0
LINE
  5
2F9
100
AcDbEntity
  8
268
100
AcDbLine
 62
7
  6
CONTINUOUS
 10
0.5224574585
 20
18.3754923343
 11
0.0723061989
 21
18.1482369885
  0
LINE
  5
2FA
100
AcDbEntity
  8
RACCORDO
100
AcDbLine
 62
7
  6
CONTINUOUS
 10
0.4970036262
 20
19.186746818
 11
2.6183239698
 21
20.2474069898
  0
LINE
  5
2FB
100
AcDbEntity
  8
RACCORDO
100
AcDbLine
 62
250
  6
CONTINUOUS
 10
0.6088070251
 20
19.1796463712
 11
2.7301273687
 21
20.240306543
  0
LINE
  5
2FC
100
AcDbEntity
  8
RACCORDO
100
AcDbLine
 62
250
  6
CONTINUOUS
 10
1.9523099094
 20
18.5078949291
 11
4.0736302529
 21
19.5685551009
  0
LINE
  5
2FD
100
AcDbEntity
  8
RACCORDO
100
AcDbLine
 62
250
  6
CONTINUOUS
 10
2.1290866047
 20
18.2030002305
 11
4.2504069482
 21
19.2636604023
  0
LWPOLYLINE
  5
2FE
100
AcDbEntity
  8
RACCORDO
100
AcDbPolyline
 62
7
  6
CONTINUOUS
 90
15
 70
0
 10
0.9393762998
 20
17.8566841758
 10
0.925094547
 20
17.8495553332
 10
0.8940457452
 20
17.8330152796
 10
0.8646962509
 20
17.8160863236
 10
0.8369842348
 20
17.7989666331
 10
0.8105747003
 20
17.7817207082
 10
0.7855774966
 20
17.7647337936
 10
0.7625215288
 20
17.7486597982
 10
0.7409101646
 20
17.7334636665
 10
0.7205825971
 20
17.7193234409
 10
0.7024803981
 20
17.7070943293
 10
0.6866743433
 20
17.6969081048
 10
0.6729154241
 20
17.6886181907
 10
0.6618445754
 20
17.6825026172
 10
0.657328329
 20
17.6801976493
  0
LINE
  5
2FF
100
AcDbEntity
  8
RACCORDO
100
AcDbLine
 62
7
  6
CONTINUOUS
 10
0.4228351418
 20
17.5638741754
 11
0.6574373341
 21
17.6802385923
  0
LINE
  5
300
100
AcDbEntity
  8
RACCORDO
100
AcDbLine
 62
250
  6
CONTINUOUS
 10
0.6459963695
 20
17.5494081057
 11
0.8857862844
 21
17.6683429416
  0
LINE
  5
301
100
AcDbEntity
  8
RACCORDO
100
AcDbLine
 62
7
  6
CONTINUOUS
 10
1.0559063072
 20
17.9135638997
 11
0.9393774902
 21
17.8566816437
  0
LINE
  5
302
100
AcDbEntity
  8
RACCORDO
100
AcDbLine
 62
7
  6
CONTINUOUS
 10
1.0659138063
 20
17.9184498955
 11
1.0559063072
 21
17.9135638997
  0
LINE
  5
303
100
AcDbEntity
  8
RACCORDO
100
AcDbLine
 62
250
  6
CONTINUOUS
 10
1.0437931289
 20
17.8776922911
 11
1.0624218053
 21
17.8866582903
  0
LINE
  5
304
100
AcDbEntity
  8
218
100
AcDbLine
 62
7
  6
CONTINUOUS
 10
15.2550313241
 20
24.615652495
 11
11.6916004876
 21
22.9053977472
  0
LWPOLYLINE
  5
305
100
AcDbEntity
  8
RACCORDO
100
AcDbPolyline
 62
250
  6
CONTINUOUS
 90
7
 70
0
 10
2.6183239698
 20
20.2474069898
 10
2.622512535
 20
20.2493736456
 10
2.641739021
 20
20.2554943659
 10
2.6624778561
 20
20.2576507346
 10
2.6843741932
 20
20.2558058557
 10
2.7070533798
 20
20.2499912956
 10
2.7301273687
 20
20.240306543
  0
LWPOLYLINE
  5
306
100
AcDbEntity
  8
RACCORDO
100
AcDbPolyline
 62
250
  6
CONTINUOUS
 90
7
 70
0
 10
0.4970036262
 20
19.186746818
 10
0.5011921915
 20
19.1887134738
 10
0.5204186775
 20
19.1948341941
 10
0.5411575126
 20
19.1969905628
 10
0.5630538496
 20
19.1951456839
 10
0.5857330362
 20
19.1893311238
 10
0.6088070251
 20
19.1796463712
  0
LWPOLYLINE
  5
307
100
AcDbEntity
  8
RACCORDO
100
AcDbPolyline
 62
250
  6
CONTINUOUS
 90
5
 70
0
 10
0.9396742285
 20
17.8568267776
 10
0.9466256721
 20
17.8600573735
 10
0.9772443686
 20
17.8707550359
 10
1.0097457491
 20
17.8766537101
 10
1.0437931289
 20
17.8776922911
  0
LWPOLYLINE
  5
308
100
AcDbEntity
  8
RACCORDO
100
AcDbPolyline
 62
250
  6
CONTINUOUS
 90
4
 70
0
 10
1.0840598711
 20
17.8853710876
 10
1.0818666255
 20
17.8843632173
 10
1.0698785011
 20
17.8802107946
 10
1.0571433832
 20
17.8779794663
  0
LWPOLYLINE
  5
309
100
AcDbEntity
  8
RACCORDO
100
AcDbPolyline
 62
250
  6
CONTINUOUS
 90
8
 70
0
 10
0.6574373341
 20
17.6802385923
 10
0.6731673116
 20
17.6872131989
 10
0.7050967239
 20
17.6968198765
 10
0.7389388335
 20
17.7013353906
 10
0.7743224493
 20
17.7007103099
 10
0.8108596355
 20
17.6949516536
 10
0.8481500054
 20
17.684122686
 10
0.8857848545
 20
17.6683422324
  0
LWPOLYLINE
  5
30A
100
AcDbEntity
  8
RACCORDO
100
AcDbPolyline
 62
250
  6
CONTINUOUS
 90
13
 70
0
 10
2.1290866047
 20
18.2030002305
 10
2.1050802922
 20
18.1924426205
 10
2.0783785264
 20
18.183445649
 10
2.0493752834
 20
18.1761949225
 10
2.0184455762
 20
18.1708418304
 10
1.9861562404
 20
18.1675394503
 10
1.9532791149
 20
18.1663895175
 10
1.9204573836
 20
18.1674073128
 10
1.888187213
 20
18.1705702436
 10
1.8570374889
 20
18.1758213186
 10
1.8275485933
 20
18.1830665882
 10
1.8002241506
 20
18.1921793019
 10
1.7755332141
 20
18.2030002305
  0
LWPOLYLINE
  5
30B
100
AcDbEntity
  8
RACCORDO
100
AcDbPolyline
 62
250
  6
CONTINUOUS
 90
13
 70
0
 10
2.1290866047
 20
17.8516862584
 10
2.1045002666
 20
17.8409054385
 10
2.0773099094
 20
17.8318214306
 10
2.0479807675
 20
17.8245896645
 10
2.0170146706
 20
17.8193338778
 10
1.9849414574
 20
17.8161439984
 10
1.9523099094
 20
17.8150746061
 10
1.9196783613
 20
17.8161439984
 10
1.8876051481
 20
17.8193338778
 10
1.8566390513
 20
17.8245896645
 10
1.8273099094
 20
17.8318214306
 10
1.8001195521
 20
17.8409054385
 10
1.7755332141
 20
17.8516862584
  0
LINE
  5
30C
100
AcDbEntity
  8
268
100
AcDbLine
 62
7
  6
CONTINUOUS
 10
-0.2397211123
 20
17.2620702352
 11
0.3257575502
 21
17.4597730201
  0
LWPOLYLINE
  5
30D
100
AcDbEntity
  8
RACCORDO
100
AcDbPolyline
 62
250
  6
CONTINUOUS
 90
4
 70
0
 10
-15.3781496718
 20
-13.511728189
 10
-15.4566335644
 20
-13.4945510466
 10
-15.5363536972
 20
-13.4680635345
 10
-15.617311059
 20
-13.4322660673
  0
LINE
  5
30E
100
AcDbEntity
  8
ASSI
100
AcDbLine
 62
250
  6
CONTINUOUS
 10
-15.6492459004
 20
-11.056557843
 11
-15.5694163586
 21
-11.0830166539
  0
LWPOLYLINE
  5
30F
100
AcDbEntity
  8
RACCORDO
100
AcDbPolyline
 62
250
  6
CONTINUOUS
 90
3
 70
0
 10
-15.3910106793
 20
-13.3700181044
 10
-15.464843143
 20
-13.345465547
 10
-15.5387484735
 20
-13.3126285761
  0
LWPOLYLINE
  5
310
100
AcDbEntity
  8
ASSI
100
AcDbPolyline
 62
7
  6
CONTINUOUS
 90
3
 70
0
 10
-15.615603196
 20
-11.1213929118
 10
-15.5116026356
 20
-11.1568591356
 10
-15.4626948007
 20
-11.1794194281
  0
LINE
  5
311
100
AcDbEntity
  8
RACCORDO
100
AcDbLine
 62
7
  6
CONTINUOUS
 10
-15.5870523652
 20
-11.1294089428
 11
-15.5250003033
 21
-11.151330347
  0
LINE
  5
312
100
AcDbEntity
  8
RACCORDO
100
AcDbLine
 62
250
  6
CONTINUOUS
 10
-15.5694163586
 20
-11.0830166539
 11
-15.4884034029
 21
-11.1188108877
  0
LINE
  5
313
100
AcDbEntity
  8
ASSI
100
AcDbLine
 62
250
  6
CONTINUOUS
 10
-15.5694163586
 20
-11.0830166539
 11
-15.4884034029
 21
-11.1188108877
  0
LINE
  5
314
100
AcDbEntity
  8
RACCORDO
100
AcDbLine
 62
7
  6
CONTINUOUS
 10
-15.5250003033
 20
-11.151330347
 11
-15.4626409311
 21
-11.1794464803
  0
LWPOLYLINE
  5
315
100
AcDbEntity
  8
RACCORDO
100
AcDbPolyline
 62
250
  6
CONTINUOUS
 90
55
 70
0
 10
-15.5813747629
 20
-11.4949968626
 10
-15.6185153792
 20
-11.4778548545
 10
-15.6557771333
 20
-11.4635052647
 10
-15.693034635
 20
-11.4519970407
 10
-15.7301441487
 20
-11.4433732312
 10
-15.7669992576
 20
-11.4376570142
 10
-15.8035297455
 20
-11.434866034
 10
-15.8396479948
 20
-11.4350250099
 10
-15.8751901408
 20
-11.4381518723
 10
-15.9099745152
 20
-11.4442373405
 10
-15.943878216
 20
-11.453258221
 10
-15.9767914527
 20
-11.465183374
 10
-16.0085641113
 20
-11.4799511091
 10
-16.0390639856
 20
-11.4974813046
 10
-16.068224843
 20
-11.5177165853
 10
-16.0959999055
 20
-11.5406188842
 10
-16.1223115452
 20
-11.566131852
 10
-16.1470501612
 20
-11.5941572937
 10
-16.1701230811
 20
-11.624592271
 10
-16.1914519528
 20
-11.6573330984
 10
-16.2109654638
 20
-11.6922699551
 10
-16.2285934289
 20
-11.7292748621
 10
-16.2442686929
 20
-11.7681962168
 10
-16.2579517892
 20
-11.8089240794
 10
-16.2696156139
 20
-11.8513902915
 10
-16.2792207947
 20
-11.8955017818
 10
-16.2867138592
 20
-11.9410742888
 10
-16.2920551626
 20
-11.9878966719
 10
-16.2952254434
 20
-12.0357914984
 10
-16.2962160633
 20
-12.0846137891
 10
-16.2950237036
 20
-12.1341899205
 10
-16.29165365
 20
-12.184345408
 10
-16.2861180474
 20
-12.2349155046
 10
-16.2784347259
 20
-12.2857381503
 10
-16.2686278074
 20
-12.3366476003
 10
-16.2567309701
 20
-12.3874641793
 10
-16.2427872397
 20
-12.4380047258
 10
-16.226847164
 20
-12.4880906027
 10
-16.2089637553
 20
-12.5375592365
 10
-16.189193868
 20
-12.5862536508
 10
-16.167600468
 20
-12.634015918
 10
-16.1442594231
 20
-12.6806756446
 10
-16.1192563115
 20
-12.7260622932
 10
-16.0926822631
 20
-12.7700139073
 10
-16.0646234325
 20
-12.8123912023
 10
-16.035165747
 20
-12.8530643864
 10
-16.0043877683
 20
-12.8919195534
 10
-15.9724125323
 20
-12.9287963023
 10
-15.9394035968
 20
-12.9635128207
 10
-15.9055131249
 20
-12.9959286941
 10
-15.8708257464
 20
-13.0259817797
 10
-15.8354092647
 20
-13.053620119
 10
-15.7993651161
 20
-13.0787625934
 10
-15.7628317913
 20
-13.1013107997
 10
-15.7259322807
 20
-13.1211891094
  0
LWPOLYLINE
  5
316
100
AcDbEntity
  8
RACCORDO
100
AcDbPolyline
 62
250
  6
CONTINUOUS
 90
12
 70
0
 10
-15.5044916993
 20
-11.3879925371
 10
-15.545374105
 20
-11.3691238553
 10
-15.5863898173
 20
-11.3533287666
 10
-15.6274008342
 20
-11.3406611404
 10
-15.668248964
 20
-11.3311682474
 10
-15.7088170947
 20
-11.3248757046
 10
-15.7490279174
 20
-11.3218032631
 10
-15.7887849378
 20
-11.3219783205
 10
-15.8279077771
 20
-11.3254204296
 10
-15.8661964986
 20
-11.3321191501
 10
-15.9035158538
 20
-11.3420488536
 10
-15.9239890574
 20
-11.349024236
  0
LINE
  5
317
100
AcDbEntity
  8
DRAFT
100
AcDbLine
 62
7
  6
CONTINUOUS
 10
13.0295230877
 20
-24.8923046642
 11
16.454349165
 21
-26.6047177028
  0
LINE
  5
318
100
AcDbEntity
  8
RACCORDO
100
AcDbLine
 62
250
  6
CONTINUOUS
 10
-15.4884034029
 20
-11.1188108877
 11
-15.408570821
 21
-11.1633041197
  0
LINE
  5
319
100
AcDbEntity
  8
ASSI
100
AcDbLine
 62
250
  6
CONTINUOUS
 10
-15.4884034029
 20
-11.1188108877
 11
-15.408570821
 21
-11.1633041197
  0
LWPOLYLINE
  5
31A
100
AcDbEntity
  8
RACCORDO
100
AcDbPolyline
 62
7
  6
CONTINUOUS
 90
23
 70
0
 10
-15.4625564659
 20
-11.1794961259
 10
-15.3860978124
 20
-11.2223285289
 10
-15.3149287486
 20
-11.2706103427
 10
-15.2451143458
 20
-11.3262678228
 10
-15.1772209945
 20
-11.3888110357
 10
-15.1117161401
 20
-11.457810194
 10
-15.0491349078
 20
-11.5327343946
 10
-14.9899678192
 20
-11.6129521833
 10
-14.9345839146
 20
-11.6979540246
 10
-14.8834388516
 20
-11.7870984649
 10
-14.8369241264
 20
-11.879681458
 10
-14.7953087459
 20
-11.9751376323
 10
-14.758941291
 20
-12.0727333758
 10
-14.7281100413
 20
-12.1717236878
 10
-14.7029889721
 20
-12.2715194808
 10
-14.6838067059
 20
-12.3713327356
 10
-14.6707504549
 20
-12.4703692587
 10
-14.6639015081
 20
-12.5679974747
 10
-14.6633425064
 20
-12.6634174072
 10
-14.6691239245
 20
-12.7557903488
 10
-14.6811960349
 20
-12.8443904495
 10
-14.6994534037
 20
-12.9284652629
 10
-14.7237429372
 20
-13.0071981597
  0
LINE
  5
31B
100
AcDbEntity
  8
RACCORDO
100
AcDbLine
 62
250
  6
CONTINUOUS
 10
17.548687375
 20
-28.7628770572
 11
17.526336765
 21
-28.7493342699
  0
LINE
  5
31C
100
AcDbEntity
  8
ASSI
100
AcDbLine
 62
7
  6
CONTINUOUS
 10
-15.4621701372
 20
-11.1796857724
 11
-15.3179187641
 21
-11.2684133319
  0
LWPOLYLINE
  5
31D
100
AcDbEntity
  8
RACCORDO
100
AcDbPolyline
 62
250
  6
CONTINUOUS
 90
14
 70
0
 10
-16.3183883575
 20
-12.1126990952
 10
-16.3295313034
 20
-12.016061487
 10
-16.3344911132
 20
-11.9188104939
 10
-16.3329002654
 20
-11.8240490658
 10
-16.3247953912
 20
-11.7325107385
 10
-16.3102678087
 20
-11.6449034335
 10
-16.2893821969
 20
-11.5618830635
 10
-16.2623207366
 20
-11.4840903022
 10
-16.2293199327
 20
-11.4121277352
 10
-16.1905967765
 20
-11.3465322426
 10
-16.1464676356
 20
-11.2878097865
 10
-16.0972959129
 20
-11.2364131583
 10
-16.0434287065
 20
-11.1927201275
 10
-15.9852937515
 20
-11.1570679479
  0
LWPOLYLINE
  5
31E
100
AcDbEntity
  8
ASSI
100
AcDbPolyline
 62
250
  6
CONTINUOUS
 90
9
 70
0
 10
-16.3183883575
 20
-12.1126990952
 10
-16.3295313034
 20
-12.016061487
 10
-16.3344911132
 20
-11.9188104939
 10
-16.3329002654
 20
-11.8240490658
 10
-16.3247953912
 20
-11.7325107385
 10
-16.3102678087
 20
-11.6449034335
 10
-16.2893821969
 20
-11.5618830635
 10
-16.2623207366
 20
-11.4840903022
 10
-16.2293199327
 20
-11.4121277352
  0
LINE
  5
31F
100
AcDbEntity
  8
268
100
AcDbLine
 62
7
  6
CONTINUOUS
 10
-14.9060160816
 20
25.6373981287
 11
-14.9060160816
 21
26.0897291043
  0
LINE
  5
320
100
AcDbEntity
  8
268
100
AcDbLine
 62
7
  6
CONTINUOUS
 10
-14.0032325737
 20
25.994440546
 11
-14.0032325737
 21
25.7410691523
  0
LINE
  5
321
100
AcDbEntity
  8
268
100
AcDbLine
 62
7
  6
CONTINUOUS
 10
-13.2920119656
 20
24.8303960707
 11
-13.2920119656
 21
25.4675656294
  0
LWPOLYLINE
  5
322
100
AcDbEntity
  8
RACCORDO
100
AcDbPolyline
 62
250
  6
CONTINUOUS
 90
4
 70
0
 10
-14.6355196183
 20
-12.7343257876
 10
-14.6445931065
 20
-12.8333817736
 10
-14.6606303856
 20
-12.9289516921
 10
-14.6832687824
 20
-13.0188573886
  0
LWPOLYLINE
  5
323
100
AcDbEntity
  8
PREM_14013
100
AcDbPolyline
 62
250
  6
CONTINUOUS
 90
5
 70
0
 10
7.4622825943
 20
23.0748930568
 10
7.5384330623
 20
23.1290300083
 10
7.620091388
 20
23.1811225794
 10
7.7070385119
 20
23.2310307897
 10
7.7354351713
 20
23.2462514172
  0
LWPOLYLINE
  5
324
100
AcDbEntity
  8
PREM_14013
100
AcDbPolyline
 62
250
  6
CONTINUOUS
 90
43
 70
0
 10
7.5867565965
 20
23.0927019384
 10
7.6596088999
 20
23.1431161651
 10
7.7370713298
 20
23.1913706433
 10
7.8191438862
 20
23.2374653731
 10
7.9060661245
 20
23.281508911
 10
7.9975984893
 20
23.3233927005
 10
8.0930223149
 20
23.362791072
 10
8.1923678287
 20
23.3996849428
 10
8.2956048032
 20
23.4340933956
 10
8.4019238901
 20
23.4657480087
 10
8.5113436901
 20
23.4946261567
 10
8.6238456025
 20
23.5207504648
 10
8.7385644773
 20
23.5439203878
 10
8.8555149573
 20
23.5641140006
 10
8.9746823997
 20
23.5813532282
 10
9.0951577265
 20
23.5955033003
 10
9.2169705644
 20
23.6065409865
 10
9.3400912867
 20
23.6144895171
 10
9.4635219344
 20
23.6192838132
 10
9.5872742949
 20
23.620893953
 10
9.7113365808
 20
23.6193498583
 10
9.8346754714
 20
23.614676214
 10
9.9572152646
 20
23.6068559228
 10
10.0790316625
 20
23.5959060822
 10
10.1993184504
 20
23.581902669
 10
10.3180462589
 20
23.5648440411
 10
10.4352444575
 20
23.5447318405
 10
10.5501949405
 20
23.5216469712
 10
10.6631129108
 20
23.4954977242
 10
10.7737831654
 20
23.4663758084
 10
10.8808419895
 20
23.4346372547
 10
10.9844122014
 20
23.400087079
 10
11.0843709827
 20
23.3629202654
 10
11.1789861641
 20
23.3240777969
 10
11.2679223623
 20
23.2834963549
 10
11.3515149604
 20
23.241239258
 10
11.4290379381
 20
23.1984374454
 10
11.5001002471
 20
23.155194742
 10
11.5650929356
 20
23.1114073229
 10
11.6244631278
 20
23.0678946533
 10
11.6780651868
 20
23.0247563577
 10
11.7260447495
 20
22.9818928115
 10
11.7673186926
 20
22.9417384048
  0
LINE
  5
325
100
AcDbEntity
  8
PREM_14013
100
AcDbLine
 62
7
  6
CONTINUOUS
 10
9.6340291597
 20
22.9800351437
 11
9.3289725547
 21
22.7747908577
  0
LWPOLYLINE
  5
326
100
AcDbEntity
  8
RACCORDO
100
AcDbPolyline
 62
250
  6
CONTINUOUS
 90
13
 70
0
 10
1.9523099094
 20
18.5078949291
 10
1.9297491431
 20
18.4948441206
 10
1.9074012888
 20
18.4783377628
 10
1.8856489407
 20
18.4585810922
 10
1.864830995
 20
18.4357877914
 10
1.845383947
 20
18.4103357413
 10
1.8277954515
 20
18.3828168224
 10
1.8124023811
 20
18.3537746241
 10
1.7994302267
 20
18.3236534006
 10
1.7891064396
 20
18.2929850474
 10
1.7816072614
 20
18.2623036648
 10
1.7770577537
 20
18.2321354261
 10
1.7755332141
 20
18.2030002305
  0
LWPOLYLINE
  5
327
100
AcDbEntity
  8
RACCORDO
100
AcDbPolyline
 62
250
  6
CONTINUOUS
 90
7
 70
0
 10
3.543300167
 20
17.8087930396
 10
3.5648618068
 20
17.8210862086
 10
3.5830298227
 20
17.8346813872
 10
3.5974933549
 20
17.8493459582
 10
3.6080049283
 20
17.8648290066
 10
3.6143846871
 20
17.8808656132
 10
3.6165234717
 20
17.8971813872
  0
LINE
  5
328
100
AcDbEntity
  8
RACCORDO
100
AcDbLine
 62
250
  6
CONTINUOUS
 10
3.560973076
 20
17.4940647465
 11
3.543300167
 21
17.4849706118
  0
LINE
  5
329
100
AcDbEntity
  8
218
100
AcDbLine
 62
250
  6
CONTINUOUS
 10
16.4231753678
 20
23.6116184256
 11
4.6513823046
 21
17.6226858927
  0
LINE
  5
32A
100
AcDbEntity
  8
RACCORDO
100
AcDbLine
 62
7
  6
CONTINUOUS
 10
5.0865924909
 20
17.4050807996
 11
11.3515954755
 21
20.5125684662
  0
LINE
  5
32B
100
AcDbEntity
  8
RACCORDO
100
AcDbLine
 62
7
  6
CONTINUOUS
 10
6.088896274
 20
17.0728571413
 11
11.7762839868
 21
19.8839812243
  0
LINE
  5
32C
100
AcDbEntity
  8
218
100
AcDbLine
 62
250
  6
CONTINUOUS
 10
8.2154957843
 20
20.6713938275
 11
15.787429182
 21
24.3494535661
  0
LINE
  5
32D
100
AcDbEntity
  8
218
100
AcDbLine
 62
250
  6
CONTINUOUS
 10
8.5531641182
 20
20.0890021005
 11
16.2873530296
 21
23.8458773068
  0
LINE
  5
32E
100
AcDbEntity
  8
RACCORDO
100
AcDbLine
 62
250
  6
CONTINUOUS
 10
3.543300167
 20
17.4849706118
 11
2.8361933858
 21
17.1465337509
  0
LINE
  5
32F
100
AcDbEntity
  8
RACCORDO
100
AcDbLine
 62
250
  6
CONTINUOUS
 10
3.6822533803
 20
17.2398471614
 11
2.9751465991
 21
16.9014103005
  0
LWPOLYLINE
  5
330
100
AcDbEntity
  8
RACCORDO
100
AcDbPolyline
 62
250
  6
CONTINUOUS
 90
13
 70
0
 10
2.8361933858
 20
17.455239649
 10
2.8116070478
 20
17.4444588291
 10
2.7844166905
 20
17.4353748212
 10
2.7550875486
 20
17.4281430551
 10
2.7241214518
 20
17.4228872684
 10
2.6920482386
 20
17.419697389
 10
2.6594166905
 20
17.4186279966
 10
2.6267851425
 20
17.419697389
 10
2.5947119293
 20
17.4228872684
 10
2.5637458325
 20
17.4281430551
 10
2.5344166905
 20
17.4353748212
 10
2.5072263333
 20
17.4444588291
 10
2.4826399953
 20
17.455239649
  0
LWPOLYLINE
  5
331
100
AcDbEntity
  8
RACCORDO
100
AcDbPolyline
 62
250
  6
CONTINUOUS
 90
16
 70
0
 10
2.9751465991
 20
16.9014103005
 10
2.938996305
 20
16.8860568973
 10
2.9007554791
 20
16.8729006632
 10
2.8604241215
 20
16.8619415983
 10
2.8175313004
 20
16.8531280706
 10
2.7725479475
 20
16.8465117121
 10
2.7268868581
 20
16.8422474183
 10
2.6805716903
 20
16.8403907249
 10
2.6335787859
 20
16.8408860963
 10
2.5872499651
 20
16.8437218214
 10
2.5415567952
 20
16.8489550128
 10
2.4965277089
 20
16.8565285579
 10
2.453589824
 20
16.8662594079
 10
2.4132188466
 20
16.8780865466
 10
2.3749390706
 20
16.8920709903
 10
2.338750496
 20
16.9082127388
  0
LWPOLYLINE
  5
332
100
AcDbEntity
  8
RACCORDO
100
AcDbPolyline
 62
250
  6
CONTINUOUS
 90
16
 70
0
 10
2.8361933858
 20
17.1465337509
 10
2.8165451457
 20
17.1384272821
 10
2.7952129317
 20
17.1314053923
 10
2.7724493781
 20
17.1255429623
 10
2.7485317106
 20
17.1209092947
 10
2.7237211258
 20
17.1175400777
 10
2.6982551873
 20
17.115443983
 10
2.672430598
 20
17.1146422458
 10
2.646510118
 20
17.1151418193
 10
2.6206790373
 20
17.116928868
 10
2.5951989039
 20
17.1199982407
 10
2.5703687979
 20
17.1243287894
 10
2.5464317091
 20
17.1298808167
 10
2.5236508427
 20
17.1366079637
 10
2.5023025241
 20
17.1444514094
 10
2.4826399953
 20
17.1533361892
  0
LINE
  5
333
100
AcDbEntity
  8
RACCORDO
100
AcDbLine
 62
250
  6
CONTINUOUS
 10
3.6640216567
 20
17.5439659706
 11
3.6822533803
 21
17.5512427746
  0
LINE
  5
334
100
AcDbEntity
  8
ASSI
100
AcDbLine
 62
7
  6
CONTINUOUS
 10
-15.7175361544
 20
-11.1039450012
 11
-15.615603196
 21
-11.1213929118
  0
LINE
  5
335
100
AcDbEntity
  8
RACCORDO
100
AcDbLine
 62
7
  6
CONTINUOUS
 10
-15.6483963871
 20
-11.1138474402
 11
-15.5870523652
 21
-11.1294089428
  0
LINE
  5
336
100
AcDbEntity
  8
268
100
AcDbLine
 62
7
  6
CONTINUOUS
 10
-12.2251810534
 20
25.3689773202
 11
-12.2251810534
 21
27.1010281278
  0
LINE
  5
337
100
AcDbEntity
  8
268
100
AcDbLine
 62
7
  6
CONTINUOUS
 10
-11.5221880992
 20
27.2363496255
 11
-11.5221880992
 21
26.9754206492
  0
LINE
  5
338
100
AcDbEntity
  8
268
100
AcDbLine
 62
7
  6
CONTINUOUS
 10
-10.0474240504
 20
24.8429639617
 11
-10.0474240504
 21
23.6282304614
  0
LWPOLYLINE
  5
339
100
AcDbEntity
  8
ASSI
100
AcDbPolyline
 62
250
  6
CONTINUOUS
 90
3
 70
0
 10
-14.6445931065
 20
-12.8333817736
 10
-14.6606303856
 20
-12.9289516921
 10
-14.6832687824
 20
-13.0188573886
  0
LINE
  5
33A
100
AcDbEntity
  8
268
100
AcDbLine
 62
7
  6
CONTINUOUS
 10
1.754255946
 20
20.0613102789
 11
1.4112933439
 21
19.6438916768
  0
LWPOLYLINE
  5
33B
100
AcDbEntity
  8
RACCORDO
100
AcDbPolyline
 62
7
  6
CONTINUOUS
 90
9
 70
0
 10
1.0523094125
 20
17.8655331725
 10
1.0521804759
 20
17.8654029418
 10
1.0530667482
 20
17.8665136825
 10
1.0556638048
 20
17.8704585049
 10
1.0590683954
 20
17.8771952252
 10
1.0622877396
 20
17.8860672076
 10
1.0647738099
 20
17.8970280437
 10
1.0658997313
 20
17.9095697748
 10
1.0659194111
 20
17.9116247518
  0
LWPOLYLINE
  5
33C
100
AcDbEntity
  8
218
100
AcDbPolyline
 62
250
  6
CONTINUOUS
 90
30
 70
0
 10
16.8373258434
 20
22.179984851
 10
16.8559869819
 20
22.18991108
 10
16.8741000768
 20
22.2000879063
 10
16.8916516774
 20
22.21050777
 10
16.9086287495
 20
22.2211629345
 10
16.9250186861
 20
22.2320454815
 10
16.9408093157
 20
22.2431473181
 10
16.9559889123
 20
22.2544601976
 10
16.9705462034
 20
22.2659757169
 10
16.9844703785
 20
22.277685313
 10
16.9977510977
 20
22.2895802881
 10
17.0103784985
 20
22.3016518068
 10
17.0223432037
 20
22.3138908935
 10
17.0336363284
 20
22.3262884573
 10
17.0442494861
 20
22.3388352896
 10
17.0541747955
 20
22.3515220627
 10
17.063404886
 20
22.3643393528
 10
17.0719329032
 20
22.37727764
 10
17.0797525143
 20
22.3903273066
 10
17.0868579123
 20
22.4034786592
 10
17.0932438207
 20
22.41672193
 10
17.0989054974
 20
22.4300472764
 10
17.1038387378
 20
22.4434448002
 10
17.1080398786
 20
22.4569045509
 10
17.1115058
 20
22.4704165266
 10
17.1142339282
 20
22.4839706906
 10
17.1162222372
 20
22.4975569762
 10
17.1174692505
 20
22.5111652889
 10
17.1179740422
 20
22.5247855203
 10
17.1179860427
 20
22.5272220197
  0
LWPOLYLINE
  5
33D
100
AcDbEntity
  8
RACCORDO
100
AcDbPolyline
 62
7
  6
CONTINUOUS
 90
13
 70
0
 10
6.088896274
 20
17.0728571413
 10
6.0661746969
 20
17.0608411945
 10
6.045235237
 20
17.0482233439
 10
6.0260778941
 20
17.0350035896
 10
6.0086355992
 20
17.0211198927
 10
5.9929754214
 20
17.006634292
 10
5.9792985682
 20
16.9917329037
 10
5.9676306317
 20
16.9764103626
 10
5.9579460199
 20
16.9606720338
 10
5.950369164
 20
16.944720129
 10
5.9449272618
 20
16.9285518924
 10
5.9415931156
 20
16.9121700797
 10
5.9404074904
 20
16.895060746
  0
LINE
  5
33E
100
AcDbEntity
  8
218
100
AcDbLine
 62
250
  6
CONTINUOUS
 10
16.8373258434
 20
22.179984851
 11
12.7030306512
 21
20.0766506482
  0
LINE
  5
33F
100
AcDbEntity
  8
RACCORDO
100
AcDbLine
 62
7
  6
CONTINUOUS
 10
12.3821349319
 20
19.5810557517
 11
7.7859408542
 21
17.2829587129
  0
LINE
  5
340
100
AcDbEntity
  8
0
100
AcDbLine
 62
7
  6
CONTINUOUS
 10
13.363291153
 20
17.8994271238
 11
9.9581475927
 21
16.1968553436
  0
LINE
  5
341
100
AcDbEntity
  8
DRAFT
100
AcDbLine
 62
7
  6
CONTINUOUS
 10
9.0403088292
 20
16.6557747253
 11
12.7356883225
 21
18.4244646445
  0
LINE
  5
342
100
AcDbEntity
  8
RACCORDO
100
AcDbLine
 62
7
  6
CONTINUOUS
 10
14.5157959904
 20
18.9304682088
 11
9.3938622198
 21
16.4789980301
  0
LWPOLYLINE
  5
343
100
AcDbEntity
  8
ASSI
100
AcDbPolyline
 62
250
  6
CONTINUOUS
 90
6
 70
0
 10
-15.1076624659
 20
-13.3821356107
 10
-15.1755617837
 20
-13.3921862746
 10
-15.2458072117
 20
-13.3934953121
 10
-15.3178146586
 20
-13.3860749966
 10
-15.3910106793
 20
-13.3700181044
 10
-15.464843143
 20
-13.345465547
  0
LINE
  5
344
100
AcDbEntity
  8
RACCORDO
100
AcDbLine
 62
7
  6
CONTINUOUS
 10
-15.8243041471
 20
-11.1059587662
 11
-15.7673871933
 21
-11.1021265533
  0
LINE
  5
345
100
AcDbEntity
  8
ASSI
100
AcDbLine
 62
7
  6
CONTINUOUS
 10
-15.8160824976
 20
-11.1049931653
 11
-15.7175361544
 21
-11.1039450012
  0
LWPOLYLINE
  5
346
100
AcDbEntity
  8
RACCORDO
100
AcDbPolyline
 62
7
  6
CONTINUOUS
 90
3
 70
0
 10
-15.7673871933
 20
-11.1021265533
 10
-15.7086112627
 20
-11.1047537626
 10
-15.6483963871
 20
-11.1138474402
  0
LWPOLYLINE
  5
347
100
AcDbEntity
  8
RACCORDO
100
AcDbPolyline
 62
250
  6
CONTINUOUS
 90
4
 70
0
 10
-15.8059672953
 20
-11.0316383276
 10
-15.7278910396
 20
-11.039434051
 10
-15.6492459004
 20
-11.056557843
 10
-15.5694163586
 20
-11.0830166539
  0
LWPOLYLINE
  5
348
100
AcDbEntity
  8
ASSI
100
AcDbPolyline
 62
250
  6
CONTINUOUS
 90
3
 70
0
 10
-15.8059672953
 20
-11.0316383276
 10
-15.7278910396
 20
-11.039434051
 10
-15.6492459004
 20
-11.056557843
  0
LINE
  5
349
100
AcDbEntity
  8
268
100
AcDbLine
 62
250
  6
CONTINUOUS
 10
-9.9595560848
 20
24.7364552316
 11
-9.9595560848
 21
23.5215003655
  0
LINE
  5
34A
100
AcDbEntity
  8
268
100
AcDbLine
 62
7
  6
CONTINUOUS
 10
-9.7856626583
 20
22.0350410082
 11
-9.7856626583
 21
21.9765618469
  0
LWPOLYLINE
  5
34B
100
AcDbEntity
  8
RACCORDO
100
AcDbPolyline
 62
250
  6
CONTINUOUS
 90
6
 70
0
 10
-14.6832687824
 20
-13.0188573886
 10
-14.7126658522
 20
-13.102967813
 10
-14.7486680259
 20
-13.181415646
 10
-14.7904497238
 20
-13.2524199025
 10
-14.8381450103
 20
-13.3158053741
 10
-14.8916267585
 20
-13.3717501416
  0
LWPOLYLINE
  5
34C
100
AcDbEntity
  8
ASSI
100
AcDbPolyline
 62
250
  6
CONTINUOUS
 90
3
 70
0
 10
-14.6832687824
 20
-13.0188573886
 10
-14.7126658522
 20
-13.102967813
 10
-14.7486680259
 20
-13.181415646
  0
LWPOLYLINE
  5
34D
100
AcDbEntity
  8
RACCORDO
100
AcDbPolyline
 62
7
  6
CONTINUOUS
 90
7
 70
0
 10
-14.7237429372
 20
-13.0071981597
 10
-14.7537736927
 20
-13.0798108954
 10
-14.7891509457
 20
-13.1456407927
 10
-14.8295273962
 20
-13.2042097658
 10
-14.8745648527
 20
-13.2551936636
 10
-14.9237451034
 20
-13.2982276098
 10
-14.9767940372
 20
-13.3331796239
  0
LWPOLYLINE
  5
34E
100
AcDbEntity
  8
ASSI
100
AcDbPolyline
 62
7
  6
CONTINUOUS
 90
4
 70
0
 10
-14.7226291154
 20
-13.0040895198
 10
-14.7877856731
 20
-13.1434015838
 10
-14.8736301309
 20
-13.2542592274
 10
-14.9774076986
 20
-13.3335494525
  0
LINE
  5
34F
100
AcDbEntity
  8
0
100
AcDbLine
 62
7
  6
CONTINUOUS
 10
-15.5035478107
 20
-11.1605746795
 11
-15.5238438797
 21
-11.2016106425
  0
LINE
  5
350
100
AcDbEntity
  8
ASSI
100
AcDbLine
 62
7
  6
CONTINUOUS
 10
-15.5035478107
 20
-11.1605746795
 11
-15.5335444844
 21
-11.2212239804
  0
LWPOLYLINE
  5
351
100
AcDbEntity
  8
ASSI
100
AcDbPolyline
 62
250
  6
CONTINUOUS
 90
6
 70
0
 10
-16.2293199327
 20
-11.4121277352
 10
-16.1905967765
 20
-11.3465322426
 10
-16.1464676356
 20
-11.2878097865
 10
-16.0972959129
 20
-11.2364131583
 10
-16.0434287065
 20
-11.1927201275
 10
-15.9852937515
 20
-11.1570679479
  0
LINE
  5
352
100
AcDbEntity
  8
RACCORDO
100
AcDbLine
 62
250
  6
CONTINUOUS
 10
3.7200768623
 20
18.2721813872
 11
3.6936984298
 21
18.2382715363
  0
LWPOLYLINE
  5
353
100
AcDbEntity
  8
RACCORDO
100
AcDbPolyline
 62
7
  6
CONTINUOUS
 90
13
 70
0
 10
3.7358192051
 20
18.2010817417
 10
3.7184718327
 20
18.1788591897
 10
3.7017397572
 20
18.1547339308
 10
3.6859210283
 20
18.1290000322
 10
3.6712462307
 20
18.1019132381
 10
3.6580063263
 20
18.073926202
 10
3.6465014206
 20
18.0457025923
 10
3.6368442802
 20
18.0176732945
 10
3.6290934244
 20
17.9902562892
 10
3.6233061813
 20
17.9641192275
 10
3.6193998197
 20
17.9397279075
 10
3.617204398
 20
17.9173242541
 10
3.6165234717
 20
17.8971813872
  0
LINE
  5
354
100
AcDbEntity
  8
RACCORDO
100
AcDbLine
 62
250
  6
CONTINUOUS
 10
3.7200768623
 20
18.2721813872
 11
4.2504069482
 21
18.9123464302
  0
LINE
  5
355
100
AcDbEntity
  8
RACCORDO
100
AcDbLine
 62
7
  6
CONTINUOUS
 10
3.7358192051
 20
18.2010817417
 11
4.266149291
 21
18.8412467846
  0
LINE
  5
356
100
AcDbEntity
  8
RACCORDO
100
AcDbLine
 62
7
  6
CONTINUOUS
 10
17.3318824002
 20
17.1061820176
 11
12.7356883225
 21
14.8080849787
  0
LWPOLYLINE
  5
357
100
AcDbEntity
  8
RACCORDO
100
AcDbPolyline
 62
7
  6
CONTINUOUS
 90
12
 70
0
 10
17.3318824002
 20
17.1061820176
 10
17.3551685334
 20
17.1168650888
 10
17.3781601483
 20
17.1255874904
 10
17.400857245
 20
17.1323492224
 10
17.4233542234
 20
17.1371624131
 10
17.4455566835
 20
17.1400149342
 10
17.4671814252
 20
17.1408704008
 10
17.488221048
 20
17.1397032311
 10
17.5086829525
 20
17.1365390068
 10
17.5283061398
 20
17.1314180889
 10
17.5470798661
 20
17.1243154123
 10
17.5554914009
 20
17.1203818097
  0
LWPOLYLINE
  5
358
100
AcDbEntity
  8
RACCORDO
100
AcDbPolyline
 62
7
  6
CONTINUOUS
 90
12
 70
0
 10
18.7584366775
 20
16.8091478652
 10
18.8044514489
 20
16.8292950972
 10
18.8498460013
 20
16.8455964829
 10
18.8946203346
 20
16.8580520221
 10
18.938956241
 20
16.8666816082
 10
18.9826719282
 20
16.8714653478
 10
19.0252220202
 20
16.8723435614
 10
19.0665919149
 20
16.869267322
 10
19.1067962142
 20
16.8622855565
 10
19.1453333486
 20
16.8514853662
 10
19.1821824323
 20
16.8368189152
 10
19.1933304309
 20
16.8315007576
  0
LINE
  5
359
100
AcDbEntity
  8
ASSI
100
AcDbLine
 62
250
  6
CONTINUOUS
 10
-15.0610423684
 20
-13.369694746
 11
-15.1076624659
 21
-13.3821356107
  0
LINE
  5
35A
100
AcDbEntity
  8
ASSI
100
AcDbLine
 62
7
  6
CONTINUOUS
 10
-15.9098114552
 20
-11.1250790344
 11
-15.8160824976
 21
-11.1049931653
  0
LINE
  5
35B
100
AcDbEntity
  8
DRAFT
100
AcDbLine
 62
7
  6
CONTINUOUS
 10
22.3436652812
 20
-21.636171238
 11
23.0774427362
 21
-22.0030599655
  0
LINE
  5
35C
100
AcDbEntity
  8
DRAFT
100
AcDbLine
 62
7
  6
CONTINUOUS
 10
18.1450551985
 20
-18.8330202252
 11
19.454427816
 21
-19.4877065339
  0
LINE
  5
35D
100
AcDbEntity
  8
268
100
AcDbLine
 62
7
  6
CONTINUOUS
 10
-4.83591519
 20
19.560167274
 11
-4.83591519
 21
19.5016881128
  0
LWPOLYLINE
  5
35E
100
AcDbEntity
  8
RACCORDO
100
AcDbPolyline
 62
250
  6
CONTINUOUS
 90
18
 70
0
 10
0.9034183842
 20
17.726442735
 10
0.9069060037
 20
17.7366601542
 10
0.9108754736
 20
17.7470715691
 10
0.9153968623
 20
17.7575098342
 10
0.9205529197
 20
17.7679178902
 10
0.9264003149
 20
17.7782430223
 10
0.9329600149
 20
17.7884171337
 10
0.940243707
 20
17.7983907339
 10
0.9482569832
 20
17.8081320666
 10
0.9569543144
 20
17.8175602611
 10
0.9662677779
 20
17.8265936414
 10
0.9761534116
 20
17.8352107028
 10
0.9865407844
 20
17.8433943652
 10
0.9973720478
 20
17.8511384023
 10
1.0086112768
 20
17.8584575544
 10
1.0201669968
 20
17.8653375531
 10
1.0319219144
 20
17.8717512639
 10
1.0437909682
 20
17.8776945044
  0
LWPOLYLINE
  5
35F
100
AcDbEntity
  8
RACCORDO
100
AcDbPolyline
 62
250
  6
CONTINUOUS
 90
5
 70
0
 10
0.8857878635
 20
17.6683551033
 10
0.8880828154
 20
17.6749581692
 10
0.8903458036
 20
17.6821201043
 10
0.892633641
 20
17.6898539953
 10
0.8975718321
 20
17.7072061005
  0
LWPOLYLINE
  5
360
100
AcDbEntity
  8
RACCORDO
100
AcDbPolyline
 62
250
  6
CONTINUOUS
 90
12
 70
0
 10
2.1290866047
 20
17.8516862584
 10
2.1161416702
 20
17.8224062361
 10
2.1003955493
 20
17.7950519459
 10
2.0820972794
 20
17.770101704
 10
2.0615263682
 20
17.7479827194
 10
2.0390340628
 20
17.7291138958
 10
2.0150506912
 20
17.7138724273
 10
1.990007222
 20
17.7025271524
 10
1.9643166239
 20
17.6952603313
 10
1.9384209696
 20
17.6921967176
 10
1.9127651416
 20
17.6933883324
 10
1.9016091568
 20
17.695269717
  0
LWPOLYLINE
  5
361
100
AcDbEntity
  8
ASSI
100
AcDbPolyline
 62
250
  6
CONTINUOUS
 90
4
 70
0
 10
-14.7486680259
 20
-13.181415646
 10
-14.7904497238
 20
-13.2524199025
 10
-14.8381450103
 20
-13.3158053741
 10
-14.8916267585
 20
-13.3717501416
  0
LWPOLYLINE
  5
362
100
AcDbEntity
  8
RACCORDO
100
AcDbPolyline
 62
250
  6
CONTINUOUS
 90
5
 70
0
 10
3.6936984298
 20
18.2382715363
 10
3.6692480943
 20
18.2030562805
 10
3.6467258558
 20
18.1665356198
 10
3.6260075378
 20
18.1284378537
 10
3.6072173168
 20
18.0890346829
  0
LINE
  5
363
100
AcDbEntity
  8
PREM_14013
100
AcDbLine
 62
7
  6
CONTINUOUS
 10
9.6340291597
 20
22.9800351437
 11
9.9767952807
 21
23.4496417745
  0
LINE
  5
364
100
AcDbEntity
  8
PREM_14013
100
AcDbLine
 62
7
  6
CONTINUOUS
 10
10.2916066289
 20
22.8600436106
 11
10.6343727499
 21
23.3296502414
  0
LINE
  5
365
100
AcDbEntity
  8
RACCORDO
100
AcDbLine
 62
7
  6
CONTINUOUS
 10
12.3154851793
 20
13.9595626886
 11
17.9377333453
 21
16.803256545
  0
LINE
  5
366
100
AcDbEntity
  8
RACCORDO
100
AcDbLine
 62
7
  6
CONTINUOUS
 10
13.8613217907
 20
12.5045877358
 11
15.9826421342
 21
13.5652479076
  0
LINE
  5
367
100
AcDbEntity
  8
RACCORDO
100
AcDbLine
 62
250
  6
CONTINUOUS
 10
13.9731251895
 20
12.497487289
 11
16.0944455331
 21
13.5581474608
  0
LINE
  5
368
100
AcDbEntity
  8
RACCORDO
100
AcDbLine
 62
7
  6
CONTINUOUS
 10
18.289250392
 20
15.6476836098
 11
12.3154851793
 21
12.7546418559
  0
LINE
  5
369
100
AcDbEntity
  8
RACCORDO
100
AcDbLine
 62
7
  6
CONTINUOUS
 10
18.2878262052
 20
16.5839033403
 11
18.7584366775
 21
16.8091478652
  0
LWPOLYLINE
  5
36A
100
AcDbEntity
  8
RACCORDO
100
AcDbPolyline
 62
250
  6
CONTINUOUS
 90
7
 70
0
 10
15.9826421342
 20
13.5652479076
 10
15.9875195707
 20
13.5675142353
 10
16.0069666188
 20
13.5735192375
 10
16.0277845645
 20
13.5754945926
 10
16.0495369125
 20
13.5734989151
 10
16.0718847668
 20
13.5676574185
 10
16.0944455331
 20
13.5581474608
  0
LWPOLYLINE
  5
36B
100
AcDbEntity
  8
RACCORDO
100
AcDbPolyline
 62
250
  6
CONTINUOUS
 90
7
 70
0
 10
13.8615062928
 20
12.5046797334
 10
13.8661992272
 20
12.5068540635
 10
13.8856462752
 20
12.5128590657
 10
13.9064642209
 20
12.5148344208
 10
13.9282165689
 20
12.5128387433
 10
13.9505644233
 20
12.5069972468
 10
13.9731251895
 20
12.497487289
  0
LWPOLYLINE
  5
36C
100
AcDbEntity
  8
RACCORDO
100
AcDbPolyline
 62
250
  6
CONTINUOUS
 90
13
 70
0
 10
17.3255841355
 20
10.085724973
 10
17.3553964822
 20
10.0943028422
 10
17.3663091571
 20
10.0974162598
 10
17.377780336
 20
10.1007754708
 10
17.389832974
 20
10.1043725073
 10
17.402444116
 20
10.1082153373
 10
17.415618677
 20
10.1124426885
 10
17.4293417811
 20
10.1170347619
 10
17.4436283043
 20
10.1220113565
 10
17.4585277891
 20
10.1275705972
 10
17.4740567499
 20
10.1337785254
 10
17.4901986723
 20
10.1405690997
 10
17.5069535565
 20
10.1479423201
  0
LINE
  5
36D
100
AcDbEntity
  8
268
100
AcDbLine
 62
250
  6
CONTINUOUS
 10
-4.1670470167
 20
20.6252458315
 11
-4.1670470167
 21
21.8402006976
  0
LINE
  5
36E
100
AcDbEntity
  8
268
100
AcDbLine
 62
7
  6
CONTINUOUS
 10
-3.8106103573
 20
24.80181009
 11
-3.8106103573
 21
26.1284905252
  0
LINE
  5
36F
100
AcDbEntity
  8
268
100
AcDbLine
 62
250
  6
CONTINUOUS
 10
-3.7440206652
 20
20.626884679
 11
-3.7440206652
 21
21.8410881519
  0
LINE
  5
370
100
AcDbEntity
  8
268
100
AcDbLine
 62
7
  6
CONTINUOUS
 10
-3.4570569667
 20
25.3991556406
 11
-3.4570569667
 21
25.9517138299
  0
LINE
  5
371
100
AcDbEntity
  8
268
100
AcDbLine
 62
250
  6
CONTINUOUS
 10
-3.3863462886
 20
27.5679221275
 11
-3.3863462886
 21
26.3360879461
  0
LINE
  5
372
100
AcDbEntity
  8
268
100
AcDbLine
 62
7
  6
CONTINUOUS
 10
-3.298478323
 20
27.672919341
 11
-3.298478323
 21
26.4405507353
  0
LINE
  5
373
100
AcDbEntity
  8
268
100
AcDbLine
 62
7
  6
CONTINUOUS
 10
-3.2449249324
 20
22.091284825
 11
-3.2449249324
 21
20.8788492597
  0
LINE
  5
374
100
AcDbEntity
  8
268
100
AcDbLine
 62
7
  6
CONTINUOUS
 10
-2.2446908714
 20
19.8617983011
 11
-2.2446908714
 21
20.1151696949
  0
LWPOLYLINE
  5
375
100
AcDbEntity
  8
RACCORDO
100
AcDbPolyline
 62
250
  6
CONTINUOUS
 90
3
 70
0
 10
0.8975718321
 20
17.7072061005
 10
0.9003404442
 20
17.7166257897
 10
0.9034183842
 20
17.726442735
  0
LWPOLYLINE
  5
376
100
AcDbEntity
  8
RACCORDO
100
AcDbPolyline
 62
250
  6
CONTINUOUS
 90
3
 70
0
 10
3.6072173168
 20
18.0890346829
 10
3.5907277224
 20
18.0491412086
 10
3.5765721242
 20
18.0087447299
  0
LWPOLYLINE
  5
377
100
AcDbEntity
  8
RACCORDO
100
AcDbPolyline
 62
250
  6
CONTINUOUS
 90
12
 70
0
 10
2.6594166905
 20
17.7418513013
 10
2.646367347
 20
17.7123653176
 10
2.630516583
 20
17.6848961964
 10
2.6121356096
 20
17.659913942
 10
2.5915389304
 20
17.6378460076
 10
2.5690789601
 20
17.6190699818
 10
2.5451399953
 20
17.6039071275
 10
2.520131638
 20
17.5926168854
 10
2.4944817884
 20
17.5853924347
 10
2.4686293225
 20
17.5823573877
 10
2.443016583
 20
17.583563675
 10
2.4319392427
 20
17.58543476
  0
LINE
  5
378
100
AcDbEntity
  8
218
100
AcDbLine
 62
7
  6
CONTINUOUS
 10
17.9825908214
 20
16.9068320995
 11
18.0331628297
 21
16.9395416474
  0
LWPOLYLINE
  5
379
100
AcDbEntity
  8
RACCORDO
100
AcDbPolyline
 62
250
  6
CONTINUOUS
 90
13
 70
0
 10
13.9731251895
 20
12.497487289
 10
13.9500512006
 20
12.4840980527
 10
13.9273720141
 20
12.4672334262
 10
13.905475677
 20
12.4471819681
 10
13.8847368419
 20
12.4242867642
 10
13.8655103559
 20
12.3989395579
 10
13.8481251895
 20
12.371574047
 10
13.8328788078
 20
12.3426584628
 10
13.8200320806
 20
12.3126875591
 10
13.8098048189
 20
12.2821741463
 10
13.8023720141
 20
12.2516403173
 10
13.7978608434
 20
12.2216085145
 10
13.7963484942
 20
12.1925925904
  0
LWPOLYLINE
  5
37A
100
AcDbEntity
  8
RACCORDO
100
AcDbPolyline
 62
250
  6
CONTINUOUS
 90
13
 70
0
 10
15.3166280738
 20
11.8257358469
 10
15.2935540849
 20
11.8123466106
 10
15.2708748983
 20
11.7954819841
 10
15.2489785613
 20
11.775430526
 10
15.2282397261
 20
11.7525353221
 10
15.2090132401
 20
11.7271881158
 10
15.1916280738
 20
11.6998226048
 10
15.1763816921
 20
11.6709070207
 10
15.1635349649
 20
11.6409361169
 10
15.1533077032
 20
11.6104227041
 10
15.1458748983
 20
11.5798888752
 10
15.1413637276
 20
11.5498570724
 10
15.1398513785
 20
11.5208411483
  0
LWPOLYLINE
  5
37B
100
AcDbEntity
  8
RACCORDO
100
AcDbPolyline
 62
250
  6
CONTINUOUS
 90
13
 70
0
 10
14.3595657762
 20
10.8978050988
 10
14.3782476211
 20
10.9082617282
 10
14.3966458549
 20
10.9215862883
 10
14.4144386546
 20
10.9375457051
 10
14.4313147876
 20
10.9558608154
 10
14.4469790555
 20
10.9762112503
 10
14.4611574579
 20
10.9982410388
 10
14.4736019856
 20
11.0215648344
 10
14.484094958
 20
11.0457746559
 10
14.4924528314
 20
11.0704470237
 10
14.4985294093
 20
11.0951503674
 10
14.5022184
 20
11.1194525744
 10
14.5034552754
 20
11.1429285491
  0
LWPOLYLINE
  5
37C
100
AcDbEntity
  8
RACCORDO
100
AcDbPolyline
 62
250
  6
CONTINUOUS
 90
16
 70
0
 10
14.3595657762
 20
11.2092007119
 10
14.327254215
 20
11.1917586599
 10
14.2994351963
 20
11.1732527518
 10
14.2761087201
 20
11.1536829874
 10
14.2571689816
 20
11.1328137173
 10
14.2427217855
 20
11.110880591
 10
14.2330845467
 20
11.0885905575
 10
14.2283747042
 20
11.0659611629
 10
14.228474819
 20
11.042974861
 10
14.2333499877
 20
11.0202859625
 10
14.2431086336
 20
10.9978867031
 10
14.2576423335
 20
10.975784847
 10
14.2765909149
 20
10.9546579981
 10
14.2998343205
 20
10.9347320245
 10
14.3274926075
 20
10.915781058
 10
14.3595657762
 20
10.8978050988
  0
LINE
  5
37D
100
AcDbEntity
  8
RACCORDO
100
AcDbLine
 62
250
  6
CONTINUOUS
 10
15.3166280738
 20
11.8257358469
 11
17.4379484173
 21
12.8863960186
  0
LINE
  5
37E
100
AcDbEntity
  8
RACCORDO
100
AcDbLine
 62
250
  6
CONTINUOUS
 10
15.4934047691
 20
11.5208411483
 11
17.6147251126
 21
12.5815013201
  0
LINE
  5
37F
100
AcDbEntity
  8
RACCORDO
100
AcDbLine
 62
250
  6
CONTINUOUS
 10
14.4249526248
 20
11.2404962961
 11
14.3595657762
 21
11.2092007119
  0
LINE
  5
380
100
AcDbEntity
  8
RACCORDO
100
AcDbLine
 62
250
  6
CONTINUOUS
 10
16.2005115503
 20
10.4643746687
 11
16.9076183315
 21
10.8028115296
  0
LINE
  5
381
100
AcDbEntity
  8
RACCORDO
100
AcDbLine
 62
250
  6
CONTINUOUS
 10
16.2912172909
 20
10.2539802101
 11
17.0018286559
 21
10.5891349638
  0
LINE
  5
382
100
AcDbEntity
  8
RACCORDO
100
AcDbLine
 62
7
  6
CONTINUOUS
 10
17.2232837933
 20
13.0567304769
 11
21.9226371923
 21
15.2270476078
  0
LINE
  5
383
100
AcDbEntity
  8
RACCORDO
100
AcDbLine
 62
250
  6
CONTINUOUS
 10
17.1657952367
 20
10.7638085236
 11
17.7913402479
 21
11.0527069211
  0
LINE
  5
384
100
AcDbEntity
  8
RACCORDO
100
AcDbLine
 62
250
  6
CONTINUOUS
 10
15.63299212
 20
10.0559102304
 11
15.8813568884
 21
10.1705758353
  0
LWPOLYLINE
  5
385
100
AcDbEntity
  8
RACCORDO
100
AcDbPolyline
 62
250
  6
CONTINUOUS
 90
13
 70
0
 10
15.4934047691
 20
11.1695271762
 10
15.468818431
 20
11.1587463563
 10
15.4416280738
 20
11.1496623484
 10
15.4122989319
 20
11.1424305823
 10
15.3813328351
 20
11.1371747956
 10
15.3492596218
 20
11.1339849162
 10
15.3166280738
 20
11.1329155238
 10
15.2839965257
 20
11.1339849162
 10
15.2519233125
 20
11.1371747956
 10
15.2209572157
 20
11.1424305823
 10
15.1916280738
 20
11.1496623484
 10
15.1644377165
 20
11.1587463563
 10
15.1398513785
 20
11.1695271762
  0
LWPOLYLINE
  5
386
100
AcDbEntity
  8
RACCORDO
100
AcDbPolyline
 62
250
  6
CONTINUOUS
 90
13
 70
0
 10
16.2005115503
 20
10.7730805668
 10
16.1759252122
 20
10.7622997469
 10
16.148734855
 20
10.753215739
 10
16.1194057131
 20
10.7459839729
 10
16.0884396162
 20
10.7407281861
 10
16.056366403
 20
10.7375383068
 10
16.023734855
 20
10.7364689144
 10
15.9911033069
 20
10.7375383068
 10
15.9590300937
 20
10.7407281861
 10
15.9280639969
 20
10.7459839729
 10
15.898734855
 20
10.753215739
 10
15.8715444977
 20
10.7622997469
 10
15.8469581597
 20
10.7730805668
  0
LWPOLYLINE
  5
387
100
AcDbEntity
  8
RACCORDO
100
AcDbPolyline
 62
250
  6
CONTINUOUS
 90
13
 70
0
 10
15.4934047691
 20
11.5208411483
 10
15.4687138325
 20
11.5100202197
 10
15.4413893898
 20
11.500907506
 10
15.4119004943
 20
11.4936622364
 10
15.3807507702
 20
11.4884111614
 10
15.3484805996
 20
11.4852482306
 10
15.3156588682
 20
11.4842304353
 10
15.2827817428
 20
11.4853803681
 10
15.2504924069
 20
11.4886827482
 10
15.2195626998
 20
11.4940358403
 10
15.1905594567
 20
11.5012865668
 10
15.163857691
 20
11.5102835383
 10
15.1398513785
 20
11.5208411483
  0
LWPOLYLINE
  5
388
100
AcDbEntity
  8
RACCORDO
100
AcDbPolyline
 62
250
  6
CONTINUOUS
 90
4
 70
0
 10
17.0465715447
 20
10.8690836924
 10
17.028339732
 20
10.86180686
 10
17.0104542853
 20
10.8575701832
 10
16.9932144761
 20
10.8564445532
  0
LINE
  5
389
100
AcDbEntity
  8
RACCORDO
100
AcDbLine
 62
250
  6
CONTINUOUS
 10
11.433554617
 20
7.8574310044
 11
15.4820463994
 21
9.3427073181
  0
LINE
  5
38A
100
AcDbEntity
  8
ASSI
100
AcDbLine
 62
250
  6
CONTINUOUS
 10
11.433554617
 20
7.8574310044
 11
15.4820463994
 21
9.3427073181
  0
LINE
  5
38B
100
AcDbEntity
  8
RACCORDO
100
AcDbLine
 62
250
  6
CONTINUOUS
 10
11.9351262305
 20
6.8543556104
 11
15.9836180128
 21
8.3396319241
  0
LINE
  5
38C
100
AcDbEntity
  8
ASSI
100
AcDbLine
 62
250
  6
CONTINUOUS
 10
11.9351262305
 20
6.8543556104
 11
15.9836180128
 21
8.3396319241
  0
LINE
  5
38D
100
AcDbEntity
  8
DRAFT
100
AcDbLine
 62
7
  6
CONTINUOUS
 10
15.9867070706
 20
9.4199725454
 11
16.454349165
 21
9.5766534492
  0
LINE
  5
38E
100
AcDbEntity
  8
DRAFT
100
AcDbLine
 62
7
  6
CONTINUOUS
 10
14.3528155007
 20
-10.0059957702
 11
14.6916981939
 21
-10.1754371168
  0
LWPOLYLINE
  5
38F
100
AcDbEntity
  8
RACCORDO
100
AcDbPolyline
 62
250
  6
CONTINUOUS
 90
13
 70
0
 10
15.4934047691
 20
-30.1300769632
 10
15.4803554255
 20
-30.1106156248
 10
15.4645046615
 20
-30.0899749262
 10
15.4461236881
 20
-30.0685080354
 10
15.4255270089
 20
-30.0465822569
 10
15.4030670387
 20
-30.0245727469
 10
15.3791280738
 20
-30.0028560941
 10
15.3541197166
 20
-29.9818038765
 10
15.328469867
 20
-29.9617763034
 10
15.302617401
 20
-29.9431160521
 10
15.2770046615
 20
-29.9261424047
 10
15.2520698896
 20
-29.911145785
 10
15.2282397261
 20
-29.8983827894
  0
LWPOLYLINE
  5
390
100
AcDbEntity
  8
RACCORDO
100
AcDbPolyline
 62
250
  6
CONTINUOUS
 90
13
 70
0
 10
16.023734855
 20
-29.4899119202
 10
16.0106855114
 20
-29.4704505819
 10
15.9948347474
 20
-29.4498098832
 10
15.976453774
 20
-29.4283429925
 10
15.9558570948
 20
-29.406417214
 10
15.9333971246
 20
-29.3844077039
 10
15.9094581597
 20
-29.3626910511
 10
15.8844498025
 20
-29.3416388335
 10
15.8587999529
 20
-29.3216112604
 10
15.8329474869
 20
-29.3029510092
 10
15.8073347474
 20
-29.2859773618
 10
15.7823999755
 20
-29.2709807421
 10
15.758569812
 20
-29.2582177464
  0
LWPOLYLINE
  5
391
100
AcDbEntity
  8
268
100
AcDbPolyline
 62
7
  6
CONTINUOUS
 90
24
 70
0
 10
-0.6993405201
 20
26.4425963739
 10
-0.6999137045
 20
26.4770687801
 10
-0.7016128175
 20
26.5108187011
 10
-0.7044378591
 20
26.5438461368
 10
-0.7083982936
 20
26.5762076942
 10
-0.7134846567
 20
26.6078467664
 10
-0.7196685551
 20
26.638593533
 10
-0.7269511705
 20
26.6684290604
 10
-0.7353313212
 20
26.6973722822
 10
-0.7447770684
 20
26.7253101781
 10
-0.755300927
 20
26.7522563409
 10
-0.766890382
 20
26.7781971779
 10
-0.7794759508
 20
26.8029788908
 10
-0.7930511366
 20
26.8265761921
 10
-0.8076224362
 20
26.8490143694
 10
-0.8231398562
 20
26.8702154867
 10
-0.8396231436
 20
26.8901925766
 10
-0.8570525514
 20
26.9089326065
 10
-0.8753188461
 20
26.926318542
 10
-0.894407502
 20
26.9423274684
 10
-0.9143330447
 20
26.9569823004
 10
-0.9350298172
 20
26.9702347488
 10
-0.9565223317
 20
26.9820906101
 10
-0.9592430241
 20
26.9834748333
  0
LWPOLYLINE
  5
392
100
AcDbEntity
  8
218
100
AcDbPolyline
 62
7
  6
CONTINUOUS
 90
4
 70
0
 10
-0.7976900906
 20
26.9668493144
 10
-0.7975613444
 20
26.9535443547
 10
-0.7963748549
 20
26.9243285352
 10
-0.7942454741
 20
26.8987223331
  0
LINE
  5
393
100
AcDbEntity
  8
268
100
AcDbLine
 62
7
  6
CONTINUOUS
 10
-1.5416979171
 20
18.9552390465
 11
-1.5416979171
 21
19.4075700221
  0
LINE
  5
394
100
AcDbEntity
  8
268
100
AcDbLine
 62
7
  6
CONTINUOUS
 10
-0.6993405201
 20
26.4425963739
 11
-0.6993405201
 21
26.1717960813
  0
LINE
  5
395
100
AcDbEntity
  8
268
100
AcDbLine
 62
7
  6
CONTINUOUS
 10
-0.6389144092
 20
19.3122814638
 11
-0.6389144092
 21
19.0589100701
  0
LINE
  5
396
100
AcDbEntity
  8
268
100
AcDbLine
 62
7
  6
CONTINUOUS
 10
-0.2397211123
 20
17.2864657404
 11
-0.2397211123
 21
17.2620702352
  0
LINE
  5
397
100
AcDbEntity
  8
218
100
AcDbLine
 62
250
  6
CONTINUOUS
 10
-0.0091288258
 20
27.5203805099
 11
-0.0091288258
 21
27.9305995528
  0
LINE
  5
398
100
AcDbEntity
  8
268
100
AcDbLine
 62
7
  6
CONTINUOUS
 10
0.0723061989
 20
18.1482369885
 11
0.0723061989
 21
18.7854065472
  0
LINE
  5
399
100
AcDbEntity
  8
RACCORDO
100
AcDbLine
 62
7
  6
CONTINUOUS
 10
0.2922814188
 20
17.2930550092
 11
0.2922814188
 21
17.2671853713
  0
LWPOLYLINE
  5
39A
100
AcDbEntity
  8
RACCORDO
100
AcDbPolyline
 62
250
  6
CONTINUOUS
 90
13
 70
0
 10
1.139137111
 20
17.8250876314
 10
1.1379002265
 20
17.8016115672
 10
1.1342112112
 20
17.7773092792
 10
1.1281345977
 20
17.7526058681
 10
1.1197766818
 20
17.7279334475
 10
1.1092836653
 20
17.7037235929
 10
1.0968391008
 20
17.680399792
 10
1.0826606748
 20
17.6583700249
 10
1.0669964009
 20
17.6380196331
 10
1.0501202853
 20
17.6197045845
 10
1.0323275295
 20
17.6037452401
 10
1.0139293647
 20
17.5904207514
 10
0.9952476118
 20
17.579964181
  0
LWPOLYLINE
  5
39B
100
AcDbEntity
  8
RACCORDO
100
AcDbPolyline
 62
250
  6
CONTINUOUS
 90
6
 70
0
 10
3.5765721242
 20
18.0087447299
 10
3.5647171527
 20
17.9678579479
 10
3.5554352291
 20
17.9273340674
 10
3.5488171605
 20
17.88745749
 10
3.5447721398
 20
17.847943814
 10
3.543300167
 20
17.8087930396
  0
LWPOLYLINE
  5
39C
100
AcDbEntity
  8
218
100
AcDbPolyline
 62
7
  6
CONTINUOUS
 90
126
 70
0
 10
17.4668178792
 20
17.1715959957
 10
17.5087969024
 20
17.2090148299
 10
17.5493359689
 20
17.2454904355
 10
17.5884389995
 20
17.2810251898
 10
17.6261020736
 20
17.3156167156
 10
17.662444329
 20
17.3493391916
 10
17.6974694258
 20
17.3821948767
 10
17.731173704
 20
17.4141815121
 10
17.7636653218
 20
17.445366499
 10
17.7949476235
 20
17.4757519325
 10
17.8250172648
 20
17.5053357176
 10
17.8539723711
 20
17.5341789711
 10
17.881816021
 20
17.5622836776
 10
17.9085451359
 20
17.5896478525
 10
17.934248606
 20
17.616326658
 10
17.9589292771
 20
17.6423220216
 10
17.9825843034
 20
17.6676320159
 10
18.0052940371
 20
17.6923060204
 10
18.0270610883
 20
17.7163459375
 10
18.047882847
 20
17.7397498648
 10
18.0678318353
 20
17.7625614752
 10
18.0869104172
 20
17.784782691
 10
18.1051162288
 20
17.80641159
 10
18.1225147003
 20
17.8274860779
 10
18.1391079097
 20
17.8480081378
 10
18.154893779
 20
17.8679757868
 10
18.1699315051
 20
17.8874209824
 10
18.1842227924
 20
17.9063457817
 10
18.1977659363
 20
17.9247481276
 10
18.2106150204
 20
17.9426538063
 10
18.2227712549
 20
17.9600649439
 10
18.2342334295
 20
17.9769794144
 10
18.2450519969
 20
17.9934166256
 10
18.2552274099
 20
18.0093785125
 10
18.2647592158
 20
18.0248631402
 10
18.2736965089
 20
18.0398841121
 10
18.282039027
 20
18.054443309
 10
18.2897870322
 20
18.0685388501
 10
18.2969904061
 20
18.0821786954
 10
18.3036477173
 20
18.0953635513
 10
18.3097603972
 20
18.1080927115
 10
18.3153826212
 20
18.1203720179
 10
18.3205097593
 20
18.1321923289
 10
18.3251464415
 20
18.143562786
 10
18.3293607335
 20
18.1545166564
 10
18.333150694
 20
18.1650405089
 10
18.3365182642
 20
18.1751477746
 10
18.3395373331
 20
18.1849120145
 10
18.3422132074
 20
18.1943309494
 10
18.3445405803
 20
18.2034068583
 10
18.34657742
 20
18.2122201393
 10
18.3483311259
 20
18.2207757883
 10
18.3497942986
 20
18.2290688092
 10
18.3510027089
 20
18.2371646119
 10
18.3519626429
 20
18.245067446
 10
18.3526678143
 20
18.2527730619
 10
18.3531351356
 20
18.2603341205
 10
18.3533702673
 20
18.2677537938
 10
18.3533675489
 20
18.2750289098
 10
18.3531269107
 20
18.2822026136
 10
18.3526540031
 20
18.2892776367
 10
18.3519431758
 20
18.2962512476
 10
18.3509774087
 20
18.3031583967
 10
18.3497630235
 20
18.3100012157
 10
18.3482936985
 20
18.3167775729
 10
18.346533449
 20
18.3235160229
 10
18.3444899341
 20
18.3302189075
 10
18.3421554945
 20
18.3368838849
 10
18.3394711676
 20
18.3435324839
 10
18.3364421327
 20
18.3501730973
 10
18.3330632103
 20
18.3567973324
 10
18.3292598989
 20
18.3634015398
 10
18.3250297812
 20
18.3699975107
 10
18.3203752745
 20
18.3765734539
 10
18.3152291281
 20
18.3830903468
 10
18.3095869392
 20
18.38955193
 10
18.3034531107
 20
18.3959544629
 10
18.2967736008
 20
18.4022477014
 10
18.2895471305
 20
18.4084293602
 10
18.281774979
 20
18.4145017247
 10
18.2734069416
 20
18.4204214062
 10
18.2644426151
 20
18.4261863799
 10
18.2548824028
 20
18.4317986707
 10
18.2446773102
 20
18.4372209649
 10
18.2338278507
 20
18.4424517595
 10
18.2223335109
 20
18.4474925576
 10
18.2101437568
 20
18.4523105541
 10
18.1972597933
 20
18.4569048876
 10
18.1836804154
 20
18.4612764195
 10
18.1693514743
 20
18.4653949301
 10
18.154274685
 20
18.4692601305
 10
18.1384483324
 20
18.4728723097
 10
18.1218131224
 20
18.4762021142
 10
18.1043711428
 20
18.4792497175
 10
18.0861203059
 20
18.4820149462
 10
18.0669950533
 20
18.4844679265
 10
18.0469977392
 20
18.4866091893
 10
18.0261260096
 20
18.4884382037
 10
18.0043072438
 20
18.4899235032
 10
17.9815441192
 20
18.4910658919
 10
17.9578339585
 20
18.4918645657
 10
17.9330961088
 20
18.4922856449
 10
17.9073331916
 20
18.4923301442
 10
17.8805425855
 20
18.4919970489
 10
17.8526357738
 20
18.4912494358
 10
17.8236167438
 20
18.4900885796
 10
17.7934815081
 20
18.4885132055
 10
17.7621295882
 20
18.4864825658
 10
17.7295623389
 20
18.4839978554
 10
17.6957784053
 20
18.4810578795
 10
17.660673244
 20
18.4776183051
 10
17.624241956
 20
18.4736791797
 10
17.5864894403
 20
18.4692404559
 10
17.5473258505
 20
18.4642576588
 10
17.5067599411
 20
18.4587324614
 10
17.4647829576
 20
18.4526631908
 10
17.4212787902
 20
18.446000353
 10
17.3762623426
 20
18.4387476607
 10
17.3297187113
 20
18.4309014011
 10
17.2814870752
 20
18.422400942
 10
17.2315676081
 20
18.4132479065
 10
17.1799601363
 20
18.4034406714
 10
17.1265033179
 20
18.3929137347
 10
17.0711433723
 20
18.3816452623
 10
17.0139340802
 20
18.3696570883
 10
16.9548754415
 20
18.3569492126
  0
LINE
  5
39D
100
AcDbEntity
  8
218
100
AcDbLine
 62
7
  6
CONTINUOUS
 10
17.4285694626
 20
17.137832455
 11
17.4668178792
 21
17.1715959957
  0
LWPOLYLINE
  5
39E
100
AcDbEntity
  8
RACCORDO
100
AcDbPolyline
 62
250
  6
CONTINUOUS
 90
7
 70
0
 10
16.9076183315
 20
11.1266339574
 10
16.9291799712
 20
11.1389271264
 10
16.9473479871
 20
11.152522305
 10
16.9618115193
 20
11.167186876
 10
16.9723230927
 20
11.1826699244
 10
16.9787028515
 20
11.198706531
 10
16.9808416362
 20
11.215022305
  0
LWPOLYLINE
  5
39F
100
AcDbEntity
  8
RACCORDO
100
AcDbPolyline
 62
250
  6
CONTINUOUS
 90
13
 70
0
 10
15.7030686605
 20
10.2260536566
 10
15.7217507531
 20
10.2365104458
 10
15.7401491748
 20
10.2498352004
 10
15.7579420961
 20
10.2657948164
 10
15.7748182814
 20
10.2841101009
 10
15.7904825386
 20
10.3044606626
 10
15.8046608808
 20
10.3264905186
 10
15.8171053092
 20
10.3498143078
 10
15.8275981609
 20
10.3740240458
 10
15.835955915
 20
10.39869627
 10
15.8420323913
 20
10.4233994219
 10
15.8457213106
 20
10.4477013944
 10
15.8469581597
 20
10.471177107
  0
LINE
  5
3A0
100
AcDbEntity
  8
RACCORDO
100
AcDbLine
 62
7
  6
CONTINUOUS
 10
17.1558065973
 20
11.5861213619
 11
23.033974504
 21
14.7575278026
  0
LINE
  5
3A1
100
AcDbEntity
  8
DRAFT
100
AcDbLine
 62
7
  6
CONTINUOUS
 10
17.3913115137
 20
11.2527212882
 11
23.0774427362
 21
14.1968019127
  0
LWPOLYLINE
  5
3A2
100
AcDbEntity
  8
RACCORDO
100
AcDbPolyline
 62
250
  6
CONTINUOUS
 90
8
 70
0
 10
16.9076183315
 20
10.8028115296
 10
16.9253454733
 20
10.8119365007
 10
16.9408346463
 20
10.8219312113
 10
16.9539366056
 20
10.8326675388
 10
16.9645280934
 20
10.8440008333
 10
16.972524202
 20
10.8558035103
 10
16.9778694404
 20
10.8679681783
 10
16.9805243923
 20
10.8803445597
  0
LWPOLYLINE
  5
3A3
100
AcDbEntity
  8
RACCORDO
100
AcDbPolyline
 62
250
  6
CONTINUOUS
 90
24
 70
0
 10
17.0018288617
 20
10.5891358615
 10
17.0115263232
 20
10.5938240923
 10
17.0211327714
 20
10.598796234
 10
17.0306435488
 20
10.6040379557
 10
17.0400359843
 20
10.6095184516
 10
17.0492587631
 20
10.6152217566
 10
17.0582430034
 20
10.6211480331
 10
17.0669266387
 20
10.627278297
 10
17.0752931469
 20
10.6335953705
 10
17.0833359891
 20
10.6400999394
 10
17.0910028771
 20
10.646794778
 10
17.0982684463
 20
10.6536511388
 10
17.1051570526
 20
10.6606216724
 10
17.1115941858
 20
10.6677168313
 10
17.1175550065
 20
10.6749042443
 10
17.1231306879
 20
10.6820805236
 10
17.1282638274
 20
10.689235873
 10
17.1329187404
 20
10.6963843701
 10
17.1372335438
 20
10.7034736949
 10
17.1412106126
 20
10.7105386375
 10
17.1448478975
 20
10.7175789318
 10
17.1482691227
 20
10.7244971645
 10
17.1514590537
 20
10.7312951681
 10
17.1573010074
 20
10.7445885275
  0
LWPOLYLINE
  5
3A4
100
AcDbEntity
  8
RACCORDO
100
AcDbPolyline
 62
250
  6
CONTINUOUS
 90
10
 70
0
 10
16.2224532073
 20
9.5547214643
 10
16.2394507439
 20
9.5628933412
 10
16.2564238382
 20
9.5715048422
 10
16.2733724901
 20
9.5805559676
 10
16.2904355214
 20
9.5901847469
 10
16.3074741105
 20
9.6002531505
 10
16.3240717918
 20
9.6103470891
 10
16.3402446102
 20
9.6205050015
 10
16.3559765209
 20
9.6306884488
 10
16.3845344589
 20
9.6493961056
  0
LINE
  5
3A5
100
AcDbEntity
  8
RACCORDO
100
AcDbLine
 62
250
  6
CONTINUOUS
 10
17.5069535565
 20
10.1479423201
 11
18.1450551985
 21
10.442638874
  0
LINE
  5
3A6
100
AcDbEntity
  8
RACCORDO
100
AcDbLine
 62
250
  6
CONTINUOUS
 10
15.9867070706
 20
9.4458421833
 11
16.2224532073
 21
9.5547214643
  0
LWPOLYLINE
  5
3A7
100
AcDbEntity
  8
RACCORDO
100
AcDbPolyline
 62
250
  6
CONTINUOUS
 90
4
 70
0
 10
16.5118289289
 20
9.7249682863
 10
16.5917270865
 20
9.7612592247
 10
16.6716332834
 20
9.7975593715
 10
17.2310521899
 20
10.0518497954
  0
LWPOLYLINE
  5
3A8
100
AcDbEntity
  8
RACCORDO
100
AcDbPolyline
 62
250
  6
CONTINUOUS
 90
14
 70
0
 10
17.2310521899
 20
10.0518497954
 10
17.2369792645
 20
10.0545131258
 10
17.2430874717
 20
10.0571566536
 10
17.2493768115
 20
10.0597803789
 10
17.2558244047
 20
10.0623797653
 10
17.2624531304
 20
10.0649593491
 10
17.2693316265
 20
10.06753274
 10
17.2764629878
 20
10.0700980381
 10
17.2838441194
 20
10.0726571433
 10
17.2915343747
 20
10.0752293655
 10
17.2995282672
 20
10.0778084147
 10
17.3078312835
 20
10.080400581
 10
17.3165192366
 20
10.0830440441
 10
17.3255841355
 20
10.085724973
  0
LINE
  5
3A9
100
AcDbEntity
  8
RACCORDO
100
AcDbLine
 62
250
  6
CONTINUOUS
 10
1.0662471878
 20
17.9052732846
 11
1.0659138063
 21
17.9114828342
  0
LINE
  5
3AA
100
AcDbEntity
  8
RACCORDO
100
AcDbLine
 62
7
  6
CONTINUOUS
 10
0.3588070251
 20
18.6118260482
 11
0.3588070251
 21
18.9631400203
  0
LINE
  5
3AB
100
AcDbEntity
  8
RACCORDO
100
AcDbLine
 62
250
  6
CONTINUOUS
 10
0.4320303298
 20
18.5234377005
 11
0.4320303298
 21
18.8747516726
  0
LINE
  5
3AC
100
AcDbEntity
  8
268
100
AcDbLine
 62
7
  6
CONTINUOUS
 10
0.573451686
 20
17.1266002377
 11
0.573451686
 21
16.7970046747
  0
LINE
  5
3AD
100
AcDbEntity
  8
218
100
AcDbLine
 62
7
  6
CONTINUOUS
 10
0.6735813721
 20
27.8628386021
 11
0.6735813721
 21
27.4298259002
  0
LINE
  5
3AE
100
AcDbEntity
  8
DRAFT
100
AcDbLine
 62
7
  6
CONTINUOUS
 10
0.74387814
 20
17.0413870107
 11
0.74387814
 21
16.7117914477
  0
LINE
  5
3AF
100
AcDbEntity
  8
RACCORDO
100
AcDbLine
 62
7
  6
CONTINUOUS
 10
1.0659138063
 20
17.911483361
 11
1.0659138063
 21
18.1037641604
  0
LINE
  5
3B0
100
AcDbEntity
  8
RACCORDO
100
AcDbLine
 62
250
  6
CONTINUOUS
 10
1.139137111
 20
17.8250876314
 11
1.139137111
 21
18.067152508
  0
LINE
  5
3B1
100
AcDbEntity
  8
268
100
AcDbLine
 62
7
  6
CONTINUOUS
 10
1.139137111
 20
19.5078135604
 11
1.139137111
 21
20.4188690456
  0
LINE
  5
3B2
100
AcDbEntity
  8
PREM_14013
100
AcDbLine
 62
7
  6
CONTINUOUS
 10
1.4996237283
 20
26.4880518342
 11
1.4996237283
 21
26.1862096524
  0
LINE
  5
3B3
100
AcDbEntity
  8
RACCORDO
100
AcDbLine
 62
250
  6
CONTINUOUS
 10
1.7755332141
 20
18.2030002305
 11
1.7755332141
 21
17.8516862584
  0
LINE
  5
3B4
100
AcDbEntity
  8
268
100
AcDbLine
 62
7
  6
CONTINUOUS
 10
1.8421300653
 20
20.5541905433
 11
1.8421300653
 21
20.293261567
  0
LINE
  5
3B5
100
AcDbEntity
  8
PREM_14013
100
AcDbLine
 62
7
  6
CONTINUOUS
 10
1.9493683897
 20
26.366304001
 11
1.9493683897
 21
26.1676699002
  0
LINE
  5
3B6
100
AcDbEntity
  8
218
100
AcDbLine
 62
7
  6
CONTINUOUS
 10
2.1290866047
 20
27.8034160362
 11
2.1290866047
 21
27.217393169
  0
LINE
  5
3B7
100
AcDbEntity
  8
RACCORDO
100
AcDbLine
 62
250
  6
CONTINUOUS
 10
2.1290866047
 20
18.2030002305
 11
2.1290866047
 21
17.8516862584
  0
LINE
  5
3B8
100
AcDbEntity
  8
268
100
AcDbLine
 62
250
  6
CONTINUOUS
 10
2.1693477628
 20
24.7913004353
 11
2.1693477628
 21
23.559461857
  0
LINE
  5
3B9
100
AcDbEntity
  8
268
100
AcDbLine
 62
7
  6
CONTINUOUS
 10
2.2559851912
 20
24.895687584
 11
2.2559851912
 21
23.6633189782
  0
LINE
  5
3BA
100
AcDbEntity
  8
RACCORDO
100
AcDbLine
 62
250
  6
CONTINUOUS
 10
2.4826399953
 20
17.455239649
 11
2.4826399953
 21
17.1533361892
  0
LINE
  5
3BB
100
AcDbEntity
  8
RACCORDO
100
AcDbLine
 62
250
  6
CONTINUOUS
 10
2.8361933858
 20
17.455239649
 11
2.8361933858
 21
17.1465337509
  0
LWPOLYLINE
  5
3BC
100
AcDbEntity
  8
RACCORDO
100
AcDbPolyline
 62
250
  6
CONTINUOUS
 90
13
 70
0
 10
2.4826399953
 20
17.1533361892
 10
2.4814031198
 20
17.1298602145
 10
2.4777141291
 20
17.1055580075
 10
2.4716375511
 20
17.0808546639
 10
2.4632796777
 20
17.056182296
 10
2.4527867054
 20
17.0319724745
 10
2.4403421778
 20
17.0086486788
 10
2.4261637753
 20
16.9866188904
 10
2.4104995074
 20
16.9662684555
 10
2.3936233744
 20
16.9479533452
 10
2.3758305746
 20
16.9319939284
 10
2.3574323408
 20
16.9186693683
 10
2.338750496
 20
16.9082127388
  0
LWPOLYLINE
  5
3BD
100
AcDbEntity
  8
RACCORDO
100
AcDbPolyline
 62
250
  6
CONTINUOUS
 90
8
 70
0
 10
3.6165234717
 20
17.5685496659
 10
3.6161845184
 20
17.562301335
 10
3.6134881882
 20
17.5499354683
 10
3.6081118399
 20
17.5377945787
 10
3.6001011102
 20
17.5260254344
 10
3.5895113897
 20
17.5147277934
 10
3.5764267373
 20
17.5040259127
 10
3.560973076
 20
17.4940647465
  0
LWPOLYLINE
  5
3BE
100
AcDbEntity
  8
RACCORDO
100
AcDbPolyline
 62
250
  6
CONTINUOUS
 90
7
 70
0
 10
4.3236302529
 20
19.0007347778
 10
4.3214914683
 20
18.9844190038
 10
4.3151117095
 20
18.9683823972
 10
4.304600136
 20
18.9528993488
 10
4.2901366039
 20
18.9382347778
 10
4.271968588
 20
18.9246395992
 10
4.2504069482
 20
18.9123464302
  0
LWPOLYLINE
  5
3BF
100
AcDbEntity
  8
RACCORDO
100
AcDbPolyline
 62
250
  6
CONTINUOUS
 90
7
 70
0
 10
4.3236302529
 20
19.3520487499
 10
4.3213285086
 20
19.3351255844
 10
4.3147237484
 20
19.3189809165
 10
4.3040175641
 20
19.3035160629
 10
4.2895161112
 20
19.2890144414
 10
4.2715221682
 20
19.2756635585
 10
4.2504069482
 20
19.2636604023
  0
LWPOLYLINE
  5
3C0
100
AcDbEntity
  8
RACCORDO
100
AcDbPolyline
 62
7
  6
CONTINUOUS
 90
8
 70
0
 10
14.4170312888
 20
11.1837676739
 10
14.4166642045
 20
11.183412545
 10
14.4168590537
 20
11.183680311
 10
14.4189935854
 20
11.186682623
 10
14.4222004744
 20
11.1924435203
 10
14.4255144482
 20
11.2004933974
 10
14.4283584044
 20
11.2108883122
 10
14.4300269055
 20
11.2231429997
  0
LINE
  5
3C1
100
AcDbEntity
  8
RACCORDO
100
AcDbLine
 62
250
  6
CONTINUOUS
 10
-14.8916267585
 20
-13.3717501416
 11
-14.9496804305
 21
-13.4190043358
  0
LWPOLYLINE
  5
3C2
100
AcDbEntity
  8
ASSI
100
AcDbPolyline
 62
250
  6
CONTINUOUS
 90
11
 70
0
 10
-14.8916267585
 20
-13.3717501416
 10
-14.9496804305
 20
-13.4190043358
 10
-15.012409836
 20
-13.4573707571
 10
-15.0797191466
 20
-13.4870499295
 10
-15.1500959059
 20
-13.5073892157
 10
-15.2236535186
 20
-13.5181642243
 10
-15.3002854617
 20
-13.5196022239
 10
-15.3781496718
 20
-13.511728189
 10
-15.4566335644
 20
-13.4945510466
 10
-15.5363536972
 20
-13.4680635345
 10
-15.617311059
 20
-13.4322660673
  0
LWPOLYLINE
  5
3C3
100
AcDbEntity
  8
RACCORDO
100
AcDbPolyline
 62
250
  6
CONTINUOUS
 90
14
 70
0
 10
16.3845344589
 20
9.6493961056
 10
16.409384486
 20
9.665854121
 10
16.4205536213
 20
9.6731292132
 10
16.4309207291
 20
9.6798139019
 10
16.4407478014
 20
9.6860265844
 10
16.4500645053
 20
9.6917704468
 10
16.4588411737
 20
9.6970423031
 10
16.4672507965
 20
9.7019509921
 10
16.4752961343
 20
9.7064967195
 10
16.4829744265
 20
9.7106792797
 10
16.4904503813
 20
9.7146068943
 10
16.4977789013
 20
9.7183156372
 10
16.5049050838
 20
9.7217694345
 10
16.5118289289
 20
9.7249682863
  0
LWPOLYLINE
  5
3C4
100
AcDbEntity
  8
RACCORDO
100
AcDbPolyline
 62
250
  6
CONTINUOUS
 90
7
 70
0
 10
0.3588070251
 20
18.6118260482
 10
0.3609458098
 20
18.5955102742
 10
0.3673255685
 20
18.5794736675
 10
0.377837142
 20
18.5639906191
 10
0.3923006742
 20
18.5493260482
 10
0.41046869
 20
18.5357308696
 10
0.4320303298
 20
18.5234377005
  0
LWPOLYLINE
  5
3C5
100
AcDbEntity
  8
RACCORDO
100
AcDbPolyline
 62
250
  6
CONTINUOUS
 90
7
 70
0
 10
0.3588070251
 20
18.9631400203
 10
0.3608444945
 20
18.9472137574
 10
0.3671703561
 20
18.9310786721
 10
0.3776725061
 20
18.91550381
 10
0.3921630452
 20
18.9007593622
 10
0.4103884726
 20
18.8870971409
 10
0.4320303298
 20
18.8747516726
  0
LWPOLYLINE
  5
3C6
100
AcDbEntity
  8
RACCORDO
100
AcDbPolyline
 62
250
  6
CONTINUOUS
 90
8
 70
0
 10
2.4826399953
 20
17.455239649
 10
2.4814446945
 20
17.4797768518
 10
2.4778749566
 20
17.5027869303
 10
2.4719790561
 20
17.5239587126
 10
2.4638367249
 20
17.5430058866
 10
2.4535580742
 20
17.5596708721
 10
2.4412821051
 20
17.5737283037
 10
2.4271748289
 20
17.5849880787
  0
LWPOLYLINE
  5
3C7
100
AcDbEntity
  8
RACCORDO
100
AcDbPolyline
 62
250
  6
CONTINUOUS
 90
13
 70
0
 10
2.8361933858
 20
17.455239649
 10
2.8347309008
 20
17.4928472766
 10
2.8306996214
 20
17.528260178
 10
2.8240995476
 20
17.5614783531
 10
2.8148445495
 20
17.5926952524
 10
2.803020757
 20
17.6217174254
 10
2.78888656
 20
17.6479645214
 10
2.7724044948
 20
17.6713971078
 10
2.7536120251
 20
17.6920546172
 10
2.7328799317
 20
17.7094749965
 10
2.7103318083
 20
17.7235042282
 10
2.6858440613
 20
17.7342963298
 10
2.6594166905
 20
17.7418513013
  0
LWPOLYLINE
  5
3C8
100
AcDbEntity
  8
RACCORDO
100
AcDbPolyline
 62
250
  6
CONTINUOUS
 90
13
 70
0
 10
2.8361933858
 20
17.1465337509
 10
2.8370811237
 20
17.1231631961
 10
2.8403734622
 20
17.0989826523
 10
2.8460140604
 20
17.0744058627
 10
2.8539063996
 20
17.0498533428
 10
2.8639154305
 20
17.0257452014
 10
2.87586988
 20
17.0024939509
 10
2.8895651928
 20
16.9804974246
 10
2.904767031
 20
16.9601319797
 10
2.9212152742
 20
16.9417460709
 10
2.9386284814
 20
16.9256542724
 10
2.9567087084
 20
16.9121318986
 10
2.9751465991
 20
16.9014103005
  0
LWPOLYLINE
  5
3C9
100
AcDbEntity
  8
RACCORDO
100
AcDbPolyline
 62
250
  6
CONTINUOUS
 90
13
 70
0
 10
3.543300167
 20
17.4849706118
 10
3.544187889
 20
17.4616002371
 10
3.5474801805
 20
17.4374198567
 10
3.5531207093
 20
17.4128432036
 10
3.5610129646
 20
17.3882907911
 10
3.5710219077
 20
17.3641827179
 10
3.5829762826
 20
17.3409314797
 10
3.5966715469
 20
17.3189349117
 10
3.6118733706
 20
17.2985693812
 10
3.6283216465
 20
17.2801833482
 10
3.6457349398
 20
17.2640914027
 10
3.6638153045
 20
17.2505688824
 10
3.6822533803
 20
17.2398471614
  0
LWPOLYLINE
  5
3CA
100
AcDbEntity
  8
RACCORDO
100
AcDbPolyline
 62
7
  6
CONTINUOUS
 90
6
 70
0
 10
3.6165178995
 20
17.568706248
 10
3.6165628878
 20
17.5656780976
 10
3.6178259499
 20
17.553158106
 10
3.6203806329
 20
17.5424765867
 10
3.6235070674
 20
17.5341603477
 10
3.6257774985
 20
17.5296179613
  0
LINE
  5
3CB
100
AcDbEntity
  8
RACCORDO
100
AcDbLine
 62
250
  6
CONTINUOUS
 10
3.543300167
 20
17.4849706118
 11
3.543300167
 21
17.8087930396
  0
LINE
  5
3CC
100
AcDbEntity
  8
RACCORDO
100
AcDbLine
 62
7
  6
CONTINUOUS
 10
3.6165234717
 20
17.5685496659
 11
3.6165234717
 21
17.8971813872
  0
LINE
  5
3CD
100
AcDbEntity
  8
218
100
AcDbLine
 62
7
  6
CONTINUOUS
 10
4.2133079388
 20
29.96538675
 11
4.2133079388
 21
29.6384207023
  0
LINE
  5
3CE
100
AcDbEntity
  8
RACCORDO
100
AcDbLine
 62
250
  6
CONTINUOUS
 10
4.2504069482
 20
19.2636604023
 11
4.2504069482
 21
18.9123464302
  0
LINE
  5
3CF
100
AcDbEntity
  8
RACCORDO
100
AcDbLine
 62
7
  6
CONTINUOUS
 10
4.3236302529
 20
19.3520487499
 11
4.3236302529
 21
19.0007347778
  0
LWPOLYLINE
  5
3D0
100
AcDbEntity
  8
RACCORDO
100
AcDbPolyline
 62
250
  6
CONTINUOUS
 90
7
 70
0
 10
-14.9496804305
 20
-13.4190043358
 10
-15.012409836
 20
-13.4573707571
 10
-15.0797191466
 20
-13.4870499295
 10
-15.1500959059
 20
-13.5073892157
 10
-15.2236535186
 20
-13.5181642243
 10
-15.3002854617
 20
-13.5196022239
 10
-15.3781496718
 20
-13.511728189
  0
LINE
  5
3D1
100
AcDbEntity
  8
ASSI
100
AcDbLine
 62
250
  6
CONTINUOUS
 10
-15.9852937515
 20
-11.1570679479
 11
-15.9296052845
 21
-11.1320467877
  0
LINE
  5
3D2
100
AcDbEntity
  8
RACCORDO
100
AcDbLine
 62
250
  6
CONTINUOUS
 10
-15.9852937515
 20
-11.1570679479
 11
-15.9223878142
 21
-11.1293824492
  0
LINE
  5
3D3
100
AcDbEntity
  8
ASSI
100
AcDbLine
 62
250
  6
CONTINUOUS
 10
-15.9296052845
 20
-11.1320467877
 11
-15.9223878142
 21
-11.1293824492
  0
LINE
  5
3D4
100
AcDbEntity
  8
DRAFT
100
AcDbLine
 62
7
  6
CONTINUOUS
 10
-15.9239890572
 20
-11.3490242359
 11
-15.4628038311
 21
-11.1791234718
  0
LINE
  5
3D5
100
AcDbEntity
  8
RACCORDO
100
AcDbLine
 62
7
  6
CONTINUOUS
 10
-15.9223878142
 20
-11.1293824492
 11
-15.9221414781
 21
-11.129293728
  0
LINE
  5
3D6
100
AcDbEntity
  8
ASSI
100
AcDbLine
 62
7
  6
CONTINUOUS
 10
-15.9296208447
 20
-11.1320789979
 11
-15.9098114552
 21
-11.1250790344
  0
LWPOLYLINE
  5
3D7
100
AcDbEntity
  8
RACCORDO
100
AcDbPolyline
 62
250
  6
CONTINUOUS
 90
5
 70
0
 10
17.6157779646
 20
-28.8512444201
 10
17.6029742977
 20
-28.8247304664
 10
17.5873380458
 20
-28.8009008996
 10
17.5691382287
 20
-28.7801646919
 10
17.548687375
 20
-28.7628770572
  0
LWPOLYLINE
  5
3D8
100
AcDbEntity
  8
RACCORDO
100
AcDbPolyline
 62
7
  6
CONTINUOUS
 90
13
 70
0
 10
5.9404074904
 20
16.895060746
 10
5.9414043564
 20
16.8793971244
 10
5.9445497434
 20
16.8630059819
 10
5.9498053117
 20
16.8468223419
 10
5.9571982901
 20
16.8308488821
 10
5.9667014498
 20
16.8150829248
 10
5.9781926907
 20
16.7997270368
 10
5.9916976663
 20
16.7847865093
 10
6.0071907232
 20
16.7702560511
 10
6.024472801
 20
16.7563223546
 10
6.0434775463
 20
16.7430476506
 10
6.0642713125
 20
16.7303697083
 10
6.0868540997
 20
16.7182885277
  0
LWPOLYLINE
  5
3D9
100
AcDbEntity
  8
268
100
AcDbPolyline
 62
7
  6
CONTINUOUS
 90
5
 70
0
 10
7.0115912165
 20
22.2469180135
 10
7.011578548
 20
22.2472652694
 10
7.0112841448
 20
22.2487830582
 10
7.0106088099
 20
22.2504997225
 10
7.0095647169
 20
22.2524194263
  0
LWPOLYLINE
  5
3DA
100
AcDbEntity
  8
268
100
AcDbPolyline
 62
7
  6
CONTINUOUS
 90
7
 70
0
 10
7.0115447243
 20
22.8292775018
 10
7.0114531162
 20
22.833585303
 10
7.0113139454
 20
22.8378966337
 10
7.011127212
 20
22.8422114937
 10
7.0108929159
 20
22.846529883
 10
7.0106110571
 20
22.8508518017
 10
7.0102816356
 20
22.8551772498
  0
LWPOLYLINE
  5
3DB
100
AcDbEntity
  8
218
100
AcDbPolyline
 62
7
  6
CONTINUOUS
 90
4
 70
0
 10
6.6269311118
 20
23.2545387132
 10
6.6270598581
 20
23.2412337535
 10
6.6282463475
 20
23.212017934
 10
6.6303757282
 20
23.186411734
  0
LINE
  5
3DC
100
AcDbEntity
  8
268
100
AcDbLine
 62
7
  6
CONTINUOUS
 10
7.0115447243
 20
22.8292775018
 11
7.0115912154
 21
22.8232998473
  0
LINE
  5
3DD
100
AcDbEntity
  8
RACCORDO
100
AcDbLine
 62
7
  6
CONTINUOUS
 10
5.9404074903
 20
15.6955324229
 11
5.9404074903
 21
16.895065223
  0
LINE
  5
3DE
100
AcDbEntity
  8
RACCORDO
100
AcDbLine
 62
250
  6
CONTINUOUS
 10
6.0868540997
 20
15.5209694921
 11
6.0868540997
 21
16.7182885277
  0
LINE
  5
3DF
100
AcDbEntity
  8
268
100
AcDbLine
 62
250
  6
CONTINUOUS
 10
6.9273931567
 20
22.5354636579
 11
6.9273931567
 21
22.3232045038
  0
LINE
  5
3E0
100
AcDbEntity
  8
268
100
AcDbLine
 62
7
  6
CONTINUOUS
 10
7.0115912166
 20
22.823317203
 11
7.0115912166
 21
22.2469257206
  0
LINE
  5
3E1
100
AcDbEntity
  8
218
100
AcDbLine
 62
250
  6
CONTINUOUS
 10
7.4154923766
 20
23.8080699087
 11
7.4154923766
 21
24.2182889516
  0
LWPOLYLINE
  5
3E2
100
AcDbEntity
  8
268
100
AcDbPolyline
 62
7
  6
CONTINUOUS
 90
16
 70
0
 10
7.0115912154
 20
22.8232998473
 10
7.0113566893
 20
22.8096258554
 10
7.0102159132
 20
22.7898606642
 10
7.0081715816
 20
22.7700070136
 10
7.0052804166
 20
22.7500712297
 10
7.0015916524
 20
22.7300889934
 10
6.9971316885
 20
22.7101271718
 10
6.9919388302
 20
22.6902064542
 10
6.986056173
 20
22.6703387027
 10
6.9794956388
 20
22.6505784766
 10
6.9722887357
 20
22.6309414099
 10
6.96447159
 20
22.6114394454
 10
6.9560476506
 20
22.5921238464
 10
6.9470347592
 20
22.57302112
 10
6.9374729138
 20
22.5541306261
 10
6.9273931567
 20
22.5354636579
  0
LINE
  5
3E3
100
AcDbEntity
  8
PREM_14013
100
AcDbLine
 62
7
  6
CONTINUOUS
 10
10.2605532797
 20
22.6048005453
 11
10.2916066289
 21
22.8600436106
  0
LINE
  5
3E4
100
AcDbEntity
  8
PREM_14013
100
AcDbLine
 62
7
  6
CONTINUOUS
 10
9.8241452748
 20
22.4670957017
 11
9.9767952807
 21
23.4496417745
  0
LWPOLYLINE
  5
3E5
100
AcDbEntity
  8
RACCORDO
100
AcDbPolyline
 62
250
  6
CONTINUOUS
 90
5
 70
0
 10
17.0580165942
 20
11.5561124541
 10
17.0335662587
 20
11.5208971982
 10
17.0110440203
 20
11.4843765376
 10
16.9903257022
 20
11.4462787715
 10
16.9715354812
 20
11.4068756006
  0
LINE
  5
3E6
100
AcDbEntity
  8
RACCORDO
100
AcDbLine
 62
250
  6
CONTINUOUS
 10
17.0843950268
 20
11.590022305
 11
17.0580165942
 21
11.5561124541
  0
LWPOLYLINE
  5
3E7
100
AcDbEntity
  8
RACCORDO
100
AcDbPolyline
 62
7
  6
CONTINUOUS
 90
13
 70
0
 10
17.1001373696
 20
11.5189226595
 10
17.0827899971
 20
11.4967001074
 10
17.0660579216
 20
11.4725748486
 10
17.0502391927
 20
11.44684095
 10
17.0355643952
 20
11.4197541559
 10
17.0223244907
 20
11.3917671198
 10
17.010819585
 20
11.36354351
 10
17.0011624446
 20
11.3355142123
 10
16.9934115888
 20
11.308097207
 10
16.9876243458
 20
11.2819601453
 10
16.9837179841
 20
11.2575688253
 10
16.9815225624
 20
11.2351651719
 10
16.9808416362
 20
11.215022305
  0
LINE
  5
3E8
100
AcDbEntity
  8
RACCORDO
100
AcDbLine
 62
250
  6
CONTINUOUS
 10
17.0843950268
 20
11.590022305
 11
17.6147251126
 21
12.230187348
  0
LINE
  5
3E9
100
AcDbEntity
  8
RACCORDO
100
AcDbLine
 62
7
  6
CONTINUOUS
 10
17.1001373696
 20
11.5189226595
 11
17.6304674554
 21
12.1590877024
  0
LINE
  5
3EA
100
AcDbEntity
  8
RACCORDO
100
AcDbLine
 62
7
  6
CONTINUOUS
 10
18.1450551985
 20
8.7603009633
 11
22.2579829264
 21
12.6734699196
  0
LINE
  5
3EB
100
AcDbEntity
  8
RACCORDO
100
AcDbLine
 62
250
  6
CONTINUOUS
 10
22.3436652812
 20
12.9219146502
 11
18.1450551985
 21
8.9455859126
  0
LWPOLYLINE
  5
3EC
100
AcDbEntity
  8
218
100
AcDbPolyline
 62
250
  6
CONTINUOUS
 90
73
 70
0
 10
18.1450551985
 20
5.0711500439
 10
18.159864947
 20
5.0835371416
 10
18.1886270212
 20
5.1092446089
 10
18.2166988656
 20
5.1360244683
 10
18.244068206
 20
5.1638650063
 10
18.2707231115
 20
5.1927540822
 10
18.2966519703
 20
5.2226791108
 10
18.3218434765
 20
5.2536270487
 10
18.3462866112
 20
5.2855843641
 10
18.3699706762
 20
5.3185370699
 10
18.3928853159
 20
5.3524707525
 10
18.4150205422
 20
5.3873706155
 10
18.4363667124
 20
5.4232214556
 10
18.4569145181
 20
5.4600076449
 10
18.4766549715
 20
5.4977130987
 10
18.4955794335
 20
5.5363213162
 10
18.5136796309
 20
5.5758154126
 10
18.5309476737
 20
5.6161781658
 10
18.5473760377
 20
5.6573919886
 10
18.5629575572
 20
5.6994389109
 10
18.5776854178
 20
5.7423005503
 10
18.5915531762
 20
5.7859581564
 10
18.6045547719
 20
5.8303926422
 10
18.6166845361
 20
5.875584627
 10
18.6279371809
 20
5.9215144098
 10
18.6383077965
 20
5.9681619564
 10
18.6477918485
 20
6.0155068796
 10
18.6563851904
 20
6.0635284791
 10
18.6640840681
 20
6.1122057697
 10
18.6708851237
 20
6.161517512
 10
18.6767853903
 20
6.2114421952
 10
18.6817822924
 20
6.2619580316
 10
18.685873646
 20
6.3130429527
 10
18.6890576636
 20
6.3646746392
 10
18.6913329549
 20
6.4168305403
 10
18.692698527
 20
6.469487888
 10
18.6931537839
 20
6.5226236942
 10
18.6926985269
 20
6.5762147574
 10
18.6913329547
 20
6.6302376772
 10
18.6890576633
 20
6.6846688696
 10
18.6858736455
 20
6.7394845739
 10
18.6817822918
 20
6.7946608487
 10
18.6767853896
 20
6.8501735872
 10
18.6708851228
 20
6.905998537
 10
18.6640840672
 20
6.9621113349
 10
18.6563851894
 20
7.0184875032
 10
18.6477918474
 20
7.0751024447
 10
18.6383077951
 20
7.13193142
 10
18.6279371795
 20
7.1889495822
 10
18.6166845345
 20
7.2461320099
 10
18.6045547703
 20
7.3034537588
 10
18.5915531745
 20
7.3608898404
 10
18.5776854159
 20
7.4184152049
 10
18.5629575552
 20
7.4760047049
 10
18.5473760356
 20
7.5336331467
 10
18.5309476715
 20
7.5912753335
 10
18.5136796286
 20
7.6489061296
 10
18.4955794311
 20
7.7065004235
 10
18.4766549689
 20
7.7640331029
 10
18.4569145155
 20
7.8214790101
 10
18.4363667097
 20
7.8788130051
 10
18.4150205393
 20
7.9360100155
 10
18.3928853129
 20
7.9930451048
 10
18.3699706731
 20
8.0498934271
 10
18.346286608
 20
8.1065301979
 10
18.3218434732
 20
8.1629306479
 10
18.296651967
 20
8.2190700919
 10
18.270723108
 20
8.2749239794
 10
18.2440682024
 20
8.3304679608
 10
18.2166988619
 20
8.3856778392
 10
18.1886270174
 20
8.440529543
 10
18.1598649432
 20
8.4949990844
 10
18.1450551985
 20
8.5221959234
  0
LWPOLYLINE
  5
3ED
100
AcDbEntity
  8
RACCORDO
100
AcDbPolyline
 62
7
  6
CONTINUOUS
 90
3
 70
0
 10
-14.9767940372
 20
-13.3331796239
 10
-15.033885339
 20
-13.3601154402
 10
-15.0440054402
 20
-13.3638914925
  0
LINE
  5
3EE
100
AcDbEntity
  8
ASSI
100
AcDbLine
 62
7
  6
CONTINUOUS
 10
-14.9774076986
 20
-13.3335494525
 11
-15.0611302576
 21
-13.3697012663
  0
LWPOLYLINE
  5
3EF
100
AcDbEntity
  8
RACCORDO
100
AcDbPolyline
 62
250
  6
CONTINUOUS
 90
45
 70
0
 10
-15.2499142851
 20
-13.2190753117
 10
-15.228359499
 20
-13.2108339365
 10
-15.1933858639
 20
-13.1945784492
 10
-15.159813255
 20
-13.1752821485
 10
-15.1277145704
 20
-13.1530082224
 10
-15.0971412938
 20
-13.1277985918
 10
-15.0681788696
 20
-13.0997152897
 10
-15.0409479435
 20
-13.0688663963
 10
-15.0155505261
 20
-13.0353652164
 10
-14.9920728647
 20
-12.9993258794
 10
-14.970593455
 20
-12.9608692724
 10
-14.9511895512
 20
-12.9201362701
 10
-14.9339350726
 20
-12.8772937496
 10
-14.9188734631
 20
-12.8324627248
 10
-14.9060345589
 20
-12.7857182189
 10
-14.8954617002
 20
-12.7371626788
 10
-14.8872137453
 20
-12.6869989308
 10
-14.8813343316
 20
-12.6354593883
 10
-14.8778446603
 20
-12.5827393596
 10
-14.8767542407
 20
-12.5289984293
 10
-14.8780667262
 20
-12.4744277124
 10
-14.881776299
 20
-12.4192192718
 10
-14.8878695903
 20
-12.3635544522
 10
-14.8963269735
 20
-12.3076116404
 10
-14.9071218963
 20
-12.2515732789
 10
-14.920217288
 20
-12.1956371446
 10
-14.9355657887
 20
-12.1400048516
 10
-14.9531117592
 20
-12.0848730343
 10
-14.9727968455
 20
-12.0304206447
 10
-14.994558463
 20
-11.9768204727
 10
-15.0183272993
 20
-11.9242463537
 10
-15.0440198474
 20
-11.8728858484
 10
-15.0715419146
 20
-11.8229266816
 10
-15.1007931987
 20
-11.7745471393
 10
-15.1316788535
 20
-11.7279005311
 10
-15.1641042749
 20
-11.6831296953
 10
-15.197982969
 20
-11.6403599651
 10
-15.2331795357
 20
-11.5997679333
 10
-15.2695139808
 20
-11.5615538326
 10
-15.3068188253
 20
-11.5258723316
 10
-15.3450008647
 20
-11.4927917591
 10
-15.383985422
 20
-11.462369131
 10
-15.4236608492
 20
-11.4346936616
 10
-15.4638747304
 20
-11.409873717
 10
-15.5044916993
 20
-11.3879925371
  0
LINE
  5
3F0
100
AcDbEntity
  8
RACCORDO
100
AcDbLine
 62
7
  6
CONTINUOUS
 10
-15.0435519885
 20
-13.3637549877
 11
-15.0439858193
 21
-13.3639111379
  0
LINE
  5
3F1
100
AcDbEntity
  8
DRAFT
100
AcDbLine
 62
7
  6
CONTINUOUS
 10
-15.2499142838
 20
-13.2190753113
 11
-14.7389200642
 21
-13.0389214044
  0
LINE
  5
3F2
100
AcDbEntity
  8
ASSI
100
AcDbLine
 62
250
  6
CONTINUOUS
 10
-15.0435519885
 20
-13.3637549877
 11
-15.0610423684
 21
-13.369694746
  0
LWPOLYLINE
  5
3F3
100
AcDbEntity
  8
RACCORDO
100
AcDbPolyline
 62
7
  6
CONTINUOUS
 90
13
 70
0
 10
-15.2499142826
 20
-13.2190753108
 10
-15.2841274866
 20
-13.229763459
 10
-15.3192626408
 20
-13.2380092806
 10
-15.3552191473
 20
-13.2437557005
 10
-15.3918719724
 20
-13.246953775
 10
-15.4291354808
 20
-13.2475691122
 10
-15.4669711534
 20
-13.2455666043
 10
-15.5053179527
 20
-13.2409049312
 10
-15.5440316749
 20
-13.2335576616
 10
-15.5829578206
 20
-13.2235198461
 10
-15.6219798602
 20
-13.2107937827
 10
-15.6610146445
 20
-13.1953778304
 10
-15.6999617087
 20
-13.1772799336
  0
LWPOLYLINE
  5
3F4
100
AcDbEntity
  8
RACCORDO
100
AcDbPolyline
 62
7
  6
CONTINUOUS
 90
3
 70
0
 10
-15.9221253471
 20
-11.1293146717
 10
-15.8791681185
 20
-11.1162404244
 10
-15.8243041471
 20
-11.1059587662
  0
LWPOLYLINE
  5
3F5
100
AcDbEntity
  8
ASSI
100
AcDbPolyline
 62
250
  6
CONTINUOUS
 90
4
 70
0
 10
-16.0273903512
 20
-11.064529567
 10
-15.9567005243
 20
-11.044064804
 10
-15.8828551773
 20
-11.0331759986
 10
-15.8059672953
 20
-11.0316383276
  0
LINE
  5
3F6
100
AcDbEntity
  8
RACCORDO
100
AcDbLine
 62
250
  6
CONTINUOUS
 10
17.6255285405
 20
-28.8799867175
 11
17.6157779646
 21
-28.8512444201
  0
LINE
  5
3F7
100
AcDbEntity
  8
218
100
AcDbLine
 62
7
  6
CONTINUOUS
 10
8.0982025746
 20
24.1505280009
 11
8.0982025746
 21
23.717515299
  0
LINE
  5
3F8
100
AcDbEntity
  8
PREM_14013
100
AcDbLine
 62
7
  6
CONTINUOUS
 10
9.3289725547
 20
22.7747908577
 11
9.3289725547
 21
22.4559222957
  0
LINE
  5
3F9
100
AcDbEntity
  8
218
100
AcDbLine
 62
7
  6
CONTINUOUS
 10
9.5537078071
 20
23.6472377469
 11
9.5537078071
 21
24.091105435
  0
LINE
  5
3FA
100
AcDbEntity
  8
PREM_14013
100
AcDbLine
 62
7
  6
CONTINUOUS
 10
9.6340291597
 20
22.4584324395
 11
9.6340291597
 21
22.9800351437
  0
LINE
  5
3FB
100
AcDbEntity
  8
PREM_14013
100
AcDbLine
 62
7
  6
CONTINUOUS
 10
10.2605532797
 20
22.6048005453
 11
10.2605532797
 21
22.5080965663
  0
LWPOLYLINE
  5
3FC
100
AcDbEntity
  8
RACCORDO
100
AcDbPolyline
 62
250
  6
CONTINUOUS
 90
13
 70
0
 10
7.0537709761
 20
-30.0641193612
 10
7.1743388941
 20
-27.094278891
 10
7.3219556179
 20
-24.1132492614
 10
7.4966023523
 20
-21.1214045584
 10
7.6982568772
 20
-18.119120247
 10
7.9268938193
 20
-15.1067731471
 10
8.1824846585
 20
-12.084741385
 10
8.4649974552
 20
-9.0534043962
 10
8.7743965996
 20
-6.0131426384
 10
9.1106430902
 20
-2.964337566
 10
9.4736947829
 20
0.0926281062
 10
9.8635063927
 20
3.157370449
 10
10.2800292502
 20
6.2295046082
  0
LWPOLYLINE
  5
3FD
100
AcDbEntity
  8
ASSI
100
AcDbPolyline
 62
250
  6
CONTINUOUS
 90
13
 70
0
 10
7.0537709761
 20
-30.0641193612
 10
7.1743388941
 20
-27.094278891
 10
7.3219556179
 20
-24.1132492614
 10
7.4966023523
 20
-21.1214045584
 10
7.6982568772
 20
-18.119120247
 10
7.9268938193
 20
-15.1067731471
 10
8.1824846585
 20
-12.084741385
 10
8.4649974552
 20
-9.0534043962
 10
8.7743965996
 20
-6.0131426384
 10
9.1106430902
 20
-2.964337566
 10
9.4736947829
 20
0.0926281062
 10
9.8635063927
 20
3.157370449
 10
10.2800292502
 20
6.2295046082
  0
LWPOLYLINE
  5
3FE
100
AcDbEntity
  8
RACCORDO
100
AcDbPolyline
 62
250
  6
CONTINUOUS
 90
10
 70
0
 10
8.174642399
 20
-30.0999258092
 10
8.2949179968
 20
-27.1373898854
 10
8.4421288035
 20
-24.1644385861
 10
8.6162748191
 20
-21.1810719114
 10
8.8173847264
 20
-18.1869111129
 10
9.0454298425
 20
-15.182334939
 10
9.3003241199
 20
-12.1684796346
 10
9.5820778671
 20
-9.1453414932
 10
9.8906807755
 20
-6.1129242214
 10
10.226015872
 20
-3.0723751835
  0
LWPOLYLINE
  5
3FF
100
AcDbEntity
  8
ASSI
100
AcDbPolyline
 62
250
  6
CONTINUOUS
 90
10
 70
0
 10
8.174642399
 20
-30.0999258092
 10
8.2949179968
 20
-27.1373898854
 10
8.4421288035
 20
-24.1644385861
 10
8.6162748191
 20
-21.1810719114
 10
8.8173847264
 20
-18.1869111129
 10
9.0454298425
 20
-15.182334939
 10
9.3003241199
 20
-12.1684796346
 10
9.5820778671
 20
-9.1453414932
 10
9.8906807755
 20
-6.1129242214
 10
10.226015872
 20
-3.0723751835
  0
LWPOLYLINE
  5
400
100
AcDbEntity
  8
RACCORDO
100
AcDbPolyline
 62
250
  6
CONTINUOUS
 90
3
 70
0
 10
10.226015872
 20
-3.0723751835
 10
10.5880441658
 20
-0.0240768342
 10
10.9768046476
 20
3.0323532813
  0
LWPOLYLINE
  5
401
100
AcDbEntity
  8
ASSI
100
AcDbPolyline
 62
250
  6
CONTINUOUS
 90
3
 70
0
 10
10.226015872
 20
-3.0723751835
 10
10.5880441658
 20
-0.0240768342
 10
10.9768046476
 20
3.0323532813
  0
LINE
  5
402
100
AcDbEntity
  8
RACCORDO
100
AcDbLine
 62
250
  6
CONTINUOUS
 10
10.9768046476
 20
3.0323532813
 11
11.3922973177
 21
6.096915163
  0
LINE
  5
403
100
AcDbEntity
  8
ASSI
100
AcDbLine
 62
250
  6
CONTINUOUS
 10
10.9768046476
 20
3.0323532813
 11
11.3922973177
 21
6.096915163
  0
LWPOLYLINE
  5
404
100
AcDbEntity
  8
RACCORDO
100
AcDbPolyline
 62
250
  6
CONTINUOUS
 90
19
 70
0
 10
10.2800292502
 20
6.2295046082
 10
10.2993821415
 20
6.3437000394
 10
10.3257683883
 20
6.4590521049
 10
10.3590088872
 20
6.5747743671
 10
10.3988807912
 20
6.6900781559
 10
10.4451115066
 20
6.8041766054
 10
10.4973797633
 20
6.9162902081
 10
10.5553302855
 20
7.0256506044
 10
10.6185707087
 20
7.1315158626
 10
10.6866670458
 20
7.2331736949
 10
10.7591597267
 20
7.3299295584
 10
10.8355578616
 20
7.4211230834
 10
10.915337527
 20
7.5061413651
 10
10.9979629131
 20
7.5844041978
 10
11.0828730243
 20
7.6553726767
 10
11.1694776576
 20
7.7185641481
 10
11.2571858931
 20
7.7735469007
 10
11.345410329
 20
7.8199421762
 10
11.433554617
 20
7.8574310044
  0
LWPOLYLINE
  5
405
100
AcDbEntity
  8
ASSI
100
AcDbPolyline
 62
250
  6
CONTINUOUS
 90
19
 70
0
 10
10.2800292502
 20
6.2295046082
 10
10.2993821415
 20
6.3437000394
 10
10.3257683883
 20
6.4590521049
 10
10.3590088872
 20
6.5747743671
 10
10.3988807912
 20
6.6900781559
 10
10.4451115066
 20
6.8041766054
 10
10.4973797633
 20
6.9162902081
 10
10.5553302855
 20
7.0256506044
 10
10.6185707087
 20
7.1315158626
 10
10.6866670458
 20
7.2331736949
 10
10.7591597267
 20
7.3299295584
 10
10.8355578616
 20
7.4211230834
 10
10.915337527
 20
7.5061413651
 10
10.9979629131
 20
7.5844041978
 10
11.0828730243
 20
7.6553726767
 10
11.1694776576
 20
7.7185641481
 10
11.2571858931
 20
7.7735469007
 10
11.345410329
 20
7.8199421762
 10
11.433554617
 20
7.8574310044
  0
LWPOLYLINE
  5
406
100
AcDbEntity
  8
RACCORDO
100
AcDbPolyline
 62
250
  6
CONTINUOUS
 90
19
 70
0
 10
11.3922973177
 20
6.096915163
 10
11.4014538143
 20
6.1504913708
 10
11.4137461833
 20
6.2039599571
 10
11.4291744246
 20
6.2573209219
 10
11.4478900745
 20
6.3109672782
 10
11.4697415966
 20
6.3645060129
 10
11.4942743821
 20
6.416758087
 10
11.5215402014
 20
6.4676681673
 10
11.5514872841
 20
6.517291587
 10
11.5835057101
 20
6.5646153064
 10
11.6176378551
 20
6.6095901411
 10
11.6538413435
 20
6.6522652755
 10
11.6913791287
 20
6.6917752242
 10
11.7303027787
 20
6.7280640634
 10
11.7705607256
 20
6.7611877169
 10
11.8112612192
 20
6.7904484698
 10
11.8521070095
 20
6.8156137505
 10
11.8933953466
 20
6.8369161307
 10
11.9351262305
 20
6.8543556104
  0
LWPOLYLINE
  5
407
100
AcDbEntity
  8
ASSI
100
AcDbPolyline
 62
250
  6
CONTINUOUS
 90
19
 70
0
 10
11.3922973177
 20
6.096915163
 10
11.4014538143
 20
6.1504913708
 10
11.4137461833
 20
6.2039599571
 10
11.4291744246
 20
6.2573209219
 10
11.4478900745
 20
6.3109672782
 10
11.4697415966
 20
6.3645060129
 10
11.4942743821
 20
6.416758087
 10
11.5215402014
 20
6.4676681673
 10
11.5514872841
 20
6.517291587
 10
11.5835057101
 20
6.5646153064
 10
11.6176378551
 20
6.6095901411
 10
11.6538413435
 20
6.6522652755
 10
11.6913791287
 20
6.6917752242
 10
11.7303027787
 20
6.7280640634
 10
11.7705607256
 20
6.7611877169
 10
11.8112612192
 20
6.7904484698
 10
11.8521070095
 20
6.8156137505
 10
11.8933953466
 20
6.8369161307
 10
11.9351262305
 20
6.8543556104
  0
LWPOLYLINE
  5
408
100
AcDbEntity
  8
RACCORDO
100
AcDbPolyline
 62
250
  6
CONTINUOUS
 90
12
 70
0
 10
15.4934047691
 20
11.1695271762
 10
15.4804598347
 20
11.1402471538
 10
15.4647137137
 20
11.1128928637
 10
15.4464154439
 20
11.0879426218
 10
15.4258445326
 20
11.0658236372
 10
15.4033522272
 20
11.0469548136
 10
15.3793688556
 20
11.0317133451
 10
15.3543253865
 20
11.0203680702
 10
15.3286347884
 20
11.0131012491
 10
15.302739134
 20
11.0100376354
 10
15.277083306
 20
11.0112292502
 10
15.2659273212
 20
11.0131106348
  0
LWPOLYLINE
  5
409
100
AcDbEntity
  8
RACCORDO
100
AcDbPolyline
 62
250
  6
CONTINUOUS
 90
12
 70
0
 10
16.023734855
 20
11.0596922191
 10
16.0106855114
 20
11.0302062354
 10
15.9948347474
 20
11.0027371142
 10
15.976453774
 20
10.9777548598
 10
15.9558570948
 20
10.9556869254
 10
15.9333971246
 20
10.9369108996
 10
15.9094581597
 20
10.9217480453
 10
15.8844498025
 20
10.9104578032
 10
15.8587999529
 20
10.9032333525
 10
15.8329474869
 20
10.9001983055
 10
15.8073347474
 20
10.9014045928
 10
15.7962574071
 20
10.9032756778
  0
LWPOLYLINE
  5
40A
100
AcDbEntity
  8
218
100
AcDbPolyline
 62
7
  6
CONTINUOUS
 90
68
 70
0
 10
18.1450551985
 20
5.9043803298
 10
18.1548938154
 20
5.916825261
 10
18.1699315382
 20
5.9362704534
 10
18.1842228223
 20
5.9551952496
 10
18.1977659634
 20
5.9735975926
 10
18.2106150448
 20
5.9915032685
 10
18.2227712767
 20
6.0089144034
 10
18.2342334489
 20
6.0258288713
 10
18.2450520141
 20
6.04226608
 10
18.2552274251
 20
6.0582279645
 10
18.2647592291
 20
6.07371259
 10
18.2736965205
 20
6.0887335596
 10
18.2820390369
 20
6.1032927545
 10
18.2897870407
 20
6.1173882936
 10
18.2969904133
 20
6.1310281371
 10
18.3036477232
 20
6.1442129911
 10
18.309760402
 20
6.1569421496
 10
18.3153826251
 20
6.1692214545
 10
18.3205097623
 20
6.1810417639
 10
18.3251464439
 20
6.1924122196
 10
18.3293607352
 20
6.2033660887
 10
18.3331506952
 20
6.21388994
 10
18.3365182649
 20
6.2239972046
 10
18.3395373334
 20
6.2337614433
 10
18.3422132074
 20
6.2431803772
 10
18.3445405801
 20
6.2522562853
 10
18.3465774197
 20
6.2610695654
 10
18.3483311254
 20
6.2696252136
 10
18.3497942981
 20
6.2779182337
 10
18.3510027084
 20
6.2860140357
 10
18.3519626424
 20
6.2939168691
 10
18.3526678139
 20
6.3016224843
 10
18.3531351353
 20
6.3091835422
 10
18.3533702672
 20
6.3166032149
 10
18.353367549
 20
6.3238783303
 10
18.3531269111
 20
6.3310520334
 10
18.3526540038
 20
6.338127056
 10
18.3519431769
 20
6.3451006663
 10
18.3509774102
 20
6.3520078147
 10
18.3497630255
 20
6.3588506332
 10
18.3482937011
 20
6.3656269898
 10
18.3465334522
 20
6.3723654391
 10
18.3444899381
 20
6.3790683231
 10
18.3421554994
 20
6.3857332999
 10
18.3394711733
 20
6.3923818983
 10
18.3364421395
 20
6.399022511
 10
18.3330632184
 20
6.4056467454
 10
18.3292599082
 20
6.4122509522
 10
18.3250297921
 20
6.4188469224
 10
18.3203752869
 20
6.425422865
 10
18.3152291423
 20
6.4319397574
 10
18.3095869553
 20
6.4384013401
 10
18.3034531289
 20
6.4448038726
 10
18.2967736213
 20
6.4510971107
 10
18.2895471534
 20
6.4572787693
 10
18.2817750044
 20
6.4633511336
 10
18.2734069698
 20
6.469270815
 10
18.2644426461
 20
6.4750357886
 10
18.2548824369
 20
6.4806480794
 10
18.2446773477
 20
6.4860703737
 10
18.2338278916
 20
6.4913011685
 10
18.2223335555
 20
6.4963419668
 10
18.2101438052
 20
6.5011599637
 10
18.1972598458
 20
6.5057542975
 10
18.1836804722
 20
6.51012583
 10
18.1693515356
 20
6.5142443412
 10
18.154274751
 20
6.5181095423
 10
18.1450551985
 20
6.520213798
  0
LWPOLYLINE
  5
40B
100
AcDbEntity
  8
RACCORDO
100
AcDbPolyline
 62
250
  6
CONTINUOUS
 90
6
 70
0
 10
-15.0439858193
 20
-13.3639111379
 10
-15.1076624659
 20
-13.3821356107
 10
-15.1755617837
 20
-13.3921862746
 10
-15.2458072117
 20
-13.3934953121
 10
-15.3178146586
 20
-13.3860749966
 10
-15.3910106793
 20
-13.3700181044
  0
LWPOLYLINE
  5
40C
100
AcDbEntity
  8
RACCORDO
100
AcDbPolyline
 62
250
  6
CONTINUOUS
 90
4
 70
0
 10
14.4138731927
 20
11.195417288
 10
14.430607047
 20
11.1972122377
 10
14.4461676027
 20
11.2021965627
 10
14.4483780356
 20
11.2032120054
  0
LWPOLYLINE
  5
40D
100
AcDbEntity
  8
RACCORDO
100
AcDbPolyline
 62
250
  6
CONTINUOUS
 90
20
 70
0
 10
15.9549198401
 20
10.1772267006
 10
15.9730316337
 20
10.1790769929
 10
15.9922408501
 20
10.1811681302
 10
16.0124194446
 20
10.1835405407
 10
16.0328795751
 20
10.1861547931
 10
16.0532694331
 20
10.1889976292
 10
16.0736728109
 20
10.1921140403
 10
16.0939778636
 20
10.1955192998
 10
16.113913598
 20
10.1991967623
 10
16.1333110267
 20
10.2031269967
 10
16.1521778676
 20
10.2073165278
 10
16.1704045628
 20
10.2117394917
 10
16.187908344
 20
10.2163722619
 10
16.2047914104
 20
10.2212405141
 10
16.2209936186
 20
10.2263189828
 10
16.2364382522
 20
10.2315595584
 10
16.2512048509
 20
10.2369698133
 10
16.2652906864
 20
10.2425360247
 10
16.2786313146
 20
10.2482146115
 10
16.2912178231
 20
10.2539795168
  0
LWPOLYLINE
  5
40E
100
AcDbEntity
  8
RACCORDO
100
AcDbPolyline
 62
250
  6
CONTINUOUS
 90
5
 70
0
 10
15.8814129498
 20
10.1705714715
 10
15.8940824562
 20
10.1715934756
 10
15.9076256568
 20
10.1727566083
 10
15.9221455552
 20
10.174070719
 10
15.9549198401
 20
10.1772267006
  0
LWPOLYLINE
  5
40F
100
AcDbEntity
  8
RACCORDO
100
AcDbPolyline
 62
250
  6
CONTINUOUS
 90
16
 70
0
 10
10.2800435651
 20
6.2295085578
 10
10.3414888883
 20
6.2010052047
 10
10.4082382498
 20
6.1744545703
 10
10.4795764536
 20
6.1501411353
 10
10.5547391361
 20
6.1283254096
 10
10.6329209554
 20
6.1092411409
 10
10.7132842209
 20
6.09309281
 10
10.7949678683
 20
6.0800534405
 10
10.8770966862
 20
6.0702627447
 10
10.9587906931
 20
6.0638256264
 10
11.0391745665
 20
6.060811057
 10
11.1173870215
 20
6.0612513366
 10
11.1925900391
 20
6.0651417478
 10
11.2639778454
 20
6.0724406061
 10
11.3307855452
 20
6.0830697068
 10
11.3922973176
 20
6.096915163
  0
LWPOLYLINE
  5
410
100
AcDbEntity
  8
ASSI
100
AcDbPolyline
 62
250
  6
CONTINUOUS
 90
16
 70
0
 10
10.2800435651
 20
6.2295085578
 10
10.3414888883
 20
6.2010052047
 10
10.4082382498
 20
6.1744545703
 10
10.4795764536
 20
6.1501411353
 10
10.5547391361
 20
6.1283254096
 10
10.6329209554
 20
6.1092411409
 10
10.7132842209
 20
6.09309281
 10
10.7949678683
 20
6.0800534405
 10
10.8770966862
 20
6.0702627447
 10
10.9587906931
 20
6.0638256264
 10
11.0391745665
 20
6.060811057
 10
11.1173870215
 20
6.0612513366
 10
11.1925900391
 20
6.0651417478
 10
11.2639778454
 20
6.0724406061
 10
11.3307855452
 20
6.0830697068
 10
11.3922973176
 20
6.096915163
  0
LINE
  5
411
100
AcDbEntity
  8
RACCORDO
100
AcDbLine
 62
250
  6
CONTINUOUS
 10
-19.6157230117
 20
21.1773807392
 11
10.2800292502
 21
6.2295046082
  0
LINE
  5
412
100
AcDbEntity
  8
ASSI
100
AcDbLine
 62
250
  6
CONTINUOUS
 10
-19.6157230117
 20
21.1773807392
 11
10.2800292502
 21
6.2295046082
  0
LWPOLYLINE
  5
413
100
AcDbEntity
  8
RACCORDO
100
AcDbPolyline
 62
250
  6
CONTINUOUS
 90
10
 70
0
 10
-19.6157229871
 20
21.177380746
 10
-19.6712310456
 20
21.2073541706
 10
-19.7201817663
 20
21.2386537997
 10
-19.7620506497
 20
21.2709442624
 10
-19.7963890769
 20
21.3038795714
 10
-19.8228291168
 20
21.3371068298
 10
-19.8410874684
 20
21.370270012
 10
-19.8509684962
 20
21.4030137794
 10
-19.8523663266
 20
21.4349872877
 10
-19.8517659079
 20
21.4402627898
  0
LWPOLYLINE
  5
414
100
AcDbEntity
  8
ASSI
100
AcDbPolyline
 62
250
  6
CONTINUOUS
 90
10
 70
0
 10
-19.6157229871
 20
21.177380746
 10
-19.6712310456
 20
21.2073541706
 10
-19.7201817663
 20
21.2386537997
 10
-19.7620506497
 20
21.2709442624
 10
-19.7963890769
 20
21.3038795714
 10
-19.8228291168
 20
21.3371068298
 10
-19.8410874684
 20
21.370270012
 10
-19.8509684962
 20
21.4030137794
 10
-19.8523663266
 20
21.4349872877
 10
-19.8518231788
 20
21.439838992
  0
LINE
  5
415
100
AcDbEntity
  8
218
100
AcDbLine
 62
250
  6
CONTINUOUS
 10
-0.4031147597
 20
28.9527553708
 11
-0.0091288258
 21
27.9305995528
  0
LINE
  5
416
100
AcDbEntity
  8
PREM_14013
100
AcDbLine
 62
7
  6
CONTINUOUS
 10
0.9941541462
 20
26.2458118784
 11
0.7926547882
 21
26.8415363042
  0
LWPOLYLINE
  5
417
100
AcDbEntity
  8
RACCORDO
100
AcDbPolyline
 62
250
  6
CONTINUOUS
 90
7
 70
0
 10
13.7231251895
 20
-29.3699371734
 10
13.7252639742
 20
-29.3862529474
 10
13.731643733
 20
-29.4022895541
 10
13.7421553064
 20
-29.4177726025
 10
13.7566188386
 20
-29.4324371734
 10
13.7747868545
 20
-29.446032352
 10
13.7963484942
 20
-29.4583255211
  0
LWPOLYLINE
  5
418
100
AcDbEntity
  8
RACCORDO
100
AcDbPolyline
 62
250
  6
CONTINUOUS
 90
7
 70
0
 10
14.4302319707
 20
-28.2663837828
 10
14.4323707554
 20
-28.2826995568
 10
14.4387505141
 20
-28.2987361635
 10
14.4492620876
 20
-28.3142192119
 10
14.4637256198
 20
-28.3288837828
 10
14.4818936356
 20
-28.3424789614
 10
14.5034552754
 20
-28.3547721305
  0
LWPOLYLINE
  5
419
100
AcDbEntity
  8
RACCORDO
100
AcDbPolyline
 62
250
  6
CONTINUOUS
 90
7
 70
0
 10
13.7231253479
 20
-29.7213918381
 10
13.7251626589
 20
-29.7371774084
 10
13.7314885205
 20
-29.7533124937
 10
13.7419906705
 20
-29.7688873557
 10
13.7564812097
 20
-29.7836318035
 10
13.774706637
 20
-29.7972940249
 10
13.7963484942
 20
-29.8096394931
  0
LINE
  5
41A
100
AcDbEntity
  8
RACCORDO
100
AcDbLine
 62
7
  6
CONTINUOUS
 10
13.5964221922
 20
-18.5150027939
 11
14.1697460762
 21
-23.8588281521
  0
LINE
  5
41B
100
AcDbEntity
  8
RACCORDO
100
AcDbLine
 62
250
  6
CONTINUOUS
 10
11.6063479522
 20
13.9585416015
 11
11.6063479522
 21
12.7612225659
  0
LINE
  5
41C
100
AcDbEntity
  8
218
100
AcDbLine
 62
7
  6
CONTINUOUS
 10
11.6379291412
 20
26.2530761488
 11
11.6379291412
 21
25.9261101011
  0
LINE
  5
41D
100
AcDbEntity
  8
RACCORDO
100
AcDbLine
 62
250
  6
CONTINUOUS
 10
12.3154851793
 20
13.9595626886
 11
12.3154851793
 21
12.7546418559
  0
LINE
  5
41E
100
AcDbEntity
  8
RACCORDO
100
AcDbLine
 62
7
  6
CONTINUOUS
 10
12.7356883225
 20
19.3248197452
 11
12.7356883225
 21
18.4244646445
  0
LWPOLYLINE
  5
41F
100
AcDbEntity
  8
RACCORDO
100
AcDbPolyline
 62
250
  6
CONTINUOUS
 90
6
 70
0
 10
16.9408902887
 20
11.3265856477
 10
16.9290353172
 20
11.2856988657
 10
16.9197533936
 20
11.2451749852
 10
16.913135325
 20
11.2052984077
 10
16.9090903043
 20
11.1657847318
 10
16.9076183315
 20
11.1266339574
  0
LWPOLYLINE
  5
420
100
AcDbEntity
  8
RACCORDO
100
AcDbPolyline
 62
250
  6
CONTINUOUS
 90
3
 70
0
 10
16.9715354812
 20
11.4068756006
 10
16.9550458868
 20
11.3669821264
 10
16.9408902887
 20
11.3265856477
  0
LINE
  5
421
100
AcDbEntity
  8
RACCORDO
100
AcDbLine
 62
250
  6
CONTINUOUS
 10
17.1573010074
 20
10.7445885275
 11
17.1657956957
 21
10.7638075499
  0
LWPOLYLINE
  5
422
100
AcDbEntity
  8
RACCORDO
100
AcDbPolyline
 62
250
  6
CONTINUOUS
 90
4
 70
0
 10
16.9932144761
 20
10.8564445532
 10
16.9769087729
 20
10.8584488047
 10
16.9618100138
 20
10.8635494012
 10
16.9595969686
 20
10.8646110265
  0
LINE
  5
423
100
AcDbEntity
  8
RACCORDO
100
AcDbLine
 62
250
  6
CONTINUOUS
 10
-18.4791366759
 20
22.8137766508
 11
11.433554617
 21
7.8574310044
  0
LINE
  5
424
100
AcDbEntity
  8
ASSI
100
AcDbLine
 62
250
  6
CONTINUOUS
 10
-18.4791366759
 20
22.8137766508
 11
11.433554617
 21
7.8574310044
  0
LWPOLYLINE
  5
425
100
AcDbEntity
  8
RACCORDO
100
AcDbPolyline
 62
250
  6
CONTINUOUS
 90
16
 70
0
 10
11.433554617
 20
7.8574310044
 10
11.4913406624
 20
7.8235589152
 10
11.5479000371
 20
7.7822080808
 10
11.6026133049
 20
7.7338313742
 10
11.654881248
 20
7.6789586151
 10
11.7041314298
 20
7.6181907683
 10
11.7498244643
 20
7.5521933611
 10
11.7914599231
 20
7.4816891949
 10
11.8285818161
 20
7.4074504286
 10
11.8607835856
 20
7.3302901227
 10
11.8877125591
 20
7.2510533342
 10
11.9090738112
 20
7.1706078614
 10
11.9246333945
 20
7.0898347404
 10
11.9342209008
 20
7.0096185956
 10
11.9377313282
 20
6.9308379513
 10
11.9351262305
 20
6.8543556104
  0
LWPOLYLINE
  5
426
100
AcDbEntity
  8
ASSI
100
AcDbPolyline
 62
250
  6
CONTINUOUS
 90
16
 70
0
 10
11.433554617
 20
7.8574310044
 10
11.4913406624
 20
7.8235589152
 10
11.5479000371
 20
7.7822080808
 10
11.6026133049
 20
7.7338313742
 10
11.654881248
 20
7.6789586151
 10
11.7041314298
 20
7.6181907683
 10
11.7498244643
 20
7.5521933611
 10
11.7914599231
 20
7.4816891949
 10
11.8285818161
 20
7.4074504286
 10
11.8607835856
 20
7.3302901227
 10
11.8877125591
 20
7.2510533342
 10
11.9090738112
 20
7.1706078614
 10
11.9246333945
 20
7.0898347404
 10
11.9342209008
 20
7.0096185956
 10
11.9377313282
 20
6.9308379513
 10
11.9351262305
 20
6.8543556104
  0
LWPOLYLINE
  5
427
100
AcDbEntity
  8
RACCORDO
100
AcDbPolyline
 62
250
  6
CONTINUOUS
 90
7
 70
0
 10
4.2504069482
 20
18.9123464302
 10
4.2603705817
 20
18.8945206918
 10
4.2671965435
 20
18.8784524431
 10
4.2707476023
 20
18.8644268654
 10
4.2709399813
 20
18.852689526
 10
4.2677439819
 20
18.8434688554
 10
4.2661665612
 20
18.8412676609
  0
LWPOLYLINE
  5
428
100
AcDbEntity
  8
RACCORDO
100
AcDbPolyline
 62
250
  6
CONTINUOUS
 90
7
 70
0
 10
3.7200768623
 20
18.2721813872
 10
3.7301015076
 20
18.254232398
 10
3.7369299302
 20
18.2381028701
 10
3.7404452939
 20
18.2240687841
 10
3.7405874498
 20
18.2123702673
 10
3.7373539656
 20
18.2032074845
 10
3.7358192051
 20
18.2010817417
  0
LINE
  5
429
100
AcDbEntity
  8
DRAFT
100
AcDbLine
 62
7
  6
CONTINUOUS
 10
14.6916981939
 20
-10.1754371168
 11
16.454349165
 21
-26.6047177028
  0
LWPOLYLINE
  5
42A
100
AcDbEntity
  8
RACCORDO
100
AcDbPolyline
 62
250
  6
CONTINUOUS
 90
3
 70
0
 10
17.6352581457
 20
-28.9421996507
 10
17.6320621464
 20
-28.9104866748
 10
17.6255285405
 20
-28.8799867175
  0
LWPOLYLINE
  5
42B
100
AcDbEntity
  8
RACCORDO
100
AcDbPolyline
 62
250
  6
CONTINUOUS
 90
8
 70
0
 10
14.4302319707
 20
11.2293244091
 10
14.4305873442
 20
11.2229131447
 10
14.4333129374
 20
11.2104544196
 10
14.4387097071
 20
11.198125295
 10
14.4467278627
 20
11.1860721535
 10
14.4573137011
 20
11.174395802
 10
14.4703853741
 20
11.1632205225
 10
14.4858156673
 20
11.1526896264
  0
LWPOLYLINE
  5
42C
100
AcDbEntity
  8
RACCORDO
100
AcDbPolyline
 62
250
  6
CONTINUOUS
 90
13
 70
0
 10
16.9076183315
 20
-28.672970182
 10
16.9090808165
 20
-28.7105778096
 10
16.9131120959
 20
-28.745990711
 10
16.9197121697
 20
-28.7792088861
 10
16.9289671678
 20
-28.8104257854
 10
16.9407909603
 20
-28.8394479584
 10
16.9549251573
 20
-28.8656950544
 10
16.9714072225
 20
-28.8891276408
 10
16.9901996922
 20
-28.9097851502
 10
17.0109317856
 20
-28.9272055295
 10
17.033479909
 20
-28.9412347612
 10
17.057967656
 20
-28.9520268628
 10
17.0843950268
 20
-28.9595818344
  0
LWPOLYLINE
  5
42D
100
AcDbEntity
  8
RACCORDO
100
AcDbPolyline
 62
7
  6
CONTINUOUS
 90
15
 70
0
 10
12.7356883225
 20
19.3248197452
 10
12.7349044895
 20
19.3529474009
 10
12.732640013
 20
19.3799740252
 10
12.7288948932
 20
19.405899618
 10
12.723640494
 20
19.4308254773
 10
12.7169054513
 20
19.4546503051
 10
12.7087756731
 20
19.4770702075
 10
12.6992332929
 20
19.4980671876
 10
12.6882961771
 20
19.5176592422
 10
12.6761038325
 20
19.5355964679
 10
12.6626401797
 20
19.5518576665
 10
12.647921298
 20
19.5664640363
 10
12.6321349319
 20
19.5792292677
 10
12.6152674071
 20
19.5901297762
 10
12.6057439326
 20
19.5952555439
  0
LWPOLYLINE
  5
42E
100
AcDbEntity
  8
RACCORDO
100
AcDbPolyline
 62
7
  6
CONTINUOUS
 90
15
 70
0
 10
15.2105620566
 20
18.411957738
 10
15.2090301751
 20
18.4675894858
 10
15.2046009918
 20
18.5210747954
 10
15.1972745069
 20
18.5724136669
 10
15.1869959283
 20
18.6218025584
 10
15.173820048
 20
18.6690450117
 10
15.1579112421
 20
18.7135516524
 10
15.1392352734
 20
18.7552882074
 10
15.1178263791
 20
18.7942889497
 10
15.0939516464
 20
18.8300673247
 10
15.0675801841
 20
18.8625829637
 10
15.0387428834
 20
18.8918762353
 10
15.0077995047
 20
18.9175816906
 10
14.9747236639
 20
18.9396543828
 10
14.9506897438
 20
18.9528211011
  0
LINE
  5
42F
100
AcDbEntity
  8
RACCORDO
100
AcDbLine
 62
250
  6
CONTINUOUS
 10
13.7231251895
 20
-29.7212511455
 11
13.7231253479
 21
-29.7213918381
  0
LINE
  5
430
100
AcDbEntity
  8
RACCORDO
100
AcDbLine
 62
7
  6
CONTINUOUS
 10
13.7231251895
 20
-29.7212511455
 11
13.7231251895
 21
-29.3699371734
  0
LINE
  5
431
100
AcDbEntity
  8
RACCORDO
100
AcDbLine
 62
7
  6
CONTINUOUS
 10
13.7231251895
 20
11.929666966
 11
13.7231251895
 21
12.280980938
  0
LINE
  5
432
100
AcDbEntity
  8
RACCORDO
100
AcDbLine
 62
250
  6
CONTINUOUS
 10
13.7963484942
 20
-29.8096394931
 11
13.7963484942
 21
-29.4583255211
  0
LINE
  5
433
100
AcDbEntity
  8
RACCORDO
100
AcDbLine
 62
250
  6
CONTINUOUS
 10
13.7963484942
 20
11.8412786183
 11
13.7963484942
 21
12.1925925904
  0
LINE
  5
434
100
AcDbEntity
  8
RACCORDO
100
AcDbLine
 62
7
  6
CONTINUOUS
 10
14.4302319707
 20
-28.2663837828
 11
14.4302319707
 21
-28.2011139031
  0
LINE
  5
435
100
AcDbEntity
  8
RACCORDO
100
AcDbLine
 62
7
  6
CONTINUOUS
 10
14.4302319707
 20
11.2293249771
 11
14.4302319707
 21
11.4216050782
  0
LINE
  5
436
100
AcDbEntity
  8
RACCORDO
100
AcDbLine
 62
250
  6
CONTINUOUS
 10
14.5034552754
 20
-28.3547721305
 11
14.5034552754
 21
-28.2377255554
  0
LINE
  5
437
100
AcDbEntity
  8
RACCORDO
100
AcDbLine
 62
250
  6
CONTINUOUS
 10
14.5034552754
 20
11.1429285491
 11
14.5034552754
 21
11.3849934258
  0
LINE
  5
438
100
AcDbEntity
  8
RACCORDO
100
AcDbLine
 62
250
  6
CONTINUOUS
 10
15.1398513785
 20
11.5208411483
 11
15.1398513785
 21
11.1695271762
  0
LINE
  5
439
100
AcDbEntity
  8
RACCORDO
100
AcDbLine
 62
250
  6
CONTINUOUS
 10
15.1398513785
 20
-30.1300769632
 11
15.1398513785
 21
-30.4813909353
  0
LINE
  5
43A
100
AcDbEntity
  8
RACCORDO
100
AcDbLine
 62
7
  6
CONTINUOUS
 10
15.2105620566
 20
18.411957738
 11
15.2105620566
 21
18.2168447929
  0
LINE
  5
43B
100
AcDbEntity
  8
RACCORDO
100
AcDbLine
 62
250
  6
CONTINUOUS
 10
15.4934047691
 20
11.5208411483
 11
15.4934047691
 21
11.1695271762
  0
LINE
  5
43C
100
AcDbEntity
  8
RACCORDO
100
AcDbLine
 62
250
  6
CONTINUOUS
 10
15.4934047691
 20
-30.1300769632
 11
15.4934047691
 21
-30.4813909353
  0
LINE
  5
43D
100
AcDbEntity
  8
RACCORDO
100
AcDbLine
 62
7
  6
CONTINUOUS
 10
14.4300269055
 20
11.2231429997
 11
14.430236385
 21
11.2294982957
  0
LWPOLYLINE
  5
43E
100
AcDbEntity
  8
RACCORDO
100
AcDbPolyline
 62
250
  6
CONTINUOUS
 90
10
 70
0
 10
13.7963484942
 20
-29.4583255211
 10
13.7975074595
 20
-29.4329948896
 10
13.8009930716
 20
-29.4067000788
 10
13.806794761
 20
-29.3797792481
 10
13.8148853296
 20
-29.3525417156
 10
13.8251806445
 20
-29.3254036765
 10
13.8375039764
 20
-29.2988761492
 10
13.8516609126
 20
-29.2733650076
 10
13.8674772292
 20
-29.2491732429
 10
13.8847368419
 20
-29.2266313472
  0
LINE
  5
43F
100
AcDbEntity
  8
RACCORDO
100
AcDbLine
 62
7
  6
CONTINUOUS
 10
15.9836180128
 20
8.3396319241
 11
12.6456486099
 21
-29.2106805554
  0
LINE
  5
440
100
AcDbEntity
  8
ASSI
100
AcDbLine
 62
7
  6
CONTINUOUS
 10
15.9836180128
 20
8.3396319241
 11
12.6456486099
 21
-29.2106805554
  0
LINE
  5
441
100
AcDbEntity
  8
DRAFT
100
AcDbLine
 62
7
  6
CONTINUOUS
 10
16.454349165
 20
7.956015726
 11
14.6916981939
 21
-10.1754371168
  0
LWPOLYLINE
  5
442
100
AcDbEntity
  8
218
100
AcDbPolyline
 62
7
  6
CONTINUOUS
 90
16
 70
0
 10
16.9548754415
 20
18.3569492126
 10
16.9459142682
 20
18.3551820039
 10
16.937092202
 20
18.3538286366
 10
16.9284092429
 20
18.3528891108
 10
16.9198549174
 20
18.3523649826
 10
16.9114396989
 20
18.352254696
 10
16.9031950079
 20
18.3525535824
 10
16.8951246688
 20
18.3532684427
 10
16.8872248572
 20
18.3543924761
 10
16.8795155198
 20
18.3559006119
 10
16.8720023243
 20
18.3577985255
 10
16.864679603
 20
18.3600805415
 10
16.8575502999
 20
18.3627045638
 10
16.8506153962
 20
18.3656565604
 10
16.8438739107
 20
18.3689505634
 10
16.8373258434
 20
18.3725865726
  0
LINE
  5
443
100
AcDbEntity
  8
0
100
AcDbLine
 62
7
  6
CONTINUOUS
 10
15.2105620566
 20
18.2168447929
 11
13.363291153
 21
17.8994271238
  0
LINE
  5
444
100
AcDbEntity
  8
RACCORDO
100
AcDbLine
 62
7
  6
CONTINUOUS
 10
15.2659273212
 20
11.0131106348
 11
15.7962574071
 21
10.9032756778
  0
LINE
  5
445
100
AcDbEntity
  8
RACCORDO
100
AcDbLine
 62
250
  6
CONTINUOUS
 10
15.4934047691
 20
11.1695271762
 11
16.023734855
 21
11.0596922191
  0
LWPOLYLINE
  5
446
100
AcDbEntity
  8
RACCORDO
100
AcDbPolyline
 62
250
  6
CONTINUOUS
 90
7
 70
0
 10
-18.4791366759
 20
22.8137766508
 10
-18.5395709736
 20
22.8390146203
 10
-18.5999371153
 20
22.8561262594
 10
-18.6595739606
 20
22.8649241907
 10
-18.7178283718
 20
22.8653120902
 10
-18.7740623332
 20
22.8572857405
 10
-18.8290651119
 20
22.8403775402
  0
LWPOLYLINE
  5
447
100
AcDbEntity
  8
ASSI
100
AcDbPolyline
 62
250
  6
CONTINUOUS
 90
7
 70
0
 10
-18.4791366759
 20
22.8137766508
 10
-18.5395709736
 20
22.8390146203
 10
-18.5999371153
 20
22.8561262594
 10
-18.6595739606
 20
22.8649241907
 10
-18.7178283718
 20
22.8653120902
 10
-18.7740623332
 20
22.8572857405
 10
-18.8276599427
 20
22.8409330924
  0
LINE
  5
448
100
AcDbEntity
  8
DRAFT
100
AcDbLine
 62
7
  6
CONTINUOUS
 10
15.9710003456
 20
8.1976901357
 11
16.454349165
 21
7.956015726
  0
LINE
  5
449
100
AcDbEntity
  8
RACCORDO
100
AcDbLine
 62
7
  6
CONTINUOUS
 10
-14.5701641143
 20
24.3688125749
 11
15.4820463994
 21
9.3427073181
  0
LINE
  5
44A
100
AcDbEntity
  8
ASSI
100
AcDbLine
 62
7
  6
CONTINUOUS
 10
-14.5701641143
 20
24.3688125749
 11
15.4820463994
 21
9.3427073181
  0
LINE
  5
44B
100
AcDbEntity
  8
268
100
AcDbLine
 62
7
  6
CONTINUOUS
 10
-16.0082023328
 20
25.1463108454
 11
-0.2397211123
 21
17.2620702352
  0
LINE
  5
44C
100
AcDbEntity
  8
DRAFT
100
AcDbLine
 62
7
  6
CONTINUOUS
 10
0.2922814188
 20
17.2671853713
 11
15.9867070706
 21
9.4199725454
  0
LINE
  5
44D
100
AcDbEntity
  8
268
100
AcDbLine
 62
7
  6
CONTINUOUS
 10
-0.4872084857
 20
17.7133298604
 11
-15.7607149594
 21
25.3500830972
  0
LINE
  5
44E
100
AcDbEntity
  8
218
100
AcDbLine
 62
250
  6
CONTINUOUS
 10
7.0215064428
 20
25.2404447696
 11
7.4154923766
 21
24.2182889516
  0
LWPOLYLINE
  5
44F
100
AcDbEntity
  8
RACCORDO
100
AcDbPolyline
 62
250
  6
CONTINUOUS
 90
7
 70
0
 10
13.7231251895
 20
12.280980938
 10
13.7254269338
 20
12.2640577725
 10
13.732031694
 20
12.2479131046
 10
13.7427378783
 20
12.2324482511
 10
13.7572393313
 20
12.2179466295
 10
13.7752332742
 20
12.2045957466
 10
13.7963484942
 20
12.1925925904
  0
LWPOLYLINE
  5
450
100
AcDbEntity
  8
RACCORDO
100
AcDbPolyline
 62
250
  6
CONTINUOUS
 90
7
 70
0
 10
13.7231251895
 20
11.929666966
 10
13.7252639742
 20
11.9133511919
 10
13.731643733
 20
11.8973145853
 10
13.7421553064
 20
11.8818315369
 10
13.7566188386
 20
11.867166966
 10
13.7747868545
 20
11.8535717873
 10
13.7963484942
 20
11.8412786183
  0
LWPOLYLINE
  5
451
100
AcDbEntity
  8
RACCORDO
100
AcDbPolyline
 62
250
  6
CONTINUOUS
 90
8
 70
0
 10
15.8469581597
 20
10.7730805668
 10
15.8457628589
 20
10.7976177696
 10
15.842193121
 20
10.8206278481
 10
15.8362972205
 20
10.8417996304
 10
15.8281548893
 20
10.8608468044
 10
15.8178762386
 20
10.8775117899
 10
15.8056002695
 20
10.8915692215
 10
15.7914929933
 20
10.9028289965
  0
LWPOLYLINE
  5
452
100
AcDbEntity
  8
RACCORDO
100
AcDbPolyline
 62
250
  6
CONTINUOUS
 90
13
 70
0
 10
16.2005115503
 20
10.7730805668
 10
16.1990490652
 20
10.8106881944
 10
16.1950177858
 20
10.8461010957
 10
16.188417712
 20
10.8793192709
 10
16.1791627139
 20
10.9105361701
 10
16.1673389214
 20
10.9395583432
 10
16.1532047245
 20
10.9658054392
 10
16.1367226593
 20
10.9892380256
 10
16.1179301895
 20
11.0098955349
 10
16.0971980962
 20
11.0273159143
 10
16.0746499728
 20
11.0413451459
 10
16.0501622257
 20
11.0521372476
 10
16.023734855
 20
11.0596922191
  0
LWPOLYLINE
  5
453
100
AcDbEntity
  8
RACCORDO
100
AcDbPolyline
 62
7
  6
CONTINUOUS
 90
6
 70
0
 10
16.9808416362
 20
-28.5845818344
 10
16.9813149802
 20
-28.6003994844
 10
16.9825880173
 20
-28.6140191302
 10
16.9844089362
 20
-28.6252915542
 10
16.986498774
 20
-28.6341630455
 10
16.9881576078
 20
-28.6395162919
  0
LWPOLYLINE
  5
454
100
AcDbEntity
  8
RACCORDO
100
AcDbPolyline
 62
7
  6
CONTINUOUS
 90
6
 70
0
 10
16.9808371102
 20
10.8864857171
 10
16.9809775566
 20
10.8812753721
 10
16.9824183477
 20
10.8694590637
 10
16.9849836459
 20
10.8594091158
 10
16.9880369413
 20
10.851544949
 10
16.9902259281
 20
10.8472366844
  0
LWPOLYLINE
  5
455
100
AcDbEntity
  8
218
100
AcDbPolyline
 62
7
  6
CONTINUOUS
 90
31
 70
0
 10
17.1179860322
 20
22.5272220188
 10
17.1176987404
 20
22.5617896542
 10
17.1165616692
 20
22.6042807543
 10
17.114567593
 20
22.6468355594
 10
17.1117228412
 20
22.6894592803
 10
17.1080348983
 20
22.7321314293
 10
17.103514705
 20
22.774802495
 10
17.0981702208
 20
22.8174663742
 10
17.0920086981
 20
22.8601153078
 10
17.0850446787
 20
22.9026951902
 10
17.0772867661
 20
22.9451994394
 10
17.0687424844
 20
22.9876214644
 10
17.0594301858
 20
23.0299055588
 10
17.0493594035
 20
23.0720429466
 10
17.0385377995
 20
23.114029364
 10
17.0269855865
 20
23.1558144832
 10
17.0147148147
 20
23.1973820484
 10
17.0017314651
 20
23.2387355635
 10
16.9880486349
 20
23.2798530553
 10
16.9736754061
 20
23.3207248002
 10
16.9586183203
 20
23.3613472326
 10
16.9428868481
 20
23.4017062899
 10
16.9264877575
 20
23.4417948471
 10
16.9094268979
 20
23.4816059503
 10
16.8917129985
 20
23.5211249074
 10
16.8733518956
 20
23.560343391
 10
16.8543479445
 20
23.5992541248
 10
16.8347079394
 20
23.6378443594
 10
16.8144362286
 20
23.6761050273
 10
16.7935359192
 20
23.7140285513
 10
16.7760185886
 20
23.7447168054
  0
LINE
  5
456
100
AcDbEntity
  8
RACCORDO
100
AcDbLine
 62
250
  6
CONTINUOUS
 10
15.8469581597
 20
10.7730805668
 11
15.8469581597
 21
10.471177107
  0
LINE
  5
457
100
AcDbEntity
  8
RACCORDO
100
AcDbLine
 62
250
  6
CONTINUOUS
 10
15.8469581597
 20
-28.8164332878
 11
15.8469581597
 21
-29.0265235726
  0
LINE
  5
458
100
AcDbEntity
  8
RACCORDO
100
AcDbLine
 62
7
  6
CONTINUOUS
 10
15.9867070706
 20
9.4458421833
 11
15.9867070706
 21
9.4199725454
  0
LINE
  5
459
100
AcDbEntity
  8
RACCORDO
100
AcDbLine
 62
7
  6
CONTINUOUS
 10
15.9867070706
 20
-28.5461408813
 11
15.9867070706
 21
-28.5202712434
  0
LINE
  5
45A
100
AcDbEntity
  8
RACCORDO
100
AcDbLine
 62
250
  6
CONTINUOUS
 10
16.2005115503
 20
10.7730805668
 11
16.2005115503
 21
10.4643746687
  0
LINE
  5
45B
100
AcDbEntity
  8
RACCORDO
100
AcDbLine
 62
250
  6
CONTINUOUS
 10
16.2005115503
 20
-28.7178176745
 11
16.2005115503
 21
-29.0265235726
  0
LINE
  5
45C
100
AcDbEntity
  8
DRAFT
100
AcDbLine
 62
7
  6
CONTINUOUS
 10
16.454349165
 20
9.5766534492
 11
16.454349165
 21
7.956015726
  0
LINE
  5
45D
100
AcDbEntity
  8
DRAFT
100
AcDbLine
 62
7
  6
CONTINUOUS
 10
16.454349165
 20
-26.6047177028
 11
16.454349165
 21
-28.225355426
  0
LINE
  5
45E
100
AcDbEntity
  8
218
100
AcDbLine
 62
250
  6
CONTINUOUS
 10
16.8373258434
 20
18.3725865726
 11
16.8373258434
 21
22.179984851
  0
LINE
  5
45F
100
AcDbEntity
  8
RACCORDO
100
AcDbLine
 62
250
  6
CONTINUOUS
 10
16.9076183315
 20
-28.672970182
 11
16.9076183315
 21
-28.3491477542
  0
LINE
  5
460
100
AcDbEntity
  8
RACCORDO
100
AcDbLine
 62
250
  6
CONTINUOUS
 10
16.9076183315
 20
10.8028115296
 11
16.9076183315
 21
11.1266339574
  0
LINE
  5
461
100
AcDbEntity
  8
RACCORDO
100
AcDbLine
 62
7
  6
CONTINUOUS
 10
16.9808416362
 20
-28.5845818344
 11
16.9808416362
 21
-28.2825265749
  0
LINE
  5
462
100
AcDbEntity
  8
RACCORDO
100
AcDbLine
 62
7
  6
CONTINUOUS
 10
16.9808416362
 20
10.8863899266
 11
16.9808416362
 21
11.215022305
  0
LINE
  5
463
100
AcDbEntity
  8
218
100
AcDbLine
 62
7
  6
CONTINUOUS
 10
17.1179860431
 20
19.3080808518
 11
17.1179860431
 21
22.5272345857
  0
LINE
  5
464
100
AcDbEntity
  8
218
100
AcDbLine
 62
7
  6
CONTINUOUS
 10
17.1179860416
 20
19.3081870797
 11
17.117986043
 21
19.3080815148
  0
LINE
  5
465
100
AcDbEntity
  8
RACCORDO
100
AcDbLine
 62
250
  6
CONTINUOUS
 10
17.6147251126
 20
12.5815013201
 11
17.6147251126
 21
12.230187348
  0
LINE
  5
466
100
AcDbEntity
  8
RACCORDO
100
AcDbLine
 62
250
  6
CONTINUOUS
 10
17.6147251126
 20
-29.0694167914
 11
17.6147251126
 21
-29.4207307635
  0
LINE
  5
467
100
AcDbEntity
  8
RACCORDO
100
AcDbLine
 62
7
  6
CONTINUOUS
 10
17.6879484173
 20
12.6698896677
 11
17.6879484173
 21
12.3185756956
  0
LINE
  5
468
100
AcDbEntity
  8
RACCORDO
100
AcDbLine
 62
7
  6
CONTINUOUS
 10
17.6879484173
 20
-28.9810284438
 11
17.6879484173
 21
-29.3323424158
  0
LINE
  5
469
100
AcDbEntity
  8
RACCORDO
100
AcDbLine
 62
7
  6
CONTINUOUS
 10
18.1450551985
 20
-27.4586450127
 11
18.1450551985
 21
10.442638874
  0
LINE
  5
46A
100
AcDbEntity
  8
RACCORDO
100
AcDbLine
 62
7
  6
CONTINUOUS
 10
18.289250392
 20
16.5480387104
 11
18.289250392
 21
15.6476836098
  0
LINE
  5
46B
100
AcDbEntity
  8
RACCORDO
100
AcDbLine
 62
250
  6
CONTINUOUS
 10
17.6879484173
 20
-29.3323424158
 11
17.687948259
 21
-29.3324831084
  0
LWPOLYLINE
  5
46C
100
AcDbEntity
  8
218
100
AcDbPolyline
 62
250
  6
CONTINUOUS
 90
57
 70
0
 10
17.117986043
 20
19.3080815148
 10
17.1178863238
 20
19.2834919728
 10
17.1171624396
 20
19.2374856166
 10
17.115819583
 20
19.1937293847
 10
17.1139326492
 20
19.1518614135
 10
17.1115585855
 20
19.1117027679
 10
17.1087605519
 20
19.073292784
 10
17.1055962049
 20
19.0365974497
 10
17.1020865519
 20
19.0013273381
 10
17.0982676865
 20
18.967435721
 10
17.0941856797
 20
18.934970915
 10
17.0898554197
 20
18.9037865536
 10
17.0853055813
 20
18.8738629962
 10
17.0805709802
 20
18.8452191296
 10
17.0756649595
 20
18.8177667184
 10
17.0706135847
 20
18.7915070816
 10
17.0654428484
 20
18.7664365105
 10
17.060158961
 20
18.7424595785
 10
17.0547850049
 20
18.7195836247
 10
17.0493401812
 20
18.6977980778
 10
17.0438182346
 20
18.676981298
 10
17.0382369602
 20
18.6571346374
 10
17.0326111755
 20
18.6382535241
 10
17.0269233256
 20
18.6202084386
 10
17.0211804564
 20
18.6029810703
 10
17.015399048
 20
18.5865871754
 10
17.009570526
 20
18.5709492311
 10
17.0036956118
 20
18.5560463302
 10
16.9977920806
 20
18.5418971072
 10
16.9918754189
 20
18.5284835055
 10
16.9859540505
 20
18.5158085912
 10
16.9800377939
 20
18.503866295
 10
16.9741448209
 20
18.4926244927
 10
16.96828751
 20
18.482092094
 10
16.9624713111
 20
18.4722565313
 10
16.9567040932
 20
18.463053256
 10
16.9510122387
 20
18.4545034748
 10
16.9453858359
 20
18.4465820275
 10
16.9397753415
 20
18.4391556426
 10
16.9341808496
 20
18.4322069095
 10
16.9286117428
 20
18.425751112
 10
16.9230279359
 20
18.4197054689
 10
16.9174203121
 20
18.4140524308
 10
16.9118032608
 20
18.4088086476
 10
16.9061697665
 20
18.4039433779
 10
16.900520407
 20
18.3994543774
 10
16.8948591823
 20
18.3953430808
 10
16.8891836469
 20
18.3915844427
 10
16.8834976243
 20
18.3881785922
 10
16.8778014246
 20
18.385124616
 10
16.8720868129
 20
18.3823960852
 10
16.8663575415
 20
18.3799917894
 10
16.8606132004
 20
18.3779123608
 10
16.8548384807
 20
18.3761344712
 10
16.8490288115
 20
18.3746503826
 10
16.8431908972
 20
18.3734677076
 10
16.8373258434
 20
18.3725863504
  0
LWPOLYLINE
  5
46D
100
AcDbEntity
  8
RACCORDO
100
AcDbPolyline
 62
250
  6
CONTINUOUS
 90
10
 70
0
 10
16.5117574373
 20
-28.3181992615
 10
16.5108286545
 20
-28.3608499084
 10
16.5063114783
 20
-28.4011958067
 10
16.4982527025
 20
-28.4388190095
 10
16.4867358087
 20
-28.4733297746
 10
16.4718801015
 20
-28.5043706018
 10
16.4538394724
 20
-28.5316199364
 10
16.4328008061
 20
-28.5547955001
 10
16.4089820439
 20
-28.573657215
 10
16.3921242623
 20
-28.5835098235
  0
LWPOLYLINE
  5
46E
100
AcDbEntity
  8
RACCORDO
100
AcDbPolyline
 62
250
  6
CONTINUOUS
 90
10
 70
0
 10
17.2310604228
 20
-27.9504939878
 10
17.2300583294
 20
-27.9940496513
 10
17.2253122697
 20
-28.0351900481
 10
17.2168735688
 20
-28.0734703917
 10
17.204833471
 20
-28.1084768175
 10
17.1893221539
 20
-28.1398308573
 10
17.1705073207
 20
-28.1671935314
 10
17.1485923876
 20
-28.1902690126
 10
17.1238142844
 20
-28.208807825
 10
17.111350425
 20
-28.2158459658
  0
LWPOLYLINE
  5
46F
100
AcDbEntity
  8
RACCORDO
100
AcDbPolyline
 62
250
  6
CONTINUOUS
 90
10
 70
0
 10
16.2224532106
 20
-28.4273627645
 10
16.2212106413
 20
-28.4713161036
 10
16.2161757318
 20
-28.5128172237
 10
16.2074037213
 20
-28.5514113684
 10
16.1949908398
 20
-28.5866756144
 10
16.1790731214
 20
-28.6182235797
 10
16.1598249098
 20
-28.6457096536
 10
16.137457161
 20
-28.668832666
 10
16.1122150245
 20
-28.6873392512
 10
16.100140095
 20
-28.6940300911
  0
LWPOLYLINE
  5
470
100
AcDbEntity
  8
RACCORDO
100
AcDbPolyline
 62
250
  6
CONTINUOUS
 90
10
 70
0
 10
17.5069535564
 20
-27.7801560519
 10
17.5057062482
 20
-27.8241176444
 10
17.500665738
 20
-27.8656263345
 10
17.4918872713
 20
-27.9042271697
 10
17.4794670633
 20
-27.9394970691
 10
17.4635412443
 20
-27.9710494601
 10
17.4442843674
 20
-27.9985385154
 10
17.4219074957
 20
-28.0216629439
 10
17.3966558886
 20
-28.0401692924
 10
17.3846070797
 20
-28.0468441616
  0
LWPOLYLINE
  5
471
100
AcDbEntity
  8
RACCORDO
100
AcDbPolyline
 62
250
  6
CONTINUOUS
 90
10
 70
0
 10
15.1398513785
 20
-30.1300769632
 10
15.1410589049
 20
-30.1042105716
 10
15.1446649951
 20
-30.0774899862
 10
15.1506203954
 20
-30.050280251
 10
15.1588595681
 20
-30.0229068666
 10
15.1692614586
 20
-29.9957909
 10
15.1816155703
 20
-29.9694363761
 10
15.1956994206
 20
-29.9442308371
 10
15.2113175036
 20
-29.9204487434
 10
15.2282397261
 20
-29.8983827894
  0
LINE
  5
472
100
AcDbEntity
  8
RACCORDO
100
AcDbLine
 62
250
  6
CONTINUOUS
 10
16.9805243923
 20
10.8803445597
 11
16.9808416362
 21
10.8863899266
  0
LWPOLYLINE
  5
473
100
AcDbEntity
  8
RACCORDO
100
AcDbPolyline
 62
250
  6
CONTINUOUS
 90
8
 70
0
 10
15.4934047691
 20
-30.4813909353
 10
15.4918924199
 20
-30.5088945103
 10
15.4873812493
 20
-30.5344151424
 10
15.4799484444
 20
-30.5575161664
 10
15.4697211827
 20
-30.5778023176
 10
15.4568744555
 20
-30.5949264941
 10
15.4416280738
 20
-30.6085956965
 10
15.4284314727
 20
-30.6166093854
  0
LWPOLYLINE
  5
474
100
AcDbEntity
  8
RACCORDO
100
AcDbPolyline
 62
250
  6
CONTINUOUS
 90
7
 70
0
 10
17.6879484173
 20
12.6698896677
 10
17.685910948
 20
12.6539634048
 10
17.6795850864
 20
12.6378283195
 10
17.6690829364
 20
12.6222534575
 10
17.6545923972
 20
12.6075090097
 10
17.6363669699
 20
12.5938467883
 10
17.6147251126
 20
12.5815013201
  0
LWPOLYLINE
  5
475
100
AcDbEntity
  8
RACCORDO
100
AcDbPolyline
 62
250
  6
CONTINUOUS
 90
7
 70
0
 10
17.6879484164
 20
12.3185645914
 10
17.6857569342
 20
12.3020610128
 10
17.6793047805
 20
12.2859907836
 10
17.6687307563
 20
12.2705145054
 10
17.6542550333
 20
12.2559030383
 10
17.6361430301
 20
12.2423869572
 10
17.6147251126
 20
12.230187348
  0
LINE
  5
476
100
AcDbEntity
  8
RACCORDO
100
AcDbLine
 62
250
  6
CONTINUOUS
 10
1.0571433832
 20
17.8779794663
 11
1.0437931289
 21
17.8776922911
  0
LWPOLYLINE
  5
477
100
AcDbEntity
  8
RACCORDO
100
AcDbPolyline
 62
250
  6
CONTINUOUS
 90
4
 70
0
 10
3.6125908224
 20
17.5406078385
 10
3.6288965092
 20
17.5386036302
 10
3.6461362764
 20
17.5397292892
 10
3.6640216567
 20
17.5439659706
  0
LINE
  5
478
100
AcDbEntity
  8
RACCORDO
100
AcDbLine
 62
7
  6
CONTINUOUS
 10
1.9016091568
 20
17.695269717
 11
2.4319392427
 21
17.58543476
  0
LINE
  5
479
100
AcDbEntity
  8
RACCORDO
100
AcDbLine
 62
250
  6
CONTINUOUS
 10
2.1290866047
 20
17.8516862584
 11
2.6594166905
 21
17.7418513013
  0
LWPOLYLINE
  5
47A
100
AcDbEntity
  8
RACCORDO
100
AcDbPolyline
 62
250
  6
CONTINUOUS
 90
4
 70
0
 10
14.3595657762
 20
11.2092007119
 10
14.3780460515
 20
11.2014632524
 10
14.3962523618
 20
11.1968424221
 10
14.4138731927
 20
11.195417288
  0
LWPOLYLINE
  5
47B
100
AcDbEntity
  8
RACCORDO
100
AcDbPolyline
 62
250
  6
CONTINUOUS
 90
16
 70
0
 10
15.8469581597
 20
10.471177107
 10
15.8665651984
 20
10.4623148609
 10
15.8878510595
 20
10.4544876799
 10
15.910564872
 20
10.4477702167
 10
15.9344273438
 20
10.442222413
 10
15.9591825802
 20
10.4378888584
 10
15.9846069749
 20
10.4348074008
 10
16.0104096742
 20
10.4330019798
 10
16.0363253777
 20
10.4324816947
 10
16.0621700465
 20
10.4332632177
 10
16.0876843456
 20
10.435343355
 10
16.1125641277
 20
10.4387041947
 10
16.1365561056
 20
10.4433372439
 10
16.1593922753
 20
10.4492064663
 10
16.180796172
 20
10.4562438153
 10
16.2005115503
 20
10.4643746687
  0
LWPOLYLINE
  5
47C
100
AcDbEntity
  8
RACCORDO
100
AcDbPolyline
 62
250
  6
CONTINUOUS
 90
7
 70
0
 10
15.7030686605
 20
10.2260536566
 10
15.7296530375
 20
10.2138484336
 10
15.7574895455
 20
10.2028267784
 10
15.7865781847
 20
10.1929886909
 10
15.8169189549
 20
10.1843341712
 10
15.8485118561
 20
10.1768632194
 10
15.8813568884
 20
10.1705758353
  0
LWPOLYLINE
  5
47D
100
AcDbEntity
  8
RACCORDO
100
AcDbPolyline
 62
7
  6
CONTINUOUS
 90
25
 70
0
 10
11.6063479522
 20
13.9585416015
 10
11.6305103133
 20
13.9472502079
 10
11.6558661978
 20
13.9368533248
 10
11.6824156058
 20
13.9273509522
 10
11.7102829988
 20
13.9187099133
 10
11.7393439153
 20
13.9109633848
 10
11.7692249702
 20
13.904210897
 10
11.7999367463
 20
13.8984652766
 10
11.8314686608
 20
13.8937136967
 10
11.8634155805
 20
13.8900172075
 10
11.8957828604
 20
13.8873894234
 10
11.9285651456
 20
13.8858167298
 10
11.9613412374
 20
13.8853193335
 10
11.994111056
 20
13.8859111094
 10
12.0268746814
 20
13.8875781826
 10
12.0592111547
 20
13.8902991337
 10
12.0911149643
 20
13.8940875616
 10
12.1225916218
 20
13.8989298675
 10
12.1532367041
 20
13.9047638358
 10
12.1830394807
 20
13.9116022623
 10
12.2120106821
 20
13.9194323513
 10
12.2397780758
 20
13.9281534987
 10
12.2662175846
 20
13.9377321701
 10
12.2914532857
 20
13.9482019001
 10
12.3154851793
 20
13.9595626886
  0
LWPOLYLINE
  5
47E
100
AcDbEntity
  8
RACCORDO
100
AcDbPolyline
 62
250
  6
CONTINUOUS
 90
3
 70
0
 10
3.5952788042
 20
17.5467701087
 10
3.5974920572
 20
17.5457083879
 10
3.6125908224
 20
17.5406078385
  0
LINE
  5
47F
100
AcDbEntity
  8
RACCORDO
100
AcDbLine
 62
7
  6
CONTINUOUS
 10
15.63299212
 20
10.0559102304
 11
0.6459963695
 21
17.5494081057
  0
LINE
  5
480
100
AcDbEntity
  8
RACCORDO
100
AcDbLine
 62
250
  6
CONTINUOUS
 10
14.3595657762
 20
10.8978050988
 11
15.7030686605
 21
10.2260536566
  0
LINE
  5
481
100
AcDbEntity
  8
RACCORDO
100
AcDbLine
 62
250
  6
CONTINUOUS
 10
2.338750496
 20
16.9082127388
 11
0.9952476118
 21
17.579964181
  0
LINE
  5
482
100
AcDbEntity
  8
268
100
AcDbLine
 62
7
  6
CONTINUOUS
 10
0.0723061989
 20
18.1482369885
 11
-1.5416979171
 21
18.9552390465
  0
LINE
  5
483
100
AcDbEntity
  8
268
100
AcDbLine
 62
7
  6
CONTINUOUS
 10
-13.2920119656
 20
24.8303960707
 11
-14.9060160816
 21
25.6373981287
  0
LINE
  5
484
100
AcDbEntity
  8
RACCORDO
100
AcDbLine
 62
250
  6
CONTINUOUS
 10
14.5034552754
 20
11.1429285491
 11
15.8469581597
 21
10.471177107
  0
LINE
  5
485
100
AcDbEntity
  8
RACCORDO
100
AcDbLine
 62
250
  6
CONTINUOUS
 10
2.4826399953
 20
17.1533361892
 11
1.139137111
 21
17.8250876314
  0
LINE
  5
486
100
AcDbEntity
  8
268
100
AcDbLine
 62
7
  6
CONTINUOUS
 10
-9.9595560848
 20
23.5215003655
 11
-4.1670470167
 21
20.6252458315
  0
LINE
  5
487
100
AcDbEntity
  8
RACCORDO
100
AcDbLine
 62
7
  6
CONTINUOUS
 10
11.6063479522
 20
12.7612225659
 11
6.0868540997
 21
15.5209694921
  0
LINE
  5
488
100
AcDbEntity
  8
268
100
AcDbLine
 62
7
  6
CONTINUOUS
 10
-15.544413743
 20
26.408927935
 11
-13.9378812737
 21
25.6056617004
  0
LINE
  5
489
100
AcDbEntity
  8
268
100
AcDbLine
 62
7
  6
CONTINUOUS
 10
-2.1800955786
 20
19.7267688528
 11
-0.5735631092
 21
18.9235026182
  0
LINE
  5
48A
100
AcDbEntity
  8
RACCORDO
100
AcDbLine
 62
7
  6
CONTINUOUS
 10
15.2048246749
 20
11.0343087261
 11
13.8613217907
 21
11.7060601682
  0
LINE
  5
48B
100
AcDbEntity
  8
RACCORDO
100
AcDbLine
 62
7
  6
CONTINUOUS
 10
1.8405065105
 20
17.7164678083
 11
0.4970036262
 21
18.3882192504
  0
LINE
  5
48C
100
AcDbEntity
  8
RACCORDO
100
AcDbLine
 62
250
  6
CONTINUOUS
 10
2.0739769275
 20
17.6595711828
 11
2.4826399953
 21
17.455239649
  0
LINE
  5
48D
100
AcDbEntity
  8
RACCORDO
100
AcDbLine
 62
250
  6
CONTINUOUS
 10
15.438295092
 20
10.9774121006
 11
15.8469581597
 21
10.7730805668
  0
LINE
  5
48E
100
AcDbEntity
  8
268
100
AcDbLine
 62
250
  6
CONTINUOUS
 10
-15.6090090358
 20
26.5439573834
 11
-14.0032325737
 21
25.7410691523
  0
LINE
  5
48F
100
AcDbEntity
  8
268
100
AcDbLine
 62
250
  6
CONTINUOUS
 10
-2.2446908714
 20
19.8617983011
 11
-0.6389144092
 21
19.0589100701
  0
LINE
  5
490
100
AcDbEntity
  8
RACCORDO
100
AcDbLine
 62
250
  6
CONTINUOUS
 10
15.1398513785
 20
11.1695271762
 11
13.7963484942
 21
11.8412786183
  0
LINE
  5
491
100
AcDbEntity
  8
RACCORDO
100
AcDbLine
 62
250
  6
CONTINUOUS
 10
1.7755332141
 20
17.8516862584
 11
0.4320303298
 21
18.5234377005
  0
LINE
  5
492
100
AcDbEntity
  8
268
100
AcDbLine
 62
250
  6
CONTINUOUS
 10
-0.6389144092
 20
19.3122814638
 11
-2.2446908714
 21
20.1151696949
  0
LINE
  5
493
100
AcDbEntity
  8
268
100
AcDbLine
 62
250
  6
CONTINUOUS
 10
-14.0032325737
 20
25.994440546
 11
-15.6090090358
 21
26.7973287771
  0
LINE
  5
494
100
AcDbEntity
  8
RACCORDO
100
AcDbLine
 62
250
  6
CONTINUOUS
 10
0.4320303298
 20
18.8747516726
 11
1.7755332141
 21
18.2030002305
  0
LINE
  5
495
100
AcDbEntity
  8
RACCORDO
100
AcDbLine
 62
250
  6
CONTINUOUS
 10
13.7963484942
 20
12.1925925904
 11
15.1398513785
 21
11.5208411483
  0
LINE
  5
496
100
AcDbEntity
  8
268
100
AcDbLine
 62
7
  6
CONTINUOUS
 10
-12.2251810534
 20
25.3689773202
 11
-10.0474240504
 21
24.2800988187
  0
LINE
  5
497
100
AcDbEntity
  8
268
100
AcDbLine
 62
7
  6
CONTINUOUS
 10
-3.2449249324
 20
20.8788492597
 11
-2.1638029812
 21
20.3382882841
  0
LINE
  5
498
100
AcDbEntity
  8
268
100
AcDbLine
 62
250
  6
CONTINUOUS
 10
-0.4621436798
 20
19.6161470421
 11
-2.0699650889
 21
20.4200577466
  0
LINE
  5
499
100
AcDbEntity
  8
268
100
AcDbLine
 62
250
  6
CONTINUOUS
 10
-13.8264618443
 20
26.2983061243
 11
-15.4342832533
 21
27.1022168288
  0
LINE
  5
49A
100
AcDbEntity
  8
RACCORDO
100
AcDbLine
 62
250
  6
CONTINUOUS
 10
3.622686821
 20
17.5810260543
 11
3.6822533803
 21
17.5512427746
  0
LINE
  5
49B
100
AcDbEntity
  8
RACCORDO
100
AcDbLine
 62
250
  6
CONTINUOUS
 10
17.0465715447
 20
10.8690836924
 11
16.9870231872
 21
10.8988578712
  0
LINE
  5
49C
100
AcDbEntity
  8
RACCORDO
100
AcDbLine
 62
250
  6
CONTINUOUS
 10
0.6088070251
 20
19.1796463712
 11
1.9523099094
 21
18.5078949291
  0
LINE
  5
49D
100
AcDbEntity
  8
RACCORDO
100
AcDbLine
 62
250
  6
CONTINUOUS
 10
13.9731251895
 20
12.497487289
 11
15.3166280738
 21
11.8257358469
  0
LINE
  5
49E
100
AcDbEntity
  8
268
100
AcDbLine
 62
7
  6
CONTINUOUS
 10
-9.9595560848
 20
24.7364552316
 11
-4.1670470167
 21
21.8402006976
  0
LINE
  5
49F
100
AcDbEntity
  8
RACCORDO
100
AcDbLine
 62
7
  6
CONTINUOUS
 10
11.6063479522
 20
13.9585416015
 11
6.0868540997
 21
16.7182885277
  0
LINE
  5
4A0
100
AcDbEntity
  8
RACCORDO
100
AcDbLine
 62
7
  6
CONTINUOUS
 10
3.6758675433
 20
18.1104432734
 11
5.0865924909
 21
17.4050807996
  0
LINE
  5
4A1
100
AcDbEntity
  8
RACCORDO
100
AcDbLine
 62
7
  6
CONTINUOUS
 10
17.0401857077
 20
11.4282841912
 11
17.7913402479
 21
11.0527069211
  0
LINE
  5
4A2
100
AcDbEntity
  8
268
100
AcDbLine
 62
7
  6
CONTINUOUS
 10
-10.6939069364
 20
25.3028893537
 11
-12.1763849398
 21
26.0441283554
  0
LINE
  5
4A3
100
AcDbEntity
  8
268
100
AcDbLine
 62
7
  6
CONTINUOUS
 10
-9.4674646068
 20
25.2025546622
 11
-3.2449249324
 21
22.091284825
  0
LWPOLYLINE
  5
4A4
100
AcDbEntity
  8
RACCORDO
100
AcDbPolyline
 62
250
  6
CONTINUOUS
 90
7
 70
0
 10
0.9952476118
 20
17.579964181
 10
0.9708838831
 20
17.5932321453
 10
0.9489682241
 20
17.6070848413
 10
0.9295006347
 20
17.6215222689
 10
0.912481115
 20
17.6365444282
 10
0.8979096649
 20
17.6521513191
 10
0.8857862844
 20
17.6683429416
  0
LINE
  5
4A5
100
AcDbEntity
  8
RACCORDO
100
AcDbLine
 62
250
  6
CONTINUOUS
 10
14.4858156673
 20
11.1526896264
 11
14.5034552754
 21
11.1429285491
  0
LWPOLYLINE
  5
4A6
100
AcDbEntity
  8
RACCORDO
100
AcDbPolyline
 62
250
  6
CONTINUOUS
 90
8
 70
0
 10
1.139137111
 20
17.8250876314
 10
1.1214526567
 20
17.8348763429
 10
1.105990881
 20
17.8454379444
 10
1.0929017125
 20
17.8566458148
 10
1.0823105683
 20
17.8683579042
 10
1.0743023912
 20
17.8804464971
 10
1.068933252
 20
17.8928017608
 10
1.0662471878
 20
17.9052732846
  0
LWPOLYLINE
  5
4A7
100
AcDbEntity
  8
RACCORDO
100
AcDbPolyline
 62
250
  6
CONTINUOUS
 90
16
 70
0
 10
3.6822533803
 20
17.5512427746
 10
3.7144515712
 20
17.5331911404
 10
3.7421952165
 20
17.514163873
 10
3.7654843162
 20
17.4941609723
 10
3.7844331759
 20
17.4729484484
 10
3.7989274899
 20
17.4507602912
 10
3.8086243416
 20
17.4282984708
 10
3.8134076348
 20
17.4055781406
 10
3.8133934657
 20
17.3825841472
 10
3.8085872063
 20
17.3599730012
 10
3.7988748371
 20
17.3377343457
 10
3.7843703776
 20
17.3158785375
 10
3.7654212591
 20
17.2950931569
 10
3.7421432919
 20
17.2756073975
 10
3.7144206656
 20
17.2571920656
 10
3.6822533803
 20
17.2398471614
  0
LWPOLYLINE
  5
4A8
100
AcDbEntity
  8
RACCORDO
100
AcDbPolyline
 62
250
  6
CONTINUOUS
 90
9
 70
0
 10
0.4970036262
 20
18.3882192504
 10
0.4873427482
 20
18.3937896054
 10
0.473185812
 20
18.4051438108
 10
0.4608624801
 20
18.4193480062
 10
0.4505671652
 20
18.4361907304
 10
0.4424765965
 20
18.4553376943
 10
0.4366749072
 20
18.4764568356
 10
0.4331892951
 20
18.4992660344
 10
0.4320303298
 20
18.5234377005
  0
LWPOLYLINE
  5
4A9
100
AcDbEntity
  8
RACCORDO
100
AcDbPolyline
 62
250
  6
CONTINUOUS
 90
9
 70
0
 10
1.8405065105
 20
17.7164678083
 10
1.8308456324
 20
17.7220381633
 10
1.8166886963
 20
17.7333923687
 10
1.8043653643
 20
17.7475965641
 10
1.7940700494
 20
17.7644392883
 10
1.7859794808
 20
17.7835862522
 10
1.7801777914
 20
17.8047053935
 10
1.7766921794
 20
17.8275145923
 10
1.7755332141
 20
17.8516862584
  0
LWPOLYLINE
  5
4AA
100
AcDbEntity
  8
RACCORDO
100
AcDbPolyline
 62
250
  6
CONTINUOUS
 90
9
 70
0
 10
13.8613217907
 20
11.7060601682
 10
13.8516609126
 20
11.7116305232
 10
13.8375039764
 20
11.7229847286
 10
13.8251806445
 20
11.737188924
 10
13.8148853296
 20
11.7540316482
 10
13.806794761
 20
11.7731786121
 10
13.8009930716
 20
11.7942977534
 10
13.7975074595
 20
11.8171069522
 10
13.7963484942
 20
11.8412786183
  0
LWPOLYLINE
  5
4AB
100
AcDbEntity
  8
RACCORDO
100
AcDbPolyline
 62
250
  6
CONTINUOUS
 90
9
 70
0
 10
15.2048246749
 20
11.0343087261
 10
15.1951637969
 20
11.0398790811
 10
15.1810068607
 20
11.0512332865
 10
15.1686835288
 20
11.0654374819
 10
15.1583882138
 20
11.082280206
 10
15.1502976452
 20
11.10142717
 10
15.1444959558
 20
11.1225463113
 10
15.1410103438
 20
11.14535551
 10
15.1398513785
 20
11.1695271762
  0
LWPOLYLINE
  5
4AC
100
AcDbEntity
  8
RACCORDO
100
AcDbPolyline
 62
250
  6
CONTINUOUS
 90
13
 70
0
 10
15.3166280738
 20
11.8257358469
 10
15.33918884
 20
11.8126850384
 10
15.3615366944
 20
11.7961786806
 10
15.3832890424
 20
11.77642201
 10
15.4041069881
 20
11.7536287092
 10
15.4235540361
 20
11.7281766591
 10
15.4411425316
 20
11.7006577402
 10
15.456535602
 20
11.6716155419
 10
15.4695077565
 20
11.6414943184
 10
15.4798315436
 20
11.6108259652
 10
15.4873307218
 20
11.5801445826
 10
15.4918802294
 20
11.5499763439
 10
15.4934047691
 20
11.5208411483
  0
LWPOLYLINE
  5
4AD
100
AcDbEntity
  8
RACCORDO
100
AcDbPolyline
 62
250
  6
CONTINUOUS
 90
13
 70
0
 10
1.9523099094
 20
18.5078949291
 10
1.9753838983
 20
18.4945056928
 10
1.9980630848
 20
18.4776410663
 10
2.0199594219
 20
18.4575896082
 10
2.040698257
 20
18.4346944043
 10
2.059924743
 20
18.409347198
 10
2.0773099094
 20
18.3819816871
 10
2.0925562911
 20
18.3530661029
 10
2.1054030183
 20
18.3230951991
 10
2.11563028
 20
18.2925817863
 10
2.1230630848
 20
18.2620479574
 10
2.1275742555
 20
18.2320161546
 10
2.1290866047
 20
18.2030002305
  0
LWPOLYLINE
  5
4AE
100
AcDbEntity
  8
RACCORDO
100
AcDbPolyline
 62
250
  6
CONTINUOUS
 90
16
 70
0
 10
15.8813535848
 20
10.1705743074
 10
15.9176530565
 20
10.1493890689
 10
15.9534795212
 20
10.1236562864
 10
15.9884404498
 20
10.0936596823
 10
16.0221509084
 20
10.0597305652
 10
16.0542441523
 20
10.0222413421
 10
16.0843749563
 20
9.9816000785
 10
16.1122149583
 20
9.938250644
 10
16.1374570913
 20
9.8926691787
 10
16.1598248378
 20
9.8453551338
 10
16.1790730496
 20
9.7968269111
 10
16.1949907714
 20
9.7476162322
 10
16.2074036605
 20
9.698262339
 10
16.2161756837
 20
9.6493060153
 10
16.2212106121
 20
9.6012836617
 10
16.2224532073
 20
9.5547214643
  0
LWPOLYLINE
  5
4AF
100
AcDbEntity
  8
RACCORDO
100
AcDbPolyline
 62
250
  6
CONTINUOUS
 90
16
 70
0
 10
17.1657951351
 20
10.7638084767
 10
17.2020742882
 20
10.7426312345
 10
17.2378881665
 20
10.7169070179
 10
17.2728442353
 20
10.6869177753
 10
17.306559362
 20
10.6529922014
 10
17.3386640151
 20
10.6155021349
 10
17.3688063148
 20
10.5748584827
 10
17.3966558893
 20
10.5315067164
 10
17.4219074961
 20
10.4859219897
 10
17.4442843675
 20
10.4386039302
 10
17.4635412441
 20
10.390071164
 10
17.479467063
 20
10.3408556304
 10
17.4918872709
 20
10.2914967526
 10
17.5006657377
 20
10.2425355245
 10
17.5057062481
 20
10.1945085818
 10
17.5069535565
 20
10.1479423201
  0
LWPOLYLINE
  5
4B0
100
AcDbEntity
  8
268
100
AcDbPolyline
 62
7
  6
CONTINUOUS
 90
20
 70
0
 10
7.0095647169
 20
22.2524194263
 10
7.0081645653
 20
22.2545504911
 10
7.006418139
 20
22.2568589385
 10
7.0043365291
 20
22.2593485776
 10
7.0019315647
 20
22.2620260204
 10
6.9992114728
 20
22.2648612363
 10
6.9961865415
 20
22.2678577627
 10
6.9928680402
 20
22.2710208409
 10
6.9892638833
 20
22.2743228333
 10
6.9853840264
 20
22.2777668161
 10
6.9812393549
 20
22.2813570604
 10
6.9768381222
 20
22.28506756
 10
6.9721897836
 20
22.2889011519
 10
6.9673053297
 20
22.2928610255
 10
6.9621949413
 20
22.2969214459
 10
6.9568680663
 20
22.3010846611
 10
6.9513358629
 20
22.3053530325
 10
6.9456113917
 20
22.309700532
 10
6.9397062083
 20
22.3141194142
 10
6.9273931567
 20
22.3232045038
  0
LINE
  5
4B1
100
AcDbEntity
  8
218
100
AcDbLine
 62
7
  6
CONTINUOUS
 10
8.5531641182
 20
20.0890021005
 11
7.4699688486
 21
21.9572375864
  0
LWPOLYLINE
  5
4B2
100
AcDbEntity
  8
RACCORDO
100
AcDbPolyline
 62
250
  6
CONTINUOUS
 90
8
 70
0
 10
17.6147251126
 20
-29.4207307635
 10
17.613200573
 20
-29.4483414194
 10
17.6086510653
 20
-29.4739601505
 10
17.6011518871
 20
-29.4971423549
 10
17.5908281
 20
-29.517486921
 10
17.5778559456
 20
-29.53463599
 10
17.5624628752
 20
-29.548285118
 10
17.5497518162
 20
-29.5559492136
  0
LWPOLYLINE
  5
4B3
100
AcDbEntity
  8
RACCORDO
100
AcDbPolyline
 62
250
  6
CONTINUOUS
 90
3
 70
0
 10
16.9096996476
 20
-28.31888275
 10
16.9081261561
 20
-28.3316807077
 10
16.9076183315
 20
-28.3491477542
  0
LINE
  5
4B4
100
AcDbEntity
  8
RACCORDO
100
AcDbLine
 62
250
  6
CONTINUOUS
 10
16.9787028515
 20
-28.6008976084
 11
16.9808416362
 21
-28.5845818344
  0
LINE
  5
4B5
100
AcDbEntity
  8
268
100
AcDbLine
 62
7
  6
CONTINUOUS
 10
0.0723061989
 20
18.7854065472
 11
-0.5500118332
 21
18.9153471297
  0
LWPOLYLINE
  5
4B6
100
AcDbEntity
  8
218
100
AcDbPolyline
 62
7
  6
CONTINUOUS
 90
21
 70
0
 10
-4.2365331987
 20
24.593939521
 10
-4.248370243
 20
24.5994135521
 10
-4.2601411351
 20
24.6044315803
 10
-4.2718333253
 20
24.6089878915
 10
-4.2834334665
 20
24.6130774065
 10
-4.2949298765
 20
24.6166954122
 10
-4.3063125355
 20
24.6198374174
 10
-4.3175687856
 20
24.6224998216
 10
-4.3286865194
 20
24.6246794108
 10
-4.3396566009
 20
24.6263728116
 10
-4.3504666755
 20
24.6275779704
 10
-4.3611047713
 20
24.6282931442
 10
-4.3715624206
 20
24.6285159995
 10
-4.3818271937
 20
24.6282460863
 10
-4.3918878482
 20
24.6274832538
 10
-4.401737803
 20
24.6262261363
 10
-4.4113658638
 20
24.6244756485
 10
-4.4207602766
 20
24.6222331542
 10
-4.4299138505
 20
24.6194987337
 10
-4.438813708
 20
24.61627592
 10
-4.4471243432
 20
24.6127187486
  0
LWPOLYLINE
  5
4B7
100
AcDbEntity
  8
RACCORDO
100
AcDbPolyline
 62
250
  6
CONTINUOUS
 90
7
 70
0
 10
4.1852491497
 20
19.5757475453
 10
4.1805562153
 20
19.5779218754
 10
4.1611091672
 20
19.5839268775
 10
4.1402912215
 20
19.5859022326
 10
4.1185388735
 20
19.5839065552
 10
4.0961910192
 20
19.5780650586
 10
4.0736302529
 20
19.5685551009
  0
LWPOLYLINE
  5
4B8
100
AcDbEntity
  8
RACCORDO
100
AcDbPolyline
 62
250
  6
CONTINUOUS
 90
7
 70
0
 10
2.8419307675
 20
20.2474069898
 10
2.837053331
 20
20.2496733175
 10
2.817606283
 20
20.2556783197
 10
2.7967883373
 20
20.2576536748
 10
2.7750359893
 20
20.2556579973
 10
2.7526881349
 20
20.2498165008
 10
2.7301273687
 20
20.240306543
  0
LWPOLYLINE
  5
4B9
100
AcDbEntity
  8
RACCORDO
100
AcDbPolyline
 62
250
  6
CONTINUOUS
 90
7
 70
0
 10
17.5497518162
 20
12.8934964655
 10
17.545563251
 20
12.8954631212
 10
17.526336765
 20
12.9015838415
 10
17.5055979299
 20
12.9037402103
 10
17.4837015928
 20
12.9018953314
 10
17.4610224063
 20
12.8960807713
 10
17.4379484173
 20
12.8863960186
  0
LWPOLYLINE
  5
4BA
100
AcDbEntity
  8
RACCORDO
100
AcDbPolyline
 62
250
  6
CONTINUOUS
 90
7
 70
0
 10
16.206248932
 20
13.5652479076
 10
16.2020603667
 20
13.5672145634
 10
16.1828338807
 20
13.5733352837
 10
16.1620950456
 20
13.5754916524
 10
16.1401987086
 20
13.5736467735
 10
16.117519522
 20
13.5678322134
 10
16.0944455331
 20
13.5581474608
  0
LWPOLYLINE
  5
4BB
100
AcDbEntity
  8
218
100
AcDbPolyline
 62
7
  6
CONTINUOUS
 90
64
 70
0
 10
-3.1559771996
 20
24.7249293632
 10
-3.1664184524
 20
24.7300248464
 10
-3.183924535
 20
24.7380321359
 10
-3.2019018737
 20
24.7456077942
 10
-3.2203189787
 20
24.752745629
 10
-3.239166774
 20
24.7594513542
 10
-3.2584577447
 20
24.7657382521
 10
-3.278169221
 20
24.7716077255
 10
-3.2982787406
 20
24.7770629873
 10
-3.3187949097
 20
24.7821157628
 10
-3.3396656319
 20
24.7867629164
 10
-3.3609024687
 20
24.7910166835
 10
-3.3826076017
 20
24.7949020144
 10
-3.4047325065
 20
24.7984117873
 10
-3.4272959263
 20
24.8015503214
 10
-3.4505016855
 20
24.8043398496
 10
-3.474426117
 20
24.8067748394
 10
-3.4989693703
 20
24.8088304696
 10
-3.5240690098
 20
24.8104904162
 10
-3.5498278387
 20
24.8117483223
 10
-3.576115276
 20
24.8125842307
 10
-3.6025154861
 20
24.8129838125
 10
-3.6289914782
 20
24.8129548795
 10
-3.6555529067
 20
24.8125044879
 10
-3.6818547366
 20
24.8116515396
 10
-3.7078068626
 20
24.8104200147
 10
-3.7334812227
 20
24.8088259264
 10
-3.7587781485
 20
24.8068937081
 10
-3.7836777423
 20
24.804644121
 10
-3.808188815
 20
24.8020944484
 10
-3.8322556873
 20
24.7992683084
 10
-3.8558597108
 20
24.7961861412
 10
-3.8790144528
 20
24.7928635869
 10
-3.9017126275
 20
24.7893181801
 10
-3.923946559
 20
24.7855672117
 10
-3.9457222877
 20
24.7816252022
 10
-3.9670520036
 20
24.7775046566
 10
-3.9879361184
 20
24.77321957
 10
-4.0083741809
 20
24.7687837714
 10
-4.0283754478
 20
24.7642085508
 10
-4.0479421941
 20
24.7595062567
 10
-4.0670728993
 20
24.7546899271
 10
-4.0857694449
 20
24.7497716081
 10
-4.1040415044
 20
24.7447609665
 10
-4.1218803558
 20
24.7396725057
 10
-4.139259344
 20
24.7345264554
 10
-4.1561664281
 20
24.7293395678
 10
-4.1726163556
 20
24.7241203944
 10
-4.1886212522
 20
24.7188776868
 10
-4.2041609321
 20
24.7136307333
 10
-4.2192568185
 20
24.7083849105
 10
-4.233978558
 20
24.70312726
 10
-4.2483247017
 20
24.6978685813
 10
-4.2622898551
 20
24.6926212782
 10
-4.2759301752
 20
24.6873740441
 10
-4.2892283595
 20
24.6821429013
 10
-4.3021844738
 20
24.6769375254
 10
-4.3148706692
 20
24.6717378668
 10
-4.3272494801
 20
24.6665679915
 10
-4.3393216695
 20
24.6614369415
 10
-4.3511991242
 20
24.6563055761
 10
-4.3628356439
 20
24.6512020043
 10
-4.3741979232
 20
24.6461502642
 10
-4.3963916679
 20
24.6361103003
  0
LINE
  5
4BC
100
AcDbEntity
  8
268
100
AcDbLine
 62
7
  6
CONTINUOUS
 10
-13.8515266502
 20
27.9142009261
 11
-12.2251810534
 21
27.1010281278
  0
LINE
  5
4BD
100
AcDbEntity
  8
268
100
AcDbLine
 62
7
  6
CONTINUOUS
 10
-0.4872084857
 20
21.2320418439
 11
1.139137111
 21
20.4188690456
  0
LINE
  5
4BE
100
AcDbEntity
  8
268
100
AcDbLine
 62
7
  6
CONTINUOUS
 10
-8.1239617225
 20
25.2328716128
 11
-3.1742142542
 21
22.7579978787
  0
LINE
  5
4BF
100
AcDbEntity
  8
0
100
AcDbLine
 62
7
  6
CONTINUOUS
 10
12.7356883225
 20
14.8080849787
 11
7.7859408542
 21
17.2829587129
  0
LINE
  5
4C0
100
AcDbEntity
  8
268
100
AcDbLine
 62
250
  6
CONTINUOUS
 10
-13.3170767715
 20
28.1745483927
 11
-11.6969138817
 21
27.3644669478
  0
LINE
  5
4C1
100
AcDbEntity
  8
268
100
AcDbLine
 62
250
  6
CONTINUOUS
 10
0.0472413929
 20
21.4923893105
 11
1.6674042827
 21
20.6823078656
  0
LINE
  5
4C2
100
AcDbEntity
  8
268
100
AcDbLine
 62
7
  6
CONTINUOUS
 10
-13.2056573421
 20
28.1808160489
 11
-11.586783392
 21
27.3713790738
  0
LINE
  5
4C3
100
AcDbEntity
  8
268
100
AcDbLine
 62
7
  6
CONTINUOUS
 10
0.1586608224
 20
21.4986569667
 11
1.7775347724
 21
20.6892199916
  0
LINE
  5
4C4
100
AcDbEntity
  8
RACCORDO
100
AcDbLine
 62
250
  6
CONTINUOUS
 10
2.7301273687
 20
20.240306543
 11
4.0736302529
 21
19.5685551009
  0
LINE
  5
4C5
100
AcDbEntity
  8
RACCORDO
100
AcDbLine
 62
250
  6
CONTINUOUS
 10
16.0944455331
 20
13.5581474608
 11
17.4379484173
 21
12.8863960186
  0
LINE
  5
4C6
100
AcDbEntity
  8
RACCORDO
100
AcDbLine
 62
7
  6
CONTINUOUS
 10
2.8419307675
 20
20.2474069898
 11
4.1854336518
 21
19.5756555477
  0
LINE
  5
4C7
100
AcDbEntity
  8
RACCORDO
100
AcDbLine
 62
7
  6
CONTINUOUS
 10
16.206248932
 20
13.5652479076
 11
17.5497518162
 21
12.8934964655
  0
LINE
  5
4C8
100
AcDbEntity
  8
218
100
AcDbLine
 62
7
  6
CONTINUOUS
 10
-4.2349282739
 20
24.5931529953
 11
-1.8600522739
 21
23.4057149953
  0
LINE
  5
4C9
100
AcDbEntity
  8
218
100
AcDbLine
 62
250
  6
CONTINUOUS
 10
-1.2322872691
 20
23.7151244478
 11
-3.2455147236
 21
24.7217245554
  0
LINE
  5
4CA
100
AcDbEntity
  8
218
100
AcDbLine
 62
7
  6
CONTINUOUS
 10
-1.1839831309
 20
23.7389323326
 11
-3.1559808585
 21
24.7249311964
  0
LWPOLYLINE
  5
4CB
100
AcDbEntity
  8
RACCORDO
100
AcDbPolyline
 62
250
  6
CONTINUOUS
 90
13
 70
0
 10
17.4379484173
 20
12.8863960186
 10
17.4605091836
 20
12.8733452102
 10
17.4828570379
 20
12.8568388523
 10
17.504609386
 20
12.8370821818
 10
17.5254273317
 20
12.814288881
 10
17.5448743797
 20
12.7888368308
 10
17.5624628752
 20
12.761317912
 10
17.5778559456
 20
12.7322757136
 10
17.5908281
 20
12.7021544901
 10
17.6011518871
 20
12.671486137
 10
17.6086510653
 20
12.6408047544
 10
17.613200573
 20
12.6106365157
 10
17.6147251126
 20
12.5815013201
  0
LWPOLYLINE
  5
4CC
100
AcDbEntity
  8
RACCORDO
100
AcDbPolyline
 62
250
  6
CONTINUOUS
 90
13
 70
0
 10
4.0736302529
 20
19.5685551009
 10
4.0967042418
 20
19.5551658646
 10
4.1193834284
 20
19.5383012381
 10
4.1412797654
 20
19.51824978
 10
4.1620186006
 20
19.4953545761
 10
4.1812450866
 20
19.4700073698
 10
4.1986302529
 20
19.4426418588
 10
4.2138766346
 20
19.4137262747
 10
4.2267233618
 20
19.3837553709
 10
4.2369506235
 20
19.3532419581
 10
4.2443834284
 20
19.3227081292
 10
4.2488945991
 20
19.2926763264
 10
4.2504069482
 20
19.2636604023
  0
LWPOLYLINE
  5
4CD
100
AcDbEntity
  8
RACCORDO
100
AcDbPolyline
 62
250
  6
CONTINUOUS
 90
13
 70
0
 10
17.0018286559
 20
10.5891349638
 10
16.988242971
 20
10.6026128493
 10
16.975314206
 20
10.6174898657
 10
16.9631820572
 20
10.633605264
 10
16.9519776151
 20
10.6507849116
 10
16.9418219421
 20
10.6688431823
 10
16.9328247666
 20
10.6875849625
 10
16.9250833036
 20
10.706807749
 10
16.918681203
 20
10.7263038343
 10
16.9136876412
 20
10.7458625598
 10
16.9101565751
 20
10.7652725905
 10
16.9081261586
 20
10.7843241989
 10
16.9076183315
 20
10.8028115296
  0
LWPOLYLINE
  5
4CE
100
AcDbEntity
  8
RACCORDO
100
AcDbPolyline
 62
250
  6
CONTINUOUS
 90
13
 70
0
 10
17.0018288617
 20
10.5891358615
 10
17.0351205004
 20
10.5551127712
 10
17.0667751254
 20
10.5175929152
 10
17.0964505051
 20
10.4769819284
 10
17.1238258075
 20
10.4337188656
 10
17.1486050687
 20
10.3882714545
 10
17.1705203934
 20
10.3411310394
 10
17.1893348512
 20
10.2928072689
 10
17.2048450379
 20
10.2438225861
 10
17.2168832753
 20
10.1947065807
 10
17.2253194237
 20
10.1459902631
 10
17.2300622892
 20
10.0982003238
 10
17.2310606096
 20
10.0518534394
  0
LWPOLYLINE
  5
4CF
100
AcDbEntity
  8
RACCORDO
100
AcDbPolyline
 62
250
  6
CONTINUOUS
 90
13
 70
0
 10
16.2912172909
 20
10.2539802101
 10
16.2780689101
 20
10.2675129362
 10
16.2655791545
 20
10.2823527893
 10
16.2538775786
 20
10.2983468139
 10
16.2430851437
 20
10.3153308926
 10
16.233314668
 20
10.3331288017
 10
16.2246690956
 20
10.3515536427
 10
16.2172383174
 20
10.3704136112
 10
16.211098803
 20
10.389514347
 10
16.2063141296
 20
10.408658054
 10
16.2029338444
 20
10.4276464914
 10
16.2009929517
 20
10.4462830259
 10
16.2005115503
 20
10.4643746687
  0
LWPOLYLINE
  5
4D0
100
AcDbEntity
  8
RACCORDO
100
AcDbPolyline
 62
250
  6
CONTINUOUS
 90
13
 70
0
 10
16.2912172909
 20
10.2539802101
 10
16.3234409783
 20
10.2198060955
 10
16.3540174384
 20
10.1823685011
 10
16.3826299267
 20
10.1420552463
 10
16.4089820439
 20
10.0992839398
 10
16.4328008061
 20
10.0544976535
 10
16.4538394724
 20
10.0081603325
 10
16.4718801015
 20
9.9607519896
 10
16.4867358087
 20
9.9127637319
 10
16.4982527025
 20
9.8646926744
 10
16.5063114782
 20
9.8170367893
 10
16.5108286544
 20
9.7702897485
 10
16.5117574372
 20
9.7249358087
  0
LWPOLYLINE
  5
4D1
100
AcDbEntity
  8
268
100
AcDbPolyline
 62
7
  6
CONTINUOUS
 90
17
 70
0
 10
7.0102816356
 20
22.8551772498
 10
6.9766443418
 20
22.8912394003
 10
6.9429607537
 20
22.9258780599
 10
6.9092308714
 20
22.9590932287
 10
6.8753859696
 20
22.9909005327
 10
6.8414947736
 20
23.0212843458
 10
6.8077634586
 20
23.0501977899
 10
6.7742116632
 20
23.0776169652
 10
6.7408197488
 20
23.1035657715
 10
6.7077349747
 20
23.1280690301
 10
6.6749726613
 20
23.1511127369
 10
6.6425174882
 20
23.172710896
 10
6.6104707536
 20
23.19293034
 10
6.578843614
 20
23.211764254
 10
6.547624913
 20
23.229219453
 10
6.5168824786
 20
23.2453832145
 10
6.5097327003
 20
23.2489981016
  0
LWPOLYLINE
  5
4D2
100
AcDbEntity
  8
218
100
AcDbPolyline
 62
7
  6
CONTINUOUS
 90
75
 70
0
 10
18.1450551985
 20
8.715938793
 10
18.1499954717
 20
8.7077455884
 10
18.1813926087
 20
8.6540363452
 10
18.2120839528
 20
8.5998617486
 10
18.2420588864
 20
8.5452423683
 10
18.2713069201
 20
8.490198689
 10
18.299815524
 20
8.4347553821
 10
18.3275734609
 20
8.3789352034
 10
18.3545721432
 20
8.3227557612
 10
18.3808008043
 20
8.2662391664
 10
18.4062472871
 20
8.2094110797
 10
18.4309009932
 20
8.1522944081
 10
18.4547515125
 20
8.094912105
 10
18.4777877151
 20
8.0372894813
 10
18.4999983842
 20
7.9794530028
 10
18.52137085
 20
7.9214343087
 10
18.5418982006
 20
7.8632504563
 10
18.5615775242
 20
7.804905806
 10
18.5804043034
 20
7.7464067453
 10
18.5983624798
 20
7.6877954809
 10
18.6154329072
 20
7.6291299271
 10
18.6316007779
 20
7.5704604738
 10
18.6468662347
 20
7.5117856508
 10
18.6612325068
 20
7.4530853212
 10
18.6746966977
 20
7.3943557055
 10
18.6872427681
 20
7.3356495024
 10
18.6988545104
 20
7.2770307987
 10
18.7095214159
 20
7.2185466875
 10
18.7192419616
 20
7.1601983067
 10
18.7280143461
 20
7.1019802564
 10
18.7358334797
 20
7.0439000112
 10
18.7426897053
 20
6.9859986284
 10
18.7485743743
 20
6.9283204577
 10
18.753481793
 20
6.8708918489
 10
18.7574069776
 20
6.8137339006
 10
18.7603443803
 20
6.7568818318
 10
18.7622895293
 20
6.7003687887
 10
18.7632390268
 20
6.6442078211
 10
18.7631888938
 20
6.5884032754
 10
18.7621335805
 20
6.5329448462
 10
18.7600683939
 20
6.4778898149
 10
18.7569943772
 20
6.4233413702
 10
18.7529159516
 20
6.3693671903
 10
18.7478314814
 20
6.3159399847
 10
18.7417341137
 20
6.2630191266
 10
18.734611888
 20
6.2105622828
 10
18.726469332
 20
6.1586572641
 10
18.7173286981
 20
6.1074551468
 10
18.7072084738
 20
6.0570335676
 10
18.6961040254
 20
6.0073470669
 10
18.6840074552
 20
5.9583586097
 10
18.6709079396
 20
5.9100385325
 10
18.6568201624
 20
5.86245489
 10
18.6417770641
 20
5.8157147657
 10
18.6257953758
 20
5.7698532837
 10
18.6088776331
 20
5.7248624108
 10
18.5910429189
 20
5.6807786404
 10
18.5723069027
 20
5.6376240477
 10
18.5526770856
 20
5.5954004544
 10
18.532161797
 20
5.5541130591
 10
18.5107529351
 20
5.513738021
 10
18.4884806329
 20
5.4743251794
 10
18.4654178233
 20
5.4359841607
 10
18.4416249216
 20
5.3987817875
 10
18.4170840955
 20
5.3626579621
 10
18.3917523943
 20
5.3275319428
 10
18.3656124699
 20
5.2933742336
 10
18.3387093884
 20
5.2602384522
 10
18.311091719
 20
5.2281723145
 10
18.2827945554
 20
5.197199862
 10
18.2538224333
 20
5.1673097472
 10
18.2241811502
 20
5.1384947299
 10
18.1938931084
 20
5.1107645837
 10
18.1629758646
 20
5.0841235288
 10
18.1450551985
 20
5.069602559
  0
LWPOLYLINE
  5
4D3
100
AcDbEntity
  8
RACCORDO
100
AcDbPolyline
 62
250
  6
CONTINUOUS
 90
7
 70
0
 10
17.1657952367
 20
10.7638085236
 10
17.1542559185
 20
10.7833312703
 10
17.1393840815
 20
10.8020632629
 10
17.1211797256
 20
10.8200045014
 10
17.0996428508
 20
10.8371549858
 10
17.0747734572
 20
10.8535147162
 10
17.0465715447
 20
10.8690836924
  0
LWPOLYLINE
  5
4D4
100
AcDbEntity
  8
RACCORDO
100
AcDbPolyline
 62
250
  6
CONTINUOUS
 90
7
 70
0
 10
17.0843950268
 20
11.590022305
 10
17.0944196721
 20
11.5720733158
 10
17.1012480947
 20
11.5559437878
 10
17.1047634583
 20
11.5419097019
 10
17.1049056142
 20
11.5302111851
 10
17.10167213
 20
11.5210484023
 10
17.1001373696
 20
11.5189226595
  0
LINE
  5
4D5
100
AcDbEntity
  8
RACCORDO
100
AcDbLine
 62
7
  6
CONTINUOUS
 10
22.3436652812
 20
13.8168775136
 11
22.3436652812
 21
12.9219146502
  0
LINE
  5
4D6
100
AcDbEntity
  8
RACCORDO
100
AcDbLine
 62
7
  6
CONTINUOUS
 10
22.3436652812
 20
-19.9943952479
 11
22.3436652812
 21
-21.636171238
  0
LINE
  5
4D7
100
AcDbEntity
  8
RACCORDO
100
AcDbLine
 62
7
  6
CONTINUOUS
 10
23.0774427362
 20
14.4785173981
 11
23.0774427362
 21
14.1968019127
  0
LINE
  5
4D8
100
AcDbEntity
  8
RACCORDO
100
AcDbLine
 62
7
  6
CONTINUOUS
 10
23.0774427362
 20
-22.0030599655
 11
23.0774427362
 21
-22.2847754509
  0
LWPOLYLINE
  5
4D9
100
AcDbEntity
  8
RACCORDO
100
AcDbPolyline
 62
7
  6
CONTINUOUS
 90
8
 70
0
 10
22.3436652812
 20
12.9219146502
 10
22.3407419895
 20
12.8696846897
 10
22.3335957869
 20
12.8220983727
 10
22.3222266737
 20
12.779155699
 10
22.3063627292
 20
12.7405599967
 10
22.286275874
 20
12.7066079377
 10
22.2627818695
 20
12.6781895383
 10
22.2579770543
 20
12.673478951
  0
LWPOLYLINE
  5
4DA
100
AcDbEntity
  8
RACCORDO
100
AcDbPolyline
 62
250
  6
CONTINUOUS
 90
7
 70
0
 10
17.687948259
 20
-29.3324831084
 10
17.685910948
 20
-29.3482686787
 10
17.6795850864
 20
-29.364403764
 10
17.6690829364
 20
-29.3799786261
 10
17.6545923972
 20
-29.3947230739
 10
17.6363669699
 20
-29.4083852952
 10
17.6147251126
 20
-29.4207307635
  0
LWPOLYLINE
  5
4DB
100
AcDbEntity
  8
RACCORDO
100
AcDbPolyline
 62
250
  6
CONTINUOUS
 90
7
 70
0
 10
17.6879484173
 20
-28.9810284438
 10
17.6858096327
 20
-28.9973442178
 10
17.6794298739
 20
-29.0133808244
 10
17.6689183005
 20
-29.0288638728
 10
17.6544547683
 20
-29.0435284438
 10
17.6362867524
 20
-29.0571236224
 10
17.6147251126
 20
-29.0694167914
  0
LINE
  5
4DC
100
AcDbEntity
  8
268
100
AcDbLine
 62
7
  6
CONTINUOUS
 10
-13.2920119656
 20
25.4675656294
 11
-13.9143299977
 21
25.5975062119
  0
LWPOLYLINE
  5
4DD
100
AcDbEntity
  8
RACCORDO
100
AcDbPolyline
 62
7
  6
CONTINUOUS
 90
12
 70
0
 10
12.6057439326
 20
19.5952555439
 10
12.5973323978
 20
19.5991891465
 10
12.5785586715
 20
19.606291823
 10
12.5589354842
 20
19.611412741
 10
12.5384735797
 20
19.6145769652
 10
12.5174339569
 20
19.615744135
 10
12.4958092152
 20
19.6148886683
 10
12.4736067551
 20
19.6120361472
 10
12.4511097767
 20
19.6072229565
 10
12.42841268
 20
19.6004612245
 10
12.4054210651
 20
19.5917388229
 10
12.3821349319
 20
19.5810557517
  0
LWPOLYLINE
  5
4DE
100
AcDbEntity
  8
RACCORDO
100
AcDbPolyline
 62
7
  6
CONTINUOUS
 90
12
 70
0
 10
14.9506897438
 20
18.9528211011
 10
14.9395417452
 20
18.9581392587
 10
14.9026926615
 20
18.9728057097
 10
14.8641555271
 20
18.9836059001
 10
14.8239512277
 20
18.9905876656
 10
14.7825813331
 20
18.993663905
 10
14.7400312411
 20
18.9927856914
 10
14.6963155538
 20
18.9880019517
 10
14.6519796475
 20
18.9793723657
 10
14.6072053142
 20
18.9669168264
 10
14.5618107618
 20
18.9506154408
 10
14.5157959904
 20
18.9304682088
  0
LINE
  5
4DF
100
AcDbEntity
  8
268
100
AcDbLine
 62
7
  6
CONTINUOUS
 10
-0.6565385095
 20
23.998896412
 11
-3.4570569667
 21
25.3991556406
  0
LINE
  5
4E0
100
AcDbEntity
  8
268
100
AcDbLine
 62
7
  6
CONTINUOUS
 10
-3.8106103573
 20
26.1284905252
 11
-3.4570569667
 21
25.9517138299
  0
LINE
  5
4E1
100
AcDbEntity
  8
0
100
AcDbLine
 62
7
  6
CONTINUOUS
 10
13.363291153
 20
17.8994271238
 11
16.1408318827
 21
16.5106567589
  0
LINE
  5
4E2
100
AcDbEntity
  8
268
100
AcDbLine
 62
7
  6
CONTINUOUS
 10
0.7512771868
 20
24.6927730704
 11
-2.0592724602
 21
26.0980478939
  0
LINE
  5
4E3
100
AcDbEntity
  8
218
100
AcDbLine
 62
7
  6
CONTINUOUS
 10
6.9541328452
 20
22.2151555881
 11
7.4699688486
 21
21.9572375864
  0
LINE
  5
4E4
100
AcDbEntity
  8
RACCORDO
100
AcDbLine
 62
250
  6
CONTINUOUS
 10
11.7762839868
 20
19.8839812243
 11
12.3821349319
 21
19.5810557517
  0
LINE
  5
4E5
100
AcDbEntity
  8
RACCORDO
100
AcDbLine
 62
250
  6
CONTINUOUS
 10
17.3318824002
 20
17.1061820176
 11
17.9377333453
 21
16.803256545
  0
LINE
  5
4E6
100
AcDbEntity
  8
268
100
AcDbLine
 62
7
  6
CONTINUOUS
 10
-0.6993405201
 20
26.1717960813
 11
1.5104003681
 21
25.0669256372
  0
LINE
  5
4E7
100
AcDbEntity
  8
268
100
AcDbLine
 62
7
  6
CONTINUOUS
 10
2.2559851912
 20
24.6941332256
 11
2.4017986013
 21
24.6212265206
  0
LINE
  5
4E8
100
AcDbEntity
  8
0
100
AcDbLine
 62
7
  6
CONTINUOUS
 10
18.3841957722
 20
16.6300279351
 11
18.2666023528
 21
16.6888246448
  0
LINE
  5
4E9
100
AcDbEntity
  8
0
100
AcDbLine
 62
7
  6
CONTINUOUS
 10
17.3875073683
 20
17.1283721371
 11
15.2105620566
 21
18.2168447929
  0
LINE
  5
4EA
100
AcDbEntity
  8
RACCORDO
100
AcDbLine
 62
7
  6
CONTINUOUS
 10
12.0011786814
 20
19.8975381694
 11
12.6057417296
 21
19.5952566454
  0
LINE
  5
4EB
100
AcDbEntity
  8
RACCORDO
100
AcDbLine
 62
7
  6
CONTINUOUS
 10
17.5554891979
 20
17.1203829112
 11
18.1600522461
 21
16.8181013871
  0
LINE
  5
4EC
100
AcDbEntity
  8
268
100
AcDbLine
 62
7
  6
CONTINUOUS
 10
-3.5667982657
 20
27.8687686339
 11
-3.3863462886
 21
27.7785426453
  0
LINE
  5
4ED
100
AcDbEntity
  8
268
100
AcDbLine
 62
7
  6
CONTINUOUS
 10
1.9876652484
 20
25.0915368768
 11
2.1681172256
 21
25.0013108882
  0
LINE
  5
4EE
100
AcDbEntity
  8
RACCORDO
100
AcDbLine
 62
250
  6
CONTINUOUS
 10
11.3515954755
 20
20.5125684662
 11
14.5157959904
 21
18.9304682088
  0
LINE
  5
4EF
100
AcDbEntity
  8
RACCORDO
100
AcDbLine
 62
250
  6
CONTINUOUS
 10
18.7584366775
 20
16.8091478652
 11
21.9226371923
 21
15.2270476078
  0
LINE
  5
4F0
100
AcDbEntity
  8
268
100
AcDbLine
 62
250
  6
CONTINUOUS
 10
-4.3793666098
 20
28.4476656582
 11
-1.4002767088
 21
26.9581207077
  0
LINE
  5
4F1
100
AcDbEntity
  8
268
100
AcDbLine
 62
250
  6
CONTINUOUS
 10
2.8423639783
 20
24.8368003642
 11
5.8214538792
 21
23.3472554137
  0
LINE
  5
4F2
100
AcDbEntity
  8
PREM_14013
100
AcDbLine
 62
250
  6
CONTINUOUS
 10
4.2030000076
 20
26.6040693814
 11
4.2155334057
 21
26.5935898463
  0
LWPOLYLINE
  5
4F3
100
AcDbEntity
  8
PREM_14013
100
AcDbPolyline
 62
250
  6
CONTINUOUS
 90
3
 70
0
 10
4.1093634085
 20
26.597773373
 10
4.1322238379
 20
26.5781946395
 10
4.1483143467
 20
26.5636894765
  0
LWPOLYLINE
  5
4F4
100
AcDbEntity
  8
RACCORDO
100
AcDbPolyline
 62
250
  6
CONTINUOUS
 90
7
 70
0
 10
17.6147251126
 20
12.230187348
 10
17.624749758
 20
12.2122383587
 10
17.6315781806
 20
12.1961088308
 10
17.6350935442
 20
12.1820747449
 10
17.6352357001
 20
12.1703762281
 10
17.6320022159
 20
12.1612134452
 10
17.6304674554
 20
12.1590877024
  0
LWPOLYLINE
  5
4F5
100
AcDbEntity
  8
218
100
AcDbPolyline
 62
250
  6
CONTINUOUS
 90
57
 70
0
 10
17.1179860431
 20
20.0087126981
 10
17.1273270882
 20
19.9787333527
 10
17.1395257201
 20
19.9361989662
 10
17.1509697451
 20
19.8926600049
 10
17.1616412103
 20
19.8481229711
 10
17.171473244
 20
19.8026005228
 10
17.1804662054
 20
19.7559866881
 10
17.1885905987
 20
19.7083837729
 10
17.19574318
 20
19.6601223839
 10
17.2019084074
 20
19.6111384124
 10
17.2070880066
 20
19.5615036977
 10
17.2112249817
 20
19.511764148
 10
17.2143045059
 20
19.461859675
 10
17.2163527958
 20
19.4118705976
 10
17.2174034336
 20
19.3625672147
 10
17.2174477039
 20
19.3139225454
 10
17.2165392931
 20
19.2659947741
 10
17.2148388565
 20
19.2196954599
 10
17.2123872396
 20
19.1753408749
 10
17.2092238131
 20
19.1326525598
 10
17.2055211655
 20
19.0916546797
 10
17.2013357653
 20
19.0524698939
 10
17.1966782554
 20
19.0150019274
 10
17.1916431979
 20
18.9789431026
 10
17.18626172
 20
18.9442615516
 10
17.1805497005
 20
18.9110051014
 10
17.1745682021
 20
18.8789822781
 10
17.1683361677
 20
18.8481675565
 10
17.1618704695
 20
18.8185968783
 10
17.1552230464
 20
18.7901692711
 10
17.1484109272
 20
18.7628847272
 10
17.1414458461
 20
18.7367504451
 10
17.1343679407
 20
18.711675314
 10
17.1271937207
 20
18.6876687013
 10
17.1199294796
 20
18.6647262339
 10
17.1125967523
 20
18.6427354961
 10
17.1052101729
 20
18.6217033374
 10
17.0977725184
 20
18.6016263302
 10
17.0902846055
 20
18.5823760743
 10
17.0827537623
 20
18.563944736
 10
17.0751855026
 20
18.5463424615
 10
17.0675756411
 20
18.5294673998
 10
17.059921047
 20
18.5132996553
 10
17.0522344045
 20
18.4978607565
 10
17.0445338416
 20
18.4831107686
 10
17.0368157147
 20
18.4690419921
 10
17.0290911003
 20
18.4556634591
 10
17.0213993518
 20
18.4429602647
 10
17.0137458585
 20
18.4309436252
 10
17.0061308962
 20
18.4196035208
 10
16.9985853752
 20
18.4088931422
 10
16.9911226078
 20
18.3988282613
 10
16.9837331827
 20
18.3893941418
 10
16.9764131385
 20
18.3804980931
 10
16.9691618434
 20
18.37210946
 10
16.9619822788
 20
18.3642597004
 10
16.9548754415
 20
18.3569492126
  0
LWPOLYLINE
  5
4F6
100
AcDbEntity
  8
RACCORDO
100
AcDbPolyline
 62
250
  6
CONTINUOUS
 90
13
 70
0
 10
17.0843950268
 20
-28.9595818344
 10
17.0944196721
 20
-28.9285835015
 10
17.1012480947
 20
-28.8966032096
 10
17.1047634583
 20
-28.8641881503
 10
17.1049056142
 20
-28.8318929543
 10
17.10167213
 20
-28.8002702012
 10
17.0951183315
 20
-28.7698609652
 10
17.085356356
 20
-28.7411855568
 10
17.0725532336
 20
-28.7147346201
 10
17.0569280293
 20
-28.690960738
 10
17.0387480947
 20
-28.6702706881
 10
17.0183244934
 20
-28.6530184831
 10
16.9960066791
 20
-28.6394993129
  0
LWPOLYLINE
  5
4F7
100
AcDbEntity
  8
RACCORDO
100
AcDbPolyline
 62
250
  6
CONTINUOUS
 90
5
 70
0
 10
17.6147251126
 20
-29.0694167914
 10
17.6246887462
 20
-29.0386461186
 10
17.631514708
 20
-29.0068317489
 10
17.6350657667
 20
-28.9745079014
 10
17.6352581457
 20
-28.9421996507
  0
LINE
  5
4F8
100
AcDbEntity
  8
218
100
AcDbLine
 62
250
  6
CONTINUOUS
 10
-3.909973487
 20
24.7282226136
 11
-3.8997909417
 21
24.731071208
  0
LWPOLYLINE
  5
4F9
100
AcDbEntity
  8
218
100
AcDbPolyline
 62
250
  6
CONTINUOUS
 90
3
 70
0
 10
-3.8997909417
 20
24.731071208
 10
-3.8894190404
 20
24.7338769823
 10
-3.8841619741
 20
24.7352632812
  0
LWPOLYLINE
  5
4FA
100
AcDbEntity
  8
218
100
AcDbPolyline
 62
250
  6
CONTINUOUS
 90
4
 70
0
 10
-3.8841619741
 20
24.7352632812
 10
-3.8735053788
 20
24.7379982664
 10
-3.8681058497
 20
24.7393469526
 10
-3.862658987
 20
24.7406815614
  0
LWPOLYLINE
  5
4FB
100
AcDbEntity
  8
218
100
AcDbPolyline
 62
250
  6
CONTINUOUS
 90
128
 70
0
 10
-3.862658987
 20
24.7406815614
 10
-3.851623109
 20
24.7433085824
 10
-3.8460345277
 20
24.7445993889
 10
-3.8403987709
 20
24.7458745708
 10
-3.8347160386
 20
24.7471340875
 10
-3.8289872897
 20
24.7483762297
 10
-3.8232123626
 20
24.7496010197
 10
-3.8173914187
 20
24.7508084351
 10
-3.8115259012
 20
24.7519966995
 10
-3.8056159908
 20
24.7531657684
 10
-3.7996615068
 20
24.7543156864
 10
-3.7936633498
 20
24.7554448103
 10
-3.7876212881
 20
24.7565531773
 10
-3.7815355535
 20
24.7576407502
 10
-3.7754077419
 20
24.758705775
 10
-3.769229535
 20
24.7597494257
 10
-3.7630092512
 20
24.7607705283
 10
-3.7567734408
 20
24.7617638061
 10
-3.7505256758
 20
24.7627283116
 10
-3.7442623844
 20
24.7636649924
 10
-3.7379994008
 20
24.7645714143
 10
-3.7317392177
 20
24.7654470163
 10
-3.7254793424
 20
24.7662923594
 10
-3.7192281313
 20
24.767106693
 10
-3.7129866842
 20
24.7678897774
 10
-3.7067539012
 20
24.7686418521
 10
-3.7005348387
 20
24.7693628849
 10
-3.6943298724
 20
24.7700527783
 10
-3.6881386267
 20
24.7707116298
 10
-3.6819650303
 20
24.7713396994
 10
-3.6758094775
 20
24.7719369158
 10
-3.6696715741
 20
24.7725033502
 10
-3.663554067
 20
24.7730394773
 10
-3.657457232
 20
24.7735452598
 10
-3.6513807934
 20
24.7740207349
 10
-3.6453266707
 20
24.7744664882
 10
-3.6392944871
 20
24.7748825296
 10
-3.6332846195
 20
24.7752688492
 10
-3.6273001184
 20
24.7756260028
 10
-3.6213411754
 20
24.7759539565
 10
-3.6154075989
 20
24.7762527442
 10
-3.6095018649
 20
24.776523023
 10
-3.6036241419
 20
24.7767647718
 10
-3.5977742613
 20
24.7769780117
 10
-3.5919541934
 20
24.7771634636
 10
-3.5861638594
 20
24.7773211172
 10
-3.5804033382
 20
24.7774509826
 10
-3.5746748363
 20
24.7775538116
 10
-3.568978331
 20
24.7776295876
 10
-3.5633138451
 20
24.7776783272
 10
-3.5576836533
 20
24.7777008319
 10
-3.552087881
 20
24.7776970857
 10
-3.5465264027
 20
24.7776671046
 10
-3.5410011173
 20
24.7776117383
 10
-3.5355122169
 20
24.7775309804
 10
-3.5300595092
 20
24.7774248373
 10
-3.5246443159
 20
24.7772941779
 10
-3.5192666918
 20
24.7771390001
 10
-3.5139265821
 20
24.776959306
 10
-3.508625144
 20
24.776755972
 10
-3.5033620948
 20
24.7765289739
 10
-3.4981377171
 20
24.7762783357
 10
-3.4929540169
 20
24.7760050057
 10
-3.4878112038
 20
24.7757089784
 10
-3.4827090681
 20
24.7753902593
 10
-3.4776489861
 20
24.7750498131
 10
-3.4726311705
 20
24.7746876472
 10
-3.4676554086
 20
24.7743037541
 10
-3.4627224388
 20
24.7738990759
 10
-3.4578323445
 20
24.7734736186
 10
-3.4529850423
 20
24.7730273762
 10
-3.44818102
 20
24.7725612722
 10
-3.44342033
 20
24.7720753127
 10
-3.4387029199
 20
24.7715694917
 10
-3.4340291211
 20
24.7710447143
 10
-3.4293989899
 20
24.7705009892
 10
-3.4248124699
 20
24.7699383077
 10
-3.4202697227
 20
24.7693575496
 10
-3.4157708273
 20
24.7687587292
 10
-3.4113157047
 20
24.7681418322
 10
-3.4069042785
 20
24.7675076943
 10
-3.4025366003
 20
24.7668563295
 10
-3.3982126185
 20
24.7661877238
 10
-3.3939321025
 20
24.7655026708
 10
-3.3896950897
 20
24.7648011842
 10
-3.3855015426
 20
24.7640832503
 10
-3.3813511185
 20
24.7633496209
 10
-3.3772438669
 20
24.7626003142
 10
-3.3731797381
 20
24.761835312
 10
-3.3691582409
 20
24.7610553117
 10
-3.3651794118
 20
24.7602603316
 10
-3.3612432143
 20
24.7594503534
 10
-3.3573490465
 20
24.7586260196
 10
-3.3534969494
 20
24.757787352
 10
-3.3496868821
 20
24.7569343288
 10
-3.34591812
 20
24.7560675274
 10
-3.3421907051
 20
24.755186973
 10
-3.3385045953
 20
24.7542926404
 10
-3.3348589406
 20
24.7533850313
 10
-3.331253757
 20
24.7524641672
 10
-3.3276890285
 20
24.7515300266
 10
-3.3241638559
 20
24.750583046
 10
-3.3206782397
 20
24.749623244
 10
-3.3172321795
 20
24.7486506021
 10
-3.3138247752
 20
24.7476655011
 10
-3.3104560367
 20
24.7466679634
 10
-3.3071259542
 20
24.7456579665
 10
-3.3038335978
 20
24.7446358239
 10
-3.3005789751
 20
24.7436015593
 10
-3.2973620786
 20
24.742555149
 10
-3.2941819563
 20
24.7414968355
 10
-3.2910386002
 20
24.740426639
 10
-3.2879320184
 20
24.7393445393
 10
-3.2848612831
 20
24.7382507186
 10
-3.2818263712
 20
24.7371451915
 10
-3.2788273058
 20
24.7360279434
 10
-3.2758632289
 20
24.7348991121
 10
-3.2729341049
 20
24.7337587069
 10
-3.2700399693
 20
24.7326067186
 10
-3.2671800706
 20
24.7314432576
 10
-3.264354383
 20
24.7302683342
 10
-3.2615629322
 20
24.7290819381
 10
-3.2588050436
 20
24.7278841486
 10
-3.2560807047
 20
24.7266749839
 10
-3.253389928
 20
24.7254544257
 10
-3.2507320764
 20
24.7242224989
 10
-3.2481069374
 20
24.7229792115
 10
-3.2455147236
 20
24.7217245554
  0
LWPOLYLINE
  5
4FC
100
AcDbEntity
  8
PREM_14013
100
AcDbPolyline
 62
7
  6
CONTINUOUS
 90
10
 70
0
 10
7.5867178702
 20
23.092709005
 10
7.5715775864
 20
23.0949421533
 10
7.556671202
 20
23.0961038929
 10
7.5419987168
 20
23.0961942237
 10
7.5274339494
 20
23.0951888333
 10
7.5131030813
 20
23.0931120342
 10
7.4993846573
 20
23.0900367633
 10
7.4864048589
 20
23.085987333
 10
7.4740375046
 20
23.0809394308
 10
7.4622825943
 20
23.0748930568
  0
LINE
  5
4FD
100
AcDbEntity
  8
PREM_14013
100
AcDbLine
 62
7
  6
CONTINUOUS
 10
10.5481292437
 20
22.5523250844
 11
10.2605532797
 21
22.6048005453
  0
LINE
  5
4FE
100
AcDbEntity
  8
PREM_14013
100
AcDbLine
 62
7
  6
CONTINUOUS
 10
9.3289725547
 20
22.7747908577
 11
7.5867565965
 21
23.0927019384
  0
LINE
  5
4FF
100
AcDbEntity
  8
PREM_14013
100
AcDbLine
 62
7
  6
CONTINUOUS
 10
9.9767952807
 20
23.4496417745
 11
10.6343727499
 21
23.3296502414
  0
LWPOLYLINE
  5
500
100
AcDbEntity
  8
268
100
AcDbPolyline
 62
7
  6
CONTINUOUS
 90
13
 70
0
 10
6.2632947471
 20
23.3364371334
 10
6.2286439372
 20
23.3428668145
 10
6.1934397141
 20
23.3482499673
 10
6.1577198622
 20
23.3526121082
 10
6.1214945453
 20
23.3560060313
 10
6.0848268072
 20
23.358435781
 10
6.0478305973
 20
23.3598470102
 10
6.0105435624
 20
23.3602571451
 10
5.9729925805
 20
23.3596932635
 10
5.9352718796
 20
23.3581012754
 10
5.8974325049
 20
23.3554721844
 10
5.8594833187
 20
23.3518502032
 10
5.8214538792
 20
23.3472554137
  0
LINE
  5
501
100
AcDbEntity
  8
PREM_14013
100
AcDbLine
 62
7
  6
CONTINUOUS
 10
1.9493683897
 20
26.366304001
 11
1.4996237283
 21
26.4880518342
  0
LWPOLYLINE
  5
502
100
AcDbEntity
  8
268
100
AcDbPolyline
 62
7
  6
CONTINUOUS
 90
18
 70
0
 10
-0.9592430241
 20
26.9834748333
 10
-0.9787860761
 20
26.9925440877
 10
-1.0016818563
 20
27.0015295023
 10
-1.0251911426
 20
27.0090317351
 10
-1.0493324647
 20
27.015065905
 10
-1.074022218
 20
27.0196116893
 10
-1.0992836443
 20
27.0226656728
 10
-1.1250935017
 20
27.0242312707
 10
-1.1512984606
 20
27.0242984073
 10
-1.1778824232
 20
27.0228596314
 10
-1.2048614872
 20
27.019922394
 10
-1.2321306159
 20
27.0154989727
 10
-1.2597047955
 20
27.0095805871
 10
-1.2875690398
 20
27.0021760176
 10
-1.3155733529
 20
26.993323883
 10
-1.3436677361
 20
26.9830370563
 10
-1.3719021881
 20
26.9713026645
 10
-1.4002767088
 20
26.9581207077
  0
LWPOLYLINE
  5
503
100
AcDbEntity
  8
268
100
AcDbPolyline
 62
7
  6
CONTINUOUS
 90
10
 70
0
 10
6.5097327003
 20
23.2489981016
 10
6.4866301676
 20
23.2602510937
 10
6.4568541232
 20
23.2738275354
 10
6.4275806041
 20
23.2862131522
 10
6.3987905962
 20
23.2974149487
 10
6.3705031135
 20
23.3074259202
 10
6.3428014571
 20
23.3163256647
 10
6.3157133941
 20
23.3241407147
 10
6.2892111575
 20
23.3308445376
 10
6.2632947471
 20
23.3364371334
  0
LWPOLYLINE
  5
504
100
AcDbEntity
  8
PREM_14013
100
AcDbPolyline
 62
7
  6
CONTINUOUS
 90
31
 70
0
 10
11.442691121
 20
23.2462514172
 10
11.3412099465
 20
23.2969242727
 10
11.2351484586
 20
23.3443977783
 10
11.1248291309
 20
23.3886059486
 10
11.0105793277
 20
23.4294876832
 10
10.892715204
 20
23.4669916777
 10
10.7715598529
 20
23.5010688889
 10
10.647484432
 20
23.5316640512
 10
10.520805817
 20
23.5587433605
 10
10.3917889714
 20
23.5822849128
 10
10.2607825173
 20
23.6022524382
 10
10.1281414615
 20
23.6186162195
 10
9.9941504991
 20
23.6313599141
 10
9.8591663402
 20
23.6404630392
 10
9.7235475286
 20
23.6459127283
 10
9.5875864184
 20
23.6477038301
 10
9.4516419884
 20
23.6458335821
 10
9.316073644
 20
23.6403070139
 10
9.1811740801
 20
23.631131588
 10
9.0472996873
 20
23.618322375
 10
8.9148066631
 20
23.6019021829
 10
8.7839817755
 20
23.5818902018
 10
8.6551754709
 20
23.5583182253
 10
8.5287352487
 20
23.5312251501
 10
8.4049319915
 20
23.5006375809
 10
8.2840999391
 20
23.466598843
 10
8.1665813753
 20
23.4291615208
 10
8.0526401049
 20
23.3883569702
 10
7.9425750881
 20
23.3442271439
 10
7.8367323891
 20
23.2968372962
 10
7.7354351713
 20
23.2462514172
  0
LINE
  5
505
100
AcDbEntity
  8
RACCORDO
100
AcDbLine
 62
7
  6
CONTINUOUS
 10
11.6271918282
 20
20.6145700597
 11
14.9506688709
 21
18.9528315384
  0
LINE
  5
506
100
AcDbEntity
  8
RACCORDO
100
AcDbLine
 62
7
  6
CONTINUOUS
 10
19.193309558
 20
16.8315111948
 11
22.5167866008
 21
15.1697726734
  0
LINE
  5
507
100
AcDbEntity
  8
268
100
AcDbLine
 62
7
  6
CONTINUOUS
 10
-4.1855569489
 20
28.5966317959
 11
-0.9592337058
 21
26.9834701743
  0
LINE
  5
508
100
AcDbEntity
  8
268
100
AcDbLine
 62
7
  6
CONTINUOUS
 10
3.2834069813
 20
24.8621498308
 11
6.5097302245
 21
23.2489882092
  0
LINE
  5
509
100
AcDbEntity
  8
PREM_14013
100
AcDbLine
 62
7
  6
CONTINUOUS
 10
0.9996031923
 20
26.2430873554
 11
0.2976800414
 21
26.5940489308
  0
LINE
  5
50A
100
AcDbEntity
  8
PREM_14013
100
AcDbLine
 62
7
  6
CONTINUOUS
 10
1.4996237283
 20
26.4880518342
 11
0.7926547882
 21
26.8415363042
  0
LINE
  5
50B
100
AcDbEntity
  8
218
100
AcDbLine
 62
7
  6
CONTINUOUS
 10
7.6658883238
 20
23.9336724244
 11
8.0982025746
 21
23.717515299
  0
LINE
  5
50C
100
AcDbEntity
  8
218
100
AcDbLine
 62
7
  6
CONTINUOUS
 10
0.6735813721
 20
27.4298259002
 11
0.2412671214
 21
27.6459830256
  0
LINE
  5
50D
100
AcDbEntity
  8
PREM_14013
100
AcDbLine
 62
7
  6
CONTINUOUS
 10
4.2030000076
 20
26.6040693814
 11
4.2199297693
 21
26.5955980431
  0
LWPOLYLINE
  5
50E
100
AcDbEntity
  8
PREM_14013
100
AcDbPolyline
 62
7
  6
CONTINUOUS
 90
10
 70
0
 10
4.1650559403
 20
26.6167370364
 10
4.0675788866
 20
26.6667924681
 10
3.9719656848
 20
26.7157683437
 10
3.8782163349
 20
26.7636646633
 10
3.7863452536
 20
26.8104828511
 10
3.6963380242
 20
26.8562214828
 10
3.6081513961
 20
26.9008762858
 10
3.5217709527
 20
26.944445836
 10
3.4372111108
 20
26.9869315574
 10
3.3544718702
 20
27.0283334501
  0
LINE
  5
50F
100
AcDbEntity
  8
PREM_14013
100
AcDbLine
 62
7
  6
CONTINUOUS
 10
11.8996873928
 20
23.0052682468
 11
11.442691121
 21
23.2462514172
  0
LWPOLYLINE
  5
510
100
AcDbEntity
  8
PREM_14013
100
AcDbPolyline
 62
250
  6
CONTINUOUS
 90
8
 70
0
 10
11.442691121
 20
23.2462514172
 10
11.4683644674
 20
23.2325122004
 10
11.549170545
 20
23.1864556818
 10
11.6231335696
 20
23.1400524344
 10
11.690704122
 20
23.0934328004
 10
11.7519622596
 20
23.0469653882
 10
11.8071555265
 20
23.0009248936
 10
11.8358151849
 20
22.9746130294
  0
LINE
  5
511
100
AcDbEntity
  8
PREM_14013
100
AcDbLine
 62
7
  6
CONTINUOUS
 10
4.172814369
 20
26.6121505643
 11
4.1650559403
 21
26.6167370364
  0
LWPOLYLINE
  5
512
100
AcDbEntity
  8
218
100
AcDbPolyline
 62
250
  6
CONTINUOUS
 90
28
 70
0
 10
16.2873530296
 20
23.8458773068
 10
16.2727435291
 20
23.8708716259
 10
16.2577130981
 20
23.895533127
 10
16.2422744495
 20
23.9198409507
 10
16.226440642
 20
23.9437745367
 10
16.2102250682
 20
23.9673136413
 10
16.1936414436
 20
23.9904383546
 10
16.1767037952
 20
24.0131291169
 10
16.1594264493
 20
24.0353667358
 10
16.1418240196
 20
24.0571324021
 10
16.1239113946
 20
24.0784077058
 10
16.1057037255
 20
24.0991746516
 10
16.0872164127
 20
24.1194156743
 10
16.0684650933
 20
24.1391136534
 10
16.0494656277
 20
24.1582519278
 10
16.0302340863
 20
24.1768143099
 10
16.0107867355
 20
24.194785099
 10
15.9911400245
 20
24.212149095
 10
15.9713105711
 20
24.228891611
 10
15.9513151475
 20
24.2449984855
 10
15.9311706665
 20
24.2604560951
 10
15.9108941667
 20
24.2752513651
 10
15.8905027987
 20
24.2893717814
 10
15.87001381
 20
24.3028054004
 10
15.8494445308
 20
24.3155408598
 10
15.8288123591
 20
24.3275673874
 10
15.8081347463
 20
24.3388748108
 10
15.787429182
 20
24.3494535661
  0
LINE
  5
513
100
AcDbEntity
  8
218
100
AcDbLine
 62
250
  6
CONTINUOUS
 10
16.2873530296
 20
23.8458773068
 11
16.4231753678
 21
23.6116184256
  0
LWPOLYLINE
  5
514
100
AcDbEntity
  8
218
100
AcDbPolyline
 62
250
  6
CONTINUOUS
 90
37
 70
0
 10
16.4231753678
 20
23.6116184256
 10
16.4448561755
 20
23.573879754
 10
16.4660449757
 20
23.5358115067
 10
16.4867316443
 20
23.4974317757
 10
16.5069062245
 20
23.4587588527
 10
16.5265591575
 20
23.4198110705
 10
16.5456812775
 20
23.3806067892
 10
16.5642635075
 20
23.3411645309
 10
16.5822969059
 20
23.3015031532
 10
16.5997728961
 20
23.2616416899
 10
16.6166831219
 20
23.22159916
 10
16.6330195329
 20
23.1813945374
 10
16.6487744235
 20
23.141046921
 10
16.663940288
 20
23.1005755008
 10
16.6785098856
 20
23.0599995219
 10
16.6924763283
 20
23.0193382543
 10
16.7058329769
 20
22.9786110144
 10
16.7185734483
 20
22.9378372002
 10
16.7306916768
 20
22.8970362542
 10
16.742181904
 20
22.8562275933
 10
16.7530386557
 20
22.8154306298
 10
16.7632567484
 20
22.7746648069
 10
16.7728313321
 20
22.7339495581
 10
16.781757862
 20
22.6933042267
 10
16.7900320757
 20
22.6527480875
 10
16.7976500607
 20
22.6123004497
 10
16.8046082025
 20
22.5719805631
 10
16.8109031537
 20
22.5318075385
 10
16.8165319585
 20
22.4918004475
 10
16.8214919441
 20
22.4519783966
 10
16.8257806712
 20
22.4123604313
 10
16.8293961342
 20
22.3729655365
 10
16.8323366592
 20
22.3338123534
 10
16.8346007845
 20
22.2949192566
 10
16.8361874307
 20
22.2563046856
 10
16.8370959144
 20
22.2179871306
 10
16.8373258434
 20
22.179984851
  0
LWPOLYLINE
  5
515
100
AcDbEntity
  8
RACCORDO
100
AcDbPolyline
 62
250
  6
CONTINUOUS
 90
7
 70
0
 10
16.9738005733
 20
-28.2861248172
 10
16.972524202
 20
-28.2893125303
 10
16.9645280934
 20
-28.3023896359
 10
16.9539366056
 20
-28.3150483196
 10
16.9408346463
 20
-28.3271481617
 10
16.9253454734
 20
-28.3385573475
 10
16.9076183315
 20
-28.3491477542
  0
LWPOLYLINE
  5
516
100
AcDbEntity
  8
RACCORDO
100
AcDbPolyline
 62
250
  6
CONTINUOUS
 90
6
 70
0
 10
16.2111511651
 20
-28.6553939088
 10
16.211096279
 20
-28.6555057713
 10
16.2063127155
 20
-28.669392958
 10
16.2029332304
 20
-28.6845135578
 10
16.2009928121
 20
-28.7007110274
 10
16.2005115503
 20
-28.7178176745
  0
LINE
  5
517
100
AcDbEntity
  8
RACCORDO
100
AcDbLine
 62
250
  6
CONTINUOUS
 10
13.0765106533
 20
-24.3637204989
 11
14.1697460762
 21
-23.8588281521
  0
LINE
  5
518
100
AcDbEntity
  8
RACCORDO
100
AcDbLine
 62
7
  6
CONTINUOUS
 10
13.0569971543
 20
-24.5832365867
 11
14.0693985476
 21
-24.1156760735
  0
LINE
  5
519
100
AcDbEntity
  8
268
100
AcDbLine
 62
7
  6
CONTINUOUS
 10
-2.0592724602
 20
26.0980478939
 11
-0.6993405201
 21
26.1717960813
  0
LWPOLYLINE
  5
51A
100
AcDbEntity
  8
PREM_14013
100
AcDbPolyline
 62
7
  6
CONTINUOUS
 90
9
 70
0
 10
3.3424311884
 20
27.0331512307
 10
3.3363144479
 20
27.0347507284
 10
3.3265442341
 20
27.0362835423
 10
3.3162180387
 20
27.0366989867
 10
3.3054308415
 20
27.0359972142
 10
3.2944675826
 20
27.0341786829
 10
3.2834232419
 20
27.0312435454
 10
3.2722028394
 20
27.027191649
 10
3.2608063751
 20
27.0220229937
  0
LWPOLYLINE
  5
51B
100
AcDbEntity
  8
PREM_14013
100
AcDbPolyline
 62
7
  6
CONTINUOUS
 90
28
 70
0
 10
3.3424210522
 20
27.0331272783
 10
3.2337057056
 20
27.0644131241
 10
3.1188506627
 20
27.0937668011
 10
3.0015892387
 20
27.1200938713
 10
2.8822160739
 20
27.143355963
 10
2.7609957022
 20
27.1635265158
 10
2.6381663328
 20
27.1805857911
 10
2.5140175354
 20
27.1945096327
 10
2.3888340723
 20
27.2052803017
 10
2.2628535548
 20
27.2128877014
 10
2.1363671687
 20
27.2173210801
 10
2.0096644457
 20
27.2185756348
 10
1.8829827003
 20
27.2166508617
 10
1.7566114305
 20
27.2115495267
 10
1.6308418399
 20
27.2032803145
 10
1.5059122406
 20
27.1918524391
 10
1.382113366
 20
27.1772826068
 10
1.2597286136
 20
27.1595925853
 10
1.1389801774
 20
27.1387984099
 10
1.0201452563
 20
27.1149268099
 10
0.9035094329
 20
27.0880117581
 10
0.7892978598
 20
27.0580769908
 10
0.6777826816
 20
27.0251598869
 10
0.5692364852
 20
26.9893032521
 10
0.4638695937
 20
26.9505316345
 10
0.3619228112
 20
26.9088788261
 10
0.2636766738
 20
26.8643980516
 10
0.1693926126
 20
26.8171406622
  0
LWPOLYLINE
  5
51C
100
AcDbEntity
  8
PREM_14013
100
AcDbPolyline
 62
7
  6
CONTINUOUS
 90
3
 70
0
 10
3.3544718702
 20
27.0283334501
 10
3.3456236599
 20
27.0321006977
 10
3.3424311884
 20
27.0331512307
  0
LWPOLYLINE
  5
51D
100
AcDbEntity
  8
218
100
AcDbPolyline
 62
7
  6
CONTINUOUS
 90
10
 70
0
 10
11.8411665102
 20
23.7726907006
 10
11.8772721298
 20
23.7569829757
 10
11.9128067322
 20
23.7409744882
 10
11.9477703174
 20
23.7246652382
 10
11.9821730546
 20
23.7080501408
 10
12.0160047746
 20
23.6911342808
 10
12.0492349693
 20
23.6739329122
 10
12.0818534695
 20
23.6564511196
 10
12.1138704445
 20
23.6386838184
 10
12.1452858942
 20
23.6206310086
  0
LWPOLYLINE
  5
51E
100
AcDbEntity
  8
218
100
AcDbPolyline
 62
7
  6
CONTINUOUS
 90
10
 70
0
 10
4.4165453078
 20
27.4850013018
 10
4.4526509274
 20
27.4692935769
 10
4.4881855298
 20
27.4532850895
 10
4.5231491149
 20
27.4369758394
 10
4.5575518521
 20
27.420360742
 10
4.5913835721
 20
27.403444882
 10
4.6246137669
 20
27.3862435134
 10
4.6572322671
 20
27.3687617208
 10
4.689249242
 20
27.3509944196
 10
4.7206646917
 20
27.3329416098
  0
LINE
  5
51F
100
AcDbEntity
  8
218
100
AcDbLine
 62
7
  6
CONTINUOUS
 10
4.2330074668
 20
27.5611103697
 11
4.8645387878
 21
27.2453447092
  0
LINE
  5
520
100
AcDbEntity
  8
218
100
AcDbLine
 62
7
  6
CONTINUOUS
 10
11.6576286692
 20
23.8487997685
 11
12.2891599903
 21
23.533034108
  0
LINE
  5
521
100
AcDbEntity
  8
218
100
AcDbLine
 62
7
  6
CONTINUOUS
 10
11.8411665102
 20
23.7726907006
 11
12.1452858942
 21
23.6206310086
  0
LINE
  5
522
100
AcDbEntity
  8
218
100
AcDbLine
 62
7
  6
CONTINUOUS
 10
4.7206646917
 20
27.3329416098
 11
4.4165453078
 21
27.4850013018
  0
LINE
  5
523
100
AcDbEntity
  8
218
100
AcDbLine
 62
7
  6
CONTINUOUS
 10
14.746744712
 20
24.3717023157
 11
11.6379291412
 21
25.9261101011
  0
LINE
  5
524
100
AcDbEntity
  8
218
100
AcDbLine
 62
7
  6
CONTINUOUS
 10
7.3221235095
 20
28.0840129169
 11
4.2133079388
 21
29.6384207023
  0
LWPOLYLINE
  5
525
100
AcDbEntity
  8
218
100
AcDbPolyline
 62
7
  6
CONTINUOUS
 90
104
 70
0
 10
17.1179860431
 20
21.8277851042
 10
17.1307073878
 20
21.818530279
 10
17.1755289996
 20
21.7846619575
 10
17.2200128466
 20
21.7497870452
 10
17.2641705065
 20
21.7139022577
 10
17.3080010837
 20
21.6770120666
 10
17.3514728361
 20
21.6391467329
 10
17.3945504566
 20
21.6003418963
 10
17.4372133773
 20
21.5606218744
 10
17.4794510841
 20
21.5200020706
 10
17.5212435855
 20
21.4785071412
 10
17.5625697116
 20
21.4361638711
 10
17.6034204652
 20
21.392987087
 10
17.643793587
 20
21.3489837104
 10
17.6836844107
 20
21.304162028
 10
17.7230668832
 20
21.2585543513
 10
17.7619068086
 20
21.2122047292
 10
17.8001757069
 20
21.1651532645
 10
17.8378743334
 20
21.1174050229
 10
17.8750120707
 20
21.0689518613
 10
17.911587773
 20
21.0197967219
 10
17.9475729686
 20
20.9699791475
 10
17.9829359199
 20
20.9195461074
 10
18.0176532076
 20
20.8685356653
 10
18.0517222306
 20
20.8169561907
 10
18.0851428025
 20
20.7648108259
 10
18.1179067741
 20
20.7121137167
 10
18.1499954717
 20
20.6588961606
 10
18.1813926087
 20
20.6051869175
 10
18.2120839528
 20
20.5510123209
 10
18.2420588864
 20
20.4963929406
 10
18.2713069201
 20
20.4413492613
 10
18.299815524
 20
20.3859059543
 10
18.3275734609
 20
20.3300857756
 10
18.3545721432
 20
20.2739063334
 10
18.3808008043
 20
20.2173897386
 10
18.4062472871
 20
20.1605616519
 10
18.4309009933
 20
20.1034449803
 10
18.4547515125
 20
20.0460626772
 10
18.4777877151
 20
19.9884400535
 10
18.4999983842
 20
19.930603575
 10
18.52137085
 20
19.8725848809
 10
18.5418982006
 20
19.8144010285
 10
18.5615775242
 20
19.7560563781
 10
18.5804043035
 20
19.6975573174
 10
18.5983624798
 20
19.638946053
 10
18.6154329072
 20
19.5802804992
 10
18.631600778
 20
19.5216110459
 10
18.6468662347
 20
19.4629362229
 10
18.6612325068
 20
19.4042358933
 10
18.6746966977
 20
19.3455062775
 10
18.6872427682
 20
19.2868000745
 10
18.6988545104
 20
19.2281813708
 10
18.7095214159
 20
19.1696972596
 10
18.7192419617
 20
19.1113488788
 10
18.7280143462
 20
19.0531308285
 10
18.7358334797
 20
18.9950505832
 10
18.7426897053
 20
18.9371492005
 10
18.7485743744
 20
18.8794710298
 10
18.753481793
 20
18.8220424209
 10
18.7574069777
 20
18.7648844726
 10
18.7603443803
 20
18.7080324038
 10
18.7622895293
 20
18.6515193607
 10
18.7632390268
 20
18.5953583931
 10
18.7631888938
 20
18.5395538474
 10
18.7621335805
 20
18.4840954182
 10
18.7600683939
 20
18.4290403868
 10
18.7569943772
 20
18.3744919422
 10
18.7529159516
 20
18.3205177623
 10
18.7478314813
 20
18.2670905566
 10
18.7417341137
 20
18.2141696985
 10
18.7346118879
 20
18.1617128547
 10
18.726469332
 20
18.109807836
 10
18.717328698
 20
18.0586057187
 10
18.7072084737
 20
18.0081841395
 10
18.6961040253
 20
17.9584976388
 10
18.6840074551
 20
17.9095091817
 10
18.6709079395
 20
17.8611891044
 10
18.6568201623
 20
17.813605462
 10
18.641777064
 20
17.7668653376
 10
18.6257953757
 20
17.7210038556
 10
18.6088776329
 20
17.6760129827
 10
18.5910429187
 20
17.6319292123
 10
18.5723069026
 20
17.5887746196
 10
18.5526770854
 20
17.5465510263
 10
18.5321617968
 20
17.505263631
 10
18.5107529349
 20
17.464888593
 10
18.4884806327
 20
17.4254757513
 10
18.4654178231
 20
17.3871347326
 10
18.4416249214
 20
17.3499323594
 10
18.4170840953
 20
17.3138085341
 10
18.3917523941
 20
17.2786825147
 10
18.3656124697
 20
17.2445248056
 10
18.3387093881
 20
17.2113890241
 10
18.3110917187
 20
17.1793228865
 10
18.2827945551
 20
17.1483504339
 10
18.253822433
 20
17.1184603192
 10
18.2241811499
 20
17.0896453019
 10
18.1938931081
 20
17.0619151557
 10
18.1629758643
 20
17.0352741008
 10
18.1314266508
 20
17.0097100299
 10
18.0992573505
 20
16.9852252164
 10
18.0664958478
 20
16.9618334927
 10
18.0331628296
 20
16.9395416474
  0
LWPOLYLINE
  5
526
100
AcDbEntity
  8
218
100
AcDbPolyline
 62
250
  6
CONTINUOUS
 90
105
 70
0
 10
17.1179860431
 20
21.7375364658
 10
17.1325287876
 20
21.7258332587
 10
17.1745838478
 20
21.6908405539
 10
17.2163914789
 20
21.6548983801
 10
17.2579334144
 20
21.6180224406
 10
17.2991915104
 20
21.5802288421
 10
17.3401477568
 20
21.5415340828
 10
17.3807842742
 20
21.5019550551
 10
17.4210833192
 20
21.4615090406
 10
17.461027295
 20
21.4202137002
 10
17.5005987631
 20
21.3780870623
 10
17.5397804486
 20
21.3351475167
 10
17.5785552388
 20
21.2914138169
 10
17.6169061935
 20
21.2469050696
 10
17.6548165593
 20
21.2016407196
 10
17.692269791
 20
21.1556405222
 10
17.72924955
 20
21.1089245447
 10
17.7657397003
 20
21.0615131696
 10
17.8017242964
 20
21.0134271134
 10
17.837187606
 20
20.9646873992
 10
17.8721141302
 20
20.9153153303
 10
17.9064886339
 20
20.8653324453
 10
17.9402961311
 20
20.8147605345
 10
17.9735218759
 20
20.7636216536
 10
18.0061513425
 20
20.7119381567
 10
18.0381702573
 20
20.659732653
 10
18.0695646222
 20
20.6070279685
 10
18.1003207484
 20
20.5538470877
 10
18.1304252341
 20
20.5002131837
 10
18.1598649514
 20
20.446149641
 10
18.1886270257
 20
20.3916800991
 10
18.2166988702
 20
20.3368283948
 10
18.2440682105
 20
20.2816185163
 10
18.2707231158
 20
20.226074535
 10
18.2966519745
 20
20.1702206474
 10
18.3218434807
 20
20.114081203
 10
18.3462866154
 20
20.0576807525
 10
18.3699706804
 20
20.0010439813
 10
18.39288532
 20
19.944195659
 10
18.4150205461
 20
19.8871605697
 10
18.4363667162
 20
19.8299635592
 10
18.4569145219
 20
19.7726295639
 10
18.4766549752
 20
19.7151836563
 10
18.4955794372
 20
19.6576509766
 10
18.5136796344
 20
19.6000566826
 10
18.530947677
 20
19.5424258865
 10
18.5473760409
 20
19.4847836996
 10
18.5629575603
 20
19.4271552576
 10
18.5776854207
 20
19.3695657574
 10
18.5915531791
 20
19.3120403927
 10
18.6045547746
 20
19.254604311
 10
18.6166845386
 20
19.197282562
 10
18.6279371833
 20
19.1401001342
 10
18.6383077986
 20
19.0830819719
 10
18.6477918506
 20
19.0262529966
 10
18.6563851923
 20
18.969638055
 10
18.6640840698
 20
18.9132618866
 10
18.6708851251
 20
18.8571490886
 10
18.6767853916
 20
18.8013241388
 10
18.6817822935
 20
18.7458114003
 10
18.6858736469
 20
18.6906351255
 10
18.6890576643
 20
18.6358194213
 10
18.6913329553
 20
18.5813882288
 10
18.6926985272
 20
18.5273653089
 10
18.6931537839
 20
18.4737742457
 10
18.6926985267
 20
18.4206384396
 10
18.6913329542
 20
18.367981092
 10
18.6890576626
 20
18.3158251911
 10
18.6858736446
 20
18.2641935045
 10
18.6817822906
 20
18.2131085834
 10
18.6767853881
 20
18.162592747
 10
18.6708851211
 20
18.1126680641
 10
18.6640840652
 20
18.0633563219
 10
18.6563851871
 20
18.0146790315
 10
18.6477918449
 20
17.9666574321
 10
18.6383077924
 20
17.9193125091
 10
18.6279371764
 20
17.8726649626
 10
18.6166845312
 20
17.8267351799
 10
18.6045547666
 20
17.7815431954
 10
18.5915531705
 20
17.7371087097
 10
18.5776854117
 20
17.693451104
 10
18.5629575507
 20
17.6505894648
 10
18.5473760308
 20
17.6085425428
 10
18.5309476664
 20
17.5673287202
 10
18.5136796231
 20
17.5269659671
 10
18.4955794253
 20
17.4874718709
 10
18.4766549629
 20
17.4488636539
 10
18.4569145092
 20
17.4111582005
 10
18.4363667031
 20
17.3743720115
 10
18.4150205324
 20
17.3385211716
 10
18.3928853056
 20
17.3036213088
 10
18.3699706654
 20
17.2696876265
 10
18.3462866
 20
17.2367349212
 10
18.3218434651
 20
17.2047776064
 10
18.2966519586
 20
17.173829669
 10
18.2707230992
 20
17.1439046406
 10
18.2440681932
 20
17.115015565
 10
18.2166988523
 20
17.0871750273
 10
18.1886270075
 20
17.0603951684
 10
18.1598649332
 20
17.0346877018
 10
18.1304252156
 20
17.0100638773
 10
18.1003207293
 20
16.9865344596
 10
18.0695646023
 20
16.9641097054
 10
18.0381702367
 20
16.9427993866
 10
18.0331628301
 20
16.9395416477
  0
LWPOLYLINE
  5
527
100
AcDbEntity
  8
218
100
AcDbPolyline
 62
250
  6
CONTINUOUS
 90
34
 70
0
 10
16.7760185998
 20
23.7447168119
 10
16.7750614647
 20
23.7459778851
 10
16.7731887346
 20
23.7473936464
 10
16.7706756721
 20
23.7484349394
 10
16.7675241436
 20
23.7491009907
 10
16.7637364892
 20
23.7493913059
 10
16.7593155218
 20
23.7493056692
 10
16.7542645245
 20
23.7488441443
 10
16.748587248
 20
23.7480070739
 10
16.7422879083
 20
23.7467950796
 10
16.7353711835
 20
23.7452090615
 10
16.7278422098
 20
23.7432501973
 10
16.7197065784
 20
23.7409199417
 10
16.7109703307
 20
23.7382200252
 10
16.7016399545
 20
23.7351524527
 10
16.6917223785
 20
23.7317195022
 10
16.6812249674
 20
23.7279237231
 10
16.6701555169
 20
23.7237679341
 10
16.658522247
 20
23.7192552214
 10
16.6463337967
 20
23.714388936
 10
16.6335992173
 20
23.7091726918
 10
16.6203279655
 20
23.7036103623
 10
16.6065298966
 20
23.6977060782
 10
16.5922152571
 20
23.6914642239
 10
16.5773946772
 20
23.6848894349
 10
16.5620791626
 20
23.6779865934
 10
16.5462800869
 20
23.6707608257
 10
16.5300091824
 20
23.6632174975
 10
16.5132785321
 20
23.6553622107
 10
16.4961005602
 20
23.6472007986
 10
16.4784880231
 20
23.6387393219
 10
16.460454
 20
23.6299840641
 10
16.4420118832
 20
23.620941527
 10
16.4231753678
 20
23.6116184256
  0
LWPOLYLINE
  5
528
100
AcDbEntity
  8
218
100
AcDbPolyline
 62
250
  6
CONTINUOUS
 90
34
 70
0
 10
16.6401962784
 20
23.9789756642
 10
16.6392391262
 20
23.9802367666
 10
16.637366396
 20
23.9816525278
 10
16.6348533334
 20
23.9826938208
 10
16.6317018048
 20
23.9833598721
 10
16.6279141503
 20
23.9836501871
 10
16.6234931828
 20
23.9835645504
 10
16.6184421854
 20
23.9831030254
 10
16.6127649088
 20
23.9822659549
 10
16.606465569
 20
23.9810539606
 10
16.5995488441
 20
23.9794679424
 10
16.5920198704
 20
23.9775090782
 10
16.5838842389
 20
23.9751788225
 10
16.5751479912
 20
23.972478906
 10
16.5658176149
 20
23.9694113334
 10
16.5559000389
 20
23.9659783829
 10
16.5454026278
 20
23.9621826038
 10
16.5343331772
 20
23.9580268148
 10
16.5226999074
 20
23.953514102
 10
16.5105114571
 20
23.9486478166
 10
16.4977768777
 20
23.9434315724
 10
16.4845056259
 20
23.9378692429
 10
16.4707075571
 20
23.9319649588
 10
16.4563929177
 20
23.9257231046
 10
16.4415723378
 20
23.9191483155
 10
16.4262568234
 20
23.9122454741
 10
16.4104577477
 20
23.9050197064
 10
16.3941868434
 20
23.8974763783
 10
16.3774561932
 20
23.8896210916
 10
16.3602782214
 20
23.8814596795
 10
16.3426656844
 20
23.8729982028
 10
16.3246316615
 20
23.8642429451
 10
16.3061895449
 20
23.8552004081
 10
16.2873530296
 20
23.8458773068
  0
LINE
  5
529
100
AcDbEntity
  8
218
100
AcDbLine
 62
7
  6
CONTINUOUS
 10
16.6401962784
 20
23.9789756642
 11
16.7760186166
 21
23.744716783
  0
LWPOLYLINE
  5
52A
100
AcDbEntity
  8
RACCORDO
100
AcDbPolyline
 62
250
  6
CONTINUOUS
 90
10
 70
0
 10
14.4150669278
 20
-28.5864663043
 10
14.4322423025
 20
-28.5640433824
 10
14.447990109
 20
-28.5399857266
 10
14.4620973852
 20
-28.5146186754
 10
14.4743733544
 20
-28.4882852746
 10
14.4846520051
 20
-28.4613416384
 10
14.4927943362
 20
-28.4341521333
 10
14.4986902367
 20
-28.4070844505
 10
14.5022599746
 20
-28.3805046341
 10
14.5034552754
 20
-28.3547721305
  0
LWPOLYLINE
  5
52B
100
AcDbEntity
  8
RACCORDO
100
AcDbPolyline
 62
250
  6
CONTINUOUS
 90
10
 70
0
 10
15.758569812
 20
-29.2582177464
 10
15.7757451868
 20
-29.2357948245
 10
15.7914929933
 20
-29.2117371687
 10
15.8056002695
 20
-29.1863701175
 10
15.8178762386
 20
-29.1600367168
 10
15.8281548893
 20
-29.1330930806
 10
15.8362972205
 20
-29.1059035754
 10
15.842193121
 20
-29.0788358926
 10
15.8457628589
 20
-29.0522560762
 10
15.8469581597
 20
-29.0265235726
  0
LWPOLYLINE
  5
52C
100
AcDbEntity
  8
RACCORDO
100
AcDbPolyline
 62
250
  6
CONTINUOUS
 90
13
 70
0
 10
16.023734855
 20
-29.4899119202
 10
16.0501132875
 20
-29.4560020693
 10
16.074563623
 20
-29.4207868135
 10
16.0970858615
 20
-29.3842661528
 10
16.1178041795
 20
-29.3461683868
 10
16.1365944005
 20
-29.3067652159
 10
16.1530839949
 20
-29.2668717416
 10
16.1672395931
 20
-29.226475263
 10
16.1790945646
 20
-29.1855884809
 10
16.1883764882
 20
-29.1450646004
 10
16.1949945568
 20
-29.105188023
 10
16.1990395775
 20
-29.065674347
 10
16.2005115503
 20
-29.0265235726
  0
LWPOLYLINE
  5
52D
100
AcDbEntity
  8
RACCORDO
100
AcDbPolyline
 62
7
  6
CONTINUOUS
 90
13
 70
0
 10
14.3109362373
 20
-28.5702841373
 10
14.3282836098
 20
-28.5480615852
 10
14.3450156852
 20
-28.5239363263
 10
14.3608344141
 20
-28.4982024278
 10
14.3755092117
 20
-28.4711156337
 10
14.3887491162
 20
-28.4431285976
 10
14.4002540218
 20
-28.4149049878
 10
14.4099111622
 20
-28.38687569
 10
14.4176620181
 20
-28.3594586847
 10
14.4234492611
 20
-28.3333216231
 10
14.4273556228
 20
-28.3089303031
 10
14.4295510445
 20
-28.2865266497
 10
14.4302319707
 20
-28.2663837828
  0
LINE
  5
52E
100
AcDbEntity
  8
RACCORDO
100
AcDbLine
 62
7
  6
CONTINUOUS
 10
13.7806061514
 20
-29.2104491802
 11
14.3109362373
 21
-28.5702841373
  0
LINE
  5
52F
100
AcDbEntity
  8
RACCORDO
100
AcDbLine
 62
250
  6
CONTINUOUS
 10
13.8847368419
 20
-29.2266313472
 11
14.4150669278
 21
-28.5864663043
  0
LINE
  5
530
100
AcDbEntity
  8
RACCORDO
100
AcDbLine
 62
250
  6
CONTINUOUS
 10
15.758569812
 20
-29.2582177464
 11
15.2282397261
 21
-29.8983827894
  0
LINE
  5
531
100
AcDbEntity
  8
RACCORDO
100
AcDbLine
 62
250
  6
CONTINUOUS
 10
16.023734855
 20
-29.4899119202
 11
15.4934047691
 21
-30.1300769632
  0
LWPOLYLINE
  5
532
100
AcDbEntity
  8
RACCORDO
100
AcDbPolyline
 62
250
  6
CONTINUOUS
 90
8
 70
0
 10
13.7806061514
 20
-29.2104491802
 10
13.7855450664
 20
-29.2061546653
 10
13.7952956423
 20
-29.2024558371
 10
13.8080993092
 20
-29.2016324815
 10
13.8237355611
 20
-29.2036985691
 10
13.8419353782
 20
-29.2086181893
 10
13.8623862318
 20
-29.2163065496
 10
13.8847368419
 20
-29.2266313472
  0
LWPOLYLINE
  5
533
100
AcDbEntity
  8
RACCORDO
100
AcDbPolyline
 62
250
  6
CONTINUOUS
 90
8
 70
0
 10
14.3109362373
 20
-28.5702841373
 10
14.3159552754
 20
-28.565939609
 10
14.3257172509
 20
-28.5622725578
 10
14.3385203733
 20
-28.5614714707
 10
14.3541455776
 20
-28.5635500545
 10
14.3723255122
 20
-28.5684727442
 10
14.3927491134
 20
-28.576155311
 10
14.4150669278
 20
-28.5864663043
  0
LINE
  5
534
100
AcDbEntity
  8
DRAFT
100
AcDbLine
 62
7
  6
CONTINUOUS
 10
18.1450551985
 20
-24.5568783728
 11
23.0774427362
 21
-22.0030599655
  0
LINE
  5
535
100
AcDbEntity
  8
DRAFT
100
AcDbLine
 62
7
  6
CONTINUOUS
 10
18.1450551985
 20
-23.7724395681
 11
22.3436652812
 21
-21.636171238
  0
LINE
  5
536
100
AcDbEntity
  8
RACCORDO
100
AcDbLine
 62
7
  6
CONTINUOUS
 10
18.1450551985
 20
-25.1713882269
 11
21.9226371923
 21
-23.2680322491
  0
LINE
  5
537
100
AcDbEntity
  8
RACCORDO
100
AcDbLine
 62
7
  6
CONTINUOUS
 10
18.1450551985
 20
-25.0337385446
 11
23.033974504
 21
-22.6087985275
  0
LWPOLYLINE
  5
538
100
AcDbEntity
  8
218
100
AcDbPolyline
 62
250
  6
CONTINUOUS
 90
26
 70
0
 10
16.2223020626
 20
24.3718168957
 10
16.2152527664
 20
24.3752499039
 10
16.2000000566
 20
24.3820703268
 10
16.1844313955
 20
24.3882180569
 10
16.1685583595
 20
24.3936885227
 10
16.1523927513
 20
24.3984776567
 10
16.1359465911
 20
24.4025818978
 10
16.1192321079
 20
24.4059981942
 10
16.1022617299
 20
24.4087240057
 10
16.0850480759
 20
24.4107573053
 10
16.0676039453
 20
24.4120965813
 10
16.0499423085
 20
24.4127408378
 10
16.0320762986
 20
24.4126895957
 10
16.0140192028
 20
24.4119428931
 10
15.9957844492
 20
24.4105012859
 10
15.9773855954
 20
24.408365846
 10
15.9588363197
 20
24.4055381613
 10
15.9401504016
 20
24.4020203315
 10
15.9213417484
 20
24.3978149743
 10
15.9024243833
 20
24.3929252268
 10
15.8834123932
 20
24.3873547354
 10
15.8643198954
 20
24.3811076411
 10
15.8451610635
 20
24.3741885844
 10
15.8259501358
 20
24.3666027083
 10
15.8067014044
 20
24.3583556577
 10
15.787429182
 20
24.3494535661
  0
LWPOLYLINE
  5
539
100
AcDbEntity
  8
218
100
AcDbPolyline
 62
250
  6
CONTINUOUS
 90
24
 70
0
 10
2.6375610809
 20
30.9243876166
 10
2.6171423219
 20
30.934371023
 10
2.5967303955
 20
30.9436083692
 10
2.5763425668
 20
30.9520918418
 10
2.5559960803
 20
30.9598142653
 10
2.5357081456
 20
30.9667691079
 10
2.5154959228
 20
30.972950487
 10
2.4953765081
 20
30.9783531743
 10
2.4753669189
 20
30.9829725998
 10
2.45548408
 20
30.9868048565
 10
2.4357448088
 20
30.9898467029
 10
2.4161658013
 20
30.9920955661
 10
2.396763618
 20
30.993549544
 10
2.3775546699
 20
30.9942074067
 10
2.3585552043
 20
30.9940685978
 10
2.3397812916
 20
30.9931332348
 10
2.3212488113
 20
30.9914021087
 10
2.3029734387
 20
30.9888766838
 10
2.2849706315
 20
30.9855590962
 10
2.2672556171
 20
30.9814521519
 10
2.2498433793
 20
30.9765593249
 10
2.2327486459
 20
30.9708847535
 10
2.2159858761
 20
30.9644332374
 10
2.1986763304
 20
30.9567905516
  0
LINE
  5
53A
100
AcDbEntity
  8
218
100
AcDbLine
 62
250
  6
CONTINUOUS
 10
15.2550313241
 20
24.615652495
 11
15.787429182
 21
24.3494535661
  0
LINE
  5
53B
100
AcDbEntity
  8
218
100
AcDbLine
 62
250
  6
CONTINUOUS
 10
10.5945801413
 20
26.9458780864
 11
7.8304101216
 21
28.3279630963
  0
LINE
  5
53C
100
AcDbEntity
  8
218
100
AcDbLine
 62
250
  6
CONTINUOUS
 10
3.1699589388
 20
30.6581886877
 11
2.6375610809
 21
30.9243876166
  0
LINE
  5
53D
100
AcDbEntity
  8
218
100
AcDbLine
 62
7
  6
CONTINUOUS
 10
15.6017374349
 20
24.6820992095
 11
16.2223020626
 21
24.3718168957
  0
LINE
  5
53E
100
AcDbEntity
  8
218
100
AcDbLine
 62
7
  6
CONTINUOUS
 10
11.1176197916
 20
26.9241580312
 11
8.1771162325
 21
28.3944098107
  0
LINE
  5
53F
100
AcDbEntity
  8
218
100
AcDbLine
 62
7
  6
CONTINUOUS
 10
3.6929985891
 20
30.6364686324
 11
3.0724339615
 21
30.9467509462
  0
LINE
  5
540
100
AcDbEntity
  8
RACCORDO
100
AcDbLine
 62
250
  6
CONTINUOUS
 10
17.332202815
 20
-27.888621647
 11
17.3668374749
 21
-27.8651091859
  0
LWPOLYLINE
  5
541
100
AcDbEntity
  8
RACCORDO
100
AcDbPolyline
 62
250
  6
CONTINUOUS
 90
9
 70
0
 10
17.3668374749
 20
-27.8651091859
 10
17.3930385573
 20
-27.8475270582
 10
17.4071329427
 20
-27.8383247691
 10
17.4218906197
 20
-27.8288786461
 10
17.4373276515
 20
-27.8192030732
 10
17.4535426045
 20
-27.8094753021
 10
17.470568334
 20
-27.7997544169
 10
17.4883719846
 20
-27.7899813335
 10
17.5069535564
 20
-27.7801560519
  0
LINE
  5
542
100
AcDbEntity
  8
DRAFT
100
AcDbLine
 62
7
  6
CONTINUOUS
 10
16.454349165
 20
-28.225355426
 11
15.9867070706
 21
-28.5202712434
  0
LWPOLYLINE
  5
543
100
AcDbEntity
  8
RACCORDO
100
AcDbPolyline
 62
250
  6
CONTINUOUS
 90
6
 70
0
 10
16.9076183315
 20
-28.672970182
 10
16.9291799712
 20
-28.660677013
 10
16.9473479871
 20
-28.6470818344
 10
16.9618115193
 20
-28.6324172634
 10
16.9723230927
 20
-28.616934215
 10
16.9787028515
 20
-28.6008976084
  0
LWPOLYLINE
  5
544
100
AcDbEntity
  8
RACCORDO
100
AcDbPolyline
 62
7
  6
CONTINUOUS
 90
11
 70
0
 10
17.1175218617
 20
-28.2126658944
 10
17.1517996201
 20
-28.1940950797
 10
17.184196675
 20
-28.1751489121
 10
17.2154272435
 20
-28.1556893005
 10
17.2455627524
 20
-28.1359984349
 10
17.2740854057
 20
-28.1167910943
 10
17.3008408181
 20
-28.0986191949
 10
17.3260785343
 20
-28.0817677777
 10
17.3492140281
 20
-28.0669858635
 10
17.3687870126
 20
-28.0553471138
 10
17.3845478907
 20
-28.046873891
  0
LINE
  5
545
100
AcDbEntity
  8
RACCORDO
100
AcDbLine
 62
250
  6
CONTINUOUS
 10
16.9076183315
 20
-28.3491477542
 11
16.2005115503
 21
-28.7178176745
  0
LWPOLYLINE
  5
546
100
AcDbEntity
  8
RACCORDO
100
AcDbPolyline
 62
250
  6
CONTINUOUS
 90
12
 70
0
 10
17.2310531638
 20
-27.9504978821
 10
17.2379235869
 20
-27.9469449615
 10
17.2450329502
 20
-27.9431309837
 10
17.2523812538
 20
-27.9390559486
 10
17.2599420482
 20
-27.934739465
 10
17.267741783
 20
-27.9301619241
 10
17.2758598059
 20
-27.9252644999
 10
17.2842932284
 20
-27.9200432542
 10
17.2930449392
 20
-27.9145021251
 10
17.3022029518
 20
-27.9085941009
 10
17.3117603791
 20
-27.9023123243
 10
17.332202815
 20
-27.888621647
  0
LINE
  5
547
100
AcDbEntity
  8
RACCORDO
100
AcDbLine
 62
250
  6
CONTINUOUS
 10
16.5118288426
 20
-28.3181627445
 11
17.0712518355
 21
-28.0321491142
  0
LINE
  5
548
100
AcDbEntity
  8
RACCORDO
100
AcDbLine
 62
7
  6
CONTINUOUS
 10
16.3921242623
 20
-28.5835098235
 11
16.9808416362
 21
-28.2825265749
  0
LINE
  5
549
100
AcDbEntity
  8
RACCORDO
100
AcDbLine
 62
250
  6
CONTINUOUS
 10
17.0712518355
 20
-28.0321491142
 11
17.2310531638
 21
-27.9504978821
  0
LINE
  5
54A
100
AcDbEntity
  8
RACCORDO
100
AcDbLine
 62
7
  6
CONTINUOUS
 10
16.9808416362
 20
-28.2825265749
 11
17.1175218617
 21
-28.2126658944
  0
LINE
  5
54B
100
AcDbEntity
  8
RACCORDO
100
AcDbLine
 62
250
  6
CONTINUOUS
 10
15.9867070706
 20
-28.5461408813
 11
16.2224532106
 21
-28.4273627645
  0
LINE
  5
54C
100
AcDbEntity
  8
RACCORDO
100
AcDbLine
 62
250
  6
CONTINUOUS
 10
17.5069535564
 20
-27.7801560519
 11
18.1450551985
 21
-27.4586450127
  0
LINE
  5
54D
100
AcDbEntity
  8
RACCORDO
100
AcDbLine
 62
7
  6
CONTINUOUS
 10
15.8572070245
 20
-28.8164332878
 11
16.100140095
 21
-28.6940300911
  0
LINE
  5
54E
100
AcDbEntity
  8
RACCORDO
100
AcDbLine
 62
7
  6
CONTINUOUS
 10
17.3846070797
 20
-28.0468441616
 11
18.0155551524
 21
-27.7289374192
  0
LWPOLYLINE
  5
54F
100
AcDbEntity
  8
RACCORDO
100
AcDbPolyline
 62
250
  6
CONTINUOUS
 90
5
 70
0
 10
16.2005115503
 20
-28.7178176745
 10
16.180796172
 20
-28.7274139635
 10
16.1593922753
 20
-28.7358657877
 10
16.1365561056
 20
-28.7430985247
 10
16.1125641277
 20
-28.7490569631
  0
LWPOLYLINE
  5
550
100
AcDbEntity
  8
RACCORDO
100
AcDbPolyline
 62
7
  6
CONTINUOUS
 90
7
 70
0
 10
16.0998014725
 20
-28.6942083278
 10
16.107095416
 20
-28.6906627508
 10
16.1189991711
 20
-28.6854575679
 10
16.1318093794
 20
-28.6805188474
 10
16.1471893385
 20
-28.6751977155
 10
16.1661817588
 20
-28.6691433805
 10
16.2133896531
 20
-28.6547091816
  0
LWPOLYLINE
  5
551
100
AcDbEntity
  8
RACCORDO
100
AcDbPolyline
 62
250
  6
CONTINUOUS
 90
8
 70
0
 10
16.2224532106
 20
-28.4273627645
 10
16.2428112549
 20
-28.4176922918
 10
16.2622483006
 20
-28.408903787
 10
16.2807643478
 20
-28.4009972499
 10
16.2983172494
 20
-28.39409143
 10
16.3149491525
 20
-28.3880675779
 10
16.3307864978
 20
-28.3825694457
 10
16.3458477333
 20
-28.3775569856
  0
LWPOLYLINE
  5
552
100
AcDbEntity
  8
RACCORDO
100
AcDbPolyline
 62
250
  6
CONTINUOUS
 90
13
 70
0
 10
15.4934047691
 20
-30.1300769632
 10
15.4690055507
 20
-30.1407859219
 10
15.4419733883
 20
-30.1498419235
 10
15.4127504542
 20
-30.157079785
 10
15.3817978978
 20
-30.1623667971
 10
15.3496574394
 20
-30.165592874
 10
15.316949185
 20
-30.1666885124
 10
15.2842592692
 20
-30.1656364478
 10
15.2521252055
 20
-30.1624563471
 10
15.2210998499
 20
-30.1572030718
 10
15.1917160165
 20
-30.149967166
 10
15.1644774508
 20
-30.1408730245
 10
15.1398513785
 20
-30.1300769632
  0
LWPOLYLINE
  5
553
100
AcDbEntity
  8
RACCORDO
100
AcDbPolyline
 62
250
  6
CONTINUOUS
 90
13
 70
0
 10
16.2005115503
 20
-29.0265235726
 10
16.1759252122
 20
-29.0373043925
 10
16.148734855
 20
-29.0463884004
 10
16.1194057131
 20
-29.0536201665
 10
16.0884396162
 20
-29.0588759532
 10
16.056366403
 20
-29.0620658326
 10
16.023734855
 20
-29.0631352249
 10
15.9911033069
 20
-29.0620658326
 10
15.9590300937
 20
-29.0588759532
 10
15.9280639969
 20
-29.0536201665
 10
15.898734855
 20
-29.0463884004
 10
15.8715444977
 20
-29.0373043925
 10
15.8469581597
 20
-29.0265235726
  0
LWPOLYLINE
  5
554
100
AcDbEntity
  8
RACCORDO
100
AcDbPolyline
 62
250
  6
CONTINUOUS
 90
11
 70
0
 10
8.3039132588
 20
-30.9929422695
 10
8.3240666219
 20
-30.9857199557
 10
8.3741375075
 20
-30.961329509
 10
8.4207367684
 20
-30.9289509137
 10
8.4633540555
 20
-30.8889388408
 10
8.501522653
 20
-30.8417315547
 10
8.5348245774
 20
-30.7878461089
 10
8.5628951419
 20
-30.7278727019
 10
8.5854269618
 20
-30.6624681953
 10
8.6021733177
 20
-30.5923489159
 10
8.6129508517
 20
-30.518282819
  0
LWPOLYLINE
  5
555
100
AcDbEntity
  8
ASSI
100
AcDbPolyline
 62
250
  6
CONTINUOUS
 90
11
 70
0
 10
8.3039132588
 20
-30.9929422695
 10
8.3240666219
 20
-30.9857199557
 10
8.3741375075
 20
-30.961329509
 10
8.4207367684
 20
-30.9289509137
 10
8.4633540555
 20
-30.8889388408
 10
8.501522653
 20
-30.8417315547
 10
8.5348245774
 20
-30.7878461089
 10
8.5628951419
 20
-30.7278727019
 10
8.5854269618
 20
-30.6624681953
 10
8.6021733177
 20
-30.5923489159
 10
8.6129508517
 20
-30.518282819
  0
LINE
  5
556
100
AcDbEntity
  8
RACCORDO
100
AcDbLine
 62
250
  6
CONTINUOUS
 10
12.6456486099
 20
-29.2106805554
 11
8.6129508517
 21
-30.518282819
  0
LINE
  5
557
100
AcDbEntity
  8
ASSI
100
AcDbLine
 62
250
  6
CONTINUOUS
 10
12.6456486099
 20
-29.2106805554
 11
8.6129508517
 21
-30.518282819
  0
LINE
  5
558
100
AcDbEntity
  8
RACCORDO
100
AcDbLine
 62
7
  6
CONTINUOUS
 10
8.3033238389
 20
-30.993132813
 11
12.3404614688
 21
-29.6840914969
  0
LINE
  5
559
100
AcDbEntity
  8
ASSI
100
AcDbLine
 62
7
  6
CONTINUOUS
 10
8.3032562098
 20
-30.993154602
 11
12.3404614688
 21
-29.6840914969
  0
LWPOLYLINE
  5
55A
100
AcDbEntity
  8
RACCORDO
100
AcDbPolyline
 62
7
  6
CONTINUOUS
 90
7
 70
0
 10
16.2133896531
 20
-28.6547091816
 10
16.2403775184
 20
-28.6460963448
 10
16.2690559128
 20
-28.6363042223
 10
16.2988290728
 20
-28.625262594
 10
16.3291660372
 20
-28.6129474086
 10
16.359831979
 20
-28.5992852478
 10
16.392074311
 20
-28.5835374076
  0
LWPOLYLINE
  5
55B
100
AcDbEntity
  8
RACCORDO
100
AcDbPolyline
 62
250
  6
CONTINUOUS
 90
17
 70
0
 10
16.3458477333
 20
-28.3775569856
 10
16.3736576269
 20
-28.3688731198
 10
16.386464165
 20
-28.3649416239
 10
16.3985472415
 20
-28.3612997428
 10
16.4100176015
 20
-28.3577833267
 10
16.4208653232
 20
-28.3543702627
 10
16.4311003283
 20
-28.3510826638
 10
16.4408631268
 20
-28.3478227187
 10
16.4501624479
 20
-28.3445716798
 10
16.4589895624
 20
-28.3413482947
 10
16.4674587928
 20
-28.3381109952
 10
16.4755770768
 20
-28.3348514483
 10
16.4833374767
 20
-28.331577987
 10
16.4908335023
 20
-28.3282740429
 10
16.4980963235
 20
-28.324934093
 10
16.5050947702
 20
-28.3215636602
 10
16.5118288426
 20
-28.3181627445
  0
LINE
  5
55C
100
AcDbEntity
  8
RACCORDO
100
AcDbLine
 62
250
  6
CONTINUOUS
 10
15.4934047691
 20
-30.4813909353
 11
17.6147251126
 21
-29.4207307635
  0
LINE
  5
55D
100
AcDbEntity
  8
RACCORDO
100
AcDbLine
 62
7
  6
CONTINUOUS
 10
15.4284314727
 20
-30.6166093854
 11
17.5497518162
 21
-29.5559492136
  0
LWPOLYLINE
  5
55E
100
AcDbEntity
  8
RACCORDO
100
AcDbPolyline
 62
250
  6
CONTINUOUS
 90
13
 70
0
 10
15.4934047691
 20
-30.4813909353
 10
15.4693984566
 20
-30.4919485453
 10
15.4426966909
 20
-30.5009455167
 10
15.4136934478
 20
-30.5081962432
 10
15.3827637406
 20
-30.5135493354
 10
15.3504744048
 20
-30.5168517155
 10
15.3175972794
 20
-30.5180016483
 10
15.284775548
 20
-30.5169838529
 10
15.2525053774
 20
-30.5138209221
 10
15.2213556533
 20
-30.5085698471
 10
15.1918667577
 20
-30.5013245776
 10
15.164542315
 20
-30.4922118639
 10
15.1398513785
 20
-30.4813909353
  0
ARC
  5
55F
100
AcDbEntity
  8
218
100
AcDbCircle
 62
7
  6
CONTINUOUS
 10
2.625220366
 20
30.0523237552
 40
1.0
100
AcDbArc
 50
63.4349373369
 51
115.2504241015
  0
ARC
  5
560
100
AcDbEntity
  8
218
100
AcDbCircle
 62
7
  6
CONTINUOUS
 10
15.7750884671
 20
23.4773897047
 40
1.0
100
AcDbArc
 50
30.1049818266
 51
63.4349150214
  0
ARC
  5
561
100
AcDbEntity
  8
RACCORDO
100
AcDbCircle
 62
7
  6
CONTINUOUS
 10
17.4379484173
 20
-28.9810284438
 40
0.25
100
AcDbArc
 50
0.0
 51
63.5164922203
  0
ARC
  5
562
100
AcDbEntity
  8
RACCORDO
100
AcDbCircle
 62
7
  6
CONTINUOUS
 10
17.4379484173
 20
-29.3323424158
 40
0.25
100
AcDbArc
 50
296.5178013085
 51
359.9677556247
  0
ARC
  5
563
100
AcDbEntity
  8
RACCORDO
100
AcDbCircle
 62
7
  6
CONTINUOUS
 10
13.9731251895
 20
-29.3699371734
 40
0.25
100
AcDbArc
 50
140.366937223
 51
180.0
  0
ARC
  5
564
100
AcDbEntity
  8
RACCORDO
100
AcDbCircle
 62
7
  6
CONTINUOUS
 10
13.9731251895
 20
-29.7212511455
 40
0.25
100
AcDbArc
 50
180.0322443753
 51
243.4821986915
  0
ARC
  5
565
100
AcDbEntity
  8
RACCORDO
100
AcDbCircle
 62
7
  6
CONTINUOUS
 10
15.3166280738
 20
-30.3930025876
 40
0.25
100
AcDbArc
 50
243.3935135911
 51
296.5650511771
  0
ARC
  5
566
100
AcDbEntity
  8
RACCORDO
100
AcDbCircle
 62
7
  6
CONTINUOUS
 10
13.9731251895
 20
12.280980938
 40
0.25
100
AcDbArc
 50
116.5178013085
 51
179.9677556247
  0
ARC
  5
567
100
AcDbEntity
  8
RACCORDO
100
AcDbCircle
 62
7
  6
CONTINUOUS
 10
16.0944455331
 20
13.3416411098
 40
0.25
100
AcDbArc
 50
63.4349488229
 51
116.6064864089
  0
ARC
  5
568
100
AcDbEntity
  8
RACCORDO
100
AcDbCircle
 62
7
  6
CONTINUOUS
 10
17.4379484173
 20
12.3185756956
 40
0.25
100
AcDbArc
 50
320.3607277622
 51
359.9974551036
  0
ARC
  5
569
100
AcDbEntity
  8
RACCORDO
100
AcDbCircle
 62
7
  6
CONTINUOUS
 10
17.4379484173
 20
12.6698896677
 40
0.25
100
AcDbArc
 50
0.0049403466
 51
63.4349488229
  0
ARC
  5
56A
100
AcDbEntity
  8
RACCORDO
100
AcDbCircle
 62
7
  6
CONTINUOUS
 10
15.3166280738
 20
11.2579155238
 40
0.25
100
AcDbArc
 50
243.4349488229
 51
258.2990804918
  0
ARC
  5
56B
100
AcDbEntity
  8
RACCORDO
100
AcDbCircle
 62
7
  6
CONTINUOUS
 10
13.9731251895
 20
11.929666966
 40
0.25
100
AcDbArc
 50
180.0
 51
243.5164922203
  0
ARC
  5
56C
100
AcDbEntity
  8
RACCORDO
100
AcDbCircle
 62
7
  6
CONTINUOUS
 10
0.6088070251
 20
18.6118260482
 40
0.25
100
AcDbArc
 50
180.0
 51
243.5164922203
  0
ARC
  5
56D
100
AcDbEntity
  8
RACCORDO
100
AcDbCircle
 62
7
  6
CONTINUOUS
 10
1.9523099094
 20
17.9400746061
 40
0.25
100
AcDbArc
 50
243.4349488229
 51
258.2990804918
  0
ARC
  5
56E
100
AcDbEntity
  8
RACCORDO
100
AcDbCircle
 62
7
  6
CONTINUOUS
 10
0.6088070251
 20
18.9631400203
 40
0.25
100
AcDbArc
 50
116.5650511771
 51
179.9950596534
  0
ARC
  5
56F
100
AcDbEntity
  8
RACCORDO
100
AcDbCircle
 62
7
  6
CONTINUOUS
 10
2.7301273687
 20
20.023800192
 40
0.25
100
AcDbArc
 50
63.3935135911
 51
116.5650511771
  0
ARC
  5
570
100
AcDbEntity
  8
RACCORDO
100
AcDbCircle
 62
7
  6
CONTINUOUS
 10
4.0736302529
 20
19.0007347778
 40
0.25
100
AcDbArc
 50
320.366937223
 51
360.0
  0
ARC
  5
571
100
AcDbEntity
  8
RACCORDO
100
AcDbCircle
 62
7
  6
CONTINUOUS
 10
4.0736302529
 20
19.3520487499
 40
0.25
100
AcDbArc
 50
0.0322443753
 51
63.4821986915
  0
ELLIPSE
  5
572
100
AcDbEntity
  8
268
100
AcDbEllipse
 62
7
  6
CONTINUOUS
 10
-15.4332607973
 20
26.6328599594
 30
0.0
 11
0.110769438
 21
0.2241226716
 31
0.0
 40
0.6088015717
 41
-4.0304836828
 42
-3.144406558
  0
ELLIPSE
  5
573
100
AcDbEntity
  8
268
100
AcDbEllipse
 62
7
  6
CONTINUOUS
 10
-2.0689426329
 20
19.9507008772
 30
0.0
 11
0.110769438
 21
0.2241226716
 31
0.0
 40
0.6088015717
 41
-4.0304836828
 42
-3.144406558
  0
ELLIPSE
  5
574
100
AcDbEntity
  8
268
100
AcDbEllipse
 62
7
  6
CONTINUOUS
 10
-3.7789303001
 20
27.7642141332
 30
0.0
 11
0.2999991737
 21
-0.0014183462
 31
0.0
 40
0.4964289597
 41
0.7877451926
 42
2.3527237553
  0
ELLIPSE
  5
575
100
AcDbEntity
  8
268
100
AcDbEllipse
 62
7
  6
CONTINUOUS
 10
1.7755332141
 20
24.9869823761
 30
0.0
 11
0.2999991737
 21
-0.0014183462
 31
0.0
 40
0.4964289597
 41
0.7877451926
 42
2.3585415194
  0
ELLIPSE
  5
576
100
AcDbEntity
  8
268
100
AcDbEllipse
 62
7
  6
CONTINUOUS
 10
-12.0494328149
 20
25.9587129211
 30
0.0
 11
0.110769438
 21
0.2241226716
 31
0.0
 40
0.6088015717
 41
1.2055040732
 42
2.2526937431
  0
ELLIPSE
  5
577
100
AcDbEntity
  8
268
100
AcDbEllipse
 62
7
  6
CONTINUOUS
 10
1.6663818267
 20
20.2043589909
 30
0.0
 11
0.110769438
 21
0.2241226716
 31
0.0
 40
0.6088015717
 41
-1.9360885804
 42
-0.8888910292
  0
ELLIPSE
  5
578
100
AcDbEntity
  8
268
100
AcDbEllipse
 62
7
  6
CONTINUOUS
 10
0.0462069703
 20
21.2753753955
 30
0.0
 11
0.1128509832
 21
0.2230818409
 31
0.0
 40
0.6159267166
 41
0.0028868672
 42
0.6817883054
  0
ELLIPSE
  5
579
100
AcDbEntity
  8
268
100
AcDbEllipse
 62
7
  6
CONTINUOUS
 10
-2.0689426329
 20
20.2040722709
 30
0.0
 11
0.110769438
 21
0.2241226716
 31
0.0
 40
0.6088015717
 41
0.6877230618
 42
2.2527016244
  0
ELLIPSE
  5
57A
100
AcDbEntity
  8
268
100
AcDbEllipse
 62
7
  6
CONTINUOUS
 10
-11.6979363377
 20
26.8865180732
 30
0.0
 11
0.110769438
 21
0.2241226716
 31
0.0
 40
0.6088015717
 41
-1.9360885804
 42
-0.8888910292
  0
ELLIPSE
  5
57B
100
AcDbEntity
  8
268
100
AcDbEllipse
 62
7
  6
CONTINUOUS
 10
-13.3181111941
 20
27.9575344777
 30
0.0
 11
0.1128509832
 21
0.2230818409
 31
0.0
 40
0.6159267166
 41
0.0028868672
 42
0.6817883054
  0
ELLIPSE
  5
57C
100
AcDbEntity
  8
268
100
AcDbEllipse
 62
7
  6
CONTINUOUS
 10
-15.4332607973
 20
26.8862313531
 30
0.0
 11
0.110769438
 21
0.2241226716
 31
0.0
 40
0.6088015717
 41
0.6877230618
 42
2.2527016244
  0
ELLIPSE
  5
57D
100
AcDbEntity
  8
268
100
AcDbEllipse
 62
7
  6
CONTINUOUS
 10
-11.6979363377
 20
27.1474470495
 30
0.0
 11
0.110769438
 21
0.2241226716
 31
0.0
 40
0.6088015717
 41
5.394294278
 42
6.9592728406
  0
ELLIPSE
  5
57E
100
AcDbEntity
  8
268
100
AcDbEllipse
 62
7
  6
CONTINUOUS
 10
1.6663818267
 20
20.4652879673
 30
0.0
 11
0.110769438
 21
0.2241226716
 31
0.0
 40
0.6088015717
 41
5.394294278
 42
6.9592728406
  0
ELLIPSE
  5
57F
100
AcDbEntity
  8
268
100
AcDbEllipse
 62
7
  6
CONTINUOUS
 10
-3.598478323
 20
26.4421539632
 30
0.0
 11
0.2999981629
 21
-0.0021225547
 31
0.0
 40
0.4946372042
 41
-0.7818985079
 42
0.0034996555
  0
ELLIPSE
  5
580
100
AcDbEntity
  8
268
100
AcDbEllipse
 62
7
  6
CONTINUOUS
 10
1.9559851912
 20
23.6649222062
 30
0.0
 11
0.2999981629
 21
-0.0021225547
 31
0.0
 40
0.4946372042
 41
-0.7760807437
 42
0.0034996555
  0
ELLIPSE
  5
581
100
AcDbEntity
  8
268
100
AcDbEllipse
 62
7
  6
CONTINUOUS
 10
-9.7474240504
 20
24.8440327653
 30
0.0
 11
0.2999991335
 21
0.0014318851
 31
0.0
 40
0.5035541159
 41
8.6427941204
 42
10.207772683
  0
ELLIPSE
  5
582
100
AcDbEntity
  8
268
100
AcDbEllipse
 62
7
  6
CONTINUOUS
 10
-15.7607149594
 20
25.046962664
 30
0.0
 11
-0.1565168911
 21
0.3130623908
 31
0.0
 40
0.6123677712
 41
-0.6846781644
 42
0.8861181623
  0
ELLIPSE
  5
583
100
AcDbEntity
  8
268
100
AcDbEllipse
 62
7
  6
CONTINUOUS
 10
-0.4872084857
 20
17.4102094272
 30
0.0
 11
-0.1565168911
 21
0.3130623908
 31
0.0
 40
0.6123677712
 41
-2.2554744912
 42
-0.6846781644
  0
ELLIPSE
  5
584
100
AcDbEntity
  8
268
100
AcDbEllipse
 62
7
  6
CONTINUOUS
 10
-3.9549149824
 20
21.9477782313
 30
0.0
 11
0.2999991335
 21
0.0014318851
 31
0.0
 40
0.5035541159
 41
-2.3585979313
 42
-0.7936193687
  0
ELLIPSE
  5
585
100
AcDbEntity
  8
268
100
AcDbEllipse
 62
7
  6
CONTINUOUS
 10
-3.9549149824
 20
20.7335791554
 30
0.0
 11
0.2999980272
 21
0.0021530184
 31
0.0
 40
0.5053247124
 41
-2.3598210761
 42
-0.7948425135
  0
ELLIPSE
  5
586
100
AcDbEntity
  8
268
100
AcDbEllipse
 62
7
  6
CONTINUOUS
 10
-9.7474240504
 20
23.6298336894
 30
0.0
 11
0.2999980272
 21
0.0021530184
 31
0.0
 40
0.5053247124
 41
3.1379660677
 42
3.9233642311
  0
ELLIPSE
  5
587
100
AcDbEntity
  8
268
100
AcDbEllipse
 62
7
  6
CONTINUOUS
 10
1.9559851912
 20
24.8967563876
 30
0.0
 11
0.2999991737
 21
-0.0014183462
 31
0.0
 40
0.4964289597
 41
-0.77723337
 42
0.7877451926
  0
ELLIPSE
  5
588
100
AcDbEntity
  8
268
100
AcDbEllipse
 62
7
  6
CONTINUOUS
 10
-3.598478323
 20
27.6739881446
 30
0.0
 11
0.2999991737
 21
-0.0014183462
 31
0.0
 40
0.4964289597
 41
-0.7830511342
 42
0.7877451926
  0
ELLIPSE
  5
589
100
AcDbEntity
  8
268
100
AcDbEllipse
 62
7
  6
CONTINUOUS
 10
-0.4611092572
 20
19.4001555831
 30
0.0
 11
0.1128509832
 21
0.2230818409
 31
0.0
 40
0.6159267166
 41
0.6934238338
 42
2.2584023964
  0
ELLIPSE
  5
58A
100
AcDbEntity
  8
268
100
AcDbEllipse
 62
7
  6
CONTINUOUS
 10
-0.4611092572
 20
19.1467841893
 30
0.0
 11
0.1128509832
 21
0.2230818409
 31
0.0
 40
0.6159267166
 41
-4.0247829108
 42
-2.9775853596
  0
ELLIPSE
  5
58B
100
AcDbEntity
  8
268
100
AcDbEllipse
 62
7
  6
CONTINUOUS
 10
-13.8254274216
 20
26.0823146653
 30
0.0
 11
0.1128509832
 21
0.2230818409
 31
0.0
 40
0.6159267166
 41
0.6934238338
 42
2.2584023964
  0
ELLIPSE
  5
58C
100
AcDbEntity
  8
268
100
AcDbEllipse
 62
7
  6
CONTINUOUS
 10
-13.8254274216
 20
25.8289432716
 30
0.0
 11
0.1128509832
 21
0.2230818409
 31
0.0
 40
0.6159267166
 41
-4.0247829108
 42
-2.9775853596
  0
ELLIPSE
  5
58D
100
AcDbEntity
  8
218
100
AcDbEllipse
 62
7
  6
CONTINUOUS
 10
1.9523099094
 20
26.5565093604
 30
0.0
 11
2.7499924258
 21
-0.0130015067
 31
0.0
 40
0.4964289597
 41
2.3672681657
 42
2.9293761837
  0
ELLIPSE
  5
58E
100
AcDbEntity
  8
218
100
AcDbEllipse
 62
7
  6
CONTINUOUS
 10
9.3769311118
 20
22.8441987591
 30
0.0
 11
2.7499924258
 21
-0.0130015067
 31
0.0
 40
0.4964289597
 41
2.3672681657
 42
2.9293761949
  0
ELLIPSE
  5
58F
100
AcDbEntity
  8
218
100
AcDbEllipse
 62
7
  6
CONTINUOUS
 10
10.0486825539
 20
22.7422753093
 30
0.0
 11
2.7583876426
 21
-0.0130411979
 31
0.0
 40
0.4964289597
 41
0.8884696282
 42
2.3585415194
  0
ELLIPSE
  5
590
100
AcDbEntity
  8
218
100
AcDbEllipse
 62
7
  6
CONTINUOUS
 10
10.0486825539
 20
22.7422753093
 30
0.0
 11
2.7583876426
 21
-0.0130411979
 31
0.0
 40
0.4964289597
 41
0.4412294433
 42
0.6870207571
  0
ELLIPSE
  5
591
100
AcDbEntity
  8
218
100
AcDbEllipse
 62
7
  6
CONTINUOUS
 10
2.6240613515
 20
26.4545859105
 30
0.0
 11
2.7583876426
 21
-0.0130411979
 31
0.0
 40
0.4964289597
 41
0.4412294433
 42
0.6870207571
  0
ELLIPSE
  5
592
100
AcDbEntity
  8
218
100
AcDbEllipse
 62
7
  6
CONTINUOUS
 10
2.6240613515
 20
26.4545859105
 30
0.0
 11
2.7583876426
 21
-0.0130411979
 31
0.0
 40
0.4964289597
 41
0.8884696282
 42
2.3585415194
  0
ELLIPSE
  5
593
100
AcDbEntity
  8
218
100
AcDbEllipse
 62
7
  6
CONTINUOUS
 10
14.834381258
 20
23.9477433092
 30
0.0
 11
0.79574694
 21
0.7129684349
 31
0.0
 40
0.2882345029
 41
0.1134874791
 42
0.7807533904
  0
ELLIPSE
  5
594
100
AcDbEntity
  8
218
100
AcDbEllipse
 62
7
  6
CONTINUOUS
 10
7.4097600556
 20
27.6600539104
 30
0.0
 11
0.79574694
 21
0.7129684349
 31
0.0
 40
0.2882345029
 41
0.1134874791
 42
0.7807533904
  0
ELLIPSE
  5
595
100
AcDbEntity
  8
218
100
AcDbEllipse
 62
7
  6
CONTINUOUS
 10
10.9369931874
 20
25.8964373445
 30
0.0
 11
0.4410298232
 21
0.8975092442
 31
0.0
 40
0.607010042
 41
-0.8902711325
 42
-0.7587130969
  0
ELLIPSE
  5
596
100
AcDbEntity
  8
218
100
AcDbEllipse
 62
7
  6
CONTINUOUS
 10
3.512371985
 20
29.6087479457
 30
0.0
 11
0.4410298232
 21
0.8975092442
 31
0.0
 40
0.607010042
 41
-0.8902711325
 42
-0.7587130969
  0
ELLIPSE
  5
597
100
AcDbEntity
  8
218
100
AcDbEllipse
 62
7
  6
CONTINUOUS
 10
-5.4175258661
 20
23.6138079821
 30
0.0
 11
1.2141619185
 21
0.9541526469
 31
0.0
 40
0.2329077568
 41
0.1095198182
 42
0.114024621
  0
ELLIPSE
  5
598
100
AcDbEntity
  8
218
100
AcDbEllipse
 62
7
  6
CONTINUOUS
 10
3.565927575
 20
29.5819701507
 30
0.0
 11
-0.3106730325
 21
1.1082908718
 31
0.0
 40
0.6760995073
 41
4.9783291412
 42
6.4001141399
  0
ELLIPSE
  5
599
100
AcDbEntity
  8
218
100
AcDbEllipse
 62
7
  6
CONTINUOUS
 10
1.9287768211
 20
27.7837215959
 30
0.0
 11
3.3022643479
 21
-0.04629945
 31
0.0
 40
0.4892378494
 41
2.3616770883
 42
5.5059722822
  0
ELLIPSE
  5
59A
100
AcDbEntity
  8
218
100
AcDbEllipse
 62
7
  6
CONTINUOUS
 10
10.9905487775
 20
25.8696595495
 30
0.0
 11
-0.3106730325
 21
1.1082908718
 31
0.0
 40
0.6760995073
 41
4.9783291412
 42
6.4001141399
  0
ELLIPSE
  5
59B
100
AcDbEntity
  8
218
100
AcDbEllipse
 62
7
  6
CONTINUOUS
 10
10.0486825539
 20
24.7227634219
 30
0.0
 11
2.7583515655
 21
-1.4175703156
 31
0.0
 40
0.0109499087
 41
-0.8804952881
 42
-0.85781018
  0
ELLIPSE
  5
59C
100
AcDbEntity
  8
218
100
AcDbEllipse
 62
7
  6
CONTINUOUS
 10
2.6240613515
 20
28.4350740232
 30
0.0
 11
2.7583515655
 21
-1.4175703156
 31
0.0
 40
0.0109499087
 41
-0.7017315251
 42
-0.679046417
  0
ELLIPSE
  5
59D
100
AcDbEntity
  8
218
100
AcDbEllipse
 62
7
  6
CONTINUOUS
 10
2.6240613515
 20
26.8875986124
 30
0.0
 11
2.7583876426
 21
-0.0130411979
 31
0.0
 40
0.4964289597
 41
0.1877225706
 42
2.3585415194
  0
ELLIPSE
  5
59E
100
AcDbEntity
  8
218
100
AcDbEllipse
 62
7
  6
CONTINUOUS
 10
10.0486825539
 20
23.1752880112
 30
0.0
 11
2.7583876426
 21
-0.0130411979
 31
0.0
 40
0.4964289597
 41
0.1877225706
 42
2.3585415194
  0
ELLIPSE
  5
59F
100
AcDbEntity
  8
218
100
AcDbEllipse
 62
7
  6
CONTINUOUS
 10
2.6240613515
 20
28.4350740232
 30
0.0
 11
2.7583515655
 21
-1.4175703156
 31
0.0
 40
0.0109499087
 41
-0.8804952881
 42
-0.85781018
  0
ELLIPSE
  5
5A0
100
AcDbEntity
  8
218
100
AcDbEllipse
 62
7
  6
CONTINUOUS
 10
10.0486825539
 20
24.7227634219
 30
0.0
 11
2.7583515655
 21
-1.4175703156
 31
0.0
 40
0.0109499087
 41
-0.7017315251
 42
-0.679046417
  0
ELLIPSE
  5
5A1
100
AcDbEntity
  8
218
100
AcDbEllipse
 62
7
  6
CONTINUOUS
 10
9.3533980236
 20
24.0714109947
 30
0.0
 11
3.3022643479
 21
-0.04629945
 31
0.0
 40
0.4892378494
 41
2.3616770883
 42
5.5059722822
  0
ELLIPSE
  5
5A2
100
AcDbEntity
  8
RACCORDO
100
AcDbEllipse
 62
7
  6
CONTINUOUS
 10
17.7914479518
 20
-27.2819732993
 30
0.0
 11
-0.2235807756
 21
0.4472283268
 31
0.0
 40
0.6125552124
 41
-3.1396695482
 42
-2.255296188
  0
ELLIPSE
  5
5A3
100
AcDbEntity
  8
RACCORDO
100
AcDbEllipse
 62
7
  6
CONTINUOUS
 10
17.7914479518
 20
10.6195744072
 30
0.0
 11
-0.2237009107
 21
0.4473351135
 31
0.0
 40
0.6121897086
 41
-2.2557347926
 42
-0.6846338794
  0
ELLIPSE
  5
5A4
100
AcDbEntity
  8
RACCORDO
100
AcDbEllipse
 62
7
  6
CONTINUOUS
 10
10.6322556752
 20
19.9940041475
 30
0.0
 11
0.9987332359
 21
0.6172510855
 31
0.0
 40
0.0815198604
 41
0.0503393611
 42
0.7176053907
  0
ELLIPSE
  5
5A5
100
AcDbEntity
  8
RACCORDO
100
AcDbEllipse
 62
7
  6
CONTINUOUS
 10
22.3826785498
 20
14.1187927102
 30
0.0
 11
0.4349639225
 21
0.9005141702
 31
0.0
 40
0.6016116119
 41
-0.8943064336
 42
-0.538697204
  0
ELLIPSE
  5
5A6
100
AcDbEntity
  8
RACCORDO
100
AcDbEllipse
 62
7
  6
CONTINUOUS
 10
22.6172955628
 20
-22.7618086453
 30
0.0
 11
0.9987332359
 21
0.6172510855
 31
0.0
 40
0.0815198604
 41
-2.3890806779
 42
-1.1913468732
  0
ELLIPSE
  5
5A7
100
AcDbEntity
  8
RACCORDO
100
AcDbEllipse
 62
7
  6
CONTINUOUS
 10
22.3826785498
 20
-22.6445001388
 30
0.0
 11
0.4349639225
 21
0.9005141702
 31
0.0
 40
0.6016116119
 41
-1.2499156631
 42
-0.8943064336
  0
ELLIPSE
  5
5A8
100
AcDbEntity
  8
RACCORDO
100
AcDbEllipse
 62
7
  6
CONTINUOUS
 10
11.7762839868
 20
19.4509685224
 30
0.0
 11
0.2256808774
 21
0.4461742732
 31
0.0
 40
0.6158912572
 41
0.0028576325
 42
0.6875768343
  0
ELLIPSE
  5
5A9
100
AcDbEntity
  8
RACCORDO
100
AcDbEllipse
 62
7
  6
CONTINUOUS
 10
17.9377333453
 20
16.3702438431
 30
0.0
 11
0.2215594226
 21
0.4482351134
 31
0.0
 40
0.6088373611
 41
5.3943220613
 42
6.9651183881
  0
ELLIPSE
  5
5AA
100
AcDbEntity
  8
RACCORDO
100
AcDbEllipse
 62
7
  6
CONTINUOUS
 10
22.6172955628
 20
14.0014842037
 30
0.0
 11
-0.7417913999
 21
1.2002436976
 31
0.0
 40
0.5587454355
 41
5.0176587298
 42
6.2153925345
  0
ELLIPSE
  5
5AB
100
AcDbEntity
  8
RACCORDO
100
AcDbEllipse
 62
7
  6
CONTINUOUS
 10
15.633099824
 20
-28.3694691678
 30
0.0
 11
-0.2235807756
 21
0.4472283268
 31
0.0
 40
0.6125552124
 41
2.4567882058
 42
4.0278891191
  0
ELLIPSE
  5
5AC
100
AcDbEntity
  8
RACCORDO
100
AcDbEllipse
 62
7
  6
CONTINUOUS
 10
15.633099824
 20
9.6227777166
 30
0.0
 11
-0.2237009107
 21
0.4473351135
 31
0.0
 40
0.6121897086
 41
4.0274505145
 42
5.5985514278
  0
ELLIPSE
  5
5AD
100
AcDbEntity
  8
RACCORDO
100
AcDbEllipse
 62
7
  6
CONTINUOUS
 10
13.8161253454
 20
-23.6818988462
 30
0.0
 11
-0.2713091605
 21
0.4239062184
 31
0.0
 40
0.5451249042
 41
-3.2164266161
 42
-2.3115524019
  0
ELLIPSE
  5
5AE
100
AcDbEntity
  8
RACCORDO
100
AcDbEllipse
 62
7
  6
CONTINUOUS
 10
6.4404074903
 20
15.6901879226
 30
0.0
 11
0.4999881828
 21
-0.0070264249
 31
0.0
 40
0.4892375088
 41
-3.1347174182
 42
-2.3493192548
  0
ELLIPSE
  5
5AF
100
AcDbEntity
  8
RACCORDO
100
AcDbEllipse
 62
7
  6
CONTINUOUS
 10
0.6458886655
 20
17.1163832958
 30
0.0
 11
-0.2235807756
 21
0.4472283268
 31
0.0
 40
0.6125552124
 41
-0.6848044477
 42
0.8862964655
  0
ELLIPSE
  5
5B0
100
AcDbEntity
  8
RACCORDO
100
AcDbEllipse
 62
7
  6
CONTINUOUS
 10
11.9599013427
 20
12.9304409963
 30
0.0
 11
0.4999881828
 21
-0.0070264249
 31
0.0
 40
0.4892375088
 41
-2.3493192548
 42
-0.7727633415
  0
ELLIPSE
  5
5B1
100
AcDbEntity
  8
RACCORDO
100
AcDbEllipse
 62
7
  6
CONTINUOUS
 10
-14.6340389507
 20
23.6482311988
 30
0.0
 11
-0.2714549605
 21
0.7527883138
 31
0.0
 40
0.6648474984
 41
-0.6093959365
 42
0.0216334957
  0
ELLIPSE
  5
5B2
100
AcDbEntity
  8
RACCORDO
100
AcDbEllipse
 62
7
  6
CONTINUOUS
 10
12.0798965231
 20
-28.9275753049
 30
0.0
 11
-0.2714549605
 21
0.7527883138
 31
0.0
 40
0.6648474984
 41
-3.163226158
 42
-2.1804968498
  0
ELLIPSE
  5
5B3
100
AcDbEntity
  8
RACCORDO
100
AcDbEllipse
 62
7
  6
CONTINUOUS
 10
15.4178269102
 20
8.6222982683
 30
0.0
 11
-0.2711888907
 21
0.7526410468
 31
0.0
 40
0.6652277853
 41
-2.1799207184
 42
-0.6094289781
  0
ELLIPSE
  5
5B4
100
AcDbEntity
  8
ASSI
100
AcDbEllipse
 62
7
  6
CONTINUOUS
 10
-14.6340389507
 20
23.6482311988
 30
0.0
 11
-0.2714549605
 21
0.7527883138
 31
0.0
 40
0.6648474984
 41
-0.6093959365
 42
0.0216334957
  0
ELLIPSE
  5
5B5
100
AcDbEntity
  8
ASSI
100
AcDbEllipse
 62
7
  6
CONTINUOUS
 10
12.0798965231
 20
-28.9275753049
 30
0.0
 11
-0.2714549605
 21
0.7527883138
 31
0.0
 40
0.6648474984
 41
-3.163226158
 42
-2.1804968498
  0
ELLIPSE
  5
5B6
100
AcDbEntity
  8
ASSI
100
AcDbEllipse
 62
7
  6
CONTINUOUS
 10
15.4178269102
 20
8.6222982683
 30
0.0
 11
-0.2711888907
 21
0.7526410468
 31
0.0
 40
0.6652277853
 41
-2.1799207184
 42
-0.6094289781
  0
ENDSEC
  0
SECTION
  2
OBJECTS
  0
DICTIONARY
  5
C
100
AcDbDictionary
280
0
281
1
  3
ACAD_GROUP
350
D
  3
ACAD_MLINESTYLE
350
17
  3
ACAD_LAYOUT
350
1A
  3
ACAD_PLOTSETTINGS
350
19
  3
ACAD_PLOTSTYLENAME
350
E
  0
DICTIONARY
  5
D
102
{ACAD_REACTORS
330
C
102
}
100
AcDbDictionary
280
0
281
1
  0
ACDBDICTIONARYWDFLT
  5
E
102
{ACAD_REACTORS
330
C
102
}
100
AcDbDictionary
281
1
  3
Normal
350
F
100
AcDbDictionaryWithDefault
340
F
  0
DICTIONARY
  5
17
102
{ACAD_REACTORS
330
C
102
}
100
AcDbDictionary
280
0
281
1
  3
Standard
350
18
  0
DICTIONARY
  5
19
102
{ACAD_REACTORS
330
C
102
}
100
AcDbDictionary
281
1
  0
DICTIONARY
  5
1A
102
{ACAD_REACTORS
330
C
102
}
100
AcDbDictionary
281
1
  3
Model
350
5B7
  3
Layout1
350
5B8
  0
ACDBPLACEHOLDER
  5
F
102
{ACAD_REACTORS
330
E
102
}
  0
MLINESTYLE
  5
18
102
{ACAD_REACTORS
330
17
102
}
100
AcDbMlineStyle
  2
STANDARD
 70
0
  3

 62
256
 51
90.0
 52
90.0
 71
2
 49
0.5
 62
256
  6
BYLAYER
 49
-0.5
 62
256
  6
BYLAYER
  0
LAYOUT
  5
5B7
102
{ACAD_REACTORS
330
1A
102
}
100
AcDbPlotSettings
  1

  2
none_device
  4
ISO_A4_(297.00_x_210.00_MM)
  6

 40
0.0
 41
0.0
 42
0.0
 43
0.0
 44
297.0
 45
210.0
 46
0.0
 47
0.0
 48
0.0
 49
0.0
140
0.0
141
0.0
142
1.0
143
1.0
 70
1024
 72
1
 73
0
 74
0
  7

 75
0
147
1.0
148
0.0
149
0.0
100
AcDbLayout
  1
Model
 70
0
 71
0
 10
0.0
 20
0.0
 11
297.0
 21
210.0
 12
0.0
 22
0.0
 32
0.0
 14
0.0
 24
0.0
 34
0.0
 15
0.0
 25
0.0
 35
0.0
146
0.0
 13
0.0
 23
0.0
 33
0.0
 16
1.0
 26
0.0
 36
0.0
 17
0.0
 27
1.0
 37
0.0
 76
0
330
224
345
0
346
0
  0
LAYOUT
  5
5B8
102
{ACAD_REACTORS
330
1A
102
}
100
AcDbPlotSettings
  1

  2
none_device
  4
ISO_A4_(297.00_x_210.00_MM)
  6

 40
0.0
 41
0.0
 42
0.0
 43
0.0
 44
297.0
 45
210.0
 46
0.0
 47
0.0
 48
0.0
 49
0.0
140
0.0
141
0.0
142
1.0
143
1.0
 70
0
 72
1
 73
0
 74
0
  7

 75
0
147
1.0
148
0.0
149
0.0
100
AcDbLayout
  1
Layout1
 70
0
 71
1
 10
0.0
 20
0.0
 11
297.0
 21
210.0
 12
0.0
 22
0.0
 32
0.0
 14
0.0
 24
0.0
 34
0.0
 15
0.0
 25
0.0
 35
0.0
146
0.0
 13
0.0
 23
0.0
 33
0.0
 16
1.0
 26
0.0
 36
0.0
 17
0.0
 27
1.0
 37
0.0
 76
0
330
225
345
0
346
0
  0
ENDSEC
  0
EOF
