  0
SECTION
  2
HEADER
  9
$ACADVER
  1
AC1024
  9
$DWGCODEPAGE
  3
ANSI_1252
  9
$EXTMAX
 10
297.0
 20
210.0
 30
0.0
  9
$EXTMIN
 10
0.0
 20
0.0
 30
0.0
  9
$LIMMIN
 10
0.0
 20
0.0
  9
$LIMMAX
 10
297.0
 20
210.0
  9
$VIEWCTR
 10
148.5
 20
105.0
  9
$VIEWSIZE
 40
210.0
  9
$CLAYER
  8
0
  9
$LTSCALE
 40
16.335
  9
$CELTYPE
  6
BYLAYER
  9
$DIMSCALE
 40
1.0
  9
$DIMASZ
 40
3.0
  9
$DIMEXO
 40
0.5
  9
$DIMDLI
 40
11.286
  9
$DIMEXE
 40
1.5
  9
$DIMCEN
 40
2.673
  9
$DIMLFAC
 40
1.0
  9
$DIMBLK
  1
_FILLED
  9
$DIMALT
 70
0
  9
$DIMALTF
 40
0.0393700787
  9
$DIMTXT
 40
3.0
  9
$DIMTOL
 70
1
  9
$DIMLIM
 70
0
  9
$DIMTFAC
 40
1.0
  9
$DIMTP
 40
0.01
  9
$DIMTM
 40
0.01
  9
$DIMGAP
 40
0.625
  9
$DIMDSEP
 70
44
  9
$AUNITS
 70
0
  9
$PDMODE
 70
3
  9
$PDSIZE
 40
3.0
  9
$HANDSEED
  5
428
  9
$TILEMODE
 70
1
  9
$MEASUREMENT
 70
1
  9
$INSUNITS
 70
4
  0
ENDSEC
  0
SECTION
  2
CLASSES
  0
CLASS
  1
ACDBDICTIONARYWDFLT
  2
AcDbDictionaryWithDefault
  3
AutoCAD 2000
 90
0
 91
1
280
0
281
0
  0
CLASS
  1
ACDBPLACEHOLDER
  2
AcDbPlaceHolder
  3
AutoCAD 2000
 90
0
 91
1
280
0
281
0
  0
CLASS
  1
LAYOUT
  2
AcDbLayout
  3
AutoCAD 2000
 90
0
 91
0
280
0
281
0
  0
ENDSEC
  0
SECTION
  2
TABLES
  0
TABLE
  2
VPORT
  5
8
100
AcDbSymbolTable
 70
2
  0
VPORT
  5
1F4
100
AcDbSymbolTableRecord
100
AcDbViewportTableRecord
  2
*ACTIVE
 70
0
 10
0.0
 20
0.0
 11
1.0
 21
1.0
 12
148.5
 22
105.0
 13
0.0
 23
0.0
 14
1.0
 24
1.0
 15
0.0
 25
0.0
 16
0.0
 26
0.0
 36
1.0
 17
0.0
 27
0.0
 37
0.0
 40
210.0
 41
1.4142857143
 42
50.0
 43
0.0
 44
0.0
 50
0.0
 51
0.0
 71
0
 72
100
 73
1
 74
1
 75
0
 76
0
 77
0
 78
0
  0
ENDTAB
  0
TABLE
  2
LTYPE
  5
5
100
AcDbSymbolTable
 70
6
  0
LTYPE
  5
14
100
AcDbSymbolTableRecord
100
AcDbLinetypeTableRecord
  2
BYBLOCK
 70
0
  3

 72
65
 73
0
 40
0.0
  0
LTYPE
  5
15
100
AcDbSymbolTableRecord
100
AcDbLinetypeTableRecord
  2
BYLAYER
 70
0
  3

 72
65
 73
0
 40
0.0
  0
LTYPE
  5
16
100
AcDbSymbolTableRecord
100
AcDbLinetypeTableRecord
  2
CONTINUOUS
 70
64
  3
Solid line
 72
65
 73
0
 40
0.0
  0
LTYPE
  5
1F5
100
AcDbSymbolTableRecord
100
AcDbLinetypeTableRecord
  2
CENTER
 70
64
  3
____ _ ____ _ ____ _ ____ _ ____ _ ____ _ ____
 72
65
 73
4
 40
0.6
 49
0.375
 74
0
 49
-0.075
 74
0
 49
0.075
 74
0
 49
-0.075
 74
0
  0
LTYPE
  5
1F6
100
AcDbSymbolTableRecord
100
AcDbLinetypeTableRecord
  2
HIDDEN
 70
64
  3
- - - - - - - - - - - - - - - - - - - -
 72
65
 73
2
 40
0.2
 49
0.1
 74
0
 49
-0.1
 74
0
  0
LTYPE
  5
1F7
100
AcDbSymbolTableRecord
100
AcDbLinetypeTableRecord
  2
PHANTOM
 70
64
  3
_____ _ _ _____ _ _ _____ _ _ _____
 72
65
 73
6
 40
0.8
 49
0.45
 74
0
 49
-0.05
 74
0
 49
0.1
 74
0
 49
-0.05
 74
0
 49
0.1
 74
0
 49
-0.05
 74
0
  0
LTYPE
  5
1F8
100
AcDbSymbolTableRecord
100
AcDbLinetypeTableRecord
  2
DOT
 70
64
  3
. . . . . . . . . . . . . . . . . . . .
 72
65
 73
2
 40
0.2
 49
0.1
 74
0
 49
-0.1
 74
0
  0
LTYPE
  5
1F9
100
AcDbSymbolTableRecord
100
AcDbLinetypeTableRecord
  2
DASHED
 70
64
  3
- - - - - - - - - - - - - - - - - - - -
 72
65
 73
2
 40
0.2
 49
0.1
 74
0
 49
-0.1
 74
0
  0
ENDTAB
  0
TABLE
  2
LAYER
  5
2
100
AcDbSymbolTable
 70
36
  0
LAYER
  5
10
100
AcDbSymbolTableRecord
100
AcDbLayerTableRecord
  2
0
 70
0
 62
7
  6
CONTINUOUS
370
-3
390
F
  0
LAYER
  5
1FA
100
AcDbSymbolTableRecord
100
AcDbLayerTableRecord
  2
DEFAULT_1
 70
0
 62
7
  6
CENTER
370
-3
390
F
  0
LAYER
  5
1FB
100
AcDbSymbolTableRecord
100
AcDbLayerTableRecord
  2
DEFAULT_2
 70
0
 62
7
  6
HIDDEN
370
-3
390
F
  0
LAYER
  5
1FC
100
AcDbSymbolTableRecord
100
AcDbLayerTableRecord
  2
DEFAULT_3
 70
0
 62
7
  6
PHANTOM
370
-3
390
F
  0
LAYER
  5
1FD
100
AcDbSymbolTableRecord
100
AcDbLayerTableRecord
  2
218
 70
0
 62
7
  6
CONTINUOUS
370
-3
390
F
  0
LAYER
  5
1FE
100
AcDbSymbolTableRecord
100
AcDbLayerTableRecord
  2
ASSI
 70
0
 62
7
  6
CONTINUOUS
370
-3
390
F
  0
LAYER
  5
1FF
100
AcDbSymbolTableRecord
100
AcDbLayerTableRecord
  2
COLORE_TOP
 70
0
 62
7
  6
CONTINUOUS
370
-3
390
F
  0
LAYER
  5
200
100
AcDbSymbolTableRecord
100
AcDbLayerTableRecord
  2
COORDINATE
 70
0
 62
7
  6
CONTINUOUS
370
-3
390
F
  0
LAYER
  5
201
100
AcDbSymbolTableRecord
100
AcDbLayerTableRecord
  2
COORD_ORIGINE
 70
0
 62
7
  6
CONTINUOUS
370
-3
390
F
  0
LAYER
  5
202
100
AcDbSymbolTableRecord
100
AcDbLayerTableRecord
  2
COPY-PUBBLISH
 70
0
 62
7
  6
CONTINUOUS
370
-3
390
F
  0
LAYER
  5
203
100
AcDbSymbolTableRecord
100
AcDbLayerTableRecord
  2
COPY_PUBLISH
 70
0
 62
7
  6
CONTINUOUS
370
-3
390
F
  0
LAYER
  5
204
100
AcDbSymbolTableRecord
100
AcDbLayerTableRecord
  2
COSMETIC
 70
0
 62
7
  6
CONTINUOUS
370
-3
390
F
  0
LAYER
  5
205
100
AcDbSymbolTableRecord
100
AcDbLayerTableRecord
  2
COSMETICHE
 70
0
 62
7
  6
CONTINUOUS
370
-3
390
F
  0
LAYER
  5
206
100
AcDbSymbolTableRecord
100
AcDbLayerTableRecord
  2
CURVE
 70
0
 62
7
  6
CONTINUOUS
370
-3
390
F
  0
LAYER
  5
207
100
AcDbSymbolTableRecord
100
AcDbLayerTableRecord
  2
DRAFT
 70
0
 62
7
  6
CONTINUOUS
370
-3
390
F
  0
LAYER
  5
208
100
AcDbSymbolTableRecord
100
AcDbLayerTableRecord
  2
IMPORT
 70
0
 62
7
  6
CONTINUOUS
370
-3
390
F
  0
LAYER
  5
209
100
AcDbSymbolTableRecord
100
AcDbLayerTableRecord
  2
IMPORTED
 70
0
 62
7
  6
CONTINUOUS
370
-3
390
F
  0
LAYER
  5
20A
100
AcDbSymbolTableRecord
100
AcDbLayerTableRecord
  2
IMPORT_IGES
 70
0
 62
7
  6
CONTINUOUS
370
-3
390
F
  0
LAYER
  5
20B
100
AcDbSymbolTableRecord
100
AcDbLayerTableRecord
  2
INTF_1
 70
0
 62
7
  6
CONTINUOUS
370
-3
390
F
  0
LAYER
  5
20C
100
AcDbSymbolTableRecord
100
AcDbLayerTableRecord
  2
INTF_11
 70
0
 62
7
  6
CONTINUOUS
370
-3
390
F
  0
LAYER
  5
20D
100
AcDbSymbolTableRecord
100
AcDbLayerTableRecord
  2
INTF_2
 70
0
 62
7
  6
CONTINUOUS
370
-3
390
F
  0
LAYER
  5
20E
100
AcDbSymbolTableRecord
100
AcDbLayerTableRecord
  2
NOTE
 70
0
 62
7
  6
CONTINUOUS
370
-3
390
F
  0
LAYER
  5
20F
100
AcDbSymbolTableRecord
100
AcDbLayerTableRecord
  2
PIANI
 70
0
 62
7
  6
CONTINUOUS
370
-3
390
F
  0
LAYER
  5
210
100
AcDbSymbolTableRecord
100
AcDbLayerTableRecord
  2
PIANI_DI_RIFERIMENTO
 70
0
 62
7
  6
CONTINUOUS
370
-3
390
F
  0
LAYER
  5
211
100
AcDbSymbolTableRecord
100
AcDbLayerTableRecord
  2
PIANI_ORIGINE
 70
0
 62
7
  6
CONTINUOUS
370
-3
390
F
  0
LAYER
  5
212
100
AcDbSymbolTableRecord
100
AcDbLayerTableRecord
  2
PIANI_RIFERIMENTO
 70
0
 62
7
  6
CONTINUOUS
370
-3
390
F
  0
LAYER
  5
213
100
AcDbSymbolTableRecord
100
AcDbLayerTableRecord
  2
PIANI_SFORMO
 70
0
 62
7
  6
CONTINUOUS
370
-3
390
F
  0
LAYER
  5
214
100
AcDbSymbolTableRecord
100
AcDbLayerTableRecord
  2
PUNTI
 70
0
 62
7
  6
CONTINUOUS
370
-3
390
F
  0
LAYER
  5
215
100
AcDbSymbolTableRecord
100
AcDbLayerTableRecord
  2
RACCORDO
 70
0
 62
7
  6
CONTINUOUS
370
-3
390
F
  0
LAYER
  5
216
100
AcDbSymbolTableRecord
100
AcDbLayerTableRecord
  2
RGB__255__255__255__
 70
0
 62
7
  6
CONTINUOUS
370
-3
390
F
  0
LAYER
  5
217
100
AcDbSymbolTableRecord
100
AcDbLayerTableRecord
  2
RINTRACCIABILITA
 70
0
 62
7
  6
CONTINUOUS
370
-3
390
F
  0
LAYER
  5
218
100
AcDbSymbolTableRecord
100
AcDbLayerTableRecord
  2
SMUSSO
 70
0
 62
7
  6
CONTINUOUS
370
-3
390
F
  0
LAYER
  5
219
100
AcDbSymbolTableRecord
100
AcDbLayerTableRecord
  2
SUPERFICI
 70
0
 62
7
  6
CONTINUOUS
370
-3
390
F
  0
LAYER
  5
21A
100
AcDbSymbolTableRecord
100
AcDbLayerTableRecord
  2
TRASH
 70
0
 62
7
  6
CONTINUOUS
370
-3
390
F
  0
LAYER
  5
21B
100
AcDbSymbolTableRecord
100
AcDbLayerTableRecord
  2
XSEC_DATUMS
 70
0
 62
7
  6
CONTINUOUS
370
-3
390
F
  0
ENDTAB
  0
TABLE
  2
STYLE
  5
3
100
AcDbSymbolTable
 70
1
  0
STYLE
  5
11
100
AcDbSymbolTableRecord
100
AcDbTextStyleTableRecord
  2
STANDARD
 70
0
 40
0.0
 41
0.8
 50
0.0
 71
0
 42
0.2
  3
txt
  4

  0
STYLE
  5
21C
100
AcDbSymbolTableRecord
100
AcDbTextStyleTableRecord
  2
TEXTSTYLE_1
 70
0
 40
0.0
 41
0.8
 50
0.0
 71
0
 42
0.2
  3
gdt
  4

  0
ENDTAB
  0
TABLE
  2
VIEW
  5
6
100
AcDbSymbolTable
 70
0
  0
ENDTAB
  0
TABLE
  2
UCS
  5
7
100
AcDbSymbolTable
 70
0
  0
ENDTAB
  0
TABLE
  2
APPID
  5
9
100
AcDbSymbolTable
 70
1
  0
APPID
  5
21D
100
AcDbSymbolTableRecord
100
AcDbRegAppTableRecord
  2
ACAD
 70
0
  0
ENDTAB
  0
TABLE
  2
BLOCK_RECORD
  5
1
100
AcDbSymbolTable
 70
0
  0
BLOCK_RECORD
  5
21E
100
AcDbSymbolTableRecord
100
AcDbBlockTableRecord
  2
*Model_Space
  0
BLOCK_RECORD
  5
21F
100
AcDbSymbolTableRecord
100
AcDbBlockTableRecord
  2
*Paper_Space
  0
BLOCK_RECORD
  5
220
100
AcDbSymbolTableRecord
100
AcDbBlockTableRecord
  2
_FILLED
  0
ENDTAB
  0
TABLE
  2
DIMSTYLE
  5
A
100
AcDbSymbolTable
 70
1
100
AcDbDimStyleTable
 71
0
  0
DIMSTYLE
105
221
100
AcDbSymbolTableRecord
100
AcDbDimStyleTableRecord
  2
STANDARD
 70
0
  3

  4

 40
1.0
 41
3.0
 42
0.5
 43
0.38
 44
1.5
 45
0.0
 46
0.0
 47
0.01
 48
0.01
140
3.0
141
0.09
142
0.0
143
25.4
144
1.0
145
0.0
146
1.0
147
0.625
 71
1
 72
0
 73
0
 74
0
 75
0
 76
0
 77
1
 78
8
 79
2
170
0
171
1
172
0
173
0
174
0
175
0
176
0
177
0
178
0
270
2
179
2
271
2
272
2
273
2
274
2
275
0
280
0
281
0
282
0
283
1
284
8
285
0
286
0
287
3
288
0
340
11
278
44
341
220
342
220
343
220
344
220
  0
ENDTAB
  0
ENDSEC
  0
SECTION
  2
BLOCKS
  0
BLOCK
  5
20
100
AcDbEntity
  8
0
100
AcDbBlockBegin
  2
*Model_Space
 70
0
 10
0.0
 20
0.0
 30
0.0
  3
*Model_Space
  1

  0
ENDBLK
  5
21
100
AcDbEntity
  8
0
100
AcDbBlockEnd
  0
BLOCK
  5
1C
100
AcDbEntity
  8
0
100
AcDbBlockBegin
  2
*Paper_Space
 70
0
 10
0.0
 20
0.0
 30
0.0
  3
*Paper_Space
  1

  0
ENDBLK
  5
1D
100
AcDbEntity
  8
0
100
AcDbBlockEnd
  0
BLOCK
  5
222
100
AcDbEntity
  8
0
100
AcDbBlockBegin
  2
_FILLED
 70
64
 10
0.0
 20
0.0
  3
_FILLED
  1

  0
SOLID
  5
223
100
AcDbEntity
  8
0
  6
BYBLOCK
 62
0
100
AcDbTrace
 10
0.0
 20
0.0
 11
-1.0
 21
0.3166666667
 12
-1.0
 22
-0.3166666667
 13
-1.0
 23
-0.3166666667
  0
ENDBLK
  5
224
100
AcDbEntity
  8
0
  6
BYBLOCK
 62
0
100
AcDbBlockEnd
  0
ENDSEC
  0
SECTION
  2
ENTITIES
  0
LWPOLYLINE
  5
225
100
AcDbEntity
  8
RACCORDO
100
AcDbPolyline
 62
250
  6
CONTINUOUS
 90
14
 70
0
 10
-20.3455412722
 20
-19.9054741612
 10
-20.4008463207
 20
-19.8721569768
 10
-20.4524693909
 20
-19.832320349
 10
-20.5001637926
 20
-19.7861621852
 10
-20.5437126483
 20
-19.7338946108
 10
-20.5829018174
 20
-19.6757642744
 10
-20.6175210093
 20
-19.61207053
 10
-20.6473909159
 20
-19.5431458985
 10
-20.6723592654
 20
-19.4693470273
 10
-20.6923044969
 20
-19.3910367906
 10
-20.7071318894
 20
-19.3085955813
 10
-20.7167668445
 20
-19.2224313153
 10
-20.7211575834
 20
-19.1329793152
 10
-20.7202806962
 20
-19.0406871912
  0
LINE
  5
226
100
AcDbEntity
  8
RACCORDO
100
AcDbLine
 62
7
  6
CONTINUOUS
 10
-13.2418719856
 20
23.1424175288
 11
-11.6591153825
 21
23.9544016262
  0
LINE
  5
227
100
AcDbEntity
  8
RACCORDO
100
AcDbLine
 62
7
  6
CONTINUOUS
 10
-13.7258222472
 20
21.399719604
 11
-12.7136048139
 21
21.9166470895
  0
LINE
  5
228
100
AcDbEntity
  8
RACCORDO
100
AcDbLine
 62
250
  6
CONTINUOUS
 10
-13.5683036917
 20
21.3902837972
 11
-12.7136048139
 21
21.8267684172
  0
LINE
  5
229
100
AcDbEntity
  8
RACCORDO
100
AcDbLine
 62
7
  6
CONTINUOUS
 10
-11.6340505766
 20
22.3385068243
 11
-10.0327697857
 21
23.1412288278
  0
LINE
  5
22A
100
AcDbEntity
  8
RACCORDO
100
AcDbLine
 62
7
  6
CONTINUOUS
 10
-10.0327697857
 20
23.1412288278
 11
-9.504502614
 21
23.4046676479
  0
LINE
  5
22B
100
AcDbEntity
  8
RACCORDO
100
AcDbLine
 62
7
  6
CONTINUOUS
 10
-11.6591153825
 20
23.9544016262
 11
-11.1246655038
 21
24.2147490928
  0
LWPOLYLINE
  5
22C
100
AcDbEntity
  8
RACCORDO
100
AcDbPolyline
 62
7
  6
CONTINUOUS
 90
12
 70
0
 10
-6.2012232669
 20
-26.9777462288
 10
-6.1691260708
 20
-26.9931683385
 10
-6.0874128743
 20
-27.0267802939
 10
-6.0026997643
 20
-27.0537287262
 10
-5.915428623
 20
-27.0737570336
 10
-5.825808761
 20
-27.0866844503
 10
-5.7343774542
 20
-27.0922886879
 10
-5.6417323598
 20
-27.0904026622
 10
-5.5480737272
 20
-27.0808708848
 10
-5.4537966057
 20
-27.063554117
 10
-5.3595808942
 20
-27.0384262119
 10
-5.343337292
 20
-27.0332890259
  0
LINE
  5
22D
100
AcDbEntity
  8
RACCORDO
100
AcDbLine
 62
7
  6
CONTINUOUS
 10
-6.2003544942
 20
-26.9781957945
 11
-20.3355219026
 21
-19.9106120902
  0
LINE
  5
22E
100
AcDbEntity
  8
RACCORDO
100
AcDbLine
 62
250
  6
CONTINUOUS
 10
-6.5930096548
 20
-26.1043227119
 11
-20.7202806962
 21
-19.0406871912
  0
LINE
  5
22F
100
AcDbEntity
  8
RACCORDO
100
AcDbLine
 62
250
  6
CONTINUOUS
 10
-20.3355221731
 20
-19.910611955
 11
-20.3455412722
 21
-19.9054741612
  0
LWPOLYLINE
  5
230
100
AcDbEntity
  8
RACCORDO
100
AcDbPolyline
 62
7
  6
CONTINUOUS
 90
12
 70
0
 10
-2.0684119549
 20
24.6222472652
 10
-2.0749306802
 20
24.6187751997
 10
-2.0867851067
 20
24.6112709266
 10
-2.0984402868
 20
24.6023984153
 10
-2.1099358816
 20
24.5922133047
 10
-2.1212271793
 20
24.5807822324
 10
-2.1323722457
 20
24.5681352062
 10
-2.1434391251
 20
24.55430567
 10
-2.1543852443
 20
24.5393361712
 10
-2.1652325454
 20
24.523253244
 10
-2.1760709741
 20
24.5060849897
 10
-2.1869553421
 20
24.4878663583
  0
LINE
  5
231
100
AcDbEntity
  8
DRAFT
100
AcDbLine
 62
7
  6
CONTINUOUS
 10
-10.0327697857
 20
21.4091780203
 11
-11.0996006979
 21
20.8705967707
  0
LINE
  5
232
100
AcDbEntity
  8
RACCORDO
100
AcDbLine
 62
7
  6
CONTINUOUS
 10
-8.5769888092
 20
21.380836624
 11
-2.0683423601
 21
24.6222819342
  0
LINE
  5
233
100
AcDbEntity
  8
RACCORDO
100
AcDbLine
 62
250
  6
CONTINUOUS
 10
-8.5014956687
 20
21.3430900537
 11
-2.1869553421
 21
24.4878663583
  0
LINE
  5
234
100
AcDbEntity
  8
218
100
AcDbLine
 62
7
  6
CONTINUOUS
 10
4.3910875981
 20
26.9969912517
 11
-1.3234978553
 21
24.302008583
  0
LWPOLYLINE
  5
235
100
AcDbEntity
  8
RACCORDO
100
AcDbPolyline
 62
7
  6
CONTINUOUS
 90
19
 70
0
 10
-16.7075229762
 20
18.9158575513
 10
-16.7247153279
 20
18.9088690374
 10
-16.8173865167
 20
18.866129602
 10
-16.9075366194
 20
18.8159486978
 10
-16.9951639583
 20
18.7583770299
 10
-17.0798585175
 20
18.6937342968
 10
-17.160836904
 20
18.6227184483
 10
-17.2381263896
 20
18.545419849
 10
-17.3115404415
 20
18.4620501775
 10
-17.3801323781
 20
18.3737264359
 10
-17.4438718041
 20
18.2806318769
 10
-17.5026023616
 20
18.1829478956
 10
-17.5554564561
 20
18.0821530511
 10
-17.6023727088
 20
17.9785158292
 10
-17.6432094189
 20
17.8722099862
 10
-17.6773809877
 20
17.7647584051
 10
-17.7047331323
 20
17.65678054
 10
-17.7253052839
 20
17.5480497393
 10
-17.7300582955
 20
17.5158268738
  0
LINE
  5
236
100
AcDbEntity
  8
RACCORDO
100
AcDbLine
 62
7
  6
CONTINUOUS
 10
-16.7075274253
 20
18.9158687283
 11
-12.7945562982
 21
20.4724953758
  0
LINE
  5
237
100
AcDbEntity
  8
RACCORDO
100
AcDbLine
 62
250
  6
CONTINUOUS
 10
-16.3574360863
 20
18.8893326899
 11
-12.4484635248
 21
20.444368614
  0
LWPOLYLINE
  5
238
100
AcDbEntity
  8
RACCORDO
100
AcDbPolyline
 62
7
  6
CONTINUOUS
 90
3
 70
0
 10
-2.0501961504
 20
24.629588916
 10
-2.0627611701
 20
24.6248898652
 10
-2.0684119549
 20
24.6222472652
  0
LWPOLYLINE
  5
239
100
AcDbEntity
  8
RACCORDO
100
AcDbPolyline
 62
250
  6
CONTINUOUS
 90
7
 70
0
 10
-16.707364504
 20
18.9159335866
 10
-16.6523591041
 20
18.9328423683
 10
-16.5961254361
 20
18.94086829
 10
-16.5378714504
 20
18.9404800846
 10
-16.4782351428
 20
18.9316820037
 10
-16.4178696478
 20
18.9145704036
 10
-16.3574360863
 20
18.8893326899
  0
LWPOLYLINE
  5
23A
100
AcDbEntity
  8
RACCORDO
100
AcDbPolyline
 62
7
  6
CONTINUOUS
 90
10
 70
0
 10
-2.0501961504
 20
24.629588916
 10
-2.0409565296
 20
24.632334715
 10
-2.0323933757
 20
24.6346004335
 10
-2.0245066888
 20
24.6363860715
 10
-2.0172573305
 20
24.6377124761
 10
-2.0106844392
 20
24.6385588003
 10
-2.0049054298
 20
24.638862503
 10
-1.9999244726
 20
24.6386231673
 10
-1.9957373974
 20
24.6378412101
 10
-1.9931354252
 20
24.6368384983
  0
LINE
  5
23B
100
AcDbEntity
  8
RACCORDO
100
AcDbLine
 62
7
  6
CONTINUOUS
 10
3.419422498
 20
-24.7148008884
 11
3.9466672137
 21
-24.8230931604
  0
LINE
  5
23C
100
AcDbEntity
  8
RACCORDO
100
AcDbLine
 62
7
  6
CONTINUOUS
 10
0.0123156891
 20
-25.7860059802
 11
1.6188481584
 21
-26.5892722149
  0
LINE
  5
23D
100
AcDbEntity
  8
RACCORDO
100
AcDbLine
 62
250
  6
CONTINUOUS
 10
-0.0522796037
 20
-25.6509765319
 11
1.5534968584
 21
-26.453864763
  0
LINE
  5
23E
100
AcDbEntity
  8
RACCORDO
100
AcDbLine
 62
250
  6
CONTINUOUS
 10
1.5534968584
 20
-26.2004933693
 11
-0.0522796037
 21
-25.3976051382
  0
LWPOLYLINE
  5
23F
100
AcDbEntity
  8
RACCORDO
100
AcDbPolyline
 62
250
  6
CONTINUOUS
 90
9
 70
0
 10
-20.9546284489
 20
-18.7599408486
 10
-20.9532635824
 20
-18.7896011977
 10
-20.9439498871
 20
-18.8287271441
 10
-20.9261848488
 20
-18.8674398303
 10
-20.9001588174
 20
-18.9053244557
 10
-20.8661506578
 20
-18.9419750923
 10
-20.8245247624
 20
-18.9769990341
 10
-20.7757271463
 20
-19.0100210048
 10
-20.7202806687
 20
-19.040687179
  0
LWPOLYLINE
  5
240
100
AcDbEntity
  8
RACCORDO
100
AcDbPolyline
 62
7
  6
CONTINUOUS
 90
15
 70
0
 10
-20.9546189158
 20
-18.7599412028
 10
-20.9557276547
 20
-18.8109898415
 10
-20.9517221639
 20
-18.9305622426
 10
-20.9385114101
 20
-19.0461576536
 10
-20.9162992549
 20
-19.1576609405
 10
-20.8853245791
 20
-19.2645632731
 10
-20.8461221375
 20
-19.365736261
 10
-20.7994525738
 20
-19.4603059035
 10
-20.7457361153
 20
-19.548301297
 10
-20.6852934076
 20
-19.6296942889
 10
-20.6189791824
 20
-19.7038179955
 10
-20.5473742083
 20
-19.7705149451
 10
-20.4702651468
 20
-19.8301777968
 10
-20.38796479
 20
-19.8825020208
 10
-20.3344916424
 20
-19.9111110257
  0
LINE
  5
241
100
AcDbEntity
  8
RACCORDO
100
AcDbLine
 62
7
  6
CONTINUOUS
 10
-9.4176509507
 20
22.7836700612
 11
-9.9448956665
 21
22.1419623332
  0
LWPOLYLINE
  5
242
100
AcDbEntity
  8
218
100
AcDbPolyline
 62
7
  6
CONTINUOUS
 90
38
 70
0
 10
2.1832824419
 20
23.9708002529
 10
2.1427639849
 20
23.9497412949
 10
2.103149728
 20
23.9282565627
 10
2.0644575634
 20
23.9063557602
 10
2.0267049666
 20
23.884048779
 10
1.989908989
 20
23.8613456942
 10
1.9540862496
 20
23.8382567599
 10
1.9192529283
 20
23.8147924043
 10
1.8854247576
 20
23.7909632254
 10
1.8526170165
 20
23.7667799857
 10
1.8208445226
 20
23.7422536079
 10
1.7901216265
 20
23.7173951694
 10
1.7604622042
 20
23.6922158978
 10
1.7318796518
 20
23.6667271654
 10
1.7043868788
 20
23.6409404846
 10
1.6779963024
 20
23.614867502
 10
1.6527198422
 20
23.5885199937
 10
1.6285689146
 20
23.5619098599
 10
1.6055544275
 20
23.535049119
 10
1.5836867755
 20
23.5079499032
 10
1.5629758354
 20
23.4806244518
 10
1.5434309615
 20
23.4530851068
 10
1.5250609812
 20
23.4253443063
 10
1.5078741917
 20
23.3974145799
 10
1.4918783554
 20
23.3693085422
 10
1.477080697
 20
23.3410388875
 10
1.4634879
 20
23.312618384
 10
1.4511061036
 20
23.2840598681
 10
1.4399409002
 20
23.2553762384
 10
1.4299973327
 20
23.2265804502
 10
1.4212798921
 20
23.1976855093
 10
1.4137925158
 20
23.1687044664
 10
1.4075385855
 20
23.1396504109
 10
1.4025209258
 20
23.1105364654
 10
1.398741803
 20
23.0813757794
 10
1.396202924
 20
23.0521815235
 10
1.3949054354
 20
23.0229668836
 10
1.3947211771
 20
23.0070500145
  0
LINE
  5
243
100
AcDbEntity
  8
RACCORDO
100
AcDbLine
 62
7
  6
CONTINUOUS
 10
-7.7683753543
 20
20.9896718304
 11
-7.2750533391
 21
21.2427553622
  0
LINE
  5
244
100
AcDbEntity
  8
218
100
AcDbLine
 62
7
  6
CONTINUOUS
 10
6.3996622196
 20
26.1161098696
 11
2.1832824419
 21
23.9708002529
  0
LINE
  5
245
100
AcDbEntity
  8
RACCORDO
100
AcDbLine
 62
7
  6
CONTINUOUS
 10
-1.1939350209
 20
23.6081228275
 11
-5.9315504549
 21
21.2730723129
  0
LINE
  5
246
100
AcDbEntity
  8
RACCORDO
100
AcDbLine
 62
7
  6
CONTINUOUS
 10
-1.6181990896
 20
22.1686912253
 11
-1.1939350209
 21
22.3762886461
  0
LINE
  5
247
100
AcDbEntity
  8
RACCORDO
100
AcDbLine
 62
7
  6
CONTINUOUS
 10
0.7921345588
 20
22.9983214078
 11
-1.264645699
 21
21.99191453
  0
LINE
  5
248
100
AcDbEntity
  8
RACCORDO
100
AcDbLine
 62
7
  6
CONTINUOUS
 10
-7.2750533391
 20
21.2427553622
 11
-1.7974133496
 21
23.9110873255
  0
LINE
  5
249
100
AcDbEntity
  8
218
100
AcDbLine
 62
7
  6
CONTINUOUS
 10
5.3623702065
 20
26.6983893877
 11
1.789296508
 21
24.9929560709
  0
LINE
  5
24A
100
AcDbEntity
  8
218
100
AcDbLine
 62
250
  6
CONTINUOUS
 10
4.8299723486
 20
26.9645883167
 11
-1.0771202822
 21
24.1788197964
  0
LWPOLYLINE
  5
24B
100
AcDbEntity
  8
218
100
AcDbPolyline
 62
250
  6
CONTINUOUS
 90
26
 70
0
 10
4.8299723486
 20
26.9645883167
 10
4.8492449531
 20
26.9734905784
 10
4.8684940653
 20
26.981737773
 10
4.8877053717
 20
26.9893237666
 10
4.9068645794
 20
26.996242914
 10
4.9259574493
 20
27.002490072
 10
4.9449698069
 20
27.0080605999
 10
4.9638875341
 20
27.0129503563
 10
4.9826965431
 20
27.0171556949
 10
5.0013828099
 20
27.0206734783
 10
5.0199324264
 20
27.0235010888
 10
5.0383316124
 20
27.0256364267
 10
5.0565666886
 20
27.0270779042
 10
5.0746240969
 20
27.0278244491
 10
5.0924904081
 20
27.0278755061
 10
5.1101523346
 20
27.0272310368
 10
5.1275967422
 20
27.0258915207
 10
5.1448106601
 20
27.0238579538
 10
5.161781288
 20
27.0211318483
 10
5.1784960065
 20
27.0177152312
 10
5.1949423867
 20
27.0136106432
 10
5.211108199
 20
27.0088211364
 10
5.2269814225
 20
27.0033502724
 10
5.2425502539
 20
26.9972021192
 10
5.2578031163
 20
26.9903812485
 10
5.2648452292
 20
26.9869516463
  0
LINE
  5
24C
100
AcDbEntity
  8
218
100
AcDbLine
 62
250
  6
CONTINUOUS
 10
-1.7702362521
 20
20.7521619341
 11
-1.7610711319
 21
20.7551794322
  0
LINE
  5
24D
100
AcDbEntity
  8
218
100
AcDbLine
 62
250
  6
CONTINUOUS
 10
-1.7610711319
 20
20.7551794322
 11
-1.7517252731
 21
20.758173793
  0
LINE
  5
24E
100
AcDbEntity
  8
218
100
AcDbLine
 62
250
  6
CONTINUOUS
 10
-1.7517252731
 20
20.758173793
 11
-1.7421963377
 21
20.7611413234
  0
LINE
  5
24F
100
AcDbEntity
  8
218
100
AcDbLine
 62
250
  6
CONTINUOUS
 10
-1.7421963377
 20
20.7611413234
 11
-1.7324828677
 21
20.7640795171
  0
LWPOLYLINE
  5
250
100
AcDbEntity
  8
218
100
AcDbPolyline
 62
250
  6
CONTINUOUS
 90
3
 70
0
 10
-1.7324828677
 20
20.7640795171
 10
-1.7225827302
 20
20.7669845757
 10
-1.7175622193
 20
20.7684233137
  0
LWPOLYLINE
  5
251
100
AcDbEntity
  8
0
100
AcDbPolyline
 62
7
  6
CONTINUOUS
 90
3
 70
0
 10
-12.6554939677
 20
-17.0371440439
 10
-12.5974116975
 20
-17.0626626336
 10
-12.5772429492
 20
-17.0692671658
  0
LWPOLYLINE
  5
252
100
AcDbEntity
  8
RACCORDO
100
AcDbPolyline
 62
250
  6
CONTINUOUS
 90
55
 70
0
 10
-13.533521013
 20
-17.0809884093
 10
-13.4963803583
 20
-17.0981304036
 10
-13.4591185852
 20
-17.1124799866
 10
-13.4218610839
 20
-17.1239882107
 10
-13.384751603
 20
-17.132612032
 10
-13.3478965463
 20
-17.1383282679
 10
-13.3113660915
 20
-17.14111926
 10
-13.2752478345
 20
-17.1409602813
 10
-13.2397056616
 20
-17.1378334093
 10
-13.2049212676
 20
-17.1317479339
 10
-13.171017566
 20
-17.1227270531
 10
-13.1381043355
 20
-17.1108019024
 10
-13.1063316814
 20
-17.096034169
 10
-13.0758318059
 20
-17.078503973
 10
-13.0466709455
 20
-17.0582686912
 10
-13.0188958805
 20
-17.0353663914
 10
-12.9925842396
 20
-17.0098534232
 10
-12.967845623
 20
-16.9818279812
 10
-12.9447727023
 20
-16.9513930037
 10
-12.9234438293
 20
-16.9186521759
 10
-12.9039303171
 20
-16.8837153187
 10
-12.886302351
 20
-16.8467104113
 10
-12.8706270865
 20
-16.8077890564
 10
-12.8569439899
 20
-16.7670611937
 10
-12.8452801649
 20
-16.7245949815
 10
-12.8356749834
 20
-16.680483491
 10
-12.8281819181
 20
-16.6349109837
 10
-12.8228406141
 20
-16.5880886003
 10
-12.8196703329
 20
-16.5401937737
 10
-12.8186797129
 20
-16.4913714829
 10
-12.8198720723
 20
-16.4417953515
 10
-12.8232421259
 20
-16.3916398639
 10
-12.8287777285
 20
-16.3410697673
 10
-12.83646105
 20
-16.2902471217
 10
-12.8462679687
 20
-16.2393376717
 10
-12.8581648064
 20
-16.1885210928
 10
-12.8721085371
 20
-16.1379805464
 10
-12.8880486128
 20
-16.0878946696
 10
-12.9059320216
 20
-16.0384260359
 10
-12.9257019095
 20
-15.9897316217
 10
-12.9472953112
 20
-15.9419693552
 10
-12.9706363584
 20
-15.8953096294
 10
-12.9956394708
 20
-15.8499229811
 10
-13.022213516
 20
-15.8059713658
 10
-13.0502723421
 20
-15.7635940692
 10
-13.0797300278
 20
-15.7229208852
 10
-13.1105080196
 20
-15.6840657229
 10
-13.1424832736
 20
-15.6471889805
 10
-13.1754922141
 20
-15.6124724639
 10
-13.2093826631
 20
-15.5800565823
 10
-13.2440700058
 20
-15.5500034837
 10
-13.2794864656
 20
-15.5223651365
 10
-13.3155306153
 20
-15.4972226626
 10
-13.3520639554
 20
-15.4746744618
 10
-13.3889634952
 20
-15.4547961626
  0
LINE
  5
253
100
AcDbEntity
  8
RACCORDO
100
AcDbLine
 62
250
  6
CONTINUOUS
 10
1.6423994345
 20
-25.9690563096
 11
0.0355945156
 21
-25.1656538502
  0
LINE
  5
254
100
AcDbEntity
  8
RACCORDO
100
AcDbLine
 62
7
  6
CONTINUOUS
 10
-0.8651739526
 20
-23.7214307158
 11
1.705202782
 21
-25.0066190831
  0
LINE
  5
255
100
AcDbEntity
  8
DRAFT
100
AcDbLine
 62
7
  6
CONTINUOUS
 10
2.2647174665
 20
-25.2239968921
 11
1.8554522212
 21
-25.0193642694
  0
LINE
  5
256
100
AcDbEntity
  8
ASSI
100
AcDbLine
 62
7
  6
CONTINUOUS
 10
-0.8372989456
 20
-23.4078522808
 11
1.9526901554
 21
-24.8028468313
  0
LINE
  5
257
100
AcDbEntity
  8
RACCORDO
100
AcDbLine
 62
250
  6
CONTINUOUS
 10
3.419422498
 20
-24.7148008884
 11
3.376000172
 21
-24.6930897255
  0
LINE
  5
258
100
AcDbEntity
  8
0
100
AcDbLine
 62
7
  6
CONTINUOUS
 10
-0.757681797
 20
-22.5122033255
 11
2.7658629537
 21
-24.2739757008
  0
LINE
  5
259
100
AcDbEntity
  8
RACCORDO
100
AcDbLine
 62
250
  6
CONTINUOUS
 10
3.3315483787
 20
-24.5155337429
 11
3.9466672137
 21
-24.8230931604
  0
LINE
  5
25A
100
AcDbEntity
  8
RACCORDO
100
AcDbLine
 62
7
  6
CONTINUOUS
 10
3.3315483787
 20
-24.5119135933
 11
3.9699460401
 21
-24.8311124241
  0
LWPOLYLINE
  5
25B
100
AcDbEntity
  8
RACCORDO
100
AcDbPolyline
 62
7
  6
CONTINUOUS
 90
46
 70
0
 10
-13.507550441
 20
-17.1370792335
 10
-13.54817389
 20
-17.1152429967
 10
-13.5882373024
 20
-17.0906506252
 10
-13.6276344184
 20
-17.0633788667
 10
-13.6662729406
 20
-17.0334992174
 10
-13.7040395781
 20
-17.0011038874
 10
-13.7407988365
 20
-16.966316463
 10
-13.7764673911
 20
-16.929222571
 10
-13.8109314982
 20
-16.8899441831
 10
-13.8440186142
 20
-16.8486931837
 10
-13.8756263234
 20
-16.8056257035
 10
-13.9056917499
 20
-16.7608535831
 10
-13.9341149972
 20
-16.7145506189
 10
-13.9608114586
 20
-16.6668853154
 10
-13.9857277262
 20
-16.6179818784
 10
-14.0088145451
 20
-16.5679558198
 10
-14.0300143494
 20
-16.5169409642
 10
-14.049260823
 20
-16.4651025105
 10
-14.0664950317
 20
-16.4126055134
 10
-14.08166505
 20
-16.359614374
 10
-14.0947297695
 20
-16.3062738552
 10
-14.1056526949
 20
-16.2527200303
 10
-14.1143995835
 20
-16.1990838583
 10
-14.1209318561
 20
-16.1455448421
 10
-14.1252179531
 20
-16.0923079283
 10
-14.1272399069
 20
-16.039545416
 10
-14.1269866167
 20
-15.9873882365
 10
-14.1244483363
 20
-15.9359713749
 10
-14.1196123539
 20
-15.8853894192
 10
-14.1124778018
 20
-15.8358430173
 10
-14.1030755182
 20
-15.7876080254
 10
-14.091429306
 20
-15.7408129261
 10
-14.0775673253
 20
-15.695586051
 10
-14.0615687061
 20
-15.6521694081
 10
-14.0434966785
 20
-15.6106896535
 10
-14.0234001369
 20
-15.5712247741
 10
-14.0013674597
 20
-15.5339159706
 10
-13.9774706907
 20
-15.4988496204
 10
-13.9517885959
 20
-15.4661108485
 10
-13.9244448443
 20
-15.435820724
 10
-13.8955571676
 20
-15.408063059
 10
-13.8652154108
 20
-15.3828799012
 10
-13.833523468
 20
-15.360319735
 10
-13.8005998026
 20
-15.3404312391
 10
-13.7665740349
 20
-15.3232562673
 10
-13.7315777882
 20
-15.3088235354
  0
LWPOLYLINE
  5
25C
100
AcDbEntity
  8
RACCORDO
100
AcDbPolyline
 62
250
  6
CONTINUOUS
 90
3
 70
0
 10
-13.3463372058
 20
-17.272427876
 10
-13.4140347297
 20
-17.2350909344
 10
-13.4810495564
 20
-17.1911012092
  0
LWPOLYLINE
  5
25D
100
AcDbEntity
  8
RACCORDO
100
AcDbPolyline
 62
250
  6
CONTINUOUS
 90
39
 70
0
 10
-13.4248997913
 20
-17.3920653673
 10
-13.4989137361
 20
-17.3511303211
 10
-13.5712603575
 20
-17.3036013206
 10
-13.641938938
 20
-17.2494780648
 10
-13.7114180742
 20
-17.1883134286
 10
-13.7792262853
 20
-17.1205533285
 10
-13.8439522164
 20
-17.0475368083
 10
-13.905508371
 20
-16.9691627308
 10
-13.9639771116
 20
-16.8855300857
 10
-14.0182019549
 20
-16.7982781443
 10
-14.0680821307
 20
-16.7073633359
 10
-14.1137122342
 20
-16.6128266565
 10
-14.1542297136
 20
-16.5164345982
 10
-14.1895470178
 20
-16.4181181863
 10
-14.2197457979
 20
-16.3179439473
 10
-14.2442190724
 20
-16.2178823661
 10
-14.2628469793
 20
-16.1179521453
 10
-14.2757452318
 20
-16.0181328747
 10
-14.2826627266
 20
-15.9203374183
 10
-14.2834831372
 20
-15.8245954733
 10
-14.2783212615
 20
-15.7308767302
 10
-14.2672756012
 20
-15.6410052541
 10
-14.2502318523
 20
-15.5550620508
 10
-14.2273058228
 20
-15.4729667579
 10
-14.1989441131
 20
-15.3963025984
 10
-14.1650398738
 20
-15.3251746479
 10
-14.1257041093
 20
-15.2594795613
 10
-14.0817127157
 20
-15.2004889649
 10
-14.0329854582
 20
-15.1483421791
 10
-13.9796084462
 20
-15.1029023104
 10
-13.9226088649
 20
-15.0650273902
 10
-13.8619284525
 20
-15.034859827
 10
-13.7976316672
 20
-15.0122597595
 10
-13.7309306591
 20
-14.9976621751
 10
-13.6617421816
 20
-14.9912291153
 10
-13.5901546031
 20
-14.9928006372
 10
-13.517637585
 20
-15.0023287863
 10
-13.4446820569
 20
-15.0197980041
 10
-13.3707999986
 20
-15.0452250391
  0
LINE
  5
25E
100
AcDbEntity
  8
RACCORDO
100
AcDbLine
 62
250
  6
CONTINUOUS
 10
-13.4810495564
 20
-17.1911012092
 11
-13.5469484179
 21
-17.1407140542
  0
LWPOLYLINE
  5
25F
100
AcDbEntity
  8
RACCORDO
100
AcDbPolyline
 62
250
  6
CONTINUOUS
 90
3
 70
0
 10
-13.5469484179
 20
-17.1407140542
 10
-13.6113378163
 20
-17.0842091003
 10
-13.6480481672
 20
-17.0475926612
  0
LINE
  5
260
100
AcDbEntity
  8
RACCORDO
100
AcDbLine
 62
7
  6
CONTINUOUS
 10
-20.9546216698
 20
-18.7597601515
 11
-20.9546284489
 21
-18.7599408486
  0
LWPOLYLINE
  5
261
100
AcDbEntity
  8
RACCORDO
100
AcDbPolyline
 62
250
  6
CONTINUOUS
 90
13
 70
0
 10
-20.7202806962
 20
-19.0406871912
 10
-20.5946159321
 20
-16.0733951429
 10
-20.4428289187
 20
-13.0944506573
 10
-20.2649384514
 20
-10.1042278201
 10
-20.0609665756
 20
-7.1031021837
 10
-19.8309388392
 20
-4.0914504806
 10
-19.5748842856
 20
-1.0696505756
 10
-19.2928352033
 20
1.9619182705
 10
-18.9848268531
 20
5.0028754253
 10
-18.6508977133
 20
8.0528391728
 10
-18.2910897536
 20
11.1114267107
 10
-17.9054484334
 20
14.1782541973
 10
-17.4940224221
 20
17.2529367783
  0
LWPOLYLINE
  5
262
100
AcDbEntity
  8
RACCORDO
100
AcDbPolyline
 62
250
  6
CONTINUOUS
 90
10
 70
0
 10
-17.7300641117
 20
17.5158276733
 10
-17.7306596461
 20
17.5105438626
 10
-17.7292612757
 20
17.4785705362
 10
-17.7193798156
 20
17.4458269629
 10
-17.7011211432
 20
17.4126639817
 10
-17.6746808954
 20
17.3794369256
 10
-17.640342373
 20
17.3465018143
 10
-17.5984735043
 20
17.3142115391
 10
-17.5495229036
 20
17.2829120822
 10
-17.4940150643
 20
17.2529388094
  0
LWPOLYLINE
  5
263
100
AcDbEntity
  8
RACCORDO
100
AcDbPolyline
 62
7
  6
CONTINUOUS
 90
13
 70
0
 10
-17.7300526843
 20
17.5159108075
 10
-18.1339389665
 20
14.4991687837
 10
-18.5212511056
 20
11.4222343461
 10
-18.8825579406
 20
8.3535162357
 10
-19.2178050495
 20
5.2934469187
 10
-19.526951912
 20
2.2424064558
 10
-19.8099618916
 20
-0.7992455363
 10
-20.0667979346
 20
-3.8311351971
 10
-20.2974282016
 20
-6.8528904972
 10
-20.5018230649
 20
-9.8641543921
 10
-20.679953264
 20
-12.864551337
 10
-20.8317947577
 20
-15.853660514
 10
-20.9546216698
 20
-18.7597601515
  0
LWPOLYLINE
  5
264
100
AcDbEntity
  8
RACCORDO
100
AcDbPolyline
 62
250
  6
CONTINUOUS
 90
22
 70
0
 10
-17.4940224221
 20
17.2529367783
 10
-17.4779948165
 20
17.3508050075
 10
-17.4568658418
 20
17.4496400717
 10
-17.4307429824
 20
17.5489471974
 10
-17.3997619292
 20
17.6482243908
 10
-17.3640773144
 20
17.7469804633
 10
-17.3238592269
 20
17.844737065
 10
-17.2793025824
 20
17.9410199511
 10
-17.2306359273
 20
18.0353320287
 10
-17.1781136379
 20
18.1271730932
 10
-17.1220155168
 20
18.2160672202
 10
-17.0626149011
 20
18.3015922548
 10
-17.0001830916
 20
18.3833492719
 10
-16.9350200513
 20
18.4609439905
 10
-16.8674651893
 20
18.5339693963
 10
-16.7978681481
 20
18.6020380155
 10
-16.7265900421
 20
18.6648038511
 10
-16.6539817813
 20
18.721964325
 10
-16.5803915195
 20
18.7732382766
 10
-16.5061842613
 20
18.8183699027
 10
-16.4317405269
 20
18.8571326183
 10
-16.3574360863
 20
18.8893326899
  0
LINE
  5
265
100
AcDbEntity
  8
0
100
AcDbLine
 62
7
  6
CONTINUOUS
 10
1.939106529
 20
22.6344446908
 11
2.3618038803
 21
22.8573413622
  0
LINE
  5
266
100
AcDbEntity
  8
218
100
AcDbLine
 62
7
  6
CONTINUOUS
 10
6.4057192065
 20
25.6786214024
 11
2.1832824419
 21
23.5605812099
  0
LINE
  5
267
100
AcDbEntity
  8
0
100
AcDbLine
 62
7
  6
CONTINUOUS
 10
0.1331388075
 20
22.1382485939
 11
-1.264645699
 21
21.4393563407
  0
LINE
  5
268
100
AcDbEntity
  8
0
100
AcDbLine
 62
7
  6
CONTINUOUS
 10
2.4900913091
 20
22.6342496309
 11
2.9850660559
 21
22.8817370043
  0
LINE
  5
269
100
AcDbEntity
  8
RACCORDO
100
AcDbLine
 62
7
  6
CONTINUOUS
 10
5.4532439684
 20
23.0622368566
 11
4.1417796574
 21
22.4065047011
  0
LWPOLYLINE
  5
26A
100
AcDbEntity
  8
218
100
AcDbPolyline
 62
7
  6
CONTINUOUS
 90
6
 70
0
 10
-2.2547130755
 20
20.6529194487
 10
-2.2634138413
 20
20.648573038
 10
-2.2715156023
 20
20.6438941196
 10
-2.2793328765
 20
20.6387366246
 10
-2.2868601597
 20
20.6331046632
 10
-2.2927226084
 20
20.628212581
  0
LINE
  5
26B
100
AcDbEntity
  8
218
100
AcDbLine
 62
250
  6
CONTINUOUS
 10
-1.9838066502
 20
20.660658107
 11
-1.9297191358
 21
20.6867273265
  0
LINE
  5
26C
100
AcDbEntity
  8
218
100
AcDbLine
 62
250
  6
CONTINUOUS
 10
-1.9945053043
 20
20.6555781165
 11
-1.9838066502
 21
20.660658107
  0
LINE
  5
26D
100
AcDbEntity
  8
218
100
AcDbLine
 62
250
  6
CONTINUOUS
 10
-1.9297191358
 20
20.6867273265
 11
-1.9173904513
 21
20.6925641099
  0
LINE
  5
26E
100
AcDbEntity
  8
218
100
AcDbLine
 62
250
  6
CONTINUOUS
 10
-2.0024323804
 20
20.651870027
 11
-1.9945053043
 21
20.6555781165
  0
LINE
  5
26F
100
AcDbEntity
  8
218
100
AcDbLine
 62
250
  6
CONTINUOUS
 10
-1.9173904513
 20
20.6925641099
 11
-1.9078745881
 21
20.6970052665
  0
LINE
  5
270
100
AcDbEntity
  8
218
100
AcDbLine
 62
250
  6
CONTINUOUS
 10
-2.0425170062
 20
20.6333536953
 11
-2.0024323804
 21
20.651870027
  0
LINE
  5
271
100
AcDbEntity
  8
218
100
AcDbLine
 62
7
  6
CONTINUOUS
 10
-2.2039804002
 20
20.6763110003
 11
-2.2547140719
 21
20.6529189885
  0
LINE
  5
272
100
AcDbEntity
  8
218
100
AcDbLine
 62
250
  6
CONTINUOUS
 10
-1.9078745881
 20
20.6970052665
 11
-1.8981105096
 21
20.7014946952
  0
LWPOLYLINE
  5
273
100
AcDbEntity
  8
218
100
AcDbPolyline
 62
250
  6
CONTINUOUS
 90
17
 70
0
 10
-1.0505441671
 20
20.7606592306
 10
-1.0447307217
 20
20.7632950981
 10
-1.0389312908
 20
20.7656313544
 10
-1.0331556884
 20
20.767664046
 10
-1.0274136884
 20
20.7693897332
 10
-1.0217150076
 20
20.7708054956
 10
-1.0160692898
 20
20.7719089374
 10
-1.0104860889
 20
20.7726981912
 10
-1.0049748531
 20
20.7731719216
 10
-0.9995449088
 20
20.7733293268
 10
-0.9942054448
 20
20.7731701404
 10
-0.9889654969
 20
20.7726946318
 10
-0.9838339325
 20
20.7719036058
 10
-0.9788194353
 20
20.7707984009
 10
-0.9739304913
 20
20.7693808875
 10
-0.9691753737
 20
20.7676534642
 10
-0.9646223636
 20
20.7656456173
  0
LWPOLYLINE
  5
274
100
AcDbEntity
  8
RACCORDO
100
AcDbPolyline
 62
7
  6
CONTINUOUS
 90
10
 70
0
 10
6.3017457803
 20
22.6379596251
 10
6.3131422445
 20
22.6431282803
 10
6.324362647
 20
22.6471801767
 10
6.3354069877
 20
22.6501153142
 10
6.3463702467
 20
22.6519338456
 10
6.3571574438
 20
22.652635618
 10
6.3674836392
 20
22.6522201737
 10
6.377253853
 20
22.6506873598
 10
6.386563065
 20
22.6480373291
 10
6.3954112753
 20
22.6442700815
  0
LINE
  5
275
100
AcDbEntity
  8
218
100
AcDbLine
 62
250
  6
CONTINUOUS
 10
-1.8981105096
 20
20.7014946952
 11
-1.891456008
 21
20.7045116014
  0
LWPOLYLINE
  5
276
100
AcDbEntity
  8
218
100
AcDbPolyline
 62
250
  6
CONTINUOUS
 90
22
 70
0
 10
-2.2208677209
 20
20.668550355
 10
-2.2177394077
 20
20.669960287
 10
-2.2084909453
 20
20.6737341812
 10
-2.199031331
 20
20.6770166366
 10
-2.1893706906
 20
20.6798041398
 10
-2.179519365
 20
20.682093707
 10
-2.169487899
 20
20.6838828874
 10
-2.1592870305
 20
20.6851697659
 10
-2.1489276786
 20
20.6859529649
 10
-2.1384209321
 20
20.6862316461
 10
-2.1277780374
 20
20.6860055113
 10
-2.1170103868
 20
20.6852748024
 10
-2.1061295062
 20
20.6840403016
 10
-2.0951470426
 20
20.6823033303
 10
-2.0840747516
 20
20.6800657479
 10
-2.0729244852
 20
20.6773299494
 10
-2.0617081788
 20
20.6740988632
 10
-2.0504378383
 20
20.6703759481
 10
-2.0391255277
 20
20.6661651888
 10
-2.0277833559
 20
20.6614710929
 10
-2.0164234635
 20
20.6562986847
 10
-2.0050580103
 20
20.650653501
  0
LINE
  5
277
100
AcDbEntity
  8
218
100
AcDbLine
 62
250
  6
CONTINUOUS
 10
-1.891456008
 20
20.7045116014
 11
-1.8846802192
 21
20.707545461
  0
LINE
  5
278
100
AcDbEntity
  8
218
100
AcDbLine
 62
250
  6
CONTINUOUS
 10
-1.8846802192
 20
20.707545461
 11
-1.877778323
 21
20.7105941247
  0
LINE
  5
279
100
AcDbEntity
  8
218
100
AcDbLine
 62
250
  6
CONTINUOUS
 10
-1.877778323
 20
20.7105941247
 11
-1.8707469837
 21
20.7136561981
  0
LINE
  5
27A
100
AcDbEntity
  8
218
100
AcDbLine
 62
250
  6
CONTINUOUS
 10
-1.8707469837
 20
20.7136561981
 11
-1.86358091
 21
20.7167296937
  0
LINE
  5
27B
100
AcDbEntity
  8
218
100
AcDbLine
 62
250
  6
CONTINUOUS
 10
-1.86358091
 20
20.7167296937
 11
-1.8562755261
 21
20.7198122402
  0
LINE
  5
27C
100
AcDbEntity
  8
218
100
AcDbLine
 62
250
  6
CONTINUOUS
 10
-1.8562755261
 20
20.7198122402
 11
-1.8488277984
 21
20.7229022371
  0
LINE
  5
27D
100
AcDbEntity
  8
218
100
AcDbLine
 62
250
  6
CONTINUOUS
 10
-1.8488277984
 20
20.7229022371
 11
-1.8412333031
 21
20.7259972103
  0
LINE
  5
27E
100
AcDbEntity
  8
218
100
AcDbLine
 62
250
  6
CONTINUOUS
 10
-1.8412333031
 20
20.7259972103
 11
-1.8334876176
 21
20.7290946157
  0
LINE
  5
27F
100
AcDbEntity
  8
218
100
AcDbLine
 62
250
  6
CONTINUOUS
 10
-1.8334876176
 20
20.7290946157
 11
-1.8255878882
 21
20.7321927037
  0
LINE
  5
280
100
AcDbEntity
  8
218
100
AcDbLine
 62
250
  6
CONTINUOUS
 10
-1.8255878882
 20
20.7321927037
 11
-1.8175298932
 21
20.7352888003
  0
LINE
  5
281
100
AcDbEntity
  8
218
100
AcDbLine
 62
250
  6
CONTINUOUS
 10
-1.8175298932
 20
20.7352888003
 11
-1.8093099437
 21
20.7383799575
  0
LINE
  5
282
100
AcDbEntity
  8
218
100
AcDbLine
 62
250
  6
CONTINUOUS
 10
-1.8093099437
 20
20.7383799575
 11
-1.8009256361
 21
20.7414641776
  0
LINE
  5
283
100
AcDbEntity
  8
218
100
AcDbLine
 62
250
  6
CONTINUOUS
 10
-1.8009256361
 20
20.7414641776
 11
-1.7923736446
 21
20.7445383449
  0
LINE
  5
284
100
AcDbEntity
  8
218
100
AcDbLine
 62
250
  6
CONTINUOUS
 10
-1.7923736446
 20
20.7445383449
 11
-1.783649858
 21
20.7475995468
  0
LWPOLYLINE
  5
285
100
AcDbEntity
  8
218
100
AcDbPolyline
 62
250
  6
CONTINUOUS
 90
3
 70
0
 10
-1.783649858
 20
20.7475995468
 10
-1.7747518691
 20
20.7506457022
 10
-1.7702362521
 20
20.7521619341
  0
LINE
  5
286
100
AcDbEntity
  8
RACCORDO
100
AcDbLine
 62
250
  6
CONTINUOUS
 10
-13.3707999986
 20
-15.0452250391
 11
-13.2959921352
 21
-15.0786101876
  0
LWPOLYLINE
  5
287
100
AcDbEntity
  8
RACCORDO
100
AcDbPolyline
 62
250
  6
CONTINUOUS
 90
55
 70
0
 10
-13.3889634952
 20
-15.4547961626
 10
-13.4261041115
 20
-15.4376541545
 10
-13.4633658656
 20
-15.4233045647
 10
-13.5006233674
 20
-15.4117963407
 10
-13.537732881
 20
-15.4031725312
 10
-13.5745879899
 20
-15.3974563141
 10
-13.6111184778
 20
-15.3946653339
 10
-13.6472367271
 20
-15.3948243099
 10
-13.6827788731
 20
-15.3979511722
 10
-13.7175632475
 20
-15.4040366405
 10
-13.7514669483
 20
-15.413057521
 10
-13.784380185
 20
-15.424982674
 10
-13.8161528436
 20
-15.439750409
 10
-13.8466527179
 20
-15.4572806046
 10
-13.8758135753
 20
-15.4775158853
 10
-13.9035886378
 20
-15.5004181841
 10
-13.9299002775
 20
-15.525931152
 10
-13.9546388935
 20
-15.5539565937
 10
-13.9777118134
 20
-15.5843915709
 10
-13.9990406851
 20
-15.6171323983
 10
-14.0185541961
 20
-15.652069255
 10
-14.0361821612
 20
-15.689074162
 10
-14.0518574252
 20
-15.7279955168
 10
-14.0655405215
 20
-15.7687233794
 10
-14.0772043462
 20
-15.8111895914
 10
-14.086809527
 20
-15.8553010817
 10
-14.0943025915
 20
-15.9008735888
 10
-14.0996438949
 20
-15.9476959719
 10
-14.1028141757
 20
-15.9955907983
 10
-14.1038047956
 20
-16.0444130891
 10
-14.102612436
 20
-16.0939892204
 10
-14.0992423823
 20
-16.144144708
 10
-14.0937067797
 20
-16.1947148046
 10
-14.0860234582
 20
-16.2455374502
 10
-14.0762165397
 20
-16.2964469003
 10
-14.0643197024
 20
-16.3472634793
 10
-14.050375972
 20
-16.3978040258
 10
-14.0344358964
 20
-16.4478899027
 10
-14.0165524876
 20
-16.4973585364
 10
-13.9967826003
 20
-16.5460529508
 10
-13.9751892003
 20
-16.5938152179
 10
-13.9518481554
 20
-16.6404749446
 10
-13.9268450438
 20
-16.6858615931
 10
-13.9002709955
 20
-16.7298132073
 10
-13.8722121648
 20
-16.7721905023
 10
-13.8427544793
 20
-16.8128636864
 10
-13.8119765006
 20
-16.8517188533
 10
-13.7800012646
 20
-16.8885956023
 10
-13.7469923291
 20
-16.9233121206
 10
-13.7131018572
 20
-16.955727994
 10
-13.6784144787
 20
-16.9857810797
 10
-13.642997997
 20
-17.013419419
 10
-13.6069538485
 20
-17.0385618933
 10
-13.5704205236
 20
-17.0611100996
 10
-13.533521013
 20
-17.0809884093
  0
LWPOLYLINE
  5
288
100
AcDbEntity
  8
RACCORDO
100
AcDbPolyline
 62
250
  6
CONTINUOUS
 90
12
 70
0
 10
-13.3120804316
 20
-15.3477918371
 10
-13.3529628373
 20
-15.3289231552
 10
-13.3939785496
 20
-15.3131280666
 10
-13.4349895665
 20
-15.3004604403
 10
-13.4758376963
 20
-15.2909675474
 10
-13.516405827
 20
-15.2846750046
 10
-13.5566166497
 20
-15.281602563
 10
-13.5963736701
 20
-15.2817776204
 10
-13.6354965094
 20
-15.2852197296
 10
-13.6737852309
 20
-15.2919184501
 10
-13.7111045861
 20
-15.3018481535
 10
-13.7315777897
 20
-15.3088235359
  0
LINE
  5
289
100
AcDbEntity
  8
0
100
AcDbLine
 62
7
  6
CONTINUOUS
 10
-0.6172575432
 20
-20.9325080148
 11
2.7658629537
 21
-22.6240682633
  0
LWPOLYLINE
  5
28A
100
AcDbEntity
  8
RACCORDO
100
AcDbPolyline
 62
7
  6
CONTINUOUS
 90
32
 70
0
 10
-13.2701521024
 20
-15.1392802332
 10
-13.2531078923
 20
-15.1480344418
 10
-13.1819522973
 20
-15.1895164246
 10
-13.1115109366
 20
-15.2386278721
 10
-13.0424552402
 20
-15.2949581643
 10
-12.9753370172
 20
-15.3580376232
 10
-12.9106209447
 20
-15.4274560309
 10
-12.8488282966
 20
-15.5026736316
 10
-12.7904453524
 20
-15.5830721396
 10
-12.7358506496
 20
-15.6681648213
 10
-12.6854771407
 20
-15.7573104421
 10
-12.639703085
 20
-15.8498071356
 10
-12.5988210005
 20
-15.9451065753
 10
-12.5631641477
 20
-16.0424856859
 10
-12.5329965765
 20
-16.1411956736
 10
-12.5085273587
 20
-16.2406446322
 10
-12.4899796049
 20
-16.3400577249
 10
-12.4774972894
 20
-16.4386518588
 10
-12.4711964564
 20
-16.5357755065
 10
-12.4711654022
 20
-16.6306401213
 10
-12.4774034905
 20
-16.7224372745
 10
-12.4898839976
 20
-16.8104077337
 10
-12.5085141248
 20
-16.8938020482
 10
-12.5330902469
 20
-16.9718576509
 10
-12.5633308971
 20
-17.0437709747
 10
-12.5988576159
 20
-17.1088797024
 10
-12.6392847593
 20
-17.1667744757
 10
-12.6842808941
 20
-17.2171174641
 10
-12.7333481039
 20
-17.259547686
 10
-12.7861877278
 20
-17.2939953485
 10
-12.842970857
 20
-17.3205048649
 10
-12.8522461624
 20
-17.3239359574
  0
LINE
  5
28B
100
AcDbEntity
  8
RACCORDO
100
AcDbLine
 62
250
  6
CONTINUOUS
 10
-13.2959921352
 20
-15.0786101876
 11
-13.2219813979
 21
-15.1195697716
  0
LWPOLYLINE
  5
28C
100
AcDbEntity
  8
RACCORDO
100
AcDbPolyline
 62
250
  6
CONTINUOUS
 90
29
 70
0
 10
-13.2219813979
 20
-15.1195697716
 10
-13.1496906161
 20
-15.1671421703
 10
-13.0791190723
 20
-15.2213270907
 10
-13.0097968391
 20
-15.2825723374
 10
-12.9421909612
 20
-15.3504289267
 10
-12.8777056589
 20
-15.4235511692
 10
-12.8164255133
 20
-15.5020374742
 10
-12.7582608144
 20
-15.5857873309
 10
-12.7043544307
 20
-15.6731567034
 10
-12.6548018325
 20
-15.7641859846
 10
-12.6095013821
 20
-15.8588322463
 10
-12.5693011697
 20
-15.9553268303
 10
-12.5342830831
 20
-16.0537358334
 10
-12.50435934
 20
-16.1539907239
 10
-12.4801252866
 20
-16.2541216216
 10
-12.4616960659
 20
-16.3541088298
 10
-12.4489523827
 20
-16.4539703157
 10
-12.4421404337
 20
-16.5517937271
 10
-12.4413747511
 20
-16.6475499739
 10
-12.4465392625
 20
-16.7412674878
 10
-12.4575371734
 20
-16.8311214024
 10
-12.4744847147
 20
-16.9170322792
 10
-12.4972671479
 20
-16.9990801538
 10
-12.5254441585
 20
-17.0756805883
 10
-12.5591276728
 20
-17.146730203
 10
-12.5982099159
 20
-17.2123340861
 10
-12.6419235431
 20
-17.2712215512
 10
-12.6903555303
 20
-17.323254992
 10
-12.7434247813
 20
-17.3685744547
  0
LINE
  5
28D
100
AcDbEntity
  8
218
100
AcDbLine
 62
7
  6
CONTINUOUS
 10
-3.1468230773
 20
19.8807086241
 11
-2.2927218134
 21
20.6282129615
  0
LINE
  5
28E
100
AcDbEntity
  8
218
100
AcDbLine
 62
250
  6
CONTINUOUS
 10
-2.9929205226
 20
19.8037573467
 11
-2.044121931
 21
20.634140221
  0
LINE
  5
28F
100
AcDbEntity
  8
RACCORDO
100
AcDbLine
 62
7
  6
CONTINUOUS
 10
-1.5516093975
 20
17.8812888519
 11
-1.0525136647
 21
18.131485525
  0
LINE
  5
290
100
AcDbEntity
  8
RACCORDO
100
AcDbLine
 62
7
  6
CONTINUOUS
 10
6.3017746762
 20
22.637974073
 11
5.9333261486
 21
22.4537498093
  0
LINE
  5
291
100
AcDbEntity
  8
RACCORDO
100
AcDbLine
 62
7
  6
CONTINUOUS
 10
-1.0525136647
 20
18.131485525
 11
4.3617590305
 21
20.8315011354
  0
LINE
  5
292
100
AcDbEntity
  8
RACCORDO
100
AcDbLine
 62
7
  6
CONTINUOUS
 10
3.7558124474
 20
21.1332490934
 11
-0.9818029865
 21
18.7981985787
  0
LINE
  5
293
100
AcDbEntity
  8
RACCORDO
100
AcDbLine
 62
7
  6
CONTINUOUS
 10
5.034775246
 20
20.8770010642
 11
4.4483964589
 21
20.5900789966
  0
LINE
  5
294
100
AcDbEntity
  8
218
100
AcDbLine
 62
7
  6
CONTINUOUS
 10
10.0228213893
 20
24.3681637963
 11
6.4593905528
 21
22.6579090485
  0
LWPOLYLINE
  5
295
100
AcDbEntity
  8
RACCORDO
100
AcDbPolyline
 62
7
  6
CONTINUOUS
 90
18
 70
0
 10
5.034775246
 20
20.8770010642
 10
5.0631497667
 20
20.890183021
 10
5.0913842187
 20
20.9019174128
 10
5.119478602
 20
20.9122042395
 10
5.147482915
 20
20.9210563741
 10
5.1753471593
 20
20.9284609436
 10
5.2029213389
 20
20.9343793292
 10
5.2301904676
 20
20.9388027505
 10
5.2571695316
 20
20.9417399879
 10
5.2837534942
 20
20.9431787638
 10
5.3099584531
 20
20.9431116272
 10
5.3357683105
 20
20.9415460293
 10
5.3610297368
 20
20.9384920458
 10
5.3857194901
 20
20.9339462614
 10
5.4098608122
 20
20.9279120916
 10
5.4333700985
 20
20.9204098588
 10
5.4562658787
 20
20.9114244442
 10
5.4758089307
 20
20.9023551898
  0
LWPOLYLINE
  5
296
100
AcDbEntity
  8
RACCORDO
100
AcDbPolyline
 62
250
  6
CONTINUOUS
 90
17
 70
0
 10
-14.1261615057
 20
-16.0676860989
 10
-14.1343915856
 20
-16.0053732814
 10
-14.1409723189
 20
-15.915057579
 10
-14.1420107039
 20
-15.8266129001
 10
-14.1375199214
 20
-15.7406314003
 10
-14.1274889758
 20
-15.6576709275
 10
-14.1120037994
 20
-15.5782818923
 10
-14.0911884445
 20
-15.502980971
 10
-14.065143177
 20
-15.4322396821
 10
-14.0340506199
 20
-15.3665175791
 10
-13.9981366501
 20
-15.3062548464
 10
-13.9576158845
 20
-15.251842268
 10
-13.9127731167
 20
-15.2036395072
 10
-13.8639161194
 20
-15.1619547887
 10
-13.8113343924
 20
-15.1270411171
 10
-13.7553836847
 20
-15.0991298279
 10
-13.7299730663
 20
-15.0891804947
  0
LINE
  5
297
100
AcDbEntity
  8
RACCORDO
100
AcDbLine
 62
7
  6
CONTINUOUS
 10
-13.8157910651
 20
21.2109070507
 11
-13.8157910651
 21
21.1865115454
  0
LINE
  5
298
100
AcDbEntity
  8
RACCORDO
100
AcDbLine
 62
7
  6
CONTINUOUS
 10
-13.4165977682
 20
22.5841580834
 11
-13.4165977682
 21
22.8375294772
  0
LWPOLYLINE
  5
299
100
AcDbEntity
  8
RACCORDO
100
AcDbPolyline
 62
250
  6
CONTINUOUS
 90
45
 70
0
 10
2.0659642745
 20
22.5810515984
 10
2.0703722962
 20
22.5854961532
 10
2.1308757745
 20
22.6394386755
 10
2.1967481262
 20
22.691691575
 10
2.2679902815
 20
22.7422963824
 10
2.3441243792
 20
22.7909196609
 10
2.4251410081
 20
22.8375474035
 10
2.5110495795
 20
22.8821936171
 10
2.6014004652
 20
22.9245668862
 10
2.6964507454
 20
22.9647260842
 10
2.7959433399
 20
23.0026123377
 10
2.8986573803
 20
23.0377576108
 10
3.004998249
 20
23.0701353307
 10
3.1145605636
 20
23.0997720703
 10
3.224907308
 20
23.1262795125
 10
3.336011825
 20
23.1494789059
 10
3.4479007717
 20
23.169549002
 10
3.5582171038
 20
23.1866377377
 10
3.6666075937
 20
23.2006116336
 10
3.773425469
 20
23.2116041692
 10
3.8773733681
 20
23.2201637204
 10
3.9782092025
 20
23.2262662899
 10
4.0761750608
 20
23.2299358751
 10
4.1706998471
 20
23.2317928439
 10
4.2616215872
 20
23.2318587128
 10
4.3491022554
 20
23.2301119653
 10
4.4330566788
 20
23.2271084199
 10
4.5133607522
 20
23.2228896193
 10
4.5901385807
 20
23.2174140208
 10
4.6636773072
 20
23.2111128152
 10
4.7339438409
 20
23.2040267814
 10
4.8009712725
 20
23.1961151405
 10
4.8651460166
 20
23.1876867463
 10
4.9264537634
 20
23.1787761058
 10
4.9849088228
 20
23.169348712
 10
5.0409405393
 20
23.1596098982
 10
5.0945451229
 20
23.1495883764
 10
5.1457263636
 20
23.1392554347
 10
5.1949249759
 20
23.12873027
 10
5.2421441208
 20
23.1180357308
 10
5.2873806373
 20
23.1071489687
 10
5.3310657572
 20
23.096120635
 10
5.3733432243
 20
23.0849676137
 10
5.4140692947
 20
23.0736730209
 10
5.4532439684
 20
23.0622368566
  0
LWPOLYLINE
  5
29A
100
AcDbEntity
  8
RACCORDO
100
AcDbPolyline
 62
250
  6
CONTINUOUS
 90
7
 70
0
 10
1.9959110838
 20
22.6099082054
 10
2.0246977485
 20
22.6353847678
 10
2.0955735804
 20
22.6911582354
 10
2.1720667181
 20
22.744986171
 10
2.2540581219
 20
22.7967873547
 10
2.3413067189
 20
22.846404994
 10
2.3618038803
 20
22.8573413622
  0
LWPOLYLINE
  5
29B
100
AcDbEntity
  8
218
100
AcDbPolyline
 62
7
  6
CONTINUOUS
 90
38
 70
0
 10
9.6079036443
 20
20.2584896516
 10
9.5673851873
 20
20.2374306936
 10
9.5277709305
 20
20.2159459615
 10
9.4890787658
 20
20.194045159
 10
9.4513261691
 20
20.1717381778
 10
9.4145301914
 20
20.149035093
 10
9.3787074521
 20
20.1259461587
 10
9.3438741307
 20
20.1024818031
 10
9.3100459601
 20
20.0786526242
 10
9.2772382189
 20
20.0544693845
 10
9.2454657251
 20
20.0299430066
 10
9.214742829
 20
20.0050845682
 10
9.1850834067
 20
19.9799052965
 10
9.1565008543
 20
19.9544165642
 10
9.1290080812
 20
19.9286298834
 10
9.1026175048
 20
19.9025569008
 10
9.0773410447
 20
19.8762093925
 10
9.0531901171
 20
19.8495992586
 10
9.0301756299
 20
19.8227385178
 10
9.008307978
 20
19.7956393019
 10
8.9875970379
 20
19.7683138506
 10
8.9680521639
 20
19.7407745055
 10
8.9496821837
 20
19.7130337051
 10
8.9324953942
 20
19.6851039787
 10
8.9164995579
 20
19.656997941
 10
8.9017018995
 20
19.6287282862
 10
8.8881091024
 20
19.6003077827
 10
8.875727306
 20
19.5717492668
 10
8.8645621027
 20
19.5430656372
 10
8.8546185352
 20
19.514269849
 10
8.8459010946
 20
19.4853749081
 10
8.8384137183
 20
19.4563938652
 10
8.832159788
 20
19.4273398097
 10
8.8271421283
 20
19.3982258641
 10
8.8233630055
 20
19.3690651781
 10
8.8208241264
 20
19.3398709223
 10
8.8195266378
 20
19.3106562824
 10
8.8193423795
 20
19.2947394132
  0
LINE
  5
29C
100
AcDbEntity
  8
RACCORDO
100
AcDbLine
 62
7
  6
CONTINUOUS
 10
0.1224461788
 20
16.4602584466
 11
1.705202782
 21
17.272242544
  0
LINE
  5
29D
100
AcDbEntity
  8
218
100
AcDbLine
 62
7
  6
CONTINUOUS
 10
13.8242834221
 20
22.4037992683
 11
9.6079036443
 21
20.2584896516
  0
LINE
  5
29E
100
AcDbEntity
  8
RACCORDO
100
AcDbLine
 62
7
  6
CONTINUOUS
 10
-1.5516093975
 20
16.6670853791
 11
-1.0525136647
 21
16.9190499597
  0
LINE
  5
29F
100
AcDbEntity
  8
218
100
AcDbLine
 62
7
  6
CONTINUOUS
 10
13.8303404089
 20
21.9663108011
 11
9.6079036443
 21
19.8482706087
  0
LINE
  5
2A0
100
AcDbEntity
  8
RACCORDO
100
AcDbLine
 62
7
  6
CONTINUOUS
 10
-1.0525136647
 20
16.9190499597
 11
4.3617590305
 21
19.599662557
  0
LINE
  5
2A1
100
AcDbEntity
  8
RACCORDO
100
AcDbLine
 62
7
  6
CONTINUOUS
 10
1.705202782
 20
17.272242544
 11
2.2396526606
 21
17.5325900105
  0
LINE
  5
2A2
100
AcDbEntity
  8
RACCORDO
100
AcDbLine
 62
250
  6
CONTINUOUS
 10
3.2420261687
 20
17.0933806274
 11
8.0138651469
 21
19.3874561138
  0
LINE
  5
2A3
100
AcDbEntity
  8
RACCORDO
100
AcDbLine
 62
250
  6
CONTINUOUS
 10
3.4696416686
 20
16.9795728774
 11
8.4557060148
 21
19.3766378334
  0
LINE
  5
2A4
100
AcDbEntity
  8
218
100
AcDbLine
 62
7
  6
CONTINUOUS
 10
12.786991409
 20
22.9860787865
 11
9.2139177105
 21
21.2806454697
  0
LINE
  5
2A5
100
AcDbEntity
  8
ASSI
100
AcDbLine
 62
7
  6
CONTINUOUS
 10
-13.0026182667
 20
20.7799251463
 11
-13.0026182667
 21
20.3897258422
  0
LINE
  5
2A6
100
AcDbEntity
  8
DRAFT
100
AcDbLine
 62
7
  6
CONTINUOUS
 10
-12.7136048139
 20
21.6775988287
 11
-12.7136048139
 21
22.1299298044
  0
LINE
  5
2A7
100
AcDbEntity
  8
RACCORDO
100
AcDbLine
 62
7
  6
CONTINUOUS
 10
-11.810821306
 20
22.0346412461
 11
-11.810821306
 21
21.7812698523
  0
LINE
  5
2A8
100
AcDbEntity
  8
DRAFT
100
AcDbLine
 62
7
  6
CONTINUOUS
 10
-6.8257198932
 20
17.6914759595
 11
-6.8426387037
 21
17.6414562035
  0
LWPOLYLINE
  5
2A9
100
AcDbEntity
  8
RACCORDO
100
AcDbPolyline
 62
7
  6
CONTINUOUS
 90
4
 70
0
 10
9.654693862
 20
19.1150937569
 10
9.5450181291
 20
19.0525197376
 10
9.4328638929
 20
18.9883588052
 10
9.3375915543
 20
18.9337151579
  0
LWPOLYLINE
  5
2AA
100
AcDbEntity
  8
RACCORDO
100
AcDbPolyline
 62
7
  6
CONTINUOUS
 90
5
 70
0
 10
9.2022090551
 20
18.2841679489
 10
9.2024570673
 20
18.2843080467
 10
9.2033843032
 20
18.2851357182
 10
9.2038907207
 20
18.2861867895
 10
9.2040024842
 20
18.2871187135
  0
LINE
  5
2AB
100
AcDbEntity
  8
RACCORDO
100
AcDbLine
 62
250
  6
CONTINUOUS
 10
3.8456292118
 20
15.9785379748
 11
9.203955992
 21
18.8694782018
  0
LINE
  5
2AC
100
AcDbEntity
  8
RACCORDO
100
AcDbLine
 62
250
  6
CONTINUOUS
 10
3.4790090586
 20
15.5323258487
 11
9.1198044244
 21
18.5756643579
  0
LINE
  5
2AD
100
AcDbEntity
  8
0
100
AcDbLine
 62
7
  6
CONTINUOUS
 10
9.2955583728
 20
18.9530341175
 11
9.927846439
 21
19.2864521172
  0
LINE
  5
2AE
100
AcDbEntity
  8
218
100
AcDbLine
 62
7
  6
CONTINUOUS
 10
4.0676953015
 20
15.0584945686
 11
9.6623801163
 21
17.9974382864
  0
LINE
  5
2AF
100
AcDbEntity
  8
RACCORDO
100
AcDbLine
 62
250
  6
CONTINUOUS
 10
3.3906191038
 20
15.3970326675
 11
9.1198044244
 21
18.3634052038
  0
LINE
  5
2B0
100
AcDbEntity
  8
RACCORDO
100
AcDbLine
 62
7
  6
CONTINUOUS
 10
3.5103852344
 20
15.3371496022
 11
9.2022084995
 21
18.284177368
  0
LINE
  5
2B1
100
AcDbEntity
  8
RACCORDO
100
AcDbLine
 62
250
  6
CONTINUOUS
 10
3.4729697349
 20
14.6563082599
 11
1.705202782
 21
13.7535305604
  0
LINE
  5
2B2
100
AcDbEntity
  8
DRAFT
100
AcDbLine
 62
7
  6
CONTINUOUS
 10
3.3315483787
 20
14.727018938
 11
2.2647174665
 21
14.1884376885
  0
LINE
  5
2B3
100
AcDbEntity
  8
RACCORDO
100
AcDbLine
 62
7
  6
CONTINUOUS
 10
1.7302675879
 20
15.6563477421
 11
3.3315483787
 21
16.4590697456
  0
LINE
  5
2B4
100
AcDbEntity
  8
RACCORDO
100
AcDbLine
 62
7
  6
CONTINUOUS
 10
3.3315483787
 20
16.4590697456
 11
3.8598155504
 21
16.7225085656
  0
LINE
  5
2B5
100
AcDbEntity
  8
RACCORDO
100
AcDbLine
 62
250
  6
CONTINUOUS
 10
4.1800765161
 20
15.0023039613
 11
3.4729697349
 21
14.6563082599
  0
LINE
  5
2B6
100
AcDbEntity
  8
RACCORDO
100
AcDbLine
 62
250
  6
CONTINUOUS
 10
4.4275638895
 20
14.5754398414
 11
3.7204571083
 21
14.22944414
  0
LWPOLYLINE
  5
2B7
100
AcDbEntity
  8
RACCORDO
100
AcDbPolyline
 62
250
  6
CONTINUOUS
 90
22
 70
0
 10
-2.2132260139
 20
11.8172276537
 10
-2.2887614199
 20
11.7856430648
 10
-2.3644163685
 20
11.7474859563
 10
-2.4398150897
 20
11.7029500617
 10
-2.5145826813
 20
11.652264775
 10
-2.5883485209
 20
11.5956830905
 10
-2.6607475996
 20
11.5334777413
 10
-2.7314287627
 20
11.465951183
 10
-2.8000311407
 20
11.3934495353
 10
-2.8661889709
 20
11.3163522115
 10
-2.9295617244
 20
11.2350656664
 10
-2.9898505579
 20
11.1499847408
 10
-3.0467714101
 20
11.0615019793
 10
-3.1000502512
 20
10.9700391907
 10
-3.1494079713
 20
10.8760726455
 10
-3.1945795125
 20
10.7800972078
 10
-3.2353349834
 20
10.6826092978
 10
-3.2714808134
 20
10.584083833
 10
-3.3028402678
 20
10.4849958401
 10
-3.329256499
 20
10.3858354004
 10
-3.3505960315
 20
10.287105615
 10
-3.3667513807
 20
10.1893012576
  0
LINE
  5
2B8
100
AcDbEntity
  8
RACCORDO
100
AcDbLine
 62
250
  6
CONTINUOUS
 10
1.8352657685
 20
13.3025039674
 11
-2.2132260139
 21
11.8172276537
  0
LINE
  5
2B9
100
AcDbEntity
  8
ASSI
100
AcDbLine
 62
7
  6
CONTINUOUS
 10
1.9526901554
 20
13.3022709352
 11
2.7658629537
 21
13.5865726031
  0
LINE
  5
2BA
100
AcDbEntity
  8
DRAFT
100
AcDbLine
 62
7
  6
CONTINUOUS
 10
-11.0996006979
 20
20.8705967707
 11
-11.0996006979
 21
21.5077663295
  0
LINE
  5
2BB
100
AcDbEntity
  8
RACCORDO
100
AcDbLine
 62
7
  6
CONTINUOUS
 10
-10.0327697857
 20
21.4091780203
 11
-10.0327697857
 21
23.1412288278
  0
LINE
  5
2BC
100
AcDbEntity
  8
RACCORDO
100
AcDbLine
 62
7
  6
CONTINUOUS
 10
-9.3297768315
 20
23.2765503256
 11
-9.3297768315
 21
23.0156213492
  0
LWPOLYLINE
  5
2BD
100
AcDbEntity
  8
RACCORDO
100
AcDbPolyline
 62
250
  6
CONTINUOUS
 90
5
 70
0
 10
9.654693862
 20
19.1150937569
 10
9.73084433
 20
19.1692307084
 10
9.8125026557
 20
19.2213232795
 10
9.8994497796
 20
19.2712314898
 10
9.927846439
 20
19.2864521172
  0
LWPOLYLINE
  5
2BE
100
AcDbEntity
  8
RACCORDO
100
AcDbPolyline
 62
250
  6
CONTINUOUS
 90
43
 70
0
 10
9.7791678642
 20
19.1329026385
 10
9.8520201675
 20
19.1833168651
 10
9.9294825974
 20
19.2315713434
 10
10.0115551539
 20
19.2776660732
 10
10.0984773922
 20
19.3217096111
 10
10.190009757
 20
19.3635934005
 10
10.2854335826
 20
19.402991772
 10
10.3847790964
 20
19.4398856429
 10
10.4880160709
 20
19.4742940957
 10
10.5943351578
 20
19.5059487088
 10
10.7037549578
 20
19.5348268567
 10
10.8162568702
 20
19.5609511649
 10
10.930975745
 20
19.5841210879
 10
11.047926225
 20
19.6043147007
 10
11.1670936674
 20
19.6215539282
 10
11.2875689942
 20
19.6357040003
 10
11.4093818321
 20
19.6467416865
 10
11.5325025544
 20
19.6546902172
 10
11.6559332021
 20
19.6594845132
 10
11.7796855625
 20
19.6610946531
 10
11.9037478485
 20
19.6595505583
 10
12.0270867391
 20
19.654876914
 10
12.1496265323
 20
19.6470566229
 10
12.2714429301
 20
19.6361067823
 10
12.3917297181
 20
19.6221033691
 10
12.5104575266
 20
19.6050447411
 10
12.6276557252
 20
19.5849325406
 10
12.7426062082
 20
19.5618476713
 10
12.8555241784
 20
19.5356984242
 10
12.9661944331
 20
19.5065765084
 10
13.0732532572
 20
19.4748379547
 10
13.176823469
 20
19.440287779
 10
13.2767822504
 20
19.4031209654
 10
13.3713974317
 20
19.364278497
 10
13.46033363
 20
19.3236970549
 10
13.5439262281
 20
19.281439958
 10
13.6214492058
 20
19.2386381455
 10
13.6925115148
 20
19.1953954421
 10
13.7575042033
 20
19.151608023
 10
13.8168743955
 20
19.1080953533
 10
13.8704764545
 20
19.0649570577
 10
13.9184560172
 20
19.0220935115
 10
13.9597299603
 20
18.9819391048
  0
LINE
  5
2BF
100
AcDbEntity
  8
0
100
AcDbLine
 62
7
  6
CONTINUOUS
 10
11.8264404274
 20
19.0202358438
 11
11.5213838224
 21
18.8149915578
  0
LINE
  5
2C0
100
AcDbEntity
  8
RACCORDO
100
AcDbLine
 62
250
  6
CONTINUOUS
 10
3.7204571083
 20
14.22944414
 11
1.9526901554
 21
13.3266664405
  0
LINE
  5
2C1
100
AcDbEntity
  8
218
100
AcDbLine
 62
250
  6
CONTINUOUS
 10
18.6155866355
 20
19.6518191257
 11
4.4275638895
 21
12.4336230068
  0
LINE
  5
2C2
100
AcDbEntity
  8
218
100
AcDbLine
 62
250
  6
CONTINUOUS
 10
10.407907052
 20
16.7115945276
 11
17.9798404497
 21
20.3896542661
  0
LINE
  5
2C3
100
AcDbEntity
  8
218
100
AcDbLine
 62
250
  6
CONTINUOUS
 10
10.7455753859
 20
16.1292028005
 11
18.4797642973
 21
19.8860780068
  0
LINE
  5
2C4
100
AcDbEntity
  8
218
100
AcDbLine
 62
7
  6
CONTINUOUS
 10
17.4474425918
 20
20.6558531951
 11
13.8840117552
 21
18.9455984473
  0
LWPOLYLINE
  5
2C5
100
AcDbEntity
  8
RACCORDO
100
AcDbPolyline
 62
250
  6
CONTINUOUS
 90
22
 70
0
 10
-1.7116544004
 20
10.8141522597
 10
-1.7473482894
 20
10.7995038832
 10
-1.7827966423
 20
10.7819651126
 10
-1.817999459
 20
10.761535948
 10
-1.8531451893
 20
10.7380808978
 10
-1.8880453835
 20
10.7117354536
 10
-1.9221346924
 20
10.6829060898
 10
-1.9553887306
 20
10.6515578165
 10
-1.9878318834
 20
10.6177256237
 10
-2.0189719574
 20
10.5819209553
 10
-2.0487843676
 20
10.5441203172
 10
-2.0772936989
 20
10.5043472036
 10
-2.1040815127
 20
10.4631835416
 10
-2.1291273715
 20
10.4205987857
 10
-2.1524517128
 20
10.3766234814
 10
-2.1736974109
 20
10.3319311922
 10
-2.1928314434
 20
10.2865003684
 10
-2.2098868327
 20
10.2403525597
 10
-2.2246055202
 20
10.1942259785
 10
-2.2369014864
 20
10.1483666956
 10
-2.2468607507
 20
10.1025286402
 10
-2.2544833132
 20
10.0567118123
  0
LINE
  5
2C6
100
AcDbEntity
  8
RACCORDO
100
AcDbLine
 62
250
  6
CONTINUOUS
 10
2.3368373819
 20
12.2994285734
 11
-1.7116544004
 21
10.8141522597
  0
LINE
  5
2C7
100
AcDbEntity
  8
RACCORDO
100
AcDbLine
 62
7
  6
CONTINUOUS
 10
-7.8550127827
 20
20.8831646618
 11
-7.8550127827
 21
19.6684311615
  0
LINE
  5
2C8
100
AcDbEntity
  8
RACCORDO
100
AcDbLine
 62
250
  6
CONTINUOUS
 10
-7.7671448171
 20
20.7766559316
 11
-7.7671448171
 21
19.5617010655
  0
LINE
  5
2C9
100
AcDbEntity
  8
0
100
AcDbLine
 62
7
  6
CONTINUOUS
 10
-7.5932513906
 20
18.0752417082
 11
-7.5932513906
 21
18.016762547
  0
LINE
  5
2CA
100
AcDbEntity
  8
RACCORDO
100
AcDbLine
 62
7
  6
CONTINUOUS
 10
3.9466672137
 20
16.101510979
 11
3.419422498
 21
15.459803251
  0
LWPOLYLINE
  5
2CB
100
AcDbEntity
  8
218
100
AcDbPolyline
 62
250
  6
CONTINUOUS
 90
30
 70
0
 10
19.0297371111
 20
18.220185551
 10
19.0483982496
 20
18.2301117801
 10
19.0665113445
 20
18.2402886063
 10
19.084062945
 20
18.2507084701
 10
19.1010400172
 20
18.2613636345
 10
19.1174299537
 20
18.2722461816
 10
19.1332205834
 20
18.2833480181
 10
19.14840018
 20
18.2946608976
 10
19.162957471
 20
18.306176417
 10
19.1768816462
 20
18.3178860131
 10
19.1901623654
 20
18.3297809881
 10
19.2027897662
 20
18.3418525068
 10
19.2147544714
 20
18.3540915936
 10
19.2260475961
 20
18.3664891573
 10
19.2366607538
 20
18.3790359897
 10
19.2465860632
 20
18.3917227627
 10
19.2558161537
 20
18.4045400528
 10
19.2643441709
 20
18.4174783401
 10
19.272163782
 20
18.4305280066
 10
19.27926918
 20
18.4436793592
 10
19.2856550884
 20
18.4569226301
 10
19.291316765
 20
18.4702479765
 10
19.2962500055
 20
18.4836455002
 10
19.3004511463
 20
18.4971052509
 10
19.3039170677
 20
18.5106172266
 10
19.3066451959
 20
18.5241713907
 10
19.3086335049
 20
18.5377576762
 10
19.3098805182
 20
18.5513659889
 10
19.3103853098
 20
18.5649862203
 10
19.3103973104
 20
18.5674227198
  0
LINE
  5
2CC
100
AcDbEntity
  8
218
100
AcDbLine
 62
250
  6
CONTINUOUS
 10
19.0297371111
 20
18.220185551
 11
4.4275638895
 21
10.7912892233
  0
LWPOLYLINE
  5
2CD
100
AcDbEntity
  8
RACCORDO
100
AcDbPolyline
 62
250
  6
CONTINUOUS
 90
22
 70
0
 10
-5.4721382319
 20
-26.1401291599
 10
-5.4724386698
 20
-26.1833818956
 10
-5.4702595456
 20
-26.2249977454
 10
-5.4656008594
 20
-26.2649767093
 10
-5.4584160657
 20
-26.3035211006
 10
-5.4487517099
 20
-26.3404286059
 10
-5.436747428
 20
-26.3750922855
 10
-5.4223657354
 20
-26.407462481
 10
-5.4056441167
 20
-26.4375888508
 10
-5.3868346617
 20
-26.4650134296
 10
-5.3659093409
 20
-26.4896913871
 10
-5.3428961837
 20
-26.5116675535
 10
-5.3181313682
 20
-26.5306184552
 10
-5.2915824698
 20
-26.5465018971
 10
-5.263281913
 20
-26.5593600742
 10
-5.2336631489
 20
-26.5689960976
 10
-5.202696785
 20
-26.5753542292
 10
-5.1704122139
 20
-26.5784902071
 10
-5.1373310649
 20
-26.5783743575
 10
-5.1036272142
 20
-26.5749967891
 10
-5.0691267857
 20
-26.5683673931
 10
-5.0338297791
 20
-26.5584861696
  0
LWPOLYLINE
  5
2CE
100
AcDbEntity
  8
RACCORDO
100
AcDbPolyline
 62
250
  6
CONTINUOUS
 90
15
 70
0
 10
-6.5930096548
 20
-26.1043227119
 10
-6.5937588408
 20
-26.1966786864
 10
-6.5891575709
 20
-26.2862359521
 10
-6.5792292549
 20
-26.3725468985
 10
-6.5640234263
 20
-26.4551773259
 10
-6.5436169288
 20
-26.5337181956
 10
-6.51811122
 20
-26.6077857464
 10
-6.4876265873
 20
-26.6770177409
 10
-6.452316576
 20
-26.741056895
 10
-6.4123710504
 20
-26.7995654098
 10
-6.3679995716
 20
-26.8522442957
 10
-6.3194170096
 20
-26.8988465397
 10
-6.2668529864
 20
-26.939153644
 10
-6.2105530247
 20
-26.972968285
 10
-6.2011597901
 20
-26.9777923539
  0
LWPOLYLINE
  5
2CF
100
AcDbEntity
  8
RACCORDO
100
AcDbPolyline
 62
250
  6
CONTINUOUS
 90
6
 70
0
 10
-5.7198868113
 20
-11.1469764945
 10
-5.9485237535
 20
-14.1593235947
 10
-6.1501782785
 20
-17.1616079066
 10
-6.324825013
 20
-20.1534526102
 10
-6.4724417368
 20
-23.1344822406
 10
-6.5930096548
 20
-26.1043227119
  0
LINE
  5
2D0
100
AcDbEntity
  8
RACCORDO
100
AcDbLine
 62
250
  6
CONTINUOUS
 10
-5.464295972
 20
-8.1249447324
 11
-5.7198868113
 21
-11.1469764945
  0
LINE
  5
2D1
100
AcDbEntity
  8
RACCORDO
100
AcDbLine
 62
250
  6
CONTINUOUS
 10
-5.1817831753
 20
-5.0936077435
 11
-5.464295972
 21
-8.1249447324
  0
LINE
  5
2D2
100
AcDbEntity
  8
RACCORDO
100
AcDbLine
 62
250
  6
CONTINUOUS
 10
-4.8723840309
 20
-2.0533459858
 11
-5.1817831753
 21
-5.0936077435
  0
LINE
  5
2D3
100
AcDbEntity
  8
RACCORDO
100
AcDbLine
 62
250
  6
CONTINUOUS
 10
-4.5361375402
 20
0.9954590863
 11
-4.8723840309
 21
-2.0533459858
  0
LWPOLYLINE
  5
2D4
100
AcDbEntity
  8
RACCORDO
100
AcDbPolyline
 62
250
  6
CONTINUOUS
 90
4
 70
0
 10
-3.3667513807
 20
10.1893012576
 10
-3.783274238
 20
7.1171670996
 10
-4.1730858476
 20
4.0524247577
 10
-4.5361375402
 20
0.9954590863
  0
LINE
  5
2D5
100
AcDbEntity
  8
0
100
AcDbLine
 62
7
  6
CONTINUOUS
 10
-13.3113245924
 20
-15.1207541905
 11
-13.331432612
 21
-15.1614099424
  0
LWPOLYLINE
  5
2D6
100
AcDbEntity
  8
218
100
AcDbPolyline
 62
250
  6
CONTINUOUS
 90
56
 70
0
 10
19.1472867923
 20
12.7776819552
 10
19.1543913776
 20
12.780232807
 10
19.1615701336
 20
12.7825526555
 10
19.1688220616
 20
12.7846428988
 10
19.176143897
 20
12.7865208966
 10
19.1835365505
 20
12.7881724487
 10
19.1910048188
 20
12.7895521649
 10
19.1985588403
 20
12.7906646109
 10
19.2061845514
 20
12.7915101911
 10
19.2138496501
 20
12.7920381877
 10
19.2215539042
 20
12.7922481563
 10
19.2292918435
 20
12.792147449
 10
19.2370225383
 20
12.7916978618
 10
19.2447344634
 20
12.7909010984
 10
19.2524316799
 20
12.7897642553
 10
19.2600957932
 20
12.7882581266
 10
19.2677139204
 20
12.7863917179
 10
19.2752893634
 20
12.7841672398
 10
19.2828265961
 20
12.7815469226
 10
19.290320145
 20
12.7785434673
 10
19.2977626046
 20
12.7751593705
 10
19.3051532638
 20
12.7713442655
 10
19.3124893137
 20
12.7671109807
 10
19.3197561055
 20
12.7624675777
 10
19.3269322261
 20
12.7573600531
 10
19.3340112876
 20
12.7518032077
 10
19.3409768117
 20
12.7458101191
 10
19.3477889411
 20
12.7393282099
 10
19.3544361963
 20
12.7323785069
 10
19.3609011623
 20
12.7249761094
 10
19.3671312098
 20
12.7170643677
 10
19.3731093142
 20
12.7086797172
 10
19.3788165877
 20
12.699832094
 10
19.3841916117
 20
12.6904327897
 10
19.3892184572
 20
12.6805346223
 10
19.3938659588
 20
12.6701478829
 10
19.398039222
 20
12.6591340355
 10
19.4017277757
 20
12.6475136377
 10
19.4048747469
 20
12.6353599878
 10
19.4073070017
 20
12.6226255287
 10
19.4089846981
 20
12.6092762254
 10
19.409869111
 20
12.595461925
 10
19.4098030588
 20
12.5813918708
 10
19.408737738
 20
12.5671034195
 10
19.4066778713
 20
12.5526340896
 10
19.4035764154
 20
12.5381515718
 10
19.3993873004
 20
12.5236313992
 10
19.394137212
 20
12.5091417326
 10
19.3879217271
 20
12.4949395648
 10
19.380770464
 20
12.4810737637
 10
19.3726794573
 20
12.4674708584
 10
19.3637155533
 20
12.4541707537
 10
19.353888563
 20
12.4411583795
 10
19.3432128635
 20
12.4284239273
 10
19.331766167
 20
12.4160083343
 10
19.3195708391
 20
12.4039036658
  0
LINE
  5
2D7
100
AcDbEntity
  8
ASSI
100
AcDbLine
 62
7
  6
CONTINUOUS
 10
0.7060348699
 20
-6.0461991208
 11
1.0334513398
 21
-6.2099073558
  0
LINE
  5
2D8
100
AcDbEntity
  8
0
100
AcDbLine
 62
7
  6
CONTINUOUS
 10
-2.6435039223
 20
15.6003679741
 11
-2.6435039223
 21
15.5418888128
  0
LWPOLYLINE
  5
2D9
100
AcDbEntity
  8
RACCORDO
100
AcDbPolyline
 62
250
  6
CONTINUOUS
 90
16
 70
0
 10
-1.7116544004
 20
10.8141522597
 10
-1.7090492998
 20
10.890633752
 10
-1.7125596021
 20
10.9694136432
 10
-1.7221468944
 20
11.0496291643
 10
-1.7377062102
 20
11.1304018187
 10
-1.7590671764
 20
11.2108469951
 10
-1.7859958763
 20
11.2900836558
 10
-1.8181974172
 20
11.367244004
 10
-1.8553191526
 20
11.4414829673
 10
-1.8969545373
 20
11.5119874479
 10
-1.9426475993
 20
11.577985266
 10
-1.9918979199
 20
11.6387535878
 10
-2.0441660983
 20
11.6936268315
 10
-2.0988796891
 20
11.7420039966
 10
-2.1554394756
 20
11.7833552392
 10
-2.213226012
 20
11.8172276544
  0
LWPOLYLINE
  5
2DA
100
AcDbEntity
  8
RACCORDO
100
AcDbPolyline
 62
250
  6
CONTINUOUS
 90
7
 70
0
 10
-4.3464574194
 20
-8.2086932046
 10
-4.6013515984
 20
-11.2225485289
 10
-4.8293966187
 20
-14.2271247048
 10
-5.0305064003
 20
-17.221284572
 10
-5.2046522496
 20
-20.2046490768
 10
-5.3518628602
 20
-23.1775972727
 10
-5.4721382319
 20
-26.1401291599
  0
LWPOLYLINE
  5
2DB
100
AcDbEntity
  8
RACCORDO
100
AcDbPolyline
 62
250
  6
CONTINUOUS
 90
7
 70
0
 10
-2.2544833132
 20
10.0567118123
 10
-2.6699765776
 20
6.9921449727
 10
-3.0587374767
 20
3.9357112012
 10
-3.4207660103
 20
0.8874104977
 10
-3.7561011098
 20
-2.1531391645
 10
-4.0647038439
 20
-5.1855557587
 10
-4.3464574194
 20
-8.2086932046
  0
LWPOLYLINE
  5
2DC
100
AcDbEntity
  8
RACCORDO
100
AcDbPolyline
 62
7
  6
CONTINUOUS
 90
13
 70
0
 10
9.2005828493
 20
-18.6396442381
 10
9.1976916843
 20
-18.6357510472
 10
9.1940029201
 20
-18.631368707
 10
9.1895429562
 20
-18.6266114141
 10
9.1843500979
 20
-18.6214715595
 10
9.1784674407
 20
-18.6159242008
 10
9.1719069065
 20
-18.6100566021
 10
9.1647000034
 20
-18.6038592942
 10
9.1568828577
 20
-18.5973141696
 10
9.1484589183
 20
-18.5904932935
 10
9.1394460269
 20
-18.5834112687
 10
9.1298841815
 20
-18.5760276254
 10
9.1198044244
 20
-18.5683310707
  0
LINE
  5
2DD
100
AcDbEntity
  8
RACCORDO
100
AcDbLine
 62
7
  6
CONTINUOUS
 10
0.0709281725
 20
-13.1907987455
 11
0.7602379374
 21
-19.6157028947
  0
LINE
  5
2DE
100
AcDbEntity
  8
RACCORDO
100
AcDbLine
 62
7
  6
CONTINUOUS
 10
0.4189006951
 20
-9.2763000253
 11
0.4600949288
 21
-9.6634064694
  0
LINE
  5
2DF
100
AcDbEntity
  8
RACCORDO
100
AcDbLine
 62
250
  6
CONTINUOUS
 10
-1.974635749
 20
16.6654465315
 11
-1.974635749
 21
17.8804013976
  0
LINE
  5
2E0
100
AcDbEntity
  8
DRAFT
100
AcDbLine
 62
7
  6
CONTINUOUS
 10
-1.6181990896
 20
20.84201079
 11
-1.6181990896
 21
22.1686912253
  0
LINE
  5
2E1
100
AcDbEntity
  8
RACCORDO
100
AcDbLine
 62
250
  6
CONTINUOUS
 10
-1.5516093975
 20
16.6670853791
 11
-1.5516093975
 21
17.8812888519
  0
LINE
  5
2E2
100
AcDbEntity
  8
DRAFT
100
AcDbLine
 62
7
  6
CONTINUOUS
 10
-1.264645699
 20
21.4393563407
 11
-1.264645699
 21
21.99191453
  0
LINE
  5
2E3
100
AcDbEntity
  8
RACCORDO
100
AcDbLine
 62
250
  6
CONTINUOUS
 10
-1.1939350209
 20
23.6081228275
 11
-1.1939350209
 21
22.3762886461
  0
LINE
  5
2E4
100
AcDbEntity
  8
RACCORDO
100
AcDbLine
 62
7
  6
CONTINUOUS
 10
-1.1060670553
 20
23.7131200411
 11
-1.1060670553
 21
22.4807514353
  0
LINE
  5
2E5
100
AcDbEntity
  8
DRAFT
100
AcDbLine
 62
7
  6
CONTINUOUS
 10
-1.0525136647
 20
18.131485525
 11
-1.0525136647
 21
16.9190499597
  0
LINE
  5
2E6
100
AcDbEntity
  8
RACCORDO
100
AcDbLine
 62
7
  6
CONTINUOUS
 10
-0.0522796037
 20
-25.6509765319
 11
-0.0522796037
 21
-25.3976051382
  0
LINE
  5
2E7
100
AcDbEntity
  8
RACCORDO
100
AcDbLine
 62
7
  6
CONTINUOUS
 10
-0.0522796037
 20
15.9019990012
 11
-0.0522796037
 21
16.1553703949
  0
LWPOLYLINE
  5
2E8
100
AcDbEntity
  8
RACCORDO
100
AcDbPolyline
 62
250
  6
CONTINUOUS
 90
11
 70
0
 10
-5.0338297791
 20
-26.5584861696
 10
-5.0446075208
 20
-26.632553381
 10
-5.0613542192
 20
-26.7026734756
 10
-5.083886465
 20
-26.7680785007
 10
-5.1119574858
 20
-26.8280521428
 10
-5.145259849
 20
-26.8819375726
 10
-5.1834288281
 20
-26.9291446389
 10
-5.2260463978
 20
-26.9691563316
 10
-5.2726458121
 20
-27.0015344439
 10
-5.3227167158
 20
-27.025924372
 10
-5.3428673541
 20
-27.0331456144
  0
LINE
  5
2E9
100
AcDbEntity
  8
0
100
AcDbLine
 62
7
  6
CONTINUOUS
 10
11.8264404274
 20
19.0202358438
 11
12.1692065484
 21
19.4898424746
  0
LINE
  5
2EA
100
AcDbEntity
  8
0
100
AcDbLine
 62
7
  6
CONTINUOUS
 10
12.4840178966
 20
18.9002443107
 11
12.8267840176
 21
19.3698509415
  0
LINE
  5
2EB
100
AcDbEntity
  8
218
100
AcDbLine
 62
7
  6
CONTINUOUS
 10
19.3103973108
 20
12.3878137286
 11
20.2255740974
 21
12.9797423475
  0
LWPOLYLINE
  5
2EC
100
AcDbEntity
  8
218
100
AcDbPolyline
 62
7
  6
CONTINUOUS
 90
16
 70
0
 10
19.1472871813
 20
2.4459994436
 10
19.1383259661
 20
2.4442321961
 10
19.1295038588
 20
2.442878797
 10
19.1208208594
 20
2.4419392463
 10
19.112266494
 20
2.4414151012
 10
19.1038512366
 20
2.4413048045
 10
19.0956065084
 20
2.4416036849
 10
19.0875361344
 20
2.4423185428
 10
19.0796362898
 20
2.4434425778
 10
19.0719269213
 20
2.4449507177
 10
19.0644136962
 20
2.4468486392
 10
19.0570909473
 20
2.4491306655
 10
19.0499616198
 20
2.4517546941
 10
19.0430266955
 20
2.4547066908
 10
19.0362851926
 20
2.4580006897
 10
19.0297371111
 20
2.4616366908
  0
LINE
  5
2ED
100
AcDbEntity
  8
ASSI
100
AcDbLine
 62
7
  6
CONTINUOUS
 10
1.0334513398
 20
-6.2099073558
 11
2.7658629537
 21
-22.6240682633
  0
LWPOLYLINE
  5
2EE
100
AcDbEntity
  8
RACCORDO
100
AcDbPolyline
 62
7
  6
CONTINUOUS
 90
24
 70
0
 10
1.4930707476
 20
22.482797074
 10
1.4924975632
 20
22.5172694801
 10
1.4907984502
 20
22.5510194011
 10
1.4879734086
 20
22.5840468369
 10
1.4840129741
 20
22.6164083943
 10
1.478926611
 20
22.6480474665
 10
1.4727427126
 20
22.678794233
 10
1.4654600972
 20
22.7086297604
 10
1.4570799465
 20
22.7375729822
 10
1.4476341992
 20
22.7655108781
 10
1.4371103407
 20
22.7924570409
 10
1.4255208857
 20
22.8183978779
 10
1.4129353169
 20
22.8431795908
 10
1.3993601311
 20
22.8667768922
 10
1.3847888315
 20
22.8892150695
 10
1.3692714115
 20
22.9104161867
 10
1.3527881241
 20
22.9303932767
 10
1.3353587163
 20
22.9491333065
 10
1.3170924216
 20
22.9665192421
 10
1.2980037657
 20
22.9825281684
 10
1.278078223
 20
22.9971830005
 10
1.2573814505
 20
23.0104354488
 10
1.235888936
 20
23.0222913101
 10
1.2331682436
 20
23.0236755334
  0
LWPOLYLINE
  5
2EF
100
AcDbEntity
  8
218
100
AcDbPolyline
 62
7
  6
CONTINUOUS
 90
4
 70
0
 10
1.3947211771
 20
23.0070500145
 10
1.3948499233
 20
22.9937450548
 10
1.3960364128
 20
22.9645292352
 10
1.3981657936
 20
22.9389230332
  0
LINE
  5
2F0
100
AcDbEntity
  8
DRAFT
100
AcDbLine
 62
7
  6
CONTINUOUS
 10
0.6507133505
 20
14.9954397465
 11
0.6507133505
 21
15.4477707222
  0
LINE
  5
2F1
100
AcDbEntity
  8
RACCORDO
100
AcDbLine
 62
7
  6
CONTINUOUS
 10
1.4930707476
 20
22.482797074
 11
1.4930707476
 21
22.2119967813
  0
LINE
  5
2F2
100
AcDbEntity
  8
RACCORDO
100
AcDbLine
 62
7
  6
CONTINUOUS
 10
1.5534968584
 20
15.3524821639
 11
1.5534968584
 21
15.0991107701
  0
LINE
  5
2F3
100
AcDbEntity
  8
RACCORDO
100
AcDbLine
 62
7
  6
CONTINUOUS
 10
1.5534968584
 20
-26.2004933693
 11
1.5534968584
 21
-26.453864763
  0
LINE
  5
2F4
100
AcDbEntity
  8
RACCORDO
100
AcDbLine
 62
7
  6
CONTINUOUS
 10
1.9526901554
 20
13.3266664405
 11
1.9526901554
 21
13.3022709352
  0
LINE
  5
2F5
100
AcDbEntity
  8
RACCORDO
100
AcDbLine
 62
7
  6
CONTINUOUS
 10
1.9526901554
 20
-24.8028468313
 11
1.9526901554
 21
-24.8272423366
  0
LINE
  5
2F6
100
AcDbEntity
  8
218
100
AcDbLine
 62
250
  6
CONTINUOUS
 10
2.1832824419
 20
23.5605812099
 11
2.1832824419
 21
23.9708002529
  0
LINE
  5
2F7
100
AcDbEntity
  8
DRAFT
100
AcDbLine
 62
7
  6
CONTINUOUS
 10
2.2647174665
 20
-25.2239968921
 11
2.2647174665
 21
-24.8193748011
  0
LINE
  5
2F8
100
AcDbEntity
  8
DRAFT
100
AcDbLine
 62
7
  6
CONTINUOUS
 10
2.2647174665
 20
14.1884376885
 11
2.2647174665
 21
14.8256072473
  0
LINE
  5
2F9
100
AcDbEntity
  8
RACCORDO
100
AcDbLine
 62
7
  6
CONTINUOUS
 10
-1.001132021
 20
-25.250883906
 11
2.3368373819
 21
12.2994285734
  0
LINE
  5
2FA
100
AcDbEntity
  8
ASSI
100
AcDbLine
 62
7
  6
CONTINUOUS
 10
2.7658629537
 20
11.9366651656
 11
1.0334513398
 21
-6.2099073558
  0
LWPOLYLINE
  5
2FB
100
AcDbEntity
  8
218
100
AcDbPolyline
 62
7
  6
CONTINUOUS
 90
136
 70
0
 10
19.1472867923
 20
12.7776819552
 10
19.2066836681
 20
12.8264101229
 10
19.264200913
 20
12.8739212039
 10
19.3198385271
 20
12.9202151981
 10
19.3735414251
 20
12.9652575508
 10
19.4253646922
 20
13.0090828166
 10
19.4754735844
 20
13.0517946603
 10
19.5238753475
 20
13.0933980088
 10
19.5705627356
 20
13.1338879352
 10
19.6156792668
 20
13.1733533228
 10
19.6592291469
 20
13.2117966958
 10
19.70120817
 20
13.2492155299
 10
19.7417472366
 20
13.2856911356
 10
19.7808502672
 20
13.3212258899
 10
19.8185133413
 20
13.3558174157
 10
19.8548555967
 20
13.3895398916
 10
19.8898806935
 20
13.4223955768
 10
19.9235849717
 20
13.4543822121
 10
19.9560765895
 20
13.4855671991
 10
19.9873588912
 20
13.5159526326
 10
20.0174285325
 20
13.5455364177
 10
20.0463836388
 20
13.5743796711
 10
20.0742272887
 20
13.6024843777
 10
20.1009564036
 20
13.6298485525
 10
20.1266598737
 20
13.656527358
 10
20.1513405448
 20
13.6825227217
 10
20.1749955711
 20
13.707832716
 10
20.1977053048
 20
13.7325067205
 10
20.219472356
 20
13.7565466375
 10
20.2402941147
 20
13.7799505649
 10
20.260243103
 20
13.8027621753
 10
20.2793216849
 20
13.8249833911
 10
20.2975274965
 20
13.84661229
 10
20.314925968
 20
13.867686778
 10
20.3315191774
 20
13.8882088379
 10
20.3473050467
 20
13.9081764868
 10
20.3623427728
 20
13.9276216824
 10
20.37663406
 20
13.9465464817
 10
20.390177204
 20
13.9649488276
 10
20.4030262881
 20
13.9828545064
 10
20.4151825226
 20
14.000265644
 10
20.4266446971
 20
14.0171801144
 10
20.4374632646
 20
14.0336173256
 10
20.4476386776
 20
14.0495792126
 10
20.4571704835
 20
14.0650638403
 10
20.4661077766
 20
14.0800848121
 10
20.4744502947
 20
14.0946440091
 10
20.4821982999
 20
14.1087395501
 10
20.4894016738
 20
14.1223793955
 10
20.496058985
 20
14.1355642514
 10
20.5021716649
 20
14.1482934116
 10
20.5077938889
 20
14.160572718
 10
20.512921027
 20
14.1723930289
 10
20.5175577092
 20
14.1837634861
 10
20.5217720012
 20
14.1947173565
 10
20.5255619617
 20
14.205241209
 10
20.5289295319
 20
14.2153484747
 10
20.5319486008
 20
14.2251127145
 10
20.5346244751
 20
14.2345316494
 10
20.536951848
 20
14.2436075584
 10
20.5389886877
 20
14.2524208394
 10
20.5407423936
 20
14.2609764883
 10
20.5422055663
 20
14.2692695093
 10
20.5434139766
 20
14.277365312
 10
20.5443739106
 20
14.2852681461
 10
20.545079082
 20
14.2929737619
 10
20.5455464033
 20
14.3005348205
 10
20.545781535
 20
14.3079544938
 10
20.5457788166
 20
14.3152296098
 10
20.5455381784
 20
14.3224033136
 10
20.5450652708
 20
14.3294783368
 10
20.5443544435
 20
14.3364519477
 10
20.5433886764
 20
14.3433590967
 10
20.5421742912
 20
14.3502019158
 10
20.5407049662
 20
14.356978273
 10
20.5389447167
 20
14.3637167229
 10
20.5369012018
 20
14.3704196076
 10
20.5345667622
 20
14.3770845849
 10
20.5318824352
 20
14.383733184
 10
20.5288534004
 20
14.3903737974
 10
20.525474478
 20
14.3969980325
 10
20.5216711666
 20
14.4036022399
 10
20.5174410489
 20
14.4101982107
 10
20.5127865422
 20
14.4167741539
 10
20.5076403958
 20
14.4232910469
 10
20.5019982069
 20
14.42975263
 10
20.4958643784
 20
14.4361551629
 10
20.4891848685
 20
14.4424484014
 10
20.4819583982
 20
14.4486300603
 10
20.4741862467
 20
14.4547024248
 10
20.4658182093
 20
14.4606221063
 10
20.4568538828
 20
14.46638708
 10
20.4472936704
 20
14.4719993708
 10
20.4370885779
 20
14.4774216649
 10
20.4262391184
 20
14.4826524596
 10
20.4147447786
 20
14.4876932576
 10
20.4025550245
 20
14.4925112542
 10
20.389671061
 20
14.4971055876
 10
20.3760916831
 20
14.5014771195
 10
20.361762742
 20
14.5055956301
 10
20.3466859527
 20
14.5094608306
 10
20.3308596001
 20
14.5130730097
 10
20.3142243901
 20
14.5164028142
 10
20.2967824105
 20
14.5194504176
 10
20.2785315736
 20
14.5222156463
 10
20.259406321
 20
14.5246686266
 10
20.2394090069
 20
14.5268098894
 10
20.2185372773
 20
14.5286389038
 10
20.1967185115
 20
14.5301242032
 10
20.1739553869
 20
14.531266592
 10
20.1502452262
 20
14.5320652657
 10
20.1255073765
 20
14.5324863449
 10
20.0997444593
 20
14.5325308442
 10
20.0729538532
 20
14.532197749
 10
20.0450470415
 20
14.5314501358
 10
20.0160280114
 20
14.5302892796
 10
19.9858927758
 20
14.5287139056
 10
19.9545408559
 20
14.5266832659
 10
19.9219736066
 20
14.5241985555
 10
19.888189673
 20
14.5212585795
 10
19.8530845116
 20
14.5178190051
 10
19.8166532237
 20
14.5138798797
 10
19.778900708
 20
14.5094411559
 10
19.7397371182
 20
14.5044583588
 10
19.6991712088
 20
14.4989331615
 10
19.6571942253
 20
14.4928638909
 10
19.6136900579
 20
14.486201053
 10
19.5686736103
 20
14.4789483607
 10
19.522129979
 20
14.4711021012
 10
19.4738983429
 20
14.4626016421
 10
19.4239788758
 20
14.4534486066
 10
19.372371404
 20
14.4436413715
 10
19.3189145856
 20
14.4331144348
 10
19.26355464
 20
14.4218459624
 10
19.2063453479
 20
14.4098577884
 10
19.1472867091
 20
14.3971499127
  0
LWPOLYLINE
  5
2FC
100
AcDbEntity
  8
RACCORDO
100
AcDbPolyline
 62
7
  6
CONTINUOUS
 90
31
 70
0
 10
3.7204571083
 20
14.22944414
 10
3.7201174408
 20
14.2454771721
 10
3.7191010033
 20
14.2618057413
 10
3.71741027
 20
14.2783849445
 10
3.7150492655
 20
14.2951690441
 10
3.7120244538
 20
14.3121120381
 10
3.7083447214
 20
14.3291677865
 10
3.7040198684
 20
14.3462894051
 10
3.6990614385
 20
14.3634298159
 10
3.6934835879
 20
14.3805423207
 10
3.6873013437
 20
14.3975798906
 10
3.6805313534
 20
14.4144956827
 10
3.6731926951
 20
14.4312435903
 10
3.665305253
 20
14.4477775974
 10
3.6568903691
 20
14.4640522501
 10
3.647971574
 20
14.4800231684
 10
3.6385731203
 20
14.4956464825
 10
3.6287205186
 20
14.5108792465
 10
3.6184411732
 20
14.5256799007
 10
3.6077631078
 20
14.5400078019
 10
3.596715374
 20
14.55382357
 10
3.5853285747
 20
14.5670894901
 10
3.5736338149
 20
14.5797691461
 10
3.5616629718
 20
14.5918276939
 10
3.5494490928
 20
14.6032321927
 10
3.5370255983
 20
14.6139513509
 10
3.524426406
 20
14.6239557183
 10
3.5116861936
 20
14.6332179397
 10
3.4988398975
 20
14.6417126309
 10
3.4859226171
 20
14.6494164485
 10
3.4729697349
 20
14.6563082599
  0
LINE
  5
2FD
100
AcDbEntity
  8
ASSI
100
AcDbLine
 62
7
  6
CONTINUOUS
 10
2.7658629537
 20
13.5865726031
 11
2.7658629537
 21
11.9366651656
  0
LINE
  5
2FE
100
AcDbEntity
  8
ASSI
100
AcDbLine
 62
7
  6
CONTINUOUS
 10
2.7658629537
 20
-22.6240682633
 11
2.7658629537
 21
-24.2739757008
  0
LINE
  5
2FF
100
AcDbEntity
  8
218
100
AcDbLine
 62
7
  6
CONTINUOUS
 10
2.8659926398
 20
23.9030393022
 11
2.8659926398
 21
23.4700266003
  0
LINE
  5
300
100
AcDbEntity
  8
RACCORDO
100
AcDbLine
 62
7
  6
CONTINUOUS
 10
3.3315483787
 20
-24.2973618329
 11
3.3315483787
 21
-25.8029699591
  0
LINE
  5
301
100
AcDbEntity
  8
RACCORDO
100
AcDbLine
 62
7
  6
CONTINUOUS
 10
3.3315483787
 20
14.727018938
 11
3.3315483787
 21
16.4590697456
  0
LINE
  5
302
100
AcDbEntity
  8
0
100
AcDbLine
 62
7
  6
CONTINUOUS
 10
3.692034996
 20
22.5282525342
 11
3.692034996
 21
22.2264103524
  0
LINE
  5
303
100
AcDbEntity
  8
RACCORDO
100
AcDbLine
 62
7
  6
CONTINUOUS
 10
4.034541333
 20
16.5943912434
 11
4.034541333
 21
16.333462267
  0
LINE
  5
304
100
AcDbEntity
  8
RACCORDO
100
AcDbLine
 62
7
  6
CONTINUOUS
 10
4.034541333
 20
-24.9661418724
 11
4.034541333
 21
-25.2270708487
  0
LINE
  5
305
100
AcDbEntity
  8
0
100
AcDbLine
 62
7
  6
CONTINUOUS
 10
4.1417796574
 20
22.4065047011
 11
4.1417796574
 21
22.2078706002
  0
LINE
  5
306
100
AcDbEntity
  8
218
100
AcDbLine
 62
7
  6
CONTINUOUS
 10
4.3214978724
 20
23.8436167363
 11
4.3214978724
 21
23.2575938691
  0
LINE
  5
307
100
AcDbEntity
  8
RACCORDO
100
AcDbLine
 62
250
  6
CONTINUOUS
 10
4.3617590305
 20
20.8315011354
 11
4.3617590305
 21
19.599662557
  0
LINE
  5
308
100
AcDbEntity
  8
218
100
AcDbLine
 62
7
  6
CONTINUOUS
 10
4.4275638895
 20
10.7912892233
 11
4.4275638895
 21
-19.8169913852
  0
LINE
  5
309
100
AcDbEntity
  8
RACCORDO
100
AcDbLine
 62
7
  6
CONTINUOUS
 10
4.4275638895
 20
-23.6011420033
 11
4.4275638895
 21
14.5754398414
  0
LINE
  5
30A
100
AcDbEntity
  8
RACCORDO
100
AcDbLine
 62
7
  6
CONTINUOUS
 10
4.4483964589
 20
20.935888284
 11
4.4483964589
 21
19.7035196782
  0
LWPOLYLINE
  5
30B
100
AcDbEntity
  8
RACCORDO
100
AcDbPolyline
 62
7
  6
CONTINUOUS
 90
18
 70
0
 10
3.7204571083
 20
-23.9622530831
 10
3.7201184638
 20
-23.9779469592
 10
3.7191018204
 20
-23.9932589879
 10
3.71741027
 20
-24.0081470493
 10
3.7150490528
 20
-24.022570038
 10
3.7120246413
 20
-24.0364884205
 10
3.7083447214
 20
-24.0498643426
 10
3.7040196576
 20
-24.0626610029
 10
3.6990616079
 20
-24.0748431739
 10
3.6934835879
 20
-24.0863777434
 10
3.6873011401
 20
-24.0972329672
 10
3.6805315007
 20
-24.1073789445
 10
3.6731926951
 20
-24.1167881201
 10
3.6653050615
 20
-24.1254345895
 10
3.6568904905
 20
-24.1332945147
 10
3.647971574
 20
-24.1403465773
 10
3.6385729456
 20
-24.1465713502
 10
3.6304883148
 20
-24.1510656245
  0
LINE
  5
30C
100
AcDbEntity
  8
218
100
AcDbLine
 62
250
  6
CONTINUOUS
 10
19.3195708391
 20
12.4039036658
 11
19.3103973108
 21
12.3955237617
  0
LWPOLYLINE
  5
30D
100
AcDbEntity
  8
218
100
AcDbPolyline
 62
250
  6
CONTINUOUS
 90
57
 70
0
 10
19.0297371111
 20
12.6403185774
 10
19.0355990305
 20
12.6455595144
 10
19.0414331923
 20
12.650575334
 10
19.0472385105
 20
12.6553661238
 10
19.0530081431
 20
12.6599332848
 10
19.058746842
 20
12.6642755234
 10
19.0644704025
 20
12.6683890977
 10
19.0701792438
 20
12.6722776931
 10
19.0758696208
 20
12.6759381981
 10
19.0815502239
 20
12.6793570235
 10
19.0872207314
 20
12.682536259
 10
19.0928773203
 20
12.6854746066
 10
19.0985228811
 20
12.6881535875
 10
19.1041535365
 20
12.6905733747
 10
19.1097685374
 20
12.692734626
 10
19.1153748866
 20
12.6946197736
 10
19.1209582859
 20
12.6962304068
 10
19.126527707
 20
12.697565857
 10
19.1321228805
 20
12.6986059053
 10
19.1377338771
 20
12.6993612271
 10
19.1433611377
 20
12.6998232789
 10
19.14905543
 20
12.6999444774
 10
19.1548268681
 20
12.6997315976
 10
19.1606487008
 20
12.6991818712
 10
19.166513342
 20
12.6982342534
 10
19.1724158288
 20
12.6968851166
 10
19.1783430381
 20
12.695141818
 10
19.1842752918
 20
12.6929595621
 10
19.1902025203
 20
12.690333607
 10
19.1961164761
 20
12.6872717079
 10
19.2020009435
 20
12.6837474119
 10
19.2078379157
 20
12.679764724
 10
19.2136269343
 20
12.6753218918
 10
19.2193766327
 20
12.6703839666
 10
19.225070481
 20
12.6649588101
 10
19.2307014992
 20
12.6590410989
 10
19.2362874441
 20
12.6525770089
 10
19.2418135106
 20
12.6455683532
 10
19.2472618549
 20
12.6380165313
 10
19.2526388021
 20
12.6298681125
 10
19.257925036
 20
12.6211206194
 10
19.2630975289
 20
12.6117797537
 10
19.2681503246
 20
12.6018050172
 10
19.273057369
 20
12.5911940789
 10
19.2777924674
 20
12.5799516629
 10
19.282342328
 20
12.5680482134
 10
19.2866723121
 20
12.5554879774
 10
19.2907532078
 20
12.5422674677
 10
19.2945692617
 20
12.5283458453
 10
19.2980740291
 20
12.5137410448
 10
19.3012320177
 20
12.4984334751
 10
19.3040227234
 20
12.4823264981
 10
19.3063888622
 20
12.465391049
 10
19.3082660362
 20
12.4476508442
 10
19.3095962421
 20
12.4290879069
 10
19.3103054157
 20
12.4095312213
 10
19.3103973104
 20
12.3994919942
  0
LINE
  5
30E
100
AcDbEntity
  8
218
100
AcDbLine
 62
7
  6
CONTINUOUS
 10
6.4057192065
 20
26.0055874501
 11
6.4057192065
 21
25.6786214024
  0
LWPOLYLINE
  5
30F
100
AcDbEntity
  8
218
100
AcDbPolyline
 62
250
  6
CONTINUOUS
 90
56
 70
0
 10
19.1472871513
 20
0.8265316763
 10
19.1543533819
 20
0.8290672053
 10
19.1614831852
 20
0.8313735732
 10
19.1686755999
 20
0.8334521227
 10
19.1759111144
 20
0.8353179292
 10
19.1832070089
 20
0.8369589004
 10
19.1906169457
 20
0.8383363327
 10
19.1981658428
 20
0.8394622013
 10
19.2058247096
 20
0.8403297458
 10
19.213565292
 20
0.8408734269
 10
19.2214024812
 20
0.8410914383
 10
19.2293150482
 20
0.8409933406
 10
19.2372197389
 20
0.8405314828
 10
19.2450965982
 20
0.8397030013
 10
19.2529576172
 20
0.8385201424
 10
19.2607668877
 20
0.8369584438
 10
19.2685027422
 20
0.8350279725
 10
19.2761770925
 20
0.8327300371
 10
19.2838030873
 20
0.8300285461
 10
19.2913745481
 20
0.8269388815
 10
19.2988844265
 20
0.8234612567
 10
19.3063419762
 20
0.8195399211
 10
19.3137542541
 20
0.8151810136
 10
19.3210956237
 20
0.8104006573
 10
19.3283236541
 20
0.8051612317
 10
19.3354288943
 20
0.7994738423
 10
19.342398077
 20
0.7933550942
 10
19.3491811495
 20
0.7867779096
 10
19.3557558896
 20
0.7797753312
 10
19.3621182105
 20
0.772347281
 10
19.368241463
 20
0.7644217827
 10
19.3741122034
 20
0.7560408435
 10
19.3797089386
 20
0.7472076805
 10
19.3849846705
 20
0.7378027329
 10
19.3899310398
 20
0.7278677054
 10
19.3945066242
 20
0.7174275997
 10
19.3986032585
 20
0.7063529912
 10
19.4022080773
 20
0.6946545148
 10
19.4052648563
 20
0.6824179551
 10
19.4075947194
 20
0.6696345525
 10
19.4091556669
 20
0.6562905545
 10
19.4099159383
 20
0.642509203
 10
19.4097265001
 20
0.6284679357
 10
19.4085373212
 20
0.6141852369
 10
19.4063526907
 20
0.5997200135
 10
19.4031346911
 20
0.585268695
 10
19.3988415409
 20
0.5708164866
 10
19.3935000609
 20
0.5564152473
 10
19.387209762
 20
0.542310125
 10
19.3800034378
 20
0.528549787
 10
19.3718752
 20
0.5150586823
 10
19.3628860806
 20
0.5018652626
 10
19.3530436234
 20
0.4889516972
 10
19.3423636872
 20
0.4763118908
 10
19.3309228841
 20
0.4639865066
 10
19.3187425932
 20
0.4519672643
  0
LWPOLYLINE
  5
310
100
AcDbEntity
  8
RACCORDO
100
AcDbPolyline
 62
7
  6
CONTINUOUS
 90
4
 70
0
 10
9.2040024831
 20
-18.6477438266
 10
9.203767957
 20
-18.6459558317
 10
9.2026271809
 20
-18.6430236061
 10
9.2005828493
 20
-18.6396442381
  0
LWPOLYLINE
  5
311
100
AcDbEntity
  8
218
100
AcDbPolyline
 62
7
  6
CONTINUOUS
 90
4
 70
0
 10
8.8193423795
 20
19.2947394132
 10
8.8194711258
 20
19.2814344536
 10
8.8206576152
 20
19.252218634
 10
8.8227869959
 20
19.226612434
  0
LINE
  5
312
100
AcDbEntity
  8
RACCORDO
100
AcDbLine
 62
7
  6
CONTINUOUS
 10
9.203955992
 20
18.8694782018
 11
9.2040024831
 21
18.8635005473
  0
LINE
  5
313
100
AcDbEntity
  8
RACCORDO
100
AcDbLine
 62
250
  6
CONTINUOUS
 10
9.1198044244
 20
18.5756643579
 11
9.1198044244
 21
18.3634052038
  0
LINE
  5
314
100
AcDbEntity
  8
RACCORDO
100
AcDbLine
 62
250
  6
CONTINUOUS
 10
9.1198044244
 20
-18.4008414724
 11
9.1198044244
 21
-18.5683310707
  0
LINE
  5
315
100
AcDbEntity
  8
RACCORDO
100
AcDbLine
 62
7
  6
CONTINUOUS
 10
9.2040024842
 20
18.863517903
 11
9.2040024842
 21
18.2871264207
  0
LINE
  5
316
100
AcDbEntity
  8
RACCORDO
100
AcDbLine
 62
7
  6
CONTINUOUS
 10
9.2040024842
 20
-18.356611392
 11
9.2040024842
 21
-18.6477871046
  0
LWPOLYLINE
  5
317
100
AcDbEntity
  8
RACCORDO
100
AcDbPolyline
 62
7
  6
CONTINUOUS
 90
16
 70
0
 10
9.2040024831
 20
18.8635005473
 10
9.203767957
 20
18.8498265555
 10
9.2026271809
 20
18.8300613643
 10
9.2005828493
 20
18.8102077137
 10
9.1976916843
 20
18.7902719298
 10
9.1940029201
 20
18.7702896934
 10
9.1895429562
 20
18.7503278718
 10
9.1843500979
 20
18.7304071542
 10
9.1784674407
 20
18.7105394028
 10
9.1719069065
 20
18.6907791766
 10
9.1647000034
 20
18.67114211
 10
9.1568828577
 20
18.6516401454
 10
9.1484589183
 20
18.6323245465
 10
9.1394460269
 20
18.61322182
 10
9.1298841815
 20
18.5943313262
 10
9.1198044244
 20
18.5756643579
  0
LINE
  5
318
100
AcDbEntity
  8
0
100
AcDbLine
 62
7
  6
CONTINUOUS
 10
12.0165565425
 20
18.5072964017
 11
12.1692065484
 21
19.4898424746
  0
LWPOLYLINE
  5
319
100
AcDbEntity
  8
218
100
AcDbPolyline
 62
7
  6
CONTINUOUS
 90
16
 70
0
 10
19.0297371111
 20
12.6403183553
 10
19.0362851811
 20
12.6507350898
 10
19.0430266699
 20
12.6610101092
 10
19.0499615774
 20
12.6711434133
 10
19.057090885
 20
12.6811500508
 10
19.0644136114
 20
12.6910149732
 10
19.0719268123
 20
12.7006930349
 10
19.0796361553
 20
12.7101844295
 10
19.0875359728
 20
12.7194889634
 10
19.0956063181
 20
12.7285609103
 10
19.1038510158
 20
12.7373974299
 10
19.1122662412
 20
12.7460013624
 10
19.1208205737
 20
12.7543355018
 10
19.1295035396
 20
12.762387446
 10
19.1383256124
 20
12.7701695972
 10
19.1472867923
 20
12.7776819552
  0
LWPOLYLINE
  5
31A
100
AcDbEntity
  8
RACCORDO
100
AcDbPolyline
 62
250
  6
CONTINUOUS
 90
11
 70
0
 10
-12.7434247813
 20
-17.3685744547
 10
-12.8001136221
 20
-17.4063264768
 10
-12.8604869616
 20
-17.4363707613
 10
-12.9244860947
 20
-17.458850192
 10
-12.9909088126
 20
-17.4733364499
 10
-13.0598436833
 20
-17.4796700436
 10
-13.1312072652
 20
-17.4780126088
 10
-13.203539422
 20
-17.4684175553
 10
-13.2763544843
 20
-17.4509031235
 10
-13.3501410323
 20
-17.4254522928
 10
-13.4248997913
 20
-17.3920653673
  0
LINE
  5
31B
100
AcDbEntity
  8
RACCORDO
100
AcDbLine
 62
250
  6
CONTINUOUS
 10
0.3810364619
 20
-9.7022517389
 11
0.4600949288
 21
-9.6634064694
  0
LINE
  5
31C
100
AcDbEntity
  8
RACCORDO
100
AcDbLine
 62
7
  6
CONTINUOUS
 10
0.373355257
 20
-9.7886610518
 11
0.4212641844
 21
-9.7651210659
  0
LINE
  5
31D
100
AcDbEntity
  8
RACCORDO
100
AcDbLine
 62
250
  6
CONTINUOUS
 10
-3.3667513807
 20
10.1893012576
 11
-17.4940224221
 21
17.2529367783
  0
LWPOLYLINE
  5
31E
100
AcDbEntity
  8
RACCORDO
100
AcDbPolyline
 62
7
  6
CONTINUOUS
 90
5
 70
0
 10
9.2040024842
 20
18.2871187135
 10
9.2039898157
 20
18.2874659695
 10
9.2036954125
 20
18.2889837583
 10
9.2030200776
 20
18.2907004226
 10
9.2019759846
 20
18.2926201264
  0
LWPOLYLINE
  5
31F
100
AcDbEntity
  8
RACCORDO
100
AcDbPolyline
 62
7
  6
CONTINUOUS
 90
7
 70
0
 10
9.203955992
 20
18.8694782018
 10
9.2038643839
 20
18.8737860031
 10
9.2037252131
 20
18.8780973337
 10
9.2035384797
 20
18.8824121937
 10
9.2033041836
 20
18.8867305831
 10
9.2030223248
 20
18.8910525018
 10
9.2026929033
 20
18.8953779498
  0
LINE
  5
320
100
AcDbEntity
  8
218
100
AcDbLine
 62
250
  6
CONTINUOUS
 10
9.6079036443
 20
19.8482706087
 11
9.6079036443
 21
20.2584896516
  0
LINE
  5
321
100
AcDbEntity
  8
218
100
AcDbLine
 62
7
  6
CONTINUOUS
 10
10.2906138423
 20
20.1907287009
 11
10.2906138423
 21
19.7577159991
  0
LINE
  5
322
100
AcDbEntity
  8
0
100
AcDbLine
 62
7
  6
CONTINUOUS
 10
11.5213838224
 20
18.8149915578
 11
11.5213838224
 21
18.4961229958
  0
LINE
  5
323
100
AcDbEntity
  8
RACCORDO
100
AcDbLine
 62
7
  6
CONTINUOUS
 10
9.203955992
 20
-18.6484660006
 11
9.2040024831
 21
-18.6477438266
  0
LINE
  5
324
100
AcDbEntity
  8
0
100
AcDbLine
 62
7
  6
CONTINUOUS
 10
12.4529645474
 20
18.6450012454
 11
12.4840178966
 21
18.9002443107
  0
LWPOLYLINE
  5
325
100
AcDbEntity
  8
218
100
AcDbPolyline
 62
7
  6
CONTINUOUS
 90
9
 70
0
 10
19.3101765245
 20
12.4043129354
 10
19.3110041988
 20
12.4058483678
 10
19.3113483407
 20
12.406586113
 10
19.3113773255
 20
12.4066518155
 10
19.3111955821
 20
12.4060679705
 10
19.3109244669
 20
12.4049465423
 10
19.3106505461
 20
12.4033449708
 10
19.3104500149
 20
12.4012741444
 10
19.3103978284
 20
12.3994996733
  0
LWPOLYLINE
  5
326
100
AcDbEntity
  8
218
100
AcDbPolyline
 62
7
  6
CONTINUOUS
 90
136
 70
0
 10
19.1472871513
 20
0.8265316763
 10
19.206684009
 20
0.8752598313
 10
19.2642012366
 20
0.9227709
 10
19.3198388341
 20
0.9690648825
 10
19.3735417163
 20
1.0141072238
 10
19.4253649684
 20
1.0579324788
 10
19.4754738461
 20
1.1006443121
 10
19.5238755954
 20
1.1422476506
 10
19.5705629703
 20
1.1827375674
 10
19.6156794888
 20
1.2222029456
 10
19.6592293568
 20
1.2606463097
 10
19.7012083684
 20
1.2980651353
 10
19.7417474238
 20
1.3345407327
 10
19.7808504439
 20
1.370075479
 10
19.8185135078
 20
1.4046669972
 10
19.8548557536
 20
1.4383894657
 10
19.8898808411
 20
1.4712451438
 10
19.9235851105
 20
1.5032317724
 10
19.9560767199
 20
1.5344167528
 10
19.9873590136
 20
1.56480218
 10
20.0174286472
 20
1.5943859591
 10
20.0463837463
 20
1.6232292067
 10
20.0742273892
 20
1.6513339076
 10
20.1009564975
 20
1.6786980771
 10
20.1266599613
 20
1.7053768774
 10
20.1513406264
 20
1.7313722361
 10
20.174995647
 20
1.7566822256
 10
20.1977053753
 20
1.7813562255
 10
20.2194724214
 20
1.8053961382
 10
20.2402941753
 20
1.8288000613
 10
20.260243159
 20
1.8516116676
 10
20.2793217365
 20
1.8738328795
 10
20.2975275439
 20
1.8954617747
 10
20.3149260115
 20
1.916536259
 10
20.3315192172
 20
1.9370583155
 10
20.3473050831
 20
1.9570259611
 10
20.3623428059
 20
1.9764711535
 10
20.37663409
 20
1.9953959497
 10
20.3901772311
 20
2.0137982927
 10
20.4030263125
 20
2.0317039686
 10
20.4151825444
 20
2.0491151035
 10
20.4266447166
 20
2.0660295713
 10
20.4374632818
 20
2.08246678
 10
20.4476386928
 20
2.0984286646
 10
20.4571704968
 20
2.11391329
 10
20.4661077882
 20
2.1289342597
 10
20.4744503046
 20
2.1434934545
 10
20.4821983084
 20
2.1575889936
 10
20.4894016809
 20
2.1712288371
 10
20.4960589909
 20
2.1844136912
 10
20.5021716697
 20
2.1971428497
 10
20.5077938928
 20
2.2094221545
 10
20.51292103
 20
2.2212424639
 10
20.5175577115
 20
2.2326129197
 10
20.5217720029
 20
2.2435667888
 10
20.5255619628
 20
2.25409064
 10
20.5289295326
 20
2.2641979046
 10
20.5319486011
 20
2.2739621434
 10
20.5346244751
 20
2.2833810773
 10
20.5369518478
 20
2.2924569854
 10
20.5389886874
 20
2.3012702655
 10
20.5407423931
 20
2.3098259136
 10
20.5422055658
 20
2.3181189338
 10
20.5434139761
 20
2.3262147358
 10
20.5443739101
 20
2.3341175692
 10
20.5450790816
 20
2.3418231844
 10
20.545546403
 20
2.3493842423
 10
20.5457815349
 20
2.3568039149
 10
20.5457788167
 20
2.3640790303
 10
20.5455381788
 20
2.3712527335
 10
20.5450652715
 20
2.378327756
 10
20.5443544446
 20
2.3853013663
 10
20.5433886779
 20
2.3922085148
 10
20.5421742932
 20
2.3990513332
 10
20.5407049688
 20
2.4058276898
 10
20.5389447199
 20
2.4125661392
 10
20.5369012058
 20
2.4192690232
 10
20.5345667671
 20
2.4259339999
 10
20.531882441
 20
2.4325825983
 10
20.5288534072
 20
2.4392232111
 10
20.525474486
 20
2.4458474455
 10
20.5216711759
 20
2.4524516522
 10
20.5174410598
 20
2.4590476225
 10
20.5127865546
 20
2.4656235651
 10
20.50764041
 20
2.4721404575
 10
20.501998223
 20
2.4786020402
 10
20.4958643966
 20
2.4850045726
 10
20.489184889
 20
2.4912978108
 10
20.4819584211
 20
2.4974794694
 10
20.4741862721
 20
2.5035518336
 10
20.4658182374
 20
2.5094715151
 10
20.4568539138
 20
2.5152364887
 10
20.4472937046
 20
2.5208487795
 10
20.4370886153
 20
2.5262710737
 10
20.4262391593
 20
2.5315018686
 10
20.4147448232
 20
2.5365426669
 10
20.4025550729
 20
2.5413606638
 10
20.3896711135
 20
2.5459549976
 10
20.3760917399
 20
2.55032653
 10
20.3617628033
 20
2.5544450412
 10
20.3466860187
 20
2.5583102424
 10
20.3308596711
 20
2.5619224223
 10
20.3142244663
 20
2.5652522277
 10
20.2967824923
 20
2.568299832
 10
20.278531661
 20
2.5710650618
 10
20.2594064145
 20
2.5735180433
 10
20.2394091067
 20
2.5756593075
 10
20.2185373837
 20
2.5774883233
 10
20.1967186248
 20
2.5789736243
 10
20.1739555075
 20
2.5801160147
 10
20.1502453544
 20
2.5809146903
 10
20.1255075127
 20
2.5813357714
 10
20.0997446038
 20
2.5813802728
 10
20.0729540063
 20
2.5810471797
 10
20.0450472036
 20
2.580299569
 10
20.0160281831
 20
2.5791387153
 10
19.9858929573
 20
2.577563344
 10
19.9545410478
 20
2.5755327071
 10
19.9219738093
 20
2.5730479998
 10
19.8881898869
 20
2.5701080271
 10
19.8530847374
 20
2.5666684561
 10
19.8166534617
 20
2.5627293344
 10
19.7789009587
 20
2.5582906144
 10
19.7397373821
 20
2.5533078214
 10
19.6991714862
 20
2.5477826282
 10
19.6571945168
 20
2.5417133621
 10
19.6136903641
 20
2.5350505289
 10
19.568673932
 20
2.5277978415
 10
19.5221303168
 20
2.5199515872
 10
19.4738986976
 20
2.5114511336
 10
19.4239792481
 20
2.5022981039
 10
19.3723717945
 20
2.4924908749
 10
19.3189149953
 20
2.4819639445
 10
19.2635550697
 20
2.4706954789
 10
19.2063457983
 20
2.4587073119
 10
19.1472871813
 20
2.4459994436
  0
LWPOLYLINE
  5
327
100
AcDbEntity
  8
218
100
AcDbPolyline
 62
250
  6
CONTINUOUS
 90
105
 70
0
 10
20.2255740977
 20
1.0285917754
 10
20.2305815203
 20
1.0318495248
 10
20.2619758853
 20
1.053159844
 10
20.2927320117
 20
1.0755845985
 10
20.3228364974
 20
1.0991140166
 10
20.3522762147
 20
1.1237378416
 10
20.3810382889
 20
1.1494453089
 10
20.4091101333
 20
1.1762251684
 10
20.4364794737
 20
1.2040657064
 10
20.4631343792
 20
1.2329547822
 10
20.489063238
 20
1.2628798109
 10
20.5142547442
 20
1.2938277488
 10
20.5386978789
 20
1.3257850641
 10
20.5623819439
 20
1.3587377699
 10
20.5852965836
 20
1.3926714525
 10
20.6074318099
 20
1.4275713155
 10
20.6287779801
 20
1.4634221556
 10
20.6493257858
 20
1.5002083449
 10
20.6690662392
 20
1.5379137988
 10
20.6879907012
 20
1.5765220162
 10
20.7060908986
 20
1.6160161126
 10
20.7233589414
 20
1.6563788659
 10
20.7397873054
 20
1.6975926887
 10
20.7553688249
 20
1.7396396109
 10
20.7700966854
 20
1.7825012504
 10
20.7839644439
 20
1.8261588564
 10
20.7969660396
 20
1.8705933423
 10
20.8090958038
 20
1.9157853271
 10
20.8203484486
 20
1.9617151099
 10
20.8307190642
 20
2.0083626565
 10
20.8402031162
 20
2.0557075796
 10
20.8487964581
 20
2.1037291792
 10
20.8564953358
 20
2.1524064698
 10
20.8632963913
 20
2.2017182121
 10
20.869196658
 20
2.2516428952
 10
20.8741935601
 20
2.3021587316
 10
20.8782849137
 20
2.3532436527
 10
20.8814689313
 20
2.4048753393
 10
20.8837442226
 20
2.4570312404
 10
20.8851097947
 20
2.5096885881
 10
20.8855650516
 20
2.5628243943
 10
20.8851097946
 20
2.6164154575
 10
20.8837442223
 20
2.6704383773
 10
20.8814689309
 20
2.7248695697
 10
20.8782849132
 20
2.7796852739
 10
20.8741935595
 20
2.8348615488
 10
20.8691966573
 20
2.8903742873
 10
20.8632963905
 20
2.9461992371
 10
20.8564953349
 20
3.002312035
 10
20.8487964571
 20
3.0586882033
 10
20.840203115
 20
3.1153031447
 10
20.8307190628
 20
3.17213212
 10
20.8203484472
 20
3.2291502822
 10
20.8090958022
 20
3.2863327099
 10
20.796966038
 20
3.3436544589
 10
20.7839644421
 20
3.4010905404
 10
20.7700966836
 20
3.458615905
 10
20.7553688229
 20
3.516205405
 10
20.7397873033
 20
3.5738338467
 10
20.7233589392
 20
3.6314760336
 10
20.7060908963
 20
3.6891068297
 10
20.6879906988
 20
3.7467011235
 10
20.6690662366
 20
3.804233803
 10
20.6493257832
 20
3.8616797101
 10
20.6287779774
 20
3.9190137051
 10
20.607431807
 20
3.9762107155
 10
20.5852965806
 20
4.0332458049
 10
20.5623819408
 20
4.0900941272
 10
20.5386978757
 20
4.146730898
 10
20.5142547409
 20
4.2031313479
 10
20.4890632347
 20
4.2592707919
 10
20.4631343757
 20
4.3151246794
 10
20.4364794701
 20
4.3706686608
 10
20.4091101296
 20
4.4258785393
 10
20.3810382851
 20
4.4807302431
 10
20.3522762109
 20
4.5351997844
 10
20.3228364935
 20
4.5892633267
 10
20.2927320077
 20
4.6428972306
 10
20.2619758812
 20
4.6960781114
 10
20.230581516
 20
4.7487827958
 10
20.1985626013
 20
4.8009882991
 10
20.1659331348
 20
4.8526717953
 10
20.1327073901
 20
4.9038106758
 10
20.0988998927
 20
4.9543825864
 10
20.0645253888
 20
5.0043654714
 10
20.0295988644
 20
5.0537375401
 10
19.9941355549
 20
5.1024772539
 10
19.9581509589
 20
5.1505633096
 10
19.9216608086
 20
5.1979746842
 10
19.8846810496
 20
5.2446906615
 10
19.8472278177
 20
5.2906908588
 10
19.8093174519
 20
5.3359552087
 10
19.7709664971
 20
5.3804639556
 10
19.7321917071
 20
5.4241976549
 10
19.6930100217
 20
5.4671372001
 10
19.6534385536
 20
5.5092638377
 10
19.6134945777
 20
5.5505591779
 10
19.5731955327
 20
5.5910051922
 10
19.5325590153
 20
5.6305842195
 10
19.491602769
 20
5.6692789784
 10
19.4503446731
 20
5.7070725766
 10
19.4088027377
 20
5.7439485158
 10
19.3669951067
 20
5.7798906893
 10
19.3249400466
 20
5.8148833938
 10
19.3103973108
 20
5.8265865938
  0
LINE
  5
328
100
AcDbEntity
  8
218
100
AcDbLine
 62
7
  6
CONTINUOUS
 10
19.3103973108
 20
0.4366631564
 11
20.2255740974
 21
1.0285917752
  0
LWPOLYLINE
  5
329
100
AcDbEntity
  8
RACCORDO
100
AcDbPolyline
 62
250
  6
CONTINUOUS
 90
45
 70
0
 10
-13.0575030175
 20
-17.1788746117
 10
-13.0359482313
 20
-17.1706332364
 10
-13.0009745962
 20
-17.1543777492
 10
-12.9674019873
 20
-17.1350814485
 10
-12.9353033027
 20
-17.1128075223
 10
-12.9047300261
 20
-17.0875978917
 10
-12.8757676019
 20
-17.0595145897
 10
-12.8485366758
 20
-17.0286656963
 10
-12.8231392584
 20
-16.9951645164
 10
-12.799661597
 20
-16.9591251793
 10
-12.7781821873
 20
-16.9206685723
 10
-12.7587782835
 20
-16.87993557
 10
-12.741523805
 20
-16.8370930495
 10
-12.7264621954
 20
-16.7922620247
 10
-12.7136232912
 20
-16.7455175188
 10
-12.7030504325
 20
-16.6969619787
 10
-12.6948024776
 20
-16.6467982307
 10
-12.6889230639
 20
-16.5952586882
 10
-12.6854333926
 20
-16.5425386596
 10
-12.684342973
 20
-16.4887977292
 10
-12.6856554585
 20
-16.4342270123
 10
-12.6893650313
 20
-16.3790185717
 10
-12.6954583226
 20
-16.3233537522
 10
-12.7039157058
 20
-16.2674109404
 10
-12.7147106286
 20
-16.2113725789
 10
-12.7278060203
 20
-16.1554364446
 10
-12.7431545211
 20
-16.0998041516
 10
-12.7607004915
 20
-16.0446723343
 10
-12.7803855778
 20
-15.9902199447
 10
-12.8021471953
 20
-15.9366197726
 10
-12.8259160316
 20
-15.8840456536
 10
-12.8516085797
 20
-15.8326851483
 10
-12.8791306469
 20
-15.7827259816
 10
-12.9083819311
 20
-15.7343464392
 10
-12.9392675858
 20
-15.6876998311
 10
-12.9716930072
 20
-15.6429289953
 10
-13.0055717013
 20
-15.6001592651
 10
-13.040768268
 20
-15.5595672333
 10
-13.0771027131
 20
-15.5213531326
 10
-13.1144075576
 20
-15.4856716316
 10
-13.152589597
 20
-15.4525910591
 10
-13.1915741543
 20
-15.422168431
 10
-13.2312495815
 20
-15.3944929615
 10
-13.2714634627
 20
-15.3696730169
 10
-13.3120804316
 20
-15.3477918371
  0
LINE
  5
32A
100
AcDbEntity
  8
DRAFT
100
AcDbLine
 62
7
  6
CONTINUOUS
 10
-13.7315777896
 20
-15.3088235359
 11
-13.2702967896
 21
-15.1388874886
  0
LINE
  5
32B
100
AcDbEntity
  8
RACCORDO
100
AcDbLine
 62
7
  6
CONTINUOUS
 10
-13.7299730663
 20
-15.0891804947
 11
-13.728860511
 21
-15.088780946
  0
LWPOLYLINE
  5
32C
100
AcDbEntity
  8
RACCORDO
100
AcDbPolyline
 62
7
  6
CONTINUOUS
 90
10
 70
0
 10
-13.7289500156
 20
-15.088828305
 10
-13.6900597455
 20
-15.0768814127
 10
-13.6361712206
 20
-15.06632228
 10
-13.5803021658
 20
-15.0620066765
 10
-13.5226331572
 20
-15.0639565487
 10
-13.4635641958
 20
-15.0721606505
 10
-13.4033848972
 20
-15.0866079045
 10
-13.3424801576
 20
-15.107217569
 10
-13.2813216417
 20
-15.1337900184
 10
-13.2702229039
 20
-15.1392388124
  0
LWPOLYLINE
  5
32D
100
AcDbEntity
  8
RACCORDO
100
AcDbPolyline
 62
250
  6
CONTINUOUS
 90
16
 70
0
 10
-2.2544833132
 20
10.0567118123
 10
-2.315995493
 20
10.0428656109
 10
-2.3828037869
 20
10.0322358103
 10
-2.4541923542
 20
10.0249363074
 10
-2.529396277
 20
10.0210453152
 10
-2.6076097566
 20
10.0206045251
 10
-2.6879947473
 20
10.0236186601
 10
-2.769689936
 20
10.0300554242
 10
-2.851819971
 20
10.0398458485
 10
-2.9335048412
 20
10.05288503
 10
-3.0138693057
 20
10.0690332558
 10
-3.0920522711
 20
10.0881175001
 10
-3.1672160188
 20
10.1099332783
 10
-3.2385551804
 20
10.1342468376
 10
-3.3053053676
 20
10.1607976617
 10
-3.366751362
 20
10.1893012627
  0
LWPOLYLINE
  5
32E
100
AcDbEntity
  8
218
100
AcDbPolyline
 62
7
  6
CONTINUOUS
 90
16
 70
0
 10
19.1472867091
 20
14.3971499127
 10
19.1383255359
 20
14.3953827039
 10
19.1295034697
 20
14.3940293366
 10
19.1208205106
 20
14.3930898108
 10
19.1122661851
 20
14.3925656827
 10
19.1038509666
 20
14.392455396
 10
19.0956062756
 20
14.3927542825
 10
19.0875359365
 20
14.3934691428
 10
19.0796361249
 20
14.3945931761
 10
19.0719267875
 20
14.396101312
 10
19.064413592
 20
14.3979992255
 10
19.0570908707
 20
14.4002812415
 10
19.0499615676
 20
14.4029052639
 10
19.0430266639
 20
14.4058572605
 10
19.0362851784
 20
14.4091512634
 10
19.0297371111
 20
14.4127872727
  0
LINE
  5
32F
100
AcDbEntity
  8
RACCORDO
100
AcDbLine
 62
250
  6
CONTINUOUS
 10
-2.2132260139
 20
11.8172276537
 11
-16.3574360863
 21
18.8893326899
  0
LINE
  5
330
100
AcDbEntity
  8
218
100
AcDbLine
 62
250
  6
CONTINUOUS
 10
1.789296508
 20
24.9929560709
 11
2.1832824419
 21
23.9708002529
  0
LINE
  5
331
100
AcDbEntity
  8
0
100
AcDbLine
 62
7
  6
CONTINUOUS
 10
3.1865654138
 20
22.2860125785
 11
2.9850660559
 21
22.8817370043
  0
LWPOLYLINE
  5
332
100
AcDbEntity
  8
218
100
AcDbPolyline
 62
250
  6
CONTINUOUS
 90
25
 70
0
 10
12.5711847026
 20
-8.0414866924
 10
12.5711766385
 20
-8.0397978824
 10
12.570655199
 20
-8.0274156073
 10
12.5692898754
 20
-8.0140769365
 10
12.5670388312
 20
-7.9997616603
 10
12.563859927
 20
-7.9844622456
 10
12.5597125597
 20
-7.9681442013
 10
12.5545555523
 20
-7.9507785838
 10
12.5483492415
 20
-7.9323587077
 10
12.5410584068
 20
-7.9128816194
 10
12.5326396873
 20
-7.8922969131
 10
12.5230624557
 20
-7.870611204
 10
12.5123221489
 20
-7.8479064255
 10
12.5003996814
 20
-7.8241540221
 10
12.4872675878
 20
-7.799334194
 10
12.4729236768
 20
-7.7735425173
 10
12.4573449552
 20
-7.7467265445
 10
12.4405252201
 20
-7.7188857692
 10
12.42250343
 20
-7.690195632
 10
12.403264472
 20
-7.6605951645
 10
12.382824036
 20
-7.6300929231
 10
12.3612949462
 20
-7.5989758086
 10
12.3387367382
 20
-7.5673280805
 10
12.3151382848
 20
-7.5350253738
 10
12.2905245029
 20
-7.5020475044
  0
LINE
  5
333
100
AcDbEntity
  8
218
100
AcDbLine
 62
7
  6
CONTINUOUS
 10
11.7461190748
 20
19.687438447
 11
11.7461190748
 21
20.1313061351
  0
LINE
  5
334
100
AcDbEntity
  8
0
100
AcDbLine
 62
7
  6
CONTINUOUS
 10
11.8264404274
 20
18.4986331396
 11
11.8264404274
 21
19.0202358438
  0
LINE
  5
335
100
AcDbEntity
  8
218
100
AcDbLine
 62
250
  6
CONTINUOUS
 10
12.2905245029
 20
-15.6749604427
 11
12.2905245029
 21
-7.5020474619
  0
LINE
  5
336
100
AcDbEntity
  8
0
100
AcDbLine
 62
7
  6
CONTINUOUS
 10
12.4529645474
 20
18.6450012454
 11
12.4529645474
 21
18.5482972663
  0
LINE
  5
337
100
AcDbEntity
  8
218
100
AcDbLine
 62
7
  6
CONTINUOUS
 10
12.5711847026
 20
-15.3276312575
 11
12.5711847026
 21
-8.0414940789
  0
LINE
  5
338
100
AcDbEntity
  8
218
100
AcDbLine
 62
7
  6
CONTINUOUS
 10
13.8303404089
 20
22.2932768488
 11
13.8303404089
 21
21.9663108011
  0
LWPOLYLINE
  5
339
100
AcDbEntity
  8
RACCORDO
100
AcDbPolyline
 62
7
  6
CONTINUOUS
 90
7
 70
0
 10
9.203955992
 20
-18.6484660006
 10
9.2038643839
 20
-18.648951608
 10
9.2037252131
 20
-18.6494637558
 10
9.2035384797
 20
-18.6500024438
 10
9.2033041836
 20
-18.6505676722
 10
9.2030223248
 20
-18.6511594408
 10
9.2026929033
 20
-18.6517777497
  0
LINE
  5
33A
100
AcDbEntity
  8
218
100
AcDbLine
 62
250
  6
CONTINUOUS
 10
19.3187425932
 20
0.4519672643
 11
19.3103973108
 21
0.4443822015
  0
LWPOLYLINE
  5
33B
100
AcDbEntity
  8
218
100
AcDbPolyline
 62
250
  6
CONTINUOUS
 90
57
 70
0
 10
19.0297371111
 20
0.6891680052
 10
19.0355486241
 20
0.6943660752
 10
19.0413394223
 20
0.6993467234
 10
19.0471082684
 20
0.7041101183
 10
19.0528489488
 20
0.7086589843
 10
19.058565256
 20
0.7129908715
 10
19.0642705149
 20
0.7170983668
 10
19.0699650539
 20
0.7209847895
 10
19.0756450202
 20
0.7246474897
 10
19.0813167461
 20
0.728070387
 10
19.0869798634
 20
0.7312551365
 10
19.0926305281
 20
0.7342009088
 10
19.0982694553
 20
0.7368880279
 10
19.1038933386
 20
0.73931626
 10
19.1095009241
 20
0.7414866501
 10
19.1150956357
 20
0.7433815433
 10
19.1206641692
 20
0.7450015797
 10
19.1262148514
 20
0.746346922
 10
19.1317817702
 20
0.7473997957
 10
19.1373488262
 20
0.7481705457
 10
19.1429237709
 20
0.7486505923
 10
19.1485716319
 20
0.7487953524
 10
19.1542942632
 20
0.7486184683
 10
19.1600732599
 20
0.7481103263
 10
19.1659376329
 20
0.7471931345
 10
19.1718975109
 20
0.7458634966
 10
19.1779193807
 20
0.7441301352
 10
19.1839657228
 20
0.7419335555
 10
19.1900299016
 20
0.7392602546
 10
19.1960965206
 20
0.7361276614
 10
19.2021186764
 20
0.7325214015
 10
19.2080691755
 20
0.7284470686
 10
19.2139579642
 20
0.7239008469
 10
19.2197945274
 20
0.7188538212
 10
19.2255598188
 20
0.7133179139
 10
19.2312503071
 20
0.7072833758
 10
19.2368925781
 20
0.7006899001
 10
19.2424742242
 20
0.6935366987
 10
19.2479736727
 20
0.6858278664
 10
19.2533959455
 20
0.6775116135
 10
19.2587298152
 20
0.668566904
 10
19.2639421164
 20
0.659018109
 10
19.269002235
 20
0.6488815341
 10
19.2738766924
 20
0.6381774726
 10
19.278555549
 20
0.6268865196
 10
19.2830386553
 20
0.6149654629
 10
19.287290934
 20
0.6024312197
 10
19.2912886451
 20
0.5892670242
 10
19.295031777
 20
0.5753802237
 10
19.2984754263
 20
0.5607751819
 10
19.3015773136
 20
0.5454463277
 10
19.3043149502
 20
0.5292870228
 10
19.3066311709
 20
0.5122376415
 10
19.3084527378
 20
0.4943526397
 10
19.3097132509
 20
0.4756955938
 10
19.3103418331
 20
0.4561430547
 10
19.3103973105
 20
0.4483438853
  0
LWPOLYLINE
  5
33C
100
AcDbEntity
  8
218
100
AcDbPolyline
 62
250
  6
CONTINUOUS
 90
32
 70
0
 10
18.7852211312
 20
-4.3988393366
 10
18.792049585
 20
-4.3950635267
 10
18.8065897332
 20
-4.3863898562
 10
18.8207532207
 20
-4.3770575596
 10
18.8345292956
 20
-4.3670737207
 10
18.8479075001
 20
-4.3564459184
 10
18.8608776784
 20
-4.3451822198
 10
18.8734299847
 20
-4.3332911752
 10
18.88555489
 20
-4.3207818111
 10
18.8972431899
 20
-4.3076636234
 10
18.9084860117
 20
-4.29394657
 10
18.9192748204
 20
-4.2796410636
 10
18.9296014261
 20
-4.2647579637
 10
18.9394579895
 20
-4.2493085678
 10
18.9488370283
 20
-4.2333046041
 10
18.9577314225
 20
-4.2167582211
 10
18.9661344203
 20
-4.1996819792
 10
18.9740396426
 20
-4.1820888414
 10
18.9814410885
 20
-4.1639921627
 10
18.9883331393
 20
-4.1454056803
 10
18.9947105631
 20
-4.1263435037
 10
19.0005685188
 20
-4.106820103
 10
19.0059025593
 20
-4.0868502984
 10
19.0107086354
 20
-4.0664492498
 10
19.0149830988
 20
-4.0456324438
 10
19.0187227046
 20
-4.0244156825
 10
19.0219246141
 20
-4.0028150719
 10
19.0245863966
 20
-3.9808470085
 10
19.0267060315
 20
-3.9585281692
 10
19.0282819096
 20
-3.9358754987
 10
19.0293128348
 20
-3.9129061939
 10
19.0297980247
 20
-3.8896376901
  0
LWPOLYLINE
  5
33D
100
AcDbEntity
  8
218
100
AcDbPolyline
 62
7
  6
CONTINUOUS
 90
35
 70
0
 10
12.8264449107
 20
-7.613735929
 10
12.8207988592
 20
-7.6168310375
 10
12.8076433861
 20
-7.6244317288
 10
12.7946393047
 20
-7.6325035597
 10
12.7817990567
 20
-7.6410507753
 10
12.7691497472
 20
-7.6500675534
 10
12.7567313777
 20
-7.6595358449
 10
12.744562882
 20
-7.6694503023
 10
12.7326616027
 20
-7.6798061098
 10
12.7210619781
 20
-7.6905814613
 10
12.7097813932
 20
-7.7017669833
 10
12.6988348647
 20
-7.7133547619
 10
12.6882500877
 20
-7.7253214856
 10
12.6780413178
 20
-7.7376558958
 10
12.668222428
 20
-7.7503462598
 10
12.6588172591
 20
-7.7633655358
 10
12.6498372731
 20
-7.7767002907
 10
12.6412939228
 20
-7.7903360467
 10
12.6332073153
 20
-7.8042415295
 10
12.6255853933
 20
-7.8184021804
 10
12.6184369707
 20
-7.8328006439
 10
12.6117789563
 20
-7.8473990224
 10
12.6056160293
 20
-7.8621801721
 10
12.5999525658
 20
-7.8771261548
 10
12.5947997642
 20
-7.8921958412
 10
12.5901560979
 20
-7.9073784794
 10
12.5860243295
 20
-7.9226482026
 10
12.5824143018
 20
-7.9379392355
 10
12.5793181423
 20
-7.9532437239
 10
12.5767322207
 20
-7.9685320606
 10
12.5746594263
 20
-7.9837039434
 10
12.5730844993
 20
-7.9987401077
 10
12.5719915363
 20
-8.0136239664
 10
12.571366574
 20
-8.0282588658
 10
12.5711845569
 20
-8.0414962629
  0
LINE
  5
33E
100
AcDbEntity
  8
218
100
AcDbLine
 62
250
  6
CONTINUOUS
 10
19.0297371111
 20
-3.8660876508
 11
12.2905245029
 21
-7.5020474619
  0
LINE
  5
33F
100
AcDbEntity
  8
218
100
AcDbLine
 62
7
  6
CONTINUOUS
 10
18.7852211312
 20
-4.3988393366
 11
12.8264458448
 21
-7.613735308
  0
LWPOLYLINE
  5
340
100
AcDbEntity
  8
218
100
AcDbPolyline
 62
250
  6
CONTINUOUS
 90
29
 70
0
 10
19.0297371111
 20
-3.8660876508
 10
19.0483984265
 20
-3.8561582112
 10
19.0665116901
 20
-3.8459782103
 10
19.0840634504
 20
-3.8355552081
 10
19.1010406738
 20
-3.8248969442
 10
19.1174307515
 20
-3.8140113341
 10
19.1332215093
 20
-3.8029064633
 10
19.1484012199
 20
-3.791590579
 10
19.1629586114
 20
-3.780072084
 10
19.1768828731
 20
-3.7683595324
 10
19.1901636647
 20
-3.7564616221
 10
19.2027911236
 20
-3.7443871887
 10
19.2147558721
 20
-3.7321451993
 10
19.226049025
 20
-3.7197447451
 10
19.2366621958
 20
-3.707195035
 10
19.246587503
 20
-3.6945053887
 10
19.255817576
 20
-3.6816852298
 10
19.2643455605
 20
-3.6687440789
 10
19.2721651233
 20
-3.6556915466
 10
19.2792704577
 20
-3.642537326
 10
19.2856562872
 20
-3.6292911857
 10
19.2913178697
 20
-3.6159629628
 10
19.2962510009
 20
-3.6025625552
 10
19.3004520175
 20
-3.5890999142
 10
19.3039178001
 20
-3.5755850379
 10
19.306645775
 20
-3.5620279626
 10
19.3086339167
 20
-3.5484387561
 10
19.3098807489
 20
-3.5348275103
 10
19.3103693581
 20
-3.5216359815
  0
LWPOLYLINE
  5
341
100
AcDbEntity
  8
218
100
AcDbPolyline
 62
250
  6
CONTINUOUS
 90
28
 70
0
 10
12.8264389486
 20
-7.6137390287
 10
12.8236737018
 20
-7.6149928495
 10
12.819245604
 20
-7.6163422813
 10
12.8137830535
 20
-7.6173813637
 10
12.8072453949
 20
-7.6180826957
 10
12.7996069712
 20
-7.6184143443
 10
12.790800103
 20
-7.618369386
 10
12.7807838665
 20
-7.6179259787
 10
12.7695277828
 20
-7.6170557608
 10
12.7569793198
 20
-7.6157455482
 10
12.7430907988
 20
-7.6139780115
 10
12.7278324013
 20
-7.6117288803
 10
12.7111782056
 20
-7.608978591
 10
12.6930632556
 20
-7.6057153174
 10
12.6734705991
 20
-7.6019212443
 10
12.652451766
 20
-7.5975780996
 10
12.6299683058
 20
-7.5926919216
 10
12.6059867076
 20
-7.5872537127
 10
12.5805742684
 20
-7.5812349188
 10
12.5536735354
 20
-7.574644652
 10
12.5252746097
 20
-7.5674890071
 10
12.4955264316
 20
-7.5597469531
 10
12.4643695693
 20
-7.5514366934
 10
12.4318122925
 20
-7.5425800408
 10
12.3981266832
 20
-7.5331793975
 10
12.3634037977
 20
-7.5232627141
 10
12.3275386545
 20
-7.5128732873
 10
12.290524537
 20
-7.5020474435
  0
LINE
  5
342
100
AcDbEntity
  8
RACCORDO
100
AcDbLine
 62
7
  6
CONTINUOUS
 10
-12.8511480366
 20
-17.3235569246
 11
-12.8523386849
 21
-17.3239843897
  0
LINE
  5
343
100
AcDbEntity
  8
DRAFT
100
AcDbLine
 62
7
  6
CONTINUOUS
 10
-13.0575030162
 20
-17.1788746112
 11
-12.5440171755
 21
-16.9978422693
  0
LWPOLYLINE
  5
344
100
AcDbEntity
  8
RACCORDO
100
AcDbPolyline
 62
250
  6
CONTINUOUS
 90
9
 70
0
 10
-12.8523386849
 20
-17.3239843897
 10
-12.8845985002
 20
-17.3342966588
 10
-12.9459192052
 20
-17.3476021915
 10
-13.0095439895
 20
-17.3535125484
 10
-13.0750195595
 20
-17.3519684596
 10
-13.141883128
 20
-17.3429913979
 10
-13.2096822945
 20
-17.3266593486
 10
-13.2779820359
 20
-17.3030836144
 10
-13.3463372058
 20
-17.272427876
  0
LWPOLYLINE
  5
345
100
AcDbEntity
  8
RACCORDO
100
AcDbPolyline
 62
7
  6
CONTINUOUS
 90
13
 70
0
 10
-13.057503015
 20
-17.1788746108
 10
-13.0917162189
 20
-17.1895627589
 10
-13.1268513731
 20
-17.1978085806
 10
-13.1628078796
 20
-17.2035550005
 10
-13.1994607047
 20
-17.206753075
 10
-13.2367242131
 20
-17.2073684121
 10
-13.2745598857
 20
-17.2053659043
 10
-13.312906685
 20
-17.2007042311
 10
-13.3516204073
 20
-17.1933569615
 10
-13.3905465529
 20
-17.183319146
 10
-13.4295685925
 20
-17.1705930826
 10
-13.4686033768
 20
-17.1551771303
 10
-13.507550441
 20
-17.1370792335
  0
LINE
  5
346
100
AcDbEntity
  8
0
100
AcDbLine
 62
7
  6
CONTINUOUS
 10
2.3242197147
 20
12.1574867851
 11
2.7658629537
 21
11.9366651656
  0
LINE
  5
347
100
AcDbEntity
  8
RACCORDO
100
AcDbLine
 62
7
  6
CONTINUOUS
 10
-12.4484635248
 20
20.444368614
 11
1.8352657685
 21
13.3025039674
  0
LINE
  5
348
100
AcDbEntity
  8
ASSI
100
AcDbLine
 62
7
  6
CONTINUOUS
 10
-13.8157910651
 20
21.1865115454
 11
1.9526901554
 21
13.3022709352
  0
LINE
  5
349
100
AcDbEntity
  8
RACCORDO
100
AcDbLine
 62
7
  6
CONTINUOUS
 10
1.705202782
 20
13.7535305604
 11
-13.5683036917
 21
21.3902837972
  0
LINE
  5
34A
100
AcDbEntity
  8
DRAFT
100
AcDbLine
 62
7
  6
CONTINUOUS
 10
2.2647174665
 20
14.1884376885
 11
0.6507133505
 21
14.9954397465
  0
LINE
  5
34B
100
AcDbEntity
  8
DRAFT
100
AcDbLine
 62
7
  6
CONTINUOUS
 10
-11.0996006979
 20
20.8705967707
 11
-12.7136048139
 21
21.6775988287
  0
LWPOLYLINE
  5
34C
100
AcDbEntity
  8
218
100
AcDbPolyline
 62
7
  6
CONTINUOUS
 90
16
 70
0
 10
19.0297371111
 20
0.6891677921
 10
19.0362851911
 20
0.6995845285
 10
19.0430266924
 20
0.7098595563
 10
19.049961615
 20
0.7199928754
 10
19.0570909408
 20
0.7299995366
 10
19.0644136878
 20
0.739864489
 10
19.071926911
 20
0.7495425805
 10
19.0796362774
 20
0.7590340029
 10
19.0875361199
 20
0.7683385643
 10
19.0956064917
 20
0.7774105371
 10
19.1038512176
 20
0.7862470815
 10
19.1122664727
 20
0.7948510372
 10
19.1208208358
 20
0.8031851954
 10
19.1295038331
 20
0.8112371532
 10
19.1383259382
 20
0.8190193135
 10
19.1472871513
 20
0.8265316763
  0
LINE
  5
34D
100
AcDbEntity
  8
RACCORDO
100
AcDbLine
 62
7
  6
CONTINUOUS
 10
0.0355945156
 20
-25.1656538502
 11
0.6143848558
 21
-24.46121012
  0
LINE
  5
34E
100
AcDbEntity
  8
RACCORDO
100
AcDbLine
 62
7
  6
CONTINUOUS
 10
2.2647174665
 20
14.8256072473
 11
1.6423994345
 21
14.9555478298
  0
LINE
  5
34F
100
AcDbEntity
  8
RACCORDO
100
AcDbLine
 62
7
  6
CONTINUOUS
 10
-7.7671448171
 20
19.5617010655
 11
-1.974635749
 21
16.6654465315
  0
LINE
  5
350
100
AcDbEntity
  8
RACCORDO
100
AcDbLine
 62
7
  6
CONTINUOUS
 10
-13.3520024753
 20
22.4491286351
 11
-11.745470006
 21
21.6458624004
  0
LINE
  5
351
100
AcDbEntity
  8
RACCORDO
100
AcDbLine
 62
7
  6
CONTINUOUS
 10
0.0123156891
 20
15.7669695529
 11
1.6188481584
 21
14.9637033182
  0
LINE
  5
352
100
AcDbEntity
  8
RACCORDO
100
AcDbLine
 62
250
  6
CONTINUOUS
 10
-13.4165977682
 20
22.5841580834
 11
-11.810821306
 21
21.7812698523
  0
LINE
  5
353
100
AcDbEntity
  8
RACCORDO
100
AcDbLine
 62
250
  6
CONTINUOUS
 10
-0.0522796037
 20
15.9019990012
 11
1.5534968584
 21
15.0991107701
  0
LINE
  5
354
100
AcDbEntity
  8
RACCORDO
100
AcDbLine
 62
250
  6
CONTINUOUS
 10
1.5534968584
 20
15.3524821639
 11
-0.0522796037
 21
16.1553703949
  0
LINE
  5
355
100
AcDbEntity
  8
RACCORDO
100
AcDbLine
 62
250
  6
CONTINUOUS
 10
-11.810821306
 20
22.0346412461
 11
-13.4165977682
 21
22.8375294772
  0
LINE
  5
356
100
AcDbEntity
  8
DRAFT
100
AcDbLine
 62
7
  6
CONTINUOUS
 10
-10.0327697857
 20
21.4091780203
 11
-7.8550127827
 21
20.3202995188
  0
LINE
  5
357
100
AcDbEntity
  8
DRAFT
100
AcDbLine
 62
7
  6
CONTINUOUS
 10
-1.0525136647
 20
16.9190499597
 11
0.0286082865
 21
16.3784889841
  0
LINE
  5
358
100
AcDbEntity
  8
RACCORDO
100
AcDbLine
 62
7
  6
CONTINUOUS
 10
3.3315483787
 20
14.727018938
 11
3.4729697349
 21
14.6563082599
  0
LINE
  5
359
100
AcDbEntity
  8
RACCORDO
100
AcDbLine
 62
250
  6
CONTINUOUS
 10
1.7302675879
 20
15.6563477421
 11
0.1224461788
 21
16.4602584466
  0
LINE
  5
35A
100
AcDbEntity
  8
RACCORDO
100
AcDbLine
 62
250
  6
CONTINUOUS
 10
-11.6340505766
 20
22.3385068243
 11
-13.2418719856
 21
23.1424175288
  0
LINE
  5
35B
100
AcDbEntity
  8
RACCORDO
100
AcDbLine
 62
7
  6
CONTINUOUS
 10
-7.7671448171
 20
20.7766559316
 11
-1.974635749
 21
17.8804013976
  0
LINE
  5
35C
100
AcDbEntity
  8
RACCORDO
100
AcDbLine
 62
7
  6
CONTINUOUS
 10
4.1800765161
 20
15.0023039613
 11
3.3803444923
 21
15.4021699732
  0
LINE
  5
35D
100
AcDbEntity
  8
RACCORDO
100
AcDbLine
 62
7
  6
CONTINUOUS
 10
-8.5014956687
 20
21.3430900537
 11
-9.9839736721
 21
22.0843290554
  0
LINE
  5
35E
100
AcDbEntity
  8
DRAFT
100
AcDbLine
 62
7
  6
CONTINUOUS
 10
-7.2750533391
 20
21.2427553622
 11
-1.0525136647
 21
18.131485525
  0
LINE
  5
35F
100
AcDbEntity
  8
DRAFT
100
AcDbLine
 62
7
  6
CONTINUOUS
 10
-11.6591153825
 20
23.9544016262
 11
-10.0327697857
 21
23.1412288278
  0
LINE
  5
360
100
AcDbEntity
  8
DRAFT
100
AcDbLine
 62
7
  6
CONTINUOUS
 10
1.705202782
 20
17.272242544
 11
3.3315483787
 21
16.4590697456
  0
LWPOLYLINE
  5
361
100
AcDbEntity
  8
218
100
AcDbPolyline
 62
7
  6
CONTINUOUS
 90
104
 70
0
 10
19.3103973108
 20
5.916835232
 10
19.3231186557
 20
5.9075804066
 10
19.3679402674
 20
5.8737120851
 10
19.4124241144
 20
5.8388371729
 10
19.4565817744
 20
5.8029523854
 10
19.5004123515
 20
5.7660621943
 10
19.543884104
 20
5.7281968606
 10
19.5869617245
 20
5.689392024
 10
19.6296246452
 20
5.649672002
 10
19.671862352
 20
5.6090521983
 10
19.7136548534
 20
5.5675572689
 10
19.7549809794
 20
5.5252139988
 10
19.795831733
 20
5.4820372147
 10
19.8362048548
 20
5.4380338381
 10
19.8760956785
 20
5.3932121557
 10
19.915478151
 20
5.347604479
 10
19.9543180764
 20
5.3012548569
 10
19.9925869747
 20
5.2542033923
 10
20.0302856012
 20
5.2064551506
 10
20.0674233385
 20
5.158001989
 10
20.1039990407
 20
5.1088468496
 10
20.1399842363
 20
5.0590292752
 10
20.1753471876
 20
5.0085962352
 10
20.2100644753
 20
4.9575857931
 10
20.2441334983
 20
4.9060063184
 10
20.2775540702
 20
4.8538609537
 10
20.3103180418
 20
4.8011638445
 10
20.3424067394
 20
4.7479462884
 10
20.3738038764
 20
4.6942370453
 10
20.4044952205
 20
4.6400624487
 10
20.4344701541
 20
4.5854430684
 10
20.4637181878
 20
4.5303993891
 10
20.4922267917
 20
4.4749560822
 10
20.5199847286
 20
4.4191359035
 10
20.5469834109
 20
4.3629564612
 10
20.573212072
 20
4.3064398665
 10
20.5986585548
 20
4.2496117797
 10
20.6233122609
 20
4.1924951081
 10
20.6471627802
 20
4.135112805
 10
20.6701989827
 20
4.0774901814
 10
20.6924096519
 20
4.0196537029
 10
20.7137821177
 20
3.9616350088
 10
20.7343094683
 20
3.9034511564
 10
20.7539887919
 20
3.8451065061
 10
20.7728155711
 20
3.7866074454
 10
20.7907737475
 20
3.727996181
 10
20.8078441749
 20
3.6693306271
 10
20.8240120456
 20
3.6106611739
 10
20.8392775024
 20
3.5519863508
 10
20.8536437745
 20
3.4932860213
 10
20.8671079654
 20
3.4345564055
 10
20.8796540358
 20
3.3758502025
 10
20.8912657781
 20
3.3172314988
 10
20.9019326836
 20
3.2587473876
 10
20.9116532293
 20
3.2003990068
 10
20.9204256138
 20
3.1421809565
 10
20.9282447474
 20
3.0841007112
 10
20.9351009729
 20
3.0261993285
 10
20.940985642
 20
2.9685211578
 10
20.9458930607
 20
2.911092549
 10
20.9498182453
 20
2.8539346006
 10
20.952755648
 20
2.7970825318
 10
20.954700797
 20
2.7405694887
 10
20.9556502945
 20
2.6844085212
 10
20.9556001615
 20
2.6286039755
 10
20.9545448482
 20
2.5731455463
 10
20.9524796616
 20
2.5180905149
 10
20.9494056449
 20
2.4635420703
 10
20.9453272193
 20
2.4095678904
 10
20.9402427491
 20
2.3561406847
 10
20.9341453814
 20
2.3032198266
 10
20.9270231557
 20
2.2507629829
 10
20.9188805997
 20
2.1988579642
 10
20.9097399658
 20
2.1476558469
 10
20.8996197415
 20
2.0972342677
 10
20.8885152931
 20
2.0475477669
 10
20.8764187228
 20
1.9985593098
 10
20.8633192073
 20
1.9502392326
 10
20.8492314301
 20
1.9026555901
 10
20.8341883318
 20
1.8559154657
 10
20.8182066435
 20
1.8100539838
 10
20.8012889007
 20
1.7650631108
 10
20.7834541865
 20
1.7209793405
 10
20.7647181704
 20
1.6778247477
 10
20.7450883533
 20
1.6356011545
 10
20.7245730647
 20
1.5943137592
 10
20.7031642028
 20
1.5539387211
 10
20.6808919006
 20
1.5145258794
 10
20.657829091
 20
1.4761848607
 10
20.6340361893
 20
1.4389824876
 10
20.6094953632
 20
1.4028586622
 10
20.584163662
 20
1.3677326428
 10
20.5580237376
 20
1.3335749337
 10
20.5311206561
 20
1.3004391523
 10
20.5035029867
 20
1.2683730146
 10
20.475205823
 20
1.237400562
 10
20.446233701
 20
1.2075104473
 10
20.4165924179
 20
1.17869543
 10
20.3863043761
 20
1.1509652838
 10
20.3553871323
 20
1.1243242289
 10
20.3238379188
 20
1.098760158
 10
20.2916686185
 20
1.0742753444
 10
20.2589071159
 20
1.0508836207
 10
20.2255740973
 20
1.0285917752
  0
LINE
  5
362
100
AcDbEntity
  8
218
100
AcDbLine
 62
250
  6
CONTINUOUS
 10
9.2139177105
 20
21.2806454697
 11
9.6079036443
 21
20.2584896516
  0
LWPOLYLINE
  5
363
100
AcDbEntity
  8
218
100
AcDbPolyline
 62
7
  6
CONTINUOUS
 90
9
 70
0
 10
19.3101765343
 20
0.4531623758
 10
19.3110041923
 20
0.4546977793
 10
19.3113482952
 20
0.4554354262
 10
19.3113772021
 20
0.4555009305
 10
19.3111954745
 20
0.454916993
 10
19.3109243612
 20
0.4537953923
 10
19.3106503986
 20
0.45219354
 10
19.3104499977
 20
0.4501225768
 10
19.3103978154
 20
0.4483477197
  0
LINE
  5
364
100
AcDbEntity
  8
RACCORDO
100
AcDbLine
 62
7
  6
CONTINUOUS
 10
1.6423994345
 20
-25.9690563096
 11
2.2647174665
 21
-25.2239968921
  0
LINE
  5
365
100
AcDbEntity
  8
RACCORDO
100
AcDbLine
 62
250
  6
CONTINUOUS
 10
0.7602379374
 20
-19.6157028947
 11
-0.5541637007
 21
-20.222737129
  0
LINE
  5
366
100
AcDbEntity
  8
RACCORDO
100
AcDbLine
 62
7
  6
CONTINUOUS
 10
0.5595428802
 20
-20.1293987376
 11
-0.5931906987
 21
-20.6617693046
  0
LWPOLYLINE
  5
367
100
AcDbEntity
  8
218
100
AcDbPolyline
 62
7
  6
CONTINUOUS
 90
21
 70
0
 10
-2.044121931
 20
20.634140221
 10
-2.0559589753
 20
20.6396142522
 10
-2.0677298674
 20
20.6446322803
 10
-2.0794220576
 20
20.6491885916
 10
-2.0910221988
 20
20.6532781065
 10
-2.1025186088
 20
20.6568961122
 10
-2.1139012678
 20
20.6600381174
 10
-2.1251575179
 20
20.6627005216
 10
-2.1362752517
 20
20.6648801109
 10
-2.1472453332
 20
20.6665735117
 10
-2.1580554078
 20
20.6677786704
 10
-2.1686935036
 20
20.6684938442
 10
-2.1791511529
 20
20.6687166995
 10
-2.189415926
 20
20.6684467864
 10
-2.1994765805
 20
20.6676839539
 10
-2.2093265354
 20
20.6664268364
 10
-2.2189545961
 20
20.6646763485
 10
-2.2283490089
 20
20.6624338543
 10
-2.2375025828
 20
20.6596994338
 10
-2.2464024403
 20
20.6564766201
 10
-2.2547130755
 20
20.6529194487
  0
LWPOLYLINE
  5
368
100
AcDbEntity
  8
218
100
AcDbPolyline
 62
7
  6
CONTINUOUS
 90
64
 70
0
 10
-0.9635659319
 20
20.7651300633
 10
-0.9740071847
 20
20.7702255465
 10
-0.9915132673
 20
20.7782328359
 10
-1.009490606
 20
20.7858084943
 10
-1.027907711
 20
20.7929463291
 10
-1.0467555064
 20
20.7996520543
 10
-1.066046477
 20
20.8059389521
 10
-1.0857579533
 20
20.8118084255
 10
-1.1058674729
 20
20.8172636873
 10
-1.126383642
 20
20.8223164629
 10
-1.1472543642
 20
20.8269636165
 10
-1.168491201
 20
20.8312173836
 10
-1.190196334
 20
20.8351027144
 10
-1.2123212388
 20
20.8386124874
 10
-1.2348846586
 20
20.8417510214
 10
-1.2580904178
 20
20.8445405496
 10
-1.2820148493
 20
20.8469755394
 10
-1.3065581026
 20
20.8490311697
 10
-1.3316577421
 20
20.8506911163
 10
-1.3574165711
 20
20.8519490223
 10
-1.3837040084
 20
20.8527849307
 10
-1.4101042185
 20
20.8531845125
 10
-1.4365802106
 20
20.8531555795
 10
-1.463141639
 20
20.852705188
 10
-1.4894434689
 20
20.8518522396
 10
-1.5153955949
 20
20.8506207147
 10
-1.541069955
 20
20.8490266264
 10
-1.5663668808
 20
20.8470944082
 10
-1.5912664746
 20
20.8448448211
 10
-1.6157775473
 20
20.8422951484
 10
-1.6398444196
 20
20.8394690084
 10
-1.6634484431
 20
20.8363868412
 10
-1.6866031851
 20
20.833064287
 10
-1.7093013598
 20
20.8295188801
 10
-1.7315352913
 20
20.8257679117
 10
-1.75331102
 20
20.8218259022
 10
-1.7746407359
 20
20.8177053567
 10
-1.7955248507
 20
20.8134202701
 10
-1.8159629132
 20
20.8089844714
 10
-1.8359641801
 20
20.8044092508
 10
-1.8555309264
 20
20.7997069568
 10
-1.8746616316
 20
20.7948906271
 10
-1.8933581772
 20
20.7899723081
 10
-1.9116302367
 20
20.7849616666
 10
-1.9294690881
 20
20.7798732058
 10
-1.9468480763
 20
20.7747271555
 10
-1.9637551604
 20
20.7695402679
 10
-1.9802050879
 20
20.7643210944
 10
-1.9962099845
 20
20.7590783868
 10
-2.0117496644
 20
20.7538314333
 10
-2.0268455508
 20
20.7485856105
 10
-2.0415672903
 20
20.74332796
 10
-2.055913434
 20
20.7380692814
 10
-2.0698785875
 20
20.7328219783
 10
-2.0835189075
 20
20.7275747442
 10
-2.0968170918
 20
20.7223436013
 10
-2.1097732061
 20
20.7171382255
 10
-2.1224594015
 20
20.7119385669
 10
-2.1348382124
 20
20.7067686915
 10
-2.1469104018
 20
20.7016376416
 10
-2.1587878565
 20
20.6965062761
 10
-2.1704243762
 20
20.6914027043
 10
-2.1817866555
 20
20.6863509642
 10
-2.2039804002
 20
20.6763110003
  0
LINE
  5
369
100
AcDbEntity
  8
DRAFT
100
AcDbLine
 62
7
  6
CONTINUOUS
 10
-5.9315504549
 20
21.2730723129
 11
-0.9818029865
 21
18.7981985787
  0
LINE
  5
36A
100
AcDbEntity
  8
RACCORDO
100
AcDbLine
 62
250
  6
CONTINUOUS
 10
-11.1246655038
 20
24.2147490928
 11
-9.504502614
 21
23.4046676479
  0
LINE
  5
36B
100
AcDbEntity
  8
RACCORDO
100
AcDbLine
 62
250
  6
CONTINUOUS
 10
2.2396526606
 20
17.5325900105
 11
3.8598155504
 21
16.7225085656
  0
LINE
  5
36C
100
AcDbEntity
  8
RACCORDO
100
AcDbLine
 62
7
  6
CONTINUOUS
 10
-11.0132460744
 20
24.2210167489
 11
-9.3943721243
 21
23.4115797739
  0
LINE
  5
36D
100
AcDbEntity
  8
RACCORDO
100
AcDbLine
 62
7
  6
CONTINUOUS
 10
2.3510720901
 20
17.5388576667
 11
3.9699460401
 21
16.7294206917
  0
LINE
  5
36E
100
AcDbEntity
  8
218
100
AcDbLine
 62
7
  6
CONTINUOUS
 10
-2.0425170062
 20
20.6333536953
 11
0.3323589938
 21
19.4459156953
  0
LINE
  5
36F
100
AcDbEntity
  8
218
100
AcDbLine
 62
250
  6
CONTINUOUS
 10
0.9601239985
 20
19.7553251478
 11
-1.0531034559
 21
20.7619252555
  0
LINE
  5
370
100
AcDbEntity
  8
218
100
AcDbLine
 62
7
  6
CONTINUOUS
 10
1.0084281368
 20
19.7791330327
 11
-0.9635695908
 21
20.7651318964
  0
LWPOLYLINE
  5
371
100
AcDbEntity
  8
RACCORDO
100
AcDbPolyline
 62
7
  6
CONTINUOUS
 90
20
 70
0
 10
9.2019759846
 20
18.2926201264
 10
9.200575833
 20
18.2947511911
 10
9.1988294067
 20
18.2970596385
 10
9.1967477968
 20
18.2995492776
 10
9.1943428323
 20
18.3022267204
 10
9.1916227405
 20
18.3050619364
 10
9.1885978092
 20
18.3080584627
 10
9.1852793079
 20
18.3112215409
 10
9.181675151
 20
18.3145235334
 10
9.1777952941
 20
18.3179675161
 10
9.1736506226
 20
18.3215577605
 10
9.1692493898
 20
18.3252682601
 10
9.1646010513
 20
18.329101852
 10
9.1597165974
 20
18.3330617256
 10
9.154606209
 20
18.3371221459
 10
9.1492793339
 20
18.3412853611
 10
9.1437471306
 20
18.3455537326
 10
9.1380226594
 20
18.3499012321
 10
9.132117476
 20
18.3543201143
 10
9.1198044244
 20
18.3634052038
  0
LINE
  5
372
100
AcDbEntity
  8
218
100
AcDbLine
 62
7
  6
CONTINUOUS
 10
10.7455753859
 20
16.1292028005
 11
9.6623801163
 21
17.9974382864
  0
LWPOLYLINE
  5
373
100
AcDbEntity
  8
218
100
AcDbPolyline
 62
7
  6
CONTINUOUS
 90
31
 70
0
 10
19.3103972999
 20
18.5674227189
 10
19.3101100081
 20
18.6019903543
 10
19.3089729369
 20
18.6444814544
 10
19.3069788607
 20
18.6870362594
 10
19.3041341089
 20
18.7296599803
 10
19.300446166
 20
18.7723321293
 10
19.2959259727
 20
18.8150031951
 10
19.2905814885
 20
18.8576670742
 10
19.2844199658
 20
18.9003160078
 10
19.2774559464
 20
18.9428958903
 10
19.2696980338
 20
18.9854001395
 10
19.2611537521
 20
19.0278221644
 10
19.2518414535
 20
19.0701062588
 10
19.2417706712
 20
19.1122436466
 10
19.2309490672
 20
19.1542300641
 10
19.2193968542
 20
19.1960151833
 10
19.2071260824
 20
19.2375827484
 10
19.1941427327
 20
19.2789362636
 10
19.1804599026
 20
19.3200537553
 10
19.1660866738
 20
19.3609255002
 10
19.1510295879
 20
19.4015479327
 10
19.1352981158
 20
19.44190699
 10
19.1188990252
 20
19.4819955472
 10
19.1018381656
 20
19.5218066504
 10
19.0841242662
 20
19.5613256075
 10
19.0657631633
 20
19.6005440911
 10
19.0467592121
 20
19.6394548248
 10
19.0271192071
 20
19.6780450595
 10
19.0068474963
 20
19.7163057273
 10
18.9859471869
 20
19.7542292513
 10
18.9684298563
 20
19.7849175055
  0
LINE
  5
374
100
AcDbEntity
  8
218
100
AcDbLine
 62
250
  6
CONTINUOUS
 10
19.0297980247
 20
-3.8896376901
 11
19.0297371111
 21
0.6891677921
  0
LINE
  5
375
100
AcDbEntity
  8
218
100
AcDbLine
 62
250
  6
CONTINUOUS
 10
19.0297371111
 20
2.4616366908
 11
19.0297371111
 21
12.6403183553
  0
LINE
  5
376
100
AcDbEntity
  8
218
100
AcDbLine
 62
250
  6
CONTINUOUS
 10
19.0297371111
 20
14.4127872727
 11
19.0297371111
 21
18.220185551
  0
LINE
  5
377
100
AcDbEntity
  8
218
100
AcDbLine
 62
7
  6
CONTINUOUS
 10
19.3103973108
 20
-3.5187584656
 11
19.3103973108
 21
0.4483330102
  0
LINE
  5
378
100
AcDbEntity
  8
218
100
AcDbLine
 62
7
  6
CONTINUOUS
 10
19.3103973108
 20
3.3971297881
 11
19.3103973108
 21
12.3994826469
  0
LINE
  5
379
100
AcDbEntity
  8
218
100
AcDbLine
 62
7
  6
CONTINUOUS
 10
19.3103973108
 20
15.3482815518
 11
19.3103973108
 21
18.5674352858
  0
LINE
  5
37A
100
AcDbEntity
  8
218
100
AcDbLine
 62
7
  6
CONTINUOUS
 10
19.3103973093
 20
15.3483877798
 11
19.3103973107
 21
15.3482822149
  0
LWPOLYLINE
  5
37B
100
AcDbEntity
  8
218
100
AcDbPolyline
 62
250
  6
CONTINUOUS
 90
57
 70
0
 10
19.3103973107
 20
3.3971301664
 10
19.3103434356
 20
3.3790530549
 10
19.3097180705
 20
3.3330122774
 10
19.3084592472
 20
3.2889586153
 10
19.3066378134
 20
3.2466504297
 10
19.3043205421
 20
3.206136962
 10
19.3015810578
 20
3.1675422467
 10
19.298476619
 20
3.1307474353
 10
19.2950298982
 20
3.0954365179
 10
19.2912834547
 20
3.0615951306
 10
19.2872822579
 20
3.0292388363
 10
19.2830260454
 20
2.9980974399
 10
19.2785385391
 20
2.9681284711
 10
19.2738548994
 20
2.9393742545
 10
19.2689749782
 20
2.9116928914
 10
19.2639081599
 20
2.8850212419
 10
19.2586883734
 20
2.8594215858
 10
19.2533475832
 20
2.8349401589
 10
19.2479196476
 20
2.811630645
 10
19.2424154761
 20
2.789435966
 10
19.2368300478
 20
2.7682361685
 10
19.2311852103
 20
2.7480432501
 10
19.2254933465
 20
2.7288418544
 10
19.2197273354
 20
2.7104722052
 10
19.2138906436
 20
2.6929047557
 10
19.2080024676
 20
2.6761668555
 10
19.2020530198
 20
2.6601852093
 10
19.1960322978
 20
2.6449172938
 10
19.1899675769
 20
2.6304038427
 10
19.1839056242
 20
2.6166960286
 10
19.1778618829
 20
2.6038149645
 10
19.1718429428
 20
2.5917356056
 10
19.165886016
 20
2.5804386184
 10
19.1600245269
 20
2.569962868
 10
19.1542483935
 20
2.5602641709
 10
19.1485284774
 20
2.5511987477
 10
19.1428830955
 20
2.5427681953
 10
19.1373104392
 20
2.5349668988
 10
19.1317455581
 20
2.5276419356
 10
19.1261806723
 20
2.5207657556
 10
19.1206318862
 20
2.5143641498
 10
19.115065253
 20
2.5083657813
 10
19.1094724815
 20
2.5027554035
 10
19.1038668334
 20
2.4975474612
 10
19.0982449157
 20
2.4927157479
 10
19.0926079955
 20
2.4882591876
 10
19.0869593614
 20
2.4841780455
 10
19.0812982859
 20
2.48044823
 10
19.0756286071
 20
2.4770701746
 10
19.0699506938
 20
2.474042621
 10
19.0642582096
 20
2.4713390719
 10
19.0585550021
 20
2.4689586001
 10
19.0528407433
 20
2.4669014643
 10
19.0471021136
 20
2.4651432326
 10
19.0413353211
 20
2.4636757401
 10
19.0355465751
 20
2.462506878
 10
19.0297371111
 20
2.4616364782
  0
LWPOLYLINE
  5
37C
100
AcDbEntity
  8
218
100
AcDbPolyline
 62
250
  6
CONTINUOUS
 90
57
 70
0
 10
19.3103973107
 20
15.3482822149
 10
19.3102975915
 20
15.3236926729
 10
19.3095737073
 20
15.2776863167
 10
19.3082308507
 20
15.2339300847
 10
19.3063439169
 20
15.1920621135
 10
19.3039698532
 20
15.151903468
 10
19.3011718196
 20
15.1134934841
 10
19.2980074726
 20
15.0767981497
 10
19.2944978196
 20
15.0415280382
 10
19.2906789541
 20
15.0076364211
 10
19.2865969473
 20
14.9751716151
 10
19.2822666874
 20
14.9439872536
 10
19.277716849
 20
14.9140636962
 10
19.2729822479
 20
14.8854198297
 10
19.2680762272
 20
14.8579674185
 10
19.2630248523
 20
14.8317077816
 10
19.257854116
 20
14.8066372106
 10
19.2525702287
 20
14.7826602785
 10
19.2471962726
 20
14.7597843248
 10
19.2417514489
 20
14.7379987779
 10
19.2362295023
 20
14.7171819981
 10
19.2306482279
 20
14.6973353374
 10
19.2250224432
 20
14.6784542241
 10
19.2193345933
 20
14.6604091386
 10
19.213591724
 20
14.6431817703
 10
19.2078103157
 20
14.6267878754
 10
19.2019817937
 20
14.6111499311
 10
19.1961068794
 20
14.5962470302
 10
19.1902033482
 20
14.5820978073
 10
19.1842866866
 20
14.5686842055
 10
19.1783653182
 20
14.5560092913
 10
19.1724490616
 20
14.544066995
 10
19.1665560886
 20
14.5328251927
 10
19.1606987777
 20
14.522292794
 10
19.1548825788
 20
14.5124572314
 10
19.1491153609
 20
14.5032539561
 10
19.1434235064
 20
14.4947041749
 10
19.1377971036
 20
14.4867827276
 10
19.1321866092
 20
14.4793563427
 10
19.1265921173
 20
14.4724076096
 10
19.1210230105
 20
14.4659518121
 10
19.1154392036
 20
14.4599061689
 10
19.1098315798
 20
14.4542531308
 10
19.1042145285
 20
14.4490093476
 10
19.0985810342
 20
14.4441440779
 10
19.0929316747
 20
14.4396550774
 10
19.08727045
 20
14.4355437808
 10
19.0815949146
 20
14.4317851428
 10
19.075908892
 20
14.4283792923
 10
19.0702126923
 20
14.425325316
 10
19.0644980806
 20
14.4225967853
 10
19.0587688092
 20
14.4201924894
 10
19.0530244681
 20
14.4181130609
 10
19.0472497483
 20
14.4163351713
 10
19.0414400792
 20
14.4148510826
 10
19.0356021649
 20
14.4136684077
 10
19.0297371111
 20
14.4127870504
  0
LINE
  5
37D
100
AcDbEntity
  8
218
100
AcDbLine
 62
250
  6
CONTINUOUS
 10
19.3103693581
 20
-3.5216359815
 11
19.3103973108
 21
-3.5187584656
  0
LWPOLYLINE
  5
37E
100
AcDbEntity
  8
218
100
AcDbPolyline
 62
250
  6
CONTINUOUS
 90
34
 70
0
 10
11.9399303165
 20
-16.6411975692
 10
11.9601048976
 20
-16.6225179373
 10
11.9797578303
 20
-16.6030540111
 10
11.9988799495
 20
-16.5828149072
 10
12.0174621783
 20
-16.5618102046
 10
12.0354955751
 20
-16.5400499728
 10
12.0529715643
 20
-16.5175446023
 10
12.0698817901
 20
-16.49430485
 10
12.0862182015
 20
-16.4703417614
 10
12.1019730922
 20
-16.4456666865
 10
12.1171389561
 20
-16.4202913713
 10
12.1317085528
 20
-16.3942279032
 10
12.1456749945
 20
-16.3674886364
 10
12.1590316421
 20
-16.3400862725
 10
12.1717721124
 20
-16.3120338749
 10
12.1838903401
 20
-16.2833448106
 10
12.1953805669
 20
-16.2540327257
 10
12.2062373184
 20
-16.2241115705
 10
12.216455411
 20
-16.1935956143
 10
12.2260299946
 20
-16.1624993914
 10
12.2349565245
 20
-16.1308376766
 10
12.2432307382
 20
-16.0986255103
 10
12.2508487229
 20
-16.0658782059
 10
12.2578068643
 20
-16.0326113374
 10
12.2641018151
 20
-15.998840712
 10
12.2697306195
 20
-15.9645823249
 10
12.2746906048
 20
-15.9298525146
 10
12.2789793317
 20
-15.8946679518
 10
12.2825947947
 20
-15.8590454615
 10
12.2855353197
 20
-15.8230018779
 10
12.2877994448
 20
-15.7865541932
 10
12.2893860907
 20
-15.7497196756
 10
12.2902945741
 20
-15.712515868
 10
12.2905245029
 20
-15.6749604427
  0
LWPOLYLINE
  5
37F
100
AcDbEntity
  8
218
100
AcDbPolyline
 62
250
  6
CONTINUOUS
 90
4
 70
0
 10
11.8763740273
 20
-16.6924435417
 10
11.8980548408
 20
-16.6761687522
 10
11.9192436452
 20
-16.6590840403
 10
11.9399303165
 20
-16.6411975692
  0
LWPOLYLINE
  5
380
100
AcDbEntity
  8
218
100
AcDbPolyline
 62
7
  6
CONTINUOUS
 90
40
 70
0
 10
11.9509527336
 20
-16.6460733399
 10
11.9705864189
 20
-16.631578011
 10
11.9986816154
 20
-16.6098829732
 10
12.0262846603
 20
-16.5874187461
 10
12.053367502
 20
-16.564202917
 10
12.0799170969
 20
-16.540241584
 10
12.1059347531
 20
-16.5155271731
 10
12.1314005464
 20
-16.4900710291
 10
12.1562951477
 20
-16.4638849248
 10
12.180619322
 20
-16.4369589564
 10
12.2043538425
 20
-16.4093040508
 10
12.2274788872
 20
-16.3809330591
 10
12.2499926472
 20
-16.351836192
 10
12.2718765657
 20
-16.3220235336
 10
12.2931106877
 20
-16.291508825
 10
12.3136896637
 20
-16.2602847243
 10
12.3335946096
 20
-16.2283627588
 10
12.3528071237
 20
-16.1957552349
 10
12.3713214639
 20
-16.1624530026
 10
12.3891180616
 20
-16.1284698635
 10
12.4061802314
 20
-16.0938153982
 10
12.4225048326
 20
-16.0584706052
 10
12.4380755719
 20
-16.0224406913
 10
12.4528715303
 20
-15.9857420367
 10
12.4668812467
 20
-15.948368852
 10
12.4800924113
 20
-15.9103142073
 10
12.4924805421
 20
-15.8716053596
 10
12.5040190231
 20
-15.8322859161
 10
12.5146938116
 20
-15.7923656228
 10
12.5244903163
 20
-15.7518559511
 10
12.5333875769
 20
-15.7108021642
 10
12.5413749432
 20
-15.6692125997
 10
12.5484407319
 20
-15.627099253
 10
12.5545688006
 20
-15.5845120399
 10
12.559751002
 20
-15.5414603221
 10
12.5639786781
 20
-15.4979541237
 10
12.567240841
 20
-15.4540429518
 10
12.5695306922
 20
-15.4097484302
 10
12.5708428896
 20
-15.3650673554
 10
12.571184693
 20
-15.3276323812
  0
LINE
  5
381
100
AcDbEntity
  8
218
100
AcDbLine
 62
7
  6
CONTINUOUS
 10
9.6623801163
 20
-18.1158210514
 11
10.7455753859
 21
-17.3307808351
  0
LINE
  5
382
100
AcDbEntity
  8
218
100
AcDbLine
 62
250
  6
CONTINUOUS
 10
11.6704194802
 20
-16.8417080434
 11
11.8763740273
 21
-16.6924435417
  0
LINE
  5
383
100
AcDbEntity
  8
218
100
AcDbLine
 62
7
  6
CONTINUOUS
 10
11.7449870743
 20
-16.7953459106
 11
11.9509416213
 21
-16.6460814089
  0
LWPOLYLINE
  5
384
100
AcDbEntity
  8
RACCORDO
100
AcDbPolyline
 62
7
  6
CONTINUOUS
 90
25
 70
0
 10
8.4557060148
 20
-19.1116188148
 10
8.4816224252
 20
-19.0967865982
 10
8.5081246618
 20
-19.0815196214
 10
8.5352127248
 20
-19.0658178845
 10
8.5629143812
 20
-19.0496687818
 10
8.5912018639
 20
-19.0330849189
 10
8.6199918718
 20
-19.016104113
 10
8.6492653909
 20
-18.9987375391
 10
8.6790414353
 20
-18.9809740221
 10
8.7092937463
 20
-18.9628178538
 10
8.7400361807
 20
-18.9442609568
 10
8.7712548817
 20
-18.9253114085
 10
8.8028820212
 20
-18.9059977321
 10
8.8349287559
 20
-18.8863130974
 10
8.867383929
 20
-18.8662643345
 10
8.9001462424
 20
-18.8459004578
 10
8.9332310165
 20
-18.8252116186
 10
8.9666229309
 20
-18.8042076654
 10
9.0001747263
 20
-18.7829671587
 10
9.0339060413
 20
-18.7614768728
 10
9.0677972373
 20
-18.7397500333
 10
9.101642139
 20
-18.7179048776
 10
9.1353720214
 20
-18.6959808179
 10
9.1690556095
 20
-18.6739384419
 10
9.2026929033
 20
-18.6517777497
  0
LWPOLYLINE
  5
385
100
AcDbEntity
  8
218
100
AcDbPolyline
 62
250
  6
CONTINUOUS
 90
4
 70
0
 10
11.6256315503
 20
-16.8696427374
 10
11.6407795487
 20
-16.8611714404
 10
11.6558099798
 20
-16.8518060568
 10
11.6704194802
 20
-16.8417080434
  0
LWPOLYLINE
  5
386
100
AcDbEntity
  8
218
100
AcDbPolyline
 62
250
  6
CONTINUOUS
 90
5
 70
0
 10
11.8763740273
 20
-16.6924435417
 10
11.8952105426
 20
-16.6820833339
 10
11.9136526594
 20
-16.6710950967
 10
11.9316866824
 20
-16.6594869902
 10
11.9509416213
 20
-16.6460814089
  0
LWPOLYLINE
  5
387
100
AcDbEntity
  8
218
100
AcDbPolyline
 62
250
  6
CONTINUOUS
 90
5
 70
0
 10
11.6704194802
 20
-16.8417080434
 10
11.6892559955
 20
-16.8313478356
 10
11.7076981122
 20
-16.8203595985
 10
11.7257321351
 20
-16.808751492
 10
11.7449870743
 20
-16.7953459106
  0
LWPOLYLINE
  5
388
100
AcDbEntity
  8
RACCORDO
100
AcDbPolyline
 62
7
  6
CONTINUOUS
 90
3
 70
0
 10
8.4557060148
 20
-19.1116188148
 10
8.4211215377
 20
-19.1304945124
 10
8.4059547577
 20
-19.1382592486
  0
LWPOLYLINE
  5
389
100
AcDbEntity
  8
218
100
AcDbPolyline
 62
250
  6
CONTINUOUS
 90
29
 70
0
 10
12.2905245029
 20
-15.6749604427
 10
12.3091856414
 20
-15.6650310998
 10
12.3272987364
 20
-15.6548512018
 10
12.3448503369
 20
-15.6444283086
 10
12.3618274091
 20
-15.6337701601
 10
12.3782173456
 20
-15.6228846712
 10
12.3940079753
 20
-15.6117799254
 10
12.4091875719
 20
-15.6004641693
 10
12.4237448629
 20
-15.588945806
 10
12.4376690381
 20
-15.5772333891
 10
12.4509497572
 20
-15.5653356162
 10
12.463577158
 20
-15.5532613228
 10
12.4755418633
 20
-15.5410194752
 10
12.4868349879
 20
-15.5286191644
 10
12.4974481456
 20
-15.5160695989
 10
12.507373455
 20
-15.503380098
 10
12.5166035455
 20
-15.4905600851
 10
12.5251315627
 20
-15.4776190803
 10
12.5329511738
 20
-15.4645666938
 10
12.5400565718
 20
-15.4514126182
 10
12.5464424802
 20
-15.4381666219
 10
12.5521041569
 20
-15.4248385415
 10
12.5570373973
 20
-15.4114382743
 10
12.5612385381
 20
-15.3979757717
 10
12.5647044595
 20
-15.3844610308
 10
12.5674325877
 20
-15.3709040878
 10
12.5694208967
 20
-15.3573150101
 10
12.5706679101
 20
-15.3437038892
 10
12.5711727017
 20
-15.3300808326
  0
LINE
  5
38A
100
AcDbEntity
  8
218
100
AcDbLine
 62
250
  6
CONTINUOUS
 10
11.6704194802
 20
-16.8417080434
 11
10.7455753859
 21
-17.3307808351
  0
LINE
  5
38B
100
AcDbEntity
  8
218
100
AcDbLine
 62
7
  6
CONTINUOUS
 10
11.6256315503
 20
-16.8696427374
 11
10.7238832836
 21
-17.3465020749
  0
LINE
  5
38C
100
AcDbEntity
  8
218
100
AcDbLine
 62
250
  6
CONTINUOUS
 10
4.4275638895
 20
-19.8169913852
 11
12.2905245029
 21
-15.6749604427
  0
LINE
  5
38D
100
AcDbEntity
  8
218
100
AcDbLine
 62
250
  6
CONTINUOUS
 10
4.4275638895
 20
-20.616309321
 11
11.8763740273
 21
-16.6924435417
  0
LINE
  5
38E
100
AcDbEntity
  8
218
100
AcDbLine
 62
7
  6
CONTINUOUS
 10
4.4275638895
 20
-20.8657222116
 11
9.6623801163
 21
-18.1158210514
  0
LINE
  5
38F
100
AcDbEntity
  8
RACCORDO
100
AcDbLine
 62
250
  6
CONTINUOUS
 10
4.4275638895
 20
-20.8957169676
 11
9.1198044244
 21
-18.5683310707
  0
LINE
  5
390
100
AcDbEntity
  8
RACCORDO
100
AcDbLine
 62
250
  6
CONTINUOUS
 10
4.4275638895
 20
-21.0175916954
 11
9.203955992
 21
-18.6484660006
  0
LINE
  5
391
100
AcDbEntity
  8
218
100
AcDbLine
 62
250
  6
CONTINUOUS
 10
-1.7175622193
 20
20.7684233137
 11
-1.707379674
 21
20.771271908
  0
LWPOLYLINE
  5
392
100
AcDbEntity
  8
218
100
AcDbPolyline
 62
250
  6
CONTINUOUS
 90
3
 70
0
 10
-1.707379674
 20
20.771271908
 10
-1.6970077728
 20
20.7740776824
 10
-1.6917507064
 20
20.7754639812
  0
LWPOLYLINE
  5
393
100
AcDbEntity
  8
218
100
AcDbPolyline
 62
250
  6
CONTINUOUS
 90
4
 70
0
 10
-1.6917507064
 20
20.7754639812
 10
-1.6810941111
 20
20.7781989664
 10
-1.675694582
 20
20.7795476527
 10
-1.6702477193
 20
20.7808822615
  0
LWPOLYLINE
  5
394
100
AcDbEntity
  8
218
100
AcDbPolyline
 62
250
  6
CONTINUOUS
 90
128
 70
0
 10
-1.6702477193
 20
20.7808822615
 10
-1.6592118413
 20
20.7835092824
 10
-1.65362326
 20
20.7848000889
 10
-1.6479875032
 20
20.7860752708
 10
-1.6423047709
 20
20.7873347876
 10
-1.636576022
 20
20.7885769297
 10
-1.6308010949
 20
20.7898017197
 10
-1.624980151
 20
20.7910091351
 10
-1.6191146335
 20
20.7921973996
 10
-1.6132047231
 20
20.7933664685
 10
-1.6072502391
 20
20.7945163864
 10
-1.6012520821
 20
20.7956455104
 10
-1.5952100204
 20
20.7967538773
 10
-1.5891242858
 20
20.7978414503
 10
-1.5829964742
 20
20.798906475
 10
-1.5768182673
 20
20.7999501258
 10
-1.5705979835
 20
20.8009712284
 10
-1.5643621731
 20
20.8019645062
 10
-1.5581144081
 20
20.8029290117
 10
-1.5518511167
 20
20.8038656924
 10
-1.5455881331
 20
20.8047721143
 10
-1.53932795
 20
20.8056477163
 10
-1.5330680747
 20
20.8064930595
 10
-1.5268168636
 20
20.807307393
 10
-1.5205754165
 20
20.8080904774
 10
-1.5143426335
 20
20.8088425521
 10
-1.508123571
 20
20.8095635849
 10
-1.5019186047
 20
20.8102534784
 10
-1.495727359
 20
20.8109123299
 10
-1.4895537626
 20
20.8115403995
 10
-1.4833982098
 20
20.8121376158
 10
-1.4772603064
 20
20.8127040503
 10
-1.4711427993
 20
20.8132401773
 10
-1.4650459643
 20
20.8137459598
 10
-1.4589695257
 20
20.8142214349
 10
-1.452915403
 20
20.8146671882
 10
-1.4468832194
 20
20.8150832297
 10
-1.4408733518
 20
20.8154695493
 10
-1.4348888507
 20
20.8158267029
 10
-1.4289299077
 20
20.8161546566
 10
-1.4229963312
 20
20.8164534442
 10
-1.4170905972
 20
20.816723723
 10
-1.4112128742
 20
20.8169654718
 10
-1.4053629936
 20
20.8171787118
 10
-1.3995429257
 20
20.8173641637
 10
-1.3937525917
 20
20.8175218172
 10
-1.3879920705
 20
20.8176516826
 10
-1.3822635686
 20
20.8177545117
 10
-1.3765670633
 20
20.8178302877
 10
-1.3709025774
 20
20.8178790273
 10
-1.3652723856
 20
20.817901532
 10
-1.3596766133
 20
20.8178977858
 10
-1.3541151351
 20
20.8178678047
 10
-1.3485898496
 20
20.8178124384
 10
-1.3431009492
 20
20.8177316804
 10
-1.3376482415
 20
20.8176255373
 10
-1.3322330482
 20
20.817494878
 10
-1.3268554241
 20
20.8173397001
 10
-1.3215153144
 20
20.8171600061
 10
-1.3162138763
 20
20.816956672
 10
-1.3109508271
 20
20.8167296739
 10
-1.3057264495
 20
20.8164790357
 10
-1.3005427492
 20
20.8162057058
 10
-1.2953999361
 20
20.8159096785
 10
-1.2902978004
 20
20.8155909594
 10
-1.2852377184
 20
20.8152505131
 10
-1.2802199028
 20
20.8148883472
 10
-1.2752441409
 20
20.8145044542
 10
-1.2703111711
 20
20.8140997759
 10
-1.2654210768
 20
20.8136743187
 10
-1.2605737746
 20
20.8132280763
 10
-1.2557697523
 20
20.8127619723
 10
-1.2510090623
 20
20.8122760128
 10
-1.2462916523
 20
20.8117701917
 10
-1.2416178534
 20
20.8112454144
 10
-1.2369877222
 20
20.8107016892
 10
-1.2324012023
 20
20.8101390078
 10
-1.227858455
 20
20.8095582496
 10
-1.2233595596
 20
20.8089594293
 10
-1.218904437
 20
20.8083425323
 10
-1.2144930109
 20
20.8077083943
 10
-1.2101253326
 20
20.8070570295
 10
-1.2058013508
 20
20.8063884239
 10
-1.2015208348
 20
20.8057033708
 10
-1.197283822
 20
20.8050018843
 10
-1.1930902749
 20
20.8042839504
 10
-1.1889398508
 20
20.803550321
 10
-1.1848325992
 20
20.8028010143
 10
-1.1807684704
 20
20.8020360121
 10
-1.1767469732
 20
20.8012560118
 10
-1.1727681441
 20
20.8004610316
 10
-1.1688319466
 20
20.7996510534
 10
-1.1649377788
 20
20.7988267197
 10
-1.1610856817
 20
20.797988052
 10
-1.1572756144
 20
20.7971350289
 10
-1.1535068524
 20
20.7962682275
 10
-1.1497794374
 20
20.7953876731
 10
-1.1460933276
 20
20.7944933405
 10
-1.1424476729
 20
20.7935857313
 10
-1.1388424893
 20
20.7926648672
 10
-1.1352777608
 20
20.7917307266
 10
-1.1317525882
 20
20.790783746
 10
-1.128266972
 20
20.7898239441
 10
-1.1248209118
 20
20.7888513022
 10
-1.1214135075
 20
20.7878662011
 10
-1.118044769
 20
20.7868686634
 10
-1.1147146865
 20
20.7858586665
 10
-1.1114223301
 20
20.784836524
 10
-1.1081677074
 20
20.7838022594
 10
-1.1049508109
 20
20.7827558491
 10
-1.1017706886
 20
20.7816975356
 10
-1.0986273325
 20
20.7806273391
 10
-1.0955207507
 20
20.7795452394
 10
-1.0924500154
 20
20.7784514186
 10
-1.0894151035
 20
20.7773458915
 10
-1.0864160381
 20
20.7762286434
 10
-1.0834519612
 20
20.7750998122
 10
-1.0805228372
 20
20.773959407
 10
-1.0776287017
 20
20.7728074186
 10
-1.0747688029
 20
20.7716439576
 10
-1.0719431153
 20
20.7704690342
 10
-1.0691516645
 20
20.7692826381
 10
-1.0663937759
 20
20.7680848486
 10
-1.063669437
 20
20.7668756839
 10
-1.0609786603
 20
20.7656551258
 10
-1.0583208087
 20
20.7644231989
 10
-1.0556956697
 20
20.7631799116
 10
-1.0531034559
 20
20.7619252555
  0
LWPOLYLINE
  5
395
100
AcDbEntity
  8
RACCORDO
100
AcDbPolyline
 62
7
  6
CONTINUOUS
 90
10
 70
0
 10
9.7791291379
 20
19.132909705
 10
9.7639888541
 20
19.1351428534
 10
9.7490824696
 20
19.1363045929
 10
9.7344099845
 20
19.1363949237
 10
9.7198452171
 20
19.1353895334
 10
9.705514349
 20
19.1333127343
 10
9.691795925
 20
19.1302374634
 10
9.6788161266
 20
19.126188033
 10
9.6664487723
 20
19.1211401308
 10
9.654693862
 20
19.1150937569
  0
LINE
  5
396
100
AcDbEntity
  8
RACCORDO
100
AcDbLine
 62
7
  6
CONTINUOUS
 10
12.7405405114
 20
18.5925257844
 11
12.4529645474
 21
18.6450012454
  0
LINE
  5
397
100
AcDbEntity
  8
RACCORDO
100
AcDbLine
 62
7
  6
CONTINUOUS
 10
11.5213838224
 20
18.8149915578
 11
9.7791678642
 21
19.1329026385
  0
LWPOLYLINE
  5
398
100
AcDbEntity
  8
RACCORDO
100
AcDbPolyline
 62
7
  6
CONTINUOUS
 90
13
 70
0
 10
8.4557060148
 20
19.3766378334
 10
8.4210552049
 20
19.3830675146
 10
8.3858509818
 20
19.3884506674
 10
8.3501311299
 20
19.3928128082
 10
8.313905813
 20
19.3962067313
 10
8.2772380749
 20
19.3986364811
 10
8.240241865
 20
19.4000477102
 10
8.2029548301
 20
19.4004578451
 10
8.1654038482
 20
19.3998939636
 10
8.1276831473
 20
19.3983019754
 10
8.0898437726
 20
19.3956728845
 10
8.0518945864
 20
19.3920509032
 10
8.0138651469
 20
19.3874561138
  0
LINE
  5
399
100
AcDbEntity
  8
RACCORDO
100
AcDbLine
 62
7
  6
CONTINUOUS
 10
-11.0996006979
 20
21.5077663295
 11
-11.72191873
 21
21.637706912
  0
LINE
  5
39A
100
AcDbEntity
  8
0
100
AcDbLine
 62
7
  6
CONTINUOUS
 10
1.5358727582
 20
20.0390971121
 11
-1.264645699
 21
21.4393563407
  0
LINE
  5
39B
100
AcDbEntity
  8
DRAFT
100
AcDbLine
 62
7
  6
CONTINUOUS
 10
-1.6181990896
 20
22.1686912253
 11
-1.264645699
 21
21.99191453
  0
LINE
  5
39C
100
AcDbEntity
  8
0
100
AcDbLine
 62
7
  6
CONTINUOUS
 10
2.9436884545
 20
20.7329737704
 11
0.1331388075
 21
22.1382485939
  0
LINE
  5
39D
100
AcDbEntity
  8
218
100
AcDbLine
 62
7
  6
CONTINUOUS
 10
9.1465441129
 20
18.2553562881
 11
9.6623801163
 21
17.9974382864
  0
LINE
  5
39E
100
AcDbEntity
  8
0
100
AcDbLine
 62
7
  6
CONTINUOUS
 10
1.4930707476
 20
22.2119967813
 11
3.7028116358
 21
21.1071263373
  0
LINE
  5
39F
100
AcDbEntity
  8
0
100
AcDbLine
 62
7
  6
CONTINUOUS
 10
4.4483964589
 20
20.7343339257
 11
4.5942098689
 21
20.6614272207
  0
LINE
  5
3A0
100
AcDbEntity
  8
RACCORDO
100
AcDbLine
 62
7
  6
CONTINUOUS
 10
-1.374386998
 20
23.9089693339
 11
-1.1939350209
 21
23.8187433453
  0
LINE
  5
3A1
100
AcDbEntity
  8
RACCORDO
100
AcDbLine
 62
7
  6
CONTINUOUS
 10
4.1800765161
 20
21.1317375768
 11
4.3605284933
 21
21.0415115883
  0
LWPOLYLINE
  5
3A2
100
AcDbEntity
  8
RACCORDO
100
AcDbPolyline
 62
7
  6
CONTINUOUS
 90
17
 70
0
 10
9.2026929033
 20
18.8953779498
 10
9.1690556095
 20
18.9314401003
 10
9.1353720214
 20
18.96607876
 10
9.101642139
 20
18.9992939288
 10
9.0677972373
 20
19.0311012328
 10
9.0339060413
 20
19.0614850459
 10
9.0001747263
 20
19.09039849
 10
8.9666229309
 20
19.1178176653
 10
8.9332310165
 20
19.1437664716
 10
8.9001462424
 20
19.1682697301
 10
8.867383929
 20
19.191313437
 10
8.8349287559
 20
19.2129115961
 10
8.8028820212
 20
19.2331310401
 10
8.7712548817
 20
19.2519649541
 10
8.7400361807
 20
19.269420153
 10
8.7092937463
 20
19.2855839146
 10
8.702143968
 20
19.2891988017
  0
LWPOLYLINE
  5
3A3
100
AcDbEntity
  8
218
100
AcDbPolyline
 62
250
  6
CONTINUOUS
 90
57
 70
0
 10
19.3103973108
 20
4.0977228599
 10
19.3186629959
 20
4.0713651529
 10
19.3308424947
 20
4.0292141886
 10
19.3422835859
 20
3.986053457
 10
19.3529647887
 20
3.94191107
 10
19.3628094411
 20
3.8968706608
 10
19.3718015478
 20
3.8509532334
 10
19.3799337573
 20
3.804137269
 10
19.387145431
 20
3.7564448717
 10
19.393442439
 20
3.707620426
 10
19.398791975
 20
3.657919524
 10
19.4030945904
 20
3.6081417237
 10
19.4063236804
 20
3.5583214443
 10
19.4085200567
 20
3.508446003
 10
19.4097198687
 20
3.4592610198
 10
19.4099184383
 20
3.4107789406
 10
19.4091660411
 20
3.3630189414
 10
19.407611168
 20
3.3167488704
 10
19.4052852768
 20
3.2721795518
 10
19.4022305852
 20
3.2291358953
 10
19.3986263679
 20
3.1878117467
 10
19.3945288699
 20
3.1483706813
 10
19.3899511096
 20
3.1106765337
 10
19.38500198
 20
3.0744713118
 10
19.3797232572
 20
3.0397763766
 10
19.374123146
 20
3.0065873597
 10
19.3682485894
 20
2.9746040496
 10
19.3621212434
 20
2.9437923226
 10
19.3557544695
 20
2.9141966142
 10
19.3491744232
 20
2.8856322046
 10
19.3423847308
 20
2.8580449556
 10
19.33540808
 20
2.8314956619
 10
19.3282954194
 20
2.8059710209
 10
19.3210599217
 20
2.7814819257
 10
19.3137112076
 20
2.7580224913
 10
19.3062930466
 20
2.7355538631
 10
19.2988317076
 20
2.7141185904
 10
19.2913195989
 20
2.6936778284
 10
19.2837470449
 20
2.6740701214
 10
19.2761211293
 20
2.6552816347
 10
19.2684480204
 20
2.6373285785
 10
19.2607140443
 20
2.6200940537
 10
19.2529072225
 20
2.6035403434
 10
19.245049285
 20
2.587706785
 10
19.2371757922
 20
2.5725918615
 10
19.2292746937
 20
2.5581821421
 10
19.2213659914
 20
2.5444924745
 10
19.2135327455
 20
2.5315638085
 10
19.2057961859
 20
2.519437322
 10
19.1981414089
 20
2.5080732515
 10
19.1905964539
 20
2.4973911136
 10
19.1831902163
 20
2.4874194606
 10
19.1758978652
 20
2.4781308806
 10
19.1686658002
 20
2.4693607295
 10
19.1614767603
 20
2.4610543277
 10
19.1543502341
 20
2.4532671055
 10
19.1472871813
 20
2.4459994436
  0
LINE
  5
3A4
100
AcDbEntity
  8
ASSI
100
AcDbLine
 62
7
  6
CONTINUOUS
 10
2.7658629537
 20
-24.2739757008
 11
1.9526901554
 21
-24.8028468313
  0
LINE
  5
3A5
100
AcDbEntity
  8
RACCORDO
100
AcDbLine
 62
250
  6
CONTINUOUS
 10
3.7204571083
 20
-23.9622530831
 11
4.4275638895
 21
-23.6011420033
  0
LINE
  5
3A6
100
AcDbEntity
  8
RACCORDO
100
AcDbLine
 62
250
  6
CONTINUOUS
 10
4.4275638895
 20
-21.1335219984
 11
8.4557060148
 21
-19.1116188148
  0
LINE
  5
3A7
100
AcDbEntity
  8
RACCORDO
100
AcDbLine
 62
7
  6
CONTINUOUS
 10
4.4275638895
 20
-21.1351900792
 11
8.4059474678
 21
-19.1382629172
  0
LWPOLYLINE
  5
3A8
100
AcDbEntity
  8
RACCORDO
100
AcDbPolyline
 62
250
  6
CONTINUOUS
 90
16
 70
0
 10
-5.4721382319
 20
-26.1401291599
 10
-5.5345395279
 20
-26.1639809717
 10
-5.6022272665
 20
-26.1845091909
 10
-5.674476194
 20
-26.2014938637
 10
-5.7505121851
 20
-26.2147530044
 10
-5.8295205369
 20
-26.2241445453
 10
-5.9106546989
 20
-26.229567859
 10
-5.9930453429
 20
-26.2309648362
 10
-6.0758096781
 20
-26.2283205088
 10
-6.1580609096
 20
-26.2216632099
 10
-6.2389177403
 20
-26.2110642705
 10
-6.3175138136
 20
-26.1966372551
 10
-6.3930069963
 20
-26.1785367449
 10
-6.4645884017
 20
-26.1569566815
 10
-6.5314910567
 20
-26.1321282888
 10
-6.5929981195
 20
-26.1043175954
  0
LINE
  5
3A9
100
AcDbEntity
  8
0
100
AcDbLine
 62
7
  6
CONTINUOUS
 10
0.1331388075
 20
22.1382485939
 11
1.4930707476
 21
22.2119967813
  0
LINE
  5
3AA
100
AcDbEntity
  8
0
100
AcDbLine
 62
7
  6
CONTINUOUS
 10
12.1692065484
 20
19.4898424746
 11
12.8267840176
 21
19.3698509415
  0
LINE
  5
3AB
100
AcDbEntity
  8
0
100
AcDbLine
 62
7
  6
CONTINUOUS
 10
4.1417796574
 20
22.4065047011
 11
3.692034996
 21
22.5282525342
  0
LWPOLYLINE
  5
3AC
100
AcDbEntity
  8
RACCORDO
100
AcDbPolyline
 62
7
  6
CONTINUOUS
 90
18
 70
0
 10
1.2331682436
 20
23.0236755334
 10
1.2136251916
 20
23.0327447877
 10
1.1907294114
 20
23.0417302024
 10
1.1672201251
 20
23.0492324352
 10
1.143078803
 20
23.055266605
 10
1.1183890497
 20
23.0598123894
 10
1.0931276234
 20
23.0628663728
 10
1.067317766
 20
23.0644319708
 10
1.0411128071
 20
23.0644991074
 10
1.0145288445
 20
23.0630603314
 10
0.9875497805
 20
23.0601230941
 10
0.9602806518
 20
23.0556996728
 10
0.9327064722
 20
23.0497812872
 10
0.9048422279
 20
23.0423767176
 10
0.8768379148
 20
23.033524583
 10
0.8487435316
 20
23.0232377563
 10
0.8205090796
 20
23.0115033646
 10
0.7921345588
 20
22.9983214078
  0
LWPOLYLINE
  5
3AD
100
AcDbEntity
  8
RACCORDO
100
AcDbPolyline
 62
7
  6
CONTINUOUS
 90
10
 70
0
 10
8.702143968
 20
19.2891988017
 10
8.6790414353
 20
19.3004517937
 10
8.6492653909
 20
19.3140282355
 10
8.6199918718
 20
19.3264138522
 10
8.5912018639
 20
19.3376156488
 10
8.5629143812
 20
19.3476266203
 10
8.5352127248
 20
19.3565263647
 10
8.5081246618
 20
19.3643414147
 10
8.4816224252
 20
19.3710452376
 10
8.4557060148
 20
19.3766378334
  0
LINE
  5
3AE
100
AcDbEntity
  8
RACCORDO
100
AcDbLine
 62
250
  6
CONTINUOUS
 10
-2.1869553421
 20
24.4878663583
 11
0.7921345588
 21
22.9983214078
  0
LINE
  5
3AF
100
AcDbEntity
  8
RACCORDO
100
AcDbLine
 62
250
  6
CONTINUOUS
 10
5.034775246
 20
20.8770010642
 11
8.0138651469
 21
19.3874561138
  0
LINE
  5
3B0
100
AcDbEntity
  8
RACCORDO
100
AcDbLine
 62
7
  6
CONTINUOUS
 10
-1.9931456812
 20
24.636832496
 11
1.2331775619
 21
23.0236708744
  0
LINE
  5
3B1
100
AcDbEntity
  8
RACCORDO
100
AcDbLine
 62
7
  6
CONTINUOUS
 10
5.475818249
 20
20.9023505308
 11
8.7021414922
 21
19.2891889093
  0
LINE
  5
3B2
100
AcDbEntity
  8
0
100
AcDbLine
 62
7
  6
CONTINUOUS
 10
3.19201446
 20
22.2832880554
 11
2.4900913091
 21
22.6342496309
  0
LINE
  5
3B3
100
AcDbEntity
  8
0
100
AcDbLine
 62
7
  6
CONTINUOUS
 10
3.692034996
 20
22.5282525342
 11
2.9850660559
 21
22.8817370043
  0
LINE
  5
3B4
100
AcDbEntity
  8
218
100
AcDbLine
 62
7
  6
CONTINUOUS
 10
9.8582995915
 20
19.9738731244
 11
10.2906138423
 21
19.7577159991
  0
LINE
  5
3B5
100
AcDbEntity
  8
218
100
AcDbLine
 62
7
  6
CONTINUOUS
 10
2.8659926398
 20
23.4700266003
 11
2.4336783891
 21
23.6861837257
  0
LINE
  5
3B6
100
AcDbEntity
  8
RACCORDO
100
AcDbLine
 62
7
  6
CONTINUOUS
 10
6.3954112753
 20
22.6442700815
 11
6.4123410369
 21
22.6357987432
  0
LWPOLYLINE
  5
3B7
100
AcDbEntity
  8
RACCORDO
100
AcDbPolyline
 62
7
  6
CONTINUOUS
 90
10
 70
0
 10
6.357467208
 20
22.6569377364
 10
6.2599901543
 20
22.7069931681
 10
6.1643769525
 20
22.7559690438
 10
6.0706276026
 20
22.8038653633
 10
5.9787565213
 20
22.8506835511
 10
5.8887492918
 20
22.8964221829
 10
5.8005626638
 20
22.9410769859
 10
5.7141822204
 20
22.984646536
 10
5.6296223785
 20
23.0271322575
 10
5.5468831379
 20
23.0685341502
  0
LINE
  5
3B8
100
AcDbEntity
  8
RACCORDO
100
AcDbLine
 62
7
  6
CONTINUOUS
 10
6.3652256367
 20
22.6523512644
 11
6.357467208
 21
22.6569377364
  0
LINE
  5
3B9
100
AcDbEntity
  8
RACCORDO
100
AcDbLine
 62
250
  6
CONTINUOUS
 10
6.3954112753
 20
22.6442700815
 11
6.4079446734
 21
22.6337905464
  0
LWPOLYLINE
  5
3BA
100
AcDbEntity
  8
RACCORDO
100
AcDbPolyline
 62
250
  6
CONTINUOUS
 90
3
 70
0
 10
6.3017746762
 20
22.637974073
 10
6.3246351056
 20
22.6183953396
 10
6.3407256144
 20
22.6038901765
  0
LINE
  5
3BB
100
AcDbEntity
  8
RACCORDO
100
AcDbLine
 62
7
  6
CONTINUOUS
 10
3.3315483787
 20
-25.8029699591
 11
3.8598155504
 21
-25.5319589004
  0
LINE
  5
3BC
100
AcDbEntity
  8
RACCORDO
100
AcDbLine
 62
7
  6
CONTINUOUS
 10
3.6304882905
 20
-24.1510656364
 11
4.3375950717
 21
-23.7899545566
  0
LINE
  5
3BD
100
AcDbEntity
  8
RACCORDO
100
AcDbLine
 62
7
  6
CONTINUOUS
 10
3.6304883148
 20
-24.1510656245
 11
3.6284807194
 21
-24.1520693307
  0
LINE
  5
3BE
100
AcDbEntity
  8
RACCORDO
100
AcDbLine
 62
250
  6
CONTINUOUS
 10
1.9526901554
 20
-24.8272423366
 11
3.7204571083
 21
-23.9622530831
  0
LINE
  5
3BF
100
AcDbEntity
  8
RACCORDO
100
AcDbLine
 62
7
  6
CONTINUOUS
 10
1.8607137174
 20
-25.0170586082
 11
3.6284806703
 21
-24.1520693548
  0
LINE
  5
3C0
100
AcDbEntity
  8
RACCORDO
100
AcDbLine
 62
7
  6
CONTINUOUS
 10
1.7302675879
 20
-26.5830045587
 11
3.3315483787
 21
-25.8029699591
  0
LINE
  5
3C1
100
AcDbEntity
  8
RACCORDO
100
AcDbLine
 62
250
  6
CONTINUOUS
 10
-5.0338297791
 20
-26.5584861696
 11
-1.001132021
 21
-25.250883906
  0
LINE
  5
3C2
100
AcDbEntity
  8
RACCORDO
100
AcDbLine
 62
7
  6
CONTINUOUS
 10
-1.3063191621
 20
-25.7242948476
 11
-5.3433347707
 21
-27.033296812
  0
LWPOLYLINE
  5
3C3
100
AcDbEntity
  8
RACCORDO
100
AcDbPolyline
 62
7
  6
CONTINUOUS
 90
9
 70
0
 10
5.5348424561
 20
23.0733519308
 10
5.5287257156
 20
23.0749514285
 10
5.5189555018
 20
23.0764842424
 10
5.5086293064
 20
23.0768996868
 10
5.4978421092
 20
23.0761979143
 10
5.4868788503
 20
23.0743793829
 10
5.4758345096
 20
23.0714442454
 10
5.4646141071
 20
23.067392349
 10
5.4532176428
 20
23.0622236938
  0
LWPOLYLINE
  5
3C4
100
AcDbEntity
  8
RACCORDO
100
AcDbPolyline
 62
7
  6
CONTINUOUS
 90
28
 70
0
 10
5.5348323199
 20
23.0733279784
 10
5.4261169733
 20
23.1046138241
 10
5.3112619304
 20
23.1339675012
 10
5.1940005064
 20
23.1602945713
 10
5.0746273416
 20
23.1835566631
 10
4.9534069699
 20
23.2037272159
 10
4.8305776005
 20
23.2207864912
 10
4.7064288031
 20
23.2347103327
 10
4.58124534
 20
23.2454810017
 10
4.4552648225
 20
23.2530884014
 10
4.3287784364
 20
23.2575217801
 10
4.2020757134
 20
23.2587763348
 10
4.075393968
 20
23.2568515617
 10
3.9490226982
 20
23.2517502267
 10
3.8232531076
 20
23.2434810146
 10
3.6983235083
 20
23.2320531391
 10
3.5745246336
 20
23.2174833069
 10
3.4521398813
 20
23.1997932853
 10
3.3313914451
 20
23.1789991099
 10
3.212556524
 20
23.1551275099
 10
3.0959207006
 20
23.1282124581
 10
2.9817091275
 20
23.0982776908
 10
2.8701939493
 20
23.0653605869
 10
2.7616477529
 20
23.0295039521
 10
2.6562808613
 20
22.9907323345
 10
2.5543340789
 20
22.9490795262
 10
2.4560879415
 20
22.9045987517
 10
2.3618038803
 20
22.8573413622
  0
LWPOLYLINE
  5
3C5
100
AcDbEntity
  8
RACCORDO
100
AcDbPolyline
 62
7
  6
CONTINUOUS
 90
3
 70
0
 10
5.5468831379
 20
23.0685341502
 10
5.5380349276
 20
23.0723013978
 10
5.5348424561
 20
23.0733519308
  0
LWPOLYLINE
  5
3C6
100
AcDbEntity
  8
218
100
AcDbPolyline
 62
7
  6
CONTINUOUS
 90
10
 70
0
 10
14.0335777779
 20
19.8128914006
 10
14.0696833975
 20
19.7971836758
 10
14.1052179999
 20
19.7811751883
 10
14.140181585
 20
19.7648659382
 10
14.1745843223
 20
19.7482508408
 10
14.2084160423
 20
19.7313349808
 10
14.241646237
 20
19.7141336122
 10
14.2742647372
 20
19.6966518196
 10
14.3062817122
 20
19.6788845185
 10
14.3376971619
 20
19.6608317087
  0
LWPOLYLINE
  5
3C7
100
AcDbEntity
  8
218
100
AcDbPolyline
 62
7
  6
CONTINUOUS
 90
10
 70
0
 10
6.6089565755
 20
23.5252020019
 10
6.6450621951
 20
23.509494277
 10
6.6805967975
 20
23.4934857895
 10
6.7155603826
 20
23.4771765394
 10
6.7499631198
 20
23.4605614421
 10
6.7837948398
 20
23.4436455821
 10
6.8170250346
 20
23.4264442134
 10
6.8496435348
 20
23.4089624209
 10
6.8816605097
 20
23.3911951197
 10
6.9130759594
 20
23.3731423099
  0
LWPOLYLINE
  5
3C8
100
AcDbEntity
  8
RACCORDO
100
AcDbPolyline
 62
7
  6
CONTINUOUS
 90
31
 70
0
 10
13.6351023887
 20
19.2864521172
 10
13.5336212142
 20
19.3371249728
 10
13.4275597263
 20
19.3845984784
 10
13.3172403986
 20
19.4288066486
 10
13.2029905954
 20
19.4696883833
 10
13.0851264717
 20
19.5071923778
 10
12.9639711206
 20
19.5412695889
 10
12.8398956997
 20
19.5718647512
 10
12.7132170847
 20
19.5989440606
 10
12.5842002391
 20
19.6224856129
 10
12.4531937849
 20
19.6424531383
 10
12.3205527292
 20
19.6588169196
 10
12.1865617668
 20
19.6715606142
 10
12.0515776079
 20
19.6806637393
 10
11.9159587963
 20
19.6861134284
 10
11.7799976861
 20
19.6879045301
 10
11.6440532561
 20
19.6860342822
 10
11.5084849117
 20
19.680507714
 10
11.3735853478
 20
19.671332288
 10
11.239710955
 20
19.658523075
 10
11.1072179308
 20
19.6421028829
 10
10.9763930432
 20
19.6220909019
 10
10.8475867386
 20
19.5985189253
 10
10.7211465164
 20
19.5714258501
 10
10.5973432592
 20
19.540838281
 10
10.4765112068
 20
19.506799543
 10
10.358992643
 20
19.4693622209
 10
10.2450513725
 20
19.4285576702
 10
10.1349863558
 20
19.3844278439
 10
10.0291436568
 20
19.3370379962
 10
9.927846439
 20
19.2864521172
  0
LINE
  5
3C9
100
AcDbEntity
  8
218
100
AcDbLine
 62
7
  6
CONTINUOUS
 10
6.4254187344
 20
23.6013110698
 11
7.0569500555
 21
23.2855454093
  0
LINE
  5
3CA
100
AcDbEntity
  8
218
100
AcDbLine
 62
7
  6
CONTINUOUS
 10
13.8500399369
 20
19.8890004686
 11
14.4815712579
 21
19.573234808
  0
LINE
  5
3CB
100
AcDbEntity
  8
218
100
AcDbLine
 62
7
  6
CONTINUOUS
 10
14.0335777779
 20
19.8128914006
 11
14.3376971619
 21
19.6608317087
  0
LINE
  5
3CC
100
AcDbEntity
  8
218
100
AcDbLine
 62
7
  6
CONTINUOUS
 10
6.9130759594
 20
23.3731423099
 11
6.6089565755
 21
23.5252020019
  0
LINE
  5
3CD
100
AcDbEntity
  8
0
100
AcDbLine
 62
7
  6
CONTINUOUS
 10
14.0920986605
 20
19.0454689468
 11
13.6351023887
 21
19.2864521172
  0
LWPOLYLINE
  5
3CE
100
AcDbEntity
  8
RACCORDO
100
AcDbPolyline
 62
250
  6
CONTINUOUS
 90
8
 70
0
 10
13.6351023887
 20
19.2864521172
 10
13.6607757351
 20
19.2727129005
 10
13.7415818127
 20
19.2266563819
 10
13.8155448373
 20
19.1802531344
 10
13.8831153897
 20
19.1336335005
 10
13.9443735273
 20
19.0871660883
 10
13.9995667941
 20
19.0411255936
 10
14.0282264526
 20
19.0148137294
  0
LWPOLYLINE
  5
3CF
100
AcDbEntity
  8
218
100
AcDbPolyline
 62
250
  6
CONTINUOUS
 90
57
 70
0
 10
19.3103973108
 20
16.0489133981
 10
19.3197383559
 20
16.0189340527
 10
19.3319369878
 20
15.9763996663
 10
19.3433810128
 20
15.932860705
 10
19.354052478
 20
15.8883236712
 10
19.3638845117
 20
15.8428012228
 10
19.3728774731
 20
15.7961873881
 10
19.3810018664
 20
15.748584473
 10
19.3881544477
 20
15.700323084
 10
19.3943196751
 20
15.6513391124
 10
19.3994992743
 20
15.6017043978
 10
19.4036362494
 20
15.5519648481
 10
19.4067157736
 20
15.502060375
 10
19.4087640635
 20
15.4520712977
 10
19.4098147013
 20
15.4027679148
 10
19.4098589716
 20
15.3541232454
 10
19.4089505608
 20
15.3061954741
 10
19.4072501242
 20
15.2598961599
 10
19.4047985073
 20
15.215541575
 10
19.4016350808
 20
15.1728532599
 10
19.3979324332
 20
15.1318553798
 10
19.393747033
 20
15.092670594
 10
19.3890895231
 20
15.0552026274
 10
19.3840544656
 20
15.0191438026
 10
19.3786729877
 20
14.9844622517
 10
19.3729609682
 20
14.9512058014
 10
19.3669794698
 20
14.9191829782
 10
19.3607474354
 20
14.8883682566
 10
19.3542817372
 20
14.8587975783
 10
19.3476343141
 20
14.8303699712
 10
19.3408221949
 20
14.8030854273
 10
19.3338571138
 20
14.7769511451
 10
19.3267792084
 20
14.7518760141
 10
19.3196049884
 20
14.7278694014
 10
19.3123407473
 20
14.704926934
 10
19.30500802
 20
14.6829361962
 10
19.2976214406
 20
14.6619040375
 10
19.2901837861
 20
14.6418270302
 10
19.2826958732
 20
14.6225767744
 10
19.27516503
 20
14.6041454361
 10
19.2675967703
 20
14.5865431615
 10
19.2599869088
 20
14.5696680998
 10
19.2523323147
 20
14.5535003554
 10
19.2446456722
 20
14.5380614565
 10
19.2369451093
 20
14.5233114686
 10
19.2292269824
 20
14.5092426922
 10
19.221502368
 20
14.4958641592
 10
19.2138106195
 20
14.4831609648
 10
19.2061571262
 20
14.4711443252
 10
19.1985421639
 20
14.4598042209
 10
19.1909966429
 20
14.4490938422
 10
19.1835338754
 20
14.4390289614
 10
19.1761444504
 20
14.4295948419
 10
19.1688244062
 20
14.4206987932
 10
19.1615731111
 20
14.41231016
 10
19.1543935465
 20
14.4044604005
 10
19.1472867091
 20
14.3971499127
  0
LWPOLYLINE
  5
3D0
100
AcDbEntity
  8
218
100
AcDbPolyline
 62
250
  6
CONTINUOUS
 90
26
 70
0
 10
18.4147133303
 20
20.4120175957
 10
18.4076640341
 20
20.4154506039
 10
18.3924113243
 20
20.4222710269
 10
18.3768426632
 20
20.4284187569
 10
18.3609696272
 20
20.4338892228
 10
18.344804019
 20
20.4386783568
 10
18.3283578588
 20
20.4427825979
 10
18.3116433756
 20
20.4461988943
 10
18.2946729976
 20
20.4489247057
 10
18.2774593436
 20
20.4509580054
 10
18.260015213
 20
20.4522972814
 10
18.2423535761
 20
20.4529415379
 10
18.2244875663
 20
20.4528902957
 10
18.2064304705
 20
20.4521435932
 10
18.1881957169
 20
20.4507019859
 10
18.1697968631
 20
20.4485665461
 10
18.1512475874
 20
20.4457388613
 10
18.1325616693
 20
20.4422210316
 10
18.1137530161
 20
20.4380156743
 10
18.0948356509
 20
20.4331259269
 10
18.0758236609
 20
20.4275554354
 10
18.056731163
 20
20.4213083411
 10
18.0375723312
 20
20.4143892844
 10
18.0183614035
 20
20.4068034084
 10
17.9991126721
 20
20.3985563577
 10
17.9798404497
 20
20.3896542661
  0
LWPOLYLINE
  5
3D1
100
AcDbEntity
  8
218
100
AcDbPolyline
 62
250
  6
CONTINUOUS
 90
24
 70
0
 10
4.8299723486
 20
26.9645883167
 10
4.8095535896
 20
26.9745717231
 10
4.7891416632
 20
26.9838090692
 10
4.7687538345
 20
26.9922925418
 10
4.7484073479
 20
27.0000149653
 10
4.7281194133
 20
27.006969808
 10
4.7079071905
 20
27.0131511871
 10
4.6877877758
 20
27.0185538743
 10
4.6677781866
 20
27.0231732999
 10
4.6478953477
 20
27.0270055566
 10
4.6281560765
 20
27.030047403
 10
4.608577069
 20
27.0322962662
 10
4.5891748857
 20
27.033750244
 10
4.5699659376
 20
27.0344081068
 10
4.550966472
 20
27.0342692979
 10
4.5321925593
 20
27.0333339348
 10
4.513660079
 20
27.0316028087
 10
4.4953847064
 20
27.0290773838
 10
4.4773818992
 20
27.0257597962
 10
4.4596668848
 20
27.021652852
 10
4.442254647
 20
27.0167600249
 10
4.4251599136
 20
27.0110854535
 10
4.4083971437
 20
27.0046339375
 10
4.3910875981
 20
26.9969912517
  0
LINE
  5
3D2
100
AcDbEntity
  8
218
100
AcDbLine
 62
7
  6
CONTINUOUS
 10
16.9391559797
 20
20.4119030158
 11
13.8303404089
 21
21.9663108011
  0
LINE
  5
3D3
100
AcDbEntity
  8
218
100
AcDbLine
 62
7
  6
CONTINUOUS
 10
9.5145347772
 20
24.124213617
 11
6.4057192065
 21
25.6786214024
  0
LINE
  5
3D4
100
AcDbEntity
  8
218
100
AcDbLine
 62
250
  6
CONTINUOUS
 10
17.4474425918
 20
20.6558531951
 11
17.9798404497
 21
20.3896542661
  0
LINE
  5
3D5
100
AcDbEntity
  8
218
100
AcDbLine
 62
250
  6
CONTINUOUS
 10
12.786991409
 20
22.9860787865
 11
10.0228213893
 21
24.3681637963
  0
LINE
  5
3D6
100
AcDbEntity
  8
218
100
AcDbLine
 62
250
  6
CONTINUOUS
 10
5.3623702065
 20
26.6983893877
 11
4.8299723486
 21
26.9645883167
  0
LINE
  5
3D7
100
AcDbEntity
  8
218
100
AcDbLine
 62
7
  6
CONTINUOUS
 10
17.7941487026
 20
20.7222999096
 11
18.4147133303
 21
20.4120175957
  0
LINE
  5
3D8
100
AcDbEntity
  8
218
100
AcDbLine
 62
7
  6
CONTINUOUS
 10
13.3100310593
 20
22.9643587312
 11
10.3695275001
 21
24.4346105108
  0
LINE
  5
3D9
100
AcDbEntity
  8
218
100
AcDbLine
 62
7
  6
CONTINUOUS
 10
5.8854098568
 20
26.6766693325
 11
5.2648452292
 21
26.9869516463
  0
LWPOLYLINE
  5
3DA
100
AcDbEntity
  8
218
100
AcDbPolyline
 62
7
  6
CONTINUOUS
 90
104
 70
0
 10
19.3103973108
 20
17.8679858042
 10
19.3231186555
 20
17.858730979
 10
19.3679402672
 20
17.8248626575
 10
19.4124241142
 20
17.7899877453
 10
19.4565817742
 20
17.7541029578
 10
19.5004123514
 20
17.7172127666
 10
19.5438841038
 20
17.679347433
 10
19.5869617243
 20
17.6405425964
 10
19.629624645
 20
17.6008225744
 10
19.6718623518
 20
17.5602027707
 10
19.7136548532
 20
17.5187078413
 10
19.7549809793
 20
17.4763645712
 10
19.7958317329
 20
17.433187787
 10
19.8362048547
 20
17.3891844105
 10
19.8760956784
 20
17.3443627281
 10
19.9154781509
 20
17.2987550513
 10
19.9543180763
 20
17.2524054292
 10
19.9925869746
 20
17.2053539646
 10
20.0302856011
 20
17.1576057229
 10
20.0674233384
 20
17.1091525614
 10
20.1039990407
 20
17.0599974219
 10
20.1399842363
 20
17.0101798475
 10
20.1753471876
 20
16.9597468075
 10
20.2100644753
 20
16.9087363654
 10
20.2441334982
 20
16.8571568907
 10
20.2775540702
 20
16.805011526
 10
20.3103180418
 20
16.7523144167
 10
20.3424067394
 20
16.6990968607
 10
20.3738038763
 20
16.6453876175
 10
20.4044952205
 20
16.5912130209
 10
20.4344701541
 20
16.5365936406
 10
20.4637181878
 20
16.4815499613
 10
20.4922267917
 20
16.4261066544
 10
20.5199847286
 20
16.3702864757
 10
20.5469834109
 20
16.3141070334
 10
20.573212072
 20
16.2575904387
 10
20.5986585548
 20
16.2007623519
 10
20.623312261
 20
16.1436456803
 10
20.6471627802
 20
16.0862633772
 10
20.6701989828
 20
16.0286407536
 10
20.6924096519
 20
15.970804275
 10
20.7137821177
 20
15.9127855809
 10
20.7343094683
 20
15.8546017285
 10
20.7539887919
 20
15.7962570782
 10
20.7728155711
 20
15.7377580175
 10
20.7907737475
 20
15.6791467531
 10
20.8078441749
 20
15.6204811993
 10
20.8240120457
 20
15.561811746
 10
20.8392775024
 20
15.5031369229
 10
20.8536437745
 20
15.4444365934
 10
20.8671079654
 20
15.3857069776
 10
20.8796540359
 20
15.3270007745
 10
20.8912657781
 20
15.2683820708
 10
20.9019326836
 20
15.2098979596
 10
20.9116532294
 20
15.1515495788
 10
20.9204256138
 20
15.0933315285
 10
20.9282447474
 20
15.0352512833
 10
20.935100973
 20
14.9773499005
 10
20.940985642
 20
14.9196717298
 10
20.9458930607
 20
14.862243121
 10
20.9498182453
 20
14.8050851726
 10
20.952755648
 20
14.7482331038
 10
20.954700797
 20
14.6917200607
 10
20.9556502945
 20
14.6355590931
 10
20.9556001614
 20
14.5797545474
 10
20.9545448482
 20
14.5242961183
 10
20.9524796615
 20
14.4692410869
 10
20.9494056449
 20
14.4146926422
 10
20.9453272193
 20
14.3607184623
 10
20.940242749
 20
14.3072912567
 10
20.9341453814
 20
14.2543703986
 10
20.9270231556
 20
14.2019135548
 10
20.9188805997
 20
14.1500085361
 10
20.9097399657
 20
14.0988064188
 10
20.8996197414
 20
14.0483848396
 10
20.888515293
 20
13.9986983388
 10
20.8764187228
 20
13.9497098817
 10
20.8633192072
 20
13.9013898045
 10
20.84923143
 20
13.853806162
 10
20.8341883317
 20
13.8070660377
 10
20.8182066434
 20
13.7612045557
 10
20.8012889006
 20
13.7162136827
 10
20.7834541864
 20
13.6721299124
 10
20.7647181702
 20
13.6289753197
 10
20.7450883531
 20
13.5867517264
 10
20.7245730645
 20
13.5454643311
 10
20.7031642026
 20
13.505089293
 10
20.6808919004
 20
13.4656764513
 10
20.6578290908
 20
13.4273354327
 10
20.6340361891
 20
13.3901330595
 10
20.609495363
 20
13.3540092341
 10
20.5841636618
 20
13.3188832148
 10
20.5580237374
 20
13.2847255056
 10
20.5311206558
 20
13.2515897242
 10
20.5035029864
 20
13.2195235865
 10
20.4752058228
 20
13.188551134
 10
20.4462337007
 20
13.1586610192
 10
20.4165924176
 20
13.1298460019
 10
20.3863043758
 20
13.1021158557
 10
20.355387132
 20
13.0754748009
 10
20.3238379185
 20
13.0499107299
 10
20.2916686182
 20
13.0254259164
 10
20.2589071155
 20
13.0020341927
 10
20.2255740973
 20
12.9797423474
  0
LWPOLYLINE
  5
3DB
100
AcDbEntity
  8
218
100
AcDbPolyline
 62
250
  6
CONTINUOUS
 90
105
 70
0
 10
19.3103973108
 20
17.7777371659
 10
19.3249400553
 20
17.7660339588
 10
19.3669951155
 20
17.731041254
 10
19.4088027466
 20
17.6950990801
 10
19.4503446821
 20
17.6582231406
 10
19.4916027781
 20
17.6204295421
 10
19.5325590244
 20
17.5817347829
 10
19.5731955419
 20
17.5421557552
 10
19.6134945869
 20
17.5017097407
 10
19.6534385627
 20
17.4604144003
 10
19.6930100308
 20
17.4182877624
 10
19.7321917163
 20
17.3753482168
 10
19.7709665065
 20
17.331614517
 10
19.8093174612
 20
17.2871057697
 10
19.847227827
 20
17.2418414197
 10
19.8846810587
 20
17.1958412223
 10
19.9216608177
 20
17.1491252448
 10
19.958150968
 20
17.1017138697
 10
19.9941355641
 20
17.0536278134
 10
20.0295988737
 20
17.0048880992
 10
20.0645253979
 20
16.9555160303
 10
20.0988999016
 20
16.9055331453
 10
20.1327073988
 20
16.8549612346
 10
20.1659331436
 20
16.8038223537
 10
20.1985626102
 20
16.7521388568
 10
20.2305815249
 20
16.699933353
 10
20.2619758899
 20
16.6472286686
 10
20.2927320161
 20
16.5940477878
 10
20.3228365018
 20
16.5404138838
 10
20.3522762191
 20
16.4863503411
 10
20.3810382934
 20
16.4318807991
 10
20.4091101379
 20
16.3770290949
 10
20.4364794782
 20
16.3218192164
 10
20.4631343835
 20
16.266275235
 10
20.4890632422
 20
16.2104213475
 10
20.5142547483
 20
16.1542819031
 10
20.5386978831
 20
16.0978814526
 10
20.5623819481
 20
16.0412446814
 10
20.5852965876
 20
15.984396359
 10
20.6074318138
 20
15.9273612697
 10
20.6287779839
 20
15.8701642593
 10
20.6493257896
 20
15.8128302639
 10
20.6690662429
 20
15.7553843564
 10
20.6879907048
 20
15.6978516766
 10
20.7060909021
 20
15.6402573827
 10
20.7233589447
 20
15.5826265866
 10
20.7397873086
 20
15.5249843997
 10
20.755368828
 20
15.4673559577
 10
20.7700966884
 20
15.4097664575
 10
20.7839644468
 20
15.3522410927
 10
20.7969660423
 20
15.294805011
 10
20.8090958063
 20
15.2374832621
 10
20.820348451
 20
15.1803008343
 10
20.8307190663
 20
15.123282672
 10
20.8402031183
 20
15.0664536966
 10
20.84879646
 20
15.0098387551
 10
20.8564953375
 20
14.9534625867
 10
20.8632963928
 20
14.8973497887
 10
20.8691966593
 20
14.8415248388
 10
20.8741935611
 20
14.7860121003
 10
20.8782849146
 20
14.7308358255
 10
20.881468932
 20
14.6760201213
 10
20.883744223
 20
14.6215889289
 10
20.8851097949
 20
14.567566009
 10
20.8855650516
 20
14.5139749457
 10
20.8851097944
 20
14.4608391396
 10
20.8837442219
 20
14.4081817921
 10
20.8814689303
 20
14.3560258911
 10
20.8782849123
 20
14.3043942046
 10
20.8741935583
 20
14.2533092834
 10
20.8691966558
 20
14.2027934471
 10
20.8632963888
 20
14.1528687641
 10
20.8564953329
 20
14.103557022
 10
20.8487964548
 20
14.0548797316
 10
20.8402031125
 20
14.0068581322
 10
20.8307190601
 20
13.9595132091
 10
20.8203484441
 20
13.9128656626
 10
20.8090957989
 20
13.86693588
 10
20.7969660343
 20
13.8217438954
 10
20.7839644382
 20
13.7773094098
 10
20.7700966793
 20
13.733651804
 10
20.7553688184
 20
13.6907901648
 10
20.7397872985
 20
13.6487432428
 10
20.7233589341
 20
13.6075294202
 10
20.7060908908
 20
13.5671666671
 10
20.687990693
 20
13.527672571
 10
20.6690662306
 20
13.4890643539
 10
20.6493257769
 20
13.4513589005
 10
20.6287779708
 20
13.4145727116
 10
20.6074318
 20
13.3787218717
 10
20.5852965732
 20
13.3438220089
 10
20.5623819331
 20
13.3098883266
 10
20.5386978677
 20
13.2769356213
 10
20.5142547328
 20
13.2449783065
 10
20.4890632262
 20
13.2140303691
 10
20.4631343669
 20
13.1841053407
 10
20.4364794609
 20
13.155216265
 10
20.40911012
 20
13.1273757274
 10
20.3810382752
 20
13.1005958685
 10
20.3522762009
 20
13.0748884019
 10
20.3228364833
 20
13.0502645774
 10
20.292731997
 20
13.0267351596
 10
20.26197587
 20
13.0043104055
 10
20.2305815044
 20
12.9830000866
 10
20.2255740978
 20
12.9797423477
  0
LWPOLYLINE
  5
3DC
100
AcDbEntity
  8
218
100
AcDbPolyline
 62
250
  6
CONTINUOUS
 90
34
 70
0
 10
18.9684298675
 20
19.784917512
 10
18.9674727324
 20
19.7861785851
 10
18.9656000022
 20
19.7875943465
 10
18.9630869398
 20
19.7886356394
 10
18.9599354112
 20
19.7893016908
 10
18.9561477569
 20
19.7895920059
 10
18.9517267895
 20
19.7895063693
 10
18.9466757921
 20
19.7890448443
 10
18.9409985156
 20
19.7882077739
 10
18.934699176
 20
19.7869957797
 10
18.9277824512
 20
19.7854097615
 10
18.9202534775
 20
19.7834508973
 10
18.9121178461
 20
19.7811206418
 10
18.9033815984
 20
19.7784207252
 10
18.8940512222
 20
19.7753531527
 10
18.8841336462
 20
19.7719202023
 10
18.8736362351
 20
19.7681244232
 10
18.8625667846
 20
19.7639686342
 10
18.8509335147
 20
19.7594559214
 10
18.8387450644
 20
19.7545896361
 10
18.826010485
 20
19.7493733918
 10
18.8127392332
 20
19.7438110623
 10
18.7989411643
 20
19.7379067782
 10
18.7846265248
 20
19.731664924
 10
18.7698059449
 20
19.7250901349
 10
18.7544904303
 20
19.7181872935
 10
18.7386913546
 20
19.7109615257
 10
18.7224204501
 20
19.7034181976
 10
18.7056897998
 20
19.6955629108
 10
18.6885118279
 20
19.6874014987
 10
18.6708992908
 20
19.678940022
 10
18.6528652677
 20
19.6701847642
 10
18.6344231509
 20
19.6611422271
 10
18.6155866355
 20
19.6518191257
  0
LWPOLYLINE
  5
3DD
100
AcDbEntity
  8
218
100
AcDbPolyline
 62
250
  6
CONTINUOUS
 90
34
 70
0
 10
18.8326075461
 20
20.0191763643
 10
18.8316503939
 20
20.0204374666
 10
18.8297776637
 20
20.0218532279
 10
18.8272646011
 20
20.0228945208
 10
18.8241130724
 20
20.0235605721
 10
18.820325418
 20
20.0238508872
 10
18.8159044505
 20
20.0237652504
 10
18.810853453
 20
20.0233037255
 10
18.8051761765
 20
20.022466655
 10
18.7988768367
 20
20.0212546607
 10
18.7919601118
 20
20.0196686425
 10
18.7844311381
 20
20.0177097782
 10
18.7762955066
 20
20.0153795226
 10
18.7675592589
 20
20.012679606
 10
18.7582288826
 20
20.0096120335
 10
18.7483113066
 20
20.006179083
 10
18.7378138955
 20
20.0023833038
 10
18.7267444449
 20
19.9982275148
 10
18.7151111751
 20
19.9937148021
 10
18.7029227248
 20
19.9888485167
 10
18.6901881454
 20
19.9836322725
 10
18.6769168936
 20
19.978069943
 10
18.6631188248
 20
19.9721656589
 10
18.6488041854
 20
19.9659238046
 10
18.6339836055
 20
19.9593490156
 10
18.6186680911
 20
19.9524461742
 10
18.6028690154
 20
19.9452204065
 10
18.5865981111
 20
19.9376770784
 10
18.5698674609
 20
19.9298217916
 10
18.5526894891
 20
19.9216603795
 10
18.5350769521
 20
19.9131989029
 10
18.5170429292
 20
19.9044436452
 10
18.4986008126
 20
19.8954011082
 10
18.4797642973
 20
19.8860780068
  0
LWPOLYLINE
  5
3DE
100
AcDbEntity
  8
218
100
AcDbPolyline
 62
250
  6
CONTINUOUS
 90
28
 70
0
 10
18.4797642973
 20
19.8860780068
 10
18.4651547968
 20
19.911072326
 10
18.4501243658
 20
19.9357338271
 10
18.4346857172
 20
19.9600416507
 10
18.4188519097
 20
19.9839752368
 10
18.4026363359
 20
20.0075143414
 10
18.3860527113
 20
20.0306390546
 10
18.3691150629
 20
20.053329817
 10
18.351837717
 20
20.0755674359
 10
18.3342352873
 20
20.0973331022
 10
18.3163226623
 20
20.1186084058
 10
18.2981149932
 20
20.1393753516
 10
18.2796276803
 20
20.1596163743
 10
18.260876361
 20
20.1793143534
 10
18.2418768954
 20
20.1984526278
 10
18.222645354
 20
20.2170150099
 10
18.2031980032
 20
20.2349857991
 10
18.1835512922
 20
20.2523497951
 10
18.1637218388
 20
20.269092311
 10
18.1437264152
 20
20.2851991856
 10
18.1235819342
 20
20.3006567951
 10
18.1033054344
 20
20.3154520651
 10
18.0829140664
 20
20.3295724814
 10
18.0624250777
 20
20.3430061005
 10
18.0418557985
 20
20.3557415598
 10
18.0212236268
 20
20.3677680874
 10
18.000546014
 20
20.3790755109
 10
17.9798404497
 20
20.3896542661
  0
LINE
  5
3DF
100
AcDbEntity
  8
218
100
AcDbLine
 62
250
  6
CONTINUOUS
 10
18.4797642973
 20
19.8860780068
 11
18.6155866355
 21
19.6518191257
  0
LINE
  5
3E0
100
AcDbEntity
  8
218
100
AcDbLine
 62
7
  6
CONTINUOUS
 10
18.8326075461
 20
20.0191763643
 11
18.9684298843
 21
19.7849174831
  0
LWPOLYLINE
  5
3E1
100
AcDbEntity
  8
218
100
AcDbPolyline
 62
250
  6
CONTINUOUS
 90
37
 70
0
 10
18.6155866355
 20
19.6518191257
 10
18.6372674432
 20
19.6140804541
 10
18.6584562434
 20
19.5760122067
 10
18.679142912
 20
19.5376324758
 10
18.6993174922
 20
19.4989595528
 10
18.7189704252
 20
19.4600117705
 10
18.7380925452
 20
19.4208074892
 10
18.7566747752
 20
19.3813652309
 10
18.7747081735
 20
19.3417038533
 10
18.7921841638
 20
19.30184239
 10
18.8090943895
 20
19.26179986
 10
18.8254308006
 20
19.2215952374
 10
18.8411856912
 20
19.181247621
 10
18.8563515556
 20
19.1407762009
 10
18.8709211533
 20
19.1002002219
 10
18.884887596
 20
19.0595389543
 10
18.8982442446
 20
19.0188117144
 10
18.9109847159
 20
18.9780379003
 10
18.9231029445
 20
18.9372369543
 10
18.9345931717
 20
18.8964282934
 10
18.9454499234
 20
18.8556313298
 10
18.9556680161
 20
18.814865507
 10
18.9652425998
 20
18.7741502582
 10
18.9741691297
 20
18.7335049268
 10
18.9824433434
 20
18.6929487875
 10
18.9900613284
 20
18.6525011498
 10
18.9970194702
 20
18.6121812632
 10
19.0033144213
 20
18.5720082385
 10
19.0089432262
 20
18.5320011475
 10
19.0139032118
 20
18.4921790966
 10
19.0181919389
 20
18.4525611314
 10
19.0218074019
 20
18.4131662366
 10
19.0247479269
 20
18.3740130534
 10
19.0270120522
 20
18.3351199567
 10
19.0285986984
 20
18.2965053857
 10
19.0295071821
 20
18.2581878306
 10
19.0297371111
 20
18.220185551
  0
ARC
  5
3E2
100
AcDbEntity
  8
218
100
AcDbCircle
 62
7
  6
CONTINUOUS
 10
4.8176316337
 20
26.0925244553
 40
1.0
100
AcDbArc
 50
63.4349373369
 51
115.2504241015
  0
ARC
  5
3E3
100
AcDbEntity
  8
218
100
AcDbCircle
 62
7
  6
CONTINUOUS
 10
17.9674997348
 20
19.5175904047
 40
1.0
100
AcDbArc
 50
30.1049818266
 51
63.4349150214
  0
ARC
  5
3E4
100
AcDbEntity
  8
218
100
AcDbCircle
 62
7
  6
CONTINUOUS
 10
18.3103973108
 20
-3.5187584656
 40
1.0
100
AcDbArc
 50
298.3477792501
 51
0.0000847913
  0
ARC
  5
3E5
100
AcDbEntity
  8
218
100
AcDbCircle
 62
7
  6
CONTINUOUS
 10
11.1581549177
 20
-15.9856373087
 40
1.0
100
AcDbArc
 50
297.8702635617
 51
305.9325291988
  0
ELLIPSE
  5
3E6
100
AcDbEntity
  8
RACCORDO
100
AcDbEllipse
 62
7
  6
CONTINUOUS
 10
-12.5123383611
 20
19.7237872379
 30
0.0
 11
-0.2714549605
 21
0.7527883138
 31
0.0
 40
0.6648474984
 41
-0.6093959365
 42
0.0216334957
  0
ELLIPSE
  5
3E7
100
AcDbEntity
  8
RACCORDO
100
AcDbEllipse
 62
7
  6
CONTINUOUS
 10
-1.5668841078
 20
-24.9677786556
 30
0.0
 11
-0.2714549605
 21
0.7527883138
 31
0.0
 40
0.6648474984
 41
-3.163226158
 42
-2.1804968498
  0
ELLIPSE
  5
3E8
100
AcDbEntity
  8
RACCORDO
100
AcDbEllipse
 62
7
  6
CONTINUOUS
 10
1.7710462793
 20
12.5820949176
 30
0.0
 11
-0.2711888907
 21
0.7526410468
 31
0.0
 40
0.6652277853
 41
-2.1799207184
 42
-0.6094289781
  0
ELLIPSE
  5
3E9
100
AcDbEntity
  8
RACCORDO
100
AcDbEllipse
 62
7
  6
CONTINUOUS
 10
0.1234686348
 20
-25.5620739559
 30
0.0
 11
0.110769438
 21
0.2241226716
 31
0.0
 40
0.6088015717
 41
-4.0304836828
 42
-3.1444065583
  0
ELLIPSE
  5
3EA
100
AcDbEntity
  8
RACCORDO
100
AcDbEllipse
 62
7
  6
CONTINUOUS
 10
-13.2408495296
 20
22.6730606594
 30
0.0
 11
0.110769438
 21
0.2241226716
 31
0.0
 40
0.6088015717
 41
-4.0304836828
 42
-3.144406558
  0
ELLIPSE
  5
3EB
100
AcDbEntity
  8
RACCORDO
100
AcDbEllipse
 62
7
  6
CONTINUOUS
 10
0.1234686348
 20
15.9909015772
 30
0.0
 11
0.110769438
 21
0.2241226716
 31
0.0
 40
0.6088015717
 41
-4.0304836828
 42
-3.144406558
  0
ELLIPSE
  5
3EC
100
AcDbEntity
  8
RACCORDO
100
AcDbEllipse
 62
7
  6
CONTINUOUS
 10
4.1800765161
 20
14.6991835281
 30
0.0
 11
-0.1565168911
 21
0.3130623908
 31
0.0
 40
0.6123677712
 41
-2.2554744912
 42
-0.6846781644
  0
ELLIPSE
  5
3ED
100
AcDbEntity
  8
RACCORDO
100
AcDbEllipse
 62
7
  6
CONTINUOUS
 10
4.1800765161
 20
-23.4773983166
 30
0.0
 11
-0.1565168911
 21
0.3130623908
 31
0.0
 40
0.6123677712
 41
-3.1363565269
 42
-2.2554744912
  0
ELLIPSE
  5
3EE
100
AcDbEntity
  8
RACCORDO
100
AcDbEllipse
 62
7
  6
CONTINUOUS
 10
-1.5865190324
 20
23.8044148333
 30
0.0
 11
0.2999991737
 21
-0.0014183462
 31
0.0
 40
0.4964289597
 41
0.7877451926
 42
2.3527237553
  0
ELLIPSE
  5
3EF
100
AcDbEntity
  8
RACCORDO
100
AcDbEllipse
 62
7
  6
CONTINUOUS
 10
3.9679444818
 20
21.0271830762
 30
0.0
 11
0.2999991737
 21
-0.0014183462
 31
0.0
 40
0.4964289597
 41
0.7877451926
 42
2.3585415194
  0
ELLIPSE
  5
3F0
100
AcDbEntity
  8
RACCORDO
100
AcDbEllipse
 62
7
  6
CONTINUOUS
 10
3.5072966173
 20
15.316754539
 30
0.0
 11
0.110769438
 21
0.2241226716
 31
0.0
 40
0.6088015717
 41
1.2055040732
 42
2.2526937431
  0
ELLIPSE
  5
3F1
100
AcDbEntity
  8
RACCORDO
100
AcDbEllipse
 62
7
  6
CONTINUOUS
 10
-9.8570215472
 20
21.9989136212
 30
0.0
 11
0.110769438
 21
0.2241226716
 31
0.0
 40
0.6088015717
 41
1.2055040732
 42
2.2526937431
  0
ELLIPSE
  5
3F2
100
AcDbEntity
  8
RACCORDO
100
AcDbEllipse
 62
7
  6
CONTINUOUS
 10
3.8587930944
 20
16.244559691
 30
0.0
 11
0.110769438
 21
0.2241226716
 31
0.0
 40
0.6088015717
 41
-1.9360885804
 42
-0.8888910292
  0
ELLIPSE
  5
3F3
100
AcDbEntity
  8
RACCORDO
100
AcDbEllipse
 62
7
  6
CONTINUOUS
 10
2.238618238
 20
17.3155760955
 30
0.0
 11
0.1128509832
 21
0.2230818409
 31
0.0
 40
0.6159267166
 41
0.0028868672
 42
0.6817883054
  0
ELLIPSE
  5
3F4
100
AcDbEntity
  8
RACCORDO
100
AcDbEllipse
 62
7
  6
CONTINUOUS
 10
0.1234686348
 20
16.244272971
 30
0.0
 11
0.110769438
 21
0.2241226716
 31
0.0
 40
0.6088015717
 41
0.6877230618
 42
2.2527016244
  0
ELLIPSE
  5
3F5
100
AcDbEntity
  8
RACCORDO
100
AcDbEllipse
 62
7
  6
CONTINUOUS
 10
-9.50552507
 20
22.9267187732
 30
0.0
 11
0.110769438
 21
0.2241226716
 31
0.0
 40
0.6088015717
 41
-1.9360885804
 42
-0.8888910292
  0
ELLIPSE
  5
3F6
100
AcDbEntity
  8
RACCORDO
100
AcDbEllipse
 62
7
  6
CONTINUOUS
 10
-11.1256999264
 20
23.9977351778
 30
0.0
 11
0.1128509832
 21
0.2230818409
 31
0.0
 40
0.6159267166
 41
0.0028868672
 42
0.6817883054
  0
ELLIPSE
  5
3F7
100
AcDbEntity
  8
RACCORDO
100
AcDbEllipse
 62
7
  6
CONTINUOUS
 10
-13.2408495296
 20
22.9264320532
 30
0.0
 11
0.110769438
 21
0.2241226716
 31
0.0
 40
0.6088015717
 41
0.6877230618
 42
2.2527016244
  0
ELLIPSE
  5
3F8
100
AcDbEntity
  8
RACCORDO
100
AcDbEllipse
 62
7
  6
CONTINUOUS
 10
3.8587930944
 20
-25.3159734248
 30
0.0
 11
0.110769438
 21
0.2241226716
 31
0.0
 40
0.6088015717
 41
-2.4538695918
 42
-0.8888910292
  0
ELLIPSE
  5
3F9
100
AcDbEntity
  8
RACCORDO
100
AcDbEllipse
 62
7
  6
CONTINUOUS
 10
0.1234686348
 20
-25.3087025622
 30
0.0
 11
0.110769438
 21
0.2241226716
 31
0.0
 40
0.6088015717
 41
1.2055040732
 42
2.2527016244
  0
ELLIPSE
  5
3FA
100
AcDbEntity
  8
RACCORDO
100
AcDbEllipse
 62
7
  6
CONTINUOUS
 10
3.8587930944
 20
-25.0550444484
 30
0.0
 11
0.110769438
 21
0.2241226716
 31
0.0
 40
0.6088015717
 41
5.394294278
 42
6.4414918292
  0
ELLIPSE
  5
3FB
100
AcDbEntity
  8
RACCORDO
100
AcDbEllipse
 62
7
  6
CONTINUOUS
 10
-9.50552507
 20
23.1876477496
 30
0.0
 11
0.110769438
 21
0.2241226716
 31
0.0
 40
0.6088015717
 41
5.394294278
 42
6.9592728406
  0
ELLIPSE
  5
3FC
100
AcDbEntity
  8
RACCORDO
100
AcDbEllipse
 62
7
  6
CONTINUOUS
 10
3.8587930944
 20
16.5054886674
 30
0.0
 11
0.110769438
 21
0.2241226716
 31
0.0
 40
0.6088015717
 41
5.394294278
 42
6.9592728406
  0
ELLIPSE
  5
3FD
100
AcDbEntity
  8
RACCORDO
100
AcDbEllipse
 62
7
  6
CONTINUOUS
 10
-1.4060670553
 20
22.4823546633
 30
0.0
 11
0.2999981629
 21
-0.0021225547
 31
0.0
 40
0.4946372042
 41
-0.7818985079
 42
0.0034996555
  0
ELLIPSE
  5
3FE
100
AcDbEntity
  8
RACCORDO
100
AcDbEllipse
 62
7
  6
CONTINUOUS
 10
4.1483964589
 20
19.7051229062
 30
0.0
 11
0.2999981629
 21
-0.0021225547
 31
0.0
 40
0.4946372042
 41
-0.7760807437
 42
0.0034996555
  0
ELLIPSE
  5
3FF
100
AcDbEntity
  8
RACCORDO
100
AcDbEllipse
 62
7
  6
CONTINUOUS
 10
-7.5550127827
 20
20.8842334653
 30
0.0
 11
0.2999991335
 21
0.0014318851
 31
0.0
 40
0.5035541159
 41
8.6427941204
 42
10.207772683
  0
ELLIPSE
  5
400
100
AcDbEntity
  8
RACCORDO
100
AcDbEllipse
 62
7
  6
CONTINUOUS
 10
1.705202782
 20
-24.7034986499
 30
0.0
 11
-0.1565168911
 21
0.3130623908
 31
0.0
 40
0.6123677712
 41
2.4569144891
 42
4.0277108159
  0
ELLIPSE
  5
401
100
AcDbEntity
  8
RACCORDO
100
AcDbEllipse
 62
7
  6
CONTINUOUS
 10
-13.5683036917
 20
21.087163364
 30
0.0
 11
-0.1565168911
 21
0.3130623908
 31
0.0
 40
0.6123677712
 41
-0.6846781644
 42
0.8861181623
  0
ELLIPSE
  5
402
100
AcDbEntity
  8
RACCORDO
100
AcDbEllipse
 62
7
  6
CONTINUOUS
 10
1.705202782
 20
13.4504101272
 30
0.0
 11
-0.1565168911
 21
0.3130623908
 31
0.0
 40
0.6123677712
 41
-2.2554744912
 42
-0.6846781644
  0
ELLIPSE
  5
403
100
AcDbEntity
  8
RACCORDO
100
AcDbEllipse
 62
7
  6
CONTINUOUS
 10
0.3186681874
 20
-9.5926930987
 30
0.0
 11
-0.1085782352
 21
0.1690527654
 31
0.0
 40
0.5459771812
 41
-3.2041463442
 42
-2.3138348679
  0
ELLIPSE
  5
404
100
AcDbEntity
  8
RACCORDO
100
AcDbEllipse
 62
7
  6
CONTINUOUS
 10
-1.7625037147
 20
17.9879789313
 30
0.0
 11
0.2999991335
 21
0.0014318851
 31
0.0
 40
0.5035541159
 41
-2.3585979313
 42
-0.7936193687
  0
ELLIPSE
  5
405
100
AcDbEntity
  8
RACCORDO
100
AcDbEllipse
 62
7
  6
CONTINUOUS
 10
-1.7625037147
 20
16.7737798555
 30
0.0
 11
0.2999980272
 21
0.0021530184
 31
0.0
 40
0.5053247124
 41
-2.3598210761
 42
-0.7948425135
  0
ELLIPSE
  5
406
100
AcDbEntity
  8
RACCORDO
100
AcDbEllipse
 62
7
  6
CONTINUOUS
 10
-7.5550127827
 20
19.6700343895
 30
0.0
 11
0.2999980272
 21
0.0021530184
 31
0.0
 40
0.5053247124
 41
3.1379660677
 42
3.9233642311
  0
ELLIPSE
  5
407
100
AcDbEntity
  8
RACCORDO
100
AcDbEllipse
 62
7
  6
CONTINUOUS
 10
4.1483964589
 20
20.9369570876
 30
0.0
 11
0.2999991737
 21
-0.0014183462
 31
0.0
 40
0.4964289597
 41
-0.77723337
 42
0.7877451926
  0
ELLIPSE
  5
408
100
AcDbEntity
  8
RACCORDO
100
AcDbEllipse
 62
7
  6
CONTINUOUS
 10
-1.4060670553
 20
23.7141888447
 30
0.0
 11
0.2999991737
 21
-0.0014183462
 31
0.0
 40
0.4964289597
 41
-0.7830511342
 42
0.7877451926
  0
ELLIPSE
  5
409
100
AcDbEntity
  8
RACCORDO
100
AcDbEllipse
 62
7
  6
CONTINUOUS
 10
3.5072966173
 20
-24.4828496004
 30
0.0
 11
0.110769438
 21
0.2241226716
 31
0.0
 40
0.6088015717
 41
2.2527095058
 42
3.2998991756
  0
ELLIPSE
  5
40A
100
AcDbEntity
  8
RACCORDO
100
AcDbEllipse
 62
7
  6
CONTINUOUS
 10
1.7313020105
 20
15.4403562831
 30
0.0
 11
0.1128509832
 21
0.2230818409
 31
0.0
 40
0.6159267166
 41
0.6934238338
 42
2.2584023964
  0
ELLIPSE
  5
40B
100
AcDbEntity
  8
RACCORDO
100
AcDbEllipse
 62
7
  6
CONTINUOUS
 10
1.7313020105
 20
15.1869848894
 30
0.0
 11
0.1128509832
 21
0.2230818409
 31
0.0
 40
0.6159267166
 41
-4.0247829108
 42
-2.9775853596
  0
ELLIPSE
  5
40C
100
AcDbEntity
  8
RACCORDO
100
AcDbEllipse
 62
7
  6
CONTINUOUS
 10
-11.633016154
 20
22.1225153654
 30
0.0
 11
0.1128509832
 21
0.2230818409
 31
0.0
 40
0.6159267166
 41
0.6934238338
 42
2.2584023964
  0
ELLIPSE
  5
40D
100
AcDbEntity
  8
RACCORDO
100
AcDbEllipse
 62
7
  6
CONTINUOUS
 10
-11.633016154
 20
21.8691439716
 30
0.0
 11
0.1128509832
 21
0.2230818409
 31
0.0
 40
0.6159267166
 41
-4.0247829108
 42
-2.9775853596
  0
ELLIPSE
  5
40E
100
AcDbEntity
  8
RACCORDO
100
AcDbEllipse
 62
7
  6
CONTINUOUS
 10
0.0529964758
 20
-19.261844283
 30
0.0
 11
-0.542618321
 21
0.8478124368
 31
0.0
 40
0.5451249042
 41
-3.2164266024
 42
-2.3115524019
  0
ELLIPSE
  5
40F
100
AcDbEntity
  8
RACCORDO
100
AcDbEllipse
 62
7
  6
CONTINUOUS
 10
1.7313020105
 20
-26.3659906437
 30
0.0
 11
0.1128509832
 21
0.2230818409
 31
0.0
 40
0.6159267166
 41
-4.0247829108
 42
-2.4598043482
  0
ELLIPSE
  5
410
100
AcDbEntity
  8
RACCORDO
100
AcDbEllipse
 62
7
  6
CONTINUOUS
 10
1.7313020105
 20
-26.11261925
 30
0.0
 11
0.1128509832
 21
0.2230818409
 31
0.0
 40
0.6159267166
 41
1.2112048452
 42
2.2584023964
  0
ELLIPSE
  5
411
100
AcDbEntity
  8
218
100
AcDbEllipse
 62
7
  6
CONTINUOUS
 10
4.1447211771
 20
22.5967100604
 30
0.0
 11
2.7499924258
 21
-0.0130015067
 31
0.0
 40
0.4964289597
 41
2.3672681657
 42
2.9293761837
  0
ELLIPSE
  5
412
100
AcDbEntity
  8
218
100
AcDbEllipse
 62
7
  6
CONTINUOUS
 10
11.5693423795
 20
18.8843994592
 30
0.0
 11
2.7499924258
 21
-0.0130015067
 31
0.0
 40
0.4964289597
 41
2.3672681657
 42
2.9293761949
  0
ELLIPSE
  5
413
100
AcDbEntity
  8
218
100
AcDbEllipse
 62
7
  6
CONTINUOUS
 10
12.2410938216
 20
18.7824760094
 30
0.0
 11
2.7583876426
 21
-0.0130411979
 31
0.0
 40
0.4964289597
 41
0.8884696282
 42
2.3585415194
  0
ELLIPSE
  5
414
100
AcDbEntity
  8
218
100
AcDbEllipse
 62
7
  6
CONTINUOUS
 10
12.2410938216
 20
18.7824760094
 30
0.0
 11
2.7583876426
 21
-0.0130411979
 31
0.0
 40
0.4964289597
 41
0.4412294433
 42
0.6870207571
  0
ELLIPSE
  5
415
100
AcDbEntity
  8
218
100
AcDbEllipse
 62
7
  6
CONTINUOUS
 10
4.8164726192
 20
22.4947866106
 30
0.0
 11
2.7583876426
 21
-0.0130411979
 31
0.0
 40
0.4964289597
 41
0.4412294433
 42
0.6870207571
  0
ELLIPSE
  5
416
100
AcDbEntity
  8
218
100
AcDbEllipse
 62
7
  6
CONTINUOUS
 10
4.8164726192
 20
22.4947866106
 30
0.0
 11
2.7583876426
 21
-0.0130411979
 31
0.0
 40
0.4964289597
 41
0.8884696282
 42
2.3585415194
  0
ELLIPSE
  5
417
100
AcDbEntity
  8
218
100
AcDbEllipse
 62
7
  6
CONTINUOUS
 10
17.0267925257
 20
19.9879440093
 30
0.0
 11
0.79574694
 21
0.7129684349
 31
0.0
 40
0.2882345029
 41
0.1134874791
 42
0.7807533904
  0
ELLIPSE
  5
418
100
AcDbEntity
  8
218
100
AcDbEllipse
 62
7
  6
CONTINUOUS
 10
9.6021713233
 20
23.7002546105
 30
0.0
 11
0.79574694
 21
0.7129684349
 31
0.0
 40
0.2882345029
 41
0.1134874791
 42
0.7807533904
  0
ELLIPSE
  5
419
100
AcDbEntity
  8
218
100
AcDbEllipse
 62
7
  6
CONTINUOUS
 10
13.1294044551
 20
21.9366380446
 30
0.0
 11
0.4410298232
 21
0.8975092442
 31
0.0
 40
0.607010042
 41
-0.8902711325
 42
-0.7587130969
  0
ELLIPSE
  5
41A
100
AcDbEntity
  8
218
100
AcDbEllipse
 62
7
  6
CONTINUOUS
 10
5.7047832527
 20
25.6489486458
 30
0.0
 11
0.4410298232
 21
0.8975092442
 31
0.0
 40
0.607010042
 41
-0.8902711325
 42
-0.7587130969
  0
ELLIPSE
  5
41B
100
AcDbEntity
  8
218
100
AcDbEllipse
 62
7
  6
CONTINUOUS
 10
-3.2251145985
 20
19.6540086822
 30
0.0
 11
1.2141619185
 21
0.9541526469
 31
0.0
 40
0.2329077568
 41
0.1095198182
 42
0.114024621
  0
ELLIPSE
  5
41C
100
AcDbEntity
  8
218
100
AcDbEllipse
 62
7
  6
CONTINUOUS
 10
5.7583388427
 20
25.6221708508
 30
0.0
 11
-0.3106730325
 21
1.1082908718
 31
0.0
 40
0.6760995073
 41
4.9783291412
 42
6.4001141399
  0
ELLIPSE
  5
41D
100
AcDbEntity
  8
218
100
AcDbEllipse
 62
7
  6
CONTINUOUS
 10
4.1211880888
 20
23.8239222959
 30
0.0
 11
3.3022643479
 21
-0.04629945
 31
0.0
 40
0.4892378494
 41
2.3616770883
 42
5.5059722822
  0
ELLIPSE
  5
41E
100
AcDbEntity
  8
218
100
AcDbEllipse
 62
7
  6
CONTINUOUS
 10
13.1829600452
 20
21.9098602495
 30
0.0
 11
-0.3106730325
 21
1.1082908718
 31
0.0
 40
0.6760995073
 41
4.9783291412
 42
6.4001141399
  0
ELLIPSE
  5
41F
100
AcDbEntity
  8
218
100
AcDbEllipse
 62
7
  6
CONTINUOUS
 10
12.2410938216
 20
20.762964122
 30
0.0
 11
2.7583515655
 21
-1.4175703156
 31
0.0
 40
0.0109499087
 41
-0.8804952881
 42
-0.85781018
  0
ELLIPSE
  5
420
100
AcDbEntity
  8
218
100
AcDbEllipse
 62
7
  6
CONTINUOUS
 10
4.8164726192
 20
24.4752747232
 30
0.0
 11
2.7583515655
 21
-1.4175703156
 31
0.0
 40
0.0109499087
 41
-0.7017315251
 42
-0.679046417
  0
ELLIPSE
  5
421
100
AcDbEntity
  8
218
100
AcDbEllipse
 62
7
  6
CONTINUOUS
 10
4.8164726192
 20
22.9277993125
 30
0.0
 11
2.7583876426
 21
-0.0130411979
 31
0.0
 40
0.4964289597
 41
0.1877225706
 42
2.3585415194
  0
ELLIPSE
  5
422
100
AcDbEntity
  8
218
100
AcDbEllipse
 62
7
  6
CONTINUOUS
 10
12.2410938216
 20
19.2154887113
 30
0.0
 11
2.7583876426
 21
-0.0130411979
 31
0.0
 40
0.4964289597
 41
0.1877225706
 42
2.3585415194
  0
ELLIPSE
  5
423
100
AcDbEntity
  8
218
100
AcDbEllipse
 62
7
  6
CONTINUOUS
 10
4.8164726192
 20
24.4752747232
 30
0.0
 11
2.7583515655
 21
-1.4175703156
 31
0.0
 40
0.0109499087
 41
-0.8804952881
 42
-0.85781018
  0
ELLIPSE
  5
424
100
AcDbEntity
  8
218
100
AcDbEllipse
 62
7
  6
CONTINUOUS
 10
12.2410938216
 20
20.762964122
 30
0.0
 11
2.7583515655
 21
-1.4175703156
 31
0.0
 40
0.0109499087
 41
-0.7017315251
 42
-0.679046417
  0
ELLIPSE
  5
425
100
AcDbEntity
  8
218
100
AcDbEllipse
 62
7
  6
CONTINUOUS
 10
11.5458092913
 20
20.1116116947
 30
0.0
 11
3.3022643479
 21
-0.04629945
 31
0.0
 40
0.4892378494
 41
2.3616770883
 42
5.5059722822
  0
ENDSEC
  0
SECTION
  2
OBJECTS
  0
DICTIONARY
  5
C
100
AcDbDictionary
280
0
281
1
  3
ACAD_GROUP
350
D
  3
ACAD_MLINESTYLE
350
17
  3
ACAD_LAYOUT
350
1A
  3
ACAD_PLOTSETTINGS
350
19
  3
ACAD_PLOTSTYLENAME
350
E
  0
DICTIONARY
  5
D
102
{ACAD_REACTORS
330
C
102
}
100
AcDbDictionary
280
0
281
1
  0
ACDBDICTIONARYWDFLT
  5
E
102
{ACAD_REACTORS
330
C
102
}
100
AcDbDictionary
281
1
  3
Normal
350
F
100
AcDbDictionaryWithDefault
340
F
  0
DICTIONARY
  5
17
102
{ACAD_REACTORS
330
C
102
}
100
AcDbDictionary
280
0
281
1
  3
Standard
350
18
  0
DICTIONARY
  5
19
102
{ACAD_REACTORS
330
C
102
}
100
AcDbDictionary
281
1
  0
DICTIONARY
  5
1A
102
{ACAD_REACTORS
330
C
102
}
100
AcDbDictionary
281
1
  3
Model
350
426
  3
Layout1
350
427
  0
ACDBPLACEHOLDER
  5
F
102
{ACAD_REACTORS
330
E
102
}
  0
MLINESTYLE
  5
18
102
{ACAD_REACTORS
330
17
102
}
100
AcDbMlineStyle
  2
STANDARD
 70
0
  3

 62
256
 51
90.0
 52
90.0
 71
2
 49
0.5
 62
256
  6
BYLAYER
 49
-0.5
 62
256
  6
BYLAYER
  0
LAYOUT
  5
426
102
{ACAD_REACTORS
330
1A
102
}
100
AcDbPlotSettings
  1

  2
none_device
  4
ISO_A4_(297.00_x_210.00_MM)
  6

 40
0.0
 41
0.0
 42
0.0
 43
0.0
 44
297.0
 45
210.0
 46
0.0
 47
0.0
 48
0.0
 49
0.0
140
0.0
141
0.0
142
1.0
143
1.0
 70
1024
 72
1
 73
0
 74
0
  7

 75
0
147
1.0
148
0.0
149
0.0
100
AcDbLayout
  1
Model
 70
0
 71
0
 10
0.0
 20
0.0
 11
297.0
 21
210.0
 12
0.0
 22
0.0
 32
0.0
 14
0.0
 24
0.0
 34
0.0
 15
0.0
 25
0.0
 35
0.0
146
0.0
 13
0.0
 23
0.0
 33
0.0
 16
1.0
 26
0.0
 36
0.0
 17
0.0
 27
1.0
 37
0.0
 76
0
330
21E
345
0
346
0
  0
LAYOUT
  5
427
102
{ACAD_REACTORS
330
1A
102
}
100
AcDbPlotSettings
  1

  2
none_device
  4
ISO_A4_(297.00_x_210.00_MM)
  6

 40
0.0
 41
0.0
 42
0.0
 43
0.0
 44
297.0
 45
210.0
 46
0.0
 47
0.0
 48
0.0
 49
0.0
140
0.0
141
0.0
142
1.0
143
1.0
 70
0
 72
1
 73
0
 74
0
  7

 75
0
147
1.0
148
0.0
149
0.0
100
AcDbLayout
  1
Layout1
 70
0
 71
1
 10
0.0
 20
0.0
 11
297.0
 21
210.0
 12
0.0
 22
0.0
 32
0.0
 14
0.0
 24
0.0
 34
0.0
 15
0.0
 25
0.0
 35
0.0
146
0.0
 13
0.0
 23
0.0
 33
0.0
 16
1.0
 26
0.0
 36
0.0
 17
0.0
 27
1.0
 37
0.0
 76
0
330
21F
345
0
346
0
  0
ENDSEC
  0
EOF
