  0
SECTION
  2
HEADER
  9
$ACADVER
  1
AC1015
  9
$DWGCODEPAGE
  3
ANSI_1252
  9
$EXTMAX
 10
297.0
 20
210.0
 30
0.0
  9
$EXTMIN
 10
0.0
 20
0.0
 30
0.0
  9
$LIMMIN
 10
0.0
 20
0.0
  9
$LIMMAX
 10
297.0
 20
210.0
  9
$VIEWCTR
 10
148.5
 20
105.0
  9
$VIEWSIZE
 40
210.0
  9
$CLAYER
  8
0
  9
$LTSCALE
 40
16.335
  9
$CELTYPE
  6
BYLAYER
  9
$DIMSCALE
 40
1.0
  9
$DIMASZ
 40
3.0
  9
$DIMEXO
 40
0.5
  9
$DIMDLI
 40
11.286
  9
$DIMEXE
 40
1.5
  9
$DIMCEN
 40
2.673
  9
$DIMLFAC
 40
1.0
  9
$DIMBLK
  1
_FILLED
  9
$DIMTXT
 40
3.0
  9
$DIMTOL
 70
1
  9
$DIMLIM
 70
0
  9
$DIMTFAC
 40
1.0
  9
$DIMTP
 40
0.01
  9
$DIMTM
 40
0.01
  9
$DIMGAP
 40
0.625
  9
$DIMDSEP
 70
44
  9
$PDMODE
 70
3
  9
$PDSIZE
 40
3.0
  9
$HANDSEED
  5
3C2
  9
$TILEMODE
 70
1
  9
$MEASUREMENT
 70
1
  9
$INSUNITS
 70
4
  0
ENDSEC
  0
SECTION
  2
CLASSES
  0
CLASS
  1
ACDBDICTIONARYWDFLT
  2
AcDbDictionaryWithDefault
  3
AutoCAD 2000
 90
0
280
0
281
0
  0
CLASS
  1
ACDBPLACEHOLDER
  2
AcDbPlaceHolder
  3
AutoCAD 2000
 90
0
280
0
281
0
  0
CLASS
  1
LAYOUT
  2
AcDbLayout
  3
AutoCAD 2000
 90
0
280
0
281
0
  0
ENDSEC
  0
SECTION
  2
TABLES
  0
TABLE
  2
VPORT
  5
8
100
AcDbSymbolTable
 70
2
  0
VPORT
  5
1F4
100
AcDbSymbolTableRecord
100
AcDbViewportTableRecord
  2
*ACTIVE
 70
0
 10
0.0
 20
0.0
 11
1.0
 21
1.0
 12
148.5
 22
105.0
 13
0.0
 23
0.0
 14
1.0
 24
1.0
 15
0.0
 25
0.0
 16
0.0
 26
0.0
 36
1.0
 17
0.0
 27
0.0
 37
0.0
 40
210.0
 41
1.4142857143
 42
50.0
 43
0.0
 44
0.0
 50
0.0
 51
0.0
 71
0
 72
100
 73
1
 74
1
 75
0
 76
0
 77
0
 78
0
  0
ENDTAB
  0
TABLE
  2
LTYPE
  5
5
100
AcDbSymbolTable
 70
6
  0
LTYPE
  5
14
100
AcDbSymbolTableRecord
100
AcDbLinetypeTableRecord
  2
BYBLOCK
 70
0
  3

 72
65
 73
0
 40
0.0
  0
LTYPE
  5
15
100
AcDbSymbolTableRecord
100
AcDbLinetypeTableRecord
  2
BYLAYER
 70
0
  3

 72
65
 73
0
 40
0.0
  0
LTYPE
  5
16
100
AcDbSymbolTableRecord
100
AcDbLinetypeTableRecord
  2
CONTINUOUS
 70
64
  3
Solid line
 72
65
 73
0
 40
0.0
  0
LTYPE
  5
1F5
100
AcDbSymbolTableRecord
100
AcDbLinetypeTableRecord
  2
CENTER
 70
64
  3
____ _ ____ _ ____ _ ____ _ ____ _ ____ _ ____
 72
65
 73
4
 40
0.6
 49
0.375
 74
0
 49
-0.075
 74
0
 49
0.075
 74
0
 49
-0.075
 74
0
  0
LTYPE
  5
1F6
100
AcDbSymbolTableRecord
100
AcDbLinetypeTableRecord
  2
HIDDEN
 70
64
  3
- - - - - - - - - - - - - - - - - - - -
 72
65
 73
2
 40
0.2
 49
0.1
 74
0
 49
-0.1
 74
0
  0
LTYPE
  5
1F7
100
AcDbSymbolTableRecord
100
AcDbLinetypeTableRecord
  2
PHANTOM
 70
64
  3
_____ _ _ _____ _ _ _____ _ _ _____
 72
65
 73
6
 40
0.8
 49
0.45
 74
0
 49
-0.05
 74
0
 49
0.1
 74
0
 49
-0.05
 74
0
 49
0.1
 74
0
 49
-0.05
 74
0
  0
LTYPE
  5
1F8
100
AcDbSymbolTableRecord
100
AcDbLinetypeTableRecord
  2
DOT
 70
64
  3
. . . . . . . . . . . . . . . . . . . .
 72
65
 73
2
 40
0.2
 49
0.1
 74
0
 49
-0.1
 74
0
  0
LTYPE
  5
1F9
100
AcDbSymbolTableRecord
100
AcDbLinetypeTableRecord
  2
DASHED
 70
64
  3
- - - - - - - - - - - - - - - - - - - -
 72
65
 73
2
 40
0.2
 49
0.1
 74
0
 49
-0.1
 74
0
  0
ENDTAB
  0
TABLE
  2
LAYER
  5
2
100
AcDbSymbolTable
 70
36
  0
LAYER
  5
10
100
AcDbSymbolTableRecord
100
AcDbLayerTableRecord
  2
0
 70
0
 62
7
  6
CONTINUOUS
370
-3
390
F
  0
LAYER
  5
1FA
100
AcDbSymbolTableRecord
100
AcDbLayerTableRecord
  2
DEFAULT_1
 70
0
 62
7
  6
CENTER
370
-3
390
F
  0
LAYER
  5
1FB
100
AcDbSymbolTableRecord
100
AcDbLayerTableRecord
  2
DEFAULT_2
 70
0
 62
7
  6
HIDDEN
370
-3
390
F
  0
LAYER
  5
1FC
100
AcDbSymbolTableRecord
100
AcDbLayerTableRecord
  2
DEFAULT_3
 70
0
 62
7
  6
PHANTOM
370
-3
390
F
  0
LAYER
  5
1FD
100
AcDbSymbolTableRecord
100
AcDbLayerTableRecord
  2
218
 70
0
 62
7
  6
CONTINUOUS
370
-3
390
F
  0
LAYER
  5
1FE
100
AcDbSymbolTableRecord
100
AcDbLayerTableRecord
  2
ASSI
 70
0
 62
7
  6
CONTINUOUS
370
-3
390
F
  0
LAYER
  5
1FF
100
AcDbSymbolTableRecord
100
AcDbLayerTableRecord
  2
COLORE_TOP
 70
0
 62
7
  6
CONTINUOUS
370
-3
390
F
  0
LAYER
  5
200
100
AcDbSymbolTableRecord
100
AcDbLayerTableRecord
  2
COORDINATE
 70
0
 62
7
  6
CONTINUOUS
370
-3
390
F
  0
LAYER
  5
201
100
AcDbSymbolTableRecord
100
AcDbLayerTableRecord
  2
COORD_ORIGINE
 70
0
 62
7
  6
CONTINUOUS
370
-3
390
F
  0
LAYER
  5
202
100
AcDbSymbolTableRecord
100
AcDbLayerTableRecord
  2
COPY-PUBBLISH
 70
0
 62
7
  6
CONTINUOUS
370
-3
390
F
  0
LAYER
  5
203
100
AcDbSymbolTableRecord
100
AcDbLayerTableRecord
  2
COSMETICHE
 70
0
 62
7
  6
CONTINUOUS
370
-3
390
F
  0
LAYER
  5
204
100
AcDbSymbolTableRecord
100
AcDbLayerTableRecord
  2
CURVE
 70
0
 62
7
  6
CONTINUOUS
370
-3
390
F
  0
LAYER
  5
205
100
AcDbSymbolTableRecord
100
AcDbLayerTableRecord
  2
DRAFT
 70
0
 62
7
  6
CONTINUOUS
370
-3
390
F
  0
LAYER
  5
206
100
AcDbSymbolTableRecord
100
AcDbLayerTableRecord
  2
IMPORT
 70
0
 62
7
  6
CONTINUOUS
370
-3
390
F
  0
LAYER
  5
207
100
AcDbSymbolTableRecord
100
AcDbLayerTableRecord
  2
IMPORTED
 70
0
 62
7
  6
CONTINUOUS
370
-3
390
F
  0
LAYER
  5
208
100
AcDbSymbolTableRecord
100
AcDbLayerTableRecord
  2
INTF_11
 70
0
 62
7
  6
CONTINUOUS
370
-3
390
F
  0
LAYER
  5
209
100
AcDbSymbolTableRecord
100
AcDbLayerTableRecord
  2
NOTE
 70
0
 62
7
  6
CONTINUOUS
370
-3
390
F
  0
LAYER
  5
20A
100
AcDbSymbolTableRecord
100
AcDbLayerTableRecord
  2
PIANI
 70
0
 62
7
  6
CONTINUOUS
370
-3
390
F
  0
LAYER
  5
20B
100
AcDbSymbolTableRecord
100
AcDbLayerTableRecord
  2
PIANI_DI_RIFERIMENTO
 70
0
 62
7
  6
CONTINUOUS
370
-3
390
F
  0
LAYER
  5
20C
100
AcDbSymbolTableRecord
100
AcDbLayerTableRecord
  2
PIANI_ORIGINE
 70
0
 62
7
  6
CONTINUOUS
370
-3
390
F
  0
LAYER
  5
20D
100
AcDbSymbolTableRecord
100
AcDbLayerTableRecord
  2
PIANI_RIFERIMENTO
 70
0
 62
7
  6
CONTINUOUS
370
-3
390
F
  0
LAYER
  5
20E
100
AcDbSymbolTableRecord
100
AcDbLayerTableRecord
  2
PIANI_SFORMO
 70
0
 62
7
  6
CONTINUOUS
370
-3
390
F
  0
LAYER
  5
20F
100
AcDbSymbolTableRecord
100
AcDbLayerTableRecord
  2
PUNTI
 70
0
 62
7
  6
CONTINUOUS
370
-3
390
F
  0
LAYER
  5
210
100
AcDbSymbolTableRecord
100
AcDbLayerTableRecord
  2
RACCORDO
 70
0
 62
7
  6
CONTINUOUS
370
-3
390
F
  0
LAYER
  5
211
100
AcDbSymbolTableRecord
100
AcDbLayerTableRecord
  2
RINTRACCIABILITA
 70
0
 62
7
  6
CONTINUOUS
370
-3
390
F
  0
LAYER
  5
212
100
AcDbSymbolTableRecord
100
AcDbLayerTableRecord
  2
SMUSSO
 70
0
 62
7
  6
CONTINUOUS
370
-3
390
F
  0
LAYER
  5
213
100
AcDbSymbolTableRecord
100
AcDbLayerTableRecord
  2
SNAPLINE
 70
0
 62
7
  6
CONTINUOUS
370
-3
390
F
  0
LAYER
  5
214
100
AcDbSymbolTableRecord
100
AcDbLayerTableRecord
  2
SUPERFICI
 70
0
 62
7
  6
CONTINUOUS
370
-3
390
F
  0
LAYER
  5
215
100
AcDbSymbolTableRecord
100
AcDbLayerTableRecord
  2
TRASH
 70
0
 62
7
  6
CONTINUOUS
370
-3
390
F
  0
LAYER
  5
216
100
AcDbSymbolTableRecord
100
AcDbLayerTableRecord
  2
XSEC_DATUMS
 70
0
 62
7
  6
CONTINUOUS
370
-3
390
F
  0
ENDTAB
  0
TABLE
  2
STYLE
  5
3
100
AcDbSymbolTable
 70
1
  0
STYLE
  5
11
100
AcDbSymbolTableRecord
100
AcDbTextStyleTableRecord
  2
STANDARD
 70
0
 40
0.0
 41
0.8
 50
0.0
 71
0
 42
0.2
  3
txt
  4

  0
STYLE
  5
217
100
AcDbSymbolTableRecord
100
AcDbTextStyleTableRecord
  2
TEXTSTYLE_1
 70
0
 40
0.0
 41
0.8
 50
0.0
 71
0
 42
0.2
  3
gdt
  4

  0
ENDTAB
  0
TABLE
  2
VIEW
  5
6
100
AcDbSymbolTable
 70
0
  0
ENDTAB
  0
TABLE
  2
UCS
  5
7
100
AcDbSymbolTable
 70
0
  0
ENDTAB
  0
TABLE
  2
APPID
  5
9
100
AcDbSymbolTable
 70
1
  0
APPID
  5
218
100
AcDbSymbolTableRecord
100
AcDbRegAppTableRecord
  2
ACAD
 70
0
  0
ENDTAB
  0
TABLE
  2
BLOCK_RECORD
  5
1
100
AcDbSymbolTable
 70
0
  0
BLOCK_RECORD
  5
219
100
AcDbSymbolTableRecord
100
AcDbBlockTableRecord
  2
*Model_Space
  0
BLOCK_RECORD
  5
21A
100
AcDbSymbolTableRecord
100
AcDbBlockTableRecord
  2
*Paper_Space
  0
ENDTAB
  0
TABLE
  2
DIMSTYLE
  5
A
100
AcDbSymbolTable
 70
1
100
AcDbDimStyleTable
 71
0
  0
DIMSTYLE
105
21B
100
AcDbSymbolTableRecord
100
AcDbDimStyleTableRecord
  2
STANDARD
 70
0
  3

  4

 40
1.0
 41
3.0
 42
0.5
 43
0.38
 44
1.5
 45
0.0
 46
0.0
 47
0.01
 48
0.01
140
3.0
141
0.09
142
0.0
143
25.4
144
1.0
145
0.0
146
1.0
147
0.625
 71
1.0
 72
0.0
 73
0
 74
0
 75
0
 76
0
 77
1
 78
8
170
0
171
2
172
0
173
0
174
0
175
0
176
0
177
0
178
0
270
2
271
2
272
2
273
2
274
2
275
0
280
0
281
0
282
0
283
1
284
8
285
0
286
0
287
3
288
0
340
11
278
44
  0
ENDTAB
  0
ENDSEC
  0
SECTION
  2
BLOCKS
  0
BLOCK
  5
20
100
AcDbEntity
  8
0
100
AcDbBlockBegin
  2
*Model_Space
 70
0
 10
0.0
 20
0.0
 30
0.0
  3
*Model_Space
  1

  0
ENDBLK
  5
21
100
AcDbEntity
  8
0
100
AcDbBlockEnd
  0
BLOCK
  5
1C
100
AcDbEntity
  8
0
100
AcDbBlockBegin
  2
*Paper_Space
 70
0
 10
0.0
 20
0.0
 30
0.0
  3
*Paper_Space
  1

  0
ENDBLK
  5
1D
100
AcDbEntity
  8
0
100
AcDbBlockEnd
  0
ENDSEC
  0
SECTION
  2
ENTITIES
  0
LINE
  5
21C
100
AcDbEntity
  8
RACCORDO
100
AcDbLine
 62
7
  6
CONTINUOUS
 10
-13.294106918
 20
24.3679606566
 11
-11.7113503148
 21
25.1799447539
  0
LINE
  5
21D
100
AcDbEntity
  8
RACCORDO
100
AcDbLine
 62
7
  6
CONTINUOUS
 10
-13.7780620303
 20
22.6252602545
 11
-12.7658397462
 21
23.1421902172
  0
LINE
  5
21E
100
AcDbEntity
  8
RACCORDO
100
AcDbLine
 62
7
  6
CONTINUOUS
 10
-11.7113503148
 20
25.1799447539
 11
-11.1769004361
 21
25.4402922205
  0
LWPOLYLINE
  5
21F
100
AcDbEntity
  8
RACCORDO
100
AcDbPolyline
 62
253
  6
CONTINUOUS
 90
14
 70
0
 10
-20.4506326439
 20
-18.7651881849
 10
-20.505534425
 20
-18.7325476822
 10
-20.5568294586
 20
-18.6934506776
 10
-20.6042735066
 20
-18.6480899016
 10
-20.6476553133
 20
-18.5966702133
 10
-20.6867636311
 20
-18.5394311189
 10
-20.7213897422
 20
-18.4766645395
 10
-20.7513574827
 20
-18.4086949228
 10
-20.7765153514
 20
-18.3358716861
 10
-20.7967423335
 20
-18.2585479188
 10
-20.8119453046
 20
-18.1770912961
 10
-20.8220486877
 20
-18.0918985863
 10
-20.8269976937
 20
-18.0033960928
 10
-20.8267659523
 20
-17.912021181
  0
LINE
  5
220
100
AcDbEntity
  8
RACCORDO
100
AcDbLine
 62
253
  6
CONTINUOUS
 10
-13.620538624
 20
22.615826925
 11
-12.7658397462
 21
23.0523115449
  0
LINE
  5
221
100
AcDbEntity
  8
DRAFT
100
AcDbLine
 62
7
  6
CONTINUOUS
 10
-11.1518356302
 20
22.0961398985
 11
-10.0850047181
 21
22.634721148
  0
LINE
  5
222
100
AcDbEntity
  8
RACCORDO
100
AcDbLine
 62
7
  6
CONTINUOUS
 10
-11.6862855089
 20
23.564049952
 11
-10.0850047181
 21
24.3667719555
  0
LINE
  5
223
100
AcDbEntity
  8
RACCORDO
100
AcDbLine
 62
7
  6
CONTINUOUS
 10
-10.0850047181
 20
24.3667719555
 11
-9.5567375463
 21
24.6302107756
  0
LWPOLYLINE
  5
224
100
AcDbEntity
  8
RACCORDO
100
AcDbPolyline
 62
7
  6
CONTINUOUS
 90
19
 70
0
 10
-17.0693872932
 20
20.2238556903
 10
-17.0861480817
 20
20.2165376922
 10
-17.1767633382
 20
20.17199613
 10
-17.2647637774
 20
20.1202976702
 10
-17.3501595427
 20
20.0614953443
 10
-17.4325771583
 20
19.9958999102
 10
-17.5112942083
 20
19.9242020517
 10
-17.5863473235
 20
19.8464714765
 10
-17.6575710802
 20
19.7629106923
 10
-17.7240711752
 20
19.6746106557
 10
-17.7858118532
 20
19.5817371797
 10
-17.8426498252
 20
19.4844683335
 10
-17.8937564338
 20
19.3842228262
 10
-17.9390751848
 20
19.2812505236
 10
-17.9784583941
 20
19.1757256594
 10
-18.0113402746
 20
19.0691202797
 10
-18.0375735762
 20
18.962019921
 10
-18.0571712822
 20
18.854176258
 10
-18.0616090445
 20
18.8226377498
  0
LINE
  5
225
100
AcDbEntity
  8
RACCORDO
100
AcDbLine
 62
7
  6
CONTINUOUS
 10
-17.0693902755
 20
20.2238626605
 11
-17.0693058875
 21
20.2238987896
  0
LINE
  5
226
100
AcDbEntity
  8
RACCORDO
100
AcDbLine
 62
7
  6
CONTINUOUS
 10
-17.0693058875
 20
20.2238987896
 11
-13.1119382896
 21
21.9175619499
  0
LINE
  5
227
100
AcDbEntity
  8
RACCORDO
100
AcDbLine
 62
253
  6
CONTINUOUS
 10
-16.7101565362
 20
20.201300796
 11
-12.7964622227
 21
21.8762727858
  0
LWPOLYLINE
  5
228
100
AcDbEntity
  8
RACCORDO
100
AcDbPolyline
 62
253
  6
CONTINUOUS
 90
8
 70
0
 10
-17.0693058875
 20
20.2238987896
 10
-17.0595588984
 20
20.2278999044
 10
-17.0061073617
 20
20.2442149863
 10
-16.9499019991
 20
20.2522566871
 10
-16.8915580718
 20
20.2519369771
 10
-16.8317142509
 20
20.2432593561
 10
-16.7710256264
 20
20.2263188149
 10
-16.7101565362
 20
20.201300796
  0
LWPOLYLINE
  5
229
100
AcDbEntity
  8
RACCORDO
100
AcDbPolyline
 62
7
  6
CONTINUOUS
 90
3
 70
0
 10
-2.1024310827
 20
25.8551320438
 10
-2.1149961025
 20
25.8504329929
 10
-2.1208788211
 20
25.847674701
  0
LWPOLYLINE
  5
22A
100
AcDbEntity
  8
RACCORDO
100
AcDbPolyline
 62
7
  6
CONTINUOUS
 90
10
 70
0
 10
-2.1024310827
 20
25.8551320438
 10
-2.0931914619
 20
25.8578778427
 10
-2.084628308
 20
25.8601435612
 10
-2.0767416211
 20
25.8619291993
 10
-2.0694922628
 20
25.8632556039
 10
-2.0629193715
 20
25.864101928
 10
-2.0571403621
 20
25.8644056307
 10
-2.052159405
 20
25.864166295
 10
-2.0479723297
 20
25.8633843378
 10
-2.0453826486
 20
25.8623879046
  0
LWPOLYLINE
  5
22B
100
AcDbEntity
  8
RACCORDO
100
AcDbPolyline
 62
7
  6
CONTINUOUS
 90
12
 70
0
 10
-6.1042757274
 20
-25.9384218262
 10
-6.078137845
 20
-25.9510817698
 10
-5.9962445498
 20
-25.9853667188
 10
-5.9113598714
 20
-26.0129589221
 10
-5.823915942
 20
-26.0336210741
 10
-5.7340719267
 20
-26.0471777627
 10
-5.6423578481
 20
-26.0534034464
 10
-5.5493797969
 20
-26.0521314078
 10
-5.4553103938
 20
-26.0432048498
 10
-5.3605236913
 20
-26.0264552913
 10
-5.2657099932
 20
-26.0018466046
 10
-5.2489931786
 20
-25.9966799446
  0
LINE
  5
22C
100
AcDbEntity
  8
RACCORDO
100
AcDbLine
 62
7
  6
CONTINUOUS
 10
-20.4434854696
 20
-18.7688275135
 11
-6.103306559
 21
-25.9389169689
  0
LINE
  5
22D
100
AcDbEntity
  8
RACCORDO
100
AcDbLine
 62
253
  6
CONTINUOUS
 10
-20.8267659523
 20
-17.912021181
 11
-6.4982856176
 21
-25.0762613484
  0
LINE
  5
22E
100
AcDbEntity
  8
RACCORDO
100
AcDbLine
 62
7
  6
CONTINUOUS
 10
-6.1041796306
 20
-25.938479586
 11
-6.1033485009
 21
-25.9388959979
  0
LINE
  5
22F
100
AcDbEntity
  8
RACCORDO
100
AcDbLine
 62
253
  6
CONTINUOUS
 10
-20.4434854696
 20
-18.7688275135
 11
-20.4506326439
 21
-18.7651881849
  0
LINE
  5
230
100
AcDbEntity
  8
RACCORDO
100
AcDbLine
 62
7
  6
CONTINUOUS
 10
-9.9971305988
 20
23.3675054609
 11
-9.4698858831
 21
24.0092131889
  0
LWPOLYLINE
  5
231
100
AcDbEntity
  8
RACCORDO
100
AcDbPolyline
 62
7
  6
CONTINUOUS
 90
12
 70
0
 10
-2.1208788211
 20
25.847674701
 10
-2.1271656125
 20
25.8443183274
 10
-2.1390200391
 20
25.8368140543
 10
-2.1506752191
 20
25.827941543
 10
-2.1621708139
 20
25.8177564325
 10
-2.1734621116
 20
25.8063253601
 10
-2.184607178
 20
25.7936783339
 10
-2.1956740574
 20
25.7798487978
 10
-2.2066201766
 20
25.7648792989
 10
-2.2174674777
 20
25.7487963718
 10
-2.2283059065
 20
25.7316281174
 10
-2.2391902744
 20
25.713409486
  0
LINE
  5
232
100
AcDbEntity
  8
RACCORDO
100
AcDbLine
 62
7
  6
CONTINUOUS
 10
-7.8206102867
 20
22.2152149581
 11
-7.3272882715
 21
22.46829849
  0
LINE
  5
233
100
AcDbEntity
  8
RACCORDO
100
AcDbLine
 62
7
  6
CONTINUOUS
 10
-8.6292237416
 20
22.6063797517
 11
-2.1211871149
 21
25.8475213572
  0
LINE
  5
234
100
AcDbEntity
  8
RACCORDO
100
AcDbLine
 62
253
  6
CONTINUOUS
 10
-8.5537306011
 20
22.5686331814
 11
-2.2391902744
 21
25.713409486
  0
LINE
  5
235
100
AcDbEntity
  8
RACCORDO
100
AcDbLine
 62
7
  6
CONTINUOUS
 10
-1.2461699532
 20
24.8336659552
 11
-5.9837853872
 21
22.4986154406
  0
LINE
  5
236
100
AcDbEntity
  8
RACCORDO
100
AcDbLine
 62
7
  6
CONTINUOUS
 10
-7.3272882715
 20
22.46829849
 11
-1.849648282
 21
25.1366304532
  0
LINE
  5
237
100
AcDbEntity
  8
RACCORDO
100
AcDbLine
 62
7
  6
CONTINUOUS
 10
3.8944322813
 20
-23.5975500327
 11
3.3671875656
 21
-23.4892577607
  0
LWPOLYLINE
  5
238
100
AcDbEntity
  8
RACCORDO
100
AcDbPolyline
 62
253
  6
CONTINUOUS
 90
9
 70
0
 10
-21.0610831718
 20
-17.6302019965
 10
-21.0594856834
 20
-17.6605813317
 10
-21.0499301157
 20
-17.6999290392
 10
-21.0320206396
 20
-17.7388006981
 10
-21.0059470093
 20
-17.7767844557
 10
-20.9719854797
 20
-17.8134778671
 10
-20.9304958798
 20
-17.8484921588
 10
-20.8819177995
 20
-17.8814563478
 10
-20.8267659329
 20
-17.9120211722
  0
LWPOLYLINE
  5
239
100
AcDbEntity
  8
RACCORDO
100
AcDbPolyline
 62
7
  6
CONTINUOUS
 90
15
 70
0
 10
-21.0610770623
 20
-17.6302021822
 10
-21.0618370372
 20
-17.6807001608
 10
-21.0571025254
 20
-17.7995244716
 10
-21.0432777967
 20
-17.9144108997
 10
-21.0205232574
 20
-18.0252551377
 10
-20.9890679116
 20
-18.1315308713
 10
-20.9494664792
 20
-18.2320274443
 10
-20.9024919527
 20
-18.3258566254
 10
-20.8485618117
 20
-18.4130905844
 10
-20.7880075819
 20
-18.4937010861
 10
-20.7217002085
 20
-18.567007463
 10
-20.6502098271
 20
-18.632890972
 10
-20.5732726179
 20
-18.6917943908
 10
-20.4911729988
 20
-18.7434219941
 10
-20.4425134692
 20
-18.7693019229
  0
LINE
  5
23A
100
AcDbEntity
  8
RACCORDO
100
AcDbLine
 62
7
  6
CONTINUOUS
 10
-21.0610780124
 20
-17.6300342734
 11
-21.0610831718
 21
-17.6302019965
  0
LWPOLYLINE
  5
23B
100
AcDbEntity
  8
RACCORDO
100
AcDbPolyline
 62
253
  6
CONTINUOUS
 90
13
 70
0
 10
-20.8267659523
 20
-17.912021181
 10
-20.7208206521
 20
-14.9331250022
 10
-20.5885869565
 20
-11.9419769381
 10
-20.4300813103
 20
-8.9389582587
 10
-20.245323463
 20
-5.9244518061
 10
-20.0343368636
 20
-2.898841632
 10
-19.7971486545
 20
0.137487052
 10
-19.5337892776
 20
3.1841475357
 10
-19.2442920597
 20
6.2407515681
 10
-18.9286936008
 20
9.3069097221
 10
-18.5870341902
 20
12.3822314588
 10
-18.2193578045
 20
15.466325176
 10
-17.8257116867
 20
18.5587981691
  0
LWPOLYLINE
  5
23C
100
AcDbEntity
  8
RACCORDO
100
AcDbPolyline
 62
253
  6
CONTINUOUS
 90
10
 70
0
 10
-18.0616090445
 20
18.8226377498
 10
-18.0622417157
 20
18.8166030544
 10
-18.0605502378
 20
18.7843694655
 10
-18.0504660017
 20
18.7514386996
 10
-18.0320958504
 20
18.7181596596
 10
-18.0056344164
 20
18.6848849383
 10
-17.9713620596
 20
18.651967083
 10
-17.9296418972
 20
18.6197548598
 10
-17.8809159561
 20
18.5885895585
 10
-17.8257004896
 20
18.5588013769
  0
LWPOLYLINE
  5
23D
100
AcDbEntity
  8
RACCORDO
100
AcDbPolyline
 62
7
  6
CONTINUOUS
 90
13
 70
0
 10
-18.0616072202
 20
18.822718815
 10
-18.4480976659
 20
15.7881078938
 10
-18.8173712335
 20
12.6939433438
 10
-19.1604565385
 20
9.6085277349
 10
-19.4773009387
 20
6.5323021499
 10
-19.7678656528
 20
3.4656541958
 10
-20.0321156324
 20
0.4089510536
 10
-20.2700155563
 20
-2.6374256556
 10
-20.4815354713
 20
-5.6730966735
 10
-20.6666475481
 20
-8.6976981757
 10
-20.825324488
 20
-11.7108470243
 10
-20.9575446553
 20
-14.7121138689
 10
-21.0610780124
 20
-17.6300342734
  0
LWPOLYLINE
  5
23E
100
AcDbEntity
  8
RACCORDO
100
AcDbPolyline
 62
253
  6
CONTINUOUS
 90
22
 70
0
 10
-17.8257116867
 20
18.5587981691
 10
-17.8104331128
 20
18.6559210158
 10
-17.7901259152
 20
18.7540707062
 10
-17.7648920711
 20
18.8527622041
 10
-17.7348612784
 20
18.951504557
 10
-17.7001814642
 20
19.0498139177
 10
-17.6610159918
 20
19.1472156436
 10
-17.6175544859
 20
19.2432414316
 10
-17.5700169177
 20
19.3374042859
 10
-17.5186455759
 20
19.4292130204
 10
-17.4637111786
 20
19.5181991407
 10
-17.4054793399
 20
19.60394438
 10
-17.344210694
 20
19.6860522499
 10
-17.280196812
 20
19.7641328623
 10
-17.2137682589
 20
19.8377815741
 10
-17.1452635294
 20
19.9066093804
 10
-17.0750365808
 20
19.9702703447
 10
-17.0034289947
 20
20.0284635115
 10
-16.9307747456
 20
20.0809068063
 10
-16.8574289197
 20
20.1273420617
 10
-16.7837666036
 20
20.1675394166
 10
-16.7101565362
 20
20.201300796
  0
LINE
  5
23F
100
AcDbEntity
  8
0
100
AcDbLine
 62
7
  6
CONTINUOUS
 10
0.0809038751
 20
23.3637917216
 11
-1.3168806314
 21
22.6648994684
  0
LWPOLYLINE
  5
240
100
AcDbEntity
  8
218
100
AcDbPolyline
 62
7
  6
CONTINUOUS
 90
6
 70
0
 10
-2.3069425452
 20
21.8784650991
 10
-2.3156487771
 20
21.8741161638
 10
-2.3237505382
 20
21.8694372451
 10
-2.3315678125
 20
21.8642797498
 10
-2.3390950957
 20
21.858647788
 10
-2.3449770873
 20
21.8537385967
  0
LINE
  5
241
100
AcDbEntity
  8
RACCORDO
100
AcDbLine
 62
7
  6
CONTINUOUS
 10
-1.670434022
 20
23.394234353
 11
-1.2461699532
 21
23.6018317738
  0
LINE
  5
242
100
AcDbEntity
  8
RACCORDO
100
AcDbLine
 62
7
  6
CONTINUOUS
 10
0.7398996265
 20
24.2238645355
 11
-1.3168806314
 21
23.2174576577
  0
LINE
  5
243
100
AcDbEntity
  8
218
100
AcDbLine
 62
253
  6
CONTINUOUS
 10
-2.0360415825
 20
21.8862012347
 11
-1.9819540681
 21
21.9122704542
  0
LINE
  5
244
100
AcDbEntity
  8
218
100
AcDbLine
 62
253
  6
CONTINUOUS
 10
-2.0467402367
 20
21.8811212442
 11
-2.0360415825
 21
21.8862012347
  0
LINE
  5
245
100
AcDbEntity
  8
218
100
AcDbLine
 62
253
  6
CONTINUOUS
 10
-1.9819540681
 20
21.9122704542
 11
-1.9696253836
 21
21.9181072376
  0
LINE
  5
246
100
AcDbEntity
  8
218
100
AcDbLine
 62
253
  6
CONTINUOUS
 10
-2.0546673128
 20
21.8774131547
 11
-2.0467402367
 21
21.8811212442
  0
LINE
  5
247
100
AcDbEntity
  8
218
100
AcDbLine
 62
253
  6
CONTINUOUS
 10
-1.9696253836
 20
21.9181072376
 11
-1.9601095205
 21
21.9225483942
  0
LINE
  5
248
100
AcDbEntity
  8
218
100
AcDbLine
 62
253
  6
CONTINUOUS
 10
-2.0947519386
 20
21.858896823
 11
-2.0546673128
 21
21.8774131547
  0
LINE
  5
249
100
AcDbEntity
  8
218
100
AcDbLine
 62
7
  6
CONTINUOUS
 10
-2.2562153418
 20
21.9018541238
 11
-2.3069070407
 21
21.8784814964
  0
LINE
  5
24A
100
AcDbEntity
  8
218
100
AcDbLine
 62
253
  6
CONTINUOUS
 10
-1.9601095205
 20
21.9225483942
 11
-1.9503454419
 21
21.9270378229
  0
LINE
  5
24B
100
AcDbEntity
  8
218
100
AcDbLine
 62
253
  6
CONTINUOUS
 10
-1.9503454419
 20
21.9270378229
 11
-1.9436909403
 21
21.9300547292
  0
LWPOLYLINE
  5
24C
100
AcDbEntity
  8
218
100
AcDbPolyline
 62
253
  6
CONTINUOUS
 90
22
 70
0
 10
-2.2731026532
 20
21.8940934828
 10
-2.2699743401
 20
21.8955034147
 10
-2.2607258776
 20
21.8992773089
 10
-2.2512662634
 20
21.9025597643
 10
-2.241605623
 20
21.9053472675
 10
-2.2317542973
 20
21.9076368348
 10
-2.2217228314
 20
21.9094260152
 10
-2.2115219629
 20
21.9107128936
 10
-2.201162611
 20
21.9114960926
 10
-2.1906558644
 20
21.9117747739
 10
-2.1800129697
 20
21.911548639
 10
-2.1692453192
 20
21.9108179301
 10
-2.1583644386
 20
21.9095834293
 10
-2.1473819749
 20
21.907846458
 10
-2.1363096839
 20
21.9056088756
 10
-2.1251594175
 20
21.9028730771
 10
-2.1139431111
 20
21.899641991
 10
-2.1026727706
 20
21.8959190758
 10
-2.0913604601
 20
21.8917083166
 10
-2.0800182882
 20
21.8870142206
 10
-2.0686583958
 20
21.8818418124
 10
-2.0572929426
 20
21.8761966287
  0
LINE
  5
24D
100
AcDbEntity
  8
218
100
AcDbLine
 62
253
  6
CONTINUOUS
 10
-1.9436909403
 20
21.9300547292
 11
-1.9369151515
 21
21.9330885887
  0
LINE
  5
24E
100
AcDbEntity
  8
218
100
AcDbLine
 62
253
  6
CONTINUOUS
 10
-1.9369151515
 20
21.9330885887
 11
-1.9300132554
 21
21.9361372524
  0
LINE
  5
24F
100
AcDbEntity
  8
218
100
AcDbLine
 62
253
  6
CONTINUOUS
 10
-1.9300132554
 20
21.9361372524
 11
-1.922981916
 21
21.9391993258
  0
LINE
  5
250
100
AcDbEntity
  8
218
100
AcDbLine
 62
253
  6
CONTINUOUS
 10
-1.922981916
 20
21.9391993258
 11
-1.9158158424
 21
21.9422728214
  0
LINE
  5
251
100
AcDbEntity
  8
218
100
AcDbLine
 62
253
  6
CONTINUOUS
 10
-1.9158158424
 20
21.9422728214
 11
-1.9085104584
 21
21.9453553679
  0
LINE
  5
252
100
AcDbEntity
  8
218
100
AcDbLine
 62
253
  6
CONTINUOUS
 10
-1.9085104584
 20
21.9453553679
 11
-1.9010627307
 21
21.9484453648
  0
LINE
  5
253
100
AcDbEntity
  8
218
100
AcDbLine
 62
253
  6
CONTINUOUS
 10
-1.9010627307
 20
21.9484453648
 11
-1.8934682354
 21
21.951540338
  0
LINE
  5
254
100
AcDbEntity
  8
218
100
AcDbLine
 62
253
  6
CONTINUOUS
 10
-1.8934682354
 20
21.951540338
 11
-1.88572255
 21
21.9546377435
  0
LINE
  5
255
100
AcDbEntity
  8
218
100
AcDbLine
 62
253
  6
CONTINUOUS
 10
-1.88572255
 20
21.9546377435
 11
-1.8778228205
 21
21.9577358314
  0
LINE
  5
256
100
AcDbEntity
  8
218
100
AcDbLine
 62
253
  6
CONTINUOUS
 10
-1.8778228205
 20
21.9577358314
 11
-1.8697648256
 21
21.9608319281
  0
LINE
  5
257
100
AcDbEntity
  8
218
100
AcDbLine
 62
253
  6
CONTINUOUS
 10
-1.8697648256
 20
21.9608319281
 11
-1.8615448761
 21
21.9639230852
  0
LINE
  5
258
100
AcDbEntity
  8
218
100
AcDbLine
 62
253
  6
CONTINUOUS
 10
-1.8615448761
 20
21.9639230852
 11
-1.8531605685
 21
21.9670073053
  0
LINE
  5
259
100
AcDbEntity
  8
218
100
AcDbLine
 62
253
  6
CONTINUOUS
 10
-1.8531605685
 20
21.9670073053
 11
-1.844608577
 21
21.9700814727
  0
LINE
  5
25A
100
AcDbEntity
  8
218
100
AcDbLine
 62
253
  6
CONTINUOUS
 10
-1.844608577
 20
21.9700814727
 11
-1.8358847904
 21
21.9731426745
  0
LINE
  5
25B
100
AcDbEntity
  8
218
100
AcDbLine
 62
253
  6
CONTINUOUS
 10
-1.8358847904
 20
21.9731426745
 11
-1.8269868015
 21
21.9761888299
  0
LINE
  5
25C
100
AcDbEntity
  8
218
100
AcDbLine
 62
253
  6
CONTINUOUS
 10
-1.8269868015
 20
21.9761888299
 11
-1.8179112129
 21
21.9792167055
  0
LINE
  5
25D
100
AcDbEntity
  8
218
100
AcDbLine
 62
253
  6
CONTINUOUS
 10
-1.8179112129
 20
21.9792167055
 11
-1.8086557234
 21
21.9822226349
  0
LINE
  5
25E
100
AcDbEntity
  8
218
100
AcDbLine
 62
253
  6
CONTINUOUS
 10
-1.8086557234
 20
21.9822226349
 11
-1.799218732
 21
21.9852041876
  0
LINE
  5
25F
100
AcDbEntity
  8
218
100
AcDbLine
 62
253
  6
CONTINUOUS
 10
-1.799218732
 20
21.9852041876
 11
-1.7895978526
 21
21.9881576958
  0
LINE
  5
260
100
AcDbEntity
  8
218
100
AcDbLine
 62
253
  6
CONTINUOUS
 10
-1.7895978526
 20
21.9881576958
 11
-1.7797910489
 21
21.9910793219
  0
LINE
  5
261
100
AcDbEntity
  8
218
100
AcDbLine
 62
253
  6
CONTINUOUS
 10
-1.7797910489
 20
21.9910793219
 11
-1.7697971516
 21
21.9939664414
  0
LINE
  5
262
100
AcDbEntity
  8
RACCORDO
100
AcDbLine
 62
7
  6
CONTINUOUS
 10
-0.0399210573
 20
-24.5604619455
 11
1.5666150402
 21
-25.3637299942
  0
LINE
  5
263
100
AcDbEntity
  8
RACCORDO
100
AcDbLine
 62
253
  6
CONTINUOUS
 10
-0.1045145361
 20
-24.4254334042
 11
1.5012619261
 21
-25.2283216353
  0
LINE
  5
264
100
AcDbEntity
  8
RACCORDO
100
AcDbLine
 62
253
  6
CONTINUOUS
 10
1.5012619261
 20
-24.9749502416
 11
-0.1045145361
 21
-24.1720620105
  0
LINE
  5
265
100
AcDbEntity
  8
RACCORDO
100
AcDbLine
 62
253
  6
CONTINUOUS
 10
1.5901645021
 20
-24.7435131819
 11
-0.0166404168
 21
-23.9401107225
  0
LINE
  5
266
100
AcDbEntity
  8
RACCORDO
100
AcDbLine
 62
7
  6
CONTINUOUS
 10
-0.6664850763
 20
-22.6213494924
 11
1.6529678496
 21
-23.7810759554
  0
LINE
  5
267
100
AcDbEntity
  8
DRAFT
100
AcDbLine
 62
7
  6
CONTINUOUS
 10
1.8032175379
 20
-23.7938212663
 11
2.2124825342
 21
-23.9984537644
  0
LINE
  5
268
100
AcDbEntity
  8
ASSI
100
AcDbLine
 62
7
  6
CONTINUOUS
 10
1.900455223
 20
-23.5773037036
 11
-0.6405999498
 21
-22.3067761171
  0
LINE
  5
269
100
AcDbEntity
  8
218
100
AcDbLine
 62
7
  6
CONTINUOUS
 10
-3.1990580097
 20
21.1062517518
 11
-2.3450096261
 21
21.8537098087
  0
LINE
  5
26A
100
AcDbEntity
  8
218
100
AcDbLine
 62
253
  6
CONTINUOUS
 10
-3.0451554549
 20
21.0293004745
 11
-2.0963568634
 21
21.8596833487
  0
LINE
  5
26B
100
AcDbEntity
  8
RACCORDO
100
AcDbLine
 62
7
  6
CONTINUOUS
 10
-1.6038443298
 20
19.1068319796
 11
-1.104748597
 21
19.3570286527
  0
LINE
  5
26C
100
AcDbEntity
  8
RACCORDO
100
AcDbLine
 62
7
  6
CONTINUOUS
 10
-1.104748597
 20
19.3570286527
 11
4.3095240982
 21
22.0570442631
  0
LINE
  5
26D
100
AcDbEntity
  8
RACCORDO
100
AcDbLine
 62
7
  6
CONTINUOUS
 10
3.7035775151
 20
22.3587922211
 11
-1.0340379189
 21
20.0237417064
  0
LINE
  5
26E
100
AcDbEntity
  8
RACCORDO
100
AcDbLine
 62
7
  6
CONTINUOUS
 10
4.9825403136
 20
22.1025441919
 11
4.3961615266
 21
21.8156221243
  0
LWPOLYLINE
  5
26F
100
AcDbEntity
  8
RACCORDO
100
AcDbPolyline
 62
7
  6
CONTINUOUS
 90
18
 70
0
 10
4.9825403136
 20
22.1025441919
 10
5.0109148344
 20
22.1157261487
 10
5.0391492864
 20
22.1274605405
 10
5.0672436696
 20
22.1377473672
 10
5.0952479827
 20
22.1465995018
 10
5.1231122269
 20
22.1540040713
 10
5.1506864066
 20
22.159922457
 10
5.1779555352
 20
22.1643458782
 10
5.2049345992
 20
22.1672831156
 10
5.2315185619
 20
22.1687218915
 10
5.2577235207
 20
22.1686547549
 10
5.2835333782
 20
22.167089157
 10
5.3087948045
 20
22.1640351736
 10
5.3334845578
 20
22.1594893892
 10
5.3576258799
 20
22.1534552193
 10
5.3811351662
 20
22.1459529865
 10
5.4040309464
 20
22.1369675719
 10
5.4235930307
 20
22.1278778388
  0
LINE
  5
270
100
AcDbEntity
  8
RACCORDO
100
AcDbLine
 62
253
  6
CONTINUOUS
 10
3.3237652397
 20
-23.4675465977
 11
3.3671875656
 21
-23.4892577607
  0
LINE
  5
271
100
AcDbEntity
  8
0
100
AcDbLine
 62
7
  6
CONTINUOUS
 10
2.7136280214
 20
-23.0484325731
 11
-0.5666663375
 21
-21.4082853937
  0
LINE
  5
272
100
AcDbEntity
  8
RACCORDO
100
AcDbLine
 62
253
  6
CONTINUOUS
 10
3.2793134463
 20
-23.2899906152
 11
3.8944322813
 21
-23.5975500327
  0
LINE
  5
273
100
AcDbEntity
  8
RACCORDO
100
AcDbLine
 62
7
  6
CONTINUOUS
 10
3.2793134463
 20
-23.2863704656
 11
3.9177116546
 21
-23.6055695698
  0
LINE
  5
274
100
AcDbEntity
  8
0
100
AcDbLine
 62
7
  6
CONTINUOUS
 10
2.7136280214
 20
-21.3985251356
 11
-0.4362663857
 21
-19.823577932
  0
LINE
  5
275
100
AcDbEntity
  8
RACCORDO
100
AcDbLine
 62
7
  6
CONTINUOUS
 10
0.0702112465
 20
17.6858015744
 11
1.6529678496
 21
18.4977856717
  0
LINE
  5
276
100
AcDbEntity
  8
RACCORDO
100
AcDbLine
 62
7
  6
CONTINUOUS
 10
-1.6038443298
 20
17.8926285068
 11
-1.104748597
 21
18.1445930874
  0
LINE
  5
277
100
AcDbEntity
  8
RACCORDO
100
AcDbLine
 62
7
  6
CONTINUOUS
 10
-1.104748597
 20
18.1445930874
 11
4.3095240982
 21
20.8252056847
  0
LINE
  5
278
100
AcDbEntity
  8
RACCORDO
100
AcDbLine
 62
7
  6
CONTINUOUS
 10
1.6529678496
 20
18.4977856717
 11
2.1874177283
 21
18.7581331383
  0
LINE
  5
279
100
AcDbEntity
  8
RACCORDO
100
AcDbLine
 62
7
  6
CONTINUOUS
 10
-13.8680259974
 20
22.4120546732
 11
-13.8680259974
 21
22.4364501784
  0
LINE
  5
27A
100
AcDbEntity
  8
RACCORDO
100
AcDbLine
 62
7
  6
CONTINUOUS
 10
-13.4688327005
 20
23.8097012111
 11
-13.4688327005
 21
24.0630726049
  0
LINE
  5
27B
100
AcDbEntity
  8
RACCORDO
100
AcDbLine
 62
253
  6
CONTINUOUS
 10
3.7933942795
 20
17.2040811026
 11
9.1517210596
 21
20.0950213295
  0
LINE
  5
27C
100
AcDbEntity
  8
RACCORDO
100
AcDbLine
 62
253
  6
CONTINUOUS
 10
3.4267741262
 20
16.7578689764
 11
9.067569492
 21
19.8012074857
  0
LINE
  5
27D
100
AcDbEntity
  8
RACCORDO
100
AcDbLine
 62
253
  6
CONTINUOUS
 10
3.3383841715
 20
16.6225757952
 11
9.067569492
 21
19.5889483316
  0
LINE
  5
27E
100
AcDbEntity
  8
RACCORDO
100
AcDbLine
 62
7
  6
CONTINUOUS
 10
3.4581503021
 20
16.5626927299
 11
9.1497792044
 21
19.5096198614
  0
LINE
  5
27F
100
AcDbEntity
  8
RACCORDO
100
AcDbLine
 62
7
  6
CONTINUOUS
 10
1.6780326555
 20
16.8818908698
 11
3.2793134463
 21
17.6846128733
  0
LINE
  5
280
100
AcDbEntity
  8
RACCORDO
100
AcDbLine
 62
7
  6
CONTINUOUS
 10
3.2793134463
 20
17.6846128733
 11
3.8075806181
 21
17.9480516934
  0
LINE
  5
281
100
AcDbEntity
  8
RACCORDO
100
AcDbLine
 62
253
  6
CONTINUOUS
 10
3.1897912364
 20
18.3189237551
 11
7.9616302146
 21
20.6129992415
  0
LINE
  5
282
100
AcDbEntity
  8
RACCORDO
100
AcDbLine
 62
253
  6
CONTINUOUS
 10
3.4174067363
 20
18.2051160052
 11
8.4034710825
 21
20.6021809612
  0
LINE
  5
283
100
AcDbEntity
  8
RACCORDO
100
AcDbLine
 62
253
  6
CONTINUOUS
 10
1.7682759145
 20
14.5939037172
 11
-2.3564914631
 21
13.0244682595
  0
LINE
  5
284
100
AcDbEntity
  8
ASSI
100
AcDbLine
 62
7
  6
CONTINUOUS
 10
2.7136280214
 20
14.8121157308
 11
1.900455223
 21
14.5278140629
  0
LINE
  5
285
100
AcDbEntity
  8
ASSI
100
AcDbLine
 62
7
  6
CONTINUOUS
 10
-13.0548531991
 20
21.9361317806
 11
-13.0548531991
 21
22.005468274
  0
LINE
  5
286
100
AcDbEntity
  8
DRAFT
100
AcDbLine
 62
7
  6
CONTINUOUS
 10
-12.7658397462
 20
23.3554729321
 11
-12.7658397462
 21
22.9031419565
  0
LINE
  5
287
100
AcDbEntity
  8
RACCORDO
100
AcDbLine
 62
7
  6
CONTINUOUS
 10
-11.8630562383
 20
23.2601843738
 11
-11.8630562383
 21
23.00681298
  0
LINE
  5
288
100
AcDbEntity
  8
DRAFT
100
AcDbLine
 62
7
  6
CONTINUOUS
 10
-11.1518356302
 20
22.7333094572
 11
-11.1518356302
 21
22.0961398985
  0
LWPOLYLINE
  5
289
100
AcDbEntity
  8
RACCORDO
100
AcDbPolyline
 62
7
  6
CONTINUOUS
 90
5
 70
0
 10
9.1499876981
 20
19.5097181727
 10
9.150222135
 20
19.5098511745
 10
9.1511493709
 20
19.5106788459
 10
9.1516557884
 20
19.5117299173
 10
9.1517675337
 20
19.5126741615
  0
LINE
  5
28A
100
AcDbEntity
  8
218
100
AcDbLine
 62
7
  6
CONTINUOUS
 10
4.0154603691
 20
16.2840376964
 11
9.610145184
 21
19.2229814141
  0
LINE
  5
28B
100
AcDbEntity
  8
RACCORDO
100
AcDbLine
 62
253
  6
CONTINUOUS
 10
3.4207348026
 20
15.8818513876
 11
1.6529678496
 21
14.9790736881
  0
LINE
  5
28C
100
AcDbEntity
  8
RACCORDO
100
AcDbLine
 62
253
  6
CONTINUOUS
 10
3.668222176
 20
15.4549872677
 11
1.900455223
 21
14.5522095682
  0
LINE
  5
28D
100
AcDbEntity
  8
DRAFT
100
AcDbLine
 62
7
  6
CONTINUOUS
 10
2.2124825342
 20
15.4139808162
 11
3.2793134463
 21
15.9525620658
  0
LWPOLYLINE
  5
28E
100
AcDbEntity
  8
218
100
AcDbPolyline
 62
253
  6
CONTINUOUS
 90
34
 70
0
 10
11.6181845479
 20
17.8039881032
 10
11.6370333539
 20
17.8133172596
 10
11.655487246
 20
17.8223654841
 10
11.6735325015
 20
17.8311260478
 10
11.6911556939
 20
17.8395924325
 10
11.7083437254
 20
17.8477583456
 10
11.7250838338
 20
17.8556177235
 10
11.7413635858
 20
17.863164728
 10
11.757170855
 20
17.870393737
 10
11.7724938543
 20
17.8772993596
 10
11.7873211796
 20
17.8838764563
 10
11.801641816
 20
17.8901201414
 10
11.8154451165
 20
17.8960257728
 10
11.8287208179
 20
17.9015889594
 10
11.8414590471
 20
17.9068055638
 10
11.85365033
 20
17.9116717063
 10
11.865285601
 20
17.9161837681
 10
11.8763562084
 20
17.9203383942
 10
11.8868539202
 20
17.9241324955
 10
11.8967709304
 20
17.9275632504
 10
11.9060998645
 20
17.930628108
 10
11.9148337858
 20
17.9333247892
 10
11.9229661995
 20
17.9356512888
 10
11.9304910585
 20
17.9376058768
 10
11.9374027673
 20
17.9391870997
 10
11.9436961863
 20
17.9403937817
 10
11.9493666358
 20
17.9412250256
 10
11.9544098992
 20
17.9416802133
 10
11.9588222263
 20
17.9417590063
 10
11.9626003362
 20
17.9414613459
 10
11.9657414195
 20
17.9407874536
 10
11.9682431404
 20
17.9397378303
 10
11.9701036387
 20
17.9383132568
 10
11.9710277555
 20
17.9370865317
  0
LINE
  5
28F
100
AcDbEntity
  8
RACCORDO
100
AcDbLine
 62
253
  6
CONTINUOUS
 10
4.1278415838
 20
16.227847089
 11
3.4207348026
 21
15.8818513876
  0
LINE
  5
290
100
AcDbEntity
  8
RACCORDO
100
AcDbLine
 62
253
  6
CONTINUOUS
 10
4.3753289572
 20
15.8009829691
 11
3.668222176
 21
15.4549872677
  0
LINE
  5
291
100
AcDbEntity
  8
218
100
AcDbLine
 62
253
  6
CONTINUOUS
 10
10.3556721197
 20
17.9371376553
 11
11.1182607003
 21
18.3075643625
  0
LINE
  5
292
100
AcDbEntity
  8
218
100
AcDbLine
 62
253
  6
CONTINUOUS
 10
10.6933404535
 20
17.3547459283
 11
11.6181845479
 21
17.8039881032
  0
LWPOLYLINE
  5
293
100
AcDbEntity
  8
218
100
AcDbPolyline
 62
253
  6
CONTINUOUS
 90
26
 70
0
 10
11.1182607003
 20
18.3075643625
 10
11.1375206125
 20
18.3164609736
 10
11.156757058
 20
18.3247033786
 10
11.1759557515
 20
18.3322854566
 10
11.1951024361
 20
18.3392015772
 10
11.2141828933
 20
18.3454466045
 10
11.2331829538
 20
18.3510159007
 10
11.2520885082
 20
18.3559053302
 10
11.2708855171
 20
18.360111262
 10
11.2895600216
 20
18.3636305727
 10
11.308098154
 20
18.366460649
 10
11.3264861478
 20
18.3685993891
 10
11.344710348
 20
18.3700452049
 10
11.3627572211
 20
18.3707970227
 10
11.3806133655
 20
18.3708542841
 10
11.3982655211
 20
18.3702169466
 10
11.4157005793
 20
18.3688854836
 10
11.4329055926
 20
18.3668608838
 10
11.4498677847
 20
18.3641446506
 10
11.4665745593
 20
18.3607388012
 10
11.4830135098
 20
18.3566458647
 10
11.4991724286
 20
18.3518688806
 10
11.5150393159
 20
18.3464113963
 10
11.530602389
 20
18.3402774646
 10
11.5458500906
 20
18.3334716405
 10
11.5531335809
 20
18.3299276921
  0
LWPOLYLINE
  5
294
100
AcDbEntity
  8
RACCORDO
100
AcDbPolyline
 62
253
  6
CONTINUOUS
 90
22
 70
0
 10
-2.3564914631
 20
13.0244682595
 10
-2.431936001
 20
12.9916241153
 10
-2.5074025134
 20
12.9523288586
 10
-2.5825222613
 20
12.9067805642
 10
-2.6569283551
 20
12.8552131917
 10
-2.7302575116
 20
12.7978808101
 10
-2.8021511659
 20
12.7350531986
 10
-2.8722674859
 20
12.6670311876
 10
-2.9402527649
 20
12.5941608387
 10
-3.0057446687
 20
12.5168192373
 10
-3.0684109179
 20
12.435410169
 10
-3.1279616557
 20
12.3503243792
 10
-3.1841175522
 20
12.2619490086
 10
-3.2366119193
 20
12.1707017867
 10
-3.2851751129
 20
12.0770517452
 10
-3.3295493707
 20
11.9814823331
 10
-3.369512857
 20
11.8844796141
 10
-3.4048778115
 20
11.7865128236
 10
-3.4354709898
 20
11.6880516634
 10
-3.4611411709
 20
11.5895783341
 10
-3.4817619507
 20
11.4915854347
 10
-3.4972313521
 20
11.3945580018
  0
LWPOLYLINE
  5
295
100
AcDbEntity
  8
RACCORDO
100
AcDbPolyline
 62
253
  6
CONTINUOUS
 90
22
 70
0
 10
-1.8501098501
 20
12.0233786181
 10
-1.8859437179
 20
12.0082076315
 10
-1.9214859243
 20
11.9902044773
 10
-1.9567364693
 20
11.9693691555
 10
-1.991879665
 20
11.9455671655
 10
-2.0267311992
 20
11.918933008
 10
-2.0607381355
 20
11.889870185
 10
-2.0938789961
 20
11.8583419863
 10
-2.1261752586
 20
11.8243851222
 10
-2.1571384201
 20
11.788513225
 10
-2.18674178
 20
11.7507055376
 10
-2.2150120387
 20
11.7109828171
 10
-2.2415407948
 20
11.6699209678
 10
-2.2663063666
 20
11.6274934351
 10
-2.2893304357
 20
11.5837267736
 10
-2.3102696452
 20
11.5392765509
 10
-2.3290934347
 20
11.4941175771
 10
-2.3458323646
 20
11.4482750421
 10
-2.3602347598
 20
11.4024800829
 10
-2.3722167285
 20
11.3569764116
 10
-2.3818621626
 20
11.3115203161
 10
-2.3891710619
 20
11.2661117963
  0
LINE
  5
296
100
AcDbEntity
  8
RACCORDO
100
AcDbLine
 62
253
  6
CONTINUOUS
 10
2.314703711
 20
13.6080512747
 11
-1.8501098501
 21
12.0233786181
  0
LINE
  5
297
100
AcDbEntity
  8
RACCORDO
100
AcDbLine
 62
7
  6
CONTINUOUS
 10
-10.0850047181
 20
22.634721148
 11
-10.0850047181
 21
24.3667719555
  0
LINE
  5
298
100
AcDbEntity
  8
RACCORDO
100
AcDbLine
 62
7
  6
CONTINUOUS
 10
-9.3820117638
 20
24.5020934533
 11
-9.3820117638
 21
24.2411644769
  0
LINE
  5
299
100
AcDbEntity
  8
218
100
AcDbLine
 62
253
  6
CONTINUOUS
 10
11.8241390949
 20
17.4487690545
 11
4.3753289572
 21
13.6591661345
  0
LINE
  5
29A
100
AcDbEntity
  8
218
100
AcDbLine
 62
253
  6
CONTINUOUS
 10
12.2382895706
 20
16.0171354798
 11
4.3753289572
 21
12.016832351
  0
LWPOLYLINE
  5
29B
100
AcDbEntity
  8
218
100
AcDbPolyline
 62
253
  6
CONTINUOUS
 90
34
 70
0
 10
11.8241390949
 20
17.4487690545
 10
11.8429756102
 20
17.4580921558
 10
11.8614177269
 20
17.4671346928
 10
11.8794517498
 20
17.4758899505
 10
11.8970642867
 20
17.4843514272
 10
11.9142422585
 20
17.4925128392
 10
11.9309729087
 20
17.500368126
 10
11.9472438131
 20
17.5079114541
 10
11.9630428887
 20
17.5151372218
 10
11.9783584031
 20
17.5220400632
 10
11.993178983
 20
17.5286148523
 10
12.0074936224
 20
17.5348567065
 10
12.0212916913
 20
17.5407609906
 10
12.0345629431
 20
17.5463233201
 10
12.0472975225
 20
17.5515395643
 10
12.0594859727
 20
17.5564058497
 10
12.0711192426
 20
17.5609185625
 10
12.0821886931
 20
17.5650743515
 10
12.0926861042
 20
17.5688701306
 10
12.1026036803
 20
17.5723030811
 10
12.1119340566
 20
17.5753706536
 10
12.1206703042
 20
17.5780705702
 10
12.1288059357
 20
17.5804008259
 10
12.1363349094
 20
17.5823596901
 10
12.1432516344
 20
17.5839457083
 10
12.1495509741
 20
17.5851577026
 10
12.1552282507
 20
17.5859947731
 10
12.1602792482
 20
17.5864562981
 10
12.1647002157
 20
17.5865419348
 10
12.1684878701
 20
17.5862516197
 10
12.1716393988
 20
17.5855855684
 10
12.1741524613
 20
17.5845442755
 10
12.1760251915
 20
17.5831285143
 10
12.1769823269
 20
17.581867441
  0
LWPOLYLINE
  5
29C
100
AcDbEntity
  8
218
100
AcDbPolyline
 62
7
  6
CONTINUOUS
 90
16
 70
0
 10
19.0950522489
 20
-5.3351216281
 10
19.0860910337
 20
-5.3368888756
 10
19.0772689265
 20
-5.3382422746
 10
19.068585927
 20
-5.3391818253
 10
19.0600315617
 20
-5.3397059705
 10
19.0516163042
 20
-5.3398162672
 10
19.0433715761
 20
-5.3395173868
 10
19.0353012021
 20
-5.3388025289
 10
19.0274013574
 20
-5.3376784938
 10
19.019691989
 20
-5.336170354
 10
19.0121787639
 20
-5.3342724325
 10
19.004856015
 20
-5.3319904061
 10
18.9977266875
 20
-5.3293663775
 10
18.9907917631
 20
-5.3264143809
 10
18.9840502602
 20
-5.323120382
 10
18.9775021787
 20
-5.3194843808
  0
LINE
  5
29D
100
AcDbEntity
  8
RACCORDO
100
AcDbLine
 62
7
  6
CONTINUOUS
 10
-7.9072477151
 20
22.1087080162
 11
-7.9072477151
 21
20.89397463
  0
LINE
  5
29E
100
AcDbEntity
  8
RACCORDO
100
AcDbLine
 62
253
  6
CONTINUOUS
 10
-7.8193797494
 20
22.0021990593
 11
-7.8193797494
 21
20.7872441933
  0
LWPOLYLINE
  5
29F
100
AcDbEntity
  8
RACCORDO
100
AcDbPolyline
 62
253
  6
CONTINUOUS
 90
15
 70
0
 10
-6.4982856176
 20
-25.0762613484
 10
-6.4983264703
 20
-25.1677317045
 10
-6.4930638436
 20
-25.2563910084
 10
-6.4825241081
 20
-25.3418018944
 10
-6.4667588035
 20
-25.4235396839
 10
-6.445846756
 20
-25.5012059838
 10
-6.4198908379
 20
-25.5744282452
 10
-6.3890100935
 20
-25.6428543639
 10
-6.3533579944
 20
-25.7061339372
 10
-6.3131263633
 20
-25.7639346883
 10
-6.2685228978
 20
-25.815965206
 10
-6.2197598658
 20
-25.8619854741
 10
-6.1670672424
 20
-25.9017812735
 10
-6.1106876217
 20
-25.935160696
 10
-6.1041796306
 20
-25.938479586
  0
LINE
  5
2A0
100
AcDbEntity
  8
RACCORDO
100
AcDbLine
 62
7
  6
CONTINUOUS
 10
3.3671875656
 20
16.6853463787
 11
3.8944322813
 21
17.3270541067
  0
LWPOLYLINE
  5
2A1
100
AcDbEntity
  8
218
100
AcDbPolyline
 62
253
  6
CONTINUOUS
 90
30
 70
0
 10
12.2382895706
 20
16.0171354798
 10
12.2569507092
 20
16.0270648228
 10
12.2750638043
 20
16.0372447209
 10
12.2926154049
 20
16.0476676142
 10
12.3095924772
 20
16.0583257628
 10
12.3259824138
 20
16.0692112518
 10
12.3417730436
 20
16.0803159976
 10
12.3569526402
 20
16.0916317538
 10
12.3715099313
 20
16.1031501172
 10
12.3854341065
 20
16.1148625342
 10
12.3987148257
 20
16.1267603071
 10
12.4113422266
 20
16.1388346006
 10
12.4233069318
 20
16.1510764483
 10
12.4346000565
 20
16.1634767592
 10
12.4452132142
 20
16.1760263248
 10
12.4551385236
 20
16.1887158257
 10
12.464368614
 20
16.2015358387
 10
12.4728966312
 20
16.2144768436
 10
12.4807162423
 20
16.2275292302
 10
12.4878216402
 20
16.2406833058
 10
12.4942075486
 20
16.2539293022
 10
12.4998692251
 20
16.2672573827
 10
12.5048024655
 20
16.2806576499
 10
12.5090036063
 20
16.2941201526
 10
12.5124695276
 20
16.3076348935
 10
12.5151976557
 20
16.3211918365
 10
12.5171859646
 20
16.3347809142
 10
12.5184329778
 20
16.3483920352
 10
12.5189377693
 20
16.3620150918
 10
12.5189497702
 20
16.3644629766
  0
LINE
  5
2A2
100
AcDbEntity
  8
218
100
AcDbLine
 62
7
  6
CONTINUOUS
 10
12.5189497702
 20
14.2449045573
 11
13.6970850621
 21
14.8443441487
  0
LINE
  5
2A3
100
AcDbEntity
  8
218
100
AcDbLine
 62
7
  6
CONTINUOUS
 10
12.5189497702
 20
13.8133851932
 11
13.7781054766
 21
14.4449973506
  0
LINE
  5
2A4
100
AcDbEntity
  8
218
100
AcDbLine
 62
7
  6
CONTINUOUS
 10
12.8717411673
 20
15.1056956444
 11
12.5189497702
 21
14.9373077932
  0
LWPOLYLINE
  5
2A5
100
AcDbEntity
  8
RACCORDO
100
AcDbPolyline
 62
253
  6
CONTINUOUS
 90
22
 70
0
 10
-5.3822225161
 20
-25.1074520355
 10
-5.3821728376
 20
-25.1503255393
 10
-5.3796552366
 20
-25.1915640899
 10
-5.3746697131
 20
-25.2311676872
 10
-5.3671689362
 20
-25.2693322731
 10
-5.3572002369
 20
-25.3058619057
 10
-5.3449056076
 20
-25.3401687599
 10
-5.3302468042
 20
-25.3722073
 10
-5.3132620709
 20
-25.4020230616
 10
-5.2942081331
 20
-25.4291648261
 10
-5.2730582335
 20
-25.4535866951
 10
-5.2498391293
 20
-25.4753345669
 10
-5.2248878172
 20
-25.4940949186
 10
-5.1981744748
 20
-25.5098262631
 10
-5.1697289246
 20
-25.5225700875
 10
-5.1399776303
 20
-25.5321373299
 10
-5.1088887053
 20
-25.538474824
 10
-5.0764940363
 20
-25.5416357362
 10
-5.0433157473
 20
-25.5415905038
 10
-5.0095278796
 20
-25.5383292726
 10
-4.974956392
 20
-25.5318618967
 10
-4.9396012844
 20
-25.5221883763
  0
LWPOLYLINE
  5
2A6
100
AcDbEntity
  8
RACCORDO
100
AcDbPolyline
 62
253
  6
CONTINUOUS
 90
13
 70
0
 10
-3.4972313521
 20
11.3945580018
 10
-3.8986372997
 20
8.3059649236
 10
-4.2726628576
 20
5.2250457925
 10
-4.6192607828
 20
2.1521933131
 10
-4.938387368
 20
-0.9122007778
 10
-5.2300020546
 20
-3.9677460758
 10
-5.494067434
 20
-7.0140535583
 10
-5.7305496404
 20
-10.0507352436
 10
-5.939418771
 20
-13.0774041521
 10
-6.1206484919
 20
-16.093674668
 10
-6.2742156235
 20
-19.0991626046
 10
-6.4001001471
 20
-22.0934852547
 10
-6.4982856176
 20
-25.0762613484
  0
LINE
  5
2A7
100
AcDbEntity
  8
RACCORDO
100
AcDbLine
 62
7
  6
CONTINUOUS
 10
12.9670515948
 20
11.9267328909
 11
12.5189497702
 21
11.7026819786
  0
LINE
  5
2A8
100
AcDbEntity
  8
RACCORDO
100
AcDbLine
 62
7
  6
CONTINUOUS
 10
13.8155823025
 20
11.5024701073
 11
12.5189497702
 21
10.8541538412
  0
LINE
  5
2A9
100
AcDbEntity
  8
218
100
AcDbLine
 62
7
  6
CONTINUOUS
 10
17.2582229688
 20
12.9124547436
 11
13.6959859784
 21
11.2027729776
  0
LWPOLYLINE
  5
2AA
100
AcDbEntity
  8
RACCORDO
100
AcDbPolyline
 62
7
  6
CONTINUOUS
 90
10
 70
0
 10
13.8155534066
 20
11.5024556594
 10
13.8269498709
 20
11.5076243146
 10
13.8381702734
 20
11.511676211
 10
13.8492146141
 20
11.5146113485
 10
13.860177873
 20
11.5164298799
 10
13.8709650702
 20
11.5171316523
 10
13.8812912656
 20
11.516716208
 10
13.8910614793
 20
11.5151833941
 10
13.9003706914
 20
11.5125333634
 10
13.9092189017
 20
11.5087661158
  0
LINE
  5
2AB
100
AcDbEntity
  8
RACCORDO
100
AcDbLine
 62
253
  6
CONTINUOUS
 10
-2.0268706814
 20
17.8909896592
 11
-2.0268706814
 21
19.1059445253
  0
LWPOLYLINE
  5
2AC
100
AcDbEntity
  8
RACCORDO
100
AcDbPolyline
 62
253
  6
CONTINUOUS
 90
16
 70
0
 10
-1.8501098501
 20
12.0233786181
 10
-1.8485265058
 20
12.099459679
 10
-1.8529894524
 20
12.1778629368
 10
-1.8634498562
 20
12.2577301539
 10
-1.8797932319
 20
12.3381870648
 10
-1.9018406944
 20
12.4183529398
 10
-1.929350915
 20
12.4973502264
 10
-1.9620227671
 20
12.5743141684
 10
-1.9994986178
 20
12.648402258
 10
-2.0413682377
 20
12.718803455
 10
-2.0871733048
 20
12.7847470906
 10
-2.1364124127
 20
12.8455112844
 10
-2.1885465484
 20
12.9004308396
 10
-2.2430050129
 20
12.9489045512
 10
-2.2991916706
 20
12.9904017825
 10
-2.3564914617
 20
13.02446826
  0
LWPOLYLINE
  5
2AD
100
AcDbEntity
  8
RACCORDO
100
AcDbPolyline
 62
253
  6
CONTINUOUS
 90
7
 70
0
 10
-4.3807154353
 20
-7.0933849625
 10
-4.6165521917
 20
-10.1218483154
 10
-4.8248798525
 20
-13.1407131572
 10
-5.0056186883
 20
-16.1488217263
 10
-5.1587421226
 20
-19.1457881021
 10
-5.2842767319
 20
-22.1319982052
 10
-5.3822225161
 20
-25.1074520355
  0
LWPOLYLINE
  5
2AE
100
AcDbEntity
  8
RACCORDO
100
AcDbPolyline
 62
253
  6
CONTINUOUS
 90
7
 70
0
 10
-2.3891710619
 20
11.2661117963
 10
-2.7895879427
 20
8.1851262167
 10
-3.1626076961
 20
5.1125684183
 10
-3.508230322
 20
2.0484384012
 10
-3.8264931432
 20
-1.0076540779
 10
-4.117358837
 20
-4.0553187758
 10
-4.3807154353
 20
-7.0933849625
  0
LINE
  5
2AF
100
AcDbEntity
  8
218
100
AcDbLine
 62
253
  6
CONTINUOUS
 10
12.5552488044
 20
9.5715064206
 11
18.2705030934
 21
12.4063146814
  0
LWPOLYLINE
  5
2B0
100
AcDbEntity
  8
218
100
AcDbPolyline
 62
253
  6
CONTINUOUS
 90
6
 70
0
 10
12.5672729527
 20
9.5652643635
 10
12.5558474212
 20
9.5600200931
 10
12.5444467635
 20
9.5552345477
 10
12.5330829133
 20
9.5509127366
 10
12.5217677658
 20
9.5470591838
 10
12.5189497702
 20
9.546212563
  0
LWPOLYLINE
  5
2B1
100
AcDbEntity
  8
218
100
AcDbPolyline
 62
253
  6
CONTINUOUS
 90
5
 70
0
 10
12.5552488044
 20
9.5715064206
 10
12.5438143222
 20
9.566260378
 10
12.5323982752
 20
9.5614764253
 10
12.5210126179
 20
9.5571595724
 10
12.5189497702
 20
9.5564602963
  0
LINE
  5
2B2
100
AcDbEntity
  8
ASSI
100
AcDbLine
 62
7
  6
CONTINUOUS
 10
0.9812164075
 20
-4.9843642281
 11
0.7925616991
 21
-4.8900368739
  0
LWPOLYLINE
  5
2B3
100
AcDbEntity
  8
RACCORDO
100
AcDbPolyline
 62
7
  6
CONTINUOUS
 90
13
 70
0
 10
9.148347917
 20
-17.4141011104
 10
9.1454567519
 20
-17.4102079194
 10
9.1417679878
 20
-17.4058255793
 10
9.1373080238
 20
-17.4010682864
 10
9.1321151655
 20
-17.3959284318
 10
9.1262325084
 20
-17.390381073
 10
9.1196719742
 20
-17.3845134744
 10
9.112465071
 20
-17.3783161665
 10
9.1046479253
 20
-17.3717710419
 10
9.0962239859
 20
-17.3649501657
 10
9.0872110945
 20
-17.3578681409
 10
9.0776492492
 20
-17.3504844977
 10
9.067569492
 20
-17.342787943
  0
LINE
  5
2B4
100
AcDbEntity
  8
RACCORDO
100
AcDbLine
 62
7
  6
CONTINUOUS
 10
0.1271689962
 20
-12.9763341934
 11
0.708003005
 21
-18.390159767
  0
LINE
  5
2B5
100
AcDbEntity
  8
DRAFT
100
AcDbLine
 62
7
  6
CONTINUOUS
 10
-1.670434022
 20
23.394234353
 11
-1.670434022
 21
22.0675539176
  0
LINE
  5
2B6
100
AcDbEntity
  8
RACCORDO
100
AcDbLine
 62
253
  6
CONTINUOUS
 10
-1.6038443298
 20
17.8926285068
 11
-1.6038443298
 21
19.1068319796
  0
LINE
  5
2B7
100
AcDbEntity
  8
DRAFT
100
AcDbLine
 62
7
  6
CONTINUOUS
 10
-1.3168806314
 20
22.6648994684
 11
-1.3168806314
 21
23.2174576577
  0
LINE
  5
2B8
100
AcDbEntity
  8
RACCORDO
100
AcDbLine
 62
253
  6
CONTINUOUS
 10
-1.2461699532
 20
24.8336659552
 11
-1.2461699532
 21
23.6018317738
  0
LINE
  5
2B9
100
AcDbEntity
  8
RACCORDO
100
AcDbLine
 62
7
  6
CONTINUOUS
 10
-1.1583019876
 20
24.9386631692
 11
-1.1583019876
 21
23.7062945643
  0
LINE
  5
2BA
100
AcDbEntity
  8
DRAFT
100
AcDbLine
 62
7
  6
CONTINUOUS
 10
-1.104748597
 20
19.3570286527
 11
-1.104748597
 21
18.1445930874
  0
LINE
  5
2BB
100
AcDbEntity
  8
RACCORDO
100
AcDbLine
 62
7
  6
CONTINUOUS
 10
-0.1045145361
 20
-24.4254334042
 11
-0.1045145361
 21
-24.1720620105
  0
LINE
  5
2BC
100
AcDbEntity
  8
RACCORDO
100
AcDbLine
 62
7
  6
CONTINUOUS
 10
-0.1045145361
 20
17.1275421289
 11
-0.1045145361
 21
17.3809135227
  0
LWPOLYLINE
  5
2BD
100
AcDbEntity
  8
RACCORDO
100
AcDbPolyline
 62
253
  6
CONTINUOUS
 90
11
 70
0
 10
-4.9396012844
 20
-25.5221883763
 10
-4.950369925
 20
-25.5962162946
 10
-4.9670497203
 20
-25.6662788791
 10
-4.9894580824
 20
-25.7316091786
 10
-5.0173497143
 20
-25.7914920443
 10
-5.050419296
 20
-25.8452719588
 10
-5.0883048258
 20
-25.8923602117
 10
-5.1305915838
 20
-25.9322413436
 10
-5.1768166711
 20
-25.9644787895
 10
-5.2264740773
 20
-25.988719657
 10
-5.2484946485
 20
-25.9965352122
  0
LWPOLYLINE
  5
2BE
100
AcDbEntity
  8
218
100
AcDbPolyline
 62
253
  6
CONTINUOUS
 90
30
 70
0
 10
18.9775021787
 20
11.1869216348
 10
18.9961634941
 20
11.1968510744
 10
19.0142767577
 20
11.2070310753
 10
19.0318285181
 20
11.2174540775
 10
19.0488057415
 20
11.2281123413
 10
19.0651958192
 20
11.2389979515
 10
19.0809865769
 20
11.2501028223
 10
19.0961662875
 20
11.2614187066
 10
19.110723679
 20
11.2729372016
 10
19.1246479408
 20
11.2846497532
 10
19.1379287324
 20
11.2965476635
 10
19.1505561913
 20
11.3086220969
 10
19.1625209398
 20
11.3208640863
 10
19.1738140926
 20
11.3332645405
 10
19.1844272635
 20
11.3458142506
 10
19.1943525707
 20
11.3585038969
 10
19.2035826437
 20
11.3713240558
 10
19.2121106282
 20
11.3842652067
 10
19.219930191
 20
11.397317739
 10
19.2270355254
 20
11.4104719596
 10
19.2334213549
 20
11.4237180999
 10
19.2390829373
 20
11.4370463228
 10
19.2440160685
 20
11.4504467304
 10
19.2482170852
 20
11.4639093714
 10
19.2516828677
 20
11.4774242477
 10
19.2544108427
 20
11.490981323
 10
19.2563989843
 20
11.5045705295
 10
19.2576458166
 20
11.5181817753
 10
19.2581504138
 20
11.5318049524
 10
19.2581623784
 20
11.534250822
  0
LINE
  5
2BF
100
AcDbEntity
  8
218
100
AcDbLine
 62
253
  6
CONTINUOUS
 10
12.2382895706
 20
7.844222499
 11
18.9775021787
 21
11.1869216348
  0
LINE
  5
2C0
100
AcDbEntity
  8
ASSI
100
AcDbLine
 62
7
  6
CONTINUOUS
 10
2.7136280214
 20
-21.3985251356
 11
0.9812164075
 21
-4.9843642281
  0
LWPOLYLINE
  5
2C1
100
AcDbEntity
  8
RACCORDO
100
AcDbPolyline
 62
7
  6
CONTINUOUS
 90
24
 70
0
 10
1.4408358153
 20
23.7083402017
 10
1.4402626308
 20
23.7428126079
 10
1.4385635178
 20
23.7765625288
 10
1.4357384763
 20
23.8095899646
 10
1.4317780417
 20
23.841951522
 10
1.4266916786
 20
23.8735905942
 10
1.4205077802
 20
23.9043373607
 10
1.4132251648
 20
23.9341728882
 10
1.4048450141
 20
23.9631161099
 10
1.3953992669
 20
23.9910540059
 10
1.3848754084
 20
24.0180001687
 10
1.3732859533
 20
24.0439410056
 10
1.3607003846
 20
24.0687227185
 10
1.3471251987
 20
24.0923200199
 10
1.3325538992
 20
24.1147581972
 10
1.3170364792
 20
24.1359593145
 10
1.3005531918
 20
24.1559364044
 10
1.2831237839
 20
24.1746764342
 10
1.2648574893
 20
24.1920623698
 10
1.2457688334
 20
24.2080712961
 10
1.2258432907
 20
24.2227261282
 10
1.2051465182
 20
24.2359785766
 10
1.1836540036
 20
24.2478344379
 10
-2.0455472626
 20
25.8624589482
  0
LINE
  5
2C2
100
AcDbEntity
  8
DRAFT
100
AcDbLine
 62
7
  6
CONTINUOUS
 10
0.5984784182
 20
16.6733138499
 11
0.5984784182
 21
16.2209828742
  0
LINE
  5
2C3
100
AcDbEntity
  8
RACCORDO
100
AcDbLine
 62
7
  6
CONTINUOUS
 10
1.4408358153
 20
23.7083402017
 11
1.4408358153
 21
23.437539909
  0
LINE
  5
2C4
100
AcDbEntity
  8
RACCORDO
100
AcDbLine
 62
7
  6
CONTINUOUS
 10
1.5012619261
 20
16.5780252916
 11
1.5012619261
 21
16.3246538978
  0
LINE
  5
2C5
100
AcDbEntity
  8
RACCORDO
100
AcDbLine
 62
7
  6
CONTINUOUS
 10
1.5012619261
 20
-24.9749502416
 11
1.5012619261
 21
-25.2283216353
  0
LINE
  5
2C6
100
AcDbEntity
  8
RACCORDO
100
AcDbLine
 62
7
  6
CONTINUOUS
 10
1.900455223
 20
-23.6016992089
 11
1.900455223
 21
-23.5773037036
  0
LINE
  5
2C7
100
AcDbEntity
  8
RACCORDO
100
AcDbLine
 62
7
  6
CONTINUOUS
 10
1.900455223
 20
14.5278140629
 11
1.900455223
 21
14.5522095682
  0
LINE
  5
2C8
100
AcDbEntity
  8
DRAFT
100
AcDbLine
 62
7
  6
CONTINUOUS
 10
2.2124825342
 20
16.051150375
 11
2.2124825342
 21
15.4139808162
  0
LINE
  5
2C9
100
AcDbEntity
  8
DRAFT
100
AcDbLine
 62
7
  6
CONTINUOUS
 10
2.2124825342
 20
-23.5938316734
 11
2.2124825342
 21
-23.9984537644
  0
LINE
  5
2CA
100
AcDbEntity
  8
RACCORDO
100
AcDbLine
 62
7
  6
CONTINUOUS
 10
2.314703711
 20
13.6080512747
 11
-0.7970650709
 21
-24.2082449546
  0
LINE
  5
2CB
100
AcDbEntity
  8
ASSI
100
AcDbLine
 62
7
  6
CONTINUOUS
 10
0.9812164075
 20
-4.9843642281
 11
2.7136280214
 21
13.1622082933
  0
LWPOLYLINE
  5
2CC
100
AcDbEntity
  8
218
100
AcDbPolyline
 62
253
  6
CONTINUOUS
 90
56
 70
0
 10
19.0950527382
 20
4.9965616012
 10
19.1020556407
 20
4.9990739555
 10
19.1091159762
 20
5.0013611246
 10
19.1162328214
 20
5.0034243966
 10
19.1233890891
 20
5.0052777982
 10
19.1305997242
 20
5.0069101651
 10
19.1379113393
 20
5.0082856349
 10
19.1453411128
 20
5.0094151756
 10
19.1528680649
 20
5.0102926785
 10
19.1604805661
 20
5.0108578857
 10
19.1681895836
 20
5.0111128142
 10
19.1759781648
 20
5.0110627858
 10
19.1837917701
 20
5.0106536347
 10
19.1916176103
 20
5.0098861785
 10
19.1994603835
 20
5.0087692073
 10
19.207290727
 20
5.0072616383
 10
19.2150923263
 20
5.0053733618
 10
19.2228708841
 20
5.0031069588
 10
19.2306283164
 20
5.0004123861
 10
19.2383661279
 20
4.997298182
 10
19.2460680051
 20
4.9937733335
 10
19.2537068192
 20
4.9897911811
 10
19.2612823086
 20
4.985355454
 10
19.2687754331
 20
4.9804855187
 10
19.276129238
 20
4.975160096
 10
19.2833218425
 20
4.9694009642
 10
19.2903530635
 20
4.9632132219
 10
19.2971963678
 20
4.9565531658
 10
19.3038333377
 20
4.9494579234
 10
19.3102548887
 20
4.9419248443
 10
19.3164428432
 20
4.9338576482
 10
19.322392857
 20
4.9252846539
 10
19.3280701163
 20
4.9162282122
 10
19.3334025361
 20
4.9065935986
 10
19.3383762049
 20
4.8964214299
 10
19.3429536241
 20
4.8857401612
 10
19.3470183527
 20
4.8744487005
 10
19.350552202
 20
4.8625873033
 10
19.3535069208
 20
4.8502090525
 10
19.3557129138
 20
4.837243306
 10
19.3571302049
 20
4.823650188
 10
19.3577169027
 20
4.8095909597
 10
19.3573139577
 20
4.7952787789
 10
19.3558508188
 20
4.7806850186
 10
19.3533494693
 20
4.7659208205
 10
19.3498348912
 20
4.7513447157
 10
19.3453077978
 20
4.7370209226
 10
19.3397814975
 20
4.7228790625
 10
19.3333346802
 20
4.709024129
 10
19.3259859379
 20
4.6954634708
 10
19.3177401371
 20
4.6821675756
 10
19.3086636941
 20
4.6691730753
 10
19.298770136
 20
4.6564683874
 10
19.2880703342
 20
4.6440388711
 10
19.2766294285
 20
4.6319118471
 10
19.2644635369
 20
4.6200752997
  0
LWPOLYLINE
  5
2CD
100
AcDbEntity
  8
RACCORDO
100
AcDbPolyline
 62
7
  6
CONTINUOUS
 90
31
 70
0
 10
3.668222176
 20
15.4549872677
 10
3.6678835315
 20
15.4710208113
 10
3.666866888
 20
15.4873492775
 10
3.6651753377
 20
15.5039280722
 10
3.6628141205
 20
15.5207120655
 10
3.659789709
 20
15.5376552596
 10
3.656109789
 20
15.5547109142
 10
3.6517847253
 20
15.5718324274
 10
3.6468266756
 20
15.5889730284
 10
3.6412486556
 20
15.6060854484
 10
3.6350662077
 20
15.6231229164
 10
3.6282965683
 20
15.640038884
 10
3.6209577627
 20
15.656786718
 10
3.6130701292
 20
15.6733206294
 10
3.6046555582
 20
15.6895954386
 10
3.5957366417
 20
15.7055662962
 10
3.5863380132
 20
15.7211895229
 10
3.5764856788
 20
15.7364224205
 10
3.5662062408
 20
15.7512230284
 10
3.5555280219
 20
15.7655508529
 10
3.5444805031
 20
15.7793667285
 10
3.5330936424
 20
15.7926326178
 10
3.5213987539
 20
15.8053122095
 10
3.5094280683
 20
15.8173708361
 10
3.4972141605
 20
15.8287753204
 10
3.4847905654
 20
15.8394944283
 10
3.4721914692
 20
15.8494988438
 10
3.4594512613
 20
15.8587610674
 10
3.4466048466
 20
15.8672556994
 10
3.43368755
 20
15.8749595088
 10
3.4207348026
 20
15.8818513876
  0
LINE
  5
2CE
100
AcDbEntity
  8
ASSI
100
AcDbLine
 62
7
  6
CONTINUOUS
 10
2.7136280214
 20
-23.0484325731
 11
2.7136280214
 21
-21.3985251356
  0
LINE
  5
2CF
100
AcDbEntity
  8
ASSI
100
AcDbLine
 62
7
  6
CONTINUOUS
 10
2.7136280214
 20
13.1622082933
 11
2.7136280214
 21
14.8121157308
  0
LINE
  5
2D0
100
AcDbEntity
  8
RACCORDO
100
AcDbLine
 62
7
  6
CONTINUOUS
 10
3.2793134463
 20
-23.0718187051
 11
3.2793134463
 21
-24.5774268314
  0
LINE
  5
2D1
100
AcDbEntity
  8
RACCORDO
100
AcDbLine
 62
7
  6
CONTINUOUS
 10
3.2793134463
 20
15.9525620658
 11
3.2793134463
 21
17.6846128733
  0
LINE
  5
2D2
100
AcDbEntity
  8
RACCORDO
100
AcDbLine
 62
7
  6
CONTINUOUS
 10
3.9823064006
 20
17.8199343711
 11
3.9823064006
 21
17.5590053947
  0
LINE
  5
2D3
100
AcDbEntity
  8
RACCORDO
100
AcDbLine
 62
7
  6
CONTINUOUS
 10
3.9823064006
 20
-23.7405987447
 11
3.9823064006
 21
-24.001527721
  0
LINE
  5
2D4
100
AcDbEntity
  8
RACCORDO
100
AcDbLine
 62
253
  6
CONTINUOUS
 10
4.3095240982
 20
22.0570442631
 11
4.3095240982
 21
20.8252056847
  0
LINE
  5
2D5
100
AcDbEntity
  8
RACCORDO
100
AcDbLine
 62
7
  6
CONTINUOUS
 10
4.3753289572
 20
15.8009829691
 11
4.3753289572
 21
-22.3755988756
  0
LINE
  5
2D6
100
AcDbEntity
  8
218
100
AcDbLine
 62
7
  6
CONTINUOUS
 10
4.3753289572
 20
12.016832351
 11
4.3753289572
 21
-18.5914482575
  0
LINE
  5
2D7
100
AcDbEntity
  8
RACCORDO
100
AcDbLine
 62
7
  6
CONTINUOUS
 10
4.3961615266
 20
22.1614316384
 11
4.3961615266
 21
20.9290631467
  0
LWPOLYLINE
  5
2D8
100
AcDbEntity
  8
RACCORDO
100
AcDbPolyline
 62
7
  6
CONTINUOUS
 90
18
 70
0
 10
3.668222176
 20
-22.7367099554
 10
3.6678825085
 20
-22.752404343
 10
3.666866071
 20
-22.7677162687
 10
3.6651753377
 20
-22.7826039216
 10
3.6628143331
 20
-22.797026804
 10
3.6597895215
 20
-22.8109453865
 10
3.656109789
 20
-22.8243212149
 10
3.651784936
 20
-22.8371177698
 10
3.6468265061
 20
-22.8493001309
 10
3.6412486556
 20
-22.8608346157
 10
3.6350664114
 20
-22.8716897377
 10
3.6282964211
 20
-22.8818358904
 10
3.6209577627
 20
-22.8912449924
 10
3.6130703207
 20
-22.899891366
 10
3.6046554368
 20
-22.9077514477
 10
3.5957366417
 20
-22.9148034495
 10
3.5863381879
 20
-22.9210281352
 10
3.5782533534
 20
-22.9255225111
  0
LWPOLYLINE
  5
2D9
100
AcDbEntity
  8
218
100
AcDbPolyline
 62
7
  6
CONTINUOUS
 90
16
 70
0
 10
19.0950527402
 20
6.6160290515
 10
19.0860914895
 20
6.6142617577
 10
19.0772693461
 20
6.6129083216
 10
19.0685863098
 20
6.611968743
 10
19.0600319064
 20
6.6114445809
 10
19.0516166103
 20
6.6113342764
 10
19.0433718442
 20
6.611633153
 10
19.0353014336
 20
6.6123480096
 10
19.0274015532
 20
6.6134720473
 10
19.0196921502
 20
6.6149801919
 10
19.0121788916
 20
6.6168781216
 10
19.0048561105
 20
6.6191601583
 10
18.997726754
 20
6.6217841938
 10
18.9907918043
 20
6.6247361922
 10
18.9840502793
 20
6.6280301895
 10
18.9775021787
 20
6.6316661857
  0
LWPOLYLINE
  5
2DA
100
AcDbEntity
  8
218
100
AcDbPolyline
 62
253
  6
CONTINUOUS
 90
61
 70
0
 10
12.2382896042
 20
7.8442225157
 10
12.2753036924
 20
7.8943163159
 10
12.3111688152
 20
7.9446529
 10
12.3458916889
 20
7.9951883312
 10
12.3795772967
 20
8.0459833019
 10
12.4121345794
 20
8.09689021
 10
12.4432914475
 20
8.1475489495
 10
12.4730396291
 20
8.1978693144
 10
12.5014385583
 20
8.2478502489
 10
12.5283392946
 20
8.2972627586
 10
12.5537517368
 20
8.3460353486
 10
12.5777333378
 20
8.3941579101
 10
12.6002168008
 20
8.4414958181
 10
12.6212356367
 20
8.4880288671
 10
12.6408282961
 20
8.5337098266
 10
12.6589432488
 20
8.5783679698
 10
12.675597447
 20
8.6219385963
 10
12.6908558468
 20
8.6644366685
 10
12.70474437
 20
8.7058161872
 10
12.7172928351
 20
8.7460512123
 10
12.7285489208
 20
8.7851345643
 10
12.7385651592
 20
8.8230527065
 10
12.7473720291
 20
8.8597965959
 10
12.7550104543
 20
8.8953569733
 10
12.7615481144
 20
8.9297241052
 10
12.7670106662
 20
8.9628673938
 10
12.7714387652
 20
8.99481351
 10
12.7749196821
 20
9.0256406231
 10
12.7774813536
 20
9.0553618843
 10
12.7791502632
 20
9.0839669735
 10
12.7800075925
 20
9.1114992333
 10
12.7800768426
 20
9.1379549044
 10
12.7793818623
 20
9.1633484372
 10
12.7780013293
 20
9.1877505989
 10
12.7759584378
 20
9.2111589168
 10
12.7732691997
 20
9.2335904382
 10
12.7699974734
 20
9.2551426766
 10
12.7661584308
 20
9.2758383278
 10
12.7617673911
 20
9.2956681169
 10
12.7568853696
 20
9.3146793316
 10
12.751530311
 20
9.3328709769
 10
12.7457102911
 20
9.3502604859
 10
12.739469312
 20
9.3669207787
 10
12.7328244915
 20
9.3828553566
 10
12.7257793764
 20
9.3980755452
 10
12.7183549377
 20
9.4126613921
 10
12.7105558845
 20
9.4266315942
 10
12.7023933221
 20
9.4399774886
 10
12.6938960131
 20
9.4527345131
 10
12.6850733898
 20
9.464907045
 10
12.6759295556
 20
9.4765010044
 10
12.6664843313
 20
9.4875523373
 10
12.6567583076
 20
9.498055786
 10
12.6467423713
 20
9.508026276
 10
12.6364105862
 20
9.5175251703
 10
12.6257828814
 20
9.5265507452
 10
12.614848506
 20
9.5351073343
 10
12.6035341891
 20
9.5432559479
 10
12.5918178974
 20
9.5510114723
 10
12.5797294643
 20
9.558349038
 10
12.5672729527
 20
9.5652643635
  0
LINE
  5
2DB
100
AcDbEntity
  8
218
100
AcDbLine
 62
253
  6
CONTINUOUS
 10
20.1733391681
 20
5.1986212778
 11
20.1783465879
 21
5.2018790254
  0
LINE
  5
2DC
100
AcDbEntity
  8
218
100
AcDbLine
 62
7
  6
CONTINUOUS
 10
19.2581623784
 20
4.606692657
 11
20.1733391653
 21
5.198621276
  0
LWPOLYLINE
  5
2DD
100
AcDbEntity
  8
RACCORDO
100
AcDbPolyline
 62
7
  6
CONTINUOUS
 90
4
 70
0
 10
9.1517675303
 20
-17.422180918
 10
9.1515330246
 20
-17.420412704
 10
9.1503922485
 20
-17.4174804784
 10
9.148347917
 20
-17.4141011104
  0
LINE
  5
2DE
100
AcDbEntity
  8
RACCORDO
100
AcDbLine
 62
253
  6
CONTINUOUS
 10
9.067569492
 20
19.8012074857
 11
9.067569492
 21
19.5889483316
  0
LINE
  5
2DF
100
AcDbEntity
  8
RACCORDO
100
AcDbLine
 62
253
  6
CONTINUOUS
 10
9.067569492
 20
-17.1752983447
 11
9.067569492
 21
-17.342787943
  0
LWPOLYLINE
  5
2E0
100
AcDbEntity
  8
RACCORDO
100
AcDbPolyline
 62
7
  6
CONTINUOUS
 90
16
 70
0
 10
9.1517292108
 20
20.0889110971
 10
9.1514534373
 20
20.07542598
 10
9.1503292133
 20
20.0556490805
 10
9.148347917
 20
20.0357508414
 10
9.1454771015
 20
20.0158006631
 10
9.1417604345
 20
19.995838164
 10
9.1373080238
 20
19.9758709995
 10
9.1321302258
 20
19.9559396289
 10
9.12622502
 20
19.9360878275
 10
9.1196719742
 20
19.9163223043
 10
9.1124768358
 20
19.8966769158
 10
9.1046402443
 20
19.8771887064
 10
9.0962239859
 20
19.8578676742
 10
9.0872475755
 20
19.8387391426
 10
9.0776946381
 20
19.8198423476
 10
9.067569492
 20
19.8012074857
  0
LWPOLYLINE
  5
2E1
100
AcDbEntity
  8
218
100
AcDbPolyline
 62
253
  6
CONTINUOUS
 90
24
 70
0
 10
12.2382895706
 20
7.8442225409
 10
12.2629033337
 20
7.9036274353
 10
12.2865017745
 20
7.9631747643
 10
12.3090599756
 20
8.0228443443
 10
12.3305890649
 20
8.0827673411
 10
12.3510295048
 20
8.1427724839
 10
12.3702684665
 20
8.202380081
 10
12.3882902589
 20
8.261505497
 10
12.4051099965
 20
8.3201809555
 10
12.4206887204
 20
8.37809488
 10
12.4350326338
 20
8.4351785511
 10
12.4481647299
 20
8.4914477345
 10
12.4600871996
 20
8.5467156286
 10
12.4708275084
 20
8.6009665673
 10
12.480404742
 20
8.6541678616
 10
12.4888234634
 20
8.7061066668
 10
12.4961142999
 20
8.7567080144
 10
12.5023206123
 20
8.8060030825
 10
12.5074776213
 20
8.8539388904
 10
12.51162499
 20
8.9004821066
 10
12.5148038954
 20
8.9456304335
 10
12.5170549409
 20
8.9893792919
 10
12.5184202656
 20
9.031710884
 10
12.518941706
 20
9.0726152648
  0
LWPOLYLINE
  5
2E2
100
AcDbEntity
  8
218
100
AcDbPolyline
 62
253
  6
CONTINUOUS
 90
55
 70
0
 10
18.9775021787
 20
4.8591975058
 10
18.9832698742
 20
4.8643563587
 10
18.989014615
 20
4.869299725
 10
18.9947352612
 20
4.8740277371
 10
19.0004253724
 20
4.8785424171
 10
19.0060891748
 20
4.8828419446
 10
19.011741062
 20
4.88692088
 10
19.0173813836
 20
4.8907826826
 10
19.0230064346
 20
4.8944245154
 10
19.0286237538
 20
4.8978318055
 10
19.034232939
 20
4.9010064386
 10
19.0398302954
 20
4.9039473373
 10
19.0454179438
 20
4.9066356486
 10
19.0509930953
 20
4.90907155
 10
19.0565539925
 20
4.911255702
 10
19.0621038981
 20
4.9131700942
 10
19.0676313089
 20
4.9148152521
 10
19.0731427429
 20
4.9161914887
 10
19.0786669546
 20
4.9172809873
 10
19.0841888743
 20
4.9180924395
 10
19.0897157335
 20
4.9186187836
 10
19.0953055301
 20
4.9188199451
 10
19.100957741
 20
4.9187086946
 10
19.1066578886
 20
4.9182758615
 10
19.1124377886
 20
4.9174500321
 10
19.1183014496
 20
4.9162327137
 10
19.1242233667
 20
4.914627287
 10
19.1301886323
 20
4.9125656949
 10
19.1361903348
 20
4.9100408977
 10
19.14221217
 20
4.9070643475
 10
19.1482259402
 20
4.9035952565
 10
19.154209096
 20
4.8996371138
 10
19.1601618543
 20
4.8951895822
 10
19.1660893325
 20
4.8902060549
 10
19.1719731627
 20
4.8846929933
 10
19.177803743
 20
4.8786473009
 10
19.1835942194
 20
4.872008863
 10
19.1893359462
 20
4.8647639241
 10
19.1949993907
 20
4.8569302305
 10
19.2005627381
 20
4.8484952414
 10
19.2060050917
 20
4.8394534199
 10
19.2113067848
 20
4.8298127578
 10
19.2164471194
 20
4.8195806072
 10
19.2213893581
 20
4.8087887048
 10
19.2261277066
 20
4.7974059099
 10
19.2306780515
 20
4.7853460002
 10
19.2350076646
 20
4.7726093834
 10
19.2390820756
 20
4.7591965156
 10
19.2428944625
 20
4.7450226617
 10
19.2464018454
 20
4.7300636417
 10
19.249551248
 20
4.7143425723
 10
19.2523025689
 20
4.6978458269
 10
19.2545950651
 20
4.6805777429
 10
19.256372245
 20
4.6625273815
 10
19.2575780167
 20
4.6436572124
  0
LWPOLYLINE
  5
2E3
100
AcDbEntity
  8
218
100
AcDbPolyline
 62
7
  6
CONTINUOUS
 90
136
 70
0
 10
19.0950527382
 20
4.9965616012
 10
19.1544495712
 20
5.0452897389
 10
19.211966775
 20
5.0928007909
 10
19.2676043497
 20
5.1390947573
 10
19.3213072102
 20
5.1841370833
 10
19.3731304415
 20
5.2279623236
 10
19.4232392993
 20
5.2706741427
 10
19.4716410295
 20
5.3122774676
 10
19.5183283861
 20
5.3527673711
 10
19.563444887
 20
5.3922327367
 10
19.6069947381
 20
5.4306760885
 10
19.6489737336
 20
5.4680949023
 10
19.6895127735
 20
5.5045704883
 10
19.7286157787
 20
5.5401052237
 10
19.7662788285
 20
5.5746967314
 10
19.8026210607
 20
5.6084191898
 10
19.8376461353
 20
5.6412748581
 10
19.8713503922
 20
5.6732614772
 10
19.9038419897
 20
5.7044464486
 10
19.935124272
 20
5.734831867
 10
19.9651938948
 20
5.7644156377
 10
19.9941489834
 20
5.7932588772
 10
20.0219926164
 20
5.8213635704
 10
20.0487217152
 20
5.8487277324
 10
20.0744251699
 20
5.8754065254
 10
20.0991058264
 20
5.9014018771
 10
20.1227608387
 20
5.9267118599
 10
20.1454705592
 20
5.9513858534
 10
20.1672375977
 20
5.9754257598
 10
20.1880593444
 20
5.9988296769
 10
20.2080083213
 20
6.0216412775
 10
20.2270868923
 20
6.0438624838
 10
20.2452926936
 20
6.0654913736
 10
20.2626911553
 20
6.0865658528
 10
20.2792843554
 20
6.1070879043
 10
20.295070216
 20
6.1270555451
 10
20.3101079338
 20
6.1465007329
 10
20.3243992132
 20
6.1654255247
 10
20.3379423497
 20
6.1838278634
 10
20.3507914269
 20
6.2017335352
 10
20.3629476547
 20
6.2191446661
 10
20.3744098232
 20
6.2360591301
 10
20.3852283848
 20
6.2524963352
 10
20.3954037924
 20
6.2684582162
 10
20.4049355933
 20
6.2839428382
 10
20.4138728817
 20
6.2989638046
 10
20.4222153954
 20
6.3135229963
 10
20.4299633966
 20
6.3276185323
 10
20.4371667668
 20
6.3412583729
 10
20.4438240746
 20
6.3544432242
 10
20.4499367513
 20
6.36717238
 10
20.4555589725
 20
6.3794516822
 10
20.4606861081
 20
6.3912719892
 10
20.4653227881
 20
6.4026424426
 10
20.469537078
 20
6.4135963095
 10
20.4733270368
 20
6.4241201587
 10
20.4766946055
 20
6.4342274214
 10
20.479713673
 20
6.4439916584
 10
20.4823895462
 20
6.4534105906
 10
20.4847169182
 20
6.4624864972
 10
20.4867537572
 20
6.4712997759
 10
20.4885074624
 20
6.4798554227
 10
20.4899706347
 20
6.4881484417
 10
20.4911790446
 20
6.4962442425
 10
20.4921389782
 20
6.5041470747
 10
20.4928441496
 20
6.5118526889
 10
20.4933114708
 20
6.5194137458
 10
20.4935466026
 20
6.5268334175
 10
20.4935438843
 20
6.5341085319
 10
20.4933032465
 20
6.5412822342
 10
20.4928303392
 20
6.5483572559
 10
20.4921195124
 20
6.5553308653
 10
20.491153746
 20
6.5622380129
 10
20.4899393615
 20
6.5690808306
 10
20.4884700375
 20
6.5758571864
 10
20.4867097889
 20
6.5825956349
 10
20.4846662753
 20
6.5892985181
 10
20.4823318371
 20
6.595963494
 10
20.4796475118
 20
6.6026120916
 10
20.4766184788
 20
6.6092527036
 10
20.4732395585
 20
6.6158769372
 10
20.4694362494
 20
6.6224811431
 10
20.4652061345
 20
6.6290771126
 10
20.4605516307
 20
6.6356530544
 10
20.4554054876
 20
6.6421699461
 10
20.4497633023
 20
6.6486315281
 10
20.4436294776
 20
6.65503406
 10
20.436949972
 20
6.6613272975
 10
20.4297235063
 20
6.6675089556
 10
20.4219513596
 20
6.6735813195
 10
20.4135833275
 20
6.6795010005
 10
20.4046190066
 20
6.6852659739
 10
20.3950588002
 20
6.6908782644
 10
20.3848537141
 20
6.6963005586
 10
20.3740042613
 20
6.7015313533
 10
20.3625099288
 20
6.7065721517
 10
20.3503201823
 20
6.7113901487
 10
20.3374362268
 20
6.7159844827
 10
20.3238568574
 20
6.7203560154
 10
20.3095279253
 20
6.724474527
 10
20.2944511454
 20
6.7283397287
 10
20.2786248028
 20
6.7319519092
 10
20.2619896033
 20
6.7352817153
 10
20.2445476348
 20
6.7383293204
 10
20.2262968094
 20
6.7410945511
 10
20.207171569
 20
6.7435475337
 10
20.1871742677
 20
6.745688799
 10
20.1663025515
 20
6.7475178161
 10
20.1444837998
 20
6.7490031185
 10
20.1217206899
 20
6.7501455105
 10
20.0980105446
 20
6.7509441877
 10
20.0732727112
 20
6.7513652708
 10
20.047509811
 20
6.7514097741
 10
20.0207192226
 20
6.7510766833
 10
19.9928124294
 20
6.7503290749
 10
19.9637934188
 20
6.7491682237
 10
19.9336582035
 20
6.747592855
 10
19.9023063048
 20
6.7455622211
 10
19.8697390778
 20
6.7430775169
 10
19.8359551675
 20
6.7401375474
 10
19.8008500304
 20
6.7366979799
 10
19.7644187677
 20
6.7327588619
 10
19.7266662783
 20
6.7283201458
 10
19.6875027158
 20
6.723337357
 10
19.6469368345
 20
6.7178121682
 10
19.6049598801
 20
6.7117429067
 10
19.5614557433
 20
6.7050800784
 10
19.5164393279
 20
6.6978273963
 10
19.4698957301
 20
6.6899811474
 10
19.4216641291
 20
6.6814806996
 10
19.3717446986
 20
6.672327676
 10
19.3201372649
 20
6.6625204534
 10
19.2666804864
 20
6.6519935298
 10
19.2113205825
 20
6.6407250713
 10
19.1541113337
 20
6.6287369119
 10
19.0950527402
 20
6.6160290515
  0
LWPOLYLINE
  5
2E4
100
AcDbEntity
  8
218
100
AcDbPolyline
 62
253
  6
CONTINUOUS
 90
104
 70
0
 10
20.1783465879
 20
5.2018790254
 10
20.209740953
 20
5.2231893446
 10
20.2404970793
 20
5.245614099
 10
20.2706015651
 20
5.2691435172
 10
20.3000412823
 20
5.2937673422
 10
20.3288033566
 20
5.3194748095
 10
20.356875201
 20
5.346254669
 10
20.3842445414
 20
5.374095207
 10
20.4108994468
 20
5.4029842828
 10
20.4368283056
 20
5.4329093115
 10
20.4620198118
 20
5.4638572494
 10
20.4864629465
 20
5.4958145647
 10
20.5101470116
 20
5.5287672705
 10
20.5330616512
 20
5.5627009531
 10
20.5551968775
 20
5.5976008161
 10
20.5765430478
 20
5.6334516562
 10
20.5970908535
 20
5.6702378455
 10
20.6168313069
 20
5.7079432994
 10
20.6357557689
 20
5.7465515168
 10
20.6538559663
 20
5.7860456132
 10
20.6711240091
 20
5.8264083665
 10
20.6875523731
 20
5.8676221893
 10
20.7031338926
 20
5.9096691115
 10
20.7178617531
 20
5.952530751
 10
20.7317295116
 20
5.996188357
 10
20.7447311073
 20
6.0406228429
 10
20.7568608714
 20
6.0858148276
 10
20.7681135163
 20
6.1317446104
 10
20.7784841318
 20
6.1783921571
 10
20.7879681839
 20
6.2257370802
 10
20.7965615258
 20
6.2737586797
 10
20.8042604035
 20
6.3224359703
 10
20.811061459
 20
6.3717477127
 10
20.8169617257
 20
6.4216723958
 10
20.8219586277
 20
6.4721882322
 10
20.8260499814
 20
6.5232731533
 10
20.829233999
 20
6.5749048399
 10
20.8315092902
 20
6.6270607409
 10
20.8328748624
 20
6.6797180886
 10
20.8333301193
 20
6.7328538949
 10
20.8328748622
 20
6.786444958
 10
20.83150929
 20
6.8404678779
 10
20.8292339986
 20
6.8948990703
 10
20.8260499809
 20
6.9497147745
 10
20.8219586271
 20
7.0048910493
 10
20.8169617249
 20
7.0604037878
 10
20.8110614582
 20
7.1162287377
 10
20.8042604025
 20
7.1723415355
 10
20.7965615247
 20
7.2287177039
 10
20.7879681827
 20
7.2853326453
 10
20.7784841305
 20
7.3421616206
 10
20.7681135148
 20
7.3991797828
 10
20.7568608699
 20
7.4563622105
 10
20.7447311056
 20
7.5136839594
 10
20.7317295098
 20
7.571120041
 10
20.7178617512
 20
7.6286454055
 10
20.7031338906
 20
7.6862349055
 10
20.6875523709
 20
7.7438633473
 10
20.6711240068
 20
7.8015055342
 10
20.6538559639
 20
7.8591363303
 10
20.6357557664
 20
7.9167306241
 10
20.6168313043
 20
7.9742633035
 10
20.5970908508
 20
8.0317092107
 10
20.576543045
 20
8.0890432057
 10
20.5551968746
 20
8.1462402161
 10
20.5330616482
 20
8.2032753055
 10
20.5101470085
 20
8.2601236277
 10
20.4864629433
 20
8.3167603985
 10
20.4620198086
 20
8.3731608485
 10
20.4368283023
 20
8.4293002925
 10
20.4108994434
 20
8.48515418
 10
20.3842445378
 20
8.5406981614
 10
20.3568751973
 20
8.5959080398
 10
20.3288033528
 20
8.6507597437
 10
20.3000412785
 20
8.705229285
 10
20.2706015612
 20
8.7592928272
 10
20.2404970753
 20
8.8129267311
 10
20.2097409488
 20
8.866107612
 10
20.1783465837
 20
8.9188122963
 10
20.1463276689
 20
8.9710177996
 10
20.1136982024
 20
9.0227012959
 10
20.0804724577
 20
9.0738401763
 10
20.0466649603
 20
9.124412087
 10
20.0122904564
 20
9.174394972
 10
19.9773639321
 20
9.2237670407
 10
19.9419006225
 20
9.2725067545
 10
19.9059160265
 20
9.3205928102
 10
19.8694258763
 20
9.3680041848
 10
19.8324461173
 20
9.4147201621
 10
19.7949928853
 20
9.4607203594
 10
19.7570825195
 20
9.5059847092
 10
19.7187315648
 20
9.5504934561
 10
19.6799567747
 20
9.5942271555
 10
19.6407750894
 20
9.6371667007
 10
19.6012036213
 20
9.6792933383
 10
19.5612596454
 20
9.7205886785
 10
19.5209606003
 20
9.7610346927
 10
19.480324083
 20
9.8006137201
 10
19.4393678367
 20
9.839308479
 10
19.3981097408
 20
9.8771020772
 10
19.3565678053
 20
9.9139780164
 10
19.3147601744
 20
9.9499201899
 10
19.2727051142
 20
9.9849128944
 10
19.2581623784
 20
9.9966160944
  0
LINE
  5
2E5
100
AcDbEntity
  8
RACCORDO
100
AcDbLine
 62
253
  6
CONTINUOUS
 10
-17.8257116867
 20
18.5587981691
 11
-3.4972313521
 21
11.3945580018
  0
LWPOLYLINE
  5
2E6
100
AcDbEntity
  8
RACCORDO
100
AcDbPolyline
 62
7
  6
CONTINUOUS
 90
5
 70
0
 10
9.1517675337
 20
19.5126741615
 10
9.1517548833
 20
19.5130090972
 10
9.1514604802
 20
19.514526886
 10
9.1507851453
 20
19.5162435503
 10
9.1497410523
 20
19.5181632541
  0
LWPOLYLINE
  5
2E7
100
AcDbEntity
  8
RACCORDO
100
AcDbPolyline
 62
7
  6
CONTINUOUS
 90
7
 70
0
 10
9.1517210596
 20
20.0950213295
 10
9.1516294515
 20
20.0993291308
 10
9.1514902808
 20
20.1036404614
 10
9.1513035474
 20
20.1079553214
 10
9.1510692513
 20
20.1122737108
 10
9.1507873925
 20
20.1165956295
 10
9.150457971
 20
20.1209210776
  0
LINE
  5
2E8
100
AcDbEntity
  8
RACCORDO
100
AcDbLine
 62
7
  6
CONTINUOUS
 10
9.1517210596
 20
20.0950213295
 11
9.1517292108
 21
20.0889110971
  0
LINE
  5
2E9
100
AcDbEntity
  8
RACCORDO
100
AcDbLine
 62
7
  6
CONTINUOUS
 10
9.1517675519
 20
20.0888283639
 11
9.1517675519
 21
19.5128651744
  0
LINE
  5
2EA
100
AcDbEntity
  8
RACCORDO
100
AcDbLine
 62
7
  6
CONTINUOUS
 10
9.1517675519
 20
-17.1310682643
 11
9.1517675519
 21
-17.4220113101
  0
LINE
  5
2EB
100
AcDbEntity
  8
RACCORDO
100
AcDbLine
 62
7
  6
CONTINUOUS
 10
9.1517210596
 20
-17.4229228728
 11
9.1517675303
 21
-17.422180918
  0
LINE
  5
2EC
100
AcDbEntity
  8
218
100
AcDbLine
 62
253
  6
CONTINUOUS
 10
19.2644635369
 20
4.6200752997
 11
19.2581623784
 21
4.6144183507
  0
LINE
  5
2ED
100
AcDbEntity
  8
RACCORDO
100
AcDbLine
 62
253
  6
CONTINUOUS
 10
-16.7101565362
 20
20.201300796
 11
-2.3564914631
 21
13.0244682595
  0
LWPOLYLINE
  5
2EE
100
AcDbEntity
  8
218
100
AcDbPolyline
 62
7
  6
CONTINUOUS
 90
104
 70
0
 10
19.2581623784
 20
-1.8642858396
 10
19.2708837231
 20
-1.8735406649
 10
19.3157053349
 20
-1.9074089864
 10
19.3601891819
 20
-1.9422838986
 10
19.4043468419
 20
-1.9781686861
 10
19.448177419
 20
-2.0150588772
 10
19.4916491715
 20
-2.0529242109
 10
19.534726792
 20
-2.0917290475
 10
19.5773897127
 20
-2.1314490695
 10
19.6196274195
 20
-2.1720688732
 10
19.6614199209
 20
-2.2135638026
 10
19.7027460469
 20
-2.2559070727
 10
19.7435968006
 20
-2.2990838568
 10
19.7839699224
 20
-2.3430872334
 10
19.8238607461
 20
-2.3879089158
 10
19.8632432186
 20
-2.4335165925
 10
19.9020831439
 20
-2.4798662146
 10
19.9403520423
 20
-2.5269176793
 10
19.9780506688
 20
-2.5746659209
 10
20.015188406
 20
-2.6231190825
 10
20.0517641083
 20
-2.672274222
 10
20.0877493039
 20
-2.7220917964
 10
20.1231122552
 20
-2.7725248364
 10
20.1578295429
 20
-2.8235352785
 10
20.1918985659
 20
-2.8751147531
 10
20.2253191378
 20
-2.9272601179
 10
20.2580831094
 20
-2.9799572271
 10
20.2901718071
 20
-3.0331747832
 10
20.321568944
 20
-3.0868840264
 10
20.3522602881
 20
-3.1410586229
 10
20.3822352217
 20
-3.1956780033
 10
20.4114832555
 20
-3.2507216826
 10
20.4399918593
 20
-3.3061649895
 10
20.4677497963
 20
-3.3619851682
 10
20.4947484785
 20
-3.4181646104
 10
20.5209771397
 20
-3.4746812052
 10
20.5464236225
 20
-3.5315092919
 10
20.5710773286
 20
-3.5886259636
 10
20.5949278478
 20
-3.6460082667
 10
20.6179640504
 20
-3.7036308903
 10
20.6401747196
 20
-3.7614673688
 10
20.6615471853
 20
-3.8194860629
 10
20.682074536
 20
-3.8776699154
 10
20.7017538595
 20
-3.9360145657
 10
20.7205806388
 20
-3.9945136264
 10
20.7385388152
 20
-4.0531248908
 10
20.7556092426
 20
-4.1117904446
 10
20.7717771133
 20
-4.1704598979
 10
20.7870425701
 20
-4.229134721
 10
20.8014088422
 20
-4.2878350505
 10
20.814873033
 20
-4.3465646663
 10
20.8274191035
 20
-4.4052708693
 10
20.8390308457
 20
-4.463889573
 10
20.8496977513
 20
-4.5223736842
 10
20.859418297
 20
-4.5807220651
 10
20.8681906815
 20
-4.6389401154
 10
20.8760098151
 20
-4.6970203606
 10
20.8828660406
 20
-4.7549217434
 10
20.8887507097
 20
-4.8125999141
 10
20.8936581283
 20
-4.8700285229
 10
20.897583313
 20
-4.9271864712
 10
20.9005207157
 20
-4.98403854
 10
20.9024658646
 20
-5.0405515832
 10
20.9034153622
 20
-5.0967125507
 10
20.9033652291
 20
-5.1525170964
 10
20.9023099158
 20
-5.2079755256
 10
20.9002447292
 20
-5.263030557
 10
20.8971707125
 20
-5.3175790017
 10
20.893092287
 20
-5.3715531815
 10
20.8880078167
 20
-5.4249803872
 10
20.881910449
 20
-5.4779012453
 10
20.8747882233
 20
-5.5303580891
 10
20.8666456673
 20
-5.5822631078
 10
20.8575050334
 20
-5.6334652251
 10
20.847384809
 20
-5.6838868043
 10
20.8362803607
 20
-5.733573305
 10
20.8241837904
 20
-5.7825617622
 10
20.8110842749
 20
-5.8308818394
 10
20.7969964976
 20
-5.8784654819
 10
20.7819533993
 20
-5.9252056062
 10
20.765971711
 20
-5.9710670882
 10
20.7490539683
 20
-6.0160579611
 10
20.7312192541
 20
-6.0601417315
 10
20.7124832379
 20
-6.1032963242
 10
20.6928534208
 20
-6.1455199175
 10
20.6723381322
 20
-6.1868073128
 10
20.6509292703
 20
-6.2271823509
 10
20.6286569681
 20
-6.2665951925
 10
20.6055941584
 20
-6.3049362112
 10
20.5818012568
 20
-6.3421385844
 10
20.5572604307
 20
-6.3782624097
 10
20.5319287294
 20
-6.4133884291
 10
20.505788805
 20
-6.4475461382
 10
20.4788857235
 20
-6.4806819197
 10
20.4512680541
 20
-6.5127480573
 10
20.4229708904
 20
-6.5437205099
 10
20.3939987684
 20
-6.5736106246
 10
20.3643574852
 20
-6.6024256419
 10
20.3340694435
 20
-6.6301557881
 10
20.3031521997
 20
-6.656796843
 10
20.2716029861
 20
-6.6823609139
 10
20.2394336858
 20
-6.7068457275
 10
20.2066721832
 20
-6.7302374511
 10
20.173339165
 20
-6.7525292964
  0
LWPOLYLINE
  5
2EF
100
AcDbEntity
  8
218
100
AcDbPolyline
 62
253
  6
CONTINUOUS
 90
105
 70
0
 10
19.2581623784
 20
-1.954534478
 10
19.272705123
 20
-1.9662376851
 10
19.3147601832
 20
-2.0012303899
 10
19.3565678142
 20
-2.0371725638
 10
19.3981097497
 20
-2.0740485033
 10
19.4393678457
 20
-2.1118421018
 10
19.4803240921
 20
-2.150536861
 10
19.5209606095
 20
-2.1901158887
 10
19.5612596545
 20
-2.2305619032
 10
19.6012036304
 20
-2.2718572436
 10
19.6407750984
 20
-2.3139838815
 10
19.6799567839
 20
-2.3569234271
 10
19.7187315741
 20
-2.4006571269
 10
19.7570825289
 20
-2.4451658742
 10
19.7949928946
 20
-2.4904302242
 10
19.8324461264
 20
-2.5364304216
 10
19.8694258853
 20
-2.5831463991
 10
19.9059160356
 20
-2.6305577742
 10
19.9419006318
 20
-2.6786438305
 10
19.9773639414
 20
-2.7273835447
 10
20.0122904656
 20
-2.7767556136
 10
20.0466649692
 20
-2.8267384985
 10
20.0804724665
 20
-2.8773104093
 10
20.1136982112
 20
-2.9284492902
 10
20.1463276779
 20
-2.9801327871
 10
20.1783465926
 20
-3.0323382909
 10
20.2097409576
 20
-3.0850429753
 10
20.2404970838
 20
-3.1382238561
 10
20.2706015694
 20
-3.1918577601
 10
20.3000412868
 20
-3.2459213028
 10
20.3288033611
 20
-3.3003908447
 10
20.3568752055
 20
-3.355242549
 10
20.3842445458
 20
-3.4104524275
 10
20.4108994511
 20
-3.4659964088
 10
20.4368283098
 20
-3.5218502964
 10
20.462019816
 20
-3.5779897408
 10
20.4864629507
 20
-3.6343901913
 10
20.5101470158
 20
-3.6910269625
 10
20.5330616553
 20
-3.7478752848
 10
20.5551968814
 20
-3.8049103742
 10
20.5765430516
 20
-3.8621073846
 10
20.5970908572
 20
-3.9194413799
 10
20.6168313105
 20
-3.9768872875
 10
20.6357557725
 20
-4.0344199672
 10
20.6538559698
 20
-4.0920142612
 10
20.6711240124
 20
-4.1496450573
 10
20.6875523762
 20
-4.2072872442
 10
20.7031338956
 20
-4.2649156862
 10
20.7178617561
 20
-4.3225051864
 10
20.7317295144
 20
-4.3800305511
 10
20.74473111
 20
-4.4374666328
 10
20.7568608739
 20
-4.4947883818
 10
20.7681135186
 20
-4.5519708096
 10
20.778484134
 20
-4.6089889719
 10
20.7879681859
 20
-4.6658179472
 10
20.7965615276
 20
-4.7224328888
 10
20.8042604052
 20
-4.7788090572
 10
20.8110614605
 20
-4.8349218552
 10
20.816961727
 20
-4.8907468051
 10
20.8219586288
 20
-4.9462595435
 10
20.8260499822
 20
-5.0014358183
 10
20.8292339996
 20
-5.0562515225
 10
20.8315092907
 20
-5.110682715
 10
20.8328748626
 20
-5.1647056349
 10
20.8333301193
 20
-5.2182966981
 10
20.832874862
 20
-5.2714325042
 10
20.8315092895
 20
-5.3240898518
 10
20.8292339979
 20
-5.3762457527
 10
20.8260499799
 20
-5.4278774393
 10
20.8219586259
 20
-5.4789623604
 10
20.8169617235
 20
-5.5294781968
 10
20.8110614564
 20
-5.5794028798
 10
20.8042604006
 20
-5.6287146219
 10
20.7965615225
 20
-5.6773919123
 10
20.7879681802
 20
-5.7254135117
 10
20.7784841277
 20
-5.7727584347
 10
20.7681135118
 20
-5.8194059812
 10
20.7568608665
 20
-5.8653357639
 10
20.744731102
 20
-5.9105277484
 10
20.7317295059
 20
-5.9549622341
 10
20.717861747
 20
-5.9986198399
 10
20.7031338861
 20
-6.0414814791
 10
20.6875523662
 20
-6.083528401
 10
20.6711240017
 20
-6.1247422237
 10
20.6538559585
 20
-6.1651049768
 10
20.6357557607
 20
-6.2045990729
 10
20.6168312983
 20
-6.24320729
 10
20.5970908445
 20
-6.2809127434
 10
20.5765430384
 20
-6.3176989323
 10
20.5551968677
 20
-6.3535497722
 10
20.5330616409
 20
-6.388449635
 10
20.5101470008
 20
-6.4223833173
 10
20.4864629354
 20
-6.4553360226
 10
20.4620198004
 20
-6.4872933374
 10
20.4368282939
 20
-6.5182412748
 10
20.4108994346
 20
-6.5481663032
 10
20.3842445285
 20
-6.5770553788
 10
20.3568751876
 20
-6.6048959165
 10
20.3288033429
 20
-6.6316757754
 10
20.3000412685
 20
-6.657383242
 10
20.2706015509
 20
-6.6820070665
 10
20.2404970647
 20
-6.7055364843
 10
20.2097409377
 20
-6.7279612384
 10
20.1783465721
 20
-6.7492715572
 10
20.1733391654
 20
-6.7525292961
  0
LWPOLYLINE
  5
2F0
100
AcDbEntity
  8
218
100
AcDbPolyline
 62
7
  6
CONTINUOUS
 90
31
 70
0
 10
12.5189497606
 20
16.3644629766
 10
12.5186687958
 20
16.3985576104
 10
12.5175398165
 20
16.4410390809
 10
12.5155541116
 20
16.4835844939
 10
12.5127180039
 20
16.5261990795
 10
12.5090389641
 20
16.5688623508
 10
12.5045279177
 20
16.6115247812
 10
12.4991928192
 20
16.6541802626
 10
12.4930409095
 20
16.6968210413
 10
12.4860867222
 20
16.7393930055
 10
12.4783388521
 20
16.7818895786
 10
12.4698048171
 20
16.8243041732
 10
12.4605029637
 20
16.8665810742
 10
12.450442811
 20
16.9087115143
 10
12.4396320287
 20
16.95069123
 10
12.4280908177
 20
16.9924698768
 10
12.4158312204
 20
17.0340312122
 10
12.4028592291
 20
17.0753787373
 10
12.3891879396
 20
17.116490439
 10
12.3748264461
 20
17.1573566055
 10
12.3597812865
 20
17.1979736707
 10
12.3440619542
 20
17.2383275213
 10
12.3276752315
 20
17.2784110409
 10
12.3106269587
 20
17.3182172814
 10
12.2929259155
 20
17.3577315014
 10
12.2745779504
 20
17.3969453473
 10
12.255587403
 20
17.4358516083
 10
12.2359610496
 20
17.4744376114
 10
12.2157032405
 20
17.5126942787
 10
12.1948172112
 20
17.5506138794
 10
12.1769823206
 20
17.5818674374
  0
LWPOLYLINE
  5
2F1
100
AcDbEntity
  8
218
100
AcDbPolyline
 62
253
  6
CONTINUOUS
 90
37
 70
0
 10
12.2382895706
 20
16.0171354798
 10
12.2380596418
 20
16.0551377541
 10
12.2371511584
 20
16.0934553054
 10
12.2355645124
 20
16.1320698743
 10
12.2333003874
 20
16.1709629714
 10
12.2303598623
 20
16.2101161567
 10
12.2267443993
 20
16.2495110527
 10
12.2224556725
 20
16.2891290173
 10
12.2174956872
 20
16.3289510666
 10
12.2118668828
 20
16.3689581561
 10
12.205571932
 20
16.4091311797
 10
12.1986137905
 20
16.4494510653
 10
12.1909958058
 20
16.4898987026
 10
12.1827215922
 20
16.5304548423
 10
12.1737950623
 20
16.5711001746
 10
12.1642204786
 20
16.6118154239
 10
12.154002386
 20
16.6525812467
 10
12.1431456346
 20
16.6933782099
 10
12.1316554078
 20
16.7341868698
 10
12.1195371801
 20
16.7749878136
 10
12.1067967097
 20
16.815761625
 10
12.0934400622
 20
16.8564888625
 10
12.0794736205
 20
16.897150128
 10
12.0649040237
 20
16.9377261053
 10
12.0497381598
 20
16.9781975246
 10
12.0339832692
 20
17.0185451419
 10
12.0176468577
 20
17.0587497663
 10
12.000736632
 20
17.098792297
 10
11.9832606427
 20
17.1386537586
 10
11.9652272459
 20
17.1783151336
 10
11.9466450172
 20
17.2177573901
 10
11.9275228979
 20
17.2569616704
 10
11.9078699653
 20
17.2959094525
 10
11.8876953841
 20
17.3345823782
 10
11.8670087129
 20
17.3729621153
 10
11.8458199085
 20
17.4110303715
 10
11.8241390949
 20
17.4487690545
  0
LINE
  5
2F2
100
AcDbEntity
  8
218
100
AcDbLine
 62
253
  6
CONTINUOUS
 10
12.2382895706
 20
7.844222499
 11
12.2382895706
 21
16.0171354798
  0
LINE
  5
2F3
100
AcDbEntity
  8
218
100
AcDbLine
 62
7
  6
CONTINUOUS
 10
12.5189497702
 20
9.0776818432
 11
12.5189497702
 21
16.3644646651
  0
LINE
  5
2F4
100
AcDbEntity
  8
218
100
AcDbLine
 62
253
  6
CONTINUOUS
 10
12.518941706
 20
9.0726152648
 11
12.5189497702
 21
9.0776818432
  0
LWPOLYLINE
  5
2F5
100
AcDbEntity
  8
RACCORDO
100
AcDbPolyline
 62
7
  6
CONTINUOUS
 90
7
 70
0
 10
9.1517210596
 20
-17.4229228728
 10
9.1516294515
 20
-17.4234084803
 10
9.1514902808
 20
-17.4239206281
 10
9.1513035474
 20
-17.4244593161
 10
9.1510692513
 20
-17.4250245445
 10
9.1507873925
 20
-17.4256163131
 10
9.150457971
 20
-17.426234622
  0
LWPOLYLINE
  5
2F6
100
AcDbEntity
  8
218
100
AcDbPolyline
 62
7
  6
CONTINUOUS
 90
16
 70
0
 10
18.9775021787
 20
4.8591972986
 10
18.9840502789
 20
4.8696140511
 10
18.9907918037
 20
4.8798891017
 10
18.9977267531
 20
4.8900224504
 10
19.0048561096
 20
4.9000291507
 10
19.0121788907
 20
4.9098941492
 10
19.0196921493
 20
4.9195722858
 10
19.0274015521
 20
4.9290637508
 10
19.0353014323
 20
4.9383683539
 10
19.0433718428
 20
4.9474403653
 10
19.0516166087
 20
4.9562769468
 10
19.0600319047
 20
4.9648809365
 10
19.068586308
 20
4.9732151184
 10
19.0772693442
 20
4.9812670871
 10
19.0860914876
 20
4.9890492481
 10
19.0950527382
 20
4.9965616012
  0
LWPOLYLINE
  5
2F7
100
AcDbEntity
  8
218
100
AcDbPolyline
 62
253
  6
CONTINUOUS
 90
56
 70
0
 10
19.0950522189
 20
-6.9545893953
 10
19.1021184538
 20
-6.9520538648
 10
19.1092482616
 20
-6.9497474957
 10
19.1164406808
 20
-6.9476689453
 10
19.1236761997
 20
-6.9458031382
 10
19.1309720989
 20
-6.9441621667
 10
19.1383820402
 20
-6.9427847344
 10
19.145930942
 20
-6.9416588663
 10
19.1535898134
 20
-6.9407913225
 10
19.1613304004
 20
-6.9402476427
 10
19.1691675941
 20
-6.9400296329
 10
19.1770801656
 20
-6.9401277328
 10
19.1849848611
 20
-6.9405895933
 10
19.1928617256
 20
-6.941418078
 10
19.20072275
 20
-6.9426009407
 10
19.2085320259
 20
-6.9441626437
 10
19.2162678862
 20
-6.9460931202
 10
19.2239422424
 20
-6.9483910614
 10
19.2315682424
 20
-6.9510925588
 10
19.2391397082
 20
-6.9541822306
 10
19.246649591
 20
-6.9576598629
 10
19.2541071437
 20
-6.9615812059
 10
19.2615194243
 20
-6.965940122
 10
19.2688607953
 20
-6.9707204868
 10
19.2760888218
 20
-6.975959916
 10
19.2831940513
 20
-6.9816473039
 10
19.2901632186
 20
-6.9877660462
 10
19.2969462724
 20
-6.9943432181
 10
19.3035209892
 20
-7.0013457746
 10
19.3098832842
 20
-7.008773797
 10
19.3160065145
 20
-7.0166992671
 10
19.3218772381
 20
-7.0250801785
 10
19.3274739602
 20
-7.0339133135
 10
19.3327496832
 20
-7.0433182354
 10
19.3376960486
 20
-7.0532532412
 10
19.3422716331
 20
-7.0636933274
 10
19.3463682699
 20
-7.0747679156
 10
19.3499730929
 20
-7.0864663698
 10
19.3530298789
 20
-7.098702907
 10
19.3553597519
 20
-7.1114862878
 10
19.3569207133
 20
-7.1248302605
 10
19.3576810018
 20
-7.1386115879
 10
19.3574915815
 20
-7.1526528463
 10
19.3563024195
 20
-7.1669355588
 10
19.3541178044
 20
-7.1814008075
 10
19.3508998176
 20
-7.1958521497
 10
19.3466066779
 20
-7.210304377
 10
19.3412652062
 20
-7.224705634
 10
19.3349749146
 20
-7.2388107717
 10
19.3277685974
 20
-7.2525711217
 10
19.3196403658
 20
-7.2660622365
 10
19.310651251
 20
-7.2792556665
 10
19.3008087962
 20
-7.2921692435
 10
19.2901288606
 20
-7.3048090615
 10
19.2786880573
 20
-7.3171344563
 10
19.2665077662
 20
-7.3291537077
  0
LWPOLYLINE
  5
2F8
100
AcDbEntity
  8
RACCORDO
100
AcDbPolyline
 62
253
  6
CONTINUOUS
 90
16
 70
0
 10
-2.3891710619
 20
11.2661117963
 10
-2.4508755361
 20
11.2519835535
 10
-2.5177616957
 20
11.241058678
 10
-2.5891208695
 20
11.2334529208
 10
-2.6641969934
 20
11.2292468665
 10
-2.742194622
 20
11.2284850789
 10
-2.8222873556
 20
11.2311756293
 10
-2.9036265967
 20
11.2372900109
 10
-2.9853505408
 20
11.2467634406
 10
-3.0665933073
 20
11.2594955457
 10
-3.1464941139
 20
11.2753514271
 10
-3.2242063965
 20
11.2941630888
 10
-3.2989067789
 20
11.3157312178
 10
-3.3698037965
 20
11.3398272958
 10
-3.436146282
 20
11.3661960203
 10
-3.4972313244
 20
11.3945580097
  0
LINE
  5
2F9
100
AcDbEntity
  8
0
100
AcDbLine
 62
7
  6
CONTINUOUS
 10
2.7136280214
 20
13.1622082933
 11
2.2952310745
 21
13.3714067667
  0
LINE
  5
2FA
100
AcDbEntity
  8
218
100
AcDbLine
 62
7
  6
CONTINUOUS
 10
13.7781054766
 20
14.4813860521
 11
13.7781054766
 21
14.4449973506
  0
LINE
  5
2FB
100
AcDbEntity
  8
RACCORDO
100
AcDbLine
 62
7
  6
CONTINUOUS
 10
0.5621499234
 20
-23.2356669923
 11
-0.0166404168
 21
-23.9401107225
  0
LWPOLYLINE
  5
2FC
100
AcDbEntity
  8
RACCORDO
100
AcDbPolyline
 62
253
  6
CONTINUOUS
 90
11
 70
0
 10
12.5189497702
 20
12.030328014
 10
12.5547481657
 20
12.0241059325
 10
12.6083527493
 20
12.0140844107
 10
12.6595339899
 20
12.003751469
 10
12.7087326022
 20
11.9932263043
 10
12.7559517471
 20
11.9825317651
 10
12.8011882637
 20
11.971645003
 10
12.8448733836
 20
11.9606166693
 10
12.8871508507
 20
11.949463648
 10
12.9278769211
 20
11.9381690552
 10
12.9670515948
 20
11.9267328909
  0
LWPOLYLINE
  5
2FD
100
AcDbEntity
  8
RACCORDO
100
AcDbPolyline
 62
7
  6
CONTINUOUS
 90
9
 70
0
 10
13.0486500825
 20
11.9378479651
 10
13.0425333419
 20
11.9394474628
 10
13.0327631282
 20
11.9409802767
 10
13.0224369327
 20
11.9413957211
 10
13.0116497356
 20
11.9406939486
 10
13.0006864767
 20
11.9388754172
 10
12.9896421359
 20
11.9359402797
 10
12.9784217334
 20
11.9318883833
 10
12.9670252692
 20
11.9267197281
  0
LWPOLYLINE
  5
2FE
100
AcDbEntity
  8
RACCORDO
100
AcDbPolyline
 62
7
  6
CONTINUOUS
 90
6
 70
0
 10
13.0486399463
 20
11.9378240127
 10
12.9399245997
 20
11.9691098584
 10
12.8250695567
 20
11.9984635355
 10
12.7078081328
 20
12.0247906057
 10
12.588434968
 20
12.0480526974
 10
12.5189497702
 20
12.0596147379
  0
LINE
  5
2FF
100
AcDbEntity
  8
ASSI
100
AcDbLine
 62
7
  6
CONTINUOUS
 10
1.900455223
 20
14.5278140629
 11
-13.8680259974
 21
22.4120546732
  0
LINE
  5
300
100
AcDbEntity
  8
RACCORDO
100
AcDbLine
 62
7
  6
CONTINUOUS
 10
1.6529678496
 20
14.9790736881
 11
-13.620538624
 21
22.615826925
  0
LINE
  5
301
100
AcDbEntity
  8
218
100
AcDbLine
 62
253
  6
CONTINUOUS
 10
12.5552488044
 20
9.5715064206
 11
12.5189497702
 21
9.5896559377
  0
LINE
  5
302
100
AcDbEntity
  8
DRAFT
100
AcDbLine
 62
7
  6
CONTINUOUS
 10
-12.7658397462
 20
22.9031419565
 11
-11.1518356302
 21
22.0961398985
  0
LINE
  5
303
100
AcDbEntity
  8
DRAFT
100
AcDbLine
 62
7
  6
CONTINUOUS
 10
0.5984784182
 20
16.2209828742
 11
2.2124825342
 21
15.4139808162
  0
LINE
  5
304
100
AcDbEntity
  8
RACCORDO
100
AcDbLine
 62
7
  6
CONTINUOUS
 10
-2.0268706814
 20
17.8909896592
 11
-7.8193797494
 21
20.7872441933
  0
LINE
  5
305
100
AcDbEntity
  8
RACCORDO
100
AcDbLine
 62
7
  6
CONTINUOUS
 10
-13.4042379545
 20
23.6746720362
 11
-11.7977043915
 21
22.8714052547
  0
LINE
  5
306
100
AcDbEntity
  8
RACCORDO
100
AcDbLine
 62
7
  6
CONTINUOUS
 10
-0.0399197901
 20
16.992512954
 11
1.566613773
 21
16.1892461725
  0
LINE
  5
307
100
AcDbEntity
  8
RACCORDO
100
AcDbLine
 62
253
  6
CONTINUOUS
 10
-13.4688327005
 20
23.8097012111
 11
-11.8630562383
 21
23.00681298
  0
LINE
  5
308
100
AcDbEntity
  8
RACCORDO
100
AcDbLine
 62
253
  6
CONTINUOUS
 10
-0.1045145361
 20
17.1275421289
 11
1.5012619261
 21
16.3246538978
  0
LINE
  5
309
100
AcDbEntity
  8
RACCORDO
100
AcDbLine
 62
253
  6
CONTINUOUS
 10
1.5012619261
 20
16.5780252916
 11
-0.1045145361
 21
17.3809135227
  0
LINE
  5
30A
100
AcDbEntity
  8
RACCORDO
100
AcDbLine
 62
253
  6
CONTINUOUS
 10
-11.8630562383
 20
23.2601843738
 11
-13.4688327005
 21
24.0630726049
  0
LINE
  5
30B
100
AcDbEntity
  8
RACCORDO
100
AcDbLine
 62
7
  6
CONTINUOUS
 10
3.4207348026
 20
15.8818513876
 11
3.2793134463
 21
15.9525620658
  0
LINE
  5
30C
100
AcDbEntity
  8
DRAFT
100
AcDbLine
 62
7
  6
CONTINUOUS
 10
-0.0236266459
 20
17.6040321119
 11
-1.104748597
 21
18.1445930874
  0
LINE
  5
30D
100
AcDbEntity
  8
DRAFT
100
AcDbLine
 62
7
  6
CONTINUOUS
 10
-7.9072477151
 20
21.5458426465
 11
-10.0850047181
 21
22.634721148
  0
LINE
  5
30E
100
AcDbEntity
  8
218
100
AcDbLine
 62
253
  6
CONTINUOUS
 10
12.5672729527
 20
9.5652643635
 11
12.5552488044
 21
9.5715064206
  0
LINE
  5
30F
100
AcDbEntity
  8
218
100
AcDbLine
 62
7
  6
CONTINUOUS
 10
19.259141969
 20
4.625529669
 11
19.2591632458
 21
4.6255873407
  0
LINE
  5
310
100
AcDbEntity
  8
RACCORDO
100
AcDbLine
 62
7
  6
CONTINUOUS
 10
2.2124825342
 20
-23.9984537644
 11
1.5901645021
 21
-24.7435131819
  0
LWPOLYLINE
  5
311
100
AcDbEntity
  8
218
100
AcDbPolyline
 62
253
  6
CONTINUOUS
 90
56
 70
0
 10
18.9775021787
 20
-7.0919530665
 10
18.9833136947
 20
-7.0867549938
 10
18.9891044959
 20
-7.0817743433
 10
18.994873345
 20
-7.0770109462
 10
19.0006140282
 20
-7.0724620782
 10
19.0063303382
 20
-7.0681301894
 10
19.0120355999
 20
-7.0640226927
 10
19.0177301417
 20
-7.0601362688
 10
19.0234101106
 20
-7.0564735677
 10
19.0290818393
 20
-7.0530506698
 10
19.0347449593
 20
-7.0498659199
 10
19.0403956267
 20
-7.0469201474
 10
19.0460345564
 20
-7.0442330285
 10
19.0516584424
 20
-7.0418047969
 10
19.0572660304
 20
-7.0396344075
 10
19.0628607446
 20
-7.0377395154
 10
19.0684292806
 20
-7.0361194803
 10
19.0739799654
 20
-7.0347741396
 10
19.0795468869
 20
-7.0337212678
 10
19.0851139458
 20
-7.0329505202
 10
19.0906888935
 20
-7.0324704762
 10
19.0963367577
 20
-7.0323257193
 10
19.1020593924
 20
-7.032502607
 10
19.1078383925
 20
-7.0330107532
 10
19.113702769
 20
-7.0339279499
 10
19.1196626503
 20
-7.0352575933
 10
19.1256845234
 20
-7.0369909609
 10
19.1317308685
 20
-7.0391875474
 10
19.1377950502
 20
-7.0418608557
 10
19.1438616719
 20
-7.0449934569
 10
19.1498838305
 20
-7.0485997255
 10
19.1558343325
 20
-7.0526740681
 10
19.1617231242
 20
-7.0572203002
 10
19.1675596903
 20
-7.0622673373
 10
19.1733249846
 20
-7.0678032569
 10
19.1790154756
 20
-7.0738378082
 10
19.1846577483
 20
-7.0804312969
 10
19.1902393955
 20
-7.0875845121
 10
19.1957388444
 20
-7.0952933581
 10
19.2011611149
 20
-7.1036096211
 10
19.2064949807
 20
-7.1125543394
 10
19.211707276
 20
-7.1221031396
 10
19.2167673834
 20
-7.132239707
 10
19.2216418226
 20
-7.1429437419
 10
19.2263206579
 20
-7.1542346558
 10
19.2308037453
 20
-7.1661556712
 10
19.2350560082
 20
-7.1786898721
 10
19.2390537059
 20
-7.1918540231
 10
19.2427968282
 20
-7.2057407829
 10
19.2462404722
 20
-7.2203457904
 10
19.2493423571
 20
-7.2356746141
 10
19.2520799936
 20
-7.25183389
 10
19.2543962165
 20
-7.2688832452
 10
19.2562177876
 20
-7.2867682224
 10
19.2574783066
 20
-7.3054252391
 10
19.2581068967
 20
-7.3249777334
  0
LWPOLYLINE
  5
312
100
AcDbEntity
  8
218
100
AcDbPolyline
 62
7
  6
CONTINUOUS
 90
136
 70
0
 10
19.0950522189
 20
-6.9545893953
 10
19.1544490766
 20
-6.9058612404
 10
19.2119663042
 20
-6.8583501716
 10
19.2676039018
 20
-6.8120561892
 10
19.3213067839
 20
-6.7670138479
 10
19.373130036
 20
-6.7231885928
 10
19.4232389137
 20
-6.6804767596
 10
19.471640663
 20
-6.638873421
 10
19.518328038
 20
-6.5983835043
 10
19.5634445565
 20
-6.558918126
 10
19.6069944244
 20
-6.520474762
 10
19.648973436
 20
-6.4830559364
 10
19.6895124914
 20
-6.446580339
 10
19.7286155115
 20
-6.4110455926
 10
19.7662785754
 20
-6.3764540745
 10
19.8026208212
 20
-6.3427316059
 10
19.8376459088
 20
-6.3098759278
 10
19.8713501782
 20
-6.2778892993
 10
19.9038417876
 20
-6.2467043189
 10
19.9351240812
 20
-6.2163188917
 10
19.9651937149
 20
-6.1867351126
 10
19.9941488139
 20
-6.157891865
 10
20.0219924568
 20
-6.129787164
 10
20.0487215651
 20
-6.1024229945
 10
20.0744250289
 20
-6.0757441942
 10
20.0991056941
 20
-6.0497488356
 10
20.1227607147
 20
-6.0244388461
 10
20.145470443
 20
-5.9997648461
 10
20.1672374891
 20
-5.9757249335
 10
20.1880592429
 20
-5.9523210104
 10
20.2080082266
 20
-5.929509404
 10
20.2270868041
 20
-5.9072881921
 10
20.2452926115
 20
-5.885659297
 10
20.2626910792
 20
-5.8645848126
 10
20.2792842848
 20
-5.8440627562
 10
20.2950701507
 20
-5.8240951106
 10
20.3101078735
 20
-5.8046499182
 10
20.3243991577
 20
-5.785725122
 10
20.3379422987
 20
-5.767322779
 10
20.3507913801
 20
-5.7494171031
 10
20.362947612
 20
-5.7320059682
 10
20.3744097842
 20
-5.7150915003
 10
20.3852283495
 20
-5.6986542916
 10
20.3954037605
 20
-5.6826924071
 10
20.4049355645
 20
-5.6672077816
 10
20.4138728558
 20
-5.652186812
 10
20.4222153722
 20
-5.6376276171
 10
20.429963376
 20
-5.623532078
 10
20.4371667486
 20
-5.6098922345
 10
20.4438240586
 20
-5.5967073805
 10
20.4499367374
 20
-5.583978222
 10
20.4555589604
 20
-5.5716989171
 10
20.4606860977
 20
-5.5598786077
 10
20.4653227792
 20
-5.548508152
 10
20.4695370705
 20
-5.5375542829
 10
20.4733270305
 20
-5.5270304316
 10
20.4766946003
 20
-5.516923167
 10
20.4797136687
 20
-5.5071589283
 10
20.4823895427
 20
-5.4977399944
 10
20.4847169154
 20
-5.4886640863
 10
20.486753755
 20
-5.4798508062
 10
20.4885074608
 20
-5.471295158
 10
20.4899706335
 20
-5.4630021378
 10
20.4911790437
 20
-5.4549063359
 10
20.4921389777
 20
-5.4470035025
 10
20.4928441493
 20
-5.4392978873
 10
20.4933114707
 20
-5.4317368294
 10
20.4935466026
 20
-5.4243171567
 10
20.4935438843
 20
-5.4170420413
 10
20.4933032465
 20
-5.4098683381
 10
20.4928303392
 20
-5.4027933156
 10
20.4921195122
 20
-5.3958197053
 10
20.4911537456
 20
-5.3889125569
 10
20.4899393609
 20
-5.3820697384
 10
20.4884700365
 20
-5.3752933818
 10
20.4867097876
 20
-5.3685549325
 10
20.4846662734
 20
-5.3618520485
 10
20.4823318347
 20
-5.3551870717
 10
20.4796475087
 20
-5.3485384733
 10
20.4766184749
 20
-5.3418978606
 10
20.4732395537
 20
-5.3352736262
 10
20.4694362436
 20
-5.3286694194
 10
20.4652061274
 20
-5.3220734492
 10
20.4605516223
 20
-5.3154975066
 10
20.4554054777
 20
-5.3089806142
 10
20.4497632907
 20
-5.3025190315
 10
20.4436294642
 20
-5.296116499
 10
20.4369499566
 20
-5.2898232609
 10
20.4297234888
 20
-5.2836416023
 10
20.4219513397
 20
-5.277569238
 10
20.4135833051
 20
-5.2716495566
 10
20.4046189815
 20
-5.265884583
 10
20.3950587723
 20
-5.2602722922
 10
20.384853683
 20
-5.2548499979
 10
20.3740042269
 20
-5.2496192031
 10
20.3625098908
 20
-5.2445784048
 10
20.3503201406
 20
-5.2397604079
 10
20.3374361811
 20
-5.235166074
 10
20.3238568075
 20
-5.2307945416
 10
20.3095278709
 20
-5.2266760304
 10
20.2944510864
 20
-5.2228108293
 10
20.2786247388
 20
-5.2191986493
 10
20.261989534
 20
-5.2158688439
 10
20.2445475599
 20
-5.2128212396
 10
20.2262967287
 20
-5.2100560098
 10
20.2071714821
 20
-5.2076030283
 10
20.1871741744
 20
-5.2054617642
 10
20.1663024514
 20
-5.2036327483
 10
20.1444836925
 20
-5.2021474474
 10
20.1217205752
 20
-5.201005057
 10
20.098010422
 20
-5.2002063814
 10
20.0732725803
 20
-5.1997853002
 10
20.0475096714
 20
-5.1997407989
 10
20.020719074
 20
-5.2000738919
 10
19.9928122713
 20
-5.2008215026
 10
19.9637932508
 20
-5.2019823563
 10
19.933658025
 20
-5.2035577277
 10
19.9023061154
 20
-5.2055883645
 10
19.8697388769
 20
-5.2080730718
 10
19.8359549546
 20
-5.2110130446
 10
19.8008498051
 20
-5.2144526155
 10
19.7644185293
 20
-5.2183917373
 10
19.7266660264
 20
-5.2228304572
 10
19.6875024498
 20
-5.2278132503
 10
19.6469365539
 20
-5.2333384434
 10
19.6049595844
 20
-5.2394077096
 10
19.5614554318
 20
-5.2460705428
 10
19.5164389997
 20
-5.2533232301
 10
19.4698953845
 20
-5.2611694844
 10
19.4216637652
 20
-5.2696699381
 10
19.3717443157
 20
-5.2788229678
 10
19.3201368622
 20
-5.2886301968
 10
19.2666800629
 20
-5.2991571271
 10
19.2113201373
 20
-5.3104255928
 10
19.154110866
 20
-5.3224137598
 10
19.0950522489
 20
-5.3351216281
  0
LINE
  5
313
100
AcDbEntity
  8
218
100
AcDbLine
 62
7
  6
CONTINUOUS
 10
19.2581623784
 20
-7.3444579152
 11
20.1733391655
 21
-6.7525292961
  0
LINE
  5
314
100
AcDbEntity
  8
RACCORDO
100
AcDbLine
 62
253
  6
CONTINUOUS
 10
0.708003005
 20
-18.390159767
 11
-0.3588590347
 21
-18.8828720115
  0
LINE
  5
315
100
AcDbEntity
  8
RACCORDO
100
AcDbLine
 62
7
  6
CONTINUOUS
 10
0.5071494191
 20
-18.9039288237
 11
-0.3948708491
 21
-19.3205116755
  0
LINE
  5
316
100
AcDbEntity
  8
RACCORDO
100
AcDbLine
 62
7
  6
CONTINUOUS
 10
1.5901645021
 20
16.1810909575
 11
2.2124825342
 21
16.051150375
  0
LWPOLYLINE
  5
317
100
AcDbEntity
  8
RACCORDO
100
AcDbPolyline
 62
7
  6
CONTINUOUS
 90
3
 70
0
 10
13.0606907642
 20
11.9330301845
 10
13.0518425539
 20
11.9367974321
 10
13.0486500825
 20
11.9378479651
  0
LWPOLYLINE
  5
318
100
AcDbEntity
  8
218
100
AcDbPolyline
 62
7
  6
CONTINUOUS
 90
10
 70
0
 10
13.9813428456
 20
12.2915779501
 10
14.0174484652
 20
12.2758702253
 10
14.0529830676
 20
12.2598617378
 10
14.0879466527
 20
12.2435524877
 10
14.1223493899
 20
12.2269373903
 10
14.1561811099
 20
12.2100215303
 10
14.1894113047
 20
12.1928201617
 10
14.2220298049
 20
12.1753383691
 10
14.2540467798
 20
12.1575710679
 10
14.2854622295
 20
12.1395182581
  0
LINE
  5
319
100
AcDbEntity
  8
RACCORDO
100
AcDbLine
 62
253
  6
CONTINUOUS
 10
1.6780326555
 20
16.8818908698
 11
0.0702112465
 21
17.6858015744
  0
LINE
  5
31A
100
AcDbEntity
  8
RACCORDO
100
AcDbLine
 62
253
  6
CONTINUOUS
 10
-11.6862855089
 20
23.564049952
 11
-13.294106918
 21
24.3679606566
  0
LINE
  5
31B
100
AcDbEntity
  8
RACCORDO
100
AcDbLine
 62
7
  6
CONTINUOUS
 10
-7.8193797494
 20
22.0021990593
 11
-2.0268706814
 21
19.1059445253
  0
LINE
  5
31C
100
AcDbEntity
  8
RACCORDO
100
AcDbLine
 62
7
  6
CONTINUOUS
 10
4.1278415838
 20
16.227847089
 11
3.3281095599
 21
16.6277131009
  0
LINE
  5
31D
100
AcDbEntity
  8
RACCORDO
100
AcDbLine
 62
7
  6
CONTINUOUS
 10
-8.5537306011
 20
22.5686331814
 11
-10.0362086045
 21
23.3098721832
  0
LINE
  5
31E
100
AcDbEntity
  8
DRAFT
100
AcDbLine
 62
7
  6
CONTINUOUS
 10
-7.3272882715
 20
22.46829849
 11
-1.104748597
 21
19.3570286527
  0
LINE
  5
31F
100
AcDbEntity
  8
218
100
AcDbLine
 62
7
  6
CONTINUOUS
 10
14.4293363256
 20
12.0519213575
 11
13.7978050046
 21
12.3676870181
  0
LINE
  5
320
100
AcDbEntity
  8
218
100
AcDbLine
 62
7
  6
CONTINUOUS
 10
13.9813428456
 20
12.2915779501
 11
14.2854622295
 21
12.1395182581
  0
LINE
  5
321
100
AcDbEntity
  8
DRAFT
100
AcDbLine
 62
7
  6
CONTINUOUS
 10
-11.7113503148
 20
25.1799447539
 11
-10.0850047181
 21
24.3667719555
  0
LINE
  5
322
100
AcDbEntity
  8
DRAFT
100
AcDbLine
 62
7
  6
CONTINUOUS
 10
1.6529678496
 20
18.4977856717
 11
3.2793134463
 21
17.6846128733
  0
LINE
  5
323
100
AcDbEntity
  8
DRAFT
100
AcDbLine
 62
7
  6
CONTINUOUS
 10
-1.0340379189
 20
20.0237417064
 11
-5.9837853872
 21
22.4986154406
  0
LINE
  5
324
100
AcDbEntity
  8
RACCORDO
100
AcDbLine
 62
253
  6
CONTINUOUS
 10
-11.1769004361
 20
25.4402922205
 11
-9.5567375463
 21
24.6302107756
  0
LINE
  5
325
100
AcDbEntity
  8
RACCORDO
100
AcDbLine
 62
253
  6
CONTINUOUS
 10
2.1874177283
 20
18.7581331383
 11
3.8075806181
 21
17.9480516934
  0
LINE
  5
326
100
AcDbEntity
  8
RACCORDO
100
AcDbLine
 62
7
  6
CONTINUOUS
 10
-11.0654828208
 20
25.4465607837
 11
-9.4466052426
 21
24.6371219946
  0
LINE
  5
327
100
AcDbEntity
  8
RACCORDO
100
AcDbLine
 62
7
  6
CONTINUOUS
 10
2.2988353436
 20
18.7644017015
 11
3.9177129218
 21
17.9549629124
  0
LWPOLYLINE
  5
328
100
AcDbEntity
  8
RACCORDO
100
AcDbPolyline
 62
7
  6
CONTINUOUS
 90
4
 70
0
 10
13.9092189017
 20
11.5087661158
 10
13.9917745254
 20
11.467456815
 10
14.0761957796
 20
11.425041151
 10
14.1166169944
 20
11.4046531951
  0
LWPOLYLINE
  5
329
100
AcDbEntity
  8
RACCORDO
100
AcDbPolyline
 62
7
  6
CONTINUOUS
 90
10
 70
0
 10
13.8712748344
 20
11.5214337708
 10
13.7737977807
 20
11.5714892024
 10
13.6781845789
 20
11.6204650781
 10
13.5844352289
 20
11.6683613977
 10
13.4925641476
 20
11.7151795854
 10
13.4025569182
 20
11.7609182172
 10
13.3143702902
 20
11.8055730202
 10
13.2279898468
 20
11.8491425703
 10
13.1434300048
 20
11.8916282918
 10
13.0606907642
 20
11.9330301845
  0
LINE
  5
32A
100
AcDbEntity
  8
RACCORDO
100
AcDbLine
 62
7
  6
CONTINUOUS
 10
13.879033263
 20
11.5168472987
 11
13.8712748344
 21
11.5214337708
  0
LWPOLYLINE
  5
32B
100
AcDbEntity
  8
RACCORDO
100
AcDbPolyline
 62
253
  6
CONTINUOUS
 90
8
 70
0
 10
13.9092189017
 20
11.5087661158
 10
13.933741892
 20
11.4882617374
 10
13.9581076537
 20
11.466983473
 10
13.9822444038
 20
11.4449211957
 10
14.0060092888
 20
11.4221328754
 10
14.0293991046
 20
11.3985444121
 10
14.0525224105
 20
11.3739428248
 10
14.0525545144
 20
11.3739066574
  0
LWPOLYLINE
  5
32C
100
AcDbEntity
  8
RACCORDO
100
AcDbPolyline
 62
253
  6
CONTINUOUS
 90
9
 70
0
 10
13.8155823025
 20
11.5024701073
 10
13.8384427319
 20
11.4828913739
 10
13.8610202702
 20
11.4625383273
 10
13.8833149174
 20
11.4414109677
 10
13.9053604157
 20
11.4195810808
 10
13.927123023
 20
11.3969768808
 10
13.9485015123
 20
11.3733830104
 10
13.9695412153
 20
11.3488012612
 10
13.9781192459
 20
11.3381817402
  0
LINE
  5
32D
100
AcDbEntity
  8
218
100
AcDbLine
 62
7
  6
CONTINUOUS
 10
10.6933404535
 20
17.3547459283
 11
9.610145184
 21
19.2229814141
  0
LWPOLYLINE
  5
32E
100
AcDbEntity
  8
218
100
AcDbPolyline
 62
253
  6
CONTINUOUS
 90
57
 70
0
 10
19.2581623784
 20
-3.6833982116
 10
19.2664280781
 20
-3.7097559671
 10
19.2786075774
 20
-3.7519069373
 10
19.2900486682
 20
-3.7950676724
 10
19.3007298703
 20
-3.8392100619
 10
19.310574522
 20
-3.8842504747
 10
19.3195666285
 20
-3.9301679098
 10
19.3276988378
 20
-3.9769838829
 10
19.3349105104
 20
-4.0246762838
 10
19.3412075164
 20
-4.0735007291
 10
19.3465570498
 20
-4.1232016254
 10
19.3508596624
 20
-4.1729794051
 10
19.3540887493
 20
-4.2227996338
 10
19.3562851234
 20
-4.2726750091
 10
19.3574849349
 20
-4.3218599462
 10
19.3576835058
 20
-4.3703420189
 10
19.3569311107
 20
-4.418102032
 10
19.3553762395
 20
-4.4643721142
 10
19.35305035
 20
-4.5089414323
 10
19.3499956601
 20
-4.5519850855
 10
19.3463914445
 20
-4.5933092319
 10
19.3422939485
 20
-4.632750294
 10
19.3377161903
 20
-4.6704444392
 10
19.3327670609
 20
-4.7066496688
 10
19.3274883356
 20
-4.7413446269
 10
19.3218882198
 20
-4.7745336768
 10
19.3160136568
 20
-4.8065170235
 10
19.3098863014
 20
-4.8373287938
 10
19.3035195163
 20
-4.8669245491
 10
19.2969394611
 20
-4.8954889917
 10
19.2901497641
 20
-4.9230762523
 10
19.2831731114
 20
-4.9496255435
 10
19.2760604519
 20
-4.9751501732
 10
19.2688249595
 20
-4.9996392454
 10
19.2614762539
 20
-5.023098648
 10
19.2540581007
 20
-5.0455672484
 10
19.2465967676
 20
-5.0670025023
 10
19.2390846641
 20
-5.0874432498
 10
19.2315121145
 20
-5.1070509454
 10
19.2238862022
 20
-5.1258394241
 10
19.2162130958
 20
-5.1437924754
 10
19.2084791215
 20
-5.1610269973
 10
19.2006723006
 20
-5.1775807064
 10
19.1928143634
 20
-5.1934142656
 10
19.1849408704
 20
-5.2085291904
 10
19.1770397712
 20
-5.222938912
 10
19.1691310678
 20
-5.2366285823
 10
19.1612978207
 20
-5.249557251
 10
19.15356126
 20
-5.2616837399
 10
19.1459064816
 20
-5.2730478127
 10
19.1383615255
 20
-5.2837299526
 10
19.130955287
 20
-5.293701607
 10
19.1236629352
 20
-5.3029901881
 10
19.1164308695
 20
-5.3117603402
 10
19.109241829
 20
-5.3200667428
 10
19.1021153022
 20
-5.3278539657
 10
19.0950522489
 20
-5.3351216281
  0
LINE
  5
32F
100
AcDbEntity
  8
218
100
AcDbLine
 62
253
  6
CONTINUOUS
 10
19.2575780167
 20
4.6436572124
 11
19.2581353868
 21
4.6238122659
  0
LINE
  5
330
100
AcDbEntity
  8
218
100
AcDbLine
 62
253
  6
CONTINUOUS
 10
19.2581068967
 20
-7.3249777334
 11
19.2581620073
 21
-7.3321553878
  0
LINE
  5
331
100
AcDbEntity
  8
218
100
AcDbLine
 62
253
  6
CONTINUOUS
 10
19.2581353868
 20
4.6238122659
 11
19.2581619351
 21
4.619058035
  0
LINE
  5
332
100
AcDbEntity
  8
218
100
AcDbLine
 62
253
  6
CONTINUOUS
 10
18.9775021787
 20
-10.8993515671
 11
18.9775021787
 21
-7.0919532796
  0
LINE
  5
333
100
AcDbEntity
  8
218
100
AcDbLine
 62
253
  6
CONTINUOUS
 10
18.9775021787
 20
-5.3194843808
 11
18.9775021787
 21
4.8591972986
  0
LINE
  5
334
100
AcDbEntity
  8
218
100
AcDbLine
 62
7
  6
CONTINUOUS
 10
19.2581623784
 20
-10.5520223819
 11
19.2581620073
 21
-7.3321553878
  0
LINE
  5
335
100
AcDbEntity
  8
218
100
AcDbLine
 62
7
  6
CONTINUOUS
 10
19.2581623784
 20
11.53425082
 11
19.2581619341
 21
7.5655203114
  0
LINE
  5
336
100
AcDbEntity
  8
218
100
AcDbLine
 62
7
  6
CONTINUOUS
 10
19.2581619351
 20
4.619058035
 11
19.2581620087
 21
-4.3854828866
  0
LWPOLYLINE
  5
337
100
AcDbEntity
  8
218
100
AcDbPolyline
 62
253
  6
CONTINUOUS
 90
57
 70
0
 10
19.2581619341
 20
7.5655203114
 10
19.2581355449
 20
7.554399835
 10
19.2575786639
 20
7.5077159488
 10
19.2563734731
 20
7.4632214638
 10
19.2545971126
 20
7.4205945616
 10
19.2523054266
 20
7.3796229043
 10
19.2495545754
 20
7.3402718294
 10
19.2464053363
 20
7.3025826173
 10
19.2428979352
 20
7.2664558623
 10
19.23908537
 20
7.2319401509
 10
19.2350105832
 20
7.1989879662
 10
19.2306805591
 20
7.1673559005
 10
19.2261298496
 20
7.1370457155
 10
19.2213911668
 20
7.1080547814
 10
19.2164486845
 20
7.0801345119
 10
19.2113084128
 20
7.0532015544
 10
19.2060069516
 20
7.0273386549
 10
19.2005644475
 20
7.0025471292
 10
19.1950002081
 20
6.9788288429
 10
19.1893353575
 20
6.9561795006
 10
19.1835919989
 20
6.9345907834
 10
19.1777996345
 20
6.9141013581
 10
19.1719669266
 20
6.8946685732
 10
19.16608117
 20
6.8761624378
 10
19.1601521102
 20
6.8585670574
 10
19.1541980458
 20
6.8418949466
 10
19.1482140301
 20
6.8260595449
 10
19.1422000434
 20
6.8110352648
 10
19.136178523
 20
6.7968445203
 10
19.1301773586
 20
6.7834726764
 10
19.1242128531
 20
6.7709346973
 10
19.1182919391
 20
6.7592111996
 10
19.1124292054
 20
6.7482355709
 10
19.1066500373
 20
6.7380299781
 10
19.1009505232
 20
6.728567372
 10
19.0952988344
 20
6.7197078693
 10
19.0897094031
 20
6.7114491511
 10
19.0841827815
 20
6.7037899411
 10
19.0786610776
 20
6.6965934902
 10
19.0731370771
 20
6.6898351009
 10
19.0676258296
 20
6.6835378416
 10
19.0620986374
 20
6.677637982
 10
19.0565490051
 20
6.67212283
 10
19.0509884154
 20
6.6670042382
 10
19.0454135998
 20
6.6622558049
 10
19.0398263215
 20
6.6578766827
 10
19.0342293645
 20
6.6538668805
 10
19.0286205869
 20
6.6502013992
 10
19.0230036823
 20
6.6468803278
 10
19.0173790534
 20
6.6439027688
 10
19.0117391412
 20
6.6412424082
 10
19.0060876493
 20
6.6388981015
 10
19.0004242279
 20
6.6368703713
 10
18.994734463
 20
6.6351357153
 10
18.9890141206
 20
6.6336863069
 10
18.9832696463
 20
6.6325297721
 10
18.9775021787
 20
6.6316659788
  0
LWPOLYLINE
  5
338
100
AcDbEntity
  8
218
100
AcDbPolyline
 62
253
  6
CONTINUOUS
 90
57
 70
0
 10
19.2581620087
 20
-4.3854828866
 10
19.2581085039
 20
-4.4020679041
 10
19.2574831401
 20
-4.4481087034
 10
19.2562243183
 20
-4.4921623604
 10
19.2544028866
 20
-4.534470531
 10
19.2520856175
 20
-4.5749839897
 10
19.2493461347
 20
-4.6135787061
 10
19.2462416969
 20
-4.6503735247
 10
19.2427949757
 20
-4.6856844594
 10
19.2390485296
 20
-4.719525879
 10
19.2350473281
 20
-4.7518822156
 10
19.2307911099
 20
-4.7830236535
 10
19.2263035965
 20
-4.8129926659
 10
19.2216199486
 20
-4.8417469252
 10
19.2167400218
 20
-4.8694283117
 10
19.2116732035
 20
-4.8960999529
 10
19.2064534209
 20
-4.9216995815
 10
19.2011126355
 20
-4.9461809808
 10
19.1956847044
 20
-4.9694904721
 10
19.190180538
 20
-4.9916851283
 10
19.1845951145
 20
-5.0128849068
 10
19.1789502808
 20
-5.0330778117
 10
19.1732584201
 20
-5.0522791977
 10
19.1674924117
 20
-5.0706488398
 10
19.1616557218
 20
-5.0882162849
 10
19.1557675471
 20
-5.1049541834
 10
19.1498181001
 20
-5.1209358294
 10
19.1437973784
 20
-5.1362037459
 10
19.1377326572
 20
-5.1507171994
 10
19.1316707041
 20
-5.1644250163
 10
19.125626962
 20
-5.1773060833
 10
19.119608021
 20
-5.1893854455
 10
19.1136510933
 20
-5.2006824356
 10
19.1077896034
 20
-5.2111581884
 10
19.1020134693
 20
-5.2208568875
 10
19.0962935525
 20
-5.2299223125
 10
19.09064817
 20
-5.2383528664
 10
19.0850755133
 20
-5.246154164
 10
19.0795106319
 20
-5.2534791282
 10
19.0739457457
 20
-5.2603553092
 10
19.0683969592
 20
-5.2667569158
 10
19.0628303257
 20
-5.2727552851
 10
19.0572375539
 20
-5.2783656636
 10
19.0516319054
 20
-5.2835736066
 10
19.0460099874
 20
-5.2884053205
 10
19.0403730667
 20
-5.2928618814
 10
19.0347244323
 20
-5.2969430239
 10
19.0290633564
 20
-5.3006728399
 10
19.0233936772
 20
-5.3040508957
 10
19.0177157635
 20
-5.3070784496
 10
19.0120232789
 20
-5.309781999
 10
19.0063200711
 20
-5.3121624711
 10
19.000605812
 20
-5.314219607
 10
18.9948671819
 20
-5.3159778388
 10
18.9891003892
 20
-5.3174453314
 10
18.9833116429
 20
-5.3186141936
 10
18.9775021787
 20
-5.3194845935
  0
LWPOLYLINE
  5
339
100
AcDbEntity
  8
218
100
AcDbPolyline
 62
7
  6
CONTINUOUS
 90
6
 70
0
 10
19.2581629036
 20
4.6183756003
 10
19.2582150691
 20
4.6201508619
 10
19.2584152611
 20
4.6222218184
 10
19.2586892775
 20
4.6238239409
 10
19.2589603607
 20
4.6249457228
 10
19.259141969
 20
4.625529669
  0
LWPOLYLINE
  5
33A
100
AcDbEntity
  8
218
100
AcDbPolyline
 62
7
  6
CONTINUOUS
 90
6
 70
0
 10
19.258162883
 20
-7.3327733518
 10
19.2582150653
 20
-7.3309984947
 10
19.2584154663
 20
-7.3289275315
 10
19.2586894288
 20
-7.3273256792
 10
19.2589605421
 20
-7.3262040786
 10
19.2591422698
 20
-7.3256201411
  0
LWPOLYLINE
  5
33B
100
AcDbEntity
  8
218
100
AcDbPolyline
 62
7
  6
CONTINUOUS
 90
16
 70
0
 10
18.9775021787
 20
-7.0919532796
 10
18.9840502587
 20
-7.0815365431
 10
18.99079176
 20
-7.0712615153
 10
18.9977266827
 20
-7.0611281962
 10
19.0048560084
 20
-7.0511215351
 10
19.0121787555
 20
-7.0412565826
 10
19.0196919786
 20
-7.0315784912
 10
19.027401345
 20
-7.0220870688
 10
19.0353011875
 20
-7.0127825074
 10
19.0433715593
 20
-7.0037105346
 10
19.0516162852
 20
-6.9948739902
 10
19.0600315403
 20
-6.9862700345
 10
19.0685859034
 20
-6.9779358762
 10
19.0772689007
 20
-6.9698839184
 10
19.0860910058
 20
-6.9621017581
 10
19.0950522189
 20
-6.9545893953
  0
LINE
  5
33C
100
AcDbEntity
  8
218
100
AcDbLine
 62
253
  6
CONTINUOUS
 10
19.2665077662
 20
-7.3291537077
 11
19.2581623784
 21
-7.3367388711
  0
LINE
  5
33D
100
AcDbEntity
  8
218
100
AcDbLine
 62
7
  6
CONTINUOUS
 10
9.610145184
 20
-16.8902779237
 11
10.6933404535
 21
-16.1052377074
  0
LWPOLYLINE
  5
33E
100
AcDbEntity
  8
218
100
AcDbPolyline
 62
7
  6
CONTINUOUS
 90
4
 70
0
 10
18.4202004665
 20
-12.0223574561
 10
18.4060872535
 20
-12.030460092
 10
18.3918648374
 20
-12.0383207201
 10
18.3827358804
 20
-12.0432088404
  0
LWPOLYLINE
  5
33F
100
AcDbEntity
  8
RACCORDO
100
AcDbPolyline
 62
7
  6
CONTINUOUS
 90
25
 70
0
 10
8.4034710825
 20
-17.8860756871
 10
8.4293874928
 20
-17.8712434705
 10
8.4558897295
 20
-17.8559764937
 10
8.4829777925
 20
-17.8402747568
 10
8.5106794488
 20
-17.8241256541
 10
8.5389669315
 20
-17.8075417912
 10
8.5677569395
 20
-17.7905609853
 10
8.5970304586
 20
-17.7731944114
 10
8.6268065029
 20
-17.7554308944
 10
8.657058814
 20
-17.7372747261
 10
8.6878012483
 20
-17.7187178291
 10
8.7190199494
 20
-17.6997682808
 10
8.7506470889
 20
-17.6804546044
 10
8.7826938235
 20
-17.6607699697
 10
8.8151489966
 20
-17.6407212068
 10
8.84791131
 20
-17.6203573301
 10
8.8809960841
 20
-17.5996684909
 10
8.9143879985
 20
-17.5786645377
 10
8.9479397939
 20
-17.557424031
 10
8.9816711089
 20
-17.5359337451
 10
9.015562305
 20
-17.5142069056
 10
9.0494072067
 20
-17.4923617498
 10
9.0831370891
 20
-17.4704376902
 10
9.1168206772
 20
-17.4483953142
 10
9.150457971
 20
-17.426234622
  0
LWPOLYLINE
  5
340
100
AcDbEntity
  8
218
100
AcDbPolyline
 62
253
  6
CONTINUOUS
 90
4
 70
0
 10
18.382741435
 20
-12.0432059031
 10
18.3978894334
 20
-12.034734606
 10
18.4129198645
 20
-12.0253692225
 10
18.4275293649
 20
-12.0152712091
  0
LWPOLYLINE
  5
341
100
AcDbEntity
  8
218
100
AcDbPolyline
 62
253
  6
CONTINUOUS
 90
5
 70
0
 10
18.5633517031
 20
-11.9168346661
 10
18.5821882185
 20
-11.9064744582
 10
18.6006303352
 20
-11.8954862211
 10
18.6186643582
 20
-11.8838781145
 10
18.6379192972
 20
-11.8704725333
  0
LWPOLYLINE
  5
342
100
AcDbEntity
  8
218
100
AcDbPolyline
 62
253
  6
CONTINUOUS
 90
5
 70
0
 10
18.4275293649
 20
-12.0152712091
 10
18.4463658802
 20
-12.0049110013
 10
18.4648079969
 20
-11.9939227642
 10
18.4828420198
 20
-11.9823146577
 10
18.502096959
 20
-11.9689090763
  0
LWPOLYLINE
  5
343
100
AcDbEntity
  8
RACCORDO
100
AcDbPolyline
 62
7
  6
CONTINUOUS
 90
3
 70
0
 10
8.4034710825
 20
-17.8860756871
 10
8.3688866054
 20
-17.9049513847
 10
8.3530496997
 20
-17.913052303
  0
LWPOLYLINE
  5
344
100
AcDbEntity
  8
218
100
AcDbPolyline
 62
253
  6
CONTINUOUS
 90
29
 70
0
 10
18.9775021787
 20
-10.8993515671
 10
18.9961633173
 20
-10.8894222241
 10
19.0142764122
 20
-10.8792423262
 10
19.0318280127
 20
-10.8688194329
 10
19.0488050849
 20
-10.8581612844
 10
19.0651950214
 20
-10.8472757955
 10
19.0809856511
 20
-10.8361710498
 10
19.0961652477
 20
-10.8248552937
 10
19.1107225387
 20
-10.8133369304
 10
19.1246467139
 20
-10.8016245134
 10
19.1379274331
 20
-10.7897267406
 10
19.1505548339
 20
-10.7776524472
 10
19.1625195391
 20
-10.7654105996
 10
19.1738126638
 20
-10.7530102888
 10
19.1844258215
 20
-10.7404607233
 10
19.1943511309
 20
-10.7277712224
 10
19.2035812213
 20
-10.7149512095
 10
19.2121092386
 20
-10.7020102047
 10
19.2199288496
 20
-10.6889578181
 10
19.2270342476
 20
-10.6758037426
 10
19.2334201561
 20
-10.6625577463
 10
19.2390818327
 20
-10.6492296658
 10
19.2440150731
 20
-10.6358293987
 10
19.248216214
 20
-10.622366896
 10
19.2516821354
 20
-10.6088521551
 10
19.2544102635
 20
-10.5952952121
 10
19.2563985726
 20
-10.5817061345
 10
19.2576455859
 20
-10.5680950136
 10
19.2581503775
 20
-10.554471957
  0
LINE
  5
345
100
AcDbEntity
  8
218
100
AcDbLine
 62
253
  6
CONTINUOUS
 10
18.4275293649
 20
-12.0152712091
 11
10.6933404535
 21
-16.1052377074
  0
LINE
  5
346
100
AcDbEntity
  8
218
100
AcDbLine
 62
7
  6
CONTINUOUS
 10
18.382741435
 20
-12.0432059031
 11
10.6716483513
 21
-16.1209589472
  0
LINE
  5
347
100
AcDbEntity
  8
218
100
AcDbLine
 62
253
  6
CONTINUOUS
 10
4.3753289572
 20
-18.5914482575
 11
18.9775021787
 21
-10.8993515671
  0
LINE
  5
348
100
AcDbEntity
  8
218
100
AcDbLine
 62
253
  6
CONTINUOUS
 10
4.3753289572
 20
-19.3907661933
 11
18.5633517031
 21
-11.9168346661
  0
LINE
  5
349
100
AcDbEntity
  8
218
100
AcDbLine
 62
7
  6
CONTINUOUS
 10
4.3753289572
 20
-19.6401790839
 11
9.610145184
 21
-16.8902779237
  0
LINE
  5
34A
100
AcDbEntity
  8
RACCORDO
100
AcDbLine
 62
253
  6
CONTINUOUS
 10
4.3753289572
 20
-19.9079788707
 11
8.4034710825
 21
-17.8860756871
  0
LINE
  5
34B
100
AcDbEntity
  8
RACCORDO
100
AcDbLine
 62
7
  6
CONTINUOUS
 10
4.3753289572
 20
-19.9096469514
 11
8.3530920282
 21
-17.9130312496
  0
LINE
  5
34C
100
AcDbEntity
  8
RACCORDO
100
AcDbLine
 62
253
  6
CONTINUOUS
 10
4.3753289572
 20
-19.6701738399
 11
9.067569492
 21
-17.342787943
  0
LINE
  5
34D
100
AcDbEntity
  8
RACCORDO
100
AcDbLine
 62
253
  6
CONTINUOUS
 10
4.3753289572
 20
-19.7920485677
 11
9.1517210596
 21
-17.4229228728
  0
LINE
  5
34E
100
AcDbEntity
  8
RACCORDO
100
AcDbLine
 62
7
  6
CONTINUOUS
 10
-11.7741536623
 20
22.8632500397
 11
-11.1518356302
 21
22.7333094572
  0
LWPOLYLINE
  5
34F
100
AcDbEntity
  8
218
100
AcDbPolyline
 62
253
  6
CONTINUOUS
 90
17
 70
0
 10
-1.016857296
 20
21.991188745
 10
-1.0214103061
 20
21.9931965919
 10
-1.0261654236
 20
21.9949240152
 10
-1.0310543677
 20
21.9963415286
 10
-1.0360688648
 20
21.9974467335
 10
-1.0412004293
 20
21.9982377595
 10
-1.0464403772
 20
21.9987132681
 10
-1.0517798411
 20
21.9988724545
 10
-1.0572097854
 20
21.9987150493
 10
-1.0627210213
 20
21.9982413189
 10
-1.0683042222
 20
21.9974520651
 10
-1.07394994
 20
21.9963486233
 10
-1.0796486207
 20
21.9949328609
 10
-1.0853906207
 20
21.9932071738
 10
-1.0911662231
 20
21.9911744821
 10
-1.096965654
 20
21.9888382258
 10
-1.1027790995
 20
21.9862023584
  0
LWPOLYLINE
  5
350
100
AcDbEntity
  8
218
100
AcDbPolyline
 62
7
  6
CONTINUOUS
 90
21
 70
0
 10
-2.0963568634
 20
21.8596833487
 10
-2.1081939079
 20
21.86515738
 10
-2.1199648003
 20
21.8701754082
 10
-2.1316569906
 20
21.8747317196
 10
-2.1432571321
 20
21.8788212346
 10
-2.1547535423
 20
21.8824392403
 10
-2.1661362015
 20
21.8855812455
 10
-2.1773924518
 20
21.8882436497
 10
-2.1885101859
 20
21.8904232389
 10
-2.1994802676
 20
21.8921166397
 10
-2.2102903424
 20
21.8933217983
 10
-2.2209284383
 20
21.8940369721
 10
-2.2313860878
 20
21.8942598273
 10
-2.2416508611
 20
21.8939899139
 10
-2.2517115157
 20
21.8932270813
 10
-2.2615614707
 20
21.8919699636
 10
-2.2711895315
 20
21.8902194756
 10
-2.2805839444
 20
21.8879769811
 10
-2.2897375185
 20
21.8852425604
 10
-2.298637376
 20
21.8820197465
 10
-2.3069425452
 20
21.8784650991
  0
LWPOLYLINE
  5
351
100
AcDbEntity
  8
218
100
AcDbPolyline
 62
253
  6
CONTINUOUS
 90
26
 70
0
 10
18.7053759739
 20
12.428678011
 10
18.6980924836
 20
12.4322219594
 10
18.682844782
 20
12.4390277835
 10
18.6672817089
 20
12.4451617152
 10
18.6514148216
 20
12.4506191995
 10
18.6352559028
 20
12.4553961836
 10
18.6188169523
 20
12.4594891201
 10
18.6021101778
 20
12.4628949695
 10
18.5851479857
 20
12.4656112027
 10
18.5679429723
 20
12.4676358025
 10
18.5505079141
 20
12.4689672655
 10
18.5328557585
 20
12.469604603
 10
18.5149996141
 20
12.4695473416
 10
18.496952741
 20
12.4687955238
 10
18.4787285408
 20
12.4673497081
 10
18.460340547
 20
12.4652109679
 10
18.4418024146
 20
12.4623808916
 10
18.4231279101
 20
12.4588615809
 10
18.4043309012
 20
12.4546556491
 10
18.3854253468
 20
12.4497662196
 10
18.3664252863
 20
12.4441969234
 10
18.3473448291
 20
12.4379518961
 10
18.3281981445
 20
12.4310357755
 10
18.308999451
 20
12.4234536975
 10
18.2897630056
 20
12.4152112925
 10
18.2705030934
 20
12.4063146814
  0
LWPOLYLINE
  5
352
100
AcDbEntity
  8
218
100
AcDbPolyline
 62
7
  6
CONTINUOUS
 90
64
 70
0
 10
-1.0158008642
 20
21.990673191
 10
-1.0262421162
 20
21.9957686738
 10
-1.0437481979
 20
22.0037759629
 10
-1.0617255357
 20
22.0113516209
 10
-1.0801426397
 20
22.0184894554
 10
-1.098990434
 20
22.0251951804
 10
-1.1182814037
 20
22.031482078
 10
-1.1379928788
 20
22.0373515513
 10
-1.1581023973
 20
22.042806813
 10
-1.1786185652
 20
22.0478595884
 10
-1.1994892862
 20
22.052506742
 10
-1.2207261218
 20
22.0567605091
 10
-1.2424312535
 20
22.06064584
 10
-1.264556157
 20
22.064155613
 10
-1.2871195753
 20
22.0672941471
 10
-1.310325333
 20
22.0700836754
 10
-1.3342497626
 20
22.0725186654
 10
-1.3587930139
 20
22.0745742958
 10
-1.3838926515
 20
22.0762342427
 10
-1.4096514785
 20
22.0774921491
 10
-1.4359389139
 20
22.0783280578
 10
-1.4623391224
 20
22.07872764
 10
-1.4888151134
 20
22.0786987075
 10
-1.5153765411
 20
22.0782483165
 10
-1.5416783707
 20
22.0773953685
 10
-1.5676304969
 20
22.0761638441
 10
-1.5933048576
 20
22.0745697562
 10
-1.6186017842
 20
22.0726375383
 10
-1.6435013789
 20
22.0703879515
 10
-1.6680124528
 20
22.0678382791
 10
-1.6920793263
 20
22.0650121393
 10
-1.7156833508
 20
22.0619299723
 10
-1.7388380938
 20
22.0586074182
 10
-1.7615362695
 20
22.0550620115
 10
-1.7837702019
 20
22.0513110433
 10
-1.8055459312
 20
22.0473690339
 10
-1.8268756479
 20
22.0432484884
 10
-1.8477597634
 20
22.038963402
 10
-1.8681978265
 20
22.0345276034
 10
-1.8881990941
 20
22.0299523829
 10
-1.907765841
 20
22.0252500889
 10
-1.9268965467
 20
22.0204337593
 10
-1.9455930928
 20
22.0155154403
 10
-1.9638651529
 20
22.0105047988
 10
-1.9817040049
 20
22.005416338
 10
-1.9990829937
 20
22.0002702877
 10
-2.0159900786
 20
21.9950834
 10
-2.0324400069
 20
21.9898642265
 10
-2.0484449043
 20
21.9846215187
 10
-2.0639845852
 20
21.979374565
 10
-2.0790804725
 20
21.974128742
 10
-2.093802213
 20
21.9688710912
 10
-2.1081483577
 20
21.9636124123
 10
-2.1221135122
 20
21.9583651089
 10
-2.1357538332
 20
21.9531178744
 10
-2.1490520182
 20
21.9478867314
 10
-2.1620081332
 20
21.9426813553
 10
-2.1746943306
 20
21.9374816959
 10
-2.1870731457
 20
21.9323118189
 10
-2.1991453403
 20
21.9271807667
 10
-2.2110227988
 20
21.9220493995
 10
-2.2226593206
 20
21.9169458267
 10
-2.2340216008
 20
21.9118940862
 10
-2.2562153418
 20
21.9018541238
  0
LINE
  5
353
100
AcDbEntity
  8
218
100
AcDbLine
 62
7
  6
CONTINUOUS
 10
0.2801240614
 20
20.671458823
 11
-2.0947519386
 21
21.858896823
  0
LINE
  5
354
100
AcDbEntity
  8
218
100
AcDbLine
 62
7
  6
CONTINUOUS
 10
13.7781054766
 20
14.4449973506
 11
17.0464601604
 21
12.8108200087
  0
LINE
  5
355
100
AcDbEntity
  8
218
100
AcDbLine
 62
253
  6
CONTINUOUS
 10
-1.1053383882
 20
21.9874683832
 11
0.9078890662
 21
20.9808682755
  0
LINE
  5
356
100
AcDbEntity
  8
218
100
AcDbLine
 62
7
  6
CONTINUOUS
 10
-1.0158045231
 20
21.9906750242
 11
0.9561932044
 21
21.0046761604
  0
LINE
  5
357
100
AcDbEntity
  8
218
100
AcDbLine
 62
253
  6
CONTINUOUS
 10
12.5189497702
 20
15.2820913429
 11
12.8717411673
 21
15.1056956444
  0
LINE
  5
358
100
AcDbEntity
  8
218
100
AcDbLine
 62
253
  6
CONTINUOUS
 10
17.2582229688
 20
12.9124547436
 11
18.2705030934
 21
12.4063146814
  0
LWPOLYLINE
  5
359
100
AcDbEntity
  8
218
100
AcDbPolyline
 62
253
  6
CONTINUOUS
 90
58
 70
0
 10
18.2705030934
 20
12.4063146814
 10
18.2903106938
 20
12.3964102356
 10
18.3100950961
 20
12.3858509855
 10
18.3298412818
 20
12.374644826
 10
18.3495346523
 20
12.3627999006
 10
18.3691598507
 20
12.3503253042
 10
18.3887007876
 20
12.3372312029
 10
18.4081422246
 20
12.323527829
 10
18.4274698124
 20
12.3092253179
 10
18.4466689215
 20
12.2943344933
 10
18.4657250074
 20
12.2788666296
 10
18.4846235726
 20
12.2628334883
 10
18.5033502217
 20
12.2462472803
 10
18.5218907213
 20
12.2291206141
 10
18.5402310158
 20
12.2114664752
 10
18.5583571895
 20
12.1932982591
 10
18.5762554849
 20
12.1746297556
 10
18.593912313
 20
12.155475138
 10
18.6113142708
 20
12.1358489466
 10
18.6284481475
 20
12.1157660809
 10
18.6453009375
 20
12.0952417851
 10
18.6618598506
 20
12.0742916357
 10
18.6781123173
 20
12.0529315353
 10
18.6940459995
 20
12.031177699
 10
18.7096488023
 20
12.0090466395
 10
18.7249088815
 20
11.9865551561
 10
18.7398146527
 20
11.9637203223
 10
18.7543548009
 20
11.940559472
 10
18.7685182883
 20
11.9170901864
 10
18.7822943633
 20
11.8933302812
 10
18.7956725677
 20
11.8692977929
 10
18.8086427461
 20
11.8450109647
 10
18.8211950524
 20
11.8204882329
 10
18.8333199576
 20
11.7957482132
 10
18.8450082576
 20
11.7708096861
 10
18.8562510794
 20
11.7456915824
 10
18.8670398881
 20
11.7204129701
 10
18.8773664937
 20
11.6949930383
 10
18.8872230572
 20
11.6694510835
 10
18.8966020959
 20
11.6438064952
 10
18.9054964902
 20
11.6180787406
 10
18.913899488
 20
11.5922873498
 10
18.9218047103
 20
11.5664519016
 10
18.9292061561
 20
11.5405920081
 10
18.936098207
 20
11.5147272996
 10
18.9424756308
 20
11.4888774107
 10
18.9483335864
 20
11.4630619641
 10
18.9536676269
 20
11.4373005566
 10
18.9584737031
 20
11.4116127445
 10
18.9627481664
 20
11.3860180279
 10
18.9664877723
 20
11.3605358356
 10
18.9696896817
 20
11.3351855119
 10
18.9723514642
 20
11.3099862994
 10
18.9744710992
 20
11.284957328
 10
18.9760469773
 20
11.2601176
 10
18.9770779025
 20
11.2354859722
 10
18.9775630923
 20
11.2110811419
 10
18.9775021787
 20
6.6316661857
  0
LINE
  5
35A
100
AcDbEntity
  8
218
100
AcDbLine
 62
7
  6
CONTINUOUS
 10
12.5189497702
 20
15.5218911128
 11
13.3947927775
 21
15.0839696092
  0
LINE
  5
35B
100
AcDbEntity
  8
218
100
AcDbLine
 62
7
  6
CONTINUOUS
 10
17.6049171197
 20
12.9789074381
 11
18.7053759739
 21
12.428678011
  0
LINE
  5
35C
100
AcDbEntity
  8
0
100
AcDbLine
 62
7
  6
CONTINUOUS
 10
1.4836378259
 20
21.2646402398
 11
-1.3168806314
 21
22.6648994684
  0
LINE
  5
35D
100
AcDbEntity
  8
DRAFT
100
AcDbLine
 62
7
  6
CONTINUOUS
 10
-1.3168806314
 20
23.2174576577
 11
-1.670434022
 21
23.394234353
  0
LWPOLYLINE
  5
35E
100
AcDbEntity
  8
218
100
AcDbPolyline
 62
7
  6
CONTINUOUS
 90
42
 70
0
 10
18.7053759739
 20
12.428678011
 10
18.7288247579
 20
12.4165642134
 10
18.7519793438
 20
12.4038166912
 10
18.7748183946
 20
12.3904438829
 10
18.7973237788
 20
12.3764532804
 10
18.8194719062
 20
12.3618567733
 10
18.841234196
 20
12.3466714349
 10
18.8625645732
 20
12.3309301701
 10
18.8834720521
 20
12.3146275315
 10
18.9040074466
 20
12.2977193183
 10
18.9241956079
 20
12.2801728918
 10
18.9439648619
 20
12.2620385319
 10
18.9632228487
 20
12.2433980073
 10
18.9819363199
 20
12.2242879795
 10
19.0001093697
 20
12.2047093661
 10
19.0177139144
 20
12.1846979463
 10
19.0346504802
 20
12.1643827329
 10
19.0510025219
 20
12.1436804769
 10
19.0669934266
 20
12.1222919202
 10
19.082731739
 20
12.1000116965
 10
19.0980251113
 20
12.0770496685
 10
19.1126463284
 20
12.0537286147
 10
19.1265438718
 20
12.0301475652
 10
19.1397573784
 20
12.006257447
 10
19.1522330593
 20
11.9821767264
 10
19.1638597879
 20
11.9581755803
 10
19.1747690662
 20
11.9340409893
 10
19.1852274666
 20
11.9091512365
 10
19.1953578492
 20
11.8830554199
 10
19.204911839
 20
11.856222028
 10
19.213611089
 20
11.8294080007
 10
19.2213717088
 20
11.8030030961
 10
19.2283326234
 20
11.7766754383
 10
19.2345877705
 20
11.7501059885
 10
19.2401443618
 20
11.7232253799
 10
19.2449703319
 20
11.6961460417
 10
19.2490669664
 20
11.6688171514
 10
19.2524379846
 20
11.6410965904
 10
19.255043301
 20
11.6131711986
 10
19.2568493614
 20
11.5854788389
 10
19.2578710966
 20
11.55838541
 10
19.2581623779
 20
11.5342673297
  0
LWPOLYLINE
  5
35F
100
AcDbEntity
  8
218
100
AcDbPolyline
 62
7
  6
CONTINUOUS
 90
104
 70
0
 10
19.2581623784
 20
10.0868647326
 10
19.2708837233
 20
10.0776099072
 10
19.3157053351
 20
10.0437415857
 10
19.3601891821
 20
10.0088666735
 10
19.4043468421
 20
9.972981886
 10
19.4481774192
 20
9.9360916949
 10
19.4916491716
 20
9.8982263612
 10
19.5347267922
 20
9.8594215246
 10
19.5773897128
 20
9.8197015026
 10
19.6196274196
 20
9.7790816989
 10
19.661419921
 20
9.7375867695
 10
19.702746047
 20
9.6952434994
 10
19.7435968007
 20
9.6520667153
 10
19.7839699225
 20
9.6080633387
 10
19.8238607462
 20
9.5632416563
 10
19.8632432187
 20
9.5176339796
 10
19.902083144
 20
9.4712843575
 10
19.9403520423
 20
9.4242328928
 10
19.9780506688
 20
9.3764846512
 10
20.0151884061
 20
9.3280314896
 10
20.0517641084
 20
9.2788763502
 10
20.087749304
 20
9.2290587758
 10
20.1231122553
 20
9.1786257358
 10
20.157829543
 20
9.1276152937
 10
20.1918985659
 20
9.076035819
 10
20.2253191379
 20
9.0238904543
 10
20.2580831095
 20
8.971193345
 10
20.2901718071
 20
8.917975789
 10
20.321568944
 20
8.8642665458
 10
20.3522602882
 20
8.8100919493
 10
20.3822352218
 20
8.755472569
 10
20.4114832555
 20
8.7004288897
 10
20.4399918593
 20
8.6449855827
 10
20.4677497963
 20
8.5891654041
 10
20.4947484785
 20
8.5329859618
 10
20.5209771397
 20
8.4764693671
 10
20.5464236225
 20
8.4196412803
 10
20.5710773286
 20
8.3625246087
 10
20.5949278478
 20
8.3051423056
 10
20.6179640504
 20
8.247519682
 10
20.6401747196
 20
8.1896832035
 10
20.6615471853
 20
8.1316645094
 10
20.6820745359
 20
8.0734806569
 10
20.7017538595
 20
8.0151360066
 10
20.7205806388
 20
7.9566369459
 10
20.7385388152
 20
7.8980256815
 10
20.7556092426
 20
7.8393601277
 10
20.7717771133
 20
7.7806906745
 10
20.7870425701
 20
7.7220158514
 10
20.8014088421
 20
7.6633155219
 10
20.814873033
 20
7.6045859061
 10
20.8274191035
 20
7.545879703
 10
20.8390308457
 20
7.4872609994
 10
20.8496977512
 20
7.4287768882
 10
20.859418297
 20
7.3704285074
 10
20.8681906815
 20
7.3122104571
 10
20.876009815
 20
7.2541302118
 10
20.8828660406
 20
7.1962288291
 10
20.8887507097
 20
7.1385506584
 10
20.8936581283
 20
7.0811220496
 10
20.897583313
 20
7.0239641012
 10
20.9005207157
 20
6.9671120324
 10
20.9024658646
 20
6.9105989893
 10
20.9034153622
 20
6.8544380218
 10
20.9033652291
 20
6.798633476
 10
20.9023099158
 20
6.7431750469
 10
20.9002447292
 20
6.6881200155
 10
20.8971707125
 20
6.6335715708
 10
20.893092287
 20
6.579597391
 10
20.8880078167
 20
6.5261701853
 10
20.8819104491
 20
6.4732493272
 10
20.8747882233
 20
6.4207924834
 10
20.8666456674
 20
6.3688874647
 10
20.8575050334
 20
6.3176853474
 10
20.8473848091
 20
6.2672637682
 10
20.8362803608
 20
6.2175772675
 10
20.8241837905
 20
6.1685888104
 10
20.811084275
 20
6.1202687331
 10
20.7969964977
 20
6.0726850907
 10
20.7819533994
 20
6.0259449663
 10
20.7659717112
 20
5.9800834843
 10
20.7490539684
 20
5.9350926114
 10
20.7312192542
 20
5.8910088411
 10
20.712483238
 20
5.8478542483
 10
20.6928534209
 20
5.805630655
 10
20.6723381323
 20
5.7643432597
 10
20.6509292705
 20
5.7239682217
 10
20.6286569682
 20
5.68455538
 10
20.6055941586
 20
5.6462143613
 10
20.581801257
 20
5.6090119882
 10
20.5572604309
 20
5.5728881628
 10
20.5319287297
 20
5.5377621434
 10
20.5057888053
 20
5.5036044343
 10
20.4788857237
 20
5.4704686528
 10
20.4512680543
 20
5.4384025152
 10
20.4229708907
 20
5.4074300626
 10
20.3939987686
 20
5.3775399479
 10
20.3643574855
 20
5.3487249306
 10
20.3340694438
 20
5.3209947843
 10
20.3031522
 20
5.2943537295
 10
20.2716029864
 20
5.2687896585
 10
20.2394336862
 20
5.244304845
 10
20.2066721835
 20
5.2209131213
 10
20.173339165
 20
5.1986212758
  0
LWPOLYLINE
  5
360
100
AcDbEntity
  8
RACCORDO
100
AcDbPolyline
 62
7
  6
CONTINUOUS
 90
20
 70
0
 10
9.1497410523
 20
19.5181632541
 10
9.1483409006
 20
19.5202943188
 10
9.1465944743
 20
19.5226027663
 10
9.1445128644
 20
19.5250924053
 10
9.1421079
 20
19.5277698481
 10
9.1393878081
 20
19.5306050641
 10
9.1363628769
 20
19.5336015905
 10
9.1330443755
 20
19.5367646687
 10
9.1294402186
 20
19.5400666611
 10
9.1255603617
 20
19.5435106439
 10
9.1214156902
 20
19.5471008882
 10
9.1170144575
 20
19.5508113878
 10
9.112366119
 20
19.5546449797
 10
9.107481665
 20
19.5586048533
 10
9.1023712767
 20
19.5626652736
 10
9.0970444016
 20
19.5668284888
 10
9.0915121983
 20
19.5710968603
 10
9.0857877271
 20
19.5754443598
 10
9.0798825437
 20
19.579863242
 10
9.067569492
 20
19.5889483316
  0
LWPOLYLINE
  5
361
100
AcDbEntity
  8
218
100
AcDbPolyline
 62
253
  6
CONTINUOUS
 90
28
 70
0
 10
11.6181845479
 20
17.8039881032
 10
11.6035750474
 20
17.8289824223
 10
11.5885446164
 20
17.8536439234
 10
11.5731059679
 20
17.8779517471
 10
11.5572721603
 20
17.9018853331
 10
11.5410565865
 20
17.9254244378
 10
11.524472962
 20
17.948549151
 10
11.5075353135
 20
17.9712399133
 10
11.4902579676
 20
17.9934775322
 10
11.4726555379
 20
18.0152431985
 10
11.4547429129
 20
18.0365185022
 10
11.4365352438
 20
18.057285448
 10
11.418047931
 20
18.0775264707
 10
11.3992966116
 20
18.0972244498
 10
11.380297146
 20
18.1163627242
 10
11.3610656046
 20
18.1349251063
 10
11.3416182538
 20
18.1528958954
 10
11.3219715428
 20
18.1702598915
 10
11.3021420894
 20
18.1870024074
 10
11.2821466658
 20
18.2031092819
 10
11.2620021848
 20
18.2185668915
 10
11.241725685
 20
18.2333621615
 10
11.221334317
 20
18.2474825778
 10
11.2008453283
 20
18.2609161968
 10
11.1802760491
 20
18.2736516562
 10
11.1596438775
 20
18.2856781838
 10
11.1389662646
 20
18.2969856072
 10
11.1182607003
 20
18.3075643625
  0
LINE
  5
362
100
AcDbEntity
  8
218
100
AcDbLine
 62
253
  6
CONTINUOUS
 10
11.8241390949
 20
17.4487690545
 11
11.6181845479
 21
17.8039881032
  0
LINE
  5
363
100
AcDbEntity
  8
218
100
AcDbLine
 62
7
  6
CONTINUOUS
 10
12.1769823437
 20
17.5818674119
 11
11.9667677526
 21
17.9443630775
  0
LINE
  5
364
100
AcDbEntity
  8
218
100
AcDbLine
 62
7
  6
CONTINUOUS
 10
19.2591422698
 20
-7.3256201411
 11
19.2591635102
 21
-7.3255625828
  0
LWPOLYLINE
  5
365
100
AcDbEntity
  8
218
100
AcDbPolyline
 62
253
  6
CONTINUOUS
 90
34
 70
0
 10
18.6269079923
 20
-11.8655886936
 10
18.6470825735
 20
-11.8469090617
 10
18.6667355061
 20
-11.8274451355
 10
18.6858576253
 20
-11.8072060316
 10
18.7044398541
 20
-11.786201329
 10
18.7224732509
 20
-11.7644410971
 10
18.7399492401
 20
-11.7419357267
 10
18.7568594659
 20
-11.7186959744
 10
18.7731958774
 20
-11.6947328858
 10
18.788950768
 20
-11.6700578109
 10
18.8041166319
 20
-11.6446824957
 10
18.8186862287
 20
-11.6186190275
 10
18.8326526703
 20
-11.5918797608
 10
18.8460093179
 20
-11.5644773969
 10
18.8587497882
 20
-11.5364249993
 10
18.870868016
 20
-11.507735935
 10
18.8823582428
 20
-11.47842385
 10
18.8932149942
 20
-11.4485026949
 10
18.9034330868
 20
-11.4179867386
 10
18.9130076705
 20
-11.3868905158
 10
18.9219342004
 20
-11.3552288009
 10
18.930208414
 20
-11.3230166346
 10
18.9378263987
 20
-11.2902693302
 10
18.9447845401
 20
-11.2570024617
 10
18.9510794909
 20
-11.2232318364
 10
18.9567082954
 20
-11.1889734493
 10
18.9616682807
 20
-11.1542436389
 10
18.9659570075
 20
-11.1190590761
 10
18.9695724705
 20
-11.0834365858
 10
18.9725129955
 20
-11.0473930022
 10
18.9747771206
 20
-11.0109453176
 10
18.9763637666
 20
-10.9741107999
 10
18.9772722499
 20
-10.9369069923
 10
18.9775021787
 20
-10.8993515671
  0
LWPOLYLINE
  5
366
100
AcDbEntity
  8
218
100
AcDbPolyline
 62
253
  6
CONTINUOUS
 90
4
 70
0
 10
18.5633517031
 20
-11.9168346661
 10
18.5850325167
 20
-11.9005598766
 10
18.606221321
 20
-11.8834751646
 10
18.6269079923
 20
-11.8655886936
  0
LWPOLYLINE
  5
367
100
AcDbEntity
  8
218
100
AcDbPolyline
 62
7
  6
CONTINUOUS
 90
40
 70
0
 10
18.6379304095
 20
-11.8704644642
 10
18.6575640948
 20
-11.8559691354
 10
18.6856592912
 20
-11.8342740975
 10
18.7132623362
 20
-11.8118098705
 10
18.7403451779
 20
-11.7885940413
 10
18.7668947728
 20
-11.7646327084
 10
18.792912429
 20
-11.7399182974
 10
18.8183782223
 20
-11.7144621534
 10
18.8432728236
 20
-11.6882760491
 10
18.8675969979
 20
-11.6613500807
 10
18.8913315184
 20
-11.6336951752
 10
18.914456563
 20
-11.6053241835
 10
18.9369703231
 20
-11.5762273164
 10
18.9588542416
 20
-11.5464146579
 10
18.9800883636
 20
-11.5158999493
 10
19.0006673396
 20
-11.4846758486
 10
19.0205722855
 20
-11.4527538831
 10
19.0397847995
 20
-11.4201463592
 10
19.0582991398
 20
-11.3868441269
 10
19.0760957375
 20
-11.3528609878
 10
19.0931579072
 20
-11.3182065226
 10
19.1094825085
 20
-11.2828617295
 10
19.1250532477
 20
-11.2468318157
 10
19.1398492061
 20
-11.210133161
 10
19.1538589225
 20
-11.1727599763
 10
19.1670700871
 20
-11.1347053317
 10
19.1794582179
 20
-11.095996484
 10
19.1909966989
 20
-11.0566770404
 10
19.2016714874
 20
-11.0167567471
 10
19.2114679921
 20
-10.9762470755
 10
19.2203652527
 20
-10.9351932886
 10
19.228352619
 20
-10.8936037241
 10
19.2354184077
 20
-10.8514903773
 10
19.2415464764
 20
-10.8089031643
 10
19.2467286778
 20
-10.7658514465
 10
19.250956354
 20
-10.7223452481
 10
19.2542185168
 20
-10.6784340762
 10
19.2565083681
 20
-10.6341395546
 10
19.2578205654
 20
-10.5894584798
 10
19.2581623688
 20
-10.5520235055
  0
LINE
  5
368
100
AcDbEntity
  8
218
100
AcDbLine
 62
253
  6
CONTINUOUS
 10
18.4275293649
 20
-12.0152712091
 11
18.5633517031
 21
-11.9168346661
  0
LINE
  5
369
100
AcDbEntity
  8
218
100
AcDbLine
 62
7
  6
CONTINUOUS
 10
18.502096959
 20
-11.9689090763
 11
18.6379192972
 21
-11.8704725333
  0
LWPOLYLINE
  5
36A
100
AcDbEntity
  8
218
100
AcDbPolyline
 62
7
  6
CONTINUOUS
 90
7
 70
0
 10
18.502096959
 20
-11.9689090763
 10
18.4888319554
 20
-11.9783590187
 10
18.475406165
 20
-11.9875975131
 10
18.4618246846
 20
-11.9966204975
 10
18.4480869079
 20
-12.0054277511
 10
18.4342043097
 20
-12.0140114405
 10
18.4202004665
 20
-12.0223574561
  0
LINE
  5
36B
100
AcDbEntity
  8
ASSI
100
AcDbLine
 62
7
  6
CONTINUOUS
 10
1.900455223
 20
-23.5773037036
 11
2.7136280214
 21
-23.0484325731
  0
LINE
  5
36C
100
AcDbEntity
  8
RACCORDO
100
AcDbLine
 62
253
  6
CONTINUOUS
 10
3.668222176
 20
-22.7367099554
 11
4.3753289572
 21
-22.3755988756
  0
LINE
  5
36D
100
AcDbEntity
  8
RACCORDO
100
AcDbLine
 62
7
  6
CONTINUOUS
 10
3.5782582079
 20
-22.925520032
 11
4.2853649901
 21
-22.5644089517
  0
LINE
  5
36E
100
AcDbEntity
  8
RACCORDO
100
AcDbLine
 62
7
  6
CONTINUOUS
 10
3.5782533534
 20
-22.9255225111
 11
3.5762457072
 21
-22.9265262432
  0
LINE
  5
36F
100
AcDbEntity
  8
RACCORDO
100
AcDbLine
 62
253
  6
CONTINUOUS
 10
1.900455223
 20
-23.6016992089
 11
3.668222176
 21
-22.7367099554
  0
LINE
  5
370
100
AcDbEntity
  8
RACCORDO
100
AcDbLine
 62
7
  6
CONTINUOUS
 10
1.808474304
 20
-23.7915176731
 11
3.5762412584
 21
-22.926528419
  0
LWPOLYLINE
  5
371
100
AcDbEntity
  8
RACCORDO
100
AcDbPolyline
 62
253
  6
CONTINUOUS
 90
16
 70
0
 10
-5.3822225161
 20
-25.1074520355
 10
-5.4447497129
 20
-25.1315807433
 10
-5.5124497827
 20
-25.1524001373
 10
-5.5846054372
 20
-25.1696896342
 10
-5.660452181
 20
-25.1832660504
 10
-5.7391864112
 20
-25.1929855423
 10
-5.8199739316
 20
-25.1987451313
 10
-5.9019587913
 20
-25.2004837938
 10
-5.9842723537
 20
-25.1981831088
 10
-6.0660424992
 20
-25.1918674521
 10
-6.1464028659
 20
-25.1816037386
 10
-6.2245020288
 20
-25.1675007134
 10
-6.2995125202
 20
-25.1497077994
 10
-6.3706395975
 20
-25.1284135142
 10
-6.437129663
 20
-25.1038434725
 10
-6.4982782486
 20
-25.0762579962
  0
LINE
  5
372
100
AcDbEntity
  8
218
100
AcDbLine
 62
253
  6
CONTINUOUS
 10
-1.7697971516
 20
21.9939664414
 11
-1.7596146064
 21
21.9968150358
  0
LWPOLYLINE
  5
373
100
AcDbEntity
  8
218
100
AcDbPolyline
 62
253
  6
CONTINUOUS
 90
3
 70
0
 10
-1.7596146064
 20
21.9968150358
 10
-1.7492427051
 20
21.9996208101
 10
-1.7439856388
 20
22.0010071089
  0
LWPOLYLINE
  5
374
100
AcDbEntity
  8
218
100
AcDbPolyline
 62
253
  6
CONTINUOUS
 90
4
 70
0
 10
-1.7439856388
 20
22.0010071089
 10
-1.7333290434
 20
22.0037420941
 10
-1.7279295144
 20
22.0050907804
 10
-1.7224826516
 20
22.0064253892
  0
LWPOLYLINE
  5
375
100
AcDbEntity
  8
218
100
AcDbPolyline
 62
253
  6
CONTINUOUS
 90
128
 70
0
 10
-1.7224826516
 20
22.0064253892
 10
-1.7114467736
 20
22.0090524101
 10
-1.7058581923
 20
22.0103432167
 10
-1.7002224355
 20
22.0116183986
 10
-1.6945397033
 20
22.0128779153
 10
-1.6888109543
 20
22.0141200574
 10
-1.6830360272
 20
22.0153448474
 10
-1.6772150834
 20
22.0165522629
 10
-1.6713495659
 20
22.0177405273
 10
-1.6654396555
 20
22.0189095962
 10
-1.6594851714
 20
22.0200595141
 10
-1.6534870144
 20
22.0211886381
 10
-1.6474449527
 20
22.022297005
 10
-1.6413592181
 20
22.023384578
 10
-1.6352314065
 20
22.0244496028
 10
-1.6290531997
 20
22.0254932535
 10
-1.6228329158
 20
22.0265143561
 10
-1.6165971054
 20
22.0275076339
 10
-1.6103493405
 20
22.0284721394
 10
-1.604086049
 20
22.0294088201
 10
-1.5978230654
 20
22.030315242
 10
-1.5915628823
 20
22.031190844
 10
-1.5853030071
 20
22.0320361872
 10
-1.5790517959
 20
22.0328505207
 10
-1.5728103488
 20
22.0336336051
 10
-1.5665775658
 20
22.0343856799
 10
-1.5603585033
 20
22.0351067127
 10
-1.5541535371
 20
22.0357966061
 10
-1.5479622913
 20
22.0364554576
 10
-1.541788695
 20
22.0370835272
 10
-1.5356331421
 20
22.0376807435
 10
-1.5294952387
 20
22.038247178
 10
-1.5233777317
 20
22.038783305
 10
-1.5172808967
 20
22.0392890876
 10
-1.511204458
 20
22.0397645626
 10
-1.5051503354
 20
22.0402103159
 10
-1.4991181517
 20
22.0406263574
 10
-1.4931082841
 20
22.041012677
 10
-1.487123783
 20
22.0413698306
 10
-1.48116484
 20
22.0416977843
 10
-1.4752312636
 20
22.0419965719
 10
-1.4693255296
 20
22.0422668507
 10
-1.4634478065
 20
22.0425085995
 10
-1.4575979259
 20
22.0427218395
 10
-1.451777858
 20
22.0429072914
 10
-1.4459875241
 20
22.0430649449
 10
-1.4402270028
 20
22.0431948103
 10
-1.4344985009
 20
22.0432976394
 10
-1.4288019957
 20
22.0433734154
 10
-1.4231375098
 20
22.043422155
 10
-1.4175073179
 20
22.0434446597
 10
-1.4119115456
 20
22.0434409135
 10
-1.4063500674
 20
22.0434109324
 10
-1.4008247819
 20
22.0433555661
 10
-1.3953358815
 20
22.0432748082
 10
-1.3898831739
 20
22.043168665
 10
-1.3844679806
 20
22.0430380057
 10
-1.3790903565
 20
22.0428828278
 10
-1.3737502467
 20
22.0427031338
 10
-1.3684488087
 20
22.0424997998
 10
-1.3631857594
 20
22.0422728016
 10
-1.3579613818
 20
22.0420221635
 10
-1.3527776816
 20
22.0417488335
 10
-1.3476348685
 20
22.0414528062
 10
-1.3425327328
 20
22.0411340871
 10
-1.3374726508
 20
22.0407936408
 10
-1.3324548352
 20
22.0404314749
 10
-1.3274790733
 20
22.0400475819
 10
-1.3225461035
 20
22.0396429037
 10
-1.3176560092
 20
22.0392174464
 10
-1.3128087069
 20
22.038771204
 10
-1.3080046846
 20
22.0383051
 10
-1.3032439946
 20
22.0378191405
 10
-1.2985265846
 20
22.0373133194
 10
-1.2938527857
 20
22.0367885421
 10
-1.2892226546
 20
22.0362448169
 10
-1.2846361346
 20
22.0356821355
 10
-1.2800933873
 20
22.0351013773
 10
-1.275594492
 20
22.034502557
 10
-1.2711393694
 20
22.03388566
 10
-1.2667279432
 20
22.033251522
 10
-1.2623602649
 20
22.0326001573
 10
-1.2580362831
 20
22.0319315516
 10
-1.2537557671
 20
22.0312464985
 10
-1.2495187543
 20
22.030545012
 10
-1.2453252073
 20
22.0298270781
 10
-1.2411747832
 20
22.0290934487
 10
-1.2370675315
 20
22.028344142
 10
-1.2330034028
 20
22.0275791398
 10
-1.2289819055
 20
22.0267991395
 10
-1.2250030765
 20
22.0260041594
 10
-1.2210668789
 20
22.0251941812
 10
-1.2171727112
 20
22.0243698474
 10
-1.2133206141
 20
22.0235311798
 10
-1.2095105468
 20
22.0226781566
 10
-1.2057417847
 20
22.0218113552
 10
-1.2020143697
 20
22.0209308008
 10
-1.19832826
 20
22.0200364682
 10
-1.1946826052
 20
22.019128859
 10
-1.1910774217
 20
22.018207995
 10
-1.1875126931
 20
22.0172738543
 10
-1.1839875206
 20
22.0163268737
 10
-1.1805019044
 20
22.0153670718
 10
-1.1770558442
 20
22.0143944299
 10
-1.1736484399
 20
22.0134093289
 10
-1.1702797014
 20
22.0124117911
 10
-1.1669496188
 20
22.0114017943
 10
-1.1636572625
 20
22.0103796517
 10
-1.1604026398
 20
22.0093453871
 10
-1.1571857432
 20
22.0082989768
 10
-1.154005621
 20
22.0072406633
 10
-1.1508622649
 20
22.0061704668
 10
-1.147755683
 20
22.0050883671
 10
-1.1446849477
 20
22.0039945463
 10
-1.1416500358
 20
22.0028890193
 10
-1.1386509705
 20
22.0017717711
 10
-1.1356868935
 20
22.0006429399
 10
-1.1327577696
 20
21.9995025347
 10
-1.129863634
 20
21.9983505464
 10
-1.1270037353
 20
21.9971870853
 10
-1.1241780477
 20
21.9960121619
 10
-1.1213865969
 20
21.9948257658
 10
-1.1186287083
 20
21.9936279763
 10
-1.1159043694
 20
21.9924188116
 10
-1.1132135926
 20
21.9911982535
 10
-1.110555741
 20
21.9899663266
 10
-1.1079306021
 20
21.9887230393
 10
-1.1053383882
 20
21.9874683832
  0
LWPOLYLINE
  5
376
100
AcDbEntity
  8
RACCORDO
100
AcDbPolyline
 62
7
  6
CONTINUOUS
 90
13
 70
0
 10
8.4034710825
 20
20.6021809612
 10
8.3688202725
 20
20.6086106423
 10
8.3336160495
 20
20.6139937951
 10
8.2978961976
 20
20.6183559359
 10
8.2616708807
 20
20.6217498591
 10
8.2250031426
 20
20.6241796088
 10
8.1880069327
 20
20.6255908379
 10
8.1507198977
 20
20.6260009728
 10
8.1131689159
 20
20.6254370913
 10
8.075448215
 20
20.6238451031
 10
8.0376088402
 20
20.6212160122
 10
7.999659654
 20
20.6175940309
 10
7.9616302146
 20
20.6129992415
  0
LWPOLYLINE
  5
377
100
AcDbEntity
  8
RACCORDO
100
AcDbPolyline
 62
7
  6
CONTINUOUS
 90
10
 70
0
 10
8.6497861821
 20
20.5148034893
 10
8.6268065029
 20
20.5259949215
 10
8.5970304586
 20
20.5395713632
 10
8.5677569395
 20
20.5519569799
 10
8.5389669315
 20
20.5631587765
 10
8.5106794488
 20
20.573169748
 10
8.4829777925
 20
20.5820694924
 10
8.4558897295
 20
20.5898845424
 10
8.4293874928
 20
20.5965883653
 10
8.4034710825
 20
20.6021809612
  0
LINE
  5
378
100
AcDbEntity
  8
0
100
AcDbLine
 62
7
  6
CONTINUOUS
 10
2.8914535221
 20
21.9585168982
 11
0.0809038751
 21
23.3637917216
  0
LINE
  5
379
100
AcDbEntity
  8
218
100
AcDbLine
 62
253
  6
CONTINUOUS
 10
11.1182607003
 20
18.3075643625
 11
9.7418944954
 21
18.9957474649
  0
LINE
  5
37A
100
AcDbEntity
  8
218
100
AcDbLine
 62
7
  6
CONTINUOUS
 10
9.0943091805
 20
19.4808994158
 11
9.610145184
 21
19.2229814141
  0
LINE
  5
37B
100
AcDbEntity
  8
218
100
AcDbLine
 62
7
  6
CONTINUOUS
 10
11.5531335809
 20
18.3299276921
 11
9.1517675519
 21
19.5306107066
  0
LINE
  5
37C
100
AcDbEntity
  8
0
100
AcDbLine
 62
7
  6
CONTINUOUS
 10
4.5419749366
 20
21.8869703484
 11
4.3961615266
 21
21.9598770534
  0
LINE
  5
37D
100
AcDbEntity
  8
0
100
AcDbLine
 62
7
  6
CONTINUOUS
 10
3.6505767034
 20
22.332669465
 11
1.4408358153
 21
23.437539909
  0
LINE
  5
37E
100
AcDbEntity
  8
RACCORDO
100
AcDbLine
 62
7
  6
CONTINUOUS
 10
-1.4266219304
 20
25.1345124616
 11
-1.2461699532
 21
25.0442864731
  0
LINE
  5
37F
100
AcDbEntity
  8
RACCORDO
100
AcDbLine
 62
7
  6
CONTINUOUS
 10
4.1278415838
 20
22.3572807045
 11
4.3082935609
 21
22.267054716
  0
LINE
  5
380
100
AcDbEntity
  8
RACCORDO
100
AcDbLine
 62
253
  6
CONTINUOUS
 10
-2.2391902744
 20
25.713409486
 11
0.7398996265
 21
24.2238645355
  0
LINE
  5
381
100
AcDbEntity
  8
RACCORDO
100
AcDbLine
 62
253
  6
CONTINUOUS
 10
4.9825403136
 20
22.1025441919
 11
7.9616302146
 21
20.6129992415
  0
LINE
  5
382
100
AcDbEntity
  8
RACCORDO
100
AcDbLine
 62
7
  6
CONTINUOUS
 10
5.4235833167
 20
22.1278936585
 11
8.6500732088
 21
20.5146487125
  0
LWPOLYLINE
  5
383
100
AcDbEntity
  8
218
100
AcDbPolyline
 62
7
  6
CONTINUOUS
 90
23
 70
0
 10
11.5531335809
 20
18.3299276921
 10
11.5761221113
 20
18.3180592586
 10
11.5988157134
 20
18.305588888
 10
11.621194826
 20
18.2925254941
 10
11.6432461522
 20
18.2788750267
 10
11.6649448276
 20
18.2646514076
 10
11.6862553694
 20
18.2498780807
 10
11.7071437015
 20
18.2345812499
 10
11.7276111947
 20
18.218762935
 10
11.7476751995
 20
18.2024100428
 10
11.7673088625
 20
18.1855436687
 10
11.7865053659
 20
18.1681692801
 10
11.8053065452
 20
18.1502441194
 10
11.8237286585
 20
18.1317409113
 10
11.8417131896
 20
18.1127067922
 10
11.8591906203
 20
18.0932111902
 10
11.8761089273
 20
18.0733163004
 10
11.8924945647
 20
18.0529957894
 10
11.9083950409
 20
18.0321861682
 10
11.9238245302
 20
18.0108544404
 10
11.9387291131
 20
17.9890607569
 10
11.9530536025
 20
17.9668804356
 10
11.9667677526
 20
17.9443630775
  0
LWPOLYLINE
  5
384
100
AcDbEntity
  8
RACCORDO
100
AcDbPolyline
 62
7
  6
CONTINUOUS
 90
17
 70
0
 10
9.150457971
 20
20.1209210776
 10
9.1168206772
 20
20.1569832281
 10
9.0831370891
 20
20.1916218877
 10
9.0494072067
 20
20.2248370565
 10
9.015562305
 20
20.2566443605
 10
8.9816711089
 20
20.2870281736
 10
8.9479397939
 20
20.3159416177
 10
8.9143879985
 20
20.343360793
 10
8.8809960841
 20
20.3693095993
 10
8.84791131
 20
20.3938128578
 10
8.8151489966
 20
20.4168565647
 10
8.7826938235
 20
20.4384547238
 10
8.7506470889
 20
20.4586741678
 10
8.7190199494
 20
20.4775080818
 10
8.6878012483
 20
20.4949632808
 10
8.657058814
 20
20.5111270423
 10
8.6497861821
 20
20.5148034893
  0
LWPOLYLINE
  5
385
100
AcDbEntity
  8
218
100
AcDbPolyline
 62
253
  6
CONTINUOUS
 90
57
 70
0
 10
19.2581623784
 20
8.267733921
 10
19.2644515514
 20
8.2479132831
 10
19.2766173785
 20
8.2063734489
 10
19.2880582003
 20
8.1638767677
 10
19.2987579989
 20
8.120431809
 10
19.3086517498
 20
8.0760756168
 10
19.317728626
 20
8.0308020405
 10
19.3259750507
 20
7.9846153982
 10
19.3333245769
 20
7.9375704511
 10
19.3397722836
 20
7.8895945611
 10
19.3452996512
 20
7.8407616672
 10
19.3498281028
 20
7.7913511249
 10
19.3533444049
 20
7.7410503037
 10
19.3558476506
 20
7.6901796351
 10
19.3573125331
 20
7.6399848784
 10
19.357716917
 20
7.5906014816
 10
19.3571314257
 20
7.541927915
 10
19.3557152363
 20
7.4948735743
 10
19.3535104078
 20
7.4497714874
 10
19.3505569036
 20
7.4063282066
 10
19.3470241934
 20
7.3645179103
 10
19.3429605026
 20
7.3244010105
 10
19.3383839982
 20
7.2859439795
 10
19.3334109262
 20
7.2489769114
 10
19.3280786092
 20
7.2135145878
 10
19.3224010892
 20
7.1795598778
 10
19.3164507391
 20
7.146922112
 10
19.3102624276
 20
7.1156293191
 10
19.3038404702
 20
7.0856649905
 10
19.297203237
 20
7.0567693543
 10
19.2903600245
 20
7.0288920682
 10
19.2833290678
 20
7.0020904575
 10
19.2761364876
 20
6.9762648015
 10
19.2687824221
 20
6.9513781043
 10
19.2612887851
 20
6.9274721723
 10
19.2537122161
 20
6.9045650133
 10
19.2460714312
 20
6.8826895688
 10
19.2383670005
 20
6.8618166871
 10
19.2306266975
 20
6.8418709718
 10
19.2228669145
 20
6.8228696358
 10
19.2150860858
 20
6.804798186
 10
19.2072827444
 20
6.7875332794
 10
19.1994513561
 20
6.7710494606
 10
19.1916080844
 20
6.7553740487
 10
19.1837822592
 20
6.7404626053
 10
19.1759693287
 20
6.7263078768
 10
19.1681819413
 20
6.7129186356
 10
19.1604741676
 20
6.7002744106
 10
19.1528628797
 20
6.6884018699
 10
19.1453371874
 20
6.6772756983
 10
19.1379084824
 20
6.6667973443
 10
19.1305976271
 20
6.656983561
 10
19.1233875578
 20
6.6478186521
 10
19.1162317721
 20
6.639155179
 10
19.1091153618
 20
6.6309441927
 10
19.1020553768
 20
6.6232353619
 10
19.0950527402
 20
6.6160290515
  0
LINE
  5
386
100
AcDbEntity
  8
RACCORDO
100
AcDbLine
 62
7
  6
CONTINUOUS
 10
3.2793134463
 20
-24.5774268314
 11
3.8075806181
 21
-24.3064157727
  0
LINE
  5
387
100
AcDbEntity
  8
RACCORDO
100
AcDbLine
 62
7
  6
CONTINUOUS
 10
1.6780326555
 20
-25.357461431
 11
3.2793134463
 21
-24.5774268314
  0
LINE
  5
388
100
AcDbEntity
  8
RACCORDO
100
AcDbLine
 62
253
  6
CONTINUOUS
 10
-4.9396012844
 20
-25.5221883763
 11
-0.7970650709
 21
-24.2082449546
  0
LINE
  5
389
100
AcDbEntity
  8
RACCORDO
100
AcDbLine
 62
7
  6
CONTINUOUS
 10
-1.100163364
 20
-24.6807536906
 11
-5.248989442
 21
-25.9966917423
  0
LINE
  5
38A
100
AcDbEntity
  8
0
100
AcDbLine
 62
7
  6
CONTINUOUS
 10
1.4408358153
 20
23.437539909
 11
0.0809038751
 21
23.3637917216
  0
LWPOLYLINE
  5
38B
100
AcDbEntity
  8
RACCORDO
100
AcDbPolyline
 62
7
  6
CONTINUOUS
 90
18
 70
0
 10
1.1809523436
 20
24.2491981824
 10
1.1613902593
 20
24.2582879155
 10
1.1384944791
 20
24.2672733301
 10
1.1149851928
 20
24.2747755629
 10
1.0908438707
 20
24.2808097327
 10
1.0661541173
 20
24.2853555171
 10
1.0408926911
 20
24.2884095005
 10
1.0150828336
 20
24.2899750985
 10
0.9888778747
 20
24.2900422351
 10
0.9622939121
 20
24.2886034591
 10
0.9353148481
 20
24.2856662218
 10
0.9080457195
 20
24.2812428005
 10
0.8804715398
 20
24.2753244149
 10
0.8526072955
 20
24.2679198453
 10
0.8246029825
 20
24.2590677107
 10
0.7965085993
 20
24.248780884
 10
0.7682741473
 20
24.2370464923
 10
0.7398996265
 20
24.2238645355
  0
ELLIPSE
  5
38C
100
AcDbEntity
  8
RACCORDO
100
AcDbEllipse
 62
7
  6
CONTINUOUS
 10
-12.8172280255
 20
21.1735043068
 30
0.0
 11
-0.2788336762
 21
0.7504028808
 31
0.0
 40
0.660854826
 41
-0.3090486207
 42
0.0320396926
  0
ELLIPSE
  5
38D
100
AcDbEntity
  8
RACCORDO
100
AcDbEllipse
 62
7
  6
CONTINUOUS
 10
-1.3629038767
 20
-23.9248127156
 30
0.0
 11
-0.2788336762
 21
0.7504028808
 31
0.0
 40
0.660854826
 41
-3.1737081954
 42
-2.187168432
  0
ELLIPSE
  5
38E
100
AcDbEntity
  8
RACCORDO
100
AcDbEllipse
 62
7
  6
CONTINUOUS
 10
1.7487838415
 20
13.8904983733
 30
0.0
 11
-0.2782515188
 21
0.7500674241
 31
0.0
 40
0.6617094163
 41
-2.1859006333
 42
-0.8222376794
  0
ELLIPSE
  5
38F
100
AcDbEntity
  8
218
100
AcDbEllipse
 62
7
  6
CONTINUOUS
 10
11.4949549353
 20
12.3003816722
 30
0.0
 11
3.1085359176
 21
-0.0435832775
 31
0.0
 40
0.4892378494
 41
-1.2282586572
 42
-0.7772130249
  0
ELLIPSE
  5
390
100
AcDbEntity
  8
218
100
AcDbEllipse
 62
7
  6
CONTINUOUS
 10
12.1888588893
 20
11.2611625589
 30
0.0
 11
2.7583876426
 21
-0.0130411979
 31
0.0
 40
0.4964289597
 41
0.8884696282
 42
1.4531813309
  0
ELLIPSE
  5
391
100
AcDbEntity
  8
218
100
AcDbEllipse
 62
7
  6
CONTINUOUS
 10
12.1888588893
 20
11.2611625589
 30
0.0
 11
2.7583876426
 21
-0.0130411979
 31
0.0
 40
0.4964289597
 41
0.3532220781
 42
0.6870207571
  0
ELLIPSE
  5
392
100
AcDbEntity
  8
218
100
AcDbEllipse
 62
7
  6
CONTINUOUS
 10
16.8375729028
 20
12.2445455578
 30
0.0
 11
0.79574694
 21
0.7129684349
 31
0.0
 40
0.2882345029
 41
0.1134953111
 42
0.7807533904
  0
ELLIPSE
  5
393
100
AcDbEntity
  8
218
100
AcDbEllipse
 62
7
  6
CONTINUOUS
 10
13.0771695228
 20
14.1247472478
 30
0.0
 11
0.4410298232
 21
0.8975092442
 31
0.0
 40
0.607010042
 41
-0.8902711325
 42
-0.4047054934
  0
ELLIPSE
  5
394
100
AcDbEntity
  8
218
100
AcDbEllipse
 62
7
  6
CONTINUOUS
 10
13.2677098034
 20
14.0294771075
 30
0.0
 11
-0.3106730325
 21
1.1082908718
 31
0.0
 40
0.6760995073
 41
5.3323367446
 42
6.4001141399
  0
ELLIPSE
  5
395
100
AcDbEntity
  8
218
100
AcDbEllipse
 62
7
  6
CONTINUOUS
 10
-3.2773495308
 20
20.8795518099
 30
0.0
 11
1.2141619185
 21
0.9541526469
 31
0.0
 40
0.2329077568
 41
0.1095198182
 42
0.114024621
  0
ELLIPSE
  5
396
100
AcDbEntity
  8
218
100
AcDbEllipse
 62
7
  6
CONTINUOUS
 10
12.1888588893
 20
13.2416506715
 30
0.0
 11
2.7583515655
 21
-1.4175703156
 31
0.0
 40
0.0109499087
 41
-0.7017315251
 42
-0.679046417
  0
ELLIPSE
  5
397
100
AcDbEntity
  8
218
100
AcDbEllipse
 62
7
  6
CONTINUOUS
 10
12.1888588893
 20
11.6941752608
 30
0.0
 11
2.7583876426
 21
-0.0130411979
 31
0.0
 40
0.4964289597
 41
0.0858786529
 42
1.4531818029
  0
ELLIPSE
  5
398
100
AcDbEntity
  8
218
100
AcDbEllipse
 62
7
  6
CONTINUOUS
 10
12.1888588893
 20
13.2416506715
 30
0.0
 11
2.7583515655
 21
-1.4175703156
 31
0.0
 40
0.0109499087
 41
-0.8804952881
 42
-0.85781018
  0
ELLIPSE
  5
399
100
AcDbEntity
  8
RACCORDO
100
AcDbEllipse
 62
7
  6
CONTINUOUS
 10
-13.2930844619
 20
23.8986037871
 30
0.0
 11
0.110769438
 21
0.2241226716
 31
0.0
 40
0.6088015717
 41
-4.0304836828
 42
-3.1443650652
  0
ELLIPSE
  5
39A
100
AcDbEntity
  8
RACCORDO
100
AcDbEllipse
 62
7
  6
CONTINUOUS
 10
0.0712337025
 20
17.2164447049
 30
0.0
 11
0.110769438
 21
0.2241226716
 31
0.0
 40
0.6088015717
 41
-4.0304836828
 42
-3.1443650652
  0
ELLIPSE
  5
39B
100
AcDbEntity
  8
RACCORDO
100
AcDbEllipse
 62
7
  6
CONTINUOUS
 10
0.0712337025
 20
-24.3365308282
 30
0.0
 11
0.110769438
 21
0.2241226716
 31
0.0
 40
0.6088015717
 41
-4.0304836828
 42
-3.1443955108
  0
ELLIPSE
  5
39C
100
AcDbEntity
  8
RACCORDO
100
AcDbEllipse
 62
7
  6
CONTINUOUS
 10
4.1278415838
 20
15.9247266558
 30
0.0
 11
-0.1565168911
 21
0.3130623908
 31
0.0
 40
0.6123677712
 41
-2.2554744912
 42
-0.6846781644
  0
ELLIPSE
  5
39D
100
AcDbEntity
  8
RACCORDO
100
AcDbEllipse
 62
7
  6
CONTINUOUS
 10
4.1278415838
 20
-22.2518551889
 30
0.0
 11
-0.1565168911
 21
0.3130623908
 31
0.0
 40
0.6123677712
 41
-3.1363904945
 42
-2.2554744912
  0
ELLIPSE
  5
39E
100
AcDbEntity
  8
RACCORDO
100
AcDbEllipse
 62
7
  6
CONTINUOUS
 10
-1.6387539647
 20
25.029957961
 30
0.0
 11
0.2999991737
 21
-0.0014183462
 31
0.0
 40
0.4964289597
 41
0.7877451926
 42
2.3527237553
  0
ELLIPSE
  5
39F
100
AcDbEntity
  8
RACCORDO
100
AcDbEllipse
 62
7
  6
CONTINUOUS
 10
3.9157095494
 20
22.2527262039
 30
0.0
 11
0.2999991737
 21
-0.0014183462
 31
0.0
 40
0.4964289597
 41
0.7877451926
 42
2.3585415194
  0
ELLIPSE
  5
3A0
100
AcDbEntity
  8
RACCORDO
100
AcDbEllipse
 62
7
  6
CONTINUOUS
 10
3.4550616849
 20
16.5422976667
 30
0.0
 11
0.110769438
 21
0.2241226716
 31
0.0
 40
0.6088015717
 41
1.2055040732
 42
2.252693743
  0
ELLIPSE
  5
3A1
100
AcDbEntity
  8
RACCORDO
100
AcDbEllipse
 62
7
  6
CONTINUOUS
 10
-9.9092564795
 20
23.2244567489
 30
0.0
 11
0.110769438
 21
0.2241226716
 31
0.0
 40
0.6088015717
 41
1.2055040732
 42
2.2526937431
  0
ELLIPSE
  5
3A2
100
AcDbEntity
  8
RACCORDO
100
AcDbEllipse
 62
7
  6
CONTINUOUS
 10
3.8065581621
 20
-24.090430297
 30
0.0
 11
0.110769438
 21
0.2241226716
 31
0.0
 40
0.6088015717
 41
-2.4538695918
 42
-0.8888910292
  0
ELLIPSE
  5
3A3
100
AcDbEntity
  8
RACCORDO
100
AcDbEllipse
 62
7
  6
CONTINUOUS
 10
0.0712337025
 20
-24.0831594345
 30
0.0
 11
0.110769438
 21
0.2241226716
 31
0.0
 40
0.6088015717
 41
1.2055040732
 42
2.2527016244
  0
ELLIPSE
  5
3A4
100
AcDbEntity
  8
RACCORDO
100
AcDbEllipse
 62
7
  6
CONTINUOUS
 10
3.8065581621
 20
17.4701028187
 30
0.0
 11
0.110769438
 21
0.2241226716
 31
0.0
 40
0.6088015717
 41
-1.9360885804
 42
-0.8888910292
  0
ELLIPSE
  5
3A5
100
AcDbEntity
  8
RACCORDO
100
AcDbEllipse
 62
7
  6
CONTINUOUS
 10
2.1863833057
 20
18.5411192233
 30
0.0
 11
0.1128509832
 21
0.2230818409
 31
0.0
 40
0.6159267166
 41
0.0028979148
 42
0.6817883054
  0
ELLIPSE
  5
3A6
100
AcDbEntity
  8
RACCORDO
100
AcDbEllipse
 62
7
  6
CONTINUOUS
 10
0.0712337025
 20
17.4698160987
 30
0.0
 11
0.110769438
 21
0.2241226716
 31
0.0
 40
0.6088015717
 41
0.6877230618
 42
2.2527016244
  0
ELLIPSE
  5
3A7
100
AcDbEntity
  8
RACCORDO
100
AcDbEllipse
 62
7
  6
CONTINUOUS
 10
-9.5577600024
 20
24.1522619009
 30
0.0
 11
0.110769438
 21
0.2241226716
 31
0.0
 40
0.6088015717
 41
-1.9360885804
 42
-0.8888910292
  0
ELLIPSE
  5
3A8
100
AcDbEntity
  8
RACCORDO
100
AcDbEllipse
 62
7
  6
CONTINUOUS
 10
-11.1779348587
 20
25.2232783055
 30
0.0
 11
0.1128509832
 21
0.2230818409
 31
0.0
 40
0.6159267166
 41
0.0028979148
 42
0.6817883054
  0
ELLIPSE
  5
3A9
100
AcDbEntity
  8
RACCORDO
100
AcDbEllipse
 62
7
  6
CONTINUOUS
 10
-13.2930844619
 20
24.1519751809
 30
0.0
 11
0.110769438
 21
0.2241226716
 31
0.0
 40
0.6088015717
 41
0.6877230618
 42
2.2527016244
  0
ELLIPSE
  5
3AA
100
AcDbEntity
  8
RACCORDO
100
AcDbEllipse
 62
7
  6
CONTINUOUS
 10
-9.5577600024
 20
24.4131908773
 30
0.0
 11
0.110769438
 21
0.2241226716
 31
0.0
 40
0.6088015717
 41
5.394294278
 42
6.9592728406
  0
ELLIPSE
  5
3AB
100
AcDbEntity
  8
RACCORDO
100
AcDbEllipse
 62
7
  6
CONTINUOUS
 10
3.8065581621
 20
17.7310317951
 30
0.0
 11
0.110769438
 21
0.2241226716
 31
0.0
 40
0.6088015717
 41
5.394294278
 42
6.9592728406
  0
ELLIPSE
  5
3AC
100
AcDbEntity
  8
RACCORDO
100
AcDbEllipse
 62
7
  6
CONTINUOUS
 10
3.8065581621
 20
-23.8295013207
 30
0.0
 11
0.110769438
 21
0.2241226716
 31
0.0
 40
0.6088015717
 41
5.394294278
 42
6.4414918292
  0
ELLIPSE
  5
3AD
100
AcDbEntity
  8
RACCORDO
100
AcDbEllipse
 62
7
  6
CONTINUOUS
 10
-7.6072477151
 20
22.109776593
 30
0.0
 11
0.2999991335
 21
0.0014318851
 31
0.0
 40
0.5035541159
 41
8.6427941204
 42
10.207772683
  0
ELLIPSE
  5
3AE
100
AcDbEntity
  8
RACCORDO
100
AcDbEllipse
 62
7
  6
CONTINUOUS
 10
4.0961615266
 20
20.9306660339
 30
0.0
 11
0.2999981629
 21
-0.0021225547
 31
0.0
 40
0.4946372042
 41
-0.7760807437
 42
0.0035109161
  0
ELLIPSE
  5
3AF
100
AcDbEntity
  8
RACCORDO
100
AcDbEllipse
 62
7
  6
CONTINUOUS
 10
-1.4583019876
 20
23.707897791
 30
0.0
 11
0.2999981629
 21
-0.0021225547
 31
0.0
 40
0.4946372042
 41
-0.7818985079
 42
0.0034997008
  0
ELLIPSE
  5
3B0
100
AcDbEntity
  8
RACCORDO
100
AcDbEllipse
 62
7
  6
CONTINUOUS
 10
1.6529678496
 20
14.6759532549
 30
0.0
 11
-0.1565168911
 21
0.3130623908
 31
0.0
 40
0.6123677712
 41
-2.2554744912
 42
-0.6846781644
  0
ELLIPSE
  5
3B1
100
AcDbEntity
  8
RACCORDO
100
AcDbEllipse
 62
7
  6
CONTINUOUS
 10
-13.620538624
 20
22.3127064917
 30
0.0
 11
-0.1565168911
 21
0.3130623908
 31
0.0
 40
0.6123677712
 41
-0.6846781644
 42
0.8861181623
  0
ELLIPSE
  5
3B2
100
AcDbEntity
  8
RACCORDO
100
AcDbEllipse
 62
7
  6
CONTINUOUS
 10
1.6529678496
 20
-23.4779555222
 30
0.0
 11
-0.1565168911
 21
0.3130623908
 31
0.0
 40
0.6123677712
 41
2.4569144891
 42
4.0277108159
  0
ELLIPSE
  5
3B3
100
AcDbEntity
  8
RACCORDO
100
AcDbEllipse
 62
7
  6
CONTINUOUS
 10
-1.4583019876
 20
24.9397319724
 30
0.0
 11
0.2999991737
 21
-0.0014183462
 31
0.0
 40
0.4964289597
 41
-0.7830511342
 42
0.7877451926
  0
ELLIPSE
  5
3B4
100
AcDbEntity
  8
RACCORDO
100
AcDbEllipse
 62
7
  6
CONTINUOUS
 10
4.0961615266
 20
22.1625002153
 30
0.0
 11
0.2999991737
 21
-0.0014183462
 31
0.0
 40
0.4964289597
 41
-0.77723337
 42
0.7877451926
  0
ELLIPSE
  5
3B5
100
AcDbEntity
  8
RACCORDO
100
AcDbEllipse
 62
7
  6
CONTINUOUS
 10
-7.6072477151
 20
20.8955775172
 30
0.0
 11
0.2999980272
 21
0.0021530184
 31
0.0
 40
0.5053247124
 41
3.1379773283
 42
3.9233642311
  0
ELLIPSE
  5
3B6
100
AcDbEntity
  8
RACCORDO
100
AcDbEllipse
 62
7
  6
CONTINUOUS
 10
-1.814738647
 20
19.213522059
 30
0.0
 11
0.2999991335
 21
0.0014318851
 31
0.0
 40
0.5035541159
 41
-2.3585979313
 42
-0.7936193687
  0
ELLIPSE
  5
3B7
100
AcDbEntity
  8
RACCORDO
100
AcDbEllipse
 62
7
  6
CONTINUOUS
 10
-1.814738647
 20
17.9993229832
 30
0.0
 11
0.2999980272
 21
0.0021530184
 31
0.0
 40
0.5053247124
 41
-2.3598210761
 42
-0.7948425135
  0
ELLIPSE
  5
3B8
100
AcDbEntity
  8
RACCORDO
100
AcDbEllipse
 62
7
  6
CONTINUOUS
 10
3.4550616849
 20
-23.2573064727
 30
0.0
 11
0.110769438
 21
0.2241226716
 31
0.0
 40
0.6088015717
 41
2.2527095058
 42
3.2998991756
  0
ELLIPSE
  5
3B9
100
AcDbEntity
  8
RACCORDO
100
AcDbEllipse
 62
7
  6
CONTINUOUS
 10
0.0007615434
 20
-18.0363011553
 30
0.0
 11
-0.542618321
 21
0.8478124368
 31
0.0
 40
0.5451249042
 41
-3.2164376038
 42
-2.3115524019
  0
ELLIPSE
  5
3BA
100
AcDbEntity
  8
RACCORDO
100
AcDbEllipse
 62
7
  6
CONTINUOUS
 10
1.6790670781
 20
-25.140447516
 30
0.0
 11
0.1128509832
 21
0.2230818409
 31
0.0
 40
0.6159267166
 41
-4.0247829108
 42
-2.4598043482
  0
ELLIPSE
  5
3BB
100
AcDbEntity
  8
RACCORDO
100
AcDbEllipse
 62
7
  6
CONTINUOUS
 10
1.6790670781
 20
-24.8870761223
 30
0.0
 11
0.1128509832
 21
0.2230818409
 31
0.0
 40
0.6159267166
 41
1.2112048452
 42
2.2584023964
  0
ELLIPSE
  5
3BC
100
AcDbEntity
  8
RACCORDO
100
AcDbEllipse
 62
7
  6
CONTINUOUS
 10
1.6790670781
 20
16.6658994109
 30
0.0
 11
0.1128509832
 21
0.2230818409
 31
0.0
 40
0.6159267166
 41
0.6934238338
 42
2.2584023964
  0
ELLIPSE
  5
3BD
100
AcDbEntity
  8
RACCORDO
100
AcDbEllipse
 62
7
  6
CONTINUOUS
 10
1.6790670781
 20
16.4125280171
 30
0.0
 11
0.1128509832
 21
0.2230818409
 31
0.0
 40
0.6159267166
 41
-4.0247829108
 42
-2.9775853596
  0
ELLIPSE
  5
3BE
100
AcDbEntity
  8
RACCORDO
100
AcDbEllipse
 62
7
  6
CONTINUOUS
 10
-11.6852510863
 20
23.3480584931
 30
0.0
 11
0.1128509832
 21
0.2230818409
 31
0.0
 40
0.6159267166
 41
0.6934238338
 42
2.2584023964
  0
ELLIPSE
  5
3BF
100
AcDbEntity
  8
RACCORDO
100
AcDbEllipse
 62
7
  6
CONTINUOUS
 10
-11.6852510863
 20
23.0946870993
 30
0.0
 11
0.1128509832
 21
0.2230818409
 31
0.0
 40
0.6159267166
 41
-4.0247829108
 42
-2.9775853596
  0
ENDSEC
  0
SECTION
  2
OBJECTS
  0
DICTIONARY
  5
C
100
AcDbDictionary
280
0
281
1
  3
ACAD_GROUP
350
D
  3
ACAD_MLINESTYLE
350
17
  3
ACAD_LAYOUT
350
1A
  3
ACAD_PLOTSETTINGS
350
19
  3
ACAD_PLOTSTYLENAME
350
E
  0
DICTIONARY
  5
D
102
{ACAD_REACTORS
330
C
102
}
100
AcDbDictionary
280
0
281
1
  0
ACDBDICTIONARYWDFLT
  5
E
102
{ACAD_REACTORS
330
C
102
}
100
AcDbDictionary
281
1
  3
Normal
350
F
100
AcDbDictionaryWithDefault
340
F
  0
DICTIONARY
  5
17
102
{ACAD_REACTORS
330
C
102
}
100
AcDbDictionary
280
0
281
1
  3
Standard
350
18
  0
DICTIONARY
  5
19
102
{ACAD_REACTORS
330
C
102
}
100
AcDbDictionary
281
1
  0
DICTIONARY
  5
1A
102
{ACAD_REACTORS
330
C
102
}
100
AcDbDictionary
281
1
  3
Model
350
3C0
  3
Layout1
350
3C1
  0
ACDBPLACEHOLDER
  5
F
102
{ACAD_REACTORS
330
E
102
}
  0
MLINESTYLE
  5
18
102
{ACAD_REACTORS
330
17
102
}
100
AcDbMlineStyle
  2
STANDARD
 70
0
  3

 62
256
 51
90.0
 52
90.0
 71
2
 49
0.5
 62
256
  6
BYLAYER
 49
-0.5
 62
256
  6
BYLAYER
  0
LAYOUT
  5
3C0
102
{ACAD_REACTORS
330
1A
102
}
100
AcDbPlotSettings
  1

  2
none_device
  4
ISO_A4_(297.00_x_210.00_MM)
  6

 40
0.0
 41
0.0
 42
0.0
 43
0.0
 44
297.0
 45
210.0
 46
0.0
 47
0.0
 48
0.0
 49
0.0
140
0.0
141
0.0
142
1.0
143
1.0
 70
1024
 72
1
 73
0
 74
0
  7

 75
0
147
1.0
148
0.0
149
0.0
100
AcDbLayout
  1
Model
 70
0
 71
0
 10
0.0
 20
0.0
 11
297.0
 21
210.0
 12
0.0
 22
0.0
 32
0.0
 14
0.0
 24
0.0
 34
0.0
 15
0.0
 25
0.0
 35
0.0
146
0.0
 13
0.0
 23
0.0
 33
0.0
 16
1.0
 26
0.0
 36
0.0
 17
0.0
 27
1.0
 37
0.0
 76
0
330
219
345
0
346
0
  0
LAYOUT
  5
3C1
102
{ACAD_REACTORS
330
1A
102
}
100
AcDbPlotSettings
  1

  2
none_device
  4
ISO_A4_(297.00_x_210.00_MM)
  6

 40
0.0
 41
0.0
 42
0.0
 43
0.0
 44
297.0
 45
210.0
 46
0.0
 47
0.0
 48
0.0
 49
0.0
140
0.0
141
0.0
142
1.0
143
1.0
 70
0
 72
1
 73
0
 74
0
  7

 75
0
147
1.0
148
0.0
149
0.0
100
AcDbLayout
  1
Layout1
 70
0
 71
1
 10
0.0
 20
0.0
 11
297.0
 21
210.0
 12
0.0
 22
0.0
 32
0.0
 14
0.0
 24
0.0
 34
0.0
 15
0.0
 25
0.0
 35
0.0
146
0.0
 13
0.0
 23
0.0
 33
0.0
 16
1.0
 26
0.0
 36
0.0
 17
0.0
 27
1.0
 37
0.0
 76
0
330
21A
345
0
346
0
  0
ENDSEC
  0
EOF
