  0
SECTION
  2
HEADER
  9
$ACADVER
  1
AC1024
  9
$DWGCODEPAGE
  3
ANSI_1252
  9
$EXTMAX
 10
297.0
 20
210.0
 30
0.0
  9
$EXTMIN
 10
0.0
 20
0.0
 30
0.0
  9
$LIMMIN
 10
0.0
 20
0.0
  9
$LIMMAX
 10
297.0
 20
210.0
  9
$VIEWCTR
 10
148.5
 20
105.0
  9
$VIEWSIZE
 40
210.0
  9
$CLAYER
  8
0
  9
$LTSCALE
 40
16.335
  9
$CELTYPE
  6
BYLAYER
  9
$DIMSCALE
 40
1.0
  9
$DIMASZ
 40
3.0
  9
$DIMEXO
 40
0.5
  9
$DIMDLI
 40
11.286
  9
$DIMEXE
 40
1.5
  9
$DIMCEN
 40
2.673
  9
$DIMLFAC
 40
1.0
  9
$DIMBLK
  1
_FILLED
  9
$DIMALT
 70
0
  9
$DIMALTF
 40
0.0393700787
  9
$DIMTXT
 40
3.0
  9
$DIMTOL
 70
1
  9
$DIMLIM
 70
0
  9
$DIMTFAC
 40
1.0
  9
$DIMTP
 40
0.01
  9
$DIMTM
 40
0.01
  9
$DIMGAP
 40
0.625
  9
$DIMDSEP
 70
44
  9
$AUNITS
 70
0
  9
$PDMODE
 70
3
  9
$PDSIZE
 40
3.0
  9
$HANDSEED
  5
44A
  9
$TILEMODE
 70
1
  9
$MEASUREMENT
 70
1
  9
$INSUNITS
 70
4
  0
ENDSEC
  0
SECTION
  2
CLASSES
  0
CLASS
  1
ACDBDICTIONARYWDFLT
  2
AcDbDictionaryWithDefault
  3
AutoCAD 2000
 90
0
 91
1
280
0
281
0
  0
CLASS
  1
ACDBPLACEHOLDER
  2
AcDbPlaceHolder
  3
AutoCAD 2000
 90
0
 91
1
280
0
281
0
  0
CLASS
  1
LAYOUT
  2
AcDbLayout
  3
AutoCAD 2000
 90
0
 91
0
280
0
281
0
  0
ENDSEC
  0
SECTION
  2
TABLES
  0
TABLE
  2
VPORT
  5
8
100
AcDbSymbolTable
 70
2
  0
VPORT
  5
1F4
100
AcDbSymbolTableRecord
100
AcDbViewportTableRecord
  2
*ACTIVE
 70
0
 10
0.0
 20
0.0
 11
1.0
 21
1.0
 12
148.5
 22
105.0
 13
0.0
 23
0.0
 14
1.0
 24
1.0
 15
0.0
 25
0.0
 16
0.0
 26
0.0
 36
1.0
 17
0.0
 27
0.0
 37
0.0
 40
210.0
 41
1.4142857143
 42
50.0
 43
0.0
 44
0.0
 50
0.0
 51
0.0
 71
0
 72
100
 73
1
 74
1
 75
0
 76
0
 77
0
 78
0
  0
ENDTAB
  0
TABLE
  2
LTYPE
  5
5
100
AcDbSymbolTable
 70
6
  0
LTYPE
  5
14
100
AcDbSymbolTableRecord
100
AcDbLinetypeTableRecord
  2
BYBLOCK
 70
0
  3

 72
65
 73
0
 40
0.0
  0
LTYPE
  5
15
100
AcDbSymbolTableRecord
100
AcDbLinetypeTableRecord
  2
BYLAYER
 70
0
  3

 72
65
 73
0
 40
0.0
  0
LTYPE
  5
16
100
AcDbSymbolTableRecord
100
AcDbLinetypeTableRecord
  2
CONTINUOUS
 70
64
  3
Solid line
 72
65
 73
0
 40
0.0
  0
LTYPE
  5
1F5
100
AcDbSymbolTableRecord
100
AcDbLinetypeTableRecord
  2
CENTER
 70
64
  3
____ _ ____ _ ____ _ ____ _ ____ _ ____ _ ____
 72
65
 73
4
 40
0.6
 49
0.375
 74
0
 49
-0.075
 74
0
 49
0.075
 74
0
 49
-0.075
 74
0
  0
LTYPE
  5
1F6
100
AcDbSymbolTableRecord
100
AcDbLinetypeTableRecord
  2
HIDDEN
 70
64
  3
- - - - - - - - - - - - - - - - - - - -
 72
65
 73
2
 40
0.2
 49
0.1
 74
0
 49
-0.1
 74
0
  0
LTYPE
  5
1F7
100
AcDbSymbolTableRecord
100
AcDbLinetypeTableRecord
  2
PHANTOM
 70
64
  3
_____ _ _ _____ _ _ _____ _ _ _____
 72
65
 73
6
 40
0.8
 49
0.45
 74
0
 49
-0.05
 74
0
 49
0.1
 74
0
 49
-0.05
 74
0
 49
0.1
 74
0
 49
-0.05
 74
0
  0
LTYPE
  5
1F8
100
AcDbSymbolTableRecord
100
AcDbLinetypeTableRecord
  2
DOT
 70
64
  3
. . . . . . . . . . . . . . . . . . . .
 72
65
 73
2
 40
0.2
 49
0.1
 74
0
 49
-0.1
 74
0
  0
LTYPE
  5
1F9
100
AcDbSymbolTableRecord
100
AcDbLinetypeTableRecord
  2
DASHED
 70
64
  3
- - - - - - - - - - - - - - - - - - - -
 72
65
 73
2
 40
0.2
 49
0.1
 74
0
 49
-0.1
 74
0
  0
ENDTAB
  0
TABLE
  2
LAYER
  5
2
100
AcDbSymbolTable
 70
36
  0
LAYER
  5
10
100
AcDbSymbolTableRecord
100
AcDbLayerTableRecord
  2
0
 70
0
 62
7
  6
CONTINUOUS
370
-3
390
F
  0
LAYER
  5
1FA
100
AcDbSymbolTableRecord
100
AcDbLayerTableRecord
  2
DEFAULT_1
 70
0
 62
7
  6
CENTER
370
-3
390
F
  0
LAYER
  5
1FB
100
AcDbSymbolTableRecord
100
AcDbLayerTableRecord
  2
DEFAULT_2
 70
0
 62
7
  6
HIDDEN
370
-3
390
F
  0
LAYER
  5
1FC
100
AcDbSymbolTableRecord
100
AcDbLayerTableRecord
  2
DEFAULT_3
 70
0
 62
7
  6
PHANTOM
370
-3
390
F
  0
LAYER
  5
1FD
100
AcDbSymbolTableRecord
100
AcDbLayerTableRecord
  2
218_INCISO
 70
0
 62
7
  6
CONTINUOUS
370
-3
390
F
  0
LAYER
  5
1FE
100
AcDbSymbolTableRecord
100
AcDbLayerTableRecord
  2
218_STAMPATO
 70
0
 62
7
  6
CONTINUOUS
370
-3
390
F
  0
LAYER
  5
1FF
100
AcDbSymbolTableRecord
100
AcDbLayerTableRecord
  2
260
 70
0
 62
7
  6
CONTINUOUS
370
-3
390
F
  0
LAYER
  5
200
100
AcDbSymbolTableRecord
100
AcDbLayerTableRecord
  2
268
 70
0
 62
7
  6
CONTINUOUS
370
-3
390
F
  0
LAYER
  5
201
100
AcDbSymbolTableRecord
100
AcDbLayerTableRecord
  2
284
 70
0
 62
7
  6
CONTINUOUS
370
-3
390
F
  0
LAYER
  5
202
100
AcDbSymbolTableRecord
100
AcDbLayerTableRecord
  2
320
 70
0
 62
7
  6
CONTINUOUS
370
-3
390
F
  0
LAYER
  5
203
100
AcDbSymbolTableRecord
100
AcDbLayerTableRecord
  2
340
 70
0
 62
7
  6
CONTINUOUS
370
-3
390
F
  0
LAYER
  5
204
100
AcDbSymbolTableRecord
100
AcDbLayerTableRecord
  2
712
 70
0
 62
7
  6
CONTINUOUS
370
-3
390
F
  0
LAYER
  5
205
100
AcDbSymbolTableRecord
100
AcDbLayerTableRecord
  2
715
 70
0
 62
7
  6
CONTINUOUS
370
-3
390
F
  0
LAYER
  5
206
100
AcDbSymbolTableRecord
100
AcDbLayerTableRecord
  2
ASSI
 70
0
 62
7
  6
CONTINUOUS
370
-3
390
F
  0
LAYER
  5
207
100
AcDbSymbolTableRecord
100
AcDbLayerTableRecord
  2
COLORE_TOP
 70
0
 62
7
  6
CONTINUOUS
370
-3
390
F
  0
LAYER
  5
208
100
AcDbSymbolTableRecord
100
AcDbLayerTableRecord
  2
COORDINATE
 70
0
 62
7
  6
CONTINUOUS
370
-3
390
F
  0
LAYER
  5
209
100
AcDbSymbolTableRecord
100
AcDbLayerTableRecord
  2
COORD_ORIGINE
 70
0
 62
7
  6
CONTINUOUS
370
-3
390
F
  0
LAYER
  5
20A
100
AcDbSymbolTableRecord
100
AcDbLayerTableRecord
  2
COPY-PUBBLISH
 70
0
 62
7
  6
CONTINUOUS
370
-3
390
F
  0
LAYER
  5
20B
100
AcDbSymbolTableRecord
100
AcDbLayerTableRecord
  2
COSMETICHE
 70
0
 62
7
  6
CONTINUOUS
370
-3
390
F
  0
LAYER
  5
20C
100
AcDbSymbolTableRecord
100
AcDbLayerTableRecord
  2
CURVA_CENTRALE
 70
0
 62
7
  6
CONTINUOUS
370
-3
390
F
  0
LAYER
  5
20D
100
AcDbSymbolTableRecord
100
AcDbLayerTableRecord
  2
CURVE
 70
0
 62
7
  6
CONTINUOUS
370
-3
390
F
  0
LAYER
  5
20E
100
AcDbSymbolTableRecord
100
AcDbLayerTableRecord
  2
DRAFT
 70
0
 62
7
  6
CONTINUOUS
370
-3
390
F
  0
LAYER
  5
20F
100
AcDbSymbolTableRecord
100
AcDbLayerTableRecord
  2
IMPORT
 70
0
 62
7
  6
CONTINUOUS
370
-3
390
F
  0
LAYER
  5
210
100
AcDbSymbolTableRecord
100
AcDbLayerTableRecord
  2
IMPORTED
 70
0
 62
7
  6
CONTINUOUS
370
-3
390
F
  0
LAYER
  5
211
100
AcDbSymbolTableRecord
100
AcDbLayerTableRecord
  2
INTF_1
 70
0
 62
7
  6
CONTINUOUS
370
-3
390
F
  0
LAYER
  5
212
100
AcDbSymbolTableRecord
100
AcDbLayerTableRecord
  2
INTF_11
 70
0
 62
7
  6
CONTINUOUS
370
-3
390
F
  0
LAYER
  5
213
100
AcDbSymbolTableRecord
100
AcDbLayerTableRecord
  2
INTF_2
 70
0
 62
7
  6
CONTINUOUS
370
-3
390
F
  0
LAYER
  5
214
100
AcDbSymbolTableRecord
100
AcDbLayerTableRecord
  2
INTF_5
 70
0
 62
7
  6
CONTINUOUS
370
-3
390
F
  0
LAYER
  5
215
100
AcDbSymbolTableRecord
100
AcDbLayerTableRecord
  2
INTF_6
 70
0
 62
7
  6
CONTINUOUS
370
-3
390
F
  0
LAYER
  5
216
100
AcDbSymbolTableRecord
100
AcDbLayerTableRecord
  2
INTF_CYAN
 70
0
 62
7
  6
CONTINUOUS
370
-3
390
F
  0
LAYER
  5
217
100
AcDbSymbolTableRecord
100
AcDbLayerTableRecord
  2
NOTE
 70
0
 62
7
  6
CONTINUOUS
370
-3
390
F
  0
LAYER
  5
218
100
AcDbSymbolTableRecord
100
AcDbLayerTableRecord
  2
PIANI
 70
0
 62
7
  6
CONTINUOUS
370
-3
390
F
  0
LAYER
  5
219
100
AcDbSymbolTableRecord
100
AcDbLayerTableRecord
  2
PIANI_DI_RIFERIMENTO
 70
0
 62
7
  6
CONTINUOUS
370
-3
390
F
  0
LAYER
  5
21A
100
AcDbSymbolTableRecord
100
AcDbLayerTableRecord
  2
PIANI_ORIGINE
 70
0
 62
7
  6
CONTINUOUS
370
-3
390
F
  0
LAYER
  5
21B
100
AcDbSymbolTableRecord
100
AcDbLayerTableRecord
  2
PIANI_RIFERIMENTO
 70
0
 62
7
  6
CONTINUOUS
370
-3
390
F
  0
LAYER
  5
21C
100
AcDbSymbolTableRecord
100
AcDbLayerTableRecord
  2
PIANI_SFORMO
 70
0
 62
7
  6
CONTINUOUS
370
-3
390
F
  0
LAYER
  5
21D
100
AcDbSymbolTableRecord
100
AcDbLayerTableRecord
  2
PUNTI
 70
0
 62
7
  6
CONTINUOUS
370
-3
390
F
  0
LAYER
  5
21E
100
AcDbSymbolTableRecord
100
AcDbLayerTableRecord
  2
RACCORDO
 70
0
 62
7
  6
CONTINUOUS
370
-3
390
F
  0
LAYER
  5
21F
100
AcDbSymbolTableRecord
100
AcDbLayerTableRecord
  2
RGB__255__255__255__
 70
0
 62
7
  6
CONTINUOUS
370
-3
390
F
  0
LAYER
  5
220
100
AcDbSymbolTableRecord
100
AcDbLayerTableRecord
  2
RINTRACCIABILITA
 70
0
 62
7
  6
CONTINUOUS
370
-3
390
F
  0
LAYER
  5
221
100
AcDbSymbolTableRecord
100
AcDbLayerTableRecord
  2
SMUSSO
 70
0
 62
7
  6
CONTINUOUS
370
-3
390
F
  0
LAYER
  5
222
100
AcDbSymbolTableRecord
100
AcDbLayerTableRecord
  2
SNAPLINE
 70
0
 62
7
  6
CONTINUOUS
370
-3
390
F
  0
LAYER
  5
223
100
AcDbSymbolTableRecord
100
AcDbLayerTableRecord
  2
SUPERFICI
 70
0
 62
7
  6
CONTINUOUS
370
-3
390
F
  0
LAYER
  5
224
100
AcDbSymbolTableRecord
100
AcDbLayerTableRecord
  2
TRASH
 70
0
 62
7
  6
CONTINUOUS
370
-3
390
F
  0
LAYER
  5
225
100
AcDbSymbolTableRecord
100
AcDbLayerTableRecord
  2
WHITE
 70
0
 62
7
  6
CONTINUOUS
370
-3
390
F
  0
LAYER
  5
226
100
AcDbSymbolTableRecord
100
AcDbLayerTableRecord
  2
XSEC_DATUMS
 70
0
 62
7
  6
CONTINUOUS
370
-3
390
F
  0
ENDTAB
  0
TABLE
  2
STYLE
  5
3
100
AcDbSymbolTable
 70
1
  0
STYLE
  5
11
100
AcDbSymbolTableRecord
100
AcDbTextStyleTableRecord
  2
STANDARD
 70
0
 40
0.0
 41
0.8
 50
0.0
 71
0
 42
0.2
  3
txt
  4

  0
STYLE
  5
227
100
AcDbSymbolTableRecord
100
AcDbTextStyleTableRecord
  2
TEXTSTYLE_1
 70
0
 40
0.0
 41
0.8
 50
0.0
 71
0
 42
0.2
  3
gdt
  4

  0
ENDTAB
  0
TABLE
  2
VIEW
  5
6
100
AcDbSymbolTable
 70
0
  0
ENDTAB
  0
TABLE
  2
UCS
  5
7
100
AcDbSymbolTable
 70
0
  0
ENDTAB
  0
TABLE
  2
APPID
  5
9
100
AcDbSymbolTable
 70
1
  0
APPID
  5
228
100
AcDbSymbolTableRecord
100
AcDbRegAppTableRecord
  2
ACAD
 70
0
  0
ENDTAB
  0
TABLE
  2
BLOCK_RECORD
  5
1
100
AcDbSymbolTable
 70
0
  0
BLOCK_RECORD
  5
229
100
AcDbSymbolTableRecord
100
AcDbBlockTableRecord
  2
*Model_Space
  0
BLOCK_RECORD
  5
22A
100
AcDbSymbolTableRecord
100
AcDbBlockTableRecord
  2
*Paper_Space
  0
BLOCK_RECORD
  5
22B
100
AcDbSymbolTableRecord
100
AcDbBlockTableRecord
  2
_FILLED
  0
ENDTAB
  0
TABLE
  2
DIMSTYLE
  5
A
100
AcDbSymbolTable
 70
1
100
AcDbDimStyleTable
 71
0
  0
DIMSTYLE
105
22C
100
AcDbSymbolTableRecord
100
AcDbDimStyleTableRecord
  2
STANDARD
 70
0
  3

  4

 40
1.0
 41
3.0
 42
0.5
 43
0.38
 44
1.5
 45
0.0
 46
0.0
 47
0.01
 48
0.01
140
3.0
141
0.09
142
0.0
143
25.4
144
1.0
145
0.0
146
1.0
147
0.625
 71
1
 72
0
 73
0
 74
0
 75
0
 76
0
 77
1
 78
8
 79
2
170
0
171
1
172
0
173
0
174
0
175
0
176
0
177
0
178
0
270
2
179
2
271
2
272
2
273
2
274
2
275
0
280
0
281
0
282
0
283
1
284
8
285
0
286
0
287
3
288
0
340
11
278
44
341
22B
342
22B
343
22B
344
22B
  0
ENDTAB
  0
ENDSEC
  0
SECTION
  2
BLOCKS
  0
BLOCK
  5
20
100
AcDbEntity
  8
0
100
AcDbBlockBegin
  2
*Model_Space
 70
0
 10
0.0
 20
0.0
 30
0.0
  3
*Model_Space
  1

  0
ENDBLK
  5
21
100
AcDbEntity
  8
0
100
AcDbBlockEnd
  0
BLOCK
  5
1C
100
AcDbEntity
  8
0
100
AcDbBlockBegin
  2
*Paper_Space
 70
0
 10
0.0
 20
0.0
 30
0.0
  3
*Paper_Space
  1

  0
ENDBLK
  5
1D
100
AcDbEntity
  8
0
100
AcDbBlockEnd
  0
BLOCK
  5
22D
100
AcDbEntity
  8
0
100
AcDbBlockBegin
  2
_FILLED
 70
64
 10
0.0
 20
0.0
  3
_FILLED
  1

  0
SOLID
  5
22E
100
AcDbEntity
  8
0
  6
BYBLOCK
 62
0
100
AcDbTrace
 10
0.0
 20
0.0
 11
-1.0
 21
0.3166666667
 12
-1.0
 22
-0.3166666667
 13
-1.0
 23
-0.3166666667
  0
ENDBLK
  5
22F
100
AcDbEntity
  8
0
  6
BYBLOCK
 62
0
100
AcDbBlockEnd
  0
ENDSEC
  0
SECTION
  2
ENTITIES
  0
LWPOLYLINE
  5
230
100
AcDbEntity
  8
RACCORDO
100
AcDbPolyline
 62
250
  6
CONTINUOUS
 90
14
 70
0
 10
-20.708282913
 20
-20.0701972538
 10
-20.7631858139
 20
-20.0375551283
 10
-20.8144808431
 20
-19.9984569342
 10
-20.8619243663
 20
-19.9530953452
 10
-20.9053052472
 20
-19.9016754047
 10
-20.9444120561
 20
-19.8444373295
 10
-20.9790366229
 20
-19.7816727511
 10
-21.0090036271
 20
-19.7137043261
 10
-21.0341617676
 20
-19.6408795823
 10
-21.0543891046
 20
-19.5635527712
 10
-21.0695918229
 20
-19.4820944426
 10
-21.0796945658
 20
-19.3969026744
 10
-21.0846430481
 20
-19.3084029805
 10
-21.0844112047
 20
-19.2170328586
  0
LWPOLYLINE
  5
231
100
AcDbEntity
  8
ASSI
100
AcDbPolyline
 62
250
  6
CONTINUOUS
 90
14
 70
0
 10
-20.708282913
 20
-20.0701972538
 10
-20.7631858139
 20
-20.0375551283
 10
-20.8144808431
 20
-19.9984569342
 10
-20.8619243663
 20
-19.9530953452
 10
-20.9053052472
 20
-19.9016754047
 10
-20.9444120561
 20
-19.8444373295
 10
-20.9790366229
 20
-19.7816727511
 10
-21.0090036271
 20
-19.7137043261
 10
-21.0341617676
 20
-19.6408795823
 10
-21.0543891046
 20
-19.5635527712
 10
-21.0695918229
 20
-19.4820944426
 10
-21.0796945658
 20
-19.3969026744
 10
-21.0846430481
 20
-19.3084029805
 10
-21.0844112047
 20
-19.2170328586
  0
LINE
  5
232
100
AcDbEntity
  8
268
100
AcDbLine
 62
7
  6
CONTINUOUS
 10
-13.5517521704
 20
23.0629489791
 11
-11.9689955672
 21
23.8749330764
  0
LINE
  5
233
100
AcDbEntity
  8
268
100
AcDbLine
 62
7
  6
CONTINUOUS
 10
-14.0357072827
 20
21.320248577
 11
-13.0234849986
 21
21.8371785397
  0
LINE
  5
234
100
AcDbEntity
  8
268
100
AcDbLine
 62
250
  6
CONTINUOUS
 10
-13.8781838764
 20
21.3108152475
 11
-13.0234849986
 21
21.7472998674
  0
LINE
  5
235
100
AcDbEntity
  8
268
100
AcDbLine
 62
7
  6
CONTINUOUS
 10
-11.9439307613
 20
22.2590382745
 11
-10.3426499705
 21
23.061760278
  0
LINE
  5
236
100
AcDbEntity
  8
268
100
AcDbLine
 62
7
  6
CONTINUOUS
 10
-10.3426499705
 20
23.061760278
 11
-9.8143827987
 21
23.3251990981
  0
LINE
  5
237
100
AcDbEntity
  8
268
100
AcDbLine
 62
7
  6
CONTINUOUS
 10
-11.9689955672
 20
23.8749330764
 11
-11.4345456885
 21
24.135280543
  0
LWPOLYLINE
  5
238
100
AcDbEntity
  8
RACCORDO
100
AcDbPolyline
 62
7
  6
CONTINUOUS
 90
12
 70
0
 10
-6.361847536
 20
-27.2434664772
 10
-6.3359770673
 20
-27.2559999844
 10
-6.2541056109
 20
-27.2903001486
 10
-6.1691850257
 20
-27.3179242744
 10
-6.0816576184
 20
-27.3386142794
 10
-5.991730032
 20
-27.3521870311
 10
-5.8999392295
 20
-27.3584176879
 10
-5.8068858115
 20
-27.3571362947
 10
-5.7127728301
 20
-27.3481869287
 10
-5.6179971428
 20
-27.3314271949
 10
-5.523241874
 20
-27.3068280703
 10
-5.5065974221
 20
-27.3016831897
  0
LWPOLYLINE
  5
239
100
AcDbEntity
  8
ASSI
100
AcDbPolyline
 62
7
  6
CONTINUOUS
 90
12
 70
0
 10
-6.361847536
 20
-27.2434664772
 10
-6.3359770673
 20
-27.2559999844
 10
-6.2541056109
 20
-27.2903001486
 10
-6.1691850257
 20
-27.3179242744
 10
-6.0816576184
 20
-27.3386142794
 10
-5.991730032
 20
-27.3521870311
 10
-5.8999392295
 20
-27.3584176879
 10
-5.8068858115
 20
-27.3571362947
 10
-5.7127728301
 20
-27.3481869287
 10
-5.6179971428
 20
-27.3314271949
 10
-5.523241874
 20
-27.3068280703
 10
-5.5065974221
 20
-27.3016831897
  0
LINE
  5
23A
100
AcDbEntity
  8
RACCORDO
100
AcDbLine
 62
7
  6
CONTINUOUS
 10
-6.3609521964
 20
-27.2439284539
 11
-20.7011619587
 21
-20.0738235728
  0
LINE
  5
23B
100
AcDbEntity
  8
ASSI
100
AcDbLine
 62
7
  6
CONTINUOUS
 10
-6.3609521964
 20
-27.2439284539
 11
-20.7011619587
 21
-20.0738235728
  0
LINE
  5
23C
100
AcDbEntity
  8
RACCORDO
100
AcDbLine
 62
250
  6
CONTINUOUS
 10
-6.75593087
 20
-26.3812730259
 11
-21.0844112047
 21
-19.2170328586
  0
LINE
  5
23D
100
AcDbEntity
  8
ASSI
100
AcDbLine
 62
250
  6
CONTINUOUS
 10
-6.75593087
 20
-26.3812730259
 11
-21.0844112047
 21
-19.2170328586
  0
LINE
  5
23E
100
AcDbEntity
  8
RACCORDO
100
AcDbLine
 62
250
  6
CONTINUOUS
 10
-20.7011303031
 20
-20.0738394005
 11
-20.708282913
 21
-20.0701972538
  0
LINE
  5
23F
100
AcDbEntity
  8
ASSI
100
AcDbLine
 62
250
  6
CONTINUOUS
 10
-20.7011303031
 20
-20.0738394005
 11
-20.708282913
 21
-20.0701972538
  0
LWPOLYLINE
  5
240
100
AcDbEntity
  8
268
100
AcDbPolyline
 62
7
  6
CONTINUOUS
 90
12
 70
0
 10
-2.3785240735
 20
24.5426630235
 10
-2.3848108649
 20
24.5393066499
 10
-2.3966652915
 20
24.5318023768
 10
-2.4083204715
 20
24.5229298655
 10
-2.4198160663
 20
24.512744755
 10
-2.431107364
 20
24.5013136826
 10
-2.4422524304
 20
24.4886666564
 10
-2.4533193098
 20
24.4748371203
 10
-2.464265429
 20
24.4598676214
 10
-2.4751127302
 20
24.4437846943
 10
-2.4859511589
 20
24.4266164399
 10
-2.4968355268
 20
24.4083978085
  0
LINE
  5
241
100
AcDbEntity
  8
268
100
AcDbLine
 62
7
  6
CONTINUOUS
 10
-10.3426499705
 20
21.3297094705
 11
-11.4094808826
 21
20.7911282209
  0
LINE
  5
242
100
AcDbEntity
  8
268
100
AcDbLine
 62
7
  6
CONTINUOUS
 10
-8.886868994
 20
21.3013680742
 11
-2.3788323673
 21
24.5425096797
  0
LINE
  5
243
100
AcDbEntity
  8
268
100
AcDbLine
 62
250
  6
CONTINUOUS
 10
-8.8113758535
 20
21.2636215039
 11
-2.4968355268
 21
24.4083978085
  0
LINE
  5
244
100
AcDbEntity
  8
218_STAMPATO
100
AcDbLine
 62
7
  6
CONTINUOUS
 10
4.0812074134
 20
26.9175227019
 11
-1.6333780401
 21
24.2225400332
  0
LWPOLYLINE
  5
245
100
AcDbEntity
  8
218_STAMPATO
100
AcDbPolyline
 62
7
  6
CONTINUOUS
 90
36
 70
0
 10
4.0811760147
 20
26.9175078926
 10
4.0978540507
 20
26.9251875377
 10
4.1222910413
 20
26.9357802787
 10
4.1468033333
 20
26.9456418039
 10
4.171262051
 20
26.9547431594
 10
4.1957242258
 20
26.9631290669
 10
4.2204440589
 20
26.9708943385
 10
4.2455043208
 20
26.9780566535
 10
4.2707805396
 20
26.9845726517
 10
4.2962251133
 20
26.9904282037
 10
4.3217969504
 20
26.9956142622
 10
4.3474910206
 20
27.0001306722
 10
4.3733133286
 20
27.0039778963
 10
4.3992411463
 20
27.00715123
 10
4.4252532356
 20
27.009647118
 10
4.4513586376
 20
27.0114645647
 10
4.4775355682
 20
27.0125993015
 10
4.5037629149
 20
27.0130479513
 10
4.5300511265
 20
27.0128072368
 10
4.5563829913
 20
27.011872692
 10
4.5827329474
 20
27.0102408306
 10
4.609098819
 20
27.0079070052
 10
4.6354646044
 20
27.0048670518
 10
4.661802807
 20
27.0011187472
 10
4.6880936985
 20
26.9966598263
 10
4.7143246435
 20
26.9914870555
 10
4.7404640845
 20
26.9856014464
 10
4.766464157
 20
26.9790102184
 10
4.7922771656
 20
26.9717243135
 10
4.8179081181
 20
26.9637413638
 10
4.8433875238
 20
26.9550476386
 10
4.8687063837
 20
26.9456391645
 10
4.8938280944
 20
26.9355226116
 10
4.9187400532
 20
26.9246963868
 10
4.9434276318
 20
26.9131593793
 10
4.9549652237
 20
26.9074830068
  0
LWPOLYLINE
  5
246
100
AcDbEntity
  8
RACCORDO
100
AcDbPolyline
 62
7
  6
CONTINUOUS
 90
19
 70
0
 10
-17.3270648787
 20
18.9188257898
 10
-17.3442137691
 20
18.9113351149
 10
-17.4351344035
 20
18.8665958166
 10
-17.5233511428
 20
18.8146874929
 10
-17.6088902213
 20
18.7556771322
 10
-17.6913958459
 20
18.6898879392
 10
-17.7701490542
 20
18.6180107209
 10
-17.8451880666
 20
18.5401405945
 10
-17.9163528235
 20
18.4564815035
 10
-17.9827603911
 20
18.3681205212
 10
-18.0443854108
 20
18.2752381188
 10
-18.1010841628
 20
18.178007101
 10
-18.1520476402
 20
18.0778495343
 10
-18.1972161011
 20
17.9750210036
 10
-18.2364530799
 20
17.869686256
 10
-18.26921162
 20
17.7632923402
 10
-18.2953410772
 20
17.6564203405
 10
-18.3148651962
 20
17.5488528309
 10
-18.3192584426
 20
17.5176174568
  0
LWPOLYLINE
  5
247
100
AcDbEntity
  8
ASSI
100
AcDbPolyline
 62
7
  6
CONTINUOUS
 90
19
 70
0
 10
-17.3270648787
 20
18.9188257898
 10
-17.3442137691
 20
18.9113351149
 10
-17.4351344035
 20
18.8665958166
 10
-17.5233511428
 20
18.8146874929
 10
-17.6088902213
 20
18.7556771322
 10
-17.6913958459
 20
18.6898879392
 10
-17.7701490542
 20
18.6180107209
 10
-17.8451880666
 20
18.5401405945
 10
-17.9163528235
 20
18.4564815035
 10
-17.9827603911
 20
18.3681205212
 10
-18.0443854108
 20
18.2752381188
 10
-18.1010841628
 20
18.178007101
 10
-18.1520476402
 20
18.0778495343
 10
-18.1972161011
 20
17.9750210036
 10
-18.2364530799
 20
17.869686256
 10
-18.26921162
 20
17.7632923402
 10
-18.2953410772
 20
17.6564203405
 10
-18.3148651962
 20
17.5488528309
 10
-18.3192584426
 20
17.5176174568
  0
LINE
  5
248
100
AcDbEntity
  8
RACCORDO
100
AcDbLine
 62
7
  6
CONTINUOUS
 10
-17.3270694427
 20
18.9188364558
 11
-13.369583542
 21
20.6125502724
  0
LINE
  5
249
100
AcDbEntity
  8
ASSI
100
AcDbLine
 62
7
  6
CONTINUOUS
 10
-17.3270694427
 20
18.9188364558
 11
-13.369583542
 21
20.6125502724
  0
LINE
  5
24A
100
AcDbEntity
  8
RACCORDO
100
AcDbLine
 62
250
  6
CONTINUOUS
 10
-16.9678017887
 20
18.8962891185
 11
-13.0541074751
 21
20.5712611083
  0
LINE
  5
24B
100
AcDbEntity
  8
ASSI
100
AcDbLine
 62
250
  6
CONTINUOUS
 10
-16.9678017887
 20
18.8962891185
 11
-13.0541074751
 21
20.5712611083
  0
LWPOLYLINE
  5
24C
100
AcDbEntity
  8
RACCORDO
100
AcDbPolyline
 62
250
  6
CONTINUOUS
 90
8
 70
0
 10
-17.3269511398
 20
18.9188871122
 10
-17.3172041507
 20
18.922888227
 10
-17.263752614
 20
18.9392033088
 10
-17.2075472514
 20
18.9472450097
 10
-17.149203324
 20
18.9469252997
 10
-17.0893595032
 20
18.9382476786
 10
-17.0286708788
 20
18.9213071374
 10
-16.9678017887
 20
18.8962891185
  0
LWPOLYLINE
  5
24D
100
AcDbEntity
  8
ASSI
100
AcDbPolyline
 62
250
  6
CONTINUOUS
 90
8
 70
0
 10
-17.3269511398
 20
18.9188871122
 10
-17.3172041507
 20
18.922888227
 10
-17.263752614
 20
18.9392033088
 10
-17.2075472514
 20
18.9472450097
 10
-17.149203324
 20
18.9469252997
 10
-17.0893595032
 20
18.9382476786
 10
-17.0286708788
 20
18.9213071374
 10
-16.9678017887
 20
18.8962891185
  0
LWPOLYLINE
  5
24E
100
AcDbEntity
  8
268
100
AcDbPolyline
 62
7
  6
CONTINUOUS
 90
3
 70
0
 10
-2.3600763351
 20
24.5501203662
 10
-2.3726413549
 20
24.5454213154
 10
-2.3785240735
 20
24.5426630235
  0
LWPOLYLINE
  5
24F
100
AcDbEntity
  8
268
100
AcDbPolyline
 62
7
  6
CONTINUOUS
 90
10
 70
0
 10
-2.3600763351
 20
24.5501203662
 10
-2.3508367143
 20
24.5528661652
 10
-2.3422735604
 20
24.5551318837
 10
-2.3343868735
 20
24.5569175218
 10
-2.3271375153
 20
24.5582439263
 10
-2.3205646239
 20
24.5590902505
 10
-2.3147856145
 20
24.5593939532
 10
-2.3098046574
 20
24.5591546175
 10
-2.3056175821
 20
24.5583726603
 10
-2.303027901
 20
24.5573762271
  0
LINE
  5
250
100
AcDbEntity
  8
268
100
AcDbLine
 62
7
  6
CONTINUOUS
 10
3.1095423132
 20
-24.7942694382
 11
3.6367870289
 21
-24.9025617102
  0
LINE
  5
251
100
AcDbEntity
  8
268
100
AcDbLine
 62
7
  6
CONTINUOUS
 10
-0.2975663097
 20
-25.865473623
 11
1.3089697878
 21
-26.6687416717
  0
LINE
  5
252
100
AcDbEntity
  8
268
100
AcDbLine
 62
250
  6
CONTINUOUS
 10
-0.3621597885
 20
-25.7304450817
 11
1.2436166737
 21
-26.5333333128
  0
LINE
  5
253
100
AcDbEntity
  8
268
100
AcDbLine
 62
250
  6
CONTINUOUS
 10
1.2436166737
 20
-26.2799619191
 11
-0.3621597885
 21
-25.477073688
  0
LWPOLYLINE
  5
254
100
AcDbEntity
  8
RACCORDO
100
AcDbPolyline
 62
250
  6
CONTINUOUS
 90
9
 70
0
 10
-21.3187291166
 20
-18.9352368478
 10
-21.317130927
 20
-18.9655930079
 10
-21.3075753589
 20
-19.004940715
 10
-21.2896658824
 20
-19.0438123733
 10
-21.263592252
 20
-19.0817961305
 10
-21.2296307225
 20
-19.1184895415
 10
-21.1881411227
 20
-19.1535038329
 10
-21.1395630428
 20
-19.1864680216
 10
-21.0844111766
 20
-19.2170328458
  0
LWPOLYLINE
  5
255
100
AcDbEntity
  8
ASSI
100
AcDbPolyline
 62
250
  6
CONTINUOUS
 90
9
 70
0
 10
-21.3187291166
 20
-18.9352368478
 10
-21.317130927
 20
-18.9655930079
 10
-21.3075753589
 20
-19.004940715
 10
-21.2896658824
 20
-19.0438123733
 10
-21.263592252
 20
-19.0817961305
 10
-21.2296307225
 20
-19.1184895415
 10
-21.1881411227
 20
-19.1535038329
 10
-21.1395630428
 20
-19.1864680216
 10
-21.0844111766
 20
-19.2170328458
  0
LWPOLYLINE
  5
256
100
AcDbEntity
  8
RACCORDO
100
AcDbPolyline
 62
7
  6
CONTINUOUS
 90
15
 70
0
 10
-21.3187198076
 20
-18.9352371302
 10
-21.3194806139
 20
-18.9861588501
 10
-21.3146919084
 20
-19.1052823763
 10
-21.3007785874
 20
-19.2203051228
 10
-21.2779563393
 20
-19.3311169001
 10
-21.2464729625
 20
-19.4372371628
 10
-21.2068647541
 20
-19.5375858682
 10
-21.1598931756
 20
-19.631309329
 10
-21.1059796935
 20
-19.7184402448
 10
-21.0454395111
 20
-19.7989677232
 10
-20.9791307373
 20
-19.8722345635
 10
-20.9076278582
 20
-19.9380964487
 10
-20.8306939901
 20
-19.9969628392
 10
-20.7486289372
 20
-20.048536361
 10
-20.7001240253
 20
-20.0743272197
  0
LWPOLYLINE
  5
257
100
AcDbEntity
  8
ASSI
100
AcDbPolyline
 62
7
  6
CONTINUOUS
 90
15
 70
0
 10
-21.3187198076
 20
-18.9352371302
 10
-21.3194806139
 20
-18.9861588501
 10
-21.3146919084
 20
-19.1052823763
 10
-21.3007785874
 20
-19.2203051228
 10
-21.2779563393
 20
-19.3311169001
 10
-21.2464729625
 20
-19.4372371628
 10
-21.2068647541
 20
-19.5375858682
 10
-21.1598931756
 20
-19.631309329
 10
-21.1059796935
 20
-19.7184402448
 10
-21.0454395111
 20
-19.7989677232
 10
-20.9791307373
 20
-19.8722345635
 10
-20.9076278582
 20
-19.9380964487
 10
-20.8306939901
 20
-19.9969628392
 10
-20.7486289372
 20
-20.048536361
 10
-20.7001240253
 20
-20.0743272197
  0
LINE
  5
258
100
AcDbEntity
  8
RACCORDO
100
AcDbLine
 62
7
  6
CONTINUOUS
 10
-21.3187232563
 20
-18.9350459448
 11
-21.3187291166
 21
-18.9352368478
  0
LINE
  5
259
100
AcDbEntity
  8
ASSI
100
AcDbLine
 62
7
  6
CONTINUOUS
 10
-21.3187232563
 20
-18.9350459448
 11
-21.3187291166
 21
-18.9352368478
  0
LINE
  5
25A
100
AcDbEntity
  8
268
100
AcDbLine
 62
7
  6
CONTINUOUS
 10
-9.7275311355
 20
22.7042015114
 11
-10.2547758512
 21
22.0624937834
  0
LWPOLYLINE
  5
25B
100
AcDbEntity
  8
218_STAMPATO
100
AcDbPolyline
 62
7
  6
CONTINUOUS
 90
38
 70
0
 10
1.8734022571
 20
23.8913317031
 10
1.8328838001
 20
23.8702727451
 10
1.7932695433
 20
23.848788013
 10
1.7545773786
 20
23.8268872104
 10
1.7168247818
 20
23.8045802292
 10
1.6800288042
 20
23.7818771445
 10
1.6442060649
 20
23.7587882101
 10
1.6093727435
 20
23.7353238546
 10
1.5755445729
 20
23.7114946756
 10
1.5427368317
 20
23.6873114359
 10
1.5109643379
 20
23.6627850581
 10
1.4802414417
 20
23.6379266196
 10
1.4505820195
 20
23.612747348
 10
1.4219994671
 20
23.5872586156
 10
1.394506694
 20
23.5614719348
 10
1.3681161176
 20
23.5353989522
 10
1.3428396575
 20
23.5090514439
 10
1.3186887298
 20
23.4824413101
 10
1.2956742427
 20
23.4555805693
 10
1.2738065908
 20
23.4284813534
 10
1.2530956507
 20
23.401155902
 10
1.2335507767
 20
23.373616557
 10
1.2151807965
 20
23.3458757565
 10
1.197994007
 20
23.3179460301
 10
1.1819981707
 20
23.2898399924
 10
1.1672005122
 20
23.2615703377
 10
1.1536077152
 20
23.2331498342
 10
1.1412259188
 20
23.2045913183
 10
1.1300607155
 20
23.1759076886
 10
1.120117148
 20
23.1471119004
 10
1.1113997074
 20
23.1182169595
 10
1.1039123311
 20
23.0892359166
 10
1.0976584008
 20
23.0601818611
 10
1.0926407411
 20
23.0310679156
 10
1.0888616183
 20
23.0019072296
 10
1.0863227392
 20
22.9727129737
 10
1.0850252506
 20
22.9434983338
 10
1.0848409923
 20
22.9275814647
  0
LINE
  5
25C
100
AcDbEntity
  8
268
100
AcDbLine
 62
7
  6
CONTINUOUS
 10
-8.0782555391
 20
20.9102032806
 11
-7.5849335239
 21
21.1632868124
  0
LINE
  5
25D
100
AcDbEntity
  8
218_STAMPATO
100
AcDbLine
 62
7
  6
CONTINUOUS
 10
6.0897820349
 20
26.0366413198
 11
1.8734022571
 21
23.8913317031
  0
LINE
  5
25E
100
AcDbEntity
  8
268
100
AcDbLine
 62
7
  6
CONTINUOUS
 10
-1.5038152057
 20
23.5286542777
 11
-6.2414306396
 21
21.1936037631
  0
LINE
  5
25F
100
AcDbEntity
  8
268
100
AcDbLine
 62
7
  6
CONTINUOUS
 10
-1.9280792744
 20
22.0892226755
 11
-1.5038152057
 21
22.2968200963
  0
LINE
  5
260
100
AcDbEntity
  8
268
100
AcDbLine
 62
7
  6
CONTINUOUS
 10
0.4822543741
 20
22.918852858
 11
-1.5745258838
 21
21.9124459802
  0
LINE
  5
261
100
AcDbEntity
  8
268
100
AcDbLine
 62
7
  6
CONTINUOUS
 10
-7.5849335239
 20
21.1632868124
 11
-2.1072935344
 21
23.8316187757
  0
LINE
  5
262
100
AcDbEntity
  8
218_STAMPATO
100
AcDbLine
 62
7
  6
CONTINUOUS
 10
5.0524900218
 20
26.6189208379
 11
1.4794163233
 21
24.9134875211
  0
LINE
  5
263
100
AcDbEntity
  8
218_STAMPATO
100
AcDbLine
 62
250
  6
CONTINUOUS
 10
4.5200921638
 20
26.8851197669
 11
-1.387000467
 21
24.0993512467
  0
LWPOLYLINE
  5
264
100
AcDbEntity
  8
218_STAMPATO
100
AcDbPolyline
 62
250
  6
CONTINUOUS
 90
25
 70
0
 10
4.5200921638
 20
26.8851197669
 10
4.5393647683
 20
26.8940220286
 10
4.5586138805
 20
26.9022692232
 10
4.577825187
 20
26.9098552168
 10
4.5969843947
 20
26.9167743642
 10
4.6160772646
 20
26.9230215222
 10
4.6350896221
 20
26.9285920501
 10
4.6540073494
 20
26.9334818065
 10
4.6728163583
 20
26.9376871451
 10
4.6915026251
 20
26.9412049285
 10
4.7100522417
 20
26.944032539
 10
4.7284514277
 20
26.9461678769
 10
4.7466865039
 20
26.9476093544
 10
4.7647439121
 20
26.9483558994
 10
4.7826102233
 20
26.9484069563
 10
4.8002721498
 20
26.947762487
 10
4.8177165574
 20
26.9464229709
 10
4.8349304753
 20
26.944389404
 10
4.8519011032
 20
26.9416632985
 10
4.8686158218
 20
26.9382466814
 10
4.885062202
 20
26.9341420934
 10
4.9012280142
 20
26.9293525866
 10
4.9171012377
 20
26.9238817226
 10
4.9326700691
 20
26.9177335694
 10
4.9479229315
 20
26.9109126988
  0
LINE
  5
265
100
AcDbEntity
  8
218_STAMPATO
100
AcDbLine
 62
250
  6
CONTINUOUS
 10
-2.0846320539
 20
20.6711771524
 11
-2.0755564653
 21
20.674205028
  0
LINE
  5
266
100
AcDbEntity
  8
218_STAMPATO
100
AcDbLine
 62
250
  6
CONTINUOUS
 10
-2.0755564653
 20
20.674205028
 11
-2.0663009759
 21
20.6772109574
  0
LINE
  5
267
100
AcDbEntity
  8
218_STAMPATO
100
AcDbLine
 62
250
  6
CONTINUOUS
 10
-2.0663009759
 20
20.6772109574
 11
-2.0568639844
 21
20.68019251
  0
LINE
  5
268
100
AcDbEntity
  8
218_STAMPATO
100
AcDbLine
 62
250
  6
CONTINUOUS
 10
-2.0568639844
 20
20.68019251
 11
-2.047243105
 21
20.6831460183
  0
LINE
  5
269
100
AcDbEntity
  8
218_STAMPATO
100
AcDbLine
 62
250
  6
CONTINUOUS
 10
-2.047243105
 20
20.6831460183
 11
-2.0374363013
 21
20.6860676444
  0
LINE
  5
26A
100
AcDbEntity
  8
218_STAMPATO
100
AcDbLine
 62
250
  6
CONTINUOUS
 10
-2.0374363013
 20
20.6860676444
 11
-2.0274424041
 21
20.6889547639
  0
LINE
  5
26B
100
AcDbEntity
  8
268
100
AcDbLine
 62
250
  6
CONTINUOUS
 10
1.3325192497
 20
-26.0485248594
 11
-0.2742856692
 21
-25.2451224
  0
LINE
  5
26C
100
AcDbEntity
  8
268
100
AcDbLine
 62
7
  6
CONTINUOUS
 10
-0.9241303287
 20
-23.9263611699
 11
1.3953225972
 21
-25.0860876329
  0
LINE
  5
26D
100
AcDbEntity
  8
268
100
AcDbLine
 62
7
  6
CONTINUOUS
 10
1.9548372818
 20
-25.3034654419
 11
1.5455722855
 21
-25.0988329438
  0
LINE
  5
26E
100
AcDbEntity
  8
268
100
AcDbLine
 62
7
  6
CONTINUOUS
 10
-0.8982452023
 20
-23.6117877947
 11
1.6428099706
 21
-24.8823153811
  0
LINE
  5
26F
100
AcDbEntity
  8
268
100
AcDbLine
 62
250
  6
CONTINUOUS
 10
3.1095423132
 20
-24.7942694382
 11
3.0661199873
 21
-24.7725582752
  0
LINE
  5
270
100
AcDbEntity
  8
268
100
AcDbLine
 62
7
  6
CONTINUOUS
 10
-0.82431159
 20
-22.7132970712
 11
2.455982769
 21
-24.3534442506
  0
LINE
  5
271
100
AcDbEntity
  8
268
100
AcDbLine
 62
250
  6
CONTINUOUS
 10
3.0216681939
 20
-24.5950022927
 11
3.6367870289
 21
-24.9025617102
  0
LINE
  5
272
100
AcDbEntity
  8
268
100
AcDbLine
 62
7
  6
CONTINUOUS
 10
3.0216681939
 20
-24.5913821431
 11
3.6600664022
 21
-24.9105812473
  0
LWPOLYLINE
  5
273
100
AcDbEntity
  8
RACCORDO
100
AcDbPolyline
 62
250
  6
CONTINUOUS
 90
13
 70
0
 10
-21.0844112047
 20
-19.2170328586
 10
-20.9784659041
 20
-16.2381366742
 10
-20.8462322082
 20
-13.2469886055
 10
-20.6877265618
 20
-10.2439699227
 10
-20.5029687142
 20
-7.2294634676
 10
-20.2919821146
 20
-4.2038532921
 10
-20.0547939054
 20
-1.1675246076
 10
-19.7914345285
 20
1.8791358758
 10
-19.5019373107
 20
4.935739907
 10
-19.186338852
 20
8.0018980587
 10
-18.8446794415
 20
11.0772197918
 10
-18.4770030563
 20
14.1613135043
 10
-18.0833569391
 20
17.2537864916
  0
LWPOLYLINE
  5
274
100
AcDbEntity
  8
ASSI
100
AcDbPolyline
 62
250
  6
CONTINUOUS
 90
13
 70
0
 10
-21.0844112047
 20
-19.2170328586
 10
-20.9784659041
 20
-16.2381366742
 10
-20.8462322082
 20
-13.2469886055
 10
-20.6877265618
 20
-10.2439699227
 10
-20.5029687142
 20
-7.2294634676
 10
-20.2919821146
 20
-4.2038532921
 10
-20.0547939054
 20
-1.1675246076
 10
-19.7914345285
 20
1.8791358758
 10
-19.5019373107
 20
4.935739907
 10
-19.186338852
 20
8.0018980587
 10
-18.8446794415
 20
11.0772197918
 10
-18.4770030563
 20
14.1613135043
 10
-18.0833569391
 20
17.2537864916
  0
LWPOLYLINE
  5
275
100
AcDbEntity
  8
RACCORDO
100
AcDbPolyline
 62
250
  6
CONTINUOUS
 90
10
 70
0
 10
-18.3192584426
 20
17.5176174568
 10
-18.3198900944
 20
17.5115910181
 10
-18.3181989057
 20
17.4793573316
 10
-18.3081149068
 20
17.4464264634
 10
-18.2897449385
 20
17.4131473189
 10
-18.2632836322
 20
17.3798724937
 10
-18.2290113478
 20
17.3469545374
 10
-18.1872912031
 20
17.314742219
 10
-18.1385652267
 20
17.2835768306
 10
-18.0833496747
 20
17.2537885725
  0
LWPOLYLINE
  5
276
100
AcDbEntity
  8
ASSI
100
AcDbPolyline
 62
250
  6
CONTINUOUS
 90
10
 70
0
 10
-18.3192584426
 20
17.5176174568
 10
-18.3198900944
 20
17.5115910181
 10
-18.3181989057
 20
17.4793573316
 10
-18.3081149068
 20
17.4464264634
 10
-18.2897449385
 20
17.4131473189
 10
-18.2632836322
 20
17.3798724937
 10
-18.2290113478
 20
17.3469545374
 10
-18.1872912031
 20
17.314742219
 10
-18.1385652267
 20
17.2835768306
 10
-18.0833496747
 20
17.2537885725
  0
LWPOLYLINE
  5
277
100
AcDbEntity
  8
RACCORDO
100
AcDbPolyline
 62
7
  6
CONTINUOUS
 90
13
 70
0
 10
-18.3192524789
 20
17.51770715
 10
-18.7057424078
 20
14.4831004349
 10
-19.0750156194
 20
11.3889390937
 10
-19.4181007551
 20
8.3035256619
 10
-19.734945093
 20
5.2273016254
 10
-20.0255097904
 20
2.1606547966
 10
-20.2897598411
 20
-0.8960479393
 10
-20.5276599101
 20
-3.9424251418
 10
-20.7391799989
 20
-6.9780973488
 10
-20.9242922726
 20
-10.0027004544
 10
-21.0829694022
 20
-13.015851491
 10
-21.2151897354
 20
-16.0171214723
 10
-21.3187232563
 20
-18.9350459448
  0
LWPOLYLINE
  5
278
100
AcDbEntity
  8
ASSI
100
AcDbPolyline
 62
7
  6
CONTINUOUS
 90
13
 70
0
 10
-18.3192524789
 20
17.51770715
 10
-18.7057424078
 20
14.4831004349
 10
-19.0750156194
 20
11.3889390937
 10
-19.4181007551
 20
8.3035256619
 10
-19.734945093
 20
5.2273016254
 10
-20.0255097904
 20
2.1606547966
 10
-20.2897598411
 20
-0.8960479393
 10
-20.5276599101
 20
-3.9424251418
 10
-20.7391799989
 20
-6.9780973488
 10
-20.9242922726
 20
-10.0027004544
 10
-21.0829694022
 20
-13.015851491
 10
-21.2151897354
 20
-16.0171214723
 10
-21.3187232563
 20
-18.9350459448
  0
LWPOLYLINE
  5
279
100
AcDbEntity
  8
RACCORDO
100
AcDbPolyline
 62
250
  6
CONTINUOUS
 90
22
 70
0
 10
-18.0833569391
 20
17.2537864916
 10
-18.0680774392
 20
17.3509145632
 10
-18.0477692067
 20
17.4490676654
 10
-18.0225345211
 20
17.5477606684
 10
-17.992503753
 20
17.6465013548
 10
-17.9578248384
 20
17.7448071406
 10
-17.9186599082
 20
17.8422070882
 10
-17.8751973986
 20
17.9382349335
 10
-17.8276578223
 20
18.0324014236
 10
-17.7762846822
 20
18.1242126561
 10
-17.7213493318
 20
18.2131993608
 10
-17.6631170669
 20
18.2989442142
 10
-17.6018486192
 20
18.3810508109
 10
-17.5378362166
 20
18.4591286767
 10
-17.4714099517
 20
18.532774125
 10
-17.4029065071
 20
18.6016001978
 10
-17.332678235
 20
18.6652620492
 10
-17.2610680587
 20
18.723456877
 10
-17.188412562
 20
18.7759004335
 10
-17.1150677844
 20
18.8223343417
 10
-17.0414079571
 20
18.8625297982
 10
-16.9678017887
 20
18.8962891185
  0
LWPOLYLINE
  5
27A
100
AcDbEntity
  8
ASSI
100
AcDbPolyline
 62
250
  6
CONTINUOUS
 90
22
 70
0
 10
-18.0833569391
 20
17.2537864916
 10
-18.0680774392
 20
17.3509145632
 10
-18.0477692067
 20
17.4490676654
 10
-18.0225345211
 20
17.5477606684
 10
-17.992503753
 20
17.6465013548
 10
-17.9578248384
 20
17.7448071406
 10
-17.9186599082
 20
17.8422070882
 10
-17.8751973986
 20
17.9382349335
 10
-17.8276578223
 20
18.0324014236
 10
-17.7762846822
 20
18.1242126561
 10
-17.7213493318
 20
18.2131993608
 10
-17.6631170669
 20
18.2989442142
 10
-17.6018486192
 20
18.3810508109
 10
-17.5378362166
 20
18.4591286767
 10
-17.4714099517
 20
18.532774125
 10
-17.4029065071
 20
18.6016001978
 10
-17.332678235
 20
18.6652620492
 10
-17.2610680587
 20
18.723456877
 10
-17.188412562
 20
18.7759004335
 10
-17.1150677844
 20
18.8223343417
 10
-17.0414079571
 20
18.8625297982
 10
-16.9678017887
 20
18.8962891185
  0
LINE
  5
27B
100
AcDbEntity
  8
715
100
AcDbLine
 62
250
  6
CONTINUOUS
 10
1.6604539076
 20
22.6305629326
 11
1.5711942764
 21
22.5811994754
  0
LINE
  5
27C
100
AcDbEntity
  8
715
100
AcDbLine
 62
7
  6
CONTINUOUS
 10
1.6604539076
 20
22.6305629326
 11
1.5710539764
 21
22.5812642009
  0
LINE
  5
27D
100
AcDbEntity
  8
715
100
AcDbLine
 62
7
  6
CONTINUOUS
 10
1.6604539076
 20
22.6305629326
 11
2.4761877643
 21
23.0607155249
  0
LINE
  5
27E
100
AcDbEntity
  8
715
100
AcDbLine
 62
250
  6
CONTINUOUS
 10
2.4760599822
 20
23.060648138
 11
2.4761877643
 21
23.0607155249
  0
LINE
  5
27F
100
AcDbEntity
  8
218_STAMPATO
100
AcDbLine
 62
7
  6
CONTINUOUS
 10
6.0958390217
 20
25.5991528526
 11
1.8734022571
 21
23.4811126601
  0
LINE
  5
280
100
AcDbEntity
  8
268
100
AcDbLine
 62
7
  6
CONTINUOUS
 10
-0.1767413773
 20
22.0587800441
 11
-1.5745258838
 21
21.3598877909
  0
LINE
  5
281
100
AcDbEntity
  8
715
100
AcDbLine
 62
7
  6
CONTINUOUS
 10
2.604475193
 20
22.8376237936
 11
3.0994499399
 21
23.085111167
  0
LINE
  5
282
100
AcDbEntity
  8
715
100
AcDbLine
 62
7
  6
CONTINUOUS
 10
5.5676278524
 20
23.2656110193
 11
4.2561635414
 21
22.6098788637
  0
LINE
  5
283
100
AcDbEntity
  8
715
100
AcDbLine
 62
7
  6
CONTINUOUS
 10
3.5549397995
 20
22.2592669928
 11
3.3372870327
 21
22.1504406094
  0
LWPOLYLINE
  5
284
100
AcDbEntity
  8
218_STAMPATO
100
AcDbPolyline
 62
7
  6
CONTINUOUS
 90
6
 70
0
 10
-2.5645877976
 20
20.5734534216
 10
-2.573294026
 20
20.5691044882
 10
-2.581395787
 20
20.5644255698
 10
-2.5892130613
 20
20.5592680748
 10
-2.5967403445
 20
20.5536361134
 10
-2.6026223397
 20
20.5487269192
  0
LINE
  5
285
100
AcDbEntity
  8
218_STAMPATO
100
AcDbLine
 62
250
  6
CONTINUOUS
 10
-2.2936868349
 20
20.5811895572
 11
-2.2395993205
 21
20.6072587767
  0
LINE
  5
286
100
AcDbEntity
  8
218_STAMPATO
100
AcDbLine
 62
250
  6
CONTINUOUS
 10
-2.3043854891
 20
20.5761095667
 11
-2.2936868349
 21
20.5811895572
  0
LINE
  5
287
100
AcDbEntity
  8
218_STAMPATO
100
AcDbLine
 62
250
  6
CONTINUOUS
 10
-2.2395993205
 20
20.6072587767
 11
-2.227270636
 21
20.6130955601
  0
LINE
  5
288
100
AcDbEntity
  8
218_STAMPATO
100
AcDbLine
 62
250
  6
CONTINUOUS
 10
-2.3123125652
 20
20.5724014772
 11
-2.3043854891
 21
20.5761095667
  0
LINE
  5
289
100
AcDbEntity
  8
218_STAMPATO
100
AcDbLine
 62
250
  6
CONTINUOUS
 10
-2.227270636
 20
20.6130955601
 11
-2.2177547729
 21
20.6175367167
  0
LINE
  5
28A
100
AcDbEntity
  8
218_STAMPATO
100
AcDbLine
 62
250
  6
CONTINUOUS
 10
-2.352397191
 20
20.5538851455
 11
-2.3123125652
 21
20.5724014772
  0
LINE
  5
28B
100
AcDbEntity
  8
218_STAMPATO
100
AcDbLine
 62
7
  6
CONTINUOUS
 10
-2.5138605942
 20
20.5968424463
 11
-2.5645522931
 21
20.5734698189
  0
LINE
  5
28C
100
AcDbEntity
  8
218_STAMPATO
100
AcDbLine
 62
250
  6
CONTINUOUS
 10
-2.2177547729
 20
20.6175367167
 11
-2.2079906943
 21
20.6220261454
  0
LWPOLYLINE
  5
28D
100
AcDbEntity
  8
218_STAMPATO
100
AcDbPolyline
 62
250
  6
CONTINUOUS
 90
17
 70
0
 10
-1.3604243519
 20
20.6811906808
 10
-1.3546109065
 20
20.6838265483
 10
-1.3488114755
 20
20.6861628046
 10
-1.3430358731
 20
20.6881954962
 10
-1.3372938731
 20
20.6899211834
 10
-1.3315951924
 20
20.6913369458
 10
-1.3259494746
 20
20.6924403876
 10
-1.3203662737
 20
20.6932296414
 10
-1.3148550378
 20
20.6937033718
 10
-1.3094250935
 20
20.693860777
 10
-1.3040856296
 20
20.6937015906
 10
-1.2988456817
 20
20.693226082
 10
-1.2937141172
 20
20.692435056
 10
-1.2886996201
 20
20.6913298511
 10
-1.2838106761
 20
20.6899123377
 10
-1.2790555585
 20
20.6881849144
 10
-1.2745025484
 20
20.6861770675
  0
LWPOLYLINE
  5
28E
100
AcDbEntity
  8
715
100
AcDbPolyline
 62
7
  6
CONTINUOUS
 90
10
 70
0
 10
6.4161296642
 20
22.8413337877
 10
6.4275261285
 20
22.846502443
 10
6.438746531
 20
22.8505543394
 10
6.4497908717
 20
22.8534894769
 10
6.4607541306
 20
22.8553080082
 10
6.4715413278
 20
22.8560097807
 10
6.4818675232
 20
22.8555943364
 10
6.4916377369
 20
22.8540615225
 10
6.500946949
 20
22.8514114917
 10
6.5097951593
 20
22.8476442442
  0
LINE
  5
28F
100
AcDbEntity
  8
218_STAMPATO
100
AcDbLine
 62
250
  6
CONTINUOUS
 10
-2.2079906943
 20
20.6220261454
 11
-2.2013361927
 21
20.6250430517
  0
LWPOLYLINE
  5
290
100
AcDbEntity
  8
218_STAMPATO
100
AcDbPolyline
 62
250
  6
CONTINUOUS
 90
22
 70
0
 10
-2.5307479057
 20
20.5890818053
 10
-2.5276195925
 20
20.5904917372
 10
-2.51837113
 20
20.5942656314
 10
-2.5089115158
 20
20.5975480868
 10
-2.4992508754
 20
20.60033559
 10
-2.4893995497
 20
20.6026251572
 10
-2.4793680838
 20
20.6044143377
 10
-2.4691672153
 20
20.6057012161
 10
-2.4588078634
 20
20.6064844151
 10
-2.4483011168
 20
20.6067630963
 10
-2.4376582221
 20
20.6065369615
 10
-2.4268905716
 20
20.6058062526
 10
-2.416009691
 20
20.6045717518
 10
-2.4050272273
 20
20.6028347805
 10
-2.3939549363
 20
20.6005971981
 10
-2.38280467
 20
20.5978613996
 10
-2.3715883635
 20
20.5946303135
 10
-2.3603180231
 20
20.5909073983
 10
-2.3490057125
 20
20.5866966391
 10
-2.3376635406
 20
20.5820025431
 10
-2.3263036482
 20
20.5768301349
 10
-2.3149381951
 20
20.5711849512
  0
LINE
  5
291
100
AcDbEntity
  8
218_STAMPATO
100
AcDbLine
 62
250
  6
CONTINUOUS
 10
-2.2013361927
 20
20.6250430517
 11
-2.1945604039
 21
20.6280769112
  0
LINE
  5
292
100
AcDbEntity
  8
218_STAMPATO
100
AcDbLine
 62
250
  6
CONTINUOUS
 10
-2.1945604039
 20
20.6280769112
 11
-2.1876585078
 21
20.6311255749
  0
LINE
  5
293
100
AcDbEntity
  8
218_STAMPATO
100
AcDbLine
 62
250
  6
CONTINUOUS
 10
-2.1876585078
 20
20.6311255749
 11
-2.1806271684
 21
20.6341876483
  0
LINE
  5
294
100
AcDbEntity
  8
218_STAMPATO
100
AcDbLine
 62
250
  6
CONTINUOUS
 10
-2.1806271684
 20
20.6341876483
 11
-2.1734610948
 21
20.6372611439
  0
LINE
  5
295
100
AcDbEntity
  8
218_STAMPATO
100
AcDbLine
 62
250
  6
CONTINUOUS
 10
-2.1734610948
 20
20.6372611439
 11
-2.1661557108
 21
20.6403436904
  0
LINE
  5
296
100
AcDbEntity
  8
218_STAMPATO
100
AcDbLine
 62
250
  6
CONTINUOUS
 10
-2.1661557108
 20
20.6403436904
 11
-2.1587079831
 21
20.6434336873
  0
LINE
  5
297
100
AcDbEntity
  8
218_STAMPATO
100
AcDbLine
 62
250
  6
CONTINUOUS
 10
-2.1587079831
 20
20.6434336873
 11
-2.1511134878
 21
20.6465286605
  0
LINE
  5
298
100
AcDbEntity
  8
218_STAMPATO
100
AcDbLine
 62
250
  6
CONTINUOUS
 10
-2.1511134878
 20
20.6465286605
 11
-2.1433678024
 21
20.6496260659
  0
LINE
  5
299
100
AcDbEntity
  8
218_STAMPATO
100
AcDbLine
 62
250
  6
CONTINUOUS
 10
-2.1433678024
 20
20.6496260659
 11
-2.1354680729
 21
20.6527241539
  0
LINE
  5
29A
100
AcDbEntity
  8
218_STAMPATO
100
AcDbLine
 62
250
  6
CONTINUOUS
 10
-2.1354680729
 20
20.6527241539
 11
-2.127410078
 21
20.6558202505
  0
LINE
  5
29B
100
AcDbEntity
  8
218_STAMPATO
100
AcDbLine
 62
250
  6
CONTINUOUS
 10
-2.127410078
 20
20.6558202505
 11
-2.1191901285
 21
20.6589114077
  0
LINE
  5
29C
100
AcDbEntity
  8
218_STAMPATO
100
AcDbLine
 62
250
  6
CONTINUOUS
 10
-2.1191901285
 20
20.6589114077
 11
-2.1108058209
 21
20.6619956278
  0
LINE
  5
29D
100
AcDbEntity
  8
218_STAMPATO
100
AcDbLine
 62
250
  6
CONTINUOUS
 10
-2.1108058209
 20
20.6619956278
 11
-2.1022538294
 21
20.6650697952
  0
LINE
  5
29E
100
AcDbEntity
  8
218_STAMPATO
100
AcDbLine
 62
250
  6
CONTINUOUS
 10
-2.1022538294
 20
20.6650697952
 11
-2.0935300428
 21
20.668130997
  0
LINE
  5
29F
100
AcDbEntity
  8
218_STAMPATO
100
AcDbLine
 62
250
  6
CONTINUOUS
 10
-2.0935300428
 20
20.668130997
 11
-2.0846320539
 21
20.6711771524
  0
LINE
  5
2A0
100
AcDbEntity
  8
268
100
AcDbLine
 62
7
  6
CONTINUOUS
 10
-0.6939116381
 20
-21.1285896095
 11
2.455982769
 21
-22.7035368131
  0
LINE
  5
2A1
100
AcDbEntity
  8
218_STAMPATO
100
AcDbLine
 62
7
  6
CONTINUOUS
 10
-3.4567032621
 20
19.8012400743
 11
-2.6026548785
 21
20.5486981312
  0
LINE
  5
2A2
100
AcDbEntity
  8
218_STAMPATO
100
AcDbLine
 62
250
  6
CONTINUOUS
 10
-3.3028007073
 20
19.724288797
 11
-2.3540021158
 21
20.5546716712
  0
LINE
  5
2A3
100
AcDbEntity
  8
268
100
AcDbLine
 62
7
  6
CONTINUOUS
 10
-1.8614895822
 20
17.8018203021
 11
-1.3623938494
 21
18.0520169752
  0
LINE
  5
2A4
100
AcDbEntity
  8
715
100
AcDbLine
 62
7
  6
CONTINUOUS
 10
6.4161585601
 20
22.8413482357
 11
5.311532018
 21
22.2890349646
  0
LINE
  5
2A5
100
AcDbEntity
  8
268
100
AcDbLine
 62
7
  6
CONTINUOUS
 10
-1.3623938494
 20
18.0520169752
 11
4.0518788457
 21
20.7520325856
  0
LINE
  5
2A6
100
AcDbEntity
  8
268
100
AcDbLine
 62
7
  6
CONTINUOUS
 10
3.4459322626
 20
21.0537805436
 11
-1.2916831713
 21
18.7187300289
  0
LINE
  5
2A7
100
AcDbEntity
  8
268
100
AcDbLine
 62
7
  6
CONTINUOUS
 10
4.7248950612
 20
20.7975325144
 11
4.1385162741
 21
20.5106104468
  0
LINE
  5
2A8
100
AcDbEntity
  8
218_STAMPATO
100
AcDbLine
 62
7
  6
CONTINUOUS
 10
9.7129412046
 20
24.2886952465
 11
6.149510368
 21
22.5784404987
  0
LWPOLYLINE
  5
2A9
100
AcDbEntity
  8
268
100
AcDbPolyline
 62
7
  6
CONTINUOUS
 90
18
 70
0
 10
4.7248950612
 20
20.7975325144
 10
4.753269582
 20
20.8107144712
 10
4.781504034
 20
20.822448863
 10
4.8095984172
 20
20.8327356897
 10
4.8376027303
 20
20.8415878243
 10
4.8654669745
 20
20.8489923938
 10
4.8930411542
 20
20.8549107794
 10
4.9203102828
 20
20.8593342007
 10
4.9472893468
 20
20.8622714381
 10
4.9738733094
 20
20.863710214
 10
5.0000782683
 20
20.8636430774
 10
5.0258881258
 20
20.8620774795
 10
5.051149552
 20
20.859023496
 10
5.0758393054
 20
20.8544777117
 10
5.0999806275
 20
20.8484435418
 10
5.1234899138
 20
20.840941309
 10
5.146385694
 20
20.8319558944
 10
5.1659477783
 20
20.8228661613
  0
LINE
  5
2AA
100
AcDbEntity
  8
268
100
AcDbLine
 62
7
  6
CONTINUOUS
 10
-14.1256712498
 20
21.1314385009
 11
-14.1256712498
 21
21.1070429957
  0
LWPOLYLINE
  5
2AB
100
AcDbEntity
  8
CURVE
100
AcDbPolyline
 62
250
  6
CONTINUOUS
 90
81
 70
0
 10
-13.6887603182
 20
7.9796414934
 10
-13.6759191641
 20
8.0776478136
 10
-13.6601565818
 20
8.1734262695
 10
-13.6414690367
 20
8.2670533339
 10
-13.6198529944
 20
8.3586054792
 10
-13.5953049202
 20
8.4481591778
 10
-13.5678323693
 20
8.5357439767
 10
-13.5374872551
 20
8.6212017203
 10
-13.5043325808
 20
8.704327327
 10
-13.4684313495
 20
8.7849157157
 10
-13.4298465645
 20
8.8627618049
 10
-13.3886425193
 20
8.9376802338
 10
-13.3448886699
 20
9.0095645236
 10
-13.2986557626
 20
9.0783279158
 10
-13.2500145437
 20
9.1438836522
 10
-13.1990357597
 20
9.2061449743
 10
-13.1457936398
 20
9.2650253517
 10
-13.0903763443
 20
9.3204391652
 10
-13.0328755163
 20
9.3723010236
 10
-12.9733827989
 20
9.4205255355
 10
-12.9119898353
 20
9.4650273097
 10
-12.8487902456
 20
9.5057270046
 10
-12.7838855574
 20
9.5425694773
 10
-12.7173792752
 20
9.5755056346
 10
-12.6493749035
 20
9.6044863831
 10
-12.5799759471
 20
9.6294626298
 10
-12.5092874157
 20
9.6503899677
 10
-12.4374203412
 20
9.6672427364
 10
-12.3644872607
 20
9.6799999615
 10
-12.2906007113
 20
9.688640669
 10
-12.2158732303
 20
9.6931438846
 10
-12.1404185876
 20
9.6934940056
 10
-12.0643554846
 20
9.689696915
 10
-11.9878038555
 20
9.681763867
 10
-11.9108836346
 20
9.6697061162
 10
-11.8337147561
 20
9.6535349169
 10
-11.7564171932
 20
9.6332669327
 10
-11.6791110745
 20
9.6089404638
 10
-11.6019165677
 20
9.5805992198
 10
-11.5249538406
 20
9.5482869103
 10
-11.4483430608
 20
9.5120472446
 10
-11.3722036739
 20
9.4719290188
 10
-11.2966522373
 20
9.4280013741
 10
-11.2218045861
 20
9.3803385384
 10
-11.1477765556
 20
9.3290147394
 10
-11.0746839811
 20
9.2741042048
 10
-11.0026412614
 20
9.2156858407
 10
-10.9317570487
 20
9.1538572657
 10
-10.862138559
 20
9.0887207767
 10
-10.7938930081
 20
9.0203786704
 10
-10.7271276119
 20
8.9489332439
 10
-10.6619471312
 20
8.8744903063
 10
-10.5984465061
 20
8.7971697166
 10
-10.5367182221
 20
8.717094846
 10
-10.4768547642
 20
8.634389066
 10
-10.4189486177
 20
8.549175748
 10
-10.3630898289
 20
8.4615810069
 10
-10.3093586884
 20
8.371741933
 10
-10.257833048
 20
8.2797983604
 10
-10.2085907593
 20
8.1858901231
 10
-10.161709674
 20
8.0901570551
 10
-10.117264563
 20
7.9927424662
 10
-10.0753178735
 20
7.8938035702
 10
-10.0359289718
 20
7.7935010564
 10
-9.9991572244
 20
7.6919956145
 10
-9.9650619977
 20
7.5894479339
 10
-9.9336995882
 20
7.4860158842
 10
-9.9051140139
 20
7.3818460553
 10
-9.8793462233
 20
7.2770822171
 10
-9.8564371646
 20
7.1718681398
 10
-9.836427786
 20
7.0663475933
 10
-9.8193537874
 20
6.9606799272
 10
-9.8052298741
 20
6.8550868096
 10
-9.7940655032
 20
6.7498054882
 10
-9.7858701315
 20
6.6450732106
 10
-9.7806532159
 20
6.5411272246
 10
-9.7784249858
 20
6.4381535979
 10
-9.77919876
 20
6.3361336786
 10
-9.7829886298
 20
6.2349976346
 10
-9.7898086866
 20
6.1346756341
 10
-9.7996730217
 20
6.0350978452
  0
LWPOLYLINE
  5
2AC
100
AcDbEntity
  8
218_STAMPATO
100
AcDbPolyline
 62
7
  6
CONTINUOUS
 90
38
 70
0
 10
9.2980234596
 20
20.1790211018
 10
9.2575050026
 20
20.1579621439
 10
9.2178907457
 20
20.1364774117
 10
9.1791985811
 20
20.1145766092
 10
9.1414459843
 20
20.092269628
 10
9.1046500067
 20
20.0695665432
 10
9.0688272673
 20
20.0464776089
 10
9.033993946
 20
20.0230132533
 10
9.0001657753
 20
19.9991840744
 10
8.9673580342
 20
19.9750008347
 10
8.9355855404
 20
19.9504744569
 10
8.9048626442
 20
19.9256160184
 10
8.875203222
 20
19.9004367467
 10
8.8466206695
 20
19.8749480144
 10
8.8191278965
 20
19.8491613336
 10
8.7927373201
 20
19.823088351
 10
8.7674608599
 20
19.7967408427
 10
8.7433099323
 20
19.7701307088
 10
8.7202954452
 20
19.743269968
 10
8.6984277932
 20
19.7161707522
 10
8.6777168531
 20
19.6888453008
 10
8.6581719792
 20
19.6613059557
 10
8.6398019989
 20
19.6335651553
 10
8.6226152094
 20
19.6056354289
 10
8.6066193731
 20
19.5775293912
 10
8.5918217147
 20
19.5492597364
 10
8.5782289177
 20
19.520839233
 10
8.5658471213
 20
19.492280717
 10
8.5546819179
 20
19.4635970874
 10
8.5447383504
 20
19.4348012992
 10
8.5360209098
 20
19.4059063583
 10
8.5285335335
 20
19.3769253154
 10
8.5222796032
 20
19.3478712599
 10
8.5172619435
 20
19.3187573144
 10
8.5134828207
 20
19.2895966283
 10
8.5109439417
 20
19.2604023725
 10
8.5096464531
 20
19.2311877326
 10
8.5094621948
 20
19.2152708634
  0
LINE
  5
2AD
100
AcDbEntity
  8
268
100
AcDbLine
 62
7
  6
CONTINUOUS
 10
-0.187434006
 20
16.3807898968
 11
1.3953225972
 21
17.1927739942
  0
LINE
  5
2AE
100
AcDbEntity
  8
218_STAMPATO
100
AcDbLine
 62
7
  6
CONTINUOUS
 10
13.5144032373
 20
22.3243307185
 11
9.2980234596
 21
20.1790211018
  0
LINE
  5
2AF
100
AcDbEntity
  8
268
100
AcDbLine
 62
7
  6
CONTINUOUS
 10
-1.8614895822
 20
16.5876168293
 11
-1.3623938494
 21
16.8395814099
  0
LINE
  5
2B0
100
AcDbEntity
  8
218_STAMPATO
100
AcDbLine
 62
7
  6
CONTINUOUS
 10
13.5204602242
 20
21.8868422513
 11
9.2980234596
 21
19.7688020589
  0
LINE
  5
2B1
100
AcDbEntity
  8
268
100
AcDbLine
 62
7
  6
CONTINUOUS
 10
-1.3623938494
 20
16.8395814099
 11
4.0518788457
 21
19.5201940072
  0
LINE
  5
2B2
100
AcDbEntity
  8
268
100
AcDbLine
 62
7
  6
CONTINUOUS
 10
1.3953225972
 20
17.1927739942
 11
1.9297724759
 21
17.4531214607
  0
LINE
  5
2B3
100
AcDbEntity
  8
268
100
AcDbLine
 62
250
  6
CONTINUOUS
 10
2.932145984
 20
17.0139120776
 11
7.7039849622
 21
19.307987564
  0
LINE
  5
2B4
100
AcDbEntity
  8
268
100
AcDbLine
 62
250
  6
CONTINUOUS
 10
3.1597614838
 20
16.9001043277
 11
8.1458258301
 21
19.2971692837
  0
LINE
  5
2B5
100
AcDbEntity
  8
218_STAMPATO
100
AcDbLine
 62
7
  6
CONTINUOUS
 10
12.4771112242
 20
22.9066102367
 11
8.9040375257
 21
21.2011769199
  0
LINE
  5
2B6
100
AcDbEntity
  8
268
100
AcDbLine
 62
7
  6
CONTINUOUS
 10
-13.7264779529
 20
22.5046895336
 11
-13.7264779529
 21
22.7580609274
  0
LINE
  5
2B7
100
AcDbEntity
  8
268
100
AcDbLine
 62
7
  6
CONTINUOUS
 10
-13.3124984515
 20
20.7004565965
 11
-13.3124984515
 21
20.6311201031
  0
LINE
  5
2B8
100
AcDbEntity
  8
268
100
AcDbLine
 62
7
  6
CONTINUOUS
 10
-13.0234849986
 20
21.5981302789
 11
-13.0234849986
 21
22.0504612546
  0
LINE
  5
2B9
100
AcDbEntity
  8
268
100
AcDbLine
 62
7
  6
CONTINUOUS
 10
-12.1207014907
 20
21.9551726963
 11
-12.1207014907
 21
21.7018013025
  0
LWPOLYLINE
  5
2BA
100
AcDbEntity
  8
CURVE
100
AcDbPolyline
 62
250
  6
CONTINUOUS
 90
5
 70
0
 10
-13.5500788468
 20
-14.1267995084
 10
-13.600368523
 20
-15.056749641
 10
-13.6480791027
 20
-15.9856197093
 10
-13.6932100047
 20
-16.9133983953
 10
-13.7671270141
 20
-18.5613625125
  0
LWPOLYLINE
  5
2BB
100
AcDbEntity
  8
268
100
AcDbPolyline
 62
7
  6
CONTINUOUS
 90
5
 70
0
 10
8.8923424457
 20
18.2047064952
 10
8.8925768826
 20
18.2048394969
 10
8.8935041185
 20
18.2056671684
 10
8.894010536
 20
18.2067182398
 10
8.8941222813
 20
18.207662484
  0
LINE
  5
2BC
100
AcDbEntity
  8
715
100
AcDbLine
 62
250
  6
CONTINUOUS
 10
9.0850751101
 20
18.9182523314
 11
8.9958154767
 21
18.868888873
  0
LINE
  5
2BD
100
AcDbEntity
  8
715
100
AcDbLine
 62
7
  6
CONTINUOUS
 10
9.0850751101
 20
18.9182523314
 11
8.9956751765
 21
18.8689535985
  0
LINE
  5
2BE
100
AcDbEntity
  8
268
100
AcDbLine
 62
250
  6
CONTINUOUS
 10
3.5357490271
 20
15.8990694251
 11
8.8940758072
 21
18.790009652
  0
LINE
  5
2BF
100
AcDbEntity
  8
268
100
AcDbLine
 62
250
  6
CONTINUOUS
 10
3.1691288738
 20
15.4528572989
 11
8.8099242396
 21
18.4961958081
  0
LINE
  5
2C0
100
AcDbEntity
  8
715
100
AcDbLine
 62
7
  6
CONTINUOUS
 10
9.0850751101
 20
18.9182523314
 11
9.9008089667
 21
19.3484049237
  0
LINE
  5
2C1
100
AcDbEntity
  8
715
100
AcDbLine
 62
250
  6
CONTINUOUS
 10
9.9006811847
 20
19.3483375368
 11
9.9008089667
 21
19.3484049237
  0
LINE
  5
2C2
100
AcDbEntity
  8
218_STAMPATO
100
AcDbLine
 62
7
  6
CONTINUOUS
 10
3.7578151167
 20
14.9790260188
 11
9.3524999316
 21
17.9179697366
  0
LINE
  5
2C3
100
AcDbEntity
  8
268
100
AcDbLine
 62
250
  6
CONTINUOUS
 10
3.080738919
 20
15.3175641177
 11
8.8099242396
 21
18.2839366541
  0
LINE
  5
2C4
100
AcDbEntity
  8
268
100
AcDbLine
 62
7
  6
CONTINUOUS
 10
3.2005050497
 20
15.2576810524
 11
8.892133952
 21
18.2046081839
  0
LINE
  5
2C5
100
AcDbEntity
  8
268
100
AcDbLine
 62
250
  6
CONTINUOUS
 10
3.1630895502
 20
14.5768397101
 11
1.3953225972
 21
13.6740620106
  0
LINE
  5
2C6
100
AcDbEntity
  8
268
100
AcDbLine
 62
7
  6
CONTINUOUS
 10
3.0216681939
 20
14.6475503882
 11
1.9548372818
 21
14.1089691387
  0
LINE
  5
2C7
100
AcDbEntity
  8
268
100
AcDbLine
 62
7
  6
CONTINUOUS
 10
1.4203874031
 20
15.5768791923
 11
3.0216681939
 21
16.3796011958
  0
LINE
  5
2C8
100
AcDbEntity
  8
715
100
AcDbLine
 62
7
  6
CONTINUOUS
 10
10.0290963955
 20
19.1253131923
 11
10.5240711423
 21
19.3728005657
  0
LINE
  5
2C9
100
AcDbEntity
  8
715
100
AcDbLine
 62
7
  6
CONTINUOUS
 10
12.9922490549
 20
19.553300418
 11
11.6807847438
 21
18.8975682625
  0
LINE
  5
2CA
100
AcDbEntity
  8
715
100
AcDbLine
 62
7
  6
CONTINUOUS
 10
10.9795610019
 20
18.5469563916
 11
10.7619082428
 21
18.438130012
  0
LINE
  5
2CB
100
AcDbEntity
  8
268
100
AcDbLine
 62
7
  6
CONTINUOUS
 10
3.0216681939
 20
16.3796011958
 11
3.5499353657
 21
16.6430400159
  0
LINE
  5
2CC
100
AcDbEntity
  8
268
100
AcDbLine
 62
250
  6
CONTINUOUS
 10
3.8701963314
 20
14.9228354115
 11
3.1630895502
 21
14.5768397101
  0
LINE
  5
2CD
100
AcDbEntity
  8
268
100
AcDbLine
 62
250
  6
CONTINUOUS
 10
4.1176837048
 20
14.4959712916
 11
3.4105769236
 21
14.1499755902
  0
LINE
  5
2CE
100
AcDbEntity
  8
218_STAMPATO
100
AcDbLine
 62
7
  6
CONTINUOUS
 10
17.137562407
 20
20.5763846453
 11
13.5741315705
 21
18.8661298975
  0
LWPOLYLINE
  5
2CF
100
AcDbEntity
  8
715
100
AcDbPolyline
 62
7
  6
CONTINUOUS
 90
10
 70
0
 10
13.8407508667
 20
19.1290231865
 10
13.8521473309
 20
19.1341918418
 10
13.8633677334
 20
19.1382437381
 10
13.8744120741
 20
19.1411788757
 10
13.8853753331
 20
19.142997407
 10
13.8961625302
 20
19.1436991795
 10
13.9064887257
 20
19.1432837351
 10
13.9162589394
 20
19.1417509212
 10
13.9255681514
 20
19.1391008905
 10
13.9344163617
 20
19.1353336429
  0
LWPOLYLINE
  5
2D0
100
AcDbEntity
  8
RACCORDO
100
AcDbPolyline
 62
250
  6
CONTINUOUS
 90
22
 70
0
 10
-2.6141367155
 20
11.719456582
 10
-2.6895770539
 20
11.6866143466
 10
-2.7650408637
 20
11.6473208813
 10
-2.8401594362
 20
11.6017738706
 10
-2.9145667956
 20
11.5502062454
 10
-2.987898647
 20
11.4928722552
 10
-3.0597936412
 20
11.4300437649
 10
-3.1299084841
 20
11.3620233912
 10
-3.1978911943
 20
11.2891561656
 10
-3.2633814366
 20
11.2118172196
 10
-3.3260474741
 20
11.1304094178
 10
-3.385598723
 20
11.0453240564
 10
-3.4417557322
 20
10.9569481811
 10
-3.4942521856
 20
10.8656986052
 10
-3.5428177499
 20
10.7720451092
 10
-3.5871932634
 20
10.6764737658
 10
-3.6271562431
 20
10.5794728429
 10
-3.662520223
 20
10.4815095898
 10
-3.6931133245
 20
10.3830500702
 10
-3.7187843626
 20
10.2845752434
 10
-3.7394062157
 20
10.1865789514
 10
-3.7548766045
 20
10.0895463242
  0
LWPOLYLINE
  5
2D1
100
AcDbEntity
  8
ASSI
100
AcDbPolyline
 62
250
  6
CONTINUOUS
 90
22
 70
0
 10
-2.6141367155
 20
11.719456582
 10
-2.6895770539
 20
11.6866143466
 10
-2.7650408637
 20
11.6473208813
 10
-2.8401594362
 20
11.6017738706
 10
-2.9145667956
 20
11.5502062454
 10
-2.987898647
 20
11.4928722552
 10
-3.0597936412
 20
11.4300437649
 10
-3.1299084841
 20
11.3620233912
 10
-3.1978911943
 20
11.2891561656
 10
-3.2633814366
 20
11.2118172196
 10
-3.3260474741
 20
11.1304094178
 10
-3.385598723
 20
11.0453240564
 10
-3.4417557322
 20
10.9569481811
 10
-3.4942521856
 20
10.8656986052
 10
-3.5428177499
 20
10.7720451092
 10
-3.5871932634
 20
10.6764737658
 10
-3.6271562431
 20
10.5794728429
 10
-3.662520223
 20
10.4815095898
 10
-3.6931133245
 20
10.3830500702
 10
-3.7187843626
 20
10.2845752434
 10
-3.7394062157
 20
10.1865789514
 10
-3.7548766045
 20
10.0895463242
  0
LINE
  5
2D2
100
AcDbEntity
  8
RACCORDO
100
AcDbLine
 62
250
  6
CONTINUOUS
 10
1.510630662
 20
13.2888920397
 11
-2.6141367155
 21
11.719456582
  0
LINE
  5
2D3
100
AcDbEntity
  8
ASSI
100
AcDbLine
 62
250
  6
CONTINUOUS
 10
1.510630662
 20
13.2888920397
 11
-2.6141367155
 21
11.719456582
  0
LINE
  5
2D4
100
AcDbEntity
  8
268
100
AcDbLine
 62
7
  6
CONTINUOUS
 10
1.6428099706
 20
13.2228023854
 11
2.455982769
 21
13.5071040533
  0
LINE
  5
2D5
100
AcDbEntity
  8
268
100
AcDbLine
 62
7
  6
CONTINUOUS
 10
-11.4094808826
 20
20.7911282209
 11
-11.4094808826
 21
21.4282977797
  0
LINE
  5
2D6
100
AcDbEntity
  8
268
100
AcDbLine
 62
7
  6
CONTINUOUS
 10
-10.3426499705
 20
21.3297094705
 11
-10.3426499705
 21
23.061760278
  0
LINE
  5
2D7
100
AcDbEntity
  8
268
100
AcDbLine
 62
7
  6
CONTINUOUS
 10
-9.6396570162
 20
23.1970817758
 11
-9.6396570162
 21
22.9361527994
  0
LWPOLYLINE
  5
2D8
100
AcDbEntity
  8
CURVE
100
AcDbPolyline
 62
250
  6
CONTINUOUS
 90
81
 70
0
 10
-9.7996730217
 20
6.0350978452
 10
-9.8124821958
 20
5.9371329472
 10
-9.8281568938
 20
5.8414130705
 10
-9.8467014206
 20
5.74786176
 10
-9.868120081
 20
5.6564025608
 10
-9.8924171801
 20
5.5669590182
 10
-9.9195862639
 20
5.4795013922
 10
-9.9495778432
 20
5.394186803
 10
-9.9823316698
 20
5.3112190856
 10
-10.0177874958
 20
5.2308020754
 10
-10.0558850731
 20
5.1531396073
 10
-10.0965630713
 20
5.0784158088
 10
-10.1397558311
 20
5.0067359769
 10
-10.1853966107
 20
4.9381857008
 10
-10.2334186685
 20
4.8728505696
 10
-10.2837552629
 20
4.8108161725
 10
-10.3363362313
 20
4.752167888
 10
-10.3910777282
 20
4.6969902511
 10
-10.447892487
 20
4.645367586
 10
-10.5066932413
 20
4.5973842169
 10
-10.5673927247
 20
4.5531244681
 10
-10.6299016199
 20
4.5126666093
 10
-10.6941224066
 20
4.476064693
 10
-10.7599555136
 20
4.443366717
 10
-10.8273013697
 20
4.4146206794
 10
-10.8960604038
 20
4.389874578
 10
-10.966131345
 20
4.369171661
 10
-11.037406123
 20
4.352536176
 10
-11.1097749677
 20
4.3399876209
 10
-11.1831281092
 20
4.3315454936
 10
-11.2573557773
 20
4.327229292
 10
-11.3323469715
 20
4.3270531784
 10
-11.4079857685
 20
4.331009974
 10
-11.4841550145
 20
4.3390871646
 10
-11.5607375558
 20
4.351272236
 10
-11.6376162386
 20
4.3675526739
 10
-11.7146735879
 20
4.3879107203
 10
-11.7917908447
 20
4.4123076421
 10
-11.8688489285
 20
4.440699462
 10
-11.9457287593
 20
4.4730422031
 10
-12.0223112567
 20
4.5092918882
 10
-12.0984777752
 20
4.5493995859
 10
-12.1741114086
 20
4.593296546
 10
-12.2490956852
 20
4.640909064
 10
-12.3233141334
 20
4.6921634353
 10
-12.3966502818
 20
4.7469859554
 10
-12.4689888297
 20
4.8052984092
 10
-12.5402191605
 20
4.8670045392
 10
-12.6102318287
 20
4.9320035777
 10
-12.6789173885
 20
5.0001947566
 10
-12.7461663945
 20
5.0714773082
 10
-12.8118714944
 20
5.145746798
 10
-12.8759337093
 20
5.2228841259
 10
-12.9382561539
 20
5.3027665254
 10
-12.9987419427
 20
5.3852712298
 10
-13.0572941902
 20
5.4702754725
 10
-13.1138184525
 20
5.5576537841
 10
-13.1682300511
 20
5.6472698834
 10
-13.220446749
 20
5.7389847864
 10
-13.2703863092
 20
5.8326595089
 10
-13.3179664946
 20
5.9281550669
 10
-13.3631082115
 20
6.0253290708
 10
-13.4057449388
 20
6.124025509
 10
-13.4458132986
 20
6.2240849646
 10
-13.4832499132
 20
6.3253480205
 10
-13.5179914046
 20
6.4276552596
 10
-13.5499775986
 20
6.5308501422
 10
-13.5791611356
 20
6.6347876389
 10
-13.6054978597
 20
6.7393255973
 10
-13.6289436146
 20
6.8443218652
 10
-13.6494542445
 20
6.9496342905
 10
-13.6669910025
 20
7.055105121
 10
-13.6815367781
 20
7.1605142043
 10
-13.6930798701
 20
7.2656257884
 10
-13.7016085772
 20
7.370204121
 10
-13.7071111981
 20
7.4740134498
 10
-13.7095755263
 20
7.576868965
 10
-13.7089873348
 20
7.6787896256
 10
-13.7053318911
 20
7.779845333
 10
-13.698594463
 20
7.8801059885
 10
-13.6887603182
 20
7.9796414934
  0
LINE
  5
2D9
100
AcDbEntity
  8
268
100
AcDbLine
 62
250
  6
CONTINUOUS
 10
3.4105769236
 20
14.1499755902
 11
1.6428099706
 21
13.2471978907
  0
LINE
  5
2DA
100
AcDbEntity
  8
218_STAMPATO
100
AcDbLine
 62
250
  6
CONTINUOUS
 10
18.3057064507
 20
19.5723505759
 11
4.1176837048
 21
12.354154457
  0
LINE
  5
2DB
100
AcDbEntity
  8
715
100
AcDbLine
 62
7
  6
CONTINUOUS
 10
13.8407797626
 20
19.1290376345
 11
12.7361532244
 21
18.5767243654
  0
LINE
  5
2DC
100
AcDbEntity
  8
218_STAMPATO
100
AcDbLine
 62
250
  6
CONTINUOUS
 10
10.0980268673
 20
16.6321259778
 11
17.669960265
 21
20.3101857163
  0
LINE
  5
2DD
100
AcDbEntity
  8
218_STAMPATO
100
AcDbLine
 62
250
  6
CONTINUOUS
 10
10.4356952011
 20
16.0497342507
 11
18.1698841125
 21
19.806609457
  0
LWPOLYLINE
  5
2DE
100
AcDbEntity
  8
RACCORDO
100
AcDbPolyline
 62
250
  6
CONTINUOUS
 90
22
 70
0
 10
-2.1077551025
 20
10.7183669406
 10
-2.1435613635
 20
10.7032107027
 10
-2.1790809183
 20
10.6852217804
 10
-2.2143137669
 20
10.6644001738
 10
-2.2494459098
 20
10.6406104021
 10
-2.2842913465
 20
10.6139879461
 10
-2.3182920756
 20
10.5849392476
 10
-2.3514233338
 20
10.5534309069
 10
-2.3837098846
 20
10.5194963238
 10
-2.4146680169
 20
10.4836421401
 10
-2.4442731749
 20
10.4458458424
 10
-2.4725499146
 20
10.4061299441
 10
-2.4990881931
 20
10.3650686265
 10
-2.5238674485
 20
10.3226325019
 10
-2.5469082429
 20
10.2788509581
 10
-2.5678622196
 20
10.2343863398
 10
-2.5866965889
 20
10.1892178971
 10
-2.6034441406
 20
10.14336638
 10
-2.6178548877
 20
10.097556384
 10
-2.6298455012
 20
10.0520294411
 10
-2.6394993101
 20
10.0065440194
 10
-2.6468163143
 20
9.9611001188
  0
LWPOLYLINE
  5
2DF
100
AcDbEntity
  8
ASSI
100
AcDbPolyline
 62
250
  6
CONTINUOUS
 90
22
 70
0
 10
-2.1077551025
 20
10.7183669406
 10
-2.1435613635
 20
10.7032107027
 10
-2.1790809183
 20
10.6852217804
 10
-2.2143137669
 20
10.6644001738
 10
-2.2494459098
 20
10.6406104021
 10
-2.2842913465
 20
10.6139879461
 10
-2.3182920756
 20
10.5849392476
 10
-2.3514233338
 20
10.5534309069
 10
-2.3837098846
 20
10.5194963238
 10
-2.4146680169
 20
10.4836421401
 10
-2.4442731749
 20
10.4458458424
 10
-2.4725499146
 20
10.4061299441
 10
-2.4990881931
 20
10.3650686265
 10
-2.5238674485
 20
10.3226325019
 10
-2.5469082429
 20
10.2788509581
 10
-2.5678622196
 20
10.2343863398
 10
-2.5866965889
 20
10.1892178971
 10
-2.6034441406
 20
10.14336638
 10
-2.6178548877
 20
10.097556384
 10
-2.6298455012
 20
10.0520294411
 10
-2.6394993101
 20
10.0065440194
 10
-2.6468163143
 20
9.9611001188
  0
LINE
  5
2E0
100
AcDbEntity
  8
RACCORDO
100
AcDbLine
 62
250
  6
CONTINUOUS
 10
2.0570584586
 20
12.3030395972
 11
-2.1077551025
 21
10.7183669406
  0
LINE
  5
2E1
100
AcDbEntity
  8
ASSI
100
AcDbLine
 62
250
  6
CONTINUOUS
 10
2.0570584586
 20
12.3030395972
 11
-2.1077551025
 21
10.7183669406
  0
LINE
  5
2E2
100
AcDbEntity
  8
268
100
AcDbLine
 62
7
  6
CONTINUOUS
 10
-8.1648929675
 20
20.8036963387
 11
-8.1648929675
 21
19.5889629525
  0
LINE
  5
2E3
100
AcDbEntity
  8
268
100
AcDbLine
 62
250
  6
CONTINUOUS
 10
-8.0770250019
 20
20.6971873818
 11
-8.0770250019
 21
19.4822325158
  0
LWPOLYLINE
  5
2E4
100
AcDbEntity
  8
715
100
AcDbPolyline
 62
250
  6
CONTINUOUS
 90
13
 70
0
 10
1.840856798
 20
22.4688680984
 10
1.8421310023
 20
22.4719606
 10
1.8755379026
 20
22.5360347884
 10
1.9155495578
 20
22.5991690061
 10
1.9620473315
 20
22.6611746821
 10
2.0149099826
 20
22.7218917801
 10
2.0739888531
 20
22.7811509973
 10
2.1390816325
 20
22.8387589305
 10
2.2099574643
 20
22.8945323981
 10
2.2864506021
 20
22.9483603337
 10
2.3684420058
 20
23.0001615173
 10
2.4556906028
 20
23.0497791567
 10
2.4760599822
 20
23.060648138
  0
LINE
  5
2E5
100
AcDbEntity
  8
268
100
AcDbLine
 62
7
  6
CONTINUOUS
 10
3.6367870289
 20
16.0220424292
 11
3.1095423132
 21
15.3803347012
  0
LWPOLYLINE
  5
2E6
100
AcDbEntity
  8
218_STAMPATO
100
AcDbPolyline
 62
250
  6
CONTINUOUS
 90
30
 70
0
 10
18.7198569263
 20
18.1407170012
 10
18.7385180648
 20
18.1506432303
 10
18.7566311598
 20
18.1608200565
 10
18.7741827603
 20
18.1712399203
 10
18.7911598325
 20
18.1818950847
 10
18.807549769
 20
18.1927776318
 10
18.8233403987
 20
18.2038794683
 10
18.8385199952
 20
18.2151923478
 10
18.8530772863
 20
18.2267078672
 10
18.8670014615
 20
18.2384174633
 10
18.8802821806
 20
18.2503124383
 10
18.8929095814
 20
18.262383957
 10
18.9048742867
 20
18.2746230438
 10
18.9161674113
 20
18.2870206075
 10
18.9267805691
 20
18.2995674399
 10
18.9367058784
 20
18.3122542129
 10
18.9459359689
 20
18.325071503
 10
18.9544639862
 20
18.3380097903
 10
18.9622835972
 20
18.3510594568
 10
18.9693889952
 20
18.3642108094
 10
18.9757749037
 20
18.3774540803
 10
18.9814365803
 20
18.3907794267
 10
18.9863698207
 20
18.4041769505
 10
18.9905709616
 20
18.4176367011
 10
18.994036883
 20
18.4311486768
 10
18.9967650111
 20
18.4447028409
 10
18.9987533202
 20
18.4582891264
 10
19.0000003335
 20
18.4718974391
 10
19.0005051251
 20
18.4855176705
 10
19.0005171257
 20
18.48795417
  0
LINE
  5
2E7
100
AcDbEntity
  8
218_STAMPATO
100
AcDbLine
 62
250
  6
CONTINUOUS
 10
18.7198569263
 20
18.1407170012
 11
4.1176837048
 21
10.7118206735
  0
LWPOLYLINE
  5
2E8
100
AcDbEntity
  8
RACCORDO
100
AcDbPolyline
 62
250
  6
CONTINUOUS
 90
22
 70
0
 10
-5.6398677685
 20
-26.412463713
 10
-5.6398206792
 20
-26.4553055675
 10
-5.6373069792
 20
-26.4965190751
 10
-5.6323266684
 20
-26.5361042359
 10
-5.6248321895
 20
-26.5742588968
 10
-5.6148710998
 20
-26.6107852108
 10
-5.6025860715
 20
-26.6450896375
 10
-5.5879404692
 20
-26.6771235409
 10
-5.5709709282
 20
-26.7069355569
 10
-5.5519300271
 20
-26.7340780528
 10
-5.5307903031
 20
-26.7585073265
 10
-5.5075792189
 20
-26.7802670802
 10
-5.4826317411
 20
-26.7990407869
 10
-5.4559160736
 20
-26.8147872788
 10
-5.4274640126
 20
-26.8275477239
 10
-5.397705913
 20
-26.8371290993
 10
-5.3666128072
 20
-26.8434770934
 10
-5.3342136627
 20
-26.8466460178
 10
-5.3010257377
 20
-26.8466057849
 10
-5.2672214513
 20
-26.8433463653
 10
-5.2326283844
 20
-26.8368777882
 10
-5.1972465368
 20
-26.8272000538
  0
LWPOLYLINE
  5
2E9
100
AcDbEntity
  8
ASSI
100
AcDbPolyline
 62
250
  6
CONTINUOUS
 90
22
 70
0
 10
-5.6398677685
 20
-26.412463713
 10
-5.6398206792
 20
-26.4553055675
 10
-5.6373069792
 20
-26.4965190751
 10
-5.6323266684
 20
-26.5361042359
 10
-5.6248321895
 20
-26.5742588968
 10
-5.6148710998
 20
-26.6107852108
 10
-5.6025860715
 20
-26.6450896375
 10
-5.5879404692
 20
-26.6771235409
 10
-5.5709709282
 20
-26.7069355569
 10
-5.5519300271
 20
-26.7340780528
 10
-5.5307903031
 20
-26.7585073265
 10
-5.5075792189
 20
-26.7802670802
 10
-5.4826317411
 20
-26.7990407869
 10
-5.4559160736
 20
-26.8147872788
 10
-5.4274640126
 20
-26.8275477239
 10
-5.397705913
 20
-26.8371290993
 10
-5.3666128072
 20
-26.8434770934
 10
-5.3342136627
 20
-26.8466460178
 10
-5.3010257377
 20
-26.8466057849
 10
-5.2672214513
 20
-26.8433463653
 10
-5.2326283844
 20
-26.8368777882
 10
-5.1972465368
 20
-26.8272000538
  0
LWPOLYLINE
  5
2EA
100
AcDbEntity
  8
RACCORDO
100
AcDbPolyline
 62
250
  6
CONTINUOUS
 90
15
 70
0
 10
-6.75593087
 20
-26.3812730259
 10
-6.755971886
 20
-26.4727385616
 10
-6.7507098214
 20
-26.5613950465
 10
-6.7401707416
 20
-26.6468049833
 10
-6.7244056377
 20
-26.7285445047
 10
-6.7034931604
 20
-26.8062138859
 10
-6.677537006
 20
-26.8794376367
 10
-6.6466572499
 20
-26.9478624375
 10
-6.6110070577
 20
-27.0111398287
 10
-6.5707772235
 20
-27.0689394166
 10
-6.5261748434
 20
-27.1209701067
 10
-6.4774124211
 20
-27.1669911452
 10
-6.4247197887
 20
-27.206788141
 10
-6.3683388659
 20
-27.2401692773
 10
-6.3617790484
 20
-27.2435142719
  0
LWPOLYLINE
  5
2EB
100
AcDbEntity
  8
ASSI
100
AcDbPolyline
 62
250
  6
CONTINUOUS
 90
15
 70
0
 10
-6.75593087
 20
-26.3812730259
 10
-6.755971886
 20
-26.4727385616
 10
-6.7507098214
 20
-26.5613950465
 10
-6.7401707416
 20
-26.6468049833
 10
-6.7244056377
 20
-26.7285445047
 10
-6.7034931604
 20
-26.8062138859
 10
-6.677537006
 20
-26.8794376367
 10
-6.6466572499
 20
-26.9478624375
 10
-6.6110070577
 20
-27.0111398287
 10
-6.5707772235
 20
-27.0689394166
 10
-6.5261748434
 20
-27.1209701067
 10
-6.4774124211
 20
-27.1669911452
 10
-6.4247197887
 20
-27.206788141
 10
-6.3683388659
 20
-27.2401692773
 10
-6.3617790484
 20
-27.2435142719
  0
LWPOLYLINE
  5
2EC
100
AcDbEntity
  8
RACCORDO
100
AcDbPolyline
 62
250
  6
CONTINUOUS
 90
13
 70
0
 10
-3.7548766045
 20
10.0895463242
 10
-4.1562825513
 20
7.0009532518
 10
-4.5303081086
 20
3.9200341253
 10
-4.8769060335
 20
0.8471816494
 10
-5.1960326187
 20
-2.217212439
 10
-5.4876473053
 20
-5.2727577358
 10
-5.7517126849
 20
-8.3190652178
 10
-5.9881948916
 20
-11.3557469036
 10
-6.1970640225
 20
-14.3824158135
 10
-6.3782937437
 20
-17.3986863317
 10
-6.5318608756
 20
-20.4041742718
 10
-6.6577453994
 20
-23.3984969266
 10
-6.75593087
 20
-26.3812730259
  0
LWPOLYLINE
  5
2ED
100
AcDbEntity
  8
ASSI
100
AcDbPolyline
 62
250
  6
CONTINUOUS
 90
13
 70
0
 10
-3.7548766045
 20
10.0895463242
 10
-4.1562825513
 20
7.0009532518
 10
-4.5303081086
 20
3.9200341253
 10
-4.8769060335
 20
0.8471816494
 10
-5.1960326187
 20
-2.217212439
 10
-5.4876473053
 20
-5.2727577358
 10
-5.7517126849
 20
-8.3190652178
 10
-5.9881948916
 20
-11.3557469036
 10
-6.1970640225
 20
-14.3824158135
 10
-6.3782937437
 20
-17.3986863317
 10
-6.5318608756
 20
-20.4041742718
 10
-6.6577453994
 20
-23.3984969266
 10
-6.75593087
 20
-26.3812730259
  0
LWPOLYLINE
  5
2EE
100
AcDbEntity
  8
715
100
AcDbPolyline
 62
250
  6
CONTINUOUS
 90
51
 70
0
 10
1.9410106728
 20
22.4327605682
 10
1.9429114061
 20
22.4388897938
 10
1.9680730227
 20
22.4994746425
 10
1.9994426799
 20
22.5593529236
 10
2.0369657554
 20
22.6185210053
 10
2.0803392872
 20
22.6764990241
 10
2.1296225055
 20
22.7332797015
 10
2.1847561802
 20
22.7888703159
 10
2.2452596585
 20
22.8428128382
 10
2.3111320101
 20
22.8950657377
 10
2.3823741654
 20
22.9456705451
 10
2.4585082631
 20
22.9942938236
 10
2.5395248921
 20
23.0409215661
 10
2.6254334635
 20
23.0855677798
 10
2.7157843492
 20
23.1279410489
 10
2.8108346294
 20
23.1681002469
 10
2.9103272239
 20
23.2059865003
 10
3.0130412643
 20
23.2411317735
 10
3.119382133
 20
23.2735094934
 10
3.2289444476
 20
23.303146233
 10
3.339291192
 20
23.3296536751
 10
3.4503957089
 20
23.3528530686
 10
3.5622846556
 20
23.3729231646
 10
3.6726009878
 20
23.3900119004
 10
3.7809914776
 20
23.4039857963
 10
3.8878093529
 20
23.4149783318
 10
3.9917572521
 20
23.4235378831
 10
4.0925930865
 20
23.4296404526
 10
4.1905589448
 20
23.4333100378
 10
4.2850837311
 20
23.4351670066
 10
4.3760054712
 20
23.4352328755
 10
4.4634861394
 20
23.433486128
 10
4.5474405627
 20
23.4304825826
 10
4.6277446361
 20
23.426263782
 10
4.7045224647
 20
23.4207881835
 10
4.7780611912
 20
23.4144869779
 10
4.8483277248
 20
23.4074009441
 10
4.9153551564
 20
23.3994893032
 10
4.9795299006
 20
23.391060909
 10
5.0408376474
 20
23.3821502685
 10
5.0992927068
 20
23.3727228747
 10
5.1553244233
 20
23.3629840608
 10
5.2089290069
 20
23.3529625391
 10
5.2601102475
 20
23.3426295974
 10
5.3093088598
 20
23.3321044326
 10
5.3565280047
 20
23.3214098935
 10
5.4017645213
 20
23.3105231314
 10
5.4454496412
 20
23.2994947977
 10
5.4877271083
 20
23.2883417764
 10
5.5284531787
 20
23.2770471836
 10
5.5676278524
 20
23.2656110193
  0
LWPOLYLINE
  5
2EF
100
AcDbEntity
  8
218_STAMPATO
100
AcDbPolyline
 62
250
  6
CONTINUOUS
 90
56
 70
0
 10
18.8374066075
 20
12.6982134054
 10
18.8445111928
 20
12.7007642572
 10
18.8516899488
 20
12.7030841057
 10
18.8589418769
 20
12.705174349
 10
18.8662637123
 20
12.7070523468
 10
18.8736563658
 20
12.7087038989
 10
18.8811246341
 20
12.7100836151
 10
18.8886786556
 20
12.7111960611
 10
18.8963043666
 20
12.7120416413
 10
18.9039694654
 20
12.7125696379
 10
18.9116737194
 20
12.7127796065
 10
18.9194116587
 20
12.7126788992
 10
18.9271423536
 20
12.712229312
 10
18.9348542786
 20
12.7114325486
 10
18.9425514951
 20
12.7102957055
 10
18.9502156085
 20
12.7087895768
 10
18.9578337356
 20
12.7069231681
 10
18.9654091787
 20
12.70469869
 10
18.9729464114
 20
12.7020783728
 10
18.9804399603
 20
12.6990749175
 10
18.9878824198
 20
12.6956908207
 10
18.995273079
 20
12.6918757157
 10
19.0026091289
 20
12.6876424309
 10
19.0098759208
 20
12.6829990279
 10
19.0170520414
 20
12.6778915033
 10
19.0241311029
 20
12.672334658
 10
19.031096627
 20
12.6663415693
 10
19.0379087563
 20
12.6598596601
 10
19.0445560115
 20
12.6529099572
 10
19.0510209775
 20
12.6455075596
 10
19.0572510251
 20
12.6375958179
 10
19.0632291294
 20
12.6292111674
 10
19.0689364029
 20
12.6203635442
 10
19.0743114269
 20
12.6109642399
 10
19.0793382724
 20
12.6010660725
 10
19.083985774
 20
12.5906793331
 10
19.0881590373
 20
12.5796654857
 10
19.0918475909
 20
12.5680450879
 10
19.0949945622
 20
12.555891438
 10
19.097426817
 20
12.5431569789
 10
19.0991045134
 20
12.5298076756
 10
19.0999889262
 20
12.5159933753
 10
19.099922874
 20
12.501923321
 10
19.0988575532
 20
12.4876348698
 10
19.0967976866
 20
12.4731655398
 10
19.0936962306
 20
12.458683022
 10
19.0895071156
 20
12.4441628494
 10
19.0842570272
 20
12.4296731828
 10
19.0780415424
 20
12.4154710151
 10
19.0708902793
 20
12.4016052139
 10
19.0627992726
 20
12.3880023086
 10
19.0538353686
 20
12.3747022039
 10
19.0440083783
 20
12.3616898297
 10
19.0333326788
 20
12.3489553776
 10
19.0218859822
 20
12.3365397846
 10
19.0096906544
 20
12.3244351161
  0
LINE
  5
2F0
100
AcDbEntity
  8
268
100
AcDbLine
 62
7
  6
CONTINUOUS
 10
0.5349164467
 20
-6.1950485514
 11
0.7235711551
 21
-6.2893759056
  0
LWPOLYLINE
  5
2F1
100
AcDbEntity
  8
RACCORDO
100
AcDbPolyline
 62
250
  6
CONTINUOUS
 90
16
 70
0
 10
-2.1077551025
 20
10.7183669406
 10
-2.10617175
 20
10.794447715
 10
-2.1106346484
 20
10.8728507177
 10
-2.1210949749
 20
10.9527177227
 10
-2.1374382562
 20
11.0331744736
 10
-2.1594856188
 20
11.1133402456
 10
-2.1869957447
 20
11.1923374865
 10
-2.2196675181
 20
11.2693014406
 10
-2.257143315
 20
11.3433895951
 10
-2.2990129104
 20
11.4137908978
 10
-2.3448179884
 20
11.4797346728
 10
-2.3940571459
 20
11.5404990285
 10
-2.4461913653
 20
11.59541875
 10
-2.5006499446
 20
11.6438926197
 10
-2.5568367485
 20
11.6853899921
 10
-2.6141367137
 20
11.7194565826
  0
LWPOLYLINE
  5
2F2
100
AcDbEntity
  8
ASSI
100
AcDbPolyline
 62
250
  6
CONTINUOUS
 90
16
 70
0
 10
-2.1077551025
 20
10.7183669406
 10
-2.10617175
 20
10.794447715
 10
-2.1106346484
 20
10.8728507177
 10
-2.1210949749
 20
10.9527177227
 10
-2.1374382562
 20
11.0331744736
 10
-2.1594856188
 20
11.1133402456
 10
-2.1869957447
 20
11.1923374865
 10
-2.2196675181
 20
11.2693014406
 10
-2.257143315
 20
11.3433895951
 10
-2.2990129104
 20
11.4137908978
 10
-2.3448179884
 20
11.4797346728
 10
-2.3940571459
 20
11.5404990285
 10
-2.4461913653
 20
11.59541875
 10
-2.5006499446
 20
11.6438926197
 10
-2.5568367485
 20
11.6853899921
 10
-2.6141367137
 20
11.7194565826
  0
LWPOLYLINE
  5
2F3
100
AcDbEntity
  8
RACCORDO
100
AcDbPolyline
 62
250
  6
CONTINUOUS
 90
7
 70
0
 10
-4.6383620419
 20
-8.3984130974
 10
-4.8741986677
 20
-11.4268769637
 10
-5.0825261955
 20
-14.4457422897
 10
-5.2632648472
 20
-17.4538495774
 10
-5.4163880303
 20
-20.4508123276
 10
-5.5419223374
 20
-23.4370170395
 10
-5.6398677685
 20
-26.412463713
  0
LWPOLYLINE
  5
2F4
100
AcDbEntity
  8
ASSI
100
AcDbPolyline
 62
250
  6
CONTINUOUS
 90
7
 70
0
 10
-4.6383620419
 20
-8.3984130974
 10
-4.8741986677
 20
-11.4268769637
 10
-5.0825261955
 20
-14.4457422897
 10
-5.2632648472
 20
-17.4538495774
 10
-5.4163880303
 20
-20.4508123276
 10
-5.5419223374
 20
-23.4370170395
 10
-5.6398677685
 20
-26.412463713
  0
LWPOLYLINE
  5
2F5
100
AcDbEntity
  8
RACCORDO
100
AcDbPolyline
 62
250
  6
CONTINUOUS
 90
7
 70
0
 10
-2.6468163143
 20
9.9611001188
 10
-3.0472340337
 20
6.880107213
 10
-3.4202543806
 20
3.8075439218
 10
-3.7658773548
 20
0.7434102452
 10
-4.0841401982
 20
-2.3126834588
 10
-4.375005669
 20
-5.3603475482
 10
-4.6383620419
 20
-8.3984130974
  0
LWPOLYLINE
  5
2F6
100
AcDbEntity
  8
ASSI
100
AcDbPolyline
 62
250
  6
CONTINUOUS
 90
7
 70
0
 10
-2.6468163143
 20
9.9611001188
 10
-3.0472340337
 20
6.880107213
 10
-3.4202543806
 20
3.8075439218
 10
-3.7658773548
 20
0.7434102452
 10
-4.0841401982
 20
-2.3126834588
 10
-4.375005669
 20
-5.3603475482
 10
-4.6383620419
 20
-8.3984130974
  0
LWPOLYLINE
  5
2F7
100
AcDbEntity
  8
268
100
AcDbPolyline
 62
7
  6
CONTINUOUS
 90
13
 70
0
 10
8.8907026646
 20
-18.7191127879
 10
8.8878114995
 20
-18.715219597
 10
8.8841227353
 20
-18.7108372568
 10
8.8796627714
 20
-18.7060799639
 10
8.8744699131
 20
-18.7009401093
 10
8.868587256
 20
-18.6953927505
 10
8.8620267218
 20
-18.6895251519
 10
8.8548198186
 20
-18.683327844
 10
8.8470026729
 20
-18.6767827194
 10
8.8385787335
 20
-18.6699618433
 10
8.8295658421
 20
-18.6628798184
 10
8.8200039967
 20
-18.6554961752
 10
8.8099242396
 20
-18.6477996205
  0
LINE
  5
2F8
100
AcDbEntity
  8
268
100
AcDbLine
 62
7
  6
CONTINUOUS
 10
-0.1304762562
 20
-14.2813458709
 11
0.4503577526
 21
-19.6951714445
  0
LINE
  5
2F9
100
AcDbEntity
  8
268
100
AcDbLine
 62
250
  6
CONTINUOUS
 10
-2.2845159338
 20
16.5859779817
 11
-2.2845159338
 21
17.8009328478
  0
LINE
  5
2FA
100
AcDbEntity
  8
268
100
AcDbLine
 62
7
  6
CONTINUOUS
 10
-1.9280792744
 20
20.7625422401
 11
-1.9280792744
 21
22.0892226755
  0
LINE
  5
2FB
100
AcDbEntity
  8
268
100
AcDbLine
 62
250
  6
CONTINUOUS
 10
-1.8614895822
 20
16.5876168293
 11
-1.8614895822
 21
17.8018203021
  0
LINE
  5
2FC
100
AcDbEntity
  8
268
100
AcDbLine
 62
7
  6
CONTINUOUS
 10
-1.5745258838
 20
21.3598877909
 11
-1.5745258838
 21
21.9124459802
  0
LINE
  5
2FD
100
AcDbEntity
  8
268
100
AcDbLine
 62
250
  6
CONTINUOUS
 10
-1.5038152057
 20
23.5286542777
 11
-1.5038152057
 21
22.2968200963
  0
LINE
  5
2FE
100
AcDbEntity
  8
268
100
AcDbLine
 62
7
  6
CONTINUOUS
 10
-1.41594724
 20
23.6336514917
 11
-1.41594724
 21
22.4012828868
  0
LINE
  5
2FF
100
AcDbEntity
  8
268
100
AcDbLine
 62
7
  6
CONTINUOUS
 10
-1.3623938494
 20
18.0520169752
 11
-1.3623938494
 21
16.8395814099
  0
LINE
  5
300
100
AcDbEntity
  8
268
100
AcDbLine
 62
7
  6
CONTINUOUS
 10
-0.3621597885
 20
-25.7304450817
 11
-0.3621597885
 21
-25.477073688
  0
LINE
  5
301
100
AcDbEntity
  8
268
100
AcDbLine
 62
7
  6
CONTINUOUS
 10
-0.3621597885
 20
15.8225304514
 11
-0.3621597885
 21
16.0759018452
  0
LWPOLYLINE
  5
302
100
AcDbEntity
  8
RACCORDO
100
AcDbPolyline
 62
250
  6
CONTINUOUS
 90
11
 70
0
 10
-5.1972465368
 20
-26.8272000538
 10
-5.2080151774
 20
-26.9012279721
 10
-5.2246949727
 20
-26.9712905566
 10
-5.2471033348
 20
-27.0366208561
 10
-5.2749949668
 20
-27.0965037218
 10
-5.3080645484
 20
-27.1502836364
 10
-5.3459500783
 20
-27.1973718892
 10
-5.3882368363
 20
-27.2372530212
 10
-5.4344619236
 20
-27.2694904671
 10
-5.4841193299
 20
-27.2937313345
 10
-5.5061399011
 20
-27.3015468898
  0
LWPOLYLINE
  5
303
100
AcDbEntity
  8
ASSI
100
AcDbPolyline
 62
250
  6
CONTINUOUS
 90
11
 70
0
 10
-5.1972465368
 20
-26.8272000538
 10
-5.2080151774
 20
-26.9012279721
 10
-5.2246949727
 20
-26.9712905566
 10
-5.2471033348
 20
-27.0366208561
 10
-5.2749949668
 20
-27.0965037218
 10
-5.3080645484
 20
-27.1502836364
 10
-5.3459500783
 20
-27.1973718892
 10
-5.3882368363
 20
-27.2372530212
 10
-5.4344619236
 20
-27.2694904671
 10
-5.4841193299
 20
-27.2937313345
 10
-5.5061399011
 20
-27.3015468898
  0
LINE
  5
304
100
AcDbEntity
  8
218_STAMPATO
100
AcDbLine
 62
7
  6
CONTINUOUS
 10
19.000517126
 20
12.3083451788
 11
19.9156939131
 21
12.900273798
  0
LWPOLYLINE
  5
305
100
AcDbEntity
  8
218_STAMPATO
100
AcDbPolyline
 62
7
  6
CONTINUOUS
 90
16
 70
0
 10
18.8374069965
 20
2.3665308938
 10
18.8284457813
 20
2.3647636463
 10
18.819623674
 20
2.3634102472
 10
18.8109406746
 20
2.3624706965
 10
18.8023863093
 20
2.3619465514
 10
18.7939710518
 20
2.3618362547
 10
18.7857263237
 20
2.3621351351
 10
18.7776559497
 20
2.362849993
 10
18.769756105
 20
2.363974028
 10
18.7620467366
 20
2.3654821679
 10
18.7545335115
 20
2.3673800894
 10
18.7472107626
 20
2.3696621157
 10
18.7400814351
 20
2.3722861443
 10
18.7331465107
 20
2.375238141
 10
18.7264050078
 20
2.3785321399
 10
18.7198569263
 20
2.3821681411
  0
LINE
  5
306
100
AcDbEntity
  8
268
100
AcDbLine
 62
7
  6
CONTINUOUS
 10
0.7235711551
 20
-6.2893759056
 11
2.455982769
 21
-22.7035368131
  0
LWPOLYLINE
  5
307
100
AcDbEntity
  8
268
100
AcDbPolyline
 62
7
  6
CONTINUOUS
 90
24
 70
0
 10
1.1831905629
 20
22.4033285242
 10
1.1826173784
 20
22.4378009304
 10
1.1809182654
 20
22.4715508513
 10
1.1780932239
 20
22.5045782871
 10
1.1741327893
 20
22.5369398445
 10
1.1690464262
 20
22.5685789167
 10
1.1628625278
 20
22.5993256832
 10
1.1555799124
 20
22.6291612107
 10
1.1471997617
 20
22.6581044324
 10
1.1377540145
 20
22.6860423283
 10
1.127230156
 20
22.7129884911
 10
1.1156407009
 20
22.7389293281
 10
1.1030551322
 20
22.763711041
 10
1.0894799463
 20
22.7873083424
 10
1.0749086468
 20
22.8097465197
 10
1.0593912267
 20
22.830947637
 10
1.0429079394
 20
22.8509247269
 10
1.0254785315
 20
22.8696647567
 10
1.0072122369
 20
22.8870506923
 10
0.988123581
 20
22.9030596186
 10
0.9681980383
 20
22.9177144507
 10
0.9475012658
 20
22.9309668991
 10
0.9260087512
 20
22.9428227603
 10
-2.303192515
 20
24.5574472707
  0
LWPOLYLINE
  5
308
100
AcDbEntity
  8
218_STAMPATO
100
AcDbPolyline
 62
7
  6
CONTINUOUS
 90
4
 70
0
 10
1.0848409923
 20
22.9275814647
 10
1.0849697386
 20
22.914276505
 10
1.086156228
 20
22.8850606855
 10
1.0882856088
 20
22.8594544834
  0
LINE
  5
309
100
AcDbEntity
  8
268
100
AcDbLine
 62
7
  6
CONTINUOUS
 10
0.3408331658
 20
14.9159711967
 11
0.3408331658
 21
15.3683021724
  0
LINE
  5
30A
100
AcDbEntity
  8
268
100
AcDbLine
 62
7
  6
CONTINUOUS
 10
1.1831905629
 20
22.4033285242
 11
1.1831905629
 21
22.1325282315
  0
LINE
  5
30B
100
AcDbEntity
  8
268
100
AcDbLine
 62
7
  6
CONTINUOUS
 10
1.2436166737
 20
15.2730136141
 11
1.2436166737
 21
15.0196422203
  0
LINE
  5
30C
100
AcDbEntity
  8
268
100
AcDbLine
 62
7
  6
CONTINUOUS
 10
1.2436166737
 20
-26.2799619191
 11
1.2436166737
 21
-26.5333333128
  0
LINE
  5
30D
100
AcDbEntity
  8
268
100
AcDbLine
 62
7
  6
CONTINUOUS
 10
1.6428099706
 20
13.2471978907
 11
1.6428099706
 21
13.2228023854
  0
LINE
  5
30E
100
AcDbEntity
  8
268
100
AcDbLine
 62
7
  6
CONTINUOUS
 10
1.6428099706
 20
-24.8823153811
 11
1.6428099706
 21
-24.9067108864
  0
LINE
  5
30F
100
AcDbEntity
  8
218_STAMPATO
100
AcDbLine
 62
250
  6
CONTINUOUS
 10
1.8734022571
 20
23.4811126601
 11
1.8734022571
 21
23.8913317031
  0
LINE
  5
310
100
AcDbEntity
  8
268
100
AcDbLine
 62
7
  6
CONTINUOUS
 10
1.9548372818
 20
-25.3034654419
 11
1.9548372818
 21
-24.8988433509
  0
LINE
  5
311
100
AcDbEntity
  8
268
100
AcDbLine
 62
7
  6
CONTINUOUS
 10
1.9548372818
 20
14.1089691387
 11
1.9548372818
 21
14.7461386975
  0
LINE
  5
312
100
AcDbEntity
  8
RACCORDO
100
AcDbLine
 62
7
  6
CONTINUOUS
 10
-1.0547103233
 20
-25.5132566321
 11
2.0570584586
 21
12.3030395972
  0
LINE
  5
313
100
AcDbEntity
  8
ASSI
100
AcDbLine
 62
7
  6
CONTINUOUS
 10
-1.0547103233
 20
-25.5132566321
 11
2.0570584586
 21
12.3030395972
  0
LINE
  5
314
100
AcDbEntity
  8
268
100
AcDbLine
 62
7
  6
CONTINUOUS
 10
2.455982769
 20
11.8571966158
 11
0.7235711551
 21
-6.2893759056
  0
LWPOLYLINE
  5
315
100
AcDbEntity
  8
715
100
AcDbPolyline
 62
250
  6
CONTINUOUS
 90
13
 70
0
 10
9.2654780017
 20
18.7565575002
 10
9.2667522047
 20
18.7596499987
 10
9.3001591051
 20
18.8237241872
 10
9.3401707603
 20
18.8868584049
 10
9.3866685339
 20
18.9488640808
 10
9.439531185
 20
19.0095811788
 10
9.4986100555
 20
19.0688403961
 10
9.5637028349
 20
19.1264483293
 10
9.6345786668
 20
19.1822217969
 10
9.7110718046
 20
19.2360497324
 10
9.7930632083
 20
19.2878509161
 10
9.8803118053
 20
19.3374685554
 10
9.9006811847
 20
19.3483375368
  0
LWPOLYLINE
  5
316
100
AcDbEntity
  8
218_STAMPATO
100
AcDbPolyline
 62
7
  6
CONTINUOUS
 90
136
 70
0
 10
18.8374066075
 20
12.6982134054
 10
18.8968034833
 20
12.7469415731
 10
18.9543207283
 20
12.7944526541
 10
19.0099583424
 20
12.8407466484
 10
19.0636612403
 20
12.885789001
 10
19.1154845075
 20
12.9296142668
 10
19.1655933996
 20
12.9723261105
 10
19.2139951627
 20
13.013929459
 10
19.2606825509
 20
13.0544193854
 10
19.3057990821
 20
13.093884773
 10
19.3493489622
 20
13.132328146
 10
19.3913279853
 20
13.1697469801
 10
19.4318670518
 20
13.2062225858
 10
19.4709700825
 20
13.2417573401
 10
19.5086331565
 20
13.2763488659
 10
19.5449754119
 20
13.3100713418
 10
19.5800005087
 20
13.342927027
 10
19.6137047869
 20
13.3749136623
 10
19.6461964048
 20
13.4060986493
 10
19.6774787064
 20
13.4364840828
 10
19.7075483477
 20
13.4660678679
 10
19.7365034541
 20
13.4949111213
 10
19.7643471039
 20
13.5230158279
 10
19.7910762188
 20
13.5503800028
 10
19.8167796889
 20
13.5770588082
 10
19.84146036
 20
13.6030541719
 10
19.8651153863
 20
13.6283641662
 10
19.88782512
 20
13.6530381707
 10
19.9095921713
 20
13.6770780878
 10
19.93041393
 20
13.7004820151
 10
19.9503629183
 20
13.7232936255
 10
19.9694415002
 20
13.7455148413
 10
19.9876473117
 20
13.7671437402
 10
20.0050457832
 20
13.7882182282
 10
20.0216389926
 20
13.8087402881
 10
20.037424862
 20
13.828707937
 10
20.052462588
 20
13.8481531326
 10
20.0667538753
 20
13.8670779319
 10
20.0802970193
 20
13.8854802778
 10
20.0931461034
 20
13.9033859566
 10
20.1053023378
 20
13.9207970942
 10
20.1167645124
 20
13.9377115646
 10
20.1275830798
 20
13.9541487759
 10
20.1377584929
 20
13.9701106628
 10
20.1472902988
 20
13.9855952905
 10
20.1562275919
 20
14.0006162623
 10
20.1645701099
 20
14.0151754593
 10
20.1723181151
 20
14.0292710003
 10
20.179521489
 20
14.0429108457
 10
20.1861788003
 20
14.0560957016
 10
20.1922914801
 20
14.0688248618
 10
20.1979137041
 20
14.0811041682
 10
20.2030408422
 20
14.0929244791
 10
20.2076775245
 20
14.1042949363
 10
20.2118918164
 20
14.1152488067
 10
20.215681777
 20
14.1257726592
 10
20.2190493472
 20
14.1358799249
 10
20.222068416
 20
14.1456441647
 10
20.2247442903
 20
14.1550630996
 10
20.2270716632
 20
14.1641390086
 10
20.229108503
 20
14.1729522896
 10
20.2308622088
 20
14.1815079385
 10
20.2323253816
 20
14.1898009595
 10
20.2335337919
 20
14.1978967622
 10
20.2344937258
 20
14.2057995963
 10
20.2351988973
 20
14.2135052121
 10
20.2356662186
 20
14.2210662707
 10
20.2359013503
 20
14.228485944
 10
20.2358986318
 20
14.23576106
 10
20.2356579937
 20
14.2429347638
 10
20.235185086
 20
14.250009787
 10
20.2344742587
 20
14.2569833979
 10
20.2335084916
 20
14.2638905469
 10
20.2322941064
 20
14.270733366
 10
20.2308247815
 20
14.2775097232
 10
20.2290645319
 20
14.2842481731
 10
20.227021017
 20
14.2909510578
 10
20.2246865775
 20
14.2976160352
 10
20.2220022505
 20
14.3042646342
 10
20.2189732156
 20
14.3109052476
 10
20.2155942933
 20
14.3175294827
 10
20.2117909818
 20
14.3241336901
 10
20.2075608642
 20
14.3307296609
 10
20.2029063574
 20
14.3373056041
 10
20.197760211
 20
14.3438224971
 10
20.1921180221
 20
14.3502840802
 10
20.1859841936
 20
14.3566866131
 10
20.1793046837
 20
14.3629798516
 10
20.1720782135
 20
14.3691615105
 10
20.1643060619
 20
14.375233875
 10
20.1559380245
 20
14.3811535565
 10
20.146973698
 20
14.3869185302
 10
20.1374134857
 20
14.392530821
 10
20.1272083932
 20
14.3979531152
 10
20.1163589336
 20
14.4031839098
 10
20.1048645939
 20
14.4082247078
 10
20.0926748398
 20
14.4130427044
 10
20.0797908762
 20
14.4176370378
 10
20.0662114984
 20
14.4220085697
 10
20.0518825572
 20
14.4261270803
 10
20.0368057679
 20
14.4299922808
 10
20.0209794153
 20
14.4336044599
 10
20.0043442053
 20
14.4369342644
 10
19.9869022258
 20
14.4399818678
 10
19.9686513888
 20
14.4427470965
 10
19.9495261362
 20
14.4452000768
 10
19.9295288222
 20
14.4473413396
 10
19.9086570925
 20
14.449170354
 10
19.8868383267
 20
14.4506556534
 10
19.8640752021
 20
14.4517980422
 10
19.8403650414
 20
14.4525967159
 10
19.8156271918
 20
14.4530177951
 10
19.7898642746
 20
14.4530622944
 10
19.7630736684
 20
14.4527291992
 10
19.7351668567
 20
14.451981586
 10
19.7061478267
 20
14.4508207298
 10
19.6760125911
 20
14.4492453558
 10
19.6446606712
 20
14.4472147161
 10
19.6120934218
 20
14.4447300057
 10
19.5783094882
 20
14.4417900297
 10
19.5432043269
 20
14.4383504553
 10
19.5067730389
 20
14.4344113299
 10
19.4690205232
 20
14.4299726061
 10
19.4298569335
 20
14.424989809
 10
19.389291024
 20
14.4194646117
 10
19.3473140405
 20
14.4133953411
 10
19.3038098731
 20
14.4067325032
 10
19.2587934256
 20
14.3994798109
 10
19.2122497942
 20
14.3916335514
 10
19.1640181581
 20
14.3831330923
 10
19.114098691
 20
14.3739800568
 10
19.0624912192
 20
14.3641728217
 10
19.0090344008
 20
14.353645885
 10
18.9536744553
 20
14.3423774126
 10
18.8964651631
 20
14.3303892386
 10
18.8374065244
 20
14.3176813629
  0
LWPOLYLINE
  5
317
100
AcDbEntity
  8
268
100
AcDbPolyline
 62
7
  6
CONTINUOUS
 90
31
 70
0
 10
3.4105769236
 20
14.1499755902
 10
3.4102372561
 20
14.1660086223
 10
3.4092208186
 20
14.1823371915
 10
3.4075300853
 20
14.1989163947
 10
3.4051690807
 20
14.2157004943
 10
3.4021442691
 20
14.2326434883
 10
3.3984645366
 20
14.2496992367
 10
3.3941396836
 20
14.2668208553
 10
3.3891812537
 20
14.2839612661
 10
3.3836034032
 20
14.3010737709
 10
3.377421159
 20
14.3181113408
 10
3.3706511687
 20
14.3350271329
 10
3.3633125103
 20
14.3517750405
 10
3.3554250683
 20
14.3683090477
 10
3.3470101844
 20
14.3845837003
 10
3.3380913893
 20
14.4005546186
 10
3.3286929355
 20
14.4161779327
 10
3.3188403338
 20
14.4314106967
 10
3.3085609884
 20
14.4462113509
 10
3.297882923
 20
14.4605392521
 10
3.2868351892
 20
14.4743550202
 10
3.2754483899
 20
14.4876209403
 10
3.2637536302
 20
14.5003005963
 10
3.251782787
 20
14.5123591441
 10
3.239568908
 20
14.5237636429
 10
3.2271454136
 20
14.5344828011
 10
3.2145462213
 20
14.5444871685
 10
3.2018060089
 20
14.5537493899
 10
3.1889597127
 20
14.5622440811
 10
3.1760424324
 20
14.5699478987
 10
3.1630895502
 20
14.5768397101
  0
LINE
  5
318
100
AcDbEntity
  8
268
100
AcDbLine
 62
7
  6
CONTINUOUS
 10
2.455982769
 20
13.5071040533
 11
2.455982769
 21
11.8571966158
  0
LINE
  5
319
100
AcDbEntity
  8
268
100
AcDbLine
 62
7
  6
CONTINUOUS
 10
2.455982769
 20
-22.7035368131
 11
2.455982769
 21
-24.3534442506
  0
LINE
  5
31A
100
AcDbEntity
  8
218_STAMPATO
100
AcDbLine
 62
7
  6
CONTINUOUS
 10
2.5561124551
 20
23.8235707524
 11
2.5561124551
 21
23.3905580505
  0
LINE
  5
31B
100
AcDbEntity
  8
268
100
AcDbLine
 62
7
  6
CONTINUOUS
 10
3.0216681939
 20
-24.3768303826
 11
3.0216681939
 21
-25.8824385089
  0
LINE
  5
31C
100
AcDbEntity
  8
268
100
AcDbLine
 62
7
  6
CONTINUOUS
 10
3.0216681939
 20
14.6475503882
 11
3.0216681939
 21
16.3796011958
  0
LINE
  5
31D
100
AcDbEntity
  8
715
100
AcDbLine
 62
7
  6
CONTINUOUS
 10
3.5549397995
 20
22.2592669928
 11
3.5549397995
 21
22.1362113302
  0
LINE
  5
31E
100
AcDbEntity
  8
268
100
AcDbLine
 62
7
  6
CONTINUOUS
 10
3.7246611482
 20
16.5149226936
 11
3.7246611482
 21
16.2539937172
  0
LINE
  5
31F
100
AcDbEntity
  8
268
100
AcDbLine
 62
7
  6
CONTINUOUS
 10
3.7246611482
 20
-25.0456104222
 11
3.7246611482
 21
-25.3065393985
  0
LINE
  5
320
100
AcDbEntity
  8
715
100
AcDbLine
 62
7
  6
CONTINUOUS
 10
3.80641888
 20
22.7316266969
 11
3.80641888
 21
22.1287133152
  0
LINE
  5
321
100
AcDbEntity
  8
218_STAMPATO
100
AcDbLine
 62
7
  6
CONTINUOUS
 10
4.0116176876
 20
23.7641481865
 11
4.0116176876
 21
23.4517193266
  0
LINE
  5
322
100
AcDbEntity
  8
268
100
AcDbLine
 62
250
  6
CONTINUOUS
 10
4.0518788457
 20
20.7520325856
 11
4.0518788457
 21
19.5201940072
  0
LINE
  5
323
100
AcDbEntity
  8
218_STAMPATO
100
AcDbLine
 62
7
  6
CONTINUOUS
 10
4.1176837048
 20
10.7118206735
 11
4.1176837048
 21
-19.896459935
  0
LINE
  5
324
100
AcDbEntity
  8
268
100
AcDbLine
 62
7
  6
CONTINUOUS
 10
4.1176837048
 20
-23.6806105531
 11
4.1176837048
 21
14.4959712916
  0
LINE
  5
325
100
AcDbEntity
  8
268
100
AcDbLine
 62
7
  6
CONTINUOUS
 10
4.1385162741
 20
20.8564199609
 11
4.1385162741
 21
19.6240514692
  0
LINE
  5
326
100
AcDbEntity
  8
715
100
AcDbLine
 62
7
  6
CONTINUOUS
 10
4.2561635414
 20
22.6098788637
 11
4.2561635414
 21
22.1386381594
  0
LWPOLYLINE
  5
327
100
AcDbEntity
  8
268
100
AcDbPolyline
 62
7
  6
CONTINUOUS
 90
18
 70
0
 10
3.4105769236
 20
-24.0417216329
 10
3.4102382791
 20
-24.057415509
 10
3.4092216356
 20
-24.0727275377
 10
3.4075300853
 20
-24.0876155991
 10
3.4051688681
 20
-24.1020385878
 10
3.4021444566
 20
-24.1159569703
 10
3.3984645366
 20
-24.1293328924
 10
3.3941394729
 20
-24.1421295526
 10
3.3891814232
 20
-24.1543117237
 10
3.3836034032
 20
-24.1658462932
 10
3.3774209553
 20
-24.176701517
 10
3.3706513159
 20
-24.1868474943
 10
3.3633125103
 20
-24.1962566699
 10
3.3554248768
 20
-24.2049031393
 10
3.3470103058
 20
-24.2127630645
 10
3.3380913893
 20
-24.219815127
 10
3.3286927608
 20
-24.2260399
 10
3.3206081495
 20
-24.2305341644
  0
LWPOLYLINE
  5
328
100
AcDbEntity
  8
715
100
AcDbPolyline
 62
250
  6
CONTINUOUS
 90
51
 70
0
 10
9.3656318746
 20
18.7204499647
 10
9.3675326086
 20
18.7265791926
 10
9.3926942251
 20
18.7871640413
 10
9.4240638824
 20
18.8470423223
 10
9.4615869578
 20
18.9062104041
 10
9.5049604896
 20
18.9641884229
 10
9.554243708
 20
19.0209691003
 10
9.6093773826
 20
19.0765597146
 10
9.669880861
 20
19.1305022369
 10
9.7357532126
 20
19.1827551364
 10
9.8069953679
 20
19.2333599439
 10
9.8831294656
 20
19.2819832224
 10
9.9641460946
 20
19.3286109649
 10
10.0500546659
 20
19.3732571785
 10
10.1404055517
 20
19.4156304476
 10
10.2354558318
 20
19.4557896456
 10
10.3349484264
 20
19.4936758991
 10
10.4376624667
 20
19.5288211723
 10
10.5440033355
 20
19.5611988922
 10
10.6535656501
 20
19.5908356317
 10
10.7639123944
 20
19.6173430739
 10
10.8750169114
 20
19.6405424673
 10
10.9869058581
 20
19.6606125634
 10
11.0972221902
 20
19.6777012992
 10
11.2056126801
 20
19.691675195
 10
11.3124305554
 20
19.7026677306
 10
11.4163784545
 20
19.7112272818
 10
11.5172142889
 20
19.7173298514
 10
11.6151801472
 20
19.7209994366
 10
11.7097049336
 20
19.7228564054
 10
11.8006266737
 20
19.7229222743
 10
11.8881073418
 20
19.7211755267
 10
11.9720617652
 20
19.7181719814
 10
12.0523658386
 20
19.7139531807
 10
12.1291436672
 20
19.7084775822
 10
12.2026823936
 20
19.7021763766
 10
12.2729489273
 20
19.6950903428
 10
12.3399763589
 20
19.6871787019
 10
12.404151103
 20
19.6787503078
 10
12.4654588498
 20
19.6698396672
 10
12.5239139093
 20
19.6604122734
 10
12.5799456258
 20
19.6506734596
 10
12.6335502093
 20
19.6406519379
 10
12.68473145
 20
19.6303189961
 10
12.7339300623
 20
19.6197938314
 10
12.7811492072
 20
19.6090992923
 10
12.8263857238
 20
19.5982125301
 10
12.8700708436
 20
19.5871841965
 10
12.9123483107
 20
19.5760311752
 10
12.9530743811
 20
19.5647365824
 10
12.9922490549
 20
19.553300418
  0
LINE
  5
329
100
AcDbEntity
  8
218_STAMPATO
100
AcDbLine
 62
250
  6
CONTINUOUS
 10
19.0096906544
 20
12.3244351161
 11
19.000517126
 21
12.3160552119
  0
LWPOLYLINE
  5
32A
100
AcDbEntity
  8
218_STAMPATO
100
AcDbPolyline
 62
250
  6
CONTINUOUS
 90
56
 70
0
 10
18.7198569263
 20
12.5608500276
 10
18.7257188458
 20
12.5660909646
 10
18.7315530075
 20
12.5711067842
 10
18.7373583258
 20
12.575897574
 10
18.7431279583
 20
12.580464735
 10
18.7488666573
 20
12.5848069736
 10
18.7545902177
 20
12.5889205479
 10
18.7602990591
 20
12.5928091433
 10
18.765989436
 20
12.5964696483
 10
18.7716700391
 20
12.5998884737
 10
18.7773405466
 20
12.6030677092
 10
18.7829971355
 20
12.6060060568
 10
18.7886426964
 20
12.6086850377
 10
18.7942733517
 20
12.6111048249
 10
18.7998883526
 20
12.6132660762
 10
18.8054947018
 20
12.6151512238
 10
18.8110781012
 20
12.616761857
 10
18.8166475222
 20
12.6180973072
 10
18.8222426957
 20
12.6191373555
 10
18.8278536923
 20
12.6198926773
 10
18.8334809529
 20
12.6203547292
 10
18.8391752452
 20
12.6204759276
 10
18.8449466834
 20
12.6202630478
 10
18.8507685161
 20
12.6197133214
 10
18.8566331573
 20
12.6187657036
 10
18.862535644
 20
12.6174165668
 10
18.8684628534
 20
12.6156732682
 10
18.874395107
 20
12.6134910124
 10
18.8803223356
 20
12.6108650572
 10
18.8862362914
 20
12.6078031581
 10
18.8921207588
 20
12.6042788621
 10
18.897957731
 20
12.6002961742
 10
18.9037467495
 20
12.595853342
 10
18.9094964479
 20
12.5909154168
 10
18.9151902962
 20
12.5854902603
 10
18.9208213144
 20
12.5795725491
 10
18.9264072593
 20
12.5731084591
 10
18.9319333258
 20
12.5660998034
 10
18.9373816702
 20
12.5585479815
 10
18.9427586173
 20
12.5503995627
 10
18.9480448512
 20
12.5416520696
 10
18.9532173442
 20
12.5323112039
 10
18.9582701398
 20
12.5223364674
 10
18.9631771842
 20
12.5117255291
 10
18.9679122827
 20
12.5004831131
 10
18.9724621432
 20
12.4885796636
 10
18.9767921273
 20
12.4760194276
 10
18.9808730231
 20
12.4627989179
 10
18.9846890769
 20
12.4488772955
 10
18.9881938443
 20
12.434272495
 10
18.9913518329
 20
12.4189649254
 10
18.9941425386
 20
12.4028579483
 10
18.9965086775
 20
12.3859224993
 10
18.9983858515
 20
12.3681822944
 10
18.9997160574
 20
12.3496193571
 10
19.000425231
 20
12.3300626715
  0
LINE
  5
32B
100
AcDbEntity
  8
218_STAMPATO
100
AcDbLine
 62
7
  6
CONTINUOUS
 10
6.0958390217
 20
25.9261189003
 11
6.0958390217
 21
25.5991528526
  0
LWPOLYLINE
  5
32C
100
AcDbEntity
  8
218_STAMPATO
100
AcDbPolyline
 62
250
  6
CONTINUOUS
 90
56
 70
0
 10
18.8374069665
 20
0.7470631265
 10
18.8444731971
 20
0.7495986556
 10
18.8516030005
 20
0.7519050234
 10
18.8587954152
 20
0.7539835729
 10
18.8660309296
 20
0.7558493794
 10
18.8733268242
 20
0.7574903506
 10
18.8807367609
 20
0.7588677829
 10
18.8882856581
 20
0.7599936515
 10
18.8959445249
 20
0.760861196
 10
18.9036851072
 20
0.7614048771
 10
18.9115222964
 20
0.7616228886
 10
18.9194348634
 20
0.7615247908
 10
18.9273395541
 20
0.761062933
 10
18.9352164134
 20
0.7602344515
 10
18.9430774325
 20
0.7590515926
 10
18.950886703
 20
0.757489894
 10
18.9586225575
 20
0.7555594227
 10
18.9662969078
 20
0.7532614873
 10
18.9739229025
 20
0.7505599963
 10
18.9814943633
 20
0.7474703317
 10
18.9890042417
 20
0.7439927069
 10
18.9964617914
 20
0.7400713713
 10
19.0038740693
 20
0.7357124638
 10
19.011215439
 20
0.7309321075
 10
19.0184434694
 20
0.7256926819
 10
19.0255487095
 20
0.7200052925
 10
19.0325178922
 20
0.7138865444
 10
19.0393009648
 20
0.7073093598
 10
19.0458757048
 20
0.7003067814
 10
19.0522380257
 20
0.6928787312
 10
19.0583612783
 20
0.6849532329
 10
19.0642320187
 20
0.6765722937
 10
19.0698287539
 20
0.6677391307
 10
19.0751044857
 20
0.6583341831
 10
19.080050855
 20
0.6483991557
 10
19.0846264394
 20
0.63795905
 10
19.0887230738
 20
0.6268844414
 10
19.0923278925
 20
0.615185965
 10
19.0953846716
 20
0.6029494053
 10
19.0977145346
 20
0.5901660027
 10
19.0992754822
 20
0.5768220047
 10
19.1000357535
 20
0.5630406533
 10
19.0998463153
 20
0.5489993859
 10
19.0986571364
 20
0.5347166871
 10
19.096472506
 20
0.5202514637
 10
19.0932545063
 20
0.5058001453
 10
19.0889613562
 20
0.4913479368
 10
19.0836198762
 20
0.4769466975
 10
19.0773295772
 20
0.4628415752
 10
19.0701232531
 20
0.4490812372
 10
19.0619950152
 20
0.4355901325
 10
19.0530058958
 20
0.4223967129
 10
19.0431634386
 20
0.4094831474
 10
19.0324835024
 20
0.396843341
 10
19.0210426993
 20
0.3845179568
 10
19.0088624085
 20
0.3724987145
  0
LWPOLYLINE
  5
32D
100
AcDbEntity
  8
268
100
AcDbPolyline
 62
7
  6
CONTINUOUS
 90
4
 70
0
 10
8.8941222778
 20
-18.7271925955
 10
8.8938877722
 20
-18.7254243815
 10
8.8927469961
 20
-18.7224921559
 10
8.8907026646
 20
-18.7191127879
  0
LWPOLYLINE
  5
32E
100
AcDbEntity
  8
218_STAMPATO
100
AcDbPolyline
 62
7
  6
CONTINUOUS
 90
4
 70
0
 10
8.5094621948
 20
19.2152708634
 10
8.509590941
 20
19.2019659038
 10
8.5107774305
 20
19.1727500842
 10
8.5129068111
 20
19.1471438842
  0
LINE
  5
32F
100
AcDbEntity
  8
268
100
AcDbLine
 62
7
  6
CONTINUOUS
 10
8.8940758072
 20
18.790009652
 11
8.8941222778
 21
18.783872314
  0
LINE
  5
330
100
AcDbEntity
  8
268
100
AcDbLine
 62
250
  6
CONTINUOUS
 10
8.8099242396
 20
18.4961958081
 11
8.8099242396
 21
18.2839366541
  0
LINE
  5
331
100
AcDbEntity
  8
268
100
AcDbLine
 62
250
  6
CONTINUOUS
 10
8.8099242396
 20
-18.4803100222
 11
8.8099242396
 21
-18.6477996205
  0
LINE
  5
332
100
AcDbEntity
  8
268
100
AcDbLine
 62
7
  6
CONTINUOUS
 10
8.8941222995
 20
18.7838166864
 11
8.8941222995
 21
18.2078534969
  0
LINE
  5
333
100
AcDbEntity
  8
268
100
AcDbLine
 62
7
  6
CONTINUOUS
 10
8.8941222995
 20
-18.4360799418
 11
8.8941222995
 21
-18.7270229876
  0
LWPOLYLINE
  5
334
100
AcDbEntity
  8
268
100
AcDbPolyline
 62
7
  6
CONTINUOUS
 90
16
 70
0
 10
8.8941222778
 20
18.783872314
 10
8.8938877722
 20
18.7703580057
 10
8.8927469961
 20
18.7505928145
 10
8.8907026646
 20
18.7307391639
 10
8.8878114995
 20
18.71080338
 10
8.8841227353
 20
18.6908211436
 10
8.8796627714
 20
18.670859322
 10
8.8744699131
 20
18.6509386044
 10
8.868587256
 20
18.631070853
 10
8.8620267218
 20
18.6113106268
 10
8.8548198186
 20
18.5916735602
 10
8.8470026729
 20
18.5721715956
 10
8.8385787335
 20
18.5528559967
 10
8.8295658421
 20
18.5337532702
 10
8.8200039967
 20
18.5148627764
 10
8.8099242396
 20
18.4961958081
  0
LWPOLYLINE
  5
335
100
AcDbEntity
  8
218_STAMPATO
100
AcDbPolyline
 62
7
  6
CONTINUOUS
 90
16
 70
0
 10
18.7198569263
 20
12.5608498055
 10
18.7264049964
 20
12.57126654
 10
18.7331464851
 20
12.5815415594
 10
18.7400813926
 20
12.5916748635
 10
18.7472107003
 20
12.6016815011
 10
18.7545334266
 20
12.6115464234
 10
18.7620466275
 20
12.6212244851
 10
18.7697559705
 20
12.6307158797
 10
18.777655788
 20
12.6400204136
 10
18.7857261333
 20
12.6490923605
 10
18.793970831
 20
12.6579288801
 10
18.8023860565
 20
12.6665328126
 10
18.810940389
 20
12.674866952
 10
18.8196233548
 20
12.6829188962
 10
18.8284454277
 20
12.6907010474
 10
18.8374066075
 20
12.6982134054
  0
LINE
  5
336
100
AcDbEntity
  8
RACCORDO
100
AcDbLine
 62
250
  6
CONTINUOUS
 10
-3.7548766045
 20
10.0895463242
 11
-18.0833569391
 21
17.2537864916
  0
LINE
  5
337
100
AcDbEntity
  8
ASSI
100
AcDbLine
 62
250
  6
CONTINUOUS
 10
-3.7548766045
 20
10.0895463242
 11
-18.0833569391
 21
17.2537864916
  0
LWPOLYLINE
  5
338
100
AcDbEntity
  8
268
100
AcDbPolyline
 62
7
  6
CONTINUOUS
 90
5
 70
0
 10
8.8941222813
 20
18.207662484
 10
8.8941096309
 20
18.2079974197
 10
8.8938152278
 20
18.2095152085
 10
8.8931398928
 20
18.2112318728
 10
8.8920957999
 20
18.2131515766
  0
LWPOLYLINE
  5
339
100
AcDbEntity
  8
268
100
AcDbPolyline
 62
7
  6
CONTINUOUS
 90
7
 70
0
 10
8.8940758072
 20
18.790009652
 10
8.8939841991
 20
18.7943174533
 10
8.8938450284
 20
18.7986287839
 10
8.893658295
 20
18.8029436439
 10
8.8934239988
 20
18.8072620333
 10
8.89314214
 20
18.811583952
 10
8.8928127186
 20
18.8159094
  0
LINE
  5
33A
100
AcDbEntity
  8
218_STAMPATO
100
AcDbLine
 62
250
  6
CONTINUOUS
 10
9.2980234596
 20
19.7688020589
 11
9.2980234596
 21
20.1790211018
  0
LINE
  5
33B
100
AcDbEntity
  8
218_STAMPATO
100
AcDbLine
 62
7
  6
CONTINUOUS
 10
9.9807336575
 20
20.1112601512
 11
9.9807336575
 21
19.6782474493
  0
LINE
  5
33C
100
AcDbEntity
  8
715
100
AcDbLine
 62
7
  6
CONTINUOUS
 10
10.9795610019
 20
18.5469563916
 11
10.9795610019
 21
18.4239007377
  0
LINE
  5
33D
100
AcDbEntity
  8
715
100
AcDbLine
 62
7
  6
CONTINUOUS
 10
11.2310400825
 20
19.0193160957
 11
11.2310400825
 21
18.4164027166
  0
LINE
  5
33E
100
AcDbEntity
  8
268
100
AcDbLine
 62
7
  6
CONTINUOUS
 10
8.8940758072
 20
-18.7279345503
 11
8.8941222778
 21
-18.7271925955
  0
LWPOLYLINE
  5
33F
100
AcDbEntity
  8
218_STAMPATO
100
AcDbPolyline
 62
7
  6
CONTINUOUS
 90
136
 70
0
 10
18.8374069665
 20
0.7470631265
 10
18.8968038243
 20
0.7957912815
 10
18.9543210519
 20
0.8433023502
 10
19.0099586494
 20
0.8895963327
 10
19.0636615316
 20
0.934638674
 10
19.1154847836
 20
0.9784639291
 10
19.1655936614
 20
1.0211757623
 10
19.2139954107
 20
1.0627791009
 10
19.2606827856
 20
1.1032690176
 10
19.3057993041
 20
1.1427343958
 10
19.3493491721
 20
1.1811777599
 10
19.3913281836
 20
1.2185965855
 10
19.431867239
 20
1.2550721829
 10
19.4709702591
 20
1.2906069292
 10
19.508633323
 20
1.3251984474
 10
19.5449755688
 20
1.358920916
 10
19.5800006564
 20
1.391776594
 10
19.6137049258
 20
1.4237632226
 10
19.6461965352
 20
1.454948203
 10
19.6774788288
 20
1.4853336302
 10
19.7075484625
 20
1.5149174093
 10
19.7365035615
 20
1.5437606569
 10
19.7643472044
 20
1.5718653578
 10
19.7910763128
 20
1.5992295273
 10
19.8167797765
 20
1.6259083276
 10
19.8414604417
 20
1.6519036863
 10
19.8651154623
 20
1.6772136758
 10
19.8878251906
 20
1.7018876758
 10
19.9095922367
 20
1.7259275884
 10
19.9304139905
 20
1.7493315115
 10
19.9503629742
 20
1.7721431178
 10
19.9694415517
 20
1.7943643297
 10
19.9876473592
 20
1.8159932249
 10
20.0050458268
 20
1.8370677092
 10
20.0216390324
 20
1.8575897657
 10
20.0374248983
 20
1.8775574113
 10
20.0524626211
 20
1.8970026037
 10
20.0667539053
 20
1.9159273999
 10
20.0802970463
 20
1.9343297429
 10
20.0931461277
 20
1.9522354188
 10
20.1053023596
 20
1.9696465537
 10
20.1167645318
 20
1.9865610215
 10
20.1275830971
 20
2.0029982303
 10
20.1377585081
 20
2.0189601148
 10
20.1472903121
 20
2.0344447402
 10
20.1562276034
 20
2.0494657099
 10
20.1645701198
 20
2.0640249047
 10
20.1723181236
 20
2.0781204438
 10
20.1795214962
 20
2.0917602873
 10
20.1861788062
 20
2.1049451414
 10
20.192291485
 20
2.1176742999
 10
20.197913708
 20
2.1299536047
 10
20.2030408453
 20
2.1417739141
 10
20.2076775268
 20
2.1531443699
 10
20.2118918181
 20
2.164098239
 10
20.2156817781
 20
2.1746220902
 10
20.2190493479
 20
2.1847293548
 10
20.2220684163
 20
2.1944935936
 10
20.2247442903
 20
2.2039125275
 10
20.227071663
 20
2.2129884356
 10
20.2291085026
 20
2.2218017157
 10
20.2308622084
 20
2.2303573638
 10
20.2323253811
 20
2.238650384
 10
20.2335337913
 20
2.246746186
 10
20.2344937253
 20
2.2546490194
 10
20.2351988969
 20
2.2623546346
 10
20.2356662183
 20
2.2699156925
 10
20.2359013502
 20
2.2773353651
 10
20.2358986319
 20
2.2846104805
 10
20.2356579941
 20
2.2917841837
 10
20.2351850868
 20
2.2988592062
 10
20.2344742598
 20
2.3058328165
 10
20.2335084932
 20
2.312739965
 10
20.2322941085
 20
2.3195827834
 10
20.2308247841
 20
2.32635914
 10
20.2290645352
 20
2.3330975894
 10
20.227021021
 20
2.3398004734
 10
20.2246865823
 20
2.3464654501
 10
20.2220022563
 20
2.3531140485
 10
20.2189732224
 20
2.3597546613
 10
20.2155943013
 20
2.3663788957
 10
20.2117909912
 20
2.3729831024
 10
20.207560875
 20
2.3795790727
 10
20.2029063699
 20
2.3861550153
 10
20.1977602253
 20
2.3926719077
 10
20.1921180383
 20
2.3991334904
 10
20.1859842118
 20
2.4055360228
 10
20.1793047042
 20
2.411829261
 10
20.1720782364
 20
2.4180109196
 10
20.1643060873
 20
2.4240832838
 10
20.1559380527
 20
2.4300029653
 10
20.1469737291
 20
2.4357679389
 10
20.1374135199
 20
2.4413802297
 10
20.1272084306
 20
2.4468025239
 10
20.1163589745
 20
2.4520333188
 10
20.1048646384
 20
2.4570741171
 10
20.0926748882
 20
2.461892114
 10
20.0797909287
 20
2.4664864478
 10
20.0662115551
 20
2.4708579802
 10
20.0518826185
 20
2.4749764915
 10
20.0368058339
 20
2.4788416926
 10
20.0209794863
 20
2.4824538725
 10
20.0043442815
 20
2.4857836779
 10
19.9869023075
 20
2.4888312822
 10
19.9686514763
 20
2.491596512
 10
19.9495262297
 20
2.4940494935
 10
19.929528922
 20
2.4961907577
 10
19.908657199
 20
2.4980197735
 10
19.8868384401
 20
2.4995050745
 10
19.8640753228
 20
2.5006474649
 10
19.8403651696
 20
2.5014461405
 10
19.8156273279
 20
2.5018672216
 10
19.789864419
 20
2.501911723
 10
19.7630738215
 20
2.50157863
 10
19.7351670189
 20
2.5008310192
 10
19.7061479983
 20
2.4996701656
 10
19.6760127726
 20
2.4980947942
 10
19.644660863
 20
2.4960641574
 10
19.6120936245
 20
2.4935794501
 10
19.5783097022
 20
2.4906394773
 10
19.5432045527
 20
2.4871999063
 10
19.5067732769
 20
2.4832607846
 10
19.4690207739
 20
2.4788220646
 10
19.4298571974
 20
2.4738392716
 10
19.3892913015
 20
2.4683140785
 10
19.347314332
 20
2.4622448123
 10
19.3038101793
 20
2.4555819791
 10
19.2587937473
 20
2.4483292918
 10
19.2122501321
 20
2.4404830374
 10
19.1640185128
 20
2.4319825838
 10
19.1140990633
 20
2.4228295541
 10
19.0624916098
 20
2.4130223251
 10
19.0090348105
 20
2.4024953947
 10
18.9536748849
 20
2.3912269291
 10
18.8964656136
 20
2.3792387621
 10
18.8374069965
 20
2.3665308938
  0
LWPOLYLINE
  5
340
100
AcDbEntity
  8
218_STAMPATO
100
AcDbPolyline
 62
250
  6
CONTINUOUS
 90
104
 70
0
 10
19.9207013355
 20
0.952380975
 10
19.9520957006
 20
0.9736912942
 10
19.9828518269
 20
0.9961160487
 10
20.0129563126
 20
1.0196454668
 10
20.0423960299
 20
1.0442692918
 10
20.0711581041
 20
1.0699767591
 10
20.0992299486
 20
1.0967566186
 10
20.126599289
 20
1.1245971566
 10
20.1532541944
 20
1.1534862324
 10
20.1791830532
 20
1.1834112611
 10
20.2043745594
 20
1.214359199
 10
20.2288176941
 20
1.2463165143
 10
20.2525017592
 20
1.2792692202
 10
20.2754163988
 20
1.3132029027
 10
20.2975516251
 20
1.3481027657
 10
20.3188977953
 20
1.3839536058
 10
20.3394456011
 20
1.4207397952
 10
20.3591860544
 20
1.458445249
 10
20.3781105165
 20
1.4970534664
 10
20.3962107139
 20
1.5365475628
 10
20.4134787566
 20
1.5769103161
 10
20.4299071206
 20
1.6181241389
 10
20.4454886402
 20
1.6601710612
 10
20.4602165007
 20
1.7030327006
 10
20.4740842592
 20
1.7466903067
 10
20.4870858549
 20
1.7911247925
 10
20.499215619
 20
1.8363167773
 10
20.5104682639
 20
1.8822465601
 10
20.5208388794
 20
1.9288941067
 10
20.5303229315
 20
1.9762390299
 10
20.5389162734
 20
2.0242606294
 10
20.5466151511
 20
2.07293792
 10
20.5534162066
 20
2.1222496623
 10
20.5593164733
 20
2.1721743454
 10
20.5643133753
 20
2.2226901818
 10
20.568404729
 20
2.2737751029
 10
20.5715887466
 20
2.3254067895
 10
20.5738640378
 20
2.3775626906
 10
20.5752296099
 20
2.4302200383
 10
20.5756848669
 20
2.4833558445
 10
20.5752296098
 20
2.5369469077
 10
20.5738640376
 20
2.5909698275
 10
20.5715887462
 20
2.6454010199
 10
20.5684047285
 20
2.7002167241
 10
20.5643133747
 20
2.755392999
 10
20.5593164725
 20
2.8109057375
 10
20.5534162057
 20
2.8667306873
 10
20.5466151501
 20
2.9228434852
 10
20.5389162723
 20
2.9792196535
 10
20.5303229303
 20
3.0358345949
 10
20.5208388781
 20
3.0926635702
 10
20.5104682624
 20
3.1496817325
 10
20.4992156175
 20
3.2068641601
 10
20.4870858532
 20
3.2641859091
 10
20.4740842574
 20
3.3216219906
 10
20.4602164988
 20
3.3791473552
 10
20.4454886382
 20
3.4367368552
 10
20.4299071185
 20
3.4943652969
 10
20.4134787544
 20
3.5520074838
 10
20.3962107115
 20
3.6096382799
 10
20.378110514
 20
3.6672325737
 10
20.3591860519
 20
3.7247652532
 10
20.3394455984
 20
3.7822111603
 10
20.3188977926
 20
3.8395451553
 10
20.2975516222
 20
3.8967421657
 10
20.2754163958
 20
3.9537772551
 10
20.252501756
 20
4.0106255774
 10
20.2288176909
 20
4.0672623482
 10
20.2043745561
 20
4.1236627981
 10
20.1791830499
 20
4.1798022421
 10
20.153254191
 20
4.2356561296
 10
20.1265992854
 20
4.291200111
 10
20.0992299448
 20
4.3464099895
 10
20.0711581003
 20
4.4012616933
 10
20.0423960261
 20
4.4557312346
 10
20.0129563088
 20
4.5097947769
 10
19.9828518229
 20
4.5634286808
 10
19.9520956964
 20
4.6166095616
 10
19.9207013313
 20
4.669314246
 10
19.8886824165
 20
4.7215197493
 10
19.85605295
 20
4.7732032456
 10
19.8228272053
 20
4.824342126
 10
19.7890197079
 20
4.8749140366
 10
19.754645204
 20
4.9248969216
 10
19.7197186797
 20
4.9742689903
 10
19.6842553701
 20
5.0230087041
 10
19.6482707741
 20
5.0710947598
 10
19.6117806239
 20
5.1185061344
 10
19.5748008648
 20
5.1652221118
 10
19.5373476329
 20
5.211222309
 10
19.4994372671
 20
5.2564866589
 10
19.4610863124
 20
5.3009954058
 10
19.4223115223
 20
5.3447291051
 10
19.3831298369
 20
5.3876686503
 10
19.3435583689
 20
5.4297952879
 10
19.303614393
 20
5.4710906281
 10
19.2633153479
 20
5.5115366424
 10
19.2226788306
 20
5.5511156697
 10
19.1817225843
 20
5.5898104286
 10
19.1404644884
 20
5.6276040268
 10
19.0989225529
 20
5.664479966
 10
19.057114922
 20
5.7004221395
 10
19.0150598618
 20
5.7354148441
 10
19.000517126
 20
5.747118044
  0
LINE
  5
341
100
AcDbEntity
  8
218_STAMPATO
100
AcDbLine
 62
250
  6
CONTINUOUS
 10
19.9156939157
 20
0.9491232274
 11
19.9207013355
 21
0.952380975
  0
LINE
  5
342
100
AcDbEntity
  8
218_STAMPATO
100
AcDbLine
 62
7
  6
CONTINUOUS
 10
19.000517126
 20
0.3571946066
 11
19.9156939129
 21
0.9491232257
  0
LWPOLYLINE
  5
343
100
AcDbEntity
  8
RACCORDO
100
AcDbPolyline
 62
250
  6
CONTINUOUS
 90
16
 70
0
 10
-2.6468163143
 20
9.9611001188
 10
-2.7085207883
 20
9.9469718754
 10
-2.775406948
 20
9.9360469993
 10
-2.8467661219
 20
9.9284412417
 10
-2.9218422462
 20
9.9242351869
 10
-2.9998398752
 20
9.923473399
 10
-3.0799326094
 20
9.9261639492
 10
-3.1612718513
 20
9.9322783305
 10
-3.2429957962
 20
9.9417517601
 10
-3.3242385635
 20
9.9544838652
 10
-3.404139371
 20
9.9703397466
 10
-3.4818516545
 20
9.9891514083
 10
-3.5565520377
 20
10.0107195374
 10
-3.6274490561
 20
10.0348156155
 10
-3.6937915423
 20
10.0611843402
 10
-3.7548765854
 20
10.0895463297
  0
LWPOLYLINE
  5
344
100
AcDbEntity
  8
ASSI
100
AcDbPolyline
 62
250
  6
CONTINUOUS
 90
16
 70
0
 10
-2.6468163143
 20
9.9611001188
 10
-2.7085207883
 20
9.9469718754
 10
-2.775406948
 20
9.9360469993
 10
-2.8467661219
 20
9.9284412417
 10
-2.9218422462
 20
9.9242351869
 10
-2.9998398752
 20
9.923473399
 10
-3.0799326094
 20
9.9261639492
 10
-3.1612718513
 20
9.9322783305
 10
-3.2429957962
 20
9.9417517601
 10
-3.3242385635
 20
9.9544838652
 10
-3.404139371
 20
9.9703397466
 10
-3.4818516545
 20
9.9891514083
 10
-3.5565520377
 20
10.0107195374
 10
-3.6274490561
 20
10.0348156155
 10
-3.6937915423
 20
10.0611843402
 10
-3.7548765854
 20
10.0895463297
  0
LWPOLYLINE
  5
345
100
AcDbEntity
  8
218_STAMPATO
100
AcDbPolyline
 62
7
  6
CONTINUOUS
 90
16
 70
0
 10
18.8374065244
 20
14.3176813629
 10
18.8284453512
 20
14.3159141541
 10
18.819623285
 20
14.3145607868
 10
18.8109403259
 20
14.313621261
 10
18.8023860003
 20
14.3130971329
 10
18.7939707819
 20
14.3129868463
 10
18.7857260908
 20
14.3132857327
 10
18.7776557518
 20
14.314000593
 10
18.7697559402
 20
14.3151246263
 10
18.7620466028
 20
14.3166327622
 10
18.7545334073
 20
14.3185306757
 10
18.7472106859
 20
14.3208126917
 10
18.7400813828
 20
14.3234367141
 10
18.7331464791
 20
14.3263887107
 10
18.7264049937
 20
14.3296827136
 10
18.7198569263
 20
14.3333187229
  0
LINE
  5
346
100
AcDbEntity
  8
RACCORDO
100
AcDbLine
 62
250
  6
CONTINUOUS
 10
-2.6141367155
 20
11.719456582
 11
-16.9678017887
 21
18.8962891185
  0
LINE
  5
347
100
AcDbEntity
  8
ASSI
100
AcDbLine
 62
250
  6
CONTINUOUS
 10
-2.6141367155
 20
11.719456582
 11
-16.9678017887
 21
18.8962891185
  0
LINE
  5
348
100
AcDbEntity
  8
218_STAMPATO
100
AcDbLine
 62
250
  6
CONTINUOUS
 10
1.4794163233
 20
24.9134875211
 11
1.8734022571
 21
23.8913317031
  0
LINE
  5
349
100
AcDbEntity
  8
715
100
AcDbLine
 62
7
  6
CONTINUOUS
 10
3.3009492978
 20
22.4893867412
 11
3.0994499399
 21
23.085111167
  0
LWPOLYLINE
  5
34A
100
AcDbEntity
  8
218_STAMPATO
100
AcDbPolyline
 62
250
  6
CONTINUOUS
 90
24
 70
0
 10
12.2612964538
 20
-8.1192664322
 10
12.2607750143
 20
-8.1068841571
 10
12.2594096907
 20
-8.0935454863
 10
12.2571586464
 20
-8.0792302101
 10
12.2539797423
 20
-8.0639307953
 10
12.249832375
 20
-8.0476127511
 10
12.2446753675
 20
-8.0302471336
 10
12.2384690568
 20
-8.0118272575
 10
12.231178222
 20
-7.9923501692
 10
12.2227595026
 20
-7.9717654629
 10
12.2131822709
 20
-7.9500797538
 10
12.2024419642
 20
-7.9273749753
 10
12.1905194967
 20
-7.9036225719
 10
12.177387403
 20
-7.8788027438
 10
12.163043492
 20
-7.8530110671
 10
12.1474647705
 20
-7.8261950943
 10
12.1306450353
 20
-7.798354319
 10
12.1126232452
 20
-7.7696641818
 10
12.0933842872
 20
-7.7400637143
 10
12.0729438512
 20
-7.7095614729
 10
12.0514147615
 20
-7.6784443584
 10
12.0288565535
 20
-7.6467966303
 10
12.0052581
 20
-7.6144939236
 10
11.9806443182
 20
-7.5815160542
  0
LINE
  5
34B
100
AcDbEntity
  8
218_STAMPATO
100
AcDbLine
 62
250
  6
CONTINUOUS
 10
12.2613045178
 20
-8.1209559891
 11
12.2612964538
 21
-8.1192664322
  0
LINE
  5
34C
100
AcDbEntity
  8
218_STAMPATO
100
AcDbLine
 62
7
  6
CONTINUOUS
 10
11.4362388901
 20
19.7394087254
 11
11.4362388901
 21
20.0518375853
  0
LINE
  5
34D
100
AcDbEntity
  8
715
100
AcDbLine
 62
7
  6
CONTINUOUS
 10
11.6807847438
 20
18.8975682625
 11
11.6807847438
 21
18.426327555
  0
LINE
  5
34E
100
AcDbEntity
  8
218_STAMPATO
100
AcDbLine
 62
250
  6
CONTINUOUS
 10
11.9806443182
 20
-15.7544289925
 11
11.9806443182
 21
-7.5815160117
  0
LINE
  5
34F
100
AcDbEntity
  8
218_STAMPATO
100
AcDbLine
 62
7
  6
CONTINUOUS
 10
12.2613045178
 20
-15.4070998073
 11
12.2613045178
 21
-8.1203169849
  0
LINE
  5
350
100
AcDbEntity
  8
218_STAMPATO
100
AcDbLine
 62
7
  6
CONTINUOUS
 10
13.5204602242
 20
22.2138082991
 11
13.5204602242
 21
21.8868422513
  0
LWPOLYLINE
  5
351
100
AcDbEntity
  8
218_STAMPATO
100
AcDbPolyline
 62
7
  6
CONTINUOUS
 90
35
 70
0
 10
12.2613043722
 20
-8.1209648127
 10
12.2614863892
 20
-8.1077274173
 10
12.2621113515
 20
-8.0930925168
 10
12.2632043146
 20
-8.0782086568
 10
12.2647792418
 20
-8.0631724912
 10
12.2668520364
 20
-8.0480006073
 10
12.2694379583
 20
-8.0327122694
 10
12.2725341182
 20
-8.0174077801
 10
12.2761441463
 20
-8.0021167465
 10
12.280275915
 20
-7.9868470229
 10
12.2849195816
 20
-7.9716643846
 10
12.2900723834
 20
-7.9565946982
 10
12.295735847
 20
-7.9416487159
 10
12.301898774
 20
-7.9268675666
 10
12.3085567884
 20
-7.9122691886
 10
12.3157052109
 20
-7.8978707256
 10
12.3233271328
 20
-7.8837100752
 10
12.3314137402
 20
-7.8698045929
 10
12.3399570904
 20
-7.8561688374
 10
12.3489370763
 20
-7.8428340828
 10
12.3583422451
 20
-7.8298148071
 10
12.3681611348
 20
-7.8171244434
 10
12.3783699046
 20
-7.8047900334
 10
12.3889546815
 20
-7.7928233099
 10
12.39990121
 20
-7.7812355315
 10
12.4111817948
 20
-7.7700500096
 10
12.4227814194
 20
-7.7592746583
 10
12.4346826986
 20
-7.7489188509
 10
12.4468511943
 20
-7.7390043936
 10
12.4592695636
 20
-7.7295361023
 10
12.471918873
 20
-7.7205193243
 10
12.4847591208
 20
-7.7119721089
 10
12.4977632019
 20
-7.7039002782
 10
12.5109186748
 20
-7.6962995871
 10
12.516564726
 20
-7.6932044788
  0
LWPOLYLINE
  5
352
100
AcDbEntity
  8
268
100
AcDbPolyline
 62
7
  6
CONTINUOUS
 90
7
 70
0
 10
8.8940758072
 20
-18.7279345503
 10
8.8939841991
 20
-18.7284201578
 10
8.8938450284
 20
-18.7289323056
 10
8.893658295
 20
-18.7294709936
 10
8.8934239988
 20
-18.730036222
 10
8.89314214
 20
-18.7306279906
 10
8.8928127186
 20
-18.7312462995
  0
LINE
  5
353
100
AcDbEntity
  8
218_STAMPATO
100
AcDbLine
 62
7
  6
CONTINUOUS
 10
19.0014971407
 20
12.3271832657
 11
19.0015183531
 21
12.3272407464
  0
LINE
  5
354
100
AcDbEntity
  8
218_STAMPATO
100
AcDbLine
 62
250
  6
CONTINUOUS
 10
19.0088624085
 20
0.3724987145
 11
19.000517126
 21
0.3649136517
  0
LWPOLYLINE
  5
355
100
AcDbEntity
  8
218_STAMPATO
100
AcDbPolyline
 62
250
  6
CONTINUOUS
 90
56
 70
0
 10
18.7198569263
 20
0.6096994554
 10
18.7256684393
 20
0.6148975254
 10
18.7314592376
 20
0.6198781736
 10
18.7372280837
 20
0.6246415685
 10
18.7429687641
 20
0.6291904346
 10
18.7486850713
 20
0.6335223217
 10
18.7543903302
 20
0.637629817
 10
18.7600848692
 20
0.6415162397
 10
18.7657648354
 20
0.64517894
 10
18.7714365614
 20
0.6486018372
 10
18.7770996787
 20
0.6517865867
 10
18.7827503434
 20
0.654732359
 10
18.7883892705
 20
0.6574194781
 10
18.7940131539
 20
0.6598477102
 10
18.7996207393
 20
0.6620181003
 10
18.805215451
 20
0.6639129935
 10
18.8107839844
 20
0.6655330299
 10
18.8163346667
 20
0.6668783722
 10
18.8219015855
 20
0.667931246
 10
18.8274686415
 20
0.6687019959
 10
18.8330435861
 20
0.6691820425
 10
18.8386914471
 20
0.6693268026
 10
18.8444140784
 20
0.6691499185
 10
18.8501930751
 20
0.6686417765
 10
18.8560574482
 20
0.6677245847
 10
18.8620173261
 20
0.6663949469
 10
18.8680391959
 20
0.6646615854
 10
18.874085538
 20
0.6624650057
 10
18.8801497168
 20
0.6597917048
 10
18.8862163359
 20
0.6566591116
 10
18.8922384917
 20
0.6530528517
 10
18.8981889908
 20
0.6489785188
 10
18.9040777794
 20
0.6444322972
 10
18.9099143427
 20
0.6393852714
 10
18.9156796341
 20
0.6338493641
 10
18.9213701224
 20
0.627814826
 10
18.9270123934
 20
0.6212213503
 10
18.9325940394
 20
0.6140681489
 10
18.938093488
 20
0.6063593166
 10
18.9435157608
 20
0.5980430637
 10
18.9488496304
 20
0.5890983542
 10
18.9540619316
 20
0.5795495592
 10
18.9591220502
 20
0.5694129843
 10
18.9639965077
 20
0.5587089228
 10
18.9686753642
 20
0.5474179698
 10
18.9731584706
 20
0.5354969131
 10
18.9774107493
 20
0.5229626699
 10
18.9814084604
 20
0.5097984744
 10
18.9851515922
 20
0.4959116739
 10
18.9885952416
 20
0.4813066321
 10
18.9916971289
 20
0.4659777779
 10
18.9944347654
 20
0.449818473
 10
18.9967509862
 20
0.4327690917
 10
18.998572553
 20
0.4148840899
 10
18.9998330661
 20
0.396227044
 10
19.0004616484
 20
0.3766745049
  0
LWPOLYLINE
  5
356
100
AcDbEntity
  8
218_STAMPATO
100
AcDbPolyline
 62
250
  6
CONTINUOUS
 90
31
 70
0
 10
18.4821694003
 20
-4.4745320764
 10
18.4967095484
 20
-4.465858406
 10
18.5108730359
 20
-4.4565261094
 10
18.5246491109
 20
-4.4465422705
 10
18.5380273153
 20
-4.4359144682
 10
18.5509974937
 20
-4.4246507696
 10
18.5635498
 20
-4.412759725
 10
18.5756747052
 20
-4.4002503609
 10
18.5873630052
 20
-4.3871321732
 10
18.5986058269
 20
-4.3734151198
 10
18.6093946357
 20
-4.3591096134
 10
18.6197212413
 20
-4.3442265134
 10
18.6295778048
 20
-4.3287771176
 10
18.6389568435
 20
-4.3127731539
 10
18.6478512378
 20
-4.2962267709
 10
18.6562542355
 20
-4.279150529
 10
18.6641594579
 20
-4.2615573911
 10
18.6715609037
 20
-4.2434607125
 10
18.6784529546
 20
-4.2248742301
 10
18.6848303784
 20
-4.2058120535
 10
18.690688334
 20
-4.1862886527
 10
18.6960223745
 20
-4.1663188482
 10
18.7008284507
 20
-4.1459177996
 10
18.705102914
 20
-4.1251009936
 10
18.7088425199
 20
-4.1038842323
 10
18.7120444293
 20
-4.0822836217
 10
18.7147062118
 20
-4.0603155583
 10
18.7168258468
 20
-4.037996719
 10
18.7184017249
 20
-4.0153440485
 10
18.7194326501
 20
-3.9923747436
 10
18.7199178399
 20
-3.9691062399
  0
LWPOLYLINE
  5
357
100
AcDbEntity
  8
218_STAMPATO
100
AcDbPolyline
 62
7
  6
CONTINUOUS
 90
41
 70
0
 10
18.4753394048
 20
-4.4783087182
 10
18.4914595792
 20
-4.4694190193
 10
18.5146891765
 20
-4.455914081
 10
18.537563016
 20
-4.441780044
 10
18.5600627447
 20
-4.4270265693
 10
18.5821673565
 20
-4.411666017
 10
18.6038638157
 20
-4.3957060258
 10
18.6251455398
 20
-4.3791491271
 10
18.646002697
 20
-4.36199948
 10
18.6664109015
 20
-4.3442735822
 10
18.6863423188
 20
-4.3259933274
 10
18.7057745168
 20
-4.3071783626
 10
18.7246998118
 20
-4.2878351923
 10
18.743113001
 20
-4.2679667906
 10
18.7610011967
 20
-4.2475836032
 10
18.7783470401
 20
-4.2267018555
 10
18.795138081
 20
-4.2053328858
 10
18.8113605168
 20
-4.1834902004
 10
18.8269996463
 20
-4.1611893974
 10
18.842041977
 20
-4.1384454205
 10
18.8564741713
 20
-4.1152739538
 10
18.8702833545
 20
-4.0916910037
 10
18.8834572707
 20
-4.0677125859
 10
18.895983914
 20
-4.0433553471
 10
18.9078515147
 20
-4.0186367051
 10
18.9190488045
 20
-3.9935744013
 10
18.9295653348
 20
-3.9681856965
 10
18.9393905191
 20
-3.9424896357
 10
18.9485137995
 20
-3.9165072489
 10
18.9569266452
 20
-3.8902558352
 10
18.9646198555
 20
-3.8637565372
 10
18.9715834738
 20
-3.837036873
 10
18.9778086891
 20
-3.8101260498
 10
18.9832916906
 20
-3.7830354438
 10
18.9880298884
 20
-3.7557660397
 10
18.992019024
 20
-3.7283192373
 10
18.9952493225
 20
-3.7007348552
 10
18.9977123091
 20
-3.6730719666
 10
18.9994049877
 20
-3.645376137
 10
19.0003285787
 20
-3.6176450256
 10
19.000517126
 20
-3.5982255355
  0
LINE
  5
358
100
AcDbEntity
  8
218_STAMPATO
100
AcDbLine
 62
250
  6
CONTINUOUS
 10
18.7198569263
 20
-3.9455562006
 11
11.9806443182
 21
-7.5815160117
  0
LINE
  5
359
100
AcDbEntity
  8
218_STAMPATO
100
AcDbLine
 62
7
  6
CONTINUOUS
 10
18.4753409465
 20
-4.4783078864
 11
12.5163904635
 21
-7.6932983804
  0
LWPOLYLINE
  5
35A
100
AcDbEntity
  8
218_STAMPATO
100
AcDbPolyline
 62
250
  6
CONTINUOUS
 90
29
 70
0
 10
18.7198569263
 20
-3.9455562006
 10
18.7385182417
 20
-3.9356267609
 10
18.7566315053
 20
-3.9254467601
 10
18.7741832657
 20
-3.9150237579
 10
18.7911604891
 20
-3.904365494
 10
18.8075505667
 20
-3.8934798839
 10
18.8233413245
 20
-3.8823750131
 10
18.8385210351
 20
-3.8710591287
 10
18.8530784266
 20
-3.8595406338
 10
18.8670026883
 20
-3.8478280822
 10
18.88028348
 20
-3.8359301719
 10
18.8929109389
 20
-3.8238557385
 10
18.9048756874
 20
-3.8116137491
 10
18.9161688402
 20
-3.7992132949
 10
18.926782011
 20
-3.7866635848
 10
18.9367073183
 20
-3.7739739385
 10
18.9459373913
 20
-3.7611537796
 10
18.9544653758
 20
-3.7482126287
 10
18.9622849386
 20
-3.7351600964
 10
18.969390273
 20
-3.7220058758
 10
18.9757761025
 20
-3.7087597355
 10
18.9814376849
 20
-3.6954315126
 10
18.9863708161
 20
-3.6820311049
 10
18.9905718328
 20
-3.668568464
 10
18.9940376153
 20
-3.6550535877
 10
18.9967655903
 20
-3.6414965124
 10
18.9987537319
 20
-3.6279073059
 10
19.0000005642
 20
-3.6142960601
 10
19.0004891733
 20
-3.6011045313
  0
LWPOLYLINE
  5
35B
100
AcDbEntity
  8
218_STAMPATO
100
AcDbPolyline
 62
250
  6
CONTINUOUS
 90
28
 70
0
 10
12.5165590007
 20
-7.6932074507
 10
12.513793517
 20
-7.6944613993
 10
12.5093654192
 20
-7.695810831
 10
12.5039028688
 20
-7.6968499135
 10
12.4973652101
 20
-7.6975512455
 10
12.4897267864
 20
-7.6978828941
 10
12.4809199183
 20
-7.6978379358
 10
12.4709036817
 20
-7.6973945285
 10
12.459647598
 20
-7.6965243106
 10
12.447099135
 20
-7.695214098
 10
12.433210614
 20
-7.6934465613
 10
12.4179522165
 20
-7.6911974301
 10
12.4012980208
 20
-7.6884471408
 10
12.3831830708
 20
-7.6851838672
 10
12.3635904143
 20
-7.6813897941
 10
12.3425715813
 20
-7.6770466494
 10
12.320088121
 20
-7.6721604714
 10
12.2961065229
 20
-7.6667222625
 10
12.2706940837
 20
-7.6607034686
 10
12.2437933507
 20
-7.6541132018
 10
12.215394425
 20
-7.6469575569
 10
12.1856462469
 20
-7.6392155029
 10
12.1544893845
 20
-7.6309052432
 10
12.1219321077
 20
-7.6220485906
 10
12.0882464984
 20
-7.6126479473
 10
12.0535236129
 20
-7.6027312639
 10
12.0176584698
 20
-7.5923418371
 10
11.9806443522
 20
-7.5815159933
  0
LINE
  5
35C
100
AcDbEntity
  8
268
100
AcDbLine
 62
7
  6
CONTINUOUS
 10
2.0375858221
 20
12.0663950892
 11
2.455982769
 21
11.8571966158
  0
LINE
  5
35D
100
AcDbEntity
  8
268
100
AcDbLine
 62
7
  6
CONTINUOUS
 10
-14.1256712498
 20
21.1070429957
 11
1.6428099706
 21
13.2228023854
  0
LINE
  5
35E
100
AcDbEntity
  8
268
100
AcDbLine
 62
7
  6
CONTINUOUS
 10
1.3953225972
 20
13.6740620106
 11
-13.8781838764
 21
21.3108152475
  0
LINE
  5
35F
100
AcDbEntity
  8
268
100
AcDbLine
 62
7
  6
CONTINUOUS
 10
1.9548372818
 20
14.1089691387
 11
0.3408331658
 21
14.9159711967
  0
LINE
  5
360
100
AcDbEntity
  8
268
100
AcDbLine
 62
7
  6
CONTINUOUS
 10
-11.4094808826
 20
20.7911282209
 11
-13.0234849986
 21
21.5981302789
  0
LWPOLYLINE
  5
361
100
AcDbEntity
  8
218_STAMPATO
100
AcDbPolyline
 62
7
  6
CONTINUOUS
 90
16
 70
0
 10
18.7198569263
 20
0.6096992423
 10
18.7264050063
 20
0.6201159788
 10
18.7331465076
 20
0.6303910065
 10
18.7400814303
 20
0.6405243256
 10
18.747210756
 20
0.6505309868
 10
18.7545335031
 20
0.6603959392
 10
18.7620467262
 20
0.6700740307
 10
18.7697560926
 20
0.6795654531
 10
18.7776559351
 20
0.6888700145
 10
18.7857263069
 20
0.6979419873
 10
18.7939710328
 20
0.7067785317
 10
18.802386288
 20
0.7153824874
 10
18.8109406511
 20
0.7237166456
 10
18.8196236483
 20
0.7317686034
 10
18.8284457535
 20
0.7395507637
 10
18.8374069665
 20
0.7470631265
  0
LINE
  5
362
100
AcDbEntity
  8
268
100
AcDbLine
 62
7
  6
CONTINUOUS
 10
-0.2742856692
 20
-25.2451224
 11
0.304504671
 21
-24.5406786698
  0
LINE
  5
363
100
AcDbEntity
  8
268
100
AcDbLine
 62
7
  6
CONTINUOUS
 10
1.9548372818
 20
14.7461386975
 11
1.3325192497
 21
14.87607928
  0
LINE
  5
364
100
AcDbEntity
  8
268
100
AcDbLine
 62
7
  6
CONTINUOUS
 10
-8.0770250019
 20
19.4822325158
 11
-2.2845159338
 21
16.5859779817
  0
LINE
  5
365
100
AcDbEntity
  8
268
100
AcDbLine
 62
7
  6
CONTINUOUS
 10
-13.6618832069
 20
22.3696603587
 11
-12.0553496439
 21
21.5663935772
  0
LINE
  5
366
100
AcDbEntity
  8
268
100
AcDbLine
 62
7
  6
CONTINUOUS
 10
-0.2975650425
 20
15.6875012765
 11
1.3089685206
 21
14.884234495
  0
LINE
  5
367
100
AcDbEntity
  8
268
100
AcDbLine
 62
250
  6
CONTINUOUS
 10
-13.7264779529
 20
22.5046895336
 11
-12.1207014907
 21
21.7018013025
  0
LINE
  5
368
100
AcDbEntity
  8
268
100
AcDbLine
 62
250
  6
CONTINUOUS
 10
-0.3621597885
 20
15.8225304514
 11
1.2436166737
 21
15.0196422203
  0
LINE
  5
369
100
AcDbEntity
  8
268
100
AcDbLine
 62
250
  6
CONTINUOUS
 10
1.2436166737
 20
15.2730136141
 11
-0.3621597885
 21
16.0759018452
  0
LINE
  5
36A
100
AcDbEntity
  8
268
100
AcDbLine
 62
250
  6
CONTINUOUS
 10
-12.1207014907
 20
21.9551726963
 11
-13.7264779529
 21
22.7580609274
  0
LINE
  5
36B
100
AcDbEntity
  8
268
100
AcDbLine
 62
7
  6
CONTINUOUS
 10
-10.3426499705
 20
21.3297094705
 11
-8.1648929675
 21
20.240830969
  0
LINE
  5
36C
100
AcDbEntity
  8
268
100
AcDbLine
 62
7
  6
CONTINUOUS
 10
-1.3623938494
 20
16.8395814099
 11
-0.2812718983
 21
16.2990204344
  0
LINE
  5
36D
100
AcDbEntity
  8
268
100
AcDbLine
 62
7
  6
CONTINUOUS
 10
3.0216681939
 20
14.6475503882
 11
3.1630895502
 21
14.5768397101
  0
LINE
  5
36E
100
AcDbEntity
  8
268
100
AcDbLine
 62
250
  6
CONTINUOUS
 10
1.4203874031
 20
15.5768791923
 11
-0.187434006
 21
16.3807898968
  0
LINE
  5
36F
100
AcDbEntity
  8
268
100
AcDbLine
 62
250
  6
CONTINUOUS
 10
-11.9439307613
 20
22.2590382745
 11
-13.5517521704
 21
23.0629489791
  0
LINE
  5
370
100
AcDbEntity
  8
268
100
AcDbLine
 62
7
  6
CONTINUOUS
 10
-8.0770250019
 20
20.6971873818
 11
-2.2845159338
 21
17.8009328478
  0
LINE
  5
371
100
AcDbEntity
  8
268
100
AcDbLine
 62
7
  6
CONTINUOUS
 10
3.8701963314
 20
14.9228354115
 11
3.0704643075
 21
15.3227014234
  0
LINE
  5
372
100
AcDbEntity
  8
268
100
AcDbLine
 62
7
  6
CONTINUOUS
 10
-8.8113758535
 20
21.2636215039
 11
-10.2938538569
 21
22.0048605056
  0
LINE
  5
373
100
AcDbEntity
  8
268
100
AcDbLine
 62
7
  6
CONTINUOUS
 10
-7.5849335239
 20
21.1632868124
 11
-1.3623938494
 21
18.0520169752
  0
LINE
  5
374
100
AcDbEntity
  8
268
100
AcDbLine
 62
7
  6
CONTINUOUS
 10
-11.9689955672
 20
23.8749330764
 11
-10.3426499705
 21
23.061760278
  0
LINE
  5
375
100
AcDbEntity
  8
268
100
AcDbLine
 62
7
  6
CONTINUOUS
 10
1.3953225972
 20
17.1927739942
 11
3.0216681939
 21
16.3796011958
  0
LWPOLYLINE
  5
376
100
AcDbEntity
  8
218_STAMPATO
100
AcDbPolyline
 62
7
  6
CONTINUOUS
 90
104
 70
0
 10
19.000517126
 20
5.8373666822
 10
19.0132384709
 20
5.8281118568
 10
19.0580600827
 20
5.7942435353
 10
19.1025439297
 20
5.7593686231
 10
19.1467015897
 20
5.7234838356
 10
19.1905321668
 20
5.6865936445
 10
19.2340039192
 20
5.6487283108
 10
19.2770815397
 20
5.6099234742
 10
19.3197444604
 20
5.5702034523
 10
19.3619821672
 20
5.5295836485
 10
19.4037746686
 20
5.4880887191
 10
19.4451007946
 20
5.4457454491
 10
19.4859515483
 20
5.4025686649
 10
19.5263246701
 20
5.3585652883
 10
19.5662154938
 20
5.3137436059
 10
19.6055979663
 20
5.2681359292
 10
19.6444378916
 20
5.2217863071
 10
19.6827067899
 20
5.1747348425
 10
19.7204054164
 20
5.1269866008
 10
19.7575431537
 20
5.0785334393
 10
19.794118856
 20
5.0293782998
 10
19.8301040516
 20
4.9795607254
 10
19.8654670029
 20
4.9291276854
 10
19.9001842905
 20
4.8781172433
 10
19.9342533135
 20
4.8265377686
 10
19.9676738854
 20
4.7743924039
 10
20.0004378571
 20
4.7216952947
 10
20.0325265547
 20
4.6684777386
 10
20.0639236916
 20
4.6147684955
 10
20.0946150357
 20
4.5605938989
 10
20.1245899693
 20
4.5059745186
 10
20.1538380031
 20
4.4509308393
 10
20.1823466069
 20
4.3954875324
 10
20.2101045439
 20
4.3396673537
 10
20.2371032261
 20
4.2834879114
 10
20.2633318872
 20
4.2269713167
 10
20.2887783701
 20
4.1701432299
 10
20.3134320762
 20
4.1130265583
 10
20.3372825954
 20
4.0556442552
 10
20.360318798
 20
3.9980216316
 10
20.3825294672
 20
3.9401851531
 10
20.4039019329
 20
3.882166459
 10
20.4244292835
 20
3.8239826066
 10
20.4441086071
 20
3.7656379563
 10
20.4629353864
 20
3.7071388956
 10
20.4808935627
 20
3.6485276312
 10
20.4979639902
 20
3.5898620774
 10
20.5141318609
 20
3.5311926241
 10
20.5293973176
 20
3.472517801
 10
20.5437635897
 20
3.4138174715
 10
20.5572277806
 20
3.3550878557
 10
20.5697738511
 20
3.2963816527
 10
20.5813855933
 20
3.237762949
 10
20.5920524988
 20
3.1792788378
 10
20.6017730446
 20
3.120930457
 10
20.6105454291
 20
3.0627124067
 10
20.6183645626
 20
3.0046321614
 10
20.6252207882
 20
2.9467307787
 10
20.6311054573
 20
2.889052608
 10
20.6360128759
 20
2.8316239992
 10
20.6399380606
 20
2.7744660508
 10
20.6428754633
 20
2.7176139821
 10
20.6448206122
 20
2.6611009389
 10
20.6457701098
 20
2.6049399714
 10
20.6457199767
 20
2.5491354257
 10
20.6446646634
 20
2.4936769965
 10
20.6425994768
 20
2.4386219651
 10
20.6395254601
 20
2.3840735205
 10
20.6354470346
 20
2.3300993406
 10
20.6303625643
 20
2.2766721349
 10
20.6242651967
 20
2.2237512768
 10
20.6171429709
 20
2.1712944331
 10
20.609000415
 20
2.1193894144
 10
20.599859781
 20
2.0681872971
 10
20.5897395567
 20
2.0177657179
 10
20.5786351083
 20
1.9680792171
 10
20.5665385381
 20
1.91909076
 10
20.5534390226
 20
1.8707706828
 10
20.5393512453
 20
1.8231870403
 10
20.524308147
 20
1.776446916
 10
20.5083264588
 20
1.730585434
 10
20.491408716
 20
1.685594561
 10
20.4735740018
 20
1.6415107907
 10
20.4548379856
 20
1.598356198
 10
20.4352081685
 20
1.5561326047
 10
20.4146928799
 20
1.5148452094
 10
20.3932840181
 20
1.4744701713
 10
20.3710117158
 20
1.4350573296
 10
20.3479489062
 20
1.3967163109
 10
20.3241560046
 20
1.3595139378
 10
20.2996151785
 20
1.3233901124
 10
20.2742834772
 20
1.288264093
 10
20.2481435528
 20
1.2541063839
 10
20.2212404713
 20
1.2209706025
 10
20.1936228019
 20
1.1889044648
 10
20.1653256383
 20
1.1579320122
 10
20.1363535162
 20
1.1280418975
 10
20.1067122331
 20
1.0992268802
 10
20.0764241914
 20
1.071496734
 10
20.0455069476
 20
1.0448556791
 10
20.013957734
 20
1.0192916082
 10
19.9817884337
 20
0.9948067946
 10
19.9490269311
 20
0.9714150709
 10
19.9156939126
 20
0.9491232254
  0
LINE
  5
377
100
AcDbEntity
  8
218_STAMPATO
100
AcDbLine
 62
250
  6
CONTINUOUS
 10
8.9040375257
 20
21.2011769199
 11
9.2980234596
 21
20.1790211018
  0
LINE
  5
378
100
AcDbEntity
  8
218_STAMPATO
100
AcDbLine
 62
7
  6
CONTINUOUS
 10
19.0014970174
 20
0.3760323807
 11
19.0015182578
 21
0.3760899391
  0
LINE
  5
379
100
AcDbEntity
  8
268
100
AcDbLine
 62
7
  6
CONTINUOUS
 10
1.3325192497
 20
-26.0485248594
 11
1.9548372818
 21
-25.3034654419
  0
LINE
  5
37A
100
AcDbEntity
  8
268
100
AcDbLine
 62
250
  6
CONTINUOUS
 10
0.4503577526
 20
-19.6951714445
 11
-0.6165042871
 21
-20.1878836891
  0
LINE
  5
37B
100
AcDbEntity
  8
268
100
AcDbLine
 62
7
  6
CONTINUOUS
 10
0.2495041667
 20
-20.2089405012
 11
-0.6525161016
 21
-20.625523353
  0
LWPOLYLINE
  5
37C
100
AcDbEntity
  8
218_STAMPATO
100
AcDbPolyline
 62
7
  6
CONTINUOUS
 90
21
 70
0
 10
-2.3540021158
 20
20.5546716712
 10
-2.3658391601
 20
20.5601457024
 10
-2.3776100522
 20
20.5651637305
 10
-2.3893022423
 20
20.5697200418
 10
-2.4009023836
 20
20.5738095567
 10
-2.4123987936
 20
20.5774275624
 10
-2.4237814525
 20
20.5805695676
 10
-2.4350377026
 20
20.5832319718
 10
-2.4461554365
 20
20.5854115611
 10
-2.457125518
 20
20.5871049619
 10
-2.4679355926
 20
20.5883101206
 10
-2.4785736883
 20
20.5890252945
 10
-2.4890313376
 20
20.5892481498
 10
-2.4992961108
 20
20.5889782366
 10
-2.5093567652
 20
20.5882154041
 10
-2.5192067201
 20
20.5869582866
 10
-2.5288347808
 20
20.5852077987
 10
-2.5382291936
 20
20.5829653045
 10
-2.5473827676
 20
20.580230884
 10
-2.556282625
 20
20.5770080703
 10
-2.5645877976
 20
20.5734534216
  0
LWPOLYLINE
  5
37D
100
AcDbEntity
  8
218_STAMPATO
100
AcDbPolyline
 62
7
  6
CONTINUOUS
 90
64
 70
0
 10
-1.2734461167
 20
20.6856615135
 10
-1.2838873686
 20
20.6907569963
 10
-1.3013934502
 20
20.6987642854
 10
-1.319370788
 20
20.7063399433
 10
-1.3377878919
 20
20.7134777778
 10
-1.3566356862
 20
20.7201835028
 10
-1.3759266558
 20
20.7264704004
 10
-1.3956381309
 20
20.7323398737
 10
-1.4157476494
 20
20.7377951354
 10
-1.4362638172
 20
20.7428479108
 10
-1.4571345381
 20
20.7474950644
 10
-1.4783713737
 20
20.7517488315
 10
-1.5000765054
 20
20.7556341624
 10
-1.5222014087
 20
20.7591439354
 10
-1.544764827
 20
20.7622824695
 10
-1.5679705846
 20
20.7650719978
 10
-1.5918950142
 20
20.7675069878
 10
-1.6164382654
 20
20.7695626182
 10
-1.6415379028
 20
20.7712225651
 10
-1.6672967298
 20
20.7724804715
 10
-1.6935841651
 20
20.7733163803
 10
-1.7199843735
 20
20.7737159625
 10
-1.7464603645
 20
20.77368703
 10
-1.7730217922
 20
20.773236639
 10
-1.7993236217
 20
20.7723836911
 10
-1.8252757479
 20
20.7711521667
 10
-1.8509501087
 20
20.7695580788
 10
-1.8762470353
 20
20.7676258609
 10
-1.9011466301
 20
20.7653762741
 10
-1.9256577041
 20
20.7628266017
 10
-1.9497245776
 20
20.7600004619
 10
-1.9733286022
 20
20.756918295
 10
-1.9964833453
 20
20.7535957409
 10
-2.019181521
 20
20.7500503342
 10
-2.0414154534
 20
20.7462993659
 10
-2.0631911829
 20
20.7423573565
 10
-2.0845208996
 20
20.7382368111
 10
-2.1054050151
 20
20.7339517246
 10
-2.1258430783
 20
20.729515926
 10
-2.1458443458
 20
20.7249407055
 10
-2.1654110928
 20
20.7202384115
 10
-2.1845417985
 20
20.7154220819
 10
-2.2032383447
 20
20.710503763
 10
-2.2215104048
 20
20.7054931214
 10
-2.2393492568
 20
20.7004046607
 10
-2.2567282457
 20
20.6952586103
 10
-2.2736353306
 20
20.6900717226
 10
-2.2900852589
 20
20.6848525491
 10
-2.3060901564
 20
20.6796098413
 10
-2.3216298373
 20
20.6743628876
 10
-2.3367257247
 20
20.6691170646
 10
-2.3514474652
 20
20.6638594138
 10
-2.3657936099
 20
20.6586007349
 10
-2.3797587643
 20
20.6533534315
 10
-2.3933990855
 20
20.648106197
 10
-2.4066972705
 20
20.6428750539
 10
-2.4196533855
 20
20.6376696779
 10
-2.4323395828
 20
20.6324700185
 10
-2.444718398
 20
20.6273001414
 10
-2.4567905926
 20
20.6221690892
 10
-2.4686680512
 20
20.617037722
 10
-2.4803045729
 20
20.6119341492
 10
-2.4916668532
 20
20.6068824087
 10
-2.5138605942
 20
20.5968424463
  0
LINE
  5
37E
100
AcDbEntity
  8
268
100
AcDbLine
 62
7
  6
CONTINUOUS
 10
-6.2414306396
 20
21.1936037631
 11
-1.2916831713
 21
18.7187300289
  0
LINE
  5
37F
100
AcDbEntity
  8
268
100
AcDbLine
 62
250
  6
CONTINUOUS
 10
-11.4345456885
 20
24.135280543
 11
-9.8143827987
 21
23.3251990981
  0
LINE
  5
380
100
AcDbEntity
  8
268
100
AcDbLine
 62
250
  6
CONTINUOUS
 10
1.9297724759
 20
17.4531214607
 11
3.5499353657
 21
16.6430400159
  0
LINE
  5
381
100
AcDbEntity
  8
268
100
AcDbLine
 62
7
  6
CONTINUOUS
 10
-11.3231280732
 20
24.1415491062
 11
-9.704250495
 21
23.3321103171
  0
LINE
  5
382
100
AcDbEntity
  8
268
100
AcDbLine
 62
7
  6
CONTINUOUS
 10
2.0411900912
 20
17.459390024
 11
3.6600676694
 21
16.6499512349
  0
LINE
  5
383
100
AcDbEntity
  8
218_STAMPATO
100
AcDbLine
 62
7
  6
CONTINUOUS
 10
-2.352397191
 20
20.5538851455
 11
0.022478809
 21
19.3664471455
  0
LINE
  5
384
100
AcDbEntity
  8
218_STAMPATO
100
AcDbLine
 62
250
  6
CONTINUOUS
 10
0.6502438138
 20
19.675856598
 11
-1.3629836406
 21
20.6824567057
  0
LINE
  5
385
100
AcDbEntity
  8
218_STAMPATO
100
AcDbLine
 62
7
  6
CONTINUOUS
 10
0.698547952
 20
19.6996644829
 11
-1.2734497755
 21
20.6856633467
  0
LWPOLYLINE
  5
386
100
AcDbEntity
  8
268
100
AcDbPolyline
 62
7
  6
CONTINUOUS
 90
20
 70
0
 10
8.8920957999
 20
18.2131515766
 10
8.8906956482
 20
18.2152826413
 10
8.8889492219
 20
18.2175910887
 10
8.886867612
 20
18.2200807278
 10
8.8844626476
 20
18.2227581706
 10
8.8817425557
 20
18.2255933866
 10
8.8787176245
 20
18.228589913
 10
8.8753991231
 20
18.2317529912
 10
8.8717949662
 20
18.2350549836
 10
8.8679151093
 20
18.2384989663
 10
8.8637704378
 20
18.2420892107
 10
8.8593692051
 20
18.2457997103
 10
8.8547208666
 20
18.2496333022
 10
8.8498364126
 20
18.2535931758
 10
8.8447260243
 20
18.2576535961
 10
8.8393991492
 20
18.2618168113
 10
8.8338669459
 20
18.2660851828
 10
8.8281424746
 20
18.2704326823
 10
8.8222372912
 20
18.2748515645
 10
8.8099242396
 20
18.2839366541
  0
LINE
  5
387
100
AcDbEntity
  8
218_STAMPATO
100
AcDbLine
 62
7
  6
CONTINUOUS
 10
10.4356952011
 20
16.0497342507
 11
9.3524999316
 21
17.9179697366
  0
LINE
  5
388
100
AcDbEntity
  8
715
100
AcDbLine
 62
7
  6
CONTINUOUS
 10
10.7255705003
 20
18.7770761399
 11
10.5240711423
 21
19.3728005657
  0
LINE
  5
389
100
AcDbEntity
  8
218_STAMPATO
100
AcDbLine
 62
250
  6
CONTINUOUS
 10
19.000425231
 20
12.3300626715
 11
19.0005167405
 21
12.3206550879
  0
LWPOLYLINE
  5
38A
100
AcDbEntity
  8
218_STAMPATO
100
AcDbPolyline
 62
7
  6
CONTINUOUS
 90
31
 70
0
 10
19.0005171151
 20
18.4879541691
 10
19.0002298234
 20
18.5225218045
 10
18.9990927521
 20
18.5650129046
 10
18.9970986759
 20
18.6075677096
 10
18.9942539242
 20
18.6501914305
 10
18.9905659813
 20
18.6928635795
 10
18.986045788
 20
18.7355346453
 10
18.9807013037
 20
18.7781985244
 10
18.974539781
 20
18.8208474581
 10
18.9675757616
 20
18.8634273405
 10
18.9598178491
 20
18.9059315897
 10
18.9512735673
 20
18.9483536146
 10
18.9419612687
 20
18.990637709
 10
18.9318904865
 20
19.0327750968
 10
18.9210688825
 20
19.0747615143
 10
18.9095166694
 20
19.1165466335
 10
18.8972458976
 20
19.1581141986
 10
18.884262548
 20
19.1994677138
 10
18.8705797179
 20
19.2405852055
 10
18.856206489
 20
19.2814569504
 10
18.8411494032
 20
19.3220793829
 10
18.825417931
 20
19.3624384402
 10
18.8090188405
 20
19.4025269974
 10
18.7919579808
 20
19.4423381006
 10
18.7742440815
 20
19.4818570577
 10
18.7558829786
 20
19.5210755413
 10
18.7368790274
 20
19.559986275
 10
18.7172390223
 20
19.5985765097
 10
18.6969673116
 20
19.6368371775
 10
18.6760670021
 20
19.6747607015
 10
18.6585496715
 20
19.7054489557
  0
LINE
  5
38B
100
AcDbEntity
  8
218_STAMPATO
100
AcDbLine
 62
250
  6
CONTINUOUS
 10
19.0004616484
 20
0.3766745049
 11
19.0005167549
 21
0.3694971272
  0
LINE
  5
38C
100
AcDbEntity
  8
218_STAMPATO
100
AcDbLine
 62
250
  6
CONTINUOUS
 10
18.7199178399
 20
-3.9691062399
 11
18.7198569263
 21
0.6096992423
  0
LINE
  5
38D
100
AcDbEntity
  8
218_STAMPATO
100
AcDbLine
 62
250
  6
CONTINUOUS
 10
18.7198569263
 20
2.3821681411
 11
18.7198569263
 21
12.5608498055
  0
LINE
  5
38E
100
AcDbEntity
  8
218_STAMPATO
100
AcDbLine
 62
250
  6
CONTINUOUS
 10
18.7198569263
 20
14.3333187229
 11
18.7198569263
 21
18.1407170012
  0
LINE
  5
38F
100
AcDbEntity
  8
218_STAMPATO
100
AcDbLine
 62
7
  6
CONTINUOUS
 10
19.000517126
 20
-3.5982270154
 11
19.0005167549
 21
0.3694971272
  0
LINE
  5
390
100
AcDbEntity
  8
218_STAMPATO
100
AcDbLine
 62
7
  6
CONTINUOUS
 10
19.000517126
 20
18.4879667185
 11
19.0005167247
 21
15.2672638349
  0
LINE
  5
391
100
AcDbEntity
  8
218_STAMPATO
100
AcDbLine
 62
7
  6
CONTINUOUS
 10
19.0005167405
 20
12.3206550879
 11
19.0005167563
 21
3.3161696286
  0
LWPOLYLINE
  5
392
100
AcDbEntity
  8
218_STAMPATO
100
AcDbPolyline
 62
250
  6
CONTINUOUS
 90
57
 70
0
 10
19.0005167563
 20
3.3161696286
 10
19.0004632508
 20
3.2995845052
 10
18.9998378858
 20
3.2535437276
 10
18.9985790625
 20
3.2094900655
 10
18.9967576286
 20
3.1671818799
 10
18.9944403574
 20
3.1266684122
 10
18.9917008731
 20
3.0880736969
 10
18.9885964343
 20
3.0512788855
 10
18.9851497135
 20
3.0159679681
 10
18.98140327
 20
2.9821265808
 10
18.9774020732
 20
2.9497702865
 10
18.9731458606
 20
2.9186288901
 10
18.9686583543
 20
2.8886599213
 10
18.9639747146
 20
2.8599057047
 10
18.9590947935
 20
2.8322243416
 10
18.9540279752
 20
2.8055526921
 10
18.9488081886
 20
2.779953036
 10
18.9434673984
 20
2.7554716091
 10
18.9380394628
 20
2.7321620952
 10
18.9325352913
 20
2.7099674162
 10
18.9269498631
 20
2.6887676187
 10
18.9213050255
 20
2.6685747003
 10
18.9156131618
 20
2.6493733046
 10
18.9098471507
 20
2.6310036554
 10
18.9040104588
 20
2.6134362059
 10
18.8981222829
 20
2.5966983057
 10
18.8921728351
 20
2.5807166595
 10
18.8861521131
 20
2.565448744
 10
18.8800873921
 20
2.5509352929
 10
18.8740254395
 20
2.5372274788
 10
18.8679816981
 20
2.5243464148
 10
18.8619627581
 20
2.5122670558
 10
18.8560058313
 20
2.5009700686
 10
18.8501443422
 20
2.4904943182
 10
18.8443682088
 20
2.4807956211
 10
18.8386482927
 20
2.4717301979
 10
18.8330029107
 20
2.4632996455
 10
18.8274302544
 20
2.455498349
 10
18.8218653733
 20
2.4481733858
 10
18.8163004875
 20
2.4412972058
 10
18.8107517014
 20
2.4348956
 10
18.8051850682
 20
2.4288972315
 10
18.7995922967
 20
2.4232868537
 10
18.7939866486
 20
2.4180789114
 10
18.788364731
 20
2.4132471981
 10
18.7827278107
 20
2.4087906378
 10
18.7770791767
 20
2.4047094957
 10
18.7714181012
 20
2.4009796802
 10
18.7657484224
 20
2.3976016248
 10
18.7600705091
 20
2.3945740712
 10
18.7543780249
 20
2.3918705221
 10
18.7486748173
 20
2.3894900503
 10
18.7429605586
 20
2.3874329145
 10
18.7372219288
 20
2.3856746828
 10
18.7314551363
 20
2.3842071903
 10
18.7256663903
 20
2.3830383282
 10
18.7198569263
 20
2.3821679284
  0
LWPOLYLINE
  5
393
100
AcDbEntity
  8
218_STAMPATO
100
AcDbPolyline
 62
250
  6
CONTINUOUS
 90
57
 70
0
 10
19.0005167247
 20
15.2672638349
 10
19.0004174067
 20
15.2442241231
 10
18.9996935226
 20
15.1982177669
 10
18.998350666
 20
15.154461535
 10
18.9964637321
 20
15.1125935637
 10
18.9940896685
 20
15.0724349182
 10
18.9912916349
 20
15.0340249343
 10
18.9881272878
 20
14.9973296
 10
18.9846176348
 20
14.9620594884
 10
18.9807987694
 20
14.9281678713
 10
18.9767167626
 20
14.8957030653
 10
18.9723865026
 20
14.8645187038
 10
18.9678366643
 20
14.8345951465
 10
18.9631020631
 20
14.8059512799
 10
18.9581960424
 20
14.7784988687
 10
18.9531446676
 20
14.7522392318
 10
18.9479739313
 20
14.7271686608
 10
18.942690044
 20
14.7031917287
 10
18.9373160879
 20
14.680315775
 10
18.9318712641
 20
14.6585302281
 10
18.9263493175
 20
14.6377134483
 10
18.9207680432
 20
14.6178667876
 10
18.9151422584
 20
14.5989856743
 10
18.9094544086
 20
14.5809405888
 10
18.9037115393
 20
14.5637132206
 10
18.8979301309
 20
14.5473193257
 10
18.8921016089
 20
14.5316813813
 10
18.8862266947
 20
14.5167784804
 10
18.8803231635
 20
14.5026292575
 10
18.8744065018
 20
14.4892156558
 10
18.8684851335
 20
14.4765407415
 10
18.8625688769
 20
14.4645984453
 10
18.8566759038
 20
14.4533566429
 10
18.8508185929
 20
14.4428242442
 10
18.8450023941
 20
14.4329886816
 10
18.8392351762
 20
14.4237854063
 10
18.8335433216
 20
14.4152356251
 10
18.8279169188
 20
14.4073141778
 10
18.8223064244
 20
14.3998877929
 10
18.8167119325
 20
14.3929390598
 10
18.8111428258
 20
14.3864832623
 10
18.8055590188
 20
14.3804376191
 10
18.799951395
 20
14.374784581
 10
18.7943343437
 20
14.3695407978
 10
18.7887008495
 20
14.3646755281
 10
18.7830514899
 20
14.3601865276
 10
18.7773902653
 20
14.356075231
 10
18.7717147298
 20
14.352316593
 10
18.7660287072
 20
14.3489107425
 10
18.7603325075
 20
14.3458567662
 10
18.7546178958
 20
14.3431282355
 10
18.7488886244
 20
14.3407239396
 10
18.7431442834
 20
14.3386445111
 10
18.7373695636
 20
14.3368666215
 10
18.7315598944
 20
14.3353825328
 10
18.7257219802
 20
14.3341998579
 10
18.7198569263
 20
14.3333185006
  0
LWPOLYLINE
  5
394
100
AcDbEntity
  8
218_STAMPATO
100
AcDbPolyline
 62
7
  6
CONTINUOUS
 90
6
 70
0
 10
19.0005176437
 20
12.3200311235
 10
19.0005698302
 20
12.3218055946
 10
19.0007703614
 20
12.3238764211
 10
19.0010442822
 20
12.3254779926
 10
19.0013153974
 20
12.3265994207
 10
19.0014971407
 20
12.3271832657
  0
LWPOLYLINE
  5
395
100
AcDbEntity
  8
218_STAMPATO
100
AcDbPolyline
 62
7
  6
CONTINUOUS
 90
6
 70
0
 10
19.0005176306
 20
0.3688791699
 10
19.0005698129
 20
0.370654027
 10
19.0007702139
 20
0.3727249902
 10
19.0010441764
 20
0.3743268425
 10
19.0013152897
 20
0.3754484432
 10
19.0014970174
 20
0.3760323807
  0
LWPOLYLINE
  5
396
100
AcDbEntity
  8
218_STAMPATO
100
AcDbPolyline
 62
250
  6
CONTINUOUS
 90
34
 70
0
 10
11.6300501317
 20
-16.720666119
 10
11.6502247129
 20
-16.7019864871
 10
11.6698776455
 20
-16.6825225609
 10
11.6889997647
 20
-16.662283457
 10
11.7075819935
 20
-16.6412787544
 10
11.7256153903
 20
-16.6195185226
 10
11.7430913796
 20
-16.5970131521
 10
11.7600016053
 20
-16.5737733998
 10
11.7763380168
 20
-16.5498103112
 10
11.7920929074
 20
-16.5251352363
 10
11.8072587713
 20
-16.4997599211
 10
11.8218283681
 20
-16.473696453
 10
11.8357948098
 20
-16.4469571862
 10
11.8491514573
 20
-16.4195548223
 10
11.8618919277
 20
-16.3915024247
 10
11.8740101554
 20
-16.3628133604
 10
11.8855003822
 20
-16.3335012755
 10
11.8963571336
 20
-16.3035801203
 10
11.9065752262
 20
-16.2730641641
 10
11.9161498099
 20
-16.2419679412
 10
11.9250763398
 20
-16.2103062264
 10
11.9333505534
 20
-16.1780940601
 10
11.9409685381
 20
-16.1453467557
 10
11.9479266796
 20
-16.1120798872
 10
11.9542216304
 20
-16.0783092618
 10
11.9598504348
 20
-16.0440508747
 10
11.9648104201
 20
-16.0093210644
 10
11.9690991469
 20
-15.9741365015
 10
11.9727146099
 20
-15.9385140113
 10
11.975655135
 20
-15.9024704277
 10
11.97791926
 20
-15.866022743
 10
11.979505906
 20
-15.8291882253
 10
11.9804143894
 20
-15.7919844178
 10
11.9806443182
 20
-15.7544289925
  0
LWPOLYLINE
  5
397
100
AcDbEntity
  8
218_STAMPATO
100
AcDbPolyline
 62
250
  6
CONTINUOUS
 90
4
 70
0
 10
11.5664938425
 20
-16.7719120915
 10
11.5881746561
 20
-16.755637302
 10
11.6093634604
 20
-16.7385525901
 10
11.6300501317
 20
-16.720666119
  0
LWPOLYLINE
  5
398
100
AcDbEntity
  8
218_STAMPATO
100
AcDbPolyline
 62
7
  6
CONTINUOUS
 90
40
 70
0
 10
11.6410725489
 20
-16.7255418897
 10
11.6607062342
 20
-16.7110465608
 10
11.6888014307
 20
-16.689351523
 10
11.7164044756
 20
-16.6668872959
 10
11.7434873173
 20
-16.6436714668
 10
11.7700369122
 20
-16.6197101338
 10
11.7960545684
 20
-16.5949957229
 10
11.8215203617
 20
-16.5695395788
 10
11.846414963
 20
-16.5433534746
 10
11.8707391373
 20
-16.5164275062
 10
11.8944736578
 20
-16.4887726006
 10
11.9175987024
 20
-16.4604016089
 10
11.9401124625
 20
-16.4313047418
 10
11.961996381
 20
-16.4014920833
 10
11.983230503
 20
-16.3709773748
 10
12.003809479
 20
-16.3397532741
 10
12.0237144249
 20
-16.3078313085
 10
12.0429269389
 20
-16.2752237846
 10
12.0614412792
 20
-16.2419215524
 10
12.0792378769
 20
-16.2079384132
 10
12.0963000466
 20
-16.173283948
 10
12.1126246479
 20
-16.137939155
 10
12.1281953871
 20
-16.1019092411
 10
12.1429913455
 20
-16.0652105865
 10
12.157001062
 20
-16.0278374018
 10
12.1702122265
 20
-15.9897827571
 10
12.1826003574
 20
-15.9510739094
 10
12.1941388383
 20
-15.9117544659
 10
12.2048136268
 20
-15.8718341725
 10
12.2146101315
 20
-15.8313245009
 10
12.2235073921
 20
-15.790270714
 10
12.2314947584
 20
-15.7486811495
 10
12.2385605471
 20
-15.7065678028
 10
12.2446886158
 20
-15.6639805897
 10
12.2498708172
 20
-15.620928872
 10
12.2540984934
 20
-15.5774226735
 10
12.2573606562
 20
-15.5335115016
 10
12.2596505075
 20
-15.48921698
 10
12.2609627048
 20
-15.4445359052
 10
12.2613045082
 20
-15.4071009309
  0
LINE
  5
399
100
AcDbEntity
  8
218_STAMPATO
100
AcDbLine
 62
7
  6
CONTINUOUS
 10
9.3524999316
 20
-18.1952896012
 11
10.4356952011
 21
-17.4102493849
  0
LINE
  5
39A
100
AcDbEntity
  8
218_STAMPATO
100
AcDbLine
 62
250
  6
CONTINUOUS
 10
11.3605392955
 20
-16.9211765932
 11
11.5664938425
 21
-16.7719120915
  0
LINE
  5
39B
100
AcDbEntity
  8
218_STAMPATO
100
AcDbLine
 62
7
  6
CONTINUOUS
 10
11.4351068895
 20
-16.8748144604
 11
11.6410614366
 21
-16.7255499587
  0
LWPOLYLINE
  5
39C
100
AcDbEntity
  8
218_STAMPATO
100
AcDbPolyline
 62
7
  6
CONTINUOUS
 90
6
 70
0
 10
11.4351068895
 20
-16.8748144604
 10
11.4218418859
 20
-16.8842644028
 10
11.4084160955
 20
-16.8935028972
 10
11.3948346152
 20
-16.9025258816
 10
11.3810968384
 20
-16.9113331353
 10
11.3672142403
 20
-16.9199168246
  0
LINE
  5
39D
100
AcDbEntity
  8
218_STAMPATO
100
AcDbLine
 62
7
  6
CONTINUOUS
 10
11.3672142403
 20
-16.9199168246
 11
11.3532103971
 21
-16.9282628402
  0
LWPOLYLINE
  5
39E
100
AcDbEntity
  8
218_STAMPATO
100
AcDbPolyline
 62
7
  6
CONTINUOUS
 90
4
 70
0
 10
11.3532103971
 20
-16.9282628402
 10
11.339097184
 20
-16.9363654762
 10
11.324874768
 20
-16.9442261042
 10
11.315745811
 20
-16.9491142245
  0
LWPOLYLINE
  5
39F
100
AcDbEntity
  8
268
100
AcDbPolyline
 62
7
  6
CONTINUOUS
 90
25
 70
0
 10
8.1458258301
 20
-19.1910873646
 10
8.1717422404
 20
-19.176255148
 10
8.1982444771
 20
-19.1609881712
 10
8.2253325401
 20
-19.1452864343
 10
8.2530341964
 20
-19.1291373316
 10
8.2813216791
 20
-19.1125534687
 10
8.3101116871
 20
-19.0955726628
 10
8.3393852061
 20
-19.0782060889
 10
8.3691612505
 20
-19.0604425719
 10
8.3994135616
 20
-19.0422864036
 10
8.4301559959
 20
-19.0237295066
 10
8.461374697
 20
-19.0047799583
 10
8.4930018365
 20
-18.9854662819
 10
8.5250485711
 20
-18.9657816472
 10
8.5575037442
 20
-18.9457328843
 10
8.5902660576
 20
-18.9253690076
 10
8.6233508317
 20
-18.9046801684
 10
8.6567427461
 20
-18.8836762152
 10
8.6902945415
 20
-18.8624357085
 10
8.7240258565
 20
-18.8409454226
 10
8.7579170526
 20
-18.8192185831
 10
8.7917619543
 20
-18.7973734273
 10
8.8254918367
 20
-18.7754493677
 10
8.8591754248
 20
-18.7534069917
 10
8.8928127186
 20
-18.7312462995
  0
LWPOLYLINE
  5
3A0
100
AcDbEntity
  8
218_STAMPATO
100
AcDbPolyline
 62
250
  6
CONTINUOUS
 90
4
 70
0
 10
11.3157513655
 20
-16.9491112872
 10
11.330899364
 20
-16.9406399902
 10
11.345929795
 20
-16.9312746066
 10
11.3605392955
 20
-16.9211765932
  0
LWPOLYLINE
  5
3A1
100
AcDbEntity
  8
218_STAMPATO
100
AcDbPolyline
 62
250
  6
CONTINUOUS
 90
5
 70
0
 10
11.5664938425
 20
-16.7719120915
 10
11.5853303579
 20
-16.7615518836
 10
11.6037724747
 20
-16.7505636465
 10
11.6218064976
 20
-16.73895554
 10
11.6410614366
 20
-16.7255499587
  0
LWPOLYLINE
  5
3A2
100
AcDbEntity
  8
218_STAMPATO
100
AcDbPolyline
 62
250
  6
CONTINUOUS
 90
5
 70
0
 10
11.3605392955
 20
-16.9211765932
 10
11.3793758108
 20
-16.9108163854
 10
11.3978179274
 20
-16.8998281483
 10
11.4158519503
 20
-16.8882200418
 10
11.4351068895
 20
-16.8748144604
  0
LWPOLYLINE
  5
3A3
100
AcDbEntity
  8
268
100
AcDbPolyline
 62
7
  6
CONTINUOUS
 90
3
 70
0
 10
8.1458258301
 20
-19.1910873646
 10
8.1112413529
 20
-19.2099630622
 10
8.0954044473
 20
-19.2180639805
  0
LWPOLYLINE
  5
3A4
100
AcDbEntity
  8
218_STAMPATO
100
AcDbPolyline
 62
250
  6
CONTINUOUS
 90
29
 70
0
 10
11.9806443182
 20
-15.7544289925
 10
11.9993054567
 20
-15.7444996496
 10
12.0174185516
 20
-15.7343197516
 10
12.0349701521
 20
-15.7238968584
 10
12.0519472243
 20
-15.7132387099
 10
12.0683371609
 20
-15.7023532209
 10
12.0841277905
 20
-15.6912484752
 10
12.0993073871
 20
-15.6799327191
 10
12.1138646782
 20
-15.6684143558
 10
12.1277888533
 20
-15.6567019389
 10
12.1410695725
 20
-15.644804166
 10
12.1536969733
 20
-15.6327298726
 10
12.1656616785
 20
-15.620488025
 10
12.1769548032
 20
-15.6080877142
 10
12.1875679609
 20
-15.5955381487
 10
12.1974932703
 20
-15.5828486478
 10
12.2067233607
 20
-15.5700286349
 10
12.215251378
 20
-15.5570876301
 10
12.2230709891
 20
-15.5440352436
 10
12.2301763871
 20
-15.530881168
 10
12.2365622955
 20
-15.5176351717
 10
12.2422239721
 20
-15.5043070912
 10
12.2471572126
 20
-15.4909068241
 10
12.2513583534
 20
-15.4774443215
 10
12.2548242748
 20
-15.4639295806
 10
12.257552403
 20
-15.4503726376
 10
12.259540712
 20
-15.4367835599
 10
12.2607877253
 20
-15.423172439
 10
12.2612925169
 20
-15.4095493824
  0
LINE
  5
3A5
100
AcDbEntity
  8
218_STAMPATO
100
AcDbLine
 62
250
  6
CONTINUOUS
 10
11.3605392955
 20
-16.9211765932
 11
10.4356952011
 21
-17.4102493849
  0
LINE
  5
3A6
100
AcDbEntity
  8
218_STAMPATO
100
AcDbLine
 62
7
  6
CONTINUOUS
 10
11.3157513655
 20
-16.9491112872
 11
10.4140030989
 21
-17.4259706247
  0
LINE
  5
3A7
100
AcDbEntity
  8
218_STAMPATO
100
AcDbLine
 62
250
  6
CONTINUOUS
 10
4.1176837048
 20
-19.896459935
 11
11.9806443182
 21
-15.7544289925
  0
LINE
  5
3A8
100
AcDbEntity
  8
218_STAMPATO
100
AcDbLine
 62
250
  6
CONTINUOUS
 10
4.1176837048
 20
-20.6957778708
 11
11.5664938425
 21
-16.7719120915
  0
LINE
  5
3A9
100
AcDbEntity
  8
218_STAMPATO
100
AcDbLine
 62
7
  6
CONTINUOUS
 10
4.1176837048
 20
-20.9451907614
 11
9.3524999316
 21
-18.1952896012
  0
LINE
  5
3AA
100
AcDbEntity
  8
268
100
AcDbLine
 62
250
  6
CONTINUOUS
 10
4.1176837048
 20
-21.2129905482
 11
8.1458258301
 21
-19.1910873646
  0
LINE
  5
3AB
100
AcDbEntity
  8
268
100
AcDbLine
 62
7
  6
CONTINUOUS
 10
4.1176837048
 20
-21.2146586289
 11
8.0954467758
 21
-19.2180429271
  0
LINE
  5
3AC
100
AcDbEntity
  8
268
100
AcDbLine
 62
250
  6
CONTINUOUS
 10
4.1176837048
 20
-20.9751855174
 11
8.8099242396
 21
-18.6477996205
  0
LINE
  5
3AD
100
AcDbEntity
  8
268
100
AcDbLine
 62
250
  6
CONTINUOUS
 10
4.1176837048
 20
-21.0970602452
 11
8.8940758072
 21
-18.7279345503
  0
LINE
  5
3AE
100
AcDbEntity
  8
218_STAMPATO
100
AcDbLine
 62
250
  6
CONTINUOUS
 10
-2.0274424041
 20
20.6889547639
 11
-2.0172598588
 21
20.6918033583
  0
LWPOLYLINE
  5
3AF
100
AcDbEntity
  8
218_STAMPATO
100
AcDbPolyline
 62
250
  6
CONTINUOUS
 90
3
 70
0
 10
-2.0172598588
 20
20.6918033583
 10
-2.0068879575
 20
20.6946091326
 10
-2.0016308912
 20
20.6959954314
  0
LWPOLYLINE
  5
3B0
100
AcDbEntity
  8
218_STAMPATO
100
AcDbPolyline
 62
250
  6
CONTINUOUS
 90
4
 70
0
 10
-2.0016308912
 20
20.6959954314
 10
-1.9909742958
 20
20.6987304166
 10
-1.9855747668
 20
20.7000791029
 10
-1.980127904
 20
20.7014137117
  0
LWPOLYLINE
  5
3B1
100
AcDbEntity
  8
218_STAMPATO
100
AcDbPolyline
 62
250
  6
CONTINUOUS
 90
128
 70
0
 10
-1.980127904
 20
20.7014137117
 10
-1.969092026
 20
20.7040407326
 10
-1.9635034448
 20
20.7053315391
 10
-1.9578676879
 20
20.706606721
 10
-1.9521849557
 20
20.7078662378
 10
-1.9464562067
 20
20.7091083799
 10
-1.9406812796
 20
20.7103331699
 10
-1.9348603358
 20
20.7115405853
 10
-1.9289948183
 20
20.7127288498
 10
-1.9230849079
 20
20.7138979187
 10
-1.9171304238
 20
20.7150478366
 10
-1.9111322668
 20
20.7161769606
 10
-1.9050902052
 20
20.7172853275
 10
-1.8990044705
 20
20.7183729005
 10
-1.8928766589
 20
20.7194379252
 10
-1.8866984521
 20
20.720481576
 10
-1.8804781682
 20
20.7215026786
 10
-1.8742423578
 20
20.7224959564
 10
-1.8679945929
 20
20.7234604619
 10
-1.8617313014
 20
20.7243971426
 10
-1.8554683178
 20
20.7253035645
 10
-1.8492081347
 20
20.7261791665
 10
-1.8429482595
 20
20.7270245097
 10
-1.8366970484
 20
20.7278388432
 10
-1.8304556013
 20
20.7286219276
 10
-1.8242228183
 20
20.7293740023
 10
-1.8180037557
 20
20.7300950352
 10
-1.8117987895
 20
20.7307849286
 10
-1.8056075437
 20
20.7314437801
 10
-1.7994339474
 20
20.7320718497
 10
-1.7932783945
 20
20.732669066
 10
-1.7871404911
 20
20.7332355005
 10
-1.7810229841
 20
20.7337716275
 10
-1.7749261491
 20
20.7342774101
 10
-1.7688497104
 20
20.7347528851
 10
-1.7627955878
 20
20.7351986384
 10
-1.7567634042
 20
20.7356146799
 10
-1.7507535365
 20
20.7360009995
 10
-1.7447690354
 20
20.7363581531
 10
-1.7388100924
 20
20.7366861068
 10
-1.732876516
 20
20.7369848944
 10
-1.726970782
 20
20.7372551732
 10
-1.7210930589
 20
20.737496922
 10
-1.7152431783
 20
20.737710162
 10
-1.7094231104
 20
20.7378956139
 10
-1.7036327765
 20
20.7380532674
 10
-1.6978722552
 20
20.7381831328
 10
-1.6921437533
 20
20.7382859619
 10
-1.6864472481
 20
20.7383617379
 10
-1.6807827622
 20
20.7384104775
 10
-1.6751525703
 20
20.7384329822
 10
-1.669556798
 20
20.738429236
 10
-1.6639953198
 20
20.7383992549
 10
-1.6584700343
 20
20.7383438886
 10
-1.6529811339
 20
20.7382631307
 10
-1.6475284263
 20
20.7381569875
 10
-1.642113233
 20
20.7380263282
 10
-1.6367356089
 20
20.7378711503
 10
-1.6313954991
 20
20.7376914563
 10
-1.6260940611
 20
20.7374881222
 10
-1.6208310118
 20
20.7372611241
 10
-1.6156066342
 20
20.737010486
 10
-1.610422934
 20
20.736737156
 10
-1.6052801209
 20
20.7364411287
 10
-1.6001779852
 20
20.7361224096
 10
-1.5951179032
 20
20.7357819633
 10
-1.5901000876
 20
20.7354197974
 10
-1.5851243257
 20
20.7350359044
 10
-1.5801913559
 20
20.7346312262
 10
-1.5753012616
 20
20.7342057689
 10
-1.5704539593
 20
20.7337595265
 10
-1.5656499371
 20
20.7332934225
 10
-1.560889247
 20
20.732807463
 10
-1.556171837
 20
20.7323016419
 10
-1.5514980381
 20
20.7317768646
 10
-1.546867907
 20
20.7312331394
 10
-1.542281387
 20
20.730670458
 10
-1.5377386397
 20
20.7300896998
 10
-1.5332397444
 20
20.7294908795
 10
-1.5287846218
 20
20.7288739825
 10
-1.5243731956
 20
20.7282398445
 10
-1.5200055173
 20
20.7275884798
 10
-1.5156815355
 20
20.7269198741
 10
-1.5114010195
 20
20.726234821
 10
-1.5071640067
 20
20.7255333345
 10
-1.5029704597
 20
20.7248154006
 10
-1.4988200356
 20
20.7240817712
 10
-1.4947127839
 20
20.7233324645
 10
-1.4906486552
 20
20.7225674623
 10
-1.4866271579
 20
20.721787462
 10
-1.4826483289
 20
20.7209924819
 10
-1.4787121313
 20
20.7201825036
 10
-1.4748179636
 20
20.7193581699
 10
-1.4709658665
 20
20.7185195023
 10
-1.4671557992
 20
20.7176664791
 10
-1.4633870371
 20
20.7167996777
 10
-1.4596596221
 20
20.7159191233
 10
-1.4559735124
 20
20.7150247907
 10
-1.4523278576
 20
20.7141171815
 10
-1.4487226741
 20
20.7131963175
 10
-1.4451579455
 20
20.7122621768
 10
-1.441632773
 20
20.7113151962
 10
-1.4381471568
 20
20.7103553943
 10
-1.4347010966
 20
20.7093827524
 10
-1.4312936923
 20
20.7083976513
 10
-1.4279249538
 20
20.7074001136
 10
-1.4245948712
 20
20.7063901167
 10
-1.4213025149
 20
20.7053679742
 10
-1.4180478922
 20
20.7043337096
 10
-1.4148309957
 20
20.7032872993
 10
-1.4116508734
 20
20.7022289858
 10
-1.4085075173
 20
20.7011587893
 10
-1.4054009354
 20
20.7000766896
 10
-1.4023302001
 20
20.6989828688
 10
-1.3992952882
 20
20.6978773418
 10
-1.3962962229
 20
20.6967600936
 10
-1.393332146
 20
20.6956312624
 10
-1.390403022
 20
20.6944908572
 10
-1.3875088864
 20
20.6933388689
 10
-1.3846489877
 20
20.6921754078
 10
-1.3818233001
 20
20.6910004844
 10
-1.3790318493
 20
20.6898140883
 10
-1.3762739607
 20
20.6886162988
 10
-1.3735496218
 20
20.6874071341
 10
-1.3708588451
 20
20.686186576
 10
-1.3682009934
 20
20.6849546491
 10
-1.3655758545
 20
20.6837113618
 10
-1.3629836406
 20
20.6824567057
  0
LWPOLYLINE
  5
3B2
100
AcDbEntity
  8
268
100
AcDbPolyline
 62
7
  6
CONTINUOUS
 90
13
 70
0
 10
8.1458258301
 20
19.2971692837
 10
8.1111750201
 20
19.3035989648
 10
8.0759707971
 20
19.3089821176
 10
8.0402509452
 20
19.3133442584
 10
8.0040256283
 20
19.3167381816
 10
7.9673578902
 20
19.3191679313
 10
7.9303616803
 20
19.3205791604
 10
7.8930746453
 20
19.3209892953
 10
7.8555236634
 20
19.3204254138
 10
7.8178029626
 20
19.3188334256
 10
7.7799635878
 20
19.3162043347
 10
7.7420144016
 20
19.3125823534
 10
7.7039849622
 20
19.307987564
  0
LINE
  5
3B3
100
AcDbEntity
  8
268
100
AcDbLine
 62
7
  6
CONTINUOUS
 10
-11.4094808826
 20
21.4282977797
 11
-12.0317989147
 21
21.5582383622
  0
LINE
  5
3B4
100
AcDbEntity
  8
268
100
AcDbLine
 62
7
  6
CONTINUOUS
 10
1.2259925735
 20
19.9596285623
 11
-1.5745258838
 21
21.3598877909
  0
LINE
  5
3B5
100
AcDbEntity
  8
268
100
AcDbLine
 62
7
  6
CONTINUOUS
 10
-1.9280792744
 20
22.0892226755
 11
-1.5745258838
 21
21.9124459802
  0
LINE
  5
3B6
100
AcDbEntity
  8
268
100
AcDbLine
 62
7
  6
CONTINUOUS
 10
2.6338082697
 20
20.6535052206
 11
-0.1767413773
 21
22.0587800441
  0
LINE
  5
3B7
100
AcDbEntity
  8
218_STAMPATO
100
AcDbLine
 62
7
  6
CONTINUOUS
 10
8.8366639281
 20
18.1758877383
 11
9.3524999316
 21
17.9179697366
  0
LINE
  5
3B8
100
AcDbEntity
  8
268
100
AcDbLine
 62
7
  6
CONTINUOUS
 10
1.1831905629
 20
22.1325282315
 11
3.392931451
 21
21.0276577875
  0
LINE
  5
3B9
100
AcDbEntity
  8
268
100
AcDbLine
 62
7
  6
CONTINUOUS
 10
4.1385162741
 20
20.6548653759
 11
4.2843296842
 21
20.5819586709
  0
LINE
  5
3BA
100
AcDbEntity
  8
268
100
AcDbLine
 62
7
  6
CONTINUOUS
 10
-1.6842671828
 20
23.8295007841
 11
-1.5038152057
 21
23.7392747955
  0
LINE
  5
3BB
100
AcDbEntity
  8
268
100
AcDbLine
 62
7
  6
CONTINUOUS
 10
3.8701963314
 20
21.052269027
 11
4.0506483085
 21
20.9620430385
  0
LINE
  5
3BC
100
AcDbEntity
  8
715
100
AcDbLine
 62
7
  6
CONTINUOUS
 10
3.3114441332
 20
22.4841393235
 11
3.5549397995
 21
22.2592669928
  0
LWPOLYLINE
  5
3BD
100
AcDbEntity
  8
268
100
AcDbPolyline
 62
7
  6
CONTINUOUS
 90
17
 70
0
 10
8.8928127186
 20
18.8159094
 10
8.8591754248
 20
18.8519715506
 10
8.8254918367
 20
18.8866102102
 10
8.7917619543
 20
18.919825379
 10
8.7579170526
 20
18.951632683
 10
8.7240258565
 20
18.9820164961
 10
8.6902945415
 20
19.0109299402
 10
8.6567427461
 20
19.0383491155
 10
8.6233508317
 20
19.0642979218
 10
8.5902660576
 20
19.0888011803
 10
8.5575037442
 20
19.1118448872
 10
8.5250485711
 20
19.1334430463
 10
8.4930018365
 20
19.1536624903
 10
8.461374697
 20
19.1724964043
 10
8.4301559959
 20
19.1899516032
 10
8.3994135616
 20
19.2061153648
 10
8.3921409297
 20
19.2097918118
  0
LWPOLYLINE
  5
3BE
100
AcDbEntity
  8
218_STAMPATO
100
AcDbPolyline
 62
250
  6
CONTINUOUS
 90
57
 70
0
 10
19.000517126
 20
4.0182543101
 10
19.0087828112
 20
3.9918966031
 10
19.02096231
 20
3.9497456388
 10
19.0324034011
 20
3.9065849072
 10
19.0430846039
 20
3.8624425202
 10
19.0529292563
 20
3.817402111
 10
19.061921363
 20
3.7714846836
 10
19.0700535726
 20
3.7246687192
 10
19.0772652462
 20
3.676976322
 10
19.0835622543
 20
3.6281518762
 10
19.0889117902
 20
3.5784509742
 10
19.0932144056
 20
3.5286731739
 10
19.0964434956
 20
3.4788528945
 10
19.098639872
 20
3.4289774532
 10
19.099839684
 20
3.37979247
 10
19.1000382535
 20
3.3313103908
 10
19.0992858564
 20
3.2835503916
 10
19.0977309833
 20
3.2372803206
 10
19.0954050921
 20
3.192711002
 10
19.0923504004
 20
3.1496673455
 10
19.0887461832
 20
3.1083431969
 10
19.0846486851
 20
3.0689021315
 10
19.0800709249
 20
3.0312079839
 10
19.0751217953
 20
2.995002762
 10
19.0698430725
 20
2.9603078268
 10
19.0642429612
 20
2.92711881
 10
19.0583684047
 20
2.8951354998
 10
19.0522410586
 20
2.8643237728
 10
19.0458742848
 20
2.8347280645
 10
19.0392942384
 20
2.8061636548
 10
19.0325045461
 20
2.7785764058
 10
19.0255278953
 20
2.7520271121
 10
19.0184152347
 20
2.7265024711
 10
19.0111797369
 20
2.7020133759
 10
19.0038310229
 20
2.6785539415
 10
18.9964128618
 20
2.6560853133
 10
18.9889515228
 20
2.6346500406
 10
18.9814394141
 20
2.6142092786
 10
18.9738668601
 20
2.5946015716
 10
18.9662409445
 20
2.5758130849
 10
18.9585678357
 20
2.5578600287
 10
18.9508338596
 20
2.5406255039
 10
18.9430270377
 20
2.5240717936
 10
18.9351691003
 20
2.5082382352
 10
18.9272956074
 20
2.4931233117
 10
18.9193945089
 20
2.4787135923
 10
18.9114858066
 20
2.4650239248
 10
18.9036525607
 20
2.4520952587
 10
18.8959160012
 20
2.4399687722
 10
18.8882612241
 20
2.4286047017
 10
18.8807162691
 20
2.4179225638
 10
18.8733100315
 20
2.4079509108
 10
18.8660176804
 20
2.3986623308
 10
18.8587856154
 20
2.3898921797
 10
18.8515965756
 20
2.3815857779
 10
18.8444700493
 20
2.3737985557
 10
18.8374069965
 20
2.3665308938
  0
LINE
  5
3BF
100
AcDbEntity
  8
268
100
AcDbLine
 62
7
  6
CONTINUOUS
 10
2.455982769
 20
-24.3534442506
 11
1.6428099706
 21
-24.8823153811
  0
LINE
  5
3C0
100
AcDbEntity
  8
268
100
AcDbLine
 62
250
  6
CONTINUOUS
 10
3.4105769236
 20
-24.0417216329
 11
4.1176837048
 21
-23.6806105531
  0
LINE
  5
3C1
100
AcDbEntity
  8
268
100
AcDbLine
 62
7
  6
CONTINUOUS
 10
3.3206129555
 20
-24.2305317095
 11
4.0277197377
 21
-23.8694206292
  0
LINE
  5
3C2
100
AcDbEntity
  8
268
100
AcDbLine
 62
7
  6
CONTINUOUS
 10
3.3206081495
 20
-24.2305341644
 11
3.3186005526
 21
-24.2315378718
  0
LINE
  5
3C3
100
AcDbEntity
  8
268
100
AcDbLine
 62
250
  6
CONTINUOUS
 10
1.6428099706
 20
-24.9067108864
 11
3.4105769236
 21
-24.0417216329
  0
LWPOLYLINE
  5
3C4
100
AcDbEntity
  8
RACCORDO
100
AcDbPolyline
 62
250
  6
CONTINUOUS
 90
16
 70
0
 10
-5.6398677686
 20
-26.412463713
 10
-5.7023948017
 20
-26.4365921691
 10
-5.7700946657
 20
-26.4574113195
 10
-5.8422500775
 20
-26.4747005844
 10
-5.9180965475
 20
-26.4882767832
 10
-5.9968304792
 20
-26.4979960755
 10
-6.0776176833
 20
-26.5037554851
 10
-6.1596022158
 20
-26.5054939908
 10
-6.2419154473
 20
-26.503193173
 10
-6.3236852655
 20
-26.496877409
 10
-6.4040453158
 20
-26.4866136146
 10
-6.48214418
 20
-26.4725105351
 10
-6.5571543974
 20
-26.4547175935
 10
-6.6282812315
 20
-26.4334233066
 10
-6.6947710906
 20
-26.4088532885
 10
-6.7559195117
 20
-26.3812678594
  0
LWPOLYLINE
  5
3C5
100
AcDbEntity
  8
ASSI
100
AcDbPolyline
 62
250
  6
CONTINUOUS
 90
16
 70
0
 10
-5.6398677686
 20
-26.412463713
 10
-5.7023948017
 20
-26.4365921691
 10
-5.7700946657
 20
-26.4574113195
 10
-5.8422500775
 20
-26.4747005844
 10
-5.9180965475
 20
-26.4882767832
 10
-5.9968304792
 20
-26.4979960755
 10
-6.0776176833
 20
-26.5037554851
 10
-6.1596022158
 20
-26.5054939908
 10
-6.2419154473
 20
-26.503193173
 10
-6.3236852655
 20
-26.496877409
 10
-6.4040453158
 20
-26.4866136146
 10
-6.48214418
 20
-26.4725105351
 10
-6.5571543974
 20
-26.4547175935
 10
-6.6282812315
 20
-26.4334233066
 10
-6.6947710906
 20
-26.4088532885
 10
-6.7559195117
 20
-26.3812678594
  0
LINE
  5
3C6
100
AcDbEntity
  8
268
100
AcDbLine
 62
7
  6
CONTINUOUS
 10
-0.1767413773
 20
22.0587800441
 11
1.1831905629
 21
22.1325282315
  0
LWPOLYLINE
  5
3C7
100
AcDbEntity
  8
715
100
AcDbPolyline
 62
7
  6
CONTINUOUS
 90
9
 70
0
 10
13.0738475426
 20
19.5644154922
 10
13.067730802
 20
19.56601499
 10
13.0579605882
 20
19.5675478038
 10
13.0476343928
 20
19.5679632482
 10
13.0368471956
 20
19.5672614757
 10
13.0258839367
 20
19.5654429444
 10
13.014839596
 20
19.5625078069
 10
13.0036191935
 20
19.5584559105
 10
12.9922227293
 20
19.5532872552
  0
LINE
  5
3C8
100
AcDbEntity
  8
715
100
AcDbLine
 62
7
  6
CONTINUOUS
 10
11.6807847438
 20
18.8975682625
 11
11.2310400825
 21
19.0193160957
  0
LINE
  5
3C9
100
AcDbEntity
  8
715
100
AcDbLine
 62
7
  6
CONTINUOUS
 10
4.2561635414
 20
22.6098788637
 11
3.80641888
 21
22.7316266969
  0
LWPOLYLINE
  5
3CA
100
AcDbEntity
  8
715
100
AcDbPolyline
 62
7
  6
CONTINUOUS
 90
28
 70
0
 10
13.0738374063
 20
19.5643915398
 10
12.9651220597
 20
19.5956773856
 10
12.8502670168
 20
19.6250310626
 10
12.7330055928
 20
19.6513581328
 10
12.613632428
 20
19.6746202245
 10
12.4924120564
 20
19.6947907773
 10
12.3695826869
 20
19.7118500526
 10
12.2454338895
 20
19.7257738942
 10
12.1202504264
 20
19.7365445632
 10
11.9942699089
 20
19.7441519629
 10
11.8677835228
 20
19.7485853416
 10
11.7410807998
 20
19.7498398963
 10
11.6143990544
 20
19.7479151232
 10
11.4880277846
 20
19.7428137882
 10
11.362258194
 20
19.7345445761
 10
11.2373285947
 20
19.7231167006
 10
11.1135297201
 20
19.7085468683
 10
10.9911449677
 20
19.6908568468
 10
10.8703965315
 20
19.6700626714
 10
10.7515616104
 20
19.6461910714
 10
10.634925787
 20
19.6192760196
 10
10.5207142139
 20
19.5893412523
 10
10.4091990358
 20
19.5564241484
 10
10.3006528393
 20
19.5205675136
 10
10.1952859478
 20
19.481795896
 10
10.0933391653
 20
19.4401430876
 10
9.9950930279
 20
19.3956623131
 10
9.9008089667
 20
19.3484049237
  0
LWPOLYLINE
  5
3CB
100
AcDbEntity
  8
268
100
AcDbPolyline
 62
7
  6
CONTINUOUS
 90
18
 70
0
 10
0.9233070912
 20
22.9441865049
 10
0.9037450068
 20
22.9532762379
 10
0.8808492266
 20
22.9622616526
 10
0.8573399404
 20
22.9697638854
 10
0.8331986183
 20
22.9757980552
 10
0.8085088649
 20
22.9803438396
 10
0.7832474387
 20
22.983397823
 10
0.7574375812
 20
22.984963421
 10
0.7312326223
 20
22.9850305576
 10
0.7046486597
 20
22.9835917816
 10
0.6776695957
 20
22.9806545443
 10
0.6504004671
 20
22.976231123
 10
0.6228262874
 20
22.9703127374
 10
0.5949620431
 20
22.9629081678
 10
0.5669577301
 20
22.9540560332
 10
0.5388633469
 20
22.9437692065
 10
0.5106288949
 20
22.9320348148
 10
0.4822543741
 20
22.918852858
  0
LWPOLYLINE
  5
3CC
100
AcDbEntity
  8
268
100
AcDbPolyline
 62
7
  6
CONTINUOUS
 90
10
 70
0
 10
8.3921409297
 20
19.2097918118
 10
8.3691612505
 20
19.2209832439
 10
8.3393852061
 20
19.2345596857
 10
8.3101116871
 20
19.2469453024
 10
8.2813216791
 20
19.258147099
 10
8.2530341964
 20
19.2681580705
 10
8.2253325401
 20
19.2770578149
 10
8.1982444771
 20
19.2848728649
 10
8.1717422404
 20
19.2915766878
 10
8.1458258301
 20
19.2971692837
  0
LINE
  5
3CD
100
AcDbEntity
  8
268
100
AcDbLine
 62
250
  6
CONTINUOUS
 10
-2.4968355268
 20
24.4083978085
 11
0.4822543741
 21
22.918852858
  0
LINE
  5
3CE
100
AcDbEntity
  8
268
100
AcDbLine
 62
250
  6
CONTINUOUS
 10
4.7248950612
 20
20.7975325144
 11
7.7039849622
 21
19.307987564
  0
LINE
  5
3CF
100
AcDbEntity
  8
268
100
AcDbLine
 62
7
  6
CONTINUOUS
 10
5.1659380643
 20
20.822881981
 11
8.3924279564
 21
19.209637035
  0
LINE
  5
3D0
100
AcDbEntity
  8
715
100
AcDbLine
 62
7
  6
CONTINUOUS
 10
10.7360653356
 20
18.7718287223
 11
10.0290963955
 21
19.1253131923
  0
LINE
  5
3D1
100
AcDbEntity
  8
715
100
AcDbLine
 62
7
  6
CONTINUOUS
 10
3.3114441332
 20
22.4841393235
 11
2.604475193
 21
22.8376237936
  0
LINE
  5
3D2
100
AcDbEntity
  8
715
100
AcDbLine
 62
7
  6
CONTINUOUS
 10
11.2310400825
 20
19.0193160957
 11
10.5240711423
 21
19.3728005657
  0
LINE
  5
3D3
100
AcDbEntity
  8
715
100
AcDbLine
 62
7
  6
CONTINUOUS
 10
3.80641888
 20
22.7316266969
 11
3.0994499399
 21
23.085111167
  0
LINE
  5
3D4
100
AcDbEntity
  8
218_STAMPATO
100
AcDbLine
 62
7
  6
CONTINUOUS
 10
9.5484194068
 20
19.8944045746
 11
9.9807336575
 21
19.6782474493
  0
LINE
  5
3D5
100
AcDbEntity
  8
218_STAMPATO
100
AcDbLine
 62
7
  6
CONTINUOUS
 10
2.5561124551
 20
23.3905580505
 11
2.1237982043
 21
23.6067151759
  0
LWPOLYLINE
  5
3D6
100
AcDbEntity
  8
715
100
AcDbPolyline
 62
250
  6
CONTINUOUS
 90
4
 70
0
 10
6.5097951593
 20
22.8476442442
 10
6.5343181496
 20
22.8271398658
 10
6.5586839113
 20
22.8058616013
 10
6.5809506737
 20
22.7855085926
  0
LWPOLYLINE
  5
3D7
100
AcDbEntity
  8
715
100
AcDbPolyline
 62
250
  6
CONTINUOUS
 90
6
 70
0
 10
6.4161585601
 20
22.8413482357
 10
6.4390189895
 20
22.8217695022
 10
6.4615965278
 20
22.8014164557
 10
6.483891175
 20
22.7802890961
 10
6.5059366733
 20
22.7584592092
 10
6.5118323601
 20
22.7523355273
  0
LINE
  5
3D8
100
AcDbEntity
  8
715
100
AcDbLine
 62
7
  6
CONTINUOUS
 10
10.7360653356
 20
18.7718287223
 11
10.9795610019
 21
18.5469563916
  0
LINE
  5
3D9
100
AcDbEntity
  8
268
100
AcDbLine
 62
7
  6
CONTINUOUS
 10
3.0216681939
 20
-25.8824385089
 11
3.5499353657
 21
-25.6114274502
  0
LINE
  5
3DA
100
AcDbEntity
  8
268
100
AcDbLine
 62
7
  6
CONTINUOUS
 10
1.5508290516
 20
-25.0965293506
 11
3.318596006
 21
-24.2315400965
  0
LINE
  5
3DB
100
AcDbEntity
  8
268
100
AcDbLine
 62
7
  6
CONTINUOUS
 10
1.4203874031
 20
-26.6624731085
 11
3.0216681939
 21
-25.8824385089
  0
LINE
  5
3DC
100
AcDbEntity
  8
RACCORDO
100
AcDbLine
 62
250
  6
CONTINUOUS
 10
-5.1972465368
 20
-26.8272000538
 11
-1.0547103233
 21
-25.5132566321
  0
LINE
  5
3DD
100
AcDbEntity
  8
ASSI
100
AcDbLine
 62
250
  6
CONTINUOUS
 10
-5.1972465368
 20
-26.8272000538
 11
-1.0547103233
 21
-25.5132566321
  0
LINE
  5
3DE
100
AcDbEntity
  8
RACCORDO
100
AcDbLine
 62
7
  6
CONTINUOUS
 10
-1.3578086164
 20
-25.9857653681
 11
-5.5065949837
 21
-27.3016908874
  0
LINE
  5
3DF
100
AcDbEntity
  8
ASSI
100
AcDbLine
 62
7
  6
CONTINUOUS
 10
-1.3578086164
 20
-25.9857653681
 11
-5.5065949837
 21
-27.3016908874
  0
LWPOLYLINE
  5
3E0
100
AcDbEntity
  8
715
100
AcDbPolyline
 62
7
  6
CONTINUOUS
 90
9
 70
0
 10
5.6492263401
 20
23.2767260935
 10
5.6431095995
 20
23.2783255912
 10
5.6333393858
 20
23.2798584051
 10
5.6230131903
 20
23.2802738494
 10
5.6122259932
 20
23.279572077
 10
5.6012627343
 20
23.2777535456
 10
5.5902183935
 20
23.2748184081
 10
5.5789979911
 20
23.2707665117
 10
5.5676015268
 20
23.2655978565
  0
LWPOLYLINE
  5
3E1
100
AcDbEntity
  8
715
100
AcDbPolyline
 62
7
  6
CONTINUOUS
 90
28
 70
0
 10
5.6492162039
 20
23.276702141
 10
5.5405008573
 20
23.3079879868
 10
5.4256458143
 20
23.3373416638
 10
5.3083843904
 20
23.363668734
 10
5.1890112256
 20
23.3869308258
 10
5.0677908539
 20
23.4071013786
 10
4.9449614844
 20
23.4241606539
 10
4.820812687
 20
23.4380844954
 10
4.695629224
 20
23.4488551644
 10
4.5696487065
 20
23.4564625641
 10
4.4431623203
 20
23.4608959428
 10
4.3164595974
 20
23.4621504975
 10
4.1897778519
 20
23.4602257244
 10
4.0634065822
 20
23.4551243894
 10
3.9376369916
 20
23.4468551773
 10
3.8127073922
 20
23.4354273018
 10
3.6889085176
 20
23.4208574696
 10
3.5665237652
 20
23.403167448
 10
3.4457753291
 20
23.3823732726
 10
3.3269404079
 20
23.3585016726
 10
3.2103045845
 20
23.3315866208
 10
3.0960930115
 20
23.3016518535
 10
2.9845778333
 20
23.2687347496
 10
2.8760316369
 20
23.2328781148
 10
2.7706647453
 20
23.1941064972
 10
2.6687179629
 20
23.1524536889
 10
2.5704718254
 20
23.1079729143
 10
2.4761877643
 20
23.0607155249
  0
LWPOLYLINE
  5
3E2
100
AcDbEntity
  8
715
100
AcDbPolyline
 62
7
  6
CONTINUOUS
 90
3
 70
0
 10
13.0858882243
 20
19.5595977116
 10
13.077040014
 20
19.5633649592
 10
13.0738475426
 20
19.5644154922
  0
LWPOLYLINE
  5
3E3
100
AcDbEntity
  8
715
100
AcDbPolyline
 62
7
  6
CONTINUOUS
 90
3
 70
0
 10
5.6612670218
 20
23.2719083129
 10
5.6524188115
 20
23.2756755604
 10
5.6492263401
 20
23.2767260935
  0
LWPOLYLINE
  5
3E4
100
AcDbEntity
  8
218_STAMPATO
100
AcDbPolyline
 62
7
  6
CONTINUOUS
 90
10
 70
0
 10
13.7236975932
 20
19.7334228508
 10
13.7598032128
 20
19.717715126
 10
13.7953378152
 20
19.7017066385
 10
13.8303014003
 20
19.6853973884
 10
13.8647041375
 20
19.668782291
 10
13.8985358575
 20
19.651866431
 10
13.9317660523
 20
19.6346650624
 10
13.9643845525
 20
19.6171832699
 10
13.9964015274
 20
19.5994159687
 10
14.0278169771
 20
19.5813631589
  0
LWPOLYLINE
  5
3E5
100
AcDbEntity
  8
218_STAMPATO
100
AcDbPolyline
 62
7
  6
CONTINUOUS
 90
10
 70
0
 10
6.2990763907
 20
23.4457334521
 10
6.3351820103
 20
23.4300257272
 10
6.3707166127
 20
23.4140172397
 10
6.4056801978
 20
23.3977079896
 10
6.4400829351
 20
23.3810928923
 10
6.4739146551
 20
23.3641770323
 10
6.5071448498
 20
23.3469756636
 10
6.53976335
 20
23.3294938711
 10
6.571780325
 20
23.3117265699
 10
6.6031957747
 20
23.2936737601
  0
LINE
  5
3E6
100
AcDbEntity
  8
218_STAMPATO
100
AcDbLine
 62
7
  6
CONTINUOUS
 10
6.1155385497
 20
23.52184252
 11
6.7470698707
 21
23.2060768595
  0
LINE
  5
3E7
100
AcDbEntity
  8
218_STAMPATO
100
AcDbLine
 62
7
  6
CONTINUOUS
 10
13.5401597521
 20
19.8095319188
 11
14.1716910732
 21
19.4937662583
  0
LINE
  5
3E8
100
AcDbEntity
  8
218_STAMPATO
100
AcDbLine
 62
7
  6
CONTINUOUS
 10
13.7236975932
 20
19.7334228508
 11
14.0278169771
 21
19.5813631589
  0
LINE
  5
3E9
100
AcDbEntity
  8
218_STAMPATO
100
AcDbLine
 62
7
  6
CONTINUOUS
 10
6.6031957747
 20
23.2936737601
 11
6.2990763907
 21
23.4457334521
  0
LINE
  5
3EA
100
AcDbEntity
  8
715
100
AcDbLine
 62
7
  6
CONTINUOUS
 10
6.5097951593
 20
22.8476442442
 11
6.607981184
 21
22.7984817807
  0
LINE
  5
3EB
100
AcDbEntity
  8
715
100
AcDbLine
 62
7
  6
CONTINUOUS
 10
13.9344163617
 20
19.1353336429
 11
14.0326023864
 21
19.0861711795
  0
LWPOLYLINE
  5
3EC
100
AcDbEntity
  8
715
100
AcDbPolyline
 62
7
  6
CONTINUOUS
 90
10
 70
0
 10
6.471851092
 20
22.8603118991
 10
6.3743740383
 20
22.9103673308
 10
6.2787608365
 20
22.9593432064
 10
6.1850114865
 20
23.007239526
 10
6.0931404052
 20
23.0540577138
 10
6.0031331758
 20
23.0997963455
 10
5.9149465478
 20
23.1444511486
 10
5.8285661044
 20
23.1880206987
 10
5.7440062624
 20
23.2305064201
 10
5.6612670218
 20
23.2719083129
  0
LWPOLYLINE
  5
3ED
100
AcDbEntity
  8
715
100
AcDbPolyline
 62
7
  6
CONTINUOUS
 90
10
 70
0
 10
13.8964722944
 20
19.1480012979
 10
13.7989952408
 20
19.1980567296
 10
13.7033820389
 20
19.2470326052
 10
13.609632689
 20
19.2949289248
 10
13.5177616077
 20
19.3417471126
 10
13.4277543783
 20
19.3874857443
 10
13.3395677503
 20
19.4321405474
 10
13.2531873069
 20
19.4757100975
 10
13.1686274649
 20
19.5181958189
 10
13.0858882243
 20
19.5595977116
  0
LINE
  5
3EE
100
AcDbEntity
  8
715
100
AcDbLine
 62
7
  6
CONTINUOUS
 10
6.4796095207
 20
22.855725427
 11
6.471851092
 21
22.8603118991
  0
LINE
  5
3EF
100
AcDbEntity
  8
715
100
AcDbLine
 62
7
  6
CONTINUOUS
 10
13.9042307231
 20
19.1434148258
 11
13.8964722944
 21
19.1480012979
  0
LWPOLYLINE
  5
3F0
100
AcDbEntity
  8
715
100
AcDbPolyline
 62
250
  6
CONTINUOUS
 90
4
 70
0
 10
13.9344163617
 20
19.1353336429
 10
13.9589393521
 20
19.1148292645
 10
13.9833051137
 20
19.0935510001
 10
14.0055718761
 20
19.0731979914
  0
LWPOLYLINE
  5
3F1
100
AcDbEntity
  8
715
100
AcDbPolyline
 62
250
  6
CONTINUOUS
 90
6
 70
0
 10
13.8407797626
 20
19.1290376345
 10
13.863640192
 20
19.109458901
 10
13.8862177303
 20
19.0891058545
 10
13.9085123775
 20
19.0679784949
 10
13.9305578758
 20
19.0461486079
 10
13.9364535626
 20
19.0400249261
  0
LWPOLYLINE
  5
3F2
100
AcDbEntity
  8
218_STAMPATO
100
AcDbPolyline
 62
250
  6
CONTINUOUS
 90
57
 70
0
 10
19.000517126
 20
15.9694448483
 10
19.0098581711
 20
15.9394655029
 10
19.022056803
 20
15.8969311165
 10
19.033500828
 20
15.8533921552
 10
19.0441722933
 20
15.8088551214
 10
19.054004327
 20
15.763332673
 10
19.0629972883
 20
15.7167188384
 10
19.0711216817
 20
15.6691159232
 10
19.078274263
 20
15.6208545342
 10
19.0844394904
 20
15.5718705626
 10
19.0896190895
 20
15.522235848
 10
19.0937560646
 20
15.4724962983
 10
19.0968355889
 20
15.4225918252
 10
19.0988838787
 20
15.3726027479
 10
19.0999345165
 20
15.323299365
 10
19.0999787868
 20
15.2746546956
 10
19.0990703761
 20
15.2267269244
 10
19.0973699395
 20
15.1804276101
 10
19.0949183225
 20
15.1360730252
 10
19.0917548961
 20
15.0933847101
 10
19.0880522484
 20
15.05238683
 10
19.0838668482
 20
15.0132020442
 10
19.0792093383
 20
14.9757340776
 10
19.0741742809
 20
14.9396752528
 10
19.068792803
 20
14.9049937019
 10
19.0630807835
 20
14.8717372516
 10
19.057099285
 20
14.8397144284
 10
19.0508672506
 20
14.8088997068
 10
19.0444015524
 20
14.7793290285
 10
19.0377541294
 20
14.7509014214
 10
19.0309420101
 20
14.7236168775
 10
19.023976929
 20
14.6974825953
 10
19.0168990237
 20
14.6724074643
 10
19.0097248036
 20
14.6484008516
 10
19.0024605626
 20
14.6254583842
 10
18.9951278352
 20
14.6034676464
 10
18.9877412558
 20
14.5824354877
 10
18.9803036013
 20
14.5623584804
 10
18.9728156884
 20
14.5431082246
 10
18.9652848453
 20
14.5246768863
 10
18.9577165855
 20
14.5070746117
 10
18.950106724
 20
14.4901995501
 10
18.9424521299
 20
14.4740318056
 10
18.9347654875
 20
14.4585929067
 10
18.9270649245
 20
14.4438429188
 10
18.9193467977
 20
14.4297741424
 10
18.9116221832
 20
14.4163956094
 10
18.9039304348
 20
14.403692415
 10
18.8962769414
 20
14.3916757755
 10
18.8886619792
 20
14.3803356711
 10
18.8811164582
 20
14.3696252924
 10
18.8736536907
 20
14.3595604116
 10
18.8662642656
 20
14.3501262921
 10
18.8589442214
 20
14.3412302434
 10
18.8516929264
 20
14.3328416103
 10
18.8445133617
 20
14.3249918507
 10
18.8374065244
 20
14.3176813629
  0
LWPOLYLINE
  5
3F3
100
AcDbEntity
  8
218_STAMPATO
100
AcDbPolyline
 62
250
  6
CONTINUOUS
 90
26
 70
0
 10
18.1048331455
 20
20.3325490459
 10
18.0977838493
 20
20.3359820541
 10
18.0825311395
 20
20.3428024771
 10
18.0669624784
 20
20.3489502071
 10
18.0510894425
 20
20.354420673
 10
18.0349238342
 20
20.359209807
 10
18.0184776741
 20
20.3633140481
 10
18.0017631908
 20
20.3667303445
 10
17.9847928129
 20
20.3694561559
 10
17.9675791588
 20
20.3714894556
 10
17.9501350283
 20
20.3728287316
 10
17.9324733914
 20
20.3734729881
 10
17.9146073816
 20
20.3734217459
 10
17.8965502857
 20
20.3726750434
 10
17.8783155322
 20
20.3712334361
 10
17.8599166783
 20
20.3690979963
 10
17.8413674026
 20
20.3662703115
 10
17.8226814845
 20
20.3627524818
 10
17.8038728314
 20
20.3585471245
 10
17.7849554662
 20
20.3536573771
 10
17.7659434761
 20
20.3480868856
 10
17.7468509783
 20
20.3418397914
 10
17.7276921465
 20
20.3349207346
 10
17.7084812188
 20
20.3273348586
 10
17.6892324874
 20
20.3190878079
 10
17.669960265
 20
20.3101857163
  0
LWPOLYLINE
  5
3F4
100
AcDbEntity
  8
218_STAMPATO
100
AcDbPolyline
 62
250
  6
CONTINUOUS
 90
24
 70
0
 10
4.5200921638
 20
26.8851197669
 10
4.4996734048
 20
26.8951031733
 10
4.4792614785
 20
26.9043405194
 10
4.4588736497
 20
26.912823992
 10
4.4385271632
 20
26.9205464156
 10
4.4182392285
 20
26.9275012582
 10
4.3980270058
 20
26.9336826373
 10
4.377907591
 20
26.9390853245
 10
4.3578980018
 20
26.9437047501
 10
4.3380151629
 20
26.9475370068
 10
4.3182758917
 20
26.9505788532
 10
4.2986968842
 20
26.9528277164
 10
4.279294701
 20
26.9542816943
 10
4.2600857528
 20
26.954939557
 10
4.2410862873
 20
26.9548007481
 10
4.2223123746
 20
26.953865385
 10
4.2037798943
 20
26.9521342589
 10
4.1855045216
 20
26.949608834
 10
4.1675017144
 20
26.9462912464
 10
4.1497867
 20
26.9421843022
 10
4.1323744622
 20
26.9372914751
 10
4.1152797288
 20
26.9316169037
 10
4.098516959
 20
26.9251653877
 10
4.0812074134
 20
26.9175227019
  0
LINE
  5
3F5
100
AcDbEntity
  8
218_STAMPATO
100
AcDbLine
 62
7
  6
CONTINUOUS
 10
16.6292757949
 20
20.332434466
 11
13.5204602242
 21
21.8868422513
  0
LINE
  5
3F6
100
AcDbEntity
  8
218_STAMPATO
100
AcDbLine
 62
7
  6
CONTINUOUS
 10
9.2046545925
 20
24.0447450672
 11
6.0958390217
 21
25.5991528526
  0
LINE
  5
3F7
100
AcDbEntity
  8
218_STAMPATO
100
AcDbLine
 62
250
  6
CONTINUOUS
 10
17.137562407
 20
20.5763846453
 11
17.669960265
 21
20.3101857163
  0
LINE
  5
3F8
100
AcDbEntity
  8
218_STAMPATO
100
AcDbLine
 62
250
  6
CONTINUOUS
 10
12.4771112242
 20
22.9066102367
 11
9.7129412046
 21
24.2886952465
  0
LINE
  5
3F9
100
AcDbEntity
  8
218_STAMPATO
100
AcDbLine
 62
250
  6
CONTINUOUS
 10
5.0524900218
 20
26.6189208379
 11
4.5200921638
 21
26.8851197669
  0
LINE
  5
3FA
100
AcDbEntity
  8
218_STAMPATO
100
AcDbLine
 62
7
  6
CONTINUOUS
 10
17.4841943983
 20
20.6428684196
 11
18.1048331455
 21
20.3325490459
  0
LINE
  5
3FB
100
AcDbEntity
  8
218_STAMPATO
100
AcDbLine
 62
7
  6
CONTINUOUS
 10
13.0002249941
 20
22.8848531216
 11
10.0595731958
 21
24.3551790208
  0
LINE
  5
3FC
100
AcDbEntity
  8
218_STAMPATO
100
AcDbLine
 62
7
  6
CONTINUOUS
 10
5.5756037917
 20
26.5971637229
 11
4.9549650444
 21
26.9074830965
  0
LWPOLYLINE
  5
3FD
100
AcDbEntity
  8
218_STAMPATO
100
AcDbPolyline
 62
7
  6
CONTINUOUS
 90
104
 70
0
 10
19.000517126
 20
17.7885172544
 10
19.0132384707
 20
17.7792624292
 10
19.0580600825
 20
17.7453941077
 10
19.1025439295
 20
17.7105191955
 10
19.1467015895
 20
17.674634408
 10
19.1905321666
 20
17.6377442169
 10
19.2340039191
 20
17.5998788832
 10
19.2770815396
 20
17.5610740466
 10
19.3197444603
 20
17.5213540246
 10
19.3619821671
 20
17.4807342209
 10
19.4037746685
 20
17.4392392915
 10
19.4451007945
 20
17.3968960214
 10
19.4859515481
 20
17.3537192373
 10
19.52632467
 20
17.3097158607
 10
19.5662154937
 20
17.2648941783
 10
19.6055979662
 20
17.2192865015
 10
19.6444378915
 20
17.1729368794
 10
19.6827067898
 20
17.1258854148
 10
19.7204054164
 20
17.0781371731
 10
19.7575431536
 20
17.0296840116
 10
19.7941188559
 20
16.9805288721
 10
19.8301040515
 20
16.9307112977
 10
19.8654670028
 20
16.8802782577
 10
19.9001842905
 20
16.8292678156
 10
19.9342533135
 20
16.7776883409
 10
19.9676738854
 20
16.7255429762
 10
20.000437857
 20
16.6728458669
 10
20.0325265547
 20
16.6196283109
 10
20.0639236916
 20
16.5659190677
 10
20.0946150357
 20
16.5117444711
 10
20.1245899693
 20
16.4571250908
 10
20.153838003
 20
16.4020814115
 10
20.1823466069
 20
16.3466381046
 10
20.2101045439
 20
16.2908179259
 10
20.2371032261
 20
16.2346384836
 10
20.2633318873
 20
16.1781218889
 10
20.2887783701
 20
16.1212938021
 10
20.3134320762
 20
16.0641771305
 10
20.3372825954
 20
16.0067948274
 10
20.360318798
 20
15.9491722038
 10
20.3825294672
 20
15.8913357253
 10
20.4039019329
 20
15.8333170312
 10
20.4244292835
 20
15.7751331787
 10
20.4441086071
 20
15.7167885284
 10
20.4629353864
 20
15.6582894677
 10
20.4808935628
 20
15.5996782033
 10
20.4979639902
 20
15.5410126495
 10
20.5141318609
 20
15.4823431962
 10
20.5293973177
 20
15.4236683731
 10
20.5437635897
 20
15.3649680436
 10
20.5572277806
 20
15.3062384278
 10
20.5697738511
 20
15.2475322247
 10
20.5813855933
 20
15.188913521
 10
20.5920524989
 20
15.1304294098
 10
20.6017730446
 20
15.072081029
 10
20.6105454291
 20
15.0138629787
 10
20.6183645627
 20
14.9557827335
 10
20.6252207882
 20
14.8978813507
 10
20.6311054573
 20
14.84020318
 10
20.6360128759
 20
14.7827745712
 10
20.6399380606
 20
14.7256166228
 10
20.6428754633
 20
14.668764554
 10
20.6448206122
 20
14.6122515109
 10
20.6457701098
 20
14.5560905434
 10
20.6457199767
 20
14.5002859976
 10
20.6446646634
 20
14.4448275685
 10
20.6425994768
 20
14.3897725371
 10
20.6395254601
 20
14.3352240924
 10
20.6354470345
 20
14.2812499126
 10
20.6303625643
 20
14.2278227069
 10
20.6242651966
 20
14.1749018488
 10
20.6171429709
 20
14.122445005
 10
20.6090004149
 20
14.0705399863
 10
20.599859781
 20
14.019337869
 10
20.5897395566
 20
13.9689162898
 10
20.5786351083
 20
13.919229789
 10
20.566538538
 20
13.8702413319
 10
20.5534390225
 20
13.8219212547
 10
20.5393512452
 20
13.7743376122
 10
20.5243081469
 20
13.7275974879
 10
20.5083264586
 20
13.6817360059
 10
20.4914087159
 20
13.6367451329
 10
20.4735740017
 20
13.5926613626
 10
20.4548379855
 20
13.5495067699
 10
20.4352081684
 20
13.5072831766
 10
20.4146928798
 20
13.4659957813
 10
20.3932840179
 20
13.4256207432
 10
20.3710117156
 20
13.3862079015
 10
20.347948906
 20
13.3478668829
 10
20.3241560044
 20
13.3106645097
 10
20.2996151783
 20
13.2745406843
 10
20.274283477
 20
13.239414665
 10
20.2481435526
 20
13.2052569558
 10
20.2212404711
 20
13.1721211744
 10
20.1936228017
 20
13.1400550367
 10
20.165325638
 20
13.1090825842
 10
20.136353516
 20
13.0791924694
 10
20.1067122328
 20
13.0503774522
 10
20.0764241911
 20
13.0226473059
 10
20.0455069472
 20
12.9960062511
 10
20.0139577337
 20
12.9704421801
 10
19.9817884334
 20
12.9459573666
 10
19.9490269308
 20
12.9225656429
 10
19.9156939126
 20
12.9002737976
  0
LWPOLYLINE
  5
3FE
100
AcDbEntity
  8
218_STAMPATO
100
AcDbPolyline
 62
250
  6
CONTINUOUS
 90
105
 70
0
 10
19.000517126
 20
17.6982686161
 10
19.0150598705
 20
17.686565409
 10
19.0571149308
 20
17.6515727042
 10
19.0989225618
 20
17.6156305303
 10
19.1404644973
 20
17.5787545908
 10
19.1817225933
 20
17.5409609923
 10
19.2226788397
 20
17.5022662331
 10
19.2633153571
 20
17.4626872054
 10
19.3036144021
 20
17.4222411909
 10
19.343558378
 20
17.3809458505
 10
19.383129846
 20
17.3388192126
 10
19.4223115315
 20
17.295879667
 10
19.4610863217
 20
17.2521459672
 10
19.4994372765
 20
17.2076372199
 10
19.5373476422
 20
17.1623728699
 10
19.5748008739
 20
17.1163726725
 10
19.6117806329
 20
17.069656695
 10
19.6482707832
 20
17.0222453199
 10
19.6842553794
 20
16.9741592636
 10
19.719718689
 20
16.9254195494
 10
19.7546452132
 20
16.8760474805
 10
19.7890197168
 20
16.8260645955
 10
19.8228272141
 20
16.7754926848
 10
19.8560529588
 20
16.7243538039
 10
19.8886824255
 20
16.672670307
 10
19.9207013402
 20
16.6204648032
 10
19.9520957052
 20
16.5677601188
 10
19.9828518314
 20
16.514579238
 10
20.012956317
 20
16.460945334
 10
20.0423960344
 20
16.4068817913
 10
20.0711581087
 20
16.3524122494
 10
20.0992299531
 20
16.2975605451
 10
20.1265992934
 20
16.2423506666
 10
20.1532541987
 20
16.1868066852
 10
20.1791830574
 20
16.1309527977
 10
20.2043745636
 20
16.0748133533
 10
20.2288176983
 20
16.0184129028
 10
20.2525017634
 20
15.9617761316
 10
20.2754164029
 20
15.9049278092
 10
20.297551629
 20
15.8478927199
 10
20.3188977991
 20
15.7906957095
 10
20.3394456048
 20
15.7333617141
 10
20.3591860581
 20
15.6759158066
 10
20.3781105201
 20
15.6183831268
 10
20.3962107174
 20
15.5607888329
 10
20.41347876
 20
15.5031580368
 10
20.4299071238
 20
15.4455158499
 10
20.4454886432
 20
15.3878874079
 10
20.4602165037
 20
15.3302979077
 10
20.474084262
 20
15.2727725429
 10
20.4870858575
 20
15.2153364613
 10
20.4992156215
 20
15.1580147123
 10
20.5104682662
 20
15.1008322845
 10
20.5208388816
 20
15.0438141222
 10
20.5303229335
 20
14.9869851468
 10
20.5389162752
 20
14.9303702053
 10
20.5466151527
 20
14.8739940369
 10
20.5534162081
 20
14.8178812389
 10
20.5593164745
 20
14.762056289
 10
20.5643133764
 20
14.7065435505
 10
20.5684047298
 20
14.6513672758
 10
20.5715887472
 20
14.5965515715
 10
20.5738640383
 20
14.5421203791
 10
20.5752296102
 20
14.4880974592
 10
20.5756848669
 20
14.434506396
 10
20.5752296096
 20
14.3813705898
 10
20.5738640371
 20
14.3287132423
 10
20.5715887455
 20
14.2765573413
 10
20.5684047275
 20
14.2249256548
 10
20.5643133735
 20
14.1738407337
 10
20.5593164711
 20
14.1233248973
 10
20.553416204
 20
14.0734002143
 10
20.5466151482
 20
14.0240884722
 10
20.5389162701
 20
13.9754111818
 10
20.5303229278
 20
13.9273895824
 10
20.5208388753
 20
13.8800446593
 10
20.5104682594
 20
13.8333971128
 10
20.4992156141
 20
13.7874673302
 10
20.4870858496
 20
13.7422753456
 10
20.4740842535
 20
13.69784086
 10
20.4602164946
 20
13.6541832542
 10
20.4454886337
 20
13.611321615
 10
20.4299071137
 20
13.569274693
 10
20.4134787493
 20
13.5280608704
 10
20.3962107061
 20
13.4876981173
 10
20.3781105083
 20
13.4482040212
 10
20.3591860458
 20
13.4095958041
 10
20.3394455921
 20
13.3718903507
 10
20.318897786
 20
13.3351041618
 10
20.2975516153
 20
13.2992533219
 10
20.2754163885
 20
13.2643534591
 10
20.2525017484
 20
13.2304197768
 10
20.228817683
 20
13.1974670715
 10
20.204374548
 20
13.1655097567
 10
20.1791830415
 20
13.1345618193
 10
20.1532541822
 20
13.1046367909
 10
20.1265992761
 20
13.0757477153
 10
20.0992299352
 20
13.0479071776
 10
20.0711580905
 20
13.0211273187
 10
20.0423960161
 20
12.9954198521
 10
20.0129562985
 20
12.9707960276
 10
19.9828518123
 20
12.9472666098
 10
19.9520956853
 20
12.9248418557
 10
19.9207013197
 20
12.9035315368
 10
19.915693913
 20
12.900273798
  0
LWPOLYLINE
  5
3FF
100
AcDbEntity
  8
218_STAMPATO
100
AcDbPolyline
 62
250
  6
CONTINUOUS
 90
34
 70
0
 10
18.6585496828
 20
19.7054489622
 10
18.6575925476
 20
19.7067100353
 10
18.6557198175
 20
19.7081257967
 10
18.6532067551
 20
19.7091670896
 10
18.6500552265
 20
19.709833141
 10
18.6462675722
 20
19.7101234561
 10
18.6418466048
 20
19.7100378195
 10
18.6367956074
 20
19.7095762946
 10
18.6311183309
 20
19.7087392242
 10
18.6248189913
 20
19.7075272299
 10
18.6179022664
 20
19.7059412117
 10
18.6103732927
 20
19.7039823476
 10
18.6022376613
 20
19.701652092
 10
18.5935014137
 20
19.6989521754
 10
18.5841710375
 20
19.6958846029
 10
18.5742534614
 20
19.6924516525
 10
18.5637560504
 20
19.6886558734
 10
18.5526865998
 20
19.6845000844
 10
18.5410533299
 20
19.6799873716
 10
18.5288648797
 20
19.6751210863
 10
18.5161303003
 20
19.669904842
 10
18.5028590484
 20
19.6643425126
 10
18.4890609795
 20
19.6584382284
 10
18.47474634
 20
19.6521963742
 10
18.4599257601
 20
19.6456215851
 10
18.4446102456
 20
19.6387187437
 10
18.4288111698
 20
19.6314929759
 10
18.4125402654
 20
19.6239496478
 10
18.395809615
 20
19.616094361
 10
18.3786316431
 20
19.6079329489
 10
18.361019106
 20
19.5994714722
 10
18.342985083
 20
19.5907162144
 10
18.3245429661
 20
19.5816736773
 10
18.3057064507
 20
19.5723505759
  0
LWPOLYLINE
  5
400
100
AcDbEntity
  8
218_STAMPATO
100
AcDbPolyline
 62
250
  6
CONTINUOUS
 90
34
 70
0
 10
18.5227273613
 20
19.9397078145
 10
18.5217702091
 20
19.9409689168
 10
18.5198974789
 20
19.9423846781
 10
18.5173844164
 20
19.943425971
 10
18.5142328877
 20
19.9440920223
 10
18.5104452333
 20
19.9443823374
 10
18.5060242658
 20
19.9442967006
 10
18.5009732683
 20
19.9438351757
 10
18.4952959917
 20
19.9429981052
 10
18.488996652
 20
19.9417861109
 10
18.482079927
 20
19.9402000927
 10
18.4745509533
 20
19.9382412284
 10
18.4664153218
 20
19.9359109728
 10
18.4576790742
 20
19.9332110562
 10
18.4483486979
 20
19.9301434837
 10
18.4384311218
 20
19.9267105332
 10
18.4279337108
 20
19.922914754
 10
18.4168642602
 20
19.918758965
 10
18.4052309903
 20
19.9142462523
 10
18.3930425401
 20
19.9093799669
 10
18.3803079607
 20
19.9041637227
 10
18.3670367089
 20
19.8986013932
 10
18.35323864
 20
19.8926971091
 10
18.3389240006
 20
19.8864552549
 10
18.3241034208
 20
19.8798804658
 10
18.3087879063
 20
19.8729776244
 10
18.2929888307
 20
19.8657518567
 10
18.2767179263
 20
19.8582085286
 10
18.2599872761
 20
19.8503532418
 10
18.2428093043
 20
19.8421918298
 10
18.2251967674
 20
19.8337303531
 10
18.2071627445
 20
19.8249750954
 10
18.1887206278
 20
19.8159325584
 10
18.1698841125
 20
19.806609457
  0
LWPOLYLINE
  5
401
100
AcDbEntity
  8
218_STAMPATO
100
AcDbPolyline
 62
7
  6
CONTINUOUS
 90
23
 70
0
 10
18.5227273613
 20
19.9397078145
 10
18.5091472678
 20
19.9624314447
 10
18.4949742507
 20
19.9847818089
 10
18.4802185344
 20
20.0067437952
 10
18.4648917622
 20
20.0283011289
 10
18.4490039325
 20
20.0494407236
 10
18.4325630461
 20
20.0701523746
 10
18.4155781129
 20
20.0904245584
 10
18.3980631452
 20
20.1102403581
 10
18.3800342646
 20
20.12958189
 10
18.3615078752
 20
20.1484325093
 10
18.3424938107
 20
20.1667831254
 10
18.3229987346
 20
20.184627408
 10
18.3030335655
 20
20.2019547873
 10
18.2826143963
 20
20.218750731
 10
18.2617557453
 20
20.2350029361
 10
18.2404702196
 20
20.2507011415
 10
18.2187743824
 20
20.2658327067
 10
18.1966895946
 20
20.2803827926
 10
18.1742362308
 20
20.2943386529
 10
18.1514258074
 20
20.3076938072
 10
18.1282668378
 20
20.3204432989
 10
18.1048336732
 20
20.3325487821
  0
LWPOLYLINE
  5
402
100
AcDbEntity
  8
218_STAMPATO
100
AcDbPolyline
 62
250
  6
CONTINUOUS
 90
28
 70
0
 10
18.1698841125
 20
19.806609457
 10
18.1552746121
 20
19.8316037762
 10
18.140244181
 20
19.8562652773
 10
18.1248055325
 20
19.880573101
 10
18.108971725
 20
19.904506687
 10
18.0927561511
 20
19.9280457916
 10
18.0761725266
 20
19.9511705049
 10
18.0592348782
 20
19.9738612672
 10
18.0419575323
 20
19.9960988861
 10
18.0243551025
 20
20.0178645524
 10
18.0064424776
 20
20.0391398561
 10
17.9882348084
 20
20.0599068019
 10
17.9697474956
 20
20.0801478245
 10
17.9509961762
 20
20.0998458036
 10
17.9319967107
 20
20.1189840781
 10
17.9127651692
 20
20.1375464601
 10
17.8933178184
 20
20.1555172493
 10
17.8736711075
 20
20.1728812453
 10
17.853841654
 20
20.1896237612
 10
17.8338462305
 20
20.2057306358
 10
17.8137017494
 20
20.2211882453
 10
17.7934252497
 20
20.2359835153
 10
17.7730338816
 20
20.2501039316
 10
17.7525448929
 20
20.2635375507
 10
17.7319756137
 20
20.27627301
 10
17.7113434421
 20
20.2882995376
 10
17.6906658293
 20
20.2996069611
 10
17.669960265
 20
20.3101857163
  0
LINE
  5
403
100
AcDbEntity
  8
218_STAMPATO
100
AcDbLine
 62
250
  6
CONTINUOUS
 10
18.1698841125
 20
19.806609457
 11
18.3057064507
 21
19.5723505759
  0
LINE
  5
404
100
AcDbEntity
  8
218_STAMPATO
100
AcDbLine
 62
7
  6
CONTINUOUS
 10
18.5227273613
 20
19.9397078145
 11
18.6585496995
 21
19.7054489333
  0
LWPOLYLINE
  5
405
100
AcDbEntity
  8
218_STAMPATO
100
AcDbPolyline
 62
250
  6
CONTINUOUS
 90
37
 70
0
 10
18.3057064507
 20
19.5723505759
 10
18.3273872584
 20
19.5346119043
 10
18.3485760586
 20
19.496543657
 10
18.3692627272
 20
19.458163926
 10
18.3894373074
 20
19.419491003
 10
18.4090902404
 20
19.3805432207
 10
18.4282123604
 20
19.3413389394
 10
18.4467945904
 20
19.3018966811
 10
18.4648279888
 20
19.2622353035
 10
18.4823039791
 20
19.2223738402
 10
18.4992142048
 20
19.1823313102
 10
18.5155506158
 20
19.1421266876
 10
18.5313055064
 20
19.1017790712
 10
18.5464713709
 20
19.0613076511
 10
18.5610409686
 20
19.0207316721
 10
18.5750074112
 20
18.9800704045
 10
18.5883640598
 20
18.9393431646
 10
18.6011045312
 20
18.8985693505
 10
18.6132227597
 20
18.8577684045
 10
18.6247129869
 20
18.8169597436
 10
18.6355697386
 20
18.77616278
 10
18.6457878314
 20
18.7353969572
 10
18.655362415
 20
18.6946817084
 10
18.6642889449
 20
18.654036377
 10
18.6725631587
 20
18.6134802377
 10
18.6801811436
 20
18.5730326
 10
18.6871392854
 20
18.5327127134
 10
18.6934342366
 20
18.4925396887
 10
18.6990630414
 20
18.4525325977
 10
18.7040230271
 20
18.4127105469
 10
18.7083117542
 20
18.3730925816
 10
18.7119272171
 20
18.3336976868
 10
18.7148677422
 20
18.2945445036
 10
18.7171318674
 20
18.2556514069
 10
18.7187185137
 20
18.2170368359
 10
18.7196269973
 20
18.1787192808
 10
18.7198569263
 20
18.1407170012
  0
ELLIPSE
  5
406
100
AcDbEntity
  8
RACCORDO
100
AcDbEllipse
 62
7
  6
CONTINUOUS
 10
-13.0748732779
 20
19.8684926293
 30
0.0
 11
-0.2788336762
 21
0.7504028808
 31
0.0
 40
0.660854826
 41
-0.3090486207
 42
0.0320396926
  0
ELLIPSE
  5
407
100
AcDbEntity
  8
RACCORDO
100
AcDbEllipse
 62
7
  6
CONTINUOUS
 10
1.4911385891
 20
12.5854866958
 30
0.0
 11
-0.2782515188
 21
0.7500674241
 31
0.0
 40
0.6617094163
 41
-2.1859006333
 42
-0.8222376794
  0
ELLIPSE
  5
408
100
AcDbEntity
  8
RACCORDO
100
AcDbEllipse
 62
7
  6
CONTINUOUS
 10
-1.6205491292
 20
-25.2298243931
 30
0.0
 11
-0.2788336762
 21
0.7504028808
 31
0.0
 40
0.660854826
 41
-3.1737081954
 42
-2.187168432
  0
ELLIPSE
  5
409
100
AcDbEntity
  8
ASSI
100
AcDbEllipse
 62
7
  6
CONTINUOUS
 10
-13.0748732779
 20
19.8684926293
 30
0.0
 11
-0.2788336762
 21
0.7504028808
 31
0.0
 40
0.660854826
 41
-0.3090486207
 42
0.0320396926
  0
ELLIPSE
  5
40A
100
AcDbEntity
  8
ASSI
100
AcDbEllipse
 62
7
  6
CONTINUOUS
 10
1.4911385891
 20
12.5854866958
 30
0.0
 11
-0.2782515188
 21
0.7500674241
 31
0.0
 40
0.6617094163
 41
-2.1859006333
 42
-0.8222376794
  0
ELLIPSE
  5
40B
100
AcDbEntity
  8
ASSI
100
AcDbEllipse
 62
7
  6
CONTINUOUS
 10
-1.6205491292
 20
-25.2298243931
 30
0.0
 11
-0.2788336762
 21
0.7504028808
 31
0.0
 40
0.660854826
 41
-3.1737081954
 42
-2.187168432
  0
ELLIPSE
  5
40C
100
AcDbEntity
  8
268
100
AcDbEllipse
 62
7
  6
CONTINUOUS
 10
-0.1864115499
 20
-25.6415425057
 30
0.0
 11
0.110769438
 21
0.2241226716
 31
0.0
 40
0.6088015717
 41
-4.0304836828
 42
-3.1443955108
  0
ELLIPSE
  5
40D
100
AcDbEntity
  8
268
100
AcDbEllipse
 62
7
  6
CONTINUOUS
 10
-13.5507297143
 20
22.5935921096
 30
0.0
 11
0.110769438
 21
0.2241226716
 31
0.0
 40
0.6088015717
 41
-4.0304836828
 42
-3.1443650652
  0
ELLIPSE
  5
40E
100
AcDbEntity
  8
268
100
AcDbEllipse
 62
7
  6
CONTINUOUS
 10
-0.1864115499
 20
15.9114330274
 30
0.0
 11
0.110769438
 21
0.2241226716
 31
0.0
 40
0.6088015717
 41
-4.0304836828
 42
-3.1443650652
  0
ELLIPSE
  5
40F
100
AcDbEntity
  8
268
100
AcDbEllipse
 62
7
  6
CONTINUOUS
 10
3.8701963314
 20
14.6197149783
 30
0.0
 11
-0.1565168911
 21
0.3130623908
 31
0.0
 40
0.6123677712
 41
-2.2554744912
 42
-0.6846781644
  0
ELLIPSE
  5
410
100
AcDbEntity
  8
268
100
AcDbEllipse
 62
7
  6
CONTINUOUS
 10
3.8701963314
 20
-23.5568668664
 30
0.0
 11
-0.1565168911
 21
0.3130623908
 31
0.0
 40
0.6123677712
 41
-3.1363904945
 42
-2.2554744912
  0
ELLIPSE
  5
411
100
AcDbEntity
  8
268
100
AcDbEllipse
 62
7
  6
CONTINUOUS
 10
-1.8963992172
 20
23.7249462835
 30
0.0
 11
0.2999991737
 21
-0.0014183462
 31
0.0
 40
0.4964289597
 41
0.7877451926
 42
2.3527237553
  0
ELLIPSE
  5
412
100
AcDbEntity
  8
268
100
AcDbEllipse
 62
7
  6
CONTINUOUS
 10
3.658064297
 20
20.9477145264
 30
0.0
 11
0.2999991737
 21
-0.0014183462
 31
0.0
 40
0.4964289597
 41
0.7877451926
 42
2.3585415194
  0
ELLIPSE
  5
413
100
AcDbEntity
  8
268
100
AcDbEllipse
 62
7
  6
CONTINUOUS
 10
3.1974164325
 20
15.2372859892
 30
0.0
 11
0.110769438
 21
0.2241226716
 31
0.0
 40
0.6088015717
 41
1.2055040732
 42
2.2526937431
  0
ELLIPSE
  5
414
100
AcDbEntity
  8
268
100
AcDbEllipse
 62
7
  6
CONTINUOUS
 10
-10.1669017319
 20
21.9194450714
 30
0.0
 11
0.110769438
 21
0.2241226716
 31
0.0
 40
0.6088015717
 41
1.2055040732
 42
2.2526937431
  0
ELLIPSE
  5
415
100
AcDbEntity
  8
268
100
AcDbEllipse
 62
7
  6
CONTINUOUS
 10
3.5489129096
 20
16.1650911412
 30
0.0
 11
0.110769438
 21
0.2241226716
 31
0.0
 40
0.6088015717
 41
-1.9360885804
 42
-0.8888910292
  0
ELLIPSE
  5
416
100
AcDbEntity
  8
268
100
AcDbEllipse
 62
7
  6
CONTINUOUS
 10
1.9287380533
 20
17.2361075457
 30
0.0
 11
0.1128509832
 21
0.2230818409
 31
0.0
 40
0.6159267166
 41
0.0028979148
 42
0.6817883054
  0
ELLIPSE
  5
417
100
AcDbEntity
  8
268
100
AcDbEllipse
 62
7
  6
CONTINUOUS
 10
-0.1864115499
 20
16.1648044212
 30
0.0
 11
0.110769438
 21
0.2241226716
 31
0.0
 40
0.6088015717
 41
0.6877230618
 42
2.2527016244
  0
ELLIPSE
  5
418
100
AcDbEntity
  8
268
100
AcDbEllipse
 62
7
  6
CONTINUOUS
 10
-9.8154052548
 20
22.8472502234
 30
0.0
 11
0.110769438
 21
0.2241226716
 31
0.0
 40
0.6088015717
 41
-1.9360885804
 42
-0.8888910292
  0
ELLIPSE
  5
419
100
AcDbEntity
  8
268
100
AcDbEllipse
 62
7
  6
CONTINUOUS
 10
-11.4355801111
 20
23.918266628
 30
0.0
 11
0.1128509832
 21
0.2230818409
 31
0.0
 40
0.6159267166
 41
0.0028979148
 42
0.6817883054
  0
ELLIPSE
  5
41A
100
AcDbEntity
  8
268
100
AcDbEllipse
 62
7
  6
CONTINUOUS
 10
-13.5507297143
 20
22.8469635034
 30
0.0
 11
0.110769438
 21
0.2241226716
 31
0.0
 40
0.6088015717
 41
0.6877230618
 42
2.2527016244
  0
ELLIPSE
  5
41B
100
AcDbEntity
  8
268
100
AcDbEllipse
 62
7
  6
CONTINUOUS
 10
3.5489129096
 20
-25.3954419745
 30
0.0
 11
0.110769438
 21
0.2241226716
 31
0.0
 40
0.6088015717
 41
-2.4538695918
 42
-0.8888910292
  0
ELLIPSE
  5
41C
100
AcDbEntity
  8
268
100
AcDbEllipse
 62
7
  6
CONTINUOUS
 10
-0.1864115499
 20
-25.388171112
 30
0.0
 11
0.110769438
 21
0.2241226716
 31
0.0
 40
0.6088015717
 41
1.2055040732
 42
2.2527016244
  0
ELLIPSE
  5
41D
100
AcDbEntity
  8
268
100
AcDbEllipse
 62
7
  6
CONTINUOUS
 10
3.5489129096
 20
-25.1345129982
 30
0.0
 11
0.110769438
 21
0.2241226716
 31
0.0
 40
0.6088015717
 41
5.394294278
 42
6.4414918292
  0
ELLIPSE
  5
41E
100
AcDbEntity
  8
268
100
AcDbEllipse
 62
7
  6
CONTINUOUS
 10
-9.8154052548
 20
23.1081791998
 30
0.0
 11
0.110769438
 21
0.2241226716
 31
0.0
 40
0.6088015717
 41
5.394294278
 42
6.9592728406
  0
ELLIPSE
  5
41F
100
AcDbEntity
  8
268
100
AcDbEllipse
 62
7
  6
CONTINUOUS
 10
3.5489129096
 20
16.4260201176
 30
0.0
 11
0.110769438
 21
0.2241226716
 31
0.0
 40
0.6088015717
 41
5.394294278
 42
6.9592728406
  0
ELLIPSE
  5
420
100
AcDbEntity
  8
268
100
AcDbEllipse
 62
7
  6
CONTINUOUS
 10
-1.71594724
 20
22.4028861135
 30
0.0
 11
0.2999981629
 21
-0.0021225547
 31
0.0
 40
0.4946372042
 41
-0.7818985079
 42
0.0034997008
  0
ELLIPSE
  5
421
100
AcDbEntity
  8
268
100
AcDbEllipse
 62
7
  6
CONTINUOUS
 10
3.8385162741
 20
19.6256543564
 30
0.0
 11
0.2999981629
 21
-0.0021225547
 31
0.0
 40
0.4946372042
 41
-0.7760807437
 42
0.0035109161
  0
ELLIPSE
  5
422
100
AcDbEntity
  8
268
100
AcDbEllipse
 62
7
  6
CONTINUOUS
 10
-7.8648929675
 20
20.8047649155
 30
0.0
 11
0.2999991335
 21
0.0014318851
 31
0.0
 40
0.5035541159
 41
8.6427941204
 42
10.207772683
  0
ELLIPSE
  5
423
100
AcDbEntity
  8
268
100
AcDbEllipse
 62
7
  6
CONTINUOUS
 10
-13.8781838764
 20
21.0076948142
 30
0.0
 11
-0.1565168911
 21
0.3130623908
 31
0.0
 40
0.6123677712
 41
-0.6846781644
 42
0.8861181623
  0
ELLIPSE
  5
424
100
AcDbEntity
  8
268
100
AcDbEllipse
 62
7
  6
CONTINUOUS
 10
1.3953225972
 20
13.3709415774
 30
0.0
 11
-0.1565168911
 21
0.3130623908
 31
0.0
 40
0.6123677712
 41
-2.2554744912
 42
-0.6846781644
  0
ELLIPSE
  5
425
100
AcDbEntity
  8
268
100
AcDbEllipse
 62
7
  6
CONTINUOUS
 10
-2.0723838994
 20
17.9085103815
 30
0.0
 11
0.2999991335
 21
0.0014318851
 31
0.0
 40
0.5035541159
 41
-2.3585979313
 42
-0.7936193687
  0
ELLIPSE
  5
426
100
AcDbEntity
  8
268
100
AcDbEllipse
 62
7
  6
CONTINUOUS
 10
-2.0723838994
 20
16.6943113057
 30
0.0
 11
0.2999980272
 21
0.0021530184
 31
0.0
 40
0.5053247124
 41
-2.3598210761
 42
-0.7948425135
  0
ELLIPSE
  5
427
100
AcDbEntity
  8
268
100
AcDbEllipse
 62
7
  6
CONTINUOUS
 10
-7.8648929675
 20
19.5905658397
 30
0.0
 11
0.2999980272
 21
0.0021530184
 31
0.0
 40
0.5053247124
 41
3.1379773283
 42
3.9233642311
  0
ELLIPSE
  5
428
100
AcDbEntity
  8
268
100
AcDbEllipse
 62
7
  6
CONTINUOUS
 10
3.8385162741
 20
20.8574885378
 30
0.0
 11
0.2999991737
 21
-0.0014183462
 31
0.0
 40
0.4964289597
 41
-0.77723337
 42
0.7877451926
  0
ELLIPSE
  5
429
100
AcDbEntity
  8
268
100
AcDbEllipse
 62
7
  6
CONTINUOUS
 10
-1.71594724
 20
23.6347202949
 30
0.0
 11
0.2999991737
 21
-0.0014183462
 31
0.0
 40
0.4964289597
 41
-0.7830511342
 42
0.7877451926
  0
ELLIPSE
  5
42A
100
AcDbEntity
  8
268
100
AcDbEllipse
 62
7
  6
CONTINUOUS
 10
1.3953225972
 20
-24.7829671997
 30
0.0
 11
-0.1565168911
 21
0.3130623908
 31
0.0
 40
0.6123677712
 41
2.4569144891
 42
4.0277108159
  0
ELLIPSE
  5
42B
100
AcDbEntity
  8
268
100
AcDbEllipse
 62
7
  6
CONTINUOUS
 10
3.1974164325
 20
-24.5623181502
 30
0.0
 11
0.110769438
 21
0.2241226716
 31
0.0
 40
0.6088015717
 41
2.2527095058
 42
3.2998991756
  0
ELLIPSE
  5
42C
100
AcDbEntity
  8
268
100
AcDbEllipse
 62
7
  6
CONTINUOUS
 10
1.4214218257
 20
15.3608877334
 30
0.0
 11
0.1128509832
 21
0.2230818409
 31
0.0
 40
0.6159267166
 41
0.6934238338
 42
2.2584023964
  0
ELLIPSE
  5
42D
100
AcDbEntity
  8
268
100
AcDbEllipse
 62
7
  6
CONTINUOUS
 10
1.4214218257
 20
15.1075163396
 30
0.0
 11
0.1128509832
 21
0.2230818409
 31
0.0
 40
0.6159267166
 41
-4.0247829108
 42
-2.9775853596
  0
ELLIPSE
  5
42E
100
AcDbEntity
  8
268
100
AcDbEllipse
 62
7
  6
CONTINUOUS
 10
-11.9428963387
 20
22.0430468156
 30
0.0
 11
0.1128509832
 21
0.2230818409
 31
0.0
 40
0.6159267166
 41
0.6934238338
 42
2.2584023964
  0
ELLIPSE
  5
42F
100
AcDbEntity
  8
268
100
AcDbEllipse
 62
7
  6
CONTINUOUS
 10
-11.9428963387
 20
21.7896754218
 30
0.0
 11
0.1128509832
 21
0.2230818409
 31
0.0
 40
0.6159267166
 41
-4.0247829108
 42
-2.9775853596
  0
ELLIPSE
  5
430
100
AcDbEntity
  8
268
100
AcDbEllipse
 62
7
  6
CONTINUOUS
 10
1.4214218257
 20
-26.4454591935
 30
0.0
 11
0.1128509832
 21
0.2230818409
 31
0.0
 40
0.6159267166
 41
-4.0247829108
 42
-2.4598043482
  0
ELLIPSE
  5
431
100
AcDbEntity
  8
268
100
AcDbEllipse
 62
7
  6
CONTINUOUS
 10
1.4214218257
 20
-26.1920877998
 30
0.0
 11
0.1128509832
 21
0.2230818409
 31
0.0
 40
0.6159267166
 41
1.2112048452
 42
2.2584023964
  0
ELLIPSE
  5
432
100
AcDbEntity
  8
268
100
AcDbEllipse
 62
7
  6
CONTINUOUS
 10
-0.256883709
 20
-19.3413128328
 30
0.0
 11
-0.542618321
 21
0.8478124368
 31
0.0
 40
0.5451249042
 41
-3.2164376038
 42
-2.3115524019
  0
ELLIPSE
  5
433
100
AcDbEntity
  8
218_STAMPATO
100
AcDbEllipse
 62
7
  6
CONTINUOUS
 10
3.8348409923
 20
22.5172415106
 30
0.0
 11
2.7499924258
 21
-0.0130015067
 31
0.0
 40
0.4964289597
 41
2.3672681657
 42
2.9293761837
  0
ELLIPSE
  5
434
100
AcDbEntity
  8
218_STAMPATO
100
AcDbEllipse
 62
7
  6
CONTINUOUS
 10
11.2594621948
 20
18.8049309094
 30
0.0
 11
2.7499924258
 21
-0.0130015067
 31
0.0
 40
0.4964289597
 41
2.3672681657
 42
2.9293761949
  0
ELLIPSE
  5
435
100
AcDbEntity
  8
218_STAMPATO
100
AcDbEllipse
 62
7
  6
CONTINUOUS
 10
11.9312136369
 20
18.7030074596
 30
0.0
 11
2.7583876426
 21
-0.0130411979
 31
0.0
 40
0.4964289597
 41
0.8884696282
 42
2.3585415194
  0
ELLIPSE
  5
436
100
AcDbEntity
  8
218_STAMPATO
100
AcDbEllipse
 62
7
  6
CONTINUOUS
 10
11.9312136369
 20
18.7030074596
 30
0.0
 11
2.7583876426
 21
-0.0130411979
 31
0.0
 40
0.4964289597
 41
0.4412294433
 42
0.6870207571
  0
ELLIPSE
  5
437
100
AcDbEntity
  8
218_STAMPATO
100
AcDbEllipse
 62
7
  6
CONTINUOUS
 10
4.5065924344
 20
22.4153180608
 30
0.0
 11
2.7583876426
 21
-0.0130411979
 31
0.0
 40
0.4964289597
 41
0.4412294433
 42
0.6870207571
  0
ELLIPSE
  5
438
100
AcDbEntity
  8
218_STAMPATO
100
AcDbEllipse
 62
7
  6
CONTINUOUS
 10
4.5065924344
 20
22.4153180608
 30
0.0
 11
2.7583876426
 21
-0.0130411979
 31
0.0
 40
0.4964289597
 41
0.8884696282
 42
2.3585415194
  0
ELLIPSE
  5
439
100
AcDbEntity
  8
218_STAMPATO
100
AcDbEllipse
 62
7
  6
CONTINUOUS
 10
16.716912341
 20
19.9084754595
 30
0.0
 11
0.79574694
 21
0.7129684349
 31
0.0
 40
0.2882345029
 41
0.1135239366
 42
0.7807533904
  0
ELLIPSE
  5
43A
100
AcDbEntity
  8
218_STAMPATO
100
AcDbEllipse
 62
7
  6
CONTINUOUS
 10
9.2922911385
 20
23.6207860607
 30
0.0
 11
0.79574694
 21
0.7129684349
 31
0.0
 40
0.2882345029
 41
0.1135239366
 42
0.7807533904
  0
ELLIPSE
  5
43B
100
AcDbEntity
  8
218_STAMPATO
100
AcDbEllipse
 62
7
  6
CONTINUOUS
 10
12.8195242704
 20
21.8571694948
 30
0.0
 11
0.4410298232
 21
0.8975092442
 31
0.0
 40
0.607010042
 41
-0.8902711325
 42
-0.7587130969
  0
ELLIPSE
  5
43C
100
AcDbEntity
  8
218_STAMPATO
100
AcDbEllipse
 62
7
  6
CONTINUOUS
 10
5.3949030679
 20
25.569480096
 30
0.0
 11
0.4410298232
 21
0.8975092442
 31
0.0
 40
0.607010042
 41
-0.8902711325
 42
-0.7587130969
  0
ELLIPSE
  5
43D
100
AcDbEntity
  8
218_STAMPATO
100
AcDbEllipse
 62
7
  6
CONTINUOUS
 10
5.448458658
 20
25.542702301
 30
0.0
 11
-0.3106730325
 21
1.1082908718
 31
0.0
 40
0.6760995073
 41
4.9783291412
 42
6.4001141399
  0
ELLIPSE
  5
43E
100
AcDbEntity
  8
218_STAMPATO
100
AcDbEllipse
 62
7
  6
CONTINUOUS
 10
12.8730798604
 20
21.8303916997
 30
0.0
 11
-0.3106730325
 21
1.1082908718
 31
0.0
 40
0.6760995073
 41
4.9783291412
 42
6.4001141399
  0
ELLIPSE
  5
43F
100
AcDbEntity
  8
218_STAMPATO
100
AcDbEllipse
 62
7
  6
CONTINUOUS
 10
11.2359291065
 20
20.0321431449
 30
0.0
 11
3.3022643479
 21
-0.04629945
 31
0.0
 40
0.4892378494
 41
2.3616770883
 42
5.5059722822
  0
ELLIPSE
  5
440
100
AcDbEntity
  8
218_STAMPATO
100
AcDbEllipse
 62
7
  6
CONTINUOUS
 10
11.9312136369
 20
20.6834955722
 30
0.0
 11
2.7583515655
 21
-1.4175703156
 31
0.0
 40
0.0109499087
 41
-0.8804952881
 42
-0.85781018
  0
ELLIPSE
  5
441
100
AcDbEntity
  8
218_STAMPATO
100
AcDbEllipse
 62
7
  6
CONTINUOUS
 10
4.5065924344
 20
24.3958061734
 30
0.0
 11
2.7583515655
 21
-1.4175703156
 31
0.0
 40
0.0109499087
 41
-0.7017315251
 42
-0.679046417
  0
ELLIPSE
  5
442
100
AcDbEntity
  8
218_STAMPATO
100
AcDbEllipse
 62
7
  6
CONTINUOUS
 10
4.5065924344
 20
22.8483307627
 30
0.0
 11
2.7583876426
 21
-0.0130411979
 31
0.0
 40
0.4964289597
 41
0.1877225706
 42
2.3585415194
  0
ELLIPSE
  5
443
100
AcDbEntity
  8
218_STAMPATO
100
AcDbEllipse
 62
7
  6
CONTINUOUS
 10
11.9312136369
 20
19.1360201615
 30
0.0
 11
2.7583876426
 21
-0.0130411979
 31
0.0
 40
0.4964289597
 41
0.1877225706
 42
2.3585415194
  0
ELLIPSE
  5
444
100
AcDbEntity
  8
218_STAMPATO
100
AcDbEllipse
 62
7
  6
CONTINUOUS
 10
4.5065924344
 20
24.3958061734
 30
0.0
 11
2.7583515655
 21
-1.4175703156
 31
0.0
 40
0.0109499087
 41
-0.8804952881
 42
-0.85781018
  0
ELLIPSE
  5
445
100
AcDbEntity
  8
218_STAMPATO
100
AcDbEllipse
 62
7
  6
CONTINUOUS
 10
11.9312136369
 20
20.6834955722
 30
0.0
 11
2.7583515655
 21
-1.4175703156
 31
0.0
 40
0.0109499087
 41
-0.7017315251
 42
-0.679046417
  0
ELLIPSE
  5
446
100
AcDbEntity
  8
218_STAMPATO
100
AcDbEllipse
 62
7
  6
CONTINUOUS
 10
3.8113079041
 20
23.7444537462
 30
0.0
 11
3.3022643479
 21
-0.04629945
 31
0.0
 40
0.4892378494
 41
2.3616770883
 42
5.5059722822
  0
ELLIPSE
  5
447
100
AcDbEntity
  8
218_STAMPATO
100
AcDbEllipse
 62
7
  6
CONTINUOUS
 10
-3.5349947832
 20
19.5745401324
 30
0.0
 11
1.2141619185
 21
0.9541526469
 31
0.0
 40
0.2329077568
 41
0.1095198182
 42
0.114024621
  0
ENDSEC
  0
SECTION
  2
OBJECTS
  0
DICTIONARY
  5
C
100
AcDbDictionary
280
0
281
1
  3
ACAD_GROUP
350
D
  3
ACAD_MLINESTYLE
350
17
  3
ACAD_LAYOUT
350
1A
  3
ACAD_PLOTSETTINGS
350
19
  3
ACAD_PLOTSTYLENAME
350
E
  0
DICTIONARY
  5
D
102
{ACAD_REACTORS
330
C
102
}
100
AcDbDictionary
280
0
281
1
  0
ACDBDICTIONARYWDFLT
  5
E
102
{ACAD_REACTORS
330
C
102
}
100
AcDbDictionary
281
1
  3
Normal
350
F
100
AcDbDictionaryWithDefault
340
F
  0
DICTIONARY
  5
17
102
{ACAD_REACTORS
330
C
102
}
100
AcDbDictionary
280
0
281
1
  3
Standard
350
18
  0
DICTIONARY
  5
19
102
{ACAD_REACTORS
330
C
102
}
100
AcDbDictionary
281
1
  0
DICTIONARY
  5
1A
102
{ACAD_REACTORS
330
C
102
}
100
AcDbDictionary
281
1
  3
Model
350
448
  3
Layout1
350
449
  0
ACDBPLACEHOLDER
  5
F
102
{ACAD_REACTORS
330
E
102
}
  0
MLINESTYLE
  5
18
102
{ACAD_REACTORS
330
17
102
}
100
AcDbMlineStyle
  2
STANDARD
 70
0
  3

 62
256
 51
90.0
 52
90.0
 71
2
 49
0.5
 62
256
  6
BYLAYER
 49
-0.5
 62
256
  6
BYLAYER
  0
LAYOUT
  5
448
102
{ACAD_REACTORS
330
1A
102
}
100
AcDbPlotSettings
  1

  2
none_device
  4
ISO_A4_(297.00_x_210.00_MM)
  6

 40
0.0
 41
0.0
 42
0.0
 43
0.0
 44
297.0
 45
210.0
 46
0.0
 47
0.0
 48
0.0
 49
0.0
140
0.0
141
0.0
142
1.0
143
1.0
 70
1024
 72
1
 73
0
 74
0
  7

 75
0
147
1.0
148
0.0
149
0.0
100
AcDbLayout
  1
Model
 70
0
 71
0
 10
0.0
 20
0.0
 11
297.0
 21
210.0
 12
0.0
 22
0.0
 32
0.0
 14
0.0
 24
0.0
 34
0.0
 15
0.0
 25
0.0
 35
0.0
146
0.0
 13
0.0
 23
0.0
 33
0.0
 16
1.0
 26
0.0
 36
0.0
 17
0.0
 27
1.0
 37
0.0
 76
0
330
229
345
0
346
0
  0
LAYOUT
  5
449
102
{ACAD_REACTORS
330
1A
102
}
100
AcDbPlotSettings
  1

  2
none_device
  4
ISO_A4_(297.00_x_210.00_MM)
  6

 40
0.0
 41
0.0
 42
0.0
 43
0.0
 44
297.0
 45
210.0
 46
0.0
 47
0.0
 48
0.0
 49
0.0
140
0.0
141
0.0
142
1.0
143
1.0
 70
0
 72
1
 73
0
 74
0
  7

 75
0
147
1.0
148
0.0
149
0.0
100
AcDbLayout
  1
Layout1
 70
0
 71
1
 10
0.0
 20
0.0
 11
297.0
 21
210.0
 12
0.0
 22
0.0
 32
0.0
 14
0.0
 24
0.0
 34
0.0
 15
0.0
 25
0.0
 35
0.0
146
0.0
 13
0.0
 23
0.0
 33
0.0
 16
1.0
 26
0.0
 36
0.0
 17
0.0
 27
1.0
 37
0.0
 76
0
330
22A
345
0
346
0
  0
ENDSEC
  0
EOF
