  0
SECTION
  2
HEADER
  9
$ACADVER
  1
AC1024
  9
$DWGCODEPAGE
  3
ANSI_1252
  9
$EXTMAX
 10
279.4
 20
215.9
 30
0.0
  9
$EXTMIN
 10
0.0
 20
0.0
 30
0.0
  9
$LIMMIN
 10
0.0
 20
0.0
  9
$LIMMAX
 10
279.4
 20
215.9
  9
$VIEWCTR
 10
139.7
 20
107.95
  9
$VIEWSIZE
 40
215.9
  9
$CLAYER
  8
0
  9
$LTSCALE
 40
15.367
  9
$CELTYPE
  6
BYLAYER
  9
$DIMSCALE
 40
1.0
  9
$DIMASZ
 40
3.0
  9
$DIMEXO
 40
0.5
  9
$DIMDLI
 40
10.6172
  9
$DIMEXE
 40
1.5
  9
$DIMCEN
 40
2.5146
  9
$DIMLFAC
 40
1.0
  9
$DIMBLK
  1
_FILLED
  9
$DIMALT
 70
0
  9
$DIMALTF
 40
0.0393700787
  9
$DIMTXT
 40
3.0
  9
$DIMTOL
 70
1
  9
$DIMLIM
 70
0
  9
$DIMTFAC
 40
1.0
  9
$DIMTP
 40
0.01
  9
$DIMTM
 40
0.01
  9
$DIMGAP
 40
0.625
  9
$DIMDSEP
 70
44
  9
$AUNITS
 70
0
  9
$PDMODE
 70
3
  9
$PDSIZE
 40
3.0
  9
$HANDSEED
  5
601
  9
$TILEMODE
 70
1
  9
$MEASUREMENT
 70
1
  9
$INSUNITS
 70
4
  0
ENDSEC
  0
SECTION
  2
CLASSES
  0
CLASS
  1
ACDBDICTIONARYWDFLT
  2
AcDbDictionaryWithDefault
  3
AutoCAD 2000
 90
0
 91
1
280
0
281
0
  0
CLASS
  1
ACDBPLACEHOLDER
  2
AcDbPlaceHolder
  3
AutoCAD 2000
 90
0
 91
1
280
0
281
0
  0
CLASS
  1
LAYOUT
  2
AcDbLayout
  3
AutoCAD 2000
 90
0
 91
0
280
0
281
0
  0
ENDSEC
  0
SECTION
  2
TABLES
  0
TABLE
  2
VPORT
  5
8
100
AcDbSymbolTable
 70
2
  0
VPORT
  5
1F4
100
AcDbSymbolTableRecord
100
AcDbViewportTableRecord
  2
*ACTIVE
 70
0
 10
0.0
 20
0.0
 11
1.0
 21
1.0
 12
139.7
 22
107.95
 13
0.0
 23
0.0
 14
1.0
 24
1.0
 15
0.0
 25
0.0
 16
0.0
 26
0.0
 36
1.0
 17
0.0
 27
0.0
 37
0.0
 40
215.9
 41
1.2941176471
 42
50.0
 43
0.0
 44
0.0
 50
0.0
 51
0.0
 71
0
 72
100
 73
1
 74
1
 75
0
 76
0
 77
0
 78
0
  0
ENDTAB
  0
TABLE
  2
LTYPE
  5
5
100
AcDbSymbolTable
 70
6
  0
LTYPE
  5
14
100
AcDbSymbolTableRecord
100
AcDbLinetypeTableRecord
  2
BYBLOCK
 70
0
  3

 72
65
 73
0
 40
0.0
  0
LTYPE
  5
15
100
AcDbSymbolTableRecord
100
AcDbLinetypeTableRecord
  2
BYLAYER
 70
0
  3

 72
65
 73
0
 40
0.0
  0
LTYPE
  5
16
100
AcDbSymbolTableRecord
100
AcDbLinetypeTableRecord
  2
CONTINUOUS
 70
64
  3
Solid line
 72
65
 73
0
 40
0.0
  0
LTYPE
  5
1F5
100
AcDbSymbolTableRecord
100
AcDbLinetypeTableRecord
  2
CENTER
 70
64
  3
____ _ ____ _ ____ _ ____ _ ____ _ ____ _ ____
 72
65
 73
4
 40
0.6
 49
0.375
 74
0
 49
-0.075
 74
0
 49
0.075
 74
0
 49
-0.075
 74
0
  0
LTYPE
  5
1F6
100
AcDbSymbolTableRecord
100
AcDbLinetypeTableRecord
  2
HIDDEN
 70
64
  3
- - - - - - - - - - - - - - - - - - - -
 72
65
 73
2
 40
0.2
 49
0.1
 74
0
 49
-0.1
 74
0
  0
LTYPE
  5
1F7
100
AcDbSymbolTableRecord
100
AcDbLinetypeTableRecord
  2
PHANTOM
 70
64
  3
_____ _ _ _____ _ _ _____ _ _ _____
 72
65
 73
6
 40
0.8
 49
0.45
 74
0
 49
-0.05
 74
0
 49
0.1
 74
0
 49
-0.05
 74
0
 49
0.1
 74
0
 49
-0.05
 74
0
  0
LTYPE
  5
1F8
100
AcDbSymbolTableRecord
100
AcDbLinetypeTableRecord
  2
DOT
 70
64
  3
. . . . . . . . . . . . . . . . . . . .
 72
65
 73
2
 40
0.2
 49
0.1
 74
0
 49
-0.1
 74
0
  0
LTYPE
  5
1F9
100
AcDbSymbolTableRecord
100
AcDbLinetypeTableRecord
  2
DASHED
 70
64
  3
- - - - - - - - - - - - - - - - - - - -
 72
65
 73
2
 40
0.2
 49
0.1
 74
0
 49
-0.1
 74
0
  0
ENDTAB
  0
TABLE
  2
LAYER
  5
2
100
AcDbSymbolTable
 70
36
  0
LAYER
  5
10
100
AcDbSymbolTableRecord
100
AcDbLayerTableRecord
  2
0
 70
0
 62
7
  6
CONTINUOUS
370
-3
390
F
  0
LAYER
  5
1FA
100
AcDbSymbolTableRecord
100
AcDbLayerTableRecord
  2
DEFAULT_1
 70
0
 62
7
  6
CENTER
370
-3
390
F
  0
LAYER
  5
1FB
100
AcDbSymbolTableRecord
100
AcDbLayerTableRecord
  2
DEFAULT_2
 70
0
 62
7
  6
HIDDEN
370
-3
390
F
  0
LAYER
  5
1FC
100
AcDbSymbolTableRecord
100
AcDbLayerTableRecord
  2
DEFAULT_3
 70
0
 62
7
  6
PHANTOM
370
-3
390
F
  0
LAYER
  5
1FD
100
AcDbSymbolTableRecord
100
AcDbLayerTableRecord
  2
218_INCISO
 70
0
 62
7
  6
CONTINUOUS
370
-3
390
F
  0
LAYER
  5
1FE
100
AcDbSymbolTableRecord
100
AcDbLayerTableRecord
  2
218_STAMPATO
 70
0
 62
7
  6
CONTINUOUS
370
-3
390
F
  0
LAYER
  5
1FF
100
AcDbSymbolTableRecord
100
AcDbLayerTableRecord
  2
260
 70
0
 62
7
  6
CONTINUOUS
370
-3
390
F
  0
LAYER
  5
200
100
AcDbSymbolTableRecord
100
AcDbLayerTableRecord
  2
268
 70
0
 62
7
  6
CONTINUOUS
370
-3
390
F
  0
LAYER
  5
201
100
AcDbSymbolTableRecord
100
AcDbLayerTableRecord
  2
284
 70
0
 62
7
  6
CONTINUOUS
370
-3
390
F
  0
LAYER
  5
202
100
AcDbSymbolTableRecord
100
AcDbLayerTableRecord
  2
320
 70
0
 62
7
  6
CONTINUOUS
370
-3
390
F
  0
LAYER
  5
203
100
AcDbSymbolTableRecord
100
AcDbLayerTableRecord
  2
340
 70
0
 62
7
  6
CONTINUOUS
370
-3
390
F
  0
LAYER
  5
204
100
AcDbSymbolTableRecord
100
AcDbLayerTableRecord
  2
712
 70
0
 62
7
  6
CONTINUOUS
370
-3
390
F
  0
LAYER
  5
205
100
AcDbSymbolTableRecord
100
AcDbLayerTableRecord
  2
715
 70
0
 62
7
  6
CONTINUOUS
370
-3
390
F
  0
LAYER
  5
206
100
AcDbSymbolTableRecord
100
AcDbLayerTableRecord
  2
ASSI
 70
0
 62
7
  6
CONTINUOUS
370
-3
390
F
  0
LAYER
  5
207
100
AcDbSymbolTableRecord
100
AcDbLayerTableRecord
  2
COLORE_TOP
 70
0
 62
7
  6
CONTINUOUS
370
-3
390
F
  0
LAYER
  5
208
100
AcDbSymbolTableRecord
100
AcDbLayerTableRecord
  2
COORDINATE
 70
0
 62
7
  6
CONTINUOUS
370
-3
390
F
  0
LAYER
  5
209
100
AcDbSymbolTableRecord
100
AcDbLayerTableRecord
  2
COORD_ORIGINE
 70
0
 62
7
  6
CONTINUOUS
370
-3
390
F
  0
LAYER
  5
20A
100
AcDbSymbolTableRecord
100
AcDbLayerTableRecord
  2
COPY-PUBBLISH
 70
0
 62
7
  6
CONTINUOUS
370
-3
390
F
  0
LAYER
  5
20B
100
AcDbSymbolTableRecord
100
AcDbLayerTableRecord
  2
COPY_PUBLISH
 70
0
 62
7
  6
CONTINUOUS
370
-3
390
F
  0
LAYER
  5
20C
100
AcDbSymbolTableRecord
100
AcDbLayerTableRecord
  2
COSMETIC
 70
0
 62
7
  6
CONTINUOUS
370
-3
390
F
  0
LAYER
  5
20D
100
AcDbSymbolTableRecord
100
AcDbLayerTableRecord
  2
COSMETICHE
 70
0
 62
7
  6
CONTINUOUS
370
-3
390
F
  0
LAYER
  5
20E
100
AcDbSymbolTableRecord
100
AcDbLayerTableRecord
  2
CURVA_CENTRALE
 70
0
 62
7
  6
CONTINUOUS
370
-3
390
F
  0
LAYER
  5
20F
100
AcDbSymbolTableRecord
100
AcDbLayerTableRecord
  2
CURVE
 70
0
 62
7
  6
CONTINUOUS
370
-3
390
F
  0
LAYER
  5
210
100
AcDbSymbolTableRecord
100
AcDbLayerTableRecord
  2
DRAFT
 70
0
 62
7
  6
CONTINUOUS
370
-3
390
F
  0
LAYER
  5
211
100
AcDbSymbolTableRecord
100
AcDbLayerTableRecord
  2
IMPORT
 70
0
 62
7
  6
CONTINUOUS
370
-3
390
F
  0
LAYER
  5
212
100
AcDbSymbolTableRecord
100
AcDbLayerTableRecord
  2
IMPORTED
 70
0
 62
7
  6
CONTINUOUS
370
-3
390
F
  0
LAYER
  5
213
100
AcDbSymbolTableRecord
100
AcDbLayerTableRecord
  2
IMPORT_IGES
 70
0
 62
7
  6
CONTINUOUS
370
-3
390
F
  0
LAYER
  5
214
100
AcDbSymbolTableRecord
100
AcDbLayerTableRecord
  2
INCISIONI_LASER
 70
0
 62
7
  6
CONTINUOUS
370
-3
390
F
  0
LAYER
  5
215
100
AcDbSymbolTableRecord
100
AcDbLayerTableRecord
  2
INTF_1
 70
0
 62
7
  6
CONTINUOUS
370
-3
390
F
  0
LAYER
  5
216
100
AcDbSymbolTableRecord
100
AcDbLayerTableRecord
  2
INTF_11
 70
0
 62
7
  6
CONTINUOUS
370
-3
390
F
  0
LAYER
  5
217
100
AcDbSymbolTableRecord
100
AcDbLayerTableRecord
  2
INTF_2
 70
0
 62
7
  6
CONTINUOUS
370
-3
390
F
  0
LAYER
  5
218
100
AcDbSymbolTableRecord
100
AcDbLayerTableRecord
  2
INTF_5
 70
0
 62
7
  6
CONTINUOUS
370
-3
390
F
  0
LAYER
  5
219
100
AcDbSymbolTableRecord
100
AcDbLayerTableRecord
  2
INTF_6
 70
0
 62
7
  6
CONTINUOUS
370
-3
390
F
  0
LAYER
  5
21A
100
AcDbSymbolTableRecord
100
AcDbLayerTableRecord
  2
INTF_CYAN
 70
0
 62
7
  6
CONTINUOUS
370
-3
390
F
  0
LAYER
  5
21B
100
AcDbSymbolTableRecord
100
AcDbLayerTableRecord
  2
NOTE
 70
0
 62
7
  6
CONTINUOUS
370
-3
390
F
  0
LAYER
  5
21C
100
AcDbSymbolTableRecord
100
AcDbLayerTableRecord
  2
PIANI
 70
0
 62
7
  6
CONTINUOUS
370
-3
390
F
  0
LAYER
  5
21D
100
AcDbSymbolTableRecord
100
AcDbLayerTableRecord
  2
PIANI_DI_RIFERIMENTO
 70
0
 62
7
  6
CONTINUOUS
370
-3
390
F
  0
LAYER
  5
21E
100
AcDbSymbolTableRecord
100
AcDbLayerTableRecord
  2
PIANI_ORIGINE
 70
0
 62
7
  6
CONTINUOUS
370
-3
390
F
  0
LAYER
  5
21F
100
AcDbSymbolTableRecord
100
AcDbLayerTableRecord
  2
PIANI_RIFERIMENTO
 70
0
 62
7
  6
CONTINUOUS
370
-3
390
F
  0
LAYER
  5
220
100
AcDbSymbolTableRecord
100
AcDbLayerTableRecord
  2
PIANI_SFORMO
 70
0
 62
7
  6
CONTINUOUS
370
-3
390
F
  0
LAYER
  5
221
100
AcDbSymbolTableRecord
100
AcDbLayerTableRecord
  2
PUNTI
 70
0
 62
7
  6
CONTINUOUS
370
-3
390
F
  0
LAYER
  5
222
100
AcDbSymbolTableRecord
100
AcDbLayerTableRecord
  2
RACCORDO
 70
0
 62
7
  6
CONTINUOUS
370
-3
390
F
  0
LAYER
  5
223
100
AcDbSymbolTableRecord
100
AcDbLayerTableRecord
  2
RGB__255__255__255__
 70
0
 62
7
  6
CONTINUOUS
370
-3
390
F
  0
LAYER
  5
224
100
AcDbSymbolTableRecord
100
AcDbLayerTableRecord
  2
RINTRACCIABILITA
 70
0
 62
7
  6
CONTINUOUS
370
-3
390
F
  0
LAYER
  5
225
100
AcDbSymbolTableRecord
100
AcDbLayerTableRecord
  2
SMUSSO
 70
0
 62
7
  6
CONTINUOUS
370
-3
390
F
  0
LAYER
  5
226
100
AcDbSymbolTableRecord
100
AcDbLayerTableRecord
  2
SNAPLINE
 70
0
 62
7
  6
CONTINUOUS
370
-3
390
F
  0
LAYER
  5
227
100
AcDbSymbolTableRecord
100
AcDbLayerTableRecord
  2
SUPERFICI
 70
0
 62
7
  6
CONTINUOUS
370
-3
390
F
  0
LAYER
  5
228
100
AcDbSymbolTableRecord
100
AcDbLayerTableRecord
  2
TRASH
 70
0
 62
7
  6
CONTINUOUS
370
-3
390
F
  0
LAYER
  5
229
100
AcDbSymbolTableRecord
100
AcDbLayerTableRecord
  2
WHITE
 70
0
 62
7
  6
CONTINUOUS
370
-3
390
F
  0
LAYER
  5
22A
100
AcDbSymbolTableRecord
100
AcDbLayerTableRecord
  2
XSEC_DATUMS
 70
0
 62
7
  6
CONTINUOUS
370
-3
390
F
  0
ENDTAB
  0
TABLE
  2
STYLE
  5
3
100
AcDbSymbolTable
 70
1
  0
STYLE
  5
11
100
AcDbSymbolTableRecord
100
AcDbTextStyleTableRecord
  2
STANDARD
 70
0
 40
0.0
 41
0.8
 50
0.0
 71
0
 42
0.2
  3
txt
  4

  0
STYLE
  5
22B
100
AcDbSymbolTableRecord
100
AcDbTextStyleTableRecord
  2
TEXTSTYLE_1
 70
0
 40
0.0
 41
0.8
 50
0.0
 71
0
 42
0.2
  3
gdt
  4

  0
ENDTAB
  0
TABLE
  2
VIEW
  5
6
100
AcDbSymbolTable
 70
0
  0
ENDTAB
  0
TABLE
  2
UCS
  5
7
100
AcDbSymbolTable
 70
0
  0
ENDTAB
  0
TABLE
  2
APPID
  5
9
100
AcDbSymbolTable
 70
1
  0
APPID
  5
22C
100
AcDbSymbolTableRecord
100
AcDbRegAppTableRecord
  2
ACAD
 70
0
  0
ENDTAB
  0
TABLE
  2
BLOCK_RECORD
  5
1
100
AcDbSymbolTable
 70
0
  0
BLOCK_RECORD
  5
22D
100
AcDbSymbolTableRecord
100
AcDbBlockTableRecord
  2
*Model_Space
  0
BLOCK_RECORD
  5
22E
100
AcDbSymbolTableRecord
100
AcDbBlockTableRecord
  2
*Paper_Space
  0
BLOCK_RECORD
  5
22F
100
AcDbSymbolTableRecord
100
AcDbBlockTableRecord
  2
_FILLED
  0
ENDTAB
  0
TABLE
  2
DIMSTYLE
  5
A
100
AcDbSymbolTable
 70
1
100
AcDbDimStyleTable
 71
0
  0
DIMSTYLE
105
230
100
AcDbSymbolTableRecord
100
AcDbDimStyleTableRecord
  2
STANDARD
 70
0
  3

  4

 40
1.0
 41
3.0
 42
0.5
 43
0.38
 44
1.5
 45
0.0
 46
0.0
 47
0.01
 48
0.01
140
3.0
141
0.09
142
0.0
143
25.4
144
1.0
145
0.0
146
1.0
147
0.625
 71
1
 72
0
 73
0
 74
0
 75
0
 76
0
 77
1
 78
8
 79
2
170
0
171
1
172
0
173
0
174
0
175
0
176
0
177
0
178
0
270
2
179
2
271
2
272
2
273
2
274
2
275
0
280
0
281
0
282
0
283
1
284
8
285
0
286
0
287
3
288
0
340
11
278
44
341
22F
342
22F
343
22F
344
22F
  0
ENDTAB
  0
ENDSEC
  0
SECTION
  2
BLOCKS
  0
BLOCK
  5
20
100
AcDbEntity
  8
0
100
AcDbBlockBegin
  2
*Model_Space
 70
0
 10
0.0
 20
0.0
 30
0.0
  3
*Model_Space
  1

  0
ENDBLK
  5
21
100
AcDbEntity
  8
0
100
AcDbBlockEnd
  0
BLOCK
  5
1C
100
AcDbEntity
  8
0
100
AcDbBlockBegin
  2
*Paper_Space
 70
0
 10
0.0
 20
0.0
 30
0.0
  3
*Paper_Space
  1

  0
ENDBLK
  5
1D
100
AcDbEntity
  8
0
100
AcDbBlockEnd
  0
BLOCK
  5
231
100
AcDbEntity
  8
0
100
AcDbBlockBegin
  2
_FILLED
 70
64
 10
0.0
 20
0.0
  3
_FILLED
  1

  0
SOLID
  5
232
100
AcDbEntity
  8
0
  6
BYBLOCK
 62
0
100
AcDbTrace
 10
0.0
 20
0.0
 11
-1.0
 21
0.3166666667
 12
-1.0
 22
-0.3166666667
 13
-1.0
 23
-0.3166666667
  0
ENDBLK
  5
233
100
AcDbEntity
  8
0
  6
BYBLOCK
 62
0
100
AcDbBlockEnd
  0
ENDSEC
  0
SECTION
  2
ENTITIES
  0
LINE
  5
234
100
AcDbEntity
  8
268
100
AcDbLine
 62
7
  6
CONTINUOUS
 10
-11.5131715985
 20
24.7316829275
 11
-9.9304149954
 21
25.5436670249
  0
LINE
  5
235
100
AcDbEntity
  8
268
100
AcDbLine
 62
7
  6
CONTINUOUS
 10
-9.9304149954
 20
25.5436670249
 11
-9.3959651167
 21
25.8040144914
  0
LWPOLYLINE
  5
236
100
AcDbEntity
  8
ASSI
100
AcDbPolyline
 62
250
  6
CONTINUOUS
 90
4
 70
0
 10
-15.2189725047
 20
20.0357184133
 10
-15.1718464387
 20
20.0883685829
 10
-15.124093739
 20
20.1381643981
 10
-15.0758526896
 20
20.1850638754
  0
LWPOLYLINE
  5
237
100
AcDbEntity
  8
RACCORDO
100
AcDbPolyline
 62
250
  6
CONTINUOUS
 90
4
 70
0
 10
-15.0758526896
 20
20.1850638754
 10
-15.027622181
 20
20.228711165
 10
-14.9795643795
 20
20.2691260485
 10
-14.9318101645
 20
20.306359723
  0
LWPOLYLINE
  5
238
100
AcDbEntity
  8
ASSI
100
AcDbPolyline
 62
250
  6
CONTINUOUS
 90
10
 70
0
 10
-15.0758526896
 20
20.1850638754
 10
-15.027622181
 20
20.228711165
 10
-14.9795643795
 20
20.2691260485
 10
-14.9318101645
 20
20.306359723
 10
-14.8848255786
 20
20.3402296222
 10
-14.8387405086
 20
20.3708508184
 10
-14.7936618815
 20
20.3983546178
 10
-14.7500134616
 20
20.4227005516
 10
-14.7079879327
 20
20.4440272286
 10
-14.6675442341
 20
20.4625942107
  0
LWPOLYLINE
  5
239
100
AcDbEntity
  8
RACCORDO
100
AcDbPolyline
 62
250
  6
CONTINUOUS
 90
8
 70
0
 10
-14.9318101645
 20
20.306359723
 10
-14.8848255786
 20
20.3402296222
 10
-14.8387405086
 20
20.3708508184
 10
-14.7936618815
 20
20.3983546178
 10
-14.7500134616
 20
20.4227005516
 10
-14.7079879327
 20
20.4440272286
 10
-14.6675442341
 20
20.4625942107
 10
-14.6287356993
 20
20.4785980886
  0
LWPOLYLINE
  5
23A
100
AcDbEntity
  8
ASSI
100
AcDbPolyline
 62
7
  6
CONTINUOUS
 90
8
 70
0
 10
-15.0094924707
 20
20.4924695194
 10
-15.1928789372
 20
20.3965839662
 10
-15.3682436515
 20
20.2687991604
 10
-15.5267291997
 20
20.115976933
 10
-15.6687137512
 20
19.9389047282
 10
-15.7920566821
 20
19.7391739033
 10
-15.8892628836
 20
19.5293509351
 10
-15.9592133151
 20
19.3155841499
  0
LINE
  5
23B
100
AcDbEntity
  8
268
100
AcDbLine
 62
7
  6
CONTINUOUS
 10
-11.9971218601
 20
22.9889850027
 11
-10.9849044268
 21
23.5059124882
  0
LINE
  5
23C
100
AcDbEntity
  8
268
100
AcDbLine
 62
250
  6
CONTINUOUS
 10
-11.8396033046
 20
22.9795491959
 11
-10.9849044268
 21
23.4160338159
  0
LINE
  5
23D
100
AcDbEntity
  8
268
100
AcDbLine
 62
7
  6
CONTINUOUS
 10
-8.3040693987
 20
22.9984434189
 11
-9.3709003108
 21
22.4598621694
  0
LINE
  5
23E
100
AcDbEntity
  8
268
100
AcDbLine
 62
7
  6
CONTINUOUS
 10
-9.9053501895
 20
23.927772223
 11
-8.3040693987
 21
24.7304942265
  0
LINE
  5
23F
100
AcDbEntity
  8
268
100
AcDbLine
 62
7
  6
CONTINUOUS
 10
-8.3040693987
 20
24.7304942265
 11
-7.7758022269
 21
24.9939330465
  0
LWPOLYLINE
  5
240
100
AcDbEntity
  8
RACCORDO
100
AcDbPolyline
 62
7
  6
CONTINUOUS
 90
9
 70
0
 10
-14.9789015039
 20
20.5051040848
 10
-15.1260635489
 20
20.4356613481
 10
-15.2684939506
 20
20.3461998732
 10
-15.4040385184
 20
20.2377144997
 10
-15.5308121748
 20
20.1114789556
 10
-15.6451094839
 20
19.9716128224
 10
-15.7469500129
 20
19.8186633246
 10
-15.8353721649
 20
19.6535483562
 10
-15.9069284778
 20
19.4826899121
  0
LINE
  5
241
100
AcDbEntity
  8
ASSI
100
AcDbLine
 62
7
  6
CONTINUOUS
 10
-14.9790970549
 20
20.5050260634
 11
-15.0094924707
 21
20.4924695194
  0
LINE
  5
242
100
AcDbEntity
  8
ASSI
100
AcDbLine
 62
250
  6
CONTINUOUS
 10
-14.6675442341
 20
20.4625942107
 11
-14.6287356993
 21
20.4785980886
  0
LINE
  5
243
100
AcDbEntity
  8
RACCORDO
100
AcDbLine
 62
7
  6
CONTINUOUS
 10
-14.9789016295
 20
20.5051044015
 11
-11.0658559112
 21
22.0617607744
  0
LINE
  5
244
100
AcDbEntity
  8
ASSI
100
AcDbLine
 62
7
  6
CONTINUOUS
 10
-14.9790971805
 20
20.5050263799
 11
-11.0658559112
 21
22.0617607744
  0
LINE
  5
245
100
AcDbEntity
  8
RACCORDO
100
AcDbLine
 62
250
  6
CONTINUOUS
 10
-14.6287356993
 20
20.4785980886
 11
-10.7197631377
 21
22.0336340127
  0
LINE
  5
246
100
AcDbEntity
  8
ASSI
100
AcDbLine
 62
250
  6
CONTINUOUS
 10
-14.6287356993
 20
20.4785980886
 11
-10.7197631377
 21
22.0336340127
  0
LWPOLYLINE
  5
247
100
AcDbEntity
  8
268
100
AcDbPolyline
 62
7
  6
CONTINUOUS
 90
3
 70
0
 10
-0.3214957633
 20
26.2188543147
 10
-0.334060783
 20
26.2141552639
 10
-0.3397115678
 20
26.2115126639
  0
LWPOLYLINE
  5
248
100
AcDbEntity
  8
268
100
AcDbPolyline
 62
7
  6
CONTINUOUS
 90
10
 70
0
 10
-0.3214957633
 20
26.2188543147
 10
-0.3122561425
 20
26.2216001137
 10
-0.3036929886
 20
26.2238658322
 10
-0.2958063017
 20
26.2256514702
 10
-0.2885569434
 20
26.2269778748
 10
-0.2819840521
 20
26.227824199
 10
-0.2762050427
 20
26.2281279017
 10
-0.2712240855
 20
26.2278885659
 10
-0.2670370103
 20
26.2271066087
 10
-0.2644350381
 20
26.2261038969
  0
LWPOLYLINE
  5
249
100
AcDbEntity
  8
ASSI
100
AcDbPolyline
 62
7
  6
CONTINUOUS
 90
3
 70
0
 10
-3.9115062835
 20
-25.5010408427
 10
-3.7298286171
 20
-25.4753615363
 10
-3.6157359864
 20
-25.4443848742
  0
LWPOLYLINE
  5
24A
100
AcDbEntity
  8
RACCORDO
100
AcDbPolyline
 62
7
  6
CONTINUOUS
 90
3
 70
0
 10
-4.0561876188
 20
-25.5008571482
 10
-3.9106674691
 20
-25.5009885517
 10
-3.7616866733
 20
-25.4819436366
  0
LINE
  5
24B
100
AcDbEntity
  8
ASSI
100
AcDbLine
 62
7
  6
CONTINUOUS
 10
-4.0909176481
 20
-25.4980366577
 11
-3.9115062835
 21
-25.5010408427
  0
LINE
  5
24C
100
AcDbEntity
  8
RACCORDO
100
AcDbLine
 62
7
  6
CONTINUOUS
 10
-4.197022754
 20
-25.482518996
 11
-4.0561876188
 21
-25.5008571482
  0
LINE
  5
24D
100
AcDbEntity
  8
ASSI
100
AcDbLine
 62
7
  6
CONTINUOUS
 10
-4.265300273
 20
-25.4668029638
 11
-4.0909176481
 21
-25.4980366577
  0
LINE
  5
24E
100
AcDbEntity
  8
RACCORDO
100
AcDbLine
 62
7
  6
CONTINUOUS
 10
-4.3332383021
 20
-25.4464385905
 11
-4.197022754
 21
-25.482518996
  0
LINE
  5
24F
100
AcDbEntity
  8
ASSI
100
AcDbLine
 62
7
  6
CONTINUOUS
 10
-4.4305039761
 20
-25.4084119649
 11
-4.265300273
 21
-25.4668029638
  0
LINE
  5
250
100
AcDbEntity
  8
RACCORDO
100
AcDbLine
 62
7
  6
CONTINUOUS
 10
-4.4742436576
 20
-25.387626456
 11
-4.3332383021
 21
-25.4464385905
  0
LINE
  5
251
100
AcDbEntity
  8
ASSI
100
AcDbLine
 62
7
  6
CONTINUOUS
 10
-4.4773022033
 20
-25.3860658128
 11
-4.4305039761
 21
-25.4084119649
  0
LINE
  5
252
100
AcDbEntity
  8
RACCORDO
100
AcDbLine
 62
7
  6
CONTINUOUS
 10
-4.4716533182
 20
-25.3889307902
 11
-18.6068223373
 21
-18.3213462807
  0
LINE
  5
253
100
AcDbEntity
  8
RACCORDO
100
AcDbLine
 62
250
  6
CONTINUOUS
 10
-4.8643092677
 20
-24.5150573132
 11
-18.9915803091
 21
-17.4514217925
  0
LINE
  5
254
100
AcDbEntity
  8
ASSI
100
AcDbLine
 62
250
  6
CONTINUOUS
 10
-4.8643092677
 20
-24.5150573132
 11
-18.9915803091
 21
-17.4514217925
  0
LINE
  5
255
100
AcDbEntity
  8
ASSI
100
AcDbLine
 62
7
  6
CONTINUOUS
 10
-4.4716533182
 20
-25.3889307902
 11
-18.6074383175
 21
-18.3210378107
  0
LINE
  5
256
100
AcDbEntity
  8
ASSI
100
AcDbLine
 62
250
  6
CONTINUOUS
 10
-4.4773296934
 20
-25.3860530503
 11
-4.4716530857
 21
-25.3889309065
  0
LINE
  5
257
100
AcDbEntity
  8
RACCORDO
100
AcDbLine
 62
250
  6
CONTINUOUS
 10
-18.606822508
 20
-18.3213461953
 11
-18.6468476084
 21
-18.2992205829
  0
LINE
  5
258
100
AcDbEntity
  8
ASSI
100
AcDbLine
 62
250
  6
CONTINUOUS
 10
-18.6074383175
 20
-18.3210378107
 11
-18.6468476084
 21
-18.2992205829
  0
LWPOLYLINE
  5
259
100
AcDbEntity
  8
RACCORDO
100
AcDbPolyline
 62
250
  6
CONTINUOUS
 90
20
 70
0
 10
-18.6468476084
 20
-18.2992205829
 10
-18.6850039401
 20
-18.2738289533
 10
-18.7215101147
 20
-18.2450007486
 10
-18.7562326277
 20
-18.2127545768
 10
-18.7888028466
 20
-18.1774021618
 10
-18.8191474881
 20
-18.1390532906
 10
-18.8472018245
 20
-18.09782117
 10
-18.872719965
 20
-18.0541734124
 10
-18.8957004494
 20
-18.0083062356
 10
-18.9161582735
 20
-17.9603987201
 10
-18.9339881629
 20
-17.911010562
 10
-18.9492654553
 20
-17.8603821384
 10
-18.9620782712
 20
-17.8087239812
 10
-18.9724483852
 20
-17.756628712
 10
-18.9805171862
 20
-17.7043343956
 10
-18.9864295074
 20
-17.6520535967
 10
-18.9903054497
 20
-17.6003832842
 10
-18.9923276056
 20
-17.5496653452
 10
-18.9926927126
 20
-17.4999562095
 10
-18.9915803091
 20
-17.4514217925
  0
LWPOLYLINE
  5
25A
100
AcDbEntity
  8
ASSI
100
AcDbPolyline
 62
250
  6
CONTINUOUS
 90
16
 70
0
 10
-18.6468476084
 20
-18.2992205829
 10
-18.6850039401
 20
-18.2738289533
 10
-18.7215101147
 20
-18.2450007486
 10
-18.7562326277
 20
-18.2127545768
 10
-18.7888028466
 20
-18.1774021618
 10
-18.8191474881
 20
-18.1390532906
 10
-18.8472018245
 20
-18.09782117
 10
-18.872719965
 20
-18.0541734124
 10
-18.8957004494
 20
-18.0083062356
 10
-18.9161582735
 20
-17.9603987201
 10
-18.9339881629
 20
-17.911010562
 10
-18.9492654553
 20
-17.8603821384
 10
-18.9620782712
 20
-17.8087239812
 10
-18.9724483852
 20
-17.756628712
 10
-18.9805171862
 20
-17.7043343956
 10
-18.9864295074
 20
-17.6520535967
  0
LWPOLYLINE
  5
25B
100
AcDbEntity
  8
ASSI
100
AcDbPolyline
 62
7
  6
CONTINUOUS
 90
5
 70
0
 10
-19.1087375847
 20
-17.7957805906
 10
-19.011727302
 20
-17.966834847
 10
-18.8908458377
 20
-18.1139795624
 10
-18.7489232803
 20
-18.2356921481
 10
-18.6074095939
 20
-18.3210508182
  0
LWPOLYLINE
  5
25C
100
AcDbEntity
  8
ASSI
100
AcDbPolyline
 62
250
  6
CONTINUOUS
 90
3
 70
0
 10
-15.604576717
 20
19.4121599179
 10
-15.575639296
 20
19.4775283547
 10
-15.5443251218
 20
19.5430269412
  0
LWPOLYLINE
  5
25D
100
AcDbEntity
  8
ASSI
100
AcDbPolyline
 62
250
  6
CONTINUOUS
 90
9
 70
0
 10
-15.5443251218
 20
19.5430269412
 10
-15.5106188187
 20
19.6084798305
 10
-15.4745280764
 20
19.6736700048
 10
-15.4363577197
 20
19.7379089012
 10
-15.3961666706
 20
19.8010174881
 10
-15.3540298692
 20
19.8627986011
 10
-15.3103698443
 20
19.9226036951
 10
-15.2653104829
 20
19.9802877899
 10
-15.2189725047
 20
20.0357184133
  0
LWPOLYLINE
  5
25E
100
AcDbEntity
  8
268
100
AcDbPolyline
 62
7
  6
CONTINUOUS
 90
12
 70
0
 10
-0.3397115678
 20
26.2115126639
 10
-0.3462302931
 20
26.2080405984
 10
-0.3580847197
 20
26.2005363252
 10
-0.3697398997
 20
26.191663814
 10
-0.3812354945
 20
26.1814787034
 10
-0.3925267922
 20
26.170047631
 10
-0.4036718586
 20
26.1574006049
 10
-0.414738738
 20
26.1435710687
 10
-0.4256848572
 20
26.1286015699
 10
-0.4365321583
 20
26.1125186427
 10
-0.4473705871
 20
26.0953503884
 10
-0.458254955
 20
26.0771317569
  0
LINE
  5
25F
100
AcDbEntity
  8
268
100
AcDbLine
 62
7
  6
CONTINUOUS
 10
-6.0396749673
 20
22.578937229
 11
-5.546352952
 21
22.8320207609
  0
LINE
  5
260
100
AcDbEntity
  8
268
100
AcDbLine
 62
7
  6
CONTINUOUS
 10
-6.8482884221
 20
22.9701020227
 11
-0.339641973
 21
26.2115473328
  0
LINE
  5
261
100
AcDbEntity
  8
268
100
AcDbLine
 62
250
  6
CONTINUOUS
 10
-6.7727952816
 20
22.9323554524
 11
-0.458254955
 21
26.0771317569
  0
LINE
  5
262
100
AcDbEntity
  8
268
100
AcDbLine
 62
7
  6
CONTINUOUS
 10
0.5347653662
 20
25.1973882262
 11
-4.2028500678
 21
22.8623377116
  0
LINE
  5
263
100
AcDbEntity
  8
268
100
AcDbLine
 62
7
  6
CONTINUOUS
 10
-5.546352952
 20
22.8320207609
 11
-0.0687129625
 21
25.5003527241
  0
LINE
  5
264
100
AcDbEntity
  8
218_STAMPATO
100
AcDbLine
 62
7
  6
CONTINUOUS
 10
7.0910705936
 20
28.2876547864
 11
3.5179968951
 21
26.5822214696
  0
LINE
  5
265
100
AcDbEntity
  8
218_STAMPATO
100
AcDbLine
 62
7
  6
CONTINUOUS
 10
6.1197879852
 20
28.5862566504
 11
0.4052025318
 21
25.8912739817
  0
LINE
  5
266
100
AcDbEntity
  8
218_STAMPATO
100
AcDbLine
 62
250
  6
CONTINUOUS
 10
6.5586727357
 20
28.5538537154
 11
0.6515801049
 21
25.7680851951
  0
LWPOLYLINE
  5
267
100
AcDbEntity
  8
218_STAMPATO
100
AcDbPolyline
 62
250
  6
CONTINUOUS
 90
25
 70
0
 10
6.5586727357
 20
28.5538537154
 10
6.5779453402
 20
28.562755977
 10
6.5971944523
 20
28.5710031717
 10
6.6164057588
 20
28.5785891652
 10
6.6355649665
 20
28.5855083127
 10
6.6546578364
 20
28.5917554707
 10
6.673670194
 20
28.5973259986
 10
6.6925879212
 20
28.602215755
 10
6.7113969302
 20
28.6064210936
 10
6.730083197
 20
28.6099388769
 10
6.7486328135
 20
28.6127664875
 10
6.7670319995
 20
28.6149018254
 10
6.7852670757
 20
28.6163433029
 10
6.8033244839
 20
28.6170898478
 10
6.8211907952
 20
28.6171409047
 10
6.8388527216
 20
28.6164964355
 10
6.8562971293
 20
28.6151569194
 10
6.8735110472
 20
28.6131233525
 10
6.8904816751
 20
28.610397247
 10
6.9071963936
 20
28.6069806299
 10
6.9236427738
 20
28.6028760419
 10
6.9398085861
 20
28.5980865351
 10
6.9556818096
 20
28.5926156711
 10
6.971250641
 20
28.5864675178
 10
6.9865035033
 20
28.5796466472
  0
LWPOLYLINE
  5
268
100
AcDbEntity
  8
218_STAMPATO
100
AcDbPolyline
 62
7
  6
CONTINUOUS
 90
36
 70
0
 10
6.1197565865
 20
28.5862418411
 10
6.1364346226
 20
28.5939214862
 10
6.1608716131
 20
28.6045142271
 10
6.1853839051
 20
28.6143757523
 10
6.2098426228
 20
28.6234771079
 10
6.2343047976
 20
28.6318630154
 10
6.2590246307
 20
28.6396282869
 10
6.2840848926
 20
28.646790602
 10
6.3093611114
 20
28.6533066001
 10
6.3348056851
 20
28.6591621522
 10
6.3603775223
 20
28.6643482107
 10
6.3860715925
 20
28.6688646207
 10
6.4118939004
 20
28.6727118448
 10
6.4378217181
 20
28.6758851784
 10
6.4638338075
 20
28.6783810665
 10
6.4899392095
 20
28.6801985132
 10
6.51611614
 20
28.68133325
 10
6.5423434868
 20
28.6817818997
 10
6.5686316983
 20
28.6815411852
 10
6.5949635631
 20
28.6806066405
 10
6.6213135192
 20
28.6789747791
 10
6.6476793909
 20
28.6766409537
 10
6.6740451762
 20
28.6736010003
 10
6.7003833788
 20
28.6698526956
 10
6.7266742703
 20
28.6653937748
 10
6.7529052153
 20
28.660221004
 10
6.7790446563
 20
28.6543353949
 10
6.8050447289
 20
28.6477441669
 10
6.8308577375
 20
28.640458262
 10
6.8564886899
 20
28.6324753122
 10
6.8819680956
 20
28.6237815871
 10
6.9072869556
 20
28.614373113
 10
6.9324086662
 20
28.60425656
 10
6.957320625
 20
28.5934303353
 10
6.9820082036
 20
28.5818933278
 10
6.9935457955
 20
28.5762169553
  0
LWPOLYLINE
  5
269
100
AcDbEntity
  8
RACCORDO
100
AcDbPolyline
 62
250
  6
CONTINUOUS
 90
6
 70
0
 10
-14.9786641175
 20
20.5051989851
 10
-14.9236587177
 20
20.5221077667
 10
-14.8530263615
 20
20.5308268734
 10
-14.7794851512
 20
20.526393806
 10
-14.7042929098
 20
20.508884386
 10
-14.6287356993
 20
20.4785980886
  0
LWPOLYLINE
  5
26A
100
AcDbEntity
  8
ASSI
100
AcDbPolyline
 62
250
  6
CONTINUOUS
 90
6
 70
0
 10
-14.9786641175
 20
20.5051989851
 10
-14.9236587177
 20
20.5221077667
 10
-14.8530263615
 20
20.5308268734
 10
-14.7794851512
 20
20.526393806
 10
-14.7042929098
 20
20.508884386
 10
-14.6287356993
 20
20.4785980886
  0
LINE
  5
26B
100
AcDbEntity
  8
RACCORDO
100
AcDbLine
 62
7
  6
CONTINUOUS
 10
-3.7616866733
 20
-25.4819436366
 11
-3.6163642894
 21
-25.4445846868
  0
LINE
  5
26C
100
AcDbEntity
  8
268
100
AcDbLine
 62
7
  6
CONTINUOUS
 10
5.1481228851
 20
-23.1255354897
 11
5.6753676008
 21
-23.2338277617
  0
LINE
  5
26D
100
AcDbEntity
  8
ASSI
100
AcDbLine
 62
250
  6
CONTINUOUS
 10
-9.8914000981
 20
-19.6245567861
 11
-10.1228172063
 21
-19.5407369587
  0
LINE
  5
26E
100
AcDbEntity
  8
ASSI
100
AcDbLine
 62
250
  6
CONTINUOUS
 10
-9.8257236104
 20
-19.4971782862
 11
-10.052578876
 21
-19.4143430265
  0
LINE
  5
26F
100
AcDbEntity
  8
ASSI
100
AcDbLine
 62
7
  6
CONTINUOUS
 10
-10.3043868782
 20
-19.226661989
 11
-9.9644972995
 21
-19.3616841705
  0
LINE
  5
270
100
AcDbEntity
  8
ASSI
100
AcDbLine
 62
7
  6
CONTINUOUS
 10
-10.3067470555
 20
-19.2255561338
 11
-9.9666679543
 21
-19.3609747824
  0
LINE
  5
271
100
AcDbEntity
  8
ASSI
100
AcDbLine
 62
250
  6
CONTINUOUS
 10
-10.052578876
 20
-19.4143430265
 11
-10.2729001949
 21
-19.3140825993
  0
LINE
  5
272
100
AcDbEntity
  8
RACCORDO
100
AcDbLine
 62
250
  6
CONTINUOUS
 10
-10.4060793276
 20
-19.1309820162
 11
-10.212118473
 21
-19.2197737113
  0
LINE
  5
273
100
AcDbEntity
  8
ASSI
100
AcDbLine
 62
250
  6
CONTINUOUS
 10
-10.4060793276
 20
-19.1309820162
 11
-10.2121184732
 21
-19.2197737112
  0
LINE
  5
274
100
AcDbEntity
  8
RACCORDO
100
AcDbLine
 62
250
  6
CONTINUOUS
 10
-10.1228172063
 20
-19.5407369587
 11
-10.3502817581
 21
-19.4342273927
  0
LINE
  5
275
100
AcDbEntity
  8
ASSI
100
AcDbLine
 62
250
  6
CONTINUOUS
 10
-10.1228172063
 20
-19.5407369587
 11
-10.3502817581
 21
-19.4342273927
  0
LWPOLYLINE
  5
276
100
AcDbEntity
  8
RACCORDO
100
AcDbPolyline
 62
7
  6
CONTINUOUS
 90
3
 70
0
 10
-10.3802024536
 20
-19.1899726329
 10
-10.2578560476
 20
-19.247988954
 10
-10.0721265538
 20
-19.3241351956
  0
LINE
  5
277
100
AcDbEntity
  8
ASSI
100
AcDbLine
 62
7
  6
CONTINUOUS
 10
-10.3801861742
 20
-19.1899807684
 11
-10.3043868782
 21
-19.226661989
  0
LINE
  5
278
100
AcDbEntity
  8
RACCORDO
100
AcDbLine
 62
250
  6
CONTINUOUS
 10
-10.3502817581
 20
-19.4342273927
 11
-13.3201302391
 21
-17.9493031523
  0
LINE
  5
279
100
AcDbEntity
  8
ASSI
100
AcDbLine
 62
250
  6
CONTINUOUS
 10
-10.3502817581
 20
-19.4342273927
 11
-13.3201302391
 21
-17.9493031523
  0
LINE
  5
27A
100
AcDbEntity
  8
RACCORDO
100
AcDbLine
 62
250
  6
CONTINUOUS
 10
-10.2729001949
 20
-19.3140825993
 11
-13.2427486759
 21
-17.8291583588
  0
LINE
  5
27B
100
AcDbEntity
  8
ASSI
100
AcDbLine
 62
250
  6
CONTINUOUS
 10
-10.2729001949
 20
-19.3140825993
 11
-13.2427486759
 21
-17.8291583588
  0
LINE
  5
27C
100
AcDbEntity
  8
RACCORDO
100
AcDbLine
 62
7
  6
CONTINUOUS
 10
-13.3500498568
 20
-17.7050594288
 11
-10.3802013764
 21
-19.189983669
  0
LINE
  5
27D
100
AcDbEntity
  8
ASSI
100
AcDbLine
 62
7
  6
CONTINUOUS
 10
-13.3500498568
 20
-17.7050594288
 11
-10.3802013764
 21
-19.189983669
  0
LINE
  5
27E
100
AcDbEntity
  8
RACCORDO
100
AcDbLine
 62
250
  6
CONTINUOUS
 10
-13.3759278086
 20
-17.6460577757
 11
-10.4060793276
 21
-19.1309820162
  0
LINE
  5
27F
100
AcDbEntity
  8
ASSI
100
AcDbLine
 62
250
  6
CONTINUOUS
 10
-13.3759278086
 20
-17.6460577757
 11
-10.4060793276
 21
-19.1309820162
  0
LINE
  5
280
100
AcDbEntity
  8
RACCORDO
100
AcDbLine
 62
7
  6
CONTINUOUS
 10
-13.4916818923
 20
-17.6299830498
 11
-13.3500399887
 21
-17.7050577523
  0
LINE
  5
281
100
AcDbEntity
  8
ASSI
100
AcDbLine
 62
7
  6
CONTINUOUS
 10
-13.5110898049
 20
-17.6190336338
 11
-13.3498907432
 21
-17.7051319074
  0
LINE
  5
282
100
AcDbEntity
  8
ASSI
100
AcDbLine
 62
250
  6
CONTINUOUS
 10
-13.5691197428
 20
-17.5412996394
 11
-13.3759278086
 21
-17.6460577757
  0
LINE
  5
283
100
AcDbEntity
  8
RACCORDO
100
AcDbLine
 62
250
  6
CONTINUOUS
 10
-13.2427486759
 20
-17.8291583588
 11
-13.5000145335
 21
-17.6870864334
  0
LINE
  5
284
100
AcDbEntity
  8
ASSI
100
AcDbLine
 62
250
  6
CONTINUOUS
 10
-13.2427486759
 20
-17.8291583588
 11
-13.5000145335
 21
-17.6870864334
  0
LINE
  5
285
100
AcDbEntity
  8
RACCORDO
100
AcDbLine
 62
250
  6
CONTINUOUS
 10
-13.3201302391
 20
-17.9493031523
 11
-13.5855710475
 21
-17.8020923746
  0
LINE
  5
286
100
AcDbEntity
  8
ASSI
100
AcDbLine
 62
250
  6
CONTINUOUS
 10
-13.3201302391
 20
-17.9493031523
 11
-13.5855710475
 21
-17.8020923746
  0
LINE
  5
287
100
AcDbEntity
  8
RACCORDO
100
AcDbLine
 62
7
  6
CONTINUOUS
 10
-13.6897875149
 20
-17.510637062
 11
-13.4916818923
 21
-17.6299830498
  0
LINE
  5
288
100
AcDbEntity
  8
ASSI
100
AcDbLine
 62
250
  6
CONTINUOUS
 10
-13.7594854562
 20
-17.42206277
 11
-13.5691197428
 21
-17.5412996394
  0
LINE
  5
289
100
AcDbEntity
  8
ASSI
100
AcDbLine
 62
7
  6
CONTINUOUS
 10
-13.910399177
 20
-17.3574564968
 11
-13.5110898049
 21
-17.6190336338
  0
LWPOLYLINE
  5
28A
100
AcDbEntity
  8
ASSI
100
AcDbPolyline
 62
7
  6
CONTINUOUS
 90
3
 70
0
 10
-13.9125373513
 20
-17.3558639185
 10
-13.5133546261
 20
-17.6177455294
 10
-13.5012841131
 20
-17.6241983249
  0
LWPOLYLINE
  5
28B
100
AcDbEntity
  8
RACCORDO
100
AcDbPolyline
 62
250
  6
CONTINUOUS
 90
25
 70
0
 10
-13.5855710475
 20
-17.8020923746
 10
-13.844727416
 20
-17.6313505545
 10
-14.0975898506
 20
-17.4370735867
 10
-14.3458553976
 20
-17.2174795817
 10
-14.5877889245
 20
-16.9743339894
 10
-14.8182263401
 20
-16.7129510021
 10
-15.0367057526
 20
-16.4331326252
 10
-15.2436232725
 20
-16.1350486455
 10
-15.4351039149
 20
-15.8245659001
 10
-15.6107730486
 20
-15.5017071686
 10
-15.7709277476
 20
-15.1664167885
 10
-15.9127115683
 20
-14.8244487454
 10
-16.0359470713
 20
-14.4749820935
 10
-16.1407352411
 20
-14.1188058961
 10
-16.2246617363
 20
-13.7640996599
 10
-16.2871420019
 20
-13.4117405394
 10
-16.328714643
 20
-13.0608328803
 10
-16.3486817347
 20
-12.7169103981
 10
-16.3466149081
 20
-12.3791759363
 10
-16.3229205346
 20
-12.0484184685
 10
-16.2781909045
 20
-11.7325667783
 10
-16.2122021087
 20
-11.4328398181
 10
-16.1252066912
 20
-11.1480313675
 10
-16.0185487045
 20
-10.8824476694
 10
-15.8915328538
 20
-10.6357173441
  0
LINE
  5
28C
100
AcDbEntity
  8
ASSI
100
AcDbLine
 62
250
  6
CONTINUOUS
 10
-13.5855710475
 20
-17.8020923746
 11
-13.844727416
 21
-17.6313505545
  0
LWPOLYLINE
  5
28D
100
AcDbEntity
  8
RACCORDO
100
AcDbPolyline
 62
250
  6
CONTINUOUS
 90
5
 70
0
 10
-13.5000145335
 20
-17.6870864334
 10
-13.754334353
 20
-17.5195329153
 10
-14.0040221441
 20
-17.3276284643
 10
-14.2476071682
 20
-17.1125884334
 10
-14.4833086174
 20
-16.8759244177
  0
LINE
  5
28E
100
AcDbEntity
  8
ASSI
100
AcDbLine
 62
250
  6
CONTINUOUS
 10
-13.5000145335
 20
-17.6870864334
 11
-13.754334353
 21
-17.5195329153
  0
LINE
  5
28F
100
AcDbEntity
  8
ASSI
100
AcDbLine
 62
250
  6
CONTINUOUS
 10
-13.9470216505
 20
-17.2883457459
 11
-13.7594854562
 21
-17.42206277
  0
LWPOLYLINE
  5
290
100
AcDbEntity
  8
ASSI
100
AcDbPolyline
 62
250
  6
CONTINUOUS
 90
4
 70
0
 10
-13.844727416
 20
-17.6313505545
 10
-14.0975898506
 20
-17.4370735867
 10
-14.3458553976
 20
-17.2174795817
 10
-14.5877889245
 20
-16.9743339894
  0
LWPOLYLINE
  5
291
100
AcDbEntity
  8
ASSI
100
AcDbPolyline
 62
250
  6
CONTINUOUS
 90
5
 70
0
 10
-13.754334353
 20
-17.5195329153
 10
-14.0040221441
 20
-17.3276284643
 10
-14.2476071682
 20
-17.1125884334
 10
-14.4833086174
 20
-16.8759244177
 10
-14.7090907957
 20
-16.6195338227
  0
LWPOLYLINE
  5
292
100
AcDbEntity
  8
RACCORDO
100
AcDbPolyline
 62
7
  6
CONTINUOUS
 90
3
 70
0
 10
-14.0778832949
 20
-17.2262165057
 10
-13.8854902793
 20
-17.3758544801
 10
-13.6897875149
 20
-17.510637062
  0
LWPOLYLINE
  5
293
100
AcDbEntity
  8
RACCORDO
100
AcDbPolyline
 62
250
  6
CONTINUOUS
 90
5
 70
0
 10
-14.1326153848
 20
-17.1393865804
 10
-13.9470216505
 20
-17.2883457459
 10
-13.7594854562
 20
-17.42206277
 10
-13.5691197428
 20
-17.5412996394
 10
-13.3759278086
 20
-17.6460577757
  0
LWPOLYLINE
  5
294
100
AcDbEntity
  8
ASSI
100
AcDbPolyline
 62
250
  6
CONTINUOUS
 90
4
 70
0
 10
-14.4925874496
 20
-16.8002854747
 10
-14.3153663366
 20
-16.9759415497
 10
-14.1326153848
 20
-17.1393865804
 10
-13.9470216505
 20
-17.2883457459
  0
LWPOLYLINE
  5
295
100
AcDbEntity
  8
ASSI
100
AcDbPolyline
 62
7
  6
CONTINUOUS
 90
3
 70
0
 10
-14.6622170224
 20
-16.6554384359
 10
-14.296244365
 20
-17.0345563517
 10
-13.910399177
 20
-17.3574564968
  0
LWPOLYLINE
  5
296
100
AcDbEntity
  8
ASSI
100
AcDbPolyline
 62
7
  6
CONTINUOUS
 90
3
 70
0
 10
-14.6639810662
 20
-16.6534171928
 10
-14.2982137402
 20
-17.0327169271
 10
-13.9125373513
 20
-17.3558639185
  0
LWPOLYLINE
  5
297
100
AcDbEntity
  8
RACCORDO
100
AcDbPolyline
 62
250
  6
CONTINUOUS
 90
4
 70
0
 10
-14.6640753286
 20
-16.6123239273
 10
-14.4925874496
 20
-16.8002854747
 10
-14.3153663366
 20
-16.9759415497
 10
-14.1326153848
 20
-17.1393865804
  0
LINE
  5
298
100
AcDbEntity
  8
ASSI
100
AcDbLine
 62
250
  6
CONTINUOUS
 10
-14.6640753286
 20
-16.6123239273
 11
-14.4925874496
 21
-16.8002854747
  0
LINE
  5
299
100
AcDbEntity
  8
ASSI
100
AcDbLine
 62
250
  6
CONTINUOUS
 10
-14.5877889245
 20
-16.9743339894
 11
-14.8182263401
 21
-16.7129510021
  0
LINE
  5
29A
100
AcDbEntity
  8
RACCORDO
100
AcDbLine
 62
250
  6
CONTINUOUS
 10
-14.4833086174
 20
-16.8759244177
 11
-14.7090907957
 21
-16.6195338227
  0
LWPOLYLINE
  5
29B
100
AcDbEntity
  8
RACCORDO
100
AcDbPolyline
 62
7
  6
CONTINUOUS
 90
5
 70
0
 10
-14.7990516645
 20
-16.4925438053
 10
-14.6275260043
 20
-16.6947853331
 10
-14.4496470874
 20
-16.8850104353
 10
-14.2661865187
 20
-17.0623785018
 10
-14.0778832949
 20
-17.2262165057
  0
LINE
  5
29C
100
AcDbEntity
  8
RACCORDO
100
AcDbLine
 62
250
  6
CONTINUOUS
 10
-14.8300088705
 20
-16.4121408283
 11
-14.6640753286
 21
-16.6123239273
  0
LINE
  5
29D
100
AcDbEntity
  8
ASSI
100
AcDbLine
 62
7
  6
CONTINUOUS
 10
-15.001614983
 20
-16.2266086242
 11
-14.6622170224
 21
-16.6554384359
  0
LINE
  5
29E
100
AcDbEntity
  8
ASSI
100
AcDbLine
 62
7
  6
CONTINUOUS
 10
-15.0031466684
 20
-16.2244736647
 11
-14.6639810662
 21
-16.6534171928
  0
LWPOLYLINE
  5
29F
100
AcDbEntity
  8
RACCORDO
100
AcDbPolyline
 62
250
  6
CONTINUOUS
 90
4
 70
0
 10
-14.7090907957
 20
-16.6195338227
 10
-14.9234383406
 20
-16.3454197813
 10
-15.1251496838
 20
-16.055329132
 10
-15.3128142595
 20
-15.7510021472
  0
LWPOLYLINE
  5
2A0
100
AcDbEntity
  8
ASSI
100
AcDbPolyline
 62
250
  6
CONTINUOUS
 90
4
 70
0
 10
-14.7090907957
 20
-16.6195338227
 10
-14.9234383406
 20
-16.3454197813
 10
-15.1251496838
 20
-16.055329132
 10
-15.3128142595
 20
-15.7510021472
  0
LWPOLYLINE
  5
2A1
100
AcDbEntity
  8
ASSI
100
AcDbPolyline
 62
250
  6
CONTINUOUS
 90
3
 70
0
 10
-14.8182263401
 20
-16.7129510021
 10
-15.0367057526
 20
-16.4331326252
 10
-15.2436232725
 20
-16.1350486455
  0
LWPOLYLINE
  5
2A2
100
AcDbEntity
  8
ASSI
100
AcDbPolyline
 62
250
  6
CONTINUOUS
 90
4
 70
0
 10
-18.9864295074
 20
-17.6520535967
 10
-18.9903054497
 20
-17.6003832842
 10
-18.9923276056
 20
-17.5496653452
 10
-18.9926927126
 20
-17.4999562095
  0
LINE
  5
2A3
100
AcDbEntity
  8
ASSI
100
AcDbLine
 62
7
  6
CONTINUOUS
 10
-15.9592133151
 20
19.3155841499
 11
-16.0014477759
 21
19.1044672345
  0
LWPOLYLINE
  5
2A4
100
AcDbEntity
  8
RACCORDO
100
AcDbPolyline
 62
7
  6
CONTINUOUS
 90
4
 70
0
 10
-15.9069284778
 20
19.4826899121
 10
-15.9609196232
 20
19.3090391247
 10
-15.9975390562
 20
19.1313532858
 10
-16.0014070549
 20
19.1047736133
  0
LWPOLYLINE
  5
2A5
100
AcDbEntity
  8
ASSI
100
AcDbPolyline
 62
250
  6
CONTINUOUS
 90
3
 70
0
 10
-15.6548783254
 20
19.2839636035
 10
-15.6309675543
 20
19.3475756973
 10
-15.604576717
 20
19.4121599179
  0
LINE
  5
2A6
100
AcDbEntity
  8
268
100
AcDbLine
 62
7
  6
CONTINUOUS
 10
-7.6889505637
 20
24.3729354599
 11
-8.2161952794
 21
23.7312277319
  0
LINE
  5
2A7
100
AcDbEntity
  8
715
100
AcDbLine
 62
250
  6
CONTINUOUS
 10
3.6990344795
 20
24.2992968811
 11
3.6097748482
 21
24.2499334239
  0
LINE
  5
2A8
100
AcDbEntity
  8
715
100
AcDbLine
 62
7
  6
CONTINUOUS
 10
3.6990344795
 20
24.2992968811
 11
3.6096345482
 21
24.2499981494
  0
LINE
  5
2A9
100
AcDbEntity
  8
715
100
AcDbLine
 62
7
  6
CONTINUOUS
 10
3.6990344795
 20
24.2992968811
 11
4.5147683361
 21
24.7294494734
  0
LWPOLYLINE
  5
2AA
100
AcDbEntity
  8
218_STAMPATO
100
AcDbPolyline
 62
7
  6
CONTINUOUS
 90
38
 70
0
 10
3.911982829
 20
25.5600656515
 10
3.871464372
 20
25.5390066936
 10
3.8318501151
 20
25.5175219614
 10
3.7931579505
 20
25.4956211589
 10
3.7554053537
 20
25.4733141777
 10
3.718609376
 20
25.4506110929
 10
3.6827866367
 20
25.4275221586
 10
3.6479533154
 20
25.404057803
 10
3.6141251447
 20
25.3802286241
 10
3.5813174035
 20
25.3560453844
 10
3.5495449097
 20
25.3315190066
 10
3.5188220136
 20
25.3066605681
 10
3.4891625913
 20
25.2814812964
 10
3.4605800389
 20
25.2559925641
 10
3.4330872658
 20
25.2302058833
 10
3.4066966895
 20
25.2041329007
 10
3.3814202293
 20
25.1777853924
 10
3.3572693017
 20
25.1511752585
 10
3.3342548145
 20
25.1243145177
 10
3.3123871626
 20
25.0972153019
 10
3.2916762225
 20
25.0698898505
 10
3.2721313485
 20
25.0423505054
 10
3.2537613683
 20
25.014609705
 10
3.2365745788
 20
24.9866799786
 10
3.2205787425
 20
24.9585739409
 10
3.2057810841
 20
24.9303042861
 10
3.192188287
 20
24.9018837827
 10
3.1798064907
 20
24.8733252667
 10
3.1686412873
 20
24.8446416371
 10
3.1586977198
 20
24.8158458489
 10
3.1499802792
 20
24.786950908
 10
3.1424929029
 20
24.7579698651
 10
3.1362389726
 20
24.7289158096
 10
3.1312213129
 20
24.6998018641
 10
3.1274421901
 20
24.670641178
 10
3.124903311
 20
24.6414469222
 10
3.1236058225
 20
24.6122322823
 10
3.1234215641
 20
24.5963154131
  0
LINE
  5
2AB
100
AcDbEntity
  8
218_STAMPATO
100
AcDbLine
 62
7
  6
CONTINUOUS
 10
8.1283626067
 20
27.7053752682
 11
3.911982829
 21
25.5600656515
  0
LINE
  5
2AC
100
AcDbEntity
  8
218_STAMPATO
100
AcDbLine
 62
7
  6
CONTINUOUS
 10
8.1344195935
 20
27.267886801
 11
3.911982829
 21
25.1498466086
  0
LINE
  5
2AD
100
AcDbEntity
  8
268
100
AcDbLine
 62
7
  6
CONTINUOUS
 10
1.8618391946
 20
23.7275139926
 11
0.4640546881
 21
23.0286217393
  0
LINE
  5
2AE
100
AcDbEntity
  8
715
100
AcDbLine
 62
7
  6
CONTINUOUS
 10
4.6430557649
 20
24.506357742
 11
5.1380305117
 21
24.7538451154
  0
LWPOLYLINE
  5
2AF
100
AcDbEntity
  8
218_STAMPATO
100
AcDbPolyline
 62
7
  6
CONTINUOUS
 90
6
 70
0
 10
-0.5260126885
 20
22.2421848474
 10
-0.5347134542
 20
22.2378384367
 10
-0.5428152152
 20
22.2331595183
 10
-0.5506324895
 20
22.2280020233
 10
-0.5581597726
 20
22.2223700619
 10
-0.5640222213
 20
22.2174779797
  0
LINE
  5
2B0
100
AcDbEntity
  8
268
100
AcDbLine
 62
7
  6
CONTINUOUS
 10
0.1105012975
 20
23.757956624
 11
0.5347653662
 21
23.9655540448
  0
LINE
  5
2B1
100
AcDbEntity
  8
268
100
AcDbLine
 62
7
  6
CONTINUOUS
 10
2.5208349459
 20
24.5875868065
 11
0.4640546881
 21
23.5811799287
  0
LINE
  5
2B2
100
AcDbEntity
  8
218_STAMPATO
100
AcDbLine
 62
250
  6
CONTINUOUS
 10
-0.2551062631
 20
22.2499235057
 11
-0.2010187487
 21
22.2759927252
  0
LINE
  5
2B3
100
AcDbEntity
  8
218_STAMPATO
100
AcDbLine
 62
250
  6
CONTINUOUS
 10
-0.2658049172
 20
22.2448435151
 11
-0.2551062631
 21
22.2499235057
  0
LINE
  5
2B4
100
AcDbEntity
  8
218_STAMPATO
100
AcDbLine
 62
250
  6
CONTINUOUS
 10
-0.2010187487
 20
22.2759927252
 11
-0.1886900642
 21
22.2818295086
  0
LINE
  5
2B5
100
AcDbEntity
  8
218_STAMPATO
100
AcDbLine
 62
250
  6
CONTINUOUS
 10
-0.2737319934
 20
22.2411354256
 11
-0.2658049172
 21
22.2448435151
  0
LINE
  5
2B6
100
AcDbEntity
  8
218_STAMPATO
100
AcDbLine
 62
250
  6
CONTINUOUS
 10
-0.1886900642
 20
22.2818295086
 11
-0.179174201
 21
22.2862706652
  0
LINE
  5
2B7
100
AcDbEntity
  8
218_STAMPATO
100
AcDbLine
 62
250
  6
CONTINUOUS
 10
-0.3138166191
 20
22.222619094
 11
-0.2737319934
 21
22.2411354256
  0
LINE
  5
2B8
100
AcDbEntity
  8
218_STAMPATO
100
AcDbLine
 62
7
  6
CONTINUOUS
 10
-0.4752800223
 20
22.2655763948
 11
-0.5260136848
 21
22.2421843872
  0
LINE
  5
2B9
100
AcDbEntity
  8
218_STAMPATO
100
AcDbLine
 62
250
  6
CONTINUOUS
 10
-0.179174201
 20
22.2862706652
 11
-0.1694101225
 21
22.2907600939
  0
LWPOLYLINE
  5
2BA
100
AcDbEntity
  8
218_STAMPATO
100
AcDbPolyline
 62
250
  6
CONTINUOUS
 90
17
 70
0
 10
0.67815622
 20
22.3499246293
 10
0.6839696654
 20
22.3525604968
 10
0.6897690963
 20
22.3548967531
 10
0.6955446987
 20
22.3569294447
 10
0.7012866987
 20
22.3586551319
 10
0.7069853794
 20
22.3600708943
 10
0.7126310973
 20
22.361174336
 10
0.7182142982
 20
22.3619635899
 10
0.723725534
 20
22.3624373203
 10
0.7291554783
 20
22.3625947254
 10
0.7344949423
 20
22.3624355391
 10
0.7397348901
 20
22.3619600305
 10
0.7448664546
 20
22.3611690045
 10
0.7498809517
 20
22.3600637996
 10
0.7547698958
 20
22.3586462861
 10
0.7595250134
 20
22.3569188629
 10
0.7640780235
 20
22.354911016
  0
LINE
  5
2BB
100
AcDbEntity
  8
218_STAMPATO
100
AcDbLine
 62
250
  6
CONTINUOUS
 10
-0.1694101225
 20
22.2907600939
 11
-0.1627556209
 21
22.2937770001
  0
LWPOLYLINE
  5
2BC
100
AcDbEntity
  8
218_STAMPATO
100
AcDbPolyline
 62
250
  6
CONTINUOUS
 90
22
 70
0
 10
-0.4921673338
 20
22.2578157537
 10
-0.4890390207
 20
22.2592256857
 10
-0.4797905582
 20
22.2629995798
 10
-0.4703309439
 20
22.2662820353
 10
-0.4606703035
 20
22.2690695385
 10
-0.4508189779
 20
22.2713591057
 10
-0.4407875119
 20
22.2731482861
 10
-0.4305866434
 20
22.2744351646
 10
-0.4202272915
 20
22.2752183636
 10
-0.409720545
 20
22.2754970448
 10
-0.3990776503
 20
22.27527091
 10
-0.3883099997
 20
22.274540201
 10
-0.3774291191
 20
22.2733057003
 10
-0.3664466555
 20
22.271568729
 10
-0.3553743645
 20
22.2693311466
 10
-0.3442240981
 20
22.2665953481
 10
-0.3330077917
 20
22.2633642619
 10
-0.3217374512
 20
22.2596413467
 10
-0.3104251407
 20
22.2554305875
 10
-0.2990829688
 20
22.2507364915
 10
-0.2877230764
 20
22.2455640834
 10
-0.2763576232
 20
22.2399188997
  0
LINE
  5
2BD
100
AcDbEntity
  8
218_STAMPATO
100
AcDbLine
 62
250
  6
CONTINUOUS
 10
-0.1627556209
 20
22.2937770001
 11
-0.1559798321
 21
22.2968108596
  0
LINE
  5
2BE
100
AcDbEntity
  8
218_STAMPATO
100
AcDbLine
 62
250
  6
CONTINUOUS
 10
-0.1559798321
 20
22.2968108596
 11
-0.149077936
 21
22.2998595234
  0
LINE
  5
2BF
100
AcDbEntity
  8
218_STAMPATO
100
AcDbLine
 62
250
  6
CONTINUOUS
 10
-0.149077936
 20
22.2998595234
 11
-0.1420465966
 21
22.3029215968
  0
LINE
  5
2C0
100
AcDbEntity
  8
218_STAMPATO
100
AcDbLine
 62
250
  6
CONTINUOUS
 10
-0.1420465966
 20
22.3029215968
 11
-0.1348805229
 21
22.3059950924
  0
LINE
  5
2C1
100
AcDbEntity
  8
218_STAMPATO
100
AcDbLine
 62
250
  6
CONTINUOUS
 10
-0.1348805229
 20
22.3059950924
 11
-0.127575139
 21
22.3090776389
  0
LINE
  5
2C2
100
AcDbEntity
  8
218_STAMPATO
100
AcDbLine
 62
250
  6
CONTINUOUS
 10
-0.127575139
 20
22.3090776389
 11
-0.1201274113
 21
22.3121676358
  0
LINE
  5
2C3
100
AcDbEntity
  8
218_STAMPATO
100
AcDbLine
 62
250
  6
CONTINUOUS
 10
-0.1201274113
 20
22.3121676358
 11
-0.112532916
 21
22.315262609
  0
LINE
  5
2C4
100
AcDbEntity
  8
218_STAMPATO
100
AcDbLine
 62
250
  6
CONTINUOUS
 10
-0.112532916
 20
22.315262609
 11
-0.1047872305
 21
22.3183600144
  0
LINE
  5
2C5
100
AcDbEntity
  8
218_STAMPATO
100
AcDbLine
 62
250
  6
CONTINUOUS
 10
-0.1047872305
 20
22.3183600144
 11
-0.0968875011
 21
22.3214581024
  0
LINE
  5
2C6
100
AcDbEntity
  8
218_STAMPATO
100
AcDbLine
 62
250
  6
CONTINUOUS
 10
-0.0968875011
 20
22.3214581024
 11
-0.0888295061
 21
22.324554199
  0
LINE
  5
2C7
100
AcDbEntity
  8
218_STAMPATO
100
AcDbLine
 62
250
  6
CONTINUOUS
 10
-0.0888295061
 20
22.324554199
 11
-0.0806095566
 21
22.3276453562
  0
LINE
  5
2C8
100
AcDbEntity
  8
218_STAMPATO
100
AcDbLine
 62
250
  6
CONTINUOUS
 10
-0.0806095566
 20
22.3276453562
 11
-0.072225249
 21
22.3307295763
  0
LINE
  5
2C9
100
AcDbEntity
  8
218_STAMPATO
100
AcDbLine
 62
250
  6
CONTINUOUS
 10
-0.072225249
 20
22.3307295763
 11
-0.0636732576
 21
22.3338037436
  0
LINE
  5
2CA
100
AcDbEntity
  8
218_STAMPATO
100
AcDbLine
 62
250
  6
CONTINUOUS
 10
-0.0636732576
 20
22.3338037436
 11
-0.054949471
 21
22.3368649455
  0
LINE
  5
2CB
100
AcDbEntity
  8
218_STAMPATO
100
AcDbLine
 62
250
  6
CONTINUOUS
 10
-0.054949471
 20
22.3368649455
 11
-0.046051482
 21
22.3399111009
  0
LINE
  5
2CC
100
AcDbEntity
  8
218_STAMPATO
100
AcDbLine
 62
250
  6
CONTINUOUS
 10
-0.046051482
 20
22.3399111009
 11
-0.0369758935
 21
22.3429389764
  0
LINE
  5
2CD
100
AcDbEntity
  8
218_STAMPATO
100
AcDbLine
 62
250
  6
CONTINUOUS
 10
-0.0369758935
 20
22.3429389764
 11
-0.027720404
 21
22.3459449059
  0
LINE
  5
2CE
100
AcDbEntity
  8
218_STAMPATO
100
AcDbLine
 62
250
  6
CONTINUOUS
 10
-0.027720404
 20
22.3459449059
 11
-0.0182834125
 21
22.3489264585
  0
LINE
  5
2CF
100
AcDbEntity
  8
218_STAMPATO
100
AcDbLine
 62
250
  6
CONTINUOUS
 10
-0.0182834125
 20
22.3489264585
 11
-0.0086625332
 21
22.3518799668
  0
LINE
  5
2D0
100
AcDbEntity
  8
218_STAMPATO
100
AcDbLine
 62
250
  6
CONTINUOUS
 10
-0.0086625332
 20
22.3518799668
 11
0.0011442706
 21
22.3548015929
  0
LINE
  5
2D1
100
AcDbEntity
  8
218_STAMPATO
100
AcDbLine
 62
250
  6
CONTINUOUS
 10
0.0011442706
 20
22.3548015929
 11
0.0111381678
 21
22.3576887123
  0
LWPOLYLINE
  5
2D2
100
AcDbEntity
  8
RACCORDO
100
AcDbPolyline
 62
250
  6
CONTINUOUS
 90
7
 70
0
 10
-8.8797413612
 20
-19.6063927867
 10
-9.1164543666
 20
-19.6171659806
 10
-9.3561337957
 20
-19.601114367
 10
-9.5935048789
 20
-19.5601920039
 10
-9.8257236104
 20
-19.4971782862
 10
-10.052578876
 20
-19.4143430265
 10
-10.2729001949
 20
-19.3140825993
  0
LWPOLYLINE
  5
2D3
100
AcDbEntity
  8
RACCORDO
100
AcDbPolyline
 62
250
  6
CONTINUOUS
 90
6
 70
0
 10
-8.9259911456
 20
-19.7328458449
 10
-9.1674412823
 20
-19.7434053834
 10
-9.4137267355
 20
-19.7258973034
 10
-9.6560236316
 20
-19.6856839331
 10
-9.8914000981
 20
-19.6245567861
 10
-10.1228172063
 20
-19.5407369587
  0
LWPOLYLINE
  5
2D4
100
AcDbEntity
  8
ASSI
100
AcDbPolyline
 62
250
  6
CONTINUOUS
 90
5
 70
0
 10
-8.9259911456
 20
-19.7328458449
 10
-9.1674412823
 20
-19.7434053834
 10
-9.4137267355
 20
-19.7258973034
 10
-9.6560236316
 20
-19.6856839331
 10
-9.8914000981
 20
-19.6245567861
  0
LINE
  5
2D5
100
AcDbEntity
  8
SMUSSO
100
AcDbLine
 62
7
  6
CONTINUOUS
 10
-8.7723623787
 20
-19.4732588829
 11
-8.5847930686
 21
-19.4696578639
  0
LINE
  5
2D6
100
AcDbEntity
  8
ASSI
100
AcDbLine
 62
7
  6
CONTINUOUS
 10
-8.7723623787
 20
-19.4732588829
 11
-8.5847930686
 21
-19.4696578639
  0
LINE
  5
2D7
100
AcDbEntity
  8
0
100
AcDbLine
 62
7
  6
CONTINUOUS
 10
-8.9849875569
 20
-19.5176026265
 11
-8.7299267262
 21
-19.5171355432
  0
LINE
  5
2D8
100
AcDbEntity
  8
ASSI
100
AcDbLine
 62
7
  6
CONTINUOUS
 10
-8.9849875569
 20
-19.5176026265
 11
-8.7299267262
 21
-19.5171355432
  0
LWPOLYLINE
  5
2D9
100
AcDbEntity
  8
RACCORDO
100
AcDbPolyline
 62
7
  6
CONTINUOUS
 90
3
 70
0
 10
-9.3402189747
 20
-19.4815606368
 10
-9.1629171486
 20
-19.4835153784
 10
-8.9891125895
 20
-19.470390435
  0
LINE
  5
2DA
100
AcDbEntity
  8
ASSI
100
AcDbLine
 62
250
  6
CONTINUOUS
 10
-9.4492822275
 20
-19.4091459962
 11
-9.2644401169
 21
-19.4145982535
  0
LINE
  5
2DB
100
AcDbEntity
  8
SMUSSO
100
AcDbLine
 62
7
  6
CONTINUOUS
 10
-8.9432185451
 20
-19.4619213732
 11
-8.7723623787
 21
-19.4732588829
  0
LINE
  5
2DC
100
AcDbEntity
  8
ASSI
100
AcDbLine
 62
7
  6
CONTINUOUS
 10
-8.9432185451
 20
-19.4619213732
 11
-8.7723623787
 21
-19.4732588829
  0
LWPOLYLINE
  5
2DD
100
AcDbEntity
  8
ASSI
100
AcDbPolyline
 62
250
  6
CONTINUOUS
 90
3
 70
0
 10
-9.1164543666
 20
-19.6171659806
 10
-9.3561337957
 20
-19.601114367
 10
-9.5935048789
 20
-19.5601920039
  0
LINE
  5
2DE
100
AcDbEntity
  8
ASSI
100
AcDbLine
 62
7
  6
CONTINUOUS
 10
-9.6264915301
 20
-19.4477263116
 11
-9.2945866133
 21
-19.4834966069
  0
LINE
  5
2DF
100
AcDbEntity
  8
ASSI
100
AcDbLine
 62
7
  6
CONTINUOUS
 10
-9.6284400638
 20
-19.4473711213
 11
-9.2962901999
 21
-19.4834419257
  0
LWPOLYLINE
  5
2E0
100
AcDbEntity
  8
RACCORDO
100
AcDbPolyline
 62
250
  6
CONTINUOUS
 90
3
 70
0
 10
-9.6382277307
 20
-19.386648293
 10
-9.4492822268
 20
-19.4091459963
 10
-9.2644401161
 20
-19.4145982535
  0
LINE
  5
2E1
100
AcDbEntity
  8
ASSI
100
AcDbLine
 62
250
  6
CONTINUOUS
 10
-9.6382277314
 20
-19.3866482929
 11
-9.4492822275
 21
-19.4091459962
  0
LWPOLYLINE
  5
2E2
100
AcDbEntity
  8
RACCORDO
100
AcDbPolyline
 62
7
  6
CONTINUOUS
 90
3
 70
0
 10
-9.7026855803
 20
-19.4326074654
 10
-9.5203433448
 20
-19.4645557823
 10
-9.3402189747
 20
-19.4815606368
  0
LWPOLYLINE
  5
2E3
100
AcDbEntity
  8
0
100
AcDbPolyline
 62
7
  6
CONTINUOUS
 90
3
 70
0
 10
-9.2709861595
 20
-19.4822703259
 10
-9.244877279
 20
-19.4881467191
 10
-8.9849875569
 20
-19.5176026265
  0
LWPOLYLINE
  5
2E4
100
AcDbEntity
  8
ASSI
100
AcDbPolyline
 62
7
  6
CONTINUOUS
 90
3
 70
0
 10
-9.2709861595
 20
-19.4822703259
 10
-9.244877279
 20
-19.4881467191
 10
-8.9849875569
 20
-19.5176026265
  0
LINE
  5
2E5
100
AcDbEntity
  8
ASSI
100
AcDbLine
 62
7
  6
CONTINUOUS
 10
-9.9644972995
 20
-19.3616841705
 11
-9.6264915301
 21
-19.4477263116
  0
LINE
  5
2E6
100
AcDbEntity
  8
ASSI
100
AcDbLine
 62
7
  6
CONTINUOUS
 10
-9.9666679543
 20
-19.3609747824
 11
-9.6284400638
 21
-19.4473711213
  0
LINE
  5
2E7
100
AcDbEntity
  8
ASSI
100
AcDbLine
 62
250
  6
CONTINUOUS
 10
-9.5935048789
 20
-19.5601920039
 11
-9.8257236104
 21
-19.4971782862
  0
LWPOLYLINE
  5
2E8
100
AcDbEntity
  8
ASSI
100
AcDbPolyline
 62
250
  6
CONTINUOUS
 90
3
 70
0
 10
-10.0196392421
 20
-19.2919593035
 10
-9.8286383414
 20
-19.3475373739
 10
-9.6382277314
 20
-19.3866482929
  0
LWPOLYLINE
  5
2E9
100
AcDbEntity
  8
RACCORDO
100
AcDbPolyline
 62
250
  6
CONTINUOUS
 90
3
 70
0
 10
-10.0196392417
 20
-19.2919593037
 10
-9.8286383409
 20
-19.3475373741
 10
-9.6382277307
 20
-19.386648293
  0
LWPOLYLINE
  5
2EA
100
AcDbEntity
  8
RACCORDO
100
AcDbPolyline
 62
7
  6
CONTINUOUS
 90
3
 70
0
 10
-10.0721265538
 20
-19.3241351956
 10
-9.8868067125
 20
-19.385768864
 10
-9.7026855803
 20
-19.4326074654
  0
LINE
  5
2EB
100
AcDbEntity
  8
RACCORDO
100
AcDbLine
 62
250
  6
CONTINUOUS
 10
-10.212118473
 20
-19.2197737113
 11
-10.0196392417
 21
-19.2919593037
  0
LINE
  5
2EC
100
AcDbEntity
  8
ASSI
100
AcDbLine
 62
250
  6
CONTINUOUS
 10
-10.2121184732
 20
-19.2197737112
 11
-10.0196392421
 21
-19.2919593035
  0
LINE
  5
2ED
100
AcDbEntity
  8
268
100
AcDbLine
 62
7
  6
CONTINUOUS
 10
1.7410160762
 20
-24.1967405816
 11
3.3475485455
 21
-25.0000068162
  0
LINE
  5
2EE
100
AcDbEntity
  8
268
100
AcDbLine
 62
250
  6
CONTINUOUS
 10
1.6764207834
 20
-24.0617111333
 11
3.2821972455
 21
-24.8645993643
  0
LINE
  5
2EF
100
AcDbEntity
  8
268
100
AcDbLine
 62
250
  6
CONTINUOUS
 10
3.2821972455
 20
-24.6112279706
 11
1.6764207834
 21
-23.8083397395
  0
LINE
  5
2F0
100
AcDbEntity
  8
268
100
AcDbLine
 62
250
  6
CONTINUOUS
 10
3.3710998215
 20
-24.3797909109
 11
1.7642949026
 21
-23.5763884515
  0
LINE
  5
2F1
100
AcDbEntity
  8
ASSI
100
AcDbLine
 62
250
  6
CONTINUOUS
 10
-11.9113258825
 20
-16.3941850101
 11
-11.676956047
 21
-16.5113699279
  0
LINE
  5
2F2
100
AcDbEntity
  8
INCISIONI_LASER
100
AcDbLine
 62
250
  6
CONTINUOUS
 10
-11.9113258825
 20
-16.3941850101
 11
-11.676956047
 21
-16.5113699279
  0
LINE
  5
2F3
100
AcDbEntity
  8
268
100
AcDbLine
 62
7
  6
CONTINUOUS
 10
0.8635264345
 20
-22.1321653171
 11
3.433903169
 21
-23.4173536844
  0
LINE
  5
2F4
100
AcDbEntity
  8
268
100
AcDbLine
 62
7
  6
CONTINUOUS
 10
3.9934178536
 20
-23.6347314935
 11
3.5841526082
 21
-23.4300988708
  0
LWPOLYLINE
  5
2F5
100
AcDbEntity
  8
ASSI
100
AcDbPolyline
 62
250
  6
CONTINUOUS
 90
3
 70
0
 10
-15.2436232725
 20
-16.1350486455
 10
-15.4351039149
 20
-15.8245659001
 10
-15.6107730486
 20
-15.5017071686
  0
LINE
  5
2F6
100
AcDbEntity
  8
RACCORDO
100
AcDbLine
 62
250
  6
CONTINUOUS
 10
-15.3128142595
 20
-15.7510021472
 11
-15.4851986823
 21
-15.4347242922
  0
LINE
  5
2F7
100
AcDbEntity
  8
ASSI
100
AcDbLine
 62
250
  6
CONTINUOUS
 10
-15.3128142595
 20
-15.7510021472
 11
-15.4851986823
 21
-15.4347242922
  0
LWPOLYLINE
  5
2F8
100
AcDbEntity
  8
ASSI
100
AcDbPolyline
 62
7
  6
CONTINUOUS
 90
3
 70
0
 10
-15.5742218281
 20
-15.2535151369
 10
-15.3075177634
 20
-15.7563931565
 10
-15.001614983
 20
-16.2266086242
  0
LWPOLYLINE
  5
2F9
100
AcDbEntity
  8
ASSI
100
AcDbPolyline
 62
7
  6
CONTINUOUS
 90
3
 70
0
 10
-15.5752648321
 20
-15.2513202436
 10
-15.3088060732
 20
-15.7542030396
 10
-15.0031466684
 20
-16.2244736647
  0
LWPOLYLINE
  5
2FA
100
AcDbEntity
  8
ASSI
100
AcDbPolyline
 62
250
  6
CONTINUOUS
 90
7
 70
0
 10
-15.53842633
 20
-15.2739787258
 10
-15.4147988509
 20
-15.5170945241
 10
-15.2815343173
 20
-15.753268615
 10
-15.1387543703
 20
-15.9826199923
 10
-14.988273656
 20
-16.2022781931
 10
-14.8300088705
 20
-16.4121408283
 10
-14.6640753286
 20
-16.6123239273
  0
LINE
  5
2FB
100
AcDbEntity
  8
RACCORDO
100
AcDbLine
 62
250
  6
CONTINUOUS
 10
-15.4851986823
 20
-15.4347242922
 11
-15.6413914259
 21
-15.1084395346
  0
LINE
  5
2FC
100
AcDbEntity
  8
ASSI
100
AcDbLine
 62
250
  6
CONTINUOUS
 10
-15.4851986823
 20
-15.4347242922
 11
-15.6413914259
 21
-15.1084395346
  0
LWPOLYLINE
  5
2FD
100
AcDbEntity
  8
ASSI
100
AcDbPolyline
 62
250
  6
CONTINUOUS
 90
3
 70
0
 10
-15.6107730486
 20
-15.5017071686
 10
-15.7709277476
 20
-15.1664167885
 10
-15.9127115683
 20
-14.8244487454
  0
LINE
  5
2FE
100
AcDbEntity
  8
ASSI
100
AcDbLine
 62
250
  6
CONTINUOUS
 10
-15.65250359
 20
-15.0240255225
 11
-15.53842633
 21
-15.2739787258
  0
LINE
  5
2FF
100
AcDbEntity
  8
ASSI
100
AcDbLine
 62
7
  6
CONTINUOUS
 10
-15.7971668846
 20
-14.7263767451
 11
-15.5742218281
 21
-15.2535151369
  0
LINE
  5
300
100
AcDbEntity
  8
ASSI
100
AcDbLine
 62
7
  6
CONTINUOUS
 10
-15.7979663317
 20
-14.7242277282
 11
-15.5752648321
 21
-15.2513202436
  0
LINE
  5
301
100
AcDbEntity
  8
RACCORDO
100
AcDbLine
 62
250
  6
CONTINUOUS
 10
-15.6413914259
 20
-15.1084395346
 11
-15.7804772351
 21
-14.7733915415
  0
LINE
  5
302
100
AcDbEntity
  8
ASSI
100
AcDbLine
 62
250
  6
CONTINUOUS
 10
-15.6413914259
 20
-15.1084395346
 11
-15.7804772351
 21
-14.7733915415
  0
LWPOLYLINE
  5
303
100
AcDbEntity
  8
ASSI
100
AcDbPolyline
 62
250
  6
CONTINUOUS
 90
3
 70
0
 10
-15.8473560526
 20
-14.5131808559
 10
-15.7555337549
 20
-14.7704425151
 10
-15.65250359
 20
-15.0240255225
  0
LINE
  5
304
100
AcDbEntity
  8
RACCORDO
100
AcDbLine
 62
250
  6
CONTINUOUS
 10
-15.7804772351
 20
-14.7733915415
 11
-15.9017470296
 21
-14.4311020943
  0
LINE
  5
305
100
AcDbEntity
  8
ASSI
100
AcDbLine
 62
250
  6
CONTINUOUS
 10
-15.7804772351
 20
-14.7733915415
 11
-15.9017470296
 21
-14.4311020943
  0
LINE
  5
306
100
AcDbEntity
  8
ASSI
100
AcDbLine
 62
250
  6
CONTINUOUS
 10
-15.9127115683
 20
-14.8244487454
 11
-16.0359470713
 21
-14.4749820935
  0
LINE
  5
307
100
AcDbEntity
  8
ASSI
100
AcDbLine
 62
7
  6
CONTINUOUS
 10
-15.972226209
 20
-14.1840471781
 11
-15.7971668846
 21
-14.7263767451
  0
LINE
  5
308
100
AcDbEntity
  8
ASSI
100
AcDbLine
 62
7
  6
CONTINUOUS
 10
-15.9727895644
 20
-14.1819917344
 11
-15.7979663317
 21
-14.7242277282
  0
LWPOLYLINE
  5
309
100
AcDbEntity
  8
RACCORDO
100
AcDbPolyline
 62
7
  6
CONTINUOUS
 90
10
 70
0
 10
-15.9420577385
 20
-14.2903949526
 10
-15.8576490726
 20
-14.5567267796
 10
-15.7614343267
 20
-14.8201608746
 10
-15.6538234413
 20
-15.0795840442
 10
-15.535323316
 20
-15.3339142956
 10
-15.406455338
 20
-15.5820755121
 10
-15.2677576745
 20
-15.8230195952
 10
-15.1198588286
 20
-16.0557395374
 10
-14.9634110221
 20
-16.2792265188
 10
-14.7990516645
 20
-16.4925438053
  0
LINE
  5
30A
100
AcDbEntity
  8
ASSI
100
AcDbLine
 62
250
  6
CONTINUOUS
 10
-15.9280991252
 20
-14.2522760121
 11
-15.8473560526
 21
-14.5131808559
  0
LWPOLYLINE
  5
30B
100
AcDbEntity
  8
RACCORDO
100
AcDbPolyline
 62
250
  6
CONTINUOUS
 90
13
 70
0
 10
-15.9017470296
 20
-14.4311020943
 10
-16.0040851376
 20
-14.0845102095
 10
-16.0862176629
 20
-13.7370395561
 10
-16.1476533384
 20
-13.3918972634
 10
-16.1884290092
 20
-13.0505060211
 10
-16.208223842
 20
-12.7136486866
 10
-16.2067926026
 20
-12.3826721228
 10
-16.1840239681
 20
-12.0608538794
 10
-16.1400379963
 20
-11.7517436964
 10
-16.0755549388
 20
-11.4582127329
 10
-15.9911345751
 20
-11.1811420817
 10
-15.8868568362
 20
-10.9210063175
 10
-15.7629061482
 20
-10.678950022
  0
LINE
  5
30C
100
AcDbEntity
  8
ASSI
100
AcDbLine
 62
250
  6
CONTINUOUS
 10
-15.9017470296
 20
-14.4311020943
 11
-16.0040851376
 21
-14.0845102095
  0
LWPOLYLINE
  5
30D
100
AcDbEntity
  8
ASSI
100
AcDbPolyline
 62
250
  6
CONTINUOUS
 90
13
 70
0
 10
-16.0359470713
 20
-14.4749820935
 10
-16.1407352411
 20
-14.1188058961
 10
-16.2246617363
 20
-13.7640996599
 10
-16.2871420019
 20
-13.4117405394
 10
-16.328714643
 20
-13.0608328803
 10
-16.3486817347
 20
-12.7169103981
 10
-16.3466149081
 20
-12.3791759363
 10
-16.3229205346
 20
-12.0484184685
 10
-16.2781909045
 20
-11.7325667783
 10
-16.2122021087
 20
-11.4328398181
 10
-16.1252066912
 20
-11.1480313675
 10
-16.0185487045
 20
-10.8824476694
 10
-15.8915328538
 20
-10.6357173441
  0
LWPOLYLINE
  5
30E
100
AcDbEntity
  8
RACCORDO
100
AcDbPolyline
 62
250
  6
CONTINUOUS
 90
8
 70
0
 10
-19.2259470118
 20
-17.1712096235
 10
-19.2260160133
 20
-17.1807488105
 10
-19.2183756764
 20
-17.2297026649
 10
-19.1974844427
 20
-17.2781744287
 10
-19.1636918963
 20
-17.3253529977
 10
-19.1175635061
 20
-17.3704489078
 10
-19.0598711632
 20
-17.412707545
 10
-18.9915802645
 20
-17.4514217727
  0
LWPOLYLINE
  5
30F
100
AcDbEntity
  8
ASSI
100
AcDbPolyline
 62
250
  6
CONTINUOUS
 90
8
 70
0
 10
-19.2259345219
 20
-17.170852844
 10
-19.2260160133
 20
-17.1807488105
 10
-19.2183756764
 20
-17.2297026649
 10
-19.1974844427
 20
-17.2781744287
 10
-19.1636918963
 20
-17.3253529977
 10
-19.1175635061
 20
-17.3704489078
 10
-19.0598711632
 20
-17.412707545
 10
-18.9915802645
 20
-17.4514217727
  0
LINE
  5
310
100
AcDbEntity
  8
ASSI
100
AcDbLine
 62
250
  6
CONTINUOUS
 10
-18.9926927126
 20
-17.4999562095
 11
-18.9915803091
 21
-17.4514217925
  0
LWPOLYLINE
  5
311
100
AcDbEntity
  8
RACCORDO
100
AcDbPolyline
 62
7
  6
CONTINUOUS
 90
12
 70
0
 10
-19.2259467888
 20
-17.1712096317
 10
-19.2267973452
 20
-17.201577282
 10
-19.2208390041
 20
-17.3677031416
 10
-19.1973012335
 20
-17.5255076062
 10
-19.1571751327
 20
-17.6736596865
 10
-19.1012579404
 20
-17.8117159689
 10
-19.0301075061
 20
-17.9392092708
 10
-18.9449680718
 20
-18.0544411491
 10
-18.8473031425
 20
-18.1560371843
 10
-18.7383745313
 20
-18.2431438566
 10
-18.6200646959
 20
-18.3146024112
 10
-18.6040453528
 20
-18.3227241081
  0
LWPOLYLINE
  5
312
100
AcDbEntity
  8
ASSI
100
AcDbPolyline
 62
7
  6
CONTINUOUS
 90
5
 70
0
 10
-19.2259342992
 20
-17.1708528523
 10
-19.2266570061
 20
-17.1947037324
 10
-19.2169127422
 20
-17.4051004515
 10
-19.1777153325
 20
-17.6064567292
 10
-19.1087375847
 20
-17.7957805906
  0
LINE
  5
313
100
AcDbEntity
  8
RACCORDO
100
AcDbLine
 62
7
  6
CONTINUOUS
 10
-19.22592127
 20
-17.1704948552
 11
-19.2259470118
 21
-17.1712096235
  0
LINE
  5
314
100
AcDbEntity
  8
ASSI
100
AcDbLine
 62
7
  6
CONTINUOUS
 10
-19.2259212887
 20
-17.1704953473
 11
-19.2259345219
 21
-17.170852844
  0
LWPOLYLINE
  5
315
100
AcDbEntity
  8
ASSI
100
AcDbPolyline
 62
250
  6
CONTINUOUS
 90
8
 70
0
 10
-16.0014477759
 20
19.1044672345
 10
-16.0023298985
 20
19.0839399092
 10
-15.9939477939
 20
19.0433305297
 10
-15.9724281278
 20
19.0019282752
 10
-15.9381310002
 20
18.960425952
 10
-15.8916303235
 20
18.9195180406
 10
-15.8337042183
 20
18.8798890752
 10
-15.7653219934
 20
18.8422021884
  0
LWPOLYLINE
  5
316
100
AcDbEntity
  8
RACCORDO
100
AcDbPolyline
 62
250
  6
CONTINUOUS
 90
10
 70
0
 10
-18.9915803091
 20
-17.4514217925
 10
-18.8182212137
 20
-13.4924245935
 10
-18.5984336246
 20
-9.512933422
 10
-18.3322660467
 20
-5.5138366468
 10
-18.0197775302
 20
-1.496027053
 10
-17.6610376272
 20
2.5395987553
 10
-17.2561263608
 20
6.5921405605
 10
-16.8051342546
 20
10.6606941988
 10
-16.3081623286
 20
14.7443517573
 10
-15.765322035
 20
18.842202177
  0
LWPOLYLINE
  5
317
100
AcDbEntity
  8
ASSI
100
AcDbPolyline
 62
250
  6
CONTINUOUS
 90
10
 70
0
 10
-18.9915803091
 20
-17.4514217925
 10
-18.8182212137
 20
-13.4924245935
 10
-18.5984336246
 20
-9.512933422
 10
-18.3322660467
 20
-5.5138366468
 10
-18.0197775302
 20
-1.496027053
 10
-17.6610376272
 20
2.5395987553
 10
-17.2561263608
 20
6.5921405605
 10
-16.8051342546
 20
10.6606941988
 10
-16.3081623286
 20
14.7443517573
 10
-15.765322035
 20
18.842202177
  0
LWPOLYLINE
  5
318
100
AcDbEntity
  8
RACCORDO
100
AcDbPolyline
 62
250
  6
CONTINUOUS
 90
8
 70
0
 10
-16.0014070549
 20
19.1047736133
 10
-16.0023298985
 20
19.0839399092
 10
-15.9939477939
 20
19.0433305297
 10
-15.9724281278
 20
19.0019282752
 10
-15.9381310002
 20
18.960425952
 10
-15.8916303235
 20
18.9195180406
 10
-15.8337042183
 20
18.8798890752
 10
-15.7653219934
 20
18.8422021884
  0
LWPOLYLINE
  5
319
100
AcDbEntity
  8
RACCORDO
100
AcDbPolyline
 62
7
  6
CONTINUOUS
 90
10
 70
0
 10
-16.0013522816
 20
19.1051762591
 10
-16.530643139
 20
15.1136188837
 10
-17.032122741
 20
11.0007196237
 10
-17.4869665647
 20
6.9029849872
 10
-17.8950481255
 20
2.8214655463
 10
-18.2562821098
 20
-1.2429693167
 10
-18.5705941846
 20
-5.2895187542
 10
-18.8379090596
 20
-9.3173185557
 10
-19.0581621242
 20
-13.3253424796
 10
-19.22592127
 20
-17.1704948552
  0
LWPOLYLINE
  5
31A
100
AcDbEntity
  8
ASSI
100
AcDbPolyline
 62
7
  6
CONTINUOUS
 90
10
 70
0
 10
-16.0013522391
 20
19.1051765675
 10
-16.4886973982
 20
15.4418445871
 10
-17.005484679
 20
11.2288287634
 10
-17.4733688379
 20
7.0316597227
 10
-17.8922130726
 20
2.8514717469
 10
-18.2619252534
 20
-1.310800066
 10
-18.5824262084
 20
-5.4543028022
 10
-18.853635508
 20
-9.5781062701
 10
-19.0754838419
 20
-13.6811016621
 10
-19.2259212887
 20
-17.1704953473
  0
LWPOLYLINE
  5
31B
100
AcDbEntity
  8
RACCORDO
100
AcDbPolyline
 62
250
  6
CONTINUOUS
 90
24
 70
0
 10
-15.765322035
 20
18.842202177
 10
-15.758281985
 20
18.8889389142
 10
-15.749631381
 20
18.9382633661
 10
-15.7391988536
 20
18.9901512885
 10
-15.7267726597
 20
19.0447092194
 10
-15.7122049907
 20
19.1017292428
 10
-15.6954563595
 20
19.1606842946
 10
-15.676391465
 20
19.2214707903
 10
-15.6548783254
 20
19.2839636035
 10
-15.6309675543
 20
19.3475756973
 10
-15.604576717
 20
19.4121599179
 10
-15.575639296
 20
19.4775283547
 10
-15.5443251218
 20
19.5430269412
 10
-15.5106188187
 20
19.6084798305
 10
-15.4745280764
 20
19.6736700048
 10
-15.4363577197
 20
19.7379089012
 10
-15.3961666706
 20
19.8010174881
 10
-15.3540298692
 20
19.8627986011
 10
-15.3103698443
 20
19.9226036951
 10
-15.2653104829
 20
19.9802877899
 10
-15.2189725047
 20
20.0357184133
 10
-15.1718464387
 20
20.0883685829
 10
-15.124093739
 20
20.1381643981
 10
-15.0758526896
 20
20.1850638754
  0
LWPOLYLINE
  5
31C
100
AcDbEntity
  8
ASSI
100
AcDbPolyline
 62
250
  6
CONTINUOUS
 90
9
 70
0
 10
-15.765322035
 20
18.842202177
 10
-15.758281985
 20
18.8889389142
 10
-15.749631381
 20
18.9382633661
 10
-15.7391988536
 20
18.9901512885
 10
-15.7267726597
 20
19.0447092194
 10
-15.7122049907
 20
19.1017292428
 10
-15.6954563595
 20
19.1606842946
 10
-15.676391465
 20
19.2214707903
 10
-15.6548783254
 20
19.2839636035
  0
LINE
  5
31D
100
AcDbEntity
  8
218_STAMPATO
100
AcDbLine
 62
7
  6
CONTINUOUS
 10
-1.4181226903
 20
21.4699740228
 11
-0.5640214263
 21
22.2174783602
  0
LINE
  5
31E
100
AcDbEntity
  8
218_STAMPATO
100
AcDbLine
 62
250
  6
CONTINUOUS
 10
-1.2642201355
 20
21.3930227454
 11
-0.3154215439
 21
22.2234056197
  0
LINE
  5
31F
100
AcDbEntity
  8
268
100
AcDbLine
 62
7
  6
CONTINUOUS
 10
0.1770909896
 20
19.4705542506
 11
0.6761867224
 21
19.7207509237
  0
LINE
  5
320
100
AcDbEntity
  8
715
100
AcDbLine
 62
7
  6
CONTINUOUS
 10
7.6062084242
 20
24.9343449677
 11
6.2947441132
 21
24.2786128122
  0
LINE
  5
321
100
AcDbEntity
  8
715
100
AcDbLine
 62
7
  6
CONTINUOUS
 10
5.5935203713
 20
23.9280009413
 11
5.3758676046
 21
23.8191745579
  0
LINE
  5
322
100
AcDbEntity
  8
715
100
AcDbLine
 62
7
  6
CONTINUOUS
 10
8.4547391319
 20
24.5100821842
 11
7.3501125898
 21
23.9577689131
  0
LINE
  5
323
100
AcDbEntity
  8
268
100
AcDbLine
 62
7
  6
CONTINUOUS
 10
0.6761867224
 20
19.7207509237
 11
6.0904594176
 21
22.4207665341
  0
LINE
  5
324
100
AcDbEntity
  8
268
100
AcDbLine
 62
7
  6
CONTINUOUS
 10
5.4845128345
 20
22.722514492
 11
0.7468974005
 21
20.3874639774
  0
LINE
  5
325
100
AcDbEntity
  8
268
100
AcDbLine
 62
7
  6
CONTINUOUS
 10
6.763475633
 20
22.4662664629
 11
6.177096846
 21
22.1793443953
  0
LINE
  5
326
100
AcDbEntity
  8
218_STAMPATO
100
AcDbLine
 62
7
  6
CONTINUOUS
 10
11.7515217764
 20
25.957429195
 11
8.1880909399
 21
24.2471744472
  0
LWPOLYLINE
  5
327
100
AcDbEntity
  8
268
100
AcDbPolyline
 62
7
  6
CONTINUOUS
 90
18
 70
0
 10
6.763475633
 20
22.4662664629
 10
6.7918501538
 20
22.4794484197
 10
6.8200846058
 20
22.4911828114
 10
6.848178989
 20
22.5014696381
 10
6.8761833021
 20
22.5103217727
 10
6.9040475464
 20
22.5177263423
 10
6.931621726
 20
22.5236447279
 10
6.9588908547
 20
22.5280681492
 10
6.9858699187
 20
22.5310053865
 10
7.0124538813
 20
22.5324441625
 10
7.0386588402
 20
22.5323770259
 10
7.0644686976
 20
22.5308114279
 10
7.0897301239
 20
22.5277574445
 10
7.1144198772
 20
22.5232116601
 10
7.1385611993
 20
22.5171774903
 10
7.1620704856
 20
22.5096752575
 10
7.1849662658
 20
22.5006898429
 10
7.2045142503
 20
22.491607156
  0
LWPOLYLINE
  5
328
100
AcDbEntity
  8
715
100
AcDbPolyline
 62
7
  6
CONTINUOUS
 90
10
 70
0
 10
8.4547102361
 20
24.5100677362
 10
8.4661067003
 20
24.5152363915
 10
8.4773271028
 20
24.5192882878
 10
8.4883714435
 20
24.5222234254
 10
8.4993347024
 20
24.5240419567
 10
8.5101218996
 20
24.5247437292
 10
8.520448095
 20
24.5243282848
 10
8.5302183088
 20
24.5227954709
 10
8.5395275208
 20
24.5201454402
 10
8.5483757311
 20
24.5163781926
  0
LINE
  5
329
100
AcDbEntity
  8
0
100
AcDbLine
 62
7
  6
CONTINUOUS
 10
-8.481469125
 20
-19.4867487185
 11
-8.3045209567
 21
-19.4424647456
  0
LINE
  5
32A
100
AcDbEntity
  8
ASSI
100
AcDbLine
 62
7
  6
CONTINUOUS
 10
-8.481469125
 20
-19.4867487185
 11
-8.2808128966
 21
-19.4365314426
  0
LINE
  5
32B
100
AcDbEntity
  8
ASSI
100
AcDbLine
 62
7
  6
CONTINUOUS
 10
-8.9726289741
 20
-19.4683374857
 11
-8.6645246921
 21
-19.4021842133
  0
LINE
  5
32C
100
AcDbEntity
  8
ASSI
100
AcDbLine
 62
7
  6
CONTINUOUS
 10
-8.9740726783
 20
-19.4685229644
 11
-8.6657032495
 21
-19.402543833
  0
LINE
  5
32D
100
AcDbEntity
  8
SMUSSO
100
AcDbLine
 62
7
  6
CONTINUOUS
 10
-8.3997753399
 20
-19.4496172038
 11
-8.2637724958
 21
-19.4222008882
  0
LINE
  5
32E
100
AcDbEntity
  8
ASSI
100
AcDbLine
 62
7
  6
CONTINUOUS
 10
-8.3997753399
 20
-19.4496172038
 11
-8.2193558391
 21
-19.4132470969
  0
LINE
  5
32F
100
AcDbEntity
  8
RACCORDO
100
AcDbLine
 62
250
  6
CONTINUOUS
 10
-8.6895139207
 20
-19.6920765564
 11
-8.9259911456
 21
-19.7328458449
  0
LINE
  5
330
100
AcDbEntity
  8
ASSI
100
AcDbLine
 62
250
  6
CONTINUOUS
 10
-8.6895139207
 20
-19.6920765564
 11
-8.9259911456
 21
-19.7328458449
  0
LINE
  5
331
100
AcDbEntity
  8
RACCORDO
100
AcDbLine
 62
250
  6
CONTINUOUS
 10
-8.6477759761
 20
-19.5678019604
 11
-8.8797413612
 21
-19.6063927867
  0
LWPOLYLINE
  5
332
100
AcDbEntity
  8
ASSI
100
AcDbPolyline
 62
250
  6
CONTINUOUS
 90
3
 70
0
 10
-8.6477759761
 20
-19.5678019604
 10
-8.8797413612
 20
-19.6063927867
 10
-9.1164543666
 20
-19.6171659806
  0
LINE
  5
333
100
AcDbEntity
  8
RACCORDO
100
AcDbLine
 62
7
  6
CONTINUOUS
 10
-8.9891125895
 20
-19.470390435
 11
-8.8193906042
 21
-19.4422245678
  0
LINE
  5
334
100
AcDbEntity
  8
ASSI
100
AcDbLine
 62
250
  6
CONTINUOUS
 10
-9.0838062173
 20
-19.40273497
 11
-8.9072511866
 21
-19.3738157219
  0
LINE
  5
335
100
AcDbEntity
  8
0
100
AcDbLine
 62
7
  6
CONTINUOUS
 10
-8.7299267262
 20
-19.5171355432
 11
-8.481469125
 21
-19.4867487185
  0
LINE
  5
336
100
AcDbEntity
  8
ASSI
100
AcDbLine
 62
7
  6
CONTINUOUS
 10
-8.7299267262
 20
-19.5171355432
 11
-8.481469125
 21
-19.4867487185
  0
LINE
  5
337
100
AcDbEntity
  8
SMUSSO
100
AcDbLine
 62
7
  6
CONTINUOUS
 10
-8.5847930686
 20
-19.4696578639
 11
-8.3997753399
 21
-19.4496172038
  0
LINE
  5
338
100
AcDbEntity
  8
ASSI
100
AcDbLine
 62
7
  6
CONTINUOUS
 10
-8.5847930686
 20
-19.4696578639
 11
-8.3997753399
 21
-19.4496172038
  0
LWPOLYLINE
  5
339
100
AcDbEntity
  8
RACCORDO
100
AcDbPolyline
 62
250
  6
CONTINUOUS
 90
3
 70
0
 10
-9.2644401161
 20
-19.4145982535
 10
-9.0838062164
 20
-19.40273497
 10
-8.9072511856
 20
-19.3738157218
  0
LINE
  5
33A
100
AcDbEntity
  8
ASSI
100
AcDbLine
 62
250
  6
CONTINUOUS
 10
-9.2644401169
 20
-19.4145982535
 11
-9.0838062173
 21
-19.40273497
  0
LINE
  5
33B
100
AcDbEntity
  8
ASSI
100
AcDbLine
 62
7
  6
CONTINUOUS
 10
-9.2945866133
 20
-19.4834966069
 11
-8.9726289741
 21
-19.4683374857
  0
LINE
  5
33C
100
AcDbEntity
  8
ASSI
100
AcDbLine
 62
7
  6
CONTINUOUS
 10
-9.2962901999
 20
-19.4834419257
 11
-8.9740726783
 21
-19.4685229644
  0
LINE
  5
33D
100
AcDbEntity
  8
268
100
AcDbLine
 62
7
  6
CONTINUOUS
 10
0.8914014414
 20
-21.8185868821
 11
3.6813905425
 21
-23.2135814326
  0
LINE
  5
33E
100
AcDbEntity
  8
268
100
AcDbLine
 62
250
  6
CONTINUOUS
 10
5.1481228851
 20
-23.1255354897
 11
5.1047005591
 21
-23.1038243268
  0
LINE
  5
33F
100
AcDbEntity
  8
268
100
AcDbLine
 62
7
  6
CONTINUOUS
 10
0.97101859
 20
-20.9229379268
 11
4.4945633408
 21
-22.6847103022
  0
LINE
  5
340
100
AcDbEntity
  8
268
100
AcDbLine
 62
250
  6
CONTINUOUS
 10
5.0602487658
 20
-22.9262683442
 11
5.6753676008
 21
-23.2338277617
  0
LINE
  5
341
100
AcDbEntity
  8
268
100
AcDbLine
 62
7
  6
CONTINUOUS
 10
5.0602487658
 20
-22.9226481947
 11
5.6986464272
 21
-23.2418470254
  0
LINE
  5
342
100
AcDbEntity
  8
268
100
AcDbLine
 62
7
  6
CONTINUOUS
 10
1.1114428439
 20
-19.3432426162
 11
4.4945633408
 21
-21.0348028646
  0
LINE
  5
343
100
AcDbEntity
  8
ASSI
100
AcDbLine
 62
250
  6
CONTINUOUS
 10
-15.9967085516
 20
-13.9910656284
 11
-15.9280991252
 21
-14.2522760121
  0
LWPOLYLINE
  5
344
100
AcDbEntity
  8
ASSI
100
AcDbPolyline
 62
250
  6
CONTINUOUS
 90
12
 70
0
 10
-16.0040851376
 20
-14.0845102095
 10
-16.0862176629
 20
-13.7370395561
 10
-16.1476533384
 20
-13.3918972634
 10
-16.1884290092
 20
-13.0505060211
 10
-16.208223842
 20
-12.7136486866
 10
-16.2067926026
 20
-12.3826721228
 10
-16.1840239681
 20
-12.0608538794
 10
-16.1400379963
 20
-11.7517436964
 10
-16.0755549388
 20
-11.4582127329
 10
-15.9911345751
 20
-11.1811420817
 10
-15.8868568362
 20
-10.9210063175
 10
-15.7629061482
 20
-10.678950022
  0
LINE
  5
345
100
AcDbEntity
  8
268
100
AcDbLine
 62
7
  6
CONTINUOUS
 10
1.8511465659
 20
18.0495238453
 11
3.433903169
 21
18.8615079427
  0
LINE
  5
346
100
AcDbEntity
  8
218_STAMPATO
100
AcDbLine
 62
7
  6
CONTINUOUS
 10
15.5529838091
 20
23.993064667
 11
11.3366040314
 21
21.8477550503
  0
LINE
  5
347
100
AcDbEntity
  8
268
100
AcDbLine
 62
7
  6
CONTINUOUS
 10
0.1770909896
 20
18.2563507778
 11
0.6761867224
 21
18.5083153584
  0
LINE
  5
348
100
AcDbEntity
  8
268
100
AcDbLine
 62
7
  6
CONTINUOUS
 10
0.6761867224
 20
18.5083153584
 11
6.0904594176
 21
21.1889279557
  0
LINE
  5
349
100
AcDbEntity
  8
268
100
AcDbLine
 62
7
  6
CONTINUOUS
 10
3.433903169
 20
18.8615079427
 11
3.9683530477
 21
19.1218554092
  0
LINE
  5
34A
100
AcDbEntity
  8
268
100
AcDbLine
 62
250
  6
CONTINUOUS
 10
4.9707265558
 20
18.6826460261
 11
9.742565534
 21
20.9767215124
  0
LINE
  5
34B
100
AcDbEntity
  8
268
100
AcDbLine
 62
250
  6
CONTINUOUS
 10
5.1983420557
 20
18.5688382761
 11
10.1844064019
 21
20.9659032321
  0
LINE
  5
34C
100
AcDbEntity
  8
218_STAMPATO
100
AcDbLine
 62
7
  6
CONTINUOUS
 10
14.5156917961
 20
24.5753441852
 11
10.9426180976
 21
22.8699108683
  0
LINE
  5
34D
100
AcDbEntity
  8
RACCORDO
100
AcDbLine
 62
250
  6
CONTINUOUS
 10
-8.9072511856
 20
-19.3738157218
 11
-8.7370612548
 21
-19.3282024487
  0
LINE
  5
34E
100
AcDbEntity
  8
ASSI
100
AcDbLine
 62
250
  6
CONTINUOUS
 10
-8.9072511866
 20
-19.3738157219
 11
-8.7370612557
 21
-19.328202449
  0
LWPOLYLINE
  5
34F
100
AcDbEntity
  8
RACCORDO
100
AcDbPolyline
 62
7
  6
CONTINUOUS
 90
3
 70
0
 10
-8.8193906042
 20
-19.4422245678
 10
-8.6543974306
 20
-19.3990581512
 10
-8.6222790249
 20
-19.3887151623
  0
LWPOLYLINE
  5
350
100
AcDbEntity
  8
RACCORDO
100
AcDbPolyline
 62
250
  6
CONTINUOUS
 90
9
 70
0
 10
-12.9612560555
 20
-10.2041146975
 10
-13.1556108612
 20
-10.1153044909
 10
-13.3488023233
 20
-10.0432585141
 10
-13.5408271519
 20
-9.9879754611
 10
-13.7325724142
 20
-9.9493176018
 10
-13.9231378309
 20
-9.9274174148
 10
-14.1098364033
 20
-9.9226778337
 10
-14.2925378676
 20
-9.9353615651
 10
-14.4713480274
 20
-9.9651961398
  0
LINE
  5
351
100
AcDbEntity
  8
ASSI
100
AcDbLine
 62
250
  6
CONTINUOUS
 10
-12.9612560555
 20
-10.2041146975
 11
-13.1556108612
 21
-10.1153044909
  0
LINE
  5
352
100
AcDbEntity
  8
RACCORDO
100
AcDbLine
 62
250
  6
CONTINUOUS
 10
-12.884017604
 20
-10.0865609539
 11
-13.0817699527
 21
-9.9960839888
  0
LINE
  5
353
100
AcDbEntity
  8
ASSI
100
AcDbLine
 62
250
  6
CONTINUOUS
 10
-12.884017604
 20
-10.0865609539
 11
-13.0817699527
 21
-9.9960839888
  0
LINE
  5
354
100
AcDbEntity
  8
RACCORDO
100
AcDbLine
 62
250
  6
CONTINUOUS
 10
-13.0961387136
 20
-9.7289428667
 11
-12.8679841747
 21
-9.8355949926
  0
LINE
  5
355
100
AcDbEntity
  8
ASSI
100
AcDbLine
 62
250
  6
CONTINUOUS
 10
-13.0961387136
 20
-9.7289428667
 11
-12.8679841747
 21
-9.8355949926
  0
LINE
  5
356
100
AcDbEntity
  8
RACCORDO
100
AcDbLine
 62
7
  6
CONTINUOUS
 10
-12.9925688278
 20
-9.8267770361
 11
-12.8422492165
 21
-9.8972104484
  0
LINE
  5
357
100
AcDbEntity
  8
ASSI
100
AcDbLine
 62
250
  6
CONTINUOUS
 10
-11.4773498103
 20
-12.9316242972
 11
-11.7117196458
 21
-12.8144393794
  0
LINE
  5
358
100
AcDbEntity
  8
INCISIONI_LASER
100
AcDbLine
 62
250
  6
CONTINUOUS
 10
-11.4773498103
 20
-12.9316242972
 11
-11.7117196458
 21
-12.8144393794
  0
LINE
  5
359
100
AcDbEntity
  8
RACCORDO
100
AcDbLine
 62
250
  6
CONTINUOUS
 10
-9.9914075745
 20
-11.689038938
 11
-12.9612560555
 21
-10.2041146975
  0
LINE
  5
35A
100
AcDbEntity
  8
ASSI
100
AcDbLine
 62
250
  6
CONTINUOUS
 10
-9.9914075745
 20
-11.689038938
 11
-12.9612560555
 21
-10.2041146975
  0
LINE
  5
35B
100
AcDbEntity
  8
RACCORDO
100
AcDbLine
 62
250
  6
CONTINUOUS
 10
-9.9141691231
 20
-11.5714851944
 11
-12.884017604
 21
-10.0865609539
  0
LINE
  5
35C
100
AcDbEntity
  8
ASSI
100
AcDbLine
 62
250
  6
CONTINUOUS
 10
-9.9141691231
 20
-11.5714851944
 11
-12.884017604
 21
-10.0865609539
  0
LINE
  5
35D
100
AcDbEntity
  8
RACCORDO
100
AcDbLine
 62
7
  6
CONTINUOUS
 10
-12.8422520036
 20
-9.8971899865
 11
-9.8724035325
 21
-11.3821142221
  0
LINE
  5
35E
100
AcDbEntity
  8
ASSI
100
AcDbLine
 62
7
  6
CONTINUOUS
 10
-12.8422520045
 20
-9.8971899861
 11
-9.8722235726
 21
-11.3822036002
  0
LINE
  5
35F
100
AcDbEntity
  8
RACCORDO
100
AcDbLine
 62
250
  6
CONTINUOUS
 10
-12.8679841747
 20
-9.8355949926
 11
-9.8981356937
 21
-11.3205192331
  0
LINE
  5
360
100
AcDbEntity
  8
ASSI
100
AcDbLine
 62
250
  6
CONTINUOUS
 10
-12.8679841747
 20
-9.8355949926
 11
-9.8981356937
 21
-11.3205192331
  0
LINE
  5
361
100
AcDbEntity
  8
ASSI
100
AcDbLine
 62
250
  6
CONTINUOUS
 10
-9.717630344
 20
-11.6781444486
 11
-9.9141691231
 21
-11.5714851944
  0
LINE
  5
362
100
AcDbEntity
  8
RACCORDO
100
AcDbLine
 62
250
  6
CONTINUOUS
 10
-9.8981356937
 20
-11.3205192331
 11
-9.6327226787
 21
-11.4680560547
  0
LINE
  5
363
100
AcDbEntity
  8
ASSI
100
AcDbLine
 62
250
  6
CONTINUOUS
 10
-9.8981356937
 20
-11.3205192331
 11
-9.6327226787
 21
-11.4680560547
  0
LINE
  5
364
100
AcDbEntity
  8
ASSI
100
AcDbLine
 62
7
  6
CONTINUOUS
 10
-9.8722415964
 20
-11.3822399011
 11
-9.5932741099
 21
-11.538167408
  0
LINE
  5
365
100
AcDbEntity
  8
ASSI
100
AcDbLine
 62
250
  6
CONTINUOUS
 10
-9.5227259643
 20
-11.8007635074
 11
-9.717630344
 21
-11.6781444486
  0
LWPOLYLINE
  5
366
100
AcDbEntity
  8
RACCORDO
100
AcDbPolyline
 62
250
  6
CONTINUOUS
 90
11
 70
0
 10
-9.6327226787
 20
-11.4680560547
 10
-9.3742580651
 20
-11.6393752547
 10
-9.1227323668
 20
-11.8344730805
 10
-8.8764370392
 20
-12.055132363
 10
-8.6370425739
 20
-12.2995551887
 10
-8.4096017289
 20
-12.5623641678
 10
-8.194523605
 20
-12.8437393418
 10
-7.9913334081
 20
-13.1434744446
 10
-7.8037602071
 20
-13.4556134133
 10
-7.6321141892
 20
-13.7800985169
 10
-7.4760078006
 20
-14.1169562269
  0
LINE
  5
367
100
AcDbEntity
  8
ASSI
100
AcDbLine
 62
250
  6
CONTINUOUS
 10
-9.6327226787
 20
-11.4680560547
 11
-9.3742580651
 21
-11.6393752547
  0
LWPOLYLINE
  5
368
100
AcDbEntity
  8
ASSI
100
AcDbPolyline
 62
7
  6
CONTINUOUS
 90
8
 70
0
 10
-9.5932741099
 20
-11.538167408
 10
-9.2252691898
 20
-11.7953426903
 10
-8.8686211173
 20
-12.1052965915
 10
-8.5288106397
 20
-12.463732973
 10
-8.2111759586
 20
-12.8656224178
 10
-7.9203780806
 20
-13.3052841987
 10
-7.6611119846
 20
-13.7762240477
 10
-7.4375967575
 20
-14.2706026946
  0
LWPOLYLINE
  5
369
100
AcDbEntity
  8
ASSI
100
AcDbPolyline
 62
250
  6
CONTINUOUS
 90
10
 70
0
 10
-9.3742580651
 20
-11.6393752547
 10
-9.1227323668
 20
-11.8344730805
 10
-8.8764370392
 20
-12.055132363
 10
-8.6370425739
 20
-12.2995551887
 10
-8.4096017289
 20
-12.5623641678
 10
-8.194523605
 20
-12.8437393418
 10
-7.9913334081
 20
-13.1434744446
 10
-7.8037602071
 20
-13.4556134133
 10
-7.6321141892
 20
-13.7800985169
 10
-7.4760078006
 20
-14.1169562269
  0
LWPOLYLINE
  5
36A
100
AcDbEntity
  8
RACCORDO
100
AcDbPolyline
 62
250
  6
CONTINUOUS
 90
7
 70
0
 10
-13.3759278086
 20
-17.6460577757
 10
-13.3756110792
 20
-17.6602731486
 10
-13.3733568483
 20
-17.6732574636
 10
-13.3692272588
 20
-17.6846527783
 10
-13.3633361526
 20
-17.6941449544
 10
-13.3558459314
 20
-17.7014723183
 10
-13.3500498568
 20
-17.7050594288
  0
LWPOLYLINE
  5
36B
100
AcDbEntity
  8
ASSI
100
AcDbPolyline
 62
250
  6
CONTINUOUS
 90
7
 70
0
 10
-13.3759278086
 20
-17.6460577757
 10
-13.3756110792
 20
-17.6602731486
 10
-13.3733568483
 20
-17.6732574636
 10
-13.3692272588
 20
-17.6846527783
 10
-13.3633361526
 20
-17.6941449544
 10
-13.3558459314
 20
-17.7014723183
 10
-13.3500498568
 20
-17.7050594288
  0
LINE
  5
36C
100
AcDbEntity
  8
268
100
AcDbLine
 62
7
  6
CONTINUOUS
 10
-12.087090678
 20
22.8001724494
 11
-12.087090678
 21
22.7757769441
  0
LWPOLYLINE
  5
36D
100
AcDbEntity
  8
RACCORDO
100
AcDbPolyline
 62
250
  6
CONTINUOUS
 90
7
 70
0
 10
-12.8679841747
 20
-9.8355949926
 10
-12.8679910637
 20
-9.8502571789
 10
-12.8659792262
 20
-9.863701435
 10
-12.8620063021
 20
-9.875542576
 10
-12.8561861179
 20
-9.8854413472
 10
-12.8486854245
 20
-9.8931141439
 10
-12.8422520036
 20
-9.8971899865
  0
LWPOLYLINE
  5
36E
100
AcDbEntity
  8
ASSI
100
AcDbPolyline
 62
250
  6
CONTINUOUS
 90
7
 70
0
 10
-12.8679841747
 20
-9.8355949926
 10
-12.8679910637
 20
-9.8502571789
 10
-12.8659792262
 20
-9.863701435
 10
-12.8620063021
 20
-9.875542576
 10
-12.8561861179
 20
-9.8854413472
 10
-12.8486854245
 20
-9.8931141439
 10
-12.8422655923
 20
-9.8971831888
  0
LWPOLYLINE
  5
36F
100
AcDbEntity
  8
268
100
AcDbPolyline
 62
7
  6
CONTINUOUS
 90
5
 70
0
 10
10.9309094422
 20
19.8734333476
 10
10.9311574544
 20
19.8735734454
 10
10.9320846903
 20
19.8744011169
 10
10.9325911078
 20
19.8754521882
 10
10.9327028713
 20
19.8763841122
  0
LINE
  5
370
100
AcDbEntity
  8
715
100
AcDbLine
 62
250
  6
CONTINUOUS
 10
11.1236556819
 20
20.5869862798
 11
11.0343960485
 21
20.5376228214
  0
LINE
  5
371
100
AcDbEntity
  8
715
100
AcDbLine
 62
7
  6
CONTINUOUS
 10
11.1236556819
 20
20.5869862798
 11
11.0342557484
 21
20.5376875469
  0
LINE
  5
372
100
AcDbEntity
  8
268
100
AcDbLine
 62
250
  6
CONTINUOUS
 10
5.5743295989
 20
17.5678033735
 11
10.932656379
 21
20.4587436005
  0
LINE
  5
373
100
AcDbEntity
  8
268
100
AcDbLine
 62
250
  6
CONTINUOUS
 10
5.2077094457
 20
17.1215912474
 11
10.8485048114
 21
20.1649297566
  0
LINE
  5
374
100
AcDbEntity
  8
715
100
AcDbLine
 62
7
  6
CONTINUOUS
 10
11.1236556819
 20
20.5869862798
 11
11.9393895386
 21
21.0171388721
  0
LINE
  5
375
100
AcDbEntity
  8
218_STAMPATO
100
AcDbLine
 62
7
  6
CONTINUOUS
 10
5.7963956885
 20
16.6477599673
 11
11.3910805034
 21
19.5867036851
  0
LWPOLYLINE
  5
376
100
AcDbEntity
  8
218_STAMPATO
100
AcDbPolyline
 62
7
  6
CONTINUOUS
 90
38
 70
0
 10
11.3366040314
 20
21.8477550503
 10
11.2960855744
 20
21.8266960923
 10
11.2564713175
 20
21.8052113602
 10
11.2177791529
 20
21.7833105577
 10
11.1800265561
 20
21.7610035765
 10
11.1432305785
 20
21.7383004917
 10
11.1074078392
 20
21.7152115574
 10
11.0725745178
 20
21.6917472018
 10
11.0387463472
 20
21.6679180229
 10
11.005938606
 20
21.6437347832
 10
10.9741661122
 20
21.6192084053
 10
10.943443216
 20
21.5943499668
 10
10.9137837938
 20
21.5691706952
 10
10.8852012414
 20
21.5436819629
 10
10.8577084683
 20
21.517895282
 10
10.8313178919
 20
21.4918222995
 10
10.8060414318
 20
21.4654747912
 10
10.7818905041
 20
21.4388646573
 10
10.758876017
 20
21.4120039165
 10
10.737008365
 20
21.3849047006
 10
10.716297425
 20
21.3575792493
 10
10.696752551
 20
21.3300399042
 10
10.6783825708
 20
21.3022991038
 10
10.6611957812
 20
21.2743693774
 10
10.6451999449
 20
21.2462633396
 10
10.6304022865
 20
21.2179936849
 10
10.6168094895
 20
21.1895731814
 10
10.6044276931
 20
21.1610146655
 10
10.5932624898
 20
21.1323310359
 10
10.5833189222
 20
21.1035352477
 10
10.5746014817
 20
21.0746403068
 10
10.5671141054
 20
21.0456592638
 10
10.560860175
 20
21.0166052083
 10
10.5558425154
 20
20.9874912628
 10
10.5520633925
 20
20.9583305768
 10
10.5495245135
 20
20.929136321
 10
10.5482270249
 20
20.8999216811
 10
10.5480427666
 20
20.8840048119
  0
LINE
  5
377
100
AcDbEntity
  8
268
100
AcDbLine
 62
250
  6
CONTINUOUS
 10
5.1193194909
 20
16.9862980661
 11
10.8485048114
 21
19.9526706025
  0
LINE
  5
378
100
AcDbEntity
  8
268
100
AcDbLine
 62
7
  6
CONTINUOUS
 10
5.2390856215
 20
16.9264150008
 11
10.9309088866
 21
19.8734427667
  0
LINE
  5
379
100
AcDbEntity
  8
268
100
AcDbLine
 62
250
  6
CONTINUOUS
 10
5.201670122
 20
16.2455736586
 11
3.433903169
 21
15.3427959591
  0
LINE
  5
37A
100
AcDbEntity
  8
268
100
AcDbLine
 62
7
  6
CONTINUOUS
 10
5.0602487658
 20
16.3162843367
 11
3.9934178536
 21
15.7777030872
  0
LINE
  5
37B
100
AcDbEntity
  8
218_STAMPATO
100
AcDbLine
 62
7
  6
CONTINUOUS
 10
15.559040796
 20
23.5555761998
 11
11.3366040314
 21
21.4375360074
  0
LINE
  5
37C
100
AcDbEntity
  8
268
100
AcDbLine
 62
7
  6
CONTINUOUS
 10
3.4589679749
 20
17.2456131408
 11
5.0602487658
 21
18.0483351443
  0
LINE
  5
37D
100
AcDbEntity
  8
715
100
AcDbLine
 62
7
  6
CONTINUOUS
 10
12.0676769673
 20
20.7940471408
 11
12.5626517142
 21
21.0415345142
  0
LINE
  5
37E
100
AcDbEntity
  8
715
100
AcDbLine
 62
7
  6
CONTINUOUS
 10
15.0308296267
 20
21.2220343665
 11
13.7193653156
 21
20.566302211
  0
LINE
  5
37F
100
AcDbEntity
  8
715
100
AcDbLine
 62
7
  6
CONTINUOUS
 10
13.0181415738
 20
20.21569034
 11
12.8004888147
 21
20.1068639605
  0
LINE
  5
380
100
AcDbEntity
  8
268
100
AcDbLine
 62
7
  6
CONTINUOUS
 10
5.0602487658
 20
18.0483351443
 11
5.5885159375
 21
18.3117739643
  0
LINE
  5
381
100
AcDbEntity
  8
268
100
AcDbLine
 62
250
  6
CONTINUOUS
 10
5.9087769032
 20
16.59156936
 11
5.201670122
 21
16.2455736586
  0
LWPOLYLINE
  5
382
100
AcDbEntity
  8
715
100
AcDbPolyline
 62
7
  6
CONTINUOUS
 90
10
 70
0
 10
15.8793314385
 20
20.797757135
 10
15.8907279028
 20
20.8029257902
 10
15.9019483053
 20
20.8069776866
 10
15.912992646
 20
20.8099128241
 10
15.9239559049
 20
20.8117313555
 10
15.9347431021
 20
20.812433128
 10
15.9450692975
 20
20.8120176836
 10
15.9548395112
 20
20.8104848697
 10
15.9641487233
 20
20.807834839
 10
15.9729969336
 20
20.8040675914
  0
LWPOLYLINE
  5
383
100
AcDbEntity
  8
RACCORDO
100
AcDbPolyline
 62
250
  6
CONTINUOUS
 90
34
 70
0
 10
-0.4845256268
 20
13.4064930524
 10
-0.5231797033
 20
13.3911438414
 10
-0.5635356956
 20
13.3732948542
 10
-0.6055437878
 20
13.3527452555
 10
-0.649252679
 20
13.329232399
 10
-0.6944693141
 20
13.3026099861
 10
-0.740761291
 20
13.2729057454
 10
-0.7880247046
 20
13.2399815359
 10
-0.8361327562
 20
13.2037135033
 10
-0.884609928
 20
13.1642669246
 10
-0.933326777
 20
13.1215819931
 10
-0.9821225035
 20
13.0756290924
 10
-1.0304869126
 20
13.0267439411
 10
-1.0782806158
 20
12.9749589922
 10
-1.1253409174
 20
12.9203392185
 10
-1.1711635116
 20
12.8633924983
 10
-1.2156233846
 20
12.8042424813
 10
-1.2585927431
 20
12.743028064
 10
-1.2996337097
 20
12.6803843398
 10
-1.3386640584
 20
12.6165024396
 10
-1.3756191922
 20
12.5515591081
 10
-1.410180052
 20
12.4862376226
 10
-1.4423298843
 20
12.4207532704
 10
-1.4720779614
 20
12.3552829242
 10
-1.4992444877
 20
12.2904821096
 10
-1.5238866765
 20
12.2265417953
 10
-1.5460816847
 20
12.1636117083
 10
-1.5657754521
 20
12.1022814962
 10
-1.5830924069
 20
12.0426805392
 10
-1.598162984
 20
11.9849175272
 10
-1.6110282041
 20
11.9295243504
 10
-1.6218337119
 20
11.8767140344
 10
-1.6307851965
 20
11.8263851363
 10
-1.6380509936
 20
11.7785666562
  0
LWPOLYLINE
  5
384
100
AcDbEntity
  8
ASSI
100
AcDbPolyline
 62
250
  6
CONTINUOUS
 90
34
 70
0
 10
-0.4845256268
 20
13.4064930524
 10
-0.5231797033
 20
13.3911438414
 10
-0.5635356956
 20
13.3732948542
 10
-0.6055437878
 20
13.3527452555
 10
-0.649252679
 20
13.329232399
 10
-0.6944693141
 20
13.3026099861
 10
-0.740761291
 20
13.2729057454
 10
-0.7880247046
 20
13.2399815359
 10
-0.8361327562
 20
13.2037135033
 10
-0.884609928
 20
13.1642669246
 10
-0.933326777
 20
13.1215819931
 10
-0.9821225035
 20
13.0756290924
 10
-1.0304869126
 20
13.0267439411
 10
-1.0782806158
 20
12.9749589922
 10
-1.1253409174
 20
12.9203392185
 10
-1.1711635116
 20
12.8633924983
 10
-1.2156233846
 20
12.8042424813
 10
-1.2585927431
 20
12.743028064
 10
-1.2996337097
 20
12.6803843398
 10
-1.3386640584
 20
12.6165024396
 10
-1.3756191922
 20
12.5515591081
 10
-1.410180052
 20
12.4862376226
 10
-1.4423298843
 20
12.4207532704
 10
-1.4720779614
 20
12.3552829242
 10
-1.4992444877
 20
12.2904821096
 10
-1.5238866765
 20
12.2265417953
 10
-1.5460816847
 20
12.1636117083
 10
-1.5657754521
 20
12.1022814962
 10
-1.5830924069
 20
12.0426805392
 10
-1.598162984
 20
11.9849175272
 10
-1.6110282041
 20
11.9295243504
 10
-1.6218337119
 20
11.8767140344
 10
-1.6307851965
 20
11.8263851363
 10
-1.6380509936
 20
11.7785666562
  0
LINE
  5
385
100
AcDbEntity
  8
RACCORDO
100
AcDbLine
 62
250
  6
CONTINUOUS
 10
3.5639661556
 20
14.8917693661
 11
-0.4845256268
 21
13.4064930524
  0
LINE
  5
386
100
AcDbEntity
  8
ASSI
100
AcDbLine
 62
250
  6
CONTINUOUS
 10
3.5639661556
 20
14.8917693661
 11
-0.4845256268
 21
13.4064930524
  0
LINE
  5
387
100
AcDbEntity
  8
268
100
AcDbLine
 62
7
  6
CONTINUOUS
 10
3.6813905425
 20
14.8915363339
 11
4.4945633408
 21
15.1758380018
  0
LINE
  5
388
100
AcDbEntity
  8
ASSI
100
AcDbLine
 62
7
  6
CONTINUOUS
 10
-13.772950429
 20
-9.6127004888
 11
-13.4372005728
 21
-9.6731951363
  0
LINE
  5
389
100
AcDbEntity
  8
RACCORDO
100
AcDbLine
 62
7
  6
CONTINUOUS
 10
-13.4975741469
 20
-9.6587287965
 11
-13.2459011557
 21
-9.7292036074
  0
LWPOLYLINE
  5
38A
100
AcDbEntity
  8
ASSI
100
AcDbPolyline
 62
250
  6
CONTINUOUS
 90
5
 70
0
 10
-13.3488023233
 20
-10.0432585141
 10
-13.5408271519
 20
-9.9879754611
 10
-13.7325724142
 20
-9.9493176018
 10
-13.9231378309
 20
-9.9274174148
 10
-14.1098364033
 20
-9.9226778337
  0
LWPOLYLINE
  5
38B
100
AcDbEntity
  8
ASSI
100
AcDbPolyline
 62
250
  6
CONTINUOUS
 90
4
 70
0
 10
-13.2799857088
 20
-9.9221616574
 10
-13.4778195453
 20
-9.8651645963
 10
-13.6744947185
 20
-9.825382315
 10
-13.8690851393
 20
-9.80306449
  0
LINE
  5
38C
100
AcDbEntity
  8
ASSI
100
AcDbLine
 62
7
  6
CONTINUOUS
 10
-13.4372005728
 20
-9.6731951363
 11
-13.096120848
 21
-9.7836914563
  0
LINE
  5
38D
100
AcDbEntity
  8
ASSI
100
AcDbLine
 62
250
  6
CONTINUOUS
 10
-13.328779857
 20
-9.6452902669
 11
-13.0961387136
 21
-9.7289428667
  0
LINE
  5
38E
100
AcDbEntity
  8
ASSI
100
AcDbLine
 62
250
  6
CONTINUOUS
 10
-13.1556108612
 20
-10.1153044909
 11
-13.3488023233
 21
-10.0432585141
  0
LWPOLYLINE
  5
38F
100
AcDbEntity
  8
RACCORDO
100
AcDbPolyline
 62
250
  6
CONTINUOUS
 90
10
 70
0
 10
-13.0817699527
 20
-9.9960839888
 10
-13.2799857088
 20
-9.9221616574
 10
-13.4778195453
 20
-9.8651645963
 10
-13.6744947185
 20
-9.825382315
 10
-13.8690851393
 20
-9.80306449
 10
-14.0605275484
 20
-9.798355632
 10
-14.2479382694
 20
-9.8112682531
 10
-14.4305588298
 20
-9.8417420384
 10
-14.6075475995
 20
-9.8896289007
 10
-14.697942556
 20
-9.9216653484
  0
LINE
  5
390
100
AcDbEntity
  8
ASSI
100
AcDbLine
 62
250
  6
CONTINUOUS
 10
-13.0817699527
 20
-9.9960839888
 11
-13.2799857088
 21
-9.9221616574
  0
LINE
  5
391
100
AcDbEntity
  8
RACCORDO
100
AcDbLine
 62
7
  6
CONTINUOUS
 10
-13.2459011557
 20
-9.7292036074
 11
-12.9925688278
 21
-9.8267770361
  0
LINE
  5
392
100
AcDbEntity
  8
ASSI
100
AcDbLine
 62
7
  6
CONTINUOUS
 10
-13.096120848
 20
-9.7836914563
 11
-12.8422732045
 21
-9.8971984472
  0
LWPOLYLINE
  5
393
100
AcDbEntity
  8
ASSI
100
AcDbPolyline
 62
250
  6
CONTINUOUS
 90
13
 70
0
 10
-7.6099589711
 20
-14.2665624807
 10
-7.7235120593
 20
-14.0104722149
 10
-7.8473876837
 20
-13.7602875126
 10
-7.9810542724
 20
-13.5171072747
 10
-8.1239723513
 20
-13.2819536402
 10
-8.2755804262
 20
-13.0557841261
 10
-8.4352560842
 20
-12.8395638381
 10
-8.6023264758
 20
-12.6342429542
 10
-8.7761076341
 20
-12.440701362
 10
-8.9559731844
 20
-12.2596798282
 10
-9.1410671053
 20
-12.0920828412
 10
-9.3302944651
 20
-11.9388879273
 10
-9.5227259643
 20
-11.8007635074
  0
LINE
  5
394
100
AcDbEntity
  8
RACCORDO
100
AcDbLine
 62
250
  6
CONTINUOUS
 10
-7.4760078006
 20
-14.1169562269
 11
-7.3381345526
 21
-14.4603610951
  0
LINE
  5
395
100
AcDbEntity
  8
ASSI
100
AcDbLine
 62
250
  6
CONTINUOUS
 10
-7.4760078006
 20
-14.1169562269
 11
-7.3381345526
 21
-14.4603610951
  0
LWPOLYLINE
  5
396
100
AcDbEntity
  8
ASSI
100
AcDbPolyline
 62
250
  6
CONTINUOUS
 90
16
 70
0
 10
-7.6397725738
 20
-14.5759991195
 10
-7.7401760936
 20
-14.3215681197
 10
-7.851521745
 20
-14.0707152146
 10
-7.9723929875
 20
-13.8266570052
 10
-8.1029152442
 20
-13.5895092491
 10
-8.2429977692
 20
-13.3591702657
 10
-8.390904794
 20
-13.1385324789
 10
-8.5467594502
 20
-12.9277078362
 10
-8.7104705055
 20
-12.726597211
 10
-8.8799825023
 20
-12.5377771295
 10
-9.0555056203
 20
-12.3613434142
 10
-9.2368541192
 20
-12.197209997
 10
-9.4213778833
 20
-12.0476802422
 10
-9.6081981732
 20
-11.9135237783
 10
-9.7982069723
 20
-11.793976241
 10
-9.9914075745
 20
-11.689038938
  0
LINE
  5
397
100
AcDbEntity
  8
ASSI
100
AcDbLine
 62
250
  6
CONTINUOUS
 10
-7.5072177863
 20
-14.5274444922
 11
-7.6099589711
 21
-14.2665624807
  0
LWPOLYLINE
  5
398
100
AcDbEntity
  8
RACCORDO
100
AcDbPolyline
 62
250
  6
CONTINUOUS
 90
7
 70
0
 10
-10.4060793276
 20
-19.1309820162
 10
-10.4057626773
 20
-19.1451965512
 10
-10.4035087063
 20
-19.158180409
 10
-10.3993794488
 20
-19.1695756201
 10
-10.3934886254
 20
-19.1790679961
 10
-10.3859985494
 20
-19.1863957341
 10
-10.3802066432
 20
-19.1899810351
  0
LWPOLYLINE
  5
399
100
AcDbEntity
  8
ASSI
100
AcDbPolyline
 62
250
  6
CONTINUOUS
 90
7
 70
0
 10
-10.4060793276
 20
-19.1309820162
 10
-10.4057626773
 20
-19.1451965512
 10
-10.4035087063
 20
-19.1581804089
 10
-10.3993794488
 20
-19.1695756201
 10
-10.3934886254
 20
-19.1790679961
 10
-10.3859985494
 20
-19.1863957341
 10
-10.3802013764
 20
-19.189983669
  0
LINE
  5
39A
100
AcDbEntity
  8
268
100
AcDbLine
 62
7
  6
CONTINUOUS
 10
-11.6878973811
 20
24.1734234821
 11
-11.6878973811
 21
24.4267948758
  0
LINE
  5
39B
100
AcDbEntity
  8
268
100
AcDbLine
 62
7
  6
CONTINUOUS
 10
-11.2739178796
 20
22.3691905449
 11
-11.2739178796
 21
21.9789912409
  0
LINE
  5
39C
100
AcDbEntity
  8
268
100
AcDbLine
 62
7
  6
CONTINUOUS
 10
-10.9849044268
 20
23.2668642274
 11
-10.9849044268
 21
23.7191952031
  0
LINE
  5
39D
100
AcDbEntity
  8
268
100
AcDbLine
 62
7
  6
CONTINUOUS
 10
-10.0821209189
 20
23.6239066448
 11
-10.0821209189
 21
23.370535251
  0
LWPOLYLINE
  5
39E
100
AcDbEntity
  8
RACCORDO
100
AcDbPolyline
 62
250
  6
CONTINUOUS
 90
7
 70
0
 10
-9.8981356937
 20
-11.3205192331
 10
-9.8981423217
 20
-11.3351850898
 10
-9.8961294013
 20
-11.3486313603
 10
-9.8921550551
 20
-11.3604729624
 10
-9.8863336532
 20
-11.3703708466
 10
-9.8788323442
 20
-11.3780419892
 10
-9.8724035325
 20
-11.3821142221
  0
LWPOLYLINE
  5
39F
100
AcDbEntity
  8
ASSI
100
AcDbPolyline
 62
250
  6
CONTINUOUS
 90
7
 70
0
 10
-9.8981356937
 20
-11.3205192331
 10
-9.8981423217
 20
-11.3351850898
 10
-9.8961294013
 20
-11.3486313603
 10
-9.8921550551
 20
-11.3604729624
 10
-9.8863336532
 20
-11.3703708466
 10
-9.8788323442
 20
-11.3780419892
 10
-9.8724035325
 20
-11.3821142221
  0
LWPOLYLINE
  5
3A0
100
AcDbEntity
  8
ASSI
100
AcDbPolyline
 62
250
  6
CONTINUOUS
 90
5
 70
0
 10
-11.676956047
 20
-16.5113699279
 10
-11.628717884
 20
-15.5819750763
 10
-11.577899884
 20
-14.6515020472
 10
-11.524502666
 20
-13.719962178
 10
-11.4773498114
 20
-12.9316243154
  0
LWPOLYLINE
  5
3A1
100
AcDbEntity
  8
INCISIONI_LASER
100
AcDbPolyline
 62
250
  6
CONTINUOUS
 90
5
 70
0
 10
-11.676956047
 20
-16.5113699279
 10
-11.628717884
 20
-15.5819750763
 10
-11.577899884
 20
-14.6515020472
 10
-11.524502666
 20
-13.719962178
 10
-11.4773498114
 20
-12.9316243154
  0
LWPOLYLINE
  5
3A2
100
AcDbEntity
  8
ASSI
100
AcDbPolyline
 62
250
  6
CONTINUOUS
 90
4
 70
0
 10
-11.7883210432
 20
-16.3145641163
 10
-11.7397006121
 20
-15.3850088063
 10
-11.6885004337
 20
-14.4543769977
 10
-11.6040913463
 20
-13.0105885607
  0
LWPOLYLINE
  5
3A3
100
AcDbEntity
  8
INCISIONI_LASER
100
AcDbPolyline
 62
250
  6
CONTINUOUS
 90
4
 70
0
 10
-11.7883210432
 20
-16.3145641163
 10
-11.7397006121
 20
-15.3850088063
 10
-11.6885004337
 20
-14.4543769977
 10
-11.6040913463
 20
-13.0105885607
  0
LWPOLYLINE
  5
3A4
100
AcDbEntity
  8
ASSI
100
AcDbPolyline
 62
250
  6
CONTINUOUS
 90
5
 70
0
 10
-11.7117196458
 20
-12.8144393794
 10
-11.7672968014
 20
-13.7468722907
 10
-11.8202952872
 20
-14.6782479568
 10
-11.8707144572
 20
-15.608555029
 10
-11.9113258816
 20
-16.394184992
  0
LWPOLYLINE
  5
3A5
100
AcDbEntity
  8
INCISIONI_LASER
100
AcDbPolyline
 62
250
  6
CONTINUOUS
 90
5
 70
0
 10
-11.7117196458
 20
-12.8144393794
 10
-11.7672968014
 20
-13.7468722907
 10
-11.8202952872
 20
-14.6782479568
 10
-11.8707144572
 20
-15.608555029
 10
-11.9113258816
 20
-16.394184992
  0
LWPOLYLINE
  5
3A6
100
AcDbEntity
  8
RACCORDO
100
AcDbPolyline
 62
250
  6
CONTINUOUS
 90
10
 70
0
 10
-13.3201302391
 20
-17.9493031523
 10
-13.3183091899
 20
-17.9330599324
 10
-13.3142868559
 20
-17.9163599551
 10
-13.3081924468
 20
-17.8997377291
 10
-13.3002215216
 20
-17.8837252521
 10
-13.2906294343
 20
-17.8688344379
 10
-13.2797229647
 20
-17.8555409009
 10
-13.2678509713
 20
-17.8442695146
 10
-13.2553933839
 20
-17.8353806784
 10
-13.2427486652
 20
-17.8291583632
  0
LWPOLYLINE
  5
3A7
100
AcDbEntity
  8
ASSI
100
AcDbPolyline
 62
250
  6
CONTINUOUS
 90
10
 70
0
 10
-13.3201302391
 20
-17.9493031523
 10
-13.3183091899
 20
-17.9330599324
 10
-13.3142868559
 20
-17.9163599551
 10
-13.3081924468
 20
-17.8997377291
 10
-13.3002215216
 20
-17.8837252521
 10
-13.2906294343
 20
-17.8688344379
 10
-13.2797229647
 20
-17.8555409009
 10
-13.2678509713
 20
-17.8442695146
 10
-13.2553933839
 20
-17.8353806784
 10
-13.2427486652
 20
-17.8291583632
  0
LWPOLYLINE
  5
3A8
100
AcDbEntity
  8
RACCORDO
100
AcDbPolyline
 62
250
  6
CONTINUOUS
 90
10
 70
0
 10
-12.9612560555
 20
-10.2041146975
 10
-12.9591310472
 20
-10.1880670526
 10
-12.9548982067
 20
-10.1716516614
 10
-12.9486879887
 20
-10.1553748474
 10
-12.9406918337
 20
-10.1397386667
 10
-12.9311563258
 20
-10.1252255356
 10
-12.9203756277
 20
-10.1122833149
 10
-12.9086823072
 20
-10.1013113342
 10
-12.8964370476
 20
-10.0926481027
 10
-12.884017603
 20
-10.0865609544
  0
LWPOLYLINE
  5
3A9
100
AcDbEntity
  8
ASSI
100
AcDbPolyline
 62
250
  6
CONTINUOUS
 90
10
 70
0
 10
-12.9612560555
 20
-10.2041146975
 10
-12.9591310472
 20
-10.1880670526
 10
-12.9548982067
 20
-10.1716516614
 10
-12.9486879887
 20
-10.1553748474
 10
-12.9406918337
 20
-10.1397386667
 10
-12.9311563258
 20
-10.1252255356
 10
-12.9203756277
 20
-10.1122833149
 10
-12.9086823072
 20
-10.1013113342
 10
-12.8964370476
 20
-10.0926481027
 10
-12.884017603
 20
-10.0865609544
  0
LINE
  5
3AA
100
AcDbEntity
  8
284
100
AcDbLine
 62
7
  6
CONTINUOUS
 10
-5.0970195061
 20
19.2807413582
 11
-5.1139383167
 21
19.2307216022
  0
LINE
  5
3AB
100
AcDbEntity
  8
268
100
AcDbLine
 62
250
  6
CONTINUOUS
 10
5.4491574954
 20
15.8187095387
 11
3.6813905425
 21
14.9159318392
  0
LINE
  5
3AC
100
AcDbEntity
  8
218_STAMPATO
100
AcDbLine
 62
250
  6
CONTINUOUS
 10
20.3442870225
 20
21.2410845243
 11
6.1562642766
 21
14.0228884054
  0
LINE
  5
3AD
100
AcDbEntity
  8
715
100
AcDbLine
 62
7
  6
CONTINUOUS
 10
15.8793603344
 20
20.7977715829
 11
14.7747337962
 21
20.2454583138
  0
LINE
  5
3AE
100
AcDbEntity
  8
268
100
AcDbLine
 62
250
  6
CONTINUOUS
 10
6.1562642766
 20
16.1647052401
 11
5.4491574954
 21
15.8187095387
  0
LINE
  5
3AF
100
AcDbEntity
  8
218_STAMPATO
100
AcDbLine
 62
250
  6
CONTINUOUS
 10
12.1366074391
 20
18.3008599263
 11
19.7085408368
 21
21.9789196648
  0
LINE
  5
3B0
100
AcDbEntity
  8
218_STAMPATO
100
AcDbLine
 62
250
  6
CONTINUOUS
 10
12.4742757729
 20
17.7184681992
 11
20.2084646844
 21
21.4753434055
  0
LINE
  5
3B1
100
AcDbEntity
  8
218_STAMPATO
100
AcDbLine
 62
7
  6
CONTINUOUS
 10
19.1761429789
 20
22.2451185938
 11
15.6127121423
 21
20.534863846
  0
LWPOLYLINE
  5
3B2
100
AcDbEntity
  8
RACCORDO
100
AcDbPolyline
 62
250
  6
CONTINUOUS
 90
34
 70
0
 10
0.0170459867
 20
12.4034176584
 10
-0.0012094363
 20
12.3964936329
 10
-0.0202065073
 20
12.3882201966
 10
-0.0399452263
 20
12.3785973494
 10
-0.0605227224
 20
12.3676723473
 10
-0.0818418665
 20
12.3553979343
 10
-0.1036112717
 20
12.3416323426
 10
-0.1258488778
 20
12.3263303914
 10
-0.148536745
 20
12.3095372616
 10
-0.171329667
 20
12.2912467276
 10
-0.1942385033
 20
12.2714046714
 10
-0.2172523943
 20
12.2500652111
 10
-0.2399935551
 20
12.2273844759
 10
-0.2624581361
 20
12.203308612
 10
-0.2846499869
 20
12.1778914732
 10
-0.306202871
 20
12.1514507501
 10
-0.3270944155
 20
12.1239456588
 10
-0.3473469935
 20
12.0954169833
 10
-0.3666614873
 20
12.0663047649
 10
-0.3850003029
 20
12.0365911329
 10
-0.4024010344
 20
12.006293958
 10
-0.4186773465
 20
11.9759068949
 10
-0.4337855012
 20
11.9454359093
 10
-0.4477692364
 20
11.9148750353
 10
-0.4605734305
 20
11.8847000303
 10
-0.4721577675
 20
11.8549326928
 10
-0.4825625634
 20
11.8255512241
 10
-0.4918536433
 20
11.7969659855
 10
-0.4999996459
 20
11.7692033524
 10
-0.5070319326
 20
11.7422369493
 10
-0.5131104131
 20
11.7163980102
 10
-0.5182883904
 20
11.6917969465
 10
-0.5225125614
 20
11.6683233467
 10
-0.5257829262
 20
11.645977211
  0
LWPOLYLINE
  5
3B3
100
AcDbEntity
  8
ASSI
100
AcDbPolyline
 62
250
  6
CONTINUOUS
 90
34
 70
0
 10
0.0170459867
 20
12.4034176584
 10
-0.0012094363
 20
12.3964936329
 10
-0.0202065073
 20
12.3882201966
 10
-0.0399452263
 20
12.3785973494
 10
-0.0605227224
 20
12.3676723473
 10
-0.0818418665
 20
12.3553979343
 10
-0.1036112717
 20
12.3416323426
 10
-0.1258488778
 20
12.3263303914
 10
-0.148536745
 20
12.3095372616
 10
-0.171329667
 20
12.2912467276
 10
-0.1942385033
 20
12.2714046714
 10
-0.2172523943
 20
12.2500652111
 10
-0.2399935551
 20
12.2273844759
 10
-0.2624581361
 20
12.203308612
 10
-0.2846499869
 20
12.1778914732
 10
-0.306202871
 20
12.1514507501
 10
-0.3270944155
 20
12.1239456588
 10
-0.3473469935
 20
12.0954169833
 10
-0.3666614873
 20
12.0663047649
 10
-0.3850003029
 20
12.0365911329
 10
-0.4024010344
 20
12.006293958
 10
-0.4186773465
 20
11.9759068949
 10
-0.4337855012
 20
11.9454359093
 10
-0.4477692364
 20
11.9148750353
 10
-0.4605734305
 20
11.8847000303
 10
-0.4721577675
 20
11.8549326928
 10
-0.4825625634
 20
11.8255512241
 10
-0.4918536433
 20
11.7969659855
 10
-0.4999996459
 20
11.7692033524
 10
-0.5070319326
 20
11.7422369493
 10
-0.5131104131
 20
11.7163980102
 10
-0.5182883904
 20
11.6917969465
 10
-0.5225125614
 20
11.6683233467
 10
-0.5257829262
 20
11.645977211
  0
LINE
  5
3B4
100
AcDbEntity
  8
RACCORDO
100
AcDbLine
 62
250
  6
CONTINUOUS
 10
4.065537769
 20
13.8886939721
 11
0.0170459867
 21
12.4034176584
  0
LINE
  5
3B5
100
AcDbEntity
  8
ASSI
100
AcDbLine
 62
250
  6
CONTINUOUS
 10
4.065537769
 20
13.8886939721
 11
0.0170459867
 21
12.4034176584
  0
LWPOLYLINE
  5
3B6
100
AcDbEntity
  8
ASSI
100
AcDbPolyline
 62
250
  6
CONTINUOUS
 90
3
 70
0
 10
-13.8690851393
 20
-9.80306449
 10
-14.0605275484
 20
-9.798355632
 10
-14.2479382694
 20
-9.8112682531
  0
LINE
  5
3B7
100
AcDbEntity
  8
ASSI
100
AcDbLine
 62
7
  6
CONTINUOUS
 10
-14.0995287568
 20
-9.6024642744
 11
-13.772950429
 21
-9.6127004888
  0
LWPOLYLINE
  5
3B8
100
AcDbEntity
  8
RACCORDO
100
AcDbPolyline
 62
7
  6
CONTINUOUS
 90
3
 70
0
 10
-13.9888043791
 20
-9.6003068269
 10
-13.7457220805
 20
-9.6157694769
 10
-13.4975741469
 20
-9.6587287965
  0
LWPOLYLINE
  5
3B9
100
AcDbEntity
  8
RACCORDO
100
AcDbPolyline
 62
250
  6
CONTINUOUS
 90
5
 70
0
 10
-14.0594628289
 20
-9.5287513383
 10
-13.8104565518
 20
-9.545200301
 10
-13.5659007858
 20
-9.5846344964
 10
-13.328779857
 20
-9.6452902669
 10
-13.0961387136
 20
-9.7289428667
  0
LINE
  5
3BA
100
AcDbEntity
  8
ASSI
100
AcDbLine
 62
7
  6
CONTINUOUS
 10
-7.4375967575
 20
-14.2706026946
 11
-7.2532129716
 21
-14.7807581288
  0
LINE
  5
3BB
100
AcDbEntity
  8
RACCORDO
100
AcDbLine
 62
250
  6
CONTINUOUS
 10
-7.3381345526
 20
-14.4603610951
 11
-7.218614917
 21
-14.8110757266
  0
LINE
  5
3BC
100
AcDbEntity
  8
ASSI
100
AcDbLine
 62
250
  6
CONTINUOUS
 10
-7.3381345526
 20
-14.4603610951
 11
-7.218614917
 21
-14.8110757266
  0
LINE
  5
3BD
100
AcDbEntity
  8
RACCORDO
100
AcDbLine
 62
250
  6
CONTINUOUS
 10
-7.218614917
 20
-14.8110757266
 11
-7.1172522996
 21
-15.1683062267
  0
LINE
  5
3BE
100
AcDbEntity
  8
ASSI
100
AcDbLine
 62
250
  6
CONTINUOUS
 10
-7.218614917
 20
-14.8110757266
 11
-7.1172522996
 21
-15.1683062267
  0
LINE
  5
3BF
100
AcDbEntity
  8
ASSI
100
AcDbLine
 62
7
  6
CONTINUOUS
 10
-7.2532129716
 20
-14.7807581288
 11
-7.1103670668
 21
-15.2992442608
  0
LWPOLYLINE
  5
3C0
100
AcDbEntity
  8
RACCORDO
100
AcDbPolyline
 62
250
  6
CONTINUOUS
 90
9
 70
0
 10
-7.1172522996
 20
-15.1683062267
 10
-7.0362889103
 20
-15.5239020808
 10
-6.9762441049
 20
-15.876981228
 10
-6.9365524204
 20
-16.2284061176
 10
-6.9178601657
 20
-16.5726556642
 10
-6.9205732804
 20
-16.9105385106
 10
-6.9442633318
 20
-17.2412357781
 10
-6.9883630715
 20
-17.5568007349
 10
-7.0531360003
 20
-17.8560381121
  0
LWPOLYLINE
  5
3C1
100
AcDbEntity
  8
ASSI
100
AcDbPolyline
 62
250
  6
CONTINUOUS
 90
9
 70
0
 10
-7.1172522996
 20
-15.1683062267
 10
-7.0362889103
 20
-15.5239020808
 10
-6.9762441049
 20
-15.876981228
 10
-6.9365524204
 20
-16.2284061176
 10
-6.9178601657
 20
-16.5726556642
 10
-6.9205732804
 20
-16.9105385106
 10
-6.9442633318
 20
-17.2412357781
 10
-6.9883630715
 20
-17.5568007349
 10
-7.0531360003
 20
-17.8560381121
  0
LWPOLYLINE
  5
3C2
100
AcDbEntity
  8
ASSI
100
AcDbPolyline
 62
7
  6
CONTINUOUS
 90
6
 70
0
 10
-7.1103670668
 20
-15.2992442608
 10
-7.0111340642
 20
-15.8181456537
 10
-6.9567672527
 20
-16.3292465276
 10
-6.9478139929
 20
-16.825353938
 10
-6.984276454
 20
-17.3001823987
 10
-7.0657495218
 20
-17.7466097892
  0
LINE
  5
3C3
100
AcDbEntity
  8
268
100
AcDbLine
 62
7
  6
CONTINUOUS
 10
-9.3709003108
 20
22.4598621694
 11
-9.3709003108
 21
23.0970317281
  0
LINE
  5
3C4
100
AcDbEntity
  8
268
100
AcDbLine
 62
7
  6
CONTINUOUS
 10
-8.3040693987
 20
22.9984434189
 11
-8.3040693987
 21
24.7304942265
  0
LINE
  5
3C5
100
AcDbEntity
  8
268
100
AcDbLine
 62
7
  6
CONTINUOUS
 10
-7.6010764444
 20
24.8658157243
 11
-7.6010764444
 21
24.6048867479
  0
LWPOLYLINE
  5
3C6
100
AcDbEntity
  8
RACCORDO
100
AcDbPolyline
 62
250
  6
CONTINUOUS
 90
10
 70
0
 10
-10.3502817581
 20
-19.4342273927
 10
-10.3484614926
 20
-19.4179885854
 10
-10.3444407055
 20
-19.4012918641
 10
-10.3383480289
 20
-19.3846713866
 10
-10.3303783784
 20
-19.3686588714
 10
-10.3207867171
 20
-19.3537665873
 10
-10.3098798992
 20
-19.3404709651
 10
-10.298006853
 20
-19.3291973555
 10
-10.2855474184
 20
-19.3203064213
 10
-10.2729001949
 20
-19.3140825993
  0
LWPOLYLINE
  5
3C7
100
AcDbEntity
  8
ASSI
100
AcDbPolyline
 62
250
  6
CONTINUOUS
 90
10
 70
0
 10
-10.3502817581
 20
-19.4342273927
 10
-10.3484614926
 20
-19.4179885854
 10
-10.3444407055
 20
-19.4012918641
 10
-10.3383480289
 20
-19.3846713866
 10
-10.3303783784
 20
-19.3686588714
 10
-10.3207867171
 20
-19.3537665873
 10
-10.3098798992
 20
-19.3404709651
 10
-10.298006853
 20
-19.3291973555
 10
-10.2855474184
 20
-19.3203064213
 10
-10.2729001949
 20
-19.3140825993
  0
LWPOLYLINE
  5
3C8
100
AcDbEntity
  8
RACCORDO
100
AcDbPolyline
 62
250
  6
CONTINUOUS
 90
10
 70
0
 10
-9.9914075745
 20
-11.689038938
 10
-9.9892823663
 20
-11.6729902734
 10
-9.9850491608
 20
-11.6565741347
 10
-9.9788385422
 20
-11.6402969198
 10
-9.970842093
 20
-11.6246607412
 10
-9.9613064843
 20
-11.6101479371
 10
-9.9505258662
 20
-11.5972061921
 10
-9.9388327948
 20
-11.5862347278
 10
-9.9265879727
 20
-11.577571987
 10
-9.9141691231
 20
-11.5714851944
  0
LWPOLYLINE
  5
3C9
100
AcDbEntity
  8
ASSI
100
AcDbPolyline
 62
250
  6
CONTINUOUS
 90
10
 70
0
 10
-9.9914075745
 20
-11.689038938
 10
-9.9892823663
 20
-11.6729902734
 10
-9.9850491608
 20
-11.6565741347
 10
-9.9788385422
 20
-11.6402969198
 10
-9.970842093
 20
-11.6246607412
 10
-9.9613064843
 20
-11.6101479371
 10
-9.9505258662
 20
-11.5972061921
 10
-9.9388327948
 20
-11.5862347278
 10
-9.9265879727
 20
-11.577571987
 10
-9.9141691231
 20
-11.5714851944
  0
LWPOLYLINE
  5
3CA
100
AcDbEntity
  8
ASSI
100
AcDbPolyline
 62
250
  6
CONTINUOUS
 90
14
 70
0
 10
-15.7447051413
 20
-10.9588336241
 10
-15.8379543171
 20
-11.1407604842
 10
-15.9196068053
 20
-11.3347399416
 10
-15.9897930719
 20
-11.540610859
 10
-16.047600086
 20
-11.7557465839
 10
-16.0928643321
 20
-11.9802658682
 10
-16.1257359179
 20
-12.2140440809
 10
-16.1457850602
 20
-12.4540947367
 10
-16.1528484071
 20
-12.7005022433
 10
-16.1470891912
 20
-12.9531817483
 10
-16.128580998
 20
-13.208898462
 10
-16.0971667577
 20
-13.4676978018
 10
-16.0530167669
 20
-13.7295394975
 10
-15.9967085516
 20
-13.9910656284
  0
LWPOLYLINE
  5
3CB
100
AcDbEntity
  8
ASSI
100
AcDbPolyline
 62
7
  6
CONTINUOUS
 90
8
 70
0
 10
-15.6939791445
 20
-10.7678725439
 10
-15.8937137198
 20
-11.1494287011
 10
-16.0433184726
 20
-11.580952089
 10
-16.1396822026
 20
-12.0546940574
 10
-16.1808321128
 20
-12.5611089962
 10
-16.166184867
 20
-13.0911016088
 10
-16.0961141034
 20
-13.635609815
 10
-15.972226209
 20
-14.1840471781
  0
LWPOLYLINE
  5
3CC
100
AcDbEntity
  8
ASSI
100
AcDbPolyline
 62
7
  6
CONTINUOUS
 90
8
 70
0
 10
-15.6935416367
 20
-10.7671792671
 10
-15.8933272553
 20
-11.1485298748
 10
-16.0430147196
 20
-11.5798356515
 10
-16.1394942831
 20
-12.0533557709
 10
-16.1807923632
 20
-12.5595568722
 10
-16.1663223735
 20
-13.0893534483
 10
-16.0964545175
 20
-13.6336907228
 10
-15.9727895644
 20
-14.1819917344
  0
LWPOLYLINE
  5
3CD
100
AcDbEntity
  8
RACCORDO
100
AcDbPolyline
 62
7
  6
CONTINUOUS
 90
16
 70
0
 10
-15.6589872413
 20
-10.7139411364
 10
-15.7664943954
 20
-10.8901484518
 10
-15.8624926158
 20
-11.079305537
 10
-15.9465648555
 20
-11.2807366354
 10
-16.0183276841
 20
-11.4935405742
 10
-16.0774177195
 20
-11.7167743687
 10
-16.1235550511
 20
-11.9495982514
 10
-16.1565398414
 20
-12.1909893949
 10
-16.1761818186
 20
-12.4396730148
 10
-16.1823888822
 20
-12.6945779742
 10
-16.1751838775
 20
-12.9546539699
 10
-16.1546195503
 20
-13.2186049769
 10
-16.1208057428
 20
-13.4852520206
 10
-16.0739498298
 20
-13.7535283974
 10
-16.0142797244
 20
-14.02228862
 10
-15.9420577385
 20
-14.2903949526
  0
LWPOLYLINE
  5
3CE
100
AcDbEntity
  8
RACCORDO
100
AcDbPolyline
 62
250
  6
CONTINUOUS
 90
25
 70
0
 10
-15.6400143731
 20
-10.788808571
 10
-15.7447051413
 20
-10.9588336241
 10
-15.8379543171
 20
-11.1407604842
 10
-15.9196068053
 20
-11.3347399416
 10
-15.9897930719
 20
-11.540610859
 10
-16.047600086
 20
-11.7557465839
 10
-16.0928643321
 20
-11.9802658682
 10
-16.1257359179
 20
-12.2140440809
 10
-16.1457850602
 20
-12.4540947367
 10
-16.1528484071
 20
-12.7005022433
 10
-16.1470891912
 20
-12.9531817483
 10
-16.128580998
 20
-13.208898462
 10
-16.0971667577
 20
-13.4676978018
 10
-16.0530167669
 20
-13.7295394975
 10
-15.9967085516
 20
-13.9910656284
 10
-15.9280991252
 20
-14.2522760121
 10
-15.8473560526
 20
-14.5131808559
 10
-15.7555337549
 20
-14.7704425151
 10
-15.65250359
 20
-15.0240255225
 10
-15.53842633
 20
-15.2739787258
 10
-15.4147988509
 20
-15.5170945241
 10
-15.2815343173
 20
-15.753268615
 10
-15.1387543703
 20
-15.9826199923
 10
-14.988273656
 20
-16.2022781931
 10
-14.8300088705
 20
-16.4121408283
  0
LINE
  5
3CF
100
AcDbEntity
  8
RACCORDO
100
AcDbLine
 62
250
  6
CONTINUOUS
 10
-15.7629061482
 20
-10.678950022
 11
-15.6203604082
 21
-10.4575914782
  0
LWPOLYLINE
  5
3D0
100
AcDbEntity
  8
ASSI
100
AcDbPolyline
 62
250
  6
CONTINUOUS
 90
3
 70
0
 10
-15.7629061482
 20
-10.678950022
 10
-15.6203604082
 20
-10.4575914782
 10
-15.460793901
 20
-10.2593991811
  0
LINE
  5
3D1
100
AcDbEntity
  8
RACCORDO
100
AcDbLine
 62
250
  6
CONTINUOUS
 10
-15.8915328538
 20
-10.6357173441
 11
-15.7449041676
 21
-10.4082327932
  0
LWPOLYLINE
  5
3D2
100
AcDbEntity
  8
ASSI
100
AcDbPolyline
 62
250
  6
CONTINUOUS
 90
3
 70
0
 10
-15.8915328538
 20
-10.6357173441
 10
-15.7449041676
 20
-10.4082327932
 10
-15.582197697
 20
-10.2054582366
  0
LWPOLYLINE
  5
3D3
100
AcDbEntity
  8
218_STAMPATO
100
AcDbPolyline
 62
250
  6
CONTINUOUS
 90
30
 70
0
 10
20.7584374982
 20
19.8094509497
 10
20.7770986367
 20
19.8193771787
 10
20.7952117316
 20
19.829554005
 10
20.8127633321
 20
19.8399738688
 10
20.8297404043
 20
19.8506290332
 10
20.8461303408
 20
19.8615115803
 10
20.8619209705
 20
19.8726134168
 10
20.8771005671
 20
19.8839262963
 10
20.8916578581
 20
19.8954418157
 10
20.9055820333
 20
19.9071514118
 10
20.9188627525
 20
19.9190463868
 10
20.9314901533
 20
19.9311179055
 10
20.9434548585
 20
19.9433569922
 10
20.9547479832
 20
19.955754556
 10
20.9653611409
 20
19.9683013884
 10
20.9752864503
 20
19.9809881614
 10
20.9845165408
 20
19.9938054515
 10
20.993044558
 20
20.0067437387
 10
21.0008641691
 20
20.0197934053
 10
21.0079695671
 20
20.0329447579
 10
21.0143554755
 20
20.0461880288
 10
21.0200171521
 20
20.0595133751
 10
21.0249503926
 20
20.0729108989
 10
21.0291515334
 20
20.0863706496
 10
21.0326174548
 20
20.0998826253
 10
21.035345583
 20
20.1134367894
 10
21.037333892
 20
20.1270230749
 10
21.0385809053
 20
20.1406313876
 10
21.0390856969
 20
20.154251619
 10
21.0390976975
 20
20.1566881185
  0
LINE
  5
3D4
100
AcDbEntity
  8
218_STAMPATO
100
AcDbLine
 62
250
  6
CONTINUOUS
 10
20.7584374982
 20
19.8094509497
 11
6.1562642766
 21
12.3805546219
  0
LINE
  5
3D5
100
AcDbEntity
  8
RACCORDO
100
AcDbLine
 62
7
  6
CONTINUOUS
 10
-14.4543254538
 20
-9.6516599468
 11
-14.2255070433
 21
-9.6123250347
  0
LINE
  5
3D6
100
AcDbEntity
  8
ASSI
100
AcDbLine
 62
250
  6
CONTINUOUS
 10
-14.2925378676
 20
-9.9353615651
 11
-14.4713480274
 21
-9.9651961398
  0
LINE
  5
3D7
100
AcDbEntity
  8
ASSI
100
AcDbLine
 62
250
  6
CONTINUOUS
 10
-14.2479382694
 20
-9.8112682531
 11
-14.4305588298
 21
-9.8417420384
  0
LINE
  5
3D8
100
AcDbEntity
  8
ASSI
100
AcDbLine
 62
7
  6
CONTINUOUS
 10
-14.4138270759
 20
-9.6425932795
 11
-14.0995287568
 21
-9.6024642744
  0
LINE
  5
3D9
100
AcDbEntity
  8
ASSI
100
AcDbLine
 62
250
  6
CONTINUOUS
 10
-14.1098364033
 20
-9.9226778337
 11
-14.2925378676
 21
-9.9353615651
  0
LINE
  5
3DA
100
AcDbEntity
  8
RACCORDO
100
AcDbLine
 62
7
  6
CONTINUOUS
 10
-14.2255070433
 20
-9.6123250347
 11
-13.9888043791
 21
-9.6003068269
  0
LINE
  5
3DB
100
AcDbEntity
  8
RACCORDO
100
AcDbLine
 62
250
  6
CONTINUOUS
 10
-14.3039950563
 20
-9.540589829
 11
-14.0594628289
 21
-9.5287513383
  0
LWPOLYLINE
  5
3DC
100
AcDbEntity
  8
ASSI
100
AcDbPolyline
 62
250
  6
CONTINUOUS
 90
5
 70
0
 10
-14.3039950563
 20
-9.540589829
 10
-14.0594628289
 20
-9.5287513383
 10
-13.8104565518
 20
-9.545200301
 10
-13.5659007858
 20
-9.5846344964
 10
-13.328779857
 20
-9.6452902669
  0
LINE
  5
3DD
100
AcDbEntity
  8
268
100
AcDbLine
 62
7
  6
CONTINUOUS
 10
-6.1263123957
 20
22.4724300604
 11
-6.1263123957
 21
21.2576965602
  0
LINE
  5
3DE
100
AcDbEntity
  8
268
100
AcDbLine
 62
250
  6
CONTINUOUS
 10
-6.03844443
 20
22.3659213303
 11
-6.03844443
 21
21.1509664642
  0
LINE
  5
3DF
100
AcDbEntity
  8
268
100
AcDbLine
 62
7
  6
CONTINUOUS
 10
-5.8645510036
 20
19.6645071069
 11
-5.8645510036
 21
19.6060279456
  0
LINE
  5
3E0
100
AcDbEntity
  8
RACCORDO
100
AcDbLine
 62
7
  6
CONTINUOUS
 10
-8.1512557915
 20
-19.3662473037
 11
-8.1388901108
 21
-19.2271402244
  0
LINE
  5
3E1
100
AcDbEntity
  8
ASSI
100
AcDbLine
 62
7
  6
CONTINUOUS
 10
-7.9943938647
 20
-19.2632600897
 11
-7.9866590628
 21
-19.17624784
  0
LWPOLYLINE
  5
3E2
100
AcDbEntity
  8
715
100
AcDbPolyline
 62
250
  6
CONTINUOUS
 90
13
 70
0
 10
3.8794373698
 20
24.1376020468
 10
3.8807115741
 20
24.1406945484
 10
3.9141184744
 20
24.2047687369
 10
3.9541301297
 20
24.2679029546
 10
4.0006279033
 20
24.3299086305
 10
4.0534905544
 20
24.3906257285
 10
4.1125694249
 20
24.4498849458
 10
4.1776622043
 20
24.507492879
 10
4.2485380362
 20
24.5632663466
 10
4.3250311739
 20
24.6170942821
 10
4.4070225777
 20
24.6688954658
 10
4.4942711747
 20
24.7185131051
 10
4.5147683361
 20
24.7294494734
  0
LINE
  5
3E3
100
AcDbEntity
  8
RACCORDO
100
AcDbLine
 62
7
  6
CONTINUOUS
 10
-15.5403817949
 20
-10.5512974602
 11
-15.6589872413
 21
-10.7139411364
  0
LINE
  5
3E4
100
AcDbEntity
  8
RACCORDO
100
AcDbLine
 62
250
  6
CONTINUOUS
 10
-15.5252343421
 20
-10.6328485145
 11
-15.6400143731
 21
-10.788808571
  0
LWPOLYLINE
  5
3E5
100
AcDbEntity
  8
ASSI
100
AcDbPolyline
 62
250
  6
CONTINUOUS
 90
3
 70
0
 10
-15.5252343421
 20
-10.6328485145
 10
-15.6400143731
 20
-10.788808571
 10
-15.7447051413
 20
-10.9588336241
  0
LINE
  5
3E6
100
AcDbEntity
  8
ASSI
100
AcDbLine
 62
7
  6
CONTINUOUS
 10
-15.4471505663
 20
-10.4416537338
 11
-15.6939791445
 21
-10.7678725439
  0
LINE
  5
3E7
100
AcDbEntity
  8
ASSI
100
AcDbLine
 62
7
  6
CONTINUOUS
 10
-15.5099711434
 20
-10.5246506615
 11
-15.6935416367
 21
-10.7671792671
  0
LINE
  5
3E8
100
AcDbEntity
  8
RACCORDO
100
AcDbLine
 62
250
  6
CONTINUOUS
 10
-15.7449041676
 20
-10.4082327932
 11
-15.582197697
 21
-10.2054582366
  0
LINE
  5
3E9
100
AcDbEntity
  8
RACCORDO
100
AcDbLine
 62
250
  6
CONTINUOUS
 10
-15.6203604082
 20
-10.4575914782
 11
-15.460793901
 21
-10.2593991811
  0
LINE
  5
3EA
100
AcDbEntity
  8
268
100
AcDbLine
 62
7
  6
CONTINUOUS
 10
5.6753676008
 20
17.6907763777
 11
5.1481228851
 21
17.0490686496
  0
LINE
  5
3EB
100
AcDbEntity
  8
RACCORDO
100
AcDbLine
 62
7
  6
CONTINUOUS
 10
-15.4111406511
 20
-10.4029320134
 11
-15.5403817949
 21
-10.5512974602
  0
LINE
  5
3EC
100
AcDbEntity
  8
ASSI
100
AcDbLine
 62
250
  6
CONTINUOUS
 10
-15.4002496226
 20
-10.4911380436
 11
-15.5252343421
 21
-10.6328485145
  0
LINE
  5
3ED
100
AcDbEntity
  8
RACCORDO
100
AcDbLine
 62
250
  6
CONTINUOUS
 10
-15.4002496226
 20
-10.4911380436
 11
-15.5252343421
 21
-10.6328485145
  0
LWPOLYLINE
  5
3EE
100
AcDbEntity
  8
218_STAMPATO
100
AcDbPolyline
 62
250
  6
CONTINUOUS
 90
56
 70
0
 10
20.8759871793
 20
14.3669473539
 10
20.8830917647
 20
14.3694982057
 10
20.8902705207
 20
14.3718180542
 10
20.8975224487
 20
14.3739082975
 10
20.9048442841
 20
14.3757862952
 10
20.9122369376
 20
14.3774378474
 10
20.9197052059
 20
14.3788175636
 10
20.9272592274
 20
14.3799300096
 10
20.9348849385
 20
14.3807755898
 10
20.9425500372
 20
14.3813035864
 10
20.9502542912
 20
14.3815135549
 10
20.9579922305
 20
14.3814128477
 10
20.9657229254
 20
14.3809632605
 10
20.9734348505
 20
14.3801664971
 10
20.981132067
 20
14.379029654
 10
20.9887961803
 20
14.3775235252
 10
20.9964143075
 20
14.3756571166
 10
21.0039897505
 20
14.3734326385
 10
21.0115269832
 20
14.3708123213
 10
21.0190205321
 20
14.367808866
 10
21.0264629917
 20
14.3644247692
 10
21.0338536509
 20
14.3606096642
 10
21.0411897007
 20
14.3563763794
 10
21.0484564926
 20
14.3517329764
 10
21.0556326132
 20
14.3466254518
 10
21.0627116747
 20
14.3410686064
 10
21.0696771988
 20
14.3350755178
 10
21.0764893282
 20
14.3285936085
 10
21.0831365834
 20
14.3216439056
 10
21.0896015493
 20
14.3142415081
 10
21.0958315969
 20
14.3063297664
 10
21.1018097013
 20
14.2979451159
 10
21.1075169747
 20
14.2890974927
 10
21.1128919988
 20
14.2796981883
 10
21.1179188443
 20
14.269800021
 10
21.1225663459
 20
14.2594132816
 10
21.1267396091
 20
14.2483994342
 10
21.1304281627
 20
14.2367790364
 10
21.133575134
 20
14.2246253864
 10
21.1360073888
 20
14.2118909274
 10
21.1376850852
 20
14.198541624
 10
21.1385694981
 20
14.1847273237
 10
21.1385034458
 20
14.1706572694
 10
21.1374381251
 20
14.1563688182
 10
21.1353782584
 20
14.1418994883
 10
21.1322768024
 20
14.1274169705
 10
21.1280876875
 20
14.1128967978
 10
21.1228375991
 20
14.0984071313
 10
21.1166221142
 20
14.0842049635
 10
21.1094708511
 20
14.0703391624
 10
21.1013798444
 20
14.056736257
 10
21.0924159404
 20
14.0434361524
 10
21.0825889501
 20
14.0304237781
 10
21.0719132506
 20
14.017689326
 10
21.060466554
 20
14.005273733
 10
21.0482712262
 20
13.9931690645
  0
LINE
  5
3EF
100
AcDbEntity
  8
RACCORDO
100
AcDbLine
 62
7
  6
CONTINUOUS
 10
-14.6052571984
 20
-9.6939566313
 11
-14.4543254538
 21
-9.6516599468
  0
LINE
  5
3F0
100
AcDbEntity
  8
ASSI
100
AcDbLine
 62
250
  6
CONTINUOUS
 10
-14.4305588298
 20
-9.8417420384
 11
-14.6075475995
 21
-9.8896289007
  0
LINE
  5
3F1
100
AcDbEntity
  8
ASSI
100
AcDbLine
 62
7
  6
CONTINUOUS
 10
-14.6113489172
 20
-9.6959561557
 11
-14.4138270759
 21
-9.6425932795
  0
LINE
  5
3F2
100
AcDbEntity
  8
RACCORDO
100
AcDbLine
 62
250
  6
CONTINUOUS
 10
-14.4713480274
 20
-9.9651961398
 11
-14.6439331956
 21
-10.0117813975
  0
LINE
  5
3F3
100
AcDbEntity
  8
ASSI
100
AcDbLine
 62
250
  6
CONTINUOUS
 10
-14.4713480274
 20
-9.9651961398
 11
-14.6439331956
 21
-10.0117813975
  0
LWPOLYLINE
  5
3F4
100
AcDbEntity
  8
ASSI
100
AcDbPolyline
 62
7
  6
CONTINUOUS
 90
3
 70
0
 10
-13.9489498895
 20
-9.6439023726
 10
-13.8387987301
 20
-9.6180393
 10
-13.8027204538
 20
-9.6117673823
  0
LINE
  5
3F5
100
AcDbEntity
  8
RACCORDO
100
AcDbLine
 62
250
  6
CONTINUOUS
 10
-14.5438479921
 20
-9.5828476964
 11
-14.3039950563
 21
-9.540589829
  0
LINE
  5
3F6
100
AcDbEntity
  8
ASSI
100
AcDbLine
 62
250
  6
CONTINUOUS
 10
-14.5438479921
 20
-9.5828476964
 11
-14.3039950563
 21
-9.540589829
  0
LWPOLYLINE
  5
3F7
100
AcDbEntity
  8
RACCORDO
100
AcDbPolyline
 62
250
  6
CONTINUOUS
 90
21
 70
0
 10
-4.8643092677
 20
-24.5150573132
 10
-4.86536478
 20
-24.5626451849
 10
-4.864969276
 20
-24.6115120428
 10
-4.8629410369
 20
-24.6614950499
 10
-4.8590828582
 20
-24.7125402077
 10
-4.853206478
 20
-24.7643086505
 10
-4.8451804642
 20
-24.816206449
 10
-4.8348539907
 20
-24.8680219966
 10
-4.8220811548
 20
-24.9195178683
 10
-4.8068293974
 20
-24.9701019212
 10
-4.7890025068
 20
-25.0195621419
 10
-4.7685192306
 20
-25.0676552296
 10
-4.7454758779
 20
-25.113816879
 10
-4.7198480064
 20
-25.1578634166
 10
-4.6916306477
 20
-25.1995914592
 10
-4.6610645347
 20
-25.2385217436
 10
-4.6282050852
 20
-25.2745331452
 10
-4.5931198005
 20
-25.3075052955
 10
-4.5561779246
 20
-25.3371084433
 10
-4.5175057333
 20
-25.3633135541
 10
-4.4742698336
 20
-25.3876141533
  0
LWPOLYLINE
  5
3F8
100
AcDbEntity
  8
ASSI
100
AcDbPolyline
 62
250
  6
CONTINUOUS
 90
21
 70
0
 10
-4.8643092677
 20
-24.5150573132
 10
-4.86536478
 20
-24.5626451849
 10
-4.864969276
 20
-24.6115120428
 10
-4.8629410369
 20
-24.6614950499
 10
-4.8590828582
 20
-24.7125402077
 10
-4.853206478
 20
-24.7643086505
 10
-4.8451804642
 20
-24.816206449
 10
-4.8348539907
 20
-24.8680219966
 10
-4.8220811548
 20
-24.9195178683
 10
-4.8068293974
 20
-24.9701019212
 10
-4.7890025068
 20
-25.0195621419
 10
-4.7685192306
 20
-25.0676552296
 10
-4.7454758779
 20
-25.113816879
 10
-4.7198480064
 20
-25.1578634166
 10
-4.6916306477
 20
-25.1995914592
 10
-4.6610645347
 20
-25.2385217436
 10
-4.6282050852
 20
-25.2745331452
 10
-4.5931198005
 20
-25.3075052955
 10
-4.5561779246
 20
-25.3371084433
 10
-4.5175057333
 20
-25.3633135541
 10
-4.4773296934
 20
-25.3860530503
  0
LWPOLYLINE
  5
3F9
100
AcDbEntity
  8
RACCORDO
100
AcDbPolyline
 62
250
  6
CONTINUOUS
 90
34
 70
0
 10
-3.7434378448
 20
-24.5508637612
 10
-3.7440617473
 20
-24.5732191833
 10
-3.743827412
 20
-24.5960073733
 10
-3.742734839
 20
-24.6192283313
 10
-3.7408571042
 20
-24.6430387662
 10
-3.7381211316
 20
-24.6672819691
 10
-3.7343076937
 20
-24.6914878131
 10
-3.7293856611
 20
-24.7156611332
 10
-3.7233861633
 20
-24.7397970943
 10
-3.7161833611
 20
-24.7634110651
 10
-3.7077362456
 20
-24.7864940249
 10
-3.6980858259
 20
-24.8090549943
 10
-3.6872292894
 20
-24.830636403
 10
-3.6751206979
 20
-24.8512088376
 10
-3.6618059896
 20
-24.8708017115
 10
-3.6474201672
 20
-24.8890456952
 10
-3.6319216306
 20
-24.9058913665
 10
-3.6153519798
 20
-24.9213881475
 10
-3.5979710185
 20
-24.9353149755
 10
-3.5797507935
 20
-24.9476114089
 10
-3.5607192578
 20
-24.9583378893
 10
-3.5412200746
 20
-24.9674546791
 10
-3.5212428887
 20
-24.9749033914
 10
-3.5007980553
 20
-24.9807424131
 10
-3.4802603025
 20
-24.9851071664
 10
-3.4596336097
 20
-24.9879511028
 10
-3.4389139976
 20
-24.9893207708
 10
-3.4184642562
 20
-24.9894912373
 10
-3.3982952888
 20
-24.9884304939
 10
-3.378396192
 20
-24.9861705491
 10
-3.359097046
 20
-24.9830824951
 10
-3.3405078773
 20
-24.9792900295
 10
-3.3225186593
 20
-24.9746694548
 10
-3.3051293921
 20
-24.9692207709
  0
LWPOLYLINE
  5
3FA
100
AcDbEntity
  8
ASSI
100
AcDbPolyline
 62
250
  6
CONTINUOUS
 90
34
 70
0
 10
-3.7434378448
 20
-24.5508637612
 10
-3.7440617473
 20
-24.5732191833
 10
-3.743827412
 20
-24.5960073733
 10
-3.742734839
 20
-24.6192283313
 10
-3.7408571042
 20
-24.6430387662
 10
-3.7381211316
 20
-24.6672819691
 10
-3.7343076937
 20
-24.6914878131
 10
-3.7293856611
 20
-24.7156611332
 10
-3.7233861633
 20
-24.7397970943
 10
-3.7161833611
 20
-24.7634110651
 10
-3.7077362456
 20
-24.7864940249
 10
-3.6980858259
 20
-24.8090549943
 10
-3.6872292894
 20
-24.830636403
 10
-3.6751206979
 20
-24.8512088376
 10
-3.6618059896
 20
-24.8708017115
 10
-3.6474201672
 20
-24.8890456952
 10
-3.6319216306
 20
-24.9058913665
 10
-3.6153519798
 20
-24.9213881475
 10
-3.5979710185
 20
-24.9353149755
 10
-3.5797507935
 20
-24.9476114089
 10
-3.5607192578
 20
-24.9583378893
 10
-3.5412200746
 20
-24.9674546791
 10
-3.5212428887
 20
-24.9749033914
 10
-3.5007980553
 20
-24.9807424131
 10
-3.4802603025
 20
-24.9851071664
 10
-3.4596336097
 20
-24.9879511028
 10
-3.4389139976
 20
-24.9893207708
 10
-3.4184642562
 20
-24.9894912373
 10
-3.3982952888
 20
-24.9884304939
 10
-3.378396192
 20
-24.9861705491
 10
-3.359097046
 20
-24.9830824951
 10
-3.3405078773
 20
-24.9792900295
 10
-3.3225186593
 20
-24.9746694548
 10
-3.3051293921
 20
-24.9692207709
  0
LWPOLYLINE
  5
3FB
100
AcDbEntity
  8
RACCORDO
100
AcDbPolyline
 62
250
  6
CONTINUOUS
 90
4
 70
0
 10
-4.2198234793
 20
-12.5700579306
 10
-4.482695841
 20
-16.5708023138
 10
-4.6975406054
 20
-20.5527648976
 10
-4.8643092677
 20
-24.5150573132
  0
LWPOLYLINE
  5
3FC
100
AcDbEntity
  8
ASSI
100
AcDbPolyline
 62
250
  6
CONTINUOUS
 90
4
 70
0
 10
-4.2198234793
 20
-12.5700579306
 10
-4.482695841
 20
-16.5708023138
 10
-4.6975406054
 20
-20.5527648976
 10
-4.8643092677
 20
-24.5150573132
  0
LWPOLYLINE
  5
3FD
100
AcDbEntity
  8
RACCORDO
100
AcDbPolyline
 62
250
  6
CONTINUOUS
 90
4
 70
0
 10
-3.1006965352
 20
-12.6377916992
 10
-3.3627811525
 20
-16.626675027
 10
-3.5770282557
 20
-20.5976990477
 10
-3.7434378448
 20
-24.5508637612
  0
LWPOLYLINE
  5
3FE
100
AcDbEntity
  8
ASSI
100
AcDbPolyline
 62
250
  6
CONTINUOUS
 90
4
 70
0
 10
-3.1006965352
 20
-12.6377916992
 10
-3.3627811525
 20
-16.626675027
 10
-3.5770282557
 20
-20.5976990477
 10
-3.7434378448
 20
-24.5508637612
  0
LWPOLYLINE
  5
3FF
100
AcDbEntity
  8
RACCORDO
100
AcDbPolyline
 62
250
  6
CONTINUOUS
 90
3
 70
0
 10
-3.5502426665
 20
-4.5157987251
 10
-3.9089825703
 20
-8.551424533
 10
-4.2198234793
 20
-12.5700579306
  0
LWPOLYLINE
  5
400
100
AcDbEntity
  8
ASSI
100
AcDbPolyline
 62
250
  6
CONTINUOUS
 90
3
 70
0
 10
-3.5502426665
 20
-4.5157987251
 10
-3.9089825703
 20
-8.551424533
 10
-4.2198234793
 20
-12.5700579306
  0
LWPOLYLINE
  5
401
100
AcDbEntity
  8
RACCORDO
100
AcDbPolyline
 62
250
  6
CONTINUOUS
 90
5
 70
0
 10
-1.6380509936
 20
11.7785666562
 10
-2.187481719
 20
7.6840114524
 10
-2.689396469
 20
3.602825306
 10
-3.1436837914
 20
-0.4640807242
 10
-3.5502426665
 20
-4.5157987251
  0
LWPOLYLINE
  5
402
100
AcDbEntity
  8
ASSI
100
AcDbPolyline
 62
250
  6
CONTINUOUS
 90
5
 70
0
 10
-1.6380509936
 20
11.7785666562
 10
-2.187481719
 20
7.6840114524
 10
-2.689396469
 20
3.602825306
 10
-3.1436837914
 20
-0.4640807242
 10
-3.5502426665
 20
-4.5157987251
  0
LWPOLYLINE
  5
403
100
AcDbEntity
  8
ASSI
100
AcDbPolyline
 62
250
  6
CONTINUOUS
 90
13
 70
0
 10
-7.3593693558
 20
-17.5940929405
 10
-7.3149324487
 20
-17.3698537467
 10
-7.282559994
 20
-17.1362413724
 10
-7.2626605082
 20
-16.8962492403
 10
-7.2553976581
 20
-16.6497983906
 10
-7.260607879
 20
-16.3969682207
 10
-7.2782223328
 20
-16.1409952757
 10
-7.3084096445
 20
-15.8818445886
 10
-7.3510145842
 20
-15.6195570003
 10
-7.4054953496
 20
-15.3574880107
 10
-7.4720174317
 20
-15.0956507838
 10
-7.5504399644
 20
-14.8340425011
 10
-7.6397725738
 20
-14.5759991195
  0
LWPOLYLINE
  5
404
100
AcDbEntity
  8
ASSI
100
AcDbPolyline
 62
250
  6
CONTINUOUS
 90
13
 70
0
 10
-7.2222547357
 20
-17.6172672195
 10
-7.1764032977
 20
-17.387401786
 10
-7.1431825763
 20
-17.1489175417
 10
-7.1226510849
 20
-16.9028177843
 10
-7.1149228397
 20
-16.6501695425
 10
-7.1200741242
 20
-16.392071016
 10
-7.138021276
 20
-16.1296139749
 10
-7.1687091686
 20
-15.8639330528
 10
-7.212046519
 20
-15.5961815347
 10
-7.2678107895
 20
-15.3274985239
 10
-7.3357807333
 20
-15.0590455531
 10
-7.4157009568
 20
-14.7919828179
 10
-7.5072177863
 20
-14.5274444922
  0
LINE
  5
405
100
AcDbEntity
  8
ASSI
100
AcDbLine
 62
250
  6
CONTINUOUS
 10
-7.4160368624
 20
-17.8088425076
 11
-7.3593693558
 21
-17.5940929405
  0
LWPOLYLINE
  5
406
100
AcDbEntity
  8
RACCORDO
100
AcDbPolyline
 62
250
  6
CONTINUOUS
 90
29
 70
0
 10
-7.2804962241
 20
-17.8375136093
 10
-7.2222547357
 20
-17.6172672196
 10
-7.1764032977
 20
-17.3874017861
 10
-7.1431825763
 20
-17.1489175418
 10
-7.1226510849
 20
-16.9028177844
 10
-7.1149228397
 20
-16.6501695427
 10
-7.1200741242
 20
-16.3920710161
 10
-7.138021276
 20
-16.1296139751
 10
-7.1687091686
 20
-15.863933053
 10
-7.212046519
 20
-15.5961815349
 10
-7.2678107894
 20
-15.3274985241
 10
-7.3357807332
 20
-15.0590455533
 10
-7.4157009568
 20
-14.791982818
 10
-7.5072177863
 20
-14.5274444923
 10
-7.609958971
 20
-14.2665624809
 10
-7.7235120593
 20
-14.010472215
 10
-7.8473876837
 20
-13.7602875128
 10
-7.9810542723
 20
-13.5171072748
 10
-8.1239723512
 20
-13.2819536403
 10
-8.2755804262
 20
-13.0557841262
 10
-8.4352560841
 20
-12.8395638383
 10
-8.6023264757
 20
-12.6342429544
 10
-8.7761076339
 20
-12.4407013621
 10
-8.9559731842
 20
-12.2596798284
 10
-9.141067105
 20
-12.0920828415
 10
-9.3302944648
 20
-11.9388879275
 10
-9.5227259641
 20
-11.8007635076
 10
-9.7176303438
 20
-11.6781444487
 10
-9.9141691231
 20
-11.5714851944
  0
LINE
  5
407
100
AcDbEntity
  8
ASSI
100
AcDbLine
 62
250
  6
CONTINUOUS
 10
-7.2804962241
 20
-17.8375136092
 11
-7.2222547357
 21
-17.6172672195
  0
LWPOLYLINE
  5
408
100
AcDbEntity
  8
715
100
AcDbPolyline
 62
250
  6
CONTINUOUS
 90
51
 70
0
 10
3.9795912447
 20
24.1014945167
 10
3.9814919779
 20
24.1076237423
 10
4.0066535945
 20
24.168208591
 10
4.0380232517
 20
24.228086872
 10
4.0755463272
 20
24.2872549538
 10
4.118919859
 20
24.3452329726
 10
4.1682030774
 20
24.40201365
 10
4.223336752
 20
24.4576042643
 10
4.2838402303
 20
24.5115467866
 10
4.3497125819
 20
24.5637996861
 10
4.4209547373
 20
24.6144044936
 10
4.4970888349
 20
24.6630277721
 10
4.5781054639
 20
24.7096555146
 10
4.6640140353
 20
24.7543017282
 10
4.754364921
 20
24.7966749973
 10
4.8494152012
 20
24.8368341953
 10
4.9489077957
 20
24.8747204488
 10
5.0516218361
 20
24.909865722
 10
5.1579627048
 20
24.9422434419
 10
5.2675250194
 20
24.9718801814
 10
5.3778717638
 20
24.9983876236
 10
5.4889762808
 20
25.021587017
 10
5.6008652275
 20
25.0416571131
 10
5.7111815596
 20
25.0587458489
 10
5.8195720495
 20
25.0727197447
 10
5.9263899248
 20
25.0837122803
 10
6.0303378239
 20
25.0922718315
 10
6.1311736583
 20
25.0983744011
 10
6.2291395166
 20
25.1020439863
 10
6.3236643029
 20
25.1039009551
 10
6.414586043
 20
25.103966824
 10
6.5020667112
 20
25.1022200764
 10
6.5860211346
 20
25.0992165311
 10
6.666325208
 20
25.0949977304
 10
6.7431030365
 20
25.0895221319
 10
6.816641763
 20
25.0832209263
 10
6.8869082967
 20
25.0761348925
 10
6.9539357282
 20
25.0682232516
 10
7.0181104724
 20
25.0597948575
 10
7.0794182192
 20
25.0508842169
 10
7.1378732786
 20
25.0414568231
 10
7.1939049951
 20
25.0317180093
 10
7.2475095787
 20
25.0216964876
 10
7.2986908193
 20
25.0113635458
 10
7.3478894316
 20
25.0008383811
 10
7.3951085766
 20
24.990143842
 10
7.4403450931
 20
24.9792570798
 10
7.484030213
 20
24.9682287462
 10
7.5263076801
 20
24.9570757249
 10
7.5670337505
 20
24.9457811321
 10
7.6062084242
 20
24.9343449677
  0
LINE
  5
409
100
AcDbEntity
  8
SMUSSO
100
AcDbLine
 62
7
  6
CONTINUOUS
 10
-14.9862655246
 20
-10.010126104
 11
-15.1425058727
 21
-10.1678955617
  0
LINE
  5
40A
100
AcDbEntity
  8
ASSI
100
AcDbLine
 62
7
  6
CONTINUOUS
 10
-14.9862655246
 20
-10.010126104
 11
-15.138100024
 21
-10.1634465934
  0
LINE
  5
40B
100
AcDbEntity
  8
RACCORDO
100
AcDbLine
 62
250
  6
CONTINUOUS
 10
-15.460793901
 20
-10.2593991811
 11
-15.2859677025
 21
-10.0860466209
  0
LINE
  5
40C
100
AcDbEntity
  8
ASSI
100
AcDbLine
 62
250
  6
CONTINUOUS
 10
-15.460793901
 20
-10.2593991811
 11
-15.2859677025
 21
-10.0860466209
  0
LINE
  5
40D
100
AcDbEntity
  8
RACCORDO
100
AcDbLine
 62
250
  6
CONTINUOUS
 10
-15.582197697
 20
-10.2054582366
 11
-15.4036471407
 21
-10.0284492042
  0
LINE
  5
40E
100
AcDbEntity
  8
ASSI
100
AcDbLine
 62
250
  6
CONTINUOUS
 10
-15.582197697
 20
-10.2054582366
 11
-15.4036471407
 21
-10.0284492042
  0
LINE
  5
40F
100
AcDbEntity
  8
RACCORDO
100
AcDbLine
 62
7
  6
CONTINUOUS
 10
-15.2718511127
 20
-10.2695004367
 11
-15.4111406511
 21
-10.4029320134
  0
LINE
  5
410
100
AcDbEntity
  8
RACCORDO
100
AcDbLine
 62
250
  6
CONTINUOUS
 10
-15.2652076912
 20
-10.3635057612
 11
-15.4002496226
 21
-10.4911380436
  0
LINE
  5
411
100
AcDbEntity
  8
ASSI
100
AcDbLine
 62
250
  6
CONTINUOUS
 10
-15.2652076912
 20
-10.3635057612
 11
-15.4002496226
 21
-10.4911380436
  0
LINE
  5
412
100
AcDbEntity
  8
ASSI
100
AcDbLine
 62
7
  6
CONTINUOUS
 10
-15.158388346
 20
-10.1774830717
 11
-15.447608443
 21
-10.4421583569
  0
LINE
  5
413
100
AcDbEntity
  8
268
100
AcDbLine
 62
7
  6
CONTINUOUS
 10
2.4347352569
 20
-4.4569337221
 11
2.7621517269
 21
-4.6206419571
  0
LINE
  5
414
100
AcDbEntity
  8
268
100
AcDbLine
 62
7
  6
CONTINUOUS
 10
-0.9148035353
 20
17.1896333728
 11
-0.9148035353
 21
17.1311542115
  0
LINE
  5
415
100
AcDbEntity
  8
268
100
AcDbLine
 62
250
  6
CONTINUOUS
 10
-0.245935362
 20
18.2547119302
 11
-0.245935362
 21
19.4696667963
  0
LINE
  5
416
100
AcDbEntity
  8
268
100
AcDbLine
 62
7
  6
CONTINUOUS
 10
0.1105012975
 20
22.4312761885
 11
0.1105012975
 21
23.757956624
  0
LINE
  5
417
100
AcDbEntity
  8
268
100
AcDbLine
 62
250
  6
CONTINUOUS
 10
0.1770909896
 20
18.2563507778
 11
0.1770909896
 21
19.4705542506
  0
LWPOLYLINE
  5
418
100
AcDbEntity
  8
RACCORDO
100
AcDbPolyline
 62
250
  6
CONTINUOUS
 90
13
 70
0
 10
0.0170459867
 20
12.4034176584
 10
0.0193464506
 20
12.4994130131
 10
0.0121015314
 20
12.5986638814
 10
-0.0045648579
 20
12.6994727118
 10
-0.0303676628
 20
12.8001153063
 10
-0.0648655627
 20
12.8988703088
 10
-0.1074685185
 20
12.9940486477
 10
-0.1574478654
 20
13.0840224253
 10
-0.2139487749
 20
13.1672527603
 10
-0.2760048751
 20
13.2423161078
 10
-0.34255478
 20
13.3079286091
 10
-0.4124602435
 20
13.3629680496
 10
-0.4845256268
 20
13.4064930524
  0
LWPOLYLINE
  5
419
100
AcDbEntity
  8
ASSI
100
AcDbPolyline
 62
250
  6
CONTINUOUS
 90
13
 70
0
 10
0.0170459867
 20
12.4034176584
 10
0.0193464506
 20
12.4994130131
 10
0.0121015314
 20
12.5986638814
 10
-0.0045648579
 20
12.6994727118
 10
-0.0303676628
 20
12.8001153063
 10
-0.0648655627
 20
12.8988703088
 10
-0.1074685185
 20
12.9940486477
 10
-0.1574478654
 20
13.0840224253
 10
-0.2139487749
 20
13.1672527603
 10
-0.2760048751
 20
13.2423161078
 10
-0.34255478
 20
13.3079286091
 10
-0.4124602435
 20
13.3629680496
 10
-0.4845256268
 20
13.4064930524
  0
LWPOLYLINE
  5
41A
100
AcDbEntity
  8
RACCORDO
100
AcDbPolyline
 62
250
  6
CONTINUOUS
 90
3
 70
0
 10
-2.432853137
 20
-4.6046266403
 10
-2.7906935931
 20
-8.6301388233
 10
-3.1006965352
 20
-12.6377916992
  0
LWPOLYLINE
  5
41B
100
AcDbEntity
  8
ASSI
100
AcDbPolyline
 62
250
  6
CONTINUOUS
 90
3
 70
0
 10
-2.432853137
 20
-4.6046266403
 10
-2.7906935931
 20
-8.6301388233
 10
-3.1006965352
 20
-12.6377916992
  0
LWPOLYLINE
  5
41C
100
AcDbEntity
  8
RACCORDO
100
AcDbPolyline
 62
250
  6
CONTINUOUS
 90
4
 70
0
 10
-1.0739228989
 20
7.5608609321
 10
-1.5744677899
 20
3.4908732374
 10
-2.027417599
 20
-0.563985873
 10
-2.432853137
 20
-4.6046266403
  0
LWPOLYLINE
  5
41D
100
AcDbEntity
  8
ASSI
100
AcDbPolyline
 62
250
  6
CONTINUOUS
 90
4
 70
0
 10
-1.0739228989
 20
7.5608609321
 10
-1.5744677899
 20
3.4908732374
 10
-2.027417599
 20
-0.563985873
 10
-2.432853137
 20
-4.6046266403
  0
LINE
  5
41E
100
AcDbEntity
  8
RACCORDO
100
AcDbLine
 62
250
  6
CONTINUOUS
 10
-0.5257829262
 20
11.645977211
 11
-1.0739228989
 21
7.5608609321
  0
LINE
  5
41F
100
AcDbEntity
  8
ASSI
100
AcDbLine
 62
250
  6
CONTINUOUS
 10
-0.5257829262
 20
11.645977211
 11
-1.0739228989
 21
7.5608609321
  0
LINE
  5
420
100
AcDbEntity
  8
RACCORDO
100
AcDbLine
 62
250
  6
CONTINUOUS
 10
-7.0531360003
 20
-17.8560381121
 11
-7.1383468505
 21
-18.1401539888
  0
LINE
  5
421
100
AcDbEntity
  8
ASSI
100
AcDbLine
 62
250
  6
CONTINUOUS
 10
-7.0531360003
 20
-17.8560381121
 11
-7.1383468505
 21
-18.1401539888
  0
LINE
  5
422
100
AcDbEntity
  8
ASSI
100
AcDbLine
 62
7
  6
CONTINUOUS
 10
-7.0657495218
 20
-17.7466097892
 11
-7.1910223742
 21
-18.1575670624
  0
LINE
  5
423
100
AcDbEntity
  8
RACCORDO
100
AcDbLine
 62
7
  6
CONTINUOUS
 10
-7.0834059305
 20
-17.8168619307
 11
-7.1748675066
 21
-18.1134924924
  0
LINE
  5
424
100
AcDbEntity
  8
ASSI
100
AcDbLine
 62
250
  6
CONTINUOUS
 10
-7.4847820636
 20
-18.0142240479
 11
-7.4160368624
 21
-17.8088425076
  0
LINE
  5
425
100
AcDbEntity
  8
RACCORDO
100
AcDbLine
 62
250
  6
CONTINUOUS
 10
-7.350847036
 20
-18.0471842034
 11
-7.2804962241
 21
-17.8375136093
  0
LINE
  5
426
100
AcDbEntity
  8
ASSI
100
AcDbLine
 62
250
  6
CONTINUOUS
 10
-7.3508470359
 20
-18.0471842033
 11
-7.2804962241
 21
-17.8375136092
  0
LINE
  5
427
100
AcDbEntity
  8
ASSI
100
AcDbLine
 62
250
  6
CONTINUOUS
 10
-7.1383468505
 20
-18.1401539888
 11
-7.2427175225
 21
-18.4048192327
  0
LINE
  5
428
100
AcDbEntity
  8
RACCORDO
100
AcDbLine
 62
250
  6
CONTINUOUS
 10
-7.1383468505
 20
-18.1401539888
 11
-7.2427175225
 21
-18.4048192327
  0
LINE
  5
429
100
AcDbEntity
  8
RACCORDO
100
AcDbLine
 62
7
  6
CONTINUOUS
 10
-7.1748675066
 20
-18.1134924924
 11
-7.2884565758
 21
-18.3887711572
  0
LINE
  5
42A
100
AcDbEntity
  8
ASSI
100
AcDbLine
 62
250
  6
CONTINUOUS
 10
-7.5647307518
 20
-18.2076066068
 11
-7.4847820636
 21
-18.0142240479
  0
LINE
  5
42B
100
AcDbEntity
  8
RACCORDO
100
AcDbLine
 62
250
  6
CONTINUOUS
 10
-7.433105094
 20
-18.2454043132
 11
-7.350847036
 21
-18.0471842034
  0
LINE
  5
42C
100
AcDbEntity
  8
ASSI
100
AcDbLine
 62
250
  6
CONTINUOUS
 10
-7.4331050939
 20
-18.245404313
 11
-7.3508470359
 21
-18.0471842033
  0
LINE
  5
42D
100
AcDbEntity
  8
SMUSSO
100
AcDbLine
 62
7
  6
CONTINUOUS
 10
-14.8083339501
 20
-9.8642970711
 11
-14.9862655246
 21
-10.010126104
  0
LINE
  5
42E
100
AcDbEntity
  8
ASSI
100
AcDbLine
 62
7
  6
CONTINUOUS
 10
-14.8083339501
 20
-9.8642970711
 11
-14.9862655246
 21
-10.010126104
  0
LINE
  5
42F
100
AcDbEntity
  8
RACCORDO
100
AcDbLine
 62
7
  6
CONTINUOUS
 10
-15.1231207943
 20
-10.1515692704
 11
-15.2718511127
 21
-10.2695004367
  0
LINE
  5
430
100
AcDbEntity
  8
RACCORDO
100
AcDbLine
 62
250
  6
CONTINUOUS
 10
-15.4036471407
 20
-10.0284492042
 11
-15.2090981768
 21
-9.8761826785
  0
LINE
  5
431
100
AcDbEntity
  8
ASSI
100
AcDbLine
 62
250
  6
CONTINUOUS
 10
-15.4036471407
 20
-10.0284492042
 11
-15.2090981768
 21
-9.8761826785
  0
LINE
  5
432
100
AcDbEntity
  8
RACCORDO
100
AcDbLine
 62
250
  6
CONTINUOUS
 10
-15.2859677025
 20
-10.0860466209
 11
-15.0967302374
 21
-9.9378938414
  0
LINE
  5
433
100
AcDbEntity
  8
ASSI
100
AcDbLine
 62
250
  6
CONTINUOUS
 10
-15.2859677025
 20
-10.0860466209
 11
-15.0967302374
 21
-9.9378938414
  0
LINE
  5
434
100
AcDbEntity
  8
RACCORDO
100
AcDbLine
 62
250
  6
CONTINUOUS
 10
-15.1218634818
 20
-10.251584172
 11
-15.2652076912
 21
-10.3635057612
  0
LINE
  5
435
100
AcDbEntity
  8
ASSI
100
AcDbLine
 62
250
  6
CONTINUOUS
 10
-15.1218634818
 20
-10.251584172
 11
-15.2652076912
 21
-10.3635057612
  0
LINE
  5
436
100
AcDbEntity
  8
SMUSSO
100
AcDbLine
 62
7
  6
CONTINUOUS
 10
-14.618725621
 20
-9.7404871169
 11
-14.8083339501
 21
-9.8642970711
  0
LINE
  5
437
100
AcDbEntity
  8
ASSI
100
AcDbLine
 62
7
  6
CONTINUOUS
 10
-14.618725621
 20
-9.7404871169
 11
-14.8083339501
 21
-9.8642970711
  0
LINE
  5
438
100
AcDbEntity
  8
218_STAMPATO
100
AcDbLine
 62
7
  6
CONTINUOUS
 10
21.0390976978
 20
13.9770791273
 11
21.9542744844
 21
14.5690077461
  0
LINE
  5
439
100
AcDbEntity
  8
RACCORDO
100
AcDbLine
 62
7
  6
CONTINUOUS
 10
-14.9655818053
 20
-10.049712942
 11
-15.1231207943
 21
-10.1515692704
  0
LWPOLYLINE
  5
43A
100
AcDbEntity
  8
218_STAMPATO
100
AcDbPolyline
 62
7
  6
CONTINUOUS
 90
16
 70
0
 10
20.8759875683
 20
4.0352648423
 10
20.8670263532
 20
4.0334975948
 10
20.8582042459
 20
4.0321441957
 10
20.8495212465
 20
4.031204645
 10
20.8409668811
 20
4.0306804999
 10
20.8325516237
 20
4.0305702031
 10
20.8243068955
 20
4.0308690836
 10
20.8162365215
 20
4.0315839414
 10
20.8083366769
 20
4.0327079765
 10
20.8006273084
 20
4.0342161164
 10
20.7931140833
 20
4.0361140378
 10
20.7857913344
 20
4.0383960642
 10
20.7786620069
 20
4.0410200928
 10
20.7717270826
 20
4.0439720895
 10
20.7649855797
 20
4.0472660884
 10
20.7584374982
 20
4.0509020895
  0
LWPOLYLINE
  5
43B
100
AcDbEntity
  8
268
100
AcDbPolyline
 62
7
  6
CONTINUOUS
 90
13
 70
0
 10
10.9292832364
 20
-17.0503788394
 10
10.9263920714
 20
-17.0464856485
 10
10.9227033072
 20
-17.0421033083
 10
10.9182433433
 20
-17.0373460154
 10
10.913050485
 20
-17.0322061608
 10
10.9071678278
 20
-17.0266588021
 10
10.9006072936
 20
-17.0207912035
 10
10.8934003904
 20
-17.0145938955
 10
10.8855832448
 20
-17.0080487709
 10
10.8771593053
 20
-17.0012278948
 10
10.8681464139
 20
-16.99414587
 10
10.8585845686
 20
-16.9867622267
 10
10.8485048114
 20
-16.979065672
  0
LINE
  5
43C
100
AcDbEntity
  8
268
100
AcDbLine
 62
7
  6
CONTINUOUS
 10
1.7996285596
 20
-11.6015333469
 11
2.4889383245
 21
-18.0264374961
  0
LINE
  5
43D
100
AcDbEntity
  8
268
100
AcDbLine
 62
7
  6
CONTINUOUS
 10
2.1476010821
 20
-7.6870346266
 11
2.1887953159
 21
-8.0741410707
  0
LINE
  5
43E
100
AcDbEntity
  8
268
100
AcDbLine
 62
7
  6
CONTINUOUS
 10
2.7621517269
 20
-4.6206419571
 11
4.4945633408
 21
-21.0348028646
  0
LINE
  5
43F
100
AcDbEntity
  8
268
100
AcDbLine
 62
7
  6
CONTINUOUS
 10
0.4640546881
 20
23.0286217393
 11
0.4640546881
 21
23.5811799287
  0
LINE
  5
440
100
AcDbEntity
  8
268
100
AcDbLine
 62
250
  6
CONTINUOUS
 10
0.5347653662
 20
25.1973882262
 11
0.5347653662
 21
23.9655540448
  0
LINE
  5
441
100
AcDbEntity
  8
268
100
AcDbLine
 62
7
  6
CONTINUOUS
 10
0.6226333318
 20
25.3023854398
 11
0.6226333318
 21
24.070016834
  0
LINE
  5
442
100
AcDbEntity
  8
268
100
AcDbLine
 62
7
  6
CONTINUOUS
 10
0.6761867224
 20
19.7207509237
 11
0.6761867224
 21
18.5083153584
  0
LINE
  5
443
100
AcDbEntity
  8
268
100
AcDbLine
 62
7
  6
CONTINUOUS
 10
1.6764207834
 20
-24.0617111333
 11
1.6764207834
 21
-23.8083397395
  0
LINE
  5
444
100
AcDbEntity
  8
268
100
AcDbLine
 62
7
  6
CONTINUOUS
 10
1.6764207834
 20
17.4912643999
 11
1.6764207834
 21
17.7446357936
  0
LINE
  5
445
100
AcDbEntity
  8
268
100
AcDbLine
 62
7
  6
CONTINUOUS
 10
2.3794137376
 20
16.5847051452
 11
2.3794137376
 21
17.0370361209
  0
LWPOLYLINE
  5
446
100
AcDbEntity
  8
RACCORDO
100
AcDbPolyline
 62
250
  6
CONTINUOUS
 90
9
 70
0
 10
-3.3051293921
 20
-24.9692207709
 10
-3.3195402788
 20
-25.0612188516
 10
-3.3432107281
 20
-25.146746048
 10
-3.3757358889
 20
-25.2243395328
 10
-3.416559462
 20
-25.292672174
 10
-3.4649832154
 20
-25.350575234
 10
-3.5201789261
 20
-25.397058359
 10
-3.5812025457
 20
-25.4313265178
 10
-3.6141669675
 20
-25.4438802159
  0
LWPOLYLINE
  5
447
100
AcDbEntity
  8
ASSI
100
AcDbPolyline
 62
250
  6
CONTINUOUS
 90
9
 70
0
 10
-3.3051293921
 20
-24.9692207709
 10
-3.3195402788
 20
-25.0612188516
 10
-3.3432107281
 20
-25.146746048
 10
-3.3757358889
 20
-25.2243395328
 10
-3.416559462
 20
-25.292672174
 10
-3.4649832154
 20
-25.350575234
 10
-3.5201789261
 20
-25.397058359
 10
-3.5812025457
 20
-25.4313265178
 10
-3.6141669675
 20
-25.4438802159
  0
LWPOLYLINE
  5
448
100
AcDbEntity
  8
715
100
AcDbPolyline
 62
250
  6
CONTINUOUS
 90
13
 70
0
 10
11.3040585735
 20
20.4252914486
 10
11.3053327766
 20
20.4283839472
 10
11.3387396769
 20
20.4924581356
 10
11.3787513321
 20
20.5555923534
 10
11.4252491057
 20
20.6175980293
 10
11.4781117569
 20
20.6783151273
 10
11.5371906274
 20
20.7375743446
 10
11.6022834068
 20
20.7951822777
 10
11.6731592386
 20
20.8509557454
 10
11.7496523764
 20
20.9047836809
 10
11.8316437801
 20
20.9565848646
 10
11.9188923771
 20
21.0062025039
 10
11.9393895386
 20
21.0171388721
  0
LINE
  5
449
100
AcDbEntity
  8
ASSI
100
AcDbLine
 62
7
  6
CONTINUOUS
 10
-7.1910223742
 20
-18.1575670624
 11
-7.3582982714
 21
-18.526927276
  0
LWPOLYLINE
  5
44A
100
AcDbEntity
  8
RACCORDO
100
AcDbPolyline
 62
250
  6
CONTINUOUS
 90
32
 70
0
 10
-7.6560422866
 20
-18.3888388579
 10
-7.5647307512
 20
-18.2076066056
 10
-7.4847820631
 20
-18.0142240466
 10
-7.416036862
 20
-17.8088425062
 10
-7.3593693554
 20
-17.594092939
 10
-7.3149324484
 20
-17.3698537452
 10
-7.2825599938
 20
-17.1362413708
 10
-7.2626605081
 20
-16.8962492387
 10
-7.2553976581
 20
-16.649798389
 10
-7.2606078791
 20
-16.3969682191
 10
-7.2782223329
 20
-16.1409952741
 10
-7.3084096447
 20
-15.881844587
 10
-7.3510145845
 20
-15.6195569988
 10
-7.4054953499
 20
-15.3574880093
 10
-7.4720174321
 20
-15.0956507826
 10
-7.5504399648
 20
-14.8340425
 10
-7.6397725742
 20
-14.5759991185
 10
-7.740176094
 20
-14.3215681189
 10
-7.8515217453
 20
-14.0707152139
 10
-7.9723929879
 20
-13.8266570046
 10
-8.1029152445
 20
-13.5895092486
 10
-8.2429977695
 20
-13.3591702653
 10
-8.3909047942
 20
-13.1385324785
 10
-8.5467594504
 20
-12.927707836
 10
-8.7104705056
 20
-12.7265972109
 10
-8.8799825023
 20
-12.5377771294
 10
-9.0555056202
 20
-12.3613434142
 10
-9.2368541191
 20
-12.1972099971
 10
-9.421377883
 20
-12.0476802423
 10
-9.608198173
 20
-11.9135237785
 10
-9.7982069722
 20
-11.7939762411
 10
-9.9914075745
 20
-11.689038938
  0
LINE
  5
44B
100
AcDbEntity
  8
RACCORDO
100
AcDbLine
 62
250
  6
CONTINUOUS
 10
-7.5268736545
 20
-18.4313096287
 11
-7.433105094
 21
-18.2454043132
  0
LINE
  5
44C
100
AcDbEntity
  8
ASSI
100
AcDbLine
 62
250
  6
CONTINUOUS
 10
-7.5268736544
 20
-18.4313096285
 11
-7.4331050939
 21
-18.245404313
  0
LINE
  5
44D
100
AcDbEntity
  8
RACCORDO
100
AcDbLine
 62
250
  6
CONTINUOUS
 10
-7.2427175225
 20
-18.4048192327
 11
-7.3670016295
 21
-18.6504188315
  0
LINE
  5
44E
100
AcDbEntity
  8
ASSI
100
AcDbLine
 62
250
  6
CONTINUOUS
 10
-7.2427175225
 20
-18.4048192327
 11
-7.3670016295
 21
-18.6504188315
  0
LINE
  5
44F
100
AcDbEntity
  8
RACCORDO
100
AcDbLine
 62
7
  6
CONTINUOUS
 10
-7.2884565758
 20
-18.3887711572
 11
-7.4232913444
 21
-18.6402898544
  0
LWPOLYLINE
  5
450
100
AcDbEntity
  8
218_STAMPATO
100
AcDbPolyline
 62
7
  6
CONTINUOUS
 90
136
 70
0
 10
20.8759871793
 20
14.3669473539
 10
20.9353840551
 20
14.4156755216
 10
20.9929013001
 20
14.4631866026
 10
21.0485389142
 20
14.5094805968
 10
21.1022418122
 20
14.5545229494
 10
21.1540650793
 20
14.5983482153
 10
21.2041739715
 20
14.641060059
 10
21.2525757346
 20
14.6826634075
 10
21.2992631227
 20
14.7231533339
 10
21.3443796539
 20
14.7626187214
 10
21.387929534
 20
14.8010620944
 10
21.4299085571
 20
14.8384809286
 10
21.4704476236
 20
14.8749565343
 10
21.5095506543
 20
14.9104912886
 10
21.5472137283
 20
14.9450828143
 10
21.5835559838
 20
14.9788052903
 10
21.6185810806
 20
15.0116609755
 10
21.6522853588
 20
15.0436476108
 10
21.6847769766
 20
15.0748325978
 10
21.7160592783
 20
15.1052180313
 10
21.7461289196
 20
15.1348018164
 10
21.7750840259
 20
15.1636450698
 10
21.8029276758
 20
15.1917497764
 10
21.8296567907
 20
15.2191139512
 10
21.8553602607
 20
15.2457927567
 10
21.8800409319
 20
15.2717881204
 10
21.9036959581
 20
15.2970981146
 10
21.9264056919
 20
15.3217721192
 10
21.9481727431
 20
15.3458120362
 10
21.9689945018
 20
15.3692159636
 10
21.9889434901
 20
15.392027574
 10
22.008022072
 20
15.4142487898
 10
22.0262278836
 20
15.4358776887
 10
22.0436263551
 20
15.4569521767
 10
22.0602195645
 20
15.4774742366
 10
22.0760054338
 20
15.4974418855
 10
22.0910431599
 20
15.5168870811
 10
22.1053344471
 20
15.5358118804
 10
22.1188775911
 20
15.5542142263
 10
22.1317266752
 20
15.5721199051
 10
22.1438829096
 20
15.5895310427
 10
22.1553450842
 20
15.6064455131
 10
22.1661636516
 20
15.6228827243
 10
22.1763390647
 20
15.6388446112
 10
22.1858708706
 20
15.654329239
 10
22.1948081637
 20
15.6693502108
 10
22.2031506817
 20
15.6839094077
 10
22.210898687
 20
15.6980049488
 10
22.2181020609
 20
15.7116447942
 10
22.2247593721
 20
15.72482965
 10
22.2308720519
 20
15.7375588102
 10
22.2364942759
 20
15.7498381167
 10
22.2416214141
 20
15.7616584276
 10
22.2462580963
 20
15.7730288848
 10
22.2504723883
 20
15.7839827552
 10
22.2542623488
 20
15.7945066076
 10
22.257629919
 20
15.8046138734
 10
22.2606489878
 20
15.8143781132
 10
22.2633248621
 20
15.8237970481
 10
22.265652235
 20
15.8328729571
 10
22.2676890748
 20
15.841686238
 10
22.2694427807
 20
15.850241887
 10
22.2709059534
 20
15.858534908
 10
22.2721143637
 20
15.8666307107
 10
22.2730742976
 20
15.8745335448
 10
22.2737794691
 20
15.8822391606
 10
22.2742467904
 20
15.8898002192
 10
22.2744819221
 20
15.8972198925
 10
22.2744792037
 20
15.9044950085
 10
22.2742385655
 20
15.9116687123
 10
22.2737656579
 20
15.9187437354
 10
22.2730548305
 20
15.9257173464
 10
22.2720890635
 20
15.9326244954
 10
22.2708746783
 20
15.9394673145
 10
22.2694053533
 20
15.9462436717
 10
22.2676451037
 20
15.9529821216
 10
22.2656015888
 20
15.9596850062
 10
22.2632671493
 20
15.9663499836
 10
22.2605828223
 20
15.9729985827
 10
22.2575537875
 20
15.9796391961
 10
22.2541748651
 20
15.9862634311
 10
22.2503715537
 20
15.9928676385
 10
22.246141436
 20
15.9994636094
 10
22.2414869293
 20
16.0060395526
 10
22.2363407829
 20
16.0125564455
 10
22.230698594
 20
16.0190180287
 10
22.2245647654
 20
16.0254205616
 10
22.2178852556
 20
16.0317138001
 10
22.2106587853
 20
16.037895459
 10
22.2028866337
 20
16.0439678234
 10
22.1945185964
 20
16.049887505
 10
22.1855542698
 20
16.0556524787
 10
22.1759940575
 20
16.0612647694
 10
22.165788965
 20
16.0666870636
 10
22.1549395055
 20
16.0719178583
 10
22.1434451657
 20
16.0769586563
 10
22.1312554116
 20
16.0817766529
 10
22.1183714481
 20
16.0863709863
 10
22.1047920702
 20
16.0907425182
 10
22.0904631291
 20
16.0948610288
 10
22.0753863398
 20
16.0987262293
 10
22.0595599872
 20
16.1023384084
 10
22.0429247771
 20
16.1056682129
 10
22.0254827976
 20
16.1087158162
 10
22.0072319606
 20
16.111481045
 10
21.988106708
 20
16.1139340253
 10
21.968109394
 20
16.1160752881
 10
21.9472376644
 20
16.1179043025
 10
21.9254188986
 20
16.1193896019
 10
21.902655774
 20
16.1205319906
 10
21.8789456132
 20
16.1213306644
 10
21.8542077636
 20
16.1217517436
 10
21.8284448464
 20
16.1217962429
 10
21.8016542403
 20
16.1214631476
 10
21.7737474285
 20
16.1207155345
 10
21.7447283985
 20
16.1195546783
 10
21.7145931629
 20
16.1179793042
 10
21.683241243
 20
16.1159486645
 10
21.6506739937
 20
16.1134639542
 10
21.61689006
 20
16.1105239782
 10
21.5817848987
 20
16.1070844038
 10
21.5453536107
 20
16.1031452784
 10
21.5076010951
 20
16.0987065546
 10
21.4684375053
 20
16.0937237575
 10
21.4278715959
 20
16.0881985602
 10
21.3858946123
 20
16.0821292895
 10
21.3423904449
 20
16.0754664517
 10
21.2973739974
 20
16.0682137594
 10
21.250830366
 20
16.0603674999
 10
21.20259873
 20
16.0518670407
 10
21.1526792628
 20
16.0427140053
 10
21.101071791
 20
16.0329067702
 10
21.0476149727
 20
16.0223798335
 10
20.9922550271
 20
16.0111113611
 10
20.9350457349
 20
15.999123187
 10
20.8759870962
 20
15.9864153114
  0
LINE
  5
451
100
AcDbEntity
  8
RACCORDO
100
AcDbLine
 62
250
  6
CONTINUOUS
 10
-14.9701507418
 20
-10.1555874428
 11
-15.1218634818
 21
-10.251584172
  0
LINE
  5
452
100
AcDbEntity
  8
ASSI
100
AcDbLine
 62
250
  6
CONTINUOUS
 10
-14.9701507418
 20
-10.1555874428
 11
-15.1218634818
 21
-10.251584172
  0
LINE
  5
453
100
AcDbEntity
  8
ASSI
100
AcDbLine
 62
7
  6
CONTINUOUS
 10
-14.8325614676
 20
-9.979583029
 11
-15.1588377953
 21
-10.1778211806
  0
LINE
  5
454
100
AcDbEntity
  8
RACCORDO
100
AcDbLine
 62
250
  6
CONTINUOUS
 10
-15.0967302374
 20
-9.9378938414
 11
-14.8934577857
 21
-9.8152401863
  0
LINE
  5
455
100
AcDbEntity
  8
ASSI
100
AcDbLine
 62
250
  6
CONTINUOUS
 10
-15.0967302374
 20
-9.9378938414
 11
-14.8934577857
 21
-9.8152401863
  0
LINE
  5
456
100
AcDbEntity
  8
RACCORDO
100
AcDbLine
 62
250
  6
CONTINUOUS
 10
-15.2090981768
 20
-9.8761826785
 11
-15.0015261774
 21
-9.7510139438
  0
LINE
  5
457
100
AcDbEntity
  8
ASSI
100
AcDbLine
 62
250
  6
CONTINUOUS
 10
-15.2090981768
 20
-9.8761826785
 11
-15.0015261774
 21
-9.7510139438
  0
LINE
  5
458
100
AcDbEntity
  8
RACCORDO
100
AcDbLine
 62
7
  6
CONTINUOUS
 10
-14.7999791186
 20
-9.9644131688
 11
-14.9655818053
 21
-10.049712942
  0
LINE
  5
459
100
AcDbEntity
  8
SMUSSO
100
AcDbLine
 62
7
  6
CONTINUOUS
 10
-14.4373364319
 20
-9.6489446118
 11
-14.618725621
 21
-9.7404871169
  0
LINE
  5
45A
100
AcDbEntity
  8
ASSI
100
AcDbLine
 62
7
  6
CONTINUOUS
 10
-14.4373364319
 20
-9.6489446118
 11
-14.618725621
 21
-9.7404871169
  0
LINE
  5
45B
100
AcDbEntity
  8
ASSI
100
AcDbLine
 62
250
  6
CONTINUOUS
 10
-14.8101704033
 20
-10.0753154847
 11
-14.9701507418
 21
-10.1555874428
  0
LINE
  5
45C
100
AcDbEntity
  8
RACCORDO
100
AcDbLine
 62
250
  6
CONTINUOUS
 10
-14.8101704033
 20
-10.0753154847
 11
-14.9701507418
 21
-10.1555874428
  0
LWPOLYLINE
  5
45D
100
AcDbEntity
  8
INCISIONI_LASER
100
AcDbPolyline
 62
250
  6
CONTINUOUS
 90
83
 70
0
 10
-9.8094511698
 20
6.5960923571
 10
-9.8665437911
 20
6.6259201652
 10
-9.9224115356
 20
6.6576673592
 10
-9.9771789188
 20
6.6913494407
 10
-10.0309704561
 20
6.7269819111
 10
-10.083910663
 20
6.7645802721
 10
-10.1361240549
 20
6.8041600252
 10
-10.1979517075
 20
6.8542882543
 10
-10.2588611744
 20
6.907290367
 10
-10.3188015813
 20
6.9631647198
 10
-10.3777220538
 20
7.0219096694
 10
-10.4355717175
 20
7.0835235726
 10
-10.4922841557
 20
7.1479778317
 10
-10.5477307808
 20
7.215136033
 10
-10.6017674631
 20
7.2848348083
 10
-10.6542500726
 20
7.3569107897
 10
-10.7050344793
 20
7.4312006091
 10
-10.7539907521
 20
7.5075497682
 10
-10.8010457539
 20
7.5858392476
 10
-10.8461405465
 20
7.6659588975
 10
-10.8892161916
 20
7.7477985681
 10
-10.9302137509
 20
7.8312481096
 10
-10.9690738947
 20
7.9161917347
 10
-11.0057357271
 20
8.0024911061
 10
-11.040137961
 20
8.0900022488
 10
-11.0722193091
 20
8.1785811878
 10
-11.1019184842
 20
8.2680839482
 10
-11.1291784279
 20
8.3583637601
 10
-11.1539589974
 20
8.4492626732
 10
-11.1762242788
 20
8.5406199424
 10
-11.1959383584
 20
8.6322748223
 10
-11.2130653221
 20
8.7240665678
 10
-11.2275746814
 20
8.8158403338
 10
-11.2394576494
 20
8.9074648757
 10
-11.2487108642
 20
8.998814849
 10
-11.2553309643
 20
9.0897649093
 10
-11.2593145878
 20
9.1801897122
 10
-11.2606583731
 20
9.2699639133
 10
-11.2593589585
 20
9.358962168
 10
-11.2554129823
 20
9.447059132
 10
-11.2488170827
 20
9.5341294608
 10
-11.2395678982
 20
9.6200478099
 10
-11.2276681845
 20
9.7046893203
 10
-11.2131451679
 20
9.7879310733
 10
-11.1960321922
 20
9.869650636
 10
-11.1763626013
 20
9.9497255751
 10
-11.1541697389
 20
10.0280334575
 10
-11.1294869489
 20
10.1044518499
 10
-11.1023475751
 20
10.1788583192
 10
-11.0727849614
 20
10.2511304323
 10
-11.0408324514
 20
10.3211457559
 10
-11.0065233892
 20
10.3887818569
 10
-10.9698975657
 20
10.4539198968
 10
-10.9310205618
 20
10.516455415
 10
-10.8899644055
 20
10.576287546
 10
-10.8468011247
 20
10.6333154238
 10
-10.8016027475
 20
10.6874381827
 10
-10.7544460461
 20
10.738559454
 10
-10.7054267692
 20
10.7866008566
 10
-10.6546454096
 20
10.8314885068
 10
-10.6022024603
 20
10.8731485206
 10
-10.5481984141
 20
10.9115070141
 10
-10.4927287689
 20
10.946497566
 10
-10.4358690426
 20
10.9780836056
 10
-10.3776897585
 20
11.0062360248
 10
-10.3182614396
 20
11.0309257156
 10
-10.2576546088
 20
11.0521235699
 10
-10.1959548453
 20
11.0698039983
 10
-10.1333079513
 20
11.0839554868
 10
-10.0698747852
 20
11.0945700396
 10
-10.0058162052
 20
11.1016396615
 10
-9.9412930696
 20
11.1051563568
 10
-9.8764471387
 20
11.1051215101
 10
-9.8113437809
 20
11.1015740265
 10
-9.7460292664
 20
11.0945621909
 10
-9.6805498657
 20
11.0841342884
 10
-9.6149518491
 20
11.0703386039
 10
-9.5602062929
 20
11.0562830814
 10
-9.5052973845
 20
11.0398222388
 10
-9.4501120116
 20
11.020855962
 10
-9.394537062
 20
10.9992841372
 10
-9.3384594235
 20
10.9750066502
 10
-9.2817659836
 20
10.9479233873
  0
LWPOLYLINE
  5
45E
100
AcDbEntity
  8
ASSI
100
AcDbPolyline
 62
250
  6
CONTINUOUS
 90
83
 70
0
 10
-9.8094511698
 20
6.5960923571
 10
-9.8665437911
 20
6.6259201652
 10
-9.9224115356
 20
6.6576673592
 10
-9.9771789188
 20
6.6913494407
 10
-10.0309704561
 20
6.7269819111
 10
-10.083910663
 20
6.7645802721
 10
-10.1361240549
 20
6.8041600252
 10
-10.1979517075
 20
6.8542882543
 10
-10.2588611744
 20
6.907290367
 10
-10.3188015813
 20
6.9631647198
 10
-10.3777220538
 20
7.0219096694
 10
-10.4355717175
 20
7.0835235726
 10
-10.4922841557
 20
7.1479778317
 10
-10.5477307808
 20
7.215136033
 10
-10.6017674631
 20
7.2848348083
 10
-10.6542500726
 20
7.3569107897
 10
-10.7050344793
 20
7.4312006091
 10
-10.7539907521
 20
7.5075497682
 10
-10.8010457539
 20
7.5858392476
 10
-10.8461405465
 20
7.6659588975
 10
-10.8892161916
 20
7.7477985681
 10
-10.9302137509
 20
7.8312481096
 10
-10.9690738947
 20
7.9161917347
 10
-11.0057357271
 20
8.0024911061
 10
-11.040137961
 20
8.0900022488
 10
-11.0722193091
 20
8.1785811878
 10
-11.1019184842
 20
8.2680839482
 10
-11.1291784279
 20
8.3583637601
 10
-11.1539589974
 20
8.4492626732
 10
-11.1762242788
 20
8.5406199424
 10
-11.1959383584
 20
8.6322748223
 10
-11.2130653221
 20
8.7240665678
 10
-11.2275746814
 20
8.8158403338
 10
-11.2394576494
 20
8.9074648757
 10
-11.2487108642
 20
8.998814849
 10
-11.2553309643
 20
9.0897649093
 10
-11.2593145878
 20
9.1801897122
 10
-11.2606583731
 20
9.2699639133
 10
-11.2593589585
 20
9.358962168
 10
-11.2554129823
 20
9.447059132
 10
-11.2488170827
 20
9.5341294608
 10
-11.2395678982
 20
9.6200478099
 10
-11.2276681845
 20
9.7046893203
 10
-11.2131451679
 20
9.7879310733
 10
-11.1960321922
 20
9.869650636
 10
-11.1763626013
 20
9.9497255751
 10
-11.1541697389
 20
10.0280334575
 10
-11.1294869489
 20
10.1044518499
 10
-11.1023475751
 20
10.1788583192
 10
-11.0727849614
 20
10.2511304323
 10
-11.0408324514
 20
10.3211457559
 10
-11.0065233892
 20
10.3887818569
 10
-10.9698975657
 20
10.4539198968
 10
-10.9310205618
 20
10.516455415
 10
-10.8899644055
 20
10.576287546
 10
-10.8468011247
 20
10.6333154238
 10
-10.8016027475
 20
10.6874381827
 10
-10.7544460461
 20
10.738559454
 10
-10.7054267692
 20
10.7866008566
 10
-10.6546454096
 20
10.8314885068
 10
-10.6022024603
 20
10.8731485206
 10
-10.5481984141
 20
10.9115070141
 10
-10.4927287689
 20
10.946497566
 10
-10.4358690426
 20
10.9780836056
 10
-10.3776897585
 20
11.0062360248
 10
-10.3182614396
 20
11.0309257156
 10
-10.2576546088
 20
11.0521235699
 10
-10.1959548453
 20
11.0698039983
 10
-10.1333079513
 20
11.0839554868
 10
-10.0698747852
 20
11.0945700396
 10
-10.0058162052
 20
11.1016396615
 10
-9.9412930696
 20
11.1051563568
 10
-9.8764471387
 20
11.1051215101
 10
-9.8113437809
 20
11.1015740265
 10
-9.7460292664
 20
11.0945621909
 10
-9.6805498657
 20
11.0841342884
 10
-9.6149518491
 20
11.0703386039
 10
-9.5602062929
 20
11.0562830814
 10
-9.5052973845
 20
11.0398222388
 10
-9.4501120116
 20
11.020855962
 10
-9.394537062
 20
10.9992841372
 10
-9.3384594235
 20
10.9750066502
 10
-9.2817659836
 20
10.9479233873
  0
LWPOLYLINE
  5
45F
100
AcDbEntity
  8
INCISIONI_LASER
100
AcDbPolyline
 62
250
  6
CONTINUOUS
 90
85
 70
0
 10
-9.7931037358
 20
6.7375614807
 10
-9.8549083177
 20
6.7700593955
 10
-9.915047828
 20
6.8048646271
 10
-9.9736913996
 20
6.8419846496
 10
-10.0310081655
 20
6.8814269369
 10
-10.0871672585
 20
6.9231989631
 10
-10.1423378116
 20
6.9673082022
 10
-10.1966536285
 20
7.0137595924
 10
-10.2501071962
 20
7.0625479301
 10
-10.3026556727
 20
7.1136654755
 10
-10.3542562156
 20
7.1671044893
 10
-10.404865983
 20
7.222857232
 10
-10.4544421326
 20
7.2809159641
 10
-10.5029317483
 20
7.3412519778
 10
-10.5502416174
 20
7.4037526917
 10
-10.5962684533
 20
7.4682845562
 10
-10.6409089693
 20
7.5347140217
 10
-10.6840598787
 20
7.6029075385
 10
-10.7256178949
 20
7.672731557
 10
-10.7654903116
 20
7.7440604234
 10
-10.8036267445
 20
7.8168000678
 10
-10.8399873895
 20
7.8908643161
 10
-10.8745324428
 20
7.9661669941
 10
-10.9072221004
 20
8.042621928
 10
-10.9380165584
 20
8.1201429435
 10
-10.966875742
 20
8.1986378099
 10
-10.9937584937
 20
8.2779900695
 10
-11.0186233853
 20
8.3580772079
 10
-11.0414289885
 20
8.4387767105
 10
-11.0621338748
 20
8.519966063
 10
-11.0806966162
 20
8.6015227508
 10
-11.0970800742
 20
8.6833258895
 10
-11.111264271
 20
8.7652611136
 10
-11.1232335187
 20
8.8472156876
 10
-11.1329721294
 20
8.929076876
 10
-11.140464415
 20
9.0107319433
 10
-11.1456946879
 20
9.092068154
 10
-11.1486502893
 20
9.1729720306
 10
-11.1493306777
 20
9.2533271278
 10
-11.1477383412
 20
9.3330162585
 10
-11.1438757674
 20
9.4119222353
 10
-11.1377454443
 20
9.489927871
 10
-11.1293498598
 20
9.5669159784
 10
-11.1186954776
 20
9.6427712604
 10
-11.1058046655
 20
9.7173859806
 10
-11.0907037671
 20
9.790654293
 10
-11.0734191262
 20
9.8624703514
 10
-11.0539770863
 20
9.9327283096
 10
-11.0324039913
 20
10.0013223215
 10
-11.0087287052
 20
10.0681501214
 10
-10.9829901737
 20
10.133123765
 10
-10.955229863
 20
10.1961588887
 10
-10.925489239
 20
10.2571711287
 10
-10.8938097681
 20
10.3160761213
 10
-10.8602329162
 20
10.3727895026
 10
-10.824803993
 20
10.4272296088
 10
-10.7875836817
 20
10.4793255748
 10
-10.7486365091
 20
10.5290092356
 10
-10.7080270019
 20
10.576212426
 10
-10.6658196869
 20
10.6208669807
 10
-10.6220790908
 20
10.6629047346
 10
-10.576868627
 20
10.7022621406
 10
-10.5302472548
 20
10.7388941239
 10
-10.4822728204
 20
10.7727602276
 10
-10.4330031698
 20
10.8038199949
 10
-10.3824961491
 20
10.832032969
 10
-10.3308096044
 20
10.857358693
 10
-10.2780131354
 20
10.8797606361
 10
-10.2242233574
 20
10.899217971
 10
-10.169568639
 20
10.9157137961
 10
-10.1141773491
 20
10.92923121
 10
-10.0581778567
 20
10.9397533113
 10
-10.0016985304
 20
10.9472631985
 10
-9.9448523025
 20
10.9517533893
 10
-9.8876903587
 20
10.9532540779
 10
-9.8302484479
 20
10.9518048777
 10
-9.772562319
 20
10.947445402
 10
-9.7146677211
 20
10.9402152643
 10
-9.6566004032
 20
10.9301540777
 10
-9.5983647689
 20
10.9172704038
 10
-9.5398398412
 20
10.9014485958
 10
-9.480873298
 20
10.8825419552
 10
-9.4213128168
 20
10.8604037832
 10
-9.3610060755
 20
10.8348873812
 10
-9.2998007519
 20
10.8058460506
  0
LWPOLYLINE
  5
460
100
AcDbEntity
  8
ASSI
100
AcDbPolyline
 62
250
  6
CONTINUOUS
 90
85
 70
0
 10
-9.7931037358
 20
6.7375614807
 10
-9.8549083177
 20
6.7700593955
 10
-9.915047828
 20
6.8048646271
 10
-9.9736913996
 20
6.8419846496
 10
-10.0310081655
 20
6.8814269369
 10
-10.0871672585
 20
6.9231989631
 10
-10.1423378116
 20
6.9673082022
 10
-10.1966536285
 20
7.0137595924
 10
-10.2501071962
 20
7.0625479301
 10
-10.3026556727
 20
7.1136654755
 10
-10.3542562156
 20
7.1671044893
 10
-10.404865983
 20
7.222857232
 10
-10.4544421326
 20
7.2809159641
 10
-10.5029317483
 20
7.3412519778
 10
-10.5502416174
 20
7.4037526917
 10
-10.5962684533
 20
7.4682845562
 10
-10.6409089693
 20
7.5347140217
 10
-10.6840598787
 20
7.6029075385
 10
-10.7256178949
 20
7.672731557
 10
-10.7654903116
 20
7.7440604234
 10
-10.8036267445
 20
7.8168000678
 10
-10.8399873895
 20
7.8908643161
 10
-10.8745324428
 20
7.9661669941
 10
-10.9072221004
 20
8.042621928
 10
-10.9380165584
 20
8.1201429435
 10
-10.966875742
 20
8.1986378099
 10
-10.9937584937
 20
8.2779900695
 10
-11.0186233853
 20
8.3580772079
 10
-11.0414289885
 20
8.4387767105
 10
-11.0621338748
 20
8.519966063
 10
-11.0806966162
 20
8.6015227508
 10
-11.0970800742
 20
8.6833258895
 10
-11.111264271
 20
8.7652611136
 10
-11.1232335187
 20
8.8472156876
 10
-11.1329721294
 20
8.929076876
 10
-11.140464415
 20
9.0107319433
 10
-11.1456946879
 20
9.092068154
 10
-11.1486502893
 20
9.1729720306
 10
-11.1493306777
 20
9.2533271278
 10
-11.1477383412
 20
9.3330162585
 10
-11.1438757674
 20
9.4119222353
 10
-11.1377454443
 20
9.489927871
 10
-11.1293498598
 20
9.5669159784
 10
-11.1186954776
 20
9.6427712604
 10
-11.1058046655
 20
9.7173859806
 10
-11.0907037671
 20
9.790654293
 10
-11.0734191262
 20
9.8624703514
 10
-11.0539770863
 20
9.9327283096
 10
-11.0324039913
 20
10.0013223215
 10
-11.0087287052
 20
10.0681501214
 10
-10.9829901737
 20
10.133123765
 10
-10.955229863
 20
10.1961588887
 10
-10.925489239
 20
10.2571711287
 10
-10.8938097681
 20
10.3160761213
 10
-10.8602329162
 20
10.3727895026
 10
-10.824803993
 20
10.4272296088
 10
-10.7875836817
 20
10.4793255748
 10
-10.7486365091
 20
10.5290092356
 10
-10.7080270019
 20
10.576212426
 10
-10.6658196869
 20
10.6208669807
 10
-10.6220790908
 20
10.6629047346
 10
-10.576868627
 20
10.7022621406
 10
-10.5302472548
 20
10.7388941239
 10
-10.4822728204
 20
10.7727602276
 10
-10.4330031698
 20
10.8038199949
 10
-10.3824961491
 20
10.832032969
 10
-10.3308096044
 20
10.857358693
 10
-10.2780131354
 20
10.8797606361
 10
-10.2242233574
 20
10.899217971
 10
-10.169568639
 20
10.9157137961
 10
-10.1141773491
 20
10.92923121
 10
-10.0581778567
 20
10.9397533113
 10
-10.0016985304
 20
10.9472631985
 10
-9.9448523025
 20
10.9517533893
 10
-9.8876903587
 20
10.9532540779
 10
-9.8302484479
 20
10.9518048777
 10
-9.772562319
 20
10.947445402
 10
-9.7146677211
 20
10.9402152643
 10
-9.6566004032
 20
10.9301540777
 10
-9.5983647689
 20
10.9172704038
 10
-9.5398398412
 20
10.9014485958
 10
-9.480873298
 20
10.8825419552
 10
-9.4213128168
 20
10.8604037832
 10
-9.3610060755
 20
10.8348873812
 10
-9.2998007519
 20
10.8058460506
  0
LWPOLYLINE
  5
461
100
AcDbEntity
  8
INCISIONI_LASER
100
AcDbPolyline
 62
250
  6
CONTINUOUS
 90
85
 70
0
 10
-9.7744396529
 20
6.8985063029
 10
-9.8314688895
 20
6.9284971137
 10
-9.8869549251
 20
6.9606205923
 10
-9.941053321
 20
6.9948823441
 10
-9.9939196383
 20
7.0312879741
 10
-10.0457094381
 20
7.0698430878
 10
-10.0965782816
 20
7.1105532904
 10
-10.1466491714
 20
7.1534217314
 10
-10.1959148758
 20
7.1984417376
 10
-10.2443356044
 20
7.2456041802
 10
-10.2918715669
 20
7.2948999301
 10
-10.3384829732
 20
7.3463198585
 10
-10.3841300328
 20
7.3998548365
 10
-10.4287640302
 20
7.45547686
 10
-10.4723005482
 20
7.5130824249
 10
-10.5146462442
 20
7.5725491519
 10
-10.5557077757
 20
7.6337546618
 10
-10.5953918001
 20
7.6965765752
 10
-10.6336049749
 20
7.760892513
 10
-10.6702635222
 20
7.8265875079
 10
-10.705321923
 20
7.8935762416
 10
-10.7387442231
 20
7.9617808075
 10
-10.770494468
 20
8.0311232995
 10
-10.8005367034
 20
8.1015258111
 10
-10.828834975
 20
8.172910436
 10
-10.8553529118
 20
8.24519328
 10
-10.8800524756
 20
8.3182664976
 10
-10.9028952117
 20
8.3920162555
 10
-10.9238426651
 20
8.4663287202
 10
-10.9428563811
 20
8.5410900585
 10
-10.9598979049
 20
8.616186437
 10
-10.9749328495
 20
8.6915056503
 10
-10.9879431003
 20
8.7669420051
 10
-10.9989146103
 20
8.8423914359
 10
-11.0078333328
 20
8.9177498773
 10
-11.014685221
 20
8.9929132638
 10
-11.0194562279
 20
9.0677775301
 10
-11.0221350645
 20
9.1422380902
 10
-11.0227214719
 20
9.2161882762
 10
-11.0212179489
 20
9.2895208995
 10
-11.0176269945
 20
9.3621287718
 10
-11.0119511073
 20
9.4339047045
 10
-11.0041927863
 20
9.5047415092
 10
-10.9943581977
 20
9.5745335937
 10
-10.9824681782
 20
9.6431817506
 10
-10.9685472318
 20
9.7105883689
 10
-10.9526198627
 20
9.7766558374
 10
-10.9347105749
 20
9.8412865449
 10
-10.9148438726
 20
9.9043828806
 10
-10.8930465128
 20
9.9658507114
 10
-10.8693542645
 20
10.0256098178
 10
-10.8438051495
 20
10.0835834585
 10
-10.8164371899
 20
10.1396948922
 10
-10.7872884076
 20
10.1938673775
 10
-10.7563968245
 20
10.2460241732
 10
-10.7238038685
 20
10.2960909353
 10
-10.6895645917
 20
10.3440029096
 10
-10.6537374522
 20
10.3896977394
 10
-10.616380908
 20
10.4331130677
 10
-10.5775534174
 20
10.4741865379
 10
-10.5373134382
 20
10.512855793
 10
-10.495718594
 20
10.5490625431
 10
-10.4528231689
 20
10.582764765
 10
-10.4086806127
 20
10.6139245022
 10
-10.3633443748
 20
10.6425037985
 10
-10.3168679048
 20
10.6684646974
 10
-10.2693046523
 20
10.6917692426
 10
-10.2207188257
 20
10.7123832072
 10
-10.1712176682
 20
10.7302872832
 10
-10.1209191818
 20
10.7454658921
 10
-10.0699413684
 20
10.7579034556
 10
-10.01840223
 20
10.7675843951
 10
-9.9664197687
 20
10.7744931323
 10
-9.9140977886
 20
10.7786227302
 10
-9.8614833021
 20
10.7800008181
 10
-9.8086091239
 20
10.7786636668
 10
-9.7555080687
 20
10.7746475471
 10
-9.7022129512
 20
10.7679887299
 10
-9.6487565859
 20
10.758723486
 10
-9.5951429736
 20
10.7468595258
 10
-9.5412608592
 20
10.7322903184
 10
-9.486970174
 20
10.7148807726
 10
-9.4321308489
 20
10.6944957971
 10
-9.3766028149
 20
10.6710003007
 10
-9.3202460033
 20
10.6442591921
  0
LWPOLYLINE
  5
462
100
AcDbEntity
  8
ASSI
100
AcDbPolyline
 62
250
  6
CONTINUOUS
 90
85
 70
0
 10
-9.7744396529
 20
6.8985063029
 10
-9.8314688895
 20
6.9284971137
 10
-9.8869549251
 20
6.9606205923
 10
-9.941053321
 20
6.9948823441
 10
-9.9939196383
 20
7.0312879741
 10
-10.0457094381
 20
7.0698430878
 10
-10.0965782816
 20
7.1105532904
 10
-10.1466491714
 20
7.1534217314
 10
-10.1959148758
 20
7.1984417376
 10
-10.2443356044
 20
7.2456041802
 10
-10.2918715669
 20
7.2948999301
 10
-10.3384829732
 20
7.3463198585
 10
-10.3841300328
 20
7.3998548365
 10
-10.4287640302
 20
7.45547686
 10
-10.4723005482
 20
7.5130824249
 10
-10.5146462442
 20
7.5725491519
 10
-10.5557077757
 20
7.6337546618
 10
-10.5953918001
 20
7.6965765752
 10
-10.6336049749
 20
7.760892513
 10
-10.6702635222
 20
7.8265875079
 10
-10.705321923
 20
7.8935762416
 10
-10.7387442231
 20
7.9617808075
 10
-10.770494468
 20
8.0311232995
 10
-10.8005367034
 20
8.1015258111
 10
-10.828834975
 20
8.172910436
 10
-10.8553529118
 20
8.24519328
 10
-10.8800524756
 20
8.3182664976
 10
-10.9028952117
 20
8.3920162555
 10
-10.9238426651
 20
8.4663287202
 10
-10.9428563811
 20
8.5410900585
 10
-10.9598979049
 20
8.616186437
 10
-10.9749328495
 20
8.6915056503
 10
-10.9879431003
 20
8.7669420051
 10
-10.9989146103
 20
8.8423914359
 10
-11.0078333328
 20
8.9177498773
 10
-11.014685221
 20
8.9929132638
 10
-11.0194562279
 20
9.0677775301
 10
-11.0221350645
 20
9.1422380902
 10
-11.0227214719
 20
9.2161882762
 10
-11.0212179489
 20
9.2895208995
 10
-11.0176269945
 20
9.3621287718
 10
-11.0119511073
 20
9.4339047045
 10
-11.0041927863
 20
9.5047415092
 10
-10.9943581977
 20
9.5745335937
 10
-10.9824681782
 20
9.6431817506
 10
-10.9685472318
 20
9.7105883689
 10
-10.9526198627
 20
9.7766558374
 10
-10.9347105749
 20
9.8412865449
 10
-10.9148438726
 20
9.9043828806
 10
-10.8930465128
 20
9.9658507114
 10
-10.8693542645
 20
10.0256098178
 10
-10.8438051495
 20
10.0835834585
 10
-10.8164371899
 20
10.1396948922
 10
-10.7872884076
 20
10.1938673775
 10
-10.7563968245
 20
10.2460241732
 10
-10.7238038685
 20
10.2960909353
 10
-10.6895645917
 20
10.3440029096
 10
-10.6537374522
 20
10.3896977394
 10
-10.616380908
 20
10.4331130677
 10
-10.5775534174
 20
10.4741865379
 10
-10.5373134382
 20
10.512855793
 10
-10.495718594
 20
10.5490625431
 10
-10.4528231689
 20
10.582764765
 10
-10.4086806127
 20
10.6139245022
 10
-10.3633443748
 20
10.6425037985
 10
-10.3168679048
 20
10.6684646974
 10
-10.2693046523
 20
10.6917692426
 10
-10.2207188257
 20
10.7123832072
 10
-10.1712176682
 20
10.7302872832
 10
-10.1209191818
 20
10.7454658921
 10
-10.0699413684
 20
10.7579034556
 10
-10.01840223
 20
10.7675843951
 10
-9.9664197687
 20
10.7744931323
 10
-9.9140977886
 20
10.7786227302
 10
-9.8614833021
 20
10.7800008181
 10
-9.8086091239
 20
10.7786636668
 10
-9.7555080687
 20
10.7746475471
 10
-9.7022129512
 20
10.7679887299
 10
-9.6487565859
 20
10.758723486
 10
-9.5951429736
 20
10.7468595258
 10
-9.5412608592
 20
10.7322903184
 10
-9.486970174
 20
10.7148807726
 10
-9.4321308489
 20
10.6944957971
 10
-9.3766028149
 20
10.6710003007
 10
-9.3202460033
 20
10.6442591921
  0
LWPOLYLINE
  5
463
100
AcDbEntity
  8
268
100
AcDbPolyline
 62
7
  6
CONTINUOUS
 90
24
 70
0
 10
3.2217711347
 20
24.0720624727
 10
3.2211979503
 20
24.1065348788
 10
3.2194988373
 20
24.1402847998
 10
3.2166737957
 20
24.1733122356
 10
3.2127133612
 20
24.205673793
 10
3.207626998
 20
24.2373128652
 10
3.2014430997
 20
24.2680596317
 10
3.1941604842
 20
24.2978951591
 10
3.1857803336
 20
24.3268383809
 10
3.1763345863
 20
24.3547762768
 10
3.1658107278
 20
24.3817224396
 10
3.1542212728
 20
24.4076632766
 10
3.141635704
 20
24.4324449895
 10
3.1280605182
 20
24.4560422909
 10
3.1134892186
 20
24.4784804682
 10
3.0979717986
 20
24.4996815854
 10
3.0814885112
 20
24.5196586753
 10
3.0640591034
 20
24.5383987052
 10
3.0457928087
 20
24.5557846408
 10
3.0267041528
 20
24.5717935671
 10
3.0067786101
 20
24.5864483992
 10
2.9860818376
 20
24.5997008475
 10
2.964589323
 20
24.6115567088
 10
-0.2644452941
 20
26.2260978946
  0
LWPOLYLINE
  5
464
100
AcDbEntity
  8
218_STAMPATO
100
AcDbPolyline
 62
7
  6
CONTINUOUS
 90
4
 70
0
 10
3.1234215641
 20
24.5963154131
 10
3.1235503104
 20
24.5830104535
 10
3.1247367999
 20
24.5537946339
 10
3.1268661806
 20
24.5281884319
  0
LINE
  5
465
100
AcDbEntity
  8
268
100
AcDbLine
 62
7
  6
CONTINUOUS
 10
3.2217711347
 20
24.0720624727
 11
3.2217711347
 21
23.80126218
  0
LINE
  5
466
100
AcDbEntity
  8
268
100
AcDbLine
 62
7
  6
CONTINUOUS
 10
3.2821972455
 20
16.9417475625
 11
3.2821972455
 21
16.6883761688
  0
LINE
  5
467
100
AcDbEntity
  8
268
100
AcDbLine
 62
7
  6
CONTINUOUS
 10
3.2821972455
 20
-24.6112279706
 11
3.2821972455
 21
-24.8645993643
  0
LINE
  5
468
100
AcDbEntity
  8
268
100
AcDbLine
 62
7
  6
CONTINUOUS
 10
3.6813905425
 20
14.9159318392
 11
3.6813905425
 21
14.8915363339
  0
LINE
  5
469
100
AcDbEntity
  8
268
100
AcDbLine
 62
7
  6
CONTINUOUS
 10
3.6813905425
 20
-23.2135814326
 11
3.6813905425
 21
-23.2379769379
  0
LINE
  5
46A
100
AcDbEntity
  8
218_STAMPATO
100
AcDbLine
 62
250
  6
CONTINUOUS
 10
3.911982829
 20
25.1498466086
 11
3.911982829
 21
25.5600656515
  0
LINE
  5
46B
100
AcDbEntity
  8
268
100
AcDbLine
 62
7
  6
CONTINUOUS
 10
3.9934178536
 20
-23.6347314935
 11
3.9934178536
 21
-23.2301094024
  0
LINE
  5
46C
100
AcDbEntity
  8
268
100
AcDbLine
 62
7
  6
CONTINUOUS
 10
3.9934178536
 20
15.7777030872
 11
3.9934178536
 21
16.4148726459
  0
LINE
  5
46D
100
AcDbEntity
  8
268
100
AcDbLine
 62
7
  6
CONTINUOUS
 10
4.4945633408
 20
15.1758380018
 11
4.4945633408
 21
13.5259305642
  0
LINE
  5
46E
100
AcDbEntity
  8
268
100
AcDbLine
 62
7
  6
CONTINUOUS
 10
4.4945633408
 20
-21.0348028646
 11
4.4945633408
 21
-22.6847103022
  0
LINE
  5
46F
100
AcDbEntity
  8
218_STAMPATO
100
AcDbLine
 62
7
  6
CONTINUOUS
 10
4.5946930269
 20
25.4923047009
 11
4.5946930269
 21
25.059291999
  0
LINE
  5
470
100
AcDbEntity
  8
268
100
AcDbLine
 62
7
  6
CONTINUOUS
 10
5.0602487658
 20
-22.7080964342
 11
5.0602487658
 21
-24.2137045604
  0
LINE
  5
471
100
AcDbEntity
  8
268
100
AcDbLine
 62
7
  6
CONTINUOUS
 10
5.0602487658
 20
16.3162843367
 11
5.0602487658
 21
18.0483351443
  0
LINE
  5
472
100
AcDbEntity
  8
RACCORDO
100
AcDbLine
 62
7
  6
CONTINUOUS
 10
0.7275683661
 20
-23.6616185074
 11
4.065537769
 21
13.8886939721
  0
LINE
  5
473
100
AcDbEntity
  8
ASSI
100
AcDbLine
 62
7
  6
CONTINUOUS
 10
0.7275683661
 20
-23.6616185074
 11
4.065537769
 21
13.8886939721
  0
LINE
  5
474
100
AcDbEntity
  8
268
100
AcDbLine
 62
7
  6
CONTINUOUS
 10
4.4945633408
 20
13.5259305642
 11
2.7621517269
 21
-4.6206419571
  0
LWPOLYLINE
  5
475
100
AcDbEntity
  8
715
100
AcDbPolyline
 62
250
  6
CONTINUOUS
 90
51
 70
0
 10
11.4042124464
 20
20.3891839132
 10
11.4061131804
 20
20.3953131411
 10
11.431274797
 20
20.4558979898
 10
11.4626444542
 20
20.5157762708
 10
11.5001675297
 20
20.5749443526
 10
11.5435410615
 20
20.6329223713
 10
11.5928242798
 20
20.6897030488
 10
11.6479579545
 20
20.7452936631
 10
11.7084614328
 20
20.7992361854
 10
11.7743337844
 20
20.8514890849
 10
11.8455759397
 20
20.9020938923
 10
11.9217100374
 20
20.9507171709
 10
12.0027266664
 20
20.9973449134
 10
12.0886352378
 20
21.041991127
 10
12.1789861235
 20
21.0843643961
 10
12.2740364037
 20
21.1245235941
 10
12.3735289982
 20
21.1624098476
 10
12.4762430385
 20
21.1975551207
 10
12.5825839073
 20
21.2299328406
 10
12.6921462219
 20
21.2595695802
 10
12.8024929663
 20
21.2860770224
 10
12.9135974832
 20
21.3092764158
 10
13.0254864299
 20
21.3293465119
 10
13.1358027621
 20
21.3464352476
 10
13.2441932519
 20
21.3604091435
 10
13.3510111272
 20
21.3714016791
 10
13.4549590264
 20
21.3799612303
 10
13.5557948608
 20
21.3860637999
 10
13.653760719
 20
21.3897333851
 10
13.7482855054
 20
21.3915903539
 10
13.8392072455
 20
21.3916562227
 10
13.9266879137
 20
21.3899094752
 10
14.010642337
 20
21.3869059298
 10
14.0909464104
 20
21.3826871292
 10
14.167724239
 20
21.3772115307
 10
14.2412629655
 20
21.3709103251
 10
14.3115294991
 20
21.3638242913
 10
14.3785569307
 20
21.3559126504
 10
14.4427316749
 20
21.3474842562
 10
14.5040394217
 20
21.3385736157
 10
14.5624944811
 20
21.3291462219
 10
14.6185261976
 20
21.3194074081
 10
14.6721307812
 20
21.3093858863
 10
14.7233120218
 20
21.2990529446
 10
14.7725106341
 20
21.2885277799
 10
14.819729779
 20
21.2778332407
 10
14.8649662956
 20
21.2669464786
 10
14.9086514155
 20
21.255918145
 10
14.9509288826
 20
21.2447651236
 10
14.991654953
 20
21.2334705308
 10
15.0308296267
 20
21.2220343665
  0
LWPOLYLINE
  5
476
100
AcDbEntity
  8
ASSI
100
AcDbPolyline
 62
250
  6
CONTINUOUS
 90
3
 70
0
 10
-7.7585818966
 20
-18.5580821585
 10
-7.6560422873
 20
-18.388838859
 10
-7.5647307518
 20
-18.2076066068
  0
LINE
  5
477
100
AcDbEntity
  8
ASSI
100
AcDbLine
 62
250
  6
CONTINUOUS
 10
-7.6317157907
 20
-18.6040948041
 11
-7.5268736544
 21
-18.4313096285
  0
LWPOLYLINE
  5
478
100
AcDbEntity
  8
RACCORDO
100
AcDbPolyline
 62
250
  6
CONTINUOUS
 90
3
 70
0
 10
-7.3670016295
 20
-18.6504188315
 10
-7.5104952909
 20
-18.8765879549
 10
-7.6697650436
 20
-19.0778858587
  0
LINE
  5
479
100
AcDbEntity
  8
ASSI
100
AcDbLine
 62
250
  6
CONTINUOUS
 10
-7.3670016295
 20
-18.6504188315
 11
-7.5104952909
 21
-18.8765879549
  0
LINE
  5
47A
100
AcDbEntity
  8
ASSI
100
AcDbLine
 62
7
  6
CONTINUOUS
 10
-7.3582982714
 20
-18.526927276
 11
-7.5651598383
 21
-18.8491307217
  0
LWPOLYLINE
  5
47B
100
AcDbEntity
  8
RACCORDO
100
AcDbPolyline
 62
7
  6
CONTINUOUS
 90
3
 70
0
 10
-7.4232913444
 20
-18.6402898544
 10
-7.5782190044
 20
-18.8661512475
 10
-7.7520284478
 20
-19.0645457383
  0
LWPOLYLINE
  5
47C
100
AcDbEntity
  8
RACCORDO
100
AcDbPolyline
 62
250
  6
CONTINUOUS
 90
3
 70
0
 10
-7.7472926769
 20
-18.7630552525
 10
-7.6317157908
 20
-18.6040948042
 10
-7.5268736545
 20
-18.4313096287
  0
LINE
  5
47D
100
AcDbEntity
  8
218_STAMPATO
100
AcDbLine
 62
250
  6
CONTINUOUS
 10
21.0482712262
 20
13.9931690645
 11
21.0390976978
 21
13.9847891604
  0
LWPOLYLINE
  5
47E
100
AcDbEntity
  8
218_STAMPATO
100
AcDbPolyline
 62
250
  6
CONTINUOUS
 90
57
 70
0
 10
20.7584374982
 20
14.2295839761
 10
20.7642994176
 20
14.2348249131
 10
20.7701335794
 20
14.2398407327
 10
20.7759388976
 20
14.2446315225
 10
20.7817085302
 20
14.2491986834
 10
20.7874472291
 20
14.253540922
 10
20.7931707896
 20
14.2576544964
 10
20.7988796309
 20
14.2615430918
 10
20.8045700078
 20
14.2652035968
 10
20.810250611
 20
14.2686224222
 10
20.8159211184
 20
14.2718016577
 10
20.8215777073
 20
14.2747400053
 10
20.8272232682
 20
14.2774189862
 10
20.8328539235
 20
14.2798387733
 10
20.8384689245
 20
14.2820000247
 10
20.8440752737
 20
14.2838851723
 10
20.849658673
 20
14.2854958055
 10
20.8552280941
 20
14.2868312556
 10
20.8608232676
 20
14.287871304
 10
20.8664342641
 20
14.2886266258
 10
20.8720615247
 20
14.2890886776
 10
20.877755817
 20
14.2892098761
 10
20.8835272552
 20
14.2889969962
 10
20.8893490879
 20
14.2884472699
 10
20.8952137291
 20
14.2874996521
 10
20.9011162159
 20
14.2861505153
 10
20.9070434252
 20
14.2844072167
 10
20.9129756788
 20
14.2822249608
 10
20.9189029074
 20
14.2795990057
 10
20.9248168632
 20
14.2765371066
 10
20.9307013306
 20
14.2730128105
 10
20.9365383028
 20
14.2690301227
 10
20.9423273213
 20
14.2645872904
 10
20.9480770198
 20
14.2596493652
 10
20.9537708681
 20
14.2542242088
 10
20.9594018863
 20
14.2483064975
 10
20.9649878312
 20
14.2418424076
 10
20.9705138976
 20
14.2348337519
 10
20.975962242
 20
14.22728193
 10
20.9813391891
 20
14.2191335112
 10
20.9866254231
 20
14.210386018
 10
20.991797916
 20
14.2010451524
 10
20.9968507117
 20
14.1910704159
 10
21.0017577561
 20
14.1804594776
 10
21.0064928545
 20
14.1692170615
 10
21.0110427151
 20
14.1573136121
 10
21.0153726991
 20
14.1447533761
 10
21.0194535949
 20
14.1315328663
 10
21.0232696488
 20
14.117611244
 10
21.0267744162
 20
14.1030064435
 10
21.0299324047
 20
14.0876988738
 10
21.0327231105
 20
14.0715918968
 10
21.0350892493
 20
14.0546564477
 10
21.0369664233
 20
14.0369162429
 10
21.0382966292
 20
14.0183533056
 10
21.0390058028
 20
13.99879662
 10
21.0390976975
 20
13.9887573929
  0
LINE
  5
47F
100
AcDbEntity
  8
RACCORDO
100
AcDbLine
 62
250
  6
CONTINUOUS
 10
-14.8934577857
 20
-9.8152401863
 11
-14.6759543123
 21
-9.7185580672
  0
LINE
  5
480
100
AcDbEntity
  8
ASSI
100
AcDbLine
 62
250
  6
CONTINUOUS
 10
-14.8934577857
 20
-9.8152401863
 11
-14.6759543123
 21
-9.7185580672
  0
LINE
  5
481
100
AcDbEntity
  8
RACCORDO
100
AcDbLine
 62
250
  6
CONTINUOUS
 10
-15.0015261774
 20
-9.7510139438
 11
-14.7791611632
 21
-9.6533668283
  0
LWPOLYLINE
  5
482
100
AcDbEntity
  8
ASSI
100
AcDbPolyline
 62
250
  6
CONTINUOUS
 90
3
 70
0
 10
-15.0015261774
 20
-9.7510139438
 10
-14.7791611632
 20
-9.6533668283
 10
-14.5438479921
 20
-9.5828476964
  0
LINE
  5
483
100
AcDbEntity
  8
ASSI
100
AcDbLine
 62
7
  6
CONTINUOUS
 10
-14.6942026011
 20
-9.9202412509
 11
-14.8329769315
 21
-9.9797813773
  0
LINE
  5
484
100
AcDbEntity
  8
RACCORDO
100
AcDbLine
 62
7
  6
CONTINUOUS
 10
-14.6977885302
 20
-9.9216156179
 11
-14.7999791186
 21
-9.9644131688
  0
LINE
  5
485
100
AcDbEntity
  8
DRAFT
100
AcDbLine
 62
7
  6
CONTINUOUS
 10
-14.7019458083
 20
-9.9232095566
 11
-14.146327103
 21
-9.7081321941
  0
LINE
  5
486
100
AcDbEntity
  8
ASSI
100
AcDbLine
 62
7
  6
CONTINUOUS
 10
-14.7019458083
 20
-9.9232095566
 11
-14.146327103
 21
-9.7081321941
  0
LINE
  5
487
100
AcDbEntity
  8
RACCORDO
100
AcDbLine
 62
7
  6
CONTINUOUS
 10
-14.697942556
 20
-9.9216653484
 11
-14.7019448345
 21
-9.9232091797
  0
LINE
  5
488
100
AcDbEntity
  8
RACCORDO
100
AcDbLine
 62
250
  6
CONTINUOUS
 10
-14.6439331956
 20
-10.0117813975
 11
-14.8101704033
 21
-10.0753154847
  0
LINE
  5
489
100
AcDbEntity
  8
ASSI
100
AcDbLine
 62
250
  6
CONTINUOUS
 10
-14.6439331956
 20
-10.0117813975
 11
-14.8101704033
 21
-10.0753154847
  0
LINE
  5
48A
100
AcDbEntity
  8
RACCORDO
100
AcDbLine
 62
250
  6
CONTINUOUS
 10
-12.6456588251
 20
-9.9954865758
 11
-12.6911271728
 21
-10.0128632138
  0
LINE
  5
48B
100
AcDbEntity
  8
ASSI
100
AcDbLine
 62
250
  6
CONTINUOUS
 10
-12.6456588251
 20
-9.9954865758
 11
-12.8197207945
 21
-10.0619950409
  0
LINE
  5
48C
100
AcDbEntity
  8
RACCORDO
100
AcDbLine
 62
250
  6
CONTINUOUS
 10
-12.6911271728
 20
-10.0128632138
 11
-12.884017604
 21
-10.0865609539
  0
LINE
  5
48D
100
AcDbEntity
  8
ASSI
100
AcDbLine
 62
250
  6
CONTINUOUS
 10
-12.8197207945
 20
-10.0619950409
 11
-12.884017604
 21
-10.0865609539
  0
LWPOLYLINE
  5
48E
100
AcDbEntity
  8
218_STAMPATO
100
AcDbPolyline
 62
250
  6
CONTINUOUS
 90
56
 70
0
 10
20.8759875384
 20
2.415797075
 10
20.8830537689
 20
2.418332604
 10
20.8901835723
 20
2.4206389719
 10
20.897375987
 20
2.4227175214
 10
20.9046115014
 20
2.4245833279
 10
20.911907396
 20
2.4262242991
 10
20.9193173327
 20
2.4276017314
 10
20.9268662299
 20
2.4287275999
 10
20.9345250967
 20
2.4295951445
 10
20.942265679
 20
2.4301388256
 10
20.9501028683
 20
2.430356837
 10
20.9580154353
 20
2.4302587392
 10
20.9659201259
 20
2.4297968815
 10
20.9737969853
 20
2.4289684
 10
20.9816580043
 20
2.427785541
 10
20.9894672748
 20
2.4262238425
 10
20.9972031293
 20
2.4242933711
 10
21.0048774796
 20
2.4219954358
 10
21.0125034743
 20
2.4192939448
 10
21.0200749352
 20
2.4162042801
 10
21.0275848136
 20
2.4127266554
 10
21.0350423633
 20
2.4088053198
 10
21.0424546412
 20
2.4044464123
 10
21.0497960108
 20
2.3996660559
 10
21.0570240412
 20
2.3944266304
 10
21.0641292814
 20
2.388739241
 10
21.0710984641
 20
2.3826204929
 10
21.0778815366
 20
2.3760433083
 10
21.0844562767
 20
2.3690407299
 10
21.0908185976
 20
2.3616126797
 10
21.0969418501
 20
2.3536871813
 10
21.1028125905
 20
2.3453062422
 10
21.1084093257
 20
2.3364730791
 10
21.1136850575
 20
2.3270681316
 10
21.1186314269
 20
2.3171331041
 10
21.1232070112
 20
2.3066929984
 10
21.1273036456
 20
2.2956183899
 10
21.1309084644
 20
2.2839199134
 10
21.1339652434
 20
2.2716833537
 10
21.1362951065
 20
2.2588999512
 10
21.137856054
 20
2.2455559532
 10
21.1386163254
 20
2.2317746017
 10
21.1384268871
 20
2.2177333344
 10
21.1372377083
 20
2.2034506356
 10
21.1350530778
 20
2.1889854122
 10
21.1318350782
 20
2.1745340937
 10
21.127541928
 20
2.1600818853
 10
21.122200448
 20
2.145680646
 10
21.1159101491
 20
2.1315755237
 10
21.1087038249
 20
2.1178151857
 10
21.100575587
 20
2.104324081
 10
21.0915864676
 20
2.0911306613
 10
21.0817440104
 20
2.0782170959
 10
21.0710640742
 20
2.0655772895
 10
21.0596232712
 20
2.0532519053
 10
21.0474429803
 20
2.041232663
  0
LWPOLYLINE
  5
48F
100
AcDbEntity
  8
DRAFT
100
AcDbPolyline
 62
7
  6
CONTINUOUS
 90
5
 70
0
 10
-14.1463225992
 20
-9.7081442922
 10
-14.0569129865
 20
-9.6760679382
 10
-13.9489498895
 20
-9.6439023726
 10
-13.8387987301
 20
-9.6180393
 10
-13.8027204538
 20
-9.6117673823
  0
LWPOLYLINE
  5
490
100
AcDbEntity
  8
ASSI
100
AcDbPolyline
 62
7
  6
CONTINUOUS
 90
3
 70
0
 10
-14.1463225992
 20
-9.7081442922
 10
-14.0569129865
 20
-9.6760679382
 10
-13.9489498895
 20
-9.6439023726
  0
LINE
  5
491
100
AcDbEntity
  8
ASSI
100
AcDbLine
 62
250
  6
CONTINUOUS
 10
-14.6075475995
 20
-9.8896289007
 11
-14.6943524982
 21
-9.9202897529
  0
LINE
  5
492
100
AcDbEntity
  8
RACCORDO
100
AcDbLine
 62
250
  6
CONTINUOUS
 10
-14.6759543123
 20
-9.7185580672
 11
-14.6174206121
 21
-9.6979209457
  0
LINE
  5
493
100
AcDbEntity
  8
ASSI
100
AcDbLine
 62
250
  6
CONTINUOUS
 10
-14.6759543123
 20
-9.7185580672
 11
-14.6174206121
 21
-9.6979209457
  0
LINE
  5
494
100
AcDbEntity
  8
ASSI
100
AcDbLine
 62
7
  6
CONTINUOUS
 10
-14.6174206121
 20
-9.6979209457
 11
-14.6109972293
 21
-9.6957865574
  0
LINE
  5
495
100
AcDbEntity
  8
RACCORDO
100
AcDbLine
 62
250
  6
CONTINUOUS
 10
-14.7791611632
 20
-9.6533668283
 11
-14.5438479921
 21
-9.5828476964
  0
LWPOLYLINE
  5
496
100
AcDbEntity
  8
INCISIONI_LASER
100
AcDbPolyline
 62
250
  6
CONTINUOUS
 90
85
 70
0
 10
-9.3202460033
 20
10.6442591921
 10
-9.2632442027
 20
10.6142699097
 10
-9.2078136649
 20
10.5821381658
 10
-9.1537978437
 20
10.5478586943
 10
-9.1010401928
 20
10.5114262292
 10
-9.0493841661
 20
10.4728355045
 10
-8.9986732173
 20
10.4320812541
 10
-8.9487833672
 20
10.389160638
 10
-8.8997209036
 20
10.3440805198
 10
-8.8515246814
 20
10.2968501889
 10
-8.8042335553
 20
10.2474789349
 10
-8.7578863802
 20
10.1959760472
 10
-8.7125220107
 20
10.1423508155
 10
-8.6681880495
 20
10.0866315068
 10
-8.6249670897
 20
10.0289222989
 10
-8.5829504721
 20
9.9693463471
 10
-8.5422295378
 20
9.908026807
 10
-8.5028956277
 20
9.8450868338
 10
-8.4650400825
 20
9.7806495829
 10
-8.4287446726
 20
9.714830754
 10
-8.3940528852
 20
9.647716223
 10
-8.3609986369
 20
9.5793844105
 10
-8.3296158444
 20
9.5099137366
 10
-8.2999384243
 20
9.4393826218
 10
-8.2720002931
 20
9.3678694863
 10
-8.2458358217
 20
9.2954587923
 10
-8.221481198
 20
9.2222591693
 10
-8.1989730642
 20
9.1483852888
 10
-8.1783480623
 20
9.073951822
 10
-8.1596428344
 20
8.9990734404
 10
-8.1428940228
 20
8.9238648153
 10
-8.1281342806
 20
8.8484389963
 10
-8.115380306
 20
8.7729025463
 10
-8.1046448082
 20
8.6973604062
 10
-8.0959404964
 20
8.6219175171
 10
-8.0892800799
 20
8.5466788199
 10
-8.0846762679
 20
8.4717492557
 10
-8.082139151
 20
8.3972340983
 10
-8.0816683455
 20
8.3232399532
 10
-8.0832608492
 20
8.2498737586
 10
-8.0869136596
 20
8.1772424526
 10
-8.0926237746
 20
8.1054529735
 10
-8.1003881918
 20
8.0346122595
 10
-8.1102004112
 20
7.9648256935
 10
-8.1220399422
 20
7.8961924366
 10
-8.1358827962
 20
7.8288100946
 10
-8.1517049848
 20
7.7627762732
 10
-8.1694825198
 20
7.6981885781
 10
-8.1891914125
 20
7.6351446151
 10
-8.210805569
 20
7.5737384073
 10
-8.2342904723
 20
7.5140496469
 10
-8.2596094999
 20
7.4561544435
 10
-8.2867260291
 20
7.4001289067
 10
-8.3156034373
 20
7.3460491459
 10
-8.346205102
 20
7.2939912709
 10
-8.3784910969
 20
7.2440289914
 10
-8.4124082816
 20
7.1962264186
 10
-8.447900212
 20
7.150645264
 10
-8.484910444
 20
7.1073472392
 10
-8.5233825335
 20
7.0663940556
 10
-8.5632600365
 20
7.0278474246
 10
-8.6044873412
 20
6.9917649894
 10
-8.647012166
 20
6.9581881187
 10
-8.6907830614
 20
6.9271541129
 10
-8.7357485782
 20
6.8987002725
 10
-8.7818572669
 20
6.8728638977
 10
-8.8290576782
 20
6.8496822891
 10
-8.8772876298
 20
6.8291890146
 10
-8.9264420075
 20
6.811402713
 10
-8.9764049639
 20
6.7963382907
 10
-9.0270606519
 20
6.7840106542
 10
-9.0782932243
 20
6.77443471
 10
-9.1299868338
 20
6.7676253644
 10
-9.18203958
 20
6.7635889622
 10
-9.2344053493
 20
6.762297601
 10
-9.287051975
 20
6.7637148168
 10
-9.3399472904
 20
6.7678041454
 10
-9.3930591288
 20
6.7745291228
 10
-9.4463553233
 20
6.7838532849
 10
-9.4998325825
 20
6.7957687192
 10
-9.5536031149
 20
6.8103817199
 10
-9.6078080044
 20
6.8278271329
 10
-9.6625883347
 20
6.8482398038
 10
-9.7180851896
 20
6.8717545785
 10
-9.7744396529
 20
6.8985063029
  0
LWPOLYLINE
  5
497
100
AcDbEntity
  8
ASSI
100
AcDbPolyline
 62
250
  6
CONTINUOUS
 90
85
 70
0
 10
-9.3202460033
 20
10.6442591921
 10
-9.2632442027
 20
10.6142699097
 10
-9.2078136649
 20
10.5821381658
 10
-9.1537978437
 20
10.5478586943
 10
-9.1010401928
 20
10.5114262292
 10
-9.0493841661
 20
10.4728355045
 10
-8.9986732173
 20
10.4320812541
 10
-8.9487833672
 20
10.389160638
 10
-8.8997209036
 20
10.3440805198
 10
-8.8515246814
 20
10.2968501889
 10
-8.8042335553
 20
10.2474789349
 10
-8.7578863802
 20
10.1959760472
 10
-8.7125220107
 20
10.1423508155
 10
-8.6681880495
 20
10.0866315068
 10
-8.6249670897
 20
10.0289222989
 10
-8.5829504721
 20
9.9693463471
 10
-8.5422295378
 20
9.908026807
 10
-8.5028956277
 20
9.8450868338
 10
-8.4650400825
 20
9.7806495829
 10
-8.4287446726
 20
9.714830754
 10
-8.3940528852
 20
9.647716223
 10
-8.3609986369
 20
9.5793844105
 10
-8.3296158444
 20
9.5099137366
 10
-8.2999384243
 20
9.4393826218
 10
-8.2720002931
 20
9.3678694863
 10
-8.2458358217
 20
9.2954587923
 10
-8.221481198
 20
9.2222591693
 10
-8.1989730642
 20
9.1483852888
 10
-8.1783480623
 20
9.073951822
 10
-8.1596428344
 20
8.9990734404
 10
-8.1428940228
 20
8.9238648153
 10
-8.1281342806
 20
8.8484389963
 10
-8.115380306
 20
8.7729025463
 10
-8.1046448082
 20
8.6973604062
 10
-8.0959404964
 20
8.6219175171
 10
-8.0892800799
 20
8.5466788199
 10
-8.0846762679
 20
8.4717492557
 10
-8.082139151
 20
8.3972340983
 10
-8.0816683455
 20
8.3232399532
 10
-8.0832608492
 20
8.2498737586
 10
-8.0869136596
 20
8.1772424526
 10
-8.0926237746
 20
8.1054529735
 10
-8.1003881918
 20
8.0346122595
 10
-8.1102004112
 20
7.9648256935
 10
-8.1220399422
 20
7.8961924366
 10
-8.1358827962
 20
7.8288100946
 10
-8.1517049848
 20
7.7627762732
 10
-8.1694825198
 20
7.6981885781
 10
-8.1891914125
 20
7.6351446151
 10
-8.210805569
 20
7.5737384073
 10
-8.2342904723
 20
7.5140496469
 10
-8.2596094999
 20
7.4561544435
 10
-8.2867260291
 20
7.4001289067
 10
-8.3156034373
 20
7.3460491459
 10
-8.346205102
 20
7.2939912709
 10
-8.3784910969
 20
7.2440289914
 10
-8.4124082816
 20
7.1962264186
 10
-8.447900212
 20
7.150645264
 10
-8.484910444
 20
7.1073472392
 10
-8.5233825335
 20
7.0663940556
 10
-8.5632600365
 20
7.0278474246
 10
-8.6044873412
 20
6.9917649894
 10
-8.647012166
 20
6.9581881187
 10
-8.6907830614
 20
6.9271541129
 10
-8.7357485782
 20
6.8987002725
 10
-8.7818572669
 20
6.8728638977
 10
-8.8290576782
 20
6.8496822891
 10
-8.8772876298
 20
6.8291890146
 10
-8.9264420075
 20
6.811402713
 10
-8.9764049639
 20
6.7963382907
 10
-9.0270606519
 20
6.7840106542
 10
-9.0782932243
 20
6.77443471
 10
-9.1299868338
 20
6.7676253644
 10
-9.18203958
 20
6.7635889622
 10
-9.2344053493
 20
6.762297601
 10
-9.287051975
 20
6.7637148168
 10
-9.3399472904
 20
6.7678041454
 10
-9.3930591288
 20
6.7745291228
 10
-9.4463553233
 20
6.7838532849
 10
-9.4998325825
 20
6.7957687192
 10
-9.5536031149
 20
6.8103817199
 10
-9.6078080044
 20
6.8278271329
 10
-9.6625883347
 20
6.8482398038
 10
-9.7180851896
 20
6.8717545785
 10
-9.7744396529
 20
6.8985063029
  0
LWPOLYLINE
  5
498
100
AcDbEntity
  8
268
100
AcDbPolyline
 62
7
  6
CONTINUOUS
 90
31
 70
0
 10
5.4491574954
 20
15.8187095387
 10
5.4488178279
 20
15.8347425707
 10
5.4478013904
 20
15.85107114
 10
5.4461106571
 20
15.8676503432
 10
5.4437496526
 20
15.8844344428
 10
5.4407248409
 20
15.9013774368
 10
5.4370451085
 20
15.9184331851
 10
5.4327202554
 20
15.9355548038
 10
5.4277618256
 20
15.9526952146
 10
5.422183975
 20
15.9698077194
 10
5.4160017308
 20
15.9868452892
 10
5.4092317405
 20
16.0037610814
 10
5.4018930821
 20
16.020508989
 10
5.3940056401
 20
16.0370429961
 10
5.3855907562
 20
16.0533176488
 10
5.3766719611
 20
16.0692885671
 10
5.3672735074
 20
16.0849118812
 10
5.3574209056
 20
16.1001446451
 10
5.3471415603
 20
16.1149452994
 10
5.3364634948
 20
16.1292732006
 10
5.325415761
 20
16.1430889687
 10
5.3140289618
 20
16.1563548887
 10
5.302334202
 20
16.1690345448
 10
5.2903633589
 20
16.1810930926
 10
5.2781494799
 20
16.1924975914
 10
5.2657259854
 20
16.2032167496
 10
5.2531267931
 20
16.213221117
 10
5.2403865807
 20
16.2224833384
 10
5.2275402846
 20
16.2309780296
 10
5.2146230042
 20
16.2386818472
 10
5.201670122
 20
16.2455736586
  0
LINE
  5
499
100
AcDbEntity
  8
715
100
AcDbLine
 62
7
  6
CONTINUOUS
 10
5.5935203713
 20
23.9280009413
 11
5.5935203713
 21
23.8049452786
  0
LINE
  5
49A
100
AcDbEntity
  8
268
100
AcDbLine
 62
7
  6
CONTINUOUS
 10
5.76324172
 20
18.1836566421
 11
5.76324172
 21
17.9227276657
  0
LINE
  5
49B
100
AcDbEntity
  8
268
100
AcDbLine
 62
7
  6
CONTINUOUS
 10
5.76324172
 20
-23.3768764737
 11
5.76324172
 21
-23.6378054501
  0
LINE
  5
49C
100
AcDbEntity
  8
715
100
AcDbLine
 62
7
  6
CONTINUOUS
 10
5.8449994518
 20
24.4003606454
 11
5.8449994518
 21
23.7974472637
  0
LINE
  5
49D
100
AcDbEntity
  8
218_STAMPATO
100
AcDbLine
 62
7
  6
CONTINUOUS
 10
6.0501982594
 20
25.432882135
 11
6.0501982594
 21
25.1204532751
  0
LINE
  5
49E
100
AcDbEntity
  8
268
100
AcDbLine
 62
250
  6
CONTINUOUS
 10
6.0904594176
 20
22.4207665341
 11
6.0904594176
 21
21.1889279557
  0
LINE
  5
49F
100
AcDbEntity
  8
218_STAMPATO
100
AcDbLine
 62
7
  6
CONTINUOUS
 10
6.1562642766
 20
12.3805546219
 11
6.1562642766
 21
-18.2277259865
  0
LINE
  5
4A0
100
AcDbEntity
  8
268
100
AcDbLine
 62
7
  6
CONTINUOUS
 10
6.1562642766
 20
-22.0118766046
 11
6.1562642766
 21
16.1647052401
  0
LINE
  5
4A1
100
AcDbEntity
  8
268
100
AcDbLine
 62
7
  6
CONTINUOUS
 10
6.177096846
 20
22.5251536827
 11
6.177096846
 21
21.2927850769
  0
LINE
  5
4A2
100
AcDbEntity
  8
715
100
AcDbLine
 62
7
  6
CONTINUOUS
 10
6.2947441132
 20
24.2786128122
 11
6.2947441132
 21
23.8073721079
  0
LWPOLYLINE
  5
4A3
100
AcDbEntity
  8
268
100
AcDbPolyline
 62
7
  6
CONTINUOUS
 90
18
 70
0
 10
5.4491574954
 20
-22.3729876844
 10
5.4488188509
 20
-22.3886815605
 10
5.4478022075
 20
-22.4039935892
 10
5.4461106571
 20
-22.4188816506
 10
5.4437494399
 20
-22.4333046394
 10
5.4407250284
 20
-22.4472230218
 10
5.4370451085
 20
-22.460598944
 10
5.4327200447
 20
-22.4733956042
 10
5.427761995
 20
-22.4855777753
 10
5.422183975
 20
-22.4971123447
 10
5.4160015271
 20
-22.5079675685
 10
5.4092318877
 20
-22.5181135458
 10
5.4018930821
 20
-22.5275227214
 10
5.3940054486
 20
-22.5361691908
 10
5.3855908776
 20
-22.5440291161
 10
5.3766719611
 20
-22.5510811786
 10
5.3672733327
 20
-22.5573059515
 10
5.3591887019
 20
-22.5618002258
  0
LINE
  5
4A4
100
AcDbEntity
  8
ASSI
100
AcDbLine
 62
250
  6
CONTINUOUS
 10
-7.5104952909
 20
-18.8765879549
 11
-7.6697650436
 21
-19.0778858587
  0
LWPOLYLINE
  5
4A5
100
AcDbEntity
  8
RACCORDO
100
AcDbPolyline
 62
250
  6
CONTINUOUS
 90
4
 70
0
 10
-7.9935834073
 20
-18.8539556618
 10
-7.8710452328
 20
-18.7131792574
 10
-7.7585818959
 20
-18.5580821574
 10
-7.6560422866
 20
-18.3888388579
  0
LWPOLYLINE
  5
4A6
100
AcDbEntity
  8
ASSI
100
AcDbPolyline
 62
250
  6
CONTINUOUS
 90
3
 70
0
 10
-7.9935834081
 20
-18.8539556626
 10
-7.8710452335
 20
-18.7131792583
 10
-7.7585818966
 20
-18.5580821585
  0
LWPOLYLINE
  5
4A7
100
AcDbEntity
  8
ASSI
100
AcDbPolyline
 62
250
  6
CONTINUOUS
 90
3
 70
0
 10
-7.8730744653
 20
-18.9075042601
 10
-7.7472926768
 20
-18.7630552524
 10
-7.6317157907
 20
-18.6040948041
  0
LINE
  5
4A8
100
AcDbEntity
  8
ASSI
100
AcDbLine
 62
7
  6
CONTINUOUS
 10
-7.5651598383
 20
-18.8491307217
 11
-7.8084041903
 21
-19.1191525882
  0
LINE
  5
4A9
100
AcDbEntity
  8
ASSI
100
AcDbLine
 62
250
  6
CONTINUOUS
 10
-9.8498723108
 20
-11.5469192803
 11
-9.9141691231
 21
-11.5714851944
  0
LINE
  5
4AA
100
AcDbEntity
  8
ASSI
100
AcDbLine
 62
250
  6
CONTINUOUS
 10
-9.688153975
 20
-11.4851347732
 11
-9.8498723108
 21
-11.5469192803
  0
LINE
  5
4AB
100
AcDbEntity
  8
RACCORDO
100
AcDbLine
 62
250
  6
CONTINUOUS
 10
-9.688153975
 20
-11.4851347732
 11
-9.9141691231
 21
-11.5714851944
  0
LWPOLYLINE
  5
4AC
100
AcDbEntity
  8
INCISIONI_LASER
100
AcDbPolyline
 62
250
  6
CONTINUOUS
 90
83
 70
0
 10
-9.2817659836
 20
10.9479233873
 10
-9.2247030201
 20
10.9180981334
 10
-9.1688933873
 20
10.8863435831
 10
-9.1142118277
 20
10.8526444813
 10
-9.0605330839
 20
10.8169855729
 10
-9.0077318982
 20
10.7793516027
 10
-8.9556830134
 20
10.7397273157
 10
-8.894085384
 20
10.6895341727
 10
-8.8334403993
 20
10.6364548383
 10
-8.7737977618
 20
10.5804911445
 10
-8.7152071738
 20
10.5216449234
 10
-8.6577183378
 20
10.4599180071
 10
-8.6013962045
 20
10.3953393334
 10
-8.5463667175
 20
10.3280462621
 10
-8.4927710689
 20
10.258203259
 10
-8.4407504508
 20
10.1859747897
 10
-8.3904460551
 20
10.1115253197
 10
-8.3419848223
 20
10.035010385
 10
-8.2954366868
 20
9.9565498035
 10
-8.2508573317
 20
9.8762544631
 10
-8.2083024398
 20
9.794235252
 10
-8.1678276941
 20
9.7106030583
 10
-8.1294892115
 20
9.6254745281
 10
-8.0933448447
 20
9.5389893403
 10
-8.0594528806
 20
9.4512929314
 10
-8.0278716058
 20
9.3625307384
 10
-7.9986593071
 20
9.2728481978
 10
-7.9718700559
 20
9.1823935022
 10
-7.9475410622
 20
9.0913258661
 10
-7.9257053208
 20
8.9998072597
 10
-7.9063958261
 20
8.9079996531
 10
-7.889645573
 20
8.8160650167
 10
-7.8754824044
 20
8.7241593012
 10
-7.8639135562
 20
8.632414381
 10
-7.8549411127
 20
8.5409561107
 10
-7.8485671581
 20
8.4499103453
 10
-7.8447937768
 20
8.3594029397
 10
-7.8436230529
 20
8.2695597488
 10
-7.8450570707
 20
8.1805066274
 10
-7.8490979145
 20
8.0923694304
 10
-7.8557476685
 20
8.0052740127
 10
-7.865008417
 20
7.9193462292
 10
-7.8768765523
 20
7.8347112662
 10
-7.8913256992
 20
7.7514916364
 10
-7.9083237909
 20
7.6698091839
 10
-7.9278387602
 20
7.5897857527
 10
-7.94983854
 20
7.511543187
 10
-7.9742910634
 20
7.4352033309
 10
-8.0011642634
 20
7.3608880284
 10
-8.0304260728
 20
7.2887191238
 10
-8.0620444247
 20
7.2188184611
 10
-8.095987252
 20
7.1513078844
 10
-8.1322163492
 20
7.0863055668
 10
-8.1706689568
 20
7.0239149971
 10
-8.2112761768
 20
6.9642359934
 10
-8.2539691113
 20
6.9073683733
 10
-8.2986788622
 20
6.8534119549
 10
-8.345331841
 20
6.8024620387
 10
-8.3938356969
 20
6.7545958559
 10
-8.4440933882
 20
6.7098861206
 10
-8.4960078736
 20
6.6684055467
 10
-8.5494821116
 20
6.6302268483
 10
-8.6044239795
 20
6.5954153092
 10
-8.6607610298
 20
6.5640064937
 10
-8.7184257335
 20
6.5360285356
 10
-8.7773505618
 20
6.5115095691
 10
-8.8374679861
 20
6.4904777282
 10
-8.8986954451
 20
6.4729576392
 10
-8.9608902492
 20
6.4589598978
 10
-9.0238946764
 20
6.4484915916
 10
-9.0875510047
 20
6.4415598087
 10
-9.1517015121
 20
6.4381716369
 10
-9.2162071934
 20
6.4383248999
 10
-9.2810039105
 20
6.4419803651
 10
-9.3460462417
 20
6.449089536
 10
-9.4112887657
 20
6.4596039158
 10
-9.476686061
 20
6.473475008
 10
-9.5312926307
 20
6.4875847547
 10
-9.5860890415
 20
6.5040918246
 10
-9.6411891971
 20
6.5230961687
 10
-9.6967070012
 20
6.544697738
 10
-9.7527563575
 20
6.5689964838
 10
-9.8094511698
 20
6.5960923571
  0
LWPOLYLINE
  5
4AD
100
AcDbEntity
  8
ASSI
100
AcDbPolyline
 62
250
  6
CONTINUOUS
 90
83
 70
0
 10
-9.2817659836
 20
10.9479233873
 10
-9.2247030201
 20
10.9180981334
 10
-9.1688933873
 20
10.8863435831
 10
-9.1142118277
 20
10.8526444813
 10
-9.0605330839
 20
10.8169855729
 10
-9.0077318982
 20
10.7793516027
 10
-8.9556830134
 20
10.7397273157
 10
-8.894085384
 20
10.6895341727
 10
-8.8334403993
 20
10.6364548383
 10
-8.7737977618
 20
10.5804911445
 10
-8.7152071738
 20
10.5216449234
 10
-8.6577183378
 20
10.4599180071
 10
-8.6013962045
 20
10.3953393334
 10
-8.5463667175
 20
10.3280462621
 10
-8.4927710689
 20
10.258203259
 10
-8.4407504508
 20
10.1859747897
 10
-8.3904460551
 20
10.1115253197
 10
-8.3419848223
 20
10.035010385
 10
-8.2954366868
 20
9.9565498035
 10
-8.2508573317
 20
9.8762544631
 10
-8.2083024398
 20
9.794235252
 10
-8.1678276941
 20
9.7106030583
 10
-8.1294892115
 20
9.6254745281
 10
-8.0933448447
 20
9.5389893403
 10
-8.0594528806
 20
9.4512929314
 10
-8.0278716058
 20
9.3625307384
 10
-7.9986593071
 20
9.2728481978
 10
-7.9718700559
 20
9.1823935022
 10
-7.9475410622
 20
9.0913258661
 10
-7.9257053208
 20
8.9998072597
 10
-7.9063958261
 20
8.9079996531
 10
-7.889645573
 20
8.8160650167
 10
-7.8754824044
 20
8.7241593012
 10
-7.8639135562
 20
8.632414381
 10
-7.8549411127
 20
8.5409561107
 10
-7.8485671581
 20
8.4499103453
 10
-7.8447937768
 20
8.3594029397
 10
-7.8436230529
 20
8.2695597488
 10
-7.8450570707
 20
8.1805066274
 10
-7.8490979145
 20
8.0923694304
 10
-7.8557476685
 20
8.0052740127
 10
-7.865008417
 20
7.9193462292
 10
-7.8768765523
 20
7.8347112662
 10
-7.8913256992
 20
7.7514916364
 10
-7.9083237909
 20
7.6698091839
 10
-7.9278387602
 20
7.5897857527
 10
-7.94983854
 20
7.511543187
 10
-7.9742910634
 20
7.4352033309
 10
-8.0011642634
 20
7.3608880284
 10
-8.0304260728
 20
7.2887191238
 10
-8.0620444247
 20
7.2188184611
 10
-8.095987252
 20
7.1513078844
 10
-8.1322163492
 20
7.0863055668
 10
-8.1706689568
 20
7.0239149971
 10
-8.2112761768
 20
6.9642359934
 10
-8.2539691113
 20
6.9073683733
 10
-8.2986788622
 20
6.8534119549
 10
-8.345331841
 20
6.8024620387
 10
-8.3938356969
 20
6.7545958559
 10
-8.4440933882
 20
6.7098861206
 10
-8.4960078736
 20
6.6684055467
 10
-8.5494821116
 20
6.6302268483
 10
-8.6044239795
 20
6.5954153092
 10
-8.6607610298
 20
6.5640064937
 10
-8.7184257335
 20
6.5360285356
 10
-8.7773505618
 20
6.5115095691
 10
-8.8374679861
 20
6.4904777282
 10
-8.8986954451
 20
6.4729576392
 10
-8.9608902492
 20
6.4589598978
 10
-9.0238946764
 20
6.4484915916
 10
-9.0875510047
 20
6.4415598087
 10
-9.1517015121
 20
6.4381716369
 10
-9.2162071934
 20
6.4383248999
 10
-9.2810039105
 20
6.4419803651
 10
-9.3460462417
 20
6.449089536
 10
-9.4112887657
 20
6.4596039158
 10
-9.476686061
 20
6.473475008
 10
-9.5312926307
 20
6.4875847547
 10
-9.5860890415
 20
6.5040918246
 10
-9.6411891971
 20
6.5230961687
 10
-9.6967070012
 20
6.544697738
 10
-9.7527563575
 20
6.5689964838
 10
-9.8094511698
 20
6.5960923571
  0
LWPOLYLINE
  5
4AE
100
AcDbEntity
  8
INCISIONI_LASER
100
AcDbPolyline
 62
250
  6
CONTINUOUS
 90
85
 70
0
 10
-9.2998007519
 20
10.8058460506
 10
-9.2380284449
 20
10.7733499599
 10
-9.1779541695
 20
10.7385350497
 10
-9.1194076465
 20
10.7013942394
 10
-9.0622185968
 20
10.6619204484
 10
-9.0062167415
 20
10.6201065961
 10
-8.9512318015
 20
10.5759456019
 10
-8.8971288381
 20
10.5294328851
 10
-8.8439142738
 20
10.4805738655
 10
-8.7916298715
 20
10.4293764629
 10
-8.7403173942
 20
10.3758485968
 10
-8.6900186047
 20
10.3199981871
 10
-8.6407752659
 20
10.2618331534
 10
-8.5926390014
 20
10.2013825067
 10
-8.5457008768
 20
10.1387596227
 10
-8.5000618188
 20
10.0740989684
 10
-8.4558227536
 20
10.0075350106
 10
-8.4130846078
 20
9.9392022164
 10
-8.3719483077
 20
9.8692350525
 10
-8.3325041904
 20
9.7977600393
 10
-8.2948002349
 20
9.7248719096
 10
-8.2588738308
 20
9.6506574498
 10
-8.2247623677
 20
9.5752034461
 10
-8.1925032353
 20
9.4985966847
 10
-8.1621338232
 20
9.4209239518
 10
-8.1336918382
 20
9.3422781527
 10
-8.1072162565
 20
9.2627766692
 10
-8.0827463713
 20
9.182543002
 10
-8.060321476
 20
9.1017006518
 10
-8.0399808639
 20
9.0203731193
 10
-8.0217638283
 20
8.9386839052
 10
-8.0057054643
 20
8.8567548876
 10
-7.9918240743
 20
8.7747014525
 10
-7.9801337626
 20
8.6926373635
 10
-7.9706486333
 20
8.610676384
 10
-7.9633827906
 20
8.5289322774
 10
-7.9583503388
 20
8.4475188071
 10
-7.955562517
 20
8.3665502598
 10
-7.9550191036
 20
8.2861430154
 10
-7.9567170123
 20
8.2064139769
 10
-7.9606531565
 20
8.1274800475
 10
-7.9668244497
 20
8.0494581303
 10
-7.9752278053
 20
7.9724651284
 10
-7.9858563593
 20
7.8966161038
 10
-7.9986881369
 20
7.8220187544
 10
-8.0136973861
 20
7.748778937
 10
-8.0308583545
 20
7.6770025084
 10
-8.0501452899
 20
7.6067953253
 10
-8.0715324402
 20
7.5382632446
 10
-8.0949917102
 20
7.471508412
 10
-8.1204856331
 20
7.4066181289
 10
-8.1479743992
 20
7.3436759858
 10
-8.1774181989
 20
7.282765573
 10
-8.2087772225
 20
7.2239704811
 10
-8.2420116603
 20
7.1673743004
 10
-8.2770779822
 20
7.1130579227
 10
-8.3139177768
 20
7.0610914452
 10
-8.352468912
 20
7.0115422667
 10
-8.3926692559
 20
6.9644777858
 10
-8.4344566766
 20
6.919965401
 10
-8.4777690422
 20
6.8780725111
 10
-8.5225453283
 20
6.8388618959
 10
-8.5687289405
 20
6.8023778603
 10
-8.616264392
 20
6.7686600905
 10
-8.665096196
 20
6.7377482725
 10
-8.7151688659
 20
6.7096820925
 10
-8.7664269147
 20
6.6845012366
 10
-8.818803135
 20
6.6622414625
 10
-8.8721834368
 20
6.6429228149
 10
-8.9264420094
 20
6.62656141
 10
-8.9814530421
 20
6.6131733639
 10
-9.037090724
 20
6.6027747928
 10
-9.0932292447
 20
6.5953818131
 10
-9.1497579298
 20
6.5910012169
 10
-9.2066266508
 20
6.5896025007
 10
-9.2638004159
 20
6.5911458372
 10
-9.3212442331
 20
6.5955913988
 10
-9.3789231105
 20
6.6028993582
 10
-9.4368020561
 20
6.6130298879
 10
-9.4948774951
 20
6.625974201
 10
-9.5532715219
 20
6.6418476733
 10
-9.6121376479
 20
6.6607967212
 10
-9.6716293846
 20
6.6829677608
 10
-9.7319002434
 20
6.7085072085
 10
-9.7931037358
 20
6.7375614807
  0
LWPOLYLINE
  5
4AF
100
AcDbEntity
  8
ASSI
100
AcDbPolyline
 62
250
  6
CONTINUOUS
 90
85
 70
0
 10
-9.2998007519
 20
10.8058460506
 10
-9.2380284449
 20
10.7733499599
 10
-9.1779541695
 20
10.7385350497
 10
-9.1194076465
 20
10.7013942394
 10
-9.0622185968
 20
10.6619204484
 10
-9.0062167415
 20
10.6201065961
 10
-8.9512318015
 20
10.5759456019
 10
-8.8971288381
 20
10.5294328851
 10
-8.8439142738
 20
10.4805738655
 10
-8.7916298715
 20
10.4293764629
 10
-8.7403173942
 20
10.3758485968
 10
-8.6900186047
 20
10.3199981871
 10
-8.6407752659
 20
10.2618331534
 10
-8.5926390014
 20
10.2013825067
 10
-8.5457008768
 20
10.1387596227
 10
-8.5000618188
 20
10.0740989684
 10
-8.4558227536
 20
10.0075350106
 10
-8.4130846078
 20
9.9392022164
 10
-8.3719483077
 20
9.8692350525
 10
-8.3325041904
 20
9.7977600393
 10
-8.2948002349
 20
9.7248719096
 10
-8.2588738308
 20
9.6506574498
 10
-8.2247623677
 20
9.5752034461
 10
-8.1925032353
 20
9.4985966847
 10
-8.1621338232
 20
9.4209239518
 10
-8.1336918382
 20
9.3422781527
 10
-8.1072162565
 20
9.2627766692
 10
-8.0827463713
 20
9.182543002
 10
-8.060321476
 20
9.1017006518
 10
-8.0399808639
 20
9.0203731193
 10
-8.0217638283
 20
8.9386839052
 10
-8.0057054643
 20
8.8567548876
 10
-7.9918240743
 20
8.7747014525
 10
-7.9801337626
 20
8.6926373635
 10
-7.9706486333
 20
8.610676384
 10
-7.9633827906
 20
8.5289322774
 10
-7.9583503388
 20
8.4475188071
 10
-7.955562517
 20
8.3665502598
 10
-7.9550191036
 20
8.2861430154
 10
-7.9567170123
 20
8.2064139769
 10
-7.9606531565
 20
8.1274800475
 10
-7.9668244497
 20
8.0494581303
 10
-7.9752278053
 20
7.9724651284
 10
-7.9858563593
 20
7.8966161038
 10
-7.9986881369
 20
7.8220187544
 10
-8.0136973861
 20
7.748778937
 10
-8.0308583545
 20
7.6770025084
 10
-8.0501452899
 20
7.6067953253
 10
-8.0715324402
 20
7.5382632446
 10
-8.0949917102
 20
7.471508412
 10
-8.1204856331
 20
7.4066181289
 10
-8.1479743992
 20
7.3436759858
 10
-8.1774181989
 20
7.282765573
 10
-8.2087772225
 20
7.2239704811
 10
-8.2420116603
 20
7.1673743004
 10
-8.2770779822
 20
7.1130579227
 10
-8.3139177768
 20
7.0610914452
 10
-8.352468912
 20
7.0115422667
 10
-8.3926692559
 20
6.9644777858
 10
-8.4344566766
 20
6.919965401
 10
-8.4777690422
 20
6.8780725111
 10
-8.5225453283
 20
6.8388618959
 10
-8.5687289405
 20
6.8023778603
 10
-8.616264392
 20
6.7686600905
 10
-8.665096196
 20
6.7377482725
 10
-8.7151688659
 20
6.7096820925
 10
-8.7664269147
 20
6.6845012366
 10
-8.818803135
 20
6.6622414625
 10
-8.8721834368
 20
6.6429228149
 10
-8.9264420094
 20
6.62656141
 10
-8.9814530421
 20
6.6131733639
 10
-9.037090724
 20
6.6027747928
 10
-9.0932292447
 20
6.5953818131
 10
-9.1497579298
 20
6.5910012169
 10
-9.2066266508
 20
6.5896025007
 10
-9.2638004159
 20
6.5911458372
 10
-9.3212442331
 20
6.5955913988
 10
-9.3789231105
 20
6.6028993582
 10
-9.4368020561
 20
6.6130298879
 10
-9.4948774951
 20
6.625974201
 10
-9.5532715219
 20
6.6418476733
 10
-9.6121376479
 20
6.6607967212
 10
-9.6716293846
 20
6.6829677608
 10
-9.7319002434
 20
6.7085072085
 10
-9.7931037358
 20
6.7375614807
  0
LINE
  5
4B0
100
AcDbEntity
  8
218_STAMPATO
100
AcDbLine
 62
7
  6
CONTINUOUS
 10
8.1344195935
 20
27.5948528488
 11
8.1344195935
 21
27.267886801
  0
LWPOLYLINE
  5
4B1
100
AcDbEntity
  8
218_STAMPATO
100
AcDbPolyline
 62
7
  6
CONTINUOUS
 90
16
 70
0
 10
20.7584374982
 20
14.229583754
 10
20.7649855682
 20
14.2400004885
 10
20.771727057
 20
14.2502755078
 10
20.7786619645
 20
14.260408812
 10
20.7857912721
 20
14.2704154495
 10
20.7931139985
 20
14.2802803719
 10
20.8006271994
 20
14.2899584335
 10
20.8083365423
 20
14.2994498282
 10
20.8162363599
 20
14.3087543621
 10
20.8243067051
 20
14.3178263089
 10
20.8325514028
 20
14.3266628285
 10
20.8409666283
 20
14.3352667611
 10
20.8495209608
 20
14.3436009004
 10
20.8582039266
 20
14.3516528447
 10
20.8670259995
 20
14.3594349958
 10
20.8759871793
 20
14.3669473539
  0
LINE
  5
4B2
100
AcDbEntity
  8
RACCORDO
100
AcDbLine
 62
250
  6
CONTINUOUS
 10
-7.6697650436
 20
-19.0778858587
 11
-7.844663919
 21
-19.2532751433
  0
LINE
  5
4B3
100
AcDbEntity
  8
ASSI
100
AcDbLine
 62
250
  6
CONTINUOUS
 10
-7.6697650436
 20
-19.0778858587
 11
-7.844663919
 21
-19.2532751433
  0
LINE
  5
4B4
100
AcDbEntity
  8
RACCORDO
100
AcDbLine
 62
250
  6
CONTINUOUS
 10
-8.1260774408
 20
-18.9805992477
 11
-7.9935834073
 21
-18.8539556618
  0
LINE
  5
4B5
100
AcDbEntity
  8
ASSI
100
AcDbLine
 62
250
  6
CONTINUOUS
 10
-8.1260774416
 20
-18.9805992484
 11
-7.9935834081
 21
-18.8539556626
  0
LINE
  5
4B6
100
AcDbEntity
  8
ASSI
100
AcDbLine
 62
250
  6
CONTINUOUS
 10
-8.0084807203
 20
-19.0368091569
 11
-7.8730744653
 21
-18.9075042601
  0
LINE
  5
4B7
100
AcDbEntity
  8
RACCORDO
100
AcDbLine
 62
7
  6
CONTINUOUS
 10
-7.7520284478
 20
-19.0645457383
 11
-7.9433241994
 21
-19.2338743845
  0
LINE
  5
4B8
100
AcDbEntity
  8
RACCORDO
100
AcDbLine
 62
250
  6
CONTINUOUS
 10
-8.2668261868
 20
-19.0914998995
 11
-8.1260774408
 21
-18.9805992477
  0
LINE
  5
4B9
100
AcDbEntity
  8
ASSI
100
AcDbLine
 62
250
  6
CONTINUOUS
 10
-8.2668261877
 20
-19.0914999001
 11
-8.1260774416
 21
-18.9805992484
  0
LWPOLYLINE
  5
4BA
100
AcDbEntity
  8
RACCORDO
100
AcDbPolyline
 62
250
  6
CONTINUOUS
 90
4
 70
0
 10
-8.1530285293
 20
-19.150446286
 10
-8.0084807204
 20
-19.036809157
 10
-7.8730744654
 20
-18.9075042602
 10
-7.7472926769
 20
-18.7630552525
  0
LINE
  5
4BB
100
AcDbEntity
  8
ASSI
100
AcDbLine
 62
250
  6
CONTINUOUS
 10
-8.1530285292
 20
-19.1504462859
 11
-8.0084807203
 21
-19.0368091569
  0
LWPOLYLINE
  5
4BC
100
AcDbEntity
  8
218_STAMPATO
100
AcDbPolyline
 62
250
  6
CONTINUOUS
 90
105
 70
0
 10
21.9542744847
 20
2.6178571741
 10
21.9592819074
 20
2.6211149235
 10
21.9906762724
 20
2.6424252427
 10
22.0214323988
 20
2.6648499971
 10
22.0515368845
 20
2.6883794153
 10
22.0809766018
 20
2.7130032403
 10
22.109738676
 20
2.7387107076
 10
22.1378105204
 20
2.7654905671
 10
22.1651798608
 20
2.7933311051
 10
22.1918347663
 20
2.8222201809
 10
22.2177636251
 20
2.8521452096
 10
22.2429551312
 20
2.8830931475
 10
22.2673982659
 20
2.9150504628
 10
22.291082331
 20
2.9480031686
 10
22.3139969706
 20
2.9819368512
 10
22.3361321969
 20
3.0168367142
 10
22.3574783672
 20
3.0526875543
 10
22.3780261729
 20
3.0894737436
 10
22.3977666263
 20
3.1271791975
 10
22.4166910883
 20
3.1657874149
 10
22.4347912857
 20
3.2052815113
 10
22.4520593285
 20
3.2456442646
 10
22.4684876925
 20
3.2868580874
 10
22.484069212
 20
3.3289050096
 10
22.4987970725
 20
3.3717666491
 10
22.512664831
 20
3.4154242551
 10
22.5256664267
 20
3.459858741
 10
22.5377961908
 20
3.5050507257
 10
22.5490488357
 20
3.5509805085
 10
22.5594194512
 20
3.5976280552
 10
22.5689035033
 20
3.6449729783
 10
22.5774968452
 20
3.6929945778
 10
22.5851957229
 20
3.7416718684
 10
22.5919967784
 20
3.7909836108
 10
22.5978970451
 20
3.8409082939
 10
22.6028939471
 20
3.8914241303
 10
22.6069853008
 20
3.9425090514
 10
22.6101693184
 20
3.994140738
 10
22.6124446097
 20
4.046296639
 10
22.6138101818
 20
4.0989539867
 10
22.6142654387
 20
4.152089793
 10
22.6138101817
 20
4.2056808561
 10
22.6124446094
 20
4.259703776
 10
22.610169318
 20
4.3141349684
 10
22.6069853003
 20
4.3689506726
 10
22.6028939465
 20
4.4241269474
 10
22.5978970444
 20
4.4796396859
 10
22.5919967776
 20
4.5354646358
 10
22.5851957219
 20
4.5915774336
 10
22.5774968441
 20
4.647953602
 10
22.5689035021
 20
4.7045685434
 10
22.5594194499
 20
4.7613975187
 10
22.5490488343
 20
4.8184156809
 10
22.5377961893
 20
4.8755981086
 10
22.525666425
 20
4.9329198575
 10
22.5126648292
 20
4.9903559391
 10
22.4987970706
 20
5.0478813036
 10
22.48406921
 20
5.1054708036
 10
22.4684876904
 20
5.1630992454
 10
22.4520593263
 20
5.2207414323
 10
22.4347912833
 20
5.2783722284
 10
22.4166910858
 20
5.3359665222
 10
22.3977666237
 20
5.3934992016
 10
22.3780261702
 20
5.4509451088
 10
22.3574783644
 20
5.5082791038
 10
22.3361321941
 20
5.5654761142
 10
22.3139969676
 20
5.6225112036
 10
22.2910823279
 20
5.6793595258
 10
22.2673982627
 20
5.7359962966
 10
22.242955128
 20
5.7923967466
 10
22.2177636217
 20
5.8485361906
 10
22.1918347628
 20
5.9043900781
 10
22.1651798572
 20
5.9599340595
 10
22.1378105167
 20
6.0151439379
 10
22.1097386722
 20
6.0699956418
 10
22.0809765979
 20
6.1244651831
 10
22.0515368806
 20
6.1785287253
 10
22.0214323948
 20
6.2321626292
 10
21.9906762683
 20
6.2853435101
 10
21.9592819031
 20
6.3380481944
 10
21.9272629884
 20
6.3902536977
 10
21.8946335218
 20
6.441937194
 10
21.8614077772
 20
6.4930760744
 10
21.8276002797
 20
6.5436479851
 10
21.7932257759
 20
6.59363087
 10
21.7582992515
 20
6.6430029388
 10
21.722835942
 20
6.6917426526
 10
21.686851346
 20
6.7398287083
 10
21.6503611957
 20
6.7872400829
 10
21.6133814367
 20
6.8339560602
 10
21.5759282048
 20
6.8799562575
 10
21.5380178389
 20
6.9252206073
 10
21.4996668842
 20
6.9697293542
 10
21.4608920942
 20
7.0134630536
 10
21.4217104088
 20
7.0564025988
 10
21.3821389407
 20
7.0985292364
 10
21.3421949648
 20
7.1398245766
 10
21.3018959198
 20
7.1802705908
 10
21.2612594024
 20
7.2198496182
 10
21.2203031561
 20
7.2585443771
 10
21.1790450602
 20
7.2963379753
 10
21.1375031248
 20
7.3332139145
 10
21.0956954938
 20
7.369156088
 10
21.0536404336
 20
7.4041487925
 10
21.0390976978
 20
7.4158519925
  0
LINE
  5
4BD
100
AcDbEntity
  8
218_STAMPATO
100
AcDbLine
 62
7
  6
CONTINUOUS
 10
21.0390976978
 20
2.0259285551
 11
21.9542744844
 21
2.6178571739
  0
LINE
  5
4BE
100
AcDbEntity
  8
268
100
AcDbLine
 62
250
  6
CONTINUOUS
 10
2.109736849
 20
-8.1129863402
 11
2.1887953159
 21
-8.0741410707
  0
LINE
  5
4BF
100
AcDbEntity
  8
RACCORDO
100
AcDbLine
 62
250
  6
CONTINUOUS
 10
-1.6380509936
 20
11.7785666562
 11
-15.765322035
 21
18.842202177
  0
LINE
  5
4C0
100
AcDbEntity
  8
ASSI
100
AcDbLine
 62
250
  6
CONTINUOUS
 10
-1.6380509936
 20
11.7785666562
 11
-15.765322035
 21
18.842202177
  0
LWPOLYLINE
  5
4C1
100
AcDbEntity
  8
268
100
AcDbPolyline
 62
7
  6
CONTINUOUS
 90
4
 70
0
 10
10.9327028702
 20
-17.0584784279
 10
10.932468344
 20
-17.0566904331
 10
10.931327568
 20
-17.0537582074
 10
10.9292832364
 20
-17.0503788394
  0
LWPOLYLINE
  5
4C2
100
AcDbEntity
  8
268
100
AcDbPolyline
 62
7
  6
CONTINUOUS
 90
5
 70
0
 10
10.9327028713
 20
19.8763841122
 10
10.9326902028
 20
19.8767313682
 10
10.9323957996
 20
19.8782491569
 10
10.9317204647
 20
19.8799658212
 10
10.9306763717
 20
19.8818855251
  0
LWPOLYLINE
  5
4C3
100
AcDbEntity
  8
268
100
AcDbPolyline
 62
7
  6
CONTINUOUS
 90
7
 70
0
 10
10.932656379
 20
20.4587436005
 10
10.932564771
 20
20.4630514018
 10
10.9324256002
 20
20.4673627324
 10
10.9322388668
 20
20.4716775924
 10
10.9320045707
 20
20.4759959817
 10
10.9317227119
 20
20.4803179004
 10
10.9313932904
 20
20.4846433485
  0
LWPOLYLINE
  5
4C4
100
AcDbEntity
  8
218_STAMPATO
100
AcDbPolyline
 62
7
  6
CONTINUOUS
 90
4
 70
0
 10
10.5480427666
 20
20.8840048119
 10
10.5481715128
 20
20.8706998522
 10
10.5493580023
 20
20.8414840327
 10
10.5514873829
 20
20.8158778327
  0
LINE
  5
4C5
100
AcDbEntity
  8
268
100
AcDbLine
 62
7
  6
CONTINUOUS
 10
10.932656379
 20
20.4587436005
 11
10.9327028702
 21
20.452765946
  0
LINE
  5
4C6
100
AcDbEntity
  8
268
100
AcDbLine
 62
250
  6
CONTINUOUS
 10
10.8485048114
 20
20.1649297566
 11
10.8485048114
 21
19.9526706025
  0
LINE
  5
4C7
100
AcDbEntity
  8
268
100
AcDbLine
 62
250
  6
CONTINUOUS
 10
10.8485048114
 20
-16.8115760737
 11
10.8485048114
 21
-16.979065672
  0
LINE
  5
4C8
100
AcDbEntity
  8
268
100
AcDbLine
 62
7
  6
CONTINUOUS
 10
10.9327028713
 20
20.4527833017
 11
10.9327028713
 21
19.8763918194
  0
LINE
  5
4C9
100
AcDbEntity
  8
268
100
AcDbLine
 62
7
  6
CONTINUOUS
 10
10.9327028713
 20
-16.7673459933
 11
10.9327028713
 21
-17.058521706
  0
LINE
  5
4CA
100
AcDbEntity
  8
218_STAMPATO
100
AcDbLine
 62
250
  6
CONTINUOUS
 10
11.3366040314
 20
21.4375360074
 11
11.3366040314
 21
21.8477550503
  0
LINE
  5
4CB
100
AcDbEntity
  8
218_STAMPATO
100
AcDbLine
 62
7
  6
CONTINUOUS
 10
12.0193142293
 20
21.7799940996
 11
12.0193142293
 21
21.3469813977
  0
LWPOLYLINE
  5
4CC
100
AcDbEntity
  8
268
100
AcDbPolyline
 62
7
  6
CONTINUOUS
 90
16
 70
0
 10
10.9327028702
 20
20.452765946
 10
10.932468344
 20
20.4390919541
 10
10.931327568
 20
20.4193267629
 10
10.9292832364
 20
20.3994731124
 10
10.9263920714
 20
20.3795373285
 10
10.9227033072
 20
20.3595550921
 10
10.9182433433
 20
20.3395932705
 10
10.913050485
 20
20.3196725529
 10
10.9071678278
 20
20.2998048015
 10
10.9006072936
 20
20.2800445753
 10
10.8934003904
 20
20.2604075087
 10
10.8855832448
 20
20.2409055441
 10
10.8771593053
 20
20.2215899452
 10
10.8681464139
 20
20.2024872187
 10
10.8585845686
 20
20.1835967249
 10
10.8485048114
 20
20.1649297566
  0
LINE
  5
4CD
100
AcDbEntity
  8
268
100
AcDbLine
 62
7
  6
CONTINUOUS
 10
10.932656379
 20
-17.0592006019
 11
10.9327028702
 21
-17.0584784279
  0
LWPOLYLINE
  5
4CE
100
AcDbEntity
  8
218_STAMPATO
100
AcDbPolyline
 62
250
  6
CONTINUOUS
 90
57
 70
0
 10
20.7584374982
 20
2.2784334039
 10
20.7642490112
 20
2.2836314739
 10
20.7700398094
 20
2.288612122
 10
20.7758086555
 20
2.2933755169
 10
20.7815493359
 20
2.297924383
 10
20.7872656431
 20
2.3022562702
 10
20.792970902
 20
2.3063637655
 10
20.798665441
 20
2.3102501882
 10
20.8043454073
 20
2.3139128884
 10
20.8100171332
 20
2.3173357856
 10
20.8156802505
 20
2.3205205352
 10
20.8213309152
 20
2.3234663075
 10
20.8269698424
 20
2.3261534266
 10
20.8325937257
 20
2.3285816587
 10
20.8382013112
 20
2.3307520488
 10
20.8437960228
 20
2.3326469419
 10
20.8493645562
 20
2.3342669784
 10
20.8549152385
 20
2.3356123206
 10
20.8604821573
 20
2.3366651944
 10
20.8660492133
 20
2.3374359444
 10
20.871624158
 20
2.337915991
 10
20.877272019
 20
2.3380607511
 10
20.8829946503
 20
2.337883867
 10
20.8887736469
 20
2.337375725
 10
20.89463802
 20
2.3364585332
 10
20.9005978979
 20
2.3351288953
 10
20.9066197678
 20
2.3333955339
 10
20.9126661098
 20
2.3311989542
 10
20.9187302887
 20
2.3285256533
 10
20.9247969077
 20
2.32539306
 10
20.9308190635
 20
2.3217868002
 10
20.9367695626
 20
2.3177124673
 10
20.9426583512
 20
2.3131662456
 10
20.9484949145
 20
2.3081192198
 10
20.9542602059
 20
2.3025833126
 10
20.9599506942
 20
2.2965487745
 10
20.9655929652
 20
2.2899552988
 10
20.9711746112
 20
2.2828020974
 10
20.9766740598
 20
2.2750932651
 10
20.9820963326
 20
2.2667770122
 10
20.9874302023
 20
2.2578323027
 10
20.9926425034
 20
2.2482835076
 10
20.9977026221
 20
2.2381469328
 10
21.0025770795
 20
2.2274428712
 10
21.007255936
 20
2.2161519183
 10
21.0117390424
 20
2.2042308616
 10
21.0159913211
 20
2.1916966184
 10
21.0199890322
 20
2.1785324229
 10
21.0237321641
 20
2.1646456223
 10
21.0271758134
 20
2.1500405806
 10
21.0302777007
 20
2.1347117264
 10
21.0330153373
 20
2.1185524215
 10
21.035331558
 20
2.1015030402
 10
21.0371531249
 20
2.0836180384
 10
21.038413638
 20
2.0649609925
 10
21.0390422202
 20
2.0454084534
 10
21.0390976975
 20
2.037609284
  0
LWPOLYLINE
  5
4CF
100
AcDbEntity
  8
218_STAMPATO
100
AcDbPolyline
 62
7
  6
CONTINUOUS
 90
136
 70
0
 10
20.8759875384
 20
2.415797075
 10
20.9353843961
 20
2.46452523
 10
20.9929016237
 20
2.5120362987
 10
21.0485392212
 20
2.5583302811
 10
21.1022421034
 20
2.6033726225
 10
21.1540653555
 20
2.6471978775
 10
21.2041742332
 20
2.6899097108
 10
21.2525759825
 20
2.7315130493
 10
21.2992633574
 20
2.7720029661
 10
21.3443798759
 20
2.8114683443
 10
21.3879297439
 20
2.8499117084
 10
21.4299087554
 20
2.887330534
 10
21.4704478109
 20
2.9238061313
 10
21.5095508309
 20
2.9593408777
 10
21.5472138949
 20
2.9939323958
 10
21.5835561406
 20
3.0276548644
 10
21.6185812282
 20
3.0605105425
 10
21.6522854976
 20
3.0924971711
 10
21.684777107
 20
3.1236821515
 10
21.7160594007
 20
3.1540675787
 10
21.7461290343
 20
3.1836513577
 10
21.7750841334
 20
3.2124946054
 10
21.8029277763
 20
3.2405993063
 10
21.8296568846
 20
3.2679634758
 10
21.8553603484
 20
3.2946422761
 10
21.8800410135
 20
3.3206376348
 10
21.9036960341
 20
3.3459476243
 10
21.9264057624
 20
3.3706216242
 10
21.9481728085
 20
3.3946615369
 10
21.9689945623
 20
3.41806546
 10
21.988943546
 20
3.4408770663
 10
22.0080221236
 20
3.4630982782
 10
22.026227931
 20
3.4847271733
 10
22.0436263986
 20
3.5058016577
 10
22.0602196043
 20
3.5263237141
 10
22.0760054701
 20
3.5462913598
 10
22.0910431929
 20
3.5657365521
 10
22.1053344771
 20
3.5846613484
 10
22.1188776182
 20
3.6030636913
 10
22.1317266996
 20
3.6209693673
 10
22.1438829315
 20
3.6383805022
 10
22.1553451037
 20
3.65529497
 10
22.1661636689
 20
3.6717321787
 10
22.1763390799
 20
3.6876940633
 10
22.1858708839
 20
3.7031786887
 10
22.1948081753
 20
3.7181996583
 10
22.2031506917
 20
3.7327588532
 10
22.2108986955
 20
3.7468543923
 10
22.218102068
 20
3.7604942358
 10
22.224759378
 20
3.7736790899
 10
22.2308720568
 20
3.7864082484
 10
22.2364942798
 20
3.7986875532
 10
22.2416214171
 20
3.8105078626
 10
22.2462580986
 20
3.8218783183
 10
22.2504723899
 20
3.8328321875
 10
22.2542623499
 20
3.8433560387
 10
22.2576299197
 20
3.8534633033
 10
22.2606489882
 20
3.8632275421
 10
22.2633248622
 20
3.872646476
 10
22.2656522348
 20
3.881722384
 10
22.2676890745
 20
3.8905356641
 10
22.2694427802
 20
3.8990913123
 10
22.2709059529
 20
3.9073843325
 10
22.2721143632
 20
3.9154801345
 10
22.2730742971
 20
3.9233829679
 10
22.2737794687
 20
3.931088583
 10
22.2742467901
 20
3.938649641
 10
22.274481922
 20
3.9460693136
 10
22.2744792038
 20
3.953344429
 10
22.2742385659
 20
3.9605181322
 10
22.2737656586
 20
3.9675931547
 10
22.2730548316
 20
3.974566765
 10
22.272089065
 20
3.9814739135
 10
22.2708746803
 20
3.9883167319
 10
22.2694053559
 20
3.9950930885
 10
22.267645107
 20
4.0018315378
 10
22.2656015928
 20
4.0085344218
 10
22.2632671541
 20
4.0151993986
 10
22.2605828281
 20
4.021847997
 10
22.2575537943
 20
4.0284886097
 10
22.2541748731
 20
4.0351128441
 10
22.250371563
 20
4.0417170509
 10
22.2461414468
 20
4.0483130212
 10
22.2414869417
 20
4.0548889638
 10
22.2363407971
 20
4.0614058561
 10
22.2306986101
 20
4.0678674388
 10
22.2245647837
 20
4.0742699713
 10
22.217885276
 20
4.0805632095
 10
22.2106588082
 20
4.0867448681
 10
22.2028866592
 20
4.0928172323
 10
22.1945186245
 20
4.0987369137
 10
22.1855543009
 20
4.1045018874
 10
22.1759940917
 20
4.1101141781
 10
22.1657890024
 20
4.1155364724
 10
22.1549395464
 20
4.1207672672
 10
22.1434452103
 20
4.1258080655
 10
22.13125546
 20
4.1306260624
 10
22.1183715006
 20
4.1352203963
 10
22.104792127
 20
4.1395919287
 10
22.0904631903
 20
4.1437104399
 10
22.0753864058
 20
4.1475756411
 10
22.0595600582
 20
4.151187821
 10
22.0429248534
 20
4.1545176264
 10
22.0254828793
 20
4.1575652307
 10
22.0072320481
 20
4.1603304605
 10
21.9881068016
 20
4.162783442
 10
21.9681094938
 20
4.1649247061
 10
21.9472377708
 20
4.166753722
 10
21.9254190119
 20
4.1682390229
 10
21.9026558946
 20
4.1693814134
 10
21.8789457414
 20
4.1701800889
 10
21.8542078997
 20
4.1706011701
 10
21.8284449908
 20
4.1706456715
 10
21.8016543934
 20
4.1703125784
 10
21.7737475907
 20
4.1695649677
 10
21.7447285702
 20
4.168404114
 10
21.7145933444
 20
4.1668287427
 10
21.6832414348
 20
4.1647981058
 10
21.6506741964
 20
4.1623133985
 10
21.616890274
 20
4.1593734258
 10
21.5817851245
 20
4.1559338548
 10
21.5453538487
 20
4.151994733
 10
21.5076013458
 20
4.1475560131
 10
21.4684377692
 20
4.14257322
 10
21.4278718733
 20
4.1370480269
 10
21.3858949038
 20
4.1309787607
 10
21.3423907512
 20
4.1243159276
 10
21.2973743191
 20
4.1170632402
 10
21.2508307039
 20
4.1092169859
 10
21.2025990847
 20
4.1007165323
 10
21.1526796351
 20
4.0915635026
 10
21.1010721816
 20
4.0817562735
 10
21.0476153824
 20
4.0712293432
 10
20.9922554568
 20
4.0599608775
 10
20.9350461854
 20
4.0479727106
 10
20.8759875683
 20
4.0352648423
  0
LINE
  5
4D0
100
AcDbEntity
  8
RACCORDO
100
AcDbLine
 62
250
  6
CONTINUOUS
 10
-7.844663919
 20
-19.2532751433
 11
-8.0354186809
 21
-19.4038265992
  0
LINE
  5
4D1
100
AcDbEntity
  8
ASSI
100
AcDbLine
 62
250
  6
CONTINUOUS
 10
-7.844663919
 20
-19.2532751433
 11
-8.0354186809
 21
-19.4038265992
  0
LINE
  5
4D2
100
AcDbEntity
  8
ASSI
100
AcDbLine
 62
7
  6
CONTINUOUS
 10
-7.8084041903
 20
-19.1191525882
 11
-8.0844084517
 21
-19.3330046993
  0
LINE
  5
4D3
100
AcDbEntity
  8
RACCORDO
100
AcDbLine
 62
7
  6
CONTINUOUS
 10
-7.9433241994
 20
-19.2338743845
 11
-8.1505354025
 21
-19.3730376594
  0
LINE
  5
4D4
100
AcDbEntity
  8
RACCORDO
100
AcDbLine
 62
250
  6
CONTINUOUS
 10
-8.415933824
 20
-19.1864554617
 11
-8.2668261868
 21
-19.0914998995
  0
LINE
  5
4D5
100
AcDbEntity
  8
ASSI
100
AcDbLine
 62
250
  6
CONTINUOUS
 10
-8.4159338249
 20
-19.1864554622
 11
-8.2668261877
 21
-19.0914999001
  0
LINE
  5
4D6
100
AcDbEntity
  8
RACCORDO
100
AcDbLine
 62
250
  6
CONTINUOUS
 10
-8.3060459521
 20
-19.2479172222
 11
-8.1530285293
 21
-19.150446286
  0
LINE
  5
4D7
100
AcDbEntity
  8
ASSI
100
AcDbLine
 62
250
  6
CONTINUOUS
 10
-8.306045952
 20
-19.2479172221
 11
-8.1530285292
 21
-19.1504462859
  0
LINE
  5
4D8
100
AcDbEntity
  8
RACCORDO
100
AcDbLine
 62
250
  6
CONTINUOUS
 10
-8.0354186809
 20
-19.4038265992
 11
-8.2391789539
 21
-19.5272714481
  0
LINE
  5
4D9
100
AcDbEntity
  8
ASSI
100
AcDbLine
 62
250
  6
CONTINUOUS
 10
-8.0354186809
 20
-19.4038265992
 11
-8.2391789539
 21
-19.5272714481
  0
LWPOLYLINE
  5
4DA
100
AcDbEntity
  8
218_STAMPATO
100
AcDbPolyline
 62
7
  6
CONTINUOUS
 90
41
 70
0
 10
20.5139199766
 20
-2.8095747697
 10
20.530040151
 20
-2.8006850708
 10
20.5532697483
 20
-2.7871801325
 10
20.5761435878
 20
-2.7730460955
 10
20.5986433166
 20
-2.7582926208
 10
20.6207479283
 20
-2.7429320685
 10
20.6424443875
 20
-2.7269720773
 10
20.6637261117
 20
-2.7104151787
 10
20.6845832688
 20
-2.6932655315
 10
20.7049914733
 20
-2.6755396337
 10
20.7249228906
 20
-2.657259379
 10
20.7443550886
 20
-2.6384444141
 10
20.7632803836
 20
-2.6191012438
 10
20.7816935728
 20
-2.5992328421
 10
20.7995817686
 20
-2.5788496547
 10
20.8169276119
 20
-2.5579679071
 10
20.8337186528
 20
-2.5365989373
 10
20.8499410886
 20
-2.5147562519
 10
20.8655802182
 20
-2.4924554489
 10
20.8806225488
 20
-2.469711472
 10
20.8950547432
 20
-2.4465400053
 10
20.9088639263
 20
-2.4229570552
 10
20.9220378425
 20
-2.3989786374
 10
20.9345644858
 20
-2.3746213986
 10
20.9464320865
 20
-2.3499027566
 10
20.9576293764
 20
-2.3248404528
 10
20.9681459066
 20
-2.299451748
 10
20.9779710909
 20
-2.2737556872
 10
20.9870943713
 20
-2.2477733005
 10
20.995507217
 20
-2.2215218867
 10
21.0032004273
 20
-2.1950225887
 10
21.0101640457
 20
-2.1683029246
 10
21.0163892609
 20
-2.1413921013
 10
21.0218722624
 20
-2.1143014953
 10
21.0266104602
 20
-2.0870320913
 10
21.0305995959
 20
-2.0595852888
 10
21.0338298943
 20
-2.0320009067
 10
21.036292881
 20
-2.0043380182
 10
21.0379855596
 20
-1.9766421885
 10
21.0389091505
 20
-1.9489110772
 10
21.0390976978
 20
-1.929491587
  0
LINE
  5
4DB
100
AcDbEntity
  8
218_STAMPATO
100
AcDbLine
 62
250
  6
CONTINUOUS
 10
20.7584374982
 20
-2.2768222522
 11
14.01922489
 21
-5.9127820632
  0
LINE
  5
4DC
100
AcDbEntity
  8
218_STAMPATO
100
AcDbLine
 62
7
  6
CONTINUOUS
 10
20.5139215183
 20
-2.8095739379
 11
14.5551462319
 21
-6.0244699093
  0
LWPOLYLINE
  5
4DD
100
AcDbEntity
  8
218_STAMPATO
100
AcDbPolyline
 62
250
  6
CONTINUOUS
 90
29
 70
0
 10
20.7584374982
 20
-2.2768222522
 10
20.7770988135
 20
-2.2668928125
 10
20.7952120772
 20
-2.2567128117
 10
20.8127638375
 20
-2.2462898095
 10
20.8297410609
 20
-2.2356315456
 10
20.8461311386
 20
-2.2247459355
 10
20.8619218963
 20
-2.2136410646
 10
20.877101607
 20
-2.2023251803
 10
20.8916589984
 20
-2.1908066853
 10
20.9055832602
 20
-2.1790941337
 10
20.9188640518
 20
-2.1671962234
 10
20.9314915107
 20
-2.15512179
 10
20.9434562592
 20
-2.1428798006
 10
20.9547494121
 20
-2.1304793465
 10
20.9653625829
 20
-2.1179296363
 10
20.9752878901
 20
-2.10523999
 10
20.9845179631
 20
-2.0924198311
 10
20.9930459476
 20
-2.0794786802
 10
21.0008655104
 20
-2.0664261479
 10
21.0079708448
 20
-2.0532719273
 10
21.0143566743
 20
-2.040025787
 10
21.0200182568
 20
-2.0266975641
 10
21.0249513879
 20
-2.0132971565
 10
21.0291524046
 20
-1.9998345155
 10
21.0326181872
 20
-1.9863196392
 10
21.0353461621
 20
-1.9727625639
 10
21.0373343038
 20
-1.9591733574
 10
21.038581136
 20
-1.9455621116
 10
21.0390697451
 20
-1.9323705828
  0
LWPOLYLINE
  5
4DE
100
AcDbEntity
  8
218_STAMPATO
100
AcDbPolyline
 62
250
  6
CONTINUOUS
 90
28
 70
0
 10
14.5551393357
 20
-6.02447363
 10
14.5523740889
 20
-6.0257274509
 10
14.5479459911
 20
-6.0270768826
 10
14.5424834406
 20
-6.028115965
 10
14.5359457819
 20
-6.028817297
 10
14.5283073583
 20
-6.0291489456
 10
14.5195004901
 20
-6.0291039874
 10
14.5094842536
 20
-6.02866058
 10
14.4982281698
 20
-6.0277903621
 10
14.4856797069
 20
-6.0264801496
 10
14.4717911859
 20
-6.0247126128
 10
14.4565327884
 20
-6.0224634816
 10
14.4398785926
 20
-6.0197131923
 10
14.4217636426
 20
-6.0164499187
 10
14.4021709862
 20
-6.0126558456
 10
14.3811521531
 20
-6.008312701
 10
14.3586686929
 20
-6.003426523
 10
14.3346870947
 20
-5.9979883141
 10
14.3092746555
 20
-5.9919695202
 10
14.2823739225
 20
-5.9853792533
 10
14.2539749968
 20
-5.9782236084
 10
14.2242268187
 20
-5.9704815544
 10
14.1930699564
 20
-5.9621712947
 10
14.1605126795
 20
-5.9533146421
 10
14.1268270703
 20
-5.9439139988
 10
14.0921041848
 20
-5.9339973154
 10
14.0562390416
 20
-5.9236078886
 10
14.0192249241
 20
-5.9127820448
  0
LINE
  5
4DF
100
AcDbEntity
  8
RACCORDO
100
AcDbLine
 62
250
  6
CONTINUOUS
 10
-13.1628816574
 20
-17.7986435285
 11
-13.2427486759
 21
-17.8291583588
  0
LINE
  5
4E0
100
AcDbEntity
  8
ASSI
100
AcDbLine
 62
250
  6
CONTINUOUS
 10
-13.1628816574
 20
-17.7986435285
 11
-13.2427486759
 21
-17.8291583588
  0
LWPOLYLINE
  5
4E1
100
AcDbEntity
  8
RACCORDO
100
AcDbPolyline
 62
250
  6
CONTINUOUS
 90
13
 70
0
 10
-0.5257829262
 20
11.645977211
 10
-0.6035277187
 20
11.6291669738
 10
-0.6892719003
 20
11.6174294354
 10
-0.7815806677
 20
11.6109610064
 10
-0.8789093688
 20
11.6098699265
 10
-0.97962935
 20
11.6141744532
 10
-1.08205521
 20
11.6238025566
 10
-1.1844730019
 20
11.6385931245
 10
-1.2851689138
 20
11.6582986584
 10
-1.382457947
 20
11.6825894151
 10
-1.4747121118
 20
11.7110589241
 10
-1.5603876699
 20
11.7432307901
 10
-1.6380509662
 20
11.7785666638
  0
LWPOLYLINE
  5
4E2
100
AcDbEntity
  8
ASSI
100
AcDbPolyline
 62
250
  6
CONTINUOUS
 90
13
 70
0
 10
-0.5257829262
 20
11.645977211
 10
-0.6035277187
 20
11.6291669738
 10
-0.6892719003
 20
11.6174294354
 10
-0.7815806677
 20
11.6109610064
 10
-0.8789093688
 20
11.6098699265
 10
-0.97962935
 20
11.6141744532
 10
-1.08205521
 20
11.6238025566
 10
-1.1844730019
 20
11.6385931245
 10
-1.2851689138
 20
11.6582986584
 10
-1.382457947
 20
11.6825894151
 10
-1.4747121118
 20
11.7110589241
 10
-1.5603876699
 20
11.7432307901
 10
-1.6380509662
 20
11.7785666638
  0
LWPOLYLINE
  5
4E3
100
AcDbEntity
  8
218_STAMPATO
100
AcDbPolyline
 62
7
  6
CONTINUOUS
 90
16
 70
0
 10
20.8759870962
 20
15.9864153114
 10
20.867025923
 20
15.9846481026
 10
20.8582038568
 20
15.9832947353
 10
20.8495208977
 20
15.9823552095
 10
20.8409665722
 20
15.9818310814
 10
20.8325513537
 20
15.9817207947
 10
20.8243066627
 20
15.9820196812
 10
20.8162363236
 20
15.9827345415
 10
20.808336512
 20
15.9838585748
 10
20.8006271746
 20
15.9853667107
 10
20.7931139791
 20
15.9872646242
 10
20.7857912578
 20
15.9895466402
 10
20.7786619546
 20
15.9921706625
 10
20.771727051
 20
15.9951226592
 10
20.7649855655
 20
15.9984166621
 10
20.7584374982
 20
16.0020526713
  0
LINE
  5
4E4
100
AcDbEntity
  8
RACCORDO
100
AcDbLine
 62
250
  6
CONTINUOUS
 10
-0.4845256268
 20
13.4064930524
 11
-14.6287356993
 21
20.4785980886
  0
LINE
  5
4E5
100
AcDbEntity
  8
ASSI
100
AcDbLine
 62
250
  6
CONTINUOUS
 10
-0.4845256268
 20
13.4064930524
 11
-14.6287356993
 21
20.4785980886
  0
LWPOLYLINE
  5
4E6
100
AcDbEntity
  8
218_STAMPATO
100
AcDbPolyline
 62
250
  6
CONTINUOUS
 90
25
 70
0
 10
14.2998850896
 20
-6.4522212937
 10
14.2998770256
 20
-6.4505324837
 10
14.2993555861
 20
-6.4381502086
 10
14.2979902625
 20
-6.4248115378
 10
14.2957392182
 20
-6.4104962616
 10
14.2925603141
 20
-6.3951968469
 10
14.2884129468
 20
-6.3788788026
 10
14.2832559393
 20
-6.3615131852
 10
14.2770496286
 20
-6.3430933091
 10
14.2697587939
 20
-6.3236162207
 10
14.2613400744
 20
-6.3030315144
 10
14.2517628428
 20
-6.2813458054
 10
14.241022536
 20
-6.2586410269
 10
14.2291000685
 20
-6.2348886234
 10
14.2159679749
 20
-6.2100687954
 10
14.2016240638
 20
-6.1842771186
 10
14.1860453423
 20
-6.1574611458
 10
14.1692256072
 20
-6.1296203705
 10
14.1512038171
 20
-6.1009302333
 10
14.1319648591
 20
-6.0713297658
 10
14.111524423
 20
-6.0408275244
 10
14.0899953333
 20
-6.0097104099
 10
14.0674371253
 20
-5.9780626818
 10
14.0438386719
 20
-5.9457599751
 10
14.01922489
 20
-5.9127821057
  0
LINE
  5
4E7
100
AcDbEntity
  8
715
100
AcDbLine
 62
7
  6
CONTINUOUS
 10
13.0181415738
 20
20.21569034
 11
13.0181415738
 21
20.0926346862
  0
LINE
  5
4E8
100
AcDbEntity
  8
715
100
AcDbLine
 62
7
  6
CONTINUOUS
 10
13.2696206543
 20
20.6880500441
 11
13.2696206543
 21
20.085136665
  0
LINE
  5
4E9
100
AcDbEntity
  8
218_STAMPATO
100
AcDbLine
 62
7
  6
CONTINUOUS
 10
13.4748194619
 20
21.4081426739
 11
13.4748194619
 21
21.7205715337
  0
LINE
  5
4EA
100
AcDbEntity
  8
715
100
AcDbLine
 62
7
  6
CONTINUOUS
 10
13.7193653156
 20
20.566302211
 11
13.7193653156
 21
20.0950615034
  0
LINE
  5
4EB
100
AcDbEntity
  8
218_STAMPATO
100
AcDbLine
 62
250
  6
CONTINUOUS
 10
14.01922489
 20
-14.0856950441
 11
14.01922489
 21
-5.9127820632
  0
LINE
  5
4EC
100
AcDbEntity
  8
218_STAMPATO
100
AcDbLine
 62
7
  6
CONTINUOUS
 10
14.2998850897
 20
-13.7383658588
 11
14.2998850897
 21
-6.4522286803
  0
LWPOLYLINE
  5
4ED
100
AcDbEntity
  8
218_STAMPATO
100
AcDbPolyline
 62
7
  6
CONTINUOUS
 90
35
 70
0
 10
14.299884944
 20
-6.4522308642
 10
14.300066961
 20
-6.4389934688
 10
14.3006919233
 20
-6.4243585683
 10
14.3017848864
 20
-6.4094747083
 10
14.3033598136
 20
-6.3944385427
 10
14.3054326083
 20
-6.3792666588
 10
14.3080185302
 20
-6.363978321
 10
14.3111146901
 20
-6.3486738316
 10
14.3147247181
 20
-6.333382798
 10
14.3188564868
 20
-6.3181130744
 10
14.3235001534
 20
-6.3029304361
 10
14.3286529552
 20
-6.2878607497
 10
14.3343164188
 20
-6.2729147674
 10
14.3404793459
 20
-6.2581336181
 10
14.3471373602
 20
-6.2435352401
 10
14.3542857828
 20
-6.2291367772
 10
14.3619077046
 20
-6.2149761268
 10
14.369994312
 20
-6.2010706445
 10
14.3785376622
 20
-6.1874348889
 10
14.3875176481
 20
-6.1741001343
 10
14.3969228169
 20
-6.1610808587
 10
14.4067417066
 20
-6.1483904949
 10
14.4169504765
 20
-6.136056085
 10
14.4275352534
 20
-6.1240893614
 10
14.4384817819
 20
-6.112501583
 10
14.4497623667
 20
-6.1013160611
 10
14.4613619913
 20
-6.0905407098
 10
14.4732632705
 20
-6.0801849024
 10
14.4854317662
 20
-6.0702704451
 10
14.4978501355
 20
-6.0608021538
 10
14.5104994449
 20
-6.0517853759
 10
14.5233396926
 20
-6.0432381605
 10
14.5363437738
 20
-6.0351663297
 10
14.5494992467
 20
-6.0275656386
 10
14.5551452978
 20
-6.0244705303
  0
LWPOLYLINE
  5
4EE
100
AcDbEntity
  8
268
100
AcDbPolyline
 62
7
  6
CONTINUOUS
 90
7
 70
0
 10
10.932656379
 20
-17.0592006019
 10
10.932564771
 20
-17.0596862094
 10
10.9324256002
 20
-17.0601983571
 10
10.9322388668
 20
-17.0607370452
 10
10.9320045707
 20
-17.0613022735
 10
10.9317227119
 20
-17.0618940421
 10
10.9313932904
 20
-17.062512351
  0
LINE
  5
4EF
100
AcDbEntity
  8
218_STAMPATO
100
AcDbLine
 62
250
  6
CONTINUOUS
 10
21.0474429803
 20
2.041232663
 11
21.0390976978
 21
2.0336476002
  0
LWPOLYLINE
  5
4F0
100
AcDbEntity
  8
218_STAMPATO
100
AcDbPolyline
 62
250
  6
CONTINUOUS
 90
31
 70
0
 10
20.5207499721
 20
-2.805798128
 10
20.5352901203
 20
-2.7971244576
 10
20.5494536078
 20
-2.7877921609
 10
20.5632296827
 20
-2.7778083221
 10
20.5766078872
 20
-2.7671805197
 10
20.5895780655
 20
-2.7559168211
 10
20.6021303718
 20
-2.7440257765
 10
20.6142552771
 20
-2.7315164125
 10
20.625943577
 20
-2.7183982248
 10
20.6371863988
 20
-2.7046811713
 10
20.6479752075
 20
-2.6903756649
 10
20.6583018132
 20
-2.675492565
 10
20.6681583766
 20
-2.6600431692
 10
20.6775374154
 20
-2.6440392054
 10
20.6864318096
 20
-2.6274928224
 10
20.6948348074
 20
-2.6104165805
 10
20.7027400297
 20
-2.5928234427
 10
20.7101414756
 20
-2.574726764
 10
20.7170335264
 20
-2.5561402817
 10
20.7234109502
 20
-2.537078105
 10
20.7292689058
 20
-2.5175547043
 10
20.7346029464
 20
-2.4975848998
 10
20.7394090225
 20
-2.4771838512
 10
20.7436834859
 20
-2.4563670451
 10
20.7474230917
 20
-2.4351502838
 10
20.7506250011
 20
-2.4135496732
 10
20.7532867837
 20
-2.3915816099
 10
20.7554064186
 20
-2.3692627705
 10
20.7569822967
 20
-2.3466101001
 10
20.7580132219
 20
-2.3236407952
 10
20.7584984118
 20
-2.3003722914
  0
LINE
  5
4F1
100
AcDbEntity
  8
RACCORDO
100
AcDbLine
 62
250
  6
CONTINUOUS
 10
-8.5733309855
 20
-19.2656827837
 11
-8.415933824
 21
-19.1864554617
  0
LINE
  5
4F2
100
AcDbEntity
  8
ASSI
100
AcDbLine
 62
250
  6
CONTINUOUS
 10
-8.5733309864
 20
-19.2656827841
 11
-8.4159338249
 21
-19.1864554622
  0
LINE
  5
4F3
100
AcDbEntity
  8
RACCORDO
100
AcDbLine
 62
250
  6
CONTINUOUS
 10
-8.4668551194
 20
-19.3288175807
 11
-8.3060459521
 21
-19.2479172222
  0
LINE
  5
4F4
100
AcDbEntity
  8
ASSI
100
AcDbLine
 62
250
  6
CONTINUOUS
 10
-8.4668551192
 20
-19.3288175806
 11
-8.306045952
 21
-19.2479172221
  0
LINE
  5
4F5
100
AcDbEntity
  8
ASSI
100
AcDbLine
 62
7
  6
CONTINUOUS
 10
-8.0844084517
 20
-19.3330046993
 11
-8.4175243258
 21
-19.4986603443
  0
LINE
  5
4F6
100
AcDbEntity
  8
RACCORDO
100
AcDbLine
 62
7
  6
CONTINUOUS
 10
-8.1505354025
 20
-19.3730376594
 11
-8.3722966529
 21
-19.4811181906
  0
LINE
  5
4F7
100
AcDbEntity
  8
RACCORDO
100
AcDbLine
 62
250
  6
CONTINUOUS
 10
-8.2391789539
 20
-19.5272714481
 11
-8.4578061309
 21
-19.6232113539
  0
LINE
  5
4F8
100
AcDbEntity
  8
ASSI
100
AcDbLine
 62
250
  6
CONTINUOUS
 10
-8.2391789539
 20
-19.5272714481
 11
-8.4578061309
 21
-19.6232113539
  0
LWPOLYLINE
  5
4F9
100
AcDbEntity
  8
ASSI
100
AcDbPolyline
 62
7
  6
CONTINUOUS
 90
3
 70
0
 10
-7.7896280119
 20
-19.0983094373
 10
-7.8834536589
 20
-19.1387074608
 10
-7.8983417082
 20
-19.1445426006
  0
LINE
  5
4FA
100
AcDbEntity
  8
DRAFT
100
AcDbLine
 62
7
  6
CONTINUOUS
 10
-7.789336544
 20
-19.0979858832
 11
-7.8983417082
 21
-19.1445426006
  0
LINE
  5
4FB
100
AcDbEntity
  8
RACCORDO
100
AcDbLine
 62
250
  6
CONTINUOUS
 10
-10.1767169199
 20
-19.277333809
 11
-10.2729001949
 21
-19.3140825993
  0
LINE
  5
4FC
100
AcDbEntity
  8
ASSI
100
AcDbLine
 62
250
  6
CONTINUOUS
 10
-10.1767169199
 20
-19.277333809
 11
-10.2729001949
 21
-19.3140825993
  0
LINE
  5
4FD
100
AcDbEntity
  8
RACCORDO
100
AcDbLine
 62
250
  6
CONTINUOUS
 10
-8.7370612548
 20
-19.3282024487
 11
-8.5733309855
 21
-19.2656827837
  0
LINE
  5
4FE
100
AcDbEntity
  8
ASSI
100
AcDbLine
 62
250
  6
CONTINUOUS
 10
-8.7370612557
 20
-19.328202449
 11
-8.5733309864
 21
-19.2656827841
  0
LINE
  5
4FF
100
AcDbEntity
  8
268
100
AcDbLine
 62
7
  6
CONTINUOUS
 10
4.0529201018
 20
13.7467521838
 11
4.4945633408
 21
13.5259305642
  0
LINE
  5
500
100
AcDbEntity
  8
RACCORDO
100
AcDbLine
 62
7
  6
CONTINUOUS
 10
-10.7197631377
 20
22.0336340127
 11
3.5639661556
 21
14.8917693661
  0
LINE
  5
501
100
AcDbEntity
  8
ASSI
100
AcDbLine
 62
7
  6
CONTINUOUS
 10
-10.7197631377
 20
22.0336340127
 11
3.5639661556
 21
14.8917693661
  0
LINE
  5
502
100
AcDbEntity
  8
218_STAMPATO
100
AcDbLine
 62
250
  6
CONTINUOUS
 10
3.5179968951
 20
26.5822214696
 11
3.911982829
 21
25.5600656515
  0
LINE
  5
503
100
AcDbEntity
  8
715
100
AcDbLine
 62
7
  6
CONTINUOUS
 10
5.3395298696
 20
24.1581206896
 11
5.1380305117
 21
24.7538451154
  0
LINE
  5
504
100
AcDbEntity
  8
218_STAMPATO
100
AcDbLine
 62
7
  6
CONTINUOUS
 10
15.559040796
 20
23.8825422475
 11
15.559040796
 21
23.5555761998
  0
LWPOLYLINE
  5
505
100
AcDbEntity
  8
218_STAMPATO
100
AcDbPolyline
 62
7
  6
CONTINUOUS
 90
16
 70
0
 10
20.7584374982
 20
2.2784331907
 10
20.7649855782
 20
2.2888499272
 10
20.7717270795
 20
2.299124955
 10
20.7786620021
 20
2.3092582741
 10
20.7857913279
 20
2.3192649353
 10
20.7931140749
 20
2.3291298877
 10
20.8006272981
 20
2.3388079792
 10
20.8083366645
 20
2.3482994016
 10
20.816236507
 20
2.357603963
 10
20.8243068787
 20
2.3666759357
 10
20.8325516046
 20
2.3755124801
 10
20.8409668598
 20
2.3841164359
 10
20.8495212229
 20
2.3924505941
 10
20.8582042201
 20
2.4005025519
 10
20.8670263253
 20
2.4082847122
 10
20.8759875384
 20
2.415797075
  0
LINE
  5
506
100
AcDbEntity
  8
268
100
AcDbLine
 62
7
  6
CONTINUOUS
 10
1.7642949026
 20
-23.5763884515
 11
2.3430852429
 21
-22.8719447213
  0
LINE
  5
507
100
AcDbEntity
  8
RACCORDO
100
AcDbLine
 62
7
  6
CONTINUOUS
 10
-8.3722966529
 20
-19.4811181906
 11
-8.4071120026
 21
-19.4947471592
  0
LINE
  5
508
100
AcDbEntity
  8
RACCORDO
100
AcDbLine
 62
250
  6
CONTINUOUS
 10
-8.6190364155
 20
-19.3876367048
 11
-8.4668551194
 21
-19.3288175807
  0
LINE
  5
509
100
AcDbEntity
  8
ASSI
100
AcDbLine
 62
250
  6
CONTINUOUS
 10
-8.6190364155
 20
-19.3876367048
 11
-8.4668551192
 21
-19.3288175806
  0
LINE
  5
50A
100
AcDbEntity
  8
RACCORDO
100
AcDbLine
 62
250
  6
CONTINUOUS
 10
-8.3964223087
 20
-19.490683082
 11
-8.4076141969
 21
-19.4949732465
  0
LINE
  5
50B
100
AcDbEntity
  8
ASSI
100
AcDbLine
 62
250
  6
CONTINUOUS
 10
-8.3964223087
 20
-19.490683082
 11
-8.4180151398
 21
-19.498885028
  0
LINE
  5
50C
100
AcDbEntity
  8
DRAFT
100
AcDbLine
 62
7
  6
CONTINUOUS
 10
-7.8983417082
 20
-19.1445426006
 11
-7.9819744924
 21
-19.1746887024
  0
LINE
  5
50D
100
AcDbEntity
  8
ASSI
100
AcDbLine
 62
7
  6
CONTINUOUS
 10
-7.8983417082
 20
-19.1445426006
 11
-7.9819744924
 21
-19.1746887024
  0
LINE
  5
50E
100
AcDbEntity
  8
DRAFT
100
AcDbLine
 62
7
  6
CONTINUOUS
 10
-8.6190417042
 20
-19.3876384726
 11
-7.9819744924
 21
-19.1746887024
  0
LINE
  5
50F
100
AcDbEntity
  8
ASSI
100
AcDbLine
 62
7
  6
CONTINUOUS
 10
-8.6204757182
 20
-19.3881171291
 11
-7.9819744924
 21
-19.1746887024
  0
LINE
  5
510
100
AcDbEntity
  8
ASSI
100
AcDbLine
 62
7
  6
CONTINUOUS
 10
-8.6205390278
 20
-19.3881382298
 11
-8.6190364155
 21
-19.3876367048
  0
LINE
  5
511
100
AcDbEntity
  8
RACCORDO
100
AcDbLine
 62
7
  6
CONTINUOUS
 10
-8.6221571163
 20
-19.3886766277
 11
-8.6190364155
 21
-19.3876367048
  0
LINE
  5
512
100
AcDbEntity
  8
ASSI
100
AcDbLine
 62
7
  6
CONTINUOUS
 10
-8.6657032495
 20
-19.402543833
 11
-8.6206079802
 21
-19.3881589745
  0
LINE
  5
513
100
AcDbEntity
  8
RACCORDO
100
AcDbLine
 62
250
  6
CONTINUOUS
 10
-8.4076141969
 20
-19.4949732465
 11
-8.6477759761
 21
-19.5678019604
  0
LINE
  5
514
100
AcDbEntity
  8
ASSI
100
AcDbLine
 62
250
  6
CONTINUOUS
 10
-8.4180151398
 20
-19.498885028
 11
-8.6477759761
 21
-19.5678019604
  0
LINE
  5
515
100
AcDbEntity
  8
RACCORDO
100
AcDbLine
 62
250
  6
CONTINUOUS
 10
-8.4578061309
 20
-19.6232113539
 11
-8.6895139207
 21
-19.6920765564
  0
LINE
  5
516
100
AcDbEntity
  8
ASSI
100
AcDbLine
 62
250
  6
CONTINUOUS
 10
-8.4578061309
 20
-19.6232113539
 11
-8.6895139207
 21
-19.6920765564
  0
LINE
  5
517
100
AcDbEntity
  8
268
100
AcDbLine
 62
7
  6
CONTINUOUS
 10
3.9934178536
 20
16.4148726459
 11
3.3710998215
 21
16.5448132284
  0
LINE
  5
518
100
AcDbEntity
  8
268
100
AcDbLine
 62
7
  6
CONTINUOUS
 10
-12.087090678
 20
22.7757769441
 11
3.6813905425
 21
14.8915363339
  0
LINE
  5
519
100
AcDbEntity
  8
268
100
AcDbLine
 62
7
  6
CONTINUOUS
 10
3.433903169
 20
15.3427959591
 11
-11.8396033046
 21
22.9795491959
  0
LINE
  5
51A
100
AcDbEntity
  8
268
100
AcDbLine
 62
7
  6
CONTINUOUS
 10
3.9934178536
 20
15.7777030872
 11
2.3794137376
 21
16.5847051452
  0
LINE
  5
51B
100
AcDbEntity
  8
268
100
AcDbLine
 62
7
  6
CONTINUOUS
 10
-9.3709003108
 20
22.4598621694
 11
-10.9849044268
 21
23.2668642274
  0
LINE
  5
51C
100
AcDbEntity
  8
268
100
AcDbLine
 62
7
  6
CONTINUOUS
 10
-6.03844443
 20
21.1509664642
 11
-0.245935362
 21
18.2547119302
  0
LINE
  5
51D
100
AcDbEntity
  8
268
100
AcDbLine
 62
7
  6
CONTINUOUS
 10
-11.6233020882
 20
24.0383940338
 11
-10.0167696189
 21
23.2351277991
  0
LINE
  5
51E
100
AcDbEntity
  8
268
100
AcDbLine
 62
7
  6
CONTINUOUS
 10
1.7410160762
 20
17.3562349516
 11
3.3475485455
 21
16.5529687169
  0
LINE
  5
51F
100
AcDbEntity
  8
268
100
AcDbLine
 62
250
  6
CONTINUOUS
 10
-11.6878973811
 20
24.1734234821
 11
-10.0821209189
 21
23.370535251
  0
LINE
  5
520
100
AcDbEntity
  8
268
100
AcDbLine
 62
250
  6
CONTINUOUS
 10
1.6764207834
 20
17.4912643999
 11
3.2821972455
 21
16.6883761688
  0
LINE
  5
521
100
AcDbEntity
  8
268
100
AcDbLine
 62
250
  6
CONTINUOUS
 10
3.2821972455
 20
16.9417475625
 11
1.6764207834
 21
17.7446357936
  0
LINE
  5
522
100
AcDbEntity
  8
268
100
AcDbLine
 62
250
  6
CONTINUOUS
 10
-10.0821209189
 20
23.6239066448
 11
-11.6878973811
 21
24.4267948758
  0
LINE
  5
523
100
AcDbEntity
  8
268
100
AcDbLine
 62
7
  6
CONTINUOUS
 10
-8.3040693987
 20
22.9984434189
 11
-6.1263123957
 21
21.9095649174
  0
LINE
  5
524
100
AcDbEntity
  8
268
100
AcDbLine
 62
7
  6
CONTINUOUS
 10
0.6761867224
 20
18.5083153584
 11
1.7573086736
 21
17.9677543828
  0
LINE
  5
525
100
AcDbEntity
  8
268
100
AcDbLine
 62
7
  6
CONTINUOUS
 10
5.0602487658
 20
16.3162843367
 11
5.201670122
 21
16.2455736586
  0
LINE
  5
526
100
AcDbEntity
  8
268
100
AcDbLine
 62
250
  6
CONTINUOUS
 10
3.4589679749
 20
17.2456131408
 11
1.8511465659
 21
18.0495238453
  0
LINE
  5
527
100
AcDbEntity
  8
268
100
AcDbLine
 62
250
  6
CONTINUOUS
 10
-9.9053501895
 20
23.927772223
 11
-11.5131715985
 21
24.7316829275
  0
LINE
  5
528
100
AcDbEntity
  8
268
100
AcDbLine
 62
7
  6
CONTINUOUS
 10
-6.03844443
 20
22.3659213303
 11
-0.245935362
 21
19.4696667963
  0
LINE
  5
529
100
AcDbEntity
  8
268
100
AcDbLine
 62
7
  6
CONTINUOUS
 10
3.3710998215
 20
-24.3797909109
 11
3.9934178536
 21
-23.6347314935
  0
LWPOLYLINE
  5
52A
100
AcDbEntity
  8
218_STAMPATO
100
AcDbPolyline
 62
250
  6
CONTINUOUS
 90
5
 70
0
 10
13.6050744144
 20
-15.103178143
 10
13.6239109297
 20
-15.0928179352
 10
13.6423530465
 20
-15.081829698
 10
13.6603870695
 20
-15.0702215915
 10
13.6796420084
 20
-15.0568160102
  0
LWPOLYLINE
  5
52B
100
AcDbEntity
  8
218_STAMPATO
100
AcDbPolyline
 62
250
  6
CONTINUOUS
 90
5
 70
0
 10
13.3991198673
 20
-15.2524426447
 10
13.4179563826
 20
-15.2420824369
 10
13.4363984993
 20
-15.2310941998
 10
13.4544325222
 20
-15.2194860934
 10
13.4736874614
 20
-15.2060805119
  0
LWPOLYLINE
  5
52C
100
AcDbEntity
  8
218_STAMPATO
100
AcDbPolyline
 62
250
  6
CONTINUOUS
 90
29
 70
0
 10
14.01922489
 20
-14.0856950441
 10
14.0378860285
 20
-14.0757657011
 10
14.0559991235
 20
-14.0655858032
 10
14.073550724
 20
-14.0551629099
 10
14.0905277961
 20
-14.0445047614
 10
14.1069177327
 20
-14.0336192725
 10
14.1227083624
 20
-14.0225145267
 10
14.1378879589
 20
-14.0111987706
 10
14.15244525
 20
-13.9996804073
 10
14.1663694252
 20
-13.9879679904
 10
14.1796501443
 20
-13.9760702175
 10
14.1922775451
 20
-13.9639959241
 10
14.2042422504
 20
-13.9517540766
 10
14.215535375
 20
-13.9393537658
 10
14.2261485327
 20
-13.9268042002
 10
14.2360738421
 20
-13.9141146994
 10
14.2453039326
 20
-13.9012946864
 10
14.2538319498
 20
-13.8883536816
 10
14.2616515609
 20
-13.8753012951
 10
14.2687569589
 20
-13.8621472195
 10
14.2751428673
 20
-13.8489012232
 10
14.2808045439
 20
-13.8355731428
 10
14.2857377844
 20
-13.8221728757
 10
14.2899389252
 20
-13.808710373
 10
14.2934048466
 20
-13.7951956321
 10
14.2961329748
 20
-13.7816386891
 10
14.2981212838
 20
-13.7680496115
 10
14.2993682971
 20
-13.7544384905
 10
14.2998730888
 20
-13.7408154339
  0
LINE
  5
52D
100
AcDbEntity
  8
218_STAMPATO
100
AcDbLine
 62
250
  6
CONTINUOUS
 10
13.3991198673
 20
-15.2524426447
 11
12.4742757729
 21
-15.7415154364
  0
LINE
  5
52E
100
AcDbEntity
  8
218_STAMPATO
100
AcDbLine
 62
7
  6
CONTINUOUS
 10
13.3543319374
 20
-15.2803773387
 11
12.4525836707
 21
-15.7572366763
  0
LINE
  5
52F
100
AcDbEntity
  8
218_STAMPATO
100
AcDbLine
 62
250
  6
CONTINUOUS
 10
6.1562642766
 20
-18.2277259865
 11
14.01922489
 21
-14.0856950441
  0
LINE
  5
530
100
AcDbEntity
  8
218_STAMPATO
100
AcDbLine
 62
250
  6
CONTINUOUS
 10
6.1562642766
 20
-19.0270439224
 11
13.6050744144
 21
-15.103178143
  0
LINE
  5
531
100
AcDbEntity
  8
268
100
AcDbLine
 62
250
  6
CONTINUOUS
 10
2.4889383245
 20
-18.0264374961
 11
1.1745366864
 21
-18.6334717303
  0
LINE
  5
532
100
AcDbEntity
  8
268
100
AcDbLine
 62
7
  6
CONTINUOUS
 10
2.2882432673
 20
-18.5401333389
 11
1.1355096884
 21
-19.0725039059
  0
LINE
  5
533
100
AcDbEntity
  8
268
100
AcDbLine
 62
7
  6
CONTINUOUS
 10
5.9087769032
 20
16.59156936
 11
5.1090448794
 21
16.9914353719
  0
LINE
  5
534
100
AcDbEntity
  8
268
100
AcDbLine
 62
7
  6
CONTINUOUS
 10
-6.7727952816
 20
22.9323554524
 11
-8.2552732851
 21
23.6735944541
  0
LINE
  5
535
100
AcDbEntity
  8
268
100
AcDbLine
 62
7
  6
CONTINUOUS
 10
-5.546352952
 20
22.8320207609
 11
0.6761867224
 21
19.7207509237
  0
LINE
  5
536
100
AcDbEntity
  8
268
100
AcDbLine
 62
7
  6
CONTINUOUS
 10
-9.9304149954
 20
25.5436670249
 11
-8.3040693987
 21
24.7304942265
  0
LINE
  5
537
100
AcDbEntity
  8
268
100
AcDbLine
 62
7
  6
CONTINUOUS
 10
3.433903169
 20
18.8615079427
 11
5.0602487658
 21
18.0483351443
  0
LINE
  5
538
100
AcDbEntity
  8
268
100
AcDbLine
 62
7
  6
CONTINUOUS
 10
-4.2028500678
 20
22.8623377116
 11
0.7468974005
 21
20.3874639774
  0
LINE
  5
539
100
AcDbEntity
  8
268
100
AcDbLine
 62
250
  6
CONTINUOUS
 10
-9.3959651167
 20
25.8040144914
 11
-7.7758022269
 21
24.9939330465
  0
LINE
  5
53A
100
AcDbEntity
  8
268
100
AcDbLine
 62
250
  6
CONTINUOUS
 10
3.9683530477
 20
19.1218554092
 11
5.5885159375
 21
18.3117739643
  0
LINE
  5
53B
100
AcDbEntity
  8
268
100
AcDbLine
 62
7
  6
CONTINUOUS
 10
-9.2845456873
 20
25.8102821476
 11
-7.6656717372
 21
25.0008451726
  0
LINE
  5
53C
100
AcDbEntity
  8
268
100
AcDbLine
 62
7
  6
CONTINUOUS
 10
4.0797724771
 20
19.1281230654
 11
5.6986464272
 21
18.3186860904
  0
LINE
  5
53D
100
AcDbEntity
  8
218_STAMPATO
100
AcDbLine
 62
7
  6
CONTINUOUS
 10
-0.3138166191
 20
22.222619094
 11
2.0610593809
 21
21.035181094
  0
LWPOLYLINE
  5
53E
100
AcDbEntity
  8
218_STAMPATO
100
AcDbPolyline
 62
7
  6
CONTINUOUS
 90
104
 70
0
 10
21.0390976978
 20
7.5061006307
 10
21.0518190427
 20
7.4968458053
 10
21.0966406545
 20
7.4629774838
 10
21.1411245015
 20
7.4281025716
 10
21.1852821615
 20
7.3922177841
 10
21.2291127386
 20
7.355327593
 10
21.2725844911
 20
7.3174622593
 10
21.3156621116
 20
7.2786574227
 10
21.3583250322
 20
7.2389374007
 10
21.4005627391
 20
7.198317597
 10
21.4423552404
 20
7.1568226676
 10
21.4836813665
 20
7.1144793975
 10
21.5245321201
 20
7.0713026134
 10
21.5649052419
 20
7.0272992368
 10
21.6047960656
 20
6.9824775544
 10
21.6441785381
 20
6.9368698777
 10
21.6830184634
 20
6.8905202556
 10
21.7212873618
 20
6.8434687909
 10
21.7589859883
 20
6.7957205493
 10
21.7961237255
 20
6.7472673877
 10
21.8326994278
 20
6.6981122483
 10
21.8686846234
 20
6.6482946739
 10
21.9040475747
 20
6.5978616339
 10
21.9387648624
 20
6.5468511918
 10
21.9728338854
 20
6.4952717171
 10
22.0062544573
 20
6.4431263524
 10
22.0390184289
 20
6.3904292431
 10
22.0711071265
 20
6.3372116871
 10
22.1025042634
 20
6.2835024439
 10
22.1331956076
 20
6.2293278474
 10
22.1631705412
 20
6.174708467
 10
22.1924185749
 20
6.1196647878
 10
22.2209271788
 20
6.0642214808
 10
22.2486851157
 20
6.0084013022
 10
22.2756837979
 20
5.9522218599
 10
22.3019124591
 20
5.8957052652
 10
22.3273589419
 20
5.8388771784
 10
22.352012648
 20
5.7817605068
 10
22.3758631672
 20
5.7243782037
 10
22.3988993698
 20
5.6667555801
 10
22.421110039
 20
5.6089191016
 10
22.4424825047
 20
5.5509004075
 10
22.4630098554
 20
5.492716555
 10
22.4826891789
 20
5.4343719047
 10
22.5015159582
 20
5.375872844
 10
22.5194741346
 20
5.3172615796
 10
22.536544562
 20
5.2585960258
 10
22.5527124327
 20
5.1999265726
 10
22.5679778895
 20
5.1412517495
 10
22.5823441615
 20
5.0825514199
 10
22.5958083524
 20
5.0238218042
 10
22.6083544229
 20
4.9651156011
 10
22.6199661651
 20
4.9064968975
 10
22.6306330707
 20
4.8480127863
 10
22.6403536164
 20
4.7896644054
 10
22.6491260009
 20
4.7314463552
 10
22.6569451345
 20
4.6733661099
 10
22.66380136
 20
4.6154647272
 10
22.6696860291
 20
4.5577865565
 10
22.6745934477
 20
4.5003579477
 10
22.6785186324
 20
4.4431999993
 10
22.6814560351
 20
4.3863479305
 10
22.6834011841
 20
4.3298348874
 10
22.6843506816
 20
4.2736739198
 10
22.6843005485
 20
4.2178693741
 10
22.6832452353
 20
4.162410945
 10
22.6811800486
 20
4.1073559136
 10
22.678106032
 20
4.0528074689
 10
22.6740276064
 20
3.9988332891
 10
22.6689431361
 20
3.9454060834
 10
22.6628457685
 20
3.8924852253
 10
22.6557235428
 20
3.8400283815
 10
22.6475809868
 20
3.7881233628
 10
22.6384403529
 20
3.7369212455
 10
22.6283201285
 20
3.6864996663
 10
22.6172156802
 20
3.6368131656
 10
22.6051191099
 20
3.5878247085
 10
22.5920195944
 20
3.5395046312
 10
22.5779318172
 20
3.4919209888
 10
22.5628887188
 20
3.4451808644
 10
22.5469070306
 20
3.3993193824
 10
22.5299892878
 20
3.3543285095
 10
22.5121545736
 20
3.3102447392
 10
22.4934185575
 20
3.2670901464
 10
22.4737887403
 20
3.2248665531
 10
22.4532734518
 20
3.1835791578
 10
22.4318645899
 20
3.1432041198
 10
22.4095922877
 20
3.1037912781
 10
22.3865294781
 20
3.0654502594
 10
22.3627365764
 20
3.0282478863
 10
22.3381957503
 20
2.9921240609
 10
22.3128640491
 20
2.9569980415
 10
22.2867241247
 20
2.9228403324
 10
22.2598210431
 20
2.8897045509
 10
22.2322033737
 20
2.8576384133
 10
22.2039062101
 20
2.8266659607
 10
22.1749340881
 20
2.796775846
 10
22.145292805
 20
2.7679608287
 10
22.1150047632
 20
2.7402306824
 10
22.0840875194
 20
2.7135896276
 10
22.0525383059
 20
2.6880255566
 10
22.0203690056
 20
2.6635407431
 10
21.9876075029
 20
2.6401490194
 10
21.9542744844
 20
2.6178571739
  0
LINE
  5
53F
100
AcDbEntity
  8
218_STAMPATO
100
AcDbLine
 62
7
  6
CONTINUOUS
 10
12.4742757729
 20
17.7184681992
 11
11.3910805034
 21
19.5867036851
  0
LINE
  5
540
100
AcDbEntity
  8
218_STAMPATO
100
AcDbLine
 62
250
  6
CONTINUOUS
 10
10.9426180976
 20
22.8699108683
 11
11.3366040314
 21
21.8477550503
  0
LINE
  5
541
100
AcDbEntity
  8
715
100
AcDbLine
 62
7
  6
CONTINUOUS
 10
12.7641510721
 20
20.4458100884
 11
12.5626517142
 21
21.0415345142
  0
LWPOLYLINE
  5
542
100
AcDbEntity
  8
218_STAMPATO
100
AcDbPolyline
 62
7
  6
CONTINUOUS
 90
31
 70
0
 10
21.0390976869
 20
20.1566881176
 10
21.0388103952
 20
20.191255753
 10
21.0376733239
 20
20.2337468531
 10
21.0356792477
 20
20.2763016581
 10
21.032834496
 20
20.318925379
 10
21.0291465531
 20
20.361597528
 10
21.0246263598
 20
20.4042685937
 10
21.0192818755
 20
20.4469324729
 10
21.0131203528
 20
20.4895814065
 10
21.0061563335
 20
20.532161289
 10
20.9983984209
 20
20.5746655382
 10
20.9898541391
 20
20.6170875631
 10
20.9805418406
 20
20.6593716575
 10
20.9704710583
 20
20.7015090453
 10
20.9596494543
 20
20.7434954628
 10
20.9480972412
 20
20.7852805819
 10
20.9358264695
 20
20.8268481471
 10
20.9228431198
 20
20.8682016623
 10
20.9091602897
 20
20.909319154
 10
20.8947870609
 20
20.9501908989
 10
20.879729975
 20
20.9908133313
 10
20.8639985028
 20
21.0311723887
 10
20.8475994123
 20
21.0712609459
 10
20.8305385527
 20
21.1110720491
 10
20.8128246533
 20
21.1505910062
 10
20.7944635504
 20
21.1898094898
 10
20.7754595992
 20
21.2287202235
 10
20.7558195942
 20
21.2673104582
 10
20.7355478834
 20
21.305571126
 10
20.7146475739
 20
21.34349465
 10
20.6971302434
 20
21.3741829041
  0
LINE
  5
543
100
AcDbEntity
  8
218_STAMPATO
100
AcDbLine
 62
250
  6
CONTINUOUS
 10
20.7584984118
 20
-2.3003722914
 11
20.7584374982
 21
2.2784331907
  0
LINE
  5
544
100
AcDbEntity
  8
218_STAMPATO
100
AcDbLine
 62
250
  6
CONTINUOUS
 10
20.7584374982
 20
4.0509020895
 11
20.7584374982
 21
14.229583754
  0
LINE
  5
545
100
AcDbEntity
  8
218_STAMPATO
100
AcDbLine
 62
250
  6
CONTINUOUS
 10
20.7584374982
 20
16.0020526713
 11
20.7584374982
 21
19.8094509497
  0
LINE
  5
546
100
AcDbEntity
  8
218_STAMPATO
100
AcDbLine
 62
7
  6
CONTINUOUS
 10
21.0390976978
 20
-1.9294930669
 11
21.0390976978
 21
2.0375984089
  0
LINE
  5
547
100
AcDbEntity
  8
218_STAMPATO
100
AcDbLine
 62
7
  6
CONTINUOUS
 10
21.0390976978
 20
4.9863951868
 11
21.0390976978
 21
13.9887480456
  0
LINE
  5
548
100
AcDbEntity
  8
218_STAMPATO
100
AcDbLine
 62
7
  6
CONTINUOUS
 10
21.0390976978
 20
16.9375469505
 11
21.0390976978
 21
20.1567006844
  0
LINE
  5
549
100
AcDbEntity
  8
218_STAMPATO
100
AcDbLine
 62
7
  6
CONTINUOUS
 10
21.0390976964
 20
16.9376531785
 11
21.0390976978
 21
16.9375476136
  0
LWPOLYLINE
  5
54A
100
AcDbEntity
  8
218_STAMPATO
100
AcDbPolyline
 62
250
  6
CONTINUOUS
 90
57
 70
0
 10
21.0390976978
 20
4.9863955651
 10
21.0390438227
 20
4.9683184536
 10
21.0384184576
 20
4.9222776761
 10
21.0371596343
 20
4.8782240139
 10
21.0353382004
 20
4.8359158283
 10
21.0330209292
 20
4.7954023607
 10
21.0302814449
 20
4.7568076454
 10
21.0271770061
 20
4.720012834
 10
21.0237302853
 20
4.6847019166
 10
21.0199838418
 20
4.6508605293
 10
21.015982645
 20
4.6185042349
 10
21.0117264324
 20
4.5873628386
 10
21.0072389262
 20
4.5573938698
 10
21.0025552864
 20
4.5286396531
 10
20.9976753653
 20
4.50095829
 10
20.992608547
 20
4.4742866405
 10
20.9873887605
 20
4.4486869845
 10
20.9820479702
 20
4.4242055576
 10
20.9766200347
 20
4.4008960437
 10
20.9711158632
 20
4.3787013647
 10
20.9655304349
 20
4.3575015672
 10
20.9598855974
 20
4.3373086488
 10
20.9541937336
 20
4.3181072531
 10
20.9484277225
 20
4.2997376039
 10
20.9425910307
 20
4.2821701544
 10
20.9367028547
 20
4.2654322542
 10
20.9307534069
 20
4.2494506079
 10
20.9247326849
 20
4.2341826924
 10
20.918667964
 20
4.2196692414
 10
20.9126060113
 20
4.2059614272
 10
20.90656227
 20
4.1930803632
 10
20.9005433299
 20
4.1810010042
 10
20.8945864031
 20
4.1697040171
 10
20.888724914
 20
4.1592282667
 10
20.8829487806
 20
4.1495295696
 10
20.8772288645
 20
4.1404641464
 10
20.8715834825
 20
4.132033594
 10
20.8660108263
 20
4.1242322975
 10
20.8604459452
 20
4.1169073343
 10
20.8548810594
 20
4.1100311542
 10
20.8493322733
 20
4.1036295485
 10
20.8437656401
 20
4.0976311799
 10
20.8381728686
 20
4.0920208022
 10
20.8325672204
 20
4.0868128598
 10
20.8269453028
 20
4.0819811466
 10
20.8213083825
 20
4.0775245862
 10
20.8156597485
 20
4.0734434442
 10
20.809998673
 20
4.0697136287
 10
20.8043289942
 20
4.0663355733
 10
20.7986510809
 20
4.0633080197
 10
20.7929585967
 20
4.0606044706
 10
20.7872553892
 20
4.0582239987
 10
20.7815411304
 20
4.056166863
 10
20.7758025007
 20
4.0544086313
 10
20.7700357082
 20
4.0529411388
 10
20.7642469622
 20
4.0517722767
 10
20.7584374982
 20
4.0509018769
  0
LWPOLYLINE
  5
54B
100
AcDbEntity
  8
218_STAMPATO
100
AcDbPolyline
 62
250
  6
CONTINUOUS
 90
57
 70
0
 10
21.0390976978
 20
16.9375476136
 10
21.0389979786
 20
16.9129580716
 10
21.0382740944
 20
16.8669517154
 10
21.0369312378
 20
16.8231954834
 10
21.035044304
 20
16.7813275122
 10
21.0326702403
 20
16.7411688667
 10
21.0298722067
 20
16.7027588827
 10
21.0267078597
 20
16.6660635484
 10
21.0231982066
 20
16.6307934369
 10
21.0193793412
 20
16.5969018198
 10
21.0152973344
 20
16.5644370138
 10
21.0109670744
 20
16.5332526523
 10
21.0064172361
 20
16.5033290949
 10
21.0016826349
 20
16.4746852284
 10
20.9967766143
 20
16.4472328172
 10
20.9917252394
 20
16.4209731803
 10
20.9865545031
 20
16.3959026093
 10
20.9812706158
 20
16.3719256772
 10
20.9758966597
 20
16.3490497234
 10
20.9704518359
 20
16.3272641765
 10
20.9649298893
 20
16.3064473967
 10
20.959348615
 20
16.2866007361
 10
20.9537228303
 20
16.2677196228
 10
20.9480349804
 20
16.2496745373
 10
20.9422921111
 20
16.232447169
 10
20.9365107028
 20
16.2160532741
 10
20.9306821807
 20
16.2004153298
 10
20.9248072665
 20
16.1855124289
 10
20.9189037353
 20
16.1713632059
 10
20.9129870736
 20
16.1579496042
 10
20.9070657053
 20
16.14527469
 10
20.9011494487
 20
16.1333323937
 10
20.8952564757
 20
16.1220905914
 10
20.8893991648
 20
16.1115581927
 10
20.8835829659
 20
16.1017226301
 10
20.877815748
 20
16.0925193548
 10
20.8721238935
 20
16.0839695735
 10
20.8664974907
 20
16.0760481263
 10
20.8608869963
 20
16.0686217413
 10
20.8552925043
 20
16.0616730083
 10
20.8497233976
 20
16.0552172107
 10
20.8441395907
 20
16.0491715676
 10
20.8385319669
 20
16.0435185295
 10
20.8329149156
 20
16.0382747463
 10
20.8272814213
 20
16.0334094766
 10
20.8216320618
 20
16.0289204761
 10
20.8159708371
 20
16.0248091795
 10
20.8102953017
 20
16.0210505415
 10
20.804609279
 20
16.0176446909
 10
20.7989130793
 20
16.0145907147
 10
20.7931984676
 20
16.011862184
 10
20.7874691962
 20
16.0094578881
 10
20.7817248552
 20
16.0073784596
 10
20.7759501354
 20
16.00560057
 10
20.7701404662
 20
16.0041164813
 10
20.764302552
 20
16.0029338064
 10
20.7584374982
 20
16.0020524491
  0
LWPOLYLINE
  5
54C
100
AcDbEntity
  8
218_STAMPATO
100
AcDbPolyline
 62
7
  6
CONTINUOUS
 90
7
 70
0
 10
21.0390982155
 20
13.988765072
 10
21.039150402
 20
13.9905395431
 10
21.0393509332
 20
13.9926103695
 10
21.039624854
 20
13.994211941
 10
21.0398959692
 20
13.9953333692
 10
21.0400777126
 20
13.9959172142
 10
21.0400989249
 20
13.9959746948
  0
LWPOLYLINE
  5
54D
100
AcDbEntity
  8
218_STAMPATO
100
AcDbPolyline
 62
7
  6
CONTINUOUS
 90
7
 70
0
 10
21.0390982024
 20
2.0376131184
 10
21.0391503848
 20
2.0393879755
 10
21.0393507857
 20
2.0414589387
 10
21.0396247482
 20
2.043060791
 10
21.0398958615
 20
2.0441823917
 10
21.0400775892
 20
2.0447663292
 10
21.0400988296
 20
2.0448238875
  0
LWPOLYLINE
  5
54E
100
AcDbEntity
  8
218_STAMPATO
100
AcDbPolyline
 62
250
  6
CONTINUOUS
 90
34
 70
0
 10
13.6686307036
 20
-15.0519321705
 10
13.6888052847
 20
-15.0332525386
 10
13.7084582174
 20
-15.0137886125
 10
13.7275803366
 20
-14.9935495085
 10
13.7461625654
 20
-14.9725448059
 10
13.7641959622
 20
-14.9507845741
 10
13.7816719514
 20
-14.9282792036
 10
13.7985821771
 20
-14.9050394513
 10
13.8149185886
 20
-14.8810763627
 10
13.8306734793
 20
-14.8564012878
 10
13.8458393431
 20
-14.8310259726
 10
13.8604089399
 20
-14.8049625045
 10
13.8743753816
 20
-14.7782232377
 10
13.8877320292
 20
-14.7508208739
 10
13.9004724995
 20
-14.7227684762
 10
13.9125907272
 20
-14.6940794119
 10
13.924080954
 20
-14.664767327
 10
13.9349377055
 20
-14.6348461718
 10
13.9451557981
 20
-14.6043302156
 10
13.9547303817
 20
-14.5732339927
 10
13.9636569116
 20
-14.5415722779
 10
13.9719311252
 20
-14.5093601116
 10
13.9795491099
 20
-14.4766128072
 10
13.9865072514
 20
-14.4433459387
 10
13.9928022022
 20
-14.4095753133
 10
13.9984310066
 20
-14.3753169262
 10
14.0033909919
 20
-14.3405871159
 10
14.0076797188
 20
-14.3054025531
 10
14.0112951817
 20
-14.2697800628
 10
14.0142357068
 20
-14.2337364792
 10
14.0164998319
 20
-14.1972887945
 10
14.0180864778
 20
-14.1604542769
 10
14.0189949612
 20
-14.1232504693
 10
14.01922489
 20
-14.0856950441
  0
LWPOLYLINE
  5
54F
100
AcDbEntity
  8
218_STAMPATO
100
AcDbPolyline
 62
250
  6
CONTINUOUS
 90
4
 70
0
 10
13.6050744144
 20
-15.103178143
 10
13.6267552279
 20
-15.0869033535
 10
13.6479440323
 20
-15.0698186416
 10
13.6686307036
 20
-15.0519321705
  0
LWPOLYLINE
  5
550
100
AcDbEntity
  8
218_STAMPATO
100
AcDbPolyline
 62
7
  6
CONTINUOUS
 90
40
 70
0
 10
13.6796531207
 20
-15.0568079412
 10
13.699286806
 20
-15.0423126123
 10
13.7273820025
 20
-15.0206175745
 10
13.7549850475
 20
-14.9981533474
 10
13.7820678892
 20
-14.9749375183
 10
13.808617484
 20
-14.9509761853
 10
13.8346351402
 20
-14.9262617744
 10
13.8601009335
 20
-14.9008056304
 10
13.8849955348
 20
-14.8746195261
 10
13.9093197091
 20
-14.8476935577
 10
13.9330542296
 20
-14.8200386521
 10
13.9561792743
 20
-14.7916676604
 10
13.9786930343
 20
-14.7625707933
 10
14.0005769528
 20
-14.7327581348
 10
14.0218110748
 20
-14.7022434263
 10
14.0423900508
 20
-14.6710193256
 10
14.0622949968
 20
-14.63909736
 10
14.0815075108
 20
-14.6064898361
 10
14.100021851
 20
-14.5731876039
 10
14.1178184487
 20
-14.5392044648
 10
14.1348806184
 20
-14.5045499995
 10
14.1512052197
 20
-14.4692052065
 10
14.1667759589
 20
-14.4331752927
 10
14.1815719174
 20
-14.396476638
 10
14.1955816338
 20
-14.3591034533
 10
14.2087927984
 20
-14.3210488086
 10
14.2211809292
 20
-14.2823399609
 10
14.2327194101
 20
-14.2430205174
 10
14.2433941987
 20
-14.2031002241
 10
14.2531907034
 20
-14.1625905524
 10
14.262087964
 20
-14.1215367656
 10
14.2700753303
 20
-14.079947201
 10
14.2771411189
 20
-14.0378338543
 10
14.2832691876
 20
-13.9952466413
 10
14.288451389
 20
-13.9521949235
 10
14.2926790652
 20
-13.9086887251
 10
14.295941228
 20
-13.8647775531
 10
14.2982310793
 20
-13.8204830316
 10
14.2995432766
 20
-13.7758019567
 10
14.29988508
 20
-13.7383669825
  0
LINE
  5
551
100
AcDbEntity
  8
218_STAMPATO
100
AcDbLine
 62
7
  6
CONTINUOUS
 10
11.3910805034
 20
-16.5265556527
 11
12.4742757729
 21
-15.7415154364
  0
LINE
  5
552
100
AcDbEntity
  8
218_STAMPATO
100
AcDbLine
 62
250
  6
CONTINUOUS
 10
13.3991198673
 20
-15.2524426447
 11
13.6050744144
 21
-15.103178143
  0
LINE
  5
553
100
AcDbEntity
  8
218_STAMPATO
100
AcDbLine
 62
7
  6
CONTINUOUS
 10
13.4736874614
 20
-15.2060805119
 11
13.6796420084
 21
-15.0568160102
  0
LWPOLYLINE
  5
554
100
AcDbEntity
  8
218_STAMPATO
100
AcDbPolyline
 62
7
  6
CONTINUOUS
 90
6
 70
0
 10
13.4736874614
 20
-15.2060805119
 10
13.4604224578
 20
-15.2155304544
 10
13.4469966673
 20
-15.2247689488
 10
13.433415187
 20
-15.2337919332
 10
13.4196774102
 20
-15.2425991868
 10
13.4057948121
 20
-15.2511828761
  0
LINE
  5
555
100
AcDbEntity
  8
268
100
AcDbLine
 62
7
  6
CONTINUOUS
 10
4.4945633408
 20
-22.6847103022
 11
3.6813905425
 21
-23.2135814326
  0
LINE
  5
556
100
AcDbEntity
  8
218_STAMPATO
100
AcDbLine
 62
7
  6
CONTINUOUS
 10
13.4057948121
 20
-15.2511828761
 11
13.3917909689
 21
-15.2595288918
  0
LWPOLYLINE
  5
557
100
AcDbEntity
  8
218_STAMPATO
100
AcDbPolyline
 62
7
  6
CONTINUOUS
 90
4
 70
0
 10
13.3917909689
 20
-15.2595288918
 10
13.3776777559
 20
-15.2676315277
 10
13.3634553398
 20
-15.2754921557
 10
13.3543264496
 20
-15.2803802407
  0
LWPOLYLINE
  5
558
100
AcDbEntity
  8
268
100
AcDbPolyline
 62
7
  6
CONTINUOUS
 90
25
 70
0
 10
10.1844064019
 20
-17.5223534161
 10
10.2103228122
 20
-17.5075211995
 10
10.2368250489
 20
-17.4922542227
 10
10.2639131119
 20
-17.4765524858
 10
10.2916147683
 20
-17.4604033831
 10
10.3199022509
 20
-17.4438195203
 10
10.3486922589
 20
-17.4268387143
 10
10.377965778
 20
-17.4094721404
 10
10.4077418223
 20
-17.3917086235
 10
10.4379941334
 20
-17.3735524551
 10
10.4687365678
 20
-17.3549955582
 10
10.4999552688
 20
-17.3360460098
 10
10.5315824083
 20
-17.3167323334
 10
10.5636291429
 20
-17.2970476987
 10
10.596084316
 20
-17.2769989359
 10
10.6288466294
 20
-17.2566350592
 10
10.6619314035
 20
-17.2359462199
 10
10.6953233179
 20
-17.2149422667
 10
10.7288751133
 20
-17.19370176
 10
10.7626064284
 20
-17.1722114741
 10
10.7964976244
 20
-17.1504846346
 10
10.8303425261
 20
-17.1286394789
 10
10.8640724085
 20
-17.1067154192
 10
10.8977559966
 20
-17.0846730433
 10
10.9313932904
 20
-17.062512351
  0
LWPOLYLINE
  5
559
100
AcDbEntity
  8
218_STAMPATO
100
AcDbPolyline
 62
250
  6
CONTINUOUS
 90
4
 70
0
 10
13.3543319374
 20
-15.2803773387
 10
13.3694799358
 20
-15.2719060417
 10
13.3845103669
 20
-15.2625406581
 10
13.3991198673
 20
-15.2524426447
  0
LWPOLYLINE
  5
55A
100
AcDbEntity
  8
268
100
AcDbPolyline
 62
7
  6
CONTINUOUS
 90
3
 70
0
 10
10.1844064019
 20
-17.5223534161
 10
10.1498219248
 20
-17.5412291137
 10
10.1346551448
 20
-17.54899385
  0
LINE
  5
55B
100
AcDbEntity
  8
218_STAMPATO
100
AcDbLine
 62
7
  6
CONTINUOUS
 10
6.1562642766
 20
-19.2764568129
 11
11.3910805034
 21
-16.5265556527
  0
LINE
  5
55C
100
AcDbEntity
  8
268
100
AcDbLine
 62
250
  6
CONTINUOUS
 10
6.1562642766
 20
-19.5442565997
 11
10.1844064019
 21
-17.5223534161
  0
LINE
  5
55D
100
AcDbEntity
  8
268
100
AcDbLine
 62
7
  6
CONTINUOUS
 10
6.1562642766
 20
-19.5459246805
 11
10.1346478548
 21
-17.5489975185
  0
LINE
  5
55E
100
AcDbEntity
  8
268
100
AcDbLine
 62
250
  6
CONTINUOUS
 10
6.1562642766
 20
-19.306451569
 11
10.8485048114
 21
-16.979065672
  0
LINE
  5
55F
100
AcDbEntity
  8
268
100
AcDbLine
 62
250
  6
CONTINUOUS
 10
6.1562642766
 20
-19.4283262967
 11
10.932656379
 21
-17.0592006019
  0
LWPOLYLINE
  5
560
100
AcDbEntity
  8
RACCORDO
100
AcDbPolyline
 62
250
  6
CONTINUOUS
 90
13
 70
0
 10
-3.7434378448
 20
-24.5508637612
 10
-3.822293371
 20
-24.5801693306
 10
-3.9091296962
 20
-24.6041931104
 10
-4.0024937421
 20
-24.6225330979
 10
-4.1008231983
 20
-24.6348824003
 10
-4.2024726656
 20
-24.6410343701
 10
-4.3057411894
 20
-24.6408860632
 10
-4.4089007222
 20
-24.6344399613
 10
-4.5102250409
 20
-24.6218039303
 10
-4.6080186314
 20
-24.6031894159
 10
-4.7006450617
 20
-24.5789079044
 10
-4.7865543641
 20
-24.5493657115
 10
-4.8643089727
 20
-24.5150571824
  0
LWPOLYLINE
  5
561
100
AcDbEntity
  8
ASSI
100
AcDbPolyline
 62
250
  6
CONTINUOUS
 90
13
 70
0
 10
-3.7434378448
 20
-24.5508637612
 10
-3.822293371
 20
-24.5801693306
 10
-3.9091296962
 20
-24.6041931104
 10
-4.0024937421
 20
-24.6225330979
 10
-4.1008231983
 20
-24.6348824003
 10
-4.2024726656
 20
-24.6410343701
 10
-4.3057411894
 20
-24.6408860632
 10
-4.4089007222
 20
-24.6344399613
 10
-4.5102250409
 20
-24.6218039303
 10
-4.6080186314
 20
-24.6031894159
 10
-4.7006450617
 20
-24.5789079044
 10
-4.7865543641
 20
-24.5493657115
 10
-4.8643089727
 20
-24.5150571824
  0
LINE
  5
562
100
AcDbEntity
  8
218_STAMPATO
100
AcDbLine
 62
250
  6
CONTINUOUS
 10
0.0111381678
 20
22.3576887123
 11
0.0213207131
 21
22.3605373067
  0
LWPOLYLINE
  5
563
100
AcDbEntity
  8
218_STAMPATO
100
AcDbPolyline
 62
250
  6
CONTINUOUS
 90
3
 70
0
 10
0.0213207131
 20
22.3605373067
 10
0.0316926143
 20
22.363343081
 10
0.0369496807
 20
22.3647293799
  0
LWPOLYLINE
  5
564
100
AcDbEntity
  8
218_STAMPATO
100
AcDbPolyline
 62
250
  6
CONTINUOUS
 90
4
 70
0
 10
0.0369496807
 20
22.3647293799
 10
0.047606276
 20
22.3674643651
 10
0.0530058051
 20
22.3688130514
 10
0.0584526678
 20
22.3701476602
  0
LWPOLYLINE
  5
565
100
AcDbEntity
  8
218_STAMPATO
100
AcDbPolyline
 62
250
  6
CONTINUOUS
 90
128
 70
0
 10
0.0584526678
 20
22.3701476602
 10
0.0694885458
 20
22.3727746811
 10
0.0750771271
 20
22.3740654876
 10
0.0807128839
 20
22.3753406695
 10
0.0863956161
 20
22.3766001862
 10
0.0921243651
 20
22.3778423284
 10
0.0978992922
 20
22.3790671184
 10
0.103720236
 20
22.3802745338
 10
0.1095857536
 20
22.3814627982
 10
0.1154956639
 20
22.3826318672
 10
0.121450148
 20
22.3837817851
 10
0.127448305
 20
22.384910909
 10
0.1334903667
 20
22.386019276
 10
0.1395761013
 20
22.3871068489
 10
0.1457039129
 20
22.3881718737
 10
0.1518821198
 20
22.3892155245
 10
0.1581024036
 20
22.3902366271
 10
0.164338214
 20
22.3912299049
 10
0.1705859789
 20
22.3921944104
 10
0.1768492704
 20
22.3931310911
 10
0.183112254
 20
22.394037513
 10
0.1893724371
 20
22.394913115
 10
0.1956323123
 20
22.3957584582
 10
0.2018835235
 20
22.3965727917
 10
0.2081249706
 20
22.3973558761
 10
0.2143577536
 20
22.3981079508
 10
0.2205768161
 20
22.3988289836
 10
0.2267817823
 20
22.399518877
 10
0.2329730281
 20
22.4001777285
 10
0.2391466244
 20
22.4008057982
 10
0.2453021773
 20
22.4014030145
 10
0.2514400807
 20
22.401969449
 10
0.2575575878
 20
22.402505576
 10
0.2636544228
 20
22.4030113585
 10
0.2697308614
 20
22.4034868336
 10
0.2757849841
 20
22.4039325869
 10
0.2818171677
 20
22.4043486283
 10
0.2878270353
 20
22.404734948
 10
0.2938115364
 20
22.4050921016
 10
0.2997704794
 20
22.4054200553
 10
0.3057040559
 20
22.4057188429
 10
0.3116097899
 20
22.4059891217
 10
0.3174875129
 20
22.4062308705
 10
0.3233373935
 20
22.4064441105
 10
0.3291574614
 20
22.4066295624
 10
0.3349477954
 20
22.4067872159
 10
0.3407083166
 20
22.4069170813
 10
0.3464368185
 20
22.4070199103
 10
0.3521333238
 20
22.4070956863
 10
0.3577978097
 20
22.4071444259
 10
0.3634280015
 20
22.4071669307
 10
0.3690237738
 20
22.4071631845
 10
0.374585252
 20
22.4071332034
 10
0.3801105375
 20
22.4070778371
 10
0.3855994379
 20
22.4069970791
 10
0.3910521456
 20
22.406890936
 10
0.3964673388
 20
22.4067602767
 10
0.401844963
 20
22.4066050988
 10
0.4071850727
 20
22.4064254048
 10
0.4124865108
 20
22.4062220707
 10
0.41774956
 20
22.4059950726
 10
0.4229739376
 20
22.4057444344
 10
0.4281576379
 20
22.4054711044
 10
0.433300451
 20
22.4051750772
 10
0.4384025867
 20
22.4048563581
 10
0.4434626687
 20
22.4045159118
 10
0.4484804843
 20
22.4041537459
 10
0.4534562461
 20
22.4037698529
 10
0.458389216
 20
22.4033651746
 10
0.4632793103
 20
22.4029397174
 10
0.4681266125
 20
22.4024934749
 10
0.4729306348
 20
22.4020273709
 10
0.4776913248
 20
22.4015414115
 10
0.4824087348
 20
22.4010355904
 10
0.4870825337
 20
22.400510813
 10
0.4917126648
 20
22.3999670879
 10
0.4962991848
 20
22.3994044065
 10
0.5008419321
 20
22.3988236483
 10
0.5053408274
 20
22.398224828
 10
0.5097959501
 20
22.3976079309
 10
0.5142073762
 20
22.396973793
 10
0.5185750545
 20
22.3963224282
 10
0.5228990363
 20
22.3956538226
 10
0.5271795523
 20
22.3949687695
 10
0.5314165651
 20
22.394267283
 10
0.5356101121
 20
22.3935493491
 10
0.5397605362
 20
22.3928157197
 10
0.5438677879
 20
22.392066413
 10
0.5479319166
 20
22.3913014107
 10
0.5519534139
 20
22.3905214104
 10
0.5559322429
 20
22.3897264303
 10
0.5598684405
 20
22.3889164521
 10
0.5637626083
 20
22.3880921183
 10
0.5676147053
 20
22.3872534507
 10
0.5714247726
 20
22.3864004275
 10
0.5751935347
 20
22.3855336261
 10
0.5789209497
 20
22.3846530718
 10
0.5826070595
 20
22.3837587392
 10
0.5862527142
 20
22.38285113
 10
0.5898578977
 20
22.3819302659
 10
0.5934226263
 20
22.3809961253
 10
0.5969477988
 20
22.3800491447
 10
0.600433415
 20
22.3790893428
 10
0.6038794753
 20
22.3781167009
 10
0.6072868795
 20
22.3771315998
 10
0.610655618
 20
22.3761340621
 10
0.6139857006
 20
22.3751240652
 10
0.6172780569
 20
22.3741019227
 10
0.6205326797
 20
22.373067658
 10
0.6237495762
 20
22.3720212477
 10
0.6269296984
 20
22.3709629343
 10
0.6300730545
 20
22.3698927377
 10
0.6331796364
 20
22.368810638
 10
0.6362503717
 20
22.3677168173
 10
0.6392852836
 20
22.3666112902
 10
0.642284349
 20
22.3654940421
 10
0.6452484259
 20
22.3643652109
 10
0.6481775499
 20
22.3632248056
 10
0.6510716854
 20
22.3620728173
 10
0.6539315842
 20
22.3609093563
 10
0.6567572718
 20
22.3597344329
 10
0.6595487226
 20
22.3585480368
 10
0.6623066111
 20
22.3573502473
 10
0.6650309501
 20
22.3561410826
 10
0.6677217268
 20
22.3549205245
 10
0.6703795784
 20
22.3536885976
 10
0.6730047173
 20
22.3524453102
 10
0.6755969312
 20
22.3511906541
  0
LINE
  5
566
100
AcDbEntity
  8
268
100
AcDbLine
 62
7
  6
CONTINUOUS
 10
-9.3709003108
 20
23.0970317281
 11
-9.9932183429
 21
23.2269723106
  0
LWPOLYLINE
  5
567
100
AcDbEntity
  8
218_STAMPATO
100
AcDbPolyline
 62
7
  6
CONTINUOUS
 90
21
 70
0
 10
-0.3154215439
 20
22.2234056197
 10
-0.3272585883
 20
22.2288796509
 10
-0.3390294804
 20
22.233897679
 10
-0.3507216705
 20
22.2384539903
 10
-0.3623218118
 20
22.2425435052
 10
-0.3738182217
 20
22.2461615109
 10
-0.3852008807
 20
22.2493035161
 10
-0.3964571308
 20
22.2519659203
 10
-0.4075748646
 20
22.2541455096
 10
-0.4185449461
 20
22.2558389104
 10
-0.4293550208
 20
22.2570440691
 10
-0.4399931165
 20
22.2577592429
 10
-0.4504507658
 20
22.2579820982
 10
-0.4607155389
 20
22.257712185
 10
-0.4707761934
 20
22.2569493526
 10
-0.4806261483
 20
22.2556922351
 10
-0.490254209
 20
22.2539417472
 10
-0.4996486218
 20
22.251699253
 10
-0.5088021957
 20
22.2489648325
 10
-0.5177020532
 20
22.2457420188
 10
-0.5260126885
 20
22.2421848474
  0
LWPOLYLINE
  5
568
100
AcDbEntity
  8
218_STAMPATO
100
AcDbPolyline
 62
7
  6
CONTINUOUS
 90
64
 70
0
 10
0.7651344552
 20
22.3543954619
 10
0.7546932033
 20
22.3594909447
 10
0.7371871216
 20
22.3674982338
 10
0.7192097838
 20
22.3750738918
 10
0.7007926799
 20
22.3822117263
 10
0.6819448856
 20
22.3889174513
 10
0.662653916
 20
22.3952043489
 10
0.6429424409
 20
22.4010738222
 10
0.6228329225
 20
22.4065290838
 10
0.6023167546
 20
22.4115818593
 10
0.5814460337
 20
22.4162290129
 10
0.5602091982
 20
22.42048278
 10
0.5385040665
 20
22.4243681109
 10
0.5163791631
 20
22.4278778839
 10
0.4938157448
 20
22.431016418
 10
0.4706099872
 20
22.4338059463
 10
0.4466855576
 20
22.4362409363
 10
0.4221423065
 20
22.4382965667
 10
0.397042669
 20
22.4399565136
 10
0.3712838421
 20
22.44121442
 10
0.3449964068
 20
22.4420503287
 10
0.3185961983
 20
22.442449911
 10
0.2921202074
 20
22.4424209785
 10
0.2655587797
 20
22.4419705874
 10
0.2392569501
 20
22.4411176396
 10
0.2133048239
 20
22.4398861151
 10
0.1876304631
 20
22.4382920273
 10
0.1623335365
 20
22.4363598094
 10
0.1374339417
 20
22.4341102226
 10
0.1129228677
 20
22.4315605502
 10
0.0888559942
 20
22.4287344104
 10
0.0652519697
 20
22.4256522434
 10
0.0420972266
 20
22.4223296893
 10
0.0193990508
 20
22.4187842826
 10
-0.0028348816
 20
22.4150333144
 10
-0.024610611
 20
22.411091305
 10
-0.0459403277
 20
22.4069707596
 10
-0.0668244433
 20
22.4026856731
 10
-0.0872625064
 20
22.3982498745
 10
-0.107263774
 20
22.393674654
 10
-0.1268305209
 20
22.38897236
 10
-0.1459612267
 20
22.3841560304
 10
-0.1646577729
 20
22.3792377115
 10
-0.182929833
 20
22.3742270699
 10
-0.200768685
 20
22.3691386091
 10
-0.2181476738
 20
22.3639925588
 10
-0.2350547588
 20
22.3588056711
 10
-0.2515046871
 20
22.3535864976
 10
-0.2675095846
 20
22.3483437898
 10
-0.2830492654
 20
22.3430968361
 10
-0.2981451528
 20
22.3378510131
 10
-0.3128668933
 20
22.3325933623
 10
-0.327213038
 20
22.3273346834
 10
-0.3411781925
 20
22.3220873799
 10
-0.3548185136
 20
22.3168401455
 10
-0.3681166986
 20
22.3116090024
 10
-0.3810728137
 20
22.3064036263
 10
-0.393759011
 20
22.3012039669
 10
-0.4061378262
 20
22.2960340899
 10
-0.4182100208
 20
22.2909030377
 10
-0.4300874793
 20
22.2857716705
 10
-0.4417240011
 20
22.2806680977
 10
-0.4530862813
 20
22.2756163572
 10
-0.4752800223
 20
22.2655763948
  0
LINE
  5
569
100
AcDbEntity
  8
218_STAMPATO
100
AcDbLine
 62
250
  6
CONTINUOUS
 10
2.6888243856
 20
21.3445905465
 11
0.6755969312
 21
22.3511906541
  0
LINE
  5
56A
100
AcDbEntity
  8
218_STAMPATO
100
AcDbLine
 62
7
  6
CONTINUOUS
 10
2.7371285238
 20
21.3683984314
 11
0.7651307963
 21
22.3543972951
  0
LINE
  5
56B
100
AcDbEntity
  8
268
100
AcDbLine
 62
7
  6
CONTINUOUS
 10
3.2645731453
 20
21.6283625107
 11
0.4640546881
 21
23.0286217393
  0
LINE
  5
56C
100
AcDbEntity
  8
268
100
AcDbLine
 62
7
  6
CONTINUOUS
 10
0.1105012975
 20
23.757956624
 11
0.4640546881
 21
23.5811799287
  0
LINE
  5
56D
100
AcDbEntity
  8
268
100
AcDbLine
 62
7
  6
CONTINUOUS
 10
4.6723888415
 20
22.3222391691
 11
1.8618391946
 21
23.7275139926
  0
LINE
  5
56E
100
AcDbEntity
  8
715
100
AcDbLine
 62
7
  6
CONTINUOUS
 10
5.350024705
 20
24.152873272
 11
5.5935203713
 21
23.9280009413
  0
LWPOLYLINE
  5
56F
100
AcDbEntity
  8
268
100
AcDbPolyline
 62
7
  6
CONTINUOUS
 90
17
 70
0
 10
10.9313932904
 20
20.4846433485
 10
10.8977559966
 20
20.520705499
 10
10.8640724085
 20
20.5553441587
 10
10.8303425261
 20
20.5885593275
 10
10.7964976244
 20
20.6203666314
 10
10.7626064284
 20
20.6507504445
 10
10.7288751133
 20
20.6796638887
 10
10.6953233179
 20
20.707083064
 10
10.6619314035
 20
20.7330318703
 10
10.6288466294
 20
20.7575351288
 10
10.596084316
 20
20.7805788357
 10
10.5636291429
 20
20.8021769947
 10
10.5315824083
 20
20.8223964388
 10
10.4999552688
 20
20.8412303528
 10
10.4687365678
 20
20.8586855517
 10
10.4379941334
 20
20.8748493132
 10
10.4308443551
 20
20.8784642004
  0
LWPOLYLINE
  5
570
100
AcDbEntity
  8
268
100
AcDbPolyline
 62
7
  6
CONTINUOUS
 90
20
 70
0
 10
10.9306763717
 20
19.8818855251
 10
10.92927622
 20
19.8840165898
 10
10.9275297937
 20
19.8863250372
 10
10.9254481839
 20
19.8888146763
 10
10.9230432194
 20
19.8914921191
 10
10.9203231275
 20
19.8943273351
 10
10.9172981963
 20
19.8973238614
 10
10.9139796949
 20
19.9004869396
 10
10.910375538
 20
19.9037889321
 10
10.9064956812
 20
19.9072329148
 10
10.9023510097
 20
19.9108231592
 10
10.8979497769
 20
19.9145336587
 10
10.8933014384
 20
19.9183672506
 10
10.8884169845
 20
19.9223271242
 10
10.8833065961
 20
19.9263875446
 10
10.877979721
 20
19.9305507598
 10
10.8724475177
 20
19.9348191312
 10
10.8667230465
 20
19.9391666308
 10
10.8608178631
 20
19.9435855129
 10
10.8485048114
 20
19.9526706025
  0
LWPOLYLINE
  5
571
100
AcDbEntity
  8
218_STAMPATO
100
AcDbPolyline
 62
250
  6
CONTINUOUS
 90
57
 70
0
 10
21.0390976978
 20
5.6869882586
 10
21.047363383
 20
5.6606305516
 10
21.0595428818
 20
5.6184795873
 10
21.0709839729
 20
5.5753188557
 10
21.0816651758
 20
5.5311764687
 10
21.0915098281
 20
5.4861360595
 10
21.1005019349
 20
5.440218632
 10
21.1086341444
 20
5.3934026677
 10
21.1158458181
 20
5.3457102704
 10
21.1221428261
 20
5.2968858247
 10
21.127492362
 20
5.2471849227
 10
21.1317949775
 20
5.1974071223
 10
21.1350240674
 20
5.147586843
 10
21.1372204438
 20
5.0977114017
 10
21.1384202558
 20
5.0485264185
 10
21.1386188254
 20
5.0000443393
 10
21.1378664282
 20
4.95228434
 10
21.1363115551
 20
4.906014269
 10
21.1339856639
 20
4.8614449505
 10
21.1309309722
 20
4.818401294
 10
21.127326755
 20
4.7770771453
 10
21.1232292569
 20
4.73763608
 10
21.1186514967
 20
4.6999419324
 10
21.1137023671
 20
4.6637367105
 10
21.1084236443
 20
4.6290417753
 10
21.1028235331
 20
4.5958527584
 10
21.0969489765
 20
4.5638694482
 10
21.0908216305
 20
4.5330577213
 10
21.0844548566
 20
4.5034620129
 10
21.0778748103
 20
4.4748976033
 10
21.0710851179
 20
4.4473103543
 10
21.0641084671
 20
4.4207610606
 10
21.0569958065
 20
4.3952364195
 10
21.0497603088
 20
4.3707473244
 10
21.0424115947
 20
4.34728789
 10
21.0349934337
 20
4.3248192618
 10
21.0275320946
 20
4.3033839891
 10
21.020019986
 20
4.282943227
 10
21.0124474319
 20
4.2633355201
 10
21.0048215163
 20
4.2445470333
 10
20.9971484075
 20
4.2265939772
 10
20.9894144314
 20
4.2093594524
 10
20.9816076096
 20
4.1928057421
 10
20.9737496721
 20
4.1769721836
 10
20.9658761793
 20
4.1618572602
 10
20.9579750807
 20
4.1474475407
 10
20.9500663785
 20
4.1337578732
 10
20.9422331325
 20
4.1208292072
 10
20.934496573
 20
4.1087027207
 10
20.9268417959
 20
4.0973386501
 10
20.9192968409
 20
4.0866565123
 10
20.9118906034
 20
4.0766848593
 10
20.9045982523
 20
4.0673962793
 10
20.8973661873
 20
4.0586261282
 10
20.8901771474
 20
4.0503197263
 10
20.8830506211
 20
4.0425325041
 10
20.8759875683
 20
4.0352648423
  0
LINE
  5
572
100
AcDbEntity
  8
268
100
AcDbLine
 62
7
  6
CONTINUOUS
 10
5.0602487658
 20
-24.2137045604
 11
5.5885159375
 21
-23.9426935017
  0
LINE
  5
573
100
AcDbEntity
  8
268
100
AcDbLine
 62
250
  6
CONTINUOUS
 10
5.4491574954
 20
-22.3729876844
 11
6.1562642766
 21
-22.0118766046
  0
LINE
  5
574
100
AcDbEntity
  8
268
100
AcDbLine
 62
7
  6
CONTINUOUS
 10
5.3591886775
 20
-22.5618002377
 11
6.0662954587
 21
-22.200689158
  0
LINE
  5
575
100
AcDbEntity
  8
268
100
AcDbLine
 62
7
  6
CONTINUOUS
 10
5.3591887019
 20
-22.5618002258
 11
5.3571811065
 21
-22.5628039321
  0
LINE
  5
576
100
AcDbEntity
  8
268
100
AcDbLine
 62
250
  6
CONTINUOUS
 10
3.6813905425
 20
-23.2379769379
 11
5.4491574954
 21
-22.3729876844
  0
LINE
  5
577
100
AcDbEntity
  8
268
100
AcDbLine
 62
7
  6
CONTINUOUS
 10
3.5894141044
 20
-23.4277932096
 11
5.3571810574
 21
-22.5628039561
  0
LINE
  5
578
100
AcDbEntity
  8
268
100
AcDbLine
 62
7
  6
CONTINUOUS
 10
3.4589679749
 20
-24.99373916
 11
5.0602487658
 21
-24.2137045604
  0
LINE
  5
579
100
AcDbEntity
  8
RACCORDO
100
AcDbLine
 62
250
  6
CONTINUOUS
 10
-3.3051293921
 20
-24.9692207709
 11
0.7275683661
 21
-23.6616185074
  0
LINE
  5
57A
100
AcDbEntity
  8
ASSI
100
AcDbLine
 62
250
  6
CONTINUOUS
 10
-3.3051293921
 20
-24.9692207709
 11
0.7275683661
 21
-23.6616185074
  0
LINE
  5
57B
100
AcDbEntity
  8
RACCORDO
100
AcDbLine
 62
7
  6
CONTINUOUS
 10
-3.6141669675
 20
-25.4438802159
 11
0.422381225
 21
-24.1350294489
  0
LINE
  5
57C
100
AcDbEntity
  8
ASSI
100
AcDbLine
 62
7
  6
CONTINUOUS
 10
0.422381225
 20
-24.1350294489
 11
-3.615735981
 21
-25.444384891
  0
LINE
  5
57D
100
AcDbEntity
  8
268
100
AcDbLine
 62
7
  6
CONTINUOUS
 10
1.8618391946
 20
23.7275139926
 11
3.2217711347
 21
23.80126218
  0
LWPOLYLINE
  5
57E
100
AcDbEntity
  8
268
100
AcDbPolyline
 62
7
  6
CONTINUOUS
 90
13
 70
0
 10
10.1844064019
 20
20.9659032321
 10
10.1497555919
 20
20.9723329133
 10
10.1145513689
 20
20.977716066
 10
10.078831517
 20
20.9820782069
 10
10.0426062001
 20
20.98547213
 10
10.005938462
 20
20.9879018797
 10
9.9689422521
 20
20.9893131089
 10
9.9316552171
 20
20.9897232438
 10
9.8941042353
 20
20.9891593623
 10
9.8563835344
 20
20.9875673741
 10
9.8185441597
 20
20.9849382831
 10
9.7805949734
 20
20.9813163019
 10
9.742565534
 20
20.9767215124
  0
LWPOLYLINE
  5
57F
100
AcDbEntity
  8
715
100
AcDbPolyline
 62
7
  6
CONTINUOUS
 90
9
 70
0
 10
15.1124281144
 20
21.2331494407
 10
15.1063113738
 20
21.2347489384
 10
15.0965411601
 20
21.2362817523
 10
15.0862149646
 20
21.2366971967
 10
15.0754277675
 20
21.2359954242
 10
15.0644645086
 20
21.2341768929
 10
15.0534201678
 20
21.2312417553
 10
15.0421997653
 20
21.2271898589
 10
15.0308033011
 20
21.2220212037
  0
LINE
  5
580
100
AcDbEntity
  8
715
100
AcDbLine
 62
7
  6
CONTINUOUS
 10
13.7193653156
 20
20.566302211
 11
13.2696206543
 21
20.6880500441
  0
LWPOLYLINE
  5
581
100
AcDbEntity
  8
715
100
AcDbPolyline
 62
7
  6
CONTINUOUS
 90
28
 70
0
 10
15.1124179782
 20
21.2331254883
 10
15.0037026316
 20
21.2644113341
 10
14.8888475886
 20
21.2937650111
 10
14.7715861647
 20
21.3200920813
 10
14.6522129999
 20
21.343354173
 10
14.5309926282
 20
21.3635247258
 10
14.4081632587
 20
21.3805840011
 10
14.2840144613
 20
21.3945078427
 10
14.1588309983
 20
21.4052785116
 10
14.0328504807
 20
21.4128859113
 10
13.9063640946
 20
21.41731929
 10
13.7796613717
 20
21.4185738447
 10
13.6529796262
 20
21.4166490717
 10
13.5266083564
 20
21.4115477367
 10
13.4008387659
 20
21.4032785245
 10
13.2759091665
 20
21.3918506491
 10
13.1521102919
 20
21.3772808168
 10
13.0297255395
 20
21.3595907952
 10
12.9089771033
 20
21.3387966199
 10
12.7901421822
 20
21.3149250198
 10
12.6735063588
 20
21.2880099681
 10
12.5592947858
 20
21.2580752008
 10
12.4477796076
 20
21.2251580969
 10
12.3392334112
 20
21.1893014621
 10
12.2338665196
 20
21.1505298445
 10
12.1319197372
 20
21.1088770361
 10
12.0336735997
 20
21.0643962616
 10
11.9393895386
 20
21.0171388721
  0
LWPOLYLINE
  5
582
100
AcDbEntity
  8
268
100
AcDbPolyline
 62
7
  6
CONTINUOUS
 90
18
 70
0
 10
2.9618735632
 20
24.6129274996
 10
2.9423255787
 20
24.6220101864
 10
2.9194297985
 20
24.6309956011
 10
2.8959205122
 20
24.6384978339
 10
2.8717791901
 20
24.6445320037
 10
2.8470894368
 20
24.6490777881
 10
2.8218280105
 20
24.6521317715
 10
2.796018153
 20
24.6536973695
 10
2.7698131942
 20
24.653764506
 10
2.7432292316
 20
24.6523257301
 10
2.7162501675
 20
24.6493884927
 10
2.6889810389
 20
24.6449650715
 10
2.6614068593
 20
24.6390466858
 10
2.633542615
 20
24.6316421163
 10
2.6055383019
 20
24.6227899817
 10
2.5774439187
 20
24.612503155
 10
2.5492094667
 20
24.6007687633
 10
2.5208349459
 20
24.5875868065
  0
LWPOLYLINE
  5
583
100
AcDbEntity
  8
268
100
AcDbPolyline
 62
7
  6
CONTINUOUS
 90
10
 70
0
 10
10.4308443551
 20
20.8784642004
 10
10.4077418223
 20
20.8897171924
 10
10.377965778
 20
20.9032936342
 10
10.3486922589
 20
20.9156792509
 10
10.3199022509
 20
20.9268810475
 10
10.2916147683
 20
20.936892019
 10
10.2639131119
 20
20.9457917634
 10
10.2368250489
 20
20.9536068134
 10
10.2103228122
 20
20.9603106363
 10
10.1844064019
 20
20.9659032321
  0
LINE
  5
584
100
AcDbEntity
  8
218_STAMPATO
100
AcDbLine
 62
7
  6
CONTINUOUS
 10
10.8752445
 20
19.8446216868
 11
11.3910805034
 21
19.5867036851
  0
LINE
  5
585
100
AcDbEntity
  8
268
100
AcDbLine
 62
7
  6
CONTINUOUS
 10
3.2217711347
 20
23.80126218
 11
5.4315120229
 21
22.6963917359
  0
LINE
  5
586
100
AcDbEntity
  8
268
100
AcDbLine
 62
7
  6
CONTINUOUS
 10
6.177096846
 20
22.3235993244
 11
6.322910256
 21
22.2506926193
  0
LINE
  5
587
100
AcDbEntity
  8
268
100
AcDbLine
 62
7
  6
CONTINUOUS
 10
0.354313389
 20
25.4982347326
 11
0.5347653662
 21
25.408008744
  0
LINE
  5
588
100
AcDbEntity
  8
268
100
AcDbLine
 62
7
  6
CONTINUOUS
 10
5.9087769032
 20
22.7210029755
 11
6.0892288803
 21
22.6307769869
  0
LINE
  5
589
100
AcDbEntity
  8
268
100
AcDbLine
 62
250
  6
CONTINUOUS
 10
-0.458254955
 20
26.0771317569
 11
2.5208349459
 21
24.5875868065
  0
LINE
  5
58A
100
AcDbEntity
  8
268
100
AcDbLine
 62
250
  6
CONTINUOUS
 10
6.763475633
 20
22.4662664629
 11
9.742565534
 21
20.9767215124
  0
LINE
  5
58B
100
AcDbEntity
  8
268
100
AcDbLine
 62
7
  6
CONTINUOUS
 10
7.2045186361
 20
22.4916159295
 11
10.4308418793
 21
20.8784543079
  0
LINE
  5
58C
100
AcDbEntity
  8
715
100
AcDbLine
 62
7
  6
CONTINUOUS
 10
12.7746459075
 20
20.4405626707
 11
12.0676769673
 21
20.7940471408
  0
LINE
  5
58D
100
AcDbEntity
  8
715
100
AcDbLine
 62
7
  6
CONTINUOUS
 10
5.350024705
 20
24.152873272
 11
4.6430557649
 21
24.506357742
  0
LINE
  5
58E
100
AcDbEntity
  8
715
100
AcDbLine
 62
7
  6
CONTINUOUS
 10
13.2696206543
 20
20.6880500441
 11
12.5626517142
 21
21.0415345142
  0
LINE
  5
58F
100
AcDbEntity
  8
715
100
AcDbLine
 62
7
  6
CONTINUOUS
 10
5.8449994518
 20
24.4003606454
 11
5.1380305117
 21
24.7538451154
  0
LINE
  5
590
100
AcDbEntity
  8
218_STAMPATO
100
AcDbLine
 62
7
  6
CONTINUOUS
 10
11.5869999786
 20
21.5631385231
 11
12.0193142293
 21
21.3469813977
  0
LINE
  5
591
100
AcDbEntity
  8
218_STAMPATO
100
AcDbLine
 62
7
  6
CONTINUOUS
 10
4.5946930269
 20
25.059291999
 11
4.1623787761
 21
25.2754491243
  0
LWPOLYLINE
  5
592
100
AcDbEntity
  8
715
100
AcDbPolyline
 62
250
  6
CONTINUOUS
 90
4
 70
0
 10
8.5483757311
 20
24.5163781926
 10
8.5728987214
 20
24.4958738142
 10
8.5972644831
 20
24.4745955498
 10
8.6195312455
 20
24.4542425411
  0
LWPOLYLINE
  5
593
100
AcDbEntity
  8
715
100
AcDbPolyline
 62
250
  6
CONTINUOUS
 90
6
 70
0
 10
8.4547391319
 20
24.5100821842
 10
8.4775995614
 20
24.4905034507
 10
8.5001770997
 20
24.4701504042
 10
8.5224717468
 20
24.4490230446
 10
8.5445172452
 20
24.4271931576
 10
8.5504129319
 20
24.4210694758
  0
LINE
  5
594
100
AcDbEntity
  8
715
100
AcDbLine
 62
7
  6
CONTINUOUS
 10
12.7746459075
 20
20.4405626707
 11
13.0181415738
 21
20.21569034
  0
LWPOLYLINE
  5
595
100
AcDbEntity
  8
715
100
AcDbPolyline
 62
7
  6
CONTINUOUS
 90
9
 70
0
 10
7.6878069119
 20
24.9454600419
 10
7.6816901714
 20
24.9470595397
 10
7.6719199576
 20
24.9485923535
 10
7.6615937622
 20
24.9490077979
 10
7.650806565
 20
24.9483060254
 10
7.6398433061
 20
24.9464874941
 10
7.6287989654
 20
24.9435523566
 10
7.6175785629
 20
24.9395004602
 10
7.6061820986
 20
24.9343318049
  0
LINE
  5
596
100
AcDbEntity
  8
715
100
AcDbLine
 62
7
  6
CONTINUOUS
 10
6.2947441132
 20
24.2786128122
 11
5.8449994518
 21
24.4003606454
  0
LWPOLYLINE
  5
597
100
AcDbEntity
  8
715
100
AcDbPolyline
 62
7
  6
CONTINUOUS
 90
28
 70
0
 10
7.6877967757
 20
24.9454360895
 10
7.5790814291
 20
24.9767219353
 10
7.4642263862
 20
25.0060756123
 10
7.3469649622
 20
25.0324026825
 10
7.2275917974
 20
25.0556647742
 10
7.1063714257
 20
25.075835327
 10
6.9835420563
 20
25.0928946023
 10
6.8593932589
 20
25.1068184439
 10
6.7342097958
 20
25.1175891129
 10
6.6082292783
 20
25.1251965126
 10
6.4817428921
 20
25.1296298913
 10
6.3550401692
 20
25.130884446
 10
6.2283584238
 20
25.1289596729
 10
6.101987154
 20
25.1238583379
 10
5.9762175634
 20
25.1155891258
 10
5.851287964
 20
25.1041612503
 10
5.7274890894
 20
25.089591418
 10
5.6051043371
 20
25.0719013965
 10
5.4843559009
 20
25.0511072211
 10
5.3655209798
 20
25.0272356211
 10
5.2488851564
 20
25.0003205693
 10
5.1346735833
 20
24.970385802
 10
5.0231584051
 20
24.9374686981
 10
4.9146122087
 20
24.9016120633
 10
4.8092453171
 20
24.8628404457
 10
4.7072985347
 20
24.8211876373
 10
4.6090523973
 20
24.7767068628
 10
4.5147683361
 20
24.7294494734
  0
LWPOLYLINE
  5
598
100
AcDbEntity
  8
715
100
AcDbPolyline
 62
7
  6
CONTINUOUS
 90
3
 70
0
 10
15.1244687961
 20
21.2283316601
 10
15.1156205858
 20
21.2320989077
 10
15.1124281144
 20
21.2331494407
  0
LWPOLYLINE
  5
599
100
AcDbEntity
  8
715
100
AcDbPolyline
 62
7
  6
CONTINUOUS
 90
3
 70
0
 10
7.6998475937
 20
24.9406422613
 10
7.6909993834
 20
24.9444095089
 10
7.6878069119
 20
24.9454600419
  0
LWPOLYLINE
  5
59A
100
AcDbEntity
  8
218_STAMPATO
100
AcDbPolyline
 62
7
  6
CONTINUOUS
 90
10
 70
0
 10
15.762278165
 20
21.4021567993
 10
15.7983837846
 20
21.3864490744
 10
15.833918387
 20
21.370440587
 10
15.8688819721
 20
21.3541313369
 10
15.9032847094
 20
21.3375162395
 10
15.9371164294
 20
21.3206003795
 10
15.9703466241
 20
21.3033990109
 10
16.0029651243
 20
21.2859172183
 10
16.0349820992
 20
21.2681499171
 10
16.066397549
 20
21.2500971073
  0
LWPOLYLINE
  5
59B
100
AcDbEntity
  8
218_STAMPATO
100
AcDbPolyline
 62
7
  6
CONTINUOUS
 90
10
 70
0
 10
8.3376569626
 20
25.1144674005
 10
8.3737625822
 20
25.0987596757
 10
8.4092971845
 20
25.0827511882
 10
8.4442607697
 20
25.0664419381
 10
8.4786635069
 20
25.0498268407
 10
8.5124952269
 20
25.0329109807
 10
8.5457254217
 20
25.0157096121
 10
8.5783439218
 20
24.9982278196
 10
8.6103608968
 20
24.9804605184
 10
8.6417763465
 20
24.9624077086
  0
LINE
  5
59C
100
AcDbEntity
  8
218_STAMPATO
100
AcDbLine
 62
7
  6
CONTINUOUS
 10
8.1541191215
 20
25.1905764685
 11
8.7856504426
 21
24.874810808
  0
LINE
  5
59D
100
AcDbEntity
  8
218_STAMPATO
100
AcDbLine
 62
7
  6
CONTINUOUS
 10
15.578740324
 20
21.4782658672
 11
16.210271645
 21
21.1625002067
  0
LINE
  5
59E
100
AcDbEntity
  8
218_STAMPATO
100
AcDbLine
 62
7
  6
CONTINUOUS
 10
15.762278165
 20
21.4021567993
 11
16.066397549
 21
21.2500971073
  0
LINE
  5
59F
100
AcDbEntity
  8
218_STAMPATO
100
AcDbLine
 62
7
  6
CONTINUOUS
 10
8.6417763465
 20
24.9624077086
 11
8.3376569626
 21
25.1144674005
  0
LINE
  5
5A0
100
AcDbEntity
  8
715
100
AcDbLine
 62
7
  6
CONTINUOUS
 10
8.5483757311
 20
24.5163781926
 11
8.6465617558
 21
24.4672157292
  0
LINE
  5
5A1
100
AcDbEntity
  8
715
100
AcDbLine
 62
7
  6
CONTINUOUS
 10
15.9729969336
 20
20.8040675914
 11
16.0711829583
 21
20.754905128
  0
LWPOLYLINE
  5
5A2
100
AcDbEntity
  8
715
100
AcDbPolyline
 62
7
  6
CONTINUOUS
 90
10
 70
0
 10
8.5104316638
 20
24.5290458476
 10
8.4129546101
 20
24.5791012793
 10
8.3173414083
 20
24.6280771549
 10
8.2235920583
 20
24.6759734745
 10
8.1317209771
 20
24.7227916623
 10
8.0417137476
 20
24.768530294
 10
7.9535271196
 20
24.8131850971
 10
7.8671466762
 20
24.8567546472
 10
7.7825868342
 20
24.8992403686
 10
7.6998475937
 20
24.9406422613
  0
LWPOLYLINE
  5
5A3
100
AcDbEntity
  8
715
100
AcDbPolyline
 62
7
  6
CONTINUOUS
 90
10
 70
0
 10
15.9350528663
 20
20.8167352464
 10
15.8375758126
 20
20.866790678
 10
15.7419626108
 20
20.9157665537
 10
15.6482132608
 20
20.9636628733
 10
15.5563421795
 20
21.010481061
 10
15.4663349501
 20
21.0562196928
 10
15.3781483221
 20
21.1008744958
 10
15.2917678787
 20
21.1444440459
 10
15.2072080367
 20
21.1869297674
 10
15.1244687961
 20
21.2283316601
  0
LINE
  5
5A4
100
AcDbEntity
  8
715
100
AcDbLine
 62
7
  6
CONTINUOUS
 10
8.5181900925
 20
24.5244593755
 11
8.5104316638
 21
24.5290458476
  0
LINE
  5
5A5
100
AcDbEntity
  8
715
100
AcDbLine
 62
7
  6
CONTINUOUS
 10
15.9428112949
 20
20.8121487743
 11
15.9350528663
 21
20.8167352464
  0
LWPOLYLINE
  5
5A6
100
AcDbEntity
  8
715
100
AcDbPolyline
 62
250
  6
CONTINUOUS
 90
4
 70
0
 10
15.9729969336
 20
20.8040675914
 10
15.9975199239
 20
20.783563213
 10
16.0218856856
 20
20.7622849486
 10
16.044152448
 20
20.7419319399
  0
LWPOLYLINE
  5
5A7
100
AcDbEntity
  8
715
100
AcDbPolyline
 62
250
  6
CONTINUOUS
 90
6
 70
0
 10
15.8793603344
 20
20.7977715829
 10
15.9022207638
 20
20.7781928495
 10
15.9247983021
 20
20.757839803
 10
15.9470929493
 20
20.7367124433
 10
15.9691384476
 20
20.7148825564
 10
15.9750341344
 20
20.7087588745
  0
LWPOLYLINE
  5
5A8
100
AcDbEntity
  8
218_STAMPATO
100
AcDbPolyline
 62
250
  6
CONTINUOUS
 90
57
 70
0
 10
21.0390976978
 20
17.6381787968
 10
21.048438743
 20
17.6081994514
 10
21.0606373748
 20
17.5656650649
 10
21.0720813999
 20
17.5221261037
 10
21.0827528651
 20
17.4775890699
 10
21.0925848988
 20
17.4320666215
 10
21.1015778602
 20
17.3854527868
 10
21.1097022535
 20
17.3378498717
 10
21.1168548348
 20
17.2895884826
 10
21.1230200622
 20
17.2406045111
 10
21.1281996613
 20
17.1909697965
 10
21.1323366365
 20
17.1412302467
 10
21.1354161607
 20
17.0913257737
 10
21.1374644505
 20
17.0413366964
 10
21.1385150883
 20
16.9920333134
 10
21.1385593586
 20
16.9433886441
 10
21.1376509479
 20
16.8954608728
 10
21.1359505113
 20
16.8491615586
 10
21.1334988943
 20
16.8048069737
 10
21.1303354679
 20
16.7621186586
 10
21.1266328203
 20
16.7211207785
 10
21.12244742
 20
16.6819359926
 10
21.1177899102
 20
16.6444680261
 10
21.1127548527
 20
16.6084092013
 10
21.1073733748
 20
16.5737276503
 10
21.1016613553
 20
16.5404712001
 10
21.0956798569
 20
16.5084483769
 10
21.0894478225
 20
16.4776336553
 10
21.0829821243
 20
16.448062977
 10
21.0763347012
 20
16.4196353699
 10
21.069522582
 20
16.3923508259
 10
21.0625575008
 20
16.3662165438
 10
21.0554795955
 20
16.3411414127
 10
21.0483053755
 20
16.3171348001
 10
21.0410411344
 20
16.2941923327
 10
21.0337084071
 20
16.2722015948
 10
21.0263218277
 20
16.2511694361
 10
21.0188841732
 20
16.2310924289
 10
21.0113962602
 20
16.2118421731
 10
21.0038654171
 20
16.1934108347
 10
20.9962971573
 20
16.1758085602
 10
20.9886872959
 20
16.1589334985
 10
20.9810327018
 20
16.1427657541
 10
20.9733460593
 20
16.1273268552
 10
20.9656454964
 20
16.1125768673
 10
20.9579273695
 20
16.0985080909
 10
20.950202755
 20
16.0851295579
 10
20.9425110066
 20
16.0724263635
 10
20.9348575133
 20
16.0604097239
 10
20.927242551
 20
16.0490696196
 10
20.91969703
 20
16.0383592409
 10
20.9122342625
 20
16.0282943601
 10
20.9048448375
 20
16.0188602405
 10
20.8975247933
 20
16.0099641919
 10
20.8902734982
 20
16.0015755587
 10
20.8830939336
 20
15.9937257992
 10
20.8759870962
 20
15.9864153114
  0
LWPOLYLINE
  5
5A9
100
AcDbEntity
  8
218_STAMPATO
100
AcDbPolyline
 62
250
  6
CONTINUOUS
 90
26
 70
0
 10
20.1434137174
 20
22.0012829944
 10
20.1363644211
 20
22.0047160026
 10
20.1211117114
 20
22.0115364256
 10
20.1055430503
 20
22.0176841556
 10
20.0896700143
 20
22.0231546214
 10
20.0735044061
 20
22.0279437555
 10
20.0570582459
 20
22.0320479965
 10
20.0403437627
 20
22.035464293
 10
20.0233733847
 20
22.0381901044
 10
20.0061597307
 20
22.0402234041
 10
19.9887156001
 20
22.0415626801
 10
19.9710539632
 20
22.0422069366
 10
19.9531879534
 20
22.0421556944
 10
19.9351308575
 20
22.0414089919
 10
19.916896104
 20
22.0399673846
 10
19.8984972502
 20
22.0378319447
 10
19.8799479744
 20
22.03500426
 10
19.8612620564
 20
22.0314864303
 10
19.8424534032
 20
22.027281073
 10
19.823536038
 20
22.0223913256
 10
19.804524048
 20
22.0168208341
 10
19.7854315501
 20
22.0105737398
 10
19.7662727183
 20
22.0036546831
 10
19.7470617906
 20
21.9960688071
 10
19.7278130592
 20
21.9878217564
 10
19.7085408368
 20
21.9789196648
  0
LWPOLYLINE
  5
5AA
100
AcDbEntity
  8
218_STAMPATO
100
AcDbPolyline
 62
250
  6
CONTINUOUS
 90
24
 70
0
 10
6.5586727357
 20
28.5538537154
 10
6.5382539767
 20
28.5638371218
 10
6.5178420503
 20
28.5730744679
 10
6.4974542216
 20
28.5815579405
 10
6.477107735
 20
28.589280364
 10
6.4568198003
 20
28.5962352067
 10
6.4366075776
 20
28.6024165858
 10
6.4164881628
 20
28.607819273
 10
6.3964785737
 20
28.6124386986
 10
6.3765957348
 20
28.6162709553
 10
6.3568564635
 20
28.6193128017
 10
6.3372774561
 20
28.6215616649
 10
6.3178752728
 20
28.6230156427
 10
6.2986663247
 20
28.6236735054
 10
6.2796668591
 20
28.6235346966
 10
6.2608929464
 20
28.6225993335
 10
6.2423604661
 20
28.6208682074
 10
6.2240850934
 20
28.6183427825
 10
6.2060822863
 20
28.6150251949
 10
6.1883672719
 20
28.6109182507
 10
6.1709550341
 20
28.6060254236
 10
6.1538603007
 20
28.6003508522
 10
6.1370975308
 20
28.5938993362
 10
6.1197879852
 20
28.5862566504
  0
LINE
  5
5AB
100
AcDbEntity
  8
218_STAMPATO
100
AcDbLine
 62
7
  6
CONTINUOUS
 10
18.6678563668
 20
22.0011684144
 11
15.559040796
 21
23.5555761998
  0
LINE
  5
5AC
100
AcDbEntity
  8
218_STAMPATO
100
AcDbLine
 62
7
  6
CONTINUOUS
 10
11.2432351643
 20
25.7134790157
 11
8.1344195935
 21
27.267886801
  0
LINE
  5
5AD
100
AcDbEntity
  8
218_STAMPATO
100
AcDbLine
 62
250
  6
CONTINUOUS
 10
19.1761429789
 20
22.2451185938
 11
19.7085408368
 21
21.9789196648
  0
LINE
  5
5AE
100
AcDbEntity
  8
218_STAMPATO
100
AcDbLine
 62
250
  6
CONTINUOUS
 10
14.5156917961
 20
24.5753441852
 11
11.7515217764
 21
25.957429195
  0
LINE
  5
5AF
100
AcDbEntity
  8
218_STAMPATO
100
AcDbLine
 62
250
  6
CONTINUOUS
 10
7.0910705936
 20
28.2876547864
 11
6.5586727357
 21
28.5538537154
  0
LINE
  5
5B0
100
AcDbEntity
  8
218_STAMPATO
100
AcDbLine
 62
7
  6
CONTINUOUS
 10
19.5228490897
 20
22.3115653083
 11
20.1434137174
 21
22.0012829944
  0
LINE
  5
5B1
100
AcDbEntity
  8
218_STAMPATO
100
AcDbLine
 62
7
  6
CONTINUOUS
 10
15.0387314464
 20
24.5536241299
 11
12.0982278872
 21
26.0238759095
  0
LINE
  5
5B2
100
AcDbEntity
  8
218_STAMPATO
100
AcDbLine
 62
7
  6
CONTINUOUS
 10
7.6141102439
 20
28.2659347311
 11
6.9935456162
 21
28.576217045
  0
LWPOLYLINE
  5
5B3
100
AcDbEntity
  8
218_STAMPATO
100
AcDbPolyline
 62
7
  6
CONTINUOUS
 90
104
 70
0
 10
21.0390976978
 20
19.4572512029
 10
21.0518190425
 20
19.4479963777
 10
21.0966406543
 20
19.4141280562
 10
21.1411245013
 20
19.379253144
 10
21.1852821613
 20
19.3433683565
 10
21.2291127384
 20
19.3064781653
 10
21.2725844909
 20
19.2686128317
 10
21.3156621114
 20
19.229807995
 10
21.3583250321
 20
19.1900879731
 10
21.4005627389
 20
19.1494681693
 10
21.4423552403
 20
19.10797324
 10
21.4836813663
 20
19.0656299699
 10
21.52453212
 20
19.0224531857
 10
21.5649052418
 20
18.9784498092
 10
21.6047960655
 20
18.9336281267
 10
21.644178538
 20
18.88802045
 10
21.6830184633
 20
18.8416708279
 10
21.7212873617
 20
18.7946193633
 10
21.7589859882
 20
18.7468711216
 10
21.7961237255
 20
18.69841796
 10
21.8326994277
 20
18.6492628206
 10
21.8686846233
 20
18.5994452462
 10
21.9040475747
 20
18.5490122062
 10
21.9387648623
 20
18.4980017641
 10
21.9728338853
 20
18.4464222894
 10
22.0062544572
 20
18.3942769246
 10
22.0390184289
 20
18.3415798154
 10
22.0711071265
 20
18.2883622594
 10
22.1025042634
 20
18.2346530162
 10
22.1331956076
 20
18.1804784196
 10
22.1631705412
 20
18.1258590393
 10
22.1924185749
 20
18.07081536
 10
22.2209271788
 20
18.0153720531
 10
22.2486851157
 20
17.9595518744
 10
22.2756837979
 20
17.9033724321
 10
22.3019124591
 20
17.8468558374
 10
22.3273589419
 20
17.7900277506
 10
22.352012648
 20
17.732911079
 10
22.3758631672
 20
17.6755287759
 10
22.3988993698
 20
17.6179061523
 10
22.421110039
 20
17.5600696737
 10
22.4424825048
 20
17.5020509796
 10
22.4630098554
 20
17.4438671272
 10
22.482689179
 20
17.3855224769
 10
22.5015159582
 20
17.3270234162
 10
22.5194741346
 20
17.2684121518
 10
22.536544562
 20
17.2097465979
 10
22.5527124327
 20
17.1510771447
 10
22.5679778895
 20
17.0924023216
 10
22.5823441616
 20
17.033701992
 10
22.5958083525
 20
16.9749723763
 10
22.6083544229
 20
16.9162661732
 10
22.6199661652
 20
16.8576474695
 10
22.6306330707
 20
16.7991633583
 10
22.6403536164
 20
16.7408149775
 10
22.6491260009
 20
16.6825969272
 10
22.6569451345
 20
16.6245166819
 10
22.66380136
 20
16.5666152992
 10
22.6696860291
 20
16.5089371285
 10
22.6745934478
 20
16.4515085197
 10
22.6785186324
 20
16.3943505713
 10
22.6814560351
 20
16.3374985025
 10
22.6834011841
 20
16.2809854594
 10
22.6843506816
 20
16.2248244918
 10
22.6843005485
 20
16.1690199461
 10
22.6832452352
 20
16.1135615169
 10
22.6811800486
 20
16.0585064856
 10
22.6781060319
 20
16.0039580409
 10
22.6740276064
 20
15.949983861
 10
22.6689431361
 20
15.8965566553
 10
22.6628457685
 20
15.8436357972
 10
22.6557235427
 20
15.7911789535
 10
22.6475809868
 20
15.7392739348
 10
22.6384403528
 20
15.6880718175
 10
22.6283201285
 20
15.6376502383
 10
22.6172156801
 20
15.5879637375
 10
22.6051191098
 20
15.5389752804
 10
22.5920195943
 20
15.4906552032
 10
22.5779318171
 20
15.4430715607
 10
22.5628887187
 20
15.3963314363
 10
22.5469070305
 20
15.3504699543
 10
22.5299892877
 20
15.3054790814
 10
22.5121545735
 20
15.2613953111
 10
22.4934185573
 20
15.2182407183
 10
22.4737887402
 20
15.1760171251
 10
22.4532734516
 20
15.1347297297
 10
22.4318645897
 20
15.0943546917
 10
22.4095922875
 20
15.05494185
 10
22.3865294779
 20
15.0166008313
 10
22.3627365762
 20
14.9793984582
 10
22.3381957501
 20
14.9432746328
 10
22.3128640489
 20
14.9081486134
 10
22.2867241244
 20
14.8739909043
 10
22.2598210429
 20
14.8408551229
 10
22.2322033735
 20
14.8087889852
 10
22.2039062099
 20
14.7778165327
 10
22.1749340878
 20
14.7479264179
 10
22.1452928047
 20
14.7191114006
 10
22.1150047629
 20
14.6913812544
 10
22.0840875191
 20
14.6647401995
 10
22.0525383055
 20
14.6391761286
 10
22.0203690053
 20
14.6146913151
 10
21.9876075026
 20
14.5912995914
 10
21.9542744844
 20
14.5690077461
  0
LWPOLYLINE
  5
5B4
100
AcDbEntity
  8
218_STAMPATO
100
AcDbPolyline
 62
250
  6
CONTINUOUS
 90
105
 70
0
 10
21.0390976978
 20
19.3670025646
 10
21.0536404424
 20
19.3552993575
 10
21.0956955026
 20
19.3203066527
 10
21.1375031336
 20
19.2843644788
 10
21.1790450692
 20
19.2474885393
 10
21.2203031651
 20
19.2096949408
 10
21.2612594115
 20
19.1710001816
 10
21.3018959289
 20
19.1314211539
 10
21.342194974
 20
19.0909751393
 10
21.3821389498
 20
19.0496797989
 10
21.4217104179
 20
19.007553161
 10
21.4608921034
 20
18.9646136154
 10
21.4996668935
 20
18.9208799156
 10
21.5380178483
 20
18.8763711684
 10
21.575928214
 20
18.8311068183
 10
21.6133814458
 20
18.785106621
 10
21.6503612047
 20
18.7383906434
 10
21.6868513551
 20
18.6909792684
 10
21.7228359512
 20
18.6428932121
 10
21.7582992608
 20
18.5941534979
 10
21.793225785
 20
18.544781429
 10
21.8276002886
 20
18.494798544
 10
21.8614077859
 20
18.4442266332
 10
21.8946335306
 20
18.3930877524
 10
21.9272629973
 20
18.3414042555
 10
21.959281912
 20
18.2891987517
 10
21.990676277
 20
18.2364940673
 10
22.0214324032
 20
18.1833131864
 10
22.0515368889
 20
18.1296792825
 10
22.0809766062
 20
18.0756157398
 10
22.1097386805
 20
18.0211461978
 10
22.1378105249
 20
17.9662944936
 10
22.1651798652
 20
17.911084615
 10
22.1918347706
 20
17.8555406337
 10
22.2177636293
 20
17.7996867461
 10
22.2429551354
 20
17.7435473017
 10
22.2673982702
 20
17.6871468513
 10
22.2910823352
 20
17.63051008
 10
22.3139969747
 20
17.5736617577
 10
22.3361322009
 20
17.5166266684
 10
22.357478371
 20
17.4594296579
 10
22.3780261766
 20
17.4020956626
 10
22.39776663
 20
17.3446497551
 10
22.4166910919
 20
17.2871170753
 10
22.4347912892
 20
17.2295227814
 10
22.4520593318
 20
17.1718919853
 10
22.4684876957
 20
17.1142497983
 10
22.4840692151
 20
17.0566213564
 10
22.4987970755
 20
16.9990318561
 10
22.5126648338
 20
16.9415064914
 10
22.5256664294
 20
16.8840704097
 10
22.5377961934
 20
16.8267486607
 10
22.549048838
 20
16.769566233
 10
22.5594194534
 20
16.7125480707
 10
22.5689035053
 20
16.6557190953
 10
22.5774968471
 20
16.5991041538
 10
22.5851957246
 20
16.5427279853
 10
22.5919967799
 20
16.4866151874
 10
22.5978970464
 20
16.4307902375
 10
22.6028939482
 20
16.375277499
 10
22.6069853017
 20
16.3201012242
 10
22.6101693191
 20
16.26528552
 10
22.6124446101
 20
16.2108543276
 10
22.613810182
 20
16.1568314076
 10
22.6142654387
 20
16.1032403444
 10
22.6138101814
 20
16.0501045383
 10
22.612444609
 20
15.9974471908
 10
22.6101693173
 20
15.9452912898
 10
22.6069852994
 20
15.8936596032
 10
22.6028939453
 20
15.8425746821
 10
22.5978970429
 20
15.7920588458
 10
22.5919967759
 20
15.7421341628
 10
22.58519572
 20
15.6928224207
 10
22.5774968419
 20
15.6441451302
 10
22.5689034996
 20
15.5961235308
 10
22.5594194471
 20
15.5487786078
 10
22.5490488312
 20
15.5021310613
 10
22.5377961859
 20
15.4562012787
 10
22.5256664214
 20
15.4110092941
 10
22.5126648253
 20
15.3665748085
 10
22.4987970664
 20
15.3229172027
 10
22.4840692055
 20
15.2800555635
 10
22.4684876856
 20
15.2380086415
 10
22.4520593211
 20
15.1967948189
 10
22.4347912779
 20
15.1564320658
 10
22.4166910801
 20
15.1169379697
 10
22.3977666177
 20
15.0783297526
 10
22.378026164
 20
15.0406242992
 10
22.3574783579
 20
15.0038381102
 10
22.3361321871
 20
14.9679872704
 10
22.3139969603
 20
14.9330874076
 10
22.2910823202
 20
14.8991537253
 10
22.2673982548
 20
14.8662010199
 10
22.2429551198
 20
14.8342437052
 10
22.2177636133
 20
14.8032957677
 10
22.191834754
 20
14.7733707393
 10
22.1651798479
 20
14.7444816637
 10
22.137810507
 20
14.7166411261
 10
22.1097386623
 20
14.6898612672
 10
22.0809765879
 20
14.6641538006
 10
22.0515368704
 20
14.6395299761
 10
22.0214323841
 20
14.6160005583
 10
21.9906762571
 20
14.5935758042
 10
21.9592818915
 20
14.5722654853
 10
21.9542744849
 20
14.5690077464
  0
LWPOLYLINE
  5
5B5
100
AcDbEntity
  8
218_STAMPATO
100
AcDbPolyline
 62
250
  6
CONTINUOUS
 90
34
 70
0
 10
20.6971302546
 20
21.3741829106
 10
20.6961731194
 20
21.3754439838
 10
20.6943003893
 20
21.3768597451
 10
20.6917873269
 20
21.3779010381
 10
20.6886357983
 20
21.3785670895
 10
20.684848144
 20
21.3788574046
 10
20.6804271766
 20
21.3787717679
 10
20.6753761792
 20
21.378310243
 10
20.6696989027
 20
21.3774731726
 10
20.6633995631
 20
21.3762611783
 10
20.6564828382
 20
21.3746751602
 10
20.6489538646
 20
21.372716296
 10
20.6408182331
 20
21.3703860404
 10
20.6320819855
 20
21.3676861239
 10
20.6227516093
 20
21.3646185514
 10
20.6128340332
 20
21.3611856009
 10
20.6023366222
 20
21.3573898218
 10
20.5912671716
 20
21.3532340328
 10
20.5796339018
 20
21.3487213201
 10
20.5674454515
 20
21.3438550347
 10
20.5547108721
 20
21.3386387905
 10
20.5414396203
 20
21.333076461
 10
20.5276415514
 20
21.3271721769
 10
20.5133269119
 20
21.3209303227
 10
20.4985063319
 20
21.3143555336
 10
20.4831908174
 20
21.3074526922
 10
20.4673917417
 20
21.3002269244
 10
20.4511208372
 20
21.2926835963
 10
20.4343901869
 20
21.2848283095
 10
20.4172122149
 20
21.2766668973
 10
20.3995996779
 20
21.2682054206
 10
20.3815656548
 20
21.2594501629
 10
20.363123538
 20
21.2504076258
 10
20.3442870225
 20
21.2410845243
  0
LWPOLYLINE
  5
5B6
100
AcDbEntity
  8
218_STAMPATO
100
AcDbPolyline
 62
250
  6
CONTINUOUS
 90
34
 70
0
 10
20.5613079332
 20
21.608441763
 10
20.560350781
 20
21.6097028653
 10
20.5584780507
 20
21.6111186266
 10
20.5559649882
 20
21.6121599195
 10
20.5528134595
 20
21.6128259708
 10
20.5490258051
 20
21.6131162859
 10
20.5446048376
 20
21.6130306491
 10
20.5395538401
 20
21.6125691241
 10
20.5338765635
 20
21.6117320537
 10
20.5275772238
 20
21.6105200593
 10
20.5206604989
 20
21.6089340412
 10
20.5131315251
 20
21.6069751769
 10
20.5049958937
 20
21.6046449213
 10
20.496259646
 20
21.6019450047
 10
20.4869292697
 20
21.5988774322
 10
20.4770116936
 20
21.5954444817
 10
20.4665142826
 20
21.5916487025
 10
20.455444832
 20
21.5874929135
 10
20.4438115621
 20
21.5829802007
 10
20.4316231119
 20
21.5781139154
 10
20.4188885325
 20
21.5728976711
 10
20.4056172807
 20
21.5673353417
 10
20.3918192119
 20
21.5614310575
 10
20.3775045724
 20
21.5551892033
 10
20.3626839926
 20
21.5486144143
 10
20.3473684781
 20
21.5417115729
 10
20.3315694025
 20
21.5344858052
 10
20.3152984982
 20
21.5269424771
 10
20.2985678479
 20
21.5190871903
 10
20.2813898761
 20
21.5109257782
 10
20.2637773392
 20
21.5024643016
 10
20.2457433163
 20
21.4937090439
 10
20.2273011996
 20
21.4846665068
 10
20.2084646844
 20
21.4753434055
  0
LWPOLYLINE
  5
5B7
100
AcDbEntity
  8
218_STAMPATO
100
AcDbPolyline
 62
7
  6
CONTINUOUS
 90
23
 70
0
 10
20.5613079332
 20
21.608441763
 10
20.5477278396
 20
21.6311653932
 10
20.5335548225
 20
21.6535157573
 10
20.5187991062
 20
21.6754777436
 10
20.5034723341
 20
21.6970350773
 10
20.4875845043
 20
21.7181746721
 10
20.471143618
 20
21.7388863231
 10
20.4541586848
 20
21.7591585068
 10
20.4366437171
 20
21.7789743066
 10
20.4186148365
 20
21.7983158385
 10
20.4000884471
 20
21.8171664577
 10
20.3810743825
 20
21.8355170739
 10
20.3615793064
 20
21.8533613565
 10
20.3416141374
 20
21.8706887358
 10
20.3211949681
 20
21.8874846795
 10
20.3003363172
 20
21.9037368846
 10
20.2790507914
 20
21.91943509
 10
20.2573549542
 20
21.9345666552
 10
20.2352701664
 20
21.949116741
 10
20.2128168026
 20
21.9630726014
 10
20.1900063792
 20
21.9764277557
 10
20.1668474096
 20
21.9891772474
 10
20.143414245
 20
22.0012827306
  0
LWPOLYLINE
  5
5B8
100
AcDbEntity
  8
218_STAMPATO
100
AcDbPolyline
 62
250
  6
CONTINUOUS
 90
28
 70
0
 10
20.2084646844
 20
21.4753434055
 10
20.1938551839
 20
21.5003377246
 10
20.1788247528
 20
21.5249992257
 10
20.1633861043
 20
21.5493070494
 10
20.1475522968
 20
21.5732406354
 10
20.131336723
 20
21.5967797401
 10
20.1147530984
 20
21.6199044533
 10
20.09781545
 20
21.6425952156
 10
20.0805381041
 20
21.6648328346
 10
20.0629356744
 20
21.6865985009
 10
20.0450230494
 20
21.7078738045
 10
20.0268153802
 20
21.7286407503
 10
20.0083280674
 20
21.748881773
 10
19.989576748
 20
21.7685797521
 10
19.9705772825
 20
21.7877180265
 10
19.951345741
 20
21.8062804086
 10
19.9318983903
 20
21.8242511978
 10
19.9122516793
 20
21.8416151938
 10
19.8924222259
 20
21.8583577097
 10
19.8724268023
 20
21.8744645843
 10
19.8522823212
 20
21.8899221938
 10
19.8320058215
 20
21.9047174638
 10
19.8116144535
 20
21.9188378801
 10
19.7911254648
 20
21.9322714992
 10
19.7705561856
 20
21.9450069585
 10
19.7499240139
 20
21.9570334861
 10
19.7292464011
 20
21.9683409096
 10
19.7085408368
 20
21.9789196648
  0
LINE
  5
5B9
100
AcDbEntity
  8
218_STAMPATO
100
AcDbLine
 62
250
  6
CONTINUOUS
 10
20.2084646844
 20
21.4753434055
 11
20.3442870225
 21
21.2410845243
  0
LINE
  5
5BA
100
AcDbEntity
  8
218_STAMPATO
100
AcDbLine
 62
7
  6
CONTINUOUS
 10
20.5613079332
 20
21.608441763
 11
20.6971302713
 21
21.3741828817
  0
LWPOLYLINE
  5
5BB
100
AcDbEntity
  8
218_STAMPATO
100
AcDbPolyline
 62
250
  6
CONTINUOUS
 90
37
 70
0
 10
20.3442870225
 20
21.2410845243
 10
20.3659678303
 20
21.2033458528
 10
20.3871566304
 20
21.1652776054
 10
20.4078432991
 20
21.1268978744
 10
20.4280178793
 20
21.0882249515
 10
20.4476708123
 20
21.0492771692
 10
20.4667929323
 20
21.0100728879
 10
20.4853751623
 20
20.9706306296
 10
20.5034085606
 20
20.930969252
 10
20.5208845509
 20
20.8911077886
 10
20.5377947766
 20
20.8510652587
 10
20.5541311877
 20
20.8108606361
 10
20.5698860782
 20
20.7705130197
 10
20.5850519427
 20
20.7300415996
 10
20.5996215404
 20
20.6894656206
 10
20.613587983
 20
20.648804353
 10
20.6269446316
 20
20.6080771131
 10
20.639685103
 20
20.567303299
 10
20.6518033315
 20
20.526502353
 10
20.6632935588
 20
20.485693692
 10
20.6741503105
 20
20.4448967285
 10
20.6843684032
 20
20.4041309057
 10
20.6939429869
 20
20.3634156569
 10
20.7028695168
 20
20.3227703255
 10
20.7111437305
 20
20.2822141862
 10
20.7187617155
 20
20.2417665484
 10
20.7257198573
 20
20.2014466619
 10
20.7320148084
 20
20.1612736372
 10
20.7376436132
 20
20.1212665462
 10
20.7426035989
 20
20.0814444953
 10
20.746892326
 20
20.04182653
 10
20.750507789
 20
20.0024316353
 10
20.753448314
 20
19.9632784521
 10
20.7557124392
 20
19.9243853554
 10
20.7572990855
 20
19.8857707843
 10
20.7582075692
 20
19.8474532293
 10
20.7584374982
 20
19.8094509497
  0
ELLIPSE
  5
5BC
100
AcDbEntity
  8
RACCORDO
100
AcDbEllipse
 62
7
  6
CONTINUOUS
 10
-10.7836379741
 20
21.3130526366
 30
0.0
 11
-0.2714549605
 21
0.7527883138
 31
0.0
 40
0.6648474984
 41
-0.6093959365
 42
0.0216334957
  0
ELLIPSE
  5
5BD
100
AcDbEntity
  8
RACCORDO
100
AcDbEllipse
 62
7
  6
CONTINUOUS
 10
3.4997466664
 20
14.1713603163
 30
0.0
 11
-0.2711888907
 21
0.7526410468
 31
0.0
 40
0.6652277853
 41
-2.1799207184
 42
-0.6094289781
  0
ELLIPSE
  5
5BE
100
AcDbEntity
  8
RACCORDO
100
AcDbEllipse
 62
7
  6
CONTINUOUS
 10
0.1618162793
 20
-23.3785132569
 30
0.0
 11
-0.2714549605
 21
0.7527883138
 31
0.0
 40
0.6648474984
 41
-3.163226158
 42
-2.1804968498
  0
ELLIPSE
  5
5BF
100
AcDbEntity
  8
ASSI
100
AcDbEllipse
 62
7
  6
CONTINUOUS
 10
-10.7836379741
 20
21.3130526366
 30
0.0
 11
-0.2714549605
 21
0.7527883138
 31
0.0
 40
0.6648474984
 41
-0.6093959365
 42
0.0216334957
  0
ELLIPSE
  5
5C0
100
AcDbEntity
  8
ASSI
100
AcDbEllipse
 62
7
  6
CONTINUOUS
 10
0.1618162793
 20
-23.3785132569
 30
0.0
 11
-0.2714549605
 21
0.7527883138
 31
0.0
 40
0.6648474984
 41
-3.163226158
 42
-2.1804968498
  0
ELLIPSE
  5
5C1
100
AcDbEntity
  8
ASSI
100
AcDbEllipse
 62
7
  6
CONTINUOUS
 10
3.4997466664
 20
14.1713603163
 30
0.0
 11
-0.2711888907
 21
0.7526410468
 31
0.0
 40
0.6652277853
 41
-2.1799207184
 42
-0.6094289781
  0
ELLIPSE
  5
5C2
100
AcDbEntity
  8
268
100
AcDbEllipse
 62
7
  6
CONTINUOUS
 10
1.8521690219
 20
-23.9728085572
 30
0.0
 11
0.110769438
 21
0.2241226716
 31
0.0
 40
0.6088015717
 41
-4.0304836828
 42
-3.1444065583
  0
ELLIPSE
  5
5C3
100
AcDbEntity
  8
268
100
AcDbEllipse
 62
7
  6
CONTINUOUS
 10
-11.5121491425
 20
24.2623260581
 30
0.0
 11
0.110769438
 21
0.2241226716
 31
0.0
 40
0.6088015717
 41
-4.0304836828
 42
-3.144406558
  0
ELLIPSE
  5
5C4
100
AcDbEntity
  8
268
100
AcDbEllipse
 62
7
  6
CONTINUOUS
 10
1.8521690219
 20
17.5801669759
 30
0.0
 11
0.110769438
 21
0.2241226716
 31
0.0
 40
0.6088015717
 41
-4.0304836828
 42
-3.144406558
  0
ELLIPSE
  5
5C5
100
AcDbEntity
  8
268
100
AcDbEllipse
 62
7
  6
CONTINUOUS
 10
5.9087769032
 20
16.2884489268
 30
0.0
 11
-0.1565168911
 21
0.3130623908
 31
0.0
 40
0.6123677712
 41
-2.2554744912
 42
-0.6846781644
  0
ELLIPSE
  5
5C6
100
AcDbEntity
  8
268
100
AcDbEllipse
 62
7
  6
CONTINUOUS
 10
5.9087769032
 20
-21.8881329179
 30
0.0
 11
-0.1565168911
 21
0.3130623908
 31
0.0
 40
0.6123677712
 41
-3.1363565269
 42
-2.2554744912
  0
ELLIPSE
  5
5C7
100
AcDbEntity
  8
268
100
AcDbEllipse
 62
7
  6
CONTINUOUS
 10
0.1421813547
 20
25.3936802319
 30
0.0
 11
0.2999991737
 21
-0.0014183462
 31
0.0
 40
0.4964289597
 41
0.7877451926
 42
2.3527237553
  0
ELLIPSE
  5
5C8
100
AcDbEntity
  8
268
100
AcDbEllipse
 62
7
  6
CONTINUOUS
 10
5.6966448688
 20
22.6164484749
 30
0.0
 11
0.2999991737
 21
-0.0014183462
 31
0.0
 40
0.4964289597
 41
0.7877451926
 42
2.3585415194
  0
ELLIPSE
  5
5C9
100
AcDbEntity
  8
268
100
AcDbEllipse
 62
7
  6
CONTINUOUS
 10
5.2359970043
 20
16.9060199377
 30
0.0
 11
0.110769438
 21
0.2241226716
 31
0.0
 40
0.6088015717
 41
1.2055040732
 42
2.2526937431
  0
ELLIPSE
  5
5CA
100
AcDbEntity
  8
268
100
AcDbEllipse
 62
7
  6
CONTINUOUS
 10
-8.1283211601
 20
23.5881790199
 30
0.0
 11
0.110769438
 21
0.2241226716
 31
0.0
 40
0.6088015717
 41
1.2055040732
 42
2.2526937431
  0
ELLIPSE
  5
5CB
100
AcDbEntity
  8
268
100
AcDbEllipse
 62
7
  6
CONTINUOUS
 10
5.5874934815
 20
17.8338250897
 30
0.0
 11
0.110769438
 21
0.2241226716
 31
0.0
 40
0.6088015717
 41
-1.9360885804
 42
-0.8888910292
  0
ELLIPSE
  5
5CC
100
AcDbEntity
  8
268
100
AcDbEllipse
 62
7
  6
CONTINUOUS
 10
3.9673186251
 20
18.9048414942
 30
0.0
 11
0.1128509832
 21
0.2230818409
 31
0.0
 40
0.6159267166
 41
0.0028868672
 42
0.6817883054
  0
ELLIPSE
  5
5CD
100
AcDbEntity
  8
268
100
AcDbEllipse
 62
7
  6
CONTINUOUS
 10
1.8521690219
 20
17.8335383696
 30
0.0
 11
0.110769438
 21
0.2241226716
 31
0.0
 40
0.6088015717
 41
0.6877230618
 42
2.2527016244
  0
ELLIPSE
  5
5CE
100
AcDbEntity
  8
268
100
AcDbEllipse
 62
7
  6
CONTINUOUS
 10
-7.776824683
 20
24.5159841719
 30
0.0
 11
0.110769438
 21
0.2241226716
 31
0.0
 40
0.6088015717
 41
-1.9360885804
 42
-0.8888910292
  0
ELLIPSE
  5
5CF
100
AcDbEntity
  8
268
100
AcDbEllipse
 62
7
  6
CONTINUOUS
 10
-9.3969995393
 20
25.5870005764
 30
0.0
 11
0.1128509832
 21
0.2230818409
 31
0.0
 40
0.6159267166
 41
0.0028868672
 42
0.6817883054
  0
ELLIPSE
  5
5D0
100
AcDbEntity
  8
268
100
AcDbEllipse
 62
7
  6
CONTINUOUS
 10
-11.5121491425
 20
24.5156974519
 30
0.0
 11
0.110769438
 21
0.2241226716
 31
0.0
 40
0.6088015717
 41
0.6877230618
 42
2.2527016244
  0
ELLIPSE
  5
5D1
100
AcDbEntity
  8
268
100
AcDbEllipse
 62
7
  6
CONTINUOUS
 10
5.5874934815
 20
-23.7267080261
 30
0.0
 11
0.110769438
 21
0.2241226716
 31
0.0
 40
0.6088015717
 41
-2.4538695918
 42
-0.8888910292
  0
ELLIPSE
  5
5D2
100
AcDbEntity
  8
268
100
AcDbEllipse
 62
7
  6
CONTINUOUS
 10
1.8521690219
 20
-23.7194371635
 30
0.0
 11
0.110769438
 21
0.2241226716
 31
0.0
 40
0.6088015717
 41
1.2055040732
 42
2.2527016244
  0
ELLIPSE
  5
5D3
100
AcDbEntity
  8
268
100
AcDbEllipse
 62
7
  6
CONTINUOUS
 10
5.5874934815
 20
-23.4657790497
 30
0.0
 11
0.110769438
 21
0.2241226716
 31
0.0
 40
0.6088015717
 41
5.394294278
 42
6.4414918292
  0
ELLIPSE
  5
5D4
100
AcDbEntity
  8
268
100
AcDbEllipse
 62
7
  6
CONTINUOUS
 10
-7.776824683
 20
24.7769131483
 30
0.0
 11
0.110769438
 21
0.2241226716
 31
0.0
 40
0.6088015717
 41
5.394294278
 42
6.9592728406
  0
ELLIPSE
  5
5D5
100
AcDbEntity
  8
268
100
AcDbEllipse
 62
7
  6
CONTINUOUS
 10
5.5874934815
 20
18.094754066
 30
0.0
 11
0.110769438
 21
0.2241226716
 31
0.0
 40
0.6088015717
 41
5.394294278
 42
6.9592728406
  0
ELLIPSE
  5
5D6
100
AcDbEntity
  8
268
100
AcDbEllipse
 62
7
  6
CONTINUOUS
 10
0.3226333318
 20
24.071620062
 30
0.0
 11
0.2999981629
 21
-0.0021225547
 31
0.0
 40
0.4946372042
 41
-0.7818985079
 42
0.0034996555
  0
ELLIPSE
  5
5D7
100
AcDbEntity
  8
268
100
AcDbEllipse
 62
7
  6
CONTINUOUS
 10
5.877096846
 20
21.2943883049
 30
0.0
 11
0.2999981629
 21
-0.0021225547
 31
0.0
 40
0.4946372042
 41
-0.7760807437
 42
0.0034996555
  0
ELLIPSE
  5
5D8
100
AcDbEntity
  8
268
100
AcDbEllipse
 62
7
  6
CONTINUOUS
 10
-5.8263123957
 20
22.473498864
 30
0.0
 11
0.2999991335
 21
0.0014318851
 31
0.0
 40
0.5035541159
 41
8.6427941204
 42
10.207772683
  0
ELLIPSE
  5
5D9
100
AcDbEntity
  8
268
100
AcDbEllipse
 62
7
  6
CONTINUOUS
 10
3.433903169
 20
-23.1142332512
 30
0.0
 11
-0.1565168911
 21
0.3130623908
 31
0.0
 40
0.6123677712
 41
2.4569144891
 42
4.0277108159
  0
ELLIPSE
  5
5DA
100
AcDbEntity
  8
268
100
AcDbEllipse
 62
7
  6
CONTINUOUS
 10
-11.8396033046
 20
22.6764287627
 30
0.0
 11
-0.1565168911
 21
0.3130623908
 31
0.0
 40
0.6123677712
 41
-0.6846781644
 42
0.8861181623
  0
ELLIPSE
  5
5DB
100
AcDbEntity
  8
268
100
AcDbEllipse
 62
7
  6
CONTINUOUS
 10
3.433903169
 20
15.0396755259
 30
0.0
 11
-0.1565168911
 21
0.3130623908
 31
0.0
 40
0.6123677712
 41
-2.2554744912
 42
-0.6846781644
  0
ELLIPSE
  5
5DC
100
AcDbEntity
  8
268
100
AcDbEllipse
 62
7
  6
CONTINUOUS
 10
2.0473685745
 20
-8.0034277
 30
0.0
 11
-0.1085782352
 21
0.1690527654
 31
0.0
 40
0.5459771812
 41
-3.2041463442
 42
-2.3138348679
  0
ELLIPSE
  5
5DD
100
AcDbEntity
  8
268
100
AcDbEllipse
 62
7
  6
CONTINUOUS
 10
-0.0338033276
 20
19.57724433
 30
0.0
 11
0.2999991335
 21
0.0014318851
 31
0.0
 40
0.5035541159
 41
-2.3585979313
 42
-0.7936193687
  0
ELLIPSE
  5
5DE
100
AcDbEntity
  8
268
100
AcDbEllipse
 62
7
  6
CONTINUOUS
 10
-0.0338033276
 20
18.3630452541
 30
0.0
 11
0.2999980272
 21
0.0021530184
 31
0.0
 40
0.5053247124
 41
-2.3598210761
 42
-0.7948425135
  0
ELLIPSE
  5
5DF
100
AcDbEntity
  8
268
100
AcDbEllipse
 62
7
  6
CONTINUOUS
 10
-5.8263123957
 20
21.2592997882
 30
0.0
 11
0.2999980272
 21
0.0021530184
 31
0.0
 40
0.5053247124
 41
3.1379660677
 42
3.9233642311
  0
ELLIPSE
  5
5E0
100
AcDbEntity
  8
268
100
AcDbEllipse
 62
7
  6
CONTINUOUS
 10
5.877096846
 20
22.5262224863
 30
0.0
 11
0.2999991737
 21
-0.0014183462
 31
0.0
 40
0.4964289597
 41
-0.77723337
 42
0.7877451926
  0
ELLIPSE
  5
5E1
100
AcDbEntity
  8
268
100
AcDbEllipse
 62
7
  6
CONTINUOUS
 10
0.3226333318
 20
25.3034542434
 30
0.0
 11
0.2999991737
 21
-0.0014183462
 31
0.0
 40
0.4964289597
 41
-0.7830511342
 42
0.7877451926
  0
ELLIPSE
  5
5E2
100
AcDbEntity
  8
268
100
AcDbEllipse
 62
7
  6
CONTINUOUS
 10
5.2359970043
 20
-22.8935842017
 30
0.0
 11
0.110769438
 21
0.2241226716
 31
0.0
 40
0.6088015717
 41
2.2527095058
 42
3.2998991756
  0
ELLIPSE
  5
5E3
100
AcDbEntity
  8
268
100
AcDbEllipse
 62
7
  6
CONTINUOUS
 10
3.4600023975
 20
17.0296216818
 30
0.0
 11
0.1128509832
 21
0.2230818409
 31
0.0
 40
0.6159267166
 41
0.6934238338
 42
2.2584023964
  0
ELLIPSE
  5
5E4
100
AcDbEntity
  8
268
100
AcDbEllipse
 62
7
  6
CONTINUOUS
 10
3.4600023975
 20
16.7762502881
 30
0.0
 11
0.1128509832
 21
0.2230818409
 31
0.0
 40
0.6159267166
 41
-4.0247829108
 42
-2.9775853596
  0
ELLIPSE
  5
5E5
100
AcDbEntity
  8
268
100
AcDbEllipse
 62
7
  6
CONTINUOUS
 10
-9.9043157669
 20
23.711780764
 30
0.0
 11
0.1128509832
 21
0.2230818409
 31
0.0
 40
0.6159267166
 41
0.6934238338
 42
2.2584023964
  0
ELLIPSE
  5
5E6
100
AcDbEntity
  8
268
100
AcDbEllipse
 62
7
  6
CONTINUOUS
 10
-9.9043157669
 20
23.4584093703
 30
0.0
 11
0.1128509832
 21
0.2230818409
 31
0.0
 40
0.6159267166
 41
-4.0247829108
 42
-2.9775853596
  0
ELLIPSE
  5
5E7
100
AcDbEntity
  8
268
100
AcDbEllipse
 62
7
  6
CONTINUOUS
 10
1.7816968628
 20
-17.6725788844
 30
0.0
 11
-0.542618321
 21
0.8478124368
 31
0.0
 40
0.5451249042
 41
-3.2164266024
 42
-2.3115524019
  0
ELLIPSE
  5
5E8
100
AcDbEntity
  8
268
100
AcDbEllipse
 62
7
  6
CONTINUOUS
 10
3.4600023975
 20
-24.7767252451
 30
0.0
 11
0.1128509832
 21
0.2230818409
 31
0.0
 40
0.6159267166
 41
-4.0247829108
 42
-2.4598043482
  0
ELLIPSE
  5
5E9
100
AcDbEntity
  8
268
100
AcDbEllipse
 62
7
  6
CONTINUOUS
 10
3.4600023975
 20
-24.5233538513
 30
0.0
 11
0.1128509832
 21
0.2230818409
 31
0.0
 40
0.6159267166
 41
1.2112048452
 42
2.2584023964
  0
ELLIPSE
  5
5EA
100
AcDbEntity
  8
218_STAMPATO
100
AcDbEllipse
 62
7
  6
CONTINUOUS
 10
5.8734215641
 20
24.1859754591
 30
0.0
 11
2.7499924258
 21
-0.0130015067
 31
0.0
 40
0.4964289597
 41
2.3672681657
 42
2.9293761837
  0
ELLIPSE
  5
5EB
100
AcDbEntity
  8
218_STAMPATO
100
AcDbEllipse
 62
7
  6
CONTINUOUS
 10
13.2980427666
 20
20.4736648579
 30
0.0
 11
2.7499924258
 21
-0.0130015067
 31
0.0
 40
0.4964289597
 41
2.3672681657
 42
2.9293761949
  0
ELLIPSE
  5
5EC
100
AcDbEntity
  8
218_STAMPATO
100
AcDbEllipse
 62
7
  6
CONTINUOUS
 10
13.9697942087
 20
20.371741408
 30
0.0
 11
2.7583876426
 21
-0.0130411979
 31
0.0
 40
0.4964289597
 41
0.8884696282
 42
2.3585415194
  0
ELLIPSE
  5
5ED
100
AcDbEntity
  8
218_STAMPATO
100
AcDbEllipse
 62
7
  6
CONTINUOUS
 10
13.9697942087
 20
20.371741408
 30
0.0
 11
2.7583876426
 21
-0.0130411979
 31
0.0
 40
0.4964289597
 41
0.4412294433
 42
0.6870207571
  0
ELLIPSE
  5
5EE
100
AcDbEntity
  8
218_STAMPATO
100
AcDbEllipse
 62
7
  6
CONTINUOUS
 10
6.5451730063
 20
24.0840520093
 30
0.0
 11
2.7583876426
 21
-0.0130411979
 31
0.0
 40
0.4964289597
 41
0.4412294433
 42
0.6870207571
  0
ELLIPSE
  5
5EF
100
AcDbEntity
  8
218_STAMPATO
100
AcDbEllipse
 62
7
  6
CONTINUOUS
 10
6.5451730063
 20
24.0840520093
 30
0.0
 11
2.7583876426
 21
-0.0130411979
 31
0.0
 40
0.4964289597
 41
0.8884696282
 42
2.3585415194
  0
ELLIPSE
  5
5F0
100
AcDbEntity
  8
218_STAMPATO
100
AcDbEllipse
 62
7
  6
CONTINUOUS
 10
18.7554929128
 20
21.5772094079
 30
0.0
 11
0.79574694
 21
0.7129684349
 31
0.0
 40
0.2882345029
 41
0.1134874791
 42
0.7807533904
  0
ELLIPSE
  5
5F1
100
AcDbEntity
  8
218_STAMPATO
100
AcDbEllipse
 62
7
  6
CONTINUOUS
 10
11.3308717103
 20
25.2895200092
 30
0.0
 11
0.79574694
 21
0.7129684349
 31
0.0
 40
0.2882345029
 41
0.1134874791
 42
0.7807533904
  0
ELLIPSE
  5
5F2
100
AcDbEntity
  8
218_STAMPATO
100
AcDbEllipse
 62
7
  6
CONTINUOUS
 10
14.8581048422
 20
23.5259034432
 30
0.0
 11
0.4410298232
 21
0.8975092442
 31
0.0
 40
0.607010042
 41
-0.8902711325
 42
-0.7587130969
  0
ELLIPSE
  5
5F3
100
AcDbEntity
  8
218_STAMPATO
100
AcDbEllipse
 62
7
  6
CONTINUOUS
 10
7.4334836398
 20
27.2382140445
 30
0.0
 11
0.4410298232
 21
0.8975092442
 31
0.0
 40
0.607010042
 41
-0.8902711325
 42
-0.7587130969
  0
ELLIPSE
  5
5F4
100
AcDbEntity
  8
218_STAMPATO
100
AcDbEllipse
 62
7
  6
CONTINUOUS
 10
7.4870392298
 20
27.2114362494
 30
0.0
 11
-0.3106730325
 21
1.1082908718
 31
0.0
 40
0.6760995073
 41
4.9783291412
 42
6.4001141399
  0
ELLIPSE
  5
5F5
100
AcDbEntity
  8
218_STAMPATO
100
AcDbEllipse
 62
7
  6
CONTINUOUS
 10
14.9116604323
 20
23.4991256482
 30
0.0
 11
-0.3106730325
 21
1.1082908718
 31
0.0
 40
0.6760995073
 41
4.9783291412
 42
6.4001141399
  0
ELLIPSE
  5
5F6
100
AcDbEntity
  8
218_STAMPATO
100
AcDbEllipse
 62
7
  6
CONTINUOUS
 10
13.2745096784
 20
21.7008770934
 30
0.0
 11
3.3022643479
 21
-0.04629945
 31
0.0
 40
0.4892378494
 41
2.3616770883
 42
5.5059722822
  0
ELLIPSE
  5
5F7
100
AcDbEntity
  8
218_STAMPATO
100
AcDbEllipse
 62
7
  6
CONTINUOUS
 10
-1.4964142114
 20
21.2432740808
 30
0.0
 11
1.2141619185
 21
0.9541526469
 31
0.0
 40
0.2329077568
 41
0.1095198182
 42
0.114024621
  0
ELLIPSE
  5
5F8
100
AcDbEntity
  8
218_STAMPATO
100
AcDbEllipse
 62
7
  6
CONTINUOUS
 10
13.9697942087
 20
22.3522295207
 30
0.0
 11
2.7583515655
 21
-1.4175703156
 31
0.0
 40
0.0109499087
 41
-0.8804952881
 42
-0.85781018
  0
ELLIPSE
  5
5F9
100
AcDbEntity
  8
218_STAMPATO
100
AcDbEllipse
 62
7
  6
CONTINUOUS
 10
6.5451730063
 20
26.0645401219
 30
0.0
 11
2.7583515655
 21
-1.4175703156
 31
0.0
 40
0.0109499087
 41
-0.7017315251
 42
-0.679046417
  0
ELLIPSE
  5
5FA
100
AcDbEntity
  8
218_STAMPATO
100
AcDbEllipse
 62
7
  6
CONTINUOUS
 10
6.5451730063
 20
24.5170647112
 30
0.0
 11
2.7583876426
 21
-0.0130411979
 31
0.0
 40
0.4964289597
 41
0.1877225706
 42
2.3585415194
  0
ELLIPSE
  5
5FB
100
AcDbEntity
  8
218_STAMPATO
100
AcDbEllipse
 62
7
  6
CONTINUOUS
 10
13.9697942087
 20
20.8047541099
 30
0.0
 11
2.7583876426
 21
-0.0130411979
 31
0.0
 40
0.4964289597
 41
0.1877225706
 42
2.3585415194
  0
ELLIPSE
  5
5FC
100
AcDbEntity
  8
218_STAMPATO
100
AcDbEllipse
 62
7
  6
CONTINUOUS
 10
6.5451730063
 20
26.0645401219
 30
0.0
 11
2.7583515655
 21
-1.4175703156
 31
0.0
 40
0.0109499087
 41
-0.8804952881
 42
-0.85781018
  0
ELLIPSE
  5
5FD
100
AcDbEntity
  8
218_STAMPATO
100
AcDbEllipse
 62
7
  6
CONTINUOUS
 10
13.9697942087
 20
22.3522295207
 30
0.0
 11
2.7583515655
 21
-1.4175703156
 31
0.0
 40
0.0109499087
 41
-0.7017315251
 42
-0.679046417
  0
ELLIPSE
  5
5FE
100
AcDbEntity
  8
218_STAMPATO
100
AcDbEllipse
 62
7
  6
CONTINUOUS
 10
5.8498884759
 20
25.4131876946
 30
0.0
 11
3.3022643479
 21
-0.04629945
 31
0.0
 40
0.4892378494
 41
2.3616770883
 42
5.5059722822
  0
ENDSEC
  0
SECTION
  2
OBJECTS
  0
DICTIONARY
  5
C
100
AcDbDictionary
280
0
281
1
  3
ACAD_GROUP
350
D
  3
ACAD_MLINESTYLE
350
17
  3
ACAD_LAYOUT
350
1A
  3
ACAD_PLOTSETTINGS
350
19
  3
ACAD_PLOTSTYLENAME
350
E
  0
DICTIONARY
  5
D
102
{ACAD_REACTORS
330
C
102
}
100
AcDbDictionary
280
0
281
1
  0
ACDBDICTIONARYWDFLT
  5
E
102
{ACAD_REACTORS
330
C
102
}
100
AcDbDictionary
281
1
  3
Normal
350
F
100
AcDbDictionaryWithDefault
340
F
  0
DICTIONARY
  5
17
102
{ACAD_REACTORS
330
C
102
}
100
AcDbDictionary
280
0
281
1
  3
Standard
350
18
  0
DICTIONARY
  5
19
102
{ACAD_REACTORS
330
C
102
}
100
AcDbDictionary
281
1
  0
DICTIONARY
  5
1A
102
{ACAD_REACTORS
330
C
102
}
100
AcDbDictionary
281
1
  3
Model
350
5FF
  3
Layout1
350
600
  0
ACDBPLACEHOLDER
  5
F
102
{ACAD_REACTORS
330
E
102
}
  0
MLINESTYLE
  5
18
102
{ACAD_REACTORS
330
17
102
}
100
AcDbMlineStyle
  2
STANDARD
 70
0
  3

 62
256
 51
90.0
 52
90.0
 71
2
 49
0.5
 62
256
  6
BYLAYER
 49
-0.5
 62
256
  6
BYLAYER
  0
LAYOUT
  5
5FF
102
{ACAD_REACTORS
330
1A
102
}
100
AcDbPlotSettings
  1

  2
none_device
  4
ANSI_A_(11.00_x_8.50_Inches)
  6

 40
0.0
 41
0.0
 42
0.0
 43
0.0
 44
279.4
 45
215.9
 46
0.0
 47
0.0
 48
0.0
 49
0.0
140
0.0
141
0.0
142
1.0
143
1.0
 70
1024
 72
1
 73
0
 74
0
  7

 75
0
147
1.0
148
0.0
149
0.0
100
AcDbLayout
  1
Model
 70
0
 71
0
 10
0.0
 20
0.0
 11
279.4
 21
215.9
 12
0.0
 22
0.0
 32
0.0
 14
0.0
 24
0.0
 34
0.0
 15
0.0
 25
0.0
 35
0.0
146
0.0
 13
0.0
 23
0.0
 33
0.0
 16
1.0
 26
0.0
 36
0.0
 17
0.0
 27
1.0
 37
0.0
 76
0
330
22D
345
0
346
0
  0
LAYOUT
  5
600
102
{ACAD_REACTORS
330
1A
102
}
100
AcDbPlotSettings
  1

  2
none_device
  4
ANSI_A_(11.00_x_8.50_Inches)
  6

 40
0.0
 41
0.0
 42
0.0
 43
0.0
 44
279.4
 45
215.9
 46
0.0
 47
0.0
 48
0.0
 49
0.0
140
0.0
141
0.0
142
1.0
143
1.0
 70
0
 72
1
 73
0
 74
0
  7

 75
0
147
1.0
148
0.0
149
0.0
100
AcDbLayout
  1
Layout1
 70
0
 71
1
 10
0.0
 20
0.0
 11
279.4
 21
215.9
 12
0.0
 22
0.0
 32
0.0
 14
0.0
 24
0.0
 34
0.0
 15
0.0
 25
0.0
 35
0.0
146
0.0
 13
0.0
 23
0.0
 33
0.0
 16
1.0
 26
0.0
 36
0.0
 17
0.0
 27
1.0
 37
0.0
 76
0
330
22E
345
0
346
0
  0
ENDSEC
  0
EOF
