  0
SECTION
  2
HEADER
  9
$ACADVER
  1
AC1015
  9
$DWGCODEPAGE
  3
ANSI_1252
  9
$EXTMAX
 10
297.0
 20
210.0
 30
0.0
  9
$EXTMIN
 10
0.0
 20
0.0
 30
0.0
  9
$LIMMIN
 10
0.0
 20
0.0
  9
$LIMMAX
 10
297.0
 20
210.0
  9
$VIEWCTR
 10
148.5
 20
105.0
  9
$VIEWSIZE
 40
210.0
  9
$CLAYER
  8
0
  9
$LTSCALE
 40
16.335
  9
$CELTYPE
  6
BYLAYER
  9
$DIMSCALE
 40
1.0
  9
$DIMASZ
 40
3.0
  9
$DIMEXO
 40
0.5
  9
$DIMDLI
 40
11.286
  9
$DIMEXE
 40
1.5
  9
$DIMCEN
 40
2.673
  9
$DIMLFAC
 40
1.0
  9
$DIMBLK
  1
_FILLED
  9
$DIMTXT
 40
3.0
  9
$DIMTOL
 70
1
  9
$DIMLIM
 70
0
  9
$DIMTFAC
 40
1.0
  9
$DIMTP
 40
0.01
  9
$DIMTM
 40
0.01
  9
$DIMGAP
 40
0.625
  9
$DIMDSEP
 70
44
  9
$PDMODE
 70
3
  9
$PDSIZE
 40
3.0
  9
$HANDSEED
  5
3F9
  9
$TILEMODE
 70
1
  9
$MEASUREMENT
 70
1
  9
$INSUNITS
 70
4
  0
ENDSEC
  0
SECTION
  2
CLASSES
  0
CLASS
  1
ACDBDICTIONARYWDFLT
  2
AcDbDictionaryWithDefault
  3
AutoCAD 2000
 90
0
280
0
281
0
  0
CLASS
  1
ACDBPLACEHOLDER
  2
AcDbPlaceHolder
  3
AutoCAD 2000
 90
0
280
0
281
0
  0
CLASS
  1
LAYOUT
  2
AcDbLayout
  3
AutoCAD 2000
 90
0
280
0
281
0
  0
ENDSEC
  0
SECTION
  2
TABLES
  0
TABLE
  2
VPORT
  5
8
100
AcDbSymbolTable
 70
2
  0
VPORT
  5
1F4
100
AcDbSymbolTableRecord
100
AcDbViewportTableRecord
  2
*ACTIVE
 70
0
 10
0.0
 20
0.0
 11
1.0
 21
1.0
 12
148.5
 22
105.0
 13
0.0
 23
0.0
 14
1.0
 24
1.0
 15
0.0
 25
0.0
 16
0.0
 26
0.0
 36
1.0
 17
0.0
 27
0.0
 37
0.0
 40
210.0
 41
1.4142857143
 42
50.0
 43
0.0
 44
0.0
 50
0.0
 51
0.0
 71
0
 72
100
 73
1
 74
1
 75
0
 76
0
 77
0
 78
0
  0
ENDTAB
  0
TABLE
  2
LTYPE
  5
5
100
AcDbSymbolTable
 70
6
  0
LTYPE
  5
14
100
AcDbSymbolTableRecord
100
AcDbLinetypeTableRecord
  2
BYBLOCK
 70
0
  3

 72
65
 73
0
 40
0.0
  0
LTYPE
  5
15
100
AcDbSymbolTableRecord
100
AcDbLinetypeTableRecord
  2
BYLAYER
 70
0
  3

 72
65
 73
0
 40
0.0
  0
LTYPE
  5
16
100
AcDbSymbolTableRecord
100
AcDbLinetypeTableRecord
  2
CONTINUOUS
 70
64
  3
Solid line
 72
65
 73
0
 40
0.0
  0
LTYPE
  5
1F5
100
AcDbSymbolTableRecord
100
AcDbLinetypeTableRecord
  2
CENTER
 70
64
  3
____ _ ____ _ ____ _ ____ _ ____ _ ____ _ ____
 72
65
 73
4
 40
0.6
 49
0.375
 74
0
 49
-0.075
 74
0
 49
0.075
 74
0
 49
-0.075
 74
0
  0
LTYPE
  5
1F6
100
AcDbSymbolTableRecord
100
AcDbLinetypeTableRecord
  2
HIDDEN
 70
64
  3
- - - - - - - - - - - - - - - - - - - -
 72
65
 73
2
 40
0.2
 49
0.1
 74
0
 49
-0.1
 74
0
  0
LTYPE
  5
1F7
100
AcDbSymbolTableRecord
100
AcDbLinetypeTableRecord
  2
PHANTOM
 70
64
  3
_____ _ _ _____ _ _ _____ _ _ _____
 72
65
 73
6
 40
0.8
 49
0.45
 74
0
 49
-0.05
 74
0
 49
0.1
 74
0
 49
-0.05
 74
0
 49
0.1
 74
0
 49
-0.05
 74
0
  0
LTYPE
  5
1F8
100
AcDbSymbolTableRecord
100
AcDbLinetypeTableRecord
  2
DOT
 70
64
  3
. . . . . . . . . . . . . . . . . . . .
 72
65
 73
2
 40
0.2
 49
0.1
 74
0
 49
-0.1
 74
0
  0
LTYPE
  5
1F9
100
AcDbSymbolTableRecord
100
AcDbLinetypeTableRecord
  2
DASHED
 70
64
  3
- - - - - - - - - - - - - - - - - - - -
 72
65
 73
2
 40
0.2
 49
0.1
 74
0
 49
-0.1
 74
0
  0
ENDTAB
  0
TABLE
  2
LAYER
  5
2
100
AcDbSymbolTable
 70
36
  0
LAYER
  5
10
100
AcDbSymbolTableRecord
100
AcDbLayerTableRecord
  2
0
 70
0
 62
7
  6
CONTINUOUS
370
-3
390
F
  0
LAYER
  5
1FA
100
AcDbSymbolTableRecord
100
AcDbLayerTableRecord
  2
DEFAULT_1
 70
0
 62
7
  6
CENTER
370
-3
390
F
  0
LAYER
  5
1FB
100
AcDbSymbolTableRecord
100
AcDbLayerTableRecord
  2
DEFAULT_2
 70
0
 62
7
  6
HIDDEN
370
-3
390
F
  0
LAYER
  5
1FC
100
AcDbSymbolTableRecord
100
AcDbLayerTableRecord
  2
DEFAULT_3
 70
0
 62
7
  6
PHANTOM
370
-3
390
F
  0
LAYER
  5
1FD
100
AcDbSymbolTableRecord
100
AcDbLayerTableRecord
  2
218_INCISO
 70
0
 62
7
  6
CONTINUOUS
370
-3
390
F
  0
LAYER
  5
1FE
100
AcDbSymbolTableRecord
100
AcDbLayerTableRecord
  2
218_STAMPATO
 70
0
 62
7
  6
CONTINUOUS
370
-3
390
F
  0
LAYER
  5
1FF
100
AcDbSymbolTableRecord
100
AcDbLayerTableRecord
  2
260
 70
0
 62
7
  6
CONTINUOUS
370
-3
390
F
  0
LAYER
  5
200
100
AcDbSymbolTableRecord
100
AcDbLayerTableRecord
  2
268
 70
0
 62
7
  6
CONTINUOUS
370
-3
390
F
  0
LAYER
  5
201
100
AcDbSymbolTableRecord
100
AcDbLayerTableRecord
  2
284
 70
0
 62
7
  6
CONTINUOUS
370
-3
390
F
  0
LAYER
  5
202
100
AcDbSymbolTableRecord
100
AcDbLayerTableRecord
  2
320
 70
0
 62
7
  6
CONTINUOUS
370
-3
390
F
  0
LAYER
  5
203
100
AcDbSymbolTableRecord
100
AcDbLayerTableRecord
  2
340
 70
0
 62
7
  6
CONTINUOUS
370
-3
390
F
  0
LAYER
  5
204
100
AcDbSymbolTableRecord
100
AcDbLayerTableRecord
  2
712
 70
0
 62
7
  6
CONTINUOUS
370
-3
390
F
  0
LAYER
  5
205
100
AcDbSymbolTableRecord
100
AcDbLayerTableRecord
  2
715
 70
0
 62
7
  6
CONTINUOUS
370
-3
390
F
  0
LAYER
  5
206
100
AcDbSymbolTableRecord
100
AcDbLayerTableRecord
  2
ASSI
 70
0
 62
7
  6
CONTINUOUS
370
-3
390
F
  0
LAYER
  5
207
100
AcDbSymbolTableRecord
100
AcDbLayerTableRecord
  2
COLORE_TOP
 70
0
 62
7
  6
CONTINUOUS
370
-3
390
F
  0
LAYER
  5
208
100
AcDbSymbolTableRecord
100
AcDbLayerTableRecord
  2
COORDINATE
 70
0
 62
7
  6
CONTINUOUS
370
-3
390
F
  0
LAYER
  5
209
100
AcDbSymbolTableRecord
100
AcDbLayerTableRecord
  2
COORD_ORIGINE
 70
0
 62
7
  6
CONTINUOUS
370
-3
390
F
  0
LAYER
  5
20A
100
AcDbSymbolTableRecord
100
AcDbLayerTableRecord
  2
COPY-PUBBLISH
 70
0
 62
7
  6
CONTINUOUS
370
-3
390
F
  0
LAYER
  5
20B
100
AcDbSymbolTableRecord
100
AcDbLayerTableRecord
  2
COSMETICHE
 70
0
 62
7
  6
CONTINUOUS
370
-3
390
F
  0
LAYER
  5
20C
100
AcDbSymbolTableRecord
100
AcDbLayerTableRecord
  2
CURVE
 70
0
 62
7
  6
CONTINUOUS
370
-3
390
F
  0
LAYER
  5
20D
100
AcDbSymbolTableRecord
100
AcDbLayerTableRecord
  2
DRAFT
 70
0
 62
7
  6
CONTINUOUS
370
-3
390
F
  0
LAYER
  5
20E
100
AcDbSymbolTableRecord
100
AcDbLayerTableRecord
  2
IMPORT
 70
0
 62
7
  6
CONTINUOUS
370
-3
390
F
  0
LAYER
  5
20F
100
AcDbSymbolTableRecord
100
AcDbLayerTableRecord
  2
IMPORTED
 70
0
 62
7
  6
CONTINUOUS
370
-3
390
F
  0
LAYER
  5
210
100
AcDbSymbolTableRecord
100
AcDbLayerTableRecord
  2
INTF_1
 70
0
 62
7
  6
CONTINUOUS
370
-3
390
F
  0
LAYER
  5
211
100
AcDbSymbolTableRecord
100
AcDbLayerTableRecord
  2
INTF_11
 70
0
 62
7
  6
CONTINUOUS
370
-3
390
F
  0
LAYER
  5
212
100
AcDbSymbolTableRecord
100
AcDbLayerTableRecord
  2
INTF_2
 70
0
 62
7
  6
CONTINUOUS
370
-3
390
F
  0
LAYER
  5
213
100
AcDbSymbolTableRecord
100
AcDbLayerTableRecord
  2
INTF_5
 70
0
 62
7
  6
CONTINUOUS
370
-3
390
F
  0
LAYER
  5
214
100
AcDbSymbolTableRecord
100
AcDbLayerTableRecord
  2
INTF_6
 70
0
 62
7
  6
CONTINUOUS
370
-3
390
F
  0
LAYER
  5
215
100
AcDbSymbolTableRecord
100
AcDbLayerTableRecord
  2
INTF_CYAN
 70
0
 62
7
  6
CONTINUOUS
370
-3
390
F
  0
LAYER
  5
216
100
AcDbSymbolTableRecord
100
AcDbLayerTableRecord
  2
NOTE
 70
0
 62
7
  6
CONTINUOUS
370
-3
390
F
  0
LAYER
  5
217
100
AcDbSymbolTableRecord
100
AcDbLayerTableRecord
  2
PIANI
 70
0
 62
7
  6
CONTINUOUS
370
-3
390
F
  0
LAYER
  5
218
100
AcDbSymbolTableRecord
100
AcDbLayerTableRecord
  2
PIANI_DI_RIFERIMENTO
 70
0
 62
7
  6
CONTINUOUS
370
-3
390
F
  0
LAYER
  5
219
100
AcDbSymbolTableRecord
100
AcDbLayerTableRecord
  2
PIANI_ORIGINE
 70
0
 62
7
  6
CONTINUOUS
370
-3
390
F
  0
LAYER
  5
21A
100
AcDbSymbolTableRecord
100
AcDbLayerTableRecord
  2
PIANI_RIFERIMENTO
 70
0
 62
7
  6
CONTINUOUS
370
-3
390
F
  0
LAYER
  5
21B
100
AcDbSymbolTableRecord
100
AcDbLayerTableRecord
  2
PIANI_SFORMO
 70
0
 62
7
  6
CONTINUOUS
370
-3
390
F
  0
LAYER
  5
21C
100
AcDbSymbolTableRecord
100
AcDbLayerTableRecord
  2
PUNTI
 70
0
 62
7
  6
CONTINUOUS
370
-3
390
F
  0
LAYER
  5
21D
100
AcDbSymbolTableRecord
100
AcDbLayerTableRecord
  2
RACCORDO
 70
0
 62
7
  6
CONTINUOUS
370
-3
390
F
  0
LAYER
  5
21E
100
AcDbSymbolTableRecord
100
AcDbLayerTableRecord
  2
RINTRACCIABILITA
 70
0
 62
7
  6
CONTINUOUS
370
-3
390
F
  0
LAYER
  5
21F
100
AcDbSymbolTableRecord
100
AcDbLayerTableRecord
  2
SMUSSO
 70
0
 62
7
  6
CONTINUOUS
370
-3
390
F
  0
LAYER
  5
220
100
AcDbSymbolTableRecord
100
AcDbLayerTableRecord
  2
SNAPLINE
 70
0
 62
7
  6
CONTINUOUS
370
-3
390
F
  0
LAYER
  5
221
100
AcDbSymbolTableRecord
100
AcDbLayerTableRecord
  2
SUPERFICI
 70
0
 62
7
  6
CONTINUOUS
370
-3
390
F
  0
LAYER
  5
222
100
AcDbSymbolTableRecord
100
AcDbLayerTableRecord
  2
TRASH
 70
0
 62
7
  6
CONTINUOUS
370
-3
390
F
  0
LAYER
  5
223
100
AcDbSymbolTableRecord
100
AcDbLayerTableRecord
  2
XSEC_DATUMS
 70
0
 62
7
  6
CONTINUOUS
370
-3
390
F
  0
ENDTAB
  0
TABLE
  2
STYLE
  5
3
100
AcDbSymbolTable
 70
1
  0
STYLE
  5
11
100
AcDbSymbolTableRecord
100
AcDbTextStyleTableRecord
  2
STANDARD
 70
0
 40
0.0
 41
0.8
 50
0.0
 71
0
 42
0.2
  3
txt
  4

  0
STYLE
  5
224
100
AcDbSymbolTableRecord
100
AcDbTextStyleTableRecord
  2
TEXTSTYLE_1
 70
0
 40
0.0
 41
0.8
 50
0.0
 71
0
 42
0.2
  3
gdt
  4

  0
ENDTAB
  0
TABLE
  2
VIEW
  5
6
100
AcDbSymbolTable
 70
0
  0
ENDTAB
  0
TABLE
  2
UCS
  5
7
100
AcDbSymbolTable
 70
0
  0
ENDTAB
  0
TABLE
  2
APPID
  5
9
100
AcDbSymbolTable
 70
1
  0
APPID
  5
225
100
AcDbSymbolTableRecord
100
AcDbRegAppTableRecord
  2
ACAD
 70
0
  0
ENDTAB
  0
TABLE
  2
BLOCK_RECORD
  5
1
100
AcDbSymbolTable
 70
0
  0
BLOCK_RECORD
  5
226
100
AcDbSymbolTableRecord
100
AcDbBlockTableRecord
  2
*Model_Space
  0
BLOCK_RECORD
  5
227
100
AcDbSymbolTableRecord
100
AcDbBlockTableRecord
  2
*Paper_Space
  0
ENDTAB
  0
TABLE
  2
DIMSTYLE
  5
A
100
AcDbSymbolTable
 70
1
100
AcDbDimStyleTable
 71
0
  0
DIMSTYLE
105
228
100
AcDbSymbolTableRecord
100
AcDbDimStyleTableRecord
  2
STANDARD
 70
0
  3

  4

 40
1.0
 41
3.0
 42
0.5
 43
0.38
 44
1.5
 45
0.0
 46
0.0
 47
0.01
 48
0.01
140
3.0
141
0.09
142
0.0
143
25.4
144
1.0
145
0.0
146
1.0
147
0.625
 71
1.0
 72
0.0
 73
0
 74
0
 75
0
 76
0
 77
1
 78
8
170
0
171
2
172
0
173
0
174
0
175
0
176
0
177
0
178
0
270
2
271
2
272
2
273
2
274
2
275
0
280
0
281
0
282
0
283
1
284
8
285
0
286
0
287
3
288
0
340
11
278
44
  0
ENDTAB
  0
ENDSEC
  0
SECTION
  2
BLOCKS
  0
BLOCK
  5
20
100
AcDbEntity
  8
0
100
AcDbBlockBegin
  2
*Model_Space
 70
0
 10
0.0
 20
0.0
 30
0.0
  3
*Model_Space
  1

  0
ENDBLK
  5
21
100
AcDbEntity
  8
0
100
AcDbBlockEnd
  0
BLOCK
  5
1C
100
AcDbEntity
  8
0
100
AcDbBlockBegin
  2
*Paper_Space
 70
0
 10
0.0
 20
0.0
 30
0.0
  3
*Paper_Space
  1

  0
ENDBLK
  5
1D
100
AcDbEntity
  8
0
100
AcDbBlockEnd
  0
ENDSEC
  0
SECTION
  2
ENTITIES
  0
LINE
  5
229
100
AcDbEntity
  8
268
100
AcDbLine
 62
7
  6
CONTINUOUS
 10
-13.5517515546
 20
24.2897793175
 11
-11.9689949514
 21
25.1017634148
  0
LINE
  5
22A
100
AcDbEntity
  8
268
100
AcDbLine
 62
7
  6
CONTINUOUS
 10
-14.0357066669
 20
22.5470789155
 11
-13.0234843828
 21
23.0640088781
  0
LINE
  5
22B
100
AcDbEntity
  8
268
100
AcDbLine
 62
7
  6
CONTINUOUS
 10
-11.9689949514
 20
25.1017634148
 11
-11.4345450727
 21
25.3621108814
  0
LWPOLYLINE
  5
22C
100
AcDbEntity
  8
RACCORDO
100
AcDbPolyline
 62
253
  6
CONTINUOUS
 90
14
 70
0
 10
-20.7082772805
 20
-18.843369524
 10
-20.7631790616
 20
-18.8107290213
 10
-20.8144740953
 20
-18.7716320167
 10
-20.8619181433
 20
-18.7262712407
 10
-20.9052999499
 20
-18.6748515523
 10
-20.9444082677
 20
-18.6176124579
 10
-20.9790343788
 20
-18.5548458786
 10
-21.0090021193
 20
-18.4868762619
 10
-21.034159988
 20
-18.4140530251
 10
-21.0543869701
 20
-18.3367292579
 10
-21.0695899412
 20
-18.2552726352
 10
-21.0796933243
 20
-18.1700799254
 10
-21.0846423303
 20
-18.0815774318
 10
-21.0844105889
 20
-17.9902025201
  0
LWPOLYLINE
  5
22D
100
AcDbEntity
  8
ASSI
100
AcDbPolyline
 62
253
  6
CONTINUOUS
 90
14
 70
0
 10
-20.7082772805
 20
-18.843369524
 10
-20.7631790616
 20
-18.8107290213
 10
-20.8144740953
 20
-18.7716320167
 10
-20.8619181433
 20
-18.7262712407
 10
-20.9052999499
 20
-18.6748515523
 10
-20.9444082677
 20
-18.6176124579
 10
-20.9790343788
 20
-18.5548458786
 10
-21.0090021193
 20
-18.4868762619
 10
-21.034159988
 20
-18.4140530251
 10
-21.0543869701
 20
-18.3367292579
 10
-21.0695899412
 20
-18.2552726352
 10
-21.0796933243
 20
-18.1700799254
 10
-21.0846423303
 20
-18.0815774318
 10
-21.0844105889
 20
-17.9902025201
  0
LINE
  5
22E
100
AcDbEntity
  8
268
100
AcDbLine
 62
253
  6
CONTINUOUS
 10
-13.8781832606
 20
22.5376455859
 11
-13.0234843828
 21
22.9741302059
  0
LINE
  5
22F
100
AcDbEntity
  8
268
100
AcDbLine
 62
7
  6
CONTINUOUS
 10
-11.4094802668
 20
22.0179585594
 11
-10.3426493547
 21
22.5565398089
  0
LINE
  5
230
100
AcDbEntity
  8
268
100
AcDbLine
 62
7
  6
CONTINUOUS
 10
-11.9439301455
 20
23.485868613
 11
-10.3426493547
 21
24.2885906165
  0
LINE
  5
231
100
AcDbEntity
  8
268
100
AcDbLine
 62
7
  6
CONTINUOUS
 10
-10.3426493547
 20
24.2885906165
 11
-9.814382183
 21
24.5520294365
  0
LWPOLYLINE
  5
232
100
AcDbEntity
  8
RACCORDO
100
AcDbPolyline
 62
7
  6
CONTINUOUS
 90
19
 70
0
 10
-17.3270319298
 20
20.1456743512
 10
-17.3437927183
 20
20.1383563531
 10
-17.4344079748
 20
20.093814791
 10
-17.5224084141
 20
20.0421163312
 10
-17.6078041794
 20
19.9833140053
 10
-17.6902217949
 20
19.9177185711
 10
-17.7689388449
 20
19.8460207126
 10
-17.8439919601
 20
19.7682901375
 10
-17.9152157168
 20
19.6847293533
 10
-17.9817158118
 20
19.5964293167
 10
-18.0434564898
 20
19.5035558406
 10
-18.1002944618
 20
19.4062869944
 10
-18.1514010705
 20
19.3060414871
 10
-18.1967198214
 20
19.2030691845
 10
-18.2361030307
 20
19.0975443204
 10
-18.2689849112
 20
18.9909389407
 10
-18.2952182128
 20
18.8838385819
 10
-18.3148159188
 20
18.7759949189
 10
-18.3192536811
 20
18.7444564108
  0
LWPOLYLINE
  5
233
100
AcDbEntity
  8
ASSI
100
AcDbPolyline
 62
7
  6
CONTINUOUS
 90
19
 70
0
 10
-17.3270319298
 20
20.1456743512
 10
-17.3437927183
 20
20.1383563531
 10
-17.4344079748
 20
20.093814791
 10
-17.5224084141
 20
20.0421163312
 10
-17.6078041794
 20
19.9833140053
 10
-17.6902217949
 20
19.9177185711
 10
-17.7689388449
 20
19.8460207126
 10
-17.8439919601
 20
19.7682901375
 10
-17.9152157168
 20
19.6847293533
 10
-17.9817158118
 20
19.5964293167
 10
-18.0434564898
 20
19.5035558406
 10
-18.1002944618
 20
19.4062869944
 10
-18.1514010705
 20
19.3060414871
 10
-18.1967198214
 20
19.2030691845
 10
-18.2361030307
 20
19.0975443204
 10
-18.2689849112
 20
18.9909389407
 10
-18.2952182128
 20
18.8838385819
 10
-18.3148159188
 20
18.7759949189
 10
-18.3192536811
 20
18.7444564108
  0
LINE
  5
234
100
AcDbEntity
  8
RACCORDO
100
AcDbLine
 62
7
  6
CONTINUOUS
 10
-17.3270349121
 20
20.1456813215
 11
-17.3269505241
 21
20.1457174506
  0
LINE
  5
235
100
AcDbEntity
  8
ASSI
100
AcDbLine
 62
7
  6
CONTINUOUS
 10
-17.3270349121
 20
20.1456813215
 11
-17.3269505241
 21
20.1457174506
  0
LINE
  5
236
100
AcDbEntity
  8
RACCORDO
100
AcDbLine
 62
7
  6
CONTINUOUS
 10
-17.3269505241
 20
20.1457174506
 11
-13.3695829262
 21
21.8393806109
  0
LINE
  5
237
100
AcDbEntity
  8
ASSI
100
AcDbLine
 62
7
  6
CONTINUOUS
 10
-17.3269505241
 20
20.1457174506
 11
-13.3695829262
 21
21.8393806109
  0
LINE
  5
238
100
AcDbEntity
  8
RACCORDO
100
AcDbLine
 62
253
  6
CONTINUOUS
 10
-16.9678011729
 20
20.123119457
 11
-13.0541068593
 21
21.7980914467
  0
LINE
  5
239
100
AcDbEntity
  8
ASSI
100
AcDbLine
 62
253
  6
CONTINUOUS
 10
-16.9678011729
 20
20.123119457
 11
-13.0541068593
 21
21.7980914467
  0
LWPOLYLINE
  5
23A
100
AcDbEntity
  8
RACCORDO
100
AcDbPolyline
 62
253
  6
CONTINUOUS
 90
8
 70
0
 10
-17.3269505241
 20
20.1457174506
 10
-17.317203535
 20
20.1497185654
 10
-17.2637519983
 20
20.1660336472
 10
-17.2075466358
 20
20.1740753481
 10
-17.1492027084
 20
20.1737556381
 10
-17.0893588875
 20
20.165078017
 10
-17.0286702631
 20
20.1481374759
 10
-16.9678011729
 20
20.123119457
  0
LWPOLYLINE
  5
23B
100
AcDbEntity
  8
ASSI
100
AcDbPolyline
 62
253
  6
CONTINUOUS
 90
8
 70
0
 10
-17.3269505241
 20
20.1457174506
 10
-17.317203535
 20
20.1497185654
 10
-17.2637519983
 20
20.1660336472
 10
-17.2075466358
 20
20.1740753481
 10
-17.1492027084
 20
20.1737556381
 10
-17.0893588875
 20
20.165078017
 10
-17.0286702631
 20
20.1481374759
 10
-16.9678011729
 20
20.123119457
  0
LWPOLYLINE
  5
23C
100
AcDbEntity
  8
268
100
AcDbPolyline
 62
7
  6
CONTINUOUS
 90
3
 70
0
 10
-2.3600757193
 20
25.7769507047
 10
-2.3726407391
 20
25.7722516539
 10
-2.3785234577
 20
25.769493362
  0
LWPOLYLINE
  5
23D
100
AcDbEntity
  8
268
100
AcDbPolyline
 62
7
  6
CONTINUOUS
 90
10
 70
0
 10
-2.3600757193
 20
25.7769507047
 10
-2.3508360985
 20
25.7796965036
 10
-2.3422729447
 20
25.7819622221
 10
-2.3343862577
 20
25.7837478602
 10
-2.3271368995
 20
25.7850742648
 10
-2.3205640081
 20
25.7859205889
 10
-2.3147849987
 20
25.7862242917
 10
-2.3098040416
 20
25.7859849559
 10
-2.3056169664
 20
25.7852029987
 10
-2.3030272852
 20
25.7842065655
  0
LWPOLYLINE
  5
23E
100
AcDbEntity
  8
RACCORDO
100
AcDbPolyline
 62
7
  6
CONTINUOUS
 90
12
 70
0
 10
-6.361920364
 20
-26.0166031653
 10
-6.3357824817
 20
-26.0292631089
 10
-6.2538891864
 20
-26.0635480578
 10
-6.169004508
 20
-26.0911402612
 10
-6.0815605786
 20
-26.1118024131
 10
-5.9917165633
 20
-26.1253591018
 10
-5.9000024847
 20
-26.1315847855
 10
-5.8070244335
 20
-26.1303127468
 10
-5.7129550304
 20
-26.1213861889
 10
-5.6181683279
 20
-26.1046366303
 10
-5.5233546298
 20
-26.0800279436
 10
-5.5066378153
 20
-26.0748612836
  0
LWPOLYLINE
  5
23F
100
AcDbEntity
  8
ASSI
100
AcDbPolyline
 62
7
  6
CONTINUOUS
 90
12
 70
0
 10
-6.361920364
 20
-26.0166031653
 10
-6.3357824817
 20
-26.0292631089
 10
-6.2538891864
 20
-26.0635480578
 10
-6.169004508
 20
-26.0911402612
 10
-6.0815605786
 20
-26.1118024131
 10
-5.9917165633
 20
-26.1253591018
 10
-5.9000024847
 20
-26.1315847855
 10
-5.8070244335
 20
-26.1303127468
 10
-5.7129550304
 20
-26.1213861889
 10
-5.6181683279
 20
-26.1046366303
 10
-5.5233546298
 20
-26.0800279436
 10
-5.5066378153
 20
-26.0748612836
  0
LINE
  5
240
100
AcDbEntity
  8
RACCORDO
100
AcDbLine
 62
7
  6
CONTINUOUS
 10
-20.7011301062
 20
-18.8470088526
 11
-6.3609511956
 21
-26.017098308
  0
LINE
  5
241
100
AcDbEntity
  8
ASSI
100
AcDbLine
 62
7
  6
CONTINUOUS
 10
-20.7011301062
 20
-18.8470088526
 11
-6.3609511956
 21
-26.017098308
  0
LINE
  5
242
100
AcDbEntity
  8
RACCORDO
100
AcDbLine
 62
253
  6
CONTINUOUS
 10
-21.0844105889
 20
-17.9902025201
 11
-6.7559302543
 21
-25.1544426874
  0
LINE
  5
243
100
AcDbEntity
  8
ASSI
100
AcDbLine
 62
253
  6
CONTINUOUS
 10
-21.0844105889
 20
-17.9902025201
 11
-6.7559302543
 21
-25.1544426874
  0
LINE
  5
244
100
AcDbEntity
  8
RACCORDO
100
AcDbLine
 62
7
  6
CONTINUOUS
 10
-6.3618242672
 20
-26.0166609251
 11
-6.3609931375
 21
-26.017077337
  0
LINE
  5
245
100
AcDbEntity
  8
ASSI
100
AcDbLine
 62
7
  6
CONTINUOUS
 10
-6.3618242672
 20
-26.0166609251
 11
-6.3609931375
 21
-26.017077337
  0
LINE
  5
246
100
AcDbEntity
  8
RACCORDO
100
AcDbLine
 62
253
  6
CONTINUOUS
 10
-20.7011301062
 20
-18.8470088526
 11
-20.7082772805
 21
-18.843369524
  0
LINE
  5
247
100
AcDbEntity
  8
ASSI
100
AcDbLine
 62
253
  6
CONTINUOUS
 10
-20.7011301062
 20
-18.8470088526
 11
-20.7082772805
 21
-18.843369524
  0
LINE
  5
248
100
AcDbEntity
  8
268
100
AcDbLine
 62
7
  6
CONTINUOUS
 10
-10.2547752354
 20
23.2893241218
 11
-9.7275305197
 21
23.9310318499
  0
LWPOLYLINE
  5
249
100
AcDbEntity
  8
268
100
AcDbPolyline
 62
7
  6
CONTINUOUS
 90
12
 70
0
 10
-2.3785234577
 20
25.769493362
 10
-2.3848102491
 20
25.7661369884
 10
-2.3966646757
 20
25.7586327152
 10
-2.4083198557
 20
25.7497602039
 10
-2.4198154505
 20
25.7395750934
 10
-2.4311067483
 20
25.728144021
 10
-2.4422518147
 20
25.7154969949
 10
-2.4533186941
 20
25.7016674587
 10
-2.4642648132
 20
25.6866979599
 10
-2.4751121144
 20
25.6706150327
 10
-2.4859505431
 20
25.6534467784
 10
-2.4968349111
 20
25.6352281469
  0
LINE
  5
24A
100
AcDbEntity
  8
268
100
AcDbLine
 62
7
  6
CONTINUOUS
 10
-8.0782549233
 20
22.137033619
 11
-7.5849329081
 21
22.3901171509
  0
LINE
  5
24B
100
AcDbEntity
  8
268
100
AcDbLine
 62
7
  6
CONTINUOUS
 10
-8.8868683782
 20
22.5281984126
 11
-2.3788317515
 21
25.7693400182
  0
LINE
  5
24C
100
AcDbEntity
  8
268
100
AcDbLine
 62
253
  6
CONTINUOUS
 10
-8.8113752377
 20
22.4904518424
 11
-2.4968349111
 21
25.6352281469
  0
LINE
  5
24D
100
AcDbEntity
  8
268
100
AcDbLine
 62
7
  6
CONTINUOUS
 10
-1.5038145899
 20
24.7554846162
 11
-6.2414300238
 21
22.4204341015
  0
LINE
  5
24E
100
AcDbEntity
  8
268
100
AcDbLine
 62
7
  6
CONTINUOUS
 10
-7.5849329081
 20
22.3901171509
 11
-2.1072929186
 21
25.0584491141
  0
LINE
  5
24F
100
AcDbEntity
  8
268
100
AcDbLine
 62
7
  6
CONTINUOUS
 10
3.6367876447
 20
-23.6757313717
 11
3.109542929
 21
-23.5674390998
  0
LWPOLYLINE
  5
250
100
AcDbEntity
  8
RACCORDO
100
AcDbPolyline
 62
253
  6
CONTINUOUS
 90
9
 70
0
 10
-21.3187278084
 20
-17.7083833356
 10
-21.31713032
 20
-17.7387626708
 10
-21.3075747524
 20
-17.7781103783
 10
-21.2896652762
 20
-17.8169820371
 10
-21.2635916459
 20
-17.8549657947
 10
-21.2296301163
 20
-17.8916592062
 10
-21.1881405164
 20
-17.9266734979
 10
-21.1395624361
 20
-17.9596376868
 10
-21.0844105695
 20
-17.9902025113
  0
LWPOLYLINE
  5
251
100
AcDbEntity
  8
ASSI
100
AcDbPolyline
 62
253
  6
CONTINUOUS
 90
9
 70
0
 10
-21.3187278084
 20
-17.7083833356
 10
-21.31713032
 20
-17.7387626708
 10
-21.3075747524
 20
-17.7781103783
 10
-21.2896652762
 20
-17.8169820371
 10
-21.2635916459
 20
-17.8549657947
 10
-21.2296301163
 20
-17.8916592062
 10
-21.1881405164
 20
-17.9266734979
 10
-21.1395624361
 20
-17.9596376868
 10
-21.0844105695
 20
-17.9902025113
  0
LWPOLYLINE
  5
252
100
AcDbEntity
  8
RACCORDO
100
AcDbPolyline
 62
7
  6
CONTINUOUS
 90
15
 70
0
 10
-21.3187216989
 20
-17.7083835213
 10
-21.3194816738
 20
-17.7588814998
 10
-21.314747162
 20
-17.8777058106
 10
-21.3009224333
 20
-17.9925922387
 10
-21.2781678941
 20
-18.1034364767
 10
-21.2467125482
 20
-18.2097122103
 10
-21.2071111159
 20
-18.3102087833
 10
-21.1601365893
 20
-18.4040379645
 10
-21.1062064484
 20
-18.4912719235
 10
-21.0456522185
 20
-18.5718824251
 10
-20.9793448451
 20
-18.645188802
 10
-20.9078544637
 20
-18.711072311
 10
-20.8309172545
 20
-18.7699757299
 10
-20.7488176354
 20
-18.8216033331
 10
-20.7001581058
 20
-18.8474832619
  0
LWPOLYLINE
  5
253
100
AcDbEntity
  8
ASSI
100
AcDbPolyline
 62
7
  6
CONTINUOUS
 90
15
 70
0
 10
-21.3187216989
 20
-17.7083835213
 10
-21.3194816738
 20
-17.7588814998
 10
-21.314747162
 20
-17.8777058106
 10
-21.3009224333
 20
-17.9925922387
 10
-21.2781678941
 20
-18.1034364767
 10
-21.2467125482
 20
-18.2097122103
 10
-21.2071111159
 20
-18.3102087833
 10
-21.1601365893
 20
-18.4040379645
 10
-21.1062064484
 20
-18.4912719235
 10
-21.0456522185
 20
-18.5718824251
 10
-20.9793448451
 20
-18.645188802
 10
-20.9078544637
 20
-18.711072311
 10
-20.8309172545
 20
-18.7699757299
 10
-20.7488176354
 20
-18.8216033331
 10
-20.7001581058
 20
-18.8474832619
  0
LINE
  5
254
100
AcDbEntity
  8
RACCORDO
100
AcDbLine
 62
7
  6
CONTINUOUS
 10
-21.318722649
 20
-17.7082156124
 11
-21.3187278084
 21
-17.7083833356
  0
LINE
  5
255
100
AcDbEntity
  8
ASSI
100
AcDbLine
 62
7
  6
CONTINUOUS
 10
-21.318722649
 20
-17.7082156124
 11
-21.3187278084
 21
-17.7083833356
  0
LWPOLYLINE
  5
256
100
AcDbEntity
  8
RACCORDO
100
AcDbPolyline
 62
253
  6
CONTINUOUS
 90
13
 70
0
 10
-21.0844105889
 20
-17.9902025201
 10
-20.9784652887
 20
-15.0113063413
 10
-20.8462315931
 20
-12.0201582771
 10
-20.687725947
 20
-9.0171395978
 10
-20.5029680997
 20
-6.0026331452
 10
-20.2919815002
 20
-2.9770229711
 10
-20.0547932911
 20
0.0593057129
 10
-19.7914339142
 20
3.1059661966
 10
-19.5019366964
 20
6.162570229
 10
-19.1863382375
 20
9.2287283831
 10
-18.8446788268
 20
12.3040501198
 10
-18.4770024411
 20
15.388143837
 10
-18.0833563233
 20
18.48061683
  0
LWPOLYLINE
  5
257
100
AcDbEntity
  8
ASSI
100
AcDbPolyline
 62
253
  6
CONTINUOUS
 90
13
 70
0
 10
-21.0844105889
 20
-17.9902025201
 10
-20.9784652887
 20
-15.0113063413
 10
-20.8462315931
 20
-12.0201582771
 10
-20.687725947
 20
-9.0171395978
 10
-20.5029680997
 20
-6.0026331452
 10
-20.2919815002
 20
-2.9770229711
 10
-20.0547932911
 20
0.0593057129
 10
-19.7914339142
 20
3.1059661966
 10
-19.5019366964
 20
6.162570229
 10
-19.1863382375
 20
9.2287283831
 10
-18.8446788268
 20
12.3040501198
 10
-18.4770024411
 20
15.388143837
 10
-18.0833563233
 20
18.48061683
  0
LWPOLYLINE
  5
258
100
AcDbEntity
  8
RACCORDO
100
AcDbPolyline
 62
253
  6
CONTINUOUS
 90
10
 70
0
 10
-18.3192536811
 20
18.7444564108
 10
-18.3198863523
 20
18.7384217154
 10
-18.3181948744
 20
18.7061881264
 10
-18.3081106383
 20
18.6732573605
 10
-18.289740487
 20
18.6399783205
 10
-18.263279053
 20
18.6067035992
 10
-18.2290066962
 20
18.5737857439
 10
-18.1872865339
 20
18.5415735207
 10
-18.1385605927
 20
18.5104082194
 10
-18.0833451262
 20
18.4806200378
  0
LWPOLYLINE
  5
259
100
AcDbEntity
  8
ASSI
100
AcDbPolyline
 62
253
  6
CONTINUOUS
 90
10
 70
0
 10
-18.3192536811
 20
18.7444564108
 10
-18.3198863523
 20
18.7384217154
 10
-18.3181948744
 20
18.7061881264
 10
-18.3081106383
 20
18.6732573605
 10
-18.289740487
 20
18.6399783205
 10
-18.263279053
 20
18.6067035992
 10
-18.2290066962
 20
18.5737857439
 10
-18.1872865339
 20
18.5415735207
 10
-18.1385605927
 20
18.5104082194
 10
-18.0833451262
 20
18.4806200378
  0
LWPOLYLINE
  5
25A
100
AcDbEntity
  8
RACCORDO
100
AcDbPolyline
 62
7
  6
CONTINUOUS
 90
13
 70
0
 10
-18.3192518568
 20
18.7445374759
 10
-18.7057423025
 20
15.7099265548
 10
-19.0750158701
 20
12.6157620048
 10
-19.4181011751
 20
9.5303463959
 10
-19.7349455754
 20
6.4541208108
 10
-20.0255102894
 20
3.3874728567
 10
-20.289760269
 20
0.3307697146
 10
-20.5276601929
 20
-2.7156069946
 10
-20.739180108
 20
-5.7512780125
 10
-20.9242921847
 20
-8.7758795147
 10
-21.0829691246
 20
-11.7890283633
 10
-21.2151892919
 20
-14.790295208
 10
-21.318722649
 20
-17.7082156124
  0
LWPOLYLINE
  5
25B
100
AcDbEntity
  8
ASSI
100
AcDbPolyline
 62
7
  6
CONTINUOUS
 90
13
 70
0
 10
-18.3192518568
 20
18.7445374759
 10
-18.7057423025
 20
15.7099265548
 10
-19.0750158701
 20
12.6157620048
 10
-19.4181011751
 20
9.5303463959
 10
-19.7349455754
 20
6.4541208108
 10
-20.0255102894
 20
3.3874728567
 10
-20.289760269
 20
0.3307697146
 10
-20.5276601929
 20
-2.7156069946
 10
-20.739180108
 20
-5.7512780125
 10
-20.9242921847
 20
-8.7758795147
 10
-21.0829691246
 20
-11.7890283633
 10
-21.2151892919
 20
-14.790295208
 10
-21.318722649
 20
-17.7082156124
  0
LWPOLYLINE
  5
25C
100
AcDbEntity
  8
RACCORDO
100
AcDbPolyline
 62
253
  6
CONTINUOUS
 90
22
 70
0
 10
-18.0833563233
 20
18.48061683
 10
-18.0680777494
 20
18.5777396767
 10
-18.0477705518
 20
18.6758893672
 10
-18.0225367078
 20
18.774580865
 10
-17.992505915
 20
18.8733232179
 10
-17.9578261008
 20
18.9716325787
 10
-17.9186606284
 20
19.0690343046
 10
-17.8751991225
 20
19.1650600926
 10
-17.8276615543
 20
19.2592229469
 10
-17.7762902125
 20
19.3510316813
 10
-17.7213558152
 20
19.4400178016
 10
-17.6631239765
 20
19.5257630409
 10
-17.6018553306
 20
19.6078709109
 10
-17.5378414486
 20
19.6859515232
 10
-17.4714128955
 20
19.759600235
 10
-17.4029081661
 20
19.8284280414
 10
-17.3326812174
 20
19.8920890057
 10
-17.2610736313
 20
19.9502821724
 10
-17.1884193822
 20
20.0027254673
 10
-17.1150735563
 20
20.0491607227
 10
-17.0414112402
 20
20.0893580776
 10
-16.9678011729
 20
20.123119457
  0
LWPOLYLINE
  5
25D
100
AcDbEntity
  8
ASSI
100
AcDbPolyline
 62
253
  6
CONTINUOUS
 90
22
 70
0
 10
-18.0833563233
 20
18.48061683
 10
-18.0680777494
 20
18.5777396767
 10
-18.0477705518
 20
18.6758893672
 10
-18.0225367078
 20
18.774580865
 10
-17.992505915
 20
18.8733232179
 10
-17.9578261008
 20
18.9716325787
 10
-17.9186606284
 20
19.0690343046
 10
-17.8751991225
 20
19.1650600926
 10
-17.8276615543
 20
19.2592229469
 10
-17.7762902125
 20
19.3510316813
 10
-17.7213558152
 20
19.4400178016
 10
-17.6631239765
 20
19.5257630409
 10
-17.6018553306
 20
19.6078709109
 10
-17.5378414486
 20
19.6859515232
 10
-17.4714128955
 20
19.759600235
 10
-17.4029081661
 20
19.8284280414
 10
-17.3326812174
 20
19.8920890057
 10
-17.2610736313
 20
19.9502821724
 10
-17.1884193822
 20
20.0027254673
 10
-17.1150735563
 20
20.0491607227
 10
-17.0414112402
 20
20.0893580776
 10
-16.9678011729
 20
20.123119457
  0
LINE
  5
25E
100
AcDbEntity
  8
268
100
AcDbLine
 62
7
  6
CONTINUOUS
 10
-0.1767407615
 20
23.2856103826
 11
-1.574525268
 21
22.5867181293
  0
LWPOLYLINE
  5
25F
100
AcDbEntity
  8
218_STAMPATO
100
AcDbPolyline
 62
7
  6
CONTINUOUS
 90
6
 70
0
 10
-2.5645871818
 20
21.8002837601
 10
-2.5732934137
 20
21.7959348248
 10
-2.5813951748
 20
21.7912559061
 10
-2.5892124491
 20
21.7860984107
 10
-2.5967397323
 20
21.780466449
 10
-2.6026217239
 20
21.7755572576
  0
LINE
  5
260
100
AcDbEntity
  8
268
100
AcDbLine
 62
7
  6
CONTINUOUS
 10
-1.9280786586
 20
23.3160530139
 11
-1.5038145899
 21
23.5236504348
  0
LINE
  5
261
100
AcDbEntity
  8
268
100
AcDbLine
 62
7
  6
CONTINUOUS
 10
0.4822549899
 20
24.1456831964
 11
-1.574525268
 21
23.1392763186
  0
LINE
  5
262
100
AcDbEntity
  8
218_STAMPATO
100
AcDbLine
 62
253
  6
CONTINUOUS
 10
-2.2936862191
 20
21.8080198957
 11
-2.2395987047
 21
21.8340891151
  0
LINE
  5
263
100
AcDbEntity
  8
218_STAMPATO
100
AcDbLine
 62
253
  6
CONTINUOUS
 10
-2.3043848733
 20
21.8029399051
 11
-2.2936862191
 21
21.8080198957
  0
LINE
  5
264
100
AcDbEntity
  8
218_STAMPATO
100
AcDbLine
 62
253
  6
CONTINUOUS
 10
-2.2395987047
 20
21.8340891151
 11
-2.2272700202
 21
21.8399258985
  0
LINE
  5
265
100
AcDbEntity
  8
218_STAMPATO
100
AcDbLine
 62
253
  6
CONTINUOUS
 10
-2.3123119494
 20
21.7992318156
 11
-2.3043848733
 21
21.8029399051
  0
LINE
  5
266
100
AcDbEntity
  8
218_STAMPATO
100
AcDbLine
 62
253
  6
CONTINUOUS
 10
-2.2272700202
 20
21.8399258985
 11
-2.2177541571
 21
21.8443670552
  0
LINE
  5
267
100
AcDbEntity
  8
218_STAMPATO
100
AcDbLine
 62
253
  6
CONTINUOUS
 10
-2.3523965752
 20
21.780715484
 11
-2.3123119494
 21
21.7992318156
  0
LINE
  5
268
100
AcDbEntity
  8
218_STAMPATO
100
AcDbLine
 62
7
  6
CONTINUOUS
 10
-2.5138599784
 20
21.8236727848
 11
-2.5645516773
 21
21.8003001573
  0
LINE
  5
269
100
AcDbEntity
  8
218_STAMPATO
100
AcDbLine
 62
253
  6
CONTINUOUS
 10
-2.2177541571
 20
21.8443670552
 11
-2.2079900785
 21
21.8488564839
  0
LINE
  5
26A
100
AcDbEntity
  8
218_STAMPATO
100
AcDbLine
 62
253
  6
CONTINUOUS
 10
-2.2079900785
 20
21.8488564839
 11
-2.201335577
 21
21.8518733901
  0
LWPOLYLINE
  5
26B
100
AcDbEntity
  8
218_STAMPATO
100
AcDbPolyline
 62
253
  6
CONTINUOUS
 90
22
 70
0
 10
-2.5307472899
 20
21.8159121437
 10
-2.5276189767
 20
21.8173220757
 10
-2.5183705142
 20
21.8210959698
 10
-2.5089109
 20
21.8243784253
 10
-2.4992502596
 20
21.8271659285
 10
-2.4893989339
 20
21.8294554957
 10
-2.479367468
 20
21.8312446761
 10
-2.4691665995
 20
21.8325315546
 10
-2.4588072476
 20
21.8333147536
 10
-2.448300501
 20
21.8335934348
 10
-2.4376576063
 20
21.8333672999
 10
-2.4268899558
 20
21.832636591
 10
-2.4160090752
 20
21.8314020902
 10
-2.4050266115
 20
21.829665119
 10
-2.3939543205
 20
21.8274275366
 10
-2.3828040542
 20
21.8246917381
 10
-2.3715877477
 20
21.8214606519
 10
-2.3603174073
 20
21.8177377367
 10
-2.3490050967
 20
21.8135269775
 10
-2.3376629248
 20
21.8088328815
 10
-2.3263030324
 20
21.8036604734
 10
-2.3149375793
 20
21.7980152897
  0
LINE
  5
26C
100
AcDbEntity
  8
218_STAMPATO
100
AcDbLine
 62
253
  6
CONTINUOUS
 10
-2.201335577
 20
21.8518733901
 11
-2.1945597881
 21
21.8549072496
  0
LINE
  5
26D
100
AcDbEntity
  8
218_STAMPATO
100
AcDbLine
 62
253
  6
CONTINUOUS
 10
-2.1945597881
 20
21.8549072496
 11
-2.187657892
 21
21.8579559134
  0
LINE
  5
26E
100
AcDbEntity
  8
218_STAMPATO
100
AcDbLine
 62
253
  6
CONTINUOUS
 10
-2.187657892
 20
21.8579559134
 11
-2.1806265526
 21
21.8610179868
  0
LINE
  5
26F
100
AcDbEntity
  8
218_STAMPATO
100
AcDbLine
 62
253
  6
CONTINUOUS
 10
-2.1806265526
 20
21.8610179868
 11
-2.173460479
 21
21.8640914824
  0
LINE
  5
270
100
AcDbEntity
  8
218_STAMPATO
100
AcDbLine
 62
253
  6
CONTINUOUS
 10
-2.173460479
 20
21.8640914824
 11
-2.166155095
 21
21.8671740289
  0
LINE
  5
271
100
AcDbEntity
  8
218_STAMPATO
100
AcDbLine
 62
253
  6
CONTINUOUS
 10
-2.166155095
 20
21.8671740289
 11
-2.1587073673
 21
21.8702640258
  0
LINE
  5
272
100
AcDbEntity
  8
218_STAMPATO
100
AcDbLine
 62
253
  6
CONTINUOUS
 10
-2.1587073673
 20
21.8702640258
 11
-2.151112872
 21
21.8733589989
  0
LINE
  5
273
100
AcDbEntity
  8
218_STAMPATO
100
AcDbLine
 62
253
  6
CONTINUOUS
 10
-2.151112872
 20
21.8733589989
 11
-2.1433671866
 21
21.8764564044
  0
LINE
  5
274
100
AcDbEntity
  8
218_STAMPATO
100
AcDbLine
 62
253
  6
CONTINUOUS
 10
-2.1433671866
 20
21.8764564044
 11
-2.1354674572
 21
21.8795544924
  0
LINE
  5
275
100
AcDbEntity
  8
218_STAMPATO
100
AcDbLine
 62
253
  6
CONTINUOUS
 10
-2.1354674572
 20
21.8795544924
 11
-2.1274094622
 21
21.882650589
  0
LINE
  5
276
100
AcDbEntity
  8
218_STAMPATO
100
AcDbLine
 62
253
  6
CONTINUOUS
 10
-2.1274094622
 20
21.882650589
 11
-2.1191895127
 21
21.8857417462
  0
LINE
  5
277
100
AcDbEntity
  8
218_STAMPATO
100
AcDbLine
 62
253
  6
CONTINUOUS
 10
-2.1191895127
 20
21.8857417462
 11
-2.1108052051
 21
21.8888259663
  0
LINE
  5
278
100
AcDbEntity
  8
218_STAMPATO
100
AcDbLine
 62
253
  6
CONTINUOUS
 10
-2.1108052051
 20
21.8888259663
 11
-2.1022532136
 21
21.8919001336
  0
LINE
  5
279
100
AcDbEntity
  8
218_STAMPATO
100
AcDbLine
 62
253
  6
CONTINUOUS
 10
-2.1022532136
 20
21.8919001336
 11
-2.093529427
 21
21.8949613354
  0
LINE
  5
27A
100
AcDbEntity
  8
218_STAMPATO
100
AcDbLine
 62
253
  6
CONTINUOUS
 10
-2.093529427
 20
21.8949613354
 11
-2.0846314381
 21
21.8980074909
  0
LINE
  5
27B
100
AcDbEntity
  8
218_STAMPATO
100
AcDbLine
 62
253
  6
CONTINUOUS
 10
-2.0846314381
 20
21.8980074909
 11
-2.0755558495
 21
21.9010353664
  0
LINE
  5
27C
100
AcDbEntity
  8
218_STAMPATO
100
AcDbLine
 62
253
  6
CONTINUOUS
 10
-2.0755558495
 20
21.9010353664
 11
-2.0663003601
 21
21.9040412958
  0
LINE
  5
27D
100
AcDbEntity
  8
218_STAMPATO
100
AcDbLine
 62
253
  6
CONTINUOUS
 10
-2.0663003601
 20
21.9040412958
 11
-2.0568633686
 21
21.9070228485
  0
LINE
  5
27E
100
AcDbEntity
  8
218_STAMPATO
100
AcDbLine
 62
253
  6
CONTINUOUS
 10
-2.0568633686
 20
21.9070228485
 11
-2.0472424892
 21
21.9099763567
  0
LINE
  5
27F
100
AcDbEntity
  8
218_STAMPATO
100
AcDbLine
 62
253
  6
CONTINUOUS
 10
-2.0472424892
 20
21.9099763567
 11
-2.0374356855
 21
21.9128979829
  0
LINE
  5
280
100
AcDbEntity
  8
218_STAMPATO
100
AcDbLine
 62
253
  6
CONTINUOUS
 10
-2.0374356855
 20
21.9128979829
 11
-2.0274417883
 21
21.9157851023
  0
LINE
  5
281
100
AcDbEntity
  8
268
100
AcDbLine
 62
7
  6
CONTINUOUS
 10
-0.2975656939
 20
-24.6386432846
 11
1.3089704035
 21
-25.4419113333
  0
LINE
  5
282
100
AcDbEntity
  8
268
100
AcDbLine
 62
253
  6
CONTINUOUS
 10
-0.3621591727
 20
-24.5036147433
 11
1.2436172895
 21
-25.3065029744
  0
LINE
  5
283
100
AcDbEntity
  8
268
100
AcDbLine
 62
253
  6
CONTINUOUS
 10
1.2436172895
 20
-25.0531315806
 11
-0.3621591727
 21
-24.2502433495
  0
LINE
  5
284
100
AcDbEntity
  8
268
100
AcDbLine
 62
253
  6
CONTINUOUS
 10
1.3325198655
 20
-24.821694521
 11
-0.2742850534
 21
-24.0182920615
  0
LINE
  5
285
100
AcDbEntity
  8
268
100
AcDbLine
 62
7
  6
CONTINUOUS
 10
-0.9241297129
 20
-22.6995308315
 11
1.395323213
 21
-23.8592572944
  0
LINE
  5
286
100
AcDbEntity
  8
268
100
AcDbLine
 62
7
  6
CONTINUOUS
 10
1.5455729013
 20
-23.8720026053
 11
1.9548378976
 21
-24.0766351035
  0
LINE
  5
287
100
AcDbEntity
  8
268
100
AcDbLine
 62
7
  6
CONTINUOUS
 10
1.6428105864
 20
-23.6554850426
 11
-0.8982445865
 21
-22.3849574562
  0
LINE
  5
288
100
AcDbEntity
  8
218_STAMPATO
100
AcDbLine
 62
7
  6
CONTINUOUS
 10
-3.4567026463
 20
21.0280704128
 11
-2.6026542627
 21
21.7755284696
  0
LINE
  5
289
100
AcDbEntity
  8
218_STAMPATO
100
AcDbLine
 62
253
  6
CONTINUOUS
 10
-3.3028000915
 20
20.9511191354
 11
-2.3540015
 21
21.7815020097
  0
LINE
  5
28A
100
AcDbEntity
  8
268
100
AcDbLine
 62
7
  6
CONTINUOUS
 10
-1.8614889664
 20
19.0286506406
 11
-1.3623932336
 21
19.2788473137
  0
LINE
  5
28B
100
AcDbEntity
  8
268
100
AcDbLine
 62
7
  6
CONTINUOUS
 10
-1.3623932336
 20
19.2788473137
 11
4.0518794615
 21
21.9788629241
  0
LINE
  5
28C
100
AcDbEntity
  8
268
100
AcDbLine
 62
7
  6
CONTINUOUS
 10
3.4459328784
 20
22.280610882
 11
-1.2916825555
 21
19.9455603674
  0
LINE
  5
28D
100
AcDbEntity
  8
268
100
AcDbLine
 62
7
  6
CONTINUOUS
 10
4.724895677
 20
22.0243628529
 11
4.1385168899
 21
21.7374407852
  0
LWPOLYLINE
  5
28E
100
AcDbEntity
  8
268
100
AcDbPolyline
 62
7
  6
CONTINUOUS
 90
18
 70
0
 10
4.724895677
 20
22.0243628529
 10
4.7532701978
 20
22.0375448097
 10
4.7815046498
 20
22.0492792014
 10
4.809599033
 20
22.0595660281
 10
4.837603346
 20
22.0684181627
 10
4.8654675903
 20
22.0758227323
 10
4.89304177
 20
22.0817411179
 10
4.9203108986
 20
22.0861645392
 10
4.9472899626
 20
22.0891017765
 10
4.9738739252
 20
22.0905405525
 10
5.0000788841
 20
22.0904734159
 10
5.0258887416
 20
22.0889078179
 10
5.0511501678
 20
22.0858538345
 10
5.0758399212
 20
22.0813080501
 10
5.0999812433
 20
22.0752738803
 10
5.1234905296
 20
22.0677716475
 10
5.1463863098
 20
22.0587862328
 10
5.1659483941
 20
22.0496964998
  0
LINE
  5
28F
100
AcDbEntity
  8
268
100
AcDbLine
 62
253
  6
CONTINUOUS
 10
3.0661206031
 20
-23.5457279368
 11
3.109542929
 21
-23.5674390998
  0
LINE
  5
290
100
AcDbEntity
  8
268
100
AcDbLine
 62
7
  6
CONTINUOUS
 10
2.4559833848
 20
-23.1266139122
 11
-0.8243109742
 21
-21.4864667327
  0
LINE
  5
291
100
AcDbEntity
  8
268
100
AcDbLine
 62
253
  6
CONTINUOUS
 10
3.0216688097
 20
-23.3681719542
 11
3.6367876447
 21
-23.6757313717
  0
LINE
  5
292
100
AcDbEntity
  8
268
100
AcDbLine
 62
7
  6
CONTINUOUS
 10
3.0216688097
 20
-23.3645518047
 11
3.660067018
 21
-23.6837509088
  0
LINE
  5
293
100
AcDbEntity
  8
268
100
AcDbLine
 62
7
  6
CONTINUOUS
 10
2.4559833848
 20
-21.4767064746
 11
-0.6939110223
 21
-19.9017592711
  0
LINE
  5
294
100
AcDbEntity
  8
268
100
AcDbLine
 62
7
  6
CONTINUOUS
 10
-0.1874333902
 20
17.6076202353
 11
1.395323213
 21
18.4196043326
  0
LINE
  5
295
100
AcDbEntity
  8
268
100
AcDbLine
 62
7
  6
CONTINUOUS
 10
-1.8614889664
 20
17.8144471677
 11
-1.3623932336
 21
18.0664117484
  0
LINE
  5
296
100
AcDbEntity
  8
268
100
AcDbLine
 62
7
  6
CONTINUOUS
 10
-1.3623932336
 20
18.0664117484
 11
4.0518794615
 21
20.7470243457
  0
LINE
  5
297
100
AcDbEntity
  8
268
100
AcDbLine
 62
7
  6
CONTINUOUS
 10
1.395323213
 20
18.4196043326
 11
1.9297730917
 21
18.6799517992
  0
LINE
  5
298
100
AcDbEntity
  8
268
100
AcDbLine
 62
7
  6
CONTINUOUS
 10
-14.125670634
 20
22.3338733341
 11
-14.125670634
 21
22.3582688394
  0
LINE
  5
299
100
AcDbEntity
  8
268
100
AcDbLine
 62
7
  6
CONTINUOUS
 10
-13.7264773371
 20
23.7315198721
 11
-13.7264773371
 21
23.9848912658
  0
LWPOLYLINE
  5
29A
100
AcDbEntity
  8
CURVE
100
AcDbPolyline
 62
253
  6
CONTINUOUS
 90
81
 70
0
 10
-15.6104921177
 20
-14.147706252
 10
-15.6042763463
 20
-14.0521893139
 10
-15.5950906771
 20
-13.9588786456
 10
-15.5829364888
 20
-13.8676999025
 10
-15.5678151598
 20
-13.7785787396
 10
-15.5497280686
 20
-13.6914408122
 10
-15.5286843275
 20
-13.6062573675
 10
-15.5047239841
 20
-13.5231820201
 10
-15.47789482
 20
-13.4424139766
 10
-15.4482446165
 20
-13.3641524438
 10
-15.415821155
 20
-13.2885966281
 10
-15.3806747033
 20
-13.2159265497
 10
-15.3428654734
 20
-13.1462454832
 10
-15.302456164
 20
-13.0796375166
 10
-15.2595094733
 20
-13.0161867379
 10
-15.2140880999
 20
-12.9559772352
 10
-15.1662581739
 20
-12.8990928898
 10
-15.1160995526
 20
-12.845616756
 10
-15.0636955253
 20
-12.7956316814
 10
-15.0091293811
 20
-12.7492205135
 10
-14.9524844091
 20
-12.7064660998
 10
-14.8938462661
 20
-12.6674453512
 10
-14.8333100797
 20
-12.6322114316
 10
-14.7709733453
 20
-12.6008115683
 10
-14.7069335579
 20
-12.5732929885
 10
-14.6412882131
 20
-12.5497029194
 10
-14.5741366489
 20
-12.5300838915
 10
-14.5055855754
 20
-12.5144596475
 10
-14.4357435458
 20
-12.5028492336
 10
-14.364719113
 20
-12.4952716955
 10
-14.2926208301
 20
-12.4917460795
 10
-14.2195585883
 20
-12.492286136
 10
-14.1456476309
 20
-12.4968844338
 10
-14.0710045396
 20
-12.5055282462
 10
-13.995745896
 20
-12.5182048465
 10
-13.9199882815
 20
-12.5349015081
 10
-13.8438486672
 20
-12.5556002858
 10
-13.7674455819
 20
-12.5802623609
 10
-13.6908979442
 20
-12.6088436962
 10
-13.6143246722
 20
-12.6413002547
 10
-13.5378446844
 20
-12.677587999
 10
-13.4615765178
 20
-12.7176579574
 10
-13.3856371834
 20
-12.7614414186
 10
-13.3101433109
 20
-12.8088647368
 10
-13.2352115301
 20
-12.8598542662
 10
-13.1609584707
 20
-12.914336361
 10
-13.0874996602
 20
-12.9722328902
 10
-13.0149462184
 20
-13.0334477834
 10
-12.9434081629
 20
-13.097880485
 10
-12.8729955112
 20
-13.1654304394
 10
-12.803818281
 20
-13.2359970912
 10
-12.7359845036
 20
-13.3094762581
 10
-12.6695942645
 20
-13.3857492509
 10
-12.604745663
 20
-13.4646937537
 10
-12.5415367983
 20
-13.5461874504
 10
-12.4800657696
 20
-13.6301080253
 10
-12.4204283792
 20
-13.7163305129
 10
-12.3627112414
 20
-13.8047193511
 10
-12.3069986737
 20
-13.895136328
 10
-12.2533749934
 20
-13.987443232
 10
-12.2019245179
 20
-14.0815018514
 10
-12.152728735
 20
-14.1771706855
 10
-12.1058578142
 20
-14.2742950773
 10
-12.0613790953
 20
-14.3727170807
 10
-12.0193599182
 20
-14.4722787496
 10
-11.9798676227
 20
-14.572822138
 10
-11.94296637
 20
-14.6741921866
 10
-11.908707606
 20
-14.7762453828
 10
-11.8771395982
 20
-14.8788411009
 10
-11.8483106137
 20
-14.981838715
 10
-11.8222689199
 20
-15.0850975994
 10
-11.7990587256
 20
-15.1884620297
 10
-11.778708006
 20
-15.2917158875
 10
-11.7612406779
 20
-15.394627956
 10
-11.746680658
 20
-15.4969670182
 10
-11.7350518632
 20
-15.5985018572
 10
-11.7263757419
 20
-15.6990510943
 10
-11.7206638697
 20
-15.7986327042
 10
-11.717925354
 20
-15.8973144999
 10
-11.718169302
 20
-15.9951642942
 10
-11.7214048212
 20
-16.0922499002
  0
LINE
  5
29B
100
AcDbEntity
  8
268
100
AcDbLine
 62
253
  6
CONTINUOUS
 10
3.5357496429
 20
17.1258997635
 11
8.894076423
 21
20.0168399905
  0
LINE
  5
29C
100
AcDbEntity
  8
268
100
AcDbLine
 62
253
  6
CONTINUOUS
 10
3.1691294896
 20
16.6796876374
 11
8.8099248554
 21
19.7230261466
  0
LINE
  5
29D
100
AcDbEntity
  8
268
100
AcDbLine
 62
253
  6
CONTINUOUS
 10
3.0807395348
 20
16.5443944561
 11
8.8099248554
 21
19.5107669925
  0
LINE
  5
29E
100
AcDbEntity
  8
268
100
AcDbLine
 62
7
  6
CONTINUOUS
 10
3.2005056655
 20
16.4845113908
 11
8.8921345678
 21
19.4314385224
  0
LINE
  5
29F
100
AcDbEntity
  8
268
100
AcDbLine
 62
7
  6
CONTINUOUS
 10
1.4203880189
 20
16.8037095308
 11
3.0216688097
 21
17.6064315343
  0
LINE
  5
2A0
100
AcDbEntity
  8
268
100
AcDbLine
 62
7
  6
CONTINUOUS
 10
3.0216688097
 20
17.6064315343
 11
3.5499359815
 21
17.8698703543
  0
LINE
  5
2A1
100
AcDbEntity
  8
268
100
AcDbLine
 62
253
  6
CONTINUOUS
 10
2.9321465998
 20
18.240742416
 11
7.7039855779
 21
20.5348179024
  0
LINE
  5
2A2
100
AcDbEntity
  8
268
100
AcDbLine
 62
253
  6
CONTINUOUS
 10
3.1597620996
 20
18.1269346661
 11
8.1458264459
 21
20.5239996221
  0
LINE
  5
2A3
100
AcDbEntity
  8
RACCORDO
100
AcDbLine
 62
253
  6
CONTINUOUS
 10
1.5106312778
 20
14.5157223782
 11
-2.6141360997
 21
12.9462869204
  0
LINE
  5
2A4
100
AcDbEntity
  8
ASSI
100
AcDbLine
 62
253
  6
CONTINUOUS
 10
1.5106312778
 20
14.5157223782
 11
-2.6141360997
 21
12.9462869204
  0
LINE
  5
2A5
100
AcDbEntity
  8
268
100
AcDbLine
 62
7
  6
CONTINUOUS
 10
2.4559833848
 20
14.7339343918
 11
1.6428105864
 21
14.4496327239
  0
LINE
  5
2A6
100
AcDbEntity
  8
268
100
AcDbLine
 62
7
  6
CONTINUOUS
 10
-13.3124978357
 20
21.8579504415
 11
-13.3124978357
 21
21.9272869349
  0
LINE
  5
2A7
100
AcDbEntity
  8
268
100
AcDbLine
 62
7
  6
CONTINUOUS
 10
-13.0234843828
 20
23.277291593
 11
-13.0234843828
 21
22.8249606174
  0
LINE
  5
2A8
100
AcDbEntity
  8
268
100
AcDbLine
 62
7
  6
CONTINUOUS
 10
-12.1207008749
 20
23.1820030347
 11
-12.1207008749
 21
22.928631641
  0
LINE
  5
2A9
100
AcDbEntity
  8
268
100
AcDbLine
 62
7
  6
CONTINUOUS
 10
-11.4094802668
 20
22.6551281181
 11
-11.4094802668
 21
22.0179585594
  0
LWPOLYLINE
  5
2AA
100
AcDbEntity
  8
CURVE
100
AcDbPolyline
 62
253
  6
CONTINUOUS
 90
5
 70
0
 10
-11.9979097418
 20
5.9630208208
 10
-11.8935014587
 20
6.913063792
 10
-11.7865348769
 20
7.8639340807
 10
-11.6770112997
 20
8.815620101
 10
-11.4758300458
 20
10.5108341394
  0
LWPOLYLINE
  5
2AB
100
AcDbEntity
  8
268
100
AcDbPolyline
 62
7
  6
CONTINUOUS
 90
5
 70
0
 10
8.8923430615
 20
19.4315368336
 10
8.8925774984
 20
19.4316698354
 10
8.8935047343
 20
19.4324975068
 10
8.8940111518
 20
19.4335485782
 10
8.8941228971
 20
19.4344928225
  0
LINE
  5
2AC
100
AcDbEntity
  8
218_STAMPATO
100
AcDbLine
 62
7
  6
CONTINUOUS
 10
3.7578157325
 20
16.2058563573
 11
9.3525005474
 21
19.1448000751
  0
LINE
  5
2AD
100
AcDbEntity
  8
268
100
AcDbLine
 62
253
  6
CONTINUOUS
 10
3.163090166
 20
15.8036700486
 11
1.395323213
 21
14.9008923491
  0
LINE
  5
2AE
100
AcDbEntity
  8
268
100
AcDbLine
 62
253
  6
CONTINUOUS
 10
3.4105775394
 20
15.3768059286
 11
1.6428105864
 21
14.4740282292
  0
LINE
  5
2AF
100
AcDbEntity
  8
268
100
AcDbLine
 62
7
  6
CONTINUOUS
 10
1.9548378976
 20
15.3357994772
 11
3.0216688097
 21
15.8743807267
  0
LWPOLYLINE
  5
2B0
100
AcDbEntity
  8
218_STAMPATO
100
AcDbPolyline
 62
253
  6
CONTINUOUS
 90
34
 70
0
 10
11.3605399113
 20
17.7258067641
 10
11.3793887172
 20
17.7351359206
 10
11.3978426094
 20
17.744184145
 10
11.4158878648
 20
17.7529447087
 10
11.4335110573
 20
17.7614110934
 10
11.4506990888
 20
17.7695770065
 10
11.4674391972
 20
17.7774363844
 10
11.4837189492
 20
17.784983389
 10
11.4995262183
 20
17.7922123979
 10
11.5148492177
 20
17.7991180205
 10
11.5296765429
 20
17.8056951172
 10
11.5439971793
 20
17.8119388023
 10
11.5578004799
 20
17.8178444337
 10
11.5710761813
 20
17.8234076204
 10
11.5838144104
 20
17.8286242248
 10
11.5960056934
 20
17.8334903672
 10
11.6076409644
 20
17.838002429
 10
11.6187115718
 20
17.8421570552
 10
11.6292092836
 20
17.8459511564
 10
11.6391262938
 20
17.8493819114
 10
11.6484552279
 20
17.852446769
 10
11.6571891491
 20
17.8551434502
 10
11.6653215629
 20
17.8574699498
 10
11.6728464219
 20
17.8594245377
 10
11.6797581307
 20
17.8610057606
 10
11.6860515497
 20
17.8622124427
 10
11.6917219992
 20
17.8630436866
 10
11.6967652626
 20
17.8634988743
 10
11.7011775897
 20
17.8635776672
 10
11.7049556996
 20
17.8632800068
 10
11.7080967829
 20
17.8626061145
 10
11.7105985038
 20
17.8615564913
 10
11.7124590021
 20
17.8601319177
 10
11.7133831189
 20
17.8589051926
  0
LINE
  5
2B1
100
AcDbEntity
  8
268
100
AcDbLine
 62
253
  6
CONTINUOUS
 10
3.8701969472
 20
16.14966575
 11
3.163090166
 21
15.8036700486
  0
LINE
  5
2B2
100
AcDbEntity
  8
268
100
AcDbLine
 62
253
  6
CONTINUOUS
 10
4.1176843206
 20
15.72280163
 11
3.4105775394
 21
15.3768059286
  0
LINE
  5
2B3
100
AcDbEntity
  8
218_STAMPATO
100
AcDbLine
 62
253
  6
CONTINUOUS
 10
10.0980274831
 20
17.8589563162
 11
10.8606160637
 21
18.2293830234
  0
LINE
  5
2B4
100
AcDbEntity
  8
218_STAMPATO
100
AcDbLine
 62
253
  6
CONTINUOUS
 10
10.4356958169
 20
17.2765645892
 11
11.3605399113
 21
17.7258067641
  0
LWPOLYLINE
  5
2B5
100
AcDbEntity
  8
218_STAMPATO
100
AcDbPolyline
 62
253
  6
CONTINUOUS
 90
26
 70
0
 10
10.8606160637
 20
18.2293830234
 10
10.8798759759
 20
18.2382796345
 10
10.8991124213
 20
18.2465220395
 10
10.9183111149
 20
18.2541041176
 10
10.9374577994
 20
18.2610202382
 10
10.9565382566
 20
18.2672652654
 10
10.9755383172
 20
18.2728345616
 10
10.9944438716
 20
18.2777239911
 10
11.0132408804
 20
18.2819299229
 10
11.031915385
 20
18.2854492337
 10
11.0504535174
 20
18.2882793099
 10
11.0688415112
 20
18.2904180501
 10
11.0870657114
 20
18.2918638659
 10
11.1051125845
 20
18.2926156836
 10
11.1229687289
 20
18.292672945
 10
11.1406208845
 20
18.2920356076
 10
11.1580559426
 20
18.2907041446
 10
11.175260956
 20
18.2886795447
 10
11.1922231481
 20
18.2859633115
 10
11.2089299227
 20
18.2825574621
 10
11.2253688732
 20
18.2784645256
 10
11.241527792
 20
18.2736875416
 10
11.2573946793
 20
18.2682300573
 10
11.2729577524
 20
18.2620961256
 10
11.288205454
 20
18.2552903015
 10
11.2954889443
 20
18.251746353
  0
LWPOLYLINE
  5
2B6
100
AcDbEntity
  8
RACCORDO
100
AcDbPolyline
 62
253
  6
CONTINUOUS
 90
22
 70
0
 10
-2.6141360997
 20
12.9462869204
 10
-2.6895806376
 20
12.9134427763
 10
-2.76504715
 20
12.8741475195
 10
-2.8401668979
 20
12.8285992251
 10
-2.9145729917
 20
12.7770318526
 10
-2.9879021482
 20
12.719699471
 10
-3.0597958025
 20
12.6568718596
 10
-3.1299121226
 20
12.5888498485
 10
-3.1978974016
 20
12.5159794997
 10
-3.2633893053
 20
12.4386378982
 10
-3.3260555545
 20
12.3572288299
 10
-3.3856062923
 20
12.2721430402
 10
-3.4417621889
 20
12.1837676695
 10
-3.494256556
 20
12.0925204477
 10
-3.5428197496
 20
11.9988704061
 10
-3.5871940073
 20
11.903300994
 10
-3.6271574936
 20
11.8062982751
 10
-3.6625224481
 20
11.7083314845
 10
-3.6931156264
 20
11.6098703243
 10
-3.7187858075
 20
11.511396995
 10
-3.7394065874
 20
11.4134040957
 10
-3.7548759887
 20
11.3163766627
  0
LWPOLYLINE
  5
2B7
100
AcDbEntity
  8
ASSI
100
AcDbPolyline
 62
253
  6
CONTINUOUS
 90
22
 70
0
 10
-2.6141360997
 20
12.9462869204
 10
-2.6895806376
 20
12.9134427763
 10
-2.76504715
 20
12.8741475195
 10
-2.8401668979
 20
12.8285992251
 10
-2.9145729917
 20
12.7770318526
 10
-2.9879021482
 20
12.719699471
 10
-3.0597958025
 20
12.6568718596
 10
-3.1299121226
 20
12.5888498485
 10
-3.1978974016
 20
12.5159794997
 10
-3.2633893053
 20
12.4386378982
 10
-3.3260555545
 20
12.3572288299
 10
-3.3856062923
 20
12.2721430402
 10
-3.4417621889
 20
12.1837676695
 10
-3.494256556
 20
12.0925204477
 10
-3.5428197496
 20
11.9988704061
 10
-3.5871940073
 20
11.903300994
 10
-3.6271574936
 20
11.8062982751
 10
-3.6625224481
 20
11.7083314845
 10
-3.6931156264
 20
11.6098703243
 10
-3.7187858075
 20
11.511396995
 10
-3.7394065874
 20
11.4134040957
 10
-3.7548759887
 20
11.3163766627
  0
LWPOLYLINE
  5
2B8
100
AcDbEntity
  8
RACCORDO
100
AcDbPolyline
 62
253
  6
CONTINUOUS
 90
22
 70
0
 10
-2.1077544867
 20
11.9451972791
 10
-2.1435883546
 20
11.9300262924
 10
-2.1791305609
 20
11.9120231382
 10
-2.2143811059
 20
11.8911878165
 10
-2.2495243016
 20
11.8673858265
 10
-2.2843758359
 20
11.8407516689
 10
-2.3183827722
 20
11.8116888459
 10
-2.3515236327
 20
11.7801606473
 10
-2.3838198952
 20
11.7462037831
 10
-2.4147830567
 20
11.710331886
 10
-2.4443864166
 20
11.6725241985
 10
-2.4726566753
 20
11.6328014781
 10
-2.4991854314
 20
11.5917396287
 10
-2.5239510032
 20
11.5493120961
 10
-2.5469750723
 20
11.5055454346
 10
-2.5679142819
 20
11.4610952118
 10
-2.5867380713
 20
11.4159362381
 10
-2.6034770012
 20
11.3700937031
 10
-2.6178793964
 20
11.3242987438
 10
-2.6298613652
 20
11.2787950726
 10
-2.6395067992
 20
11.2333389771
 10
-2.6468156985
 20
11.1879304573
  0
LWPOLYLINE
  5
2B9
100
AcDbEntity
  8
ASSI
100
AcDbPolyline
 62
253
  6
CONTINUOUS
 90
22
 70
0
 10
-2.1077544867
 20
11.9451972791
 10
-2.1435883546
 20
11.9300262924
 10
-2.1791305609
 20
11.9120231382
 10
-2.2143811059
 20
11.8911878165
 10
-2.2495243016
 20
11.8673858265
 10
-2.2843758359
 20
11.8407516689
 10
-2.3183827722
 20
11.8116888459
 10
-2.3515236327
 20
11.7801606473
 10
-2.3838198952
 20
11.7462037831
 10
-2.4147830567
 20
11.710331886
 10
-2.4443864166
 20
11.6725241985
 10
-2.4726566753
 20
11.6328014781
 10
-2.4991854314
 20
11.5917396287
 10
-2.5239510032
 20
11.5493120961
 10
-2.5469750723
 20
11.5055454346
 10
-2.5679142819
 20
11.4610952118
 10
-2.5867380713
 20
11.4159362381
 10
-2.6034770012
 20
11.3700937031
 10
-2.6178793964
 20
11.3242987438
 10
-2.6298613652
 20
11.2787950726
 10
-2.6395067992
 20
11.2333389771
 10
-2.6468156985
 20
11.1879304573
  0
LINE
  5
2BA
100
AcDbEntity
  8
RACCORDO
100
AcDbLine
 62
253
  6
CONTINUOUS
 10
2.0570590744
 20
13.5298699356
 11
-2.1077544867
 21
11.9451972791
  0
LINE
  5
2BB
100
AcDbEntity
  8
ASSI
100
AcDbLine
 62
253
  6
CONTINUOUS
 10
2.0570590744
 20
13.5298699356
 11
-2.1077544867
 21
11.9451972791
  0
LINE
  5
2BC
100
AcDbEntity
  8
268
100
AcDbLine
 62
7
  6
CONTINUOUS
 10
-10.3426493547
 20
22.5565398089
 11
-10.3426493547
 21
24.2885906165
  0
LINE
  5
2BD
100
AcDbEntity
  8
268
100
AcDbLine
 62
7
  6
CONTINUOUS
 10
-9.6396564004
 20
24.4239121142
 11
-9.6396564004
 21
24.1629831379
  0
LWPOLYLINE
  5
2BE
100
AcDbEntity
  8
CURVE
100
AcDbPolyline
 62
253
  6
CONTINUOUS
 90
81
 70
0
 10
-11.7214048212
 20
-16.0922499002
 10
-11.7275955957
 20
-16.1877871065
 10
-11.7367035687
 20
-16.2810948782
 10
-11.7487280068
 20
-16.3722481034
 10
-11.7636681767
 20
-16.4613216699
 10
-11.7815233452
 20
-16.5483904659
 10
-11.8022852976
 20
-16.6334837932
 10
-11.8259158944
 20
-16.7164486101
 10
-11.8523695147
 20
-16.7970862889
 10
-11.8816005377
 20
-16.8751982018
 10
-11.9135633425
 20
-16.9505857211
 10
-11.9482099966
 20
-17.0230695604
 10
-11.9854833206
 20
-17.0925477987
 10
-12.0253238231
 20
-17.1589378564
 10
-12.067672013
 20
-17.222157154
 10
-12.1124683991
 20
-17.2821231117
 10
-12.1596502088
 20
-17.3387534527
 10
-12.2091415444
 20
-17.3919671107
 10
-12.2608632268
 20
-17.4416833218
 10
-12.3147360769
 20
-17.4878213224
 10
-12.3706809158
 20
-17.5303003489
 10
-12.4286162635
 20
-17.5690455669
 10
-12.4884514372
 20
-17.6040058601
 10
-12.5500934534
 20
-17.6351360411
 10
-12.6134493283
 20
-17.6623909231
 10
-12.6784260784
 20
-17.6857253189
 10
-12.7449288612
 20
-17.7050985968
 10
-12.8128553988
 20
-17.7204883461
 10
-12.8821015548
 20
-17.7318767115
 10
-12.9525631923
 20
-17.7392458378
 10
-13.0241361747
 20
-17.7425778697
 10
-13.0967146408
 20
-17.7418601407
 10
-13.1701858306
 20
-17.7371007398
 10
-13.2444352596
 20
-17.7283129446
 10
-13.3193484433
 20
-17.7155100328
 10
-13.3948108971
 20
-17.6987052821
 10
-13.4707075005
 20
-17.6779171578
 10
-13.5469205884
 20
-17.6531848749
 10
-13.62333186
 20
-17.624552836
 10
-13.6998230142
 20
-17.5920654436
 10
-13.77627575
 20
-17.5557671003
 10
-13.8525718672
 20
-17.5157070644
 10
-13.928593569
 20
-17.4719540169
 10
-14.0042231592
 20
-17.424581495
 10
-14.079342942
 20
-17.3736630353
 10
-14.1538352212
 20
-17.319272175
 10
-14.2275831396
 20
-17.261486907
 10
-14.3004731955
 20
-17.2004030497
 10
-14.3723927258
 20
-17.1361208775
 10
-14.4432290676
 20
-17.0687406649
 10
-14.512869558
 20
-16.9983626864
 10
-14.5812034981
 20
-16.9250905467
 10
-14.6481280466
 20
-16.8490411711
 10
-14.7135423261
 20
-16.7703348153
 10
-14.7773454593
 20
-16.6890917349
 10
-14.8394365691
 20
-16.6054321854
 10
-14.8997168615
 20
-16.5194790342
 10
-14.9580958759
 20
-16.4313655957
 10
-15.014485235
 20
-16.341227796
 10
-15.0687965613
 20
-16.2492015612
 10
-15.1209414777
 20
-16.1554228174
 10
-15.1708343667
 20
-16.0600308476
 10
-15.2184006497
 20
-15.9631783613
 10
-15.2635685084
 20
-15.8650214248
 10
-15.3062661242
 20
-15.7657161044
 10
-15.3464216785
 20
-15.6654184666
 10
-15.3839666091
 20
-15.564281827
 10
-15.4188453794
 20
-15.462448499
 10
-15.4510057091
 20
-15.3600580452
 10
-15.4803953178
 20
-15.2572500285
 10
-15.5069619254
 20
-15.1541640114
 10
-15.5306575356
 20
-15.0509547784
 10
-15.5514512893
 20
-14.9478379999
 10
-15.5693166113
 20
-14.8450445683
 10
-15.5842269267
 20
-14.7428053756
 10
-15.5961556603
 20
-14.641351314
 10
-15.6050790104
 20
-14.5408634121
 10
-15.6109842674
 20
-14.4413232442
 10
-15.6138614951
 20
-14.3426625211
 10
-15.6137007573
 20
-14.2448129534
 10
-15.6104921177
 20
-14.147706252
  0
LINE
  5
2BF
100
AcDbEntity
  8
218_STAMPATO
100
AcDbLine
 62
253
  6
CONTINUOUS
 10
11.5664944583
 20
17.3705877154
 11
4.1176843206
 21
13.5809847954
  0
LINE
  5
2C0
100
AcDbEntity
  8
218_STAMPATO
100
AcDbLine
 62
253
  6
CONTINUOUS
 10
11.980644934
 20
15.9389541408
 11
4.1176843206
 21
11.9386510119
  0
LWPOLYLINE
  5
2C1
100
AcDbEntity
  8
218_STAMPATO
100
AcDbPolyline
 62
253
  6
CONTINUOUS
 90
34
 70
0
 10
11.5664944583
 20
17.3705877154
 10
11.5853309736
 20
17.3799108167
 10
11.6037730903
 20
17.3889533538
 10
11.6218071132
 20
17.3977086115
 10
11.6394196501
 20
17.4061700881
 10
11.6565976219
 20
17.4143315002
 10
11.6733282721
 20
17.4221867869
 10
11.6895991765
 20
17.429730115
 10
11.7053982521
 20
17.4369558827
 10
11.7207137665
 20
17.4438587242
 10
11.7355343464
 20
17.4504335132
 10
11.7498489858
 20
17.4566753674
 10
11.7636470547
 20
17.4625796515
 10
11.7769183064
 20
17.468141981
 10
11.7896528858
 20
17.4733582253
 10
11.8018413361
 20
17.4782245106
 10
11.8134746059
 20
17.4827372234
 10
11.8245440565
 20
17.4868930124
 10
11.8350414676
 20
17.4906887915
 10
11.8449590437
 20
17.4941217421
 10
11.8542894199
 20
17.4971893146
 10
11.8630256676
 20
17.4998892312
 10
11.8711612991
 20
17.5022194868
 10
11.8786902728
 20
17.504178351
 10
11.8856069978
 20
17.5057643692
 10
11.8919063375
 20
17.5069763636
 10
11.8975836141
 20
17.507813434
 10
11.9026346116
 20
17.508274959
 10
11.907055579
 20
17.5083605957
 10
11.9108432335
 20
17.5080702807
 10
11.9139947621
 20
17.5074042294
 10
11.9165078247
 20
17.5063629365
 10
11.9183805549
 20
17.5049471752
 10
11.9193376902
 20
17.5036861019
  0
LWPOLYLINE
  5
2C2
100
AcDbEntity
  8
218_STAMPATO
100
AcDbPolyline
 62
7
  6
CONTINUOUS
 90
16
 70
0
 10
18.8374076123
 20
-5.4133029671
 10
18.8284463971
 20
-5.4150702146
 10
18.8196242898
 20
-5.4164236137
 10
18.8109412904
 20
-5.4173631644
 10
18.8023869251
 20
-5.4178873095
 10
18.7939716676
 20
-5.4179976062
 10
18.7857269395
 20
-5.4176987258
 10
18.7776565655
 20
-5.4169838679
 10
18.7697567208
 20
-5.4158598329
 10
18.7620473523
 20
-5.414351693
 10
18.7545341273
 20
-5.4124537715
 10
18.7472113783
 20
-5.4101717452
 10
18.7400820509
 20
-5.4075477166
 10
18.7331471265
 20
-5.4045957199
 10
18.7264056236
 20
-5.401301721
 10
18.7198575421
 20
-5.3976657199
  0
LINE
  5
2C3
100
AcDbEntity
  8
268
100
AcDbLine
 62
7
  6
CONTINUOUS
 10
-8.1648923517
 20
22.0305266771
 11
-8.1648923517
 21
20.8157932909
  0
LINE
  5
2C4
100
AcDbEntity
  8
268
100
AcDbLine
 62
253
  6
CONTINUOUS
 10
-8.0770243861
 20
21.9240177203
 11
-8.0770243861
 21
20.7090628542
  0
LWPOLYLINE
  5
2C5
100
AcDbEntity
  8
RACCORDO
100
AcDbPolyline
 62
253
  6
CONTINUOUS
 90
15
 70
0
 10
-6.7559302543
 20
-25.1544426874
 10
-6.7559711069
 20
-25.2459130435
 10
-6.7507084802
 20
-25.3345723474
 10
-6.7401687447
 20
-25.4199832334
 10
-6.7244034401
 20
-25.5017210229
 10
-6.7034913927
 20
-25.5793873228
 10
-6.6775354746
 20
-25.6526095843
 10
-6.6466547301
 20
-25.7210357029
 10
-6.611002631
 20
-25.7843152763
 10
-6.5707709999
 20
-25.8421160273
 10
-6.5261675345
 20
-25.8941465451
 10
-6.4774045024
 20
-25.9401668131
 10
-6.424711879
 20
-25.9799626126
 10
-6.3683322583
 20
-26.0133420351
 10
-6.3618242672
 20
-26.0166609251
  0
LWPOLYLINE
  5
2C6
100
AcDbEntity
  8
ASSI
100
AcDbPolyline
 62
253
  6
CONTINUOUS
 90
15
 70
0
 10
-6.7559302543
 20
-25.1544426874
 10
-6.7559711069
 20
-25.2459130435
 10
-6.7507084802
 20
-25.3345723474
 10
-6.7401687447
 20
-25.4199832334
 10
-6.7244034401
 20
-25.5017210229
 10
-6.7034913927
 20
-25.5793873228
 10
-6.6775354746
 20
-25.6526095843
 10
-6.6466547301
 20
-25.7210357029
 10
-6.611002631
 20
-25.7843152763
 10
-6.5707709999
 20
-25.8421160273
 10
-6.5261675345
 20
-25.8941465451
 10
-6.4774045024
 20
-25.9401668131
 10
-6.424711879
 20
-25.9799626126
 10
-6.3683322583
 20
-26.0133420351
 10
-6.3618242672
 20
-26.0166609251
  0
LINE
  5
2C7
100
AcDbEntity
  8
268
100
AcDbLine
 62
7
  6
CONTINUOUS
 10
3.109542929
 20
16.6071650396
 11
3.6367876447
 21
17.2488727677
  0
LWPOLYLINE
  5
2C8
100
AcDbEntity
  8
218_STAMPATO
100
AcDbPolyline
 62
253
  6
CONTINUOUS
 90
30
 70
0
 10
11.980644934
 20
15.9389541408
 10
11.9993060726
 20
15.9488834838
 10
12.0174191677
 20
15.9590633818
 10
12.0349707683
 20
15.9694862751
 10
12.0519478405
 20
15.9801444237
 10
12.0683377772
 20
15.9910299127
 10
12.0841284069
 20
16.0021346585
 10
12.0993080036
 20
16.0134504147
 10
12.1138652947
 20
16.0249687781
 10
12.1277894699
 20
16.0366811951
 10
12.1410701891
 20
16.0485789681
 10
12.1536975899
 20
16.0606532616
 10
12.1656622952
 20
16.0728951092
 10
12.1769554199
 20
16.0852954201
 10
12.1875685776
 20
16.0978449857
 10
12.1974938869
 20
16.1105344867
 10
12.2067239774
 20
16.1233544997
 10
12.2152519946
 20
16.1362955045
 10
12.2230716056
 20
16.1493478912
 10
12.2301770036
 20
16.1625019668
 10
12.2365629119
 20
16.1757479631
 10
12.2422245885
 20
16.1890760436
 10
12.2471578289
 20
16.2024763108
 10
12.2513589696
 20
16.2159388135
 10
12.254824891
 20
16.2294535545
 10
12.2575530191
 20
16.2430104975
 10
12.259541328
 20
16.2565995751
 10
12.2607883412
 20
16.2702106961
 10
12.2612931327
 20
16.2838337527
 10
12.2613051336
 20
16.2862816375
  0
LINE
  5
2C9
100
AcDbEntity
  8
218_STAMPATO
100
AcDbLine
 62
7
  6
CONTINUOUS
 10
12.2613051336
 20
14.1667232182
 11
13.4394404255
 21
14.7661628097
  0
LINE
  5
2CA
100
AcDbEntity
  8
218_STAMPATO
100
AcDbLine
 62
7
  6
CONTINUOUS
 10
12.2613051336
 20
13.7352038541
 11
13.52046084
 21
14.3668160116
  0
LINE
  5
2CB
100
AcDbEntity
  8
218_STAMPATO
100
AcDbLine
 62
7
  6
CONTINUOUS
 10
12.6140965306
 20
15.0275143054
 11
12.2613051336
 21
14.8591264541
  0
LWPOLYLINE
  5
2CC
100
AcDbEntity
  8
RACCORDO
100
AcDbPolyline
 62
253
  6
CONTINUOUS
 90
22
 70
0
 10
-5.6398671527
 20
-25.1856333746
 10
-5.6398174742
 20
-25.2285068784
 10
-5.6372998732
 20
-25.2697454289
 10
-5.6323143497
 20
-25.3093490263
 10
-5.6248135728
 20
-25.3475136121
 10
-5.6148448735
 20
-25.3840432448
 10
-5.6025502442
 20
-25.4183500989
 10
-5.5878914408
 20
-25.450388639
 10
-5.5709067076
 20
-25.4802044007
 10
-5.5518527697
 20
-25.5073461652
 10
-5.5307028701
 20
-25.5317680341
 10
-5.5074837659
 20
-25.5535159059
 10
-5.4825324538
 20
-25.5722762576
 10
-5.4558191114
 20
-25.5880076021
 10
-5.4273735612
 20
-25.6007514265
 10
-5.3976222669
 20
-25.610318669
 10
-5.3665333419
 20
-25.6166561631
 10
-5.3341386729
 20
-25.6198170753
 10
-5.3009603839
 20
-25.6197718429
 10
-5.2671725163
 20
-25.6165106116
 10
-5.2326010286
 20
-25.6100432358
 10
-5.197245921
 20
-25.6003697153
  0
LWPOLYLINE
  5
2CD
100
AcDbEntity
  8
ASSI
100
AcDbPolyline
 62
253
  6
CONTINUOUS
 90
22
 70
0
 10
-5.6398671527
 20
-25.1856333746
 10
-5.6398174742
 20
-25.2285068784
 10
-5.6372998732
 20
-25.2697454289
 10
-5.6323143497
 20
-25.3093490263
 10
-5.6248135728
 20
-25.3475136121
 10
-5.6148448735
 20
-25.3840432448
 10
-5.6025502442
 20
-25.4183500989
 10
-5.5878914408
 20
-25.450388639
 10
-5.5709067076
 20
-25.4802044007
 10
-5.5518527697
 20
-25.5073461652
 10
-5.5307028701
 20
-25.5317680341
 10
-5.5074837659
 20
-25.5535159059
 10
-5.4825324538
 20
-25.5722762576
 10
-5.4558191114
 20
-25.5880076021
 10
-5.4273735612
 20
-25.6007514265
 10
-5.3976222669
 20
-25.610318669
 10
-5.3665333419
 20
-25.6166561631
 10
-5.3341386729
 20
-25.6198170753
 10
-5.3009603839
 20
-25.6197718429
 10
-5.2671725163
 20
-25.6165106116
 10
-5.2326010286
 20
-25.6100432358
 10
-5.197245921
 20
-25.6003697153
  0
LWPOLYLINE
  5
2CE
100
AcDbEntity
  8
RACCORDO
100
AcDbPolyline
 62
253
  6
CONTINUOUS
 90
13
 70
0
 10
-3.7548759887
 20
11.3163766627
 10
-4.1562819364
 20
8.2277835846
 10
-4.5303074942
 20
5.1468644535
 10
-4.8769054194
 20
2.074011974
 10
-5.1960320047
 20
-0.9903821168
 10
-5.4876466912
 20
-4.0459274149
 10
-5.7517120706
 20
-7.0922348973
 10
-5.9881942771
 20
-10.1289165827
 10
-6.1970634076
 20
-13.1555854912
 10
-6.3782931285
 20
-16.171856007
 10
-6.5318602601
 20
-19.1773439436
 10
-6.6577447837
 20
-22.1716665938
 10
-6.7559302543
 20
-25.1544426874
  0
LWPOLYLINE
  5
2CF
100
AcDbEntity
  8
ASSI
100
AcDbPolyline
 62
253
  6
CONTINUOUS
 90
13
 70
0
 10
-3.7548759887
 20
11.3163766627
 10
-4.1562819364
 20
8.2277835846
 10
-4.5303074942
 20
5.1468644535
 10
-4.8769054194
 20
2.074011974
 10
-5.1960320047
 20
-0.9903821168
 10
-5.4876466912
 20
-4.0459274149
 10
-5.7517120706
 20
-7.0922348973
 10
-5.9881942771
 20
-10.1289165827
 10
-6.1970634076
 20
-13.1555854912
 10
-6.3782931285
 20
-16.171856007
 10
-6.5318602601
 20
-19.1773439436
 10
-6.6577447837
 20
-22.1716665938
 10
-6.7559302543
 20
-25.1544426874
  0
LINE
  5
2D0
100
AcDbEntity
  8
712
100
AcDbLine
 62
7
  6
CONTINUOUS
 10
12.7094069582
 20
11.8485515518
 11
12.2613051336
 21
11.6245006396
  0
LINE
  5
2D1
100
AcDbEntity
  8
712
100
AcDbLine
 62
7
  6
CONTINUOUS
 10
13.5579376659
 20
11.4242887683
 11
12.2613051336
 21
10.7759725021
  0
LINE
  5
2D2
100
AcDbEntity
  8
218_STAMPATO
100
AcDbLine
 62
7
  6
CONTINUOUS
 10
17.0005783322
 20
12.8342734046
 11
13.4383413417
 21
11.1245916385
  0
LWPOLYLINE
  5
2D3
100
AcDbEntity
  8
712
100
AcDbPolyline
 62
7
  6
CONTINUOUS
 90
10
 70
0
 10
13.55790877
 20
11.4242743203
 10
13.5693052343
 20
11.4294429756
 10
13.5805256367
 20
11.4334948719
 10
13.5915699775
 20
11.4364300095
 10
13.6025332364
 20
11.4382485408
 10
13.6133204335
 20
11.4389503133
 10
13.623646629
 20
11.4385348689
 10
13.6334168427
 20
11.437002055
 10
13.6427260547
 20
11.4343520243
 10
13.651574265
 20
11.4305847767
  0
LINE
  5
2D4
100
AcDbEntity
  8
268
100
AcDbLine
 62
253
  6
CONTINUOUS
 10
-2.284515318
 20
17.8128083202
 11
-2.284515318
 21
19.0277631863
  0
LWPOLYLINE
  5
2D5
100
AcDbEntity
  8
RACCORDO
100
AcDbPolyline
 62
253
  6
CONTINUOUS
 90
16
 70
0
 10
-2.1077544867
 20
11.9451972791
 10
-2.1061711424
 20
12.0212783399
 10
-2.110634089
 20
12.0996815977
 10
-2.1210944928
 20
12.1795488149
 10
-2.1374378685
 20
12.2600057258
 10
-2.159485331
 20
12.3401716007
 10
-2.1869955516
 20
12.4191688874
 10
-2.2196674037
 20
12.4961328293
 10
-2.2571432544
 20
12.5702209189
 10
-2.2990128743
 20
12.640622116
 10
-2.3448179414
 20
12.7065657515
 10
-2.3940570493
 20
12.7673299453
 10
-2.446191185
 20
12.8222495006
 10
-2.5006496495
 20
12.8707232122
 10
-2.5568363072
 20
12.9122204434
 10
-2.6141360983
 20
12.9462869209
  0
LWPOLYLINE
  5
2D6
100
AcDbEntity
  8
ASSI
100
AcDbPolyline
 62
253
  6
CONTINUOUS
 90
16
 70
0
 10
-2.1077544867
 20
11.9451972791
 10
-2.1061711424
 20
12.0212783399
 10
-2.110634089
 20
12.0996815977
 10
-2.1210944928
 20
12.1795488149
 10
-2.1374378685
 20
12.2600057258
 10
-2.159485331
 20
12.3401716007
 10
-2.1869955516
 20
12.4191688874
 10
-2.2196674037
 20
12.4961328293
 10
-2.2571432544
 20
12.5702209189
 10
-2.2990128743
 20
12.640622116
 10
-2.3448179414
 20
12.7065657515
 10
-2.3940570493
 20
12.7673299453
 10
-2.446191185
 20
12.8222495006
 10
-2.5006496495
 20
12.8707232122
 10
-2.5568363072
 20
12.9122204434
 10
-2.6141360983
 20
12.9462869209
  0
LWPOLYLINE
  5
2D7
100
AcDbEntity
  8
RACCORDO
100
AcDbPolyline
 62
253
  6
CONTINUOUS
 90
7
 70
0
 10
-4.6383600719
 20
-7.1715663016
 10
-4.8741968283
 20
-10.2000296545
 10
-5.0825244891
 20
-13.2188944963
 10
-5.263263325
 20
-16.2270030654
 10
-5.4163867593
 20
-19.2239694412
 10
-5.5419213685
 20
-22.2101795442
 10
-5.6398671527
 20
-25.1856333746
  0
LWPOLYLINE
  5
2D8
100
AcDbEntity
  8
ASSI
100
AcDbPolyline
 62
253
  6
CONTINUOUS
 90
7
 70
0
 10
-4.6383600719
 20
-7.1715663016
 10
-4.8741968283
 20
-10.2000296545
 10
-5.0825244891
 20
-13.2188944963
 10
-5.263263325
 20
-16.2270030654
 10
-5.4163867593
 20
-19.2239694412
 10
-5.5419213685
 20
-22.2101795442
 10
-5.6398671527
 20
-25.1856333746
  0
LWPOLYLINE
  5
2D9
100
AcDbEntity
  8
RACCORDO
100
AcDbPolyline
 62
253
  6
CONTINUOUS
 90
7
 70
0
 10
-2.6468156985
 20
11.1879304573
 10
-3.0472325793
 20
8.1069448776
 10
-3.4202523327
 20
5.0343870793
 10
-3.7658749586
 20
1.9702570622
 10
-4.0841377799
 20
-1.085835417
 10
-4.3750034737
 20
-4.1335001148
 10
-4.6383600719
 20
-7.1715663016
  0
LWPOLYLINE
  5
2DA
100
AcDbEntity
  8
ASSI
100
AcDbPolyline
 62
253
  6
CONTINUOUS
 90
7
 70
0
 10
-2.6468156985
 20
11.1879304573
 10
-3.0472325793
 20
8.1069448776
 10
-3.4202523327
 20
5.0343870793
 10
-3.7658749586
 20
1.9702570622
 10
-4.0841377799
 20
-1.085835417
 10
-4.3750034737
 20
-4.1335001148
 10
-4.6383600719
 20
-7.1715663016
  0
LINE
  5
2DB
100
AcDbEntity
  8
218_STAMPATO
100
AcDbLine
 62
253
  6
CONTINUOUS
 10
12.2976041677
 20
9.4933250816
 11
18.0128584567
 21
12.3281333423
  0
LWPOLYLINE
  5
2DC
100
AcDbEntity
  8
218_STAMPATO
100
AcDbPolyline
 62
253
  6
CONTINUOUS
 90
6
 70
0
 10
12.309628316
 20
9.4870830244
 10
12.2982027846
 20
9.481838754
 10
12.2868021268
 20
9.4770532086
 10
12.2754382766
 20
9.4727313975
 10
12.2641231292
 20
9.4688778447
 10
12.2613051336
 20
9.468031224
  0
LWPOLYLINE
  5
2DD
100
AcDbEntity
  8
218_STAMPATO
100
AcDbPolyline
 62
253
  6
CONTINUOUS
 90
5
 70
0
 10
12.2976041677
 20
9.4933250816
 10
12.2861696856
 20
9.4880790389
 10
12.2747536386
 20
9.4832950863
 10
12.2633679812
 20
9.4789782333
 10
12.2613051336
 20
9.4782789573
  0
LINE
  5
2DE
100
AcDbEntity
  8
268
100
AcDbLine
 62
7
  6
CONTINUOUS
 10
0.7235717709
 20
-5.0625455672
 11
0.5349170625
 21
-4.968218213
  0
LWPOLYLINE
  5
2DF
100
AcDbEntity
  8
268
100
AcDbPolyline
 62
7
  6
CONTINUOUS
 90
13
 70
0
 10
8.8907032804
 20
-17.4922824495
 10
8.8878121153
 20
-17.4883892585
 10
8.8841233511
 20
-17.4840069183
 10
8.8796633872
 20
-17.4792496255
 10
8.8744705289
 20
-17.4741097708
 10
8.8685878718
 20
-17.4685624121
 10
8.8620273376
 20
-17.4626948135
 10
8.8548204344
 20
-17.4564975055
 10
8.8470032887
 20
-17.4499523809
 10
8.8385793493
 20
-17.4431315048
 10
8.8295664579
 20
-17.43604948
 10
8.8200046125
 20
-17.4286658367
 10
8.8099248554
 20
-17.420969282
  0
LINE
  5
2E0
100
AcDbEntity
  8
268
100
AcDbLine
 62
7
  6
CONTINUOUS
 10
-0.1304756404
 20
-13.0545155325
 11
0.4503583684
 21
-18.4683411061
  0
LINE
  5
2E1
100
AcDbEntity
  8
268
100
AcDbLine
 62
7
  6
CONTINUOUS
 10
-1.9280786586
 20
23.3160530139
 11
-1.9280786586
 21
21.9893725785
  0
LINE
  5
2E2
100
AcDbEntity
  8
268
100
AcDbLine
 62
253
  6
CONTINUOUS
 10
-1.8614889664
 20
17.8144471677
 11
-1.8614889664
 21
19.0286506406
  0
LINE
  5
2E3
100
AcDbEntity
  8
268
100
AcDbLine
 62
7
  6
CONTINUOUS
 10
-1.574525268
 20
22.5867181293
 11
-1.574525268
 21
23.1392763186
  0
LINE
  5
2E4
100
AcDbEntity
  8
268
100
AcDbLine
 62
253
  6
CONTINUOUS
 10
-1.5038145899
 20
24.7554846162
 11
-1.5038145899
 21
23.5236504348
  0
LINE
  5
2E5
100
AcDbEntity
  8
268
100
AcDbLine
 62
7
  6
CONTINUOUS
 10
-1.4159466242
 20
24.8604818301
 11
-1.4159466242
 21
23.6281132253
  0
LINE
  5
2E6
100
AcDbEntity
  8
268
100
AcDbLine
 62
7
  6
CONTINUOUS
 10
-1.3623932336
 20
19.2788473137
 11
-1.3623932336
 21
18.0664117484
  0
LINE
  5
2E7
100
AcDbEntity
  8
268
100
AcDbLine
 62
7
  6
CONTINUOUS
 10
-0.3621591727
 20
-24.5036147433
 11
-0.3621591727
 21
-24.2502433495
  0
LINE
  5
2E8
100
AcDbEntity
  8
268
100
AcDbLine
 62
7
  6
CONTINUOUS
 10
-0.3621591727
 20
17.0493607899
 11
-0.3621591727
 21
17.3027321836
  0
LWPOLYLINE
  5
2E9
100
AcDbEntity
  8
RACCORDO
100
AcDbPolyline
 62
253
  6
CONTINUOUS
 90
11
 70
0
 10
-5.197245921
 20
-25.6003697153
 10
-5.2080145616
 20
-25.6743976336
 10
-5.2246943569
 20
-25.7444602182
 10
-5.247102719
 20
-25.8097905177
 10
-5.2749943509
 20
-25.8696733834
 10
-5.3080639326
 20
-25.9234532979
 10
-5.3459494624
 20
-25.9705415507
 10
-5.3882362204
 20
-26.0104226827
 10
-5.4344613077
 20
-26.0426601286
 10
-5.484118714
 20
-26.066900996
 10
-5.5061392851
 20
-26.0747165513
  0
LWPOLYLINE
  5
2EA
100
AcDbEntity
  8
ASSI
100
AcDbPolyline
 62
253
  6
CONTINUOUS
 90
11
 70
0
 10
-5.197245921
 20
-25.6003697153
 10
-5.2080145616
 20
-25.6743976336
 10
-5.2246943569
 20
-25.7444602182
 10
-5.247102719
 20
-25.8097905177
 10
-5.2749943509
 20
-25.8696733834
 10
-5.3080639326
 20
-25.9234532979
 10
-5.3459494624
 20
-25.9705415507
 10
-5.3882362204
 20
-26.0104226827
 10
-5.4344613077
 20
-26.0426601286
 10
-5.484118714
 20
-26.066900996
 10
-5.5061392851
 20
-26.0747165513
  0
LWPOLYLINE
  5
2EB
100
AcDbEntity
  8
218_STAMPATO
100
AcDbPolyline
 62
253
  6
CONTINUOUS
 90
30
 70
0
 10
18.7198575421
 20
11.1087402957
 10
18.7385188575
 20
11.1186697354
 10
18.7566321211
 20
11.1288497362
 10
18.7741838815
 20
11.1392727384
 10
18.7911611049
 20
11.1499310023
 10
18.8075511825
 20
11.1608166124
 10
18.8233419403
 20
11.1719214833
 10
18.8385216509
 20
11.1832373676
 10
18.8530790424
 20
11.1947558625
 10
18.8670033041
 20
11.2064684141
 10
18.8802840958
 20
11.2183663245
 10
18.8929115547
 20
11.2304407579
 10
18.9048763032
 20
11.2426827472
 10
18.916169456
 20
11.2550832014
 10
18.9267826268
 20
11.2676329115
 10
18.9367079341
 20
11.2803225579
 10
18.9459380071
 20
11.2931427167
 10
18.9544659915
 20
11.3060838676
 10
18.9622855544
 20
11.3191363999
 10
18.9693908887
 20
11.3322906206
 10
18.9757767183
 20
11.3455367609
 10
18.9814383007
 20
11.3588649838
 10
18.9863714319
 20
11.3722653914
 10
18.9905724486
 20
11.3857280323
 10
18.9940382311
 20
11.3992429087
 10
18.996766206
 20
11.4127999839
 10
18.9987543477
 20
11.4263891904
 10
19.00000118
 20
11.4400004362
 10
19.0005057772
 20
11.4536236133
 10
19.0005177418
 20
11.456069483
  0
LINE
  5
2EC
100
AcDbEntity
  8
218_STAMPATO
100
AcDbLine
 62
253
  6
CONTINUOUS
 10
11.980644934
 20
7.7660411599
 11
18.7198575421
 21
11.1087402957
  0
LINE
  5
2ED
100
AcDbEntity
  8
268
100
AcDbLine
 62
7
  6
CONTINUOUS
 10
2.4559833848
 20
-21.4767064746
 11
0.7235717709
 21
-5.0625455672
  0
LWPOLYLINE
  5
2EE
100
AcDbEntity
  8
268
100
AcDbPolyline
 62
7
  6
CONTINUOUS
 90
24
 70
0
 10
1.1831911786
 20
23.6301588626
 10
1.1826179942
 20
23.6646312688
 10
1.1809188812
 20
23.6983811898
 10
1.1780938397
 20
23.7314086255
 10
1.1741334051
 20
23.7637701829
 10
1.169047042
 20
23.7954092551
 10
1.1628631436
 20
23.8261560217
 10
1.1555805282
 20
23.8559915491
 10
1.1472003775
 20
23.8849347709
 10
1.1377546303
 20
23.9128726668
 10
1.1272307718
 20
23.9398188296
 10
1.1156413167
 20
23.9657596666
 10
1.103055748
 20
23.9905413795
 10
1.0894805621
 20
24.0141386809
 10
1.0749092626
 20
24.0365768582
 10
1.0593918425
 20
24.0577779754
 10
1.0429085552
 20
24.0777550653
 10
1.0254791473
 20
24.0964950952
 10
1.0072128527
 20
24.1138810307
 10
0.9881241968
 20
24.1298899571
 10
0.9681986541
 20
24.1445447891
 10
0.9475018816
 20
24.1577972375
 10
0.926009367
 20
24.1696530988
 10
-2.3031918992
 20
25.7842776091
  0
LINE
  5
2EF
100
AcDbEntity
  8
268
100
AcDbLine
 62
7
  6
CONTINUOUS
 10
0.3408337816
 20
16.5951325108
 11
0.3408337816
 21
16.1428015352
  0
LINE
  5
2F0
100
AcDbEntity
  8
268
100
AcDbLine
 62
7
  6
CONTINUOUS
 10
1.1831911786
 20
23.6301588626
 11
1.1831911786
 21
23.35935857
  0
LINE
  5
2F1
100
AcDbEntity
  8
268
100
AcDbLine
 62
7
  6
CONTINUOUS
 10
1.2436172895
 20
16.4998439525
 11
1.2436172895
 21
16.2464725588
  0
LINE
  5
2F2
100
AcDbEntity
  8
268
100
AcDbLine
 62
7
  6
CONTINUOUS
 10
1.2436172895
 20
-25.0531315806
 11
1.2436172895
 21
-25.3065029744
  0
LINE
  5
2F3
100
AcDbEntity
  8
268
100
AcDbLine
 62
7
  6
CONTINUOUS
 10
1.6428105864
 20
-23.6798805479
 11
1.6428105864
 21
-23.6554850426
  0
LINE
  5
2F4
100
AcDbEntity
  8
268
100
AcDbLine
 62
7
  6
CONTINUOUS
 10
1.6428105864
 20
14.4496327239
 11
1.6428105864
 21
14.4740282292
  0
LINE
  5
2F5
100
AcDbEntity
  8
268
100
AcDbLine
 62
7
  6
CONTINUOUS
 10
1.9548378976
 20
15.9729690359
 11
1.9548378976
 21
15.3357994772
  0
LINE
  5
2F6
100
AcDbEntity
  8
268
100
AcDbLine
 62
7
  6
CONTINUOUS
 10
1.9548378976
 20
-23.6720130124
 11
1.9548378976
 21
-24.0766351035
  0
LINE
  5
2F7
100
AcDbEntity
  8
RACCORDO
100
AcDbLine
 62
7
  6
CONTINUOUS
 10
2.0570590744
 20
13.5298699356
 11
-1.0547097075
 21
-24.2864262937
  0
LINE
  5
2F8
100
AcDbEntity
  8
ASSI
100
AcDbLine
 62
7
  6
CONTINUOUS
 10
2.0570590744
 20
13.5298699356
 11
-1.0547097075
 21
-24.2864262937
  0
LINE
  5
2F9
100
AcDbEntity
  8
268
100
AcDbLine
 62
7
  6
CONTINUOUS
 10
0.7235717709
 20
-5.0625455672
 11
2.4559833848
 21
13.0840269542
  0
LWPOLYLINE
  5
2FA
100
AcDbEntity
  8
218_STAMPATO
100
AcDbPolyline
 62
253
  6
CONTINUOUS
 90
56
 70
0
 10
18.8374081016
 20
4.9183802622
 10
18.8444110041
 20
4.9208926165
 10
18.8514713396
 20
4.9231797855
 10
18.8585881848
 20
4.9252430575
 10
18.8657444525
 20
4.9270964592
 10
18.8729550876
 20
4.928728826
 10
18.8802667027
 20
4.9301042959
 10
18.8876964762
 20
4.9312338366
 10
18.8952234283
 20
4.9321113394
 10
18.9028359295
 20
4.9326765466
 10
18.9105449469
 20
4.9329314751
 10
18.9183335282
 20
4.9328814467
 10
18.9261471335
 20
4.9324722957
 10
18.9339729737
 20
4.9317048394
 10
18.9418157468
 20
4.9305878683
 10
18.9496460904
 20
4.9290802992
 10
18.9574476897
 20
4.9271920228
 10
18.9652262474
 20
4.9249256197
 10
18.9729836798
 20
4.922231047
 10
18.9807214913
 20
4.9191168429
 10
18.9884233685
 20
4.9155919945
 10
18.9960621826
 20
4.9116098421
 10
19.003637672
 20
4.9071741149
 10
19.0111307964
 20
4.9023041796
 10
19.0184846014
 20
4.8969787569
 10
19.0256772059
 20
4.8912196251
 10
19.0327084269
 20
4.8850318829
 10
19.0395517311
 20
4.8783718267
 10
19.0461887011
 20
4.8712765843
 10
19.052610252
 20
4.8637435052
 10
19.0587982065
 20
4.8556763091
 10
19.0647482203
 20
4.8471033148
 10
19.0704254797
 20
4.8380468732
 10
19.0757578995
 20
4.8284122596
 10
19.0807315683
 20
4.8182400909
 10
19.0853089874
 20
4.8075588222
 10
19.0893737161
 20
4.7962673614
 10
19.0929075654
 20
4.7844059643
 10
19.0958622841
 20
4.7720277134
 10
19.0980682772
 20
4.7590619669
 10
19.0994855683
 20
4.745468849
 10
19.1000722661
 20
4.7314096206
 10
19.0996693211
 20
4.7170974399
 10
19.0982061822
 20
4.7025036796
 10
19.0957048327
 20
4.6877394814
 10
19.0921902546
 20
4.6731633767
 10
19.0876631611
 20
4.6588395835
 10
19.0821368609
 20
4.6446977235
 10
19.0756900436
 20
4.63084279
 10
19.0683413013
 20
4.6172821317
 10
19.0600955005
 20
4.6039862365
 10
19.0510190574
 20
4.5909917363
 10
19.0411254994
 20
4.5782870483
 10
19.0304256976
 20
4.5658575321
 10
19.0189847919
 20
4.553730508
 10
19.0068189003
 20
4.5418939606
  0
LWPOLYLINE
  5
2FB
100
AcDbEntity
  8
268
100
AcDbPolyline
 62
7
  6
CONTINUOUS
 90
31
 70
0
 10
3.4105775394
 20
15.3768059286
 10
3.4102388949
 20
15.3928394722
 10
3.4092222514
 20
15.4091679385
 10
3.4075307011
 20
15.4257467331
 10
3.4051694839
 20
15.4425307264
 10
3.4021450723
 20
15.4594739205
 10
3.3984651524
 20
15.4765295751
 10
3.3941400886
 20
15.4936510884
 10
3.389182039
 20
15.5107916893
 10
3.3836040189
 20
15.5279041094
 10
3.3774215711
 20
15.5449415774
 10
3.3706519317
 20
15.561857545
 10
3.3633131261
 20
15.5786053789
 10
3.3554254925
 20
15.5951392903
 10
3.3470109216
 20
15.6114140995
 10
3.3380920051
 20
15.6273849571
 10
3.3286933766
 20
15.6430081838
 10
3.3188410422
 20
15.6582410814
 10
3.3085616042
 20
15.6730416894
 10
3.2978833852
 20
15.6873695138
 10
3.2868358665
 20
15.7011853894
 10
3.2754490057
 20
15.7144512787
 10
3.2637541173
 20
15.7271308704
 10
3.2517834317
 20
15.739189497
 10
3.2395695238
 20
15.7505939814
 10
3.2271459288
 20
15.7613130893
 10
3.2145468326
 20
15.7713175047
 10
3.2018066247
 20
15.7805797283
 10
3.18896021
 20
15.7890743603
 10
3.1760429134
 20
15.7967781698
 10
3.163090166
 20
15.8036700486
  0
LINE
  5
2FC
100
AcDbEntity
  8
268
100
AcDbLine
 62
7
  6
CONTINUOUS
 10
2.4559833848
 20
-23.1266139122
 11
2.4559833848
 21
-21.4767064746
  0
LINE
  5
2FD
100
AcDbEntity
  8
268
100
AcDbLine
 62
7
  6
CONTINUOUS
 10
2.4559833848
 20
13.0840269542
 11
2.4559833848
 21
14.7339343918
  0
LINE
  5
2FE
100
AcDbEntity
  8
268
100
AcDbLine
 62
7
  6
CONTINUOUS
 10
3.0216688097
 20
-23.1500000442
 11
3.0216688097
 21
-24.6556081704
  0
LINE
  5
2FF
100
AcDbEntity
  8
268
100
AcDbLine
 62
7
  6
CONTINUOUS
 10
3.0216688097
 20
15.8743807267
 11
3.0216688097
 21
17.6064315343
  0
LINE
  5
300
100
AcDbEntity
  8
268
100
AcDbLine
 62
7
  6
CONTINUOUS
 10
3.724661764
 20
17.741753032
 11
3.724661764
 21
17.4808240557
  0
LINE
  5
301
100
AcDbEntity
  8
268
100
AcDbLine
 62
7
  6
CONTINUOUS
 10
3.724661764
 20
-23.8187800837
 11
3.724661764
 21
-24.0797090601
  0
LINE
  5
302
100
AcDbEntity
  8
268
100
AcDbLine
 62
253
  6
CONTINUOUS
 10
4.0518794615
 20
21.9788629241
 11
4.0518794615
 21
20.7470243457
  0
LINE
  5
303
100
AcDbEntity
  8
268
100
AcDbLine
 62
7
  6
CONTINUOUS
 10
4.1176843206
 20
15.72280163
 11
4.1176843206
 21
-22.4537802147
  0
LINE
  5
304
100
AcDbEntity
  8
218_STAMPATO
100
AcDbLine
 62
7
  6
CONTINUOUS
 10
4.1176843206
 20
11.9386510119
 11
4.1176843206
 21
-18.6696295965
  0
LINE
  5
305
100
AcDbEntity
  8
268
100
AcDbLine
 62
7
  6
CONTINUOUS
 10
4.1385168899
 20
22.0832502994
 11
4.1385168899
 21
20.8508818076
  0
LWPOLYLINE
  5
306
100
AcDbEntity
  8
268
100
AcDbPolyline
 62
7
  6
CONTINUOUS
 90
18
 70
0
 10
3.4105775394
 20
-22.8148912945
 10
3.4102378718
 20
-22.830585682
 10
3.4092214343
 20
-22.8458976078
 10
3.4075307011
 20
-22.8607852606
 10
3.4051696965
 20
-22.8752081431
 10
3.4021448849
 20
-22.8891267256
 10
3.3984651524
 20
-22.902502554
 10
3.3941402994
 20
-22.9152991088
 10
3.3891818695
 20
-22.92748147
 10
3.3836040189
 20
-22.9390159547
 10
3.3774217747
 20
-22.9498710767
 10
3.3706517844
 20
-22.9600172295
 10
3.3633131261
 20
-22.9694263315
 10
3.3554256841
 20
-22.9780727051
 10
3.3470108001
 20
-22.9859327868
 10
3.3380920051
 20
-22.9929847886
 10
3.3286935513
 20
-22.9992094742
 10
3.3206087168
 20
-23.0037038502
  0
LWPOLYLINE
  5
307
100
AcDbEntity
  8
218_STAMPATO
100
AcDbPolyline
 62
7
  6
CONTINUOUS
 90
16
 70
0
 10
18.8374081036
 20
6.5378477124
 10
18.8284468529
 20
6.5360804187
 10
18.8196247095
 20
6.5347269825
 10
18.8109416732
 20
6.5337874039
 10
18.8023872698
 20
6.5332632419
 10
18.7939719736
 20
6.5331529374
 10
18.7857272076
 20
6.5334518139
 10
18.777656797
 20
6.5341666705
 10
18.7697569165
 20
6.5352907082
 10
18.7620475136
 20
6.5367988529
 10
18.754534255
 20
6.5386967825
 10
18.7472114739
 20
6.5409788192
 10
18.7400821174
 20
6.5436028548
 10
18.7331471677
 20
6.5465548532
 10
18.7264056426
 20
6.5498488505
 10
18.7198575421
 20
6.5534848466
  0
LWPOLYLINE
  5
308
100
AcDbEntity
  8
218_STAMPATO
100
AcDbPolyline
 62
253
  6
CONTINUOUS
 90
61
 70
0
 10
11.9806449676
 20
7.7660411766
 10
12.0176590557
 20
7.8161349768
 10
12.0535241786
 20
7.8664715609
 10
12.0882470523
 20
7.9170069922
 10
12.1219326601
 20
7.9678019628
 10
12.1544899428
 20
8.018708871
 10
12.1856468108
 20
8.0693676105
 10
12.2153949925
 20
8.1196879754
 10
12.2437939216
 20
8.1696689099
 10
12.270694658
 20
8.2190814195
 10
12.2961071002
 20
8.2678540095
 10
12.3200887012
 20
8.315976571
 10
12.3425721642
 20
8.363314479
 10
12.3635910001
 20
8.4098475281
 10
12.3831836595
 20
8.4555284876
 10
12.4012986122
 20
8.5001866308
 10
12.4179528104
 20
8.5437572573
 10
12.4332112102
 20
8.5862553295
 10
12.4470997334
 20
8.6276348481
 10
12.4596481985
 20
8.6678698733
 10
12.4709042842
 20
8.7069532252
 10
12.4809205226
 20
8.7448713674
 10
12.4897273924
 20
8.7816152568
 10
12.4973658177
 20
8.8171756342
 10
12.5039034778
 20
8.8515427662
 10
12.5093660296
 20
8.8846860547
 10
12.5137941286
 20
8.9166321709
 10
12.5172750455
 20
8.9474592841
 10
12.519836717
 20
8.9771805453
 10
12.5215056265
 20
9.0057856344
 10
12.5223629559
 20
9.0333178942
 10
12.5224322059
 20
9.0597735653
 10
12.5217372256
 20
9.0851670982
 10
12.5203566926
 20
9.1095692599
 10
12.5183138012
 20
9.1329775777
 10
12.5156245631
 20
9.1554090991
 10
12.5123528367
 20
9.1769613375
 10
12.5085137942
 20
9.1976569887
 10
12.5041227545
 20
9.2174867778
 10
12.499240733
 20
9.2364979925
 10
12.4938856744
 20
9.2546896378
 10
12.4880656545
 20
9.2720791468
 10
12.4818246754
 20
9.2887394396
 10
12.4751798549
 20
9.3046740176
 10
12.4681347398
 20
9.3198942062
 10
12.4607103011
 20
9.334480053
 10
12.4529112479
 20
9.3484502551
 10
12.4447486855
 20
9.3617961496
 10
12.4362513765
 20
9.374553174
 10
12.4274287531
 20
9.3867257059
 10
12.418284919
 20
9.3983196653
 10
12.4088396947
 20
9.4093709983
 10
12.399113671
 20
9.4198744469
 10
12.3890977347
 20
9.4298449369
 10
12.3787659496
 20
9.4393438312
 10
12.3681382448
 20
9.4483694062
 10
12.3572038693
 20
9.4569259952
 10
12.3458895525
 20
9.4650746088
 10
12.3341732608
 20
9.4728301332
 10
12.3220848277
 20
9.480167699
 10
12.309628316
 20
9.4870830245
  0
LINE
  5
309
100
AcDbEntity
  8
218_STAMPATO
100
AcDbLine
 62
253
  6
CONTINUOUS
 10
19.9156945315
 20
5.1204399387
 11
19.9207019513
 21
5.1236976863
  0
LINE
  5
30A
100
AcDbEntity
  8
218_STAMPATO
100
AcDbLine
 62
7
  6
CONTINUOUS
 10
19.0005177418
 20
4.5285113179
 11
19.9156945287
 21
5.120439937
  0
LWPOLYLINE
  5
30B
100
AcDbEntity
  8
268
100
AcDbPolyline
 62
7
  6
CONTINUOUS
 90
4
 70
0
 10
8.8941228936
 20
-17.5003622571
 10
8.893888388
 20
-17.4985940431
 10
8.8927476119
 20
-17.4956618174
 10
8.8907032804
 20
-17.4922824495
  0
LINE
  5
30C
100
AcDbEntity
  8
268
100
AcDbLine
 62
253
  6
CONTINUOUS
 10
8.8099248554
 20
19.7230261466
 11
8.8099248554
 21
19.5107669925
  0
LINE
  5
30D
100
AcDbEntity
  8
268
100
AcDbLine
 62
253
  6
CONTINUOUS
 10
8.8099248554
 20
-17.2534796838
 11
8.8099248554
 21
-17.420969282
  0
LWPOLYLINE
  5
30E
100
AcDbEntity
  8
268
100
AcDbPolyline
 62
7
  6
CONTINUOUS
 90
16
 70
0
 10
8.8940845742
 20
20.010729758
 10
8.8938088007
 20
19.9972446409
 10
8.8926845767
 20
19.9774677415
 10
8.8907032804
 20
19.9575695023
 10
8.8878324648
 20
19.937619324
 10
8.8841157979
 20
19.9176568249
 10
8.8796633872
 20
19.8976896605
 10
8.8744855891
 20
19.8777582899
 10
8.8685803834
 20
19.8579064884
 10
8.8620273376
 20
19.8381409653
 10
8.8548321991
 20
19.8184955768
 10
8.8469956076
 20
19.7990073674
 10
8.8385793493
 20
19.7796863352
 10
8.8296029389
 20
19.7605578035
 10
8.8200500014
 20
19.7416610086
 10
8.8099248554
 20
19.7230261466
  0
LWPOLYLINE
  5
30F
100
AcDbEntity
  8
218_STAMPATO
100
AcDbPolyline
 62
253
  6
CONTINUOUS
 90
24
 70
0
 10
11.980644934
 20
7.7660412019
 10
12.0052586971
 20
7.8254460962
 10
12.0288571379
 20
7.8849934253
 10
12.051415339
 20
7.9446630052
 10
12.0729444283
 20
8.004586002
 10
12.0933848681
 20
8.0645911448
 10
12.1126238298
 20
8.1241987419
 10
12.1306456223
 20
8.183324158
 10
12.1474653598
 20
8.2419996164
 10
12.1630440838
 20
8.2999135409
 10
12.1773879972
 20
8.356997212
 10
12.1905200933
 20
8.4132663954
 10
12.202442563
 20
8.4685342896
 10
12.2131828718
 20
8.5227852283
 10
12.2227601054
 20
8.5759865225
 10
12.2311788267
 20
8.6279253278
 10
12.2384696633
 20
8.6785266754
 10
12.2446759756
 20
8.7278217434
 10
12.2498329846
 20
8.7757575513
 10
12.2539803534
 20
8.8223007675
 10
12.2571592588
 20
8.8674490944
 10
12.2594103043
 20
8.9111979528
 10
12.2607756289
 20
8.953529545
 10
12.2612970694
 20
8.9944339257
  0
LWPOLYLINE
  5
310
100
AcDbEntity
  8
218_STAMPATO
100
AcDbPolyline
 62
253
  6
CONTINUOUS
 90
55
 70
0
 10
18.7198575421
 20
4.7810161667
 10
18.7256252376
 20
4.7861750197
 10
18.7313699784
 20
4.7911183859
 10
18.7370906246
 20
4.795846398
 10
18.7427807357
 20
4.800361078
 10
18.7484445381
 20
4.8046606056
 10
18.7540964254
 20
4.808739541
 10
18.759736747
 20
4.8126013435
 10
18.765361798
 20
4.8162431764
 10
18.7709791172
 20
4.8196504665
 10
18.7765883024
 20
4.8228250995
 10
18.7821856588
 20
4.8257659982
 10
18.7877733072
 20
4.8284543096
 10
18.7933484587
 20
4.830890211
 10
18.7989093559
 20
4.833074363
 10
18.8044592615
 20
4.8349887551
 10
18.8099866723
 20
4.836633913
 10
18.8154981063
 20
4.8380101497
 10
18.821022318
 20
4.8390996483
 10
18.8265442376
 20
4.8399111005
 10
18.8320710969
 20
4.8404374446
 10
18.8376608934
 20
4.8406386061
 10
18.8433131044
 20
4.8405273555
 10
18.8490132519
 20
4.8400945225
 10
18.854793152
 20
4.839268693
 10
18.860656813
 20
4.8380513747
 10
18.8665787301
 20
4.836445948
 10
18.8725439957
 20
4.8343843559
 10
18.8785456982
 20
4.8318595586
 10
18.8845675334
 20
4.8288830084
 10
18.8905813035
 20
4.8254139175
 10
18.8965644594
 20
4.8214557747
 10
18.9025172177
 20
4.8170082432
 10
18.9084446959
 20
4.8120247158
 10
18.9143285261
 20
4.8065116543
 10
18.9201591064
 20
4.8004659618
 10
18.9259495828
 20
4.7938275239
 10
18.9316913095
 20
4.786582585
 10
18.937354754
 20
4.7787488914
 10
18.9429181015
 20
4.7703139023
 10
18.9483604551
 20
4.7612720809
 10
18.9536621482
 20
4.7516314187
 10
18.9588024828
 20
4.7413992681
 10
18.9637447215
 20
4.7306073658
 10
18.96848307
 20
4.7192245708
 10
18.9730334149
 20
4.7071646611
 10
18.977363028
 20
4.6944280444
 10
18.981437439
 20
4.6810151765
 10
18.9852498259
 20
4.6668413226
 10
18.9887572088
 20
4.6518823026
 10
18.9919066114
 20
4.6361612332
 10
18.9946579323
 20
4.6196644878
 10
18.9969504284
 20
4.6023964039
 10
18.9987276084
 20
4.5843460424
 10
18.9999333801
 20
4.5654758733
  0
LWPOLYLINE
  5
311
100
AcDbEntity
  8
218_STAMPATO
100
AcDbPolyline
 62
7
  6
CONTINUOUS
 90
136
 70
0
 10
18.8374081016
 20
4.9183802622
 10
18.8968049345
 20
4.9671083998
 10
18.9543221384
 20
5.0146194519
 10
19.0099597131
 20
5.0609134182
 10
19.0636625735
 20
5.1059557442
 10
19.1154858049
 20
5.1497809846
 10
19.1655946627
 20
5.1924928037
 10
19.2139963928
 20
5.2340961285
 10
19.2606837495
 20
5.2745860321
 10
19.3058002504
 20
5.3140513976
 10
19.3493501015
 20
5.3524947495
 10
19.3913290969
 20
5.3899135633
 10
19.4318681369
 20
5.4263891493
 10
19.4709711421
 20
5.4619238847
 10
19.5086341919
 20
5.4965153923
 10
19.5449764241
 20
5.5302378507
 10
19.5800014986
 20
5.563093519
 10
19.6137057556
 20
5.5950801382
 10
19.6461973531
 20
5.6262651095
 10
19.6774796354
 20
5.656650528
 10
19.7075492582
 20
5.6862342987
 10
19.7365043468
 20
5.7150775382
 10
19.7643479798
 20
5.7431822313
 10
19.7910770786
 20
5.7705463933
 10
19.8167805333
 20
5.7972251864
 10
19.8414611898
 20
5.8232205381
 10
19.8651162021
 20
5.8485305209
 10
19.8878259226
 20
5.8732045143
 10
19.9095929611
 20
5.8972444208
 10
19.9304147078
 20
5.9206483379
 10
19.9503636847
 20
5.9434599384
 10
19.9694422557
 20
5.9656811448
 10
19.987648057
 20
5.9873100346
 10
20.0050465187
 20
6.0083845138
 10
20.0216397188
 20
6.0289065652
 10
20.0374255794
 20
6.0488742061
 10
20.0524632972
 20
6.0683193938
 10
20.0667545765
 20
6.0872441856
 10
20.0802977131
 20
6.1056465243
 10
20.0931467902
 20
6.1235521961
 10
20.1053030181
 20
6.1409633271
 10
20.1167651865
 20
6.1578777911
 10
20.1275837482
 20
6.1743149961
 10
20.1377591558
 20
6.1902768771
 10
20.1472909567
 20
6.2057614991
 10
20.1562282451
 20
6.2207824655
 10
20.1645707587
 20
6.2353416572
 10
20.17231876
 20
6.2494371932
 10
20.1795221301
 20
6.2630770338
 10
20.1861794379
 20
6.2762618851
 10
20.1922921147
 20
6.2889910409
 10
20.1979143359
 20
6.3012703432
 10
20.2030414715
 20
6.3130906502
 10
20.2076781514
 20
6.3244611035
 10
20.2118924414
 20
6.3354149704
 10
20.2156824002
 20
6.3459388196
 10
20.2190499689
 20
6.3560460823
 10
20.2220690364
 20
6.3658103193
 10
20.2247449096
 20
6.3752292516
 10
20.2270722815
 20
6.3843051581
 10
20.2291091206
 20
6.3931184368
 10
20.2308628258
 20
6.4016740837
 10
20.232325998
 20
6.4099671026
 10
20.2335344079
 20
6.4180629034
 10
20.2344943416
 20
6.4259657357
 10
20.2351995129
 20
6.4336713498
 10
20.2356668342
 20
6.4412324067
 10
20.235901966
 20
6.4486520784
 10
20.2358992477
 20
6.4559271929
 10
20.2356586099
 20
6.4631008952
 10
20.2351857026
 20
6.4701759168
 10
20.2344748758
 20
6.4771495263
 10
20.2335091093
 20
6.4840566739
 10
20.2322947249
 20
6.4908994915
 10
20.2308254008
 20
6.4976758473
 10
20.2290651523
 20
6.5044142958
 10
20.2270216386
 20
6.511117179
 10
20.2246872005
 20
6.517782155
 10
20.2220028752
 20
6.5244307526
 10
20.2189738421
 20
6.5310713645
 10
20.2155949219
 20
6.5376955981
 10
20.2117916128
 20
6.5442998041
 10
20.2075614979
 20
6.5508957735
 10
20.2029069941
 20
6.5574717154
 10
20.197760851
 20
6.563988607
 10
20.1921186656
 20
6.5704501891
 10
20.185984841
 20
6.5768527209
 10
20.1793053354
 20
6.5831459585
 10
20.1720788697
 20
6.5893276166
 10
20.164306723
 20
6.5953999804
 10
20.1559386908
 20
6.6013196615
 10
20.14697437
 20
6.6070846348
 10
20.1374141636
 20
6.6126969254
 10
20.1272090775
 20
6.6181192195
 10
20.1163596247
 20
6.6233500143
 10
20.1048652921
 20
6.6283908126
 10
20.0926755456
 20
6.6332088096
 10
20.0797915902
 20
6.6378031437
 10
20.0662122208
 20
6.6421746764
 10
20.0518832886
 20
6.646293188
 10
20.0368065088
 20
6.6501583896
 10
20.0209801662
 20
6.6537705701
 10
20.0043449666
 20
6.6571003762
 10
19.9869029982
 20
6.6601479814
 10
19.9686521728
 20
6.6629132121
 10
19.9495269324
 20
6.6653661946
 10
19.9295296311
 20
6.6675074599
 10
19.9086579149
 20
6.669336477
 10
19.8868391631
 20
6.6708217794
 10
19.8640760533
 20
6.6719641714
 10
19.840365908
 20
6.6727628487
 10
19.8156280746
 20
6.6731839317
 10
19.7898651743
 20
6.6732284351
 10
19.763074586
 20
6.6728953442
 10
19.7351677928
 20
6.6721477358
 10
19.7061487822
 20
6.6709868847
 10
19.6760135669
 20
6.669411516
 10
19.6446616682
 20
6.667380882
 10
19.6120944412
 20
6.6648961778
 10
19.5783105308
 20
6.6619562083
 10
19.5432053938
 20
6.6585166409
 10
19.5067741311
 20
6.6545775228
 10
19.4690216417
 20
6.6501388068
 10
19.4298580792
 20
6.6451560179
 10
19.3892921979
 20
6.6396308292
 10
19.3473152435
 20
6.6335615676
 10
19.3038111067
 20
6.6268987394
 10
19.2587946913
 20
6.6196460572
 10
19.2122510935
 20
6.6117998084
 10
19.1640194925
 20
6.6032993605
 10
19.114100062
 20
6.5941463369
 10
19.0624926283
 20
6.5843391143
 10
19.0090358497
 20
6.5738121908
 10
18.9536759458
 20
6.5625437323
 10
18.8964666971
 20
6.5505555728
 10
18.8374081036
 20
6.5378477124
  0
LWPOLYLINE
  5
312
100
AcDbEntity
  8
218_STAMPATO
100
AcDbPolyline
 62
253
  6
CONTINUOUS
 90
104
 70
0
 10
19.9207019513
 20
5.1236976863
 10
19.9520963164
 20
5.1450080056
 10
19.9828524427
 20
5.16743276
 10
20.0129569284
 20
5.1909621781
 10
20.0423966457
 20
5.2155860032
 10
20.0711587199
 20
5.2412934704
 10
20.0992305644
 20
5.2680733299
 10
20.1265999048
 20
5.2959138679
 10
20.1532548102
 20
5.3248029437
 10
20.179183669
 20
5.3547279724
 10
20.2043751752
 20
5.3856759103
 10
20.2288183099
 20
5.4176332256
 10
20.252502375
 20
5.4505859315
 10
20.2754170146
 20
5.484519614
 10
20.2975522409
 20
5.519419477
 10
20.3188984111
 20
5.5552703171
 10
20.3394462169
 20
5.5920565065
 10
20.3591866702
 20
5.6297619603
 10
20.3781111323
 20
5.6683701777
 10
20.3962113297
 20
5.7078642741
 10
20.4134793724
 20
5.7482270274
 10
20.4299077364
 20
5.7894408502
 10
20.4454892559
 20
5.8314877725
 10
20.4602171165
 20
5.8743494119
 10
20.474084875
 20
5.918007018
 10
20.4870864707
 20
5.9624415038
 10
20.4992162348
 20
6.0076334886
 10
20.5104688796
 20
6.0535632714
 10
20.5208394952
 20
6.100210818
 10
20.5303235473
 20
6.1475557412
 10
20.5389168892
 20
6.1955773407
 10
20.5466157669
 20
6.2442546313
 10
20.5534168224
 20
6.2935663736
 10
20.559317089
 20
6.3434910567
 10
20.5643139911
 20
6.3940068931
 10
20.5684053447
 20
6.4450918142
 10
20.5715893623
 20
6.4967235008
 10
20.5738646536
 20
6.5488794019
 10
20.5752302257
 20
6.6015367496
 10
20.5756854827
 20
6.6546725558
 10
20.5752302256
 20
6.708263619
 10
20.5738646534
 20
6.7622865388
 10
20.571589362
 20
6.8167177312
 10
20.5684053443
 20
6.8715334354
 10
20.5643139905
 20
6.9267097103
 10
20.5593170883
 20
6.9822224488
 10
20.5534168215
 20
7.0380473986
 10
20.5466157659
 20
7.0941601965
 10
20.5389168881
 20
7.1505363648
 10
20.5303235461
 20
7.2071513063
 10
20.5208394939
 20
7.2639802815
 10
20.5104688782
 20
7.3209984438
 10
20.4992162332
 20
7.3781808715
 10
20.487086469
 20
7.4355026204
 10
20.4740848732
 20
7.492938702
 10
20.4602171146
 20
7.5504640665
 10
20.4454892539
 20
7.6080535665
 10
20.4299077343
 20
7.6656820082
 10
20.4134793702
 20
7.7233241951
 10
20.3962113273
 20
7.7809549912
 10
20.3781111298
 20
7.838549285
 10
20.3591866677
 20
7.8960819645
 10
20.3394462142
 20
7.9535278716
 10
20.3188984084
 20
8.0108618667
 10
20.297552238
 20
8.0680588771
 10
20.2754170116
 20
8.1250939664
 10
20.2525023718
 20
8.1819422887
 10
20.2288183067
 20
8.2385790595
 10
20.2043751719
 20
8.2949795094
 10
20.1791836657
 20
8.3511189534
 10
20.1532548068
 20
8.406972841
 10
20.1265999011
 20
8.4625168224
 10
20.0992305606
 20
8.5177267008
 10
20.0711587161
 20
8.5725784046
 10
20.0423966419
 20
8.6270479459
 10
20.0129569246
 20
8.6811114882
 10
19.9828524387
 20
8.7347453921
 10
19.9520963122
 20
8.7879262729
 10
19.920701947
 20
8.8406309573
 10
19.8886830323
 20
8.8928364606
 10
19.8560535658
 20
8.9445199569
 10
19.8228278211
 20
8.9956588373
 10
19.7890203237
 20
9.0462307479
 10
19.7546458198
 20
9.0962136329
 10
19.7197192955
 20
9.1455857016
 10
19.6842559859
 20
9.1943254154
 10
19.6482713899
 20
9.2424114711
 10
19.6117812397
 20
9.2898228458
 10
19.5748014806
 20
9.3365388231
 10
19.5373482487
 20
9.3825390203
 10
19.4994378829
 20
9.4278033702
 10
19.4610869282
 20
9.4723121171
 10
19.4223121381
 20
9.5160458164
 10
19.3831304527
 20
9.5589853616
 10
19.3435589847
 20
9.6011119992
 10
19.3036150088
 20
9.6424073394
 10
19.2633159637
 20
9.6828533537
 10
19.2226794464
 20
9.7224323811
 10
19.1817232001
 20
9.76112714
 10
19.1404651042
 20
9.7989207381
 10
19.0989231687
 20
9.8357966773
 10
19.0571155378
 20
9.8717388509
 10
19.0150604776
 20
9.9067315554
 10
19.0005177418
 20
9.9184347553
  0
LINE
  5
313
100
AcDbEntity
  8
RACCORDO
100
AcDbLine
 62
253
  6
CONTINUOUS
 10
-18.0833563233
 20
18.48061683
 11
-3.7548759887
 21
11.3163766627
  0
LINE
  5
314
100
AcDbEntity
  8
ASSI
100
AcDbLine
 62
253
  6
CONTINUOUS
 10
-18.0833563233
 20
18.48061683
 11
-3.7548759887
 21
11.3163766627
  0
LWPOLYLINE
  5
315
100
AcDbEntity
  8
268
100
AcDbPolyline
 62
7
  6
CONTINUOUS
 90
5
 70
0
 10
8.8941228971
 20
19.4344928225
 10
8.8941102467
 20
19.4348277582
 10
8.8938158436
 20
19.4363455469
 10
8.8931405086
 20
19.4380622112
 10
8.8920964157
 20
19.439981915
  0
LWPOLYLINE
  5
316
100
AcDbEntity
  8
268
100
AcDbPolyline
 62
7
  6
CONTINUOUS
 90
7
 70
0
 10
8.894076423
 20
20.0168399905
 10
8.8939848149
 20
20.0211477917
 10
8.8938456442
 20
20.0254591224
 10
8.8936589107
 20
20.0297739824
 10
8.8934246146
 20
20.0340923717
 10
8.8931427558
 20
20.0384142904
 10
8.8928133344
 20
20.0427397385
  0
LINE
  5
317
100
AcDbEntity
  8
268
100
AcDbLine
 62
7
  6
CONTINUOUS
 10
8.894076423
 20
20.0168399905
 11
8.8940845742
 21
20.010729758
  0
LINE
  5
318
100
AcDbEntity
  8
268
100
AcDbLine
 62
7
  6
CONTINUOUS
 10
8.8941229153
 20
20.0106470249
 11
8.8941229153
 21
19.4346838353
  0
LINE
  5
319
100
AcDbEntity
  8
268
100
AcDbLine
 62
7
  6
CONTINUOUS
 10
8.8941229153
 20
-17.2092496034
 11
8.8941229153
 21
-17.5001926492
  0
LINE
  5
31A
100
AcDbEntity
  8
268
100
AcDbLine
 62
7
  6
CONTINUOUS
 10
8.894076423
 20
-17.5011042119
 11
8.8941228936
 21
-17.5003622571
  0
LINE
  5
31B
100
AcDbEntity
  8
218_STAMPATO
100
AcDbLine
 62
253
  6
CONTINUOUS
 10
19.0068189003
 20
4.5418939606
 11
19.0005177418
 21
4.5362370117
  0
LINE
  5
31C
100
AcDbEntity
  8
RACCORDO
100
AcDbLine
 62
253
  6
CONTINUOUS
 10
-16.9678011729
 20
20.123119457
 11
-2.6141360997
 21
12.9462869204
  0
LINE
  5
31D
100
AcDbEntity
  8
ASSI
100
AcDbLine
 62
253
  6
CONTINUOUS
 10
-16.9678011729
 20
20.123119457
 11
-2.6141360997
 21
12.9462869204
  0
LWPOLYLINE
  5
31E
100
AcDbEntity
  8
218_STAMPATO
100
AcDbPolyline
 62
7
  6
CONTINUOUS
 90
104
 70
0
 10
19.0005177418
 20
-1.9424671787
 10
19.0132390865
 20
-1.9517220039
 10
19.0580606983
 20
-1.9855903254
 10
19.1025445453
 20
-2.0204652376
 10
19.1467022053
 20
-2.0563500251
 10
19.1905327824
 20
-2.0932402163
 10
19.2340045348
 20
-2.1311055499
 10
19.2770821554
 20
-2.1699103866
 10
19.319745076
 20
-2.2096304085
 10
19.3619827829
 20
-2.2502502123
 10
19.4037752843
 20
-2.2917451416
 10
19.4451014103
 20
-2.3340884117
 10
19.4859521639
 20
-2.3772651959
 10
19.5263252858
 20
-2.4212685724
 10
19.5662161094
 20
-2.4660902549
 10
19.6055985819
 20
-2.5116979316
 10
19.6444385073
 20
-2.5580475537
 10
19.6827074056
 20
-2.6050990183
 10
19.7204060321
 20
-2.65284726
 10
19.7575437694
 20
-2.7013004216
 10
19.7941194717
 20
-2.750455561
 10
19.8301046673
 20
-2.8002731354
 10
19.8654676186
 20
-2.8507061754
 10
19.9001849063
 20
-2.9017166175
 10
19.9342539293
 20
-2.9532960922
 10
19.9676745012
 20
-3.005441457
 10
20.0004384728
 20
-3.0581385662
 10
20.0325271704
 20
-3.1113561222
 10
20.0639243074
 20
-3.1650653654
 10
20.0946156515
 20
-3.219239962
 10
20.1245905851
 20
-3.2738593423
 10
20.1538386188
 20
-3.3289030216
 10
20.1823472227
 20
-3.3843463285
 10
20.2101051597
 20
-3.4401665072
 10
20.2371038419
 20
-3.4963459495
 10
20.263332503
 20
-3.5528625442
 10
20.2887789859
 20
-3.609690631
 10
20.313432692
 20
-3.6668073026
 10
20.3372832112
 20
-3.7241896057
 10
20.3603194138
 20
-3.7818122294
 10
20.382530083
 20
-3.8396487079
 10
20.4039025487
 20
-3.897667402
 10
20.4244298993
 20
-3.9558512544
 10
20.4441092229
 20
-4.0141959047
 10
20.4629360022
 20
-4.0726949654
 10
20.4808941786
 20
-4.1313062299
 10
20.497964606
 20
-4.1899717837
 10
20.5141324767
 20
-4.2486412369
 10
20.5293979335
 20
-4.30731606
 10
20.5437642055
 20
-4.3660163896
 10
20.5572283964
 20
-4.4247460053
 10
20.5697744669
 20
-4.4834522084
 10
20.5813862091
 20
-4.5420709121
 10
20.5920531146
 20
-4.6005550233
 10
20.6017736604
 20
-4.6589034041
 10
20.6105460449
 20
-4.7171214544
 10
20.6183651784
 20
-4.7752016997
 10
20.625221404
 20
-4.8331030824
 10
20.6311060731
 20
-4.8907812531
 10
20.6360134917
 20
-4.9482098619
 10
20.6399386764
 20
-5.0053678103
 10
20.6428760791
 20
-5.0622198791
 10
20.644821228
 20
-5.1187329222
 10
20.6457707256
 20
-5.1748938898
 10
20.6457205925
 20
-5.2306984355
 10
20.6446652792
 20
-5.2861568647
 10
20.6426000926
 20
-5.341211896
 10
20.6395260759
 20
-5.3957603407
 10
20.6354476503
 20
-5.4497345206
 10
20.6303631801
 20
-5.5031617263
 10
20.6242658124
 20
-5.5560825844
 10
20.6171435867
 20
-5.6085394281
 10
20.6090010307
 20
-5.6604444468
 10
20.5998603968
 20
-5.7116465642
 10
20.5897401724
 20
-5.7620681433
 10
20.5786357241
 20
-5.8117546441
 10
20.5665391538
 20
-5.8607431012
 10
20.5534396383
 20
-5.9090631785
 10
20.539351861
 20
-5.9566468209
 10
20.5243087627
 20
-6.0033869453
 10
20.5083270744
 20
-6.0492484273
 10
20.4914093317
 20
-6.0942393002
 10
20.4735746174
 20
-6.1383230705
 10
20.4548386013
 20
-6.1814776633
 10
20.4352087841
 20
-6.2237012566
 10
20.4146934956
 20
-6.2649886519
 10
20.3932846337
 20
-6.3053636899
 10
20.3710123314
 20
-6.3447765316
 10
20.3479495218
 20
-6.3831175503
 10
20.3241566202
 20
-6.4203199234
 10
20.2996157941
 20
-6.4564437488
 10
20.2742840928
 20
-6.4915697682
 10
20.2481441684
 20
-6.5257274773
 10
20.2212410869
 20
-6.5588632587
 10
20.1936234175
 20
-6.5909293964
 10
20.1653262538
 20
-6.621901849
 10
20.1363541318
 20
-6.6517919637
 10
20.1067128486
 20
-6.680606981
 10
20.0764248069
 20
-6.7083371272
 10
20.045507563
 20
-6.7349781821
 10
20.0139583495
 20
-6.760542253
 10
19.9817890492
 20
-6.7850270665
 10
19.9490275466
 20
-6.8084187902
 10
19.9156945283
 20
-6.8307106355
  0
LWPOLYLINE
  5
31F
100
AcDbEntity
  8
218_STAMPATO
100
AcDbPolyline
 62
253
  6
CONTINUOUS
 90
105
 70
0
 10
19.0005177418
 20
-2.032715817
 10
19.0150604863
 20
-2.0444190241
 10
19.0571155466
 20
-2.0794117289
 10
19.0989231776
 20
-2.1153539028
 10
19.1404651131
 20
-2.1522298423
 10
19.1817232091
 20
-2.1900234408
 10
19.2226794555
 20
-2.2287182
 10
19.2633159729
 20
-2.2682972277
 10
19.3036150179
 20
-2.3087432423
 10
19.3435589938
 20
-2.3500385827
 10
19.3831304618
 20
-2.3921652206
 10
19.4223121473
 20
-2.4351047662
 10
19.4610869375
 20
-2.478838466
 10
19.4994378923
 20
-2.5233472132
 10
19.537348258
 20
-2.5686115633
 10
19.5748014897
 20
-2.6146117606
 10
19.6117812487
 20
-2.6613277382
 10
19.648271399
 20
-2.7087391132
 10
19.6842559952
 20
-2.7568251695
 10
19.7197193048
 20
-2.8055648837
 10
19.754645829
 20
-2.8549369526
 10
19.7890203326
 20
-2.9049198376
 10
19.8228278298
 20
-2.9554917484
 10
19.8560535746
 20
-3.0066306292
 10
19.8886830412
 20
-3.0583141261
 10
19.920701956
 20
-3.1105196299
 10
19.952096321
 20
-3.1632243143
 10
19.9828524472
 20
-3.2164051952
 10
20.0129569328
 20
-3.2700390992
 10
20.0423966501
 20
-3.3241026418
 10
20.0711587244
 20
-3.3785721838
 10
20.0992305689
 20
-3.433423888
 10
20.1265999092
 20
-3.4886337666
 10
20.1532548145
 20
-3.5441777479
 10
20.1791836732
 20
-3.6000316355
 10
20.2043751794
 20
-3.6561710799
 10
20.2288183141
 20
-3.7125715303
 10
20.2525023792
 20
-3.7692083016
 10
20.2754170187
 20
-3.8260566239
 10
20.2975522448
 20
-3.8830917132
 10
20.3188984149
 20
-3.9402887237
 10
20.3394462206
 20
-3.997622719
 10
20.3591866739
 20
-4.0550686265
 10
20.3781111359
 20
-4.1126013063
 10
20.3962113331
 20
-4.1701956002
 10
20.4134793758
 20
-4.2278263963
 10
20.4299077396
 20
-4.2854685833
 10
20.445489259
 20
-4.3430970252
 10
20.4602171194
 20
-4.4006865255
 10
20.4740848778
 20
-4.4582118902
 10
20.4870864733
 20
-4.5156479719
 10
20.4992162373
 20
-4.5729697209
 10
20.510468882
 20
-4.6301521486
 10
20.5208394974
 20
-4.6871703109
 10
20.5303235493
 20
-4.7439992863
 10
20.538916891
 20
-4.8006142278
 10
20.5466157685
 20
-4.8569903963
 10
20.5534168239
 20
-4.9131031942
 10
20.5593170903
 20
-4.9689281441
 10
20.5643139922
 20
-5.0244408826
 10
20.5684053456
 20
-5.0796171574
 10
20.571589363
 20
-5.1344328616
 10
20.5738646541
 20
-5.188864054
 10
20.575230226
 20
-5.242886974
 10
20.5756854827
 20
-5.2964780372
 10
20.5752302254
 20
-5.3496138433
 10
20.5738646529
 20
-5.4022711908
 10
20.5715893613
 20
-5.4544270918
 10
20.5684053433
 20
-5.5060587784
 10
20.5643139893
 20
-5.5571436995
 10
20.5593170869
 20
-5.6076595358
 10
20.5534168198
 20
-5.6575842188
 10
20.5466157639
 20
-5.7068959609
 10
20.5389168859
 20
-5.7555732514
 10
20.5303235436
 20
-5.8035948508
 10
20.5208394911
 20
-5.8509397738
 10
20.5104688751
 20
-5.8975873203
 10
20.4992162299
 20
-5.9435171029
 10
20.4870864654
 20
-5.9887090875
 10
20.4740848693
 20
-6.0331435731
 10
20.4602171104
 20
-6.0768011789
 10
20.4454892495
 20
-6.1196628181
 10
20.4299077295
 20
-6.1617097401
 10
20.4134793651
 20
-6.2029235627
 10
20.3962113219
 20
-6.2432863158
 10
20.3781111241
 20
-6.282780412
 10
20.3591866616
 20
-6.321388629
 10
20.3394462079
 20
-6.3590940824
 10
20.3188984018
 20
-6.3958802714
 10
20.2975522311
 20
-6.4317311112
 10
20.2754170043
 20
-6.4666309741
 10
20.2525023642
 20
-6.5005646563
 10
20.2288182988
 20
-6.5335173617
 10
20.2043751638
 20
-6.5654746764
 10
20.1791836573
 20
-6.5964226139
 10
20.153254798
 20
-6.6263476423
 10
20.1265998919
 20
-6.6552367179
 10
20.099230551
 20
-6.6830772555
 10
20.0711587063
 20
-6.7098571144
 10
20.0423966319
 20
-6.7355645811
 10
20.0129569143
 20
-6.7601884055
 10
19.9828524281
 20
-6.7837178233
 10
19.952096301
 20
-6.8061425775
 10
19.9207019355
 20
-6.8274528963
 10
19.9156945288
 20
-6.8307106352
  0
LWPOLYLINE
  5
320
100
AcDbEntity
  8
218_STAMPATO
100
AcDbPolyline
 62
7
  6
CONTINUOUS
 90
31
 70
0
 10
12.261305124
 20
16.2862816375
 10
12.2610241591
 20
16.3203762714
 10
12.2598951799
 20
16.3628577419
 10
12.257909475
 20
16.4054031549
 10
12.2550733673
 20
16.4480177405
 10
12.2513943274
 20
16.4906810117
 10
12.246883281
 20
16.5333434422
 10
12.2415481826
 20
16.5759989235
 10
12.2353962729
 20
16.6186397022
 10
12.2284420856
 20
16.6612116665
 10
12.2206942155
 20
16.7037082395
 10
12.2121601805
 20
16.7461228341
 10
12.202858327
 20
16.7883997351
 10
12.1927981744
 20
16.8305301752
 10
12.181987392
 20
16.8725098909
 10
12.1704461811
 20
16.9142885377
 10
12.1581865838
 20
16.9558498732
 10
12.1452145925
 20
16.9971973983
 10
12.131543303
 20
17.0383090999
 10
12.1171818095
 20
17.0791752664
 10
12.1021366499
 20
17.1197923317
 10
12.0864173176
 20
17.1601461823
 10
12.0700305949
 20
17.2002297019
 10
12.0529823221
 20
17.2400359423
 10
12.0352812789
 20
17.2795501624
 10
12.0169333138
 20
17.3187640083
 10
11.9979427664
 20
17.3576702692
 10
11.978316413
 20
17.3962562723
 10
11.9580586039
 20
17.4345129397
 10
11.9371725745
 20
17.4724325404
 10
11.919337684
 20
17.5036860983
  0
LWPOLYLINE
  5
321
100
AcDbEntity
  8
218_STAMPATO
100
AcDbPolyline
 62
253
  6
CONTINUOUS
 90
37
 70
0
 10
11.980644934
 20
15.9389541408
 10
11.9804150051
 20
15.9769564151
 10
11.9795065218
 20
16.0152739664
 10
11.9779198758
 20
16.0538885353
 10
11.9756557507
 20
16.0927816324
 10
11.9727152257
 20
16.1319348176
 10
11.9690997627
 20
16.1713297137
 10
11.9648110359
 20
16.2109476782
 10
11.9598510506
 20
16.2507697275
 10
11.9542222462
 20
16.2907768171
 10
11.9479272953
 20
16.3309498406
 10
11.9409691539
 20
16.3712697262
 10
11.9333511692
 20
16.4117173635
 10
11.9250769556
 20
16.4522735032
 10
11.9161504257
 20
16.4929188355
 10
11.906575842
 20
16.5336340849
 10
11.8963577494
 20
16.5743999077
 10
11.885500998
 20
16.6151968708
 10
11.8740107712
 20
16.6560055307
 10
11.8618925434
 20
16.6968064746
 10
11.8491520731
 20
16.7375802859
 10
11.8357954255
 20
16.7783075234
 10
11.8218289839
 20
16.818968789
 10
11.8072593871
 20
16.8595447662
 10
11.7920935232
 20
16.9000161855
 10
11.7763386326
 20
16.9403638029
 10
11.7600022211
 20
16.9805684272
 10
11.7430919953
 20
17.0206109579
 10
11.7256160061
 20
17.0604724196
 10
11.7075826093
 20
17.1001337945
 10
11.6890003805
 20
17.139576051
 10
11.6698782613
 20
17.1787803313
 10
11.6502253287
 20
17.2177281134
 10
11.6300507475
 20
17.2564010391
 10
11.6093640762
 20
17.2947807762
 10
11.5881752719
 20
17.3328490324
 10
11.5664944583
 20
17.3705877154
  0
LINE
  5
322
100
AcDbEntity
  8
218_STAMPATO
100
AcDbLine
 62
253
  6
CONTINUOUS
 10
11.980644934
 20
7.7660411599
 11
11.980644934
 21
15.9389541408
  0
LINE
  5
323
100
AcDbEntity
  8
218_STAMPATO
100
AcDbLine
 62
7
  6
CONTINUOUS
 10
12.2613051336
 20
8.9995005041
 11
12.2613051336
 21
16.286283326
  0
LINE
  5
324
100
AcDbEntity
  8
218_STAMPATO
100
AcDbLine
 62
253
  6
CONTINUOUS
 10
12.2612970694
 20
8.9944339257
 11
12.2613051336
 21
8.9995005041
  0
LWPOLYLINE
  5
325
100
AcDbEntity
  8
268
100
AcDbPolyline
 62
7
  6
CONTINUOUS
 90
7
 70
0
 10
8.894076423
 20
-17.5011042119
 10
8.8939848149
 20
-17.5015898194
 10
8.8938456442
 20
-17.5021019671
 10
8.8936589107
 20
-17.5026406552
 10
8.8934246146
 20
-17.5032058835
 10
8.8931427558
 20
-17.5037976521
 10
8.8928133344
 20
-17.504415961
  0
LWPOLYLINE
  5
326
100
AcDbEntity
  8
218_STAMPATO
100
AcDbPolyline
 62
7
  6
CONTINUOUS
 90
16
 70
0
 10
18.7198575421
 20
4.7810159596
 10
18.7264056423
 20
4.791432712
 10
18.7331471671
 20
4.8017077626
 10
18.7400821165
 20
4.8118411114
 10
18.747211473
 20
4.8218478117
 10
18.754534254
 20
4.8317128101
 10
18.7620475126
 20
4.8413909468
 10
18.7697569154
 20
4.8508824117
 10
18.7776567957
 20
4.8601870149
 10
18.7857272062
 20
4.8692590262
 10
18.7939719721
 20
4.8780956077
 10
18.8023872681
 20
4.8866995974
 10
18.8109416714
 20
4.8950337793
 10
18.8196247076
 20
4.9030857481
 10
18.828446851
 20
4.910867909
 10
18.8374081016
 20
4.9183802622
  0
LWPOLYLINE
  5
327
100
AcDbEntity
  8
218_STAMPATO
100
AcDbPolyline
 62
253
  6
CONTINUOUS
 90
56
 70
0
 10
18.8374075823
 20
-7.0327707344
 10
18.8444738172
 20
-7.0302352039
 10
18.851603625
 20
-7.0279288348
 10
18.8587960442
 20
-7.0258502844
 10
18.8660315631
 20
-7.0239844772
 10
18.8733274623
 20
-7.0223435057
 10
18.8807374036
 20
-7.0209660735
 10
18.8882863053
 20
-7.0198402053
 10
18.8959451768
 20
-7.0189726616
 10
18.9036857638
 20
-7.0184289817
 10
18.9115229575
 20
-7.018210972
 10
18.919435529
 20
-7.0183090719
 10
18.9273402245
 20
-7.0187709323
 10
18.9352170889
 20
-7.019599417
 10
18.9430781133
 20
-7.0207822797
 10
18.9508873893
 20
-7.0223439827
 10
18.9586232496
 20
-7.0242744593
 10
18.9662976057
 20
-7.0265724005
 10
18.9739236058
 20
-7.0292738979
 10
18.9814950716
 20
-7.0323635696
 10
18.9890049543
 20
-7.0358412019
 10
18.9964625071
 20
-7.039762545
 10
19.0038747877
 20
-7.0441214611
 10
19.0112161587
 20
-7.0489018259
 10
19.0184441852
 20
-7.0541412551
 10
19.0255494147
 20
-7.0598286429
 10
19.032518582
 20
-7.0659473853
 10
19.0393016358
 20
-7.0725245572
 10
19.0458763526
 20
-7.0795271137
 10
19.0522386476
 20
-7.086955136
 10
19.0583618779
 20
-7.0948806061
 10
19.0642326015
 20
-7.1032615176
 10
19.0698293236
 20
-7.1120946526
 10
19.0751050466
 20
-7.1214995744
 10
19.080051412
 20
-7.1314345803
 10
19.0846269965
 20
-7.1418746664
 10
19.0887236333
 20
-7.1529492547
 10
19.0923284563
 20
-7.1646477089
 10
19.0953852423
 20
-7.176884246
 10
19.0977151153
 20
-7.1896676269
 10
19.0992760766
 20
-7.2030115996
 10
19.1000363652
 20
-7.216792927
 10
19.0998469448
 20
-7.2308341854
 10
19.0986577829
 20
-7.2451168978
 10
19.0964731678
 20
-7.2595821466
 10
19.093255181
 20
-7.2740334887
 10
19.0889620413
 20
-7.2884857161
 10
19.0836205696
 20
-7.3028869731
 10
19.0773302779
 20
-7.3169921107
 10
19.0701239608
 20
-7.3307524607
 10
19.0619957292
 20
-7.3442435756
 10
19.0530066144
 20
-7.3574370056
 10
19.0431641596
 20
-7.3703505826
 10
19.032484224
 20
-7.3829904005
 10
19.0210434207
 20
-7.3953157953
 10
19.0088631296
 20
-7.4073350467
  0
LWPOLYLINE
  5
328
100
AcDbEntity
  8
RACCORDO
100
AcDbPolyline
 62
253
  6
CONTINUOUS
 90
16
 70
0
 10
-2.6468156985
 20
11.1879304573
 10
-2.7085201727
 20
11.1738022144
 10
-2.7754063324
 20
11.1628773389
 10
-2.8467655061
 20
11.1552715818
 10
-2.9218416301
 20
11.1510655274
 10
-2.9998392586
 20
11.1503037398
 10
-3.0799319922
 20
11.1529942903
 10
-3.1612712333
 20
11.1591086719
 10
-3.2429951774
 20
11.1685821016
 10
-3.3242379439
 20
11.1813142067
 10
-3.4041387505
 20
11.197170088
 10
-3.4818510332
 20
11.2159817497
 10
-3.5565514155
 20
11.2375498787
 10
-3.6274484331
 20
11.2616459567
 10
-3.6937909186
 20
11.2880146812
 10
-3.754875961
 20
11.3163766706
  0
LWPOLYLINE
  5
329
100
AcDbEntity
  8
ASSI
100
AcDbPolyline
 62
253
  6
CONTINUOUS
 90
16
 70
0
 10
-2.6468156985
 20
11.1879304573
 10
-2.7085201727
 20
11.1738022144
 10
-2.7754063324
 20
11.1628773389
 10
-2.8467655061
 20
11.1552715818
 10
-2.9218416301
 20
11.1510655274
 10
-2.9998392586
 20
11.1503037398
 10
-3.0799319922
 20
11.1529942903
 10
-3.1612712333
 20
11.1591086719
 10
-3.2429951774
 20
11.1685821016
 10
-3.3242379439
 20
11.1813142067
 10
-3.4041387505
 20
11.197170088
 10
-3.4818510332
 20
11.2159817497
 10
-3.5565514155
 20
11.2375498787
 10
-3.6274484331
 20
11.2616459567
 10
-3.6937909186
 20
11.2880146812
 10
-3.754875961
 20
11.3163766706
  0
LINE
  5
32A
100
AcDbEntity
  8
268
100
AcDbLine
 62
7
  6
CONTINUOUS
 10
2.4559833848
 20
13.0840269542
 11
2.0375864379
 21
13.2932254277
  0
LINE
  5
32B
100
AcDbEntity
  8
218_STAMPATO
100
AcDbLine
 62
7
  6
CONTINUOUS
 10
13.52046084
 20
14.403204713
 11
13.52046084
 21
14.3668160116
  0
LINE
  5
32C
100
AcDbEntity
  8
268
100
AcDbLine
 62
7
  6
CONTINUOUS
 10
0.3045052868
 20
-23.3138483314
 11
-0.2742850534
 21
-24.0182920615
  0
LWPOLYLINE
  5
32D
100
AcDbEntity
  8
712
100
AcDbPolyline
 62
253
  6
CONTINUOUS
 90
11
 70
0
 10
12.2613051336
 20
11.9521466749
 10
12.2971035291
 20
11.9459245934
 10
12.3507081126
 20
11.9359030717
 10
12.4018893533
 20
11.9255701299
 10
12.4510879656
 20
11.9150449652
 10
12.4983071105
 20
11.9043504261
 10
12.5435436271
 20
11.8934636639
 10
12.587228747
 20
11.8824353303
 10
12.629506214
 20
11.871282309
 10
12.6702322844
 20
11.8599877162
 10
12.7094069582
 20
11.8485515518
  0
LWPOLYLINE
  5
32E
100
AcDbEntity
  8
712
100
AcDbPolyline
 62
7
  6
CONTINUOUS
 90
9
 70
0
 10
12.7910054459
 20
11.859666626
 10
12.7848887053
 20
11.8612661238
 10
12.7751184916
 20
11.8627989376
 10
12.7647922961
 20
11.863214382
 10
12.754005099
 20
11.8625126095
 10
12.74304184
 20
11.8606940782
 10
12.7319974993
 20
11.8577589407
 10
12.7207770968
 20
11.8537070443
 10
12.7093806326
 20
11.848538389
  0
LWPOLYLINE
  5
32F
100
AcDbEntity
  8
712
100
AcDbPolyline
 62
7
  6
CONTINUOUS
 90
6
 70
0
 10
12.7909953096
 20
11.8596426736
 10
12.682279963
 20
11.8909285194
 10
12.5674249201
 20
11.9202821964
 10
12.4501634961
 20
11.9466092666
 10
12.3307903313
 20
11.9698713583
 10
12.2613051336
 20
11.9814333989
  0
LINE
  5
330
100
AcDbEntity
  8
268
100
AcDbLine
 62
7
  6
CONTINUOUS
 10
1.6428105864
 20
14.4496327239
 11
-14.125670634
 21
22.3338733341
  0
LINE
  5
331
100
AcDbEntity
  8
268
100
AcDbLine
 62
7
  6
CONTINUOUS
 10
1.395323213
 20
14.9008923491
 11
-13.8781832606
 21
22.5376455859
  0
LINE
  5
332
100
AcDbEntity
  8
218_STAMPATO
100
AcDbLine
 62
253
  6
CONTINUOUS
 10
12.2976041677
 20
9.4933250816
 11
12.2613051336
 21
9.5114745986
  0
LINE
  5
333
100
AcDbEntity
  8
268
100
AcDbLine
 62
7
  6
CONTINUOUS
 10
-13.0234843828
 20
22.8249606174
 11
-11.4094802668
 21
22.0179585594
  0
LINE
  5
334
100
AcDbEntity
  8
268
100
AcDbLine
 62
7
  6
CONTINUOUS
 10
0.3408337816
 20
16.1428015352
 11
1.9548378976
 21
15.3357994772
  0
LINE
  5
335
100
AcDbEntity
  8
268
100
AcDbLine
 62
7
  6
CONTINUOUS
 10
-2.284515318
 20
17.8128083202
 11
-8.0770243861
 21
20.7090628542
  0
LINE
  5
336
100
AcDbEntity
  8
268
100
AcDbLine
 62
7
  6
CONTINUOUS
 10
-13.6618825911
 20
23.5964906972
 11
-12.0553490281
 21
22.7932239157
  0
LINE
  5
337
100
AcDbEntity
  8
268
100
AcDbLine
 62
7
  6
CONTINUOUS
 10
-0.2975644267
 20
16.914331615
 11
1.3089691363
 21
16.1110648335
  0
LINE
  5
338
100
AcDbEntity
  8
268
100
AcDbLine
 62
253
  6
CONTINUOUS
 10
-13.7264773371
 20
23.7315198721
 11
-12.1207008749
 21
22.928631641
  0
LINE
  5
339
100
AcDbEntity
  8
268
100
AcDbLine
 62
253
  6
CONTINUOUS
 10
-0.3621591727
 20
17.0493607899
 11
1.2436172895
 21
16.2464725588
  0
LINE
  5
33A
100
AcDbEntity
  8
268
100
AcDbLine
 62
253
  6
CONTINUOUS
 10
1.2436172895
 20
16.4998439525
 11
-0.3621591727
 21
17.3027321836
  0
LINE
  5
33B
100
AcDbEntity
  8
268
100
AcDbLine
 62
253
  6
CONTINUOUS
 10
-12.1207008749
 20
23.1820030347
 11
-13.7264773371
 21
23.9848912658
  0
LINE
  5
33C
100
AcDbEntity
  8
268
100
AcDbLine
 62
7
  6
CONTINUOUS
 10
3.163090166
 20
15.8036700486
 11
3.0216688097
 21
15.8743807267
  0
LINE
  5
33D
100
AcDbEntity
  8
268
100
AcDbLine
 62
7
  6
CONTINUOUS
 10
-0.2812712825
 20
17.5258507728
 11
-1.3623932336
 21
18.0664117484
  0
LINE
  5
33E
100
AcDbEntity
  8
268
100
AcDbLine
 62
7
  6
CONTINUOUS
 10
-8.1648923517
 20
21.4676613074
 11
-10.3426493547
 21
22.5565398089
  0
LINE
  5
33F
100
AcDbEntity
  8
218_STAMPATO
100
AcDbLine
 62
253
  6
CONTINUOUS
 10
12.309628316
 20
9.4870830245
 11
12.2976041677
 21
9.4933250816
  0
LINE
  5
340
100
AcDbEntity
  8
218_STAMPATO
100
AcDbLine
 62
7
  6
CONTINUOUS
 10
19.0014973323
 20
4.54734833
 11
19.0015186092
 21
4.5474060017
  0
LINE
  5
341
100
AcDbEntity
  8
268
100
AcDbLine
 62
7
  6
CONTINUOUS
 10
1.9548378976
 20
-24.0766351035
 11
1.3325198655
 21
-24.821694521
  0
LWPOLYLINE
  5
342
100
AcDbEntity
  8
218_STAMPATO
100
AcDbPolyline
 62
253
  6
CONTINUOUS
 90
56
 70
0
 10
18.7198575421
 20
-7.1701344055
 10
18.7256690581
 20
-7.1649363329
 10
18.7314598593
 20
-7.1599556823
 10
18.7372287083
 20
-7.1551922853
 10
18.7429693916
 20
-7.1506434173
 10
18.7486857016
 20
-7.1463115284
 10
18.7543909633
 20
-7.1422040317
 10
18.7600855051
 20
-7.1383176079
 10
18.765765474
 20
-7.1346549067
 10
18.7714372027
 20
-7.1312320089
 10
18.7771003227
 20
-7.1280472589
 10
18.7827509901
 20
-7.1251014865
 10
18.7883899198
 20
-7.1224143675
 10
18.7940138057
 20
-7.1199861359
 10
18.7996213938
 20
-7.1178157465
 10
18.805216108
 20
-7.1159208545
 10
18.810784644
 20
-7.1143008194
 10
18.8163353288
 20
-7.1129554787
 10
18.8219022503
 20
-7.1119026069
 10
18.8274693092
 20
-7.1111318592
 10
18.8330442569
 20
-7.1106518153
 10
18.8386921211
 20
-7.1105070583
 10
18.8444147558
 20
-7.1106839461
 10
18.8501937559
 20
-7.1111920923
 10
18.8560581324
 20
-7.112109289
 10
18.8620180137
 20
-7.1134389324
 10
18.8680398867
 20
-7.1151723
 10
18.8740862319
 20
-7.1173688865
 10
18.8801504136
 20
-7.1200421947
 10
18.8862170353
 20
-7.123174796
 10
18.8922391938
 20
-7.1267810646
 10
18.8981896959
 20
-7.1308554072
 10
18.9040784875
 20
-7.1354016393
 10
18.9099150537
 20
-7.1404486763
 10
18.915680348
 20
-7.145984596
 10
18.9213708389
 20
-7.1520191473
 10
18.9270131116
 20
-7.158612636
 10
18.9325947589
 20
-7.1657658512
 10
18.9380942078
 20
-7.1734746971
 10
18.9435164783
 20
-7.1817909602
 10
18.9488503441
 20
-7.1907356784
 10
18.9540626394
 20
-7.2002844787
 10
18.9591227468
 20
-7.210421046
 10
18.963997186
 20
-7.221125081
 10
18.9686760213
 20
-7.2324159949
 10
18.9731591087
 20
-7.2443370103
 10
18.9774113716
 20
-7.2568712112
 10
18.9814090693
 20
-7.2700353621
 10
18.9851521916
 20
-7.2839221219
 10
18.9885958355
 20
-7.2985271294
 10
18.9916977205
 20
-7.3138559531
 10
18.9944353569
 20
-7.330015229
 10
18.9967515799
 20
-7.3470645842
 10
18.998573151
 20
-7.3649495614
 10
18.99983367
 20
-7.3836065782
 10
19.0004622601
 20
-7.4031590724
  0
LWPOLYLINE
  5
343
100
AcDbEntity
  8
218_STAMPATO
100
AcDbPolyline
 62
7
  6
CONTINUOUS
 90
136
 70
0
 10
18.8374075823
 20
-7.0327707344
 10
18.89680444
 20
-6.9840425794
 10
18.9543216676
 20
-6.9365315107
 10
19.0099592651
 20
-6.8902375283
 10
19.0636621473
 20
-6.8451951869
 10
19.1154853994
 20
-6.8013699319
 10
19.1655942771
 20
-6.7586580986
 10
19.2139960264
 20
-6.7170547601
 10
19.2606834013
 20
-6.6765648433
 10
19.3057999199
 20
-6.6370994651
 10
19.3493497878
 20
-6.598656101
 10
19.3913287994
 20
-6.5612372754
 10
19.4318678548
 20
-6.5247616781
 10
19.4709708749
 20
-6.4892269317
 10
19.5086339388
 20
-6.4546354136
 10
19.5449761846
 20
-6.420912945
 10
19.5800012721
 20
-6.3880572669
 10
19.6137055415
 20
-6.3560706383
 10
19.6461971509
 20
-6.3248856579
 10
19.6774794446
 20
-6.2945002307
 10
19.7075490783
 20
-6.2649164517
 10
19.7365041773
 20
-6.236073204
 10
19.7643478202
 20
-6.2079685031
 10
19.7910769285
 20
-6.1806043336
 10
19.8167803923
 20
-6.1539255333
 10
19.8414610574
 20
-6.1279301746
 10
19.865116078
 20
-6.1026201851
 10
19.8878258064
 20
-6.0779461852
 10
19.9095928525
 20
-6.0539062725
 10
19.9304146063
 20
-6.0305023494
 10
19.95036359
 20
-6.0076907431
 10
19.9694421675
 20
-5.9854695312
 10
19.9876479749
 20
-5.963840636
 10
20.0050464425
 20
-5.9427661517
 10
20.0216396482
 20
-5.9222440953
 10
20.0374255141
 20
-5.9022764496
 10
20.0524632369
 20
-5.8828312572
 10
20.066754521
 20
-5.863906461
 10
20.0802976621
 20
-5.845504118
 10
20.0931467435
 20
-5.8275984421
 10
20.1053029754
 20
-5.8101873072
 10
20.1167651476
 20
-5.7932728394
 10
20.1275837128
 20
-5.7768356307
 10
20.1377591238
 20
-5.7608737461
 10
20.1472909278
 20
-5.7453891207
 10
20.1562282192
 20
-5.730368151
 10
20.1645707356
 20
-5.7158089562
 10
20.1723187394
 20
-5.7017134171
 10
20.179522112
 20
-5.6880735736
 10
20.186179422
 20
-5.6748887195
 10
20.1922921008
 20
-5.662159561
 10
20.1979143238
 20
-5.6498802562
 10
20.2030414611
 20
-5.6380599468
 10
20.2076781426
 20
-5.626689491
 10
20.2118924339
 20
-5.6157356219
 10
20.2156823939
 20
-5.6052117707
 10
20.2190499637
 20
-5.5951045061
 10
20.2220690321
 20
-5.5853402673
 10
20.2247449061
 20
-5.5759213334
 10
20.2270722788
 20
-5.5668454253
 10
20.2291091184
 20
-5.5580321452
 10
20.2308628242
 20
-5.5494764971
 10
20.2323259968
 20
-5.5411834769
 10
20.2335344071
 20
-5.5330876749
 10
20.2344943411
 20
-5.5251848415
 10
20.2351995126
 20
-5.5174792264
 10
20.2356668341
 20
-5.5099181684
 10
20.235901966
 20
-5.5024984958
 10
20.2358992477
 20
-5.4952233804
 10
20.2356586099
 20
-5.4880496772
 10
20.2351857025
 20
-5.4809746547
 10
20.2344748756
 20
-5.4740010444
 10
20.233509109
 20
-5.4670938959
 10
20.2322947243
 20
-5.4602510775
 10
20.2308253999
 20
-5.4534747209
 10
20.2290651509
 20
-5.4467362715
 10
20.2270216368
 20
-5.4400333875
 10
20.2246871981
 20
-5.4333684108
 10
20.222002872
 20
-5.4267198124
 10
20.2189738382
 20
-5.4200791996
 10
20.2155949171
 20
-5.4134549652
 10
20.2117916069
 20
-5.4068507585
 10
20.2075614908
 20
-5.4002547882
 10
20.2029069857
 20
-5.3936788456
 10
20.1977608411
 20
-5.3871619532
 10
20.1921186541
 20
-5.3807003705
 10
20.1859848276
 20
-5.3742978381
 10
20.17930532
 20
-5.3680045999
 10
20.1720788521
 20
-5.3618229413
 10
20.1643067031
 20
-5.3557505771
 10
20.1559386685
 20
-5.3498308957
 10
20.1469743449
 20
-5.344065922
 10
20.1374141357
 20
-5.3384536312
 10
20.1272090464
 20
-5.333031337
 10
20.1163595903
 20
-5.3278005421
 10
20.1048652542
 20
-5.3227597438
 10
20.092675504
 20
-5.3179417469
 10
20.0797915445
 20
-5.3133474131
 10
20.0662121709
 20
-5.3089758807
 10
20.0518832343
 20
-5.3048573695
 10
20.0368064497
 20
-5.3009921683
 10
20.0209801021
 20
-5.2973799884
 10
20.0043448973
 20
-5.294050183
 10
19.9869029233
 20
-5.2910025787
 10
19.9686520921
 20
-5.2882373489
 10
19.9495268455
 20
-5.2857843674
 10
19.9295295378
 20
-5.2836431032
 10
19.9086578148
 20
-5.2818140874
 10
19.8868390559
 20
-5.2803287864
 10
19.8640759386
 20
-5.279186396
 10
19.8403657854
 20
-5.2783877204
 10
19.8156279437
 20
-5.2779666393
 10
19.7898650348
 20
-5.2779221379
 10
19.7630744373
 20
-5.278255231
 10
19.7351676347
 20
-5.2790028417
 10
19.7061486141
 20
-5.2801636954
 10
19.6760133884
 20
-5.2817390667
 10
19.6446614788
 20
-5.2837697036
 10
19.6120942403
 20
-5.2862544109
 10
19.578310318
 20
-5.2891943836
 10
19.5432051684
 20
-5.2926339546
 10
19.5067738927
 20
-5.2965730763
 10
19.4690213897
 20
-5.3010117963
 10
19.4298578131
 20
-5.3059945893
 10
19.3892919173
 20
-5.3115197825
 10
19.3473149478
 20
-5.3175890486
 10
19.3038107951
 20
-5.3242518818
 10
19.2587943631
 20
-5.3315045692
 10
19.2122507478
 20
-5.3393508235
 10
19.1640191286
 20
-5.3478512771
 10
19.1140996791
 20
-5.3570043068
 10
19.0624922256
 20
-5.3668115358
 10
19.0090354263
 20
-5.3773384662
 10
18.9536755007
 20
-5.3886069318
 10
18.8964662294
 20
-5.4005950988
 10
18.8374076123
 20
-5.4133029671
  0
LINE
  5
344
100
AcDbEntity
  8
218_STAMPATO
100
AcDbLine
 62
7
  6
CONTINUOUS
 10
19.0005177418
 20
-7.4226392543
 11
19.9156945289
 21
-6.8307106352
  0
LINE
  5
345
100
AcDbEntity
  8
268
100
AcDbLine
 62
253
  6
CONTINUOUS
 10
0.4503583684
 20
-18.4683411061
 11
-0.6165036713
 21
-18.9610533506
  0
LINE
  5
346
100
AcDbEntity
  8
268
100
AcDbLine
 62
7
  6
CONTINUOUS
 10
0.2495047825
 20
-18.9821101627
 11
-0.6525154858
 21
-19.3986930145
  0
LINE
  5
347
100
AcDbEntity
  8
268
100
AcDbLine
 62
7
  6
CONTINUOUS
 10
1.3325198655
 20
16.1029096184
 11
1.9548378976
 21
15.9729690359
  0
LWPOLYLINE
  5
348
100
AcDbEntity
  8
712
100
AcDbPolyline
 62
7
  6
CONTINUOUS
 90
3
 70
0
 10
12.8030461276
 20
11.8548488454
 10
12.7941979173
 20
11.858616093
 10
12.7910054459
 20
11.859666626
  0
LWPOLYLINE
  5
349
100
AcDbEntity
  8
218_STAMPATO
100
AcDbPolyline
 62
7
  6
CONTINUOUS
 90
10
 70
0
 10
13.723698209
 20
12.2133966111
 10
13.7598038286
 20
12.1976888862
 10
13.7953384309
 20
12.1816803987
 10
13.8303020161
 20
12.1653711486
 10
13.8647047533
 20
12.1487560513
 10
13.8985364733
 20
12.1318401913
 10
13.9317666681
 20
12.1146388226
 10
13.9643851683
 20
12.0971570301
 10
13.9964021432
 20
12.0793897289
 10
14.0278175929
 20
12.0613369191
  0
LINE
  5
34A
100
AcDbEntity
  8
268
100
AcDbLine
 62
253
  6
CONTINUOUS
 10
1.4203880189
 20
16.8037095308
 11
-0.1874333902
 21
17.6076202353
  0
LINE
  5
34B
100
AcDbEntity
  8
268
100
AcDbLine
 62
253
  6
CONTINUOUS
 10
-11.9439301455
 20
23.485868613
 11
-13.5517515546
 21
24.2897793175
  0
LINE
  5
34C
100
AcDbEntity
  8
268
100
AcDbLine
 62
7
  6
CONTINUOUS
 10
-8.0770243861
 20
21.9240177203
 11
-2.284515318
 21
19.0277631863
  0
LINE
  5
34D
100
AcDbEntity
  8
268
100
AcDbLine
 62
7
  6
CONTINUOUS
 10
3.8701969472
 20
16.14966575
 11
3.0704649233
 21
16.5495317619
  0
LINE
  5
34E
100
AcDbEntity
  8
268
100
AcDbLine
 62
7
  6
CONTINUOUS
 10
-8.8113752377
 20
22.4904518424
 11
-10.2938532411
 21
23.2316908441
  0
LINE
  5
34F
100
AcDbEntity
  8
268
100
AcDbLine
 62
7
  6
CONTINUOUS
 10
-7.5849329081
 20
22.3901171509
 11
-1.3623932336
 21
19.2788473137
  0
LINE
  5
350
100
AcDbEntity
  8
218_STAMPATO
100
AcDbLine
 62
7
  6
CONTINUOUS
 10
14.171691689
 20
11.9737400185
 11
13.5401603679
 21
12.289505679
  0
LINE
  5
351
100
AcDbEntity
  8
218_STAMPATO
100
AcDbLine
 62
7
  6
CONTINUOUS
 10
13.723698209
 20
12.2133966111
 11
14.0278175929
 21
12.0613369191
  0
LINE
  5
352
100
AcDbEntity
  8
268
100
AcDbLine
 62
7
  6
CONTINUOUS
 10
-11.9689949514
 20
25.1017634148
 11
-10.3426493547
 21
24.2885906165
  0
LINE
  5
353
100
AcDbEntity
  8
268
100
AcDbLine
 62
7
  6
CONTINUOUS
 10
1.395323213
 20
18.4196043326
 11
3.0216688097
 21
17.6064315343
  0
LINE
  5
354
100
AcDbEntity
  8
268
100
AcDbLine
 62
7
  6
CONTINUOUS
 10
-1.2916825555
 20
19.9455603674
 11
-6.2414300238
 21
22.4204341015
  0
LINE
  5
355
100
AcDbEntity
  8
268
100
AcDbLine
 62
253
  6
CONTINUOUS
 10
-11.4345450727
 20
25.3621108814
 11
-9.814382183
 21
24.5520294365
  0
LINE
  5
356
100
AcDbEntity
  8
268
100
AcDbLine
 62
253
  6
CONTINUOUS
 10
1.9297730917
 20
18.6799517992
 11
3.5499359815
 21
17.8698703543
  0
LINE
  5
357
100
AcDbEntity
  8
268
100
AcDbLine
 62
7
  6
CONTINUOUS
 10
-11.3231274574
 20
25.3683794446
 11
-9.7042498792
 21
24.5589406555
  0
LINE
  5
358
100
AcDbEntity
  8
268
100
AcDbLine
 62
7
  6
CONTINUOUS
 10
2.041190707
 20
18.6862203624
 11
3.6600682852
 21
17.8767815733
  0
LWPOLYLINE
  5
359
100
AcDbEntity
  8
712
100
AcDbPolyline
 62
7
  6
CONTINUOUS
 90
4
 70
0
 10
13.651574265
 20
11.4305847767
 10
13.7341298888
 20
11.3892754759
 10
13.818551143
 20
11.346859812
 10
13.8589723578
 20
11.326471856
  0
LWPOLYLINE
  5
35A
100
AcDbEntity
  8
712
100
AcDbPolyline
 62
7
  6
CONTINUOUS
 90
10
 70
0
 10
13.6136301978
 20
11.4432524317
 10
13.5161531441
 20
11.4933078634
 10
13.4205399422
 20
11.542283739
 10
13.3267905923
 20
11.5901800586
 10
13.234919511
 20
11.6369982464
 10
13.1449122816
 20
11.6827368781
 10
13.0567256536
 20
11.7273916812
 10
12.9703452102
 20
11.7709612313
 10
12.8857853682
 20
11.8134469527
 10
12.8030461276
 20
11.8548488454
  0
LINE
  5
35B
100
AcDbEntity
  8
712
100
AcDbLine
 62
7
  6
CONTINUOUS
 10
13.6213886264
 20
11.4386659596
 11
13.6136301978
 21
11.4432524317
  0
LWPOLYLINE
  5
35C
100
AcDbEntity
  8
712
100
AcDbPolyline
 62
253
  6
CONTINUOUS
 90
8
 70
0
 10
13.651574265
 20
11.4305847767
 10
13.6760972554
 20
11.4100803983
 10
13.700463017
 20
11.3888021339
 10
13.7245997672
 20
11.3667398566
 10
13.7483646522
 20
11.3439515363
 10
13.771754468
 20
11.320363073
 10
13.7948777738
 20
11.2957614858
 10
13.7949098778
 20
11.2957253183
  0
LWPOLYLINE
  5
35D
100
AcDbEntity
  8
712
100
AcDbPolyline
 62
253
  6
CONTINUOUS
 90
9
 70
0
 10
13.5579376659
 20
11.4242887683
 10
13.5807980953
 20
11.4047100348
 10
13.6033756336
 20
11.3843569883
 10
13.6256702808
 20
11.3632296287
 10
13.6477157791
 20
11.3413997417
 10
13.6694783863
 20
11.3187955417
 10
13.6908568757
 20
11.2952016713
 10
13.7118965787
 20
11.2706199221
 10
13.7204746093
 20
11.2600004012
  0
LINE
  5
35E
100
AcDbEntity
  8
218_STAMPATO
100
AcDbLine
 62
7
  6
CONTINUOUS
 10
10.4356958169
 20
17.2765645892
 11
9.3525005474
 21
19.1448000751
  0
LWPOLYLINE
  5
35F
100
AcDbEntity
  8
218_STAMPATO
100
AcDbPolyline
 62
253
  6
CONTINUOUS
 90
57
 70
0
 10
19.0005177418
 20
-3.7615795507
 10
19.0087834414
 20
-3.7879373062
 10
19.0209629408
 20
-3.8300882764
 10
19.0324040316
 20
-3.8732490114
 10
19.0430852337
 20
-3.9173914009
 10
19.0529298853
 20
-3.9624318138
 10
19.0619219919
 20
-4.0083492488
 10
19.0700542012
 20
-4.055165222
 10
19.0772658738
 20
-4.1028576229
 10
19.0835628798
 20
-4.1516820682
 10
19.0889124131
 20
-4.2013829645
 10
19.0932150257
 20
-4.2511607442
 10
19.0964441127
 20
-4.3009809729
 10
19.0986404867
 20
-4.3508563482
 10
19.0998402983
 20
-4.4000412853
 10
19.1000388692
 20
-4.448523358
 10
19.0992864741
 20
-4.4962833711
 10
19.0977316029
 20
-4.5425534533
 10
19.0954057134
 20
-4.5871227713
 10
19.0923510235
 20
-4.6301664246
 10
19.0887468079
 20
-4.6714905709
 10
19.0846493119
 20
-4.710931633
 10
19.0800715536
 20
-4.7486257783
 10
19.0751224242
 20
-4.7848310079
 10
19.069843699
 20
-4.819525966
 10
19.0642435831
 20
-4.8527150159
 10
19.0583690202
 20
-4.8846983625
 10
19.0522416647
 20
-4.9155101329
 10
19.0458748796
 20
-4.9451058881
 10
19.0392948245
 20
-4.9736703307
 10
19.0325051275
 20
-5.0012575913
 10
19.0255284748
 20
-5.0278068826
 10
19.0184158153
 20
-5.0533315123
 10
19.0111803229
 20
-5.0778205845
 10
19.0038316173
 20
-5.101279987
 10
18.9964134641
 20
-5.1237485875
 10
18.988952131
 20
-5.1451838414
 10
18.9814400275
 20
-5.1656245888
 10
18.9738674778
 20
-5.1852322844
 10
18.9662415656
 20
-5.2040207631
 10
18.9585684592
 20
-5.2219738145
 10
18.9508344849
 20
-5.2392083363
 10
18.943027664
 20
-5.2557620455
 10
18.9351697268
 20
-5.2715956046
 10
18.9272962337
 20
-5.2867105295
 10
18.9193951346
 20
-5.301120251
 10
18.9114864312
 20
-5.3148099213
 10
18.9036531841
 20
-5.32773859
 10
18.8959166233
 20
-5.3398650789
 10
18.888261845
 20
-5.3512291518
 10
18.8807168889
 20
-5.3619112916
 10
18.8733106504
 20
-5.3718829461
 10
18.8660182986
 20
-5.3811715272
 10
18.8587862329
 20
-5.3899416792
 10
18.8515971924
 20
-5.3982480819
 10
18.8444706656
 20
-5.4060353047
 10
18.8374076123
 20
-5.4133029671
  0
LINE
  5
360
100
AcDbEntity
  8
218_STAMPATO
100
AcDbLine
 62
253
  6
CONTINUOUS
 10
18.9999333801
 20
4.5654758733
 11
19.0004907502
 21
4.5456309268
  0
LINE
  5
361
100
AcDbEntity
  8
218_STAMPATO
100
AcDbLine
 62
253
  6
CONTINUOUS
 10
19.0004622601
 20
-7.4031590724
 11
19.0005173707
 21
-7.4103367268
  0
LINE
  5
362
100
AcDbEntity
  8
218_STAMPATO
100
AcDbLine
 62
253
  6
CONTINUOUS
 10
19.0004907502
 20
4.5456309268
 11
19.0005172985
 21
4.540876696
  0
LINE
  5
363
100
AcDbEntity
  8
218_STAMPATO
100
AcDbLine
 62
253
  6
CONTINUOUS
 10
18.7198575421
 20
-10.9775329061
 11
18.7198575421
 21
-7.1701346186
  0
LINE
  5
364
100
AcDbEntity
  8
218_STAMPATO
100
AcDbLine
 62
253
  6
CONTINUOUS
 10
18.7198575421
 20
-5.3976657199
 11
18.7198575421
 21
4.7810159596
  0
LINE
  5
365
100
AcDbEntity
  8
218_STAMPATO
100
AcDbLine
 62
7
  6
CONTINUOUS
 10
19.0005177418
 20
-10.6302037209
 11
19.0005173707
 21
-7.4103367268
  0
LINE
  5
366
100
AcDbEntity
  8
218_STAMPATO
100
AcDbLine
 62
7
  6
CONTINUOUS
 10
19.0005177418
 20
11.4560694809
 11
19.0005172975
 21
7.4873389723
  0
LINE
  5
367
100
AcDbEntity
  8
218_STAMPATO
100
AcDbLine
 62
7
  6
CONTINUOUS
 10
19.0005172985
 20
4.540876696
 11
19.0005173721
 21
-4.4636642257
  0
LWPOLYLINE
  5
368
100
AcDbEntity
  8
218_STAMPATO
100
AcDbPolyline
 62
253
  6
CONTINUOUS
 90
57
 70
0
 10
19.0005172975
 20
7.4873389723
 10
19.0004909082
 20
7.4762184959
 10
18.9999340273
 20
7.4295346097
 10
18.9987288365
 20
7.3850401248
 10
18.996952476
 20
7.3424132225
 10
18.99466079
 20
7.3014415652
 10
18.9919099388
 20
7.2620904903
 10
18.9887606997
 20
7.2244012783
 10
18.9852532986
 20
7.1882745233
 10
18.9814407334
 20
7.1537588119
 10
18.9773659465
 20
7.1208066271
 10
18.9730359225
 20
7.0891745614
 10
18.9684852129
 20
7.0588643765
 10
18.9637465302
 20
7.0298734423
 10
18.9588040478
 20
7.0019531729
 10
18.9536637762
 20
6.9750202154
 10
18.948362315
 20
6.9491573158
 10
18.9429198108
 20
6.9243657901
 10
18.9373555715
 20
6.9006475038
 10
18.9316907208
 20
6.8779981615
 10
18.9259473622
 20
6.8564094444
 10
18.9201549979
 20
6.835920019
 10
18.91432229
 20
6.8164872341
 10
18.9084365333
 20
6.7979810987
 10
18.9025074736
 20
6.7803857183
 10
18.8965534092
 20
6.7637136075
 10
18.8905693935
 20
6.7478782058
 10
18.8845554068
 20
6.7328539257
 10
18.8785338864
 20
6.7186631812
 10
18.8725327219
 20
6.7052913373
 10
18.8665682165
 20
6.6927533582
 10
18.8606473025
 20
6.6810298605
 10
18.8547845688
 20
6.6700542319
 10
18.8490054007
 20
6.659848639
 10
18.8433058866
 20
6.6503860329
 10
18.8376541978
 20
6.6415265303
 10
18.8320647665
 20
6.6332678121
 10
18.8265381448
 20
6.625608602
 10
18.821016441
 20
6.6184121511
 10
18.8154924405
 20
6.6116537619
 10
18.8099811929
 20
6.6053565025
 10
18.8044540008
 20
6.5994566429
 10
18.7989043685
 20
6.5939414909
 10
18.7933437788
 20
6.5888228991
 10
18.7877689632
 20
6.5840744658
 10
18.7821816848
 20
6.5796953437
 10
18.7765847279
 20
6.5756855415
 10
18.7709759503
 20
6.5720200601
 10
18.7653590457
 20
6.5686989887
 10
18.7597344168
 20
6.5657214297
 10
18.7540945046
 20
6.5630610691
 10
18.7484430127
 20
6.5607167624
 10
18.7427795913
 20
6.5586890323
 10
18.7370898264
 20
6.5569543762
 10
18.731369484
 20
6.5555049678
 10
18.7256250097
 20
6.554348433
 10
18.7198575421
 20
6.5534846397
  0
LWPOLYLINE
  5
369
100
AcDbEntity
  8
218_STAMPATO
100
AcDbPolyline
 62
253
  6
CONTINUOUS
 90
57
 70
0
 10
19.0005173721
 20
-4.4636642257
 10
19.0004638673
 20
-4.4802492432
 10
18.9998385035
 20
-4.5262900425
 10
18.9985796817
 20
-4.5703436994
 10
18.99675825
 20
-4.61265187
 10
18.9944409809
 20
-4.6531653288
 10
18.9917014981
 20
-4.6917600452
 10
18.9885970603
 20
-4.7285548638
 10
18.9851503391
 20
-4.7638657984
 10
18.981403893
 20
-4.797707218
 10
18.9774026915
 20
-4.8300635547
 10
18.9731464733
 20
-4.8612049926
 10
18.9686589598
 20
-4.8911740049
 10
18.963975312
 20
-4.9199282643
 10
18.9590953852
 20
-4.9476096508
 10
18.9540285669
 20
-4.974281292
 10
18.9488087843
 20
-4.9998809206
 10
18.9434679988
 20
-5.0243623199
 10
18.9380400677
 20
-5.0476718111
 10
18.9325359014
 20
-5.0698664673
 10
18.9269504779
 20
-5.0910662458
 10
18.9213056441
 20
-5.1112591508
 10
18.9156137835
 20
-5.1304605368
 10
18.9098477751
 20
-5.1488301789
 10
18.9040110852
 20
-5.166397624
 10
18.8981229105
 20
-5.1831355225
 10
18.8921734635
 20
-5.1991171684
 10
18.8861527418
 20
-5.214385085
 10
18.8800880206
 20
-5.2288985385
 10
18.8740260675
 20
-5.2426063554
 10
18.8679823254
 20
-5.2554874223
 10
18.8619633844
 20
-5.2675667846
 10
18.8560064566
 20
-5.2788637747
 10
18.8501449668
 20
-5.2893395274
 10
18.8443688327
 20
-5.2990382266
 10
18.8386489159
 20
-5.3081036516
 10
18.8330035334
 20
-5.3165342054
 10
18.8274308767
 20
-5.3243355031
 10
18.8218659952
 20
-5.3316604673
 10
18.8163011091
 20
-5.3385366483
 10
18.8107523226
 20
-5.3449382548
 10
18.8051856891
 20
-5.3509366242
 10
18.7995929172
 20
-5.3565470026
 10
18.7939872687
 20
-5.3617549457
 10
18.7883653507
 20
-5.3665866595
 10
18.7827284301
 20
-5.3710432204
 10
18.7770797957
 20
-5.375124363
 10
18.7714187197
 20
-5.3788541789
 10
18.7657490406
 20
-5.3822322347
 10
18.7600711269
 20
-5.3852597887
 10
18.7543786423
 20
-5.387963338
 10
18.7486754344
 20
-5.3903438101
 10
18.7429611754
 20
-5.392400946
 10
18.7372225453
 20
-5.3941591779
 10
18.7314557526
 20
-5.3956266705
 10
18.7256670063
 20
-5.3967955326
 10
18.7198575421
 20
-5.3976659325
  0
LWPOLYLINE
  5
36A
100
AcDbEntity
  8
218_STAMPATO
100
AcDbPolyline
 62
7
  6
CONTINUOUS
 90
6
 70
0
 10
19.0005182669
 20
4.5401942613
 10
19.0005704325
 20
4.5419695228
 10
19.0007706245
 20
4.5440404793
 10
19.0010446409
 20
4.5456426018
 10
19.0013157241
 20
4.5467643837
 10
19.0014973323
 20
4.54734833
  0
LWPOLYLINE
  5
36B
100
AcDbEntity
  8
218_STAMPATO
100
AcDbPolyline
 62
7
  6
CONTINUOUS
 90
6
 70
0
 10
19.0005182464
 20
-7.4109546908
 10
19.0005704287
 20
-7.4091798337
 10
19.0007708297
 20
-7.4071088706
 10
19.0010447922
 20
-7.4055070183
 10
19.0013159055
 20
-7.4043854176
 10
19.0014976332
 20
-7.4038014801
  0
LWPOLYLINE
  5
36C
100
AcDbEntity
  8
218_STAMPATO
100
AcDbPolyline
 62
7
  6
CONTINUOUS
 90
16
 70
0
 10
18.7198575421
 20
-7.1701346186
 10
18.7264056221
 20
-7.1597178822
 10
18.7331471234
 20
-7.1494428544
 10
18.7400820461
 20
-7.1393095353
 10
18.7472113718
 20
-7.1293028741
 10
18.7545341189
 20
-7.1194379217
 10
18.762047342
 20
-7.1097598302
 10
18.7697567084
 20
-7.1002684078
 10
18.7776565509
 20
-7.0909638464
 10
18.7857269227
 20
-7.0818918737
 10
18.7939716486
 20
-7.0730553293
 10
18.8023869037
 20
-7.0644513735
 10
18.8109412668
 20
-7.0561172153
 10
18.8196242641
 20
-7.0480652575
 10
18.8284463692
 20
-7.0402830972
 10
18.8374075823
 20
-7.0327707344
  0
LINE
  5
36D
100
AcDbEntity
  8
218_STAMPATO
100
AcDbLine
 62
253
  6
CONTINUOUS
 10
19.0088631296
 20
-7.4073350467
 11
19.0005177418
 21
-7.4149202102
  0
LINE
  5
36E
100
AcDbEntity
  8
218_STAMPATO
100
AcDbLine
 62
7
  6
CONTINUOUS
 10
9.3525005474
 20
-16.9684592627
 11
10.4356958169
 21
-16.1834190464
  0
LWPOLYLINE
  5
36F
100
AcDbEntity
  8
218_STAMPATO
100
AcDbPolyline
 62
7
  6
CONTINUOUS
 90
4
 70
0
 10
18.1625558299
 20
-12.1005387952
 10
18.1484426169
 20
-12.1086414311
 10
18.1342202008
 20
-12.1165020591
 10
18.1250912438
 20
-12.1213901794
  0
LWPOLYLINE
  5
370
100
AcDbEntity
  8
268
100
AcDbPolyline
 62
7
  6
CONTINUOUS
 90
25
 70
0
 10
8.1458264459
 20
-17.9642570262
 10
8.1717428562
 20
-17.9494248095
 10
8.1982450929
 20
-17.9341578328
 10
8.2253331559
 20
-17.9184560959
 10
8.2530348122
 20
-17.9023069931
 10
8.2813222949
 20
-17.8857231303
 10
8.3101123029
 20
-17.8687423243
 10
8.3393858219
 20
-17.8513757505
 10
8.3691618663
 20
-17.8336122335
 10
8.3994141774
 20
-17.8154560651
 10
8.4301566117
 20
-17.7968991682
 10
8.4613753128
 20
-17.7779496199
 10
8.4930024523
 20
-17.7586359435
 10
8.5250491869
 20
-17.7389513087
 10
8.55750436
 20
-17.7189025459
 10
8.5902666734
 20
-17.6985386692
 10
8.6233514475
 20
-17.6778498299
 10
8.6567433619
 20
-17.6568458768
 10
8.6902951573
 20
-17.63560537
 10
8.7240264723
 20
-17.6141150841
 10
8.7579176683
 20
-17.5923882447
 10
8.7917625701
 20
-17.5705430889
 10
8.8254924525
 20
-17.5486190292
 10
8.8591760405
 20
-17.5265766533
 10
8.8928133344
 20
-17.504415961
  0
LWPOLYLINE
  5
371
100
AcDbEntity
  8
218_STAMPATO
100
AcDbPolyline
 62
253
  6
CONTINUOUS
 90
4
 70
0
 10
18.1250967984
 20
-12.1213872421
 10
18.1402447968
 20
-12.1129159451
 10
18.1552752279
 20
-12.1035505615
 10
18.1698847283
 20
-12.0934525481
  0
LWPOLYLINE
  5
372
100
AcDbEntity
  8
218_STAMPATO
100
AcDbPolyline
 62
253
  6
CONTINUOUS
 90
5
 70
0
 10
18.3057070665
 20
-11.9950160051
 10
18.3245435818
 20
-11.9846557973
 10
18.3429856986
 20
-11.9736675601
 10
18.3610197216
 20
-11.9620594536
 10
18.3802746605
 20
-11.9486538723
  0
LWPOLYLINE
  5
373
100
AcDbEntity
  8
218_STAMPATO
100
AcDbPolyline
 62
253
  6
CONTINUOUS
 90
5
 70
0
 10
18.1698847283
 20
-12.0934525481
 10
18.1887212436
 20
-12.0830923403
 10
18.2071633603
 20
-12.0721041032
 10
18.2251973832
 20
-12.0604959968
 10
18.2444523224
 20
-12.0470904153
  0
LWPOLYLINE
  5
374
100
AcDbEntity
  8
268
100
AcDbPolyline
 62
7
  6
CONTINUOUS
 90
3
 70
0
 10
8.1458264459
 20
-17.9642570262
 10
8.1112419687
 20
-17.9831327238
 10
8.0954050631
 20
-17.9912336421
  0
LWPOLYLINE
  5
375
100
AcDbEntity
  8
218_STAMPATO
100
AcDbPolyline
 62
253
  6
CONTINUOUS
 90
29
 70
0
 10
18.7198575421
 20
-10.9775329061
 10
18.7385186806
 20
-10.9676035632
 10
18.7566317756
 20
-10.9574236653
 10
18.7741833761
 20
-10.947000772
 10
18.7911604483
 20
-10.9363426235
 10
18.8075503848
 20
-10.9254571346
 10
18.8233410145
 20
-10.9143523888
 10
18.8385206111
 20
-10.9030366327
 10
18.8530779021
 20
-10.8915182694
 10
18.8670020773
 20
-10.8798058525
 10
18.8802827965
 20
-10.8679080796
 10
18.8929101972
 20
-10.8558337862
 10
18.9048749025
 20
-10.8435919387
 10
18.9161680271
 20
-10.8311916279
 10
18.9267811848
 20
-10.8186420623
 10
18.9367064942
 20
-10.8059525615
 10
18.9459365847
 20
-10.7931325485
 10
18.954464602
 20
-10.7801915437
 10
18.962284213
 20
-10.7671391572
 10
18.969389611
 20
-10.7539850816
 10
18.9757755194
 20
-10.7407390853
 10
18.9814371961
 20
-10.7274110049
 10
18.9863704365
 20
-10.7140107378
 10
18.9905715774
 20
-10.7005482351
 10
18.9940374988
 20
-10.6870334942
 10
18.9967656269
 20
-10.6734765512
 10
18.9987539359
 20
-10.6598874736
 10
19.0000009493
 20
-10.6462763526
 10
19.0005057409
 20
-10.632653296
  0
LINE
  5
376
100
AcDbEntity
  8
218_STAMPATO
100
AcDbLine
 62
253
  6
CONTINUOUS
 10
18.1698847283
 20
-12.0934525481
 11
10.4356958169
 21
-16.1834190464
  0
LINE
  5
377
100
AcDbEntity
  8
218_STAMPATO
100
AcDbLine
 62
7
  6
CONTINUOUS
 10
18.1250967984
 20
-12.1213872421
 11
10.4140037147
 21
-16.1991402863
  0
LINE
  5
378
100
AcDbEntity
  8
218_STAMPATO
100
AcDbLine
 62
253
  6
CONTINUOUS
 10
4.1176843206
 20
-18.6696295965
 11
18.7198575421
 21
-10.9775329061
  0
LINE
  5
379
100
AcDbEntity
  8
218_STAMPATO
100
AcDbLine
 62
253
  6
CONTINUOUS
 10
4.1176843206
 20
-19.4689475324
 11
18.3057070665
 21
-11.9950160051
  0
LINE
  5
37A
100
AcDbEntity
  8
218_STAMPATO
100
AcDbLine
 62
7
  6
CONTINUOUS
 10
4.1176843206
 20
-19.718360423
 11
9.3525005474
 21
-16.9684592627
  0
LINE
  5
37B
100
AcDbEntity
  8
268
100
AcDbLine
 62
253
  6
CONTINUOUS
 10
4.1176843206
 20
-19.9861602097
 11
8.1458264459
 21
-17.9642570262
  0
LINE
  5
37C
100
AcDbEntity
  8
268
100
AcDbLine
 62
7
  6
CONTINUOUS
 10
4.1176843206
 20
-19.9878282905
 11
8.0954473916
 21
-17.9912125886
  0
LINE
  5
37D
100
AcDbEntity
  8
268
100
AcDbLine
 62
253
  6
CONTINUOUS
 10
4.1176843206
 20
-19.748355179
 11
8.8099248554
 21
-17.420969282
  0
LINE
  5
37E
100
AcDbEntity
  8
268
100
AcDbLine
 62
253
  6
CONTINUOUS
 10
4.1176843206
 20
-19.8702299067
 11
8.894076423
 21
-17.5011042119
  0
LINE
  5
37F
100
AcDbEntity
  8
268
100
AcDbLine
 62
7
  6
CONTINUOUS
 10
-12.0317982989
 20
22.7850687006
 11
-11.4094802668
 21
22.6551281181
  0
LWPOLYLINE
  5
380
100
AcDbEntity
  8
218_STAMPATO
100
AcDbPolyline
 62
253
  6
CONTINUOUS
 90
17
 70
0
 10
-1.2745019326
 20
21.913007406
 10
-1.2790549427
 20
21.9150152529
 10
-1.2838100603
 20
21.9167426761
 10
-1.2886990043
 20
21.9181601896
 10
-1.2937135014
 20
21.9192653945
 10
-1.2988450659
 20
21.9200564205
 10
-1.3040850138
 20
21.920531929
 10
-1.3094244777
 20
21.9206911154
 10
-1.314854422
 20
21.9205337102
 10
-1.3203656579
 20
21.9200599799
 10
-1.3259488588
 20
21.919270726
 10
-1.3315945766
 20
21.9181672842
 10
-1.3372932573
 20
21.9167515219
 10
-1.3430352573
 20
21.9150258347
 10
-1.3488108597
 20
21.912993143
 10
-1.3546102907
 20
21.9106568867
 10
-1.3604237361
 20
21.9080210193
  0
LWPOLYLINE
  5
381
100
AcDbEntity
  8
218_STAMPATO
100
AcDbPolyline
 62
7
  6
CONTINUOUS
 90
21
 70
0
 10
-2.3540015
 20
21.7815020097
 10
-2.3658385445
 20
21.7869760409
 10
-2.3776094369
 20
21.7919940692
 10
-2.3893016273
 20
21.7965503805
 10
-2.4009017688
 20
21.8006398955
 10
-2.4123981789
 20
21.8042579012
 10
-2.4237808381
 20
21.8073999065
 10
-2.4350370884
 20
21.8100623106
 10
-2.4461548225
 20
21.8122418999
 10
-2.4571249042
 20
21.8139353006
 10
-2.467934979
 20
21.8151404593
 10
-2.4785730749
 20
21.815855633
 10
-2.4890307244
 20
21.8160784882
 10
-2.4992954977
 20
21.8158085749
 10
-2.5093561523
 20
21.8150457423
 10
-2.5192061073
 20
21.8137886246
 10
-2.5288341682
 20
21.8120381365
 10
-2.5382285811
 20
21.8097956421
 10
-2.5473821551
 20
21.8070612213
 10
-2.5562820126
 20
21.8038384074
 10
-2.5645871818
 20
21.8002837601
  0
LWPOLYLINE
  5
382
100
AcDbEntity
  8
218_STAMPATO
100
AcDbPolyline
 62
253
  6
CONTINUOUS
 90
26
 70
0
 10
18.4477313373
 20
12.3504966719
 10
18.440447847
 20
12.3540406204
 10
18.4252001454
 20
12.3608464445
 10
18.4096370723
 20
12.3669803762
 10
18.393770185
 20
12.3724378605
 10
18.3776112662
 20
12.3772148445
 10
18.3611723157
 20
12.381307781
 10
18.3444655411
 20
12.3847136304
 10
18.3275033491
 20
12.3874298636
 10
18.3102983357
 20
12.3894544635
 10
18.2928632775
 20
12.3907859265
 10
18.2752111219
 20
12.3914232639
 10
18.2573549775
 20
12.3913660025
 10
18.2393081044
 20
12.3906141848
 10
18.2210839042
 20
12.389168369
 10
18.2026959104
 20
12.3870296288
 10
18.184157778
 20
12.3841995526
 10
18.1654832735
 20
12.3806802418
 10
18.1466862646
 20
12.37647431
 10
18.1277807102
 20
12.3715848805
 10
18.1087806497
 20
12.3660155843
 10
18.0897001925
 20
12.3597705571
 10
18.0705535079
 20
12.3528544365
 10
18.0513548144
 20
12.3452723584
 10
18.0321183689
 20
12.3370299534
 10
18.0128584567
 20
12.3281333423
  0
LWPOLYLINE
  5
383
100
AcDbEntity
  8
218_STAMPATO
100
AcDbPolyline
 62
7
  6
CONTINUOUS
 90
64
 70
0
 10
-1.2734455009
 20
21.9124918519
 10
-1.2838867528
 20
21.9175873347
 10
-1.3013928345
 20
21.9255946238
 10
-1.3193701724
 20
21.9331702819
 10
-1.3377872763
 20
21.9403081164
 10
-1.3566350707
 20
21.9470138414
 10
-1.3759260403
 20
21.953300739
 10
-1.3956375155
 20
21.9591702122
 10
-1.4157470339
 20
21.9646254739
 10
-1.4362632019
 20
21.9696782494
 10
-1.4571339228
 20
21.974325403
 10
-1.4783707584
 20
21.97857917
 10
-1.5000758902
 20
21.9824645009
 10
-1.5222007936
 20
21.9859742739
 10
-1.5447642119
 20
21.989112808
 10
-1.5679699696
 20
21.9919023364
 10
-1.5918943993
 20
21.9943373263
 10
-1.6164376505
 20
21.9963929568
 10
-1.6415372881
 20
21.9980529036
 10
-1.6672961151
 20
21.99931081
 10
-1.6935835505
 20
22.0001467187
 10
-1.719983759
 20
22.000546301
 10
-1.74645975
 20
22.0005173685
 10
-1.7730211778
 20
22.0000669774
 10
-1.7993230073
 20
21.9992140295
 10
-1.8252751335
 20
21.997982505
 10
-1.8509494942
 20
21.9963884172
 10
-1.8762464208
 20
21.9944561993
 10
-1.9011460155
 20
21.9922066125
 10
-1.9256570894
 20
21.9896569401
 10
-1.9497239629
 20
21.9868308003
 10
-1.9733279874
 20
21.9837486333
 10
-1.9964827304
 20
21.9804260792
 10
-2.0191809061
 20
21.9768806725
 10
-2.0414148385
 20
21.9731297042
 10
-2.0631905679
 20
21.9691876948
 10
-2.0845202845
 20
21.9650671494
 10
-2.1054044
 20
21.9607820629
 10
-2.1258424631
 20
21.9563462643
 10
-2.1458437307
 20
21.9517710438
 10
-2.1654104776
 20
21.9470687498
 10
-2.1845411833
 20
21.9422524202
 10
-2.2032377295
 20
21.9373341013
 10
-2.2215097896
 20
21.9323234597
 10
-2.2393486415
 20
21.927234999
 10
-2.2567276303
 20
21.9220889486
 10
-2.2736347152
 20
21.916902061
 10
-2.2900846435
 20
21.9116828874
 10
-2.3060895409
 20
21.9064401796
 10
-2.3216292218
 20
21.901193226
 10
-2.3367251092
 20
21.8959474029
 10
-2.3514468497
 20
21.8906897522
 10
-2.3657929943
 20
21.8854310733
 10
-2.3797581488
 20
21.8801837698
 10
-2.3933984699
 20
21.8749365354
 10
-2.4066966549
 20
21.8697053923
 10
-2.4196527699
 20
21.8645000162
 10
-2.4323389672
 20
21.8593003569
 10
-2.4447177823
 20
21.8541304798
 10
-2.4567899769
 20
21.8489994276
 10
-2.4686674355
 20
21.8438680604
 10
-2.4803039572
 20
21.8387644877
 10
-2.4916662374
 20
21.8337127471
 10
-2.5138599784
 20
21.8236727848
  0
LINE
  5
384
100
AcDbEntity
  8
218_STAMPATO
100
AcDbLine
 62
7
  6
CONTINUOUS
 10
0.0224794248
 20
20.593277484
 11
-2.3523965752
 21
21.780715484
  0
LINE
  5
385
100
AcDbEntity
  8
218_STAMPATO
100
AcDbLine
 62
7
  6
CONTINUOUS
 10
13.52046084
 20
14.3668160116
 11
16.7888155238
 21
12.7326386697
  0
LINE
  5
386
100
AcDbEntity
  8
218_STAMPATO
100
AcDbLine
 62
253
  6
CONTINUOUS
 10
-1.3629830249
 20
21.9092870441
 11
0.6502444296
 21
20.9026869365
  0
LINE
  5
387
100
AcDbEntity
  8
218_STAMPATO
100
AcDbLine
 62
7
  6
CONTINUOUS
 10
-1.2734491598
 20
21.9124936851
 11
0.6985485678
 21
20.9264948213
  0
LINE
  5
388
100
AcDbEntity
  8
218_STAMPATO
100
AcDbLine
 62
253
  6
CONTINUOUS
 10
12.2613051336
 20
15.2039100039
 11
12.6140965306
 21
15.0275143054
  0
LINE
  5
389
100
AcDbEntity
  8
218_STAMPATO
100
AcDbLine
 62
253
  6
CONTINUOUS
 10
17.0005783322
 20
12.8342734046
 11
18.0128584567
 21
12.3281333423
  0
LWPOLYLINE
  5
38A
100
AcDbEntity
  8
218_STAMPATO
100
AcDbPolyline
 62
253
  6
CONTINUOUS
 90
58
 70
0
 10
18.0128584567
 20
12.3281333423
 10
18.0326660572
 20
12.3182288965
 10
18.0524504595
 20
12.3076696464
 10
18.0721966452
 20
12.296463487
 10
18.0918900157
 20
12.2846185615
 10
18.111515214
 20
12.2721439651
 10
18.131056151
 20
12.2590498639
 10
18.150497588
 20
12.2453464899
 10
18.1698251758
 20
12.2310439789
 10
18.1890242849
 20
12.2161531542
 10
18.2080803708
 20
12.2006852906
 10
18.226978936
 20
12.1846521493
 10
18.2457055851
 20
12.1680659413
 10
18.2642460847
 20
12.150939275
 10
18.2825863792
 20
12.1332851361
 10
18.3007125529
 20
12.1151169201
 10
18.3186108482
 20
12.0964484165
 10
18.3362676764
 20
12.0772937989
 10
18.3536696342
 20
12.0576676076
 10
18.3708035109
 20
12.0375847419
 10
18.3876563009
 20
12.017060446
 10
18.404215214
 20
11.9961102967
 10
18.4204676807
 20
11.9747501962
 10
18.4364013629
 20
11.9529963599
 10
18.4520041657
 20
11.9308653004
 10
18.4672642448
 20
11.908373817
 10
18.4821700161
 20
11.8855389833
 10
18.4967101642
 20
11.862378133
 10
18.5108736517
 20
11.8389088473
 10
18.5246497267
 20
11.8151489421
 10
18.5380279311
 20
11.7911164538
 10
18.5509981095
 20
11.7668296257
 10
18.5635504158
 20
11.7423068938
 10
18.575675321
 20
11.7175668742
 10
18.587363621
 20
11.692628347
 10
18.5986064427
 20
11.6675102433
 10
18.6093952515
 20
11.642231631
 10
18.6197218571
 20
11.6168116992
 10
18.6295784206
 20
11.5912697444
 10
18.6389574593
 20
11.5656251562
 10
18.6478518535
 20
11.5398974016
 10
18.6562548513
 20
11.5141060107
 10
18.6641600737
 20
11.4882705625
 10
18.6715615195
 20
11.462410669
 10
18.6784535704
 20
11.4365459606
 10
18.6848309942
 20
11.4106960716
 10
18.6906889498
 20
11.384880625
 10
18.6960229903
 20
11.3591192175
 10
18.7008290665
 20
11.3334314055
 10
18.7051035298
 20
11.3078366888
 10
18.7088431356
 20
11.2823544966
 10
18.7120450451
 20
11.2570041728
 10
18.7147068276
 20
11.2318049603
 10
18.7168264625
 20
11.206775989
 10
18.7184023407
 20
11.181936261
 10
18.7194332658
 20
11.1573046332
 10
18.7199184557
 20
11.1328998028
 10
18.7198575421
 20
6.5534848466
  0
LINE
  5
38B
100
AcDbEntity
  8
218_STAMPATO
100
AcDbLine
 62
7
  6
CONTINUOUS
 10
12.2613051336
 20
15.4437097738
 11
13.1371481409
 21
15.0057882701
  0
LINE
  5
38C
100
AcDbEntity
  8
218_STAMPATO
100
AcDbLine
 62
7
  6
CONTINUOUS
 10
17.347272483
 20
12.9007260991
 11
18.4477313373
 21
12.3504966719
  0
LINE
  5
38D
100
AcDbEntity
  8
268
100
AcDbLine
 62
7
  6
CONTINUOUS
 10
1.2259931892
 20
21.1864589007
 11
-1.574525268
 21
22.5867181293
  0
LINE
  5
38E
100
AcDbEntity
  8
268
100
AcDbLine
 62
7
  6
CONTINUOUS
 10
-1.574525268
 20
23.1392763186
 11
-1.9280786586
 21
23.3160530139
  0
LWPOLYLINE
  5
38F
100
AcDbEntity
  8
218_STAMPATO
100
AcDbPolyline
 62
7
  6
CONTINUOUS
 90
42
 70
0
 10
18.4477313373
 20
12.3504966719
 10
18.4711801212
 20
12.3383828743
 10
18.4943347072
 20
12.3256353522
 10
18.517173758
 20
12.3122625438
 10
18.5396791422
 20
12.2982719414
 10
18.5618272696
 20
12.2836754342
 10
18.5835895594
 20
12.2684900958
 10
18.6049199366
 20
12.2527488311
 10
18.6258274155
 20
12.2364461925
 10
18.64636281
 20
12.2195379792
 10
18.6665509712
 20
12.2019915528
 10
18.6863202253
 20
12.1838571928
 10
18.7055782121
 20
12.1652166683
 10
18.7242916833
 20
12.1461066405
 10
18.7424647331
 20
12.126528027
 10
18.7600692778
 20
12.1065166073
 10
18.7770058436
 20
12.0862013939
 10
18.7933578853
 20
12.0654991379
 10
18.80934879
 20
12.0441105811
 10
18.8250871024
 20
12.0218303575
 10
18.8403804747
 20
11.9988683294
 10
18.8550016918
 20
11.9755472757
 10
18.8688992352
 20
11.9519662261
 10
18.8821127418
 20
11.928076108
 10
18.8945884227
 20
11.9039953873
 10
18.9062151513
 20
11.8799942412
 10
18.9171244296
 20
11.8558596503
 10
18.92758283
 20
11.8309698974
 10
18.9377132126
 20
11.8048740808
 10
18.9472672023
 20
11.778040689
 10
18.9559664524
 20
11.7512266617
 10
18.9637270721
 20
11.724821757
 10
18.9706879868
 20
11.6984940993
 10
18.9769431338
 20
11.6719246494
 10
18.9824997252
 20
11.6450440409
 10
18.9873256953
 20
11.6179647027
 10
18.9914223298
 20
11.5906358124
 10
18.994793348
 20
11.5629152513
 10
18.9973986643
 20
11.5349898595
 10
18.9992047248
 20
11.5072974998
 10
19.00022646
 20
11.480204071
 10
19.0005177412
 20
11.4560859907
  0
LWPOLYLINE
  5
390
100
AcDbEntity
  8
218_STAMPATO
100
AcDbPolyline
 62
7
  6
CONTINUOUS
 90
104
 70
0
 10
19.0005177418
 20
10.0086833935
 10
19.0132390867
 20
9.9994285682
 10
19.0580606985
 20
9.9655602467
 10
19.1025445455
 20
9.9306853344
 10
19.1467022054
 20
9.8948005469
 10
19.1905327826
 20
9.8579103558
 10
19.234004535
 20
9.8200450221
 10
19.2770821555
 20
9.7812401855
 10
19.3197450762
 20
9.7415201636
 10
19.361982783
 20
9.7009003598
 10
19.4037752844
 20
9.6594054304
 10
19.4451014104
 20
9.6170621604
 10
19.4859521641
 20
9.5738853762
 10
19.5263252859
 20
9.5298819997
 10
19.5662161096
 20
9.4850603172
 10
19.605598582
 20
9.4394526405
 10
19.6444385074
 20
9.3931030184
 10
19.6827074057
 20
9.3460515538
 10
19.7204060322
 20
9.2983033121
 10
19.7575437695
 20
9.2498501506
 10
19.7941194718
 20
9.2006950111
 10
19.8301046674
 20
9.1508774367
 10
19.8654676187
 20
9.1004443967
 10
19.9001849063
 20
9.0494339546
 10
19.9342539293
 20
8.99785448
 10
19.9676745012
 20
8.9457091152
 10
20.0004384728
 20
8.893012006
 10
20.0325271705
 20
8.8397944499
 10
20.0639243074
 20
8.7860852068
 10
20.0946156515
 20
8.7319106102
 10
20.1245905851
 20
8.6772912299
 10
20.1538386188
 20
8.6222475506
 10
20.1823472227
 20
8.5668042437
 10
20.2101051597
 20
8.510984065
 10
20.2371038419
 20
8.4548046227
 10
20.263332503
 20
8.398288028
 10
20.2887789859
 20
8.3414599413
 10
20.313432692
 20
8.2843432697
 10
20.3372832112
 20
8.2269609666
 10
20.3603194138
 20
8.1693383429
 10
20.3825300829
 20
8.1115018644
 10
20.4039025487
 20
8.0534831703
 10
20.4244298993
 20
7.9952993179
 10
20.4441092229
 20
7.9369546676
 10
20.4629360022
 20
7.8784556069
 10
20.4808941785
 20
7.8198443425
 10
20.4979646059
 20
7.7611787887
 10
20.5141324767
 20
7.7025093354
 10
20.5293979334
 20
7.6438345123
 10
20.5437642055
 20
7.5851341828
 10
20.5572283964
 20
7.526404567
 10
20.5697744669
 20
7.467698364
 10
20.5813862091
 20
7.4090796603
 10
20.5920531146
 20
7.3505955491
 10
20.6017736604
 20
7.2922471683
 10
20.6105460449
 20
7.234029118
 10
20.6183651784
 20
7.1759488728
 10
20.625221404
 20
7.11804749
 10
20.6311060731
 20
7.0603693193
 10
20.6360134917
 20
7.0029407105
 10
20.6399386764
 20
6.9457827622
 10
20.6428760791
 20
6.8889306934
 10
20.644821228
 20
6.8324176503
 10
20.6457707256
 20
6.7762566827
 10
20.6457205925
 20
6.720452137
 10
20.6446652792
 20
6.6649937078
 10
20.6426000926
 20
6.6099386765
 10
20.6395260759
 20
6.5553902318
 10
20.6354476504
 20
6.5014160519
 10
20.6303631801
 20
6.4479888462
 10
20.6242658124
 20
6.3950679881
 10
20.6171435867
 20
6.3426111444
 10
20.6090010308
 20
6.2907061257
 10
20.5998603968
 20
6.2395040084
 10
20.5897401725
 20
6.1890824292
 10
20.5786357241
 20
6.1393959284
 10
20.5665391539
 20
6.0904074713
 10
20.5534396384
 20
6.0420873941
 10
20.5393518611
 20
5.9945037516
 10
20.5243087628
 20
5.9477636273
 10
20.5083270745
 20
5.9019021453
 10
20.4914093318
 20
5.8569112724
 10
20.4735746176
 20
5.812827502
 10
20.4548386014
 20
5.7696729093
 10
20.4352087843
 20
5.727449316
 10
20.4146934957
 20
5.6861619207
 10
20.3932846338
 20
5.6457868826
 10
20.3710123316
 20
5.6063740409
 10
20.347949522
 20
5.5680330223
 10
20.3241566204
 20
5.5308306491
 10
20.2996157943
 20
5.4947068237
 10
20.274284093
 20
5.4595808044
 10
20.2481441686
 20
5.4254230952
 10
20.2212410871
 20
5.3922873138
 10
20.1936234177
 20
5.3602211761
 10
20.1653262541
 20
5.3292487236
 10
20.136354132
 20
5.2993586088
 10
20.1067128489
 20
5.2705435915
 10
20.0764248072
 20
5.2428134453
 10
20.0455075633
 20
5.2161723904
 10
20.0139583498
 20
5.1906083195
 10
19.9817890495
 20
5.1661235059
 10
19.9490275469
 20
5.1427317823
 10
19.9156945284
 20
5.1204399367
  0
LWPOLYLINE
  5
391
100
AcDbEntity
  8
268
100
AcDbPolyline
 62
7
  6
CONTINUOUS
 90
20
 70
0
 10
8.8920964157
 20
19.439981915
 10
8.890696264
 20
19.4421129798
 10
8.8889498377
 20
19.4444214272
 10
8.8868682278
 20
19.4469110663
 10
8.8844632634
 20
19.4495885091
 10
8.8817431715
 20
19.4524237251
 10
8.8787182403
 20
19.4554202514
 10
8.8753997389
 20
19.4585833296
 10
8.871795582
 20
19.461885322
 10
8.8679157251
 20
19.4653293048
 10
8.8637710536
 20
19.4689195492
 10
8.8593698209
 20
19.4726300487
 10
8.8547214824
 20
19.4764636406
 10
8.8498370284
 20
19.4804235142
 10
8.84472664
 20
19.4844839346
 10
8.839399765
 20
19.4886471498
 10
8.8338675617
 20
19.4929155212
 10
8.8281430904
 20
19.4972630207
 10
8.822237907
 20
19.5016819029
 10
8.8099248554
 20
19.5107669925
  0
LWPOLYLINE
  5
392
100
AcDbEntity
  8
218_STAMPATO
100
AcDbPolyline
 62
253
  6
CONTINUOUS
 90
28
 70
0
 10
11.3605399113
 20
17.7258067641
 10
11.3459304108
 20
17.7508010833
 10
11.3308999797
 20
17.7754625844
 10
11.3154613312
 20
17.799770408
 10
11.2996275237
 20
17.8237039941
 10
11.2834119499
 20
17.8472430987
 10
11.2668283253
 20
17.8703678119
 10
11.2498906769
 20
17.8930585743
 10
11.232613331
 20
17.9152961932
 10
11.2150109013
 20
17.9370618595
 10
11.1970982763
 20
17.9583371631
 10
11.1788906072
 20
17.9791041089
 10
11.1604032943
 20
17.9993451316
 10
11.141651975
 20
18.0190431107
 10
11.1226525094
 20
18.0381813851
 10
11.103420968
 20
18.0567437672
 10
11.0839736172
 20
18.0747145564
 10
11.0643269062
 20
18.0920785524
 10
11.0444974528
 20
18.1088210683
 10
11.0245020292
 20
18.1249279429
 10
11.0043575482
 20
18.1403855524
 10
10.9840810484
 20
18.1551808224
 10
10.9636896804
 20
18.1693012387
 10
10.9432006917
 20
18.1827348578
 10
10.9226314125
 20
18.1954703171
 10
10.9019992408
 20
18.2074968447
 10
10.881321628
 20
18.2188042682
 10
10.8606160637
 20
18.2293830234
  0
LINE
  5
393
100
AcDbEntity
  8
218_STAMPATO
100
AcDbLine
 62
253
  6
CONTINUOUS
 10
11.5664944583
 20
17.3705877154
 11
11.3605399113
 21
17.7258067641
  0
LINE
  5
394
100
AcDbEntity
  8
218_STAMPATO
100
AcDbLine
 62
7
  6
CONTINUOUS
 10
11.9193377071
 20
17.5036860729
 11
11.709123116
 21
17.8661817384
  0
LINE
  5
395
100
AcDbEntity
  8
218_STAMPATO
100
AcDbLine
 62
7
  6
CONTINUOUS
 10
19.0014976332
 20
-7.4038014801
 11
19.0015188736
 21
-7.4037439218
  0
LWPOLYLINE
  5
396
100
AcDbEntity
  8
218_STAMPATO
100
AcDbPolyline
 62
253
  6
CONTINUOUS
 90
34
 70
0
 10
18.3692633557
 20
-11.9437700326
 10
18.3894379368
 20
-11.9250904007
 10
18.4090908695
 20
-11.9056264746
 10
18.4282129887
 20
-11.8853873706
 10
18.4467952175
 20
-11.864382668
 10
18.4648286143
 20
-11.8426224362
 10
18.4823046035
 20
-11.8201170657
 10
18.4992148293
 20
-11.7968773134
 10
18.5155512408
 20
-11.7729142248
 10
18.5313061314
 20
-11.7482391499
 10
18.5464719953
 20
-11.7228638347
 10
18.5610415921
 20
-11.6968003666
 10
18.5750080337
 20
-11.6700610998
 10
18.5883646813
 20
-11.642658736
 10
18.6011051516
 20
-11.6146063383
 10
18.6132233793
 20
-11.585917274
 10
18.6247136061
 20
-11.5566051891
 10
18.6355703576
 20
-11.5266840339
 10
18.6457884502
 20
-11.4961680777
 10
18.6553630338
 20
-11.4650718548
 10
18.6642895638
 20
-11.43341014
 10
18.6725637774
 20
-11.4011979737
 10
18.6801817621
 20
-11.3684506693
 10
18.6871399035
 20
-11.3351838008
 10
18.6934348543
 20
-11.3014131754
 10
18.6990636588
 20
-11.2671547883
 10
18.704023644
 20
-11.232424978
 10
18.7083123709
 20
-11.1972404152
 10
18.7119278339
 20
-11.1616179249
 10
18.7148683589
 20
-11.1255743413
 10
18.717132484
 20
-11.0891266566
 10
18.7187191299
 20
-11.052292139
 10
18.7196276133
 20
-11.0150883314
 10
18.7198575421
 20
-10.9775329061
  0
LWPOLYLINE
  5
397
100
AcDbEntity
  8
218_STAMPATO
100
AcDbPolyline
 62
253
  6
CONTINUOUS
 90
4
 70
0
 10
18.3057070665
 20
-11.9950160051
 10
18.32738788
 20
-11.9787412156
 10
18.3485766844
 20
-11.9616565037
 10
18.3692633557
 20
-11.9437700326
  0
LWPOLYLINE
  5
398
100
AcDbEntity
  8
218_STAMPATO
100
AcDbPolyline
 62
7
  6
CONTINUOUS
 90
40
 70
0
 10
18.3802857728
 20
-11.9486458033
 10
18.3999194582
 20
-11.9341504744
 10
18.4280146546
 20
-11.9124554366
 10
18.4556176996
 20
-11.8899912095
 10
18.4827005413
 20
-11.8667753804
 10
18.5092501361
 20
-11.8428140474
 10
18.5352677924
 20
-11.8180996365
 10
18.5607335856
 20
-11.7926434925
 10
18.5856281869
 20
-11.7664573882
 10
18.6099523612
 20
-11.7395314198
 10
18.6336868817
 20
-11.7118765142
 10
18.6568119264
 20
-11.6835055225
 10
18.6793256865
 20
-11.6544086554
 10
18.7012096049
 20
-11.6245959969
 10
18.722443727
 20
-11.5940812884
 10
18.743022703
 20
-11.5628571877
 10
18.7629276489
 20
-11.5309352221
 10
18.7821401629
 20
-11.4983276982
 10
18.8006545032
 20
-11.465025466
 10
18.8184511008
 20
-11.4310423269
 10
18.8355132706
 20
-11.3963878616
 10
18.8518378718
 20
-11.3610430686
 10
18.8674086111
 20
-11.3250131548
 10
18.8822045695
 20
-11.2883145001
 10
18.8962142859
 20
-11.2509413154
 10
18.9094254505
 20
-11.2128866707
 10
18.9218135813
 20
-11.174177823
 10
18.9333520623
 20
-11.1348583795
 10
18.9440268508
 20
-11.0949380862
 10
18.9538233555
 20
-11.0544284145
 10
18.9627206161
 20
-11.0133746277
 10
18.9707079824
 20
-10.9717850631
 10
18.9777737711
 20
-10.9296717164
 10
18.9839018398
 20
-10.8870845034
 10
18.9890840412
 20
-10.8440327856
 10
18.9933117173
 20
-10.8005265872
 10
18.9965738802
 20
-10.7566154152
 10
18.9988637314
 20
-10.7123208936
 10
19.0001759288
 20
-10.6676398188
 10
19.0005177322
 20
-10.6302048446
  0
LINE
  5
399
100
AcDbEntity
  8
218_STAMPATO
100
AcDbLine
 62
253
  6
CONTINUOUS
 10
18.1698847283
 20
-12.0934525481
 11
18.3057070665
 21
-11.9950160051
  0
LINE
  5
39A
100
AcDbEntity
  8
218_STAMPATO
100
AcDbLine
 62
7
  6
CONTINUOUS
 10
18.2444523224
 20
-12.0470904153
 11
18.3802746605
 21
-11.9486538723
  0
LWPOLYLINE
  5
39B
100
AcDbEntity
  8
218_STAMPATO
100
AcDbPolyline
 62
7
  6
CONTINUOUS
 90
7
 70
0
 10
18.2444523224
 20
-12.0470904153
 10
18.2311873188
 20
-12.0565403578
 10
18.2177615283
 20
-12.0657788522
 10
18.204180048
 20
-12.0748018366
 10
18.1904422712
 20
-12.0836090902
 10
18.1765596731
 20
-12.0921927795
 10
18.1625558299
 20
-12.1005387952
  0
LINE
  5
39C
100
AcDbEntity
  8
268
100
AcDbLine
 62
7
  6
CONTINUOUS
 10
1.6428105864
 20
-23.6554850426
 11
2.4559833848
 21
-23.1266139122
  0
LINE
  5
39D
100
AcDbEntity
  8
268
100
AcDbLine
 62
253
  6
CONTINUOUS
 10
3.4105775394
 20
-22.8148912945
 11
4.1176843206
 21
-22.4537802147
  0
LINE
  5
39E
100
AcDbEntity
  8
268
100
AcDbLine
 62
7
  6
CONTINUOUS
 10
3.3206135713
 20
-23.003701371
 11
4.0277203535
 21
-22.6425902907
  0
LINE
  5
39F
100
AcDbEntity
  8
268
100
AcDbLine
 62
7
  6
CONTINUOUS
 10
3.3206087168
 20
-23.0037038502
 11
3.3186010706
 21
-23.0047075822
  0
LINE
  5
3A0
100
AcDbEntity
  8
268
100
AcDbLine
 62
253
  6
CONTINUOUS
 10
1.6428105864
 20
-23.6798805479
 11
3.4105775394
 21
-22.8148912945
  0
LINE
  5
3A1
100
AcDbEntity
  8
268
100
AcDbLine
 62
7
  6
CONTINUOUS
 10
1.5508296674
 20
-23.8696990122
 11
3.3185966218
 21
-23.004709758
  0
LWPOLYLINE
  5
3A2
100
AcDbEntity
  8
RACCORDO
100
AcDbPolyline
 62
253
  6
CONTINUOUS
 90
16
 70
0
 10
-5.6398671527
 20
-25.1856333746
 10
-5.7023943495
 20
-25.2097620823
 10
-5.7700944193
 20
-25.2305814764
 10
-5.8422500738
 20
-25.2478709733
 10
-5.9180968176
 20
-25.2614473894
 10
-5.9968310478
 20
-25.2711668814
 10
-6.0776185682
 20
-25.2769264703
 10
-6.159603428
 20
-25.2786651329
 10
-6.2419169903
 20
-25.2763644478
 10
-6.3236871358
 20
-25.2700487911
 10
-6.4040475025
 20
-25.2597850777
 10
-6.4821466654
 20
-25.2456820525
 10
-6.5571571568
 20
-25.2278891385
 10
-6.6282842341
 20
-25.2065948533
 10
-6.6947742996
 20
-25.1820248116
 10
-6.7559228852
 20
-25.1544393353
  0
LWPOLYLINE
  5
3A3
100
AcDbEntity
  8
ASSI
100
AcDbPolyline
 62
253
  6
CONTINUOUS
 90
16
 70
0
 10
-5.6398671527
 20
-25.1856333746
 10
-5.7023943495
 20
-25.2097620823
 10
-5.7700944193
 20
-25.2305814764
 10
-5.8422500738
 20
-25.2478709733
 10
-5.9180968176
 20
-25.2614473894
 10
-5.9968310478
 20
-25.2711668814
 10
-6.0776185682
 20
-25.2769264703
 10
-6.159603428
 20
-25.2786651329
 10
-6.2419169903
 20
-25.2763644478
 10
-6.3236871358
 20
-25.2700487911
 10
-6.4040475025
 20
-25.2597850777
 10
-6.4821466654
 20
-25.2456820525
 10
-6.5571571568
 20
-25.2278891385
 10
-6.6282842341
 20
-25.2065948533
 10
-6.6947742996
 20
-25.1820248116
 10
-6.7559228852
 20
-25.1544393353
  0
LINE
  5
3A4
100
AcDbEntity
  8
218_STAMPATO
100
AcDbLine
 62
253
  6
CONTINUOUS
 10
-2.0274417883
 20
21.9157851023
 11
-2.017259243
 21
21.9186336967
  0
LWPOLYLINE
  5
3A5
100
AcDbEntity
  8
218_STAMPATO
100
AcDbPolyline
 62
253
  6
CONTINUOUS
 90
3
 70
0
 10
-2.017259243
 20
21.9186336967
 10
-2.0068873417
 20
21.921439471
 10
-2.0016302754
 20
21.9228257699
  0
LWPOLYLINE
  5
3A6
100
AcDbEntity
  8
218_STAMPATO
100
AcDbPolyline
 62
253
  6
CONTINUOUS
 90
4
 70
0
 10
-2.0016302754
 20
21.9228257699
 10
-1.99097368
 20
21.9255607551
 10
-1.985574151
 20
21.9269094413
 10
-1.9801272883
 20
21.9282440501
  0
LWPOLYLINE
  5
3A7
100
AcDbEntity
  8
218_STAMPATO
100
AcDbPolyline
 62
253
  6
CONTINUOUS
 90
128
 70
0
 10
-1.9801272883
 20
21.9282440501
 10
-1.9690914102
 20
21.9308710711
 10
-1.963502829
 20
21.9321618776
 10
-1.9578670721
 20
21.9334370595
 10
-1.9521843399
 20
21.9346965762
 10
-1.946455591
 20
21.9359387184
 10
-1.9406806638
 20
21.9371635084
 10
-1.93485972
 20
21.9383709238
 10
-1.9289942025
 20
21.9395591882
 10
-1.9230842921
 20
21.9407282572
 10
-1.917129808
 20
21.9418781751
 10
-1.911131651
 20
21.943007299
 10
-1.9050895894
 20
21.944115666
 10
-1.8990038548
 20
21.9452032389
 10
-1.8928760431
 20
21.9462682637
 10
-1.8866978363
 20
21.9473119145
 10
-1.8804775524
 20
21.948333017
 10
-1.874241742
 20
21.9493262948
 10
-1.8679939771
 20
21.9502908003
 10
-1.8617306856
 20
21.9512274811
 10
-1.855467702
 20
21.952133903
 10
-1.8492075189
 20
21.953009505
 10
-1.8429476437
 20
21.9538548482
 10
-1.8366964326
 20
21.9546691817
 10
-1.8304549855
 20
21.9554522661
 10
-1.8242222025
 20
21.9562043408
 10
-1.8180031399
 20
21.9569253736
 10
-1.8117981737
 20
21.957615267
 10
-1.8056069279
 20
21.9582741185
 10
-1.7994333316
 20
21.9589021882
 10
-1.7932777788
 20
21.9594994045
 10
-1.7871398753
 20
21.9600658389
 10
-1.7810223683
 20
21.960601966
 10
-1.7749255333
 20
21.9611077485
 10
-1.7688490946
 20
21.9615832236
 10
-1.762794972
 20
21.9620289769
 10
-1.7567627884
 20
21.9624450183
 10
-1.7507529207
 20
21.962831338
 10
-1.7447684196
 20
21.9631884915
 10
-1.7388094766
 20
21.9635164452
 10
-1.7328759002
 20
21.9638152329
 10
-1.7269701662
 20
21.9640855117
 10
-1.7210924431
 20
21.9643272605
 10
-1.7152425625
 20
21.9645405005
 10
-1.7094224946
 20
21.9647259524
 10
-1.7036321607
 20
21.9648836059
 10
-1.6978716394
 20
21.9650134713
 10
-1.6921431376
 20
21.9651163003
 10
-1.6864466323
 20
21.9651920763
 10
-1.6807821464
 20
21.9652408159
 10
-1.6751519546
 20
21.9652633206
 10
-1.6695561822
 20
21.9652595744
 10
-1.663994704
 20
21.9652295933
 10
-1.6584694185
 20
21.965174227
 10
-1.6529805181
 20
21.9650934691
 10
-1.6475278105
 20
21.964987326
 10
-1.6421126172
 20
21.9648566666
 10
-1.6367349931
 20
21.9647014888
 10
-1.6313948834
 20
21.9645217948
 10
-1.6260934453
 20
21.9643184607
 10
-1.620830396
 20
21.9640914626
 10
-1.6156060184
 20
21.9638408244
 10
-1.6104223182
 20
21.9635674944
 10
-1.6052795051
 20
21.9632714671
 10
-1.6001773694
 20
21.962952748
 10
-1.5951172874
 20
21.9626123018
 10
-1.5900994718
 20
21.9622501359
 10
-1.5851237099
 20
21.9618662428
 10
-1.5801907401
 20
21.9614615646
 10
-1.5753006458
 20
21.9610361073
 10
-1.5704533435
 20
21.9605898649
 10
-1.5656493213
 20
21.9601237609
 10
-1.5608886312
 20
21.9596378014
 10
-1.5561712212
 20
21.9591319804
 10
-1.5514974224
 20
21.958607203
 10
-1.5468672912
 20
21.9580634779
 10
-1.5422807712
 20
21.9575007964
 10
-1.5377380239
 20
21.9569200383
 10
-1.5332391286
 20
21.956321218
 10
-1.528784006
 20
21.9557043209
 10
-1.5243725798
 20
21.955070183
 10
-1.5200049016
 20
21.9544188182
 10
-1.5156809198
 20
21.9537502125
 10
-1.5114004037
 20
21.9530651595
 10
-1.5071633909
 20
21.952363673
 10
-1.5029698439
 20
21.9516457391
 10
-1.4988194198
 20
21.9509121097
 10
-1.4947121681
 20
21.9501628029
 10
-1.4906480394
 20
21.9493978007
 10
-1.4866265421
 20
21.9486178004
 10
-1.4826477131
 20
21.9478228203
 10
-1.4787115156
 20
21.9470128421
 10
-1.4748173478
 20
21.9461885083
 10
-1.4709652507
 20
21.9453498407
 10
-1.4671551834
 20
21.9444968175
 10
-1.4633864213
 20
21.9436300161
 10
-1.4596590063
 20
21.9427494617
 10
-1.4559728966
 20
21.9418551291
 10
-1.4523272418
 20
21.94094752
 10
-1.4487220583
 20
21.9400266559
 10
-1.4451573298
 20
21.9390925153
 10
-1.4416321572
 20
21.9381455347
 10
-1.438146541
 20
21.9371857327
 10
-1.4347004808
 20
21.9362130908
 10
-1.4312930765
 20
21.9352279898
 10
-1.427924338
 20
21.9342304521
 10
-1.4245942554
 20
21.9332204552
 10
-1.4213018991
 20
21.9321983126
 10
-1.4180472764
 20
21.931164048
 10
-1.4148303799
 20
21.9301176377
 10
-1.4116502576
 20
21.9290593242
 10
-1.4085069015
 20
21.9279891277
 10
-1.4054003196
 20
21.926907028
 10
-1.4023295843
 20
21.9258132073
 10
-1.3992946724
 20
21.9247076802
 10
-1.3962956071
 20
21.9235904321
 10
-1.3933315302
 20
21.9224616008
 10
-1.3904024062
 20
21.9213211956
 10
-1.3875082706
 20
21.9201692073
 10
-1.3846483719
 20
21.9190057463
 10
-1.3818226843
 20
21.9178308229
 10
-1.3790312335
 20
21.9166444268
 10
-1.3762733449
 20
21.9154466373
 10
-1.373549006
 20
21.9142374726
 10
-1.3708582293
 20
21.9130169144
 10
-1.3682003776
 20
21.9117849876
 10
-1.3655752387
 20
21.9105417002
 10
-1.3629830249
 20
21.9092870441
  0
LWPOLYLINE
  5
3A8
100
AcDbEntity
  8
268
100
AcDbPolyline
 62
7
  6
CONTINUOUS
 90
13
 70
0
 10
8.1458264459
 20
20.5239996221
 10
8.1111756359
 20
20.5304293032
 10
8.0759714128
 20
20.535812456
 10
8.0402515609
 20
20.5401745969
 10
8.0040262441
 20
20.54356852
 10
7.967358506
 20
20.5459982697
 10
7.9303622961
 20
20.5474094989
 10
7.8930752611
 20
20.5478196338
 10
7.8555242792
 20
20.5472557523
 10
7.8178035784
 20
20.5456637641
 10
7.7799642036
 20
20.5430346731
 10
7.7420150174
 20
20.5394126919
 10
7.7039855779
 20
20.5348179024
  0
LWPOLYLINE
  5
3A9
100
AcDbEntity
  8
268
100
AcDbPolyline
 62
7
  6
CONTINUOUS
 90
10
 70
0
 10
8.3921415454
 20
20.4366221502
 10
8.3691618663
 20
20.4478135824
 10
8.3393858219
 20
20.4613900242
 10
8.3101123029
 20
20.4737756409
 10
8.2813222949
 20
20.4849774374
 10
8.2530348122
 20
20.494988409
 10
8.2253331559
 20
20.5038881534
 10
8.1982450929
 20
20.5117032034
 10
8.1717428562
 20
20.5184070263
 10
8.1458264459
 20
20.5239996221
  0
LINE
  5
3AA
100
AcDbEntity
  8
268
100
AcDbLine
 62
7
  6
CONTINUOUS
 10
2.6338088855
 20
21.8803355591
 11
-0.1767407615
 21
23.2856103826
  0
LINE
  5
3AB
100
AcDbEntity
  8
218_STAMPATO
100
AcDbLine
 62
253
  6
CONTINUOUS
 10
10.8606160637
 20
18.2293830234
 11
9.4842498588
 21
18.9175661259
  0
LINE
  5
3AC
100
AcDbEntity
  8
218_STAMPATO
100
AcDbLine
 62
7
  6
CONTINUOUS
 10
8.8366645439
 20
19.4027180768
 11
9.3525005474
 21
19.1448000751
  0
LINE
  5
3AD
100
AcDbEntity
  8
218_STAMPATO
100
AcDbLine
 62
7
  6
CONTINUOUS
 10
11.2954889443
 20
18.251746353
 11
8.8941229153
 21
19.4524293675
  0
LINE
  5
3AE
100
AcDbEntity
  8
268
100
AcDbLine
 62
7
  6
CONTINUOUS
 10
4.2843303
 20
21.8087890093
 11
4.1385168899
 21
21.8816957143
  0
LINE
  5
3AF
100
AcDbEntity
  8
268
100
AcDbLine
 62
7
  6
CONTINUOUS
 10
3.3929320668
 20
22.2544881259
 11
1.1831911786
 21
23.35935857
  0
LINE
  5
3B0
100
AcDbEntity
  8
268
100
AcDbLine
 62
7
  6
CONTINUOUS
 10
-1.684266567
 20
25.0563311226
 11
-1.5038145899
 21
24.966105134
  0
LINE
  5
3B1
100
AcDbEntity
  8
268
100
AcDbLine
 62
7
  6
CONTINUOUS
 10
3.8701969472
 20
22.2790993655
 11
4.0506489243
 21
22.1888733769
  0
LINE
  5
3B2
100
AcDbEntity
  8
268
100
AcDbLine
 62
253
  6
CONTINUOUS
 10
-2.4968349111
 20
25.6352281469
 11
0.4822549899
 21
24.1456831964
  0
LINE
  5
3B3
100
AcDbEntity
  8
268
100
AcDbLine
 62
253
  6
CONTINUOUS
 10
4.724895677
 20
22.0243628529
 11
7.7039855779
 21
20.5348179024
  0
LINE
  5
3B4
100
AcDbEntity
  8
268
100
AcDbLine
 62
7
  6
CONTINUOUS
 10
5.1659386801
 20
22.0497123195
 11
8.3924285722
 21
20.4364673734
  0
LWPOLYLINE
  5
3B5
100
AcDbEntity
  8
218_STAMPATO
100
AcDbPolyline
 62
7
  6
CONTINUOUS
 90
23
 70
0
 10
11.2954889443
 20
18.251746353
 10
11.3184774747
 20
18.2398779195
 10
11.3411710768
 20
18.2274075489
 10
11.3635501894
 20
18.214344155
 10
11.3856015156
 20
18.2006936876
 10
11.407300191
 20
18.1864700686
 10
11.4286107328
 20
18.1716967416
 10
11.4494990649
 20
18.1563999109
 10
11.469966558
 20
18.1405815959
 10
11.4900305629
 20
18.1242287038
 10
11.5096642259
 20
18.1073623296
 10
11.5288607293
 20
18.0899879411
 10
11.5476619086
 20
18.0720627804
 10
11.5660840219
 20
18.0535595722
 10
11.584068553
 20
18.0345254531
 10
11.6015459836
 20
18.0150298512
 10
11.6184642906
 20
17.9951349613
 10
11.6348499281
 20
17.9748144504
 10
11.6507504043
 20
17.9540048291
 10
11.6661798936
 20
17.9326731014
 10
11.6810844764
 20
17.9108794179
 10
11.6954089659
 20
17.8886990965
 10
11.709123116
 20
17.8661817384
  0
LWPOLYLINE
  5
3B6
100
AcDbEntity
  8
268
100
AcDbPolyline
 62
7
  6
CONTINUOUS
 90
17
 70
0
 10
8.8928133344
 20
20.0427397385
 10
8.8591760405
 20
20.078801889
 10
8.8254924525
 20
20.1134405486
 10
8.7917625701
 20
20.1466557174
 10
8.7579176683
 20
20.1784630214
 10
8.7240264723
 20
20.2088468345
 10
8.6902951573
 20
20.2377602786
 10
8.6567433619
 20
20.2651794539
 10
8.6233514475
 20
20.2911282603
 10
8.5902666734
 20
20.3156315188
 10
8.55750436
 20
20.3386752256
 10
8.5250491869
 20
20.3602733847
 10
8.4930024523
 20
20.3804928287
 10
8.4613753128
 20
20.3993267427
 10
8.4301566117
 20
20.4167819417
 10
8.3994141774
 20
20.4329457032
 10
8.3921415454
 20
20.4366221502
  0
LWPOLYLINE
  5
3B7
100
AcDbEntity
  8
218_STAMPATO
100
AcDbPolyline
 62
253
  6
CONTINUOUS
 90
57
 70
0
 10
19.0005177418
 20
8.189552582
 10
19.0068069148
 20
8.169731944
 10
19.0189727418
 20
8.1281921099
 10
19.0304135637
 20
8.0856954286
 10
19.0411133623
 20
8.0422504699
 10
19.0510071132
 20
7.9978942778
 10
19.0600839894
 20
7.9526207015
 10
19.0683304141
 20
7.9064340591
 10
19.0756799403
 20
7.859389112
 10
19.0821276469
 20
7.811413222
 10
19.0876550146
 20
7.7625803282
 10
19.0921834661
 20
7.7131697858
 10
19.0956997683
 20
7.6628689646
 10
19.098203014
 20
7.611998296
 10
19.0996678965
 20
7.5618035393
 10
19.1000722804
 20
7.5124201425
 10
19.0994867891
 20
7.463746576
 10
19.0980705997
 20
7.4166922352
 10
19.0958657712
 20
7.3715901483
 10
19.092912267
 20
7.3281468675
 10
19.0893795568
 20
7.2863365713
 10
19.0853158659
 20
7.2462196714
 10
19.0807393616
 20
7.2077626405
 10
19.0757662896
 20
7.1707955724
 10
19.0704339725
 20
7.1353332488
 10
19.0647564525
 20
7.1013785387
 10
19.0588061025
 20
7.0687407729
 10
19.052617791
 20
7.0374479801
 10
19.0461958336
 20
7.0074836514
 10
19.0395586004
 20
6.9785880152
 10
19.0327153879
 20
6.9507107291
 10
19.0256844312
 20
6.9239091184
 10
19.018491851
 20
6.8980834624
 10
19.0111377854
 20
6.8731967653
 10
19.0036441485
 20
6.8492908332
 10
18.9960675795
 20
6.8263836742
 10
18.9884267946
 20
6.8045082298
 10
18.9807223639
 20
6.7836353481
 10
18.9729820609
 20
6.7636896328
 10
18.9652222779
 20
6.7446882967
 10
18.9574414491
 20
6.7266168469
 10
18.9496381077
 20
6.7093519403
 10
18.9418067195
 20
6.6928681216
 10
18.9339634477
 20
6.6771927096
 10
18.9261376226
 20
6.6622812662
 10
18.918324692
 20
6.6481265377
 10
18.9105373047
 20
6.6347372965
 10
18.9028295309
 20
6.6220930715
 10
18.8952182431
 20
6.6102205308
 10
18.8876925508
 20
6.5990943592
 10
18.8802638458
 20
6.5886160053
 10
18.8729529905
 20
6.5788022219
 10
18.8657429212
 20
6.569637313
 10
18.8585871355
 20
6.5609738399
 10
18.8514707252
 20
6.5527628536
 10
18.8444107402
 20
6.5450540229
 10
18.8374081036
 20
6.5378477124
  0
LINE
  5
3B8
100
AcDbEntity
  8
268
100
AcDbLine
 62
7
  6
CONTINUOUS
 10
3.0216688097
 20
-24.6556081704
 11
3.5499359815
 21
-24.3845971118
  0
LINE
  5
3B9
100
AcDbEntity
  8
268
100
AcDbLine
 62
7
  6
CONTINUOUS
 10
1.4203880189
 20
-25.4356427701
 11
3.0216688097
 21
-24.6556081704
  0
LINE
  5
3BA
100
AcDbEntity
  8
RACCORDO
100
AcDbLine
 62
253
  6
CONTINUOUS
 10
-5.197245921
 20
-25.6003697153
 11
-1.0547097075
 21
-24.2864262937
  0
LINE
  5
3BB
100
AcDbEntity
  8
ASSI
100
AcDbLine
 62
253
  6
CONTINUOUS
 10
-5.197245921
 20
-25.6003697153
 11
-1.0547097075
 21
-24.2864262937
  0
LINE
  5
3BC
100
AcDbEntity
  8
RACCORDO
100
AcDbLine
 62
7
  6
CONTINUOUS
 10
-1.3578080006
 20
-24.7589350297
 11
-5.5066340786
 21
-26.0748730814
  0
LINE
  5
3BD
100
AcDbEntity
  8
ASSI
100
AcDbLine
 62
7
  6
CONTINUOUS
 10
-1.3578080006
 20
-24.7589350297
 11
-5.5066340786
 21
-26.0748730814
  0
LINE
  5
3BE
100
AcDbEntity
  8
268
100
AcDbLine
 62
7
  6
CONTINUOUS
 10
1.1831911786
 20
23.35935857
 11
-0.1767407615
 21
23.2856103826
  0
LWPOLYLINE
  5
3BF
100
AcDbEntity
  8
268
100
AcDbPolyline
 62
7
  6
CONTINUOUS
 90
18
 70
0
 10
0.9233077069
 20
24.1710168433
 10
0.9037456226
 20
24.1801065764
 10
0.8808498424
 20
24.189091991
 10
0.8573405562
 20
24.1965942238
 10
0.833199234
 20
24.2026283937
 10
0.8085094807
 20
24.2071741781
 10
0.7832480545
 20
24.2102281615
 10
0.757438197
 20
24.2117937594
 10
0.7312332381
 20
24.211860896
 10
0.7046492755
 20
24.2104221201
 10
0.6776702115
 20
24.2074848827
 10
0.6504010829
 20
24.2030614615
 10
0.6228269032
 20
24.1971430758
 10
0.5949626589
 20
24.1897385063
 10
0.5669583459
 20
24.1808863717
 10
0.5388639627
 20
24.170599545
 10
0.5106295107
 20
24.1588651532
 10
0.4822549899
 20
24.1456831964
  0
ELLIPSE
  5
3C0
100
AcDbEntity
  8
RACCORDO
100
AcDbEllipse
 62
7
  6
CONTINUOUS
 10
-13.0748726621
 20
21.0953229678
 30
0.0
 11
-0.2788336762
 21
0.7504028808
 31
0.0
 40
0.660854826
 41
-0.3090486207
 42
0.0320396926
  0
ELLIPSE
  5
3C1
100
AcDbEntity
  8
RACCORDO
100
AcDbEllipse
 62
7
  6
CONTINUOUS
 10
-1.6205485134
 20
-24.0029940547
 30
0.0
 11
-0.2788336762
 21
0.7504028808
 31
0.0
 40
0.660854826
 41
-3.1737081954
 42
-2.187168432
  0
ELLIPSE
  5
3C2
100
AcDbEntity
  8
RACCORDO
100
AcDbEllipse
 62
7
  6
CONTINUOUS
 10
1.4911392049
 20
13.8123170343
 30
0.0
 11
-0.2782515188
 21
0.7500674241
 31
0.0
 40
0.6617094163
 41
-2.1859006333
 42
-0.8222376794
  0
ELLIPSE
  5
3C3
100
AcDbEntity
  8
ASSI
100
AcDbEllipse
 62
7
  6
CONTINUOUS
 10
-13.0748726621
 20
21.0953229678
 30
0.0
 11
-0.2788336762
 21
0.7504028808
 31
0.0
 40
0.660854826
 41
-0.3090486207
 42
0.0320396926
  0
ELLIPSE
  5
3C4
100
AcDbEntity
  8
ASSI
100
AcDbEllipse
 62
7
  6
CONTINUOUS
 10
-1.6205485134
 20
-24.0029940547
 30
0.0
 11
-0.2788336762
 21
0.7504028808
 31
0.0
 40
0.660854826
 41
-3.1737081954
 42
-2.187168432
  0
ELLIPSE
  5
3C5
100
AcDbEntity
  8
ASSI
100
AcDbEllipse
 62
7
  6
CONTINUOUS
 10
1.4911392049
 20
13.8123170343
 30
0.0
 11
-0.2782515188
 21
0.7500674241
 31
0.0
 40
0.6617094163
 41
-2.1859006333
 42
-0.8222376794
  0
ELLIPSE
  5
3C6
100
AcDbEntity
  8
218_STAMPATO
100
AcDbEllipse
 62
7
  6
CONTINUOUS
 10
11.2373102987
 20
12.2222003331
 30
0.0
 11
3.1085359176
 21
-0.0435832775
 31
0.0
 40
0.4892378494
 41
-1.2282586572
 42
-0.7772130249
  0
ELLIPSE
  5
3C7
100
AcDbEntity
  8
218_STAMPATO
100
AcDbEllipse
 62
7
  6
CONTINUOUS
 10
11.9312142527
 20
11.1829812198
 30
0.0
 11
2.7583876426
 21
-0.0130411979
 31
0.0
 40
0.4964289597
 41
0.8884696282
 42
1.4531813309
  0
ELLIPSE
  5
3C8
100
AcDbEntity
  8
218_STAMPATO
100
AcDbEllipse
 62
7
  6
CONTINUOUS
 10
11.9312142527
 20
11.1829812198
 30
0.0
 11
2.7583876426
 21
-0.0130411979
 31
0.0
 40
0.4964289597
 41
0.3532220781
 42
0.6870207571
  0
ELLIPSE
  5
3C9
100
AcDbEntity
  8
218_STAMPATO
100
AcDbEllipse
 62
7
  6
CONTINUOUS
 10
16.5799282661
 20
12.1663642188
 30
0.0
 11
0.79574694
 21
0.7129684349
 31
0.0
 40
0.2882345029
 41
0.1134953111
 42
0.7807533904
  0
ELLIPSE
  5
3CA
100
AcDbEntity
  8
218_STAMPATO
100
AcDbEllipse
 62
7
  6
CONTINUOUS
 10
12.8195248862
 20
14.0465659087
 30
0.0
 11
0.4410298232
 21
0.8975092442
 31
0.0
 40
0.607010042
 41
-0.8902711325
 42
-0.4047054934
  0
ELLIPSE
  5
3CB
100
AcDbEntity
  8
218_STAMPATO
100
AcDbEllipse
 62
7
  6
CONTINUOUS
 10
13.0100651668
 20
13.9512957684
 30
0.0
 11
-0.3106730325
 21
1.1082908718
 31
0.0
 40
0.6760995073
 41
5.3323367446
 42
6.4001141399
  0
ELLIPSE
  5
3CC
100
AcDbEntity
  8
218_STAMPATO
100
AcDbEllipse
 62
7
  6
CONTINUOUS
 10
-3.5349941674
 20
20.8013704708
 30
0.0
 11
1.2141619185
 21
0.9541526469
 31
0.0
 40
0.2329077568
 41
0.1095198182
 42
0.114024621
  0
ELLIPSE
  5
3CD
100
AcDbEntity
  8
218_STAMPATO
100
AcDbEllipse
 62
7
  6
CONTINUOUS
 10
11.9312142527
 20
13.1634693324
 30
0.0
 11
2.7583515655
 21
-1.4175703156
 31
0.0
 40
0.0109499087
 41
-0.7017315251
 42
-0.679046417
  0
ELLIPSE
  5
3CE
100
AcDbEntity
  8
218_STAMPATO
100
AcDbEllipse
 62
7
  6
CONTINUOUS
 10
11.9312142527
 20
11.6159939217
 30
0.0
 11
2.7583876426
 21
-0.0130411979
 31
0.0
 40
0.4964289597
 41
0.0858786529
 42
1.4531818029
  0
ELLIPSE
  5
3CF
100
AcDbEntity
  8
218_STAMPATO
100
AcDbEllipse
 62
7
  6
CONTINUOUS
 10
11.9312142527
 20
13.1634693324
 30
0.0
 11
2.7583515655
 21
-1.4175703156
 31
0.0
 40
0.0109499087
 41
-0.8804952881
 42
-0.85781018
  0
ELLIPSE
  5
3D0
100
AcDbEntity
  8
268
100
AcDbEllipse
 62
7
  6
CONTINUOUS
 10
-13.5507290985
 20
23.8204224481
 30
0.0
 11
0.110769438
 21
0.2241226716
 31
0.0
 40
0.6088015717
 41
-4.0304836828
 42
-3.1443650652
  0
ELLIPSE
  5
3D1
100
AcDbEntity
  8
268
100
AcDbEllipse
 62
7
  6
CONTINUOUS
 10
-0.1864109341
 20
17.1382633659
 30
0.0
 11
0.110769438
 21
0.2241226716
 31
0.0
 40
0.6088015717
 41
-4.0304836828
 42
-3.1443650652
  0
ELLIPSE
  5
3D2
100
AcDbEntity
  8
268
100
AcDbEllipse
 62
7
  6
CONTINUOUS
 10
-0.1864109341
 20
-24.4147121673
 30
0.0
 11
0.110769438
 21
0.2241226716
 31
0.0
 40
0.6088015717
 41
-4.0304836828
 42
-3.1443955108
  0
ELLIPSE
  5
3D3
100
AcDbEntity
  8
268
100
AcDbEllipse
 62
7
  6
CONTINUOUS
 10
3.8701969472
 20
15.8465453167
 30
0.0
 11
-0.1565168911
 21
0.3130623908
 31
0.0
 40
0.6123677712
 41
-2.2554744912
 42
-0.6846781644
  0
ELLIPSE
  5
3D4
100
AcDbEntity
  8
268
100
AcDbEllipse
 62
7
  6
CONTINUOUS
 10
3.8701969472
 20
-22.3300365279
 30
0.0
 11
-0.1565168911
 21
0.3130623908
 31
0.0
 40
0.6123677712
 41
-3.1363904945
 42
-2.2554744912
  0
ELLIPSE
  5
3D5
100
AcDbEntity
  8
268
100
AcDbEllipse
 62
7
  6
CONTINUOUS
 10
-1.8963986014
 20
24.9517766219
 30
0.0
 11
0.2999991737
 21
-0.0014183462
 31
0.0
 40
0.4964289597
 41
0.7877451926
 42
2.3527237553
  0
ELLIPSE
  5
3D6
100
AcDbEntity
  8
268
100
AcDbEllipse
 62
7
  6
CONTINUOUS
 10
3.6580649128
 20
22.1745448648
 30
0.0
 11
0.2999991737
 21
-0.0014183462
 31
0.0
 40
0.4964289597
 41
0.7877451926
 42
2.3585415194
  0
ELLIPSE
  5
3D7
100
AcDbEntity
  8
268
100
AcDbEllipse
 62
7
  6
CONTINUOUS
 10
3.1974170483
 20
16.4641163276
 30
0.0
 11
0.110769438
 21
0.2241226716
 31
0.0
 40
0.6088015717
 41
1.2055040732
 42
2.252693743
  0
ELLIPSE
  5
3D8
100
AcDbEntity
  8
268
100
AcDbEllipse
 62
7
  6
CONTINUOUS
 10
-10.1669011161
 20
23.1462754098
 30
0.0
 11
0.110769438
 21
0.2241226716
 31
0.0
 40
0.6088015717
 41
1.2055040732
 42
2.2526937431
  0
ELLIPSE
  5
3D9
100
AcDbEntity
  8
268
100
AcDbEllipse
 62
7
  6
CONTINUOUS
 10
3.5489135254
 20
-24.1686116361
 30
0.0
 11
0.110769438
 21
0.2241226716
 31
0.0
 40
0.6088015717
 41
-2.4538695918
 42
-0.8888910292
  0
ELLIPSE
  5
3DA
100
AcDbEntity
  8
268
100
AcDbEllipse
 62
7
  6
CONTINUOUS
 10
-0.1864109341
 20
-24.1613407735
 30
0.0
 11
0.110769438
 21
0.2241226716
 31
0.0
 40
0.6088015717
 41
1.2055040732
 42
2.2527016244
  0
ELLIPSE
  5
3DB
100
AcDbEntity
  8
268
100
AcDbEllipse
 62
7
  6
CONTINUOUS
 10
3.5489135254
 20
17.3919214797
 30
0.0
 11
0.110769438
 21
0.2241226716
 31
0.0
 40
0.6088015717
 41
-1.9360885804
 42
-0.8888910292
  0
ELLIPSE
  5
3DC
100
AcDbEntity
  8
268
100
AcDbEllipse
 62
7
  6
CONTINUOUS
 10
1.9287386691
 20
18.4629378842
 30
0.0
 11
0.1128509832
 21
0.2230818409
 31
0.0
 40
0.6159267166
 41
0.0028979148
 42
0.6817883054
  0
ELLIPSE
  5
3DD
100
AcDbEntity
  8
268
100
AcDbEllipse
 62
7
  6
CONTINUOUS
 10
-0.1864109341
 20
17.3916347596
 30
0.0
 11
0.110769438
 21
0.2241226716
 31
0.0
 40
0.6088015717
 41
0.6877230618
 42
2.2527016244
  0
ELLIPSE
  5
3DE
100
AcDbEntity
  8
268
100
AcDbEllipse
 62
7
  6
CONTINUOUS
 10
-9.815404639
 20
24.0740805619
 30
0.0
 11
0.110769438
 21
0.2241226716
 31
0.0
 40
0.6088015717
 41
-1.9360885804
 42
-0.8888910292
  0
ELLIPSE
  5
3DF
100
AcDbEntity
  8
268
100
AcDbEllipse
 62
7
  6
CONTINUOUS
 10
-11.4355794954
 20
25.1450969664
 30
0.0
 11
0.1128509832
 21
0.2230818409
 31
0.0
 40
0.6159267166
 41
0.0028979148
 42
0.6817883054
  0
ELLIPSE
  5
3E0
100
AcDbEntity
  8
268
100
AcDbEllipse
 62
7
  6
CONTINUOUS
 10
-13.5507290985
 20
24.0737938418
 30
0.0
 11
0.110769438
 21
0.2241226716
 31
0.0
 40
0.6088015717
 41
0.6877230618
 42
2.2527016244
  0
ELLIPSE
  5
3E1
100
AcDbEntity
  8
268
100
AcDbEllipse
 62
7
  6
CONTINUOUS
 10
-9.815404639
 20
24.3350095382
 30
0.0
 11
0.110769438
 21
0.2241226716
 31
0.0
 40
0.6088015717
 41
5.394294278
 42
6.9592728406
  0
ELLIPSE
  5
3E2
100
AcDbEntity
  8
268
100
AcDbEllipse
 62
7
  6
CONTINUOUS
 10
3.5489135254
 20
17.652850456
 30
0.0
 11
0.110769438
 21
0.2241226716
 31
0.0
 40
0.6088015717
 41
5.394294278
 42
6.9592728406
  0
ELLIPSE
  5
3E3
100
AcDbEntity
  8
268
100
AcDbEllipse
 62
7
  6
CONTINUOUS
 10
3.5489135254
 20
-23.9076826597
 30
0.0
 11
0.110769438
 21
0.2241226716
 31
0.0
 40
0.6088015717
 41
5.394294278
 42
6.4414918292
  0
ELLIPSE
  5
3E4
100
AcDbEntity
  8
268
100
AcDbEllipse
 62
7
  6
CONTINUOUS
 10
-7.8648923517
 20
22.031595254
 30
0.0
 11
0.2999991335
 21
0.0014318851
 31
0.0
 40
0.5035541159
 41
8.6427941204
 42
10.207772683
  0
ELLIPSE
  5
3E5
100
AcDbEntity
  8
268
100
AcDbEllipse
 62
7
  6
CONTINUOUS
 10
3.8385168899
 20
20.8524846949
 30
0.0
 11
0.2999981629
 21
-0.0021225547
 31
0.0
 40
0.4946372042
 41
-0.7760807437
 42
0.0035109161
  0
ELLIPSE
  5
3E6
100
AcDbEntity
  8
268
100
AcDbEllipse
 62
7
  6
CONTINUOUS
 10
-1.7159466242
 20
23.6297164519
 30
0.0
 11
0.2999981629
 21
-0.0021225547
 31
0.0
 40
0.4946372042
 41
-0.7818985079
 42
0.0034997008
  0
ELLIPSE
  5
3E7
100
AcDbEntity
  8
268
100
AcDbEllipse
 62
7
  6
CONTINUOUS
 10
1.395323213
 20
14.5977719159
 30
0.0
 11
-0.1565168911
 21
0.3130623908
 31
0.0
 40
0.6123677712
 41
-2.2554744912
 42
-0.6846781644
  0
ELLIPSE
  5
3E8
100
AcDbEntity
  8
268
100
AcDbEllipse
 62
7
  6
CONTINUOUS
 10
-13.8781832606
 20
22.2345251527
 30
0.0
 11
-0.1565168911
 21
0.3130623908
 31
0.0
 40
0.6123677712
 41
-0.6846781644
 42
0.8861181623
  0
ELLIPSE
  5
3E9
100
AcDbEntity
  8
268
100
AcDbEllipse
 62
7
  6
CONTINUOUS
 10
1.395323213
 20
-23.5561368612
 30
0.0
 11
-0.1565168911
 21
0.3130623908
 31
0.0
 40
0.6123677712
 41
2.4569144891
 42
4.0277108159
  0
ELLIPSE
  5
3EA
100
AcDbEntity
  8
268
100
AcDbEllipse
 62
7
  6
CONTINUOUS
 10
-1.7159466242
 20
24.8615506333
 30
0.0
 11
0.2999991737
 21
-0.0014183462
 31
0.0
 40
0.4964289597
 41
-0.7830511342
 42
0.7877451926
  0
ELLIPSE
  5
3EB
100
AcDbEntity
  8
268
100
AcDbEllipse
 62
7
  6
CONTINUOUS
 10
3.8385168899
 20
22.0843188763
 30
0.0
 11
0.2999991737
 21
-0.0014183462
 31
0.0
 40
0.4964289597
 41
-0.77723337
 42
0.7877451926
  0
ELLIPSE
  5
3EC
100
AcDbEntity
  8
268
100
AcDbEllipse
 62
7
  6
CONTINUOUS
 10
-7.8648923517
 20
20.8173961781
 30
0.0
 11
0.2999980272
 21
0.0021530184
 31
0.0
 40
0.5053247124
 41
3.1379773283
 42
3.9233642311
  0
ELLIPSE
  5
3ED
100
AcDbEntity
  8
268
100
AcDbEllipse
 62
7
  6
CONTINUOUS
 10
-2.0723832837
 20
19.13534072
 30
0.0
 11
0.2999991335
 21
0.0014318851
 31
0.0
 40
0.5035541159
 41
-2.3585979313
 42
-0.7936193687
  0
ELLIPSE
  5
3EE
100
AcDbEntity
  8
268
100
AcDbEllipse
 62
7
  6
CONTINUOUS
 10
-2.0723832837
 20
17.9211416441
 30
0.0
 11
0.2999980272
 21
0.0021530184
 31
0.0
 40
0.5053247124
 41
-2.3598210761
 42
-0.7948425135
  0
ELLIPSE
  5
3EF
100
AcDbEntity
  8
268
100
AcDbEllipse
 62
7
  6
CONTINUOUS
 10
3.1974170483
 20
-23.3354878118
 30
0.0
 11
0.110769438
 21
0.2241226716
 31
0.0
 40
0.6088015717
 41
2.2527095058
 42
3.2998991756
  0
ELLIPSE
  5
3F0
100
AcDbEntity
  8
268
100
AcDbEllipse
 62
7
  6
CONTINUOUS
 10
-0.2568830932
 20
-18.1144824944
 30
0.0
 11
-0.542618321
 21
0.8478124368
 31
0.0
 40
0.5451249042
 41
-3.2164376038
 42
-2.3115524019
  0
ELLIPSE
  5
3F1
100
AcDbEntity
  8
268
100
AcDbEllipse
 62
7
  6
CONTINUOUS
 10
1.4214224415
 20
-25.2186288551
 30
0.0
 11
0.1128509832
 21
0.2230818409
 31
0.0
 40
0.6159267166
 41
-4.0247829108
 42
-2.4598043482
  0
ELLIPSE
  5
3F2
100
AcDbEntity
  8
268
100
AcDbEllipse
 62
7
  6
CONTINUOUS
 10
1.4214224415
 20
-24.9652574613
 30
0.0
 11
0.1128509832
 21
0.2230818409
 31
0.0
 40
0.6159267166
 41
1.2112048452
 42
2.2584023964
  0
ELLIPSE
  5
3F3
100
AcDbEntity
  8
268
100
AcDbEllipse
 62
7
  6
CONTINUOUS
 10
1.4214224415
 20
16.5877180718
 30
0.0
 11
0.1128509832
 21
0.2230818409
 31
0.0
 40
0.6159267166
 41
0.6934238338
 42
2.2584023964
  0
ELLIPSE
  5
3F4
100
AcDbEntity
  8
268
100
AcDbEllipse
 62
7
  6
CONTINUOUS
 10
1.4214224415
 20
16.3343466781
 30
0.0
 11
0.1128509832
 21
0.2230818409
 31
0.0
 40
0.6159267166
 41
-4.0247829108
 42
-2.9775853596
  0
ELLIPSE
  5
3F5
100
AcDbEntity
  8
268
100
AcDbEllipse
 62
7
  6
CONTINUOUS
 10
-11.9428957229
 20
23.269877154
 30
0.0
 11
0.1128509832
 21
0.2230818409
 31
0.0
 40
0.6159267166
 41
0.6934238338
 42
2.2584023964
  0
ELLIPSE
  5
3F6
100
AcDbEntity
  8
268
100
AcDbEllipse
 62
7
  6
CONTINUOUS
 10
-11.9428957229
 20
23.0165057603
 30
0.0
 11
0.1128509832
 21
0.2230818409
 31
0.0
 40
0.6159267166
 41
-4.0247829108
 42
-2.9775853596
  0
ENDSEC
  0
SECTION
  2
OBJECTS
  0
DICTIONARY
  5
C
100
AcDbDictionary
280
0
281
1
  3
ACAD_GROUP
350
D
  3
ACAD_MLINESTYLE
350
17
  3
ACAD_LAYOUT
350
1A
  3
ACAD_PLOTSETTINGS
350
19
  3
ACAD_PLOTSTYLENAME
350
E
  0
DICTIONARY
  5
D
102
{ACAD_REACTORS
330
C
102
}
100
AcDbDictionary
280
0
281
1
  0
ACDBDICTIONARYWDFLT
  5
E
102
{ACAD_REACTORS
330
C
102
}
100
AcDbDictionary
281
1
  3
Normal
350
F
100
AcDbDictionaryWithDefault
340
F
  0
DICTIONARY
  5
17
102
{ACAD_REACTORS
330
C
102
}
100
AcDbDictionary
280
0
281
1
  3
Standard
350
18
  0
DICTIONARY
  5
19
102
{ACAD_REACTORS
330
C
102
}
100
AcDbDictionary
281
1
  0
DICTIONARY
  5
1A
102
{ACAD_REACTORS
330
C
102
}
100
AcDbDictionary
281
1
  3
Model
350
3F7
  3
Layout1
350
3F8
  0
ACDBPLACEHOLDER
  5
F
102
{ACAD_REACTORS
330
E
102
}
  0
MLINESTYLE
  5
18
102
{ACAD_REACTORS
330
17
102
}
100
AcDbMlineStyle
  2
STANDARD
 70
0
  3

 62
256
 51
90.0
 52
90.0
 71
2
 49
0.5
 62
256
  6
BYLAYER
 49
-0.5
 62
256
  6
BYLAYER
  0
LAYOUT
  5
3F7
102
{ACAD_REACTORS
330
1A
102
}
100
AcDbPlotSettings
  1

  2
none_device
  4
ISO_A4_(297.00_x_210.00_MM)
  6

 40
0.0
 41
0.0
 42
0.0
 43
0.0
 44
297.0
 45
210.0
 46
0.0
 47
0.0
 48
0.0
 49
0.0
140
0.0
141
0.0
142
1.0
143
1.0
 70
1024
 72
1
 73
0
 74
0
  7

 75
0
147
1.0
148
0.0
149
0.0
100
AcDbLayout
  1
Model
 70
0
 71
0
 10
0.0
 20
0.0
 11
297.0
 21
210.0
 12
0.0
 22
0.0
 32
0.0
 14
0.0
 24
0.0
 34
0.0
 15
0.0
 25
0.0
 35
0.0
146
0.0
 13
0.0
 23
0.0
 33
0.0
 16
1.0
 26
0.0
 36
0.0
 17
0.0
 27
1.0
 37
0.0
 76
0
330
226
345
0
346
0
  0
LAYOUT
  5
3F8
102
{ACAD_REACTORS
330
1A
102
}
100
AcDbPlotSettings
  1

  2
none_device
  4
ISO_A4_(297.00_x_210.00_MM)
  6

 40
0.0
 41
0.0
 42
0.0
 43
0.0
 44
297.0
 45
210.0
 46
0.0
 47
0.0
 48
0.0
 49
0.0
140
0.0
141
0.0
142
1.0
143
1.0
 70
0
 72
1
 73
0
 74
0
  7

 75
0
147
1.0
148
0.0
149
0.0
100
AcDbLayout
  1
Layout1
 70
0
 71
1
 10
0.0
 20
0.0
 11
297.0
 21
210.0
 12
0.0
 22
0.0
 32
0.0
 14
0.0
 24
0.0
 34
0.0
 15
0.0
 25
0.0
 35
0.0
146
0.0
 13
0.0
 23
0.0
 33
0.0
 16
1.0
 26
0.0
 36
0.0
 17
0.0
 27
1.0
 37
0.0
 76
0
330
227
345
0
346
0
  0
ENDSEC
  0
EOF
