  0
SECTION
  2
HEADER
  9
$ACADVER
  1
AC1024
  9
$DWGCODEPAGE
  3
ANSI_1252
  9
$EXTMAX
 10
297.0
 20
210.0
 30
0.0
  9
$EXTMIN
 10
0.0
 20
0.0
 30
0.0
  9
$LIMMIN
 10
0.0
 20
0.0
  9
$LIMMAX
 10
297.0
 20
210.0
  9
$VIEWCTR
 10
148.5
 20
105.0
  9
$VIEWSIZE
 40
210.0
  9
$CLAYER
  8
0
  9
$LTSCALE
 40
16.335
  9
$CELTYPE
  6
BYLAYER
  9
$DIMSCALE
 40
1.0
  9
$DIMASZ
 40
3.0
  9
$DIMEXO
 40
0.5
  9
$DIMDLI
 40
11.286
  9
$DIMEXE
 40
1.5
  9
$DIMCEN
 40
2.673
  9
$DIMLFAC
 40
1.0
  9
$DIMBLK
  1
_FILLED
  9
$DIMALT
 70
0
  9
$DIMALTF
 40
0.0393700787
  9
$DIMTXT
 40
3.0
  9
$DIMTOL
 70
1
  9
$DIMLIM
 70
0
  9
$DIMTFAC
 40
1.0
  9
$DIMTP
 40
0.01
  9
$DIMTM
 40
0.01
  9
$DIMGAP
 40
0.625
  9
$DIMDSEP
 70
44
  9
$AUNITS
 70
0
  9
$PDMODE
 70
3
  9
$PDSIZE
 40
3.0
  9
$HANDSEED
  5
42B
  9
$TILEMODE
 70
1
  9
$MEASUREMENT
 70
1
  9
$INSUNITS
 70
4
  0
ENDSEC
  0
SECTION
  2
CLASSES
  0
CLASS
  1
ACDBDICTIONARYWDFLT
  2
AcDbDictionaryWithDefault
  3
AutoCAD 2000
 90
0
 91
1
280
0
281
0
  0
CLASS
  1
ACDBPLACEHOLDER
  2
AcDbPlaceHolder
  3
AutoCAD 2000
 90
0
 91
1
280
0
281
0
  0
CLASS
  1
LAYOUT
  2
AcDbLayout
  3
AutoCAD 2000
 90
0
 91
0
280
0
281
0
  0
ENDSEC
  0
SECTION
  2
TABLES
  0
TABLE
  2
VPORT
  5
8
100
AcDbSymbolTable
 70
2
  0
VPORT
  5
1F4
100
AcDbSymbolTableRecord
100
AcDbViewportTableRecord
  2
*ACTIVE
 70
0
 10
0.0
 20
0.0
 11
1.0
 21
1.0
 12
148.5
 22
105.0
 13
0.0
 23
0.0
 14
1.0
 24
1.0
 15
0.0
 25
0.0
 16
0.0
 26
0.0
 36
1.0
 17
0.0
 27
0.0
 37
0.0
 40
210.0
 41
1.4142857143
 42
50.0
 43
0.0
 44
0.0
 50
0.0
 51
0.0
 71
0
 72
100
 73
1
 74
1
 75
0
 76
0
 77
0
 78
0
  0
ENDTAB
  0
TABLE
  2
LTYPE
  5
5
100
AcDbSymbolTable
 70
6
  0
LTYPE
  5
14
100
AcDbSymbolTableRecord
100
AcDbLinetypeTableRecord
  2
BYBLOCK
 70
0
  3

 72
65
 73
0
 40
0.0
  0
LTYPE
  5
15
100
AcDbSymbolTableRecord
100
AcDbLinetypeTableRecord
  2
BYLAYER
 70
0
  3

 72
65
 73
0
 40
0.0
  0
LTYPE
  5
16
100
AcDbSymbolTableRecord
100
AcDbLinetypeTableRecord
  2
CONTINUOUS
 70
64
  3
Solid line
 72
65
 73
0
 40
0.0
  0
LTYPE
  5
1F5
100
AcDbSymbolTableRecord
100
AcDbLinetypeTableRecord
  2
CENTER
 70
64
  3
____ _ ____ _ ____ _ ____ _ ____ _ ____ _ ____
 72
65
 73
4
 40
0.6
 49
0.375
 74
0
 49
-0.075
 74
0
 49
0.075
 74
0
 49
-0.075
 74
0
  0
LTYPE
  5
1F6
100
AcDbSymbolTableRecord
100
AcDbLinetypeTableRecord
  2
HIDDEN
 70
64
  3
- - - - - - - - - - - - - - - - - - - -
 72
65
 73
2
 40
0.2
 49
0.1
 74
0
 49
-0.1
 74
0
  0
LTYPE
  5
1F7
100
AcDbSymbolTableRecord
100
AcDbLinetypeTableRecord
  2
PHANTOM
 70
64
  3
_____ _ _ _____ _ _ _____ _ _ _____
 72
65
 73
6
 40
0.8
 49
0.45
 74
0
 49
-0.05
 74
0
 49
0.1
 74
0
 49
-0.05
 74
0
 49
0.1
 74
0
 49
-0.05
 74
0
  0
LTYPE
  5
1F8
100
AcDbSymbolTableRecord
100
AcDbLinetypeTableRecord
  2
DOT
 70
64
  3
. . . . . . . . . . . . . . . . . . . .
 72
65
 73
2
 40
0.2
 49
0.1
 74
0
 49
-0.1
 74
0
  0
LTYPE
  5
1F9
100
AcDbSymbolTableRecord
100
AcDbLinetypeTableRecord
  2
DASHED
 70
64
  3
- - - - - - - - - - - - - - - - - - - -
 72
65
 73
2
 40
0.2
 49
0.1
 74
0
 49
-0.1
 74
0
  0
ENDTAB
  0
TABLE
  2
LAYER
  5
2
100
AcDbSymbolTable
 70
36
  0
LAYER
  5
10
100
AcDbSymbolTableRecord
100
AcDbLayerTableRecord
  2
0
 70
0
 62
7
  6
CONTINUOUS
370
-3
390
F
  0
LAYER
  5
1FA
100
AcDbSymbolTableRecord
100
AcDbLayerTableRecord
  2
DEFAULT_1
 70
0
 62
7
  6
CENTER
370
-3
390
F
  0
LAYER
  5
1FB
100
AcDbSymbolTableRecord
100
AcDbLayerTableRecord
  2
DEFAULT_2
 70
0
 62
7
  6
HIDDEN
370
-3
390
F
  0
LAYER
  5
1FC
100
AcDbSymbolTableRecord
100
AcDbLayerTableRecord
  2
DEFAULT_3
 70
0
 62
7
  6
PHANTOM
370
-3
390
F
  0
LAYER
  5
1FD
100
AcDbSymbolTableRecord
100
AcDbLayerTableRecord
  2
218_INCISO
 70
0
 62
7
  6
CONTINUOUS
370
-3
390
F
  0
LAYER
  5
1FE
100
AcDbSymbolTableRecord
100
AcDbLayerTableRecord
  2
218_STAMPATO
 70
0
 62
7
  6
CONTINUOUS
370
-3
390
F
  0
LAYER
  5
1FF
100
AcDbSymbolTableRecord
100
AcDbLayerTableRecord
  2
260
 70
0
 62
7
  6
CONTINUOUS
370
-3
390
F
  0
LAYER
  5
200
100
AcDbSymbolTableRecord
100
AcDbLayerTableRecord
  2
268
 70
0
 62
7
  6
CONTINUOUS
370
-3
390
F
  0
LAYER
  5
201
100
AcDbSymbolTableRecord
100
AcDbLayerTableRecord
  2
284
 70
0
 62
7
  6
CONTINUOUS
370
-3
390
F
  0
LAYER
  5
202
100
AcDbSymbolTableRecord
100
AcDbLayerTableRecord
  2
320
 70
0
 62
7
  6
CONTINUOUS
370
-3
390
F
  0
LAYER
  5
203
100
AcDbSymbolTableRecord
100
AcDbLayerTableRecord
  2
340
 70
0
 62
7
  6
CONTINUOUS
370
-3
390
F
  0
LAYER
  5
204
100
AcDbSymbolTableRecord
100
AcDbLayerTableRecord
  2
712
 70
0
 62
7
  6
CONTINUOUS
370
-3
390
F
  0
LAYER
  5
205
100
AcDbSymbolTableRecord
100
AcDbLayerTableRecord
  2
715
 70
0
 62
7
  6
CONTINUOUS
370
-3
390
F
  0
LAYER
  5
206
100
AcDbSymbolTableRecord
100
AcDbLayerTableRecord
  2
ASSI
 70
0
 62
7
  6
CONTINUOUS
370
-3
390
F
  0
LAYER
  5
207
100
AcDbSymbolTableRecord
100
AcDbLayerTableRecord
  2
COLORE_TOP
 70
0
 62
7
  6
CONTINUOUS
370
-3
390
F
  0
LAYER
  5
208
100
AcDbSymbolTableRecord
100
AcDbLayerTableRecord
  2
COORDINATE
 70
0
 62
7
  6
CONTINUOUS
370
-3
390
F
  0
LAYER
  5
209
100
AcDbSymbolTableRecord
100
AcDbLayerTableRecord
  2
COORD_ORIGINE
 70
0
 62
7
  6
CONTINUOUS
370
-3
390
F
  0
LAYER
  5
20A
100
AcDbSymbolTableRecord
100
AcDbLayerTableRecord
  2
COPY-PUBBLISH
 70
0
 62
7
  6
CONTINUOUS
370
-3
390
F
  0
LAYER
  5
20B
100
AcDbSymbolTableRecord
100
AcDbLayerTableRecord
  2
COSMETICHE
 70
0
 62
7
  6
CONTINUOUS
370
-3
390
F
  0
LAYER
  5
20C
100
AcDbSymbolTableRecord
100
AcDbLayerTableRecord
  2
CURVA_CENTRALE
 70
0
 62
7
  6
CONTINUOUS
370
-3
390
F
  0
LAYER
  5
20D
100
AcDbSymbolTableRecord
100
AcDbLayerTableRecord
  2
CURVE
 70
0
 62
7
  6
CONTINUOUS
370
-3
390
F
  0
LAYER
  5
20E
100
AcDbSymbolTableRecord
100
AcDbLayerTableRecord
  2
DRAFT
 70
0
 62
7
  6
CONTINUOUS
370
-3
390
F
  0
LAYER
  5
20F
100
AcDbSymbolTableRecord
100
AcDbLayerTableRecord
  2
IGES
 70
0
 62
7
  6
CONTINUOUS
370
-3
390
F
  0
LAYER
  5
210
100
AcDbSymbolTableRecord
100
AcDbLayerTableRecord
  2
IMPORT
 70
0
 62
7
  6
CONTINUOUS
370
-3
390
F
  0
LAYER
  5
211
100
AcDbSymbolTableRecord
100
AcDbLayerTableRecord
  2
IMPORTED
 70
0
 62
7
  6
CONTINUOUS
370
-3
390
F
  0
LAYER
  5
212
100
AcDbSymbolTableRecord
100
AcDbLayerTableRecord
  2
INTF_1
 70
0
 62
7
  6
CONTINUOUS
370
-3
390
F
  0
LAYER
  5
213
100
AcDbSymbolTableRecord
100
AcDbLayerTableRecord
  2
INTF_11
 70
0
 62
7
  6
CONTINUOUS
370
-3
390
F
  0
LAYER
  5
214
100
AcDbSymbolTableRecord
100
AcDbLayerTableRecord
  2
INTF_2
 70
0
 62
7
  6
CONTINUOUS
370
-3
390
F
  0
LAYER
  5
215
100
AcDbSymbolTableRecord
100
AcDbLayerTableRecord
  2
INTF_5
 70
0
 62
7
  6
CONTINUOUS
370
-3
390
F
  0
LAYER
  5
216
100
AcDbSymbolTableRecord
100
AcDbLayerTableRecord
  2
INTF_6
 70
0
 62
7
  6
CONTINUOUS
370
-3
390
F
  0
LAYER
  5
217
100
AcDbSymbolTableRecord
100
AcDbLayerTableRecord
  2
INTF_CYAN
 70
0
 62
7
  6
CONTINUOUS
370
-3
390
F
  0
LAYER
  5
218
100
AcDbSymbolTableRecord
100
AcDbLayerTableRecord
  2
NOTE
 70
0
 62
7
  6
CONTINUOUS
370
-3
390
F
  0
LAYER
  5
219
100
AcDbSymbolTableRecord
100
AcDbLayerTableRecord
  2
PIANI
 70
0
 62
7
  6
CONTINUOUS
370
-3
390
F
  0
LAYER
  5
21A
100
AcDbSymbolTableRecord
100
AcDbLayerTableRecord
  2
PIANI_DI_RIFERIMENTO
 70
0
 62
7
  6
CONTINUOUS
370
-3
390
F
  0
LAYER
  5
21B
100
AcDbSymbolTableRecord
100
AcDbLayerTableRecord
  2
PIANI_ORIGINE
 70
0
 62
7
  6
CONTINUOUS
370
-3
390
F
  0
LAYER
  5
21C
100
AcDbSymbolTableRecord
100
AcDbLayerTableRecord
  2
PIANI_RIFERIMENTO
 70
0
 62
7
  6
CONTINUOUS
370
-3
390
F
  0
LAYER
  5
21D
100
AcDbSymbolTableRecord
100
AcDbLayerTableRecord
  2
PIANI_SFORMO
 70
0
 62
7
  6
CONTINUOUS
370
-3
390
F
  0
LAYER
  5
21E
100
AcDbSymbolTableRecord
100
AcDbLayerTableRecord
  2
PUNTI
 70
0
 62
7
  6
CONTINUOUS
370
-3
390
F
  0
LAYER
  5
21F
100
AcDbSymbolTableRecord
100
AcDbLayerTableRecord
  2
RACCORDO
 70
0
 62
7
  6
CONTINUOUS
370
-3
390
F
  0
LAYER
  5
220
100
AcDbSymbolTableRecord
100
AcDbLayerTableRecord
  2
RGB__255__255__255__
 70
0
 62
7
  6
CONTINUOUS
370
-3
390
F
  0
LAYER
  5
221
100
AcDbSymbolTableRecord
100
AcDbLayerTableRecord
  2
RGB____0____0____0__
 70
0
 62
7
  6
CONTINUOUS
370
-3
390
F
  0
LAYER
  5
222
100
AcDbSymbolTableRecord
100
AcDbLayerTableRecord
  2
RINTRACCIABILITA
 70
0
 62
7
  6
CONTINUOUS
370
-3
390
F
  0
LAYER
  5
223
100
AcDbSymbolTableRecord
100
AcDbLayerTableRecord
  2
SMUSSO
 70
0
 62
7
  6
CONTINUOUS
370
-3
390
F
  0
LAYER
  5
224
100
AcDbSymbolTableRecord
100
AcDbLayerTableRecord
  2
SNAPLINE
 70
0
 62
7
  6
CONTINUOUS
370
-3
390
F
  0
LAYER
  5
225
100
AcDbSymbolTableRecord
100
AcDbLayerTableRecord
  2
SUPERFICI
 70
0
 62
7
  6
CONTINUOUS
370
-3
390
F
  0
LAYER
  5
226
100
AcDbSymbolTableRecord
100
AcDbLayerTableRecord
  2
TRASH
 70
0
 62
7
  6
CONTINUOUS
370
-3
390
F
  0
LAYER
  5
227
100
AcDbSymbolTableRecord
100
AcDbLayerTableRecord
  2
WHITE
 70
0
 62
7
  6
CONTINUOUS
370
-3
390
F
  0
LAYER
  5
228
100
AcDbSymbolTableRecord
100
AcDbLayerTableRecord
  2
XSEC_DATUMS
 70
0
 62
7
  6
CONTINUOUS
370
-3
390
F
  0
ENDTAB
  0
TABLE
  2
STYLE
  5
3
100
AcDbSymbolTable
 70
1
  0
STYLE
  5
11
100
AcDbSymbolTableRecord
100
AcDbTextStyleTableRecord
  2
STANDARD
 70
0
 40
0.0
 41
0.8
 50
0.0
 71
0
 42
0.2
  3
txt
  4

  0
STYLE
  5
229
100
AcDbSymbolTableRecord
100
AcDbTextStyleTableRecord
  2
TEXTSTYLE_1
 70
0
 40
0.0
 41
0.8
 50
0.0
 71
0
 42
0.2
  3
gdt
  4

  0
ENDTAB
  0
TABLE
  2
VIEW
  5
6
100
AcDbSymbolTable
 70
0
  0
ENDTAB
  0
TABLE
  2
UCS
  5
7
100
AcDbSymbolTable
 70
0
  0
ENDTAB
  0
TABLE
  2
APPID
  5
9
100
AcDbSymbolTable
 70
1
  0
APPID
  5
22A
100
AcDbSymbolTableRecord
100
AcDbRegAppTableRecord
  2
ACAD
 70
0
  0
ENDTAB
  0
TABLE
  2
BLOCK_RECORD
  5
1
100
AcDbSymbolTable
 70
0
  0
BLOCK_RECORD
  5
22B
100
AcDbSymbolTableRecord
100
AcDbBlockTableRecord
  2
*Model_Space
  0
BLOCK_RECORD
  5
22C
100
AcDbSymbolTableRecord
100
AcDbBlockTableRecord
  2
*Paper_Space
  0
BLOCK_RECORD
  5
22D
100
AcDbSymbolTableRecord
100
AcDbBlockTableRecord
  2
_FILLED
  0
ENDTAB
  0
TABLE
  2
DIMSTYLE
  5
A
100
AcDbSymbolTable
 70
1
100
AcDbDimStyleTable
 71
0
  0
DIMSTYLE
105
22E
100
AcDbSymbolTableRecord
100
AcDbDimStyleTableRecord
  2
STANDARD
 70
0
  3

  4

 40
1.0
 41
3.0
 42
0.5
 43
0.38
 44
1.5
 45
0.0
 46
0.0
 47
0.01
 48
0.01
140
3.0
141
0.09
142
0.0
143
25.4
144
1.0
145
0.0
146
1.0
147
0.625
 71
1.0
 72
0.0
 73
0
 74
0
 75
0
 76
0
 77
1
 78
8
 79
2
170
0
171
1
172
0
173
0
174
0
175
0
176
0
177
0
178
0
270
2
179
2
271
2
272
2
273
2
274
2
275
0
280
0
281
0
282
0
283
1
284
8
285
0
286
0
287
3
288
0
340
11
278
44
341
22D
342
22D
343
22D
344
22D
  0
ENDTAB
  0
ENDSEC
  0
SECTION
  2
BLOCKS
  0
BLOCK
  5
20
100
AcDbEntity
  8
0
100
AcDbBlockBegin
  2
*Model_Space
 70
0
 10
0.0
 20
0.0
 30
0.0
  3
*Model_Space
  1

  0
ENDBLK
  5
21
100
AcDbEntity
  8
0
100
AcDbBlockEnd
  0
BLOCK
  5
1C
100
AcDbEntity
  8
0
100
AcDbBlockBegin
  2
*Paper_Space
 70
0
 10
0.0
 20
0.0
 30
0.0
  3
*Paper_Space
  1

  0
ENDBLK
  5
1D
100
AcDbEntity
  8
0
100
AcDbBlockEnd
  0
BLOCK
  5
22F
100
AcDbEntity
  8
0
100
AcDbBlockBegin
  2
_FILLED
 70
64
 10
0.0
 20
0.0
  3
_FILLED
  1

  0
SOLID
  5
230
100
AcDbEntity
  8
0
  6
BYBLOCK
 62
0
100
AcDbTrace
 10
0.0
 20
0.0
 11
-1.0
 21
0.3166666667
 12
-1.0
 22
-0.3166666667
 13
-1.0
 23
-0.3166666667
  0
ENDBLK
  5
231
100
AcDbEntity
  8
0
  6
BYBLOCK
 62
0
100
AcDbBlockEnd
  0
ENDSEC
  0
SECTION
  2
ENTITIES
  0
LWPOLYLINE
  5
232
100
AcDbEntity
  8
0
100
AcDbPolyline
 62
7
  6
CONTINUOUS
 90
16
 70
0
 10
-20.2031705675
 20
16.6691434715
 10
-20.2418697152
 20
16.6422933679
 10
-20.3388002898
 20
16.5666236464
 10
-20.429933003
 20
16.4832674647
 10
-20.515574234
 20
16.3923963089
 10
-20.5954582476
 20
16.2945330402
 10
-20.6687468546
 20
16.1910052496
 10
-20.7354144722
 20
16.0821175947
 10
-20.7952618591
 20
15.9681758207
 10
-20.8473983104
 20
15.8509219237
 10
-20.8916862886
 20
15.7306750552
 10
-20.9279000715
 20
15.6077050444
 10
-20.9553671487
 20
15.4836916309
 10
-20.9738439778
 20
15.3592441465
 10
-20.9830534174
 20
15.2341160142
 10
-20.9832716499
 20
15.1287477676
  0
LINE
  5
233
100
AcDbEntity
  8
0
100
AcDbLine
 62
7
  6
CONTINUOUS
 10
-20.2033645667
 20
16.6690262532
 11
-16.2805835718
 21
19.298806918
  0
LINE
  5
234
100
AcDbEntity
  8
0
100
AcDbLine
 62
250
  6
CONTINUOUS
 10
-19.8219318802
 20
16.6608772239
 11
-15.9076631747
 21
19.2849513621
  0
LINE
  5
235
100
AcDbEntity
  8
268
100
AcDbLine
 62
7
  6
CONTINUOUS
 10
-13.2135745853
 20
22.8957221989
 11
-11.6308179821
 21
23.7077062962
  0
LINE
  5
236
100
AcDbEntity
  8
268
100
AcDbLine
 62
7
  6
CONTINUOUS
 10
-13.6975296976
 20
21.1530217969
 11
-12.6853074135
 21
21.6699517595
  0
LINE
  5
237
100
AcDbEntity
  8
268
100
AcDbLine
 62
250
  6
CONTINUOUS
 10
-13.5400062913
 20
21.1435884673
 11
-12.6853074135
 21
21.5800730873
  0
LINE
  5
238
100
AcDbEntity
  8
268
100
AcDbLine
 62
7
  6
CONTINUOUS
 10
-11.6057531762
 20
22.0918114944
 11
-10.0044723854
 21
22.8945334979
  0
LINE
  5
239
100
AcDbEntity
  8
268
100
AcDbLine
 62
7
  6
CONTINUOUS
 10
-10.0044723854
 20
22.8945334979
 11
-9.4762052136
 21
23.1579723179
  0
LINE
  5
23A
100
AcDbEntity
  8
268
100
AcDbLine
 62
7
  6
CONTINUOUS
 10
-11.6308179821
 20
23.7077062962
 11
-11.0963681034
 21
23.9680537628
  0
LWPOLYLINE
  5
23B
100
AcDbEntity
  8
0
100
AcDbPolyline
 62
7
  6
CONTINUOUS
 90
15
 70
0
 10
-3.0272760945
 20
-26.5514603448
 10
-3.005667443
 20
-26.5619847692
 10
-2.9238101657
 20
-26.5966709909
 10
-2.8392693222
 20
-26.6245372652
 10
-2.7524457037
 20
-26.6454373152
 10
-2.6633526475
 20
-26.6593024052
 10
-2.5725058566
 20
-26.6659460887
 10
-2.4805192213
 20
-26.6652301556
 10
-2.3874437736
 20
-26.6570162693
 10
-2.2937204504
 20
-26.6411658785
 10
-2.1999254738
 20
-26.6176243966
 10
-2.1061486557
 20
-26.5862131663
 10
-2.0126583407
 20
-26.5467425625
 10
-1.9200534915
 20
-26.4992149741
 10
-1.8932651937
 20
-26.4838228137
  0
LINE
  5
23C
100
AcDbEntity
  8
0
100
AcDbLine
 62
7
  6
CONTINUOUS
 10
-3.0264781369
 20
-26.5518687858
 11
-17.3627619267
 21
-19.3837268909
  0
LINE
  5
23D
100
AcDbEntity
  8
0
100
AcDbLine
 62
250
  6
CONTINUOUS
 10
-3.4043006073
 20
-25.9541062477
 11
-17.7330341151
 21
-18.7897394938
  0
LINE
  5
23E
100
AcDbEntity
  8
268
100
AcDbLine
 62
7
  6
CONTINUOUS
 10
-10.0044723854
 20
21.1624826903
 11
-11.0713032975
 21
20.6239014408
  0
LINE
  5
23F
100
AcDbEntity
  8
268
100
AcDbLine
 62
7
  6
CONTINUOUS
 10
-8.5486914088
 20
21.134141294
 11
-2.0406547822
 21
24.3752828996
  0
LINE
  5
240
100
AcDbEntity
  8
268
100
AcDbLine
 62
250
  6
CONTINUOUS
 10
-8.4731982683
 20
21.0963947238
 11
-2.1586579417
 21
24.2411710283
  0
LINE
  5
241
100
AcDbEntity
  8
268
100
AcDbLine
 62
7
  6
CONTINUOUS
 10
3.4477198983
 20
-24.9614962184
 11
3.9749646141
 21
-25.0697884903
  0
LINE
  5
242
100
AcDbEntity
  8
268
100
AcDbLine
 62
7
  6
CONTINUOUS
 10
0.0406112754
 20
-26.0327004032
 11
1.6471473729
 21
-26.8359684519
  0
LINE
  5
243
100
AcDbEntity
  8
268
100
AcDbLine
 62
250
  6
CONTINUOUS
 10
-0.0239822034
 20
-25.8976718619
 11
1.5817942588
 21
-26.700560093
  0
LINE
  5
244
100
AcDbEntity
  8
268
100
AcDbLine
 62
250
  6
CONTINUOUS
 10
1.5817942588
 20
-26.4471886992
 11
-0.0239822034
 21
-25.6443004681
  0
LINE
  5
245
100
AcDbEntity
  8
268
100
AcDbLine
 62
250
  6
CONTINUOUS
 10
1.6706968348
 20
-26.2157516396
 11
0.0638919159
 21
-25.4123491801
  0
LWPOLYLINE
  5
246
100
AcDbEntity
  8
0
100
AcDbPolyline
 62
7
  6
CONTINUOUS
 90
13
 70
0
 10
-20.9832800467
 20
15.1288042135
 10
-20.8796680742
 20
12.2856052308
 10
-20.7472837506
 20
9.394512999
 10
-20.588158654
 20
6.519398478
 10
-20.4023115379
 20
3.6606782074
 10
-20.1897669129
 20
0.8187149594
 10
-19.9505497407
 20
-2.0061494642
 10
-19.6846872064
 20
-4.8135587329
 10
-19.3922119468
 20
-7.6031600046
 10
-19.0731561272
 20
-10.3746162916
 10
-18.7275557763
 20
-13.1275728059
 10
-18.3554611599
 20
-15.8616339766
 10
-17.9666918473
 20
-18.5121837735
  0
LINE
  5
247
100
AcDbEntity
  8
0
100
AcDbLine
 62
7
  6
CONTINUOUS
 10
-20.9832734634
 20
15.1288044272
 11
-20.9832716499
 21
15.1287477676
  0
LINE
  5
248
100
AcDbEntity
  8
268
100
AcDbLine
 62
7
  6
CONTINUOUS
 10
-9.3893535504
 20
22.5369747313
 11
-9.9165982661
 21
21.8952670032
  0
LINE
  5
249
100
AcDbEntity
  8
268
100
AcDbLine
 62
7
  6
CONTINUOUS
 10
-11.1010601879
 20
16.9129252717
 11
-11.1311464917
 21
16.8966930206
  0
LINE
  5
24A
100
AcDbEntity
  8
268
100
AcDbLine
 62
7
  6
CONTINUOUS
 10
-7.740077954
 20
20.7429765004
 11
-7.2467559387
 21
20.9960600323
  0
LINE
  5
24B
100
AcDbEntity
  8
218_STAMPATO
100
AcDbLine
 62
7
  6
CONTINUOUS
 10
6.42795962
 20
25.8694145396
 11
2.2115798423
 21
23.7241049229
  0
LINE
  5
24C
100
AcDbEntity
  8
268
100
AcDbLine
 62
7
  6
CONTINUOUS
 10
-1.1656376205
 20
23.3614274976
 11
-5.9032530545
 21
21.0263769829
  0
LINE
  5
24D
100
AcDbEntity
  8
268
100
AcDbLine
 62
7
  6
CONTINUOUS
 10
-1.5899016892
 20
21.9219958953
 11
-1.1656376205
 21
22.1295933162
  0
LINE
  5
24E
100
AcDbEntity
  8
268
100
AcDbLine
 62
7
  6
CONTINUOUS
 10
-7.2467559387
 20
20.9960600323
 11
-1.7691159493
 21
23.6643919955
  0
LINE
  5
24F
100
AcDbEntity
  8
218_STAMPATO
100
AcDbLine
 62
7
  6
CONTINUOUS
 10
5.3906676069
 20
26.4516940578
 11
1.8175939084
 21
24.7462607409
  0
LINE
  5
250
100
AcDbEntity
  8
218_STAMPATO
100
AcDbLine
 62
7
  6
CONTINUOUS
 10
4.4193849985
 20
26.7502959217
 11
-1.2952004549
 21
24.055313253
  0
LINE
  5
251
100
AcDbEntity
  8
218_STAMPATO
100
AcDbLine
 62
250
  6
CONTINUOUS
 10
4.858269749
 20
26.7178929867
 11
-1.0488228818
 21
23.9321244665
  0
LINE
  5
252
100
AcDbEntity
  8
268
100
AcDbLine
 62
7
  6
CONTINUOUS
 10
0.9011618981
 20
-24.837145271
 11
1.7335001823
 21
-25.253314413
  0
LINE
  5
253
100
AcDbEntity
  8
268
100
AcDbLine
 62
7
  6
CONTINUOUS
 10
2.2930148669
 20
-25.4706922221
 11
1.8837498706
 21
-25.2660597239
  0
LINE
  5
254
100
AcDbEntity
  8
268
100
AcDbLine
 62
7
  6
CONTINUOUS
 10
1.2018352214
 20
-24.6599659941
 11
1.9809875557
 21
-25.0495421612
  0
LINE
  5
255
100
AcDbEntity
  8
268
100
AcDbLine
 62
250
  6
CONTINUOUS
 10
3.4477198983
 20
-24.9614962184
 11
3.4042975724
 21
-24.9397850554
  0
LINE
  5
256
100
AcDbEntity
  8
268
100
AcDbLine
 62
7
  6
CONTINUOUS
 10
2.0606243402
 20
-24.1539030238
 11
2.7941603541
 21
-24.5206710308
  0
LINE
  5
257
100
AcDbEntity
  8
268
100
AcDbLine
 62
250
  6
CONTINUOUS
 10
3.3598457791
 20
-24.7622290728
 11
3.9749646141
 21
-25.0697884903
  0
LINE
  5
258
100
AcDbEntity
  8
268
100
AcDbLine
 62
7
  6
CONTINUOUS
 10
3.3598457791
 20
-24.7586089233
 11
3.9982439874
 21
-25.0778080274
  0
LWPOLYLINE
  5
259
100
AcDbEntity
  8
0
100
AcDbPolyline
 62
7
  6
CONTINUOUS
 90
13
 70
0
 10
-17.9665946038
 20
-18.512746697
 10
-17.9600513074
 20
-18.5519036632
 10
-17.9352918127
 20
-18.6618384126
 10
-17.9022611682
 20
-18.7661527245
 10
-17.8615621018
 20
-18.8642122192
 10
-17.8136717438
 20
-18.9559562901
 10
-17.7588287398
 20
-19.0415326824
 10
-17.6976753348
 20
-19.120372246
 10
-17.6308192184
 20
-19.1921674501
 10
-17.5583446181
 20
-19.2570955885
 10
-17.4806901573
 20
-19.3148362983
 10
-17.3987745347
 20
-19.3648306724
 10
-17.3619209294
 20
-19.3841375548
  0
LINE
  5
25A
100
AcDbEntity
  8
0
100
AcDbLine
 62
7
  6
CONTINUOUS
 10
-17.9666918473
 20
-18.5121837735
 11
-17.9666054785
 21
-18.5127483659
  0
LINE
  5
25B
100
AcDbEntity
  8
284
100
AcDbLine
 62
7
  6
CONTINUOUS
 10
-9.6540421617
 20
16.9550928565
 11
-10.0056587498
 21
16.7340224101
  0
LINE
  5
25C
100
AcDbEntity
  8
268
100
AcDbLine
 62
250
  6
CONTINUOUS
 10
-10.6231527275
 20
16.9008893405
 11
-10.8715293545
 21
16.766884452
  0
LINE
  5
25D
100
AcDbEntity
  8
715
100
AcDbLine
 62
7
  6
CONTINUOUS
 10
1.9986314928
 20
22.4633361524
 11
2.8143653494
 21
22.8934887448
  0
LINE
  5
25E
100
AcDbEntity
  8
715
100
AcDbLine
 62
250
  6
CONTINUOUS
 10
2.8142375674
 20
22.8934213579
 11
2.8143653494
 21
22.8934887448
  0
LINE
  5
25F
100
AcDbEntity
  8
218_STAMPATO
100
AcDbLine
 62
7
  6
CONTINUOUS
 10
6.4340166068
 20
25.4319260724
 11
2.2115798423
 21
23.31388588
  0
LINE
  5
260
100
AcDbEntity
  8
268
100
AcDbLine
 62
7
  6
CONTINUOUS
 10
0.1614362079
 20
21.891553264
 11
-1.2363482987
 21
21.1926610107
  0
LINE
  5
261
100
AcDbEntity
  8
715
100
AcDbLine
 62
7
  6
CONTINUOUS
 10
2.9426527782
 20
22.6703970134
 11
3.437627525
 21
22.9178843868
  0
LINE
  5
262
100
AcDbEntity
  8
715
100
AcDbLine
 62
7
  6
CONTINUOUS
 10
5.9058054375
 20
23.0983842391
 11
4.5943411265
 21
22.4426520836
  0
LINE
  5
263
100
AcDbEntity
  8
715
100
AcDbLine
 62
7
  6
CONTINUOUS
 10
3.8931173846
 20
22.0920402127
 11
3.6754646179
 21
21.9832138293
  0
LINE
  5
264
100
AcDbEntity
  8
268
100
AcDbLine
 62
7
  6
CONTINUOUS
 10
0.8204319592
 20
22.7516260778
 11
-1.2363482987
 21
21.7452192
  0
LINE
  5
265
100
AcDbEntity
  8
218_STAMPATO
100
AcDbLine
 62
250
  6
CONTINUOUS
 10
-2.0142196059
 20
20.3866583654
 11
-1.9767606099
 21
20.4039581711
  0
LINE
  5
266
100
AcDbEntity
  8
218_STAMPATO
100
AcDbLine
 62
7
  6
CONTINUOUS
 10
-2.175683009
 20
20.4296156662
 11
-2.226374708
 21
20.4062430387
  0
LINE
  5
267
100
AcDbEntity
  8
268
100
AcDbLine
 62
7
  6
CONTINUOUS
 10
2.3038487339
 20
-22.6256077831
 11
2.7941603541
 21
-22.8707635932
  0
LINE
  5
268
100
AcDbEntity
  8
218_STAMPATO
100
AcDbLine
 62
7
  6
CONTINUOUS
 10
-3.118525677
 20
19.6340132942
 11
-2.2644772934
 21
20.381471351
  0
LINE
  5
269
100
AcDbEntity
  8
218_STAMPATO
100
AcDbLine
 62
250
  6
CONTINUOUS
 10
-2.9646231222
 20
19.5570620168
 11
-2.0158245306
 21
20.3874448911
  0
LINE
  5
26A
100
AcDbEntity
  8
268
100
AcDbLine
 62
7
  6
CONTINUOUS
 10
-7.1739429273
 20
15.7150432393
 11
-7.1637045457
 21
15.7203813062
  0
LINE
  5
26B
100
AcDbEntity
  8
268
100
AcDbLine
 62
7
  6
CONTINUOUS
 10
-1.5233119971
 20
17.634593522
 11
-1.0242162643
 21
17.8847901951
  0
LINE
  5
26C
100
AcDbEntity
  8
715
100
AcDbLine
 62
7
  6
CONTINUOUS
 10
6.7543361452
 20
22.6741214555
 11
5.6497096031
 21
22.1218081845
  0
LINE
  5
26D
100
AcDbEntity
  8
268
100
AcDbLine
 62
7
  6
CONTINUOUS
 10
-1.0242162643
 20
17.8847901951
 11
4.3900564309
 21
20.5848058055
  0
LINE
  5
26E
100
AcDbEntity
  8
268
100
AcDbLine
 62
7
  6
CONTINUOUS
 10
3.7841098478
 20
20.8865537634
 11
-0.9535055862
 21
18.5515032488
  0
LINE
  5
26F
100
AcDbEntity
  8
268
100
AcDbLine
 62
7
  6
CONTINUOUS
 10
5.0630726463
 20
20.6303057343
 11
4.4766938593
 21
20.3433836666
  0
LINE
  5
270
100
AcDbEntity
  8
218_STAMPATO
100
AcDbLine
 62
7
  6
CONTINUOUS
 10
10.0511187897
 20
24.1214684664
 11
6.4876879532
 21
22.4112137186
  0
LINE
  5
271
100
AcDbEntity
  8
268
100
AcDbLine
 62
7
  6
CONTINUOUS
 10
-13.7874936647
 20
20.9642117208
 11
-13.7874936647
 21
20.9398162155
  0
LINE
  5
272
100
AcDbEntity
  8
268
100
AcDbLine
 62
7
  6
CONTINUOUS
 10
-13.3883003678
 20
22.3374627535
 11
-13.3883003678
 21
22.5908341472
  0
LINE
  5
273
100
AcDbEntity
  8
268
100
AcDbLine
 62
7
  6
CONTINUOUS
 10
-12.9743208663
 20
19.5742104459
 11
-13.1343182052
 21
17.8982788774
  0
LINE
  5
274
100
AcDbEntity
  8
284
100
AcDbLine
 62
7
  6
CONTINUOUS
 10
-5.4114014746
 20
14.8337725129
 11
-5.7630180627
 21
14.6127020666
  0
LINE
  5
275
100
AcDbEntity
  8
268
100
AcDbLine
 62
7
  6
CONTINUOUS
 10
0.1507435792
 20
16.2135631167
 11
1.7335001823
 21
17.025547214
  0
LINE
  5
276
100
AcDbEntity
  8
218_STAMPATO
100
AcDbLine
 62
7
  6
CONTINUOUS
 10
13.8525808224
 20
22.1571039384
 11
9.6362010447
 21
20.0117943217
  0
LINE
  5
277
100
AcDbEntity
  8
268
100
AcDbLine
 62
7
  6
CONTINUOUS
 10
-1.5233119971
 20
16.4203900491
 11
-1.0242162643
 21
16.6723546298
  0
LINE
  5
278
100
AcDbEntity
  8
268
100
AcDbLine
 62
7
  6
CONTINUOUS
 10
-1.0242162643
 20
16.6723546298
 11
4.3900564309
 21
19.3529672271
  0
LINE
  5
279
100
AcDbEntity
  8
268
100
AcDbLine
 62
7
  6
CONTINUOUS
 10
1.7335001823
 20
17.025547214
 11
2.267950061
 21
17.2858946806
  0
LINE
  5
27A
100
AcDbEntity
  8
268
100
AcDbLine
 62
250
  6
CONTINUOUS
 10
3.2703235691
 20
16.8466852974
 11
8.0421625473
 21
19.1407607838
  0
LINE
  5
27B
100
AcDbEntity
  8
268
100
AcDbLine
 62
250
  6
CONTINUOUS
 10
3.497939069
 20
16.7328775475
 11
8.4840034152
 21
19.1299425035
  0
LINE
  5
27C
100
AcDbEntity
  8
218_STAMPATO
100
AcDbLine
 62
7
  6
CONTINUOUS
 10
12.8152888094
 20
22.7393834565
 11
9.2422151109
 21
21.0339501397
  0
LINE
  5
27D
100
AcDbEntity
  8
268
100
AcDbLine
 62
7
  6
CONTINUOUS
 10
-12.9743208663
 20
20.5332298163
 11
-12.9743208663
 21
19.5742104459
  0
LINE
  5
27E
100
AcDbEntity
  8
268
100
AcDbLine
 62
7
  6
CONTINUOUS
 10
-12.6853074135
 20
21.4309034988
 11
-12.6853074135
 21
21.8832344744
  0
LINE
  5
27F
100
AcDbEntity
  8
268
100
AcDbLine
 62
7
  6
CONTINUOUS
 10
-11.7825239056
 20
21.7879459161
 11
-11.7825239056
 21
21.5345745224
  0
LINE
  5
280
100
AcDbEntity
  8
268
100
AcDbLine
 62
7
  6
CONTINUOUS
 10
-11.0713032975
 20
20.6239014408
 11
-11.0713032975
 21
21.2610709995
  0
LINE
  5
281
100
AcDbEntity
  8
284
100
AcDbLine
 62
7
  6
CONTINUOUS
 10
-10.0056587498
 20
16.7340224101
 11
-10.0733280413
 21
16.3677837954
  0
LINE
  5
282
100
AcDbEntity
  8
268
100
AcDbLine
 62
250
  6
CONTINUOUS
 10
3.8739266122
 20
15.7318426449
 11
9.2322533923
 21
18.6227828719
  0
LINE
  5
283
100
AcDbEntity
  8
268
100
AcDbLine
 62
250
  6
CONTINUOUS
 10
3.507306459
 20
15.2856305188
 11
9.1481018247
 21
18.328969028
  0
LINE
  5
284
100
AcDbEntity
  8
715
100
AcDbLine
 62
7
  6
CONTINUOUS
 10
9.4232526952
 20
18.7510255512
 11
10.2389865518
 21
19.1811781435
  0
LINE
  5
285
100
AcDbEntity
  8
715
100
AcDbLine
 62
250
  6
CONTINUOUS
 10
10.2388587698
 20
19.1811107566
 11
10.2389865518
 21
19.1811781435
  0
LINE
  5
286
100
AcDbEntity
  8
218_STAMPATO
100
AcDbLine
 62
7
  6
CONTINUOUS
 10
4.0959927018
 20
14.8117992387
 11
9.6906775167
 21
17.7507429565
  0
LINE
  5
287
100
AcDbEntity
  8
268
100
AcDbLine
 62
250
  6
CONTINUOUS
 10
3.4189165042
 20
15.1503373375
 11
9.1481018247
 21
18.1167098739
  0
LINE
  5
288
100
AcDbEntity
  8
268
100
AcDbLine
 62
7
  6
CONTINUOUS
 10
3.5386826348
 20
15.0904542722
 11
9.2303115371
 21
18.0373814038
  0
LINE
  5
289
100
AcDbEntity
  8
268
100
AcDbLine
 62
250
  6
CONTINUOUS
 10
3.5012671353
 20
14.40961293
 11
1.7335001823
 21
13.5068352305
  0
LINE
  5
28A
100
AcDbEntity
  8
268
100
AcDbLine
 62
7
  6
CONTINUOUS
 10
3.3598457791
 20
14.4803236081
 11
2.2930148669
 21
13.9417423586
  0
LINE
  5
28B
100
AcDbEntity
  8
218_STAMPATO
100
AcDbLine
 62
7
  6
CONTINUOUS
 10
13.8586378093
 20
21.7196154712
 11
9.6362010447
 21
19.6015752788
  0
LINE
  5
28C
100
AcDbEntity
  8
268
100
AcDbLine
 62
7
  6
CONTINUOUS
 10
1.7585649882
 20
15.4096524122
 11
3.3598457791
 21
16.2123744157
  0
LINE
  5
28D
100
AcDbEntity
  8
715
100
AcDbLine
 62
7
  6
CONTINUOUS
 10
10.3672739806
 20
18.9580864122
 11
10.8622487275
 21
19.2055737856
  0
LINE
  5
28E
100
AcDbEntity
  8
715
100
AcDbLine
 62
7
  6
CONTINUOUS
 10
13.33042664
 20
19.3860736379
 11
12.0189623289
 21
18.7303414824
  0
LINE
  5
28F
100
AcDbEntity
  8
715
100
AcDbLine
 62
7
  6
CONTINUOUS
 10
11.3177385871
 20
18.3797296114
 11
11.100085828
 21
18.2709032319
  0
LINE
  5
290
100
AcDbEntity
  8
268
100
AcDbLine
 62
7
  6
CONTINUOUS
 10
3.3598457791
 20
16.2123744157
 11
3.8881129508
 21
16.4758132357
  0
LINE
  5
291
100
AcDbEntity
  8
268
100
AcDbLine
 62
250
  6
CONTINUOUS
 10
4.2083739165
 20
14.7556086314
 11
3.5012671353
 21
14.40961293
  0
LINE
  5
292
100
AcDbEntity
  8
268
100
AcDbLine
 62
7
  6
CONTINUOUS
 10
1.9809875557
 20
13.0555756053
 11
2.7941603541
 21
13.3398772732
  0
LINE
  5
293
100
AcDbEntity
  8
268
100
AcDbLine
 62
7
  6
CONTINUOUS
 10
-10.0044723854
 20
21.1624826903
 11
-10.0044723854
 21
22.8945334979
  0
LINE
  5
294
100
AcDbEntity
  8
268
100
AcDbLine
 62
7
  6
CONTINUOUS
 10
-9.3014794311
 20
23.0298549956
 11
-9.3014794311
 21
22.7689260193
  0
LINE
  5
295
100
AcDbEntity
  8
268
100
AcDbLine
 62
7
  6
CONTINUOUS
 10
-7.5649539903
 20
16.8695270078
 11
-7.6523344355
 21
15.9542389934
  0
LINE
  5
296
100
AcDbEntity
  8
0
100
AcDbLine
 62
250
  6
CONTINUOUS
 10
-1.3413927755
 20
12.0018161625
 11
-5.4675618637
 21
9.4836922157
  0
LINE
  5
297
100
AcDbEntity
  8
0
100
AcDbLine
 62
250
  6
CONTINUOUS
 10
-0.716523732
 20
11.0596067977
 11
-4.8527596757
 21
8.5353392369
  0
LINE
  5
298
100
AcDbEntity
  8
268
100
AcDbLine
 62
250
  6
CONTINUOUS
 10
3.7487545087
 20
13.98274881
 11
1.9809875557
 21
13.0799711106
  0
LINE
  5
299
100
AcDbEntity
  8
218_STAMPATO
100
AcDbLine
 62
250
  6
CONTINUOUS
 10
18.6438840358
 20
19.4051237957
 11
4.4558612899
 21
12.1869276768
  0
LINE
  5
29A
100
AcDbEntity
  8
268
100
AcDbLine
 62
250
  6
CONTINUOUS
 10
0.1700497772
 20
11.5042880882
 11
-0.7157105003
 21
11.0579927803
  0
LINE
  5
29B
100
AcDbEntity
  8
268
100
AcDbLine
 62
250
  6
CONTINUOUS
 10
0.7885353378
 20
10.2402970032
 11
-0.581179594
 21
9.5501584152
  0
LINE
  5
29C
100
AcDbEntity
  8
715
100
AcDbLine
 62
7
  6
CONTINUOUS
 10
14.1789573477
 20
18.9618108543
 11
13.0743308095
 21
18.4094975852
  0
LINE
  5
29D
100
AcDbEntity
  8
268
100
AcDbLine
 62
250
  6
CONTINUOUS
 10
4.4558612899
 20
14.3287445114
 11
3.7487545087
 21
13.98274881
  0
LINE
  5
29E
100
AcDbEntity
  8
218_STAMPATO
100
AcDbLine
 62
250
  6
CONTINUOUS
 10
10.4362044524
 20
16.4648991976
 11
18.0081378501
 21
20.1429589362
  0
LINE
  5
29F
100
AcDbEntity
  8
218_STAMPATO
100
AcDbLine
 62
250
  6
CONTINUOUS
 10
10.7738727862
 20
15.8825074706
 11
18.5080616977
 21
19.6393826769
  0
LINE
  5
2A0
100
AcDbEntity
  8
218_STAMPATO
100
AcDbLine
 62
7
  6
CONTINUOUS
 10
17.4757399922
 20
20.4091578651
 11
13.9123091556
 21
18.6989031173
  0
LINE
  5
2A1
100
AcDbEntity
  8
268
100
AcDbLine
 62
7
  6
CONTINUOUS
 10
-7.8267153824
 20
20.6364695585
 11
-7.8267153824
 21
19.4217361723
  0
LINE
  5
2A2
100
AcDbEntity
  8
268
100
AcDbLine
 62
250
  6
CONTINUOUS
 10
-7.7388474167
 20
20.5299606017
 11
-7.7388474167
 21
19.3150057356
  0
LINE
  5
2A3
100
AcDbEntity
  8
268
100
AcDbLine
 62
7
  6
CONTINUOUS
 10
-7.5649539903
 20
17.8285463783
 11
-7.5649539903
 21
16.8695270078
  0
LINE
  5
2A4
100
AcDbEntity
  8
284
100
AcDbLine
 62
7
  6
CONTINUOUS
 10
-5.7630180627
 20
14.6127020666
 11
-5.8306873542
 21
14.2464634519
  0
LINE
  5
2A5
100
AcDbEntity
  8
268
100
AcDbLine
 62
7
  6
CONTINUOUS
 10
3.9749646141
 20
15.8548156491
 11
3.4477198983
 21
15.213107921
  0
LINE
  5
2A6
100
AcDbEntity
  8
218_STAMPATO
100
AcDbLine
 62
250
  6
CONTINUOUS
 10
19.0580345115
 20
17.9734902211
 11
4.4558612899
 21
10.5445938933
  0
LINE
  5
2A7
100
AcDbEntity
  8
268
100
AcDbLine
 62
7
  6
CONTINUOUS
 10
-6.4689384794
 20
16.9336578433
 11
-6.4689384794
 21
17.2805386229
  0
LINE
  5
2A8
100
AcDbEntity
  8
268
100
AcDbLine
 62
7
  6
CONTINUOUS
 10
0.844312631
 20
-6.3478846311
 11
1.0617487402
 21
-6.4566026858
  0
LINE
  5
2A9
100
AcDbEntity
  8
284
100
AcDbLine
 62
7
  6
CONTINUOUS
 10
-5.33658905
 20
13.9994142998
 11
-5.4114014746
 21
14.8337725129
  0
LINE
  5
2AA
100
AcDbEntity
  8
268
100
AcDbLine
 62
7
  6
CONTINUOUS
 10
-2.615206522
 20
15.3536726441
 11
-2.615206522
 21
14.3946532737
  0
LINE
  5
2AB
100
AcDbEntity
  8
268
100
AcDbLine
 62
7
  6
CONTINUOUS
 10
-2.615206522
 20
14.3946532737
 11
-2.751677741
 21
12.9651518473
  0
LINE
  5
2AC
100
AcDbEntity
  8
0
100
AcDbLine
 62
7
  6
CONTINUOUS
 10
2.3952270376
 20
-23.6447197641
 11
-0.716523732
 21
11.0596067977
  0
LINE
  5
2AD
100
AcDbEntity
  8
268
100
AcDbLine
 62
250
  6
CONTINUOUS
 10
-1.9463383487
 20
16.4187512016
 11
-1.9463383487
 21
17.6337060677
  0
LINE
  5
2AE
100
AcDbEntity
  8
268
100
AcDbLine
 62
7
  6
CONTINUOUS
 10
-1.5899016892
 20
20.5953154599
 11
-1.5899016892
 21
21.9219958953
  0
LINE
  5
2AF
100
AcDbEntity
  8
268
100
AcDbLine
 62
250
  6
CONTINUOUS
 10
-1.5233119971
 20
16.4203900491
 11
-1.5233119971
 21
17.634593522
  0
LINE
  5
2B0
100
AcDbEntity
  8
268
100
AcDbLine
 62
7
  6
CONTINUOUS
 10
-1.2363482987
 20
21.1926610107
 11
-1.2363482987
 21
21.7452192
  0
LINE
  5
2B1
100
AcDbEntity
  8
268
100
AcDbLine
 62
250
  6
CONTINUOUS
 10
-1.1656376205
 20
23.3614274976
 11
-1.1656376205
 21
22.1295933162
  0
LINE
  5
2B2
100
AcDbEntity
  8
268
100
AcDbLine
 62
7
  6
CONTINUOUS
 10
-1.0777696549
 20
23.4664247115
 11
-1.0777696549
 21
22.2340561067
  0
LINE
  5
2B3
100
AcDbEntity
  8
268
100
AcDbLine
 62
7
  6
CONTINUOUS
 10
-1.0242162643
 20
17.8847901951
 11
-1.0242162643
 21
16.6723546298
  0
LINE
  5
2B4
100
AcDbEntity
  8
268
100
AcDbLine
 62
7
  6
CONTINUOUS
 10
-0.0239822034
 20
-25.8976718619
 11
-0.0239822034
 21
-25.6443004681
  0
LINE
  5
2B5
100
AcDbEntity
  8
268
100
AcDbLine
 62
7
  6
CONTINUOUS
 10
-0.0239822034
 20
15.6553036713
 11
-0.0239822034
 21
15.908675065
  0
LINE
  5
2B6
100
AcDbEntity
  8
268
100
AcDbLine
 62
7
  6
CONTINUOUS
 10
0.043817121
 20
2.5797768834
 11
0.7885353378
 21
10.2402970032
  0
LINE
  5
2B7
100
AcDbEntity
  8
268
100
AcDbLine
 62
7
  6
CONTINUOUS
 10
1.0617487402
 20
-6.4566026858
 11
2.7941603541
 21
-22.8707635932
  0
LINE
  5
2B8
100
AcDbEntity
  8
268
100
AcDbLine
 62
7
  6
CONTINUOUS
 10
0.6790107509
 20
14.7487444166
 11
0.6790107509
 21
15.2010753922
  0
LINE
  5
2B9
100
AcDbEntity
  8
268
100
AcDbLine
 62
7
  6
CONTINUOUS
 10
1.521368148
 20
22.236101744
 11
1.521368148
 21
21.9653014514
  0
LINE
  5
2BA
100
AcDbEntity
  8
268
100
AcDbLine
 62
7
  6
CONTINUOUS
 10
1.5817942588
 20
15.1057868339
 11
1.5817942588
 21
14.8524154402
  0
LINE
  5
2BB
100
AcDbEntity
  8
268
100
AcDbLine
 62
7
  6
CONTINUOUS
 10
1.5817942588
 20
-26.4471886992
 11
1.5817942588
 21
-26.700560093
  0
LINE
  5
2BC
100
AcDbEntity
  8
268
100
AcDbLine
 62
7
  6
CONTINUOUS
 10
1.9809875557
 20
13.0799711106
 11
1.9809875557
 21
13.0555756053
  0
LINE
  5
2BD
100
AcDbEntity
  8
268
100
AcDbLine
 62
7
  6
CONTINUOUS
 10
1.9809875557
 20
-25.0495421612
 11
1.9809875557
 21
-25.0739376665
  0
LINE
  5
2BE
100
AcDbEntity
  8
218_STAMPATO
100
AcDbLine
 62
250
  6
CONTINUOUS
 10
2.2115798423
 20
23.31388588
 11
2.2115798423
 21
23.7241049229
  0
LINE
  5
2BF
100
AcDbEntity
  8
268
100
AcDbLine
 62
7
  6
CONTINUOUS
 10
2.2930148669
 20
-25.4706922221
 11
2.2930148669
 21
-25.066070131
  0
LINE
  5
2C0
100
AcDbEntity
  8
268
100
AcDbLine
 62
7
  6
CONTINUOUS
 10
2.2930148669
 20
13.9417423586
 11
2.2930148669
 21
14.5789119173
  0
LINE
  5
2C1
100
AcDbEntity
  8
268
100
AcDbLine
 62
7
  6
CONTINUOUS
 10
2.7941603541
 20
11.6899698356
 11
1.0617487402
 21
-6.4566026858
  0
LINE
  5
2C2
100
AcDbEntity
  8
268
100
AcDbLine
 62
7
  6
CONTINUOUS
 10
0.4883923291
 20
-1.596257923
 11
0.4520674021
 21
-1.973303399
  0
LINE
  5
2C3
100
AcDbEntity
  8
218_STAMPATO
100
AcDbLine
 62
7
  6
CONTINUOUS
 10
19.3386947111
 20
12.1411183987
 11
20.2538714982
 21
12.7330470178
  0
LINE
  5
2C4
100
AcDbEntity
  8
268
100
AcDbLine
 62
250
  6
CONTINUOUS
 10
0.4883923291
 20
-1.596257923
 11
0.4212191775
 21
-1.6292633591
  0
LINE
  5
2C5
100
AcDbEntity
  8
268
100
AcDbLine
 62
7
  6
CONTINUOUS
 10
2.7941603541
 20
13.3398772732
 11
2.7941603541
 21
11.6899698356
  0
LINE
  5
2C6
100
AcDbEntity
  8
268
100
AcDbLine
 62
7
  6
CONTINUOUS
 10
2.7941603541
 20
-22.8707635932
 11
2.7941603541
 21
-24.5206710308
  0
LINE
  5
2C7
100
AcDbEntity
  8
218_STAMPATO
100
AcDbLine
 62
7
  6
CONTINUOUS
 10
2.8942900402
 20
23.6563439722
 11
2.8942900402
 21
23.2233312703
  0
LINE
  5
2C8
100
AcDbEntity
  8
268
100
AcDbLine
 62
7
  6
CONTINUOUS
 10
3.3598457791
 20
-24.5440571628
 11
3.3598457791
 21
-26.049665289
  0
LINE
  5
2C9
100
AcDbEntity
  8
268
100
AcDbLine
 62
7
  6
CONTINUOUS
 10
3.3598457791
 20
14.4803236081
 11
3.3598457791
 21
16.2123744157
  0
LINE
  5
2CA
100
AcDbEntity
  8
715
100
AcDbLine
 62
7
  6
CONTINUOUS
 10
3.8931173846
 20
22.0920402127
 11
3.8931173846
 21
21.96898455
  0
LINE
  5
2CB
100
AcDbEntity
  8
268
100
AcDbLine
 62
7
  6
CONTINUOUS
 10
4.0628387333
 20
16.3476959134
 11
4.0628387333
 21
16.0867669371
  0
LINE
  5
2CC
100
AcDbEntity
  8
268
100
AcDbLine
 62
7
  6
CONTINUOUS
 10
4.0628387333
 20
-25.2128372023
 11
4.0628387333
 21
-25.4737661787
  0
LINE
  5
2CD
100
AcDbEntity
  8
715
100
AcDbLine
 62
7
  6
CONTINUOUS
 10
4.1445964651
 20
22.5643999168
 11
4.1445964651
 21
21.961486535
  0
LINE
  5
2CE
100
AcDbEntity
  8
218_STAMPATO
100
AcDbLine
 62
7
  6
CONTINUOUS
 10
4.3497952727
 20
23.5969214063
 11
4.3497952727
 21
23.2844925465
  0
LINE
  5
2CF
100
AcDbEntity
  8
268
100
AcDbLine
 62
250
  6
CONTINUOUS
 10
4.3900564309
 20
20.5848058055
 11
4.3900564309
 21
19.3529672271
  0
LINE
  5
2D0
100
AcDbEntity
  8
218_STAMPATO
100
AcDbLine
 62
7
  6
CONTINUOUS
 10
4.4558612899
 20
10.5445938933
 11
4.4558612899
 21
-20.0636867151
  0
LINE
  5
2D1
100
AcDbEntity
  8
268
100
AcDbLine
 62
7
  6
CONTINUOUS
 10
4.4558612899
 20
-23.8478373333
 11
4.4558612899
 21
14.3287445114
  0
LINE
  5
2D2
100
AcDbEntity
  8
268
100
AcDbLine
 62
7
  6
CONTINUOUS
 10
4.4766938593
 20
20.6891931808
 11
4.4766938593
 21
19.456824689
  0
LINE
  5
2D3
100
AcDbEntity
  8
715
100
AcDbLine
 62
7
  6
CONTINUOUS
 10
4.5943411265
 20
22.4426520836
 11
4.5943411265
 21
21.9714113793
  0
LINE
  5
2D4
100
AcDbEntity
  8
0
100
AcDbLine
 62
250
  6
CONTINUOUS
 10
-6.4202574849
 20
7.6818627377
 11
-20.7489909927
 21
14.8462294916
  0
LINE
  5
2D5
100
AcDbEntity
  8
218_STAMPATO
100
AcDbLine
 62
7
  6
CONTINUOUS
 10
6.4340166068
 20
25.7588921201
 11
6.4340166068
 21
25.4319260724
  0
LINE
  5
2D6
100
AcDbEntity
  8
0
100
AcDbLine
 62
250
  6
CONTINUOUS
 10
-5.4675618637
 20
9.4836922157
 11
-19.8219318802
 21
16.6608772239
  0
LINE
  5
2D7
100
AcDbEntity
  8
268
100
AcDbLine
 62
7
  6
CONTINUOUS
 10
9.2322533923
 20
18.6227828719
 11
9.232299863
 21
18.6166455338
  0
LINE
  5
2D8
100
AcDbEntity
  8
268
100
AcDbLine
 62
250
  6
CONTINUOUS
 10
9.1481018247
 20
18.328969028
 11
9.1481018247
 21
18.1167098739
  0
LINE
  5
2D9
100
AcDbEntity
  8
268
100
AcDbLine
 62
250
  6
CONTINUOUS
 10
9.1481018247
 20
-18.6475368024
 11
9.1481018247
 21
-18.8150264006
  0
LINE
  5
2DA
100
AcDbEntity
  8
268
100
AcDbLine
 62
7
  6
CONTINUOUS
 10
9.2322998846
 20
18.6165899063
 11
9.2322998846
 21
18.0406267167
  0
LINE
  5
2DB
100
AcDbEntity
  8
268
100
AcDbLine
 62
7
  6
CONTINUOUS
 10
9.2322998846
 20
-18.603306722
 11
9.2322998846
 21
-18.8942497678
  0
LINE
  5
2DC
100
AcDbEntity
  8
218_STAMPATO
100
AcDbLine
 62
250
  6
CONTINUOUS
 10
9.6362010447
 20
19.6015752788
 11
9.6362010447
 21
20.0117943217
  0
LINE
  5
2DD
100
AcDbEntity
  8
218_STAMPATO
100
AcDbLine
 62
7
  6
CONTINUOUS
 10
10.3189112426
 20
19.944033371
 11
10.3189112426
 21
19.5110206691
  0
LINE
  5
2DE
100
AcDbEntity
  8
715
100
AcDbLine
 62
7
  6
CONTINUOUS
 10
11.3177385871
 20
18.3797296114
 11
11.3177385871
 21
18.2566739575
  0
LINE
  5
2DF
100
AcDbEntity
  8
715
100
AcDbLine
 62
7
  6
CONTINUOUS
 10
11.5692176676
 20
18.8520893155
 11
11.5692176676
 21
18.2491759364
  0
LINE
  5
2E0
100
AcDbEntity
  8
268
100
AcDbLine
 62
7
  6
CONTINUOUS
 10
9.2322533923
 20
-18.8951613305
 11
9.232299863
 21
-18.8944193757
  0
LINE
  5
2E1
100
AcDbEntity
  8
218_STAMPATO
100
AcDbLine
 62
7
  6
CONTINUOUS
 10
19.3386947111
 20
0.1899678265
 11
20.253871498
 21
0.7818964455
  0
LINE
  5
2E2
100
AcDbEntity
  8
0
100
AcDbLine
 62
7
  6
CONTINUOUS
 10
-15.9076631747
 20
19.2849513621
 11
-1.3413927755
 21
12.0018161625
  0
LINE
  5
2E3
100
AcDbEntity
  8
268
100
AcDbLine
 62
7
  6
CONTINUOUS
 10
-10.6231527275
 20
16.9008893405
 11
-10.0296566621
 21
16.6041413078
  0
LINE
  5
2E4
100
AcDbEntity
  8
268
100
AcDbLine
 62
7
  6
CONTINUOUS
 10
-2.751677741
 20
12.9651518473
 11
0.1700497772
 21
11.5042880882
  0
LINE
  5
2E5
100
AcDbEntity
  8
284
100
AcDbLine
 62
7
  6
CONTINUOUS
 10
-10.0056587498
 20
16.7340224101
 11
-5.7630180627
 21
14.6127020666
  0
LINE
  5
2E6
100
AcDbEntity
  8
284
100
AcDbLine
 62
7
  6
CONTINUOUS
 10
-9.6540421617
 20
16.9550928565
 11
-5.4114014746
 21
14.8337725129
  0
LINE
  5
2E7
100
AcDbEntity
  8
268
100
AcDbLine
 62
250
  6
CONTINUOUS
 10
-7.1637045457
 20
15.7203813062
 11
-2.7016341199
 21
13.4893460933
  0
LINE
  5
2E8
100
AcDbEntity
  8
218_STAMPATO
100
AcDbLine
 62
250
  6
CONTINUOUS
 10
1.8175939084
 20
24.7462607409
 11
2.2115798423
 21
23.7241049229
  0
LINE
  5
2E9
100
AcDbEntity
  8
715
100
AcDbLine
 62
7
  6
CONTINUOUS
 10
3.6391268829
 20
22.322159961
 11
3.437627525
 21
22.9178843868
  0
LINE
  5
2EA
100
AcDbEntity
  8
218_STAMPATO
100
AcDbLine
 62
7
  6
CONTINUOUS
 10
11.7744164752
 20
19.5721819452
 11
11.7744164752
 21
19.8846108051
  0
LINE
  5
2EB
100
AcDbEntity
  8
715
100
AcDbLine
 62
7
  6
CONTINUOUS
 10
12.0189623289
 20
18.7303414824
 11
12.0189623289
 21
18.2591007748
  0
LINE
  5
2EC
100
AcDbEntity
  8
218_STAMPATO
100
AcDbLine
 62
250
  6
CONTINUOUS
 10
12.3188219033
 20
-15.9216557727
 11
12.3188219033
 21
-7.7487427918
  0
LINE
  5
2ED
100
AcDbEntity
  8
218_STAMPATO
100
AcDbLine
 62
7
  6
CONTINUOUS
 10
12.599482103
 20
-15.5743265874
 11
12.599482103
 21
-8.2875437651
  0
LINE
  5
2EE
100
AcDbEntity
  8
218_STAMPATO
100
AcDbLine
 62
7
  6
CONTINUOUS
 10
13.8586378093
 20
22.0465815189
 11
13.8586378093
 21
21.7196154712
  0
LWPOLYLINE
  5
2EF
100
AcDbEntity
  8
218_STAMPATO
100
AcDbPolyline
 62
7
  6
CONTINUOUS
 90
35
 70
0
 10
12.5994819573
 20
-8.2881915928
 10
12.5996639743
 20
-8.2749541974
 10
12.6002889366
 20
-8.2603192969
 10
12.6013818997
 20
-8.2454354369
 10
12.6029568269
 20
-8.2303992713
 10
12.6050296216
 20
-8.2152273874
 10
12.6076155435
 20
-8.1999390496
 10
12.6107117034
 20
-8.1846345603
 10
12.6143217314
 20
-8.1693435266
 10
12.6184535001
 20
-8.154073803
 10
12.6230971667
 20
-8.1388911647
 10
12.6282499685
 20
-8.1238214784
 10
12.6339134321
 20
-8.1088754961
 10
12.6400763592
 20
-8.0940943468
 10
12.6467343735
 20
-8.0794959688
 10
12.6538827961
 20
-8.0650975058
 10
12.6615047179
 20
-8.0509368554
 10
12.6695913253
 20
-8.0370313731
 10
12.6781346755
 20
-8.0233956175
 10
12.6871146614
 20
-8.010060863
 10
12.6965198302
 20
-7.9970415873
 10
12.7063387199
 20
-7.9843512235
 10
12.7165474898
 20
-7.9720168136
 10
12.7271322667
 20
-7.9600500901
 10
12.7380787952
 20
-7.9484623116
 10
12.74935938
 20
-7.9372767898
 10
12.7609590046
 20
-7.9265014384
 10
12.7728602838
 20
-7.916145631
 10
12.7850287794
 20
-7.9062311737
 10
12.7974471488
 20
-7.8967628824
 10
12.8100964582
 20
-7.8877461045
 10
12.8229367059
 20
-7.8791988891
 10
12.8359407871
 20
-7.8711270583
 10
12.84909626
 20
-7.8635263672
 10
12.8547423111
 20
-7.8604312589
  0
LINE
  5
2F0
100
AcDbEntity
  8
218_STAMPATO
100
AcDbLine
 62
7
  6
CONTINUOUS
 10
19.3396747259
 20
12.1599564856
 11
19.3396959382
 21
12.1600139662
  0
LINE
  5
2F1
100
AcDbEntity
  8
218_STAMPATO
100
AcDbLine
 62
250
  6
CONTINUOUS
 10
19.0580345115
 20
-4.1127829808
 11
12.3188219033
 21
-7.7487427918
  0
LINE
  5
2F2
100
AcDbEntity
  8
218_STAMPATO
100
AcDbLine
 62
7
  6
CONTINUOUS
 10
18.8135185316
 20
-4.6455346666
 11
12.8545680486
 21
-7.8605251605
  0
LINE
  5
2F3
100
AcDbEntity
  8
268
100
AcDbLine
 62
7
  6
CONTINUOUS
 10
-12.9743208663
 20
19.5742104459
 11
-7.5649539903
 21
16.8695270078
  0
LINE
  5
2F4
100
AcDbEntity
  8
268
100
AcDbLine
 62
7
  6
CONTINUOUS
 10
-2.615206522
 20
14.3946532737
 11
2.7941603541
 21
11.6899698356
  0
LINE
  5
2F5
100
AcDbEntity
  8
268
100
AcDbLine
 62
250
  6
CONTINUOUS
 10
-6.4689384794
 20
16.9336578433
 11
-2.615206522
 21
15.0067918646
  0
LINE
  5
2F6
100
AcDbEntity
  8
268
100
AcDbLine
 62
7
  6
CONTINUOUS
 10
-13.7874936647
 20
20.9398162155
 11
1.9809875557
 21
13.0555756053
  0
LINE
  5
2F7
100
AcDbEntity
  8
268
100
AcDbLine
 62
7
  6
CONTINUOUS
 10
1.7335001823
 20
13.5068352305
 11
-13.5400062913
 21
21.1435884673
  0
LINE
  5
2F8
100
AcDbEntity
  8
268
100
AcDbLine
 62
7
  6
CONTINUOUS
 10
2.2930148669
 20
13.9417423586
 11
0.6790107509
 21
14.7487444166
  0
LINE
  5
2F9
100
AcDbEntity
  8
268
100
AcDbLine
 62
7
  6
CONTINUOUS
 10
-11.0713032975
 20
20.6239014408
 11
-12.6853074135
 21
21.4309034988
  0
LINE
  5
2FA
100
AcDbEntity
  8
268
100
AcDbLine
 62
7
  6
CONTINUOUS
 10
-7.7388474167
 20
19.3150057356
 11
-1.9463383487
 21
16.4187512016
  0
LINE
  5
2FB
100
AcDbEntity
  8
268
100
AcDbLine
 62
7
  6
CONTINUOUS
 10
-13.3237056218
 20
22.2024335786
 11
-11.7171720587
 21
21.3991667971
  0
LINE
  5
2FC
100
AcDbEntity
  8
268
100
AcDbLine
 62
7
  6
CONTINUOUS
 10
0.0406125426
 20
15.5202744964
 11
1.6471461057
 21
14.7170077149
  0
LINE
  5
2FD
100
AcDbEntity
  8
268
100
AcDbLine
 62
7
  6
CONTINUOUS
 10
0.0638919159
 20
-25.4123491801
 11
0.1942181677
 21
-25.2537295478
  0
LINE
  5
2FE
100
AcDbEntity
  8
268
100
AcDbLine
 62
7
  6
CONTINUOUS
 10
2.2930148669
 20
14.5789119173
 11
1.6706968348
 21
14.7088524998
  0
LINE
  5
2FF
100
AcDbEntity
  8
268
100
AcDbLine
 62
250
  6
CONTINUOUS
 10
-13.3883003678
 20
22.3374627535
 11
-11.7825239056
 21
21.5345745224
  0
LINE
  5
300
100
AcDbEntity
  8
268
100
AcDbLine
 62
250
  6
CONTINUOUS
 10
-0.0239822034
 20
15.6553036713
 11
1.5817942588
 21
14.8524154402
  0
LINE
  5
301
100
AcDbEntity
  8
268
100
AcDbLine
 62
250
  6
CONTINUOUS
 10
1.5817942588
 20
15.1057868339
 11
-0.0239822034
 21
15.908675065
  0
LINE
  5
302
100
AcDbEntity
  8
268
100
AcDbLine
 62
250
  6
CONTINUOUS
 10
-11.7825239056
 20
21.7879459161
 11
-13.3883003678
 21
22.5908341472
  0
LINE
  5
303
100
AcDbEntity
  8
268
100
AcDbLine
 62
7
  6
CONTINUOUS
 10
-10.0044723854
 20
21.1624826903
 11
-7.8267153824
 21
20.0736041888
  0
LINE
  5
304
100
AcDbEntity
  8
268
100
AcDbLine
 62
7
  6
CONTINUOUS
 10
-1.0242162643
 20
16.6723546298
 11
0.0569056869
 21
16.1317936542
  0
LINE
  5
305
100
AcDbEntity
  8
268
100
AcDbLine
 62
7
  6
CONTINUOUS
 10
3.3598457791
 20
14.4803236081
 11
3.5012671353
 21
14.40961293
  0
LINE
  5
306
100
AcDbEntity
  8
268
100
AcDbLine
 62
250
  6
CONTINUOUS
 10
1.7585649882
 20
15.4096524122
 11
0.1507435792
 21
16.2135631167
  0
LINE
  5
307
100
AcDbEntity
  8
268
100
AcDbLine
 62
250
  6
CONTINUOUS
 10
-11.6057531762
 20
22.0918114944
 11
-13.2135745853
 21
22.8957221989
  0
LINE
  5
308
100
AcDbEntity
  8
268
100
AcDbLine
 62
7
  6
CONTINUOUS
 10
-7.7388474167
 20
20.5299606017
 11
-1.9463383487
 21
17.6337060677
  0
LINE
  5
309
100
AcDbEntity
  8
268
100
AcDbLine
 62
7
  6
CONTINUOUS
 10
4.2083739165
 20
14.7556086314
 11
3.4086418927
 21
15.1554746433
  0
LINE
  5
30A
100
AcDbEntity
  8
268
100
AcDbLine
 62
7
  6
CONTINUOUS
 10
-8.4731982683
 20
21.0963947238
 11
-9.9556762718
 21
21.8376337255
  0
LINE
  5
30B
100
AcDbEntity
  8
268
100
AcDbLine
 62
7
  6
CONTINUOUS
 10
-7.2467559387
 20
20.9960600323
 11
-1.0242162643
 21
17.8847901951
  0
LINE
  5
30C
100
AcDbEntity
  8
268
100
AcDbLine
 62
7
  6
CONTINUOUS
 10
-11.6308179821
 20
23.7077062962
 11
-10.0044723854
 21
22.8945334979
  0
LINE
  5
30D
100
AcDbEntity
  8
268
100
AcDbLine
 62
7
  6
CONTINUOUS
 10
1.7335001823
 20
17.025547214
 11
3.3598457791
 21
16.2123744157
  0
LINE
  5
30E
100
AcDbEntity
  8
268
100
AcDbLine
 62
7
  6
CONTINUOUS
 10
-5.9032530545
 20
21.0263769829
 11
-0.9535055862
 21
18.5515032488
  0
LINE
  5
30F
100
AcDbEntity
  8
218_STAMPATO
100
AcDbLine
 62
250
  6
CONTINUOUS
 10
9.2422151109
 20
21.0339501397
 11
9.6362010447
 21
20.0117943217
  0
LINE
  5
310
100
AcDbEntity
  8
218_STAMPATO
100
AcDbLine
 62
7
  6
CONTINUOUS
 10
19.3396746025
 20
0.2088056006
 11
19.3396958429
 21
0.2088631589
  0
LINE
  5
311
100
AcDbEntity
  8
268
100
AcDbLine
 62
7
  6
CONTINUOUS
 10
1.6706968348
 20
-26.2157516396
 11
2.2930148669
 21
-25.4706922221
  0
LWPOLYLINE
  5
312
100
AcDbEntity
  8
218_STAMPATO
100
AcDbPolyline
 62
7
  6
CONTINUOUS
 90
64
 70
0
 10
-0.9352685315
 20
20.5184347333
 10
-0.9457097834
 20
20.5235302161
 10
-0.9632158651
 20
20.5315375052
 10
-0.9811932029
 20
20.5391131632
 10
-0.9996103068
 20
20.5462509977
 10
-1.0184581011
 20
20.5529567227
 10
-1.0377490707
 20
20.5592436203
 10
-1.0574605458
 20
20.5651130935
 10
-1.0775700642
 20
20.5705683552
 10
-1.0980862321
 20
20.5756211307
 10
-1.118956953
 20
20.5802682843
 10
-1.1401937886
 20
20.5845220513
 10
-1.1618989203
 20
20.5884073822
 10
-1.1840238236
 20
20.5919171552
 10
-1.2065872419
 20
20.5950556893
 10
-1.2297929995
 20
20.5978452177
 10
-1.2537174291
 20
20.6002802076
 10
-1.2782606802
 20
20.6023358381
 10
-1.3033603177
 20
20.603995785
 10
-1.3291191446
 20
20.6052536914
 10
-1.3554065799
 20
20.6060896001
 10
-1.3818067884
 20
20.6064891824
 10
-1.4082827793
 20
20.6064602499
 10
-1.4348442071
 20
20.6060098588
 10
-1.4611460366
 20
20.6051569109
 10
-1.4870981628
 20
20.6039253865
 10
-1.5127725236
 20
20.6023312986
 10
-1.5380694502
 20
20.6003990808
 10
-1.562969045
 20
20.598149494
 10
-1.587480119
 20
20.5955998216
 10
-1.6115469925
 20
20.5927736818
 10
-1.635151017
 20
20.5896915148
 10
-1.6583057601
 20
20.5863689607
 10
-1.6810039359
 20
20.582823554
 10
-1.7032378683
 20
20.5790725858
 10
-1.7250135977
 20
20.5751305764
 10
-1.7463433144
 20
20.5710100309
 10
-1.76722743
 20
20.5667249445
 10
-1.7876654931
 20
20.5622891459
 10
-1.8076667607
 20
20.5577139254
 10
-1.8272335076
 20
20.5530116314
 10
-1.8463642134
 20
20.5481953018
 10
-1.8650607596
 20
20.5432769828
 10
-1.8833328197
 20
20.5382663413
 10
-1.9011716717
 20
20.5331778805
 10
-1.9185506605
 20
20.5280318302
 10
-1.9354577455
 20
20.5228449425
 10
-1.9519076738
 20
20.5176257689
 10
-1.9679125713
 20
20.5123830611
 10
-1.9834522521
 20
20.5071361075
 10
-1.9985481395
 20
20.5018902844
 10
-2.0132698801
 20
20.4966326337
 10
-2.0276160248
 20
20.4913739548
 10
-2.0415811792
 20
20.4861266513
 10
-2.0552215003
 20
20.4808794169
 10
-2.0685196854
 20
20.4756482738
 10
-2.0814758004
 20
20.4704428977
 10
-2.0941619977
 20
20.4652432383
 10
-2.1065408129
 20
20.4600733613
 10
-2.1186130075
 20
20.4549423091
 10
-2.130490466
 20
20.4498109419
 10
-2.1421269878
 20
20.4447073691
 10
-2.153489268
 20
20.4396556285
 10
-2.175683009
 20
20.4296156662
  0
LINE
  5
313
100
AcDbEntity
  8
268
100
AcDbLine
 62
250
  6
CONTINUOUS
 10
-11.0963681034
 20
23.9680537628
 11
-9.4762052136
 21
23.1579723179
  0
LINE
  5
314
100
AcDbEntity
  8
268
100
AcDbLine
 62
250
  6
CONTINUOUS
 10
2.267950061
 20
17.2858946806
 11
3.8881129508
 21
16.4758132357
  0
LINE
  5
315
100
AcDbEntity
  8
268
100
AcDbLine
 62
7
  6
CONTINUOUS
 10
-10.9849504881
 20
23.974322326
 11
-9.3660729099
 21
23.1648835369
  0
LINE
  5
316
100
AcDbEntity
  8
268
100
AcDbLine
 62
7
  6
CONTINUOUS
 10
2.3793676764
 20
17.2921632438
 11
3.9982452546
 21
16.4827244547
  0
LINE
  5
317
100
AcDbEntity
  8
218_STAMPATO
100
AcDbLine
 62
7
  6
CONTINUOUS
 10
-2.0142196059
 20
20.3866583654
 11
0.3606563941
 21
19.1992203654
  0
LINE
  5
318
100
AcDbEntity
  8
218_STAMPATO
100
AcDbLine
 62
250
  6
CONTINUOUS
 10
0.9884213989
 20
19.5086298179
 11
-1.0222467668
 21
20.5139639007
  0
LINE
  5
319
100
AcDbEntity
  8
218_STAMPATO
100
AcDbLine
 62
7
  6
CONTINUOUS
 10
1.0367255371
 20
19.5324377027
 11
-0.9352721904
 21
20.5184365665
  0
LINE
  5
31A
100
AcDbEntity
  8
268
100
AcDbLine
 62
7
  6
CONTINUOUS
 10
1.5641701586
 20
19.7924017821
 11
-1.2363482987
 21
21.1926610107
  0
LINE
  5
31B
100
AcDbEntity
  8
218_STAMPATO
100
AcDbLine
 62
7
  6
CONTINUOUS
 10
10.7738727862
 20
15.8825074706
 11
9.6906775167
 21
17.7507429565
  0
LINE
  5
31C
100
AcDbEntity
  8
715
100
AcDbLine
 62
7
  6
CONTINUOUS
 10
11.0637480854
 20
18.6098493598
 11
10.8622487275
 21
19.2055737856
  0
LWPOLYLINE
  5
31D
100
AcDbEntity
  8
218_STAMPATO
100
AcDbPolyline
 62
7
  6
CONTINUOUS
 90
31
 70
0
 10
19.3386947002
 20
18.3207273889
 10
19.3384074085
 20
18.3552950243
 10
19.3372703372
 20
18.3977861245
 10
19.335276261
 20
18.4403409295
 10
19.3324315093
 20
18.4829646504
 10
19.3287435664
 20
18.5256367994
 10
19.3242233731
 20
18.5683078651
 10
19.3188788888
 20
18.6109717443
 10
19.3127173661
 20
18.6536206779
 10
19.3057533468
 20
18.6962005603
 10
19.2979954342
 20
18.7387048096
 10
19.2894511524
 20
18.7811268345
 10
19.2801388539
 20
18.8234109289
 10
19.2700680716
 20
18.8655483167
 10
19.2592464676
 20
18.9075347342
 10
19.2476942545
 20
18.9493198533
 10
19.2354234828
 20
18.9908874185
 10
19.2224401331
 20
19.0322409336
 10
19.208757303
 20
19.0733584254
 10
19.1943840742
 20
19.1142301703
 10
19.1793269883
 20
19.1548526027
 10
19.1635955161
 20
19.19521166
 10
19.1471964256
 20
19.2353002172
 10
19.130135566
 20
19.2751113205
 10
19.1124216666
 20
19.3146302775
 10
19.0940605637
 20
19.3538487611
 10
19.0750566125
 20
19.3927594949
 10
19.0554166075
 20
19.4313497295
 10
19.0351448967
 20
19.4696103974
 10
19.0142445872
 20
19.5075339214
 10
18.9967272567
 20
19.5382221755
  0
LINE
  5
31E
100
AcDbEntity
  8
218_STAMPATO
100
AcDbLine
 62
250
  6
CONTINUOUS
 10
19.0580345115
 20
-4.1127829808
 11
19.0580345115
 21
0.4424724621
  0
LINE
  5
31F
100
AcDbEntity
  8
218_STAMPATO
100
AcDbLine
 62
250
  6
CONTINUOUS
 10
19.0580345115
 20
2.2149413609
 11
19.0580345115
 21
12.3936230253
  0
LINE
  5
320
100
AcDbEntity
  8
218_STAMPATO
100
AcDbLine
 62
250
  6
CONTINUOUS
 10
19.0580345115
 20
14.1660919427
 11
19.0580345115
 21
17.9734902211
  0
LINE
  5
321
100
AcDbEntity
  8
218_STAMPATO
100
AcDbLine
 62
7
  6
CONTINUOUS
 10
19.3386947111
 20
-3.7654537955
 11
19.3386943401
 21
0.202270347
  0
LINE
  5
322
100
AcDbEntity
  8
218_STAMPATO
100
AcDbLine
 62
7
  6
CONTINUOUS
 10
19.3386947111
 20
18.3207399383
 11
19.3386943098
 21
15.1000370548
  0
LINE
  5
323
100
AcDbEntity
  8
218_STAMPATO
100
AcDbLine
 62
7
  6
CONTINUOUS
 10
19.3386943257
 20
12.1534283077
 11
19.3386943414
 21
3.1489428484
  0
LWPOLYLINE
  5
324
100
AcDbEntity
  8
218_STAMPATO
100
AcDbPolyline
 62
7
  6
CONTINUOUS
 90
6
 70
0
 10
19.3386952288
 20
12.1528043433
 10
19.3387474153
 20
12.1545788145
 10
19.3389479465
 20
12.1566496409
 10
19.3392218673
 20
12.1582512124
 10
19.3394929825
 20
12.1593726406
 10
19.3396747259
 20
12.1599564856
  0
LWPOLYLINE
  5
325
100
AcDbEntity
  8
218_STAMPATO
100
AcDbPolyline
 62
7
  6
CONTINUOUS
 90
6
 70
0
 10
19.3386952157
 20
0.2016523897
 10
19.3387473981
 20
0.2034272468
 10
19.338947799
 20
0.20549821
 10
19.3392217615
 20
0.2071000623
 10
19.3394928748
 20
0.208221663
 10
19.3396746025
 20
0.2088056006
  0
LWPOLYLINE
  5
326
100
AcDbEntity
  8
218_STAMPATO
100
AcDbPolyline
 62
7
  6
CONTINUOUS
 90
40
 70
0
 10
11.979250134
 20
-16.8927686698
 10
11.9988838193
 20
-16.878273341
 10
12.0269790158
 20
-16.8565783031
 10
12.0545820607
 20
-16.834114076
 10
12.0816649024
 20
-16.8108982469
 10
12.1082144973
 20
-16.7869369139
 10
12.1342321535
 20
-16.762222503
 10
12.1596979468
 20
-16.736766359
 10
12.1845925481
 20
-16.7105802547
 10
12.2089167224
 20
-16.6836542863
 10
12.2326512429
 20
-16.6559993807
 10
12.2557762876
 20
-16.627628389
 10
12.2782900476
 20
-16.5985315219
 10
12.3001739661
 20
-16.5687188635
 10
12.3214080881
 20
-16.5382041549
 10
12.3419870641
 20
-16.5069800542
 10
12.36189201
 20
-16.4750580886
 10
12.3811045241
 20
-16.4424505648
 10
12.3996188643
 20
-16.4091483325
 10
12.417415462
 20
-16.3751651934
 10
12.4344776317
 20
-16.3405107282
 10
12.450802233
 20
-16.3051659351
 10
12.4663729722
 20
-16.2691360213
 10
12.4811689307
 20
-16.2324373666
 10
12.4951786471
 20
-16.1950641819
 10
12.5083898117
 20
-16.1570095373
 10
12.5207779425
 20
-16.1183006896
 10
12.5323164234
 20
-16.078981246
 10
12.542991212
 20
-16.0390609527
 10
12.5527877167
 20
-15.998551281
 10
12.5616849773
 20
-15.9574974942
 10
12.5696723436
 20
-15.9159079297
 10
12.5767381322
 20
-15.8737945829
 10
12.5828662009
 20
-15.8312073699
 10
12.5880484023
 20
-15.7881556521
 10
12.5922760785
 20
-15.7446494537
 10
12.5955382413
 20
-15.7007382818
 10
12.5978280926
 20
-15.6564437602
 10
12.5991402899
 20
-15.6117626853
 10
12.5994820933
 20
-15.5743277111
  0
LINE
  5
327
100
AcDbEntity
  8
218_STAMPATO
100
AcDbLine
 62
7
  6
CONTINUOUS
 10
9.6906775167
 20
-18.3625163813
 11
10.7738727862
 21
-17.577476165
  0
LINE
  5
328
100
AcDbEntity
  8
218_STAMPATO
100
AcDbLine
 62
250
  6
CONTINUOUS
 10
11.6987168806
 20
-17.0884033734
 11
11.9046714276
 21
-16.9391388717
  0
LINE
  5
329
100
AcDbEntity
  8
218_STAMPATO
100
AcDbLine
 62
7
  6
CONTINUOUS
 10
11.7732844747
 20
-17.0420412406
 11
11.9792390217
 21
-16.8927767389
  0
LINE
  5
32A
100
AcDbEntity
  8
218_STAMPATO
100
AcDbLine
 62
250
  6
CONTINUOUS
 10
11.6987168806
 20
-17.0884033734
 11
10.7738727862
 21
-17.577476165
  0
LINE
  5
32B
100
AcDbEntity
  8
218_STAMPATO
100
AcDbLine
 62
7
  6
CONTINUOUS
 10
11.6539289507
 20
-17.1163380674
 11
10.752180684
 21
-17.5931974049
  0
LINE
  5
32C
100
AcDbEntity
  8
218_STAMPATO
100
AcDbLine
 62
250
  6
CONTINUOUS
 10
4.4558612899
 20
-20.0636867151
 11
12.3188219033
 21
-15.9216557727
  0
LINE
  5
32D
100
AcDbEntity
  8
218_STAMPATO
100
AcDbLine
 62
250
  6
CONTINUOUS
 10
4.4558612899
 20
-20.863004651
 11
11.9046714276
 21
-16.9391388717
  0
LINE
  5
32E
100
AcDbEntity
  8
268
100
AcDbLine
 62
7
  6
CONTINUOUS
 10
-11.0713032975
 20
21.2610709995
 11
-11.6936213296
 21
21.391011582
  0
LINE
  5
32F
100
AcDbEntity
  8
268
100
AcDbLine
 62
7
  6
CONTINUOUS
 10
-1.5899016892
 20
21.9219958953
 11
-1.2363482987
 21
21.7452192
  0
LINE
  5
330
100
AcDbEntity
  8
268
100
AcDbLine
 62
7
  6
CONTINUOUS
 10
2.9719858548
 20
20.4862784405
 11
0.1614362079
 21
21.891553264
  0
LINE
  5
331
100
AcDbEntity
  8
218_STAMPATO
100
AcDbLine
 62
7
  6
CONTINUOUS
 10
9.1748415132
 20
18.0086609582
 11
9.6906775167
 21
17.7507429565
  0
LINE
  5
332
100
AcDbEntity
  8
268
100
AcDbLine
 62
7
  6
CONTINUOUS
 10
1.521368148
 20
21.9653014514
 11
3.7311090361
 21
20.8604310073
  0
LINE
  5
333
100
AcDbEntity
  8
268
100
AcDbLine
 62
7
  6
CONTINUOUS
 10
4.4766938593
 20
20.4876385957
 11
4.6225072693
 21
20.4147318907
  0
LINE
  5
334
100
AcDbEntity
  8
268
100
AcDbLine
 62
7
  6
CONTINUOUS
 10
-1.3460895977
 20
23.662274004
 11
-1.1656376205
 21
23.5720480154
  0
LINE
  5
335
100
AcDbEntity
  8
268
100
AcDbLine
 62
7
  6
CONTINUOUS
 10
4.2083739165
 20
20.8850422469
 11
4.3888258936
 21
20.7948162583
  0
LINE
  5
336
100
AcDbEntity
  8
268
100
AcDbLine
 62
250
  6
CONTINUOUS
 10
-2.1586579417
 20
24.2411710283
 11
0.8204319592
 21
22.7516260778
  0
LINE
  5
337
100
AcDbEntity
  8
268
100
AcDbLine
 62
250
  6
CONTINUOUS
 10
5.0630726463
 20
20.6303057343
 11
8.0421625473
 21
19.1407607838
  0
LINE
  5
338
100
AcDbEntity
  8
715
100
AcDbLine
 62
7
  6
CONTINUOUS
 10
3.6496217183
 20
22.3169125433
 11
3.8931173846
 21
22.0920402127
  0
LINE
  5
339
100
AcDbEntity
  8
268
100
AcDbLine
 62
7
  6
CONTINUOUS
 10
2.7941603541
 20
-24.5206710308
 11
1.9809875557
 21
-25.0495421612
  0
LINE
  5
33A
100
AcDbEntity
  8
0
100
AcDbLine
 62
250
  6
CONTINUOUS
 10
-1.7484086233
 20
-26.0864607274
 11
2.3952270376
 21
-23.6447197641
  0
LINE
  5
33B
100
AcDbEntity
  8
0
100
AcDbLine
 62
7
  6
CONTINUOUS
 10
2.2492406377
 20
-24.0427561524
 11
-1.8932615535
 21
-26.4838290067
  0
LINE
  5
33C
100
AcDbEntity
  8
218_STAMPATO
100
AcDbLine
 62
7
  6
CONTINUOUS
 10
4.4558612899
 20
-21.1124175416
 11
9.6906775167
 21
-18.3625163813
  0
LINE
  5
33D
100
AcDbEntity
  8
268
100
AcDbLine
 62
250
  6
CONTINUOUS
 10
4.4558612899
 20
-21.3802173283
 11
8.4840034152
 21
-19.3583141448
  0
LINE
  5
33E
100
AcDbEntity
  8
268
100
AcDbLine
 62
7
  6
CONTINUOUS
 10
4.4558612899
 20
-21.3818854091
 11
8.4336243609
 21
-19.3852697072
  0
LINE
  5
33F
100
AcDbEntity
  8
268
100
AcDbLine
 62
250
  6
CONTINUOUS
 10
4.4558612899
 20
-21.1424122976
 11
9.1481018247
 21
-18.8150264006
  0
LINE
  5
340
100
AcDbEntity
  8
268
100
AcDbLine
 62
250
  6
CONTINUOUS
 10
4.4558612899
 20
-21.2642870253
 11
9.2322533923
 21
-18.8951613305
  0
LINE
  5
341
100
AcDbEntity
  8
268
100
AcDbLine
 62
7
  6
CONTINUOUS
 10
0.1614362079
 20
21.891553264
 11
1.521368148
 21
21.9653014514
  0
LINE
  5
342
100
AcDbEntity
  8
715
100
AcDbLine
 62
7
  6
CONTINUOUS
 10
12.0189623289
 20
18.7303414824
 11
11.5692176676
 21
18.8520893155
  0
LINE
  5
343
100
AcDbEntity
  8
715
100
AcDbLine
 62
7
  6
CONTINUOUS
 10
4.5943411265
 20
22.4426520836
 11
4.1445964651
 21
22.5643999168
  0
LINE
  5
344
100
AcDbEntity
  8
268
100
AcDbLine
 62
7
  6
CONTINUOUS
 10
-1.9650149299
 20
24.3902204905
 11
1.2614749623
 21
22.7769755444
  0
LINE
  5
345
100
AcDbEntity
  8
268
100
AcDbLine
 62
7
  6
CONTINUOUS
 10
5.5041156494
 20
20.6556552009
 11
8.7306055416
 21
19.0424102548
  0
LINE
  5
346
100
AcDbEntity
  8
715
100
AcDbLine
 62
7
  6
CONTINUOUS
 10
11.0742429207
 20
18.6046019421
 11
10.3672739806
 21
18.9580864122
  0
LINE
  5
347
100
AcDbEntity
  8
715
100
AcDbLine
 62
7
  6
CONTINUOUS
 10
3.6496217183
 20
22.3169125433
 11
2.9426527782
 21
22.6703970134
  0
LINE
  5
348
100
AcDbEntity
  8
715
100
AcDbLine
 62
7
  6
CONTINUOUS
 10
11.5692176676
 20
18.8520893155
 11
10.8622487275
 21
19.2055737856
  0
LINE
  5
349
100
AcDbEntity
  8
715
100
AcDbLine
 62
7
  6
CONTINUOUS
 10
4.1445964651
 20
22.5643999168
 11
3.437627525
 21
22.9178843868
  0
LINE
  5
34A
100
AcDbEntity
  8
218_STAMPATO
100
AcDbLine
 62
7
  6
CONTINUOUS
 10
9.8865969919
 20
19.7271777945
 11
10.3189112426
 21
19.5110206691
  0
LINE
  5
34B
100
AcDbEntity
  8
218_STAMPATO
100
AcDbLine
 62
7
  6
CONTINUOUS
 10
2.8942900402
 20
23.2233312703
 11
2.4619757894
 21
23.4394883957
  0
LINE
  5
34C
100
AcDbEntity
  8
715
100
AcDbLine
 62
7
  6
CONTINUOUS
 10
11.0742429207
 20
18.6046019421
 11
11.3177385871
 21
18.3797296114
  0
LINE
  5
34D
100
AcDbEntity
  8
268
100
AcDbLine
 62
7
  6
CONTINUOUS
 10
3.3598457791
 20
-26.049665289
 11
3.8881129508
 21
-25.7786542304
  0
LINE
  5
34E
100
AcDbEntity
  8
268
100
AcDbLine
 62
250
  6
CONTINUOUS
 10
3.7487545087
 20
-24.2089484131
 11
4.4558612899
 21
-23.8478373333
  0
LINE
  5
34F
100
AcDbEntity
  8
268
100
AcDbLine
 62
7
  6
CONTINUOUS
 10
3.6587905406
 20
-24.3977584896
 11
4.3658973228
 21
-24.0366474093
  0
LINE
  5
350
100
AcDbEntity
  8
268
100
AcDbLine
 62
7
  6
CONTINUOUS
 10
3.6587857346
 20
-24.3977609445
 11
3.6567781377
 21
-24.3987646519
  0
LINE
  5
351
100
AcDbEntity
  8
268
100
AcDbLine
 62
250
  6
CONTINUOUS
 10
1.9809875557
 20
-25.0739376665
 11
3.7487545087
 21
-24.2089484131
  0
LINE
  5
352
100
AcDbEntity
  8
268
100
AcDbLine
 62
7
  6
CONTINUOUS
 10
1.8890066368
 20
-25.2637561308
 11
3.6567735911
 21
-24.3987668766
  0
LINE
  5
353
100
AcDbEntity
  8
268
100
AcDbLine
 62
7
  6
CONTINUOUS
 10
1.7585649882
 20
-26.8296998887
 11
3.3598457791
 21
-26.049665289
  0
LINE
  5
354
100
AcDbEntity
  8
218_STAMPATO
100
AcDbLine
 62
7
  6
CONTINUOUS
 10
6.4537161348
 20
23.3546157399
 11
7.0852474559
 21
23.0388500793
  0
LINE
  5
355
100
AcDbEntity
  8
218_STAMPATO
100
AcDbLine
 62
7
  6
CONTINUOUS
 10
13.8783373373
 20
19.6423051386
 11
14.5098686583
 21
19.3265394781
  0
LINE
  5
356
100
AcDbEntity
  8
218_STAMPATO
100
AcDbLine
 62
7
  6
CONTINUOUS
 10
14.0618751783
 20
19.5661960707
 11
14.3659945622
 21
19.4141363787
  0
LINE
  5
357
100
AcDbEntity
  8
218_STAMPATO
100
AcDbLine
 62
7
  6
CONTINUOUS
 10
6.9413733598
 20
23.1264469799
 11
6.6372539758
 21
23.2785066719
  0
LINE
  5
358
100
AcDbEntity
  8
218_STAMPATO
100
AcDbLine
 62
7
  6
CONTINUOUS
 10
16.96745338
 20
20.1652076858
 11
13.8586378093
 21
21.7196154712
  0
LINE
  5
359
100
AcDbEntity
  8
218_STAMPATO
100
AcDbLine
 62
7
  6
CONTINUOUS
 10
9.5428321776
 20
23.877518287
 11
6.4340166068
 21
25.4319260724
  0
LINE
  5
35A
100
AcDbEntity
  8
218_STAMPATO
100
AcDbLine
 62
250
  6
CONTINUOUS
 10
17.4757399922
 20
20.4091578651
 11
18.0081378501
 21
20.1429589362
  0
LINE
  5
35B
100
AcDbEntity
  8
218_STAMPATO
100
AcDbLine
 62
250
  6
CONTINUOUS
 10
12.8152888094
 20
22.7393834565
 11
10.0511187897
 21
24.1214684664
  0
LINE
  5
35C
100
AcDbEntity
  8
218_STAMPATO
100
AcDbLine
 62
250
  6
CONTINUOUS
 10
5.3906676069
 20
26.4516940578
 11
4.858269749
 21
26.7178929867
  0
LINE
  5
35D
100
AcDbEntity
  8
218_STAMPATO
100
AcDbLine
 62
7
  6
CONTINUOUS
 10
17.8223719834
 20
20.4756416394
 11
18.4430107306
 21
20.1653222658
  0
LINE
  5
35E
100
AcDbEntity
  8
218_STAMPATO
100
AcDbLine
 62
7
  6
CONTINUOUS
 10
13.3384025792
 20
22.7176263415
 11
10.3977507809
 21
24.1879522406
  0
LINE
  5
35F
100
AcDbEntity
  8
218_STAMPATO
100
AcDbLine
 62
7
  6
CONTINUOUS
 10
5.9137813768
 20
26.4299369427
 11
5.2931426295
 21
26.7402563164
  0
LINE
  5
360
100
AcDbEntity
  8
218_STAMPATO
100
AcDbLine
 62
250
  6
CONTINUOUS
 10
18.5080616977
 20
19.6393826769
 11
18.6438840358
 21
19.4051237957
  0
LINE
  5
361
100
AcDbEntity
  8
218_STAMPATO
100
AcDbLine
 62
7
  6
CONTINUOUS
 10
18.8609049464
 20
19.7724810343
 11
18.9967272846
 21
19.5382221531
  0
ARC
  5
362
100
AcDbEntity
  8
715
100
AcDbCircle
 62
7
  6
CONTINUOUS
 10
-29.2802544294
 20
-47.3779323605
 40
78.8191348932
100
AcDbArc
 50
62.7491355285
 51
63.4099869178
  0
ARC
  5
363
100
AcDbEntity
  8
715
100
AcDbCircle
 62
7
  6
CONTINUOUS
 10
-21.8556332268
 20
-51.0902429614
 40
78.8191348929
100
AcDbArc
 50
62.7491355285
 51
63.4099869178
  0
ARC
  5
364
100
AcDbEntity
  8
268
100
AcDbCircle
 62
7
  6
CONTINUOUS
 10
7.9606439115
 20
-18.4407562163
 40
1.0563227358
100
AcDbArc
 50
296.597158829
 51
299.6997032394
  0
ARC
  5
365
100
AcDbEntity
  8
218_STAMPATO
100
AcDbCircle
 62
7
  6
CONTINUOUS
 10
11.1862236983
 20
-16.2319888092
 40
1.0004125632
100
AcDbArc
 50
301.262116211
 51
305.9315753449
  0
ARC
  5
366
100
AcDbEntity
  8
218_STAMPATO
100
AcDbCircle
 62
7
  6
CONTINUOUS
 10
11.1863542733
 20
-16.2321561906
 40
1.0002018086
100
AcDbArc
 50
297.8705034905
 51
300.3268258143
  0
ARC
  5
367
100
AcDbEntity
  8
218_STAMPATO
100
AcDbCircle
 62
7
  6
CONTINUOUS
 10
11.1864986716
 20
-16.232408729
 40
0.9999109165
100
AcDbArc
 50
300.326990609
 51
301.2611347226
  0
ARC
  5
368
100
AcDbEntity
  8
218_STAMPATO
100
AcDbCircle
 62
250
  6
CONTINUOUS
 10
11.4429263538
 20
-16.3014010065
 40
0.7873487778
100
AcDbArc
 50
305.9058858362
 51
312.1964482229
  0
ARC
  5
369
100
AcDbEntity
  8
218_STAMPATO
100
AcDbCircle
 62
250
  6
CONTINUOUS
 10
11.4086443898
 20
-16.5387111497
 40
0.6215332579
100
AcDbArc
 50
297.8206030168
 51
305.9216450286
  0
ARC
  5
36A
100
AcDbEntity
  8
218_STAMPATO
100
AcDbCircle
 62
250
  6
CONTINUOUS
 10
11.6145989367
 20
-16.3894466479
 40
0.621533258
100
AcDbArc
 50
297.8206030175
 51
305.9216450287
  0
ARC
  5
36B
100
AcDbEntity
  8
218_STAMPATO
100
AcDbCircle
 62
250
  6
CONTINUOUS
 10
11.480323673
 20
-16.7881234306
 40
0.3712999289
100
AcDbArc
 50
297.876076126
 51
306.0283461424
  0
ARC
  5
36C
100
AcDbEntity
  8
715
100
AcDbCircle
 62
7
  6
CONTINUOUS
 10
4.9086466055
 20
19.5639747377
 40
3.7059776186
100
AcDbArc
 50
73.0771937146
 51
74.2386873556
  0
ARC
  5
36D
100
AcDbEntity
  8
715
100
AcDbCircle
 62
7
  6
CONTINUOUS
 10
12.3332678079
 20
15.8516641365
 40
3.7059776187
100
AcDbArc
 50
73.0771937146
 51
74.2386873556
  0
ARC
  5
36E
100
AcDbEntity
  8
715
100
AcDbCircle
 62
7
  6
CONTINUOUS
 10
3.6055729217
 20
19.4154202273
 40
3.4455844559
100
AcDbArc
 50
117.7993772185
 51
119.5014471456
  0
ARC
  5
36F
100
AcDbEntity
  8
715
100
AcDbCircle
 62
7
  6
CONTINUOUS
 10
11.0301941231
 20
15.7031096279
 40
3.4455844537
100
AcDbArc
 50
117.7993772183
 51
119.5014471893
  0
ARC
  5
370
100
AcDbEntity
  8
715
100
AcDbCircle
 62
250
  6
CONTINUOUS
 10
3.5685061815
 20
19.485497012
 40
3.3663061768
100
AcDbArc
 50
117.7975354323
 51
119.5400692539
  0
ARC
  5
371
100
AcDbEntity
  8
715
100
AcDbCircle
 62
250
  6
CONTINUOUS
 10
10.9931273829
 20
15.7731864129
 40
3.3663061744
100
AcDbArc
 50
117.7975354321
 51
119.5400692968
  0
ARC
  5
372
100
AcDbEntity
  8
715
100
AcDbCircle
 62
250
  6
CONTINUOUS
 10
5.9090201174
 20
21.5326995226
 40
1.4828649664
100
AcDbArc
 50
47.0618955651
 51
50.7132643683
  0
ARC
  5
373
100
AcDbEntity
  8
715
100
AcDbCircle
 62
250
  6
CONTINUOUS
 10
13.3336413199
 20
17.8203889214
 40
1.4828649664
100
AcDbArc
 50
47.0618955651
 51
50.7132643683
  0
ARC
  5
374
100
AcDbEntity
  8
218_STAMPATO
100
AcDbCircle
 62
250
  6
CONTINUOUS
 10
19.6455211421
 20
1.7224566312
 40
1.120153386
100
AcDbArc
 50
302.8946182874
 51
303.7605252913
  0
ARC
  5
375
100
AcDbEntity
  8
218_STAMPATO
100
AcDbCircle
 62
7
  6
CONTINUOUS
 10
17.9957968295
 20
19.2708945313
 40
1.000000537
100
AcDbArc
 50
30.1049999827
 51
63.4349132862
  0
ARC
  5
376
100
AcDbEntity
  8
218_STAMPATO
100
AcDbCircle
 62
7
  6
CONTINUOUS
 10
18.3386943524
 20
-3.765453496
 40
1.0000003531
100
AcDbArc
 50
298.3477891843
 51
0.0000676248
  0
ARC
  5
377
100
AcDbEntity
  8
218_STAMPATO
100
AcDbCircle
 62
7
  6
CONTINUOUS
 10
4.845928943
 20
25.845829664
 40
0.9999994409
100
AcDbArc
 50
63.4349188672
 51
115.2504322683
  0
ARC
  5
378
100
AcDbEntity
  8
218_STAMPATO
100
AcDbCircle
 62
7
  6
CONTINUOUS
 10
2.1122594656
 20
22.760377803
 40
0.6892408467
100
AcDbArc
 50
180.0019218096
 51
185.67464815
  0
ARC
  5
379
100
AcDbEntity
  8
218_STAMPATO
100
AcDbCircle
 62
7
  6
CONTINUOUS
 10
9.536880668
 20
19.0480672017
 40
0.6892408466
100
AcDbArc
 50
180.0019218094
 51
185.674647979
  0
ARC
  5
37A
100
AcDbEntity
  8
218_STAMPATO
100
AcDbCircle
 62
250
  6
CONTINUOUS
 10
18.7906445551
 20
0.2016341933
 40
0.548050702
100
AcDbArc
 50
0.066841779
 51
0.8164748466
  0
ARC
  5
37B
100
AcDbEntity
  8
218_STAMPATO
100
AcDbCircle
 62
250
  6
CONTINUOUS
 10
18.7908859827
 20
12.1527888145
 40
0.5478093052
100
AcDbArc
 50
0.0675297826
 51
1.0505415474
  0
ARC
  5
37C
100
AcDbEntity
  8
218_STAMPATO
100
AcDbCircle
 62
250
  6
CONTINUOUS
 10
19.0412618441
 20
12.4799096539
 40
0.445134612
100
AcDbArc
 50
311.9441154472
 51
312.2907422512
  0
ARC
  5
37D
100
AcDbEntity
  8
218_STAMPATO
100
AcDbCircle
 62
250
  6
CONTINUOUS
 10
19.0412625536
 20
0.5287586757
 40
0.4451338341
100
AcDbArc
 50
311.9455969293
 51
312.2895914548
  0
ARC
  5
37E
100
AcDbEntity
  8
218_STAMPATO
100
AcDbCircle
 62
250
  6
CONTINUOUS
 10
19.0478952132
 20
0.5214880319
 40
0.435292366
100
AcDbArc
 50
312.3422645204
 51
313.0187168584
  0
ARC
  5
37F
100
AcDbEntity
  8
218_STAMPATO
100
AcDbCircle
 62
250
  6
CONTINUOUS
 10
19.0479300539
 20
12.4726004255
 40
0.4352406793
100
AcDbArc
 50
312.3442076604
 51
313.022999805
  0
ARC
  5
380
100
AcDbEntity
  8
218_STAMPATO
100
AcDbCircle
 62
250
  6
CONTINUOUS
 10
19.0886276417
 20
-3.7654549271
 40
0.2500669633
100
AcDbArc
 50
359.3409357964
 51
0.0002597188
  0
ARC
  5
381
100
AcDbEntity
  8
218_STAMPATO
100
AcDbCircle
 62
250
  6
CONTINUOUS
 10
12.4224063444
 20
-8.2881860406
 40
0.1770761369
100
AcDbArc
 50
359.9984012685
 51
0.5452110937
  0
ARC
  5
382
100
AcDbEntity
  8
218_STAMPATO
100
AcDbCircle
 62
7
  6
CONTINUOUS
 10
-2.1597942336
 20
20.2621429304
 40
0.1587380553
100
AcDbArc
 50
114.8134763966
 51
131.2434515811
  0
ARC
  5
383
100
AcDbEntity
  8
715
100
AcDbCircle
 62
7
  6
CONTINUOUS
 10
5.9648413912
 20
23.0351827247
 40
0.0776367623
100
AcDbArc
 50
63.5314456204
 51
73.1139843021
  0
ARC
  5
384
100
AcDbEntity
  8
715
100
AcDbCircle
 62
7
  6
CONTINUOUS
 10
13.3894625937
 20
19.3228721234
 40
0.0776367623
100
AcDbArc
 50
63.5314456204
 51
73.1139843021
  0
ARC
  5
385
100
AcDbEntity
  8
715
100
AcDbCircle
 62
7
  6
CONTINUOUS
 10
6.7752748155
 20
22.6255061704
 40
0.0759917442
100
AcDbArc
 50
55.9851762195
 51
62.7845765141
  0
ARC
  5
386
100
AcDbEntity
  8
715
100
AcDbCircle
 62
7
  6
CONTINUOUS
 10
14.1998960179
 20
18.9131955692
 40
0.0759917442
100
AcDbArc
 50
55.9851762197
 51
62.784576514
  0
ARC
  5
387
100
AcDbEntity
  8
218_STAMPATO
100
AcDbCircle
 62
250
  6
CONTINUOUS
 10
-0.9688335696
 20
20.4513157225
 40
0.0750437023
100
AcDbArc
 50
63.4342951696
 51
64.328681602
  0
ARC
  5
388
100
AcDbEntity
  8
0
100
AcDbCircle
 62
250
  6
CONTINUOUS
 10
279.5019704569
 20
15.8803499133
 40
284.9236739221
100
AcDbArc
 50
181.6456480919
 51
185.0853342635
  0
ARC
  5
389
100
AcDbEntity
  8
0
100
AcDbCircle
 62
250
  6
CONTINUOUS
 10
277.6013325379
 20
15.822615922
 40
284.1382330161
100
AcDbArc
 50
181.641787628
 51
185.6080506162
  0
ARC
  5
38A
100
AcDbEntity
  8
0
100
AcDbCircle
 62
250
  6
CONTINUOUS
 10
257.0600818467
 20
14.0316314242
 40
263.5203754393
100
AcDbArc
 50
185.656956994
 51
187.1283833062
  0
ARC
  5
38B
100
AcDbEntity
  8
0
100
AcDbCircle
 62
250
  6
CONTINUOUS
 10
255.0665985175
 20
13.8173515707
 40
260.4016456868
100
AcDbArc
 50
185.1097700441
 51
188.7616967974
  0
ARC
  5
38C
100
AcDbEntity
  8
0
100
AcDbCircle
 62
250
  6
CONTINUOUS
 10
247.0202519444
 20
12.7941490383
 40
253.4045852158
100
AcDbArc
 50
187.1324431593
 51
188.7956398129
  0
LINE
  5
38D
100
AcDbEntity
  8
715
100
AcDbLine
 62
7
  6
CONTINUOUS
 10
6.8479727444
 20
22.680417464
 11
6.9461714051
 21
22.631280239
  0
SPLINE
  5
38E
100
AcDbEntity
  8
715
100
AcDbSpline
 62
7
  6
CONTINUOUS
 70
0
 71
3
 72
11
 73
7
 74
0
 42
0.0000001
 43
0.0000001
 44
0.0000000001
 40
0.0
 40
0.0
 40
0.0
 40
0.0
 40
0.2790622737
 40
0.5354121262
 40
0.7731144998
 40
1.0
 40
1.0
 40
1.0
 40
1.0
 10
6.7543072493
 20
22.6741070076
 30
0.0
 10
6.762389247
 20
22.6781480064
 30
0.0
 10
6.7785516975
 20
22.6847040289
 30
0.0
 10
6.8033158913
 20
22.6894861703
 30
0.0
 10
6.8268770612
 20
22.6884521715
 30
0.0
 10
6.8413990444
 20
22.6836972881
 30
0.0
 10
6.8479727444
 20
22.680417464
 30
0.0
  0
SPLINE
  5
38F
100
AcDbEntity
  8
715
100
AcDbSpline
 62
7
  6
CONTINUOUS
 70
0
 71
3
 72
15
 73
11
 74
0
 42
0.0000001
 43
0.0000001
 44
0.0000000001
 40
0.0
 40
0.0
 40
0.0
 40
0.0
 40
0.1239431405
 40
0.2528690727
 40
0.3845266169
 40
0.5164261195
 40
0.6460736386
 40
0.7711313758
 40
0.8895882584
 40
1.0
 40
1.0
 40
1.0
 40
1.0
 10
5.9153030646
 20
23.1306136153
 30
0.0
 10
5.7890657186
 20
23.1662570576
 30
0.0
 10
5.5276482611
 20
23.225757287
 30
0.0
 10
5.1238507554
 20
23.2800546193
 30
0.0
 10
4.7084910423
 20
23.3005351568
 30
0.0
 10
4.2921061448
 20
23.2866983601
 30
0.0
 10
3.8852528185
 20
23.2388809408
 30
0.0
 10
3.4980789114
 20
23.1581061463
 30
0.0
 10
3.1400177457
 20
23.0460564611
 30
0.0
 10
2.9177271648
 20
22.9479934738
 30
0.0
 10
2.8143653494
 20
22.8934887448
 30
0.0
  0
SPLINE
  5
390
100
AcDbEntity
  8
715
100
AcDbSpline
 62
250
  6
CONTINUOUS
 70
0
 71
3
 72
11
 73
7
 74
0
 42
0.0000001
 43
0.0000001
 44
0.0000000001
 40
0.0
 40
0.0
 40
0.0
 40
0.0
 40
0.2151785103
 40
0.451841215
 40
0.713161911
 40
1.0
 40
1.0
 40
1.0
 40
1.0
 10
2.1788825501
 20
22.3016588224
 30
0.0
 10
2.2053846515
 20
22.3591291871
 30
0.0
 10
2.2757505833
 20
22.4732839805
 30
0.0
 10
2.4188067166
 20
22.628010011
 30
0.0
 10
2.6007498376
 20
22.7713192523
 30
0.0
 10
2.739618935
 20
22.8540662213
 30
0.0
 10
2.8142401675
 20
22.8934201253
 30
0.0
  0
SPLINE
  5
391
100
AcDbEntity
  8
715
100
AcDbSpline
 62
250
  6
CONTINUOUS
 70
0
 71
3
 72
9
 73
5
 74
0
 42
0.0000001
 43
0.0000001
 44
0.0000000001
 40
0.0
 40
0.0
 40
0.0
 40
0.0
 40
0.2558892428
 40
1.0
 40
1.0
 40
1.0
 40
1.0
 10
6.7543361452
 20
22.6741214555
 30
0.0
 10
6.7628643478
 20
22.6669342233
 30
0.0
 10
6.7958566688
 20
22.6384526045
 30
0.0
 10
6.8274936417
 20
22.6083914435
 30
0.0
 10
6.8500915656
 20
22.585128569
 30
0.0
  0
SPLINE
  5
392
100
AcDbEntity
  8
715
100
AcDbSpline
 62
250
  6
CONTINUOUS
 70
0
 71
3
 72
20
 73
16
 74
0
 42
0.0000001
 43
0.0000001
 44
0.0000000001
 40
0.0
 40
0.0
 40
0.0
 40
0.0
 40
0.0397110999
 40
0.0827213477
 40
0.1297570288
 40
0.1811705571
 40
0.2370077756
 40
0.2970761738
 40
0.3609989403
 40
0.4282564809
 40
0.5701033644
 40
0.7168668955
 40
0.8621989222
 40
0.9324095496
 40
1.0
 40
1.0
 40
1.0
 40
1.0
 10
2.2788884843
 20
22.2655601782
 30
0.0
 10
2.2963630191
 20
22.3151848328
 30
0.0
 10
2.3447774929
 20
22.4145627382
 30
0.0
 10
2.4488471382
 20
22.5524275247
 30
0.0
 10
2.5847835747
 20
22.6824416971
 30
0.0
 10
2.7505033239
 20
22.8029671683
 30
0.0
 10
2.9436677064
 20
22.912532286
 30
0.0
 10
3.1615629285
 20
23.0096670826
 30
0.0
 10
3.40111975
 20
23.0930418758
 30
0.0
 10
3.7510146242
 20
23.1858668339
 30
0.0
 10
4.2183051723
 20
23.2588171369
 30
0.0
 10
4.7941364191
 20
23.2780152715
 30
0.0
 10
5.2737465712
 20
23.2369673084
 30
0.0
 10
5.6428819089
 20
23.1690797273
 30
0.0
 10
5.8199555415
 20
23.1238511115
 30
0.0
 10
5.9058054375
 20
23.0983842391
 30
0.0
  0
SPLINE
  5
393
100
AcDbEntity
  8
715
100
AcDbSpline
 62
7
  6
CONTINUOUS
 70
0
 71
3
 72
9
 73
5
 74
0
 42
0.0000001
 43
0.0000001
 44
0.0000000001
 40
0.0
 40
0.0
 40
0.0
 40
0.0
 40
0.4665212439
 40
1.0
 40
1.0
 40
1.0
 40
1.0
 10
5.987392437
 20
23.1094721398
 30
0.0
 10
5.9749149778
 20
23.1132670518
 30
0.0
 10
5.945955547
 20
23.1145507814
 30
0.0
 10
5.9191182564
 20
23.1050406485
 30
0.0
 10
5.9057791119
 20
23.0983710763
 30
0.0
  0
LINE
  5
394
100
AcDbEntity
  8
715
100
AcDbLine
 62
7
  6
CONTINUOUS
 10
14.2725939469
 20
18.9681068628
 11
14.3707926076
 21
18.9189696378
  0
SPLINE
  5
395
100
AcDbEntity
  8
715
100
AcDbSpline
 62
7
  6
CONTINUOUS
 70
0
 71
3
 72
11
 73
7
 74
0
 42
0.0000001
 43
0.0000001
 44
0.0000000001
 40
0.0
 40
0.0
 40
0.0
 40
0.0
 40
0.2790622737
 40
0.5354121262
 40
0.7731144998
 40
1.0
 40
1.0
 40
1.0
 40
1.0
 10
14.1789284518
 20
18.9617964064
 30
0.0
 10
14.1870104494
 20
18.9658374052
 30
0.0
 10
14.2031729
 20
18.9723934276
 30
0.0
 10
14.2279370937
 20
18.977175569
 30
0.0
 10
14.2514982636
 20
18.9761415703
 30
0.0
 10
14.2660202469
 20
18.9713866869
 30
0.0
 10
14.2725939469
 20
18.9681068628
 30
0.0
  0
SPLINE
  5
396
100
AcDbEntity
  8
715
100
AcDbSpline
 62
7
  6
CONTINUOUS
 70
0
 71
3
 72
15
 73
11
 74
0
 42
0.0000001
 43
0.0000001
 44
0.0000000001
 40
0.0
 40
0.0
 40
0.0
 40
0.0
 40
0.1239431405
 40
0.2528690727
 40
0.3845266169
 40
0.5164261195
 40
0.6460736386
 40
0.7711313758
 40
0.8895882584
 40
1.0
 40
1.0
 40
1.0
 40
1.0
 10
13.3399242671
 20
19.4183030141
 30
0.0
 10
13.213686921
 20
19.4539464564
 30
0.0
 10
12.9522694635
 20
19.5134466857
 30
0.0
 10
12.5484719578
 20
19.5677440181
 30
0.0
 10
12.1331122447
 20
19.5882245556
 30
0.0
 10
11.7167273472
 20
19.5743877588
 30
0.0
 10
11.309874021
 20
19.5265703396
 30
0.0
 10
10.9227001139
 20
19.4457955451
 30
0.0
 10
10.5646389481
 20
19.3337458598
 30
0.0
 10
10.3423483672
 20
19.2356828726
 30
0.0
 10
10.2389865518
 20
19.1811781435
 30
0.0
  0
SPLINE
  5
397
100
AcDbEntity
  8
715
100
AcDbSpline
 62
250
  6
CONTINUOUS
 70
0
 71
3
 72
11
 73
7
 74
0
 42
0.0000001
 43
0.0000001
 44
0.0000000001
 40
0.0
 40
0.0
 40
0.0
 40
0.0
 40
0.2151785105
 40
0.4518412152
 40
0.7131619112
 40
1.0
 40
1.0
 40
1.0
 40
1.0
 10
9.6035037539
 20
18.5893482242
 30
0.0
 10
9.6300058555
 20
18.6468185886
 30
0.0
 10
9.7003717874
 20
18.7609733813
 30
0.0
 10
9.8434279205
 20
18.915699411
 30
0.0
 10
10.025371041
 20
19.0590086516
 30
0.0
 10
10.1642401378
 20
19.1417556202
 30
0.0
 10
10.2388613699
 20
19.1811095241
 30
0.0
  0
SPLINE
  5
398
100
AcDbEntity
  8
715
100
AcDbSpline
 62
250
  6
CONTINUOUS
 70
0
 71
3
 72
9
 73
5
 74
0
 42
0.0000001
 43
0.0000001
 44
0.0000000001
 40
0.0
 40
0.0
 40
0.0
 40
0.0
 40
0.2558892428
 40
1.0
 40
1.0
 40
1.0
 40
1.0
 10
14.1789573477
 20
18.9618108543
 30
0.0
 10
14.1874855503
 20
18.9546236221
 30
0.0
 10
14.2204778712
 20
18.9261420033
 30
0.0
 10
14.2521148442
 20
18.8960808422
 30
0.0
 10
14.2747127681
 20
18.8728179678
 30
0.0
  0
SPLINE
  5
399
100
AcDbEntity
  8
715
100
AcDbSpline
 62
250
  6
CONTINUOUS
 70
0
 71
3
 72
20
 73
16
 74
0
 42
0.0000001
 43
0.0000001
 44
0.0000000001
 40
0.0
 40
0.0
 40
0.0
 40
0.0
 40
0.0397110999
 40
0.0827213476
 40
0.1297570287
 40
0.181170557
 40
0.2370077754
 40
0.2970761736
 40
0.3609989401
 40
0.4282564807
 40
0.5701033642
 40
0.7168668954
 40
0.8621989221
 40
0.9324095495
 40
1.0
 40
1.0
 40
1.0
 40
1.0
 10
9.703509686
 20
18.5532495747
 30
0.0
 10
9.7209842205
 20
18.6028742293
 30
0.0
 10
9.769398694
 20
18.7022521349
 30
0.0
 10
9.873468339
 20
18.8401169216
 30
0.0
 10
10.0094047752
 20
18.9701310943
 30
0.0
 10
10.1751245242
 20
19.0906565657
 30
0.0
 10
10.3682889066
 20
19.2002216836
 30
0.0
 10
10.5861841287
 20
19.2973564805
 30
0.0
 10
10.8257409502
 20
19.3807312739
 30
0.0
 10
11.1756358247
 20
19.4735562323
 30
0.0
 10
11.642926373
 20
19.5465065356
 30
0.0
 10
12.2187576204
 20
19.5657046704
 30
0.0
 10
12.698367773
 20
19.5246567073
 30
0.0
 10
13.067503111
 20
19.4567691262
 30
0.0
 10
13.2445767439
 20
19.4115405103
 30
0.0
 10
13.33042664
 20
19.3860736379
 30
0.0
  0
SPLINE
  5
39A
100
AcDbEntity
  8
715
100
AcDbSpline
 62
7
  6
CONTINUOUS
 70
0
 71
3
 72
9
 73
5
 74
0
 42
0.0000001
 43
0.0000001
 44
0.0000000001
 40
0.0
 40
0.0
 40
0.0
 40
0.0
 40
0.4665212439
 40
1.0
 40
1.0
 40
1.0
 40
1.0
 10
13.4120136395
 20
19.3971615385
 30
0.0
 10
13.3995361803
 20
19.4009564506
 30
0.0
 10
13.3705767494
 20
19.4022401801
 30
0.0
 10
13.3437394588
 20
19.3927300473
 30
0.0
 10
13.3304003144
 20
19.3860604751
 30
0.0
  0
SPLINE
  5
39B
100
AcDbEntity
  8
0
100
AcDbSpline
 62
250
  6
CONTINUOUS
 70
0
 71
3
 72
11
 73
7
 74
0
 42
0.0000001
 43
0.0000001
 44
0.0000000001
 40
0.0
 40
0.0
 40
0.0
 40
0.0
 40
0.2109002342
 40
0.4407461933
 40
0.7024738353
 40
1.0
 40
1.0
 40
1.0
 40
1.0
 10
-20.9832368935
 20
15.1287488771
 30
0.0
 10
-20.9823708683
 20
15.101769798
 30
0.0
 10
-20.9695681474
 20
15.0453222385
 30
0.0
 10
-20.9204213541
 20
14.9684363162
 30
0.0
 10
-20.844955952
 20
14.900015402
 30
0.0
 10
-20.7830721188
 20
14.8632059007
 30
0.0
 10
-20.7489833921
 20
14.8462336315
 30
0.0
  0
SPLINE
  5
39C
100
AcDbEntity
  8
0
100
AcDbSpline
 62
250
  6
CONTINUOUS
 70
0
 71
3
 72
11
 73
7
 74
0
 42
0.0000001
 43
0.0000001
 44
0.0000000001
 40
0.0
 40
0.0
 40
0.0
 40
0.0
 40
0.2180229927
 40
0.451239871
 40
0.7106517799
 40
1.0
 40
1.0
 40
1.0
 40
1.0
 10
-20.2031567728
 20
16.6691229023
 30
0.0
 10
-20.1791426673
 20
16.6852010694
 30
0.0
 10
-20.1233133906
 20
16.710034303
 30
0.0
 10
-20.0283362652
 20
16.7196054132
 30
0.0
 10
-19.925099706
 20
16.7031093629
 30
0.0
 10
-19.8566283191
 20
16.6772228811
 30
0.0
 10
-19.8219318802
 20
16.6608772239
 30
0.0
  0
SPLINE
  5
39D
100
AcDbEntity
  8
0
100
AcDbSpline
 62
250
  6
CONTINUOUS
 70
0
 71
3
 72
11
 73
7
 74
0
 42
0.0000001
 43
0.0000001
 44
0.0000000001
 40
0.0
 40
0.0
 40
0.0
 40
0.0
 40
0.2245862801
 40
0.4610690032
 40
0.718107955
 40
1.0
 40
1.0
 40
1.0
 40
1.0
 10
-17.3627111093
 20
-19.3837475548
 30
0.0
 10
-17.4113203532
 20
-19.3594480102
 30
0.0
 10
-17.5040252681
 20
-19.2940519243
 30
0.0
 10
-17.6136016244
 20
-19.1567258345
 30
0.0
 10
-17.6926838128
 20
-18.9849210458
 30
0.0
 10
-17.722730052
 20
-18.8571678729
 30
0.0
 10
-17.7330341151
 20
-18.7897394938
 30
0.0
  0
SPLINE
  5
39E
100
AcDbEntity
  8
0
100
AcDbSpline
 62
250
  6
CONTINUOUS
 70
0
 71
3
 72
11
 73
7
 74
0
 42
0.0000001
 43
0.0000001
 44
0.0000000001
 40
0.0
 40
0.0
 40
0.0
 40
0.0
 40
0.241766832
 40
0.5036748598
 40
0.7635914325
 40
1.0
 40
1.0
 40
1.0
 40
1.0
 10
-20.7489909927
 20
14.8462294916
 30
0.0
 10
-20.7542624699
 20
15.0162508579
 30
0.0
 10
-20.7080381309
 20
15.3727714297
 30
0.0
 10
-20.5156890921
 20
15.8787459789
 30
0.0
 10
-20.2209193153
 20
16.3282556271
 30
0.0
 10
-19.9611472184
 20
16.5698509419
 30
0.0
 10
-19.8219318802
 20
16.6608772239
 30
0.0
  0
SPLINE
  5
39F
100
AcDbEntity
  8
0
100
AcDbSpline
 62
250
  6
CONTINUOUS
 70
0
 71
3
 72
12
 73
8
 74
0
 42
0.0000001
 43
0.0000001
 44
0.0000000001
 40
0.0
 40
0.0
 40
0.0
 40
0.0
 40
0.2411834947
 40
0.5066521572
 40
0.7683683391
 40
0.8894717632
 40
1.0
 40
1.0
 40
1.0
 40
1.0
 10
-4.8527596757
 20
8.5353392369
 30
0.0
 10
-4.8618843622
 20
8.628688303
 30
0.0
 10
-4.9126799689
 20
8.8218476614
 30
0.0
 10
-5.0498551877
 20
9.0891396527
 30
0.0
 10
-5.2086880832
 20
9.2879247906
 30
0.0
 10
-5.3537687306
 20
9.4140999773
 30
0.0
 10
-5.4295898118
 20
9.4635503617
 30
0.0
 10
-5.4675618618
 20
9.4836922169
 30
0.0
  0
SPLINE
  5
3A0
100
AcDbEntity
  8
0
100
AcDbSpline
 62
250
  6
CONTINUOUS
 70
0
 71
3
 72
11
 73
7
 74
0
 42
0.0000001
 43
0.0000001
 44
0.0000000001
 40
0.0
 40
0.0
 40
0.0
 40
0.0
 40
0.2378842757
 40
0.4979185657
 40
0.7590831613
 40
1.0
 40
1.0
 40
1.0
 40
1.0
 10
-5.4675618637
 20
9.4836922157
 30
0.0
 10
-5.6096854466
 20
9.3947543172
 30
0.0
 10
-5.8756716337
 20
9.1572899057
 30
0.0
 10
-6.1788906295
 20
8.7113578776
 30
0.0
 10
-6.3772241055
 20
8.2076063979
 30
0.0
 10
-6.425287486
 20
7.8515831012
 30
0.0
 10
-6.4202574849
 20
7.6818627377
 30
0.0
  0
SPLINE
  5
3A1
100
AcDbEntity
  8
0
100
AcDbSpline
 62
250
  6
CONTINUOUS
 70
0
 71
3
 72
11
 73
7
 74
0
 42
0.0000001
 43
0.0000001
 44
0.0000000001
 40
0.0
 40
0.0
 40
0.0
 40
0.0
 40
0.2387135973
 40
0.498809548
 40
0.7595577109
 40
1.0
 40
1.0
 40
1.0
 40
1.0
 10
-4.8527596757
 20
8.5353392369
 30
0.0
 10
-4.9198433563
 20
8.4943856092
 30
0.0
 10
-5.0456137728
 20
8.384695154
 30
0.0
 10
-5.1893734458
 20
8.1775642206
 30
0.0
 10
-5.2835462377
 20
7.9430679225
 30
0.0
 10
-5.3064636084
 20
7.777036687
 30
0.0
 10
-5.3041873679
 20
7.6979036817
 30
0.0
  0
SPLINE
  5
3A2
100
AcDbEntity
  8
0
100
AcDbSpline
 62
250
  6
CONTINUOUS
 70
0
 71
3
 72
11
 73
7
 74
0
 42
0.0000001
 43
0.0000001
 44
0.0000000001
 40
0.0
 40
0.0
 40
0.0
 40
0.0
 40
0.2980396003
 40
0.5603845794
 40
0.7900724488
 40
1.0
 40
1.0
 40
1.0
 40
1.0
 10
-1.7484086233
 20
-26.0864607274
 30
0.0
 10
-1.7448205697
 20
-26.1304023634
 30
0.0
 10
-1.7444943667
 20
-26.2138268251
 30
0.0
 10
-1.7682105382
 20
-26.3293541411
 30
0.0
 10
-1.8165983522
 20
-26.4231173098
 30
0.0
 10
-1.8662948963
 20
-26.4678834896
 30
0.0
 10
-1.8930397923
 20
-26.4836647727
 30
0.0
  0
SPLINE
  5
3A3
100
AcDbEntity
  8
0
100
AcDbSpline
 62
250
  6
CONTINUOUS
 70
0
 71
3
 72
11
 73
7
 74
0
 42
0.0000001
 43
0.0000001
 44
0.0000000001
 40
0.0
 40
0.0
 40
0.0
 40
0.0
 40
0.2797267096
 40
0.5359934223
 40
0.7732527161
 40
1.0
 40
1.0
 40
1.0
 40
1.0
 10
-3.4043006073
 20
-25.9541062477
 30
0.0
 10
-3.3938911475
 20
-26.0216146531
 30
0.0
 10
-3.3633321053
 20
-26.1497684757
 30
0.0
 10
-3.2827504895
 20
-26.3222249566
 30
0.0
 10
-3.1709899669
 20
-26.4605214404
 30
0.0
 10
-3.0767313595
 20
-26.5266552263
 30
0.0
 10
-3.0272403142
 20
-26.5514823948
 30
0.0
  0
SPLINE
  5
3A4
100
AcDbEntity
  8
0
100
AcDbSpline
 62
250
  6
CONTINUOUS
 70
0
 71
3
 72
15
 73
11
 74
0
 42
0.0000001
 43
0.0000001
 44
0.0000000001
 40
0.0
 40
0.0
 40
0.0
 40
0.0
 40
0.1370697811
 40
0.2624679063
 40
0.3788440463
 40
0.4909395102
 40
0.6045854435
 40
0.7251825275
 40
0.8564722967
 40
1.0
 40
1.0
 40
1.0
 40
1.0
 10
-2.296273042
 20
-25.8483693864
 30
0.0
 10
-2.2911545541
 20
-25.8813788732
 30
0.0
 10
-2.2758644375
 20
-25.9439820543
 30
0.0
 10
-2.2348360633
 20
-26.0276273208
 30
0.0
 10
-2.1775536772
 20
-26.0935894761
 30
0.0
 10
-2.1058642236
 20
-26.1386155205
 30
0.0
 10
-2.0230517759
 20
-26.1603719244
 30
0.0
 10
-1.9330016252
 20
-26.1584713593
 30
0.0
 10
-1.8391183991
 20
-26.1337489086
 30
0.0
 10
-1.7785467695
 20
-26.1042128078
 30
0.0
 10
-1.7484086233
 20
-26.0864607274
 30
0.0
  0
SPLINE
  5
3A5
100
AcDbEntity
  8
0
100
AcDbSpline
 62
250
  6
CONTINUOUS
 70
0
 71
3
 72
11
 73
7
 74
0
 42
0.0000001
 43
0.0000001
 44
0.0000000001
 40
0.0
 40
0.0
 40
0.0
 40
0.0
 40
0.246749571
 40
0.5116850808
 40
0.7702627729
 40
1.0
 40
1.0
 40
1.0
 40
1.0
 10
-2.296273042
 20
-25.8483693864
 30
0.0
 10
-2.3747628703
 20
-25.9019330715
 30
0.0
 10
-2.5555046936
 20
-25.9872223078
 30
0.0
 10
-2.8480385671
 20
-26.0487387982
 30
0.0
 10
-3.1403851742
 20
-26.0446733671
 30
0.0
 10
-3.325097855
 20
-25.9935476955
 30
0.0
 10
-3.4042890285
 20
-25.9540979811
 30
0.0
  0
SPLINE
  5
3A6
100
AcDbEntity
  8
0
100
AcDbSpline
 62
250
  6
CONTINUOUS
 70
0
 71
3
 72
9
 73
5
 74
0
 42
0.0000001
 43
0.0000001
 44
0.0000000001
 40
0.0
 40
0.0
 40
0.0
 40
0.0
 40
0.4920186796
 40
1.0
 40
1.0
 40
1.0
 40
1.0
 10
-17.7330341151
 20
-18.7897394938
 30
0.0
 10
-18.5655057739
 20
-13.3115456252
 30
0.0
 10
-19.8990784236
 20
-2.1206862176
 30
0.0
 10
-20.5668663077
 20
9.1282744531
 30
0.0
 10
-20.7489909927
 20
14.8462294916
 30
0.0
  0
SPLINE
  5
3A7
100
AcDbEntity
  8
0
100
AcDbSpline
 62
250
  6
CONTINUOUS
 70
0
 71
3
 72
11
 73
7
 74
0
 42
0.0000001
 43
0.0000001
 44
0.0000000001
 40
0.0
 40
0.0
 40
0.0
 40
0.0
 40
0.239202347
 40
0.5038283015
 40
0.7663936269
 40
1.0
 40
1.0
 40
1.0
 40
1.0
 10
-5.3041873679
 20
7.6979036817
 30
0.0
 10
-5.3855006565
 20
7.6557636657
 30
0.0
 10
-5.5708562723
 20
7.594020748
 30
0.0
 10
-5.8641692157
 20
7.5613205593
 30
0.0
 10
-6.1561645862
 20
7.5851533377
 30
0.0
 10
-6.3403262924
 20
7.6417281719
 30
0.0
 10
-6.4202574652
 20
7.6818627484
 30
0.0
  0
SPLINE
  5
3A8
100
AcDbEntity
  8
0
100
AcDbSpline
 62
250
  6
CONTINUOUS
 70
0
 71
3
 72
11
 73
7
 74
0
 42
0.0000001
 43
0.0000001
 44
0.0000000001
 40
0.0
 40
0.0
 40
0.0
 40
0.0
 40
0.2247630625
 40
0.4612198617
 40
0.7184005712
 40
1.0
 40
1.0
 40
1.0
 40
1.0
 10
-17.9665818913
 20
-18.5127447695
 30
0.0
 10
-17.96231418
 20
-18.5405663973
 30
0.0
 10
-17.9448427446
 20
-18.5966318242
 30
0.0
 10
-17.8946465847
 20
-18.6724921624
 30
0.0
 10
-17.8226082242
 20
-18.7387197159
 30
0.0
 10
-17.7645525015
 20
-18.7739222138
 30
0.0
 10
-17.7330340869
 20
-18.7897394738
 30
0.0
  0
SPLINE
  5
3A9
100
AcDbEntity
  8
268
100
AcDbSpline
 62
7
  6
CONTINUOUS
 70
0
 71
3
 72
9
 73
5
 74
0
 42
0.0000001
 43
0.0000001
 44
0.0000000001
 40
0.0
 40
0.0
 40
0.0
 40
0.0
 40
0.2485360477
 40
1.0
 40
1.0
 40
1.0
 40
1.0
 10
9.2322533923
 20
18.6227828719
 30
0.0
 10
9.2322197159
 20
18.6249310515
 30
0.0
 10
9.2320160788
 20
18.6335733195
 30
0.0
 10
9.2315073483
 20
18.6422072791
 30
0.0
 10
9.2309903037
 20
18.6486826199
 30
0.0
  0
SPLINE
  5
3AA
100
AcDbEntity
  8
268
100
AcDbSpline
 62
7
  6
CONTINUOUS
 70
0
 71
3
 72
9
 73
5
 74
0
 42
0.0000001
 43
0.0000001
 44
0.0000000001
 40
0.0
 40
0.0
 40
0.0
 40
0.0
 40
0.211301006
 40
1.0
 40
1.0
 40
1.0
 40
1.0
 10
9.2322533923
 20
-18.8951613305
 30
0.0
 10
9.2322179408
 20
-18.8954092954
 30
0.0
 10
9.2319670601
 20
-18.8965715056
 30
0.0
 10
9.2314413582
 20
-18.897654115
 30
0.0
 10
9.2309903037
 20
-18.8984730796
 30
0.0
  0
SPLINE
  5
3AB
100
AcDbEntity
  8
268
100
AcDbSpline
 62
7
  6
CONTINUOUS
 70
0
 71
3
 72
9
 73
5
 74
0
 42
0.0000001
 43
0.0000001
 44
0.0000000001
 40
0.0
 40
0.0
 40
0.0
 40
0.0
 40
0.5036977787
 40
1.0
 40
1.0
 40
1.0
 40
1.0
 10
9.2305195942
 20
18.0374890325
 30
0.0
 10
9.2310561492
 20
18.0377690899
 30
0.0
 10
9.2320429892
 20
18.0385922169
 30
0.0
 10
9.2323015088
 20
18.0398469884
 30
0.0
 10
9.2322999546
 20
18.0404433464
 30
0.0
  0
SPLINE
  5
3AC
100
AcDbEntity
  8
268
100
AcDbSpline
 62
7
  6
CONTINUOUS
 70
0
 71
3
 72
10
 73
6
 74
0
 42
0.0000001
 43
0.0000001
 44
0.0000000001
 40
0.0
 40
0.0
 40
0.0
 40
0.0
 40
0.506838871
 40
0.7558957822
 40
1.0
 40
1.0
 40
1.0
 40
1.0
 10
9.2309903037
 20
18.6486826199
 30
0.0
 10
9.1581741657
 20
18.7286294387
 30
0.0
 10
9.0408174758
 20
18.840586172
 30
0.0
 10
8.8681292627
 20
18.9662793614
 30
0.0
 10
8.776901486
 20
19.0192688103
 30
0.0
 10
8.7303160135
 20
19.0425549839
 30
0.0
  0
SPLINE
  5
3AD
100
AcDbEntity
  8
268
100
AcDbSpline
 62
7
  6
CONTINUOUS
 70
0
 71
3
 72
11
 73
7
 74
0
 42
0.0000001
 43
0.0000001
 44
0.0000000001
 40
0.0
 40
0.0
 40
0.0
 40
0.0
 40
0.2787325875
 40
0.5346772883
 40
0.772449667
 40
1.0
 40
1.0
 40
1.0
 40
1.0
 10
5.0630726463
 20
20.6303057343
 30
0.0
 10
5.1012088219
 20
20.6489662155
 30
0.0
 10
5.1774398115
 20
20.6790526649
 30
0.0
 10
5.2941090142
 20
20.7001068391
 30
0.0
 10
5.4049171653
 20
20.6939944448
 30
0.0
 10
5.4731285038
 20
20.6711493159
 30
0.0
 10
5.504129531
 20
20.6556477162
 30
0.0
  0
SPLINE
  5
3AE
100
AcDbEntity
  8
268
100
AcDbSpline
 62
7
  6
CONTINUOUS
 70
0
 71
3
 72
14
 73
10
 74
0
 42
0.0000001
 43
0.0000001
 44
0.0000000001
 40
0.0
 40
0.0
 40
0.0
 40
0.0
 40
0.2891525564
 40
0.4227177506
 40
0.5489643138
 40
0.668508974
 40
0.7824375212
 40
0.892292605
 40
1.0
 40
1.0
 40
1.0
 40
1.0
 10
1.521368148
 20
22.236101744
 30
0.0
 10
1.521368148
 20
22.2969193526
 30
0.0
 10
1.5137816913
 20
22.3863107773
 30
0.0
 10
1.4847822605
 20
22.4982974527
 30
0.0
 10
1.4553326138
 20
22.5727069433
 30
0.0
 10
1.4179243025
 20
22.6387775578
 30
0.0
 10
1.3729349521
 20
22.6956691171
 30
0.0
 10
1.3208972586
 20
22.7425744795
 30
0.0
 10
1.2817510502
 20
22.7668362468
 30
0.0
 10
1.2614888439
 20
22.7769680598
 30
0.0
  0
SPLINE
  5
3AF
100
AcDbEntity
  8
268
100
AcDbSpline
 62
7
  6
CONTINUOUS
 70
0
 71
3
 72
11
 73
7
 74
0
 42
0.0000001
 43
0.0000001
 44
0.0000000001
 40
0.0
 40
0.0
 40
0.0
 40
0.0
 40
0.368058145
 40
0.6517558087
 40
0.8584037383
 40
1.0
 40
1.0
 40
1.0
 40
1.0
 10
-2.02189875
 20
24.3828935861
 30
0.0
 10
-2.0150626129
 20
24.3850032113
 30
0.0
 10
-2.0028690515
 20
24.3884546694
 30
0.0
 10
-1.9864529932
 20
24.3916953831
 30
0.0
 10
-1.9741983338
 20
24.392540271
 30
0.0
 10
-1.9673238491
 20
24.3913714846
 30
0.0
 10
-1.9648607256
 20
24.3901433534
 30
0.0
  0
SPLINE
  5
3B0
100
AcDbEntity
  8
268
100
AcDbSpline
 62
7
  6
CONTINUOUS
 70
0
 71
3
 72
9
 73
5
 74
0
 42
0.0000001
 43
0.0000001
 44
0.0000000001
 40
0.0
 40
0.0
 40
0.0
 40
0.0
 40
0.2476285508
 40
1.0
 40
1.0
 40
1.0
 40
1.0
 10
-2.02189875
 20
24.3828935861
 30
0.0
 10
-2.0234631677
 20
24.3824108083
 30
0.0
 10
-2.0297378573
 20
24.3803235522
 30
0.0
 10
-2.0358301015
 20
24.3776974468
 30
0.0
 10
-2.0402784156
 20
24.3754710577
 30
0.0
  0
SPLINE
  5
3B1
100
AcDbEntity
  8
268
100
AcDbSpline
 62
7
  6
CONTINUOUS
 70
0
 71
3
 72
9
 73
5
 74
0
 42
0.0000001
 43
0.0000001
 44
0.0000000001
 40
0.0
 40
0.0
 40
0.0
 40
0.0
 40
0.528469183
 40
1.0
 40
1.0
 40
1.0
 40
1.0
 10
8.4840034152
 20
-19.3583141448
 30
0.0
 10
8.6182177986
 20
-19.2817041167
 30
0.0
 10
8.8693474471
 20
-19.1317454157
 30
0.0
 10
9.1159817502
 20
-18.9745424314
 30
0.0
 10
9.2309903037
 20
-18.8984730796
 30
0.0
  0
SPLINE
  5
3B2
100
AcDbEntity
  8
268
100
AcDbSpline
 62
7
  6
CONTINUOUS
 70
0
 71
3
 72
9
 73
5
 74
0
 42
0.0000001
 43
0.0000001
 44
0.0000000001
 40
0.0
 40
0.0
 40
0.0
 40
0.0
 40
0.4165732146
 40
1.0
 40
1.0
 40
1.0
 40
1.0
 10
9.232299895
 20
-18.8944636508
 30
0.0
 10
9.2322957124
 20
-18.8932287023
 30
0.0
 10
9.2313666594
 20
-18.8903127569
 30
0.0
 10
9.2298432339
 20
-18.887776296
 30
0.0
 10
9.2288802497
 20
-18.8863395681
 30
0.0
  0
SPLINE
  5
3B3
100
AcDbEntity
  8
268
100
AcDbSpline
 62
7
  6
CONTINUOUS
 70
0
 71
3
 72
12
 73
8
 74
0
 42
0.0000001
 43
0.0000001
 44
0.0000000001
 40
0.0
 40
0.0
 40
0.0
 40
0.0
 40
0.0704428041
 40
0.1582142984
 40
0.3820181062
 40
0.6645080291
 40
1.0
 40
1.0
 40
1.0
 40
1.0
 10
9.2288802497
 20
-18.8863395681
 30
0.0
 10
9.2274677093
 20
-18.8842321232
 30
0.0
 10
9.2239233655
 20
-18.8797515793
 30
0.0
 10
9.2145571812
 20
-18.869666435
 30
0.0
 10
9.1987666437
 20
-18.855188102
 30
0.0
 10
9.1754077274
 20
-18.8358582237
 30
0.0
 10
9.157764138
 20
-18.8222815902
 30
0.0
 10
9.1481018247
 20
-18.8150264006
 30
0.0
  0
SPLINE
  5
3B4
100
AcDbEntity
  8
268
100
AcDbSpline
 62
7
  6
CONTINUOUS
 70
0
 71
3
 72
11
 73
7
 74
0
 42
0.0000001
 43
0.0000001
 44
0.0000000001
 40
0.0
 40
0.0
 40
0.0
 40
0.0
 40
0.2068014243
 40
0.4392363129
 40
0.7028675903
 40
1.0
 40
1.0
 40
1.0
 40
1.0
 10
-2.0402784156
 20
24.3754710577
 30
0.0
 10
-2.0514484301
 20
24.3698804456
 30
0.0
 10
-2.0734917804
 20
24.3545971134
 30
0.0
 10
-2.1031685846
 20
24.3240353889
 30
0.0
 10
-2.1318858397
 20
24.2855689108
 30
0.0
 10
-2.1496789732
 20
24.2567104552
 30
0.0
 10
-2.1586579417
 20
24.2411710283
 30
0.0
  0
SPLINE
  5
3B5
100
AcDbEntity
  8
268
100
AcDbSpline
 62
7
  6
CONTINUOUS
 70
0
 71
3
 72
11
 73
7
 74
0
 42
0.0000001
 43
0.0000001
 44
0.0000000001
 40
0.0
 40
0.0
 40
0.0
 40
0.0
 40
0.227550333
 40
0.4653227117
 40
0.7212674125
 40
1.0
 40
1.0
 40
1.0
 40
1.0
 10
1.2614888439
 20
22.7769680598
 30
0.0
 10
1.2304878167
 20
22.7924696595
 30
0.0
 10
1.1622764782
 20
22.8153147884
 30
0.0
 10
1.0514683271
 20
22.8214271827
 30
0.0
 10
0.9347991244
 20
22.8003730085
 30
0.0
 10
0.8585681347
 20
22.770286559
 30
0.0
 10
0.8204319592
 20
22.7516260778
 30
0.0
  0
SPLINE
  5
3B6
100
AcDbEntity
  8
268
100
AcDbSpline
 62
7
  6
CONTINUOUS
 70
0
 71
3
 72
9
 73
5
 74
0
 42
0.0000001
 43
0.0000001
 44
0.0000000001
 40
0.0
 40
0.0
 40
0.0
 40
0.0
 40
0.2560238952
 40
1.0
 40
1.0
 40
1.0
 40
1.0
 10
8.7303160135
 20
19.0425549839
 30
0.0
 10
8.7103345301
 20
19.0525429107
 30
0.0
 10
8.6312818568
 20
19.0894208231
 30
0.0
 10
8.5476457794
 20
19.1171579281
 30
0.0
 10
8.4840034152
 20
19.1299425035
 30
0.0
  0
SPLINE
  5
3B7
100
AcDbEntity
  8
268
100
AcDbSpline
 62
7
  6
CONTINUOUS
 70
0
 71
3
 72
9
 73
5
 74
0
 42
0.0000001
 43
0.0000001
 44
0.0000000001
 40
0.0
 40
0.0
 40
0.0
 40
0.0
 40
0.198822484
 40
1.0
 40
1.0
 40
1.0
 40
1.0
 10
9.2322999546
 20
18.0404433464
 30
0.0
 10
9.2322989371
 20
18.0408337526
 30
0.0
 10
9.2320366947
 20
18.0427957624
 30
0.0
 10
9.2310876968
 20
18.0445837404
 30
0.0
 10
9.2302738782
 20
18.0459300797
 30
0.0
  0
SPLINE
  5
3B8
100
AcDbEntity
  8
268
100
AcDbSpline
 62
7
  6
CONTINUOUS
 70
0
 71
3
 72
12
 73
8
 74
0
 42
0.0000001
 43
0.0000001
 44
0.0000000001
 40
0.0
 40
0.0
 40
0.0
 40
0.0
 40
0.0637627611
 40
0.1470196742
 40
0.3678913705
 40
0.6544802791
 40
1.0
 40
1.0
 40
1.0
 40
1.0
 10
9.2302738782
 20
18.0459300797
 30
0.0
 10
9.2290775447
 20
18.0479092317
 30
0.0
 10
9.225814586
 20
18.0521576813
 30
0.0
 10
9.2167182481
 20
18.0619238561
 30
0.0
 10
9.2007127872
 20
18.0762219819
 30
0.0
 10
9.1766049666
 20
18.0956083083
 30
0.0
 10
9.1582287294
 20
18.1093280959
 30
0.0
 10
9.1481018247
 20
18.1167098739
 30
0.0
  0
SPLINE
  5
3B9
100
AcDbEntity
  8
268
100
AcDbSpline
 62
7
  6
CONTINUOUS
 70
0
 71
3
 72
10
 73
6
 74
0
 42
0.0000001
 43
0.0000001
 44
0.0000000001
 40
0.0
 40
0.0
 40
0.0
 40
0.0
 40
0.2413789779
 40
0.4900689452
 40
1.0
 40
1.0
 40
1.0
 40
1.0
 10
9.232299895
 20
18.6166634949
 30
0.0
 10
9.2322901429
 20
18.5923300806
 30
0.0
 10
9.2276544978
 20
18.5428722206
 30
0.0
 10
9.2041415427
 20
18.4446519332
 30
0.0
 10
9.1732116466
 20
18.3738253474
 30
0.0
 10
9.1481018247
 20
18.328969028
 30
0.0
  0
SPLINE
  5
3BA
100
AcDbEntity
  8
268
100
AcDbSpline
 62
7
  6
CONTINUOUS
 70
0
 71
3
 72
13
 73
9
 74
0
 42
0.0000001
 43
0.0000001
 44
0.0000000001
 40
0.0
 40
0.0
 40
0.0
 40
0.0
 40
0.2464774511
 40
0.5111327431
 40
0.6428451777
 40
0.7698685706
 40
0.8895552217
 40
1.0
 40
1.0
 40
1.0
 40
1.0
 10
3.7487545087
 20
13.98274881
 30
0.0
 10
3.7487545087
 20
14.0250230729
 30
0.0
 10
3.734164887
 20
14.1128188357
 30
0.0
 10
3.6900284332
 20
14.2149532616
 30
0.0
 10
3.6403740548
 20
14.2899729608
 30
0.0
 10
3.5979052706
 20
14.3393144606
 30
0.0
 10
3.551791535
 20
14.3799403194
 30
0.0
 10
3.5182100853
 20
14.401141455
 30
0.0
 10
3.5012671353
 20
14.40961293
 30
0.0
  0
SPLINE
  5
3BB
100
AcDbEntity
  8
268
100
AcDbSpline
 62
7
  6
CONTINUOUS
 70
0
 71
3
 72
11
 73
7
 74
0
 42
0.0000001
 43
0.0000001
 44
0.0000000001
 40
0.0
 40
0.0
 40
0.0
 40
0.0
 40
0.2895883012
 40
0.5494587242
 40
0.7828521482
 40
1.0
 40
1.0
 40
1.0
 40
1.0
 10
3.7487545087
 20
-24.2089484131
 30
0.0
 10
3.7487545087
 20
-24.2301183915
 30
0.0
 10
3.7453558719
 20
-24.2704365383
 30
0.0
 10
3.7282301298
 20
-24.3256200191
 30
0.0
 10
3.6996362504
 20
-24.3699026435
 30
0.0
 10
3.6729227369
 20
-24.3905402652
 30
0.0
 10
3.6587854713
 20
-24.3977604823
 30
0.0
  0
SPLINE
  5
3BC
100
AcDbEntity
  8
268
100
AcDbSpline
 62
7
  6
CONTINUOUS
 70
0
 71
3
 72
9
 73
5
 74
0
 42
0.0000001
 43
0.0000001
 44
0.0000000001
 40
0.0
 40
0.0
 40
0.0
 40
0.0
 40
0.4886809648
 40
1.0
 40
1.0
 40
1.0
 40
1.0
 10
8.4840034152
 20
19.1299425035
 30
0.0
 10
8.4131816109
 20
19.1441692958
 30
0.0
 10
8.2652988753
 20
19.1593192138
 30
0.0
 10
8.1170600338
 20
19.1509171739
 30
0.0
 10
8.0421625473
 20
19.1407607838
 30
0.0
  0
SPLINE
  5
3BD
100
AcDbEntity
  8
268
100
AcDbSpline
 62
7
  6
CONTINUOUS
 70
0
 71
3
 72
15
 73
11
 74
0
 42
0.0000001
 43
0.0000001
 44
0.0000000001
 40
0.0
 40
0.0
 40
0.0
 40
0.0
 40
0.1109516471
 40
0.2309090886
 40
0.3579430161
 40
0.489443561
 40
0.622418517
 40
0.7537555272
 40
0.8804749292
 40
1.0
 40
1.0
 40
1.0
 40
1.0
 10
-7.1637045457
 20
15.7203813062
 30
0.0
 10
-7.1158945743
 20
15.7453083736
 30
0.0
 10
-7.021315428
 20
15.8069033734
 30
0.0
 10
-6.8915903799
 20
15.9236078459
 30
0.0
 10
-6.7723753625
 20
16.0643618524
 30
0.0
 10
-6.6680379428
 20
16.2240049277
 30
0.0
 10
-6.5823518989
 20
16.3967097904
 30
0.0
 10
-6.5184604294
 20
16.5761743377
 30
0.0
 10
-6.4787036283
 20
16.7557889729
 30
0.0
 10
-6.4689384794
 20
16.8755734939
 30
0.0
 10
-6.4689384794
 20
16.9336578433
 30
0.0
  0
SPLINE
  5
3BE
100
AcDbEntity
  8
218_STAMPATO
100
AcDbSpline
 62
7
  6
CONTINUOUS
 70
0
 71
3
 72
25
 73
21
 74
0
 42
0.0000001
 43
0.0000001
 44
0.0000000001
 40
0.0
 40
0.0
 40
0.0
 40
0.0
 40
0.0632588419
 40
0.1290193476
 40
0.1968185605
 40
0.2660577368
 40
0.3360478847
 40
0.4060546949
 40
0.4753428678
 40
0.5432204186
 40
0.6090835776
 40
0.6724623108
 40
0.7330651374
 40
0.7908186728
 40
0.8458917468
 40
0.8986876063
 40
0.9244385878
 40
0.949850592
 40
0.9750097022
 40
1.0
 40
1.0
 40
1.0
 40
1.0
 10
19.3387229551
 20
17.6213979071
 30
0.0
 10
19.4344754619
 20
17.5511508057
 30
0.0
 10
19.6215895038
 20
17.396468365
 30
0.0
 10
19.8812046183
 20
17.132780363
 30
0.0
 10
20.1218813662
 20
16.8370880235
 30
0.0
 10
20.3397002571
 20
16.5146099482
 30
0.0
 10
20.5310203043
 20
16.1710033415
 30
0.0
 10
20.6925240423
 20
15.8123158922
 30
0.0
 10
20.8213432075
 20
15.4448180174
 30
0.0
 10
20.9151130756
 20
15.074837148
 30
0.0
 10
20.9719875812
 20
14.7085828751
 30
0.0
 10
20.9905912352
 20
14.3519908033
 30
0.0
 10
20.9699188775
 20
14.0106395863
 30
0.0
 10
20.9091546951
 20
13.6897626153
 30
0.0
 10
20.8076614121
 20
13.3946215364
 30
0.0
 10
20.6875690243
 20
13.1727549487
 30
0.0
 10
20.5713562214
 20
13.0156373689
 30
0.0
 10
20.4751375886
 20
12.9091341787
 30
0.0
 10
20.3696136816
 20
12.8139736637
 30
0.0
 10
20.2932644855
 20
12.7585260694
 30
0.0
 10
20.2538714977
 20
12.7330470175
 30
0.0
  0
SPLINE
  5
3BF
100
AcDbEntity
  8
218_STAMPATO
100
AcDbSpline
 62
7
  6
CONTINUOUS
 70
0
 71
3
 72
25
 73
21
 74
0
 42
0.0000001
 43
0.0000001
 44
0.0000000001
 40
0.0
 40
0.0
 40
0.0
 40
0.0
 40
0.0632588419
 40
0.1290193476
 40
0.1968185605
 40
0.2660577368
 40
0.3360478847
 40
0.4060546949
 40
0.4753428678
 40
0.5432204186
 40
0.6090835776
 40
0.6724623108
 40
0.7330651374
 40
0.7908186728
 40
0.8458917468
 40
0.8986876063
 40
0.9244385878
 40
0.949850592
 40
0.9750097022
 40
1.0
 40
1.0
 40
1.0
 40
1.0
 10
19.3387229551
 20
5.6702473348
 30
0.0
 10
19.4344754619
 20
5.6000002335
 30
0.0
 10
19.6215895038
 20
5.4453177928
 30
0.0
 10
19.8812046183
 20
5.1816297907
 30
0.0
 10
20.1218813662
 20
4.8859374513
 30
0.0
 10
20.3397002571
 20
4.5634593759
 30
0.0
 10
20.5310203043
 20
4.2198527693
 30
0.0
 10
20.6925240423
 20
3.86116532
 30
0.0
 10
20.8213432075
 20
3.4936674452
 30
0.0
 10
20.9151130756
 20
3.1236865758
 30
0.0
 10
20.9719875812
 20
2.7574323029
 30
0.0
 10
20.9905912352
 20
2.4008402311
 30
0.0
 10
20.9699188775
 20
2.059489014
 30
0.0
 10
20.9091546951
 20
1.7386120431
 30
0.0
 10
20.8076614121
 20
1.4434709642
 30
0.0
 10
20.6875690243
 20
1.2216043765
 30
0.0
 10
20.5713562214
 20
1.0644867966
 30
0.0
 10
20.4751375886
 20
0.9579836065
 30
0.0
 10
20.3696136816
 20
0.8628230915
 30
0.0
 10
20.2932644855
 20
0.8073754972
 30
0.0
 10
20.2538714977
 20
0.7818964453
 30
0.0
  0
SPLINE
  5
3C0
100
AcDbEntity
  8
218_STAMPATO
100
AcDbSpline
 62
250
  6
CONTINUOUS
 70
0
 71
3
 72
11
 73
7
 74
0
 42
0.0000001
 43
0.0000001
 44
0.0000000001
 40
0.0
 40
0.0
 40
0.0
 40
0.0
 40
0.2780070439
 40
0.5338892322
 40
0.7720586044
 40
1.0
 40
1.0
 40
1.0
 40
1.0
 10
-1.0222467668
 20
20.5139639007
 30
0.0
 10
-1.0148188844
 20
20.517519049
 30
0.0
 10
-0.9999778856
 20
20.5232513392
 30
0.0
 10
-0.9772982622
 20
20.5272770857
 30
0.0
 10
-0.955737091
 20
20.5261656527
 30
0.0
 10
-0.9424094358
 20
20.5218771125
 30
0.0
 10
-0.9363240403
 20
20.5189521606
 30
0.0
  0
SPLINE
  5
3C1
100
AcDbEntity
  8
218_STAMPATO
100
AcDbSpline
 62
250
  6
CONTINUOUS
 70
0
 71
3
 72
19
 73
15
 74
0
 42
0.0000001
 43
0.0000001
 44
0.0000000001
 40
0.0
 40
0.0
 40
0.0
 40
0.0
 40
0.0542549267
 40
0.1085353699
 40
0.1640020383
 40
0.2212699897
 40
0.3420239029
 40
0.4708119243
 40
0.6058420355
 40
0.7438179607
 40
0.8122668861
 40
0.8788956369
 40
0.9421085071
 40
1.0
 40
1.0
 40
1.0
 40
1.0
 10
-1.9767606099
 20
20.4039581711
 30
0.0
 10
-1.9605032927
 20
20.4114663262
 30
0.0
 10
-1.9282837019
 20
20.4271312007
 30
0.0
 10
-1.87952361
 20
20.4506397847
 30
0.0
 10
-1.8291474754
 20
20.4730584196
 30
0.0
 10
-1.7574440818
 20
20.5013625324
 30
0.0
 10
-1.6606144045
 20
20.5316010406
 30
0.0
 10
-1.5361281957
 20
20.5574066287
 30
0.0
 10
-1.4040702865
 20
20.5716012392
 30
0.0
 10
-1.2910987512
 20
20.5720610138
 30
0.0
 10
-1.2012807342
 20
20.5639287948
 30
0.0
 10
-1.1366460003
 20
20.5531480673
 30
0.0
 10
-1.076638502
 20
20.5373238916
 30
0.0
 10
-1.0393371414
 20
20.5225090892
 30
0.0
 10
-1.0222467668
 20
20.5139639007
 30
0.0
  0
SPLINE
  5
3C2
100
AcDbEntity
  8
218_STAMPATO
100
AcDbSpline
 62
7
  6
CONTINUOUS
 70
0
 71
3
 72
11
 73
7
 74
0
 42
0.0000001
 43
0.0000001
 44
0.0000000001
 40
0.0
 40
0.0
 40
0.0
 40
0.0
 40
0.2875953613
 40
0.5471845931
 40
0.7820765174
 40
1.0
 40
1.0
 40
1.0
 40
1.0
 10
-2.0158245306
 20
20.3874448911
 30
0.0
 10
-2.0346547219
 20
20.3964887971
 30
0.0
 10
-2.0717441926
 20
20.4112929767
 30
0.0
 10
-2.1277223595
 20
20.4228719418
 30
0.0
 10
-2.1799424558
 20
20.4221424859
 30
0.0
 10
-2.2120404931
 20
20.4128620991
 30
0.0
 10
-2.2264111327
 20
20.4062260972
 30
0.0
  0
SPLINE
  5
3C3
100
AcDbEntity
  8
218_STAMPATO
100
AcDbSpline
 62
250
  6
CONTINUOUS
 70
0
 71
3
 72
13
 73
9
 74
0
 42
0.0000001
 43
0.0000001
 44
0.0000000001
 40
0.0
 40
0.0
 40
0.0
 40
0.0
 40
0.1134934584
 40
0.2282840573
 40
0.3455908831
 40
0.4664899683
 40
0.722046102
 40
1.0
 40
1.0
 40
1.0
 40
1.0
 10
18.4430107161
 20
20.1653222366
 30
0.0
 10
18.4277649548
 20
20.1729452463
 30
0.0
 10
18.3960069523
 20
20.1861945904
 30
0.0
 10
18.3457062094
 20
20.1995719922
 30
0.0
 10
18.2929861205
 20
20.2064247832
 30
0.0
 10
18.2186653906
 20
20.2068295217
 30
0.0
 10
18.121006823
 20
20.1899531367
 30
0.0
 10
18.0457924146
 20
20.1609812391
 30
0.0
 10
18.0081378501
 20
20.1429589362
 30
0.0
  0
SPLINE
  5
3C4
100
AcDbEntity
  8
218_STAMPATO
100
AcDbSpline
 62
250
  6
CONTINUOUS
 70
0
 71
3
 72
19
 73
15
 74
0
 42
0.0000001
 43
0.0000001
 44
0.0000000001
 40
0.0
 40
0.0
 40
0.0
 40
0.0
 40
0.0282727335
 40
0.0390580616
 40
0.0515824066
 40
0.08206194
 40
0.1199708655
 40
0.1653604797
 40
0.21818795
 40
0.2783507375
 40
0.4200586065
 40
0.5889462
 40
0.7830344787
 40
1.0
 40
1.0
 40
1.0
 40
1.0
 10
18.8609049353
 20
19.7724810279
 30
0.0
 10
18.8590988667
 20
19.7755957555
 30
0.0
 10
18.8531914768
 20
19.7770637128
 30
0.0
 10
18.8467873683
 20
19.777222419
 30
0.0
 10
18.839895064
 20
19.7768477408
 30
0.0
 10
18.8297238985
 20
19.7752443169
 30
0.0
 10
18.8155999224
 20
19.7719323828
 30
0.0
 10
18.7989531116
 20
19.767085726
 30
0.0
 10
18.7798098045
 20
19.7607203016
 30
0.0
 10
18.7493392526
 20
19.7495941895
 30
0.0
 10
18.7055730415
 20
19.7318449271
 30
0.0
 10
18.6467504031
 20
19.7059359823
 30
0.0
 10
18.5798362206
 20
19.6746678337
 30
0.0
 10
18.5328025501
 20
19.6516836159
 30
0.0
 10
18.5080616977
 20
19.6393826769
 30
0.0
  0
SPLINE
  5
3C5
100
AcDbEntity
  8
218_STAMPATO
100
AcDbSpline
 62
250
  6
CONTINUOUS
 70
0
 71
3
 72
19
 73
15
 74
0
 42
0.0000001
 43
0.0000001
 44
0.0000000001
 40
0.0
 40
0.0
 40
0.0
 40
0.0
 40
0.0282727879
 40
0.0390581337
 40
0.051582496
 40
0.0820620608
 40
0.119971012
 40
0.1653606453
 40
0.2181881281
 40
0.278350921
 40
0.4200587807
 40
0.588946339
 40
0.7830345586
 40
1.0
 40
1.0
 40
1.0
 40
1.0
 10
18.9967272567
 20
19.5382221756
 30
0.0
 10
18.9949211683
 20
19.5413368993
 30
0.0
 10
18.9890137698
 20
19.5428048371
 30
0.0
 10
18.9826096498
 20
19.5429635371
 30
0.0
 10
18.9757173382
 20
19.5425888518
 30
0.0
 10
18.965546165
 20
19.5409854214
 30
0.0
 10
18.9514221817
 20
19.5376734805
 30
0.0
 10
18.9347753663
 20
19.5328268185
 30
0.0
 10
18.9156320571
 20
19.5264613904
 30
0.0
 10
18.8851615078
 20
19.5153352757
 30
0.0
 10
18.8413953057
 20
19.4975860143
 30
0.0
 10
18.7825726847
 20
19.4716770751
 30
0.0
 10
18.715658528
 20
19.4404089376
 30
0.0
 10
18.6686248772
 20
19.4174247293
 30
0.0
 10
18.6438840358
 20
19.4051237957
 30
0.0
  0
SPLINE
  5
3C6
100
AcDbEntity
  8
218_STAMPATO
100
AcDbSpline
 62
250
  6
CONTINUOUS
 70
0
 71
3
 72
21
 73
17
 74
0
 42
0.0000001
 43
0.0000001
 44
0.0000000001
 40
0.0
 40
0.0
 40
0.0
 40
0.0
 40
0.1316352043
 40
0.2632010756
 40
0.3946044511
 40
0.5256390421
 40
0.5908876743
 40
0.6557924419
 40
0.7201080233
 40
0.7833627767
 40
0.8446206672
 40
0.902155646
 40
0.9288790859
 40
0.9539743099
 40
0.9775529633
 40
1.0
 40
1.0
 40
1.0
 40
1.0
 10
19.3386948957
 20
15.1000364089
 30
0.0
 10
19.3386719098
 20
15.0551980031
 30
0.0
 10
19.3366417397
 20
14.9655330134
 30
0.0
 10
19.3275147876
 20
14.8313831232
 30
0.0
 10
19.3119178698
 20
14.698029741
 30
0.0
 10
19.2928433444
 20
14.587970836
 30
0.0
 10
19.2730483942
 20
14.5012133598
 30
0.0
 10
19.255601786
 20
14.4372853854
 30
0.0
 10
19.2350447014
 20
14.3749922173
 30
0.0
 10
19.2106843594
 20
14.3153796765
 30
0.0
 10
19.1816833799
 20
14.2604459449
 30
0.0
 10
19.1520621051
 20
14.2202381715
 30
0.0
 10
19.1246960535
 20
14.1947974817
 30
0.0
 10
19.103324986
 20
14.1803332027
 30
0.0
 10
19.0810261823
 20
14.1705143998
 30
0.0
 10
19.0656197751
 20
14.1670539417
 30
0.0
 10
19.0580345115
 20
14.1660917205
 30
0.0
  0
SPLINE
  5
3C7
100
AcDbEntity
  8
218_STAMPATO
100
AcDbSpline
 62
250
  6
CONTINUOUS
 70
0
 71
3
 72
21
 73
17
 74
0
 42
0.0000001
 43
0.0000001
 44
0.0000000001
 40
0.0
 40
0.0
 40
0.0
 40
0.0
 40
0.1316347256
 40
0.2632001476
 40
0.394603028
 40
0.5256372788
 40
0.590885984
 40
0.6557908733
 40
0.7201068207
 40
0.7833624433
 40
0.8446209213
 40
0.9021558708
 40
0.9288794013
 40
0.9539746403
 40
0.9775531903
 40
1.0
 40
1.0
 40
1.0
 40
1.0
 10
19.3386948853
 20
3.1489425604
 30
0.0
 10
19.3386726141
 20
3.1041018293
 30
0.0
 10
19.33664419
 20
3.0144321367
 30
0.0
 10
19.3275186492
 20
2.8802751538
 30
0.0
 10
19.3119231883
 20
2.7469145399
 30
0.0
 10
19.292849086
 20
2.6368495347
 30
0.0
 10
19.2730544961
 20
2.5500869641
 30
0.0
 10
19.2556078746
 20
2.4861549845
 30
0.0
 10
19.2350506218
 20
2.4238575526
 30
0.0
 10
19.2106897746
 20
2.3642406923
 30
0.0
 10
19.1816881797
 20
2.3093028395
 30
0.0
 10
19.1520660321
 20
2.2690920035
 30
0.0
 10
19.1246990748
 20
2.2436492018
 30
0.0
 10
19.1033270949
 20
2.2291836952
 30
0.0
 10
19.0810272637
 20
2.2193641156
 30
0.0
 10
19.0656201203
 20
2.2159034053
 30
0.0
 10
19.0580345115
 20
2.2149411482
 30
0.0
  0
SPLINE
  5
3C8
100
AcDbEntity
  8
218_STAMPATO
100
AcDbSpline
 62
250
  6
CONTINUOUS
 70
0
 71
3
 72
14
 73
10
 74
0
 42
0.0000001
 43
0.0000001
 44
0.0000000001
 40
0.0
 40
0.0
 40
0.0
 40
0.0
 40
0.1083200199
 40
0.2186901904
 40
0.3329587627
 40
0.4526225399
 40
0.5787530779
 40
0.7119879284
 40
1.0
 40
1.0
 40
1.0
 40
1.0
 10
18.8135184713
 20
-4.6455345608
 30
0.0
 10
18.8330780615
 20
-4.6349817259
 30
0.0
 10
18.8707505642
 20
-4.6101043402
 30
0.0
 10
18.9205843608
 20
-4.5629184629
 30
0.0
 10
18.963408453
 20
-4.5063593243
 30
0.0
 10
18.9987362319
 20
-4.4411907052
 30
0.0
 10
19.026226694
 20
-4.3682039269
 30
0.0
 10
19.0527410706
 20
-4.2588563793
 30
0.0
 10
19.058867715
 20
-4.1718705111
 30
0.0
 10
19.0580345115
 20
-4.1127829808
 30
0.0
  0
SPLINE
  5
3C9
100
AcDbEntity
  8
218_STAMPATO
100
AcDbSpline
 62
7
  6
CONTINUOUS
 70
0
 71
3
 72
9
 73
5
 74
0
 42
0.0000001
 43
0.0000001
 44
0.0000000001
 40
0.0
 40
0.0
 40
0.0
 40
0.0
 40
0.2587618214
 40
1.0
 40
1.0
 40
1.0
 40
1.0
 10
14.0618751783
 20
19.5661960707
 30
0.0
 10
14.0888519415
 20
19.5546642243
 30
0.0
 10
14.1924642461
 20
19.5086295331
 30
0.0
 10
14.293449138
 20
19.4565632519
 30
0.0
 10
14.3659945622
 20
19.4141363787
 30
0.0
  0
SPLINE
  5
3CA
100
AcDbEntity
  8
218_STAMPATO
100
AcDbSpline
 62
7
  6
CONTINUOUS
 70
0
 71
3
 72
9
 73
5
 74
0
 42
0.0000001
 43
0.0000001
 44
0.0000000001
 40
0.0
 40
0.0
 40
0.0
 40
0.0
 40
0.2587618214
 40
1.0
 40
1.0
 40
1.0
 40
1.0
 10
6.6372539758
 20
23.2785066719
 30
0.0
 10
6.664230739
 20
23.2669748256
 30
0.0
 10
6.7678430437
 20
23.2209401343
 30
0.0
 10
6.8688279355
 20
23.1688738531
 30
0.0
 10
6.9413733598
 20
23.1264469799
 30
0.0
  0
SPLINE
  5
3CB
100
AcDbEntity
  8
218_STAMPATO
100
AcDbSpline
 62
250
  6
CONTINUOUS
 70
0
 71
3
 72
19
 73
15
 74
0
 42
0.0000001
 43
0.0000001
 44
0.0000000001
 40
0.0
 40
0.0
 40
0.0
 40
0.0
 40
0.0088930933
 40
0.0195217651
 40
0.0461780179
 40
0.0799221124
 40
0.1203436317
 40
0.1669907272
 40
0.2194460145
 40
0.34029912
 40
0.4804248581
 40
0.637948333
 40
0.8114805034
 40
1.0
 40
1.0
 40
1.0
 40
1.0
 10
12.8547408286
 20
-7.8604319894
 30
0.0
 10
12.8533042056
 20
-7.8612072912
 30
0.0
 10
12.849942855
 20
-7.8625218139
 30
0.0
 10
12.8416659202
 20
-7.8644202074
 30
0.0
 10
12.8286027929
 20
-7.8653681955
 30
0.0
 10
12.8100948236
 20
-7.8648960534
 30
0.0
 10
12.7879919192
 20
-7.8629224821
 30
0.0
 10
12.7625982321
 20
-7.8595542794
 30
0.0
 10
12.7227546324
 20
-7.8529824525
 30
0.0
 10
12.6663514913
 20
-7.8415385997
 30
0.0
 10
12.5915455351
 20
-7.8240220793
 30
0.0
 10
12.5077778036
 20
-7.8024572528
 30
0.0
 10
12.4158237286
 20
-7.77712328
 30
0.0
 10
12.352000924
 20
-7.7585776003
 30
0.0
 10
12.3188219374
 20
-7.7487427734
 30
0.0
  0
SPLINE
  5
3CC
100
AcDbEntity
  8
218_STAMPATO
100
AcDbSpline
 62
250
  6
CONTINUOUS
 70
0
 71
3
 72
15
 73
11
 74
0
 42
0.0000001
 43
0.0000001
 44
0.0000000001
 40
0.0
 40
0.0
 40
0.0
 40
0.0
 40
0.0391960073
 40
0.0818440227
 40
0.1774416339
 40
0.2862871314
 40
0.4074686155
 40
0.5401104883
 40
0.6834650943
 40
1.0
 40
1.0
 40
1.0
 40
1.0
 10
12.5994744643
 20
-8.2865010575
 30
0.0
 10
12.5993983502
 20
-8.2784855797
 30
0.0
 10
12.5981298401
 20
-8.261752627
 30
0.0
 10
12.5918308683
 20
-8.225975516
 30
0.0
 10
12.5771844355
 20
-8.1774455389
 30
0.0
 10
12.5516424667
 20
-8.1158797854
 30
0.0
 10
12.5182916777
 20
-8.0495733517
 30
0.0
 10
12.4778112108
 20
-7.979117175
 30
0.0
 10
12.4128149989
 20
-7.8768126674
 30
0.0
 10
12.3579054641
 20
-7.8003460829
 30
0.0
 10
12.3188219033
 20
-7.7487428343
 30
0.0
  0
SPLINE
  5
3CD
100
AcDbEntity
  8
218_STAMPATO
100
AcDbSpline
 62
250
  6
CONTINUOUS
 70
0
 71
3
 72
25
 73
21
 74
0
 42
0.0000001
 43
0.0000001
 44
0.0000000001
 40
0.0
 40
0.0
 40
0.0
 40
0.0
 40
0.0222837012
 40
0.0449085925
 40
0.0680160819
 40
0.0917306959
 40
0.1413341776
 40
0.1943611748
 40
0.2510748074
 40
0.3114539999
 40
0.3752440828
 40
0.4420056045
 40
0.5111577631
 40
0.5820166558
 40
0.6538296441
 40
0.7258072316
 40
0.7971536699
 40
0.8670973524
 40
0.9349220321
 40
1.0
 40
1.0
 40
1.0
 40
1.0
 10
20.2680161034
 20
0.7911974669
 30
0.0
 10
20.3016976737
 20
0.8137115167
 30
0.0
 10
20.3671643302
 20
0.8628082755
 30
0.0
 10
20.4578816703
 20
0.9471492082
 30
0.0
 10
20.5412936053
 20
1.0422197141
 30
0.0
 10
20.6437648939
 20
1.1847477738
 30
0.0
 10
20.751234062
 20
1.3891955561
 30
0.0
 10
20.8435361953
 20
1.6648893047
 30
0.0
 10
20.900044844
 20
1.9698812757
 30
0.0
 10
20.919975063
 20
2.2988607604
 30
0.0
 10
20.903131503
 20
2.6461968727
 30
0.0
 10
20.8498675068
 20
3.0058892612
 30
0.0
 10
20.7611422596
 20
3.3716961821
 30
0.0
 10
20.6385176407
 20
3.737239917
 30
0.0
 10
20.4841445489
 20
4.0961293854
 30
0.0
 10
20.300727291
 20
4.4420810619
 30
0.0
 10
20.0914813228
 20
4.7690320426
 30
0.0
 10
19.8600530114
 20
5.0712681603
 30
0.0
 10
19.610519483
 20
5.3434681257
 30
0.0
 10
19.430704673
 20
5.505586001
 30
0.0
 10
19.3387198373
 20
5.5800006769
 30
0.0
  0
SPLINE
  5
3CE
100
AcDbEntity
  8
218_STAMPATO
100
AcDbSpline
 62
250
  6
CONTINUOUS
 70
0
 71
3
 72
13
 73
9
 74
0
 42
0.0000001
 43
0.0000001
 44
0.0000000001
 40
0.0
 40
0.0
 40
0.0
 40
0.0
 40
0.1083039761
 40
0.2201389209
 40
0.3364211918
 40
0.457833938
 40
0.7173257875
 40
1.0
 40
1.0
 40
1.0
 40
1.0
 10
11.9717685806
 20
-16.8847053842
 30
0.0
 10
11.9999359672
 20
-16.8591980137
 30
0.0
 10
12.0535816199
 20
-16.8032333538
 30
0.0
 10
12.1234922763
 20
-16.7077506874
 30
0.0
 10
12.1834228968
 20
-16.600417347
 30
0.0
 10
12.250879714
 20
-16.4391983938
 30
0.0
 10
12.3062900008
 20
-16.2114951883
 30
0.0
 10
12.3191098316
 20
-16.020836596
 30
0.0
 10
12.3188219033
 20
-15.9216557727
 30
0.0
  0
SPLINE
  5
3CF
100
AcDbEntity
  8
218_STAMPATO
100
AcDbSpline
 62
250
  6
CONTINUOUS
 70
0
 71
3
 72
15
 73
11
 74
0
 42
0.0000001
 43
0.0000001
 44
0.0000000001
 40
0.0
 40
0.0
 40
0.0
 40
0.0
 40
0.1553723096
 40
0.3009898546
 40
0.4368323353
 40
0.5632657311
 40
0.6811337033
 40
0.7918232414
 40
0.8972921772
 40
1.0
 40
1.0
 40
1.0
 40
1.0
 10
12.3188219033
 20
-15.9216557727
 30
0.0
 10
12.3403800732
 20
-15.9104937034
 30
0.0
 10
12.3813498744
 20
-15.8872753097
 30
0.0
 10
12.4376125961
 20
-15.8484631998
 30
0.0
 10
12.4862525155
 20
-15.8070880809
 30
0.0
 10
12.5268178043
 20
-15.7634897755
 30
0.0
 10
12.5589136847
 20
-15.7180181646
 30
0.0
 10
12.5821830282
 20
-15.6710350541
 30
0.0
 10
12.5963080798
 20
-15.6229843276
 30
0.0
 10
12.5994819993
 20
-15.5903755017
 30
0.0
 10
12.5994819968
 20
-15.5743277111
 30
0.0
  0
SPLINE
  5
3D0
100
AcDbEntity
  8
218_STAMPATO
100
AcDbSpline
 62
250
  6
CONTINUOUS
 70
0
 71
3
 72
25
 73
21
 74
0
 42
0.0000001
 43
0.0000001
 44
0.0000000001
 40
0.0
 40
0.0
 40
0.0
 40
0.0
 40
0.065167303
 40
0.1330942828
 40
0.2031462428
 40
0.2745989703
 40
0.3466725162
 40
0.4185629824
 40
0.4894734872
 40
0.5586453687
 40
0.6253907217
 40
0.6891275252
 40
0.7494187886
 40
0.806017044
 40
0.858914286
 40
0.9083933733
 40
0.9320562646
 40
0.9551234481
 40
0.977723088
 40
1.0
 40
1.0
 40
1.0
 40
1.0
 10
19.3387198373
 20
17.531151249
 30
0.0
 10
19.4311160428
 20
17.4564037797
 30
0.0
 10
19.6117118685
 20
17.2935041011
 30
0.0
 10
19.8622222267
 20
17.0199012185
 30
0.0
 10
20.0944322615
 20
16.7160465797
 30
0.0
 10
20.3042156306
 20
16.3873362241
 30
0.0
 10
20.4878849543
 20
16.0395648033
 30
0.0
 10
20.6421924457
 20
15.6788798226
 30
0.0
 10
20.7644115327
 20
15.31165068
 30
0.0
 10
20.8523797575
 20
14.9443529285
 30
0.0
 10
20.9045346642
 20
14.5834445976
 30
0.0
 10
20.9199270399
 20
14.2352409572
 30
0.0
 10
20.898223129
 20
13.9058070409
 30
0.0
 10
20.8396442558
 20
13.6008285117
 30
0.0
 10
20.7450096378
 20
13.32566351
 30
0.0
 10
20.6353821665
 20
13.1221550782
 30
0.0
 10
20.5311461206
 20
12.9807218584
 30
0.0
 10
20.4463969232
 20
12.8865967204
 30
0.0
 10
20.3543287628
 20
12.8033514871
 30
0.0
 10
20.2879843594
 20
12.7551108622
 30
0.0
 10
20.2538714959
 20
12.7330470219
 30
0.0
  0
SPLINE
  5
3D1
100
AcDbEntity
  8
218_STAMPATO
100
AcDbSpline
 62
7
  6
CONTINUOUS
 70
0
 71
3
 72
43
 73
39
 74
0
 42
0.0000001
 43
0.0000001
 44
0.0000000001
 40
0.0
 40
0.0
 40
0.0
 40
0.0
 40
0.0693427893
 40
0.139177642
 40
0.2096343807
 40
0.2451536606
 40
0.280908955
 40
0.3169433955
 40
0.3533138041
 40
0.3900968004
 40
0.4273975881
 40
0.4653587451
 40
0.484642783
 40
0.5041493065
 40
0.5238607308
 40
0.5436566826
 40
0.5631234331
 40
0.5724651352
 40
0.5813300299
 40
0.5895913287
 40
0.5972184532
 40
0.6042846858
 40
0.6109198812
 40
0.6233815101
 40
0.6353911188
 40
0.6473094895
 40
0.6592846946
 40
0.6713716017
 40
0.6835860751
 40
0.7083847196
 40
0.7336339394
 40
0.7592624786
 40
0.7852093191
 40
0.8114255474
 40
0.8378723176
 40
0.8913370566
 40
0.9454218482
 40
1.0
 40
1.0
 40
1.0
 40
1.0
 10
19.1755841926
 20
12.5309866252
 30
0.0
 10
19.2404827454
 20
12.5840167606
 30
0.0
 10
19.3701454895
 20
12.691185215
 30
0.0
 10
19.5632128305
 20
12.8552748881
 30
0.0
 10
19.7227238344
 20
12.9956844284
 30
0.0
 10
19.8493457271
 20
13.111061936
 30
0.0
 10
19.9440237319
 20
13.1997097578
 30
0.0
 10
20.0379977084
 20
13.2905927892
 30
0.0
 10
20.1310359317
 20
13.3841978644
 30
0.0
 10
20.2227773483
 20
13.4812035244
 30
0.0
 10
20.3125963737
 20
13.5825863004
 30
0.0
 10
20.38451607
 20
13.6714716122
 30
0.0
 10
20.4391727815
 20
13.7464505205
 30
0.0
 10
20.4783025704
 20
13.8053763914
 30
0.0
 10
20.5142709481
 20
13.8670369024
 30
0.0
 10
20.545111003
 20
13.931396876
 30
0.0
 10
20.5640880871
 20
13.9872708918
 30
0.0
 10
20.572542605
 20
14.032093363
 30
0.0
 10
20.5748128108
 20
14.0640887162
 30
0.0
 10
20.5728301854
 20
14.0940481287
 30
0.0
 10
20.5667468057
 20
14.1212369619
 30
0.0
 10
20.5571037365
 20
14.1452653457
 30
0.0
 10
20.5408304316
 20
14.17250801
 30
0.0
 10
20.5148194945
 20
14.2002829595
 30
0.0
 10
20.4782360059
 20
14.2251196894
 30
0.0
 10
20.4388365505
 20
14.2436110111
 30
0.0
 10
20.3975404882
 20
14.2574591718
 30
0.0
 10
20.3548836192
 20
14.2677741247
 30
0.0
 10
20.2963668599
 20
14.2778405604
 30
0.0
 10
20.2213196774
 20
14.2847057245
 30
0.0
 10
20.1298310683
 20
14.2866330657
 30
0.0
 10
20.0369888905
 20
14.2838507062
 30
0.0
 10
19.9431721265
 20
14.2774004955
 30
0.0
 10
19.848616733
 20
14.2679971747
 30
0.0
 10
19.7213210134
 20
14.2521483421
 30
0.0
 10
19.5612608137
 20
14.2272276623
 30
0.0
 10
19.3685903955
 20
14.1914202955
 30
0.0
 10
19.2400294497
 20
14.1645298819
 30
0.0
 10
19.1755841095
 20
14.1504545828
 30
0.0
  0
SPLINE
  5
3D2
100
AcDbEntity
  8
218_STAMPATO
100
AcDbSpline
 62
7
  6
CONTINUOUS
 70
0
 71
3
 72
43
 73
39
 74
0
 42
0.0000001
 43
0.0000001
 44
0.0000000001
 40
0.0
 40
0.0
 40
0.0
 40
0.0
 40
0.0693427896
 40
0.1391776426
 40
0.2096343817
 40
0.2451536618
 40
0.2809089564
 40
0.3169433971
 40
0.3533138059
 40
0.3900968023
 40
0.4273975901
 40
0.4653587472
 40
0.484642785
 40
0.5041493084
 40
0.5238607326
 40
0.5436566842
 40
0.5631234352
 40
0.5724651381
 40
0.5813300339
 40
0.5895913342
 40
0.5972184603
 40
0.6042846944
 40
0.6109198909
 40
0.6233815211
 40
0.6353911302
 40
0.6473095008
 40
0.6592847056
 40
0.6713716122
 40
0.6835860852
 40
0.7083847286
 40
0.7336339474
 40
0.7592624856
 40
0.7852093253
 40
0.8114255527
 40
0.837872322
 40
0.8913370594
 40
0.9454218496
 40
1.0
 40
1.0
 40
1.0
 40
1.0
 10
19.1755845517
 20
0.5798363464
 30
0.0
 10
19.2404830867
 20
0.6328664695
 30
0.0
 10
19.3701457953
 20
0.7400348992
 30
0.0
 10
19.563213083
 20
0.9041245345
 30
0.0
 10
19.7227240429
 20
1.0445340427
 30
0.0
 10
19.8493459003
 20
1.1599115238
 30
0.0
 10
19.9440238787
 20
1.2485593254
 30
0.0
 10
20.0379978288
 20
1.3394423359
 30
0.0
 10
20.1310360259
 20
1.4330473896
 30
0.0
 10
20.2227774165
 20
1.530053027
 30
0.0
 10
20.3125964162
 20
1.631435779
 30
0.0
 10
20.384516092
 20
1.720321069
 30
0.0
 10
20.4391727882
 20
1.7952999583
 30
0.0
 10
20.4783025665
 20
1.8542258136
 30
0.0
 10
20.5142709354
 20
1.9158863075
 30
0.0
 10
20.5451109852
 20
1.9802462631
 30
0.0
 10
20.5640880706
 20
2.0361202632
 30
0.0
 10
20.5725425958
 20
2.0809427236
 30
0.0
 10
20.5748128101
 20
2.1129380719
 30
0.0
 10
20.5728301956
 20
2.1428974823
 30
0.0
 10
20.5667468281
 20
2.1700863165
 30
0.0
 10
20.5571037711
 20
2.1941147033
 30
0.0
 10
20.5408304816
 20
2.2213573726
 30
0.0
 10
20.514819562
 20
2.24913233
 30
0.0
 10
20.4782360909
 20
2.273969069
 30
0.0
 10
20.4388366517
 20
2.2924603985
 30
0.0
 10
20.3975406047
 20
2.3063085661
 30
0.0
 10
20.3548837506
 20
2.3166235254
 30
0.0
 10
20.2963670107
 20
2.3266899691
 30
0.0
 10
20.2213198518
 20
2.3335551426
 30
0.0
 10
20.1298312704
 20
2.3354824945
 30
0.0
 10
20.0369891201
 20
2.3327001453
 30
0.0
 10
19.9431723833
 20
2.3262499449
 30
0.0
 10
19.8486170169
 20
2.3168466343
 30
0.0
 10
19.7213213334
 20
2.3009978153
 30
0.0
 10
19.5612611786
 20
2.2760771523
 30
0.0
 10
19.368590814
 20
2.2402698059
 30
0.0
 10
19.240029904
 20
2.213379406
 30
0.0
 10
19.1755845816
 20
2.1993041136
 30
0.0
  0
SPLINE
  5
3D3
100
AcDbEntity
  8
218_STAMPATO
100
AcDbSpline
 62
7
  6
CONTINUOUS
 70
0
 71
3
 72
15
 73
11
 74
0
 42
0.0000001
 43
0.0000001
 44
0.0000000001
 40
0.0
 40
0.0
 40
0.0
 40
0.0
 40
0.1556943211
 40
0.301573237
 40
0.437586056
 40
0.5640811213
 40
0.6818911495
 40
0.7924077098
 40
0.8976106823
 40
1.0
 40
1.0
 40
1.0
 40
1.0
 10
2.2115798423
 20
23.7241049229
 30
0.0
 10
2.1510858258
 20
23.6933253437
 30
0.0
 10
2.0360980151
 20
23.6292293991
 30
0.0
 10
1.8780924994
 20
23.5218554814
 30
0.0
 10
1.7414314102
 20
23.4072036711
 30
0.0
 10
1.627409199
 20
23.2862386976
 30
0.0
 10
1.5371578923
 20
23.1599490381
 30
0.0
 10
1.4717005761
 20
23.0293582589
 30
0.0
 10
1.4319526904
 20
22.8957222637
 30
0.0
 10
1.4230184366
 20
22.8049908286
 30
0.0
 10
1.4230186193
 20
22.7603546845
 30
0.0
  0
SPLINE
  5
3D4
100
AcDbEntity
  8
218_STAMPATO
100
AcDbSpline
 62
7
  6
CONTINUOUS
 70
0
 71
3
 72
15
 73
11
 74
0
 42
0.0000001
 43
0.0000001
 44
0.0000000001
 40
0.0
 40
0.0
 40
0.0
 40
0.0
 40
0.1556943211
 40
0.301573237
 40
0.437586056
 40
0.5640811213
 40
0.6818911495
 40
0.7924077098
 40
0.8976106823
 40
1.0
 40
1.0
 40
1.0
 40
1.0
 10
9.6362010447
 20
20.0117943217
 30
0.0
 10
9.5757070283
 20
19.9810147425
 30
0.0
 10
9.4607192176
 20
19.9169187979
 30
0.0
 10
9.3027137019
 20
19.8095448801
 30
0.0
 10
9.1660526127
 20
19.6948930699
 30
0.0
 10
9.0520304015
 20
19.5739280964
 30
0.0
 10
8.9617790947
 20
19.4476384369
 30
0.0
 10
8.8963217786
 20
19.3170476577
 30
0.0
 10
8.8565738929
 20
19.1834116624
 30
0.0
 10
8.8476396391
 20
19.0926802274
 30
0.0
 10
8.8476398217
 20
19.0480440833
 30
0.0
  0
SPLINE
  5
3D5
100
AcDbEntity
  8
218_STAMPATO
100
AcDbSpline
 62
250
  6
CONTINUOUS
 70
0
 71
3
 72
14
 73
10
 74
0
 42
0.0000001
 43
0.0000001
 44
0.0000000001
 40
0.0
 40
0.0
 40
0.0
 40
0.0
 40
0.3005172714
 40
0.4363929649
 40
0.562926814
 40
0.6809357292
 40
0.7917656127
 40
0.8973204247
 40
1.0
 40
1.0
 40
1.0
 40
1.0
 10
19.0580345115
 20
-4.1127829808
 30
0.0
 10
19.0994646961
 20
-4.0913318747
 30
0.0
 10
19.1576680462
 20
-4.0557241781
 30
0.0
 10
19.2244611186
 20
-3.9991460059
 30
0.0
 10
19.2649345345
 20
-3.9559237388
 30
0.0
 10
19.297072086
 20
-3.9108529268
 30
0.0
 10
19.3205279657
 20
-3.8642805665
 30
0.0
 10
19.3349899682
 20
-3.8166395668
 30
0.0
 10
19.3384947036
 20
-3.7842708999
 30
0.0
 10
19.3386780614
 20
-3.768331344
 30
0.0
  0
SPLINE
  5
3D6
100
AcDbEntity
  8
218_STAMPATO
100
AcDbSpline
 62
250
  6
CONTINUOUS
 70
0
 71
3
 72
15
 73
11
 74
0
 42
0.0000001
 43
0.0000001
 44
0.0000000001
 40
0.0
 40
0.0
 40
0.0
 40
0.0
 40
0.1553802491
 40
0.3010037118
 40
0.4368499232
 40
0.5632846872
 40
0.6811515135
 40
0.7918373437
 40
0.8973001816
 40
1.0
 40
1.0
 40
1.0
 40
1.0
 10
19.0580345115
 20
17.9734902211
 30
0.0
 10
19.0795919364
 20
17.9846483346
 30
0.0
 10
19.1205603685
 20
18.0078589089
 30
0.0
 10
19.1768216989
 20
18.0466594391
 30
0.0
 10
19.2254607227
 20
18.0880231719
 30
0.0
 10
19.2660256596
 20
18.1316101938
 30
0.0
 10
19.2981217859
 20
18.1770705421
 30
0.0
 10
19.3213920092
 20
18.2240423763
 30
0.0
 10
19.3355185603
 20
18.2720818144
 30
0.0
 10
19.3386938727
 20
18.3046833097
 30
0.0
 10
19.3386946048
 20
18.3207273904
 30
0.0
  0
SPLINE
  5
3D7
100
AcDbEntity
  8
218_STAMPATO
100
AcDbSpline
 62
250
  6
CONTINUOUS
 70
0
 71
3
 72
11
 73
7
 74
0
 42
0.0000001
 43
0.0000001
 44
0.0000000001
 40
0.0
 40
0.0
 40
0.0
 40
0.0
 40
0.2602702373
 40
0.5174813741
 40
0.7657527574
 40
1.0
 40
1.0
 40
1.0
 40
1.0
 10
18.6438840358
 20
19.4051237957
 30
0.0
 10
18.7097443025
 20
19.292266464
 30
0.0
 10
18.8271282664
 20
19.0596572897
 30
0.0
 10
18.9578852491
 20
18.6971182273
 30
0.0
 10
19.0389183626
 20
18.3336503853
 30
0.0
 10
19.0583749028
 20
18.0910937289
 30
0.0
 10
19.0580345115
 20
17.9734902211
 30
0.0
  0
SPLINE
  5
3D8
100
AcDbEntity
  8
218_STAMPATO
100
AcDbSpline
 62
250
  6
CONTINUOUS
 70
0
 71
3
 72
11
 73
7
 74
0
 42
0.0000001
 43
0.0000001
 44
0.0000000001
 40
0.0
 40
0.0
 40
0.0
 40
0.0
 40
0.2691312001
 40
0.5287222304
 40
0.7735798097
 40
1.0
 40
1.0
 40
1.0
 40
1.0
 10
18.5080616977
 20
19.6393826769
 30
0.0
 10
18.4760265881
 20
19.6953610055
 30
0.0
 10
18.4063173382
 20
19.8016320743
 30
0.0
 10
18.2852379865
 20
19.9427395383
 30
0.0
 10
18.1531832462
 20
20.0587235619
 30
0.0
 10
18.05680638
 20
20.118966453
 30
0.0
 10
18.0081378501
 20
20.1429589362
 30
0.0
  0
SPLINE
  5
3D9
100
AcDbEntity
  8
218_STAMPATO
100
AcDbSpline
 62
250
  6
CONTINUOUS
 70
0
 71
3
 72
13
 73
9
 74
0
 42
0.0000001
 43
0.0000001
 44
0.0000000001
 40
0.0
 40
0.0
 40
0.0
 40
0.0
 40
0.2776481467
 40
0.5331430789
 40
0.6540879816
 40
0.7714793583
 40
0.8863824325
 40
1.0
 40
1.0
 40
1.0
 40
1.0
 10
4.858269749
 20
26.7178929867
 30
0.0
 10
4.8206838188
 20
26.7369537479
 30
0.0
 10
4.7454004253
 20
26.7679252853
 30
0.0
 10
4.6471549253
 20
26.787165424
 30
0.0
 10
4.572043208
 20
26.7884317529
 30
0.0
 10
4.5185842678
 20
26.7826977505
 30
0.0
 10
4.4674092162
 20
26.7703183522
 30
0.0
 10
4.4349829275
 20
26.7576518323
 30
0.0
 10
4.4193849864
 20
26.7502959474
 30
0.0
  0
SPLINE
  5
3DA
100
AcDbEntity
  8
218_STAMPATO
100
AcDbSpline
 62
250
  6
CONTINUOUS
 70
0
 71
3
 72
13
 73
9
 74
0
 42
0.0000001
 43
0.0000001
 44
0.0000000001
 40
0.0
 40
0.0
 40
0.0
 40
0.0
 40
0.2779538981
 40
0.5335100317
 40
0.6544091169
 40
0.7717159427
 40
0.8865065416
 40
1.0
 40
1.0
 40
1.0
 40
1.0
 10
4.858269749
 20
26.7178929867
 30
0.0
 10
4.8959243135
 20
26.7359152897
 30
0.0
 10
4.9711387219
 20
26.7648871873
 30
0.0
 10
5.0687972895
 20
26.7817635723
 30
0.0
 10
5.1431180194
 20
26.7813588338
 30
0.0
 10
5.1958381083
 20
26.7745060428
 30
0.0
 10
5.2461388512
 20
26.761128641
 30
0.0
 10
5.2778968536
 20
26.7478792969
 30
0.0
 10
5.293142615
 20
26.7402562872
 30
0.0
  0
SPLINE
  5
3DB
100
AcDbEntity
  8
218_STAMPATO
100
AcDbSpline
 62
250
  6
CONTINUOUS
 70
0
 71
3
 72
11
 73
7
 74
0
 42
0.0000001
 43
0.0000001
 44
0.0000000001
 40
0.0
 40
0.0
 40
0.0
 40
0.0
 40
0.2278650143
 40
0.4657801303
 40
0.7216148653
 40
1.0
 40
1.0
 40
1.0
 40
1.0
 10
-2.1925702967
 20
20.4218549734
 30
0.0
 10
-2.1771342615
 20
20.4289836119
 30
0.0
 10
-2.1433845785
 20
20.4391969158
 30
0.0
 10
-2.0890282452
 20
20.4407640412
 30
0.0
 10
-2.0321720511
 20
20.4290762186
 30
0.0
 10
-1.9952098611
 20
20.4135034456
 30
0.0
 10
-1.9767606099
 20
20.4039581711
 30
0.0
  0
SPLINE
  5
3DC
100
AcDbEntity
  8
218_STAMPATO
100
AcDbSpline
 62
250
  6
CONTINUOUS
 70
0
 71
3
 72
23
 73
19
 74
0
 42
0.0000001
 43
0.0000001
 44
0.0000000001
 40
0.0
 40
0.0
 40
0.0
 40
0.0
 40
0.0578005068
 40
0.1113033008
 40
0.1596865247
 40
0.2027068419
 40
0.2408110142
 40
0.2749282104
 40
0.306135258
 40
0.3354013463
 40
0.3907700509
 40
0.4447648118
 40
0.498777768
 40
0.5532352117
 40
0.6634814619
 40
0.7750917906
 40
0.887379823
 40
1.0
 40
1.0
 40
1.0
 40
1.0
 10
19.0580345115
 20
12.3936232475
 30
0.0
 10
19.0651218635
 20
12.4000633778
 30
0.0
 10
19.0791617112
 20
12.4120476998
 30
0.0
 10
19.1006568817
 20
12.4275351612
 30
0.0
 10
19.121535139
 20
12.4394962216
 30
0.0
 10
19.1414238798
 20
12.4477303493
 30
0.0
 10
19.1600323604
 20
12.4523468488
 30
0.0
 10
19.1771944964
 20
12.4537076368
 30
0.0
 10
19.1928764629
 20
12.4523028493
 30
0.0
 10
19.2115386448
 20
12.4475271687
 30
0.0
 10
19.232279692
 20
12.437000983
 30
0.0
 10
19.2531550733
 20
12.4195258827
 30
0.0
 10
19.2707238769
 20
12.3990096973
 30
0.0
 10
19.2906693438
 20
12.3686726952
 30
0.0
 10
19.3099680561
 20
12.3268917571
 30
0.0
 10
19.3259381364
 20
12.2737486238
 30
0.0
 10
19.3356778047
 20
12.218738455
 30
0.0
 10
19.3382610394
 20
12.1814881934
 30
0.0
 10
19.3386032073
 20
12.1628325594
 30
0.0
  0
SPLINE
  5
3DD
100
AcDbEntity
  8
218_STAMPATO
100
AcDbSpline
 62
7
  6
CONTINUOUS
 70
0
 71
3
 72
9
 73
5
 74
0
 42
0.0000001
 43
0.0000001
 44
0.0000000001
 40
0.0
 40
0.0
 40
0.0
 40
0.0
 40
0.5162520767
 40
1.0
 40
1.0
 40
1.0
 40
1.0
 10
19.0580345115
 20
12.3936230253
 30
0.0
 10
19.07446019
 20
12.4201739939
 30
0.0
 10
19.1097017946
 20
12.4696383505
 30
0.0
 10
19.1529300478
 20
12.5124753902
 30
0.0
 10
19.1755841926
 20
12.5309866252
 30
0.0
  0
SPLINE
  5
3DE
100
AcDbEntity
  8
218_STAMPATO
100
AcDbSpline
 62
250
  6
CONTINUOUS
 70
0
 71
3
 72
20
 73
16
 74
0
 42
0.0000001
 43
0.0000001
 44
0.0000000001
 40
0.0
 40
0.0
 40
0.0
 40
0.0
 40
0.1007402641
 40
0.1821590576
 40
0.2522865331
 40
0.3160164014
 40
0.3758174675
 40
0.4329096492
 40
0.5412366258
 40
0.6457364826
 40
0.6983169271
 40
0.7521408256
 40
0.8081880708
 40
0.8675054839
 40
1.0
 40
1.0
 40
1.0
 40
1.0
 10
19.1755841926
 20
12.5309866252
 30
0.0
 10
19.1944153443
 20
12.5379810398
 30
0.0
 10
19.230138463
 20
12.5470123905
 30
0.0
 10
19.2810591174
 20
12.5451171286
 30
0.0
 10
19.3223871849
 20
12.5319035617
 30
0.0
 10
19.3557074847
 20
12.5118239391
 30
0.0
 10
19.382489416
 20
12.4874367346
 30
0.0
 10
19.4101620588
 20
12.451854351
 30
0.0
 10
19.4330118288
 20
12.4021548531
 30
0.0
 10
19.4400210273
 20
12.3488487989
 30
0.0
 10
19.4359509137
 20
12.3068521727
 30
0.0
 10
19.4280155904
 20
12.2753188981
 30
0.0
 10
19.4150550275
 20
12.2440442466
 30
0.0
 10
19.3899682322
 20
12.2013144909
 30
0.0
 10
19.3642059875
 20
12.1724314744
 30
0.0
 10
19.3448912382
 20
12.1544047248
 30
0.0
  0
LINE
  5
3DF
100
AcDbEntity
  8
218_STAMPATO
100
AcDbLine
 62
250
  6
CONTINUOUS
 10
19.3411007719
 20
12.150908991
 11
19.340789807
 21
12.1506258519
  0
SPLINE
  5
3E0
100
AcDbEntity
  8
218_STAMPATO
100
AcDbSpline
 62
250
  6
CONTINUOUS
 70
0
 71
3
 72
17
 73
13
 74
0
 42
0.0000001
 43
0.0000001
 44
0.0000000001
 40
0.0
 40
0.0
 40
0.0
 40
0.0
 40
0.254461909
 40
0.3818297068
 40
0.5091138184
 40
0.6360591612
 40
0.6992532314
 40
0.7620695105
 40
0.8242481553
 40
0.8853153297
 40
0.9443942229
 40
1.0
 40
1.0
 40
1.0
 40
1.0
 10
19.3387900858
 20
15.8022465701
 30
0.0
 10
19.3827109039
 20
15.6636055777
 30
0.0
 10
19.4252748634
 20
15.4475253464
 30
0.0
 10
19.4413070205
 20
15.1568022754
 30
0.0
 10
19.4341292298
 20
14.9385235172
 30
0.0
 10
19.4122682487
 20
14.7581577399
 30
0.0
 10
19.3845076114
 20
14.6162214133
 30
0.0
 10
19.3581791818
 20
14.5118747184
 30
0.0
 10
19.3256980434
 20
14.4105332411
 30
0.0
 10
19.2860999848
 20
14.3139775046
 30
0.0
 10
19.2382091253
 20
14.2254507918
 30
0.0
 10
19.1979865479
 20
14.1729958599
 30
0.0
 10
19.1755841095
 20
14.1504545828
 30
0.0
  0
SPLINE
  5
3E1
100
AcDbEntity
  8
218_STAMPATO
100
AcDbSpline
 62
7
  6
CONTINUOUS
 70
0
 71
3
 72
11
 73
7
 74
0
 42
0.0000001
 43
0.0000001
 44
0.0000000001
 40
0.0
 40
0.0
 40
0.0
 40
0.0
 40
0.2664552333
 40
0.518643244
 40
0.7611018672
 40
1.0
 40
1.0
 40
1.0
 40
1.0
 10
19.1755841095
 20
14.1504545828
 30
0.0
 10
19.165054371
 20
14.1481548165
 30
0.0
 10
19.1441925553
 20
14.1451132757
 30
0.0
 10
19.1132395764
 20
14.1460764152
 30
0.0
 10
19.084160003
 20
14.1529371065
 30
0.0
 10
19.0663902995
 20
14.1612380865
 30
0.0
 10
19.0580345115
 20
14.1660919427
 30
0.0
  0
SPLINE
  5
3E2
100
AcDbEntity
  8
218_STAMPATO
100
AcDbSpline
 62
250
  6
CONTINUOUS
 70
0
 71
3
 72
17
 73
13
 74
0
 42
0.0000001
 43
0.0000001
 44
0.0000000001
 40
0.0
 40
0.0
 40
0.0
 40
0.0
 40
0.2544613818
 40
0.3818292043
 40
0.509113172
 40
0.6360584645
 40
0.6992523961
 40
0.7620687498
 40
0.8242475719
 40
0.885315003
 40
0.9443943015
 40
1.0
 40
1.0
 40
1.0
 40
1.0
 10
19.3388016052
 20
3.8510596228
 30
0.0
 10
19.3827185713
 20
3.7124211433
 30
0.0
 10
19.425278251
 20
3.49634557
 30
0.0
 10
19.4413072184
 20
3.2056292221
 30
0.0
 10
19.4341277019
 20
2.987355534
 30
0.0
 10
19.4122662547
 20
2.8069941024
 30
0.0
 10
19.3845052481
 20
2.6650612233
 30
0.0
 10
19.3581772123
 20
2.5607168471
 30
0.0
 10
19.3256961936
 20
2.4593775376
 30
0.0
 10
19.2860986364
 20
2.3628235722
 30
0.0
 10
19.2382078863
 20
2.2742990419
 30
0.0
 10
19.1979865374
 20
2.2218448034
 30
0.0
 10
19.1755845816
 20
2.1993041136
 30
0.0
  0
SPLINE
  5
3E3
100
AcDbEntity
  8
218_STAMPATO
100
AcDbSpline
 62
7
  6
CONTINUOUS
 70
0
 71
3
 72
11
 73
7
 74
0
 42
0.0000001
 43
0.0000001
 44
0.0000000001
 40
0.0
 40
0.0
 40
0.0
 40
0.0
 40
0.2664554116
 40
0.51864341
 40
0.7611019412
 40
1.0
 40
1.0
 40
1.0
 40
1.0
 10
19.1755845816
 20
2.1993041136
 30
0.0
 10
19.1650547946
 20
2.1970043373
 30
0.0
 10
19.1441929106
 20
2.1939626696
 30
0.0
 10
19.1132397904
 20
2.1949257942
 30
0.0
 10
19.0841601388
 20
2.2017865612
 30
0.0
 10
19.0663903041
 20
2.2100874429
 30
0.0
 10
19.0580345115
 20
2.2149413609
 30
0.0
  0
SPLINE
  5
3E4
100
AcDbEntity
  8
218_STAMPATO
100
AcDbSpline
 62
250
  6
CONTINUOUS
 70
0
 71
3
 72
23
 73
19
 74
0
 42
0.0000001
 43
0.0000001
 44
0.0000000001
 40
0.0
 40
0.0
 40
0.0
 40
0.0
 40
0.0578183799
 40
0.1113108157
 40
0.1596504043
 40
0.2025999872
 40
0.240621707
 40
0.2746612478
 40
0.3058064739
 40
0.3350304743
 40
0.3903678838
 40
0.4443774173
 40
0.4984273995
 40
0.552930306
 40
0.6632684404
 40
0.7749585826
 40
0.8873149437
 40
1.0
 40
1.0
 40
1.0
 40
1.0
 10
19.0580345115
 20
0.4424726752
 30
0.0
 10
19.0651559477
 20
0.4489437828
 30
0.0
 10
19.0792618214
 20
0.4609809101
 30
0.0
 10
19.1008592372
 20
0.4765208945
 30
0.0
 10
19.1218306551
 20
0.4884968406
 30
0.0
 10
19.1417989773
 20
0.496708677
 30
0.0
 10
19.1604708834
 20
0.50127178
 30
0.0
 10
19.1776802102
 20
0.5025573305
 30
0.0
 10
19.1933952276
 20
0.5010644058
 30
0.0
 10
19.2120915925
 20
0.496163907
 30
0.0
 10
19.2328534577
 20
0.4854714437
 30
0.0
 10
19.25373041
 20
0.4678047198
 30
0.0
 10
19.2712916425
 20
0.4471020078
 30
0.0
 10
19.2912147308
 20
0.4165210757
 30
0.0
 10
19.3104605915
 20
0.3744494148
 30
0.0
 10
19.3263282529
 20
0.3209732764
 30
0.0
 10
19.3359206714
 20
0.2656457232
 30
0.0
 10
19.3383723428
 20
0.2281953563
 30
0.0
 10
19.3386396125
 20
0.209443747
 30
0.0
  0
SPLINE
  5
3E5
100
AcDbEntity
  8
218_STAMPATO
100
AcDbSpline
 62
7
  6
CONTINUOUS
 70
0
 71
3
 72
9
 73
5
 74
0
 42
0.0000001
 43
0.0000001
 44
0.0000000001
 40
0.0
 40
0.0
 40
0.0
 40
0.0
 40
0.5162521555
 40
1.0
 40
1.0
 40
1.0
 40
1.0
 10
19.0580345115
 20
0.4424724621
 30
0.0
 10
19.0744601859
 20
0.4690235309
 30
0.0
 10
19.1097019522
 20
0.5184879732
 30
0.0
 10
19.1529303541
 20
0.5613250674
 30
0.0
 10
19.1755845517
 20
0.5798363464
 30
0.0
  0
SPLINE
  5
3E6
100
AcDbEntity
  8
218_STAMPATO
100
AcDbSpline
 62
250
  6
CONTINUOUS
 70
0
 71
3
 72
20
 73
16
 74
0
 42
0.0000001
 43
0.0000001
 44
0.0000000001
 40
0.0
 40
0.0
 40
0.0
 40
0.0
 40
0.1007384177
 40
0.1821564127
 40
0.2522826871
 40
0.3160114499
 40
0.375811544
 40
0.4329025737
 40
0.5412277099
 40
0.6457262711
 40
0.6983068222
 40
0.7521314047
 40
0.8081797276
 40
0.8674990083
 40
1.0
 40
1.0
 40
1.0
 40
1.0
 10
19.1755845517
 20
0.5798363464
 30
0.0
 10
19.1944163338
 20
0.5868310393
 30
0.0
 10
19.2301409912
 20
0.5958620701
 30
0.0
 10
19.2810635934
 20
0.5939662522
 30
0.0
 10
19.3223927575
 20
0.5807505742
 30
0.0
 10
19.3557136798
 20
0.5606692441
 30
0.0
 10
19.3824951213
 20
0.5362796161
 30
0.0
 10
19.4101674396
 20
0.5006950186
 30
0.0
 10
19.4330154583
 20
0.4509923937
 30
0.0
 10
19.4400217344
 20
0.3976836602
 30
0.0
 10
19.4359481919
 20
0.3556852134
 30
0.0
 10
19.4280097353
 20
0.3241505769
 30
0.0
 10
19.4150456411
 20
0.292874676
 30
0.0
 10
19.38995296
 20
0.2501431676
 30
0.0
 10
19.3641859331
 20
0.2212594752
 30
0.0
 10
19.3448678736
 20
0.203232344
 30
0.0
  0
LINE
  5
3E7
100
AcDbEntity
  8
218_STAMPATO
100
AcDbLine
 62
250
  6
CONTINUOUS
 10
19.3410898351
 20
0.1997484515
 11
19.3407833793
 21
0.1994694332
  0
ELLIPSE
  5
3E8
100
AcDbEntity
  8
0
100
AcDbEllipse
 62
7
  6
CONTINUOUS
 10
-15.8484014289
 20
18.6254017512
 30
0.0
 11
-0.4261128038
 21
0.6773481015
 31
0.0
 40
0.5566415623
 41
-0.7420776615
 42
0.0162749002
  0
ELLIPSE
  5
3E9
100
AcDbEntity
  8
0
100
AcDbEllipse
 62
7
  6
CONTINUOUS
 10
-1.2823895618
 20
11.3423958177
 30
0.0
 11
-0.4259942844
 21
0.6772075271
 31
0.0
 40
0.556894982
 41
-2.3128365429
 42
-0.7422686502
  0
ELLIPSE
  5
3EA
100
AcDbEntity
  8
0
100
AcDbEllipse
 62
7
  6
CONTINUOUS
 10
1.8293341921
 20
-23.3616294464
 30
0.0
 11
-0.4261128038
 21
0.6773481015
 31
0.0
 40
0.5566415623
 41
-3.1576559065
 42
-2.3131024224
  0
ELLIPSE
  5
3EB
100
AcDbEntity
  8
268
100
AcDbEllipse
 62
7
  6
CONTINUOUS
 10
0.1517660352
 20
-25.8087692859
 30
0.0
 11
0.110769438
 21
0.2241226716
 31
0.0
 40
0.6088015717
 41
-4.0304836828
 42
-3.1443955108
  0
ELLIPSE
  5
3EC
100
AcDbEntity
  8
268
100
AcDbEllipse
 62
7
  6
CONTINUOUS
 10
-13.2125521292
 20
22.4263653295
 30
0.0
 11
0.110769438
 21
0.2241226716
 31
0.0
 40
0.6088015717
 41
-4.0304836828
 42
-3.1443650652
  0
ELLIPSE
  5
3ED
100
AcDbEntity
  8
268
100
AcDbEllipse
 62
7
  6
CONTINUOUS
 10
0.1517660352
 20
15.7442062473
 30
0.0
 11
0.110769438
 21
0.2241226716
 31
0.0
 40
0.6088015717
 41
-4.0304836828
 42
-3.1443650652
  0
ELLIPSE
  5
3EE
100
AcDbEntity
  8
268
100
AcDbEllipse
 62
7
  6
CONTINUOUS
 10
4.2083739165
 20
14.4524881981
 30
0.0
 11
-0.1565168911
 21
0.3130623908
 31
0.0
 40
0.6123677712
 41
-2.2554744912
 42
-0.6846781644
  0
ELLIPSE
  5
3EF
100
AcDbEntity
  8
268
100
AcDbEllipse
 62
7
  6
CONTINUOUS
 10
4.2083739165
 20
-23.7240936465
 30
0.0
 11
-0.1565168911
 21
0.3130623908
 31
0.0
 40
0.6123677712
 41
-3.1363904945
 42
-2.2554744912
  0
ELLIPSE
  5
3F0
100
AcDbEntity
  8
268
100
AcDbEllipse
 62
7
  6
CONTINUOUS
 10
-1.558221632
 20
23.5577195033
 30
0.0
 11
0.2999991737
 21
-0.0014183462
 31
0.0
 40
0.4964289597
 41
0.7877451926
 42
2.3527237553
  0
ELLIPSE
  5
3F1
100
AcDbEntity
  8
268
100
AcDbEllipse
 62
7
  6
CONTINUOUS
 10
3.9962418821
 20
20.7804877462
 30
0.0
 11
0.2999991737
 21
-0.0014183462
 31
0.0
 40
0.4964289597
 41
0.7877451926
 42
2.3585415194
  0
ELLIPSE
  5
3F2
100
AcDbEntity
  8
268
100
AcDbEllipse
 62
7
  6
CONTINUOUS
 10
3.5355940176
 20
15.070059209
 30
0.0
 11
0.110769438
 21
0.2241226716
 31
0.0
 40
0.6088015717
 41
1.2055040732
 42
2.2526937431
  0
ELLIPSE
  5
3F3
100
AcDbEntity
  8
268
100
AcDbEllipse
 62
7
  6
CONTINUOUS
 10
-9.8287241468
 20
21.7522182912
 30
0.0
 11
0.110769438
 21
0.2241226716
 31
0.0
 40
0.6088015717
 41
1.2055040732
 42
2.2526937431
  0
ELLIPSE
  5
3F4
100
AcDbEntity
  8
268
100
AcDbEllipse
 62
7
  6
CONTINUOUS
 10
3.8870904948
 20
15.9978643611
 30
0.0
 11
0.110769438
 21
0.2241226716
 31
0.0
 40
0.6088015717
 41
-1.9360885804
 42
-0.8888910292
  0
ELLIPSE
  5
3F5
100
AcDbEntity
  8
268
100
AcDbEllipse
 62
7
  6
CONTINUOUS
 10
2.2669156384
 20
17.0688807656
 30
0.0
 11
0.1128509832
 21
0.2230818409
 31
0.0
 40
0.6159267166
 41
0.0028979148
 42
0.6817883054
  0
ELLIPSE
  5
3F6
100
AcDbEntity
  8
268
100
AcDbEllipse
 62
7
  6
CONTINUOUS
 10
0.1517660352
 20
15.997577641
 30
0.0
 11
0.110769438
 21
0.2241226716
 31
0.0
 40
0.6088015717
 41
0.6877230618
 42
2.2527016244
  0
ELLIPSE
  5
3F7
100
AcDbEntity
  8
268
100
AcDbEllipse
 62
7
  6
CONTINUOUS
 10
-9.4772276697
 20
22.6800234433
 30
0.0
 11
0.110769438
 21
0.2241226716
 31
0.0
 40
0.6088015717
 41
-1.9360885804
 42
-0.8888910292
  0
ELLIPSE
  5
3F8
100
AcDbEntity
  8
268
100
AcDbEllipse
 62
7
  6
CONTINUOUS
 10
-11.097402526
 20
23.7510398478
 30
0.0
 11
0.1128509832
 21
0.2230818409
 31
0.0
 40
0.6159267166
 41
0.0028979148
 42
0.6817883054
  0
ELLIPSE
  5
3F9
100
AcDbEntity
  8
268
100
AcDbEllipse
 62
7
  6
CONTINUOUS
 10
-13.2125521292
 20
22.6797367232
 30
0.0
 11
0.110769438
 21
0.2241226716
 31
0.0
 40
0.6088015717
 41
0.6877230618
 42
2.2527016244
  0
ELLIPSE
  5
3FA
100
AcDbEntity
  8
268
100
AcDbEllipse
 62
7
  6
CONTINUOUS
 10
3.8870904948
 20
-25.5626687547
 30
0.0
 11
0.110769438
 21
0.2241226716
 31
0.0
 40
0.6088015717
 41
-2.4538695918
 42
-0.8888910292
  0
ELLIPSE
  5
3FB
100
AcDbEntity
  8
268
100
AcDbEllipse
 62
7
  6
CONTINUOUS
 10
0.1517660352
 20
-25.5553978921
 30
0.0
 11
0.110769438
 21
0.2241226716
 31
0.0
 40
0.6088015717
 41
1.2055040732
 42
2.2527016244
  0
ELLIPSE
  5
3FC
100
AcDbEntity
  8
268
100
AcDbEllipse
 62
7
  6
CONTINUOUS
 10
-10.7084398797
 20
15.9884937199
 30
0.0
 11
-0.3234211751
 21
0.9546019167
 31
0.0
 40
0.6648686735
 41
-0.5912965599
 42
0.1123827769
  0
ELLIPSE
  5
3FD
100
AcDbEntity
  8
268
100
AcDbEllipse
 62
7
  6
CONTINUOUS
 10
3.8870904948
 20
-25.3017397783
 30
0.0
 11
0.110769438
 21
0.2241226716
 31
0.0
 40
0.6088015717
 41
5.394294278
 42
6.4414918292
  0
ELLIPSE
  5
3FE
100
AcDbEntity
  8
268
100
AcDbEllipse
 62
7
  6
CONTINUOUS
 10
-9.4772276697
 20
22.9409524196
 30
0.0
 11
0.110769438
 21
0.2241226716
 31
0.0
 40
0.6088015717
 41
5.394294278
 42
6.9592728406
  0
ELLIPSE
  5
3FF
100
AcDbEntity
  8
268
100
AcDbEllipse
 62
7
  6
CONTINUOUS
 10
3.8870904948
 20
16.2587933374
 30
0.0
 11
0.110769438
 21
0.2241226716
 31
0.0
 40
0.6088015717
 41
5.394294278
 42
6.9592728406
  0
ELLIPSE
  5
400
100
AcDbEntity
  8
268
100
AcDbEllipse
 62
7
  6
CONTINUOUS
 10
-1.3777696549
 20
22.2356593334
 30
0.0
 11
0.2999981629
 21
-0.0021225547
 31
0.0
 40
0.4946372042
 41
-0.7818985079
 42
0.0034997008
  0
ELLIPSE
  5
401
100
AcDbEntity
  8
268
100
AcDbEllipse
 62
7
  6
CONTINUOUS
 10
4.1766938593
 20
19.4584275763
 30
0.0
 11
0.2999981629
 21
-0.0021225547
 31
0.0
 40
0.4946372042
 41
-0.7760807437
 42
0.0035109161
  0
ELLIPSE
  5
402
100
AcDbEntity
  8
268
100
AcDbEllipse
 62
7
  6
CONTINUOUS
 10
-7.5267153824
 20
20.6375381354
 30
0.0
 11
0.2999991335
 21
0.0014318851
 31
0.0
 40
0.5035541159
 41
8.6427941204
 42
10.207772683
  0
ELLIPSE
  5
403
100
AcDbEntity
  8
268
100
AcDbEllipse
 62
7
  6
CONTINUOUS
 10
-13.5400062913
 20
20.8404680341
 30
0.0
 11
-0.1565168911
 21
0.3130623908
 31
0.0
 40
0.6123677712
 41
-0.6846781644
 42
0.8861181623
  0
ELLIPSE
  5
404
100
AcDbEntity
  8
268
100
AcDbEllipse
 62
7
  6
CONTINUOUS
 10
1.7335001823
 20
13.2037147973
 30
0.0
 11
-0.1565168911
 21
0.3130623908
 31
0.0
 40
0.6123677712
 41
-2.2554744912
 42
-0.6846781644
  0
ELLIPSE
  5
405
100
AcDbEntity
  8
268
100
AcDbEllipse
 62
7
  6
CONTINUOUS
 10
0.3469655878
 20
-1.5255445523
 30
0.0
 11
-0.0646337196
 21
0.1902471476
 31
0.0
 40
0.6675902134
 41
-2.1647611171
 42
-0.8340475656
  0
ELLIPSE
  5
406
100
AcDbEntity
  8
268
100
AcDbEllipse
 62
7
  6
CONTINUOUS
 10
-1.7342063143
 20
17.7412836014
 30
0.0
 11
0.2999991335
 21
0.0014318851
 31
0.0
 40
0.5035541159
 41
-2.3585979313
 42
-0.7936193687
  0
ELLIPSE
  5
407
100
AcDbEntity
  8
268
100
AcDbEllipse
 62
7
  6
CONTINUOUS
 10
-1.7342063143
 20
16.5270845255
 30
0.0
 11
0.2999980272
 21
0.0021530184
 31
0.0
 40
0.5053247124
 41
-2.3598210761
 42
-0.7948425135
  0
ELLIPSE
  5
408
100
AcDbEntity
  8
268
100
AcDbEllipse
 62
7
  6
CONTINUOUS
 10
-7.5267153824
 20
19.4233390595
 30
0.0
 11
0.2999980272
 21
0.0021530184
 31
0.0
 40
0.5053247124
 41
3.1379773283
 42
3.9233642311
  0
ELLIPSE
  5
409
100
AcDbEntity
  8
268
100
AcDbEllipse
 62
7
  6
CONTINUOUS
 10
4.1766938593
 20
20.6902617577
 30
0.0
 11
0.2999991737
 21
-0.0014183462
 31
0.0
 40
0.4964289597
 41
-0.77723337
 42
0.7877451926
  0
ELLIPSE
  5
40A
100
AcDbEntity
  8
268
100
AcDbEllipse
 62
7
  6
CONTINUOUS
 10
-1.3777696549
 20
23.4674935147
 30
0.0
 11
0.2999991737
 21
-0.0014183462
 31
0.0
 40
0.4964289597
 41
-0.7830511342
 42
0.7877451926
  0
ELLIPSE
  5
40B
100
AcDbEntity
  8
268
100
AcDbEllipse
 62
7
  6
CONTINUOUS
 10
1.7335001823
 20
-24.9501939798
 30
0.0
 11
-0.1565168911
 21
0.3130623908
 31
0.0
 40
0.6123677712
 41
2.4569144891
 42
4.0277108159
  0
ELLIPSE
  5
40C
100
AcDbEntity
  8
268
100
AcDbEllipse
 62
7
  6
CONTINUOUS
 10
3.5355940176
 20
-24.7295449304
 30
0.0
 11
0.110769438
 21
0.2241226716
 31
0.0
 40
0.6088015717
 41
2.2527095058
 42
3.2998991756
  0
ELLIPSE
  5
40D
100
AcDbEntity
  8
268
100
AcDbEllipse
 62
7
  6
CONTINUOUS
 10
1.7595994108
 20
15.1936609532
 30
0.0
 11
0.1128509832
 21
0.2230818409
 31
0.0
 40
0.6159267166
 41
0.6934238338
 42
2.2584023964
  0
ELLIPSE
  5
40E
100
AcDbEntity
  8
268
100
AcDbEllipse
 62
7
  6
CONTINUOUS
 10
1.7595994108
 20
14.9402895595
 30
0.0
 11
0.1128509832
 21
0.2230818409
 31
0.0
 40
0.6159267166
 41
-4.0247829108
 42
-2.9775853596
  0
ELLIPSE
  5
40F
100
AcDbEntity
  8
268
100
AcDbEllipse
 62
7
  6
CONTINUOUS
 10
-11.6047187536
 20
21.8758200354
 30
0.0
 11
0.1128509832
 21
0.2230818409
 31
0.0
 40
0.6159267166
 41
0.6934238338
 42
2.2584023964
  0
ELLIPSE
  5
410
100
AcDbEntity
  8
268
100
AcDbEllipse
 62
7
  6
CONTINUOUS
 10
-11.6047187536
 20
21.6224486417
 30
0.0
 11
0.1128509832
 21
0.2230818409
 31
0.0
 40
0.6159267166
 41
-4.0247829108
 42
-2.9775853596
  0
ELLIPSE
  5
411
100
AcDbEntity
  8
268
100
AcDbEllipse
 62
7
  6
CONTINUOUS
 10
1.7595994108
 20
-26.6126859737
 30
0.0
 11
0.1128509832
 21
0.2230818409
 31
0.0
 40
0.6159267166
 41
-4.0247829108
 42
-2.4598043482
  0
ELLIPSE
  5
412
100
AcDbEntity
  8
268
100
AcDbEllipse
 62
7
  6
CONTINUOUS
 10
1.7595994108
 20
-26.3593145799
 30
0.0
 11
0.1128509832
 21
0.2230818409
 31
0.0
 40
0.6159267166
 41
1.2112048452
 42
2.2584023964
  0
ELLIPSE
  5
413
100
AcDbEntity
  8
268
100
AcDbEllipse
 62
7
  6
CONTINUOUS
 10
0.0812938761
 20
10.593626842
 30
0.0
 11
-0.3205676932
 21
0.9531531496
 31
0.0
 40
0.66789399
 41
-2.1618296722
 42
-0.5913379319
  0
ELLIPSE
  5
414
100
AcDbEntity
  8
218_STAMPATO
100
AcDbEllipse
 62
7
  6
CONTINUOUS
 10
4.1730185774
 20
22.3500147305
 30
0.0
 11
2.7499924258
 21
-0.0130015067
 31
0.0
 40
0.4964289597
 41
2.3672681657
 42
2.9293761837
  0
ELLIPSE
  5
415
100
AcDbEntity
  8
218_STAMPATO
100
AcDbEllipse
 62
7
  6
CONTINUOUS
 10
11.5976397799
 20
18.6377041292
 30
0.0
 11
2.7499924258
 21
-0.0130015067
 31
0.0
 40
0.4964289597
 41
2.3672681657
 42
2.9293761949
  0
ELLIPSE
  5
416
100
AcDbEntity
  8
218_STAMPATO
100
AcDbEllipse
 62
7
  6
CONTINUOUS
 10
12.269391222
 20
18.5357806794
 30
0.0
 11
2.7583876426
 21
-0.0130411979
 31
0.0
 40
0.4964289597
 41
0.8884696282
 42
2.3585415194
  0
ELLIPSE
  5
417
100
AcDbEntity
  8
218_STAMPATO
100
AcDbEllipse
 62
7
  6
CONTINUOUS
 10
12.269391222
 20
18.5357806794
 30
0.0
 11
2.7583876426
 21
-0.0130411979
 31
0.0
 40
0.4964289597
 41
0.4412294433
 42
0.6870207571
  0
ELLIPSE
  5
418
100
AcDbEntity
  8
218_STAMPATO
100
AcDbEllipse
 62
7
  6
CONTINUOUS
 10
4.8447700196
 20
22.2480912807
 30
0.0
 11
2.7583876426
 21
-0.0130411979
 31
0.0
 40
0.4964289597
 41
0.4412294433
 42
0.6870207571
  0
ELLIPSE
  5
419
100
AcDbEntity
  8
218_STAMPATO
100
AcDbEllipse
 62
7
  6
CONTINUOUS
 10
4.8447700196
 20
22.2480912807
 30
0.0
 11
2.7583876426
 21
-0.0130411979
 31
0.0
 40
0.4964289597
 41
0.8884696282
 42
2.3585415194
  0
ELLIPSE
  5
41A
100
AcDbEntity
  8
218_STAMPATO
100
AcDbEllipse
 62
7
  6
CONTINUOUS
 10
17.0550899261
 20
19.7412486793
 30
0.0
 11
0.79574694
 21
0.7129684349
 31
0.0
 40
0.2882345029
 41
0.1135239366
 42
0.7807533904
  0
ELLIPSE
  5
41B
100
AcDbEntity
  8
218_STAMPATO
100
AcDbEllipse
 62
7
  6
CONTINUOUS
 10
9.6304687236
 20
23.4535592806
 30
0.0
 11
0.79574694
 21
0.7129684349
 31
0.0
 40
0.2882345029
 41
0.1135239366
 42
0.7807533904
  0
ELLIPSE
  5
41C
100
AcDbEntity
  8
218_STAMPATO
100
AcDbEllipse
 62
7
  6
CONTINUOUS
 10
13.1577018555
 20
21.6899427146
 30
0.0
 11
0.4410298232
 21
0.8975092442
 31
0.0
 40
0.607010042
 41
-0.8902711325
 42
-0.7587130969
  0
ELLIPSE
  5
41D
100
AcDbEntity
  8
218_STAMPATO
100
AcDbEllipse
 62
7
  6
CONTINUOUS
 10
5.733080653
 20
25.4022533158
 30
0.0
 11
0.4410298232
 21
0.8975092442
 31
0.0
 40
0.607010042
 41
-0.8902711325
 42
-0.7587130969
  0
ELLIPSE
  5
41E
100
AcDbEntity
  8
218_STAMPATO
100
AcDbEllipse
 62
7
  6
CONTINUOUS
 10
5.7866362431
 20
25.3754755208
 30
0.0
 11
-0.3106730325
 21
1.1082908718
 31
0.0
 40
0.6760995073
 41
4.9783291412
 42
6.4001141399
  0
ELLIPSE
  5
41F
100
AcDbEntity
  8
218_STAMPATO
100
AcDbEllipse
 62
7
  6
CONTINUOUS
 10
13.2112574455
 20
21.6631649196
 30
0.0
 11
-0.3106730325
 21
1.1082908718
 31
0.0
 40
0.6760995073
 41
4.9783291412
 42
6.4001141399
  0
ELLIPSE
  5
420
100
AcDbEntity
  8
218_STAMPATO
100
AcDbEllipse
 62
7
  6
CONTINUOUS
 10
11.5741066917
 20
19.8649163648
 30
0.0
 11
3.3022643479
 21
-0.04629945
 31
0.0
 40
0.4892378494
 41
2.3616770883
 42
5.5059722822
  0
ELLIPSE
  5
421
100
AcDbEntity
  8
218_STAMPATO
100
AcDbEllipse
 62
7
  6
CONTINUOUS
 10
12.269391222
 20
20.5162687921
 30
0.0
 11
2.7583515655
 21
-1.4175703156
 31
0.0
 40
0.0109499087
 41
-0.8804952881
 42
-0.85781018
  0
ELLIPSE
  5
422
100
AcDbEntity
  8
218_STAMPATO
100
AcDbEllipse
 62
7
  6
CONTINUOUS
 10
4.8447700196
 20
24.2285793933
 30
0.0
 11
2.7583515655
 21
-1.4175703156
 31
0.0
 40
0.0109499087
 41
-0.7017315251
 42
-0.679046417
  0
ELLIPSE
  5
423
100
AcDbEntity
  8
218_STAMPATO
100
AcDbEllipse
 62
7
  6
CONTINUOUS
 10
4.8447700196
 20
22.6811039825
 30
0.0
 11
2.7583876426
 21
-0.0130411979
 31
0.0
 40
0.4964289597
 41
0.1877225706
 42
2.3585415194
  0
ELLIPSE
  5
424
100
AcDbEntity
  8
218_STAMPATO
100
AcDbEllipse
 62
7
  6
CONTINUOUS
 10
12.269391222
 20
18.9687933813
 30
0.0
 11
2.7583876426
 21
-0.0130411979
 31
0.0
 40
0.4964289597
 41
0.1877225706
 42
2.3585415194
  0
ELLIPSE
  5
425
100
AcDbEntity
  8
218_STAMPATO
100
AcDbEllipse
 62
7
  6
CONTINUOUS
 10
4.8447700196
 20
24.2285793933
 30
0.0
 11
2.7583515655
 21
-1.4175703156
 31
0.0
 40
0.0109499087
 41
-0.8804952881
 42
-0.85781018
  0
ELLIPSE
  5
426
100
AcDbEntity
  8
218_STAMPATO
100
AcDbEllipse
 62
7
  6
CONTINUOUS
 10
12.269391222
 20
20.5162687921
 30
0.0
 11
2.7583515655
 21
-1.4175703156
 31
0.0
 40
0.0109499087
 41
-0.7017315251
 42
-0.679046417
  0
ELLIPSE
  5
427
100
AcDbEntity
  8
218_STAMPATO
100
AcDbEllipse
 62
7
  6
CONTINUOUS
 10
4.1494854892
 20
23.577226966
 30
0.0
 11
3.3022643479
 21
-0.04629945
 31
0.0
 40
0.4892378494
 41
2.3616770883
 42
5.5059722822
  0
ELLIPSE
  5
428
100
AcDbEntity
  8
218_STAMPATO
100
AcDbEllipse
 62
7
  6
CONTINUOUS
 10
-3.1968171981
 20
19.4073133522
 30
0.0
 11
1.2141619185
 21
0.9541526469
 31
0.0
 40
0.2329077568
 41
0.1095198182
 42
0.114024621
  0
ENDSEC
  0
SECTION
  2
OBJECTS
  0
DICTIONARY
  5
C
100
AcDbDictionary
280
0
281
1
  3
ACAD_GROUP
350
D
  3
ACAD_MLINESTYLE
350
17
  3
ACAD_LAYOUT
350
1A
  3
ACAD_PLOTSETTINGS
350
19
  3
ACAD_PLOTSTYLENAME
350
E
  0
DICTIONARY
  5
D
102
{ACAD_REACTORS
330
C
102
}
100
AcDbDictionary
280
0
281
1
  0
ACDBDICTIONARYWDFLT
  5
E
102
{ACAD_REACTORS
330
C
102
}
100
AcDbDictionary
281
1
  3
Normal
350
F
100
AcDbDictionaryWithDefault
340
F
  0
DICTIONARY
  5
17
102
{ACAD_REACTORS
330
C
102
}
100
AcDbDictionary
280
0
281
1
  3
Standard
350
18
  0
DICTIONARY
  5
19
102
{ACAD_REACTORS
330
C
102
}
100
AcDbDictionary
281
1
  0
DICTIONARY
  5
1A
102
{ACAD_REACTORS
330
C
102
}
100
AcDbDictionary
281
1
  3
Model
350
429
  3
Layout1
350
42A
  0
ACDBPLACEHOLDER
  5
F
102
{ACAD_REACTORS
330
E
102
}
  0
MLINESTYLE
  5
18
102
{ACAD_REACTORS
330
17
102
}
100
AcDbMlineStyle
  2
STANDARD
 70
0
  3

 62
256
 51
90.0
 52
90.0
 71
2
 49
0.5
 62
256
  6
BYLAYER
 49
-0.5
 62
256
  6
BYLAYER
  0
LAYOUT
  5
429
102
{ACAD_REACTORS
330
1A
102
}
100
AcDbPlotSettings
  1

  2
none_device
  4
ISO_A4_(297.00_x_210.00_MM)
  6

 40
0.0
 41
0.0
 42
0.0
 43
0.0
 44
297.0
 45
210.0
 46
0.0
 47
0.0
 48
0.0
 49
0.0
140
0.0
141
0.0
142
1.0
143
1.0
 70
1024
 72
1
 73
0
 74
0
  7

 75
0
147
1.0
148
0.0
149
0.0
100
AcDbLayout
  1
Model
 70
0
 71
0
 10
0.0
 20
0.0
 11
297.0
 21
210.0
 12
0.0
 22
0.0
 32
0.0
 14
0.0
 24
0.0
 34
0.0
 15
0.0
 25
0.0
 35
0.0
146
0.0
 13
0.0
 23
0.0
 33
0.0
 16
1.0
 26
0.0
 36
0.0
 17
0.0
 27
1.0
 37
0.0
 76
0
330
22B
345
0
346
0
  0
LAYOUT
  5
42A
102
{ACAD_REACTORS
330
1A
102
}
100
AcDbPlotSettings
  1

  2
none_device
  4
ISO_A4_(297.00_x_210.00_MM)
  6

 40
0.0
 41
0.0
 42
0.0
 43
0.0
 44
297.0
 45
210.0
 46
0.0
 47
0.0
 48
0.0
 49
0.0
140
0.0
141
0.0
142
1.0
143
1.0
 70
0
 72
1
 73
0
 74
0
  7

 75
0
147
1.0
148
0.0
149
0.0
100
AcDbLayout
  1
Layout1
 70
0
 71
1
 10
0.0
 20
0.0
 11
297.0
 21
210.0
 12
0.0
 22
0.0
 32
0.0
 14
0.0
 24
0.0
 34
0.0
 15
0.0
 25
0.0
 35
0.0
146
0.0
 13
0.0
 23
0.0
 33
0.0
 16
1.0
 26
0.0
 36
0.0
 17
0.0
 27
1.0
 37
0.0
 76
0
330
22C
345
0
346
0
  0
ENDSEC
  0
EOF
