  0
SECTION
  2
HEADER
  9
$ACADVER
  1
AC1015
  9
$DWGCODEPAGE
  3
ANSI_1252
  9
$EXTMAX
 10
297.0
 20
210.0
 30
0.0
  9
$EXTMIN
 10
0.0
 20
0.0
 30
0.0
  9
$LIMMIN
 10
0.0
 20
0.0
  9
$LIMMAX
 10
297.0
 20
210.0
  9
$VIEWCTR
 10
148.5
 20
105.0
  9
$VIEWSIZE
 40
210.0
  9
$CLAYER
  8
0
  9
$LTSCALE
 40
16.335
  9
$CELTYPE
  6
BYLAYER
  9
$DIMSCALE
 40
1.0
  9
$DIMASZ
 40
3.0
  9
$DIMEXO
 40
1.85625
  9
$DIMDLI
 40
11.286
  9
$DIMEXE
 40
5.346
  9
$DIMCEN
 40
2.673
  9
$DIMLFAC
 40
1.0
  9
$DIMBLK
  1
_FILLED
  9
$DIMTXT
 40
3.0
  9
$DIMTOL
 70
1
  9
$DIMLIM
 70
0
  9
$DIMTFAC
 40
1.0
  9
$DIMTP
 40
0.01
  9
$DIMTM
 40
0.01
  9
$PDMODE
 70
3
  9
$PDSIZE
 40
3.0
  9
$HANDSEED
  5
577
  9
$TILEMODE
 70
1
  9
$MEASUREMENT
 70
1
  9
$INSUNITS
 70
4
  0
ENDSEC
  0
SECTION
  2
CLASSES
  0
CLASS
  1
ACDBDICTIONARYWDFLT
  2
AcDbDictionaryWithDefault
  3
AutoCAD 2000
 90
0
280
0
281
0
  0
CLASS
  1
ACDBPLACEHOLDER
  2
AcDbPlaceHolder
  3
AutoCAD 2000
 90
0
280
0
281
0
  0
CLASS
  1
LAYOUT
  2
AcDbLayout
  3
AutoCAD 2000
 90
0
280
0
281
0
  0
ENDSEC
  0
SECTION
  2
TABLES
  0
TABLE
  2
VPORT
  5
8
100
AcDbSymbolTable
 70
2
  0
VPORT
  5
1F4
100
AcDbSymbolTableRecord
100
AcDbViewportTableRecord
  2
*ACTIVE
 70
0
 10
0.0
 20
0.0
 11
1.0
 21
1.0
 12
148.5
 22
105.0
 13
0.0
 23
0.0
 14
1.0
 24
1.0
 15
0.0
 25
0.0
 16
0.0
 26
0.0
 36
1.0
 17
0.0
 27
0.0
 37
0.0
 40
210.0
 41
1.4142857143
 42
50.0
 43
0.0
 44
0.0
 50
0.0
 51
0.0
 71
0
 72
100
 73
1
 74
1
 75
0
 76
0
 77
0
 78
0
  0
ENDTAB
  0
TABLE
  2
LTYPE
  5
5
100
AcDbSymbolTable
 70
6
  0
LTYPE
  5
14
100
AcDbSymbolTableRecord
100
AcDbLinetypeTableRecord
  2
BYBLOCK
 70
0
  3

 72
65
 73
0
 40
0.0
  0
LTYPE
  5
15
100
AcDbSymbolTableRecord
100
AcDbLinetypeTableRecord
  2
BYLAYER
 70
0
  3

 72
65
 73
0
 40
0.0
  0
LTYPE
  5
16
100
AcDbSymbolTableRecord
100
AcDbLinetypeTableRecord
  2
CONTINUOUS
 70
64
  3
Solid line
 72
65
 73
0
 40
0.0
  0
LTYPE
  5
1F5
100
AcDbSymbolTableRecord
100
AcDbLinetypeTableRecord
  2
CENTER
 70
64
  3
____ _ ____ _ ____ _ ____ _ ____ _ ____ _ ____
 72
65
 73
4
 40
0.6
 49
0.375
 74
0
 49
-0.075
 74
0
 49
0.075
 74
0
 49
-0.075
 74
0
  0
LTYPE
  5
1F6
100
AcDbSymbolTableRecord
100
AcDbLinetypeTableRecord
  2
HIDDEN
 70
64
  3
- - - - - - - - - - - - - - - - - - - -
 72
65
 73
2
 40
0.2
 49
0.1
 74
0
 49
-0.1
 74
0
  0
LTYPE
  5
1F7
100
AcDbSymbolTableRecord
100
AcDbLinetypeTableRecord
  2
PHANTOM
 70
64
  3
_____ _ _ _____ _ _ _____ _ _ _____
 72
65
 73
6
 40
0.8
 49
0.45
 74
0
 49
-0.05
 74
0
 49
0.1
 74
0
 49
-0.05
 74
0
 49
0.1
 74
0
 49
-0.05
 74
0
  0
LTYPE
  5
1F8
100
AcDbSymbolTableRecord
100
AcDbLinetypeTableRecord
  2
DOT
 70
64
  3
. . . . . . . . . . . . . . . . . . . .
 72
65
 73
2
 40
0.2
 49
0.1
 74
0
 49
-0.1
 74
0
  0
LTYPE
  5
1F9
100
AcDbSymbolTableRecord
100
AcDbLinetypeTableRecord
  2
DASHED
 70
64
  3
- - - - - - - - - - - - - - - - - - - -
 72
65
 73
2
 40
0.2
 49
0.1
 74
0
 49
-0.1
 74
0
  0
ENDTAB
  0
TABLE
  2
LAYER
  5
2
100
AcDbSymbolTable
 70
36
  0
LAYER
  5
10
100
AcDbSymbolTableRecord
100
AcDbLayerTableRecord
  2
0
 70
0
 62
7
  6
CONTINUOUS
370
-3
390
F
  0
LAYER
  5
1FA
100
AcDbSymbolTableRecord
100
AcDbLayerTableRecord
  2
DEFAULT_1
 70
0
 62
7
  6
CENTER
370
-3
390
F
  0
LAYER
  5
1FB
100
AcDbSymbolTableRecord
100
AcDbLayerTableRecord
  2
DEFAULT_2
 70
0
 62
7
  6
HIDDEN
370
-3
390
F
  0
LAYER
  5
1FC
100
AcDbSymbolTableRecord
100
AcDbLayerTableRecord
  2
DEFAULT_3
 70
0
 62
7
  6
PHANTOM
370
-3
390
F
  0
LAYER
  5
1FD
100
AcDbSymbolTableRecord
100
AcDbLayerTableRecord
  2
ASSI
 70
0
 62
7
  6
CONTINUOUS
370
-3
390
F
  0
LAYER
  5
1FE
100
AcDbSymbolTableRecord
100
AcDbLayerTableRecord
  2
COLORE_TOP
 70
0
 62
7
  6
CONTINUOUS
370
-3
390
F
  0
LAYER
  5
1FF
100
AcDbSymbolTableRecord
100
AcDbLayerTableRecord
  2
COORDINATE
 70
0
 62
7
  6
CONTINUOUS
370
-3
390
F
  0
LAYER
  5
200
100
AcDbSymbolTableRecord
100
AcDbLayerTableRecord
  2
COORD_ORIGINE
 70
0
 62
7
  6
CONTINUOUS
370
-3
390
F
  0
LAYER
  5
201
100
AcDbSymbolTableRecord
100
AcDbLayerTableRecord
  2
COPY_PUBLISH
 70
0
 62
7
  6
CONTINUOUS
370
-3
390
F
  0
LAYER
  5
202
100
AcDbSymbolTableRecord
100
AcDbLayerTableRecord
  2
COSMETIC
 70
0
 62
7
  6
CONTINUOUS
370
-3
390
F
  0
LAYER
  5
203
100
AcDbSymbolTableRecord
100
AcDbLayerTableRecord
  2
COSMETICHE
 70
0
 62
7
  6
CONTINUOUS
370
-3
390
F
  0
LAYER
  5
204
100
AcDbSymbolTableRecord
100
AcDbLayerTableRecord
  2
COSMETICI
 70
0
 62
7
  6
CONTINUOUS
370
-3
390
F
  0
LAYER
  5
205
100
AcDbSymbolTableRecord
100
AcDbLayerTableRecord
  2
CURVE
 70
0
 62
7
  6
CONTINUOUS
370
-3
390
F
  0
LAYER
  5
206
100
AcDbSymbolTableRecord
100
AcDbLayerTableRecord
  2
DRAFT
 70
0
 62
7
  6
CONTINUOUS
370
-3
390
F
  0
LAYER
  5
207
100
AcDbSymbolTableRecord
100
AcDbLayerTableRecord
  2
IMPORT
 70
0
 62
7
  6
CONTINUOUS
370
-3
390
F
  0
LAYER
  5
208
100
AcDbSymbolTableRecord
100
AcDbLayerTableRecord
  2
IMPORTED
 70
0
 62
7
  6
CONTINUOUS
370
-3
390
F
  0
LAYER
  5
209
100
AcDbSymbolTableRecord
100
AcDbLayerTableRecord
  2
IMPORT_IGES
 70
0
 62
7
  6
CONTINUOUS
370
-3
390
F
  0
LAYER
  5
20A
100
AcDbSymbolTableRecord
100
AcDbLayerTableRecord
  2
NOTE
 70
0
 62
7
  6
CONTINUOUS
370
-3
390
F
  0
LAYER
  5
20B
100
AcDbSymbolTableRecord
100
AcDbLayerTableRecord
  2
PIANI
 70
0
 62
7
  6
CONTINUOUS
370
-3
390
F
  0
LAYER
  5
20C
100
AcDbSymbolTableRecord
100
AcDbLayerTableRecord
  2
PIANI_DI_RIFERIMENTO
 70
0
 62
7
  6
CONTINUOUS
370
-3
390
F
  0
LAYER
  5
20D
100
AcDbSymbolTableRecord
100
AcDbLayerTableRecord
  2
PIANI_ORIGINE
 70
0
 62
7
  6
CONTINUOUS
370
-3
390
F
  0
LAYER
  5
20E
100
AcDbSymbolTableRecord
100
AcDbLayerTableRecord
  2
PIANI_RIFERIMENTO
 70
0
 62
7
  6
CONTINUOUS
370
-3
390
F
  0
LAYER
  5
20F
100
AcDbSymbolTableRecord
100
AcDbLayerTableRecord
  2
PIANI_SFORMO
 70
0
 62
7
  6
CONTINUOUS
370
-3
390
F
  0
LAYER
  5
210
100
AcDbSymbolTableRecord
100
AcDbLayerTableRecord
  2
PUNTI
 70
0
 62
7
  6
CONTINUOUS
370
-3
390
F
  0
LAYER
  5
211
100
AcDbSymbolTableRecord
100
AcDbLayerTableRecord
  2
RACCORDO
 70
0
 62
7
  6
CONTINUOUS
370
-3
390
F
  0
LAYER
  5
212
100
AcDbSymbolTableRecord
100
AcDbLayerTableRecord
  2
SCRITTE
 70
0
 62
7
  6
CONTINUOUS
370
-3
390
F
  0
LAYER
  5
213
100
AcDbSymbolTableRecord
100
AcDbLayerTableRecord
  2
SMUSSO
 70
0
 62
7
  6
CONTINUOUS
370
-3
390
F
  0
LAYER
  5
214
100
AcDbSymbolTableRecord
100
AcDbLayerTableRecord
  2
SNAPLINE
 70
0
 62
7
  6
CONTINUOUS
370
-3
390
F
  0
LAYER
  5
215
100
AcDbSymbolTableRecord
100
AcDbLayerTableRecord
  2
SUPERFICI
 70
0
 62
7
  6
CONTINUOUS
370
-3
390
F
  0
LAYER
  5
216
100
AcDbSymbolTableRecord
100
AcDbLayerTableRecord
  2
TRASH
 70
0
 62
7
  6
CONTINUOUS
370
-3
390
F
  0
LAYER
  5
217
100
AcDbSymbolTableRecord
100
AcDbLayerTableRecord
  2
XSEC_DATUMS
 70
0
 62
7
  6
CONTINUOUS
370
-3
390
F
  0
ENDTAB
  0
TABLE
  2
STYLE
  5
3
100
AcDbSymbolTable
 70
1
  0
STYLE
  5
11
100
AcDbSymbolTableRecord
100
AcDbTextStyleTableRecord
  2
STANDARD
 70
0
 40
0.0
 41
0.8
 50
0.0
 71
0
 42
0.2
  3
txt
  4

  0
STYLE
  5
218
100
AcDbSymbolTableRecord
100
AcDbTextStyleTableRecord
  2
TEXTSTYLE_1
 70
0
 40
0.0
 41
0.8
 50
0.0
 71
0
 42
0.2
  3
gdt
  4

  0
ENDTAB
  0
TABLE
  2
VIEW
  5
6
100
AcDbSymbolTable
 70
0
  0
ENDTAB
  0
TABLE
  2
UCS
  5
7
100
AcDbSymbolTable
 70
0
  0
ENDTAB
  0
TABLE
  2
APPID
  5
9
100
AcDbSymbolTable
 70
1
  0
APPID
  5
219
100
AcDbSymbolTableRecord
100
AcDbRegAppTableRecord
  2
ACAD
 70
0
  0
ENDTAB
  0
TABLE
  2
BLOCK_RECORD
  5
1
100
AcDbSymbolTable
 70
0
  0
BLOCK_RECORD
  5
21A
100
AcDbSymbolTableRecord
100
AcDbBlockTableRecord
  2
*Model_Space
  0
BLOCK_RECORD
  5
21B
100
AcDbSymbolTableRecord
100
AcDbBlockTableRecord
  2
*Paper_Space
  0
ENDTAB
  0
TABLE
  2
DIMSTYLE
  5
A
100
AcDbSymbolTable
 70
1
100
AcDbDimStyleTable
 71
0
  0
DIMSTYLE
105
21C
100
AcDbSymbolTableRecord
100
AcDbDimStyleTableRecord
  2
STANDARD
 70
0
  3

  4

 40
1.0
 41
3.0
 42
0.0625
 43
0.38
 44
0.18
 45
0.0
 46
0.0
 47
0.01
 48
0.01
140
3.0
141
0.09
142
0.0
143
25.4
144
1.0
145
0.0
146
1.0
147
0.09
 71
1.0
 72
0.0
 73
0
 74
0
 75
0
 76
0
 77
1
 78
8
170
0
171
2
172
0
173
0
174
0
175
0
176
0
177
0
178
0
270
2
271
2
272
2
273
2
274
2
275
0
280
0
281
0
282
0
283
1
284
8
285
0
286
0
287
3
288
0
340
11
  0
ENDTAB
  0
ENDSEC
  0
SECTION
  2
BLOCKS
  0
BLOCK
  5
20
100
AcDbEntity
  8
0
100
AcDbBlockBegin
  2
*Model_Space
 70
0
 10
0.0
 20
0.0
 30
0.0
  3
*Model_Space
  1

  0
ENDBLK
  5
21
100
AcDbEntity
  8
0
100
AcDbBlockEnd
  0
BLOCK
  5
1C
100
AcDbEntity
  8
0
100
AcDbBlockBegin
  2
*Paper_Space
 70
0
 10
0.0
 20
0.0
 30
0.0
  3
*Paper_Space
  1

  0
ENDBLK
  5
1D
100
AcDbEntity
  8
0
100
AcDbBlockEnd
  0
ENDSEC
  0
SECTION
  2
ENTITIES
  0
LINE
  5
21D
100
AcDbEntity
  8
RACCORDO
100
AcDbLine
 62
7
  6
CONTINUOUS
 10
-15.0673974783
 20
27.5711617417
 11
-13.4846408751
 21
28.383145839
  0
LINE
  5
21E
100
AcDbEntity
  8
RACCORDO
100
AcDbLine
 62
7
  6
CONTINUOUS
 10
-13.4846408751
 20
28.383145839
 11
-12.9501909964
 21
28.6434933056
  0
LINE
  5
21F
100
AcDbEntity
  8
RACCORDO
100
AcDbLine
 62
7
  6
CONTINUOUS
 10
-15.5513525906
 20
25.8284613397
 11
-14.5391303065
 21
26.3453913024
  0
LINE
  5
220
100
AcDbEntity
  8
RACCORDO
100
AcDbLine
 62
253
  6
CONTINUOUS
 10
-15.3938291843
 20
25.8190280101
 11
-14.5391303065
 21
26.2555126301
  0
LINE
  5
221
100
AcDbEntity
  8
RACCORDO
100
AcDbLine
 62
7
  6
CONTINUOUS
 10
-13.4595760692
 20
26.7672510372
 11
-11.8582952784
 21
27.5699730407
  0
LINE
  5
222
100
AcDbEntity
  8
RACCORDO
100
AcDbLine
 62
7
  6
CONTINUOUS
 10
-11.8582952784
 20
27.5699730407
 11
-11.3300281067
 21
27.8334118607
  0
LWPOLYLINE
  5
223
100
AcDbEntity
  8
ASSI
100
AcDbPolyline
 62
7
  6
CONTINUOUS
 90
18
 70
0
 10
-18.4504245308
 20
23.537199221
 10
-18.5432385895
 20
23.4961376194
 10
-18.6337540888
 20
23.4475644275
 10
-18.721931508
 20
23.3915084428
 10
-18.8073026409
 20
23.3282594518
 10
-18.8890687415
 20
23.2585312136
 10
-18.9672574084
 20
23.1823849628
 10
-19.0416764139
 20
23.0999918938
 10
-19.1113767331
 20
23.0124997318
 10
-19.1762971514
 20
22.9200541773
 10
-19.2362736337
 20
22.8228368244
 10
-19.2904223855
 20
22.7223642364
 10
-19.3386496089
 20
22.6188775412
 10
-19.380836033
 20
22.5125403909
 10
-19.4163546814
 20
22.4049080588
 10
-19.4450246398
 20
22.2966253977
 10
-19.4669053697
 20
22.1874807665
 10
-19.4731029752
 20
22.1479016971
  0
LWPOLYLINE
  5
224
100
AcDbEntity
  8
RACCORDO
100
AcDbPolyline
 62
7
  6
CONTINUOUS
 90
18
 70
0
 10
-18.4408393666
 20
23.5409559314
 10
-18.5226057061
 20
23.5060114466
 10
-18.6155552146
 20
23.458035642
 10
-18.7062884391
 20
23.4021167247
 10
-18.7942544691
 20
23.338532274
 10
-18.8785520038
 20
23.2680388726
 10
-18.9592081736
 20
23.1906908581
 10
-19.0359949334
 20
23.1066586405
 10
-19.1078522258
 20
23.017194759
 10
-19.1747157117
 20
22.9224515943
 10
-19.2363975629
 20
22.8226220456
 10
-19.2919151055
 20
22.7193843921
 10
-19.3411698045
 20
22.6130040227
 10
-19.3840374031
 20
22.5036557709
 10
-19.4198339739
 20
22.3930594128
 10
-19.4483785834
 20
22.2819329901
 10
-19.4697501988
 20
22.1700444859
 10
-19.4731064906
 20
22.1478772674
  0
LINE
  5
225
100
AcDbEntity
  8
ASSI
100
AcDbLine
 62
7
  6
CONTINUOUS
 10
-18.4406430582
 20
23.5410511472
 11
-18.4504245308
 21
23.537199221
  0
LINE
  5
226
100
AcDbEntity
  8
ASSI
100
AcDbLine
 62
7
  6
CONTINUOUS
 10
-14.5234986719
 20
25.0563468154
 11
-18.4406430582
 21
23.5410511472
  0
LINE
  5
227
100
AcDbEntity
  8
RACCORDO
100
AcDbLine
 62
7
  6
CONTINUOUS
 10
-14.5234986719
 20
25.0563468154
 11
-18.4408458358
 21
23.5409726351
  0
LINE
  5
228
100
AcDbEntity
  8
ASSI
100
AcDbLine
 62
253
  6
CONTINUOUS
 10
-14.3407651638
 20
24.9649800613
 11
-18.0928862232
 21
23.5135214917
  0
LINE
  5
229
100
AcDbEntity
  8
RACCORDO
100
AcDbLine
 62
253
  6
CONTINUOUS
 10
-14.3407651638
 20
24.9649800613
 11
-18.0928862232
 21
23.5135214917
  0
LINE
  5
22A
100
AcDbEntity
  8
RACCORDO
100
AcDbLine
 62
7
  6
CONTINUOUS
 10
-11.2431764434
 20
27.2124142741
 11
-11.7704211591
 21
26.570706546
  0
LINE
  5
22B
100
AcDbEntity
  8
RACCORDO
100
AcDbLine
 62
7
  6
CONTINUOUS
 10
-9.593900847
 20
25.4184160432
 11
-9.1005788318
 21
25.6714995751
  0
LINE
  5
22C
100
AcDbEntity
  8
DRAFT
100
AcDbLine
 62
7
  6
CONTINUOUS
 10
-11.8582952784
 20
25.8379222331
 11
-12.9251261905
 21
25.2993409836
  0
LINE
  5
22D
100
AcDbEntity
  8
RACCORDO
100
AcDbLine
 62
7
  6
CONTINUOUS
 10
-10.4025143019
 20
25.8095808368
 11
-3.8944776752
 21
29.0507224424
  0
LINE
  5
22E
100
AcDbEntity
  8
RACCORDO
100
AcDbLine
 62
253
  6
CONTINUOUS
 10
-10.3270211614
 20
25.7718342666
 11
-4.0124808348
 21
28.9166105711
  0
LINE
  5
22F
100
AcDbEntity
  8
RACCORDO
100
AcDbLine
 62
7
  6
CONTINUOUS
 10
-3.0194605136
 20
28.0368670404
 11
-7.7570759475
 21
25.7018165257
  0
LINE
  5
230
100
AcDbEntity
  8
RACCORDO
100
AcDbLine
 62
7
  6
CONTINUOUS
 10
-9.1005788318
 20
25.6714995751
 11
-3.6229388423
 21
28.3398315383
  0
LINE
  5
231
100
AcDbEntity
  8
RACCORDO
100
AcDbLine
 62
7
  6
CONTINUOUS
 10
3.5368447139
 20
31.1271336006
 11
-0.0362289846
 21
29.4217002837
  0
LINE
  5
232
100
AcDbEntity
  8
RACCORDO
100
AcDbLine
 62
7
  6
CONTINUOUS
 10
2.5655621055
 20
31.4257354645
 11
-3.149023348
 21
28.7307527959
  0
LINE
  5
233
100
AcDbEntity
  8
RACCORDO
100
AcDbLine
 62
253
  6
CONTINUOUS
 10
3.0044468559
 20
31.3933325295
 11
-2.9026457749
 21
28.6075640093
  0
LINE
  5
234
100
AcDbEntity
  8
RACCORDO
100
AcDbLine
 62
7
  6
CONTINUOUS
 10
4.5741367269
 20
30.5448540824
 11
0.3577569492
 21
28.3995444657
  0
LINE
  5
235
100
AcDbEntity
  8
DRAFT
100
AcDbLine
 62
7
  6
CONTINUOUS
 10
4.5801937138
 20
30.1078694541
 11
0.3577569492
 21
27.9898292616
  0
LINE
  5
236
100
AcDbEntity
  8
0
100
AcDbLine
 62
7
  6
CONTINUOUS
 10
-1.6923866852
 20
26.5669928068
 11
-3.0901711917
 21
25.8681005535
  0
LINE
  5
237
100
AcDbEntity
  8
0
100
AcDbLine
 62
7
  6
CONTINUOUS
 10
0.8766978508
 20
27.1571810249
 11
1.3716725976
 21
27.4046683983
  0
LINE
  5
238
100
AcDbEntity
  8
RACCORDO
100
AcDbLine
 62
7
  6
CONTINUOUS
 10
-3.4437245823
 20
26.5974354381
 11
-3.0194605136
 21
26.805032859
  0
LINE
  5
239
100
AcDbEntity
  8
RACCORDO
100
AcDbLine
 62
7
  6
CONTINUOUS
 10
-1.0333909338
 20
27.4270656206
 11
-3.0901711917
 21
26.4206587428
  0
LINE
  5
23A
100
AcDbEntity
  8
RACCORDO
100
AcDbLine
 62
253
  6
CONTINUOUS
 10
-3.8680424989
 20
25.0620979082
 11
-3.830583503
 21
25.0793977139
  0
LINE
  5
23B
100
AcDbEntity
  8
RACCORDO
100
AcDbLine
 62
7
  6
CONTINUOUS
 10
-4.0295059021
 20
25.105055209
 11
-4.080197601
 21
25.0816825815
  0
LINE
  5
23C
100
AcDbEntity
  8
RACCORDO
100
AcDbLine
 62
253
  6
CONTINUOUS
 10
17.9816108877
 20
-28.6004718785
 11
17.4512808018
 21
-28.4906369214
  0
LINE
  5
23D
100
AcDbEntity
  8
RACCORDO
100
AcDbLine
 62
253
  6
CONTINUOUS
 10
17.89322254
 20
-28.280389357
 11
17.3628924541
 21
-28.1705544
  0
LWPOLYLINE
  5
23E
100
AcDbEntity
  8
RACCORDO
100
AcDbPolyline
 62
7
  6
CONTINUOUS
 90
10
 70
0
 10
7.6825158609
 20
-30.7567840644
 10
7.7650085663
 20
-30.7938236649
 10
7.8541837605
 20
-30.8249587353
 10
7.946250399
 20
-30.8482911445
 10
8.0410435567
 20
-30.8636627045
 10
8.1379164096
 20
-30.8708000223
 10
8.2361571691
 20
-30.8694988755
 10
8.3356323867
 20
-30.8595718763
 10
8.4358885661
 20
-30.8408520025
 10
8.5279874478
 20
-30.8158530719
  0
LWPOLYLINE
  5
23F
100
AcDbEntity
  8
ASSI
100
AcDbPolyline
 62
7
  6
CONTINUOUS
 90
12
 70
0
 10
7.682449135
 20
-30.7567505969
 10
7.7054139411
 20
-30.767910103
 10
7.7873415693
 20
-30.802453306
 10
7.8722641577
 20
-30.8302229177
 10
7.9597435437
 20
-30.8510016642
 10
8.049624061
 20
-30.8646389256
 10
8.1413572176
 20
-30.8708985093
 10
8.2343440962
 20
-30.8695997316
 10
8.3284567488
 20
-30.8605760131
 10
8.4233039165
 20
-30.8436840216
 10
8.5181628316
 20
-30.8188818079
 10
8.5280784259
 20
-30.8158247131
  0
LINE
  5
240
100
AcDbEntity
  8
ASSI
100
AcDbLine
 62
7
  6
CONTINUOUS
 10
7.6828642529
 20
-30.7569789938
 11
-22.3602074634
 21
-15.7354431356
  0
LINE
  5
241
100
AcDbEntity
  8
RACCORDO
100
AcDbLine
 62
7
  6
CONTINUOUS
 10
7.6828841195
 20
-30.756988927
 11
-22.36022733
 21
-15.7354332023
  0
LINE
  5
242
100
AcDbEntity
  8
ASSI
100
AcDbLine
 62
253
  6
CONTINUOUS
 10
7.2905695397
 20
-29.8723994881
 11
-22.7444678593
 21
-14.8548807886
  0
LINE
  5
243
100
AcDbEntity
  8
RACCORDO
100
AcDbLine
 62
253
  6
CONTINUOUS
 10
7.2905695397
 20
-29.8723994881
 11
-22.7444678593
 21
-14.8548807886
  0
LINE
  5
244
100
AcDbEntity
  8
RACCORDO
100
AcDbLine
 62
7
  6
CONTINUOUS
 10
-22.3794918252
 20
-15.7255273268
 11
-22.3587578163
 21
-15.7361459647
  0
LINE
  5
245
100
AcDbEntity
  8
ASSI
100
AcDbLine
 62
7
  6
CONTINUOUS
 10
-22.3775943504
 20
-15.7264990925
 11
-22.3592916657
 21
-15.7358802555
  0
LWPOLYLINE
  5
246
100
AcDbEntity
  8
RACCORDO
100
AcDbPolyline
 62
7
  6
CONTINUOUS
 90
14
 70
0
 10
-22.9788252606
 20
-14.5747799044
 10
-22.9798336434
 20
-14.6035780363
 10
-22.9780643157
 20
-14.7285792357
 10
-22.9663513662
 20
-14.8494065572
 10
-22.9449562996
 20
-14.9655551877
 10
-22.9141617347
 20
-15.0767824086
 10
-22.8742288502
 20
-15.182677341
 10
-22.8255503502
 20
-15.2825224138
 10
-22.7685461261
 20
-15.3758450155
 10
-22.7036515198
 20
-15.4621831892
 10
-22.6315649783
 20
-15.5408010528
 10
-22.5530201638
 20
-15.6111333113
 10
-22.4687004153
 20
-15.6728424314
 10
-22.3794918252
 20
-15.7255273268
  0
LWPOLYLINE
  5
247
100
AcDbEntity
  8
ASSI
100
AcDbPolyline
 62
7
  6
CONTINUOUS
 90
17
 70
0
 10
-22.9788209659
 20
-14.5746811168
 10
-22.9797576247
 20
-14.6007451917
 10
-22.9792896373
 20
-14.7021213712
 10
-22.9723158819
 20
-14.8006482198
 10
-22.9590138996
 20
-14.8960096628
 10
-22.9395606073
 20
-14.9881255173
 10
-22.9140946186
 20
-15.0769885832
 10
-22.8827824948
 20
-15.162319155
 10
-22.8457881532
 20
-15.2438565178
 10
-22.8032649742
 20
-15.321425752
 10
-22.7554873479
 20
-15.3946711502
 10
-22.7027514712
 20
-15.4632651136
 10
-22.645328042
 20
-15.5269514065
 10
-22.5836030622
 20
-15.5853900965
 10
-22.5180238693
 20
-15.638301728
 10
-22.4490278125
 20
-15.6854922968
 10
-22.3775943504
 20
-15.7264990925
  0
LINE
  5
248
100
AcDbEntity
  8
RACCORDO
100
AcDbLine
 62
7
  6
CONTINUOUS
 10
-22.9788252606
 20
-14.5747799044
 11
-22.9788166522
 21
-14.5745831644
  0
LINE
  5
249
100
AcDbEntity
  8
ASSI
100
AcDbLine
 62
7
  6
CONTINUOUS
 10
-22.9788209659
 20
-14.5746811168
 11
-22.9788166519
 21
-14.5745831576
  0
LWPOLYLINE
  5
24A
100
AcDbEntity
  8
RACCORDO
100
AcDbPolyline
 62
7
  6
CONTINUOUS
 90
13
 70
0
 10
-19.4731054472
 20
22.1479677441
 10
-19.8994680006
 20
19.118268322
 10
-20.3131012318
 20
16.001260679
 10
-20.7001988135
 20
12.8923247501
 10
-21.0607013995
 20
9.791908212
 10
-21.3945644351
 20
6.7004046156
 10
-21.7017475176
 20
3.6181864645
 10
-21.9822097384
 20
0.5456410073
 10
-22.2359156396
 20
-2.516846512
 10
-22.4628321466
 20
-5.5689064219
 10
-22.662926464
 20
-8.6101496055
 10
-22.8361709277
 20
-11.6401398813
 10
-22.9788292877
 20
-14.5745826118
  0
LWPOLYLINE
  5
24B
100
AcDbEntity
  8
ASSI
100
AcDbPolyline
 62
7
  6
CONTINUOUS
 90
13
 70
0
 10
-19.4731054483
 20
22.1479677364
 10
-19.9018709368
 20
19.1006976766
 10
-20.3149264419
 20
15.9870670362
 10
-20.7015028143
 20
12.881492807
 10
-21.0615409354
 20
9.7844210788
 10
-21.3949964217
 20
6.6962440623
 10
-21.7018289873
 20
3.6173331735
 10
-21.9819978563
 20
0.5480744238
 10
-22.235467687
 20
-2.5111481853
 10
-22.4622055061
 20
-5.5599660798
 10
-22.6621786124
 20
-8.5979914438
 10
-22.8353594237
 20
-11.6247896081
 10
-22.9788292873
 20
-14.5745826009
  0
LINE
  5
24C
100
AcDbEntity
  8
RACCORDO
100
AcDbLine
 62
7
  6
CONTINUOUS
 10
-4.97234857
 20
24.309452837
 11
-4.1183001864
 21
25.0569108938
  0
LINE
  5
24D
100
AcDbEntity
  8
RACCORDO
100
AcDbLine
 62
253
  6
CONTINUOUS
 10
-4.8184460152
 20
24.2325015596
 11
-3.8696474237
 21
25.0628844339
  0
LINE
  5
24E
100
AcDbEntity
  8
RACCORDO
100
AcDbLine
 62
7
  6
CONTINUOUS
 10
-3.3771348901
 20
22.3100330648
 11
-2.8780391573
 21
22.5602297379
  0
LINE
  5
24F
100
AcDbEntity
  8
0
100
AcDbLine
 62
7
  6
CONTINUOUS
 10
4.3521404938
 20
27.8413132425
 11
2.5283861991
 21
26.9294360951
  0
LINE
  5
250
100
AcDbEntity
  8
0
100
AcDbLine
 62
7
  6
CONTINUOUS
 10
5.2006686313
 20
27.4170491738
 11
4.1736961974
 21
26.9035629568
  0
LINE
  5
251
100
AcDbEntity
  8
RACCORDO
100
AcDbLine
 62
7
  6
CONTINUOUS
 10
-2.8780391573
 20
22.5602297379
 11
2.5362335378
 21
25.2602453483
  0
LINE
  5
252
100
AcDbEntity
  8
RACCORDO
100
AcDbLine
 62
7
  6
CONTINUOUS
 10
1.9302869547
 20
25.5619933062
 11
-2.8073284792
 21
23.2269427916
  0
LINE
  5
253
100
AcDbEntity
  8
RACCORDO
100
AcDbLine
 62
7
  6
CONTINUOUS
 10
3.2092497533
 20
25.3057452771
 11
2.6228709662
 21
25.0188232094
  0
LINE
  5
254
100
AcDbEntity
  8
RACCORDO
100
AcDbLine
 62
7
  6
CONTINUOUS
 10
8.1972958967
 20
28.7969080092
 11
4.6338650601
 21
27.0866532614
  0
LINE
  5
255
100
AcDbEntity
  8
RACCORDO
100
AcDbLine
 62
7
  6
CONTINUOUS
 10
-1.7030793139
 20
20.8890026595
 11
-0.1203227107
 21
21.7009867568
  0
LINE
  5
256
100
AcDbEntity
  8
RACCORDO
100
AcDbLine
 62
7
  6
CONTINUOUS
 10
11.9987579294
 20
26.8325434812
 11
7.7823781517
 21
24.6872338645
  0
LINE
  5
257
100
AcDbEntity
  8
RACCORDO
100
AcDbLine
 62
7
  6
CONTINUOUS
 10
-3.3771348901
 20
21.0958295919
 11
-2.8780391573
 21
21.3477941726
  0
LINE
  5
258
100
AcDbEntity
  8
DRAFT
100
AcDbLine
 62
7
  6
CONTINUOUS
 10
12.0048149163
 20
26.3955588528
 11
7.7823781517
 21
24.2775186604
  0
LINE
  5
259
100
AcDbEntity
  8
RACCORDO
100
AcDbLine
 62
7
  6
CONTINUOUS
 10
-0.0952579048
 20
20.085091955
 11
1.506022886
 21
20.8878139585
  0
LINE
  5
25A
100
AcDbEntity
  8
RACCORDO
100
AcDbLine
 62
7
  6
CONTINUOUS
 10
1.506022886
 20
20.8878139585
 11
2.0342900578
 21
21.1512527785
  0
LINE
  5
25B
100
AcDbEntity
  8
RACCORDO
100
AcDbLine
 62
7
  6
CONTINUOUS
 10
-2.8780391573
 20
21.3477941726
 11
2.5362335378
 21
24.0284067699
  0
LINE
  5
25C
100
AcDbEntity
  8
RACCORDO
100
AcDbLine
 62
7
  6
CONTINUOUS
 10
-0.1203227107
 20
21.7009867568
 11
0.414127168
 21
21.9613342234
  0
LINE
  5
25D
100
AcDbEntity
  8
RACCORDO
100
AcDbLine
 62
253
  6
CONTINUOUS
 10
1.4165006761
 20
21.5221248402
 11
6.1883396542
 21
23.8162003266
  0
LINE
  5
25E
100
AcDbEntity
  8
RACCORDO
100
AcDbLine
 62
253
  6
CONTINUOUS
 10
1.6441161759
 20
21.4083170903
 11
6.6301805222
 21
23.8053820463
  0
LINE
  5
25F
100
AcDbEntity
  8
RACCORDO
100
AcDbLine
 62
7
  6
CONTINUOUS
 10
10.9614659163
 20
27.4148229994
 11
7.3883922178
 21
25.7093896825
  0
LINE
  5
260
100
AcDbEntity
  8
RACCORDO
100
AcDbLine
 62
7
  6
CONTINUOUS
 10
22.2428808276
 20
-18.8898268382
 11
18.5119409736
 21
-19.08847832
  0
LINE
  5
261
100
AcDbEntity
  8
RACCORDO
100
AcDbLine
 62
7
  6
CONTINUOUS
 10
15.5717104499
 20
-30.1476644725
 11
14.2282075657
 21
-29.4759130303
  0
LINE
  5
262
100
AcDbEntity
  8
RACCORDO
100
AcDbLine
 62
253
  6
CONTINUOUS
 10
15.5067371535
 20
-30.0124460224
 11
14.1632342693
 21
-29.3406945802
  0
LINE
  5
263
100
AcDbEntity
  8
RACCORDO
100
AcDbLine
 62
253
  6
CONTINUOUS
 10
14.1632342693
 20
-28.9893806081
 11
15.5067371535
 21
-29.6611320503
  0
LINE
  5
264
100
AcDbEntity
  8
RACCORDO
100
AcDbLine
 62
253
  6
CONTINUOUS
 10
14.2516226169
 20
-28.7576864343
 11
15.5951255012
 21
-29.4294378765
  0
LINE
  5
265
100
AcDbEntity
  8
CURVE
100
AcDbLine
 62
253
  6
CONTINUOUS
 10
-16.6670153247
 20
-12.7914769148
 11
-16.1366852335
 21
-13.0566419604
  0
LINE
  5
266
100
AcDbEntity
  8
RACCORDO
100
AcDbLine
 62
253
  6
CONTINUOUS
 10
16.1254555871
 20
-28.7892728335
 11
14.7819527028
 21
-28.1175213914
  0
LINE
  5
267
100
AcDbEntity
  8
RACCORDO
100
AcDbLine
 62
253
  6
CONTINUOUS
 10
16.2138439347
 20
-28.5575786597
 11
14.8703410505
 21
-27.8858272176
  0
LINE
  5
268
100
AcDbEntity
  8
RACCORDO
100
AcDbLine
 62
7
  6
CONTINUOUS
 10
13.1402396678
 20
-26.9037299512
 11
15.999877895
 21
-28.3335490648
  0
LINE
  5
269
100
AcDbEntity
  8
RACCORDO
100
AcDbLine
 62
7
  6
CONTINUOUS
 10
-15.6413165577
 20
25.6396512636
 11
-15.6413165577
 21
25.6152557583
  0
LINE
  5
26A
100
AcDbEntity
  8
RACCORDO
100
AcDbLine
 62
253
  6
CONTINUOUS
 10
2.0201037192
 20
20.4072821877
 11
7.3784304993
 21
23.2982224147
  0
LINE
  5
26B
100
AcDbEntity
  8
RACCORDO
100
AcDbLine
 62
253
  6
CONTINUOUS
 10
3.1013126795
 20
20.742207084
 11
7.2942789317
 21
23.0044085708
  0
LINE
  5
26C
100
AcDbEntity
  8
RACCORDO
100
AcDbLine
 62
253
  6
CONTINUOUS
 10
3.2476394091
 20
20.6969404694
 11
7.2942789317
 21
22.7921494167
  0
LINE
  5
26D
100
AcDbEntity
  8
RACCORDO
100
AcDbLine
 62
7
  6
CONTINUOUS
 10
3.3674055398
 20
20.6370574041
 11
7.3764886441
 21
22.7128209466
  0
LWPOLYLINE
  5
26E
100
AcDbEntity
  8
RACCORDO
100
AcDbPolyline
 62
7
  6
CONTINUOUS
 90
4
 70
0
 10
1.3065100126
 20
18.325749346
 10
1.274107995
 20
18.3091535951
 10
1.2435816606
 20
18.2921060699
 10
1.2142032
 20
18.274412288
  0
LINE
  5
26F
100
AcDbEntity
  8
RACCORDO
100
AcDbLine
 62
253
  6
CONTINUOUS
 10
1.0343315749
 20
18.7719430765
 11
-0.1203227107
 21
18.1822747733
  0
LINE
  5
270
100
AcDbEntity
  8
RACCORDO
100
AcDbLine
 62
253
  6
CONTINUOUS
 10
1.4327995813
 20
18.4221829823
 11
0.1271646627
 21
17.7554106534
  0
LINE
  5
271
100
AcDbEntity
  8
DRAFT
100
AcDbLine
 62
7
  6
CONTINUOUS
 10
0.8893432335
 20
18.8444372472
 11
0.4391919739
 21
18.6171819014
  0
LINE
  5
272
100
AcDbEntity
  8
0
100
AcDbLine
 62
7
  6
CONTINUOUS
 10
8.3013190532
 20
23.4448704237
 11
8.7962938001
 21
23.6923577971
  0
LINE
  5
273
100
AcDbEntity
  8
RACCORDO
100
AcDbLine
 62
7
  6
CONTINUOUS
 10
0.8638894013
 20
19.6556917309
 11
2.9852097448
 21
20.7163519027
  0
LINE
  5
274
100
AcDbEntity
  8
RACCORDO
100
AcDbLine
 62
253
  6
CONTINUOUS
 10
0.9756928001
 20
19.6485912841
 11
3.0970131437
 21
20.7092514559
  0
LINE
  5
275
100
AcDbEntity
  8
0
100
AcDbLine
 62
7
  6
CONTINUOUS
 10
11.7767616963
 20
24.1290026413
 11
9.9530074016
 21
23.2171254939
  0
LINE
  5
276
100
AcDbEntity
  8
RACCORDO
100
AcDbLine
 62
253
  6
CONTINUOUS
 10
2.3191956844
 20
18.976839842
 11
4.440516028
 21
20.0375000138
  0
LINE
  5
277
100
AcDbEntity
  8
RACCORDO
100
AcDbLine
 62
253
  6
CONTINUOUS
 10
2.4959723797
 20
18.6719451434
 11
4.6172927233
 21
19.7326053152
  0
LINE
  5
278
100
AcDbEntity
  8
0
100
AcDbLine
 62
7
  6
CONTINUOUS
 10
12.6252898337
 20
23.7047385725
 11
11.5983173928
 21
23.1912523521
  0
LINE
  5
279
100
AcDbEntity
  8
RACCORDO
100
AcDbLine
 62
253
  6
CONTINUOUS
 10
1.0128821446
 20
18.0183530186
 11
1.2526487805
 21
18.1373178602
  0
LINE
  5
27A
100
AcDbEntity
  8
RACCORDO
100
AcDbLine
 62
7
  6
CONTINUOUS
 10
0.7897250174
 20
18.0328211223
 11
1.0243513262
 21
18.1491975011
  0
LINE
  5
27B
100
AcDbEntity
  8
RACCORDO
100
AcDbLine
 62
7
  6
CONTINUOUS
 10
1.4227899181
 20
18.3825077561
 11
1.3065600036
 21
18.3257716906
  0
LINE
  5
27C
100
AcDbEntity
  8
RACCORDO
100
AcDbLine
 62
7
  6
CONTINUOUS
 10
1.4327995813
 20
18.3873948084
 11
1.4227899181
 21
18.3825077561
  0
LINE
  5
27D
100
AcDbEntity
  8
RACCORDO
100
AcDbLine
 62
7
  6
CONTINUOUS
 10
1.3065108238
 20
18.3257476785
 11
1.3065600036
 21
18.3257716906
  0
LINE
  5
27E
100
AcDbEntity
  8
DRAFT
100
AcDbLine
 62
7
  6
CONTINUOUS
 10
4.0316090771
 20
20.3049556354
 11
7.9602805714
 21
22.2133042289
  0
LINE
  5
27F
100
AcDbEntity
  8
RACCORDO
100
AcDbLine
 62
253
  6
CONTINUOUS
 10
1.410678904
 20
18.346637204
 11
1.4291583708
 21
18.3555313885
  0
LINE
  5
280
100
AcDbEntity
  8
RACCORDO
100
AcDbLine
 62
7
  6
CONTINUOUS
 10
15.6219170991
 20
25.084597408
 11
12.0584862626
 21
23.3743426601
  0
LINE
  5
281
100
AcDbEntity
  8
ASSI
100
AcDbLine
 62
7
  6
CONTINUOUS
 10
0.1271646627
 20
17.7310151481
 11
0.6926433252
 21
17.9287179331
  0
LINE
  5
282
100
AcDbEntity
  8
DRAFT
100
AcDbLine
 62
7
  6
CONTINUOUS
 10
16.3535928457
 20
-28.0513263305
 11
13.1820702658
 21
-26.4655650405
  0
LINE
  5
283
100
AcDbEntity
  8
RACCORDO
100
AcDbLine
 62
253
  6
CONTINUOUS
 10
17.3628924541
 20
-28.1705544
 11
17.3536142815
 21
-28.1659153137
  0
LINE
  5
284
100
AcDbEntity
  8
DRAFT
100
AcDbLine
 62
7
  6
CONTINUOUS
 10
16.8212349401
 20
-27.7564105131
 11
13.2302478582
 21
-25.9609169721
  0
LINE
  5
285
100
AcDbEntity
  8
RACCORDO
100
AcDbLine
 62
253
  6
CONTINUOUS
 10
17.3477274112
 20
-28.0076417926
 11
17.89322254
 21
-28.280389357
  0
LINE
  5
286
100
AcDbEntity
  8
RACCORDO
100
AcDbLine
 62
7
  6
CONTINUOUS
 10
17.3477274112
 20
-28.0040216431
 11
17.9166375913
 21
-28.2884767331
  0
LINE
  5
287
100
AcDbEntity
  8
CURVE
100
AcDbLine
 62
253
  6
CONTINUOUS
 10
-15.9416210413
 20
-9.934591709
 11
-16.4719511325
 21
-9.6694266634
  0
LINE
  5
288
100
AcDbEntity
  8
DRAFT
100
AcDbLine
 62
7
  6
CONTINUOUS
 10
16.8212349401
 20
-26.1357727899
 11
13.3779175762
 21
-24.414114108
  0
LINE
  5
289
100
AcDbEntity
  8
RACCORDO
100
AcDbLine
 62
7
  6
CONTINUOUS
 10
-15.2421232608
 20
27.0129022963
 11
-15.2421232608
 21
27.26627369
  0
LINE
  5
28A
100
AcDbEntity
  8
ASSI
100
AcDbLine
 62
7
  6
CONTINUOUS
 10
-14.8281437594
 20
25.2086693591
 11
-14.8281437594
 21
24.9384988793
  0
LINE
  5
28B
100
AcDbEntity
  8
DRAFT
100
AcDbLine
 62
7
  6
CONTINUOUS
 10
-14.5391303065
 20
26.1063430416
 11
-14.5391303065
 21
26.5586740172
  0
LINE
  5
28C
100
AcDbEntity
  8
RACCORDO
100
AcDbLine
 62
7
  6
CONTINUOUS
 10
-13.6363467986
 20
26.4633854589
 11
-13.6363467986
 21
26.2100140652
  0
LINE
  5
28D
100
AcDbEntity
  8
DRAFT
100
AcDbLine
 62
7
  6
CONTINUOUS
 10
-12.9251261905
 20
25.2993409836
 11
-12.9251261905
 21
25.9365105423
  0
LWPOLYLINE
  5
28E
100
AcDbEntity
  8
RACCORDO
100
AcDbPolyline
 62
7
  6
CONTINUOUS
 90
11
 70
0
 10
1.2142032
 20
18.274412288
 10
1.1859744954
 20
18.2563190771
 10
1.1592173882
 20
18.2383286482
 10
1.1339911308
 20
18.2208179204
 10
1.1100832886
 20
18.2040141954
 10
1.0878989853
 20
18.1885689478
 10
1.0682530044
 20
18.1753080287
 10
1.051241553
 20
18.1644111742
 10
1.037002925
 20
18.1559556618
 10
1.0261174345
 20
18.1500912869
 10
1.0243607776
 20
18.1492102674
  0
LINE
  5
28F
100
AcDbEntity
  8
RACCORDO
100
AcDbLine
 62
253
  6
CONTINUOUS
 10
16.7900611428
 20
24.0805633385
 11
5.0182680797
 21
18.0916308056
  0
LINE
  5
290
100
AcDbEntity
  8
RACCORDO
100
AcDbLine
 62
7
  6
CONTINUOUS
 10
5.4534782659
 20
17.8740257125
 11
11.7184812505
 21
20.9815133791
  0
LINE
  5
291
100
AcDbEntity
  8
RACCORDO
100
AcDbLine
 62
7
  6
CONTINUOUS
 10
12.1431697618
 20
20.3529261372
 11
6.455782049
 21
17.5418020542
  0
LINE
  5
292
100
AcDbEntity
  8
RACCORDO
100
AcDbLine
 62
253
  6
CONTINUOUS
 10
8.5823815594
 20
21.1403387404
 11
16.1543149571
 21
24.818398479
  0
LINE
  5
293
100
AcDbEntity
  8
RACCORDO
100
AcDbLine
 62
253
  6
CONTINUOUS
 10
8.9200498932
 20
20.5579470134
 11
16.6542388046
 21
24.3148222197
  0
LINE
  5
294
100
AcDbEntity
  8
RACCORDO
100
AcDbLine
 62
253
  6
CONTINUOUS
 10
3.2030791609
 20
17.6154786638
 11
3.9101859421
 21
17.9539155247
  0
LINE
  5
295
100
AcDbEntity
  8
RACCORDO
100
AcDbLine
 62
253
  6
CONTINUOUS
 10
3.3420323741
 20
17.3703552134
 11
4.0491391553
 21
17.7087920744
  0
LINE
  5
296
100
AcDbEntity
  8
RACCORDO
100
AcDbLine
 62
7
  6
CONTINUOUS
 10
-11.8582952784
 20
25.8379222331
 11
-11.8582952784
 21
27.5699730407
  0
LINE
  5
297
100
AcDbEntity
  8
RACCORDO
100
AcDbLine
 62
7
  6
CONTINUOUS
 10
-11.1553023241
 20
27.7052945384
 11
-11.1553023241
 21
27.4443655621
  0
LINE
  5
298
100
AcDbEntity
  8
RACCORDO
100
AcDbLine
 62
7
  6
CONTINUOUS
 10
2.121141721
 20
20.5302551919
 11
1.7781791189
 21
20.1128365897
  0
LINE
  5
299
100
AcDbEntity
  8
RACCORDO
100
AcDbLine
 62
253
  6
CONTINUOUS
 10
17.2042116184
 20
22.6489297639
 11
13.0699164262
 21
20.5455955611
  0
LINE
  5
29A
100
AcDbEntity
  8
RACCORDO
100
AcDbLine
 62
7
  6
CONTINUOUS
 10
12.7490207069
 20
20.0500006647
 11
8.1528266292
 21
17.7519036258
  0
LINE
  5
29B
100
AcDbEntity
  8
0
100
AcDbLine
 62
7
  6
CONTINUOUS
 10
10.3250333677
 20
16.6658002565
 11
13.730176928
 21
18.3683720367
  0
LINE
  5
29C
100
AcDbEntity
  8
DRAFT
100
AcDbLine
 62
7
  6
CONTINUOUS
 10
13.1025740975
 20
18.8934095574
 11
9.4071946043
 21
17.1247196383
  0
LINE
  5
29D
100
AcDbEntity
  8
RACCORDO
100
AcDbLine
 62
7
  6
CONTINUOUS
 10
14.8826817654
 20
19.3994131217
 11
9.7607479949
 21
16.947942943
  0
LINE
  5
29E
100
AcDbEntity
  8
RACCORDO
100
AcDbLine
 62
7
  6
CONTINUOUS
 10
-9.6805382754
 20
25.3119091013
 11
-9.6805382754
 21
24.0971757151
  0
LINE
  5
29F
100
AcDbEntity
  8
RACCORDO
100
AcDbLine
 62
253
  6
CONTINUOUS
 10
-9.5926703098
 20
25.2054001445
 11
-9.5926703098
 21
23.9904452784
  0
LINE
  5
2A0
100
AcDbEntity
  8
RACCORDO
100
AcDbLine
 62
253
  6
CONTINUOUS
 10
4.0869626374
 20
18.7411263002
 11
4.6172927233
 21
19.3812913431
  0
LINE
  5
2A1
100
AcDbEntity
  8
RACCORDO
100
AcDbLine
 62
7
  6
CONTINUOUS
 10
4.1027049802
 20
18.6700266546
 11
4.633035066
 21
19.3101916976
  0
LINE
  5
2A2
100
AcDbEntity
  8
RACCORDO
100
AcDbLine
 62
7
  6
CONTINUOUS
 10
17.6987681752
 20
17.5751269305
 11
13.1025740975
 21
15.2770298917
  0
LINE
  5
2A3
100
AcDbEntity
  8
DRAFT
100
AcDbLine
 62
7
  6
CONTINUOUS
 10
22.7105510563
 20
-21.167226325
 11
23.4443285113
 21
-21.5341150525
  0
LINE
  5
2A4
100
AcDbEntity
  8
DRAFT
100
AcDbLine
 62
7
  6
CONTINUOUS
 10
18.5119409736
 20
-18.3640753123
 11
19.821313591
 21
-19.018761621
  0
LINE
  5
2A5
100
AcDbEntity
  8
RACCORDO
100
AcDbLine
 62
7
  6
CONTINUOUS
 10
18.3046191203
 20
17.272201458
 11
12.6823709543
 21
14.4285076016
  0
LINE
  5
2A6
100
AcDbEntity
  8
RACCORDO
100
AcDbLine
 62
7
  6
CONTINUOUS
 10
14.2282075657
 20
12.9735326487
 11
16.3495279092
 21
14.0341928205
  0
LINE
  5
2A7
100
AcDbEntity
  8
RACCORDO
100
AcDbLine
 62
253
  6
CONTINUOUS
 10
14.3400109646
 20
12.9664322019
 11
16.4613313081
 21
14.0270923737
  0
LINE
  5
2A8
100
AcDbEntity
  8
RACCORDO
100
AcDbLine
 62
7
  6
CONTINUOUS
 10
18.656136167
 20
16.1166285227
 11
12.6823709543
 21
13.2235867688
  0
LINE
  5
2A9
100
AcDbEntity
  8
RACCORDO
100
AcDbLine
 62
7
  6
CONTINUOUS
 10
18.6547119802
 20
17.0528482532
 11
19.1253224525
 21
17.2780927781
  0
LINE
  5
2AA
100
AcDbEntity
  8
RACCORDO
100
AcDbLine
 62
7
  6
CONTINUOUS
 10
17.5901695684
 20
13.5256753898
 11
22.2895229674
 21
15.6959925207
  0
LINE
  5
2AB
100
AcDbEntity
  8
RACCORDO
100
AcDbLine
 62
253
  6
CONTINUOUS
 10
-3.8001612417
 20
21.0941907444
 11
-3.8001612417
 21
22.3091456105
  0
LINE
  5
2AC
100
AcDbEntity
  8
DRAFT
100
AcDbLine
 62
7
  6
CONTINUOUS
 10
-3.4437245823
 20
25.2707550027
 11
-3.4437245823
 21
26.5974354381
  0
LINE
  5
2AD
100
AcDbEntity
  8
RACCORDO
100
AcDbLine
 62
253
  6
CONTINUOUS
 10
-3.3771348901
 20
21.0958295919
 11
-3.3771348901
 21
22.3100330648
  0
LINE
  5
2AE
100
AcDbEntity
  8
DRAFT
100
AcDbLine
 62
7
  6
CONTINUOUS
 10
-3.0901711917
 20
25.8681005535
 11
-3.0901711917
 21
26.4206587428
  0
LINE
  5
2AF
100
AcDbEntity
  8
RACCORDO
100
AcDbLine
 62
253
  6
CONTINUOUS
 10
-3.0194605136
 20
28.0368670404
 11
-3.0194605136
 21
26.805032859
  0
LINE
  5
2B0
100
AcDbEntity
  8
RACCORDO
100
AcDbLine
 62
7
  6
CONTINUOUS
 10
-2.9315925479
 20
28.1418642543
 11
-2.9315925479
 21
26.9094956495
  0
LINE
  5
2B1
100
AcDbEntity
  8
DRAFT
100
AcDbLine
 62
7
  6
CONTINUOUS
 10
-2.8780391573
 20
22.5602297379
 11
-2.8780391573
 21
21.3477941726
  0
LINE
  5
2B2
100
AcDbEntity
  8
DRAFT
100
AcDbLine
 62
7
  6
CONTINUOUS
 10
18.6367566626
 20
17.1561352904
 11
18.7536019953
 21
17.231709865
  0
LINE
  5
2B3
100
AcDbEntity
  8
RACCORDO
100
AcDbLine
 62
7
  6
CONTINUOUS
 10
17.5226923724
 20
12.0550662748
 11
23.400860279
 21
15.2264727155
  0
LINE
  5
2B4
100
AcDbEntity
  8
RACCORDO
100
AcDbLine
 62
253
  6
CONTINUOUS
 10
15.6835138488
 20
12.2946807598
 11
17.8048341924
 21
13.3553409316
  0
LINE
  5
2B5
100
AcDbEntity
  8
RACCORDO
100
AcDbLine
 62
253
  6
CONTINUOUS
 10
15.8602905441
 20
11.9897860612
 11
17.9816108877
 21
13.050446233
  0
LINE
  5
2B6
100
AcDbEntity
  8
RACCORDO
100
AcDbLine
 62
253
  6
CONTINUOUS
 10
14.7963786483
 20
11.7116142718
 11
14.7264515512
 21
11.6781456249
  0
LINE
  5
2B7
100
AcDbEntity
  8
RACCORDO
100
AcDbLine
 62
253
  6
CONTINUOUS
 10
16.5673973253
 20
10.9333195816
 11
17.2745041065
 21
11.2717564425
  0
LINE
  5
2B8
100
AcDbEntity
  8
RACCORDO
100
AcDbLine
 62
253
  6
CONTINUOUS
 10
16.658103066
 20
10.722925123
 11
17.3687144309
 21
11.0580798768
  0
LINE
  5
2B9
100
AcDbEntity
  8
RACCORDO
100
AcDbLine
 62
253
  6
CONTINUOUS
 10
17.5326810117
 20
11.2327534365
 11
18.1582260229
 21
11.521651834
  0
LINE
  5
2BA
100
AcDbEntity
  8
RACCORDO
100
AcDbLine
 62
253
  6
CONTINUOUS
 10
15.999877895
 20
10.5248551433
 11
16.2482426634
 21
10.6395207482
  0
LINE
  5
2BB
100
AcDbEntity
  8
ASSI
100
AcDbLine
 62
253
  6
CONTINUOUS
 10
11.9590894294
 20
8.4875336654
 11
16.0660431634
 21
9.9506286287
  0
LINE
  5
2BC
100
AcDbEntity
  8
RACCORDO
100
AcDbLine
 62
253
  6
CONTINUOUS
 10
11.9590894294
 20
8.4875336654
 11
16.0660431634
 21
9.9506286287
  0
LINE
  5
2BD
100
AcDbEntity
  8
ASSI
100
AcDbLine
 62
253
  6
CONTINUOUS
 10
12.4557594863
 20
7.4827180135
 11
16.5627132202
 21
8.9458129767
  0
LINE
  5
2BE
100
AcDbEntity
  8
RACCORDO
100
AcDbLine
 62
253
  6
CONTINUOUS
 10
12.4557594863
 20
7.4827180135
 11
16.5627132202
 21
8.9458129767
  0
LINE
  5
2BF
100
AcDbEntity
  8
DRAFT
100
AcDbLine
 62
7
  6
CONTINUOUS
 10
16.8212349401
 20
10.0455983621
 11
16.3535928457
 21
9.8889174583
  0
LINE
  5
2C0
100
AcDbEntity
  8
RACCORDO
100
AcDbLine
 62
7
  6
CONTINUOUS
 10
-1.8778050964
 20
20.3307432141
 11
-1.8778050964
 21
20.5841146078
  0
LINE
  5
2C1
100
AcDbEntity
  8
DRAFT
100
AcDbLine
 62
7
  6
CONTINUOUS
 10
-1.1748121421
 20
19.4241839594
 11
-1.1748121421
 21
19.876514935
  0
LINE
  5
2C2
100
AcDbEntity
  8
RACCORDO
100
AcDbLine
 62
7
  6
CONTINUOUS
 10
-0.3324547451
 20
26.9115412868
 11
-0.3324547451
 21
26.6407409942
  0
LINE
  5
2C3
100
AcDbEntity
  8
RACCORDO
100
AcDbLine
 62
7
  6
CONTINUOUS
 10
-0.2720286342
 20
19.7812263767
 11
-0.2720286342
 21
19.527854983
  0
LINE
  5
2C4
100
AcDbEntity
  8
RACCORDO
100
AcDbLine
 62
7
  6
CONTINUOUS
 10
0.1271646627
 20
17.7554106534
 11
0.1271646627
 21
17.7310151481
  0
LINE
  5
2C5
100
AcDbEntity
  8
DRAFT
100
AcDbLine
 62
7
  6
CONTINUOUS
 10
17.7581972887
 20
11.7216662011
 11
23.4443285113
 21
14.6657468256
  0
LINE
  5
2C6
100
AcDbEntity
  8
RACCORDO
100
AcDbLine
 62
253
  6
CONTINUOUS
 10
17.8738393315
 20
10.616887233
 11
18.5119409736
 21
10.9115837869
  0
LINE
  5
2C7
100
AcDbEntity
  8
RACCORDO
100
AcDbLine
 62
253
  6
CONTINUOUS
 10
16.3535928457
 20
9.9147870962
 11
16.5893389824
 21
10.0236663772
  0
LINE
  5
2C8
100
AcDbEntity
  8
DRAFT
100
AcDbLine
 62
7
  6
CONTINUOUS
 10
15.0585839689
 20
-9.7064922038
 11
14.7946204653
 21
-9.574510452
  0
LINE
  5
2C9
100
AcDbEntity
  8
0
100
AcDbLine
 62
253
  6
CONTINUOUS
 10
0.3577569492
 20
27.9898292616
 11
0.3577569492
 21
28.3995444657
  0
LINE
  5
2CA
100
AcDbEntity
  8
DRAFT
100
AcDbLine
 62
7
  6
CONTINUOUS
 10
0.4391919739
 20
18.6171819014
 11
0.4391919739
 21
19.2543514601
  0
LINE
  5
2CB
100
AcDbEntity
  8
RACCORDO
100
AcDbLine
 62
7
  6
CONTINUOUS
 10
0.6591671939
 20
17.7619999221
 11
0.6591671939
 21
17.7361302842
  0
LINE
  5
2CC
100
AcDbEntity
  8
RACCORDO
100
AcDbLine
 62
7
  6
CONTINUOUS
 10
0.7256928001
 20
19.0807709611
 11
0.7256928001
 21
19.4320849332
  0
LINE
  5
2CD
100
AcDbEntity
  8
RACCORDO
100
AcDbLine
 62
253
  6
CONTINUOUS
 10
0.7989161048
 20
18.9923826134
 11
0.7989161048
 21
19.3436965855
  0
LINE
  5
2CE
100
AcDbEntity
  8
ASSI
100
AcDbLine
 62
7
  6
CONTINUOUS
 10
0.9403374611
 20
17.5955451506
 11
0.9403374611
 21
17.5134814798
  0
LINE
  5
2CF
100
AcDbEntity
  8
DRAFT
100
AcDbLine
 62
7
  6
CONTINUOUS
 10
1.0404671472
 20
28.3322873539
 11
1.0404671472
 21
27.899274652
  0
LINE
  5
2D0
100
AcDbEntity
  8
DRAFT
100
AcDbLine
 62
7
  6
CONTINUOUS
 10
1.110763915
 20
17.4282682528
 11
1.110763915
 21
17.5103319237
  0
LINE
  5
2D1
100
AcDbEntity
  8
RACCORDO
100
AcDbLine
 62
7
  6
CONTINUOUS
 10
1.4327995813
 20
18.3803707491
 11
1.4327995813
 21
18.5727090733
  0
LINE
  5
2D2
100
AcDbEntity
  8
RACCORDO
100
AcDbLine
 62
253
  6
CONTINUOUS
 10
1.506022886
 20
18.2940325443
 11
1.506022886
 21
18.536097421
  0
LINE
  5
2D3
100
AcDbEntity
  8
RACCORDO
100
AcDbLine
 62
7
  6
CONTINUOUS
 10
1.506022886
 20
19.9767584733
 11
1.506022886
 21
20.8878139585
  0
LINE
  5
2D4
100
AcDbEntity
  8
RACCORDO
100
AcDbLine
 62
253
  6
CONTINUOUS
 10
2.1424189891
 20
18.6719451434
 11
2.1424189891
 21
18.3206311713
  0
LINE
  5
2D5
100
AcDbEntity
  8
RACCORDO
100
AcDbLine
 62
7
  6
CONTINUOUS
 10
2.2090158403
 20
21.0231354562
 11
2.2090158403
 21
20.7622064799
  0
LINE
  5
2D6
100
AcDbEntity
  8
RACCORDO
100
AcDbLine
 62
253
  6
CONTINUOUS
 10
2.4959723797
 20
18.6719451434
 11
2.4959723797
 21
18.3206311713
  0
LINE
  5
2D7
100
AcDbEntity
  8
RACCORDO
100
AcDbLine
 62
253
  6
CONTINUOUS
 10
2.5362335378
 20
25.2602453483
 11
2.5362335378
 21
24.0284067699
  0
LINE
  5
2D8
100
AcDbEntity
  8
DRAFT
100
AcDbLine
 62
7
  6
CONTINUOUS
 10
2.5666830578
 20
28.2785426842
 11
2.5666830578
 21
28.1347658686
  0
LINE
  5
2D9
100
AcDbEntity
  8
RACCORDO
100
AcDbLine
 62
7
  6
CONTINUOUS
 10
2.6228709662
 20
25.3646327236
 11
2.6228709662
 21
24.1322642318
  0
LINE
  5
2DA
100
AcDbEntity
  8
RACCORDO
100
AcDbLine
 62
253
  6
CONTINUOUS
 10
2.8495257703
 20
17.9241845619
 11
2.8495257703
 21
17.6222811022
  0
LINE
  5
2DB
100
AcDbEntity
  8
0
100
AcDbLine
 62
7
  6
CONTINUOUS
 10
2.5283861991
 20
26.9294360951
 11
2.5198477952
 21
26.6381408227
  0
LWPOLYLINE
  5
2DC
100
AcDbEntity
  8
RACCORDO
100
AcDbPolyline
 62
7
  6
CONTINUOUS
 90
6
 70
0
 10
1.4328039956
 20
18.3806022914
 10
1.4325945205
 20
18.37424706
 10
1.4309260463
 20
18.3619924588
 10
1.4280821328
 20
18.3515976068
 10
1.4247682028
 20
18.343547758
 10
1.4224138005
 20
18.3391671638
  0
LINE
  5
2DD
100
AcDbEntity
  8
0
100
AcDbLine
 62
7
  6
CONTINUOUS
 10
2.1176954104
 20
26.6410708979
 11
2.0786415377
 21
27.0511839283
  0
LINE
  5
2DE
100
AcDbEntity
  8
RACCORDO
100
AcDbLine
 62
7
  6
CONTINUOUS
 10
3.9835424126
 20
18.0324293668
 11
3.9834047209
 21
18.0375896836
  0
LINE
  5
2DF
100
AcDbEntity
  8
RACCORDO
100
AcDbLine
 62
253
  6
CONTINUOUS
 10
3.2030791609
 20
17.9241845619
 11
3.2030791609
 21
17.6154786638
  0
LINE
  5
2E0
100
AcDbEntity
  8
RACCORDO
100
AcDbLine
 62
253
  6
CONTINUOUS
 10
3.9101859421
 20
17.9539155247
 11
3.9101859421
 21
18.2777379525
  0
LINE
  5
2E1
100
AcDbEntity
  8
RACCORDO
100
AcDbLine
 62
7
  6
CONTINUOUS
 10
3.983409246
 20
18.0375034656
 11
3.9834092468
 21
18.3661263002
  0
LINE
  5
2E2
100
AcDbEntity
  8
RACCORDO
100
AcDbLine
 62
7
  6
CONTINUOUS
 10
4.5801937138
 20
30.4343316629
 11
4.5801937138
 21
30.1078694541
  0
LINE
  5
2E3
100
AcDbEntity
  8
RACCORDO
100
AcDbLine
 62
253
  6
CONTINUOUS
 10
4.6172927233
 20
19.7326053152
 11
4.6172927233
 21
19.3812913431
  0
LINE
  5
2E4
100
AcDbEntity
  8
RACCORDO
100
AcDbLine
 62
7
  6
CONTINUOUS
 10
4.690516028
 20
19.8209936628
 11
4.690516028
 21
19.4696796907
  0
LWPOLYLINE
  5
2E5
100
AcDbEntity
  8
RACCORDO
100
AcDbPolyline
 62
7
  6
CONTINUOUS
 90
25
 70
0
 10
19.0588280353
 20
17.5031740598
 10
19.059732479
 20
17.5042589163
 10
19.0674278625
 20
17.5138268083
 10
19.0748629132
 20
17.5236923227
 10
19.082025526
 20
17.5338467294
 10
19.0889064626
 20
17.5442843652
 10
19.095499206
 20
17.5550036358
 10
19.1017938128
 20
17.5659970136
 10
19.1077806693
 20
17.5772564053
 10
19.1134539258
 20
17.588780635
 10
19.1188048692
 20
17.6005631359
 10
19.1238243548
 20
17.6125946878
 10
19.1285060577
 20
17.6248720459
 10
19.132842164
 20
17.6373885137
 10
19.136824722
 20
17.650135607
 10
19.140447667
 20
17.6631095729
 10
19.1437043497
 20
17.6763056297
 10
19.1465872344
 20
17.68971479
 10
19.1490897321
 20
17.7033292566
 10
19.1512056267
 20
17.7171432314
 10
19.1529285723
 20
17.731150516
 10
19.1542525311
 20
17.7453454141
 10
19.1551712993
 20
17.7597237663
 10
19.1556784673
 20
17.7742804135
 10
19.1557852085
 20
17.7847414052
  0
LINE
  5
2E6
100
AcDbEntity
  8
DRAFT
100
AcDbLine
 62
7
  6
CONTINUOUS
 10
18.5119409736
 20
5.3840626054
 11
18.7536019953
 21
5.5403669139
  0
LINE
  5
2E7
100
AcDbEntity
  8
CURVE
100
AcDbLine
 62
253
  6
CONTINUOUS
 10
-15.3285168807
 20
11.0381146807
 11
-14.7981867895
 21
10.7729496351
  0
LINE
  5
2E8
100
AcDbEntity
  8
CURVE
100
AcDbLine
 62
253
  6
CONTINUOUS
 10
-13.5078126128
 20
12.067990553
 11
-12.4471523567
 21
11.5376604249
  0
LINE
  5
2E9
100
AcDbEntity
  8
CURVE
100
AcDbLine
 62
253
  6
CONTINUOUS
 10
-11.7400456177
 20
11.1841070554
 11
-10.6793853616
 21
10.6537769274
  0
LINE
  5
2EA
100
AcDbEntity
  8
RACCORDO
100
AcDbLine
 62
7
  6
CONTINUOUS
 10
7.3784304993
 20
23.2982224147
 11
7.3784769699
 21
23.2920850766
  0
LINE
  5
2EB
100
AcDbEntity
  8
RACCORDO
100
AcDbLine
 62
7
  6
CONTINUOUS
 10
6.3072932653
 20
16.1644757283
 11
6.3072932653
 21
17.364010136
  0
LINE
  5
2EC
100
AcDbEntity
  8
RACCORDO
100
AcDbLine
 62
253
  6
CONTINUOUS
 10
6.4537398747
 20
15.989914405
 11
6.4537398747
 21
17.1872334407
  0
LINE
  5
2ED
100
AcDbEntity
  8
RACCORDO
100
AcDbLine
 62
253
  6
CONTINUOUS
 10
7.2942789317
 20
23.0044085708
 11
7.2942789317
 21
22.7921494167
  0
LINE
  5
2EE
100
AcDbEntity
  8
RACCORDO
100
AcDbLine
 62
7
  6
CONTINUOUS
 10
7.3784769916
 20
23.2920294491
 11
7.3784769916
 21
22.7160662595
  0
LINE
  5
2EF
100
AcDbEntity
  8
0
100
AcDbLine
 62
253
  6
CONTINUOUS
 10
7.7823781517
 20
24.2775186604
 11
7.7823781517
 21
24.6872338645
  0
LINE
  5
2F0
100
AcDbEntity
  8
RACCORDO
100
AcDbLine
 62
253
  6
CONTINUOUS
 10
17.4512808018
 20
12.0589672179
 11
17.9816108877
 21
12.6991322609
  0
LINE
  5
2F1
100
AcDbEntity
  8
RACCORDO
100
AcDbLine
 62
7
  6
CONTINUOUS
 10
17.4670231446
 20
11.9878675724
 11
17.9973532305
 21
12.6280326153
  0
LINE
  5
2F2
100
AcDbEntity
  8
RACCORDO
100
AcDbLine
 62
7
  6
CONTINUOUS
 10
18.5119409736
 20
9.2292458762
 11
22.6248687014
 21
13.1424148325
  0
LINE
  5
2F3
100
AcDbEntity
  8
CURVE
100
AcDbLine
 62
253
  6
CONTINUOUS
 10
-10.500941148
 20
12.0249582131
 11
-11.561601404
 21
12.5552883411
  0
LINE
  5
2F4
100
AcDbEntity
  8
CURVE
100
AcDbLine
 62
253
  6
CONTINUOUS
 10
-12.2687081431
 20
12.9088417106
 11
-13.3293683992
 21
13.4391718387
  0
LINE
  5
2F5
100
AcDbEntity
  8
CURVE
100
AcDbLine
 62
253
  6
CONTINUOUS
 10
-14.3900285077
 20
13.969501893
 11
-14.9203585989
 21
14.2346669385
  0
LINE
  5
2F6
100
AcDbEntity
  8
DRAFT
100
AcDbLine
 62
7
  6
CONTINUOUS
 10
8.4650883496
 20
24.6199767526
 11
8.4650883496
 21
24.1869640508
  0
LINE
  5
2F7
100
AcDbEntity
  8
DRAFT
100
AcDbLine
 62
7
  6
CONTINUOUS
 10
9.9913042603
 20
24.4224552674
 11
9.9913042603
 21
24.566232083
  0
LINE
  5
2F8
100
AcDbEntity
  8
0
100
AcDbLine
 62
7
  6
CONTINUOUS
 10
9.9530074016
 20
23.2171254939
 11
9.9444689974
 21
22.9258302135
  0
LINE
  5
2F9
100
AcDbEntity
  8
0
100
AcDbLine
 62
253
  6
CONTINUOUS
 10
-0.0362289846
 20
29.4217002837
 11
0.3577569492
 21
28.3995444657
  0
LINE
  5
2FA
100
AcDbEntity
  8
0
100
AcDbLine
 62
7
  6
CONTINUOUS
 10
1.5731719555
 20
26.8089439725
 11
1.3716725976
 21
27.4046683983
  0
LINE
  5
2FB
100
AcDbEntity
  8
RACCORDO
100
AcDbLine
 62
7
  6
CONTINUOUS
 10
13.9752419905
 20
-18.157292278
 11
14.5366318512
 21
-23.3898832392
  0
LINE
  5
2FC
100
AcDbEntity
  8
0
100
AcDbLine
 62
7
  6
CONTINUOUS
 10
9.5423166136
 20
22.9287602888
 11
9.5032627402
 21
23.338873327
  0
LINE
  5
2FD
100
AcDbEntity
  8
RACCORDO
100
AcDbLine
 62
253
  6
CONTINUOUS
 10
11.9732337272
 20
14.4274865144
 11
11.9732337272
 21
13.2301674788
  0
LINE
  5
2FE
100
AcDbEntity
  8
RACCORDO
100
AcDbLine
 62
7
  6
CONTINUOUS
 10
12.0048149163
 20
26.7220210617
 11
12.0048149163
 21
26.3955588528
  0
LINE
  5
2FF
100
AcDbEntity
  8
RACCORDO
100
AcDbLine
 62
253
  6
CONTINUOUS
 10
12.6823709543
 20
14.4285076016
 11
12.6823709543
 21
13.2235867688
  0
LINE
  5
300
100
AcDbEntity
  8
RACCORDO
100
AcDbLine
 62
7
  6
CONTINUOUS
 10
13.1025740975
 20
18.8934095574
 11
13.1025740975
 21
19.7937646581
  0
LWPOLYLINE
  5
301
100
AcDbEntity
  8
RACCORDO
100
AcDbPolyline
 62
7
  6
CONTINUOUS
 90
25
 70
0
 10
19.0588280011
 20
5.8118310409
 10
19.059732432
 20
5.8129158815
 10
19.0674278195
 20
5.822483774
 10
19.074862874
 20
5.832349289
 10
19.0820254904
 20
5.8425036963
 10
19.0889064304
 20
5.8529413328
 10
19.095499177
 20
5.8636606042
 10
19.1017937869
 20
5.8746539828
 10
19.1077806462
 20
5.8859133753
 10
19.1134539055
 20
5.897437606
 10
19.1188048514
 20
5.9092201079
 10
19.1238243395
 20
5.9212516609
 10
19.1285060445
 20
5.9335290201
 10
19.132842153
 20
5.9460454891
 10
19.1368247129
 20
5.9587925836
 10
19.1404476595
 20
5.9717665508
 10
19.1437043438
 20
5.9849626089
 10
19.1465872299
 20
5.9983717706
 10
19.1490897288
 20
6.0119862388
 10
19.1512056244
 20
6.0258002151
 10
19.1529285709
 20
6.0398075013
 10
19.1542525304
 20
6.0540024011
 10
19.155171299
 20
6.068380755
 10
19.1556784672
 20
6.082937404
 10
19.1557852085
 20
6.0933983972
  0
LINE
  5
302
100
AcDbEntity
  8
ASSI
100
AcDbLine
 62
253
  6
CONTINUOUS
 10
-19.2368461133
 20
21.8865678836
 11
10.7981912858
 21
6.8690491841
  0
LINE
  5
303
100
AcDbEntity
  8
RACCORDO
100
AcDbLine
 62
253
  6
CONTINUOUS
 10
-19.2368461133
 20
21.8865678836
 11
10.7981912858
 21
6.8690491841
  0
LINE
  5
304
100
AcDbEntity
  8
ASSI
100
AcDbLine
 62
253
  6
CONTINUOUS
 10
-18.0928862232
 20
23.5135214917
 11
11.9590894294
 21
8.4875336654
  0
LINE
  5
305
100
AcDbEntity
  8
RACCORDO
100
AcDbLine
 62
253
  6
CONTINUOUS
 10
-18.0928862232
 20
23.5135214917
 11
11.9590894294
 21
8.4875336654
  0
LWPOLYLINE
  5
306
100
AcDbEntity
  8
RACCORDO
100
AcDbPolyline
 62
7
  6
CONTINUOUS
 90
5
 70
0
 10
3.9935726609
 20
17.9970053309
 10
3.9905850438
 20
18.0026914525
 10
3.9875339803
 20
18.0105664457
 10
3.984975407
 20
18.0206184947
 10
3.9835424126
 20
18.0324293668
  0
LINE
  5
307
100
AcDbEntity
  8
DRAFT
100
AcDbLine
 62
7
  6
CONTINUOUS
 10
16.8212349401
 20
-26.1357727899
 11
15.0585839689
 21
-9.7064922038
  0
LINE
  5
308
100
AcDbEntity
  8
RACCORDO
100
AcDbLine
 62
253
  6
CONTINUOUS
 10
14.0900109646
 20
-29.2523062448
 11
14.0900111229
 21
-29.2524469251
  0
LINE
  5
309
100
AcDbEntity
  8
RACCORDO
100
AcDbLine
 62
7
  6
CONTINUOUS
 10
14.0900109646
 20
-29.2523062326
 11
14.0900109646
 21
-28.9009922605
  0
LINE
  5
30A
100
AcDbEntity
  8
RACCORDO
100
AcDbLine
 62
7
  6
CONTINUOUS
 10
14.0900109646
 20
12.3986118789
 11
14.0900109646
 21
12.749925851
  0
LINE
  5
30B
100
AcDbEntity
  8
RACCORDO
100
AcDbLine
 62
253
  6
CONTINUOUS
 10
14.1632342693
 20
-29.3406945802
 11
14.1632342693
 21
-28.9893806081
  0
LINE
  5
30C
100
AcDbEntity
  8
RACCORDO
100
AcDbLine
 62
253
  6
CONTINUOUS
 10
14.1632342693
 20
12.3102235312
 11
14.1632342693
 21
12.6615375033
  0
LINE
  5
30D
100
AcDbEntity
  8
RACCORDO
100
AcDbLine
 62
7
  6
CONTINUOUS
 10
14.7971177458
 20
-27.7974388699
 11
14.7971177458
 21
-27.7321689902
  0
LINE
  5
30E
100
AcDbEntity
  8
RACCORDO
100
AcDbLine
 62
7
  6
CONTINUOUS
 10
14.7971177458
 20
11.6982116668
 11
14.7971177458
 21
11.8905499911
  0
LINE
  5
30F
100
AcDbEntity
  8
RACCORDO
100
AcDbLine
 62
253
  6
CONTINUOUS
 10
14.8703410505
 20
-27.8858272176
 11
14.8703410505
 21
-27.7687806425
  0
LINE
  5
310
100
AcDbEntity
  8
RACCORDO
100
AcDbLine
 62
253
  6
CONTINUOUS
 10
14.8703410505
 20
11.6118734621
 11
14.8703410505
 21
11.8539383387
  0
LINE
  5
311
100
AcDbEntity
  8
RACCORDO
100
AcDbLine
 62
253
  6
CONTINUOUS
 10
15.5067371535
 20
11.9897860612
 11
15.5067371535
 21
11.6384720891
  0
LINE
  5
312
100
AcDbEntity
  8
RACCORDO
100
AcDbLine
 62
253
  6
CONTINUOUS
 10
15.5067371535
 20
-29.6611320503
 11
15.5067371535
 21
-30.0124460224
  0
LINE
  5
313
100
AcDbEntity
  8
RACCORDO
100
AcDbLine
 62
7
  6
CONTINUOUS
 10
15.5774478316
 20
18.6857897058
 11
15.5774478316
 21
18.8809026509
  0
LINE
  5
314
100
AcDbEntity
  8
RACCORDO
100
AcDbLine
 62
253
  6
CONTINUOUS
 10
15.8602905441
 20
11.9897860612
 11
15.8602905441
 21
11.6384720891
  0
LINE
  5
315
100
AcDbEntity
  8
RACCORDO
100
AcDbLine
 62
253
  6
CONTINUOUS
 10
15.8602905441
 20
-29.6611320503
 11
15.8602905441
 21
-30.0124460224
  0
LWPOLYLINE
  5
316
100
AcDbEntity
  8
RACCORDO
100
AcDbPolyline
 62
7
  6
CONTINUOUS
 90
6
 70
0
 10
14.79712216
 20
11.6984432092
 10
14.7969126849
 20
11.6920879778
 10
14.7952442108
 20
11.6798333766
 10
14.7924002972
 20
11.6694385246
 10
14.7890863672
 20
11.6613886758
 10
14.7867319649
 20
11.6570080816
  0
LINE
  5
317
100
AcDbEntity
  8
ASSI
100
AcDbLine
 62
7
  6
CONTINUOUS
 10
16.5627132202
 20
8.9458129767
 11
12.9347399127
 21
-29.0562877954
  0
LINE
  5
318
100
AcDbEntity
  8
RACCORDO
100
AcDbLine
 62
7
  6
CONTINUOUS
 10
16.5627132202
 20
8.9458129767
 11
12.9347399127
 21
-29.0562877954
  0
LINE
  5
319
100
AcDbEntity
  8
DRAFT
100
AcDbLine
 62
7
  6
CONTINUOUS
 10
15.0585839689
 20
-9.7064922038
 11
16.8212349401
 21
8.4249606389
  0
LINE
  5
31A
100
AcDbEntity
  8
0
100
AcDbLine
 62
7
  6
CONTINUOUS
 10
13.730176928
 20
18.3683720367
 11
15.5774478316
 21
18.6857897058
  0
LINE
  5
31B
100
AcDbEntity
  8
RACCORDO
100
AcDbLine
 62
7
  6
CONTINUOUS
 10
15.6328130962
 20
11.4820555477
 11
16.1631431821
 21
11.3722205907
  0
LINE
  5
31C
100
AcDbEntity
  8
RACCORDO
100
AcDbLine
 62
253
  6
CONTINUOUS
 10
15.8602905441
 20
11.6384720891
 11
16.39062063
 21
11.5286371321
  0
LINE
  5
31D
100
AcDbEntity
  8
DRAFT
100
AcDbLine
 62
7
  6
CONTINUOUS
 10
16.8212349401
 20
8.4249606389
 11
16.5270320792
 21
8.5720620694
  0
LINE
  5
31E
100
AcDbEntity
  8
ASSI
100
AcDbLine
 62
7
  6
CONTINUOUS
 10
-15.6413165577
 20
25.6152557583
 11
0.1271646627
 21
17.7310151481
  0
LWPOLYLINE
  5
31F
100
AcDbEntity
  8
RACCORDO
100
AcDbPolyline
 62
7
  6
CONTINUOUS
 90
4
 70
0
 10
3.9954261656
 20
17.9941053797
 10
3.9957660779
 20
17.9937535878
 10
3.995575778
 20
17.9940223772
 10
3.9935726609
 20
17.9970053309
  0
LINE
  5
320
100
AcDbEntity
  8
0
100
AcDbLine
 62
7
  6
CONTINUOUS
 10
8.997793158
 20
23.0966333713
 11
8.7962938001
 21
23.6923577971
  0
LINE
  5
321
100
AcDbEntity
  8
RACCORDO
100
AcDbLine
 62
7
  6
CONTINUOUS
 10
17.3478633285
 20
11.3502203415
 11
17.3477228852
 21
11.3554306316
  0
LWPOLYLINE
  5
322
100
AcDbEntity
  8
RACCORDO
100
AcDbPolyline
 62
7
  6
CONTINUOUS
 90
31
 70
0
 10
17.484871809
 20
22.9962697724
 10
17.4845794067
 20
23.0310404472
 10
17.4834365049
 20
23.0735220051
 10
17.4814370658
 20
23.1160669823
 10
17.4785874226
 20
23.1586805993
 10
17.4748950607
 20
23.2013423979
 10
17.4703709209
 20
23.2440029233
 10
17.4650229638
 20
23.2866560675
 10
17.4588584379
 20
23.3292940828
 10
17.4518918801
 20
23.3718629373
 10
17.4441318887
 20
23.4143560541
 10
17.4355859834
 20
23.4567668485
 10
17.4262725032
 20
23.4990396906
 10
17.4162009717
 20
23.5411658128
 10
17.4053790471
 20
23.5831409531
 10
17.3938269207
 20
23.6249148521
 10
17.3815566301
 20
23.6664712734
 10
17.3685741528
 20
23.7078137109
 10
17.3548925711
 20
23.7489202167
 10
17.3405209586
 20
23.7897810778
 10
17.3254658508
 20
23.8303927272
 10
17.3097367098
 20
23.8707411133
 10
17.2933402978
 20
23.9108191163
 10
17.276282458
 20
23.9506197869
 10
17.2585719127
 20
23.9901284444
 10
17.2402144926
 20
24.029336767
 10
17.2212145486
 20
24.0682374842
 10
17.2015788684
 20
24.1068178585
 10
17.1813117955
 20
24.1450688291
 10
17.1604164361
 20
24.1829828216
 10
17.1429043636
 20
24.2136617183
  0
LINE
  5
323
100
AcDbEntity
  8
RACCORDO
100
AcDbLine
 62
253
  6
CONTINUOUS
 10
16.2138439347
 20
11.2420254797
 11
16.2138439347
 21
10.9401220199
  0
LINE
  5
324
100
AcDbEntity
  8
RACCORDO
100
AcDbLine
 62
253
  6
CONTINUOUS
 10
16.2138439347
 20
-28.3474862584
 11
16.2138439347
 21
-28.5575786597
  0
LINE
  5
325
100
AcDbEntity
  8
RACCORDO
100
AcDbLine
 62
7
  6
CONTINUOUS
 10
16.3535928457
 20
9.9147870962
 11
16.3535928457
 21
9.8889174583
  0
LINE
  5
326
100
AcDbEntity
  8
RACCORDO
100
AcDbLine
 62
7
  6
CONTINUOUS
 10
16.3535928457
 20
-28.0771959684
 11
16.3535928457
 21
-28.0513263305
  0
LINE
  5
327
100
AcDbEntity
  8
RACCORDO
100
AcDbLine
 62
253
  6
CONTINUOUS
 10
16.5673973253
 20
11.2420254797
 11
16.5673973253
 21
10.9333195816
  0
LINE
  5
328
100
AcDbEntity
  8
RACCORDO
100
AcDbLine
 62
253
  6
CONTINUOUS
 10
16.5673973253
 20
-28.2488727616
 11
16.5673973253
 21
-28.5575786597
  0
LINE
  5
329
100
AcDbEntity
  8
DRAFT
100
AcDbLine
 62
7
  6
CONTINUOUS
 10
16.8212349401
 20
-27.7564105131
 11
16.8212349401
 21
-26.1357727899
  0
LINE
  5
32A
100
AcDbEntity
  8
DRAFT
100
AcDbLine
 62
7
  6
CONTINUOUS
 10
16.8212349401
 20
8.4249606389
 11
16.8212349401
 21
10.0455983621
  0
LINE
  5
32B
100
AcDbEntity
  8
RACCORDO
100
AcDbLine
 62
253
  6
CONTINUOUS
 10
17.2042116184
 20
19.473750845
 11
17.2042116184
 21
22.6489297639
  0
LINE
  5
32C
100
AcDbEntity
  8
RACCORDO
100
AcDbLine
 62
253
  6
CONTINUOUS
 10
17.2745041065
 20
-28.2040252691
 11
17.2745041065
 21
-27.8802028413
  0
LINE
  5
32D
100
AcDbEntity
  8
RACCORDO
100
AcDbLine
 62
253
  6
CONTINUOUS
 10
17.2745041065
 20
11.2717564425
 11
17.2745041065
 21
11.5955788703
  0
LINE
  5
32E
100
AcDbEntity
  8
RACCORDO
100
AcDbLine
 62
7
  6
CONTINUOUS
 10
17.3477274112
 20
-28.1156369214
 11
17.3477274112
 21
-27.8135816622
  0
LINE
  5
32F
100
AcDbEntity
  8
RACCORDO
100
AcDbLine
 62
7
  6
CONTINUOUS
 10
17.3477274104
 20
11.3553443834
 11
17.3477274112
 21
11.6839672179
  0
LINE
  5
330
100
AcDbEntity
  8
RACCORDO
100
AcDbLine
 62
7
  6
CONTINUOUS
 10
17.4848718025
 20
20.3519746333
 11
17.4848718156
 21
20.3522779471
  0
LINE
  5
331
100
AcDbEntity
  8
RACCORDO
100
AcDbLine
 62
7
  6
CONTINUOUS
 10
17.4848718181
 20
20.3523651826
 11
17.4848718181
 21
22.9962698112
  0
LINE
  5
332
100
AcDbEntity
  8
RACCORDO
100
AcDbLine
 62
253
  6
CONTINUOUS
 10
17.9816108877
 20
13.050446233
 11
17.9816108877
 21
12.6991322609
  0
LINE
  5
333
100
AcDbEntity
  8
RACCORDO
100
AcDbLine
 62
253
  6
CONTINUOUS
 10
17.9816108877
 20
-28.6004718785
 11
17.9816108877
 21
-28.9517858506
  0
LINE
  5
334
100
AcDbEntity
  8
RACCORDO
100
AcDbLine
 62
7
  6
CONTINUOUS
 10
18.0548341924
 20
13.1388345806
 11
18.0548341924
 21
12.7875206085
  0
LINE
  5
335
100
AcDbEntity
  8
RACCORDO
100
AcDbLine
 62
7
  6
CONTINUOUS
 10
18.0548341924
 20
-28.5120835308
 11
18.0548341924
 21
-28.8633975029
  0
LINE
  5
336
100
AcDbEntity
  8
RACCORDO
100
AcDbLine
 62
7
  6
CONTINUOUS
 10
18.5119409736
 20
-26.9897000998
 11
18.5119409736
 21
10.9115837869
  0
LINE
  5
337
100
AcDbEntity
  8
RACCORDO
100
AcDbLine
 62
7
  6
CONTINUOUS
 10
18.656136167
 20
16.1166285227
 11
18.656136167
 21
17.0169836233
  0
LINE
  5
338
100
AcDbEntity
  8
RACCORDO
100
AcDbLine
 62
7
  6
CONTINUOUS
 10
2.2684949318
 20
18.1642146299
 11
2.7988250177
 21
18.0543796729
  0
LINE
  5
339
100
AcDbEntity
  8
RACCORDO
100
AcDbLine
 62
253
  6
CONTINUOUS
 10
2.4959723797
 20
18.3206311713
 11
3.0263024656
 21
18.2107962143
  0
LINE
  5
33A
100
AcDbEntity
  8
ASSI
100
AcDbLine
 62
7
  6
CONTINUOUS
 10
0.3496790548
 20
17.808810683
 11
16.0660431634
 21
9.9506286287
  0
LINE
  5
33B
100
AcDbEntity
  8
RACCORDO
100
AcDbLine
 62
7
  6
CONTINUOUS
 10
0.3496790548
 20
17.808810683
 11
16.0660431634
 21
9.9506286287
  0
LINE
  5
33C
100
AcDbEntity
  8
DRAFT
100
AcDbLine
 62
7
  6
CONTINUOUS
 10
16.3535928457
 20
9.8889174583
 11
0.6591671939
 21
17.7361302842
  0
LINE
  5
33D
100
AcDbEntity
  8
RACCORDO
100
AcDbLine
 62
7
  6
CONTINUOUS
 10
-0.1203227107
 20
18.1822747733
 11
-15.3938291843
 21
25.8190280101
  0
LINE
  5
33E
100
AcDbEntity
  8
RACCORDO
100
AcDbLine
 62
7
  6
CONTINUOUS
 10
15.999877895
 20
10.5248551433
 11
1.0128821446
 21
18.0183530186
  0
LINE
  5
33F
100
AcDbEntity
  8
RACCORDO
100
AcDbLine
 62
253
  6
CONTINUOUS
 10
1.3621333868
 20
18.0489090939
 11
2.7056362711
 21
17.3771576518
  0
LINE
  5
340
100
AcDbEntity
  8
RACCORDO
100
AcDbLine
 62
253
  6
CONTINUOUS
 10
14.7264515512
 20
11.3667500117
 11
16.0699544355
 21
10.6949985695
  0
LINE
  5
341
100
AcDbEntity
  8
DRAFT
100
AcDbLine
 62
7
  6
CONTINUOUS
 10
0.4391919739
 20
18.6171819014
 11
-1.1748121421
 21
19.4241839594
  0
LINE
  5
342
100
AcDbEntity
  8
DRAFT
100
AcDbLine
 62
7
  6
CONTINUOUS
 10
-12.9251261905
 20
25.2993409836
 11
-14.5391303065
 21
26.1063430416
  0
LINE
  5
343
100
AcDbEntity
  8
RACCORDO
100
AcDbLine
 62
253
  6
CONTINUOUS
 10
1.506022886
 20
18.2940325443
 11
2.8495257703
 21
17.6222811022
  0
LINE
  5
344
100
AcDbEntity
  8
RACCORDO
100
AcDbLine
 62
253
  6
CONTINUOUS
 10
14.8703410505
 20
11.6118734621
 11
16.2138439347
 21
10.9401220199
  0
LINE
  5
345
100
AcDbEntity
  8
RACCORDO
100
AcDbLine
 62
7
  6
CONTINUOUS
 10
-9.5926703098
 20
23.9904452784
 11
-3.8001612417
 21
21.0941907444
  0
LINE
  5
346
100
AcDbEntity
  8
RACCORDO
100
AcDbLine
 62
7
  6
CONTINUOUS
 10
6.4537398747
 20
15.989914405
 11
11.9732337272
 21
13.2301674788
  0
LINE
  5
347
100
AcDbEntity
  8
RACCORDO
100
AcDbLine
 62
7
  6
CONTINUOUS
 10
-15.1775285148
 20
26.8778731214
 11
-13.5709949518
 21
26.0746063399
  0
LINE
  5
348
100
AcDbEntity
  8
RACCORDO
100
AcDbLine
 62
7
  6
CONTINUOUS
 10
-1.8132103504
 20
20.1957140392
 11
-0.2066767874
 21
19.3924472577
  0
LINE
  5
349
100
AcDbEntity
  8
RACCORDO
100
AcDbLine
 62
7
  6
CONTINUOUS
 10
0.8638894013
 20
18.8571641633
 11
2.2073922855
 21
18.1854127212
  0
LINE
  5
34A
100
AcDbEntity
  8
RACCORDO
100
AcDbLine
 62
7
  6
CONTINUOUS
 10
14.2282075657
 20
12.1750050811
 11
15.5718016828
 21
11.5032080846
  0
LINE
  5
34B
100
AcDbEntity
  8
RACCORDO
100
AcDbLine
 62
253
  6
CONTINUOUS
 10
16.2138439347
 20
11.2420254797
 11
15.805180867
 21
11.4463570136
  0
LINE
  5
34C
100
AcDbEntity
  8
RACCORDO
100
AcDbLine
 62
253
  6
CONTINUOUS
 10
2.8495257703
 20
17.9241845619
 11
2.4408627026
 21
18.1285160958
  0
LINE
  5
34D
100
AcDbEntity
  8
RACCORDO
100
AcDbLine
 62
253
  6
CONTINUOUS
 10
-15.2421232608
 20
27.0129022963
 11
-13.6363467986
 21
26.2100140652
  0
LINE
  5
34E
100
AcDbEntity
  8
RACCORDO
100
AcDbLine
 62
253
  6
CONTINUOUS
 10
-1.8778050964
 20
20.3307432141
 11
-0.2720286342
 21
19.527854983
  0
LINE
  5
34F
100
AcDbEntity
  8
RACCORDO
100
AcDbLine
 62
253
  6
CONTINUOUS
 10
0.7989161048
 20
18.9923826134
 11
2.1424189891
 21
18.3206311713
  0
LINE
  5
350
100
AcDbEntity
  8
RACCORDO
100
AcDbLine
 62
253
  6
CONTINUOUS
 10
14.1632342693
 20
12.3102235312
 11
15.5067371535
 21
11.6384720891
  0
LINE
  5
351
100
AcDbEntity
  8
RACCORDO
100
AcDbLine
 62
253
  6
CONTINUOUS
 10
-0.2720286342
 20
19.7812263767
 11
-1.8778050964
 21
20.5841146078
  0
LINE
  5
352
100
AcDbEntity
  8
RACCORDO
100
AcDbLine
 62
253
  6
CONTINUOUS
 10
-13.6363467986
 20
26.4633854589
 11
-15.2421232608
 21
27.26627369
  0
LINE
  5
353
100
AcDbEntity
  8
RACCORDO
100
AcDbLine
 62
253
  6
CONTINUOUS
 10
0.7989161048
 20
19.3436965855
 11
2.1424189891
 21
18.6719451434
  0
LINE
  5
354
100
AcDbEntity
  8
RACCORDO
100
AcDbLine
 62
253
  6
CONTINUOUS
 10
14.1632342693
 20
12.6615375033
 11
15.5067371535
 21
11.9897860612
  0
LINE
  5
355
100
AcDbEntity
  8
DRAFT
100
AcDbLine
 62
7
  6
CONTINUOUS
 10
-11.8582952784
 20
25.8379222331
 11
-9.6805382754
 21
24.7490437316
  0
LINE
  5
356
100
AcDbEntity
  8
DRAFT
100
AcDbLine
 62
7
  6
CONTINUOUS
 10
-2.8780391573
 20
21.3477941726
 11
-1.7969172062
 21
20.807233197
  0
LINE
  5
357
100
AcDbEntity
  8
RACCORDO
100
AcDbLine
 62
253
  6
CONTINUOUS
 10
-0.0952579048
 20
20.085091955
 11
-1.7030793139
 21
20.8890026595
  0
LINE
  5
358
100
AcDbEntity
  8
RACCORDO
100
AcDbLine
 62
253
  6
CONTINUOUS
 10
-13.4595760692
 20
26.7672510372
 11
-15.0673974783
 21
27.5711617417
  0
LINE
  5
359
100
AcDbEntity
  8
RACCORDO
100
AcDbLine
 62
253
  6
CONTINUOUS
 10
17.4134573197
 20
11.3380286053
 11
17.3539089616
 21
11.3678027844
  0
LINE
  5
35A
100
AcDbEntity
  8
RACCORDO
100
AcDbLine
 62
253
  6
CONTINUOUS
 10
4.0491391553
 20
18.0201876875
 11
3.9895908093
 21
18.0499618605
  0
LINE
  5
35B
100
AcDbEntity
  8
RACCORDO
100
AcDbLine
 62
253
  6
CONTINUOUS
 10
0.9756928001
 20
19.6485912841
 11
2.3191956844
 21
18.976839842
  0
LINE
  5
35C
100
AcDbEntity
  8
RACCORDO
100
AcDbLine
 62
253
  6
CONTINUOUS
 10
14.3400109646
 20
12.9664322019
 11
15.6835138488
 21
12.2946807598
  0
LINE
  5
35D
100
AcDbEntity
  8
RACCORDO
100
AcDbLine
 62
7
  6
CONTINUOUS
 10
-9.5926703098
 20
25.2054001445
 11
-3.8001612417
 21
22.3091456105
  0
LINE
  5
35E
100
AcDbEntity
  8
RACCORDO
100
AcDbLine
 62
7
  6
CONTINUOUS
 10
6.4537398747
 20
17.1872334407
 11
11.9732337272
 21
14.4274865144
  0
LINE
  5
35F
100
AcDbEntity
  8
RACCORDO
100
AcDbLine
 62
7
  6
CONTINUOUS
 10
4.0427575206
 20
18.5793860851
 11
5.4534782659
 21
17.8740257125
  0
LINE
  5
360
100
AcDbEntity
  8
RACCORDO
100
AcDbLine
 62
7
  6
CONTINUOUS
 10
17.407075685
 20
11.8972270029
 11
18.1582260229
 21
11.521651834
  0
LINE
  5
361
100
AcDbEntity
  8
RACCORDO
100
AcDbLine
 62
7
  6
CONTINUOUS
 10
-10.3270211614
 20
25.7718342666
 11
-11.8094991648
 21
26.5130732683
  0
LINE
  5
362
100
AcDbEntity
  8
RACCORDO
100
AcDbLine
 62
7
  6
CONTINUOUS
 10
8.9200498932
 20
20.5579470134
 11
7.9602805714
 21
22.2133042289
  0
LINE
  5
363
100
AcDbEntity
  8
0
100
AcDbLine
 62
253
  6
CONTINUOUS
 10
7.3883922178
 20
25.7093896825
 11
7.7823781517
 21
24.6872338645
  0
LWPOLYLINE
  5
364
100
AcDbEntity
  8
RACCORDO
100
AcDbPolyline
 62
7
  6
CONTINUOUS
 90
19
 70
0
 10
19.1557852086
 20
8.5766267937
 10
19.1557429728
 20
8.5832318405
 10
19.155357229
 20
8.5977171038
 10
19.1545722303
 20
8.6122216008
 10
19.1533905663
 20
8.6267531083
 10
19.1518157805
 20
8.6412981806
 10
19.1498550458
 20
8.6558204419
 10
19.1475125548
 20
8.6703182597
 10
19.1447914996
 20
8.6847895465
 10
19.1417024062
 20
8.6991964558
 10
19.1382494424
 20
8.7135385029
 10
19.1344359298
 20
8.7278136348
 10
19.1302764611
 20
8.7419812378
 10
19.1257754491
 20
8.7560402763
 10
19.1209364397
 20
8.7699897595
 10
19.1157774833
 20
8.7837890473
 10
19.1103086179
 20
8.7974242373
 10
19.1045287172
 20
8.8109084137
 10
19.1017515921
 20
8.8170924725
  0
LWPOLYLINE
  5
365
100
AcDbEntity
  8
RACCORDO
100
AcDbPolyline
 62
7
  6
CONTINUOUS
 90
19
 70
0
 10
19.1557852086
 20
20.2679697725
 10
19.1557429728
 20
20.2745748196
 10
19.155357229
 20
20.2890600831
 10
19.1545722303
 20
20.3035645804
 10
19.1533905662
 20
20.3180960882
 10
19.1518157803
 20
20.3326411607
 10
19.1498550456
 20
20.3471634224
 10
19.1475125545
 20
20.3616612404
 10
19.1447914992
 20
20.3761325274
 10
19.1417024058
 20
20.390539437
 10
19.1382494418
 20
20.4048814844
 10
19.134435929
 20
20.4191566166
 10
19.1302764603
 20
20.4333242198
 10
19.1257754481
 20
20.4473832585
 10
19.1209364386
 20
20.4613327419
 10
19.115777482
 20
20.4751320299
 10
19.1103086164
 20
20.4887672202
 10
19.1045287156
 20
20.5022513967
 10
19.1017515903
 20
20.5084354556
  0
LINE
  5
366
100
AcDbEntity
  8
RACCORDO
100
AcDbLine
 62
253
  6
CONTINUOUS
 10
19.0715872069
 20
20.1637722085
 11
19.0715872069
 21
20.0374291263
  0
LINE
  5
367
100
AcDbEntity
  8
RACCORDO
100
AcDbLine
 62
253
  6
CONTINUOUS
 10
19.0715872069
 20
17.8068889563
 11
19.0715872069
 21
17.680545927
  0
LINE
  5
368
100
AcDbEntity
  8
RACCORDO
100
AcDbLine
 62
253
  6
CONTINUOUS
 10
19.0715872069
 20
8.4724292297
 11
19.0715872069
 21
8.3460861752
  0
LINE
  5
369
100
AcDbEntity
  8
RACCORDO
100
AcDbLine
 62
253
  6
CONTINUOUS
 10
19.0715872069
 20
6.1155460052
 11
19.0715872069
 21
5.989202919
  0
LINE
  5
36A
100
AcDbEntity
  8
RACCORDO
100
AcDbLine
 62
7
  6
CONTINUOUS
 10
19.1557852668
 20
20.2679709641
 11
19.1557852668
 21
20.1228990197
  0
LINE
  5
36B
100
AcDbEntity
  8
RACCORDO
100
AcDbLine
 62
7
  6
CONTINUOUS
 10
19.1557852668
 20
17.8994578379
 11
19.1557852668
 21
17.784744682
  0
LINE
  5
36C
100
AcDbEntity
  8
RACCORDO
100
AcDbLine
 62
7
  6
CONTINUOUS
 10
19.1557852668
 20
8.5766279853
 11
19.1557852668
 21
8.4315560686
  0
LINE
  5
36D
100
AcDbEntity
  8
RACCORDO
100
AcDbLine
 62
7
  6
CONTINUOUS
 10
19.1557852668
 20
6.2081148868
 11
19.1557852668
 21
6.093401674
  0
LINE
  5
36E
100
AcDbEntity
  8
RACCORDO
100
AcDbLine
 62
7
  6
CONTINUOUS
 10
0.4391919739
 20
19.2543514601
 11
-0.1831260582
 21
19.3842920426
  0
LINE
  5
36F
100
AcDbEntity
  8
DRAFT
100
AcDbLine
 62
7
  6
CONTINUOUS
 10
-9.1005788318
 20
25.6714995751
 11
-2.8780391573
 21
22.5602297379
  0
LINE
  5
370
100
AcDbEntity
  8
DRAFT
100
AcDbLine
 62
7
  6
CONTINUOUS
 10
-13.4846408751
 20
28.383145839
 11
-11.8582952784
 21
27.5699730407
  0
LINE
  5
371
100
AcDbEntity
  8
DRAFT
100
AcDbLine
 62
7
  6
CONTINUOUS
 10
-0.1203227107
 20
21.7009867568
 11
1.506022886
 21
20.8878139585
  0
LINE
  5
372
100
AcDbEntity
  8
DRAFT
100
AcDbLine
 62
7
  6
CONTINUOUS
 10
-7.7570759475
 20
25.7018165257
 11
-2.8073284792
 21
23.2269427916
  0
LINE
  5
373
100
AcDbEntity
  8
0
100
AcDbLine
 62
7
  6
CONTINUOUS
 10
8.1528266292
 20
17.7519036258
 11
13.1025740975
 21
15.2770298917
  0
LINE
  5
374
100
AcDbEntity
  8
RACCORDO
100
AcDbLine
 62
253
  6
CONTINUOUS
 10
-12.9501909964
 20
28.6434933056
 11
-11.3300281067
 21
27.8334118607
  0
LINE
  5
375
100
AcDbEntity
  8
RACCORDO
100
AcDbLine
 62
253
  6
CONTINUOUS
 10
0.414127168
 20
21.9613342234
 11
2.0342900578
 21
21.1512527785
  0
LINE
  5
376
100
AcDbEntity
  8
RACCORDO
100
AcDbLine
 62
7
  6
CONTINUOUS
 10
-12.8387733811
 20
28.6497618688
 11
-11.2198958029
 21
27.8403230797
  0
LINE
  5
377
100
AcDbEntity
  8
RACCORDO
100
AcDbLine
 62
7
  6
CONTINUOUS
 10
0.5255447833
 20
21.9676027866
 11
2.1444223615
 21
21.1581639975
  0
LINE
  5
378
100
AcDbEntity
  8
RACCORDO
100
AcDbLine
 62
253
  6
CONTINUOUS
 10
3.0970131437
 20
20.7092514559
 11
4.440516028
 21
20.0375000138
  0
LINE
  5
379
100
AcDbEntity
  8
RACCORDO
100
AcDbLine
 62
253
  6
CONTINUOUS
 10
16.4613313081
 20
14.0270923737
 11
17.8048341924
 21
13.3553409316
  0
LINE
  5
37A
100
AcDbEntity
  8
RACCORDO
100
AcDbLine
 62
7
  6
CONTINUOUS
 10
3.2088165426
 20
20.7163519027
 11
4.5523194268
 21
20.0446004606
  0
LINE
  5
37B
100
AcDbEntity
  8
RACCORDO
100
AcDbLine
 62
7
  6
CONTINUOUS
 10
16.573134707
 20
14.0341928205
 11
17.9166375913
 21
13.3624413784
  0
LINE
  5
37C
100
AcDbEntity
  8
RACCORDO
100
AcDbLine
 62
7
  6
CONTINUOUS
 10
-3.8680424989
 20
25.0620979082
 11
-1.4931664989
 21
23.8746599082
  0
LINE
  5
37D
100
AcDbEntity
  8
RACCORDO
100
AcDbLine
 62
253
  6
CONTINUOUS
 10
-0.8654014941
 20
24.1840693607
 11
-2.8760696598
 21
25.1894034435
  0
LINE
  5
37E
100
AcDbEntity
  8
RACCORDO
100
AcDbLine
 62
7
  6
CONTINUOUS
 10
-0.8170973559
 20
24.2078772455
 11
-2.7890950834
 21
25.1938761093
  0
LINE
  5
37F
100
AcDbEntity
  8
0
100
AcDbLine
 62
7
  6
CONTINUOUS
 10
1.5836667909
 20
26.8036965549
 11
1.732131969
 21
26.6665864735
  0
LWPOLYLINE
  5
380
100
AcDbEntity
  8
RACCORDO
100
AcDbPolyline
 62
7
  6
CONTINUOUS
 90
4
 70
0
 10
17.3597353179
 20
11.3119554009
 10
17.3600794853
 20
11.3115995549
 10
17.3599015122
 20
11.3118534015
 10
17.3579067387
 20
11.3148199725
  0
LWPOLYLINE
  5
381
100
AcDbEntity
  8
RACCORDO
100
AcDbPolyline
 62
7
  6
CONTINUOUS
 90
5
 70
0
 10
17.3579067387
 20
11.3148199725
 10
17.3549226029
 20
11.3204901091
 10
17.3518693566
 20
11.328354227
 10
17.3493040975
 20
11.3384041094
 10
17.3478633285
 20
11.3502203415
  0
LINE
  5
382
100
AcDbEntity
  8
RACCORDO
100
AcDbLine
 62
7
  6
CONTINUOUS
 10
22.7105510563
 20
14.2858224265
 11
22.7105510563
 21
13.3908595631
  0
LINE
  5
383
100
AcDbEntity
  8
RACCORDO
100
AcDbLine
 62
7
  6
CONTINUOUS
 10
22.7105510563
 20
-19.525450335
 11
22.7105510563
 21
-21.167226325
  0
LINE
  5
384
100
AcDbEntity
  8
RACCORDO
100
AcDbLine
 62
7
  6
CONTINUOUS
 10
23.4443285113
 20
14.9474623111
 11
23.4443285113
 21
14.6657468256
  0
LINE
  5
385
100
AcDbEntity
  8
RACCORDO
100
AcDbLine
 62
7
  6
CONTINUOUS
 10
23.4443285113
 20
-21.5341150525
 11
23.4443285113
 21
-21.815830538
  0
LINE
  5
386
100
AcDbEntity
  8
RACCORDO
100
AcDbLine
 62
7
  6
CONTINUOUS
 10
-12.9251261905
 20
25.9365105423
 11
-13.5474442226
 21
26.0664511248
  0
LWPOLYLINE
  5
387
100
AcDbEntity
  8
RACCORDO
100
AcDbPolyline
 62
7
  6
CONTINUOUS
 90
64
 70
0
 10
-2.7890914246
 20
25.1938742761
 10
-2.7995326765
 20
25.1989697589
 10
-2.8170387581
 20
25.206977048
 10
-2.8350160959
 20
25.214552706
 10
-2.8534331998
 20
25.2216905405
 10
-2.8722809941
 20
25.2283962655
 10
-2.8915719637
 20
25.2346831631
 10
-2.9112834388
 20
25.2405526363
 10
-2.9313929572
 20
25.246007898
 10
-2.9519091251
 20
25.2510606735
 10
-2.972779846
 20
25.255707827
 10
-2.9940166815
 20
25.2599615941
 10
-3.0157218132
 20
25.263846925
 10
-3.0378467165
 20
25.267356698
 10
-3.0604101348
 20
25.2704952321
 10
-3.0836158924
 20
25.2732847605
 10
-3.107540322
 20
25.2757197504
 10
-3.1320835731
 20
25.2777753809
 10
-3.1571832106
 20
25.2794353278
 10
-3.1829420375
 20
25.2806932341
 10
-3.2092294728
 20
25.2815291429
 10
-3.2356296812
 20
25.2819287252
 10
-3.2621056722
 20
25.2818997927
 10
-3.2886670999
 20
25.2814494016
 10
-3.3149689294
 20
25.2805964538
 10
-3.3409210556
 20
25.2793649293
 10
-3.3665954164
 20
25.2777708415
 10
-3.391892343
 20
25.2758386236
 10
-3.4167919378
 20
25.2735890368
 10
-3.4413030118
 20
25.2710393644
 10
-3.4653698854
 20
25.2682132246
 10
-3.4889739099
 20
25.2651310576
 10
-3.512128653
 20
25.2618085035
 10
-3.5348268288
 20
25.2582630968
 10
-3.5570607612
 20
25.2545121286
 10
-3.5788364906
 20
25.2505701192
 10
-3.6001662074
 20
25.2464495738
 10
-3.6210503229
 20
25.2421644873
 10
-3.6414883861
 20
25.2377286887
 10
-3.6614896536
 20
25.2331534682
 10
-3.6810564006
 20
25.2284511742
 10
-3.7001871063
 20
25.2236348446
 10
-3.7188836525
 20
25.2187165257
 10
-3.7371557127
 20
25.2137058841
 10
-3.7549945646
 20
25.2086174233
 10
-3.7723735535
 20
25.203471373
 10
-3.7892806384
 20
25.1982844853
 10
-3.8057305667
 20
25.1930653118
 10
-3.8217354642
 20
25.187822604
 10
-3.8372751451
 20
25.1825756503
 10
-3.8523710325
 20
25.1773298273
 10
-3.867092773
 20
25.1720721765
 10
-3.8814389177
 20
25.1668134976
 10
-3.8954040722
 20
25.1615661941
 10
-3.9090443933
 20
25.1563189597
 10
-3.9223425784
 20
25.1510878166
 10
-3.9352986934
 20
25.1458824405
 10
-3.9479848907
 20
25.1406827811
 10
-3.9603637059
 20
25.1355129041
 10
-3.9724359005
 20
25.1303818519
 10
-3.9843133591
 20
25.1252504847
 10
-3.9959498808
 20
25.1201469119
 10
-4.0073121611
 20
25.1150951713
 10
-4.0295059021
 20
25.105055209
  0
LINE
  5
388
100
AcDbEntity
  8
0
100
AcDbLine
 62
7
  6
CONTINUOUS
 10
-0.2896527345
 20
24.4678413249
 11
-3.0901711917
 21
25.8681005535
  0
LINE
  5
389
100
AcDbEntity
  8
DRAFT
100
AcDbLine
 62
7
  6
CONTINUOUS
 10
-3.4437245823
 20
26.5974354381
 11
-3.0901711917
 21
26.4206587428
  0
LINE
  5
38A
100
AcDbEntity
  8
0
100
AcDbLine
 62
7
  6
CONTINUOUS
 10
16.5077176578
 20
16.9796016718
 11
13.730176928
 21
18.3683720367
  0
LINE
  5
38B
100
AcDbEntity
  8
0
100
AcDbLine
 62
7
  6
CONTINUOUS
 10
1.1181629618
 20
25.1617179833
 11
-1.6923866852
 21
26.5669928068
  0
LINE
  5
38C
100
AcDbEntity
  8
DRAFT
100
AcDbLine
 62
7
  6
CONTINUOUS
 10
7.1724919238
 20
22.6071985527
 11
7.9602805714
 21
22.2133042289
  0
LINE
  5
38D
100
AcDbEntity
  8
RACCORDO
100
AcDbLine
 62
253
  6
CONTINUOUS
 10
18.3046191203
 20
17.272201458
 11
17.6987681752
 21
17.5751269305
  0
LINE
  5
38E
100
AcDbEntity
  8
RACCORDO
100
AcDbLine
 62
253
  6
CONTINUOUS
 10
12.7490207069
 20
20.0500006647
 11
12.1431697618
 21
20.3529261372
  0
LINE
  5
38F
100
AcDbEntity
  8
0
100
AcDbLine
 62
7
  6
CONTINUOUS
 10
-0.3324547451
 20
26.6407409942
 11
1.8772861431
 21
25.5358705501
  0
LINE
  5
390
100
AcDbEntity
  8
0
100
AcDbLine
 62
7
  6
CONTINUOUS
 10
2.6228709662
 20
25.1630781386
 11
2.7686843763
 21
25.0901714335
  0
LINE
  5
391
100
AcDbEntity
  8
0
100
AcDbLine
 62
7
  6
CONTINUOUS
 10
15.5774478316
 20
18.6857897058
 11
17.7543931433
 21
17.59731705
  0
LINE
  5
392
100
AcDbEntity
  8
0
100
AcDbLine
 62
7
  6
CONTINUOUS
 10
18.6334881279
 20
17.1577695577
 11
18.7510815473
 21
17.098972848
  0
LINE
  5
393
100
AcDbEntity
  8
RACCORDO
100
AcDbLine
 62
7
  6
CONTINUOUS
 10
18.5269442313
 20
17.287043195
 11
17.922374973
 21
17.5893278241
  0
LINE
  5
394
100
AcDbEntity
  8
RACCORDO
100
AcDbLine
 62
7
  6
CONTINUOUS
 10
12.9726275046
 20
20.0642015583
 11
12.3680582463
 21
20.3664861874
  0
LINE
  5
395
100
AcDbEntity
  8
RACCORDO
100
AcDbLine
 62
7
  6
CONTINUOUS
 10
-3.1999124907
 20
28.3377135468
 11
-3.0194605136
 21
28.2474875582
  0
LINE
  5
396
100
AcDbEntity
  8
RACCORDO
100
AcDbLine
 62
7
  6
CONTINUOUS
 10
2.3545510235
 20
25.5604817897
 11
2.5350030006
 21
25.4702558011
  0
LINE
  5
397
100
AcDbEntity
  8
0
100
AcDbLine
 62
7
  6
CONTINUOUS
 10
9.0082879934
 20
23.0913859536
 11
9.1567531747
 21
22.9542758692
  0
LINE
  5
398
100
AcDbEntity
  8
0
100
AcDbLine
 62
7
  6
CONTINUOUS
 10
9.9530074016
 20
23.2171254939
 11
9.5032627402
 21
23.338873327
  0
LINE
  5
399
100
AcDbEntity
  8
RACCORDO
100
AcDbLine
 62
253
  6
CONTINUOUS
 10
11.7184812505
 20
20.9815133791
 11
14.8826817654
 21
19.3994131217
  0
LINE
  5
39A
100
AcDbEntity
  8
RACCORDO
100
AcDbLine
 62
253
  6
CONTINUOUS
 10
19.1253224525
 20
17.2780927781
 11
22.2895229674
 21
15.6959925207
  0
LINE
  5
39B
100
AcDbEntity
  8
RACCORDO
100
AcDbLine
 62
253
  6
CONTINUOUS
 10
-4.0124808348
 20
28.9166105711
 11
-1.0333909338
 21
27.4270656206
  0
LINE
  5
39C
100
AcDbEntity
  8
RACCORDO
100
AcDbLine
 62
253
  6
CONTINUOUS
 10
3.2092497533
 20
25.3057452771
 11
6.1883396542
 21
23.8162003266
  0
LINE
  5
39D
100
AcDbEntity
  8
RACCORDO
100
AcDbLine
 62
7
  6
CONTINUOUS
 10
11.9926473876
 20
21.0842300805
 11
15.317554646
 21
19.4217764513
  0
LINE
  5
39E
100
AcDbEntity
  8
RACCORDO
100
AcDbLine
 62
7
  6
CONTINUOUS
 10
19.5601953331
 20
17.3004561077
 11
22.8851025915
 21
15.6380024785
  0
LINE
  5
39F
100
AcDbEntity
  8
RACCORDO
100
AcDbLine
 62
7
  6
CONTINUOUS
 10
-3.8188378229
 20
29.0656600333
 11
-0.5923479307
 21
27.4524150872
  0
LINE
  5
3A0
100
AcDbEntity
  8
RACCORDO
100
AcDbLine
 62
7
  6
CONTINUOUS
 10
3.6502927564
 20
25.3310947437
 11
6.8767826485
 21
23.7178497976
  0
LINE
  5
3A1
100
AcDbEntity
  8
0
100
AcDbLine
 62
7
  6
CONTINUOUS
 10
9.0082879934
 20
23.0913859536
 11
8.3013190532
 21
23.4448704237
  0
LINE
  5
3A2
100
AcDbEntity
  8
0
100
AcDbLine
 62
7
  6
CONTINUOUS
 10
1.5836667909
 20
26.8036965549
 11
0.8766978508
 21
27.1571810249
  0
LINE
  5
3A3
100
AcDbEntity
  8
0
100
AcDbLine
 62
7
  6
CONTINUOUS
 10
9.5032627402
 20
23.338873327
 11
8.7962938001
 21
23.6923577971
  0
LINE
  5
3A4
100
AcDbEntity
  8
0
100
AcDbLine
 62
7
  6
CONTINUOUS
 10
2.0786415377
 20
27.0511839283
 11
1.3716725976
 21
27.4046683983
  0
LINE
  5
3A5
100
AcDbEntity
  8
DRAFT
100
AcDbLine
 62
7
  6
CONTINUOUS
 10
8.0327740988
 20
24.4031211761
 11
8.4650883496
 21
24.1869640508
  0
LINE
  5
3A6
100
AcDbEntity
  8
SMUSSO
100
AcDbLine
 62
7
  6
CONTINUOUS
 10
1.0404671472
 20
27.899274652
 11
0.6081528964
 21
28.1154317774
  0
LINE
  5
3A7
100
AcDbEntity
  8
RACCORDO
100
AcDbLine
 62
253
  6
CONTINUOUS
 10
13.4267643203
 20
-23.9024568447
 11
14.5366318512
 21
-23.3898832392
  0
LINE
  5
3A8
100
AcDbEntity
  8
RACCORDO
100
AcDbLine
 62
7
  6
CONTINUOUS
 10
13.4057410577
 20
-24.1226701913
 11
14.4360880449
 21
-23.6468218081
  0
LINE
  5
3A9
100
AcDbEntity
  8
0
100
AcDbLine
 62
7
  6
CONTINUOUS
 10
-1.6923866852
 20
26.5669928068
 11
-0.3324547451
 21
26.6407409942
  0
LINE
  5
3AA
100
AcDbEntity
  8
0
100
AcDbLine
 62
7
  6
CONTINUOUS
 10
2.5283861991
 20
26.9294360951
 11
2.0786415377
 21
27.0511839283
  0
LINE
  5
3AB
100
AcDbEntity
  8
DRAFT
100
AcDbLine
 62
7
  6
CONTINUOUS
 10
15.1141446366
 20
24.8408939927
 11
12.0048149163
 21
26.3955588528
  0
LINE
  5
3AC
100
AcDbEntity
  8
DRAFT
100
AcDbLine
 62
7
  6
CONTINUOUS
 10
7.6895234341
 20
28.5532045939
 11
4.5801937138
 21
30.1078694541
  0
LINE
  5
3AD
100
AcDbEntity
  8
RACCORDO
100
AcDbLine
 62
253
  6
CONTINUOUS
 10
16.6542388046
 20
24.3148222197
 11
16.7900611428
 21
24.0805633385
  0
LINE
  5
3AE
100
AcDbEntity
  8
RACCORDO
100
AcDbLine
 62
7
  6
CONTINUOUS
 10
17.0070820534
 20
24.4479205772
 11
17.1429043916
 21
24.2136616959
  0
LINE
  5
3AF
100
AcDbEntity
  8
RACCORDO
100
AcDbLine
 62
7
  6
CONTINUOUS
 10
14.1474919265
 20
-28.7415042673
 11
14.6778220124
 21
-28.1013392244
  0
LINE
  5
3B0
100
AcDbEntity
  8
RACCORDO
100
AcDbLine
 62
253
  6
CONTINUOUS
 10
14.2516226169
 20
-28.7576864343
 11
14.7819527028
 21
-28.1175213914
  0
LINE
  5
3B1
100
AcDbEntity
  8
RACCORDO
100
AcDbLine
 62
253
  6
CONTINUOUS
 10
16.1254555871
 20
-28.7892728335
 11
15.5951255012
 21
-29.4294378765
  0
LINE
  5
3B2
100
AcDbEntity
  8
RACCORDO
100
AcDbLine
 62
253
  6
CONTINUOUS
 10
16.39062063
 20
-29.0209670073
 11
15.8602905441
 21
-29.6611320503
  0
LINE
  5
3B3
100
AcDbEntity
  8
DRAFT
100
AcDbLine
 62
7
  6
CONTINUOUS
 10
18.5119409736
 20
-24.0879334599
 11
23.4443285113
 21
-21.5341150525
  0
LINE
  5
3B4
100
AcDbEntity
  8
DRAFT
100
AcDbLine
 62
7
  6
CONTINUOUS
 10
18.5119409736
 20
-23.3034946552
 11
22.7105510563
 21
-21.167226325
  0
LINE
  5
3B5
100
AcDbEntity
  8
RACCORDO
100
AcDbLine
 62
7
  6
CONTINUOUS
 10
18.5119409736
 20
-24.702443314
 11
22.2895229674
 21
-22.7990873362
  0
LINE
  5
3B6
100
AcDbEntity
  8
RACCORDO
100
AcDbLine
 62
7
  6
CONTINUOUS
 10
18.5119409736
 20
-24.5647936317
 11
23.400860279
 21
-22.1398536146
  0
LINE
  5
3B7
100
AcDbEntity
  8
ASSI
100
AcDbLine
 62
253
  6
CONTINUOUS
 10
12.9347399127
 20
-29.0562877954
 11
8.845049729
 21
-30.3385514464
  0
LINE
  5
3B8
100
AcDbEntity
  8
RACCORDO
100
AcDbLine
 62
253
  6
CONTINUOUS
 10
12.9347399127
 20
-29.0562877954
 11
8.845049729
 21
-30.3385514464
  0
LINE
  5
3B9
100
AcDbEntity
  8
RACCORDO
100
AcDbLine
 62
253
  6
CONTINUOUS
 10
15.6219170991
 20
25.084597408
 11
16.1543149571
 21
24.818398479
  0
LINE
  5
3BA
100
AcDbEntity
  8
RACCORDO
100
AcDbLine
 62
253
  6
CONTINUOUS
 10
10.9614659163
 20
27.4148229994
 11
8.1972958967
 21
28.7969080092
  0
LINE
  5
3BB
100
AcDbEntity
  8
RACCORDO
100
AcDbLine
 62
253
  6
CONTINUOUS
 10
3.5368447139
 20
31.1271336006
 11
3.0044468559
 21
31.3933325295
  0
LINE
  5
3BC
100
AcDbEntity
  8
RACCORDO
100
AcDbLine
 62
7
  6
CONTINUOUS
 10
15.9685490904
 20
25.1510811822
 11
16.5891878376
 21
24.8407618086
  0
LINE
  5
3BD
100
AcDbEntity
  8
RACCORDO
100
AcDbLine
 62
7
  6
CONTINUOUS
 10
11.4845796862
 20
27.3930658843
 11
8.5439278879
 21
28.8633917835
  0
LINE
  5
3BE
100
AcDbEntity
  8
RACCORDO
100
AcDbLine
 62
7
  6
CONTINUOUS
 10
4.0599584837
 20
31.1053764855
 11
3.4393197365
 21
31.4156958592
  0
LINE
  5
3BF
100
AcDbEntity
  8
DRAFT
100
AcDbLine
 62
7
  6
CONTINUOUS
 10
16.3535928457
 20
-28.0513263305
 11
16.8212349401
 21
-27.7564105131
  0
LWPOLYLINE
  5
3C0
100
AcDbEntity
  8
RACCORDO
100
AcDbPolyline
 62
7
  6
CONTINUOUS
 90
11
 70
0
 10
17.4840561231
 20
-27.7439019221
 10
17.5183807123
 20
-27.7253252706
 10
17.5508347919
 20
-27.7063514222
 10
17.582151781
 20
-27.6868514474
 10
17.6123988237
 20
-27.667084992
 10
17.641013362
 20
-27.6478097698
 10
17.6677858168
 20
-27.6296365748
 10
17.6930844587
 20
-27.61274544
 10
17.7161917956
 20
-27.5979764854
 10
17.7356841396
 20
-27.5863937638
 10
17.7513916277
 20
-27.5779592546
  0
LINE
  5
3C1
100
AcDbEntity
  8
RACCORDO
100
AcDbLine
 62
253
  6
CONTINUOUS
 10
16.5673973253
 20
-28.2488727616
 11
17.2745041065
 21
-27.8802028413
  0
LINE
  5
3C2
100
AcDbEntity
  8
RACCORDO
100
AcDbLine
 62
7
  6
CONTINUOUS
 10
16.7590100373
 20
-28.1145649106
 11
17.161207997
 21
-27.9089076092
  0
LINE
  5
3C3
100
AcDbEntity
  8
RACCORDO
100
AcDbLine
 62
7
  6
CONTINUOUS
 10
17.161207997
 20
-27.9089076092
 11
17.4781645153
 21
-27.7469357537
  0
LINE
  5
3C4
100
AcDbEntity
  8
RACCORDO
100
AcDbLine
 62
7
  6
CONTINUOUS
 10
17.4840561231
 20
-27.7439019221
 11
17.4781642845
 21
-27.746935489
  0
LINE
  5
3C5
100
AcDbEntity
  8
RACCORDO
100
AcDbLine
 62
253
  6
CONTINUOUS
 10
16.3535928457
 20
-28.0771959684
 11
16.5893451634
 21
-27.9584175824
  0
LINE
  5
3C6
100
AcDbEntity
  8
RACCORDO
100
AcDbLine
 62
253
  6
CONTINUOUS
 10
17.8738292562
 20
-27.3112207809
 11
18.5119409736
 21
-26.9897000998
  0
LWPOLYLINE
  5
3C7
100
AcDbEntity
  8
RACCORDO
100
AcDbPolyline
 62
7
  6
CONTINUOUS
 90
7
 70
0
 10
16.224097
 20
-28.3474862584
 10
16.4687852113
 20
-28.2242029509
 10
16.4835275701
 20
-28.2174872125
 10
16.5000031184
 20
-28.2110974183
 10
16.517634343
 20
-28.2050799501
 10
16.5368591838
 20
-28.1990244425
 10
16.5838798333
 20
-28.1846378791
  0
LINE
  5
3C8
100
AcDbEntity
  8
RACCORDO
100
AcDbLine
 62
7
  6
CONTINUOUS
 10
18.3824451279
 20
-27.2599903899
 11
17.7513879052
 21
-27.5779520989
  0
LINE
  5
3C9
100
AcDbEntity
  8
RACCORDO
100
AcDbLine
 62
253
  6
CONTINUOUS
 10
15.8602905441
 20
-30.0124460224
 11
17.9816108877
 21
-28.9517858506
  0
LINE
  5
3CA
100
AcDbEntity
  8
RACCORDO
100
AcDbLine
 62
7
  6
CONTINUOUS
 10
15.7953172477
 20
-30.1476644725
 11
17.9166375913
 21
-29.0870043007
  0
LWPOLYLINE
  5
3CB
100
AcDbEntity
  8
RACCORDO
100
AcDbPolyline
 62
7
  6
CONTINUOUS
 90
7
 70
0
 10
16.5838798333
 20
-28.1846378791
 10
16.6101315457
 20
-28.1761971219
 10
16.6384887807
 20
-28.1664527828
 10
16.6674851587
 20
-28.1556354681
 10
16.6972133265
 20
-28.1435056542
 10
16.730161138
 20
-28.1287269635
 10
16.7591001508
 20
-28.1145219588
  0
LINE
  5
3CC
100
AcDbEntity
  8
ASSI
100
AcDbLine
 62
7
  6
CONTINUOUS
 10
8.5280840036
 20
-30.8158425557
 11
12.6220236303
 21
-29.5322469681
  0
LINE
  5
3CD
100
AcDbEntity
  8
RACCORDO
100
AcDbLine
 62
7
  6
CONTINUOUS
 10
8.527993031
 20
-30.8158709159
 11
12.6220972284
 21
-29.5322238925
  0
ARC
  5
3CE
100
AcDbEntity
  8
RACCORDO
100
AcDbCircle
 62
253
  6
CONTINUOUS
 10
-22.1121921544
 20
-15.239772456
 40
0.5542467717
100
AcDbArc
 50
240.3351075782
 51
243.4185787596
  0
ARC
  5
3CF
100
AcDbEntity
  8
ASSI
100
AcDbCircle
 62
253
  6
CONTINUOUS
 10
-22.1137139186
 20
-15.2423705087
 40
0.5512522325
100
AcDbArc
 50
242.2254174406
 51
243.4388874234
  0
ARC
  5
3D0
100
AcDbEntity
  8
RACCORDO
100
AcDbCircle
 62
7
  6
CONTINUOUS
 10
14.301251205
 20
-27.7897426611
 40
0.4887719215
100
AcDbArc
 50
320.3936685087
 51
323.7163003819
  0
ARC
  5
3D1
100
AcDbEntity
  8
RACCORDO
100
AcDbCircle
 62
253
  6
CONTINUOUS
 10
16.4393019997
 20
-28.010216404
 40
0.2708602397
100
AcDbArc
 50
293.6002453933
 51
298.2240318782
  0
ARC
  5
3D2
100
AcDbEntity
  8
RACCORDO
100
AcDbCircle
 62
253
  6
CONTINUOUS
 10
17.7469123234
 20
-28.4783535989
 40
0.2545625773
100
AcDbArc
 50
15.3325754149
 51
22.1675191901
  0
ARC
  5
3D3
100
AcDbEntity
  8
RACCORDO
100
AcDbCircle
 62
7
  6
CONTINUOUS
 10
17.6008029569
 20
-28.1159219583
 40
0.2530757062
100
AcDbArc
 50
179.9354682628
 51
183.4670878419
  0
ARC
  5
3D4
100
AcDbEntity
  8
RACCORDO
100
AcDbCircle
 62
7
  6
CONTINUOUS
 10
14.3404690991
 20
-28.9011336437
 40
0.2504581744
100
AcDbArc
 50
140.4088461827
 51
179.9676566387
  0
ARC
  5
3D5
100
AcDbEntity
  8
RACCORDO
100
AcDbCircle
 62
7
  6
CONTINUOUS
 10
17.8044386167
 20
-28.5121647683
 40
0.2503955888
100
AcDbArc
 50
0.0185888359
 51
31.1756305543
  0
ARC
  5
3D6
100
AcDbEntity
  8
RACCORDO
100
AcDbCircle
 62
7
  6
CONTINUOUS
 10
17.8046777865
 20
-28.8632622395
 40
0.2501909427
100
AcDbArc
 50
296.5832348851
 51
335.1106974808
  0
ARC
  5
3D7
100
AcDbEntity
  8
RACCORDO
100
AcDbCircle
 62
7
  6
CONTINUOUS
 10
15.6835230437
 20
-29.9240973976
 40
0.2499603589
100
AcDbArc
 50
243.3875827835
 51
296.5672380434
  0
ARC
  5
3D8
100
AcDbEntity
  8
RACCORDO
100
AcDbCircle
 62
7
  6
CONTINUOUS
 10
14.3398303478
 20
-29.2524263884
 40
0.2497797854
100
AcDbArc
 50
203.1280930178
 51
243.5069905751
  0
ARC
  5
3D9
100
AcDbEntity
  8
RACCORDO
100
AcDbCircle
 62
253
  6
CONTINUOUS
 10
17.820779445
 20
-28.42483697
 40
0.1615955287
100
AcDbArc
 50
54.7743887864
 51
63.3654056722
  0
ARC
  5
3DA
100
AcDbEntity
  8
RACCORDO
100
AcDbCircle
 62
253
  6
CONTINUOUS
 10
17.382482902
 20
-28.0758996298
 40
0.0966608047
100
AcDbArc
 50
252.9126992436
 51
258.3067403992
  0
ARC
  5
3DB
100
AcDbEntity
  8
RACCORDO
100
AcDbCircle
 62
253
  6
CONTINUOUS
 10
17.8737746179
 20
-28.374355331
 40
0.0959574173
100
AcDbArc
 50
63.6881410672
 51
78.3067213547
  0
ARC
  5
3DC
100
AcDbEntity
  8
RACCORDO
100
AcDbCircle
 62
253
  6
CONTINUOUS
 10
17.382070637
 20
-28.0772846099
 40
0.0952158258
100
AcDbArc
 50
247.5596579396
 51
252.9049489502
  0
ARC
  5
3DD
100
AcDbEntity
  8
RACCORDO
100
AcDbCircle
 62
253
  6
CONTINUOUS
 10
17.3818988071
 20
-28.0777280535
 40
0.0947403703
100
AcDbArc
 50
243.4068675937
 51
247.5533361263
  0
ARC
  5
3DE
100
AcDbEntity
  8
RACCORDO
100
AcDbCircle
 62
253
  6
CONTINUOUS
 10
14.673214346
 20
6.7902498657
 40
4.7741838652
100
AcDbArc
 50
24.4713463763
 51
32.9646517853
  0
ARC
  5
3DF
100
AcDbEntity
  8
RACCORDO
100
AcDbCircle
 62
7
  6
CONTINUOUS
 10
14.9314309518
 20
6.9195760768
 40
4.5817182901
100
AcDbArc
 50
24.4657665679
 51
33.585634404
  0
ARC
  5
3E0
100
AcDbEntity
  8
RACCORDO
100
AcDbCircle
 62
7
  6
CONTINUOUS
 10
17.6993720018
 20
6.960311617
 40
1.6392070868
100
AcDbArc
 50
331.5829424896
 51
332.6847607632
  0
ARC
  5
3E1
100
AcDbEntity
  8
RACCORDO
100
AcDbCircle
 62
7
  6
CONTINUOUS
 10
17.6993720019
 20
18.6516545681
 40
1.6392070867
100
AcDbArc
 50
331.5829424896
 51
332.6847607632
  0
ARC
  5
3E2
100
AcDbEntity
  8
RACCORDO
100
AcDbCircle
 62
253
  6
CONTINUOUS
 10
18.0713934811
 20
11.5510051749
 40
0.8017355635
100
AcDbArc
 50
144.2116629304
 51
156.1226671814
  0
ARC
  5
3E3
100
AcDbEntity
  8
RACCORDO
100
AcDbCircle
 62
253
  6
CONTINUOUS
 10
4.7070753167
 20
18.2331642571
 40
0.8017355635
100
AcDbArc
 50
144.2116629304
 51
156.1226671814
  0
ARC
  5
3E4
100
AcDbEntity
  8
RACCORDO
100
AcDbCircle
 62
253
  6
CONTINUOUS
 10
18.0648212903
 20
11.552543975
 40
0.7951039714
100
AcDbArc
 50
156.0323613519
 51
162.2282308085
  0
ARC
  5
3E5
100
AcDbEntity
  8
RACCORDO
100
AcDbCircle
 62
253
  6
CONTINUOUS
 10
4.7005031258
 20
18.2347030572
 40
0.7951039714
100
AcDbArc
 50
156.0323613519
 51
162.2282308085
  0
ARC
  5
3E6
100
AcDbEntity
  8
RACCORDO
100
AcDbCircle
 62
253
  6
CONTINUOUS
 10
18.0243252417
 20
11.5846523227
 40
0.7438780477
100
AcDbArc
 50
140.3850856483
 51
144.1938577794
  0
ARC
  5
3E7
100
AcDbEntity
  8
RACCORDO
100
AcDbCircle
 62
253
  6
CONTINUOUS
 10
4.6600070772
 20
18.2668114049
 40
0.7438780477
100
AcDbArc
 50
140.3850856483
 51
144.1938577794
  0
ARC
  5
3E8
100
AcDbEntity
  8
RACCORDO
100
AcDbCircle
 62
7
  6
CONTINUOUS
 10
0.9779292892
 20
19.0814332195
 40
0.2523005544
100
AcDbArc
 50
187.0477626106
 51
205.783027557
  0
ARC
  5
3E9
100
AcDbEntity
  8
RACCORDO
100
AcDbCircle
 62
7
  6
CONTINUOUS
 10
16.4608212952
 20
13.8095586254
 40
0.2511387701
100
AcDbArc
 50
63.3944863141
 51
65.8097067772
  0
ARC
  5
3EA
100
AcDbEntity
  8
RACCORDO
100
AcDbCircle
 62
7
  6
CONTINUOUS
 10
15.6838642395
 20
11.7278698477
 40
0.2510595334
100
AcDbArc
 50
243.4644878161
 51
258.2674958925
  0
ARC
  5
3EB
100
AcDbEntity
  8
RACCORDO
100
AcDbCircle
 62
7
  6
CONTINUOUS
 10
16.4611215624
 20
13.8099096051
 40
0.2506956038
100
AcDbArc
 50
65.8394362411
 51
80.4380744697
  0
ARC
  5
3EC
100
AcDbEntity
  8
RACCORDO
100
AcDbCircle
 62
7
  6
CONTINUOUS
 10
17.8043760579
 20
12.7876619917
 40
0.2504581744
100
AcDbArc
 50
320.4088461827
 51
359.9676566387
  0
ARC
  5
3ED
100
AcDbEntity
  8
RACCORDO
100
AcDbCircle
 62
7
  6
CONTINUOUS
 10
4.4402334529
 20
19.4697984908
 40
0.2502934088
100
AcDbArc
 50
320.3810517606
 51
359.9702670056
  0
ARC
  5
3EE
100
AcDbEntity
  8
RACCORDO
100
AcDbCircle
 62
7
  6
CONTINUOUS
 10
16.4613470263
 20
13.8104129451
 40
0.2501618428
100
AcDbArc
 50
80.4698461569
 51
116.5505432108
  0
ARC
  5
3EF
100
AcDbEntity
  8
RACCORDO
100
AcDbCircle
 62
7
  6
CONTINUOUS
 10
17.8047977828
 20
13.1388130667
 40
0.2500364105
100
AcDbArc
 50
0.004929906
 51
63.425592354
  0
ARC
  5
3F0
100
AcDbEntity
  8
RACCORDO
100
AcDbCircle
 62
7
  6
CONTINUOUS
 10
0.9757131663
 20
19.4320760004
 40
0.2500170981
100
AcDbArc
 50
116.5683102187
 51
179.9930719068
  0
ARC
  5
3F1
100
AcDbEntity
  8
RACCORDO
100
AcDbCircle
 62
7
  6
CONTINUOUS
 10
2.3191956844
 20
18.409019519
 40
0.25
100
AcDbArc
 50
244.0406531095
 51
258.6758098606
  0
ARC
  5
3F2
100
AcDbEntity
  8
RACCORDO
100
AcDbCircle
 62
7
  6
CONTINUOUS
 10
0.9756626795
 20
19.0807399049
 40
0.2499582854
100
AcDbArc
 50
205.8659142581
 51
243.4654847495
  0
ARC
  5
3F3
100
AcDbEntity
  8
RACCORDO
100
AcDbCircle
 62
7
  6
CONTINUOUS
 10
14.3398275041
 20
12.7500409046
 40
0.2497830833
100
AcDbArc
 50
116.4919035483
 51
179.9941727574
  0
ARC
  5
3F4
100
AcDbEntity
  8
RACCORDO
100
AcDbCircle
 62
7
  6
CONTINUOUS
 10
0.9751844895
 20
19.0807650522
 40
0.2494947253
100
AcDbArc
 50
179.9936401235
 51
186.972819303
  0
ARC
  5
3F5
100
AcDbEntity
  8
RACCORDO
100
AcDbCircle
 62
253
  6
CONTINUOUS
 10
1.6090650999
 20
18.5007867001
 40
0.231008612
100
AcDbArc
 50
238.508485994
 51
243.5092350169
  0
ARC
  5
3F6
100
AcDbEntity
  8
RACCORDO
100
AcDbCircle
 62
253
  6
CONTINUOUS
 10
14.9733832643
 20
11.8186276179
 40
0.231008612
100
AcDbArc
 50
238.5084859942
 51
243.5092350168
  0
ARC
  5
3F7
100
AcDbEntity
  8
RACCORDO
100
AcDbCircle
 62
7
  6
CONTINUOUS
 10
19.1228372006
 20
8.246124402
 40
0.1123339573
100
AcDbArc
 50
117.1440294398
 51
119.2493149772
  0
ARC
  5
3F8
100
AcDbEntity
  8
RACCORDO
100
AcDbCircle
 62
7
  6
CONTINUOUS
 10
19.0217925201
 20
17.9020458093
 40
0.1073980331
100
AcDbArc
 50
295.4533439597
 51
297.6226396588
  0
ARC
  5
3F9
100
AcDbEntity
  8
RACCORDO
100
AcDbCircle
 62
7
  6
CONTINUOUS
 10
19.0217925201
 20
6.2107028583
 40
0.1073980331
100
AcDbArc
 50
295.4533439598
 51
297.6226396588
  0
ARC
  5
3FA
100
AcDbEntity
  8
RACCORDO
100
AcDbCircle
 62
253
  6
CONTINUOUS
 10
16.3916370741
 20
13.9498779754
 40
0.0942397596
100
AcDbArc
 50
112.6278686832
 51
116.5388094811
  0
ARC
  5
3FB
100
AcDbEntity
  8
RACCORDO
100
AcDbCircle
 62
253
  6
CONTINUOUS
 10
3.9251942025
 20
18.0374967104
 40
0.0582038063
100
AcDbArc
 50
354.0335822805
 51
0.006247795
  0
ARC
  5
3FC
100
AcDbEntity
  8
RACCORDO
100
AcDbCircle
 62
253
  6
CONTINUOUS
 10
17.2895123669
 20
11.3553376282
 40
0.0582038063
100
AcDbArc
 50
354.0335822806
 51
0.006247795
  0
ARC
  5
3FD
100
AcDbEntity
  8
RACCORDO
100
AcDbCircle
 62
253
  6
CONTINUOUS
 10
73.0882238557
 20
-128.8909739597
 40
158.5405764785
100
AcDbArc
 50
109.9202434155
 51
110.6397076372
  0
ARC
  5
3FE
100
AcDbEntity
  8
RACCORDO
100
AcDbCircle
 62
253
  6
CONTINUOUS
 10
63.2519181077
 20
-113.66973562
 40
129.8869126305
100
AcDbArc
 50
109.885683637
 51
110.1484270335
  0
ARC
  5
3FF
100
AcDbEntity
  8
RACCORDO
100
AcDbCircle
 62
253
  6
CONTINUOUS
 10
50.3245838245
 20
-73.1496955173
 40
98.7051284511
100
AcDbArc
 50
108.4917126856
 51
109.380108253
  0
ARC
  5
400
100
AcDbEntity
  8
RACCORDO
100
AcDbCircle
 62
253
  6
CONTINUOUS
 10
46.258482833
 20
-72.8240468776
 40
86.0189562334
100
AcDbArc
 50
108.4618939299
 51
108.8180000467
  0
ARC
  5
401
100
AcDbEntity
  8
RACCORDO
100
AcDbCircle
 62
253
  6
CONTINUOUS
 10
-82.6905954329
 20
156.9914846955
 40
182.0912708433
100
AcDbArc
 50
303.7643996333
 51
303.9764854193
  0
ARC
  5
402
100
AcDbEntity
  8
RACCORDO
100
AcDbCircle
 62
253
  6
CONTINUOUS
 10
-82.3764396998
 20
168.2157142835
 40
181.5283423474
100
AcDbArc
 50
303.7699499496
 51
303.976652253
  0
ARC
  5
403
100
AcDbEntity
  8
RACCORDO
100
AcDbCircle
 62
253
  6
CONTINUOUS
 10
-64.4290639715
 20
128.5819342859
 40
148.4746028738
100
AcDbArc
 50
303.9604724184
 51
304.1964932493
  0
ARC
  5
404
100
AcDbEntity
  8
RACCORDO
100
AcDbCircle
 62
253
  6
CONTINUOUS
 10
-63.1584012376
 20
138.4001896674
 40
146.2111900315
100
AcDbArc
 50
304.0070571817
 51
304.1971800052
  0
ARC
  5
405
100
AcDbEntity
  8
0
100
AcDbCircle
 62
7
  6
CONTINUOUS
 10
2.9961244023
 20
23.640932519
 40
4.4493422648
100
AcDbArc
 50
71.1365540201
 51
72.1042384717
  0
ARC
  5
406
100
AcDbEntity
  8
0
100
AcDbCircle
 62
7
  6
CONTINUOUS
 10
10.4207456047
 20
19.9286219177
 40
4.4493422648
100
AcDbArc
 50
71.1365540201
 51
72.1042384717
  0
ARC
  5
407
100
AcDbEntity
  8
0
100
AcDbCircle
 62
7
  6
CONTINUOUS
 10
11.3495676358
 20
21.813056426
 40
2.3402408024
100
AcDbArc
 50
53.6985635535
 51
53.9091054637
  0
ARC
  5
408
100
AcDbEntity
  8
0
100
AcDbCircle
 62
7
  6
CONTINUOUS
 10
3.9249464338
 20
25.5253670278
 40
2.3402408016
100
AcDbArc
 50
53.6985635534
 51
53.9091054637
  0
ARC
  5
409
100
AcDbEntity
  8
0
100
AcDbCircle
 62
253
  6
CONTINUOUS
 10
3.9883671114
 20
25.7834559236
 40
2.0342816624
100
AcDbArc
 50
51.7541421858
 51
53.4206192856
  0
ARC
  5
40A
100
AcDbEntity
  8
0
100
AcDbCircle
 62
253
  6
CONTINUOUS
 10
11.4129883138
 20
22.0711453224
 40
2.0342816624
100
AcDbArc
 50
51.7541421858
 51
53.4206192856
  0
ARC
  5
40B
100
AcDbEntity
  8
RACCORDO
100
AcDbCircle
 62
7
  6
CONTINUOUS
 10
16.1419739365
 20
23.9463340741
 40
1.000000537
100
AcDbArc
 50
30.1049999827
 51
63.4349132862
  0
ARC
  5
40C
100
AcDbEntity
  8
RACCORDO
100
AcDbCircle
 62
7
  6
CONTINUOUS
 10
2.9921060499
 20
30.5212692069
 40
0.9999994409
100
AcDbArc
 50
63.4349188672
 51
115.2504322683
  0
ARC
  5
40D
100
AcDbEntity
  8
0
100
AcDbCircle
 62
7
  6
CONTINUOUS
 10
0.2584365726
 20
27.4358173458
 40
0.6892408467
100
AcDbArc
 50
180.0019218096
 51
185.67464815
  0
ARC
  5
40E
100
AcDbEntity
  8
0
100
AcDbCircle
 62
7
  6
CONTINUOUS
 10
7.6830577749
 20
23.7235067445
 40
0.6892408466
100
AcDbArc
 50
180.0019218094
 51
185.674647979
  0
ARC
  5
40F
100
AcDbEntity
  8
RACCORDO
100
AcDbCircle
 62
7
  6
CONTINUOUS
 10
3.0975231566
 20
20.4917177076
 40
0.2511387701
100
AcDbArc
 50
114.1902932227
 51
116.6055136859
  0
ARC
  5
410
100
AcDbEntity
  8
RACCORDO
100
AcDbCircle
 62
7
  6
CONTINUOUS
 10
3.0972228894
 20
20.4920686873
 40
0.2506956038
100
AcDbArc
 50
99.5619255304
 51
114.1605637589
  0
ARC
  5
411
100
AcDbEntity
  8
RACCORDO
100
AcDbCircle
 62
7
  6
CONTINUOUS
 10
3.0969974255
 20
20.4925720273
 40
0.2501618428
100
AcDbArc
 50
63.4494567892
 51
99.5301538431
  0
ARC
  5
412
100
AcDbEntity
  8
RACCORDO
100
AcDbCircle
 62
7
  6
CONTINUOUS
 10
4.4404796184
 20
19.8209721489
 40
0.2500364105
100
AcDbArc
 50
0.004929906
 51
63.425592354
  0
ARC
  5
413
100
AcDbEntity
  8
RACCORDO
100
AcDbCircle
 62
7
  6
CONTINUOUS
 10
-4.0136171266
 20
24.9375824732
 40
0.1587380553
100
AcDbArc
 50
114.8134763966
 51
131.243451581
  0
ARC
  5
414
100
AcDbEntity
  8
RACCORDO
100
AcDbCircle
 62
7
  6
CONTINUOUS
 10
19.1228372006
 20
19.9374673531
 40
0.1123339573
100
AcDbArc
 50
117.1440294399
 51
119.249314977
  0
ARC
  5
415
100
AcDbEntity
  8
RACCORDO
100
AcDbCircle
 62
253
  6
CONTINUOUS
 10
3.1667073777
 20
20.6320370576
 40
0.0942397596
100
AcDbArc
 50
63.4611905189
 51
67.3721313168
  0
ARC
  5
416
100
AcDbEntity
  8
RACCORDO
100
AcDbCircle
 62
253
  6
CONTINUOUS
 10
-2.8226564626
 20
25.1267552653
 40
0.0750437023
100
AcDbArc
 50
63.4342951695
 51
64.328681602
  0
ARC
  5
417
100
AcDbEntity
  8
ASSI
100
AcDbCircle
 62
253
  6
CONTINUOUS
 10
348.9418217648
 20
-31.8007608302
 40
372.0723864316
100
AcDbArc
 50
171.7036769152
 51
177.3895848689
  0
ARC
  5
418
100
AcDbEntity
  8
RACCORDO
100
AcDbCircle
 62
253
  6
CONTINUOUS
 10
348.9413716019
 20
-31.8007178542
 40
372.0719347785
100
AcDbArc
 50
171.7036734613
 51
177.3895883227
  0
ARC
  5
419
100
AcDbEntity
  8
ASSI
100
AcDbCircle
 62
253
  6
CONTINUOUS
 10
365.1594454914
 20
-45.4991627714
 40
358.2098939248
100
AcDbArc
 50
171.5935607217
 51
177.4997010623
  0
ARC
  5
41A
100
AcDbEntity
  8
RACCORDO
100
AcDbCircle
 62
253
  6
CONTINUOUS
 10
365.1590048692
 20
-45.4991207062
 40
358.209451887
100
AcDbArc
 50
171.5935570743
 51
177.4997047097
  0
ARC
  5
41B
100
AcDbEntity
  8
ASSI
100
AcDbCircle
 62
253
  6
CONTINUOUS
 10
365.3082304986
 20
-45.4972041936
 40
357.2370606429
100
AcDbArc
 50
171.5934150467
 51
177.4998467373
  0
ARC
  5
41C
100
AcDbEntity
  8
RACCORDO
100
AcDbCircle
 62
253
  6
CONTINUOUS
 10
365.307606159
 20
-45.4971445893
 40
357.2364342976
100
AcDbArc
 50
171.5934098642
 51
177.4998519198
  0
SPLINE
  5
41D
100
AcDbEntity
  8
0
100
AcDbSpline
 62
7
  6
CONTINUOUS
 70
0
 71
3
 72
11
 73
7
 74
5
 42
0.0000001
 43
0.0000001
 44
0.0000000001
 12
-0.0872758795
 22
0.0636482074
 32
0.0
 13
-0.0966154167
 23
-0.0483077084
 33
0.0
 40
0.0
 40
0.0
 40
0.0
 40
0.0
 40
0.2285353333
 40
0.4641485023
 40
0.7190045406
 40
1.0
 40
1.0
 40
1.0
 40
1.0
 10
5.3035266509
 20
27.4164626839
 30
0.0
 10
5.2968781101
 20
27.4213113053
 30
0.0
 10
5.2816432296
 20
27.4290090229
 30
0.0
 10
5.25561766
 20
27.4326855831
 30
0.0
 10
5.2278257547
 20
27.4286868499
 30
0.0
 10
5.2097181291
 20
27.4215739227
 30
0.0
 10
5.2006686313
 20
27.4170491738
 30
0.0
 11
5.3035266509
 21
27.4164626839
 31
0.0
 11
5.2814959572
 21
27.4276008412
 31
0.0
 11
5.2563336341
 21
27.4314217581
 31
0.0
 11
5.2290380429
 21
27.4278416412
 31
0.0
 11
5.2006686313
 21
27.4170491738
 31
0.0
  0
SPLINE
  5
41E
100
AcDbEntity
  8
0
100
AcDbSpline
 62
7
  6
CONTINUOUS
 70
0
 71
3
 72
11
 73
7
 74
5
 42
0.0000001
 43
0.0000001
 44
0.0000000001
 12
0.1140608436
 22
-0.0389453569
 32
0.0
 13
0.0090568771
 23
-0.1201856474
 33
0.0
 40
0.0
 40
0.0
 40
0.0
 40
0.0
 40
0.2226124468
 40
0.4556457327
 40
0.7125887961
 40
1.0
 40
1.0
 40
1.0
 40
1.0
 10
4.4346506492
 20
27.8513116142
 30
0.0
 10
4.443114437
 20
27.8484217072
 30
0.0
 10
4.459528096
 20
27.8393182946
 30
0.0
 10
4.4784774841
 20
27.8171859855
 30
0.0
 10
4.4909908423
 20
27.7881646129
 30
0.0
 10
4.4946498164
 20
27.7664067157
 30
0.0
 10
4.4955174991
 20
27.7548924818
 30
0.0
 11
4.4346506492
 21
27.8513116142
 31
0.0
 11
4.4581270371
 21
27.8383214405
 31
0.0
 11
4.4766784267
 21
27.8172333682
 31
0.0
 11
4.4893633984
 21
27.7889820864
 31
0.0
 11
4.4955174991
 21
27.7548924818
 31
0.0
  0
SPLINE
  5
41F
100
AcDbEntity
  8
0
100
AcDbSpline
 62
7
  6
CONTINUOUS
 70
0
 71
3
 72
11
 73
7
 74
5
 42
0.0000001
 43
0.0000001
 44
0.0000000001
 12
1.0670328166
 22
0.9739054727
 32
0.0
 13
1.3892955362
 23
0.3961171727
 33
0.0
 40
0.0
 40
0.0
 40
0.0
 40
0.0
 40
0.2234902362
 40
0.4648769104
 40
0.7241672167
 40
1.0
 40
1.0
 40
1.0
 40
1.0
 10
-0.2805449336
 20
27.2691035105
 30
0.0
 10
-0.2010544616
 20
27.3416562985
 30
0.0
 10
-0.0229775185
 20
27.478899431
 30
0.0
 10
0.2795251308
 20
27.6539278921
 30
0.0
 10
0.6224530614
 20
27.8046297806
 30
0.0
 10
0.8675352561
 20
27.885519762
 30
0.0
 10
0.9952730076
 20
27.9219404628
 30
0.0
 11
-0.2805449336
 21
27.2691035105
 31
0.0
 11
-0.0261087447
 21
27.4678646878
 31
0.0
 11
0.2748280474
 21
27.6440587309
 31
0.0
 11
0.61720349
 21
27.7960276148
 31
0.0
 11
0.9952730076
 21
27.9219404628
 31
0.0
  0
SPLINE
  5
420
100
AcDbEntity
  8
0
100
AcDbSpline
 62
7
  6
CONTINUOUS
 70
0
 71
3
 72
15
 73
11
 74
9
 42
0.0000001
 43
0.0000001
 44
0.0000000001
 12
3.0981595642
 22
0.7321356682
 32
0.0
 13
3.0294414013
 23
-0.978314938
 33
0.0
 40
0.0
 40
0.0
 40
0.0
 40
0.0
 40
0.122593969
 40
0.2486745437
 40
0.3768880874
 40
0.5058006308
 40
0.6339525003
 40
0.7599119764
 40
0.8823300923
 40
1.0
 40
1.0
 40
1.0
 40
1.0
 10
1.217226991
 20
27.9797039354
 30
0.0
 10
1.3438322168
 20
28.0096224079
 30
0.0
 10
1.6029773899
 20
28.0607748319
 30
0.0
 10
1.999974022
 20
28.1114212165
 30
0.0
 10
2.4061181208
 20
28.1366512722
 30
0.0
 10
2.8152323662
 20
28.136104777
 30
0.0
 10
3.2211077359
 20
28.1097925212
 30
0.0
 10
3.6176079091
 20
28.0580775456
 30
0.0
 10
3.9987612282
 20
27.9816740388
 30
0.0
 10
4.2445212827
 20
27.9133756141
 30
0.0
 10
4.3633459794
 20
27.8750028713
 30
0.0
 11
1.217226991
 21
27.9797039354
 31
0.0
 11
1.6000238037
 21
28.0557472388
 31
0.0
 11
1.9981337263
 21
28.1068499764
 31
0.0
 11
2.4055058625
 21
28.1323052955
 31
0.0
 11
2.815897422
 21
28.1317543977
 31
0.0
 11
3.2230029695
 21
28.1052051281
 31
0.0
 11
3.6205851606
 21
28.0530316109
 31
0.0
 11
4.0026041401
 21
27.9759548837
 31
0.0
 11
4.3633459794
 21
27.8750028713
 31
0.0
  0
LINE
  5
421
100
AcDbEntity
  8
0
100
AcDbLine
 62
7
  6
CONTINUOUS
 10
4.4955174991
 20
27.7548924818
 11
4.5456392826
 21
27.0895345099
  0
SPLINE
  5
422
100
AcDbEntity
  8
0
100
AcDbSpline
 62
253
  6
CONTINUOUS
 70
0
 71
3
 72
15
 73
11
 74
9
 42
0.0000001
 43
0.0000001
 44
0.0000000001
 12
-3.1802151926
 22
1.0708913496
 32
0.0
 13
-3.2254411823
 23
-0.9258002665
 33
0.0
 40
0.0
 40
0.0
 40
0.0
 40
0.0
 40
0.117093909
 40
0.2399598908
 40
0.3669495388
 40
0.4962917753
 40
0.6261171999
 40
0.754546763
 40
0.8797470197
 40
1.0
 40
1.0
 40
1.0
 40
1.0
 10
4.3521404938
 20
27.8413132425
 30
0.0
 10
4.228012551
 20
27.8831115272
 30
0.0
 10
3.9695575623
 20
27.9569707044
 30
0.0
 10
3.5667276639
 20
28.0376683259
 30
0.0
 10
3.1454138287
 20
28.0898554259
 30
0.0
 10
2.7137198221
 20
28.112528422
 30
0.0
 10
2.2798847159
 20
28.1052425457
 30
0.0
 10
1.8522080553
 20
28.0681420277
 30
0.0
 10
1.4389056777
 20
28.0019480698
 30
0.0
 10
1.1716066146
 20
27.9376908887
 30
0.0
 10
1.0423169763
 20
27.9005808083
 30
0.0
 11
4.3521404938
 21
27.8413132425
 31
0.0
 11
3.9745915063
 21
27.9501725421
 31
0.0
 11
3.5704518235
 21
28.0317895972
 31
0.0
 11
3.1475963394
 21
28.0845672227
 31
0.0
 11
2.7141714919
 21
28.1074966132
 31
0.0
 11
2.2785814397
 21
28.1001286438
 31
0.0
 11
1.8492495405
 21
28.0626080352
 31
0.0
 11
1.4344861091
 21
27.9956601909
 31
0.0
 11
1.0423169763
 21
27.9005808083
 31
0.0
  0
SPLINE
  5
423
100
AcDbEntity
  8
0
100
AcDbSpline
 62
253
  6
CONTINUOUS
 70
0
 71
3
 72
11
 73
7
 74
5
 42
0.0000001
 43
0.0000001
 44
0.0000000001
 12
-1.3803183077
 22
-0.3969531335
 32
0.0
 13
-1.0029735295
 23
-1.0280537534
 33
0.0
 40
0.0
 40
0.0
 40
0.0
 40
0.0
 40
0.2832542488
 40
0.5456626656
 40
0.7848368581
 40
1.0
 40
1.0
 40
1.0
 40
1.0
 10
1.0400685285
 20
27.8999348165
 30
0.0
 10
0.90974152
 20
27.8624552626
 30
0.0
 10
0.6616407639
 20
27.7791785166
 30
0.0
 10
0.3189793092
 20
27.6231002619
 30
0.0
 10
0.0255863132
 20
27.4433627224
 30
0.0
 10
-0.1418392146
 20
27.3025592639
 30
0.0
 10
-0.2137735266
 20
27.228826172
 30
0.0
 11
1.0400685285
 21
27.8999348165
 31
0.0
 11
0.6548204422
 21
27.7691964254
 31
0.0
 11
0.3125777384
 21
27.6113545695
 31
0.0
 11
0.0208991016
 21
27.4298952752
 31
0.0
 11
-0.2137735266
 21
27.228826172
 31
0.0
  0
SPLINE
  5
424
100
AcDbEntity
  8
0
100
AcDbSpline
 62
7
  6
CONTINUOUS
 70
0
 71
3
 72
9
 73
5
 74
3
 42
0.0000001
 43
0.0000001
 44
0.0000000001
 12
0.0758252899
 22
0.037912645
 32
0.0
 13
0.0802275305
 23
-0.0273931851
 33
0.0
 40
0.0
 40
0.0
 40
0.0
 40
0.0
 40
0.5342465021
 40
1.0
 40
1.0
 40
1.0
 40
1.0
 10
4.3521404938
 20
27.8413132425
 30
0.0
 10
4.3656436258
 20
27.8480648085
 30
0.0
 10
4.3928686992
 20
27.8575760582
 30
0.0
 10
4.4221952316
 20
27.8555644382
 30
0.0
 10
4.4346506492
 20
27.8513116142
 30
0.0
 11
4.3521404938
 21
27.8413132425
 31
0.0
 11
4.3953332233
 21
27.8549386626
 31
0.0
 11
4.4346506492
 21
27.8513116142
 31
0.0
  0
SPLINE
  5
425
100
AcDbEntity
  8
0
100
AcDbSpline
 62
7
  6
CONTINUOUS
 70
0
 71
3
 72
11
 73
7
 74
5
 42
0.0000001
 43
0.0000001
 44
0.0000000001
 12
-0.0872758795
 22
0.0636482074
 32
0.0
 13
-0.0966154167
 23
-0.0483077084
 33
0.0
 40
0.0
 40
0.0
 40
0.0
 40
0.0
 40
0.2285353333
 40
0.4641485023
 40
0.7190045406
 40
1.0
 40
1.0
 40
1.0
 40
1.0
 10
12.7281478533
 20
23.7041520826
 30
0.0
 10
12.7214993126
 20
23.7090007041
 30
0.0
 10
12.706264432
 20
23.7166984217
 30
0.0
 10
12.6802388624
 20
23.7203749818
 30
0.0
 10
12.6524469571
 20
23.7163762486
 30
0.0
 10
12.6343393315
 20
23.7092633214
 30
0.0
 10
12.6252898337
 20
23.7047385725
 30
0.0
 11
12.7281478533
 21
23.7041520826
 31
0.0
 11
12.7061171596
 21
23.7152902399
 31
0.0
 11
12.6809548366
 21
23.7191111569
 31
0.0
 11
12.6536592453
 21
23.7155310399
 31
0.0
 11
12.6252898337
 21
23.7047385725
 31
0.0
  0
SPLINE
  5
426
100
AcDbEntity
  8
0
100
AcDbSpline
 62
7
  6
CONTINUOUS
 70
0
 71
3
 72
11
 73
7
 74
5
 42
0.0000001
 43
0.0000001
 44
0.0000000001
 12
0.1140608436
 22
-0.0389453569
 32
0.0
 13
0.0090568771
 23
-0.1201856474
 33
0.0
 40
0.0
 40
0.0
 40
0.0
 40
0.0
 40
0.2226124468
 40
0.4556457327
 40
0.7125887961
 40
1.0
 40
1.0
 40
1.0
 40
1.0
 10
11.8592718517
 20
24.139001013
 30
0.0
 10
11.8677356395
 20
24.1361111059
 30
0.0
 10
11.8841492984
 20
24.1270076934
 30
0.0
 10
11.9030986865
 20
24.1048753843
 30
0.0
 10
11.9156120447
 20
24.0758540117
 30
0.0
 10
11.9192710189
 20
24.0540961145
 30
0.0
 10
11.9201387015
 20
24.0425818806
 30
0.0
 11
11.8592718517
 21
24.139001013
 31
0.0
 11
11.8827482396
 21
24.1260108392
 31
0.0
 11
11.9012996292
 21
24.104922767
 31
0.0
 11
11.9139846009
 21
24.0766714851
 31
0.0
 11
11.9201387015
 21
24.0425818806
 31
0.0
  0
SPLINE
  5
427
100
AcDbEntity
  8
0
100
AcDbSpline
 62
7
  6
CONTINUOUS
 70
0
 71
3
 72
11
 73
7
 74
5
 42
0.0000001
 43
0.0000001
 44
0.0000000001
 12
1.0670328193
 22
0.9739054867
 32
0.0
 13
1.3892955472
 23
0.3961171759
 33
0.0
 40
0.0
 40
0.0
 40
0.0
 40
0.0
 40
0.2234902359
 40
0.46487691
 40
0.7241672164
 40
1.0
 40
1.0
 40
1.0
 40
1.0
 10
7.1440762604
 20
23.5567929015
 30
0.0
 10
7.2235667325
 20
23.6293456905
 30
0.0
 10
7.4016436762
 20
23.7665888248
 30
0.0
 10
7.7041463274
 20
23.9416172881
 30
0.0
 10
8.0470742607
 20
24.0923191783
 30
0.0
 10
8.2921564574
 20
24.1732091605
 30
0.0
 10
8.41989421
 20
24.2096298616
 30
0.0
 11
7.1440762604
 21
23.5567929015
 31
0.0
 11
7.39851245
 21
23.7555540814
 31
0.0
 11
7.6994492439
 21
23.9317481266
 31
0.0
 11
8.0418246891
 21
24.0837170123
 31
0.0
 11
8.41989421
 21
24.2096298616
 31
0.0
  0
SPLINE
  5
428
100
AcDbEntity
  8
0
100
AcDbSpline
 62
7
  6
CONTINUOUS
 70
0
 71
3
 72
15
 73
11
 74
9
 42
0.0000001
 43
0.0000001
 44
0.0000000001
 12
3.0981595642
 22
0.7321356682
 32
0.0
 13
3.0294414013
 23
-0.978314938
 33
0.0
 40
0.0
 40
0.0
 40
0.0
 40
0.0
 40
0.122593969
 40
0.2486745437
 40
0.3768880874
 40
0.5058006308
 40
0.6339525003
 40
0.7599119764
 40
0.8823300923
 40
1.0
 40
1.0
 40
1.0
 40
1.0
 10
8.6418481934
 20
24.2673933342
 30
0.0
 10
8.7684534193
 20
24.2973118066
 30
0.0
 10
9.0275985924
 20
24.3484642307
 30
0.0
 10
9.4245952245
 20
24.3991106152
 30
0.0
 10
9.8307393232
 20
24.424340671
 30
0.0
 10
10.2398535686
 20
24.4237941757
 30
0.0
 10
10.6457289383
 20
24.3974819199
 30
0.0
 10
11.0422291116
 20
24.3457669443
 30
0.0
 10
11.4233824306
 20
24.2693634376
 30
0.0
 10
11.6691424852
 20
24.2010650128
 30
0.0
 10
11.7879671819
 20
24.16269227
 30
0.0
 11
8.6418481934
 21
24.2673933342
 31
0.0
 11
9.0246450062
 21
24.3434366376
 31
0.0
 11
9.4227549287
 21
24.3945393752
 31
0.0
 11
9.8301270649
 21
24.4199946942
 31
0.0
 11
10.2405186245
 21
24.4194437965
 31
0.0
 11
10.647624172
 21
24.3928945269
 31
0.0
 11
11.0452063631
 21
24.3407210096
 31
0.0
 11
11.4272253426
 21
24.2636442824
 31
0.0
 11
11.7879671819
 21
24.16269227
 31
0.0
  0
LINE
  5
429
100
AcDbEntity
  8
0
100
AcDbLine
 62
7
  6
CONTINUOUS
 10
11.9201387015
 20
24.0425818806
 11
11.9702604851
 21
23.3772239086
  0
SPLINE
  5
42A
100
AcDbEntity
  8
0
100
AcDbSpline
 62
253
  6
CONTINUOUS
 70
0
 71
3
 72
15
 73
11
 74
9
 42
0.0000001
 43
0.0000001
 44
0.0000000001
 12
-3.1802151926
 22
1.0708913496
 32
0.0
 13
-3.2254411823
 23
-0.9258002665
 33
0.0
 40
0.0
 40
0.0
 40
0.0
 40
0.0
 40
0.117093909
 40
0.2399598908
 40
0.3669495388
 40
0.4962917753
 40
0.6261171999
 40
0.754546763
 40
0.8797470197
 40
1.0
 40
1.0
 40
1.0
 40
1.0
 10
11.7767616963
 20
24.1290026413
 30
0.0
 10
11.6526337535
 20
24.170800926
 30
0.0
 10
11.3941787647
 20
24.2446601032
 30
0.0
 10
10.9913488664
 20
24.3253577247
 30
0.0
 10
10.5700350312
 20
24.3775448247
 30
0.0
 10
10.1383410246
 20
24.4002178207
 30
0.0
 10
9.7045059184
 20
24.3929319445
 30
0.0
 10
9.2768292578
 20
24.3558314265
 30
0.0
 10
8.8635268801
 20
24.2896374686
 30
0.0
 10
8.596227817
 20
24.2253802875
 30
0.0
 10
8.4669381787
 20
24.1882702071
 30
0.0
 11
11.7767616963
 21
24.1290026413
 31
0.0
 11
11.3992127087
 21
24.2378619409
 31
0.0
 11
10.995073026
 21
24.319478996
 31
0.0
 11
10.5722175418
 21
24.3722566214
 31
0.0
 11
10.1387926944
 21
24.395186012
 31
0.0
 11
9.7032026422
 21
24.3878180426
 31
0.0
 11
9.273870743
 21
24.350297434
 31
0.0
 11
8.8591073116
 21
24.2833495897
 31
0.0
 11
8.4669381787
 21
24.1882702071
 31
0.0
  0
SPLINE
  5
42B
100
AcDbEntity
  8
0
100
AcDbSpline
 62
253
  6
CONTINUOUS
 70
0
 71
3
 72
11
 73
7
 74
5
 42
0.0000001
 43
0.0000001
 44
0.0000000001
 12
-1.3803182994
 22
-0.3969531312
 32
0.0
 13
-1.0029735292
 23
-1.0280537417
 33
0.0
 40
0.0
 40
0.0
 40
0.0
 40
0.0
 40
0.2832542485
 40
0.5456626652
 40
0.7848368578
 40
1.0
 40
1.0
 40
1.0
 40
1.0
 10
8.4646897309
 20
24.1876242153
 30
0.0
 10
8.3343627234
 20
24.1501446617
 30
0.0
 10
8.086261969
 20
24.0668679163
 30
0.0
 10
7.7436005163
 20
23.910789663
 30
0.0
 10
7.4502075215
 20
23.7310521252
 30
0.0
 10
7.282781994
 20
23.5902486681
 30
0.0
 10
7.2108476819
 20
23.516515577
 30
0.0
 11
8.4646897309
 21
24.1876242153
 31
0.0
 11
8.0794416474
 21
24.0568858253
 31
0.0
 11
7.7371989456
 21
23.8990439708
 31
0.0
 11
7.4455203099
 21
23.7175846782
 31
0.0
 11
7.2108476819
 21
23.516515577
 31
0.0
  0
SPLINE
  5
42C
100
AcDbEntity
  8
0
100
AcDbSpline
 62
7
  6
CONTINUOUS
 70
0
 71
3
 72
9
 73
5
 74
3
 42
0.0000001
 43
0.0000001
 44
0.0000000001
 12
0.0758252899
 22
0.037912645
 32
0.0
 13
0.0802275305
 23
-0.0273931851
 33
0.0
 40
0.0
 40
0.0
 40
0.0
 40
0.0
 40
0.5342465021
 40
1.0
 40
1.0
 40
1.0
 40
1.0
 10
11.7767616963
 20
24.1290026413
 30
0.0
 10
11.7902648283
 20
24.1357542072
 30
0.0
 10
11.8174899016
 20
24.145265457
 30
0.0
 10
11.846816434
 20
24.1432538369
 30
0.0
 10
11.8592718517
 20
24.139001013
 30
0.0
 11
11.7767616963
 21
24.1290026413
 31
0.0
 11
11.8199544257
 21
24.1426280613
 31
0.0
 11
11.8592718517
 21
24.139001013
 31
0.0
  0
SPLINE
  5
42D
100
AcDbEntity
  8
RACCORDO
100
AcDbSpline
 62
7
  6
CONTINUOUS
 70
0
 71
3
 72
9
 73
5
 74
3
 42
0.0000001
 43
0.0000001
 44
0.0000000001
 12
-0.0004064978
 22
0.0259299962
 32
0.0
 13
-0.0020641494
 23
0.0258509038
 33
0.0
 40
0.0
 40
0.0
 40
0.0
 40
0.0
 40
0.2485360477
 40
1.0
 40
1.0
 40
1.0
 40
1.0
 10
7.3784304993
 20
23.2982224147
 30
0.0
 10
7.3783968228
 20
23.3003705943
 30
0.0
 10
7.3781931857
 20
23.3090128624
 30
0.0
 10
7.3776844553
 20
23.3176468219
 30
0.0
 10
7.3771674107
 20
23.3241221627
 30
0.0
 11
7.3784304993
 21
23.2982224147
 31
0.0
 11
7.3782767549
 21
23.3046659113
 31
0.0
 11
7.3771674107
 21
23.3241221627
 31
0.0
  0
SPLINE
  5
42E
100
AcDbEntity
  8
RACCORDO
100
AcDbSpline
 62
7
  6
CONTINUOUS
 70
0
 71
3
 72
9
 73
5
 74
3
 42
0.0000001
 43
0.0000001
 44
0.0000000001
 12
0.003195696
 22
0.0016680086
 32
0.0
 13
-0.0000093949
 23
0.0036048076
 33
0.0
 40
0.0
 40
0.0
 40
0.0
 40
0.0
 40
0.5036977787
 40
1.0
 40
1.0
 40
1.0
 40
1.0
 10
7.3766967012
 20
22.7129285753
 30
0.0
 10
7.3772332562
 20
22.7132086327
 30
0.0
 10
7.3782200962
 20
22.7140317597
 30
0.0
 10
7.3784786158
 20
22.7152865312
 30
0.0
 10
7.3784770615
 20
22.7158828892
 30
0.0
 11
7.3766967012
 21
22.7129285753
 31
0.0
 11
7.3780426112
 21
22.7141473603
 31
0.0
 11
7.3784770615
 21
22.7158828892
 31
0.0
  0
SPLINE
  5
42F
100
AcDbEntity
  8
RACCORDO
100
AcDbSpline
 62
7
  6
CONTINUOUS
 70
0
 71
3
 72
10
 73
6
 74
4
 42
0.0000001
 43
0.0000001
 44
0.0000000001
 12
-0.431001698
 22
0.4732084891
 32
0.0
 13
-0.5725276644
 23
0.286183178
 33
0.0
 40
0.0
 40
0.0
 40
0.0
 40
0.0
 40
0.506838871
 40
0.7558957822
 40
1.0
 40
1.0
 40
1.0
 40
1.0
 10
7.3771674107
 20
23.3241221627
 30
0.0
 10
7.3043512727
 20
23.4040689815
 30
0.0
 10
7.1869945827
 20
23.5160257148
 30
0.0
 10
7.0143063697
 20
23.6417189043
 30
0.0
 10
6.923078593
 20
23.6947083531
 30
0.0
 10
6.8764931204
 20
23.7179945267
 30
0.0
 11
7.3771674107
 21
23.3241221627
 31
0.0
 11
7.1410481047
 21
23.5465875026
 31
0.0
 11
7.0119043264
 21
23.6400466306
 31
0.0
 11
6.8764931204
 21
23.7179945267
 31
0.0
  0
SPLINE
  5
430
100
AcDbEntity
  8
RACCORDO
100
AcDbSpline
 62
7
  6
CONTINUOUS
 70
0
 71
3
 72
11
 73
7
 74
5
 42
0.0000001
 43
0.0000001
 44
0.0000000001
 12
0.4104598159
 22
0.2008428369
 32
0.0
 13
0.4087143287
 23
-0.2043714832
 33
0.0
 40
0.0
 40
0.0
 40
0.0
 40
0.0
 40
0.2787325875
 40
0.5346772883
 40
0.772449667
 40
1.0
 40
1.0
 40
1.0
 40
1.0
 10
3.2092497533
 20
25.3057452771
 30
0.0
 10
3.2473859288
 20
25.3244057583
 30
0.0
 10
3.3236169184
 20
25.3544922078
 30
0.0
 10
3.4402861212
 20
25.3755463819
 30
0.0
 10
3.5510942723
 20
25.3694339876
 30
0.0
 10
3.6193056108
 20
25.3465888587
 30
0.0
 10
3.650306638
 20
25.331087259
 30
0.0
 11
3.2092497533
 21
25.3057452771
 31
0.0
 11
3.3280957604
 21
25.3515585893
 31
0.0
 11
3.4433747235
 21
25.3713008245
 31
0.0
 11
3.5518092823
 21
25.3644120312
 31
0.0
 11
3.650306638
 21
25.331087259
 31
0.0
  0
SPLINE
  5
431
100
AcDbEntity
  8
RACCORDO
100
AcDbSpline
 62
7
  6
CONTINUOUS
 70
0
 71
3
 72
14
 73
10
 74
8
 42
0.0000001
 43
0.0000001
 44
0.0000000001
 12
0.0
 22
0.630991571
 32
0.0
 13
-0.5643681094
 23
0.2822038267
 33
0.0
 40
0.0
 40
0.0
 40
0.0
 40
0.0
 40
0.2891525564
 40
0.4227177506
 40
0.5489643138
 40
0.668508974
 40
0.7824375212
 40
0.892292605
 40
1.0
 40
1.0
 40
1.0
 40
1.0
 10
-0.3324547451
 20
26.9115412868
 30
0.0
 10
-0.3324547451
 20
26.9723588954
 30
0.0
 10
-0.3400412018
 20
27.0617503201
 30
0.0
 10
-0.3690406326
 20
27.1737369955
 30
0.0
 10
-0.3984902792
 20
27.2481464861
 30
0.0
 10
-0.4358985906
 20
27.3142171006
 30
0.0
 10
-0.480887941
 20
27.3711086599
 30
0.0
 10
-0.5329256345
 20
27.4180140223
 30
0.0
 10
-0.5720718428
 20
27.4422757896
 30
0.0
 10
-0.5923340491
 20
27.4524076026
 30
0.0
 11
-0.3324547451
 21
26.9115412868
 31
0.0
 11
-0.3497321827
 21
27.0931742238
 31
0.0
 11
-0.3711304386
 21
27.1746909839
 31
0.0
 11
-0.4007200053
 21
27.2486521599
 31
0.0
 11
-0.4381381123
 21
27.3141488969
 31
0.0
 11
-0.4829263798
 21
27.3703795724
 31
0.0
 11
-0.5345358212
 21
27.4166548321
 31
0.0
 11
-0.5923340491
 21
27.4524076026
 31
0.0
  0
SPLINE
  5
432
100
AcDbEntity
  8
RACCORDO
100
AcDbSpline
 62
7
  6
CONTINUOUS
 70
0
 71
3
 72
11
 73
7
 74
5
 42
0.0000001
 43
0.0000001
 44
0.0000000001
 12
0.0557205746
 22
0.0171953145
 32
0.0
 13
0.0521861977
 23
-0.026020416
 33
0.0
 40
0.0
 40
0.0
 40
0.0
 40
0.0
 40
0.368058145
 40
0.6517558087
 40
0.8584037383
 40
1.0
 40
1.0
 40
1.0
 40
1.0
 10
-3.875721643
 20
29.0583331289
 30
0.0
 10
-3.8688855059
 20
29.0604427541
 30
0.0
 10
-3.8566919445
 20
29.0638942122
 30
0.0
 10
-3.8402758863
 20
29.0671349259
 30
0.0
 10
-3.8280212268
 20
29.0679798138
 30
0.0
 10
-3.8211467422
 20
29.0668110274
 30
0.0
 10
-3.8186836187
 20
29.0655828962
 30
0.0
 11
-3.875721643
 21
29.0583331289
 31
0.0
 11
-3.8550273741
 21
29.0640249506
 31
0.0
 11
-3.8387583814
 21
29.067025591
 31
0.0
 11
-3.8267170245
 21
29.0674912837
 31
0.0
 11
-3.8186836187
 21
29.0655828962
 31
0.0
  0
SPLINE
  5
433
100
AcDbEntity
  8
RACCORDO
100
AcDbSpline
 62
7
  6
CONTINUOUS
 70
0
 71
3
 72
9
 73
5
 74
3
 42
0.0000001
 43
0.0000001
 44
0.0000000001
 12
-0.0189527949
 22
-0.0058488139
 32
0.0
 13
-0.0177371727
 23
-0.0088774864
 33
0.0
 40
0.0
 40
0.0
 40
0.0
 40
0.0
 40
0.2476285508
 40
1.0
 40
1.0
 40
1.0
 40
1.0
 10
-3.875721643
 20
29.0583331289
 30
0.0
 10
-3.8772860607
 20
29.0578503511
 30
0.0
 10
-3.8835607503
 20
29.055763095
 30
0.0
 10
-3.8896529945
 20
29.0531369896
 30
0.0
 10
-3.8941013086
 20
29.0509106005
 30
0.0
 11
-3.875721643
 21
29.0583331289
 31
0.0
 11
-3.8803824578
 21
29.0567835805
 31
0.0
 11
-3.8941013086
 21
29.0509106005
 31
0.0
  0
SPLINE
  5
434
100
AcDbEntity
  8
RACCORDO
100
AcDbSpline
 62
7
  6
CONTINUOUS
 70
0
 71
3
 72
11
 73
7
 74
5
 42
0.0000001
 43
0.0000001
 44
0.0000000001
 12
-0.1620397139
 22
-0.0811011646
 32
0.0
 13
-0.0906562346
 23
-0.1568939607
 33
0.0
 40
0.0
 40
0.0
 40
0.0
 40
0.0
 40
0.2068014243
 40
0.4392363129
 40
0.7028675903
 40
1.0
 40
1.0
 40
1.0
 40
1.0
 10
-3.8941013086
 20
29.0509106005
 30
0.0
 10
-3.9052713231
 20
29.0453199884
 30
0.0
 10
-3.9273146734
 20
29.0300366562
 30
0.0
 10
-3.9569914777
 20
28.9994749317
 30
0.0
 10
-3.9857087327
 20
28.9610084536
 30
0.0
 10
-4.0035018663
 20
28.932149998
 30
0.0
 10
-4.0124808348
 20
28.9166105711
 30
0.0
 11
-3.8941013086
 21
29.0509106005
 31
0.0
 11
-3.9252528982
 21
29.030082831
 31
0.0
 11
-3.9550188653
 21
29.0002853376
 31
0.0
 11
-3.9839413111
 21
28.962265325
 31
0.0
 11
-4.0124808348
 21
28.9166105711
 31
0.0
  0
SPLINE
  5
435
100
AcDbEntity
  8
RACCORDO
100
AcDbSpline
 62
7
  6
CONTINUOUS
 70
0
 71
3
 72
11
 73
7
 74
5
 42
0.0000001
 43
0.0000001
 44
0.0000000001
 12
-0.4087143287
 22
0.2043714832
 32
0.0
 13
-0.4104598159
 23
-0.2008428369
 33
0.0
 40
0.0
 40
0.0
 40
0.0
 40
0.0
 40
0.227550333
 40
0.4653227117
 40
0.7212674125
 40
1.0
 40
1.0
 40
1.0
 40
1.0
 10
-0.5923340491
 20
27.4524076026
 30
0.0
 10
-0.6233350763
 20
27.4679092023
 30
0.0
 10
-0.6915464149
 20
27.4907543312
 30
0.0
 10
-0.802354566
 20
27.4968667255
 30
0.0
 10
-0.9190237687
 20
27.4758125513
 30
0.0
 10
-0.9952547583
 20
27.4457261019
 30
0.0
 10
-1.0333909338
 20
27.4270656206
 30
0.0
 11
-0.5923340491
 21
27.4524076026
 31
0.0
 11
-0.6908314048
 21
27.4857323748
 31
0.0
 11
-0.7992659636
 21
27.492621168
 31
0.0
 11
-0.9145449267
 21
27.4728789329
 31
0.0
 11
-1.0333909338
 21
27.4270656206
 31
0.0
  0
SPLINE
  5
436
100
AcDbEntity
  8
RACCORDO
100
AcDbSpline
 62
7
  6
CONTINUOUS
 70
0
 71
3
 72
9
 73
5
 74
3
 42
0.0000001
 43
0.0000001
 44
0.0000000001
 12
-0.2341361533
 22
0.117035093
 32
0.0
 13
-0.2566306785
 23
0.0515523629
 33
0.0
 40
0.0
 40
0.0
 40
0.0
 40
0.0
 40
0.2560238952
 40
1.0
 40
1.0
 40
1.0
 40
1.0
 10
6.8764931204
 20
23.7179945267
 30
0.0
 10
6.8565116371
 20
23.7279824535
 30
0.0
 10
6.7774589638
 20
23.7648603659
 30
0.0
 10
6.6938228864
 20
23.7925974709
 30
0.0
 10
6.6301805222
 20
23.8053820463
 30
0.0
 11
6.8764931204
 21
23.7179945267
 31
0.0
 11
6.8157324564
 21
23.7462665432
 31
0.0
 11
6.6301805222
 21
23.8053820463
 31
0.0
  0
SPLINE
  5
437
100
AcDbEntity
  8
RACCORDO
100
AcDbSpline
 62
7
  6
CONTINUOUS
 70
0
 71
3
 72
9
 73
5
 74
3
 42
0.0000001
 43
0.0000001
 44
0.0000000001
 12
-0.0000153526
 22
0.0058907759
 32
0.0
 13
-0.0030473344
 23
0.0050413519
 33
0.0
 40
0.0
 40
0.0
 40
0.0
 40
0.0
 40
0.198822484
 40
1.0
 40
1.0
 40
1.0
 40
1.0
 10
7.3784770615
 20
22.7158828892
 30
0.0
 10
7.3784760441
 20
22.7162732954
 30
0.0
 10
7.3782138017
 20
22.7182353052
 30
0.0
 10
7.3772648038
 20
22.7200232832
 30
0.0
 10
7.3764509852
 20
22.7213696225
 30
0.0
 11
7.3784770615
 21
22.7158828892
 31
0.0
 11
7.378344617
 21
22.7170465992
 31
0.0
 11
7.3764509852
 21
22.7213696225
 31
0.0
  0
SPLINE
  5
438
100
AcDbEntity
  8
RACCORDO
100
AcDbSpline
 62
7
  6
CONTINUOUS
 70
0
 71
3
 72
12
 73
8
 74
6
 42
0.0000001
 43
0.0000001
 44
0.0000000001
 12
-0.0562867789
 22
0.0931179267
 32
0.0
 13
-0.0879275831
 23
0.0640928225
 33
0.0
 40
0.0
 40
0.0
 40
0.0
 40
0.0
 40
0.0637627611
 40
0.1470196742
 40
0.3678913705
 40
0.6544802791
 40
1.0
 40
1.0
 40
1.0
 40
1.0
 10
7.3764509852
 20
22.7213696225
 30
0.0
 10
7.3752546517
 20
22.7233487745
 30
0.0
 10
7.371991693
 20
22.7275972241
 30
0.0
 10
7.3628953551
 20
22.7373633989
 30
0.0
 10
7.3468898941
 20
22.7516615247
 30
0.0
 10
7.3227820736
 20
22.7710478511
 30
0.0
 10
7.3044058363
 20
22.7847676387
 30
0.0
 10
7.2942789317
 20
22.7921494167
 30
0.0
 11
7.3764509852
 21
22.7213696225
 31
0.0
 11
7.3723543382
 21
22.7269688897
 31
0.0
 11
7.3662439621
 21
22.7336568564
 31
0.0
 11
7.3485582048
 21
22.7499288782
 31
0.0
 11
7.3243426132
 21
22.7695755677
 31
0.0
 11
7.2942789317
 21
22.7921494167
 31
0.0
  0
SPLINE
  5
439
100
AcDbEntity
  8
RACCORDO
100
AcDbSpline
 62
7
  6
CONTINUOUS
 70
0
 71
3
 72
10
 73
6
 74
4
 42
0.0000001
 43
0.0000001
 44
0.0000000001
 12
-0.0001212048
 22
-0.3024299942
 32
0.0
 13
-0.1477248048
 23
-0.2638963776
 33
0.0
 40
0.0
 40
0.0
 40
0.0
 40
0.0
 40
0.2413789779
 40
0.4900689452
 40
1.0
 40
1.0
 40
1.0
 40
1.0
 10
7.378477002
 20
23.2921030377
 30
0.0
 10
7.3784672499
 20
23.2677696234
 30
0.0
 10
7.3738316047
 20
23.2183117634
 30
0.0
 10
7.3503186497
 20
23.120091476
 30
0.0
 10
7.3193887535
 20
23.0492648902
 30
0.0
 10
7.2942789317
 20
23.0044085708
 30
0.0
 11
7.378477002
 21
23.2921030377
 31
0.0
 11
7.37222992
 21
23.2193705809
 31
0.0
 11
7.3550542178
 21
23.1461467008
 31
0.0
 11
7.2942789317
 21
23.0044085708
 31
0.0
  0
SPLINE
  5
43A
100
AcDbEntity
  8
RACCORDO
100
AcDbSpline
 62
7
  6
CONTINUOUS
 70
0
 71
3
 72
9
 73
5
 74
3
 42
0.0000001
 43
0.0000001
 44
0.0000000001
 12
-0.4347732533
 22
0.0873379156
 32
0.0
 13
-0.4394369151
 23
-0.0595893528
 33
0.0
 40
0.0
 40
0.0
 40
0.0
 40
0.0
 40
0.4886809648
 40
1.0
 40
1.0
 40
1.0
 40
1.0
 10
6.6301805222
 20
23.8053820463
 30
0.0
 10
6.5593587179
 20
23.8196088386
 30
0.0
 10
6.4114759823
 20
23.8347587566
 30
0.0
 10
6.2632371407
 20
23.8263567167
 30
0.0
 10
6.1883396542
 20
23.8162003266
 30
0.0
 11
6.6301805222
 21
23.8053820463
 31
0.0
 11
6.4147387207
 21
23.8287913702
 31
0.0
 11
6.1883396542
 21
23.8162003266
 31
0.0
  0
SPLINE
  5
43B
100
AcDbEntity
  8
RACCORDO
100
AcDbSpline
 62
7
  6
CONTINUOUS
 70
0
 71
3
 72
13
 73
9
 74
7
 42
0.0000001
 43
0.0000001
 44
0.0000000001
 12
0.8552249532
 22
0.0451503374
 32
0.0
 13
-0.0
 23
-0.8564159466
 33
0.0
 40
0.0
 40
0.0
 40
0.0
 40
0.0
 40
0.0955392951
 40
0.2047937591
 40
0.3279175556
 40
0.4616202286
 40
0.7394271949
 40
1.0
 40
1.0
 40
1.0
 40
1.0
 10
22.2428857896
 20
-18.8898427433
 30
0.0
 10
22.2701216527
 20
-18.8884048661
 30
0.0
 10
22.3293291639
 20
-18.8973160344
 30
0.0
 10
22.4142115029
 20
-18.9390997159
 30
0.0
 10
22.4956132522
 20
-19.0058315569
 30
0.0
 10
22.5941888603
 20
-19.1232318293
 30
0.0
 10
22.6814300514
 20
-19.2971680369
 30
0.0
 10
22.7105510563
 20
-19.4510640998
 30
0.0
 10
22.7105510563
 20
-19.525450335
 30
0.0
 11
22.2428857896
 21
-18.8898427433
 31
0.0
 11
22.3240155055
 21
-18.9004590862
 31
0.0
 11
22.408746874
 21
-18.9401507518
 31
0.0
 11
22.491019111
 21
-19.0061050206
 31
0.0
 11
22.5652482518
 21
-19.0932913319
 31
0.0
 11
22.6728131151
 21
-19.30550567
 31
0.0
 11
22.7105510563
 21
-19.525450335
 31
0.0
  0
SPLINE
  5
43C
100
AcDbEntity
  8
RACCORDO
100
AcDbSpline
 62
7
  6
CONTINUOUS
 70
0
 71
3
 72
10
 73
6
 74
4
 42
0.0000001
 43
0.0000001
 44
0.0000000001
 12
0.0
 22
0.3313531792
 32
0.0
 13
0.2113874143
 23
0.2551671813
 33
0.0
 40
0.0
 40
0.0
 40
0.0
 40
0.0
 40
0.2142195424
 40
0.4699558193
 40
1.0
 40
1.0
 40
1.0
 40
1.0
 10
3.9834092468
 20
18.3661263002
 30
0.0
 10
3.9834092468
 20
18.3897870756
 30
0.0
 10
3.9896597933
 20
18.4417408113
 30
0.0
 10
4.0213433034
 20
18.5477938733
 30
0.0
 10
4.0653567572
 20
18.6249433614
 30
0.0
 10
4.1027049802
 20
18.6700266546
 30
0.0
 11
3.9834092468
 21
18.3661263002
 31
0.0
 11
3.9909026849
 21
18.436711986
 31
0.0
 11
4.0146771768
 21
18.5180475654
 31
0.0
 11
4.1027049802
 21
18.6700266546
 31
0.0
  0
SPLINE
  5
43D
100
AcDbEntity
  8
RACCORDO
100
AcDbSpline
 62
7
  6
CONTINUOUS
 70
0
 71
3
 72
10
 73
6
 74
4
 42
0.0000001
 43
0.0000001
 44
0.0000000001
 12
0.0
 22
0.3313531792
 32
0.0
 13
0.2113874143
 23
0.2551671813
 33
0.0
 40
0.0
 40
0.0
 40
0.0
 40
0.0
 40
0.2142195424
 40
0.4699558193
 40
1.0
 40
1.0
 40
1.0
 40
1.0
 10
17.3477274112
 20
11.6839672179
 30
0.0
 10
17.3477274112
 20
11.7076279934
 30
0.0
 10
17.3539779578
 20
11.759581729
 30
0.0
 10
17.3856614679
 20
11.8656347911
 30
0.0
 10
17.4296749216
 20
11.9427842792
 30
0.0
 10
17.4670231446
 20
11.9878675724
 30
0.0
 11
17.3477274112
 21
11.6839672179
 31
0.0
 11
17.3552208493
 21
11.7545529038
 31
0.0
 11
17.3789953412
 21
11.8358884832
 31
0.0
 11
17.4670231446
 21
11.9878675724
 31
0.0
  0
SPLINE
  5
43E
100
AcDbEntity
  8
RACCORDO
100
AcDbSpline
 62
7
  6
CONTINUOUS
 70
0
 71
3
 72
9
 73
5
 74
3
 42
0.0000001
 43
0.0000001
 44
0.0000000001
 12
0.0
 22
-0.2736084325
 32
0.0
 13
0.2447409844
 23
-0.1223250787
 33
0.0
 40
0.0
 40
0.0
 40
0.0
 40
0.0
 40
0.499800677
 40
1.0
 40
1.0
 40
1.0
 40
1.0
 10
14.0900109646
 20
12.3986118789
 30
0.0
 10
14.0900109646
 20
12.3530286523
 30
0.0
 10
14.1159600933
 20
12.2599314941
 30
0.0
 10
14.1877332704
 20
12.1952698561
 30
0.0
 10
14.2285396953
 20
12.1748742155
 30
0.0
 11
14.0900109646
 21
12.3986118789
 31
0.0
 11
14.1273966289
 21
12.2670718202
 31
0.0
 11
14.2285396953
 21
12.1748742155
 31
0.0
  0
SPLINE
  5
43F
100
AcDbEntity
  8
RACCORDO
100
AcDbSpline
 62
7
  6
CONTINUOUS
 70
0
 71
3
 72
9
 73
5
 74
3
 42
0.0000001
 43
0.0000001
 44
0.0000000001
 12
0.0
 22
-0.2128428747
 32
0.0
 13
-0.0960815572
 23
-0.1899221516
 33
0.0
 40
0.0
 40
0.0
 40
0.0
 40
0.0
 40
0.4554614407
 40
1.0
 40
1.0
 40
1.0
 40
1.0
 10
14.7971177458
 20
-27.7974388699
 30
0.0
 10
14.7971177458
 20
-27.8297527774
 30
0.0
 10
14.7857552618
 20
-27.900655016
 30
0.0
 10
14.7600263033
 20
-27.9673171624
 30
0.0
 10
14.7425862658
 20
-28.0017904741
 30
0.0
 11
14.7971177458
 21
-27.7974388699
 31
0.0
 11
14.783787144
 21
-27.8934596624
 31
0.0
 11
14.7425862658
 21
-28.0017904741
 31
0.0
  0
SPLINE
  5
440
100
AcDbEntity
  8
RACCORDO
100
AcDbSpline
 62
7
  6
CONTINUOUS
 70
0
 71
3
 72
9
 73
5
 74
3
 42
0.0000001
 43
0.0000001
 44
0.0000000001
 12
-0.0409055421
 22
-0.0808570217
 32
0.0
 13
-0.0536657316
 23
-0.0730144546
 33
0.0
 40
0.0
 40
0.0
 40
0.0
 40
0.0
 40
0.2539258716
 40
1.0
 40
1.0
 40
1.0
 40
1.0
 10
14.7425862658
 20
-28.0017904741
 30
0.0
 10
14.7391239406
 20
-28.0086343706
 30
0.0
 10
14.7249450354
 20
-28.0353074739
 30
0.0
 10
14.7085948302
 20
-28.0608319361
 30
0.0
 10
14.6952486255
 20
-28.0789900013
 30
0.0
 11
14.7425862658
 21
-28.0017904741
 31
0.0
 11
14.731783157
 21
-28.0221062901
 31
0.0
 11
14.6952486255
 21
-28.0789900013
 31
0.0
  0
SPLINE
  5
441
100
AcDbEntity
  8
RACCORDO
100
AcDbSpline
 62
7
  6
CONTINUOUS
 70
0
 71
3
 72
8
 73
4
 74
2
 42
0.0000001
 43
0.0000001
 44
0.0000000001
 12
-0.0393289976
 22
0.0920770058
 32
0.0
 13
0.0000109886
 23
0.1001246469
 33
0.0
 40
0.0
 40
0.0
 40
0.0
 40
0.0
 40
1.0
 40
1.0
 40
1.0
 40
1.0
 10
14.1101256091
 20
-29.3505369088
 30
0.0
 10
14.0970159432
 20
-29.3198445736
 30
0.0
 10
14.0900407592
 20
-29.2858215726
 30
0.0
 10
14.090044422
 20
-29.2524466903
 30
0.0
 11
14.1101256091
 21
-29.3505369088
 31
0.0
 11
14.090044422
 21
-29.2524466903
 31
0.0
  0
SPLINE
  5
442
100
AcDbEntity
  8
RACCORDO
100
AcDbSpline
 62
7
  6
CONTINUOUS
 70
0
 71
3
 72
8
 73
4
 74
2
 42
0.0000001
 43
0.0000001
 44
0.0000000001
 12
0.0453095441
 22
0.0976716848
 32
0.0
 13
0.0000561267
 23
0.1076694463
 33
0.0
 40
0.0
 40
0.0
 40
0.0
 40
0.0
 40
1.0
 40
1.0
 40
1.0
 40
1.0
 10
18.0316316471
 20
-28.9685592147
 30
0.0
 10
18.0467348285
 20
-28.9360019864
 30
0.0
 10
18.0548122136
 20
-28.8993086172
 30
0.0
 10
18.0548309225
 20
-28.8634188018
 30
0.0
 11
18.0316316471
 21
-28.9685592147
 31
0.0
 11
18.0548309225
 21
-28.8634188018
 31
0.0
  0
SPLINE
  5
443
100
AcDbEntity
  8
RACCORDO
100
AcDbSpline
 62
7
  6
CONTINUOUS
 70
0
 71
3
 72
14
 73
10
 74
8
 42
0.0000001
 43
0.0000001
 44
0.0000000001
 12
0.0365458261
 22
-0.0298401421
 32
0.0
 13
-0.0028726914
 23
0.0470933024
 33
0.0
 40
0.0
 40
0.0
 40
0.0
 40
0.0
 40
0.012818703
 40
0.056653067
 40
0.1338755598
 40
0.2438151093
 40
0.3858889478
 40
0.5598677188
 40
1.0
 40
1.0
 40
1.0
 40
1.0
 10
17.3577668643
 20
-28.1771761852
 30
0.0
 10
17.357923021
 20
-28.1773036892
 30
0.0
 10
17.3569055947
 20
-28.1756782043
 30
0.0
 10
17.3567258868
 20
-28.1746142644
 30
0.0
 10
17.3550208712
 20
-28.1706972639
 30
0.0
 10
17.353615216
 20
-28.1660039182
 30
0.0
 10
17.3518594393
 20
-28.1594220898
 30
0.0
 10
17.3496170837
 20
-28.147788792
 30
0.0
 10
17.3486119095
 20
-28.1381358503
 30
0.0
 10
17.3481904547
 20
-28.1312267561
 30
0.0
 11
17.3577668643
 21
-28.1771761852
 31
0.0
 11
17.357510797
 21
-28.1766282718
 31
0.0
 11
17.3566748559
 21
-28.1747366021
 31
0.0
 11
17.3553615041
 21
-28.1713381274
 31
0.0
 11
17.3537595017
 21
-28.166404673
 31
0.0
 11
17.352064785
 21
-28.1599192796
 31
0.0
 11
17.3504718056
 21
-28.1518668699
 31
0.0
 11
17.3481904547
 21
-28.1312267561
 31
0.0
  0
SPLINE
  5
444
100
AcDbEntity
  8
RACCORDO
100
AcDbSpline
 62
7
  6
CONTINUOUS
 70
0
 71
3
 72
9
 73
5
 74
3
 42
0.0000001
 43
0.0000001
 44
0.0000000001
 12
-0.0727918694
 22
0.1201834818
 32
0.0
 13
-0.1256842271
 23
0.0628187919
 33
0.0
 40
0.0
 40
0.0
 40
0.0
 40
0.0
 40
0.4995799822
 40
1.0
 40
1.0
 40
1.0
 40
1.0
 10
18.0186732048
 20
-28.3825441983
 30
0.0
 10
18.0065514179
 20
-28.3625304444
 30
0.0
 10
17.9764738054
 20
-28.3257032
 30
0.0
 10
17.9372704293
 20
-28.2988244612
 30
0.0
 10
17.9163054616
 20
-28.2883458675
 30
0.0
 11
18.0186732048
 21
-28.3825441983
 31
0.0
 11
17.9742214622
 21
-28.3282170858
 31
0.0
 11
17.9163054616
 21
-28.2883458675
 31
0.0
  0
SPLINE
  5
445
100
AcDbEntity
  8
RACCORDO
100
AcDbSpline
 62
7
  6
CONTINUOUS
 70
0
 71
3
 72
11
 73
7
 74
5
 42
0.0000001
 43
0.0000001
 44
0.0000000001
 12
0.4059943767
 22
0.1943178401
 32
0.0
 13
0.4025879436
 23
-0.2012804126
 33
0.0
 40
0.0
 40
0.0
 40
0.0
 40
0.0
 40
0.2781998925
 40
0.5340397174
 40
0.7720061744
 40
1.0
 40
1.0
 40
1.0
 40
1.0
 10
19.1253224525
 20
17.2780927781
 30
0.0
 10
19.1629716498
 20
17.2961125122
 30
0.0
 10
19.2382099484
 20
17.3250761705
 30
0.0
 10
19.3531931505
 20
17.3449872334
 30
0.0
 10
19.462361466
 20
17.338398072
 30
0.0
 10
19.5295771141
 20
17.3157606231
 30
0.0
 10
19.5601729692
 20
17.300463726
 30
0.0
 11
19.1253224525
 21
17.2780927781
 31
0.0
 11
19.2425275966
 21
17.322166694
 31
0.0
 11
19.3561605854
 21
17.3408195504
 31
0.0
 11
19.4630199577
 21
17.3335122519
 31
0.0
 11
19.5601729692
 21
17.300463726
 31
0.0
  0
SPLINE
  5
446
100
AcDbEntity
  8
RACCORDO
100
AcDbSpline
 62
7
  6
CONTINUOUS
 70
0
 71
3
 72
11
 73
7
 74
5
 42
0.0000001
 43
0.0000001
 44
0.0000000001
 12
0.0
 22
0.6297433202
 32
0.0
 13
-0.563267137
 23
0.2816145976
 33
0.0
 40
0.0
 40
0.0
 40
0.0
 40
0.0
 40
0.2897555999
 40
0.5495832416
 40
0.7828477353
 40
1.0
 40
1.0
 40
1.0
 40
1.0
 10
15.5774478316
 20
18.8809026509
 30
0.0
 10
15.5774478316
 20
18.9417265354
 30
0.0
 10
15.5676348851
 20
19.0575316141
 30
0.0
 10
15.5181286631
 20
19.2159108884
 30
0.0
 10
15.435462335
 20
19.3427123686
 30
0.0
 10
15.3583038603
 20
19.4013996537
 30
0.0
 10
15.3175322821
 20
19.4217840696
 30
0.0
 11
15.5774478316
 21
18.8809026509
 31
0.0
 11
15.5601674202
 21
19.0625542177
 31
0.0
 11
15.5091715782
 21
19.2180292113
 31
0.0
 11
15.4269532492
 21
19.3397617194
 31
0.0
 11
15.3175322821
 21
19.4217840696
 31
0.0
  0
SPLINE
  5
447
100
AcDbEntity
  8
RACCORDO
100
AcDbSpline
 62
7
  6
CONTINUOUS
 70
0
 71
3
 72
9
 73
5
 74
3
 42
0.0000001
 43
0.0000001
 44
0.0000000001
 12
0.0
 22
-0.2680487896
 32
0.0
 13
-0.1943432235
 23
-0.1846100352
 33
0.0
 40
0.0
 40
0.0
 40
0.0
 40
0.0
 40
0.5433964617
 40
1.0
 40
1.0
 40
1.0
 40
1.0
 10
22.7105510563
 20
13.3908595631
 30
0.0
 10
22.7105510563
 20
13.3423073085
 30
0.0
 10
22.6998804204
 20
13.2521718182
 30
0.0
 10
22.654445303
 20
13.1705168095
 30
0.0
 10
22.6248660352
 20
13.1424189444
 30
0.0
 11
22.7105510563
 21
13.3908595631
 31
0.0
 11
22.6886890385
 21
13.2468528097
 31
0.0
 11
22.6248660352
 21
13.1424189444
 31
0.0
  0
SPLINE
  5
448
100
AcDbEntity
  8
RACCORDO
100
AcDbSpline
 62
7
  6
CONTINUOUS
 70
0
 71
3
 72
11
 73
7
 74
5
 42
0.0000001
 43
0.0000001
 44
0.0000000001
 12
0.0
 22
0.3148625572
 32
0.0
 13
-0.2816217243
 23
0.1408106329
 33
0.0
 40
0.0
 40
0.0
 40
0.0
 40
0.0
 40
0.2897543213
 40
0.5495826678
 40
0.7828479026
 40
1.0
 40
1.0
 40
1.0
 40
1.0
 10
13.1025740975
 20
19.7937646581
 30
0.0
 10
13.1025740975
 20
19.8241755869
 30
0.0
 10
13.0976679068
 20
19.8820763452
 30
0.0
 10
13.0729165939
 20
19.9612640451
 30
0.0
 10
13.031586054
 20
20.0246637472
 30
0.0
 10
12.9930094311
 20
20.0540086634
 30
0.0
 10
12.972624515
 20
20.0642011049
 30
0.0
 11
13.1025740975
 21
19.7937646581
 31
0.0
 11
13.0939345089
 21
19.8845874463
 31
0.0
 11
13.0684383095
 21
19.9623232522
 31
0.0
 11
13.027331758
 21
20.0231889903
 31
0.0
 11
12.972624515
 21
20.0642011049
 31
0.0
  0
SPLINE
  5
449
100
AcDbEntity
  8
RACCORDO
100
AcDbSpline
 62
7
  6
CONTINUOUS
 70
0
 71
3
 72
10
 73
6
 74
4
 42
0.0000001
 43
0.0000001
 44
0.0000000001
 12
0.2068623626
 22
0.1034311813
 32
0.0
 13
0.2068624299
 23
-0.1034310465
 33
0.0
 40
0.0
 40
0.0
 40
0.0
 40
0.0
 40
0.5340990186
 40
0.7722795496
 40
1.0
 40
1.0
 40
1.0
 40
1.0
 10
17.6987681752
 20
17.5751269305
 30
0.0
 10
17.7355965035
 20
17.5935410946
 30
0.0
 10
17.7943439201
 20
17.612602054
 30
0.0
 10
17.8720553253
 20
17.6086874778
 30
0.0
 10
17.9066697148
 20
17.5971784922
 30
0.0
 10
17.9223719833
 20
17.5893273707
 30
0.0
 11
17.6987681752
 21
17.5751269305
 31
0.0
 11
17.8174607251
 21
17.6093430589
 31
0.0
 11
17.8724522699
 21
17.6061152929
 31
0.0
 11
17.9223719833
 21
17.5893273707
 31
0.0
  0
SPLINE
  5
44A
100
AcDbEntity
  8
RACCORDO
100
AcDbSpline
 62
7
  6
CONTINUOUS
 70
0
 71
3
 72
11
 73
7
 74
5
 42
0.0000001
 43
0.0000001
 44
0.0000000001
 12
-0.2177611583
 22
-0.1076335336
 32
0.0
 13
-0.0000045624
 23
-0.2429092415
 33
0.0
 40
0.0
 40
0.0
 40
0.0
 40
0.0
 40
0.3029527246
 40
0.5660238642
 40
0.7938220146
 40
1.0
 40
1.0
 40
1.0
 40
1.0
 10
6.455782049
 20
17.5418020542
 30
0.0
 10
6.4337916036
 20
17.5309327635
 30
0.0
 10
6.3940405699
 20
17.507593404
 30
0.0
 10
6.3457509152
 20
17.4643415857
 30
0.0
 10
6.3147344372
 20
17.4161190517
 30
0.0
 10
6.3072935851
 20
17.3807087659
 30
0.0
 10
6.3072932715
 20
17.3640145865
 30
0.0
 11
6.455782049
 21
17.5418020542
 31
0.0
 11
6.3927634131
 21
17.503800185
 31
0.0
 11
6.3459082094
 21
17.46034782
 31
0.0
 11
6.3170428799
 21
17.4131389772
 31
0.0
 11
6.3072932715
 21
17.3640145865
 31
0.0
  0
SPLINE
  5
44B
100
AcDbEntity
  8
RACCORDO
100
AcDbSpline
 62
253
  6
CONTINUOUS
 70
0
 71
3
 72
11
 73
7
 74
5
 42
0.0000001
 43
0.0000001
 44
0.0000000001
 12
-0.0000219006
 22
-0.1203048987
 32
0.0
 13
-0.1076039744
 23
-0.0538019872
 33
0.0
 40
0.0
 40
0.0
 40
0.0
 40
0.0
 40
0.2064881634
 40
0.4345389747
 40
0.6981240661
 40
1.0
 40
1.0
 40
1.0
 40
1.0
 10
4.6905160292
 20
19.4696685865
 30
0.0
 10
4.6905145218
 20
19.461388074
 30
0.0
 10
4.6868395677
 20
19.4438345913
 30
0.0
 10
4.6715707089
 20
19.4198426404
 30
0.0
 10
4.6477096033
 20
19.3983761361
 30
0.0
 10
4.6281204067
 20
19.3867051848
 30
0.0
 10
4.6172927233
 20
19.3812913431
 30
0.0
 11
4.6905160292
 21
19.4696685865
 31
0.0
 11
4.6857057187
 21
19.445297232
 31
0.0
 11
4.6714805674
 21
19.4218375032
 31
0.0
 11
4.64829919
 21
19.4001999314
 31
0.0
 11
4.6172927233
 21
19.3812913431
 31
0.0
  0
SPLINE
  5
44C
100
AcDbEntity
  8
RACCORDO
100
AcDbSpline
 62
253
  6
CONTINUOUS
 70
0
 71
3
 72
9
 73
5
 74
3
 42
0.0000001
 43
0.0000001
 44
0.0000000001
 12
0.1030200108
 22
0.0514057739
 32
0.0
 13
0.102978352
 23
-0.051489176
 33
0.0
 40
0.0
 40
0.0
 40
0.0
 40
0.0
 40
0.46393649
 40
1.0
 40
1.0
 40
1.0
 40
1.0
 10
2.985238001
 20
20.7163587811
 30
0.0
 10
3.0011695817
 20
20.7243084526
 30
0.0
 10
3.0411210931
 20
20.7309456385
 30
0.0
 10
3.0786121648
 20
20.7184519454
 30
0.0
 10
3.0970131437
 20
20.7092514559
 30
0.0
 11
2.985238001
 21
20.7163587811
 31
0.0
 11
3.0377099318
 21
20.7263492438
 31
0.0
 11
3.0970131437
 21
20.7092514559
 31
0.0
  0
SPLINE
  5
44D
100
AcDbEntity
  8
RACCORDO
100
AcDbSpline
 62
253
  6
CONTINUOUS
 70
0
 71
3
 72
9
 73
5
 74
3
 42
0.0000001
 43
0.0000001
 44
0.0000000001
 12
-0.1030214681
 22
0.0514580411
 32
0.0
 13
-0.1030003995
 23
-0.0515001998
 33
0.0
 40
0.0
 40
0.0
 40
0.0
 40
0.0
 40
0.4639122062
 40
1.0
 40
1.0
 40
1.0
 40
1.0
 10
4.5523154113
 20
20.0445965967
 30
0.0
 10
4.5363844392
 20
20.0525539345
 30
0.0
 10
4.4964223694
 20
20.0591912383
 30
0.0
 10
4.4589217803
 20
20.0467028899
 30
0.0
 10
4.440516028
 20
20.0375000138
 30
0.0
 11
4.5523154113
 21
20.0445965967
 31
0.0
 11
4.4998364017
 21
20.0545960687
 31
0.0
 11
4.440516028
 21
20.0375000138
 31
0.0
  0
SPLINE
  5
44E
100
AcDbEntity
  8
RACCORDO
100
AcDbSpline
 62
253
  6
CONTINUOUS
 70
0
 71
3
 72
9
 73
5
 74
3
 42
0.0000001
 43
0.0000001
 44
0.0000000001
 12
-0.1005381304
 22
0.0419104889
 32
0.0
 13
-0.0974244518
 23
-0.0487122259
 33
0.0
 40
0.0
 40
0.0
 40
0.0
 40
0.0
 40
0.4649319752
 40
1.0
 40
1.0
 40
1.0
 40
1.0
 10
3.2029655906
 20
20.7190225408
 30
0.0
 10
3.1873844601
 20
20.7255177163
 30
0.0
 10
3.149619103
 20
20.7299165193
 30
0.0
 10
3.11438938
 20
20.7179395741
 30
0.0
 10
3.0970131437
 20
20.7092514559
 30
0.0
 11
3.2029655906
 21
20.7190225408
 31
0.0
 11
3.152815923
 21
20.7260681943
 31
0.0
 11
3.0970131437
 21
20.7092514559
 31
0.0
  0
SPLINE
  5
44F
100
AcDbEntity
  8
RACCORDO
100
AcDbSpline
 62
253
  6
CONTINUOUS
 70
0
 71
3
 72
11
 73
7
 74
5
 42
0.0000001
 43
0.0000001
 44
0.0000000001
 12
0.0
 22
-0.1203158962
 32
0.0
 13
-0.107613809
 23
-0.0538069045
 33
0.0
 40
0.0
 40
0.0
 40
0.0
 40
0.0
 40
0.2064758915
 40
0.434520967
 40
0.6981193998
 40
1.0
 40
1.0
 40
1.0
 40
1.0
 10
4.690516028
 20
19.8209936628
 30
0.0
 10
4.690516028
 20
19.8127128855
 30
0.0
 10
4.6868450027
 20
19.795157492
 30
0.0
 10
4.6715756751
 20
19.7711624218
 30
0.0
 10
4.6477126072
 20
19.7496931891
 30
0.0
 10
4.6281215637
 20
19.7380197354
 30
0.0
 10
4.6172927233
 20
19.7326053152
 30
0.0
 11
4.690516028
 21
19.8209936628
 31
0.0
 11
4.6857101904
 21
19.7966206166
 31
0.0
 11
4.6714859111
 21
19.7731582338
 31
0.0
 11
4.6483019519
 21
19.7515168281
 31
0.0
 11
4.6172927233
 21
19.7326053152
 31
0.0
  0
SPLINE
  5
450
100
AcDbEntity
  8
RACCORDO
100
AcDbSpline
 62
253
  6
CONTINUOUS
 70
0
 71
3
 72
9
 73
5
 74
3
 42
0.0000001
 43
0.0000001
 44
0.0000000001
 12
0.1030234046
 22
0.0514586954
 32
0.0
 13
0.1030022105
 23
-0.0515011053
 33
0.0
 40
0.0
 40
0.0
 40
0.0
 40
0.0
 40
0.4639008303
 40
1.0
 40
1.0
 40
1.0
 40
1.0
 10
0.8638918742
 20
19.6556867831
 30
0.0
 10
0.8798227552
 20
19.663644027
 30
0.0
 10
0.9197849188
 20
19.6702844715
 30
0.0
 10
0.9572863336
 20
19.6577945174
 30
0.0
 10
0.9756928001
 20
19.6485912841
 30
0.0
 11
0.8638918742
 21
19.6556867831
 31
0.0
 11
0.916370154
 21
19.6656881045
 31
0.0
 11
0.9756928001
 21
19.6485912841
 31
0.0
  0
SPLINE
  5
451
100
AcDbEntity
  8
RACCORDO
100
AcDbSpline
 62
253
  6
CONTINUOUS
 70
0
 71
3
 72
11
 73
7
 74
5
 42
0.0000001
 43
0.0000001
 44
0.0000000001
 12
-0.0000009308
 22
-0.1203159072
 32
0.0
 13
0.1076138189
 23
-0.0538069095
 33
0.0
 40
0.0
 40
0.0
 40
0.0
 40
0.0
 40
0.2064798395
 40
0.4345314102
 40
0.6981346754
 40
1.0
 40
1.0
 40
1.0
 40
1.0
 10
0.7256927797
 20
19.432084921
 30
0.0
 10
0.7256927157
 20
19.4238039846
 30
0.0
 10
0.7293630651
 20
19.4062479172
 30
0.0
 10
0.7446342404
 20
19.3822530528
 30
0.0
 10
0.7684974359
 20
19.3607845198
 30
0.0
 10
0.7880878114
 20
19.3491107323
 30
0.0
 10
0.7989161048
 20
19.3436965855
 30
0.0
 11
0.7256927797
 21
19.432084921
 31
0.0
 11
0.7304982977
 21
19.4077113253
 31
0.0
 11
0.7447237966
 21
19.384248765
 31
0.0
 11
0.7679086103
 21
19.3626074184
 31
0.0
 11
0.7989161048
 21
19.3436965855
 31
0.0
  0
SPLINE
  5
452
100
AcDbEntity
  8
RACCORDO
100
AcDbSpline
 62
253
  6
CONTINUOUS
 70
0
 71
3
 72
11
 73
7
 74
5
 42
0.0000001
 43
0.0000001
 44
0.0000000001
 12
-0.0000003376
 22
-0.1203159038
 32
0.0
 13
0.1076138159
 23
-0.0538069079
 33
0.0
 40
0.0
 40
0.0
 40
0.0
 40
0.0
 40
0.2064767537
 40
0.4345238264
 40
0.698124287
 40
1.0
 40
1.0
 40
1.0
 40
1.0
 10
0.7256927979
 20
19.0807709602
 30
0.0
 10
0.7256927746
 20
19.0724901478
 30
0.0
 10
0.7293635288
 20
19.0549345465
 30
0.0
 10
0.7446334826
 20
19.0309395513
 30
0.0
 10
0.7684966094
 20
19.009470548
 30
0.0
 10
0.788087439
 20
18.9977969463
 30
0.0
 10
0.7989161048
 20
18.9923826134
 30
0.0
 11
0.7256927979
 21
19.0807709602
 31
0.0
 11
0.7304984881
 21
19.0563977776
 31
0.0
 11
0.7447231602
 21
19.0329353498
 31
0.0
 11
0.767907442
 21
19.0112939292
 31
0.0
 11
0.7989161048
 21
18.9923826134
 31
0.0
  0
SPLINE
  5
453
100
AcDbEntity
  8
RACCORDO
100
AcDbSpline
 62
253
  6
CONTINUOUS
 70
0
 71
3
 72
9
 73
5
 74
3
 42
0.0000001
 43
0.0000001
 44
0.0000000001
 12
0.000018338
 22
-0.0977596867
 32
0.0
 13
0.0832907687
 23
-0.0511820725
 33
0.0
 40
0.0
 40
0.0
 40
0.0
 40
0.0
 40
0.43756309
 40
1.0
 40
1.0
 40
1.0
 40
1.0
 10
1.4328108197
 20
18.3804192687
 30
0.0
 10
1.4328134944
 20
18.3661605919
 30
0.0
 10
1.4462751317
 20
18.3337324866
 30
0.0
 10
1.472777338
 20
18.3133971667
 30
0.0
 10
1.4883926056
 20
18.3038016045
 30
0.0
 11
1.4328108197
 21
18.3804192687
 31
0.0
 11
1.447090892
 21
18.3400972103
 31
0.0
 11
1.4883926056
 21
18.3038016045
 31
0.0
  0
SPLINE
  5
454
100
AcDbEntity
  8
RACCORDO
100
AcDbSpline
 62
253
  6
CONTINUOUS
 70
0
 71
3
 72
9
 73
5
 74
3
 42
0.0000001
 43
0.0000001
 44
0.0000000001
 12
0.0521414017
 22
-0.0307159736
 32
0.0
 13
0.0277387884
 23
-0.0537843511
 33
0.0
 40
0.0
 40
0.0
 40
0.0
 40
0.0
 40
0.2410446835
 40
1.0
 40
1.0
 40
1.0
 40
1.0
 10
2.7902286333
 20
18.0562875367
 30
0.0
 10
2.7944181025
 20
18.0538195627
 30
0.0
 10
2.8110304938
 20
18.0422651215
 30
0.0
 10
2.8237099906
 20
18.0255630043
 30
0.0
 10
2.8307274909
 20
18.0119563646
 30
0.0
 11
2.7902286333
 21
18.0562875367
 31
0.0
 11
2.8021982485
 21
18.0479501964
 31
0.0
 11
2.8307274909
 21
18.0119563646
 31
0.0
  0
SPLINE
  5
455
100
AcDbEntity
  8
RACCORDO
100
AcDbSpline
 62
253
  6
CONTINUOUS
 70
0
 71
3
 72
9
 73
5
 74
3
 42
0.0000001
 43
0.0000001
 44
0.0000000001
 12
0.0413719933
 22
-0.0802185656
 32
0.0
 13
-0.0
 23
-0.0902588505
 33
0.0
 40
0.0
 40
0.0
 40
0.0
 40
0.0
 40
0.2295706774
 40
1.0
 40
1.0
 40
1.0
 40
1.0
 10
2.8307274909
 20
18.0119563646
 30
0.0
 10
2.8338934231
 20
18.0058177544
 30
0.0
 10
2.8456212594
 20
17.9780106494
 30
0.0
 10
2.8495257703
 20
17.9473639169
 30
0.0
 10
2.8495257703
 20
17.9241845619
 30
0.0
 11
2.8307274909
 21
18.0119563646
 31
0.0
 11
2.8388658474
 21
17.9929007065
 31
0.0
 11
2.8495257703
 21
17.9241845619
 31
0.0
  0
SPLINE
  5
456
100
AcDbEntity
  8
RACCORDO
100
AcDbSpline
 62
253
  6
CONTINUOUS
 70
0
 71
3
 72
9
 73
5
 74
3
 42
0.0000001
 43
0.0000001
 44
0.0000000001
 12
-0.1030214681
 22
0.0514580411
 32
0.0
 13
-0.1030003995
 23
-0.0515001998
 33
0.0
 40
0.0
 40
0.0
 40
0.0
 40
0.0
 40
0.4639122062
 40
1.0
 40
1.0
 40
1.0
 40
1.0
 10
17.9166335758
 20
13.3624375145
 30
0.0
 10
17.9007026036
 20
13.3703948523
 30
0.0
 10
17.8607405338
 20
13.3770321561
 30
0.0
 10
17.8232399447
 20
13.3645438077
 30
0.0
 10
17.8048341924
 20
13.3553409316
 30
0.0
 11
17.9166335758
 21
13.3624375145
 31
0.0
 11
17.8641545661
 21
13.3724369865
 31
0.0
 11
17.8048341924
 21
13.3553409316
 31
0.0
  0
SPLINE
  5
457
100
AcDbEntity
  8
RACCORDO
100
AcDbSpline
 62
253
  6
CONTINUOUS
 70
0
 71
3
 72
9
 73
5
 74
3
 42
0.0000001
 43
0.0000001
 44
0.0000000001
 12
-0.1030200108
 22
0.0514057739
 32
0.0
 13
-0.102978352
 23
-0.051489176
 33
0.0
 40
0.0
 40
0.0
 40
0.0
 40
0.0
 40
0.46393649
 40
1.0
 40
1.0
 40
1.0
 40
1.0
 10
16.5731064508
 20
14.0341996989
 30
0.0
 10
16.5571748701
 20
14.0421493703
 30
0.0
 10
16.5172233587
 20
14.0487865563
 30
0.0
 10
16.4797322871
 20
14.0362928632
 30
0.0
 10
16.4613313081
 20
14.0270923737
 30
0.0
 11
16.5731064508
 21
14.0341996989
 31
0.0
 11
16.52063452
 21
14.0441901615
 31
0.0
 11
16.4613313081
 21
14.0270923737
 31
0.0
  0
SPLINE
  5
458
100
AcDbEntity
  8
RACCORDO
100
AcDbSpline
 62
253
  6
CONTINUOUS
 70
0
 71
3
 72
11
 73
7
 74
5
 42
0.0000001
 43
0.0000001
 44
0.0000000001
 12
0.1282325543
 22
0.3361386034
 32
0.0
 13
-0.321785952
 23
0.160892976
 33
0.0
 40
0.0
 40
0.0
 40
0.0
 40
0.0
 40
0.271130505
 40
0.5346867854
 40
0.7783356466
 40
1.0
 40
1.0
 40
1.0
 40
1.0
 10
17.4512808018
 20
-28.4906369214
 30
0.0
 10
17.4628700542
 20
-28.4602577783
 30
0.0
 10
17.4765342773
 20
-28.3964117211
 30
0.0
 10
17.4676739985
 20
-28.3019770698
 30
0.0
 10
17.4304069344
 20
-28.2207520296
 30
0.0
 10
17.3866686125
 20
-28.1824424791
 30
0.0
 10
17.3628924541
 20
-28.1705544
 30
0.0
 11
17.4512808018
 21
-28.4906369214
 31
0.0
 11
17.4716492334
 21
-28.3952432374
 31
0.0
 11
17.4620041065
 21
-28.3009160523
 31
0.0
 11
17.4238138043
 21
-28.2220158251
 31
0.0
 11
17.3628924541
 21
-28.1705544
 31
0.0
  0
SPLINE
  5
459
100
AcDbEntity
  8
RACCORDO
100
AcDbSpline
 62
253
  6
CONTINUOUS
 70
0
 71
3
 72
11
 73
7
 74
5
 42
0.0000001
 43
0.0000001
 44
0.0000000001
 12
0.0
 22
-0.1203158962
 32
0.0
 13
-0.107613809
 23
-0.0538069045
 33
0.0
 40
0.0
 40
0.0
 40
0.0
 40
0.0
 40
0.2064758915
 40
0.434520967
 40
0.6981193998
 40
1.0
 40
1.0
 40
1.0
 40
1.0
 10
18.0548341924
 20
13.1388345806
 30
0.0
 10
18.0548341924
 20
13.1305538033
 30
0.0
 10
18.0511631671
 20
13.1129984097
 30
0.0
 10
18.0358938395
 20
13.0890033396
 30
0.0
 10
18.0120307716
 20
13.0675341069
 30
0.0
 10
17.9924397281
 20
13.0558606532
 30
0.0
 10
17.9816108877
 20
13.050446233
 30
0.0
 11
18.0548341924
 21
13.1388345806
 31
0.0
 11
18.0500283549
 21
13.1144615344
 31
0.0
 11
18.0358040755
 21
13.0909991516
 31
0.0
 11
18.0126201163
 21
13.0693577459
 31
0.0
 11
17.9816108877
 21
13.050446233
 31
0.0
  0
SPLINE
  5
45A
100
AcDbEntity
  8
RACCORDO
100
AcDbSpline
 62
253
  6
CONTINUOUS
 70
0
 71
3
 72
11
 73
7
 74
5
 42
0.0000001
 43
0.0000001
 44
0.0000000001
 12
0.0
 22
-0.1203158962
 32
0.0
 13
-0.107613809
 23
-0.0538069045
 33
0.0
 40
0.0
 40
0.0
 40
0.0
 40
0.0
 40
0.2064758915
 40
0.434520967
 40
0.6981193998
 40
1.0
 40
1.0
 40
1.0
 40
1.0
 10
18.0548341924
 20
12.7875206085
 30
0.0
 10
18.0548341924
 20
12.7792398312
 30
0.0
 10
18.0511631671
 20
12.7616844377
 30
0.0
 10
18.0358938395
 20
12.7376893675
 30
0.0
 10
18.0120307716
 20
12.7162201349
 30
0.0
 10
17.9924397281
 20
12.7045466811
 30
0.0
 10
17.9816108877
 20
12.6991322609
 30
0.0
 11
18.0548341924
 21
12.7875206085
 31
0.0
 11
18.0500283549
 21
12.7631475623
 31
0.0
 11
18.0358040755
 21
12.7396851795
 31
0.0
 11
18.0126201163
 21
12.7180437738
 31
0.0
 11
17.9816108877
 21
12.6991322609
 31
0.0
  0
SPLINE
  5
45B
100
AcDbEntity
  8
RACCORDO
100
AcDbSpline
 62
253
  6
CONTINUOUS
 70
0
 71
3
 72
8
 73
4
 74
2
 42
0.0000001
 43
0.0000001
 44
0.0000000001
 12
0.0459306667
 22
0.120398991
 32
0.0
 13
-0.0060601394
 23
0.1287199203
 33
0.0
 40
0.0
 40
0.0
 40
0.0
 40
0.0
 40
1.0
 40
1.0
 40
1.0
 40
1.0
 10
17.9816108877
 20
-28.6004718785
 30
0.0
 10
17.9969211099
 20
-28.5603388815
 30
0.0
 10
18.0041610831
 20
-28.5161619467
 30
0.0
 10
18.0021410366
 20
-28.4732553066
 30
0.0
 11
17.9816108877
 21
-28.6004718785
 31
0.0
 11
18.0021410366
 21
-28.4732553066
 31
0.0
  0
SPLINE
  5
45C
100
AcDbEntity
  8
RACCORDO
100
AcDbSpline
 62
253
  6
CONTINUOUS
 70
0
 71
3
 72
9
 73
5
 74
3
 42
0.0000001
 43
0.0000001
 44
0.0000000001
 12
-0.0029646583
 22
0.0629705942
 32
0.0
 13
-0.0167103605
 23
0.0607852678
 33
0.0
 40
0.0
 40
0.0
 40
0.0
 40
0.0
 40
0.2541760267
 40
1.0
 40
1.0
 40
1.0
 40
1.0
 10
18.0021410366
 20
-28.4732553066
 30
0.0
 10
18.001889855
 20
-28.4679201015
 30
0.0
 10
18.0003467723
 20
-28.4469614675
 30
0.0
 10
17.9965686447
 20
-28.4261535079
 30
0.0
 10
17.9924143155
 20
-28.4110418046
 30
0.0
 11
18.0021410366
 21
-28.4732553066
 31
0.0
 11
18.0009610296
 21
-28.4572754712
 31
0.0
 11
17.9924143155
 21
-28.4110418046
 31
0.0
  0
SPLINE
  5
45D
100
AcDbEntity
  8
RACCORDO
100
AcDbSpline
 62
253
  6
CONTINUOUS
 70
0
 71
3
 72
9
 73
5
 74
3
 42
0.0000001
 43
0.0000001
 44
0.0000000001
 12
-0.0430761083
 22
0.1054895695
 32
0.0
 13
-0.093146532
 23
0.0656302061
 33
0.0
 40
0.0
 40
0.0
 40
0.0
 40
0.0
 40
0.5160521127
 40
1.0
 40
1.0
 40
1.0
 40
1.0
 10
17.9826588144
 20
-28.3823031029
 30
0.0
 10
17.9752489755
 20
-28.3641570645
 30
0.0
 10
17.9566042541
 20
-28.3304985944
 30
0.0
 10
17.929013368
 20
-28.3034188587
 30
0.0
 10
17.9139873456
 20
-28.2928316588
 30
0.0
 11
17.9826588144
 21
-28.3823031029
 31
0.0
 11
17.9536232286
 21
-28.3311699966
 31
0.0
 11
17.9139873456
 21
-28.2928316588
 31
0.0
  0
SPLINE
  5
45E
100
AcDbEntity
  8
RACCORDO
100
AcDbSpline
 62
253
  6
CONTINUOUS
 70
0
 71
3
 72
11
 73
7
 74
5
 42
0.0000001
 43
0.0000001
 44
0.0000000001
 12
0.0
 22
-0.3637747172
 32
0.0
 13
0.3562153171
 23
-0.0737746077
 33
0.0
 40
0.0
 40
0.0
 40
0.0
 40
0.0
 40
0.2934021086
 40
0.5509410244
 40
0.78010513
 40
1.0
 40
1.0
 40
1.0
 40
1.0
 10
17.2745041065
 20
-28.2040252691
 30
0.0
 10
17.2745041065
 20
-28.2396026921
 30
0.0
 10
17.2811271075
 20
-28.3067842248
 30
0.0
 10
17.3154353384
 20
-28.396508134
 30
0.0
 10
17.3734128485
 20
-28.4626216031
 30
0.0
 10
17.4251708282
 20
-28.4852293688
 30
0.0
 10
17.4512808018
 20
-28.4906369214
 30
0.0
 11
17.2745041065
 21
-28.2040252691
 31
0.0
 11
17.2865516388
 21
-28.3100754187
 31
0.0
 11
17.3218716495
 21
-28.3968486337
 31
0.0
 11
17.3780568846
 21
-28.458434296
 31
0.0
 11
17.4512808018
 21
-28.4906369214
 31
0.0
  0
SPLINE
  5
45F
100
AcDbEntity
  8
RACCORDO
100
AcDbSpline
 62
253
  6
CONTINUOUS
 70
0
 71
3
 72
11
 73
7
 74
5
 42
0.0000001
 43
0.0000001
 44
0.0000000001
 12
0.0
 22
0.3637747172
 32
0.0
 13
-0.3562153171
 23
0.0737746077
 33
0.0
 40
0.0
 40
0.0
 40
0.0
 40
0.0
 40
0.2934021086
 40
0.5509410244
 40
0.78010513
 40
1.0
 40
1.0
 40
1.0
 40
1.0
 10
16.5673973253
 20
11.2420254797
 30
0.0
 10
16.5673973253
 20
11.2776029027
 30
0.0
 10
16.5607743243
 20
11.3447844354
 30
0.0
 10
16.5264660934
 20
11.4345083446
 30
0.0
 10
16.4684885832
 20
11.5006218137
 30
0.0
 10
16.4167306036
 20
11.5232295795
 30
0.0
 10
16.39062063
 20
11.5286371321
 30
0.0
 11
16.5673973253
 21
11.2420254797
 31
0.0
 11
16.555349793
 21
11.3480756293
 31
0.0
 11
16.5200297823
 21
11.4348488443
 31
0.0
 11
16.4638445472
 21
11.4964345066
 31
0.0
 11
16.39062063
 21
11.5286371321
 31
0.0
  0
SPLINE
  5
460
100
AcDbEntity
  8
RACCORDO
100
AcDbSpline
 62
253
  6
CONTINUOUS
 70
0
 71
3
 72
11
 73
7
 74
5
 42
0.0000001
 43
0.0000001
 44
0.0000000001
 12
-0.1063646839
 22
-0.2788159098
 32
0.0
 13
-0.2922163674
 23
0.0605091078
 33
0.0
 40
0.0
 40
0.0
 40
0.0
 40
0.0
 40
0.2770958208
 40
0.5368340029
 40
0.7754612626
 40
1.0
 40
1.0
 40
1.0
 40
1.0
 10
16.39062063
 20
11.5286371321
 30
0.0
 10
16.3807962269
 20
11.5028842243
 30
0.0
 10
16.355034965
 20
11.4551879498
 30
0.0
 10
16.2994366186
 20
11.3999282347
 30
0.0
 10
16.2327971928
 20
11.3686868043
 30
0.0
 10
16.1850213633
 20
11.3677249494
 30
0.0
 10
16.1631500653
 20
11.372253829
 30
0.0
 11
16.39062063
 21
11.5286371321
 31
0.0
 11
16.3508108693
 21
11.4561611818
 31
0.0
 11
16.2951498552
 21
11.4022201729
 31
0.0
 11
16.2301500801
 21
11.3731358007
 31
0.0
 11
16.1631500653
 21
11.372253829
 31
0.0
  0
SPLINE
  5
461
100
AcDbEntity
  8
RACCORDO
100
AcDbSpline
 62
253
  6
CONTINUOUS
 70
0
 71
3
 72
11
 73
7
 74
5
 42
0.0000001
 43
0.0000001
 44
0.0000000001
 12
-0.1063646839
 22
-0.2788159098
 32
0.0
 13
-0.2922163674
 23
0.0605091078
 33
0.0
 40
0.0
 40
0.0
 40
0.0
 40
0.0
 40
0.2770958208
 40
0.5368340029
 40
0.7754612626
 40
1.0
 40
1.0
 40
1.0
 40
1.0
 10
15.8602905441
 20
11.6384720891
 30
0.0
 10
15.850466141
 20
11.6127191813
 30
0.0
 10
15.8247048791
 20
11.5650229068
 30
0.0
 10
15.7691065327
 20
11.5097631918
 30
0.0
 10
15.7024671069
 20
11.4785217613
 30
0.0
 10
15.6546912774
 20
11.4775599065
 30
0.0
 10
15.6328199794
 20
11.482088786
 30
0.0
 11
15.8602905441
 21
11.6384720891
 31
0.0
 11
15.8204807834
 21
11.5659961389
 31
0.0
 11
15.7648197693
 21
11.51205513
 31
0.0
 11
15.6998199942
 21
11.4829707577
 31
0.0
 11
15.6328199794
 21
11.482088786
 31
0.0
  0
SPLINE
  5
462
100
AcDbEntity
  8
RACCORDO
100
AcDbSpline
 62
253
  6
CONTINUOUS
 70
0
 71
3
 72
11
 73
7
 74
5
 42
0.0000001
 43
0.0000001
 44
0.0000000001
 12
0.0
 22
-0.1574168885
 32
0.0
 13
0.1407597042
 23
-0.0704754033
 33
0.0
 40
0.0
 40
0.0
 40
0.0
 40
0.0
 40
0.2893557828
 40
0.5494994154
 40
0.7826671555
 40
1.0
 40
1.0
 40
1.0
 40
1.0
 10
15.5067371535
 20
11.6384720891
 30
0.0
 10
15.5067371535
 20
11.6232889268
 30
0.0
 10
15.5092227615
 20
11.5943512338
 30
0.0
 10
15.5215343488
 20
11.5547554309
 30
0.0
 10
15.5422049655
 20
11.5230259232
 30
0.0
 10
15.5615157122
 20
11.5083833721
 30
0.0
 10
15.5717129479
 20
11.5032778321
 30
0.0
 11
15.5067371535
 21
11.6384720891
 31
0.0
 11
15.5110624849
 21
11.5931284316
 31
0.0
 11
15.523791042
 21
11.5542058375
 31
0.0
 11
15.5443283026
 21
11.5237847232
 31
0.0
 11
15.5717129479
 21
11.5032778321
 31
0.0
  0
SPLINE
  5
463
100
AcDbEntity
  8
RACCORDO
100
AcDbSpline
 62
253
  6
CONTINUOUS
 70
0
 71
3
 72
11
 73
7
 74
5
 42
0.0000001
 43
0.0000001
 44
0.0000000001
 12
0.0
 22
-0.1574253087
 32
0.0
 13
0.1407691098
 23
-0.0704754252
 33
0.0
 40
0.0
 40
0.0
 40
0.0
 40
0.0
 40
0.2893385886
 40
0.5494402709
 40
0.7826225719
 40
1.0
 40
1.0
 40
1.0
 40
1.0
 10
14.1632342693
 20
12.3102235312
 30
0.0
 10
14.1632342693
 20
12.295040459
 30
0.0
 10
14.1657171111
 20
12.2661038566
 30
0.0
 10
14.1780314167
 20
12.2265093155
 30
0.0
 10
14.1987016717
 20
12.1947756645
 30
0.0
 10
14.2180183645
 20
12.1801332027
 30
0.0
 10
14.2282183735
 20
12.1750266139
 30
0.0
 11
14.1632342693
 21
12.3102235312
 31
0.0
 11
14.167558153
 21
12.2648800073
 31
0.0
 11
14.1802860838
 21
12.2259618519
 31
0.0
 11
14.2008251657
 21
12.1955368326
 31
0.0
 11
14.2282183735
 21
12.1750266139
 31
0.0
  0
SPLINE
  5
464
100
AcDbEntity
  8
RACCORDO
100
AcDbSpline
 62
253
  6
CONTINUOUS
 70
0
 71
3
 72
9
 73
5
 74
3
 42
0.0000001
 43
0.0000001
 44
0.0000000001
 12
0.1005381304
 22
0.0419104889
 32
0.0
 13
0.0974244518
 23
-0.0487122259
 33
0.0
 40
0.0
 40
0.0
 40
0.0
 40
0.0
 40
0.4649319752
 40
1.0
 40
1.0
 40
1.0
 40
1.0
 10
16.3553788612
 20
14.0368634586
 30
0.0
 10
16.3709599917
 20
14.043358634
 30
0.0
 10
16.4087253488
 20
14.0477574371
 30
0.0
 10
16.4439550718
 20
14.0357804919
 30
0.0
 10
16.4613313081
 20
14.0270923737
 30
0.0
 11
16.3553788612
 21
14.0368634586
 31
0.0
 11
16.4055285288
 21
14.0439091121
 31
0.0
 11
16.4613313081
 21
14.0270923737
 31
0.0
  0
SPLINE
  5
465
100
AcDbEntity
  8
RACCORDO
100
AcDbSpline
 62
253
  6
CONTINUOUS
 70
0
 71
3
 72
9
 73
5
 74
3
 42
0.0000001
 43
0.0000001
 44
0.0000000001
 12
0.1029630562
 22
0.0511342226
 32
0.0
 13
0.1028245094
 23
-0.0514122547
 33
0.0
 40
0.0
 40
0.0
 40
0.0
 40
0.0
 40
0.4639602036
 40
1.0
 40
1.0
 40
1.0
 40
1.0
 10
14.228395
 20
12.9736187671
 30
0.0
 10
14.2443185868
 20
12.9815268485
 30
0.0
 10
14.284210579
 20
12.9880982011
 30
0.0
 10
14.3216382882
 20
12.9756185401
 30
0.0
 10
14.3400109646
 20
12.9664322019
 30
0.0
 11
14.228395
 21
12.9736187671
 31
0.0
 11
14.2808047212
 21
12.9835236372
 31
0.0
 11
14.3400109646
 21
12.9664322019
 31
0.0
  0
SPLINE
  5
466
100
AcDbEntity
  8
RACCORDO
100
AcDbSpline
 62
253
  6
CONTINUOUS
 70
0
 71
3
 72
11
 73
7
 74
5
 42
0.0000001
 43
0.0000001
 44
0.0000000001
 12
0.0000009308
 22
-0.1203157153
 32
0.0
 13
0.1076136473
 23
-0.0538068236
 33
0.0
 40
0.0
 40
0.0
 40
0.0
 40
0.0
 40
0.2065137508
 40
0.4345667416
 40
0.6981210498
 40
1.0
 40
1.0
 40
1.0
 40
1.0
 10
14.0900109441
 20
12.7499258632
 30
0.0
 10
14.0900110082
 20
12.74164358
 30
0.0
 10
14.0936868693
 20
12.7240872887
 30
0.0
 10
14.1089529838
 20
12.7000912267
 30
0.0
 10
14.1328144777
 20
12.6786215547
 30
0.0
 10
14.1524055043
 20
12.6669518858
 30
0.0
 10
14.1632342693
 20
12.6615375033
 30
0.0
 11
14.0900109441
 21
12.7499258632
 31
0.0
 11
14.0948205968
 21
12.7255489647
 31
0.0
 11
14.1090446097
 21
12.7020853549
 31
0.0
 11
14.1322241424
 21
12.6804470572
 31
0.0
 11
14.1632342693
 21
12.6615375033
 31
0.0
  0
SPLINE
  5
467
100
AcDbEntity
  8
RACCORDO
100
AcDbSpline
 62
253
  6
CONTINUOUS
 70
0
 71
3
 72
11
 73
7
 74
5
 42
0.0000001
 43
0.0000001
 44
0.0000000001
 12
0.0
 22
-0.1203158962
 32
0.0
 13
0.107613809
 23
-0.0538069045
 33
0.0
 40
0.0
 40
0.0
 40
0.0
 40
0.0
 40
0.2064758915
 40
0.434520967
 40
0.6981193998
 40
1.0
 40
1.0
 40
1.0
 40
1.0
 10
14.0900109646
 20
12.3986118789
 30
0.0
 10
14.0900109646
 20
12.3903311016
 30
0.0
 10
14.0936819899
 20
12.372775708
 30
0.0
 10
14.1089513174
 20
12.3487806378
 30
0.0
 10
14.1328143853
 20
12.3273114052
 30
0.0
 10
14.1524054288
 20
12.3156379514
 30
0.0
 10
14.1632342693
 20
12.3102235312
 30
0.0
 11
14.0900109646
 21
12.3986118789
 31
0.0
 11
14.0948168021
 21
12.3742388327
 31
0.0
 11
14.1090410814
 21
12.3507764498
 31
0.0
 11
14.1322250407
 21
12.3291350442
 31
0.0
 11
14.1632342693
 21
12.3102235312
 31
0.0
  0
SPLINE
  5
468
100
AcDbEntity
  8
RACCORDO
100
AcDbSpline
 62
253
  6
CONTINUOUS
 70
0
 71
3
 72
9
 73
5
 74
3
 42
0.0000001
 43
0.0000001
 44
0.0000000001
 12
0.0521414017
 22
-0.0307159736
 32
0.0
 13
0.0277387884
 23
-0.0537843511
 33
0.0
 40
0.0
 40
0.0
 40
0.0
 40
0.0
 40
0.2410446835
 40
1.0
 40
1.0
 40
1.0
 40
1.0
 10
16.1545467977
 20
11.3741284545
 30
0.0
 10
16.1587362669
 20
11.3716604805
 30
0.0
 10
16.1753486583
 20
11.3601060393
 30
0.0
 10
16.1880281551
 20
11.3434039221
 30
0.0
 10
16.1950456554
 20
11.3297972824
 30
0.0
 11
16.1545467977
 21
11.3741284545
 31
0.0
 11
16.166516413
 21
11.3657911142
 31
0.0
 11
16.1950456554
 21
11.3297972824
 31
0.0
  0
SPLINE
  5
469
100
AcDbEntity
  8
RACCORDO
100
AcDbSpline
 62
253
  6
CONTINUOUS
 70
0
 71
3
 72
9
 73
5
 74
3
 42
0.0000001
 43
0.0000001
 44
0.0000000001
 12
0.0413719933
 22
-0.0802185656
 32
0.0
 13
0.0
 23
-0.0902588505
 33
0.0
 40
0.0
 40
0.0
 40
0.0
 40
0.0
 40
0.2295706774
 40
1.0
 40
1.0
 40
1.0
 40
1.0
 10
16.1950456554
 20
11.3297972824
 30
0.0
 10
16.1982115875
 20
11.3236586722
 30
0.0
 10
16.2099394238
 20
11.2958515672
 30
0.0
 10
16.2138439347
 20
11.2652048347
 30
0.0
 10
16.2138439347
 20
11.2420254797
 30
0.0
 11
16.1950456554
 21
11.3297972824
 31
0.0
 11
16.2031840118
 21
11.3107416243
 31
0.0
 11
16.2138439347
 21
11.2420254797
 31
0.0
  0
SPLINE
  5
46A
100
AcDbEntity
  8
RACCORDO
100
AcDbSpline
 62
253
  6
CONTINUOUS
 70
0
 71
3
 72
9
 73
5
 74
3
 42
0.0000001
 43
0.0000001
 44
0.0000000001
 12
0.000018338
 22
-0.0977596867
 32
0.0
 13
0.0832907687
 23
-0.0511820725
 33
0.0
 40
0.0
 40
0.0
 40
0.0
 40
0.0
 40
0.43756309
 40
1.0
 40
1.0
 40
1.0
 40
1.0
 10
14.7971289841
 20
11.6982601865
 30
0.0
 10
14.7971316588
 20
11.6840015096
 30
0.0
 10
14.8105932961
 20
11.6515734044
 30
0.0
 10
14.8370955025
 20
11.6312380845
 30
0.0
 10
14.85271077
 20
11.6216425223
 30
0.0
 11
14.7971289841
 21
11.6982601865
 31
0.0
 11
14.8114090564
 21
11.6579381281
 31
0.0
 11
14.85271077
 21
11.6216425223
 31
0.0
  0
SPLINE
  5
46B
100
AcDbEntity
  8
RACCORDO
100
AcDbSpline
 62
253
  6
CONTINUOUS
 70
0
 71
3
 72
9
 73
5
 74
3
 42
0.0000001
 43
0.0000001
 44
0.0000000001
 12
0.0918363946
 22
0.0459181973
 32
0.0
 13
0.0261734454
 23
0.0992842131
 33
0.0
 40
0.0
 40
0.0
 40
0.0
 40
0.0
 40
0.2979219667
 40
1.0
 40
1.0
 40
1.0
 40
1.0
 10
17.2745041065
 20
-28.2040252691
 30
0.0
 10
17.2836241329
 20
-28.1994652559
 30
0.0
 10
17.312956646
 20
-28.1826045149
 30
0.0
 10
17.3394563191
 20
-28.1551873198
 30
0.0
 10
17.3455815862
 20
-28.1319522315
 30
0.0
 11
17.2745041065
 21
-28.2040252691
 31
0.0
 11
17.3008502971
 21
-28.1884819212
 31
0.0
 11
17.3455815862
 21
-28.1319522315
 31
0.0
  0
SPLINE
  5
46C
100
AcDbEntity
  8
RACCORDO
100
AcDbSpline
 62
253
  6
CONTINUOUS
 70
0
 71
3
 72
8
 73
4
 74
2
 42
0.0000001
 43
0.0000001
 44
0.0000000001
 12
0.0041947927
 22
0.0159121846
 32
0.0
 13
0.0
 23
0.0164558168
 33
0.0
 40
0.0
 40
0.0
 40
0.0
 40
0.0
 40
1.0
 40
1.0
 40
1.0
 40
1.0
 10
17.3455815862
 20
-28.1319522315
 30
0.0
 10
17.3469798504
 20
-28.1266481699
 30
0.0
 10
17.3477274112
 20
-28.1211221937
 30
0.0
 10
17.3477274112
 20
-28.1156369214
 30
0.0
 11
17.3455815862
 21
-28.1319522315
 31
0.0
 11
17.3477274112
 21
-28.1156369214
 31
0.0
  0
SPLINE
  5
46D
100
AcDbEntity
  8
RACCORDO
100
AcDbSpline
 62
253
  6
CONTINUOUS
 70
0
 71
3
 72
9
 73
5
 74
3
 42
0.0000001
 43
0.0000001
 44
0.0000000001
 12
-0.0618068848
 22
-0.193173312
 32
0.0
 13
0.0
 23
-0.2028201654
 33
0.0
 40
0.0
 40
0.0
 40
0.0
 40
0.0
 40
0.2612978907
 40
1.0
 40
1.0
 40
1.0
 40
1.0
 10
17.3076597603
 20
11.7952304864
 30
0.0
 10
17.3022764241
 20
11.7784052267
 30
0.0
 10
17.2838966933
 20
11.7133567155
 30
0.0
 10
17.2745041065
 20
11.6455200983
 30
0.0
 10
17.2745041065
 20
11.5955788703
 30
0.0
 11
17.3076597603
 21
11.7952304864
 31
0.0
 11
17.2932848658
 21
11.7442207868
 31
0.0
 11
17.2745041065
 21
11.5955788703
 31
0.0
  0
SPLINE
  5
46E
100
AcDbEntity
  8
RACCORDO
100
AcDbSpline
 62
253
  6
CONTINUOUS
 70
0
 71
3
 72
11
 73
7
 74
5
 42
0.0000001
 43
0.0000001
 44
0.0000000001
 12
0.107613809
 22
0.0538069045
 32
0.0
 13
0.0
 23
0.1203158962
 33
0.0
 40
0.0
 40
0.0
 40
0.0
 40
0.0
 40
0.3018806002
 40
0.565479033
 40
0.7935241085
 40
1.0
 40
1.0
 40
1.0
 40
1.0
 10
17.2745041065
 20
11.5955788703
 30
0.0
 10
17.2853329469
 20
11.6009932905
 30
0.0
 10
17.3049239904
 20
11.6126667443
 30
0.0
 10
17.3287870583
 20
11.6341359769
 30
0.0
 10
17.3440563859
 20
11.6581310471
 30
0.0
 10
17.3477274112
 20
11.6756864406
 30
0.0
 10
17.3477274112
 20
11.6839672179
 30
0.0
 11
17.2745041065
 21
11.5955788703
 31
0.0
 11
17.3055133351
 21
11.6144903832
 31
0.0
 11
17.3286972943
 21
11.6361317889
 31
0.0
 11
17.3429215737
 21
11.6595941717
 31
0.0
 11
17.3477274112
 21
11.6839672179
 31
0.0
  0
SPLINE
  5
46F
100
AcDbEntity
  8
RACCORDO
100
AcDbSpline
 62
253
  6
CONTINUOUS
 70
0
 71
3
 72
10
 73
6
 74
4
 42
0.0000001
 43
0.0000001
 44
0.0000000001
 12
0.0397153903
 22
-0.0643913703
 32
0.0
 13
-0.0481240378
 23
-0.0583749757
 33
0.0
 40
0.0
 40
0.0
 40
0.0
 40
0.0
 40
0.3492103718
 40
0.6297772923
 40
1.0
 40
1.0
 40
1.0
 40
1.0
 10
17.9816108877
 20
12.6991322609
 30
0.0
 10
17.9862338964
 20
12.6916368828
 30
0.0
 10
17.993910431
 20
12.6775011734
 30
0.0
 10
18.0029199841
 20
12.6545797852
 30
0.0
 10
18.0033052301
 20
12.6352608348
 30
0.0
 10
17.9973663596
 20
12.6280569209
 30
0.0
 11
17.9816108877
 21
12.6991322609
 31
0.0
 11
17.9941314334
 21
12.675868296
 31
0.0
 11
18.0010940565
 21
12.6558166633
 31
0.0
 11
17.9973663596
 21
12.6280569209
 31
0.0
  0
SPLINE
  5
470
100
AcDbEntity
  8
RACCORDO
100
AcDbSpline
 62
253
  6
CONTINUOUS
 70
0
 71
3
 72
10
 73
6
 74
4
 42
0.0000001
 43
0.0000001
 44
0.0000000001
 12
0.0397280143
 22
-0.0644118378
 32
0.0
 13
-0.0482235685
 23
-0.0583239866
 33
0.0
 40
0.0
 40
0.0
 40
0.0
 40
0.0
 40
0.3492690482
 40
0.6298549571
 40
1.0
 40
1.0
 40
1.0
 40
1.0
 10
17.4512808018
 20
12.0589672179
 30
0.0
 10
17.455906057
 20
12.0514681975
 30
0.0
 10
17.4635848665
 20
12.0373252861
 30
0.0
 10
17.4725959461
 20
12.0143973539
 30
0.0
 10
17.4729691457
 20
11.9950669174
 30
0.0
 10
17.4670192408
 20
11.9878708059
 30
0.0
 11
17.4512808018
 21
12.0589672179
 31
0.0
 11
17.4638062538
 21
12.0356913142
 31
0.0
 11
17.470768105
 21
12.0156307505
 31
0.0
 11
17.4670192408
 21
11.9878708059
 31
0.0
  0
SPLINE
  5
471
100
AcDbEntity
  8
RACCORDO
100
AcDbSpline
 62
253
  6
CONTINUOUS
 70
0
 71
3
 72
9
 73
5
 74
3
 42
0.0000001
 43
0.0000001
 44
0.0000000001
 12
0.0959985305
 22
0.0468453926
 32
0.0
 13
0.1067318567
 23
-0.0043034213
 33
0.0
 40
0.0
 40
0.0
 40
0.0
 40
0.0
 40
0.245316102
 40
1.0
 40
1.0
 40
1.0
 40
1.0
 10
1.3065592272
 20
18.3257732814
 30
0.0
 10
1.3144092223
 20
18.3296039244
 30
0.0
 10
1.3474196704
 20
18.3431284377
 30
0.0
 10
1.3838292994
 20
18.3477197783
 30
0.0
 10
1.410678904
 20
18.346637204
 30
0.0
 11
1.3065592272
 21
18.3257732814
 31
0.0
 11
1.3308097739
 21
18.3357018879
 31
0.0
 11
1.410678904
 21
18.346637204
 31
0.0
  0
SPLINE
  5
472
100
AcDbEntity
  8
RACCORDO
100
AcDbSpline
 62
253
  6
CONTINUOUS
 70
0
 71
3
 72
11
 73
7
 74
5
 42
0.0000001
 43
0.0000001
 44
0.0000000001
 12
0.3283037813
 22
-0.1641518906
 32
0.0
 13
0.0
 23
-0.3670547861
 33
0.0
 40
0.0
 40
0.0
 40
0.0
 40
0.0
 40
0.2296876225
 40
0.4882493672
 40
0.7532523129
 40
1.0
 40
1.0
 40
1.0
 40
1.0
 10
17.8048341924
 20
13.3553409316
 30
0.0
 10
17.829969964
 20
13.3427730457
 30
0.0
 10
17.8780010119
 20
13.3051955894
 30
0.0
 10
17.9334620042
 20
13.2305924336
 30
0.0
 10
17.9711938261
 20
13.1433574399
 30
0.0
 10
17.9816108877
 20
13.0806362061
 30
0.0
 10
17.9816108877
 20
13.050446233
 30
0.0
 11
17.8048341924
 21
13.3553409316
 31
0.0
 11
17.8724867649
 21
13.3050323003
 31
0.0
 11
17.9298406629
 21
13.2294165541
 31
0.0
 11
17.9681596191
 21
13.1400117045
 31
0.0
 11
17.9816108877
 21
13.050446233
 31
0.0
  0
SPLINE
  5
473
100
AcDbEntity
  8
RACCORDO
100
AcDbSpline
 62
253
  6
CONTINUOUS
 70
0
 71
3
 72
11
 73
7
 74
5
 42
0.0000001
 43
0.0000001
 44
0.0000000001
 12
0.3283037813
 22
-0.1641518906
 32
0.0
 13
0.0
 23
-0.3670547861
 33
0.0
 40
0.0
 40
0.0
 40
0.0
 40
0.0
 40
0.2296876225
 40
0.4882493672
 40
0.7532523129
 40
1.0
 40
1.0
 40
1.0
 40
1.0
 10
15.6835138488
 20
12.2946807598
 30
0.0
 10
15.7086496205
 20
12.282112874
 30
0.0
 10
15.7566806684
 20
12.2445354176
 30
0.0
 10
15.8121416606
 20
12.1699322618
 30
0.0
 10
15.8498734826
 20
12.0826972682
 30
0.0
 10
15.8602905441
 20
12.0199760344
 30
0.0
 10
15.8602905441
 20
11.9897860612
 30
0.0
 11
15.6835138488
 21
12.2946807598
 31
0.0
 11
15.7511664213
 21
12.2443721286
 31
0.0
 11
15.8085203193
 21
12.1687563823
 31
0.0
 11
15.8468392755
 21
12.0793515327
 31
0.0
 11
15.8602905441
 21
11.9897860612
 31
0.0
  0
SPLINE
  5
474
100
AcDbEntity
  8
RACCORDO
100
AcDbSpline
 62
253
  6
CONTINUOUS
 70
0
 71
3
 72
11
 73
7
 74
5
 42
0.0000001
 43
0.0000001
 44
0.0000000001
 12
-0.3283037813
 22
-0.1641518906
 32
0.0
 13
0.0
 23
-0.3670547861
 33
0.0
 40
0.0
 40
0.0
 40
0.0
 40
0.0
 40
0.2296876225
 40
0.4882493672
 40
0.7532523129
 40
1.0
 40
1.0
 40
1.0
 40
1.0
 10
15.6835138488
 20
12.2946807598
 30
0.0
 10
15.6583780772
 20
12.282112874
 30
0.0
 10
15.6103470293
 20
12.2445354176
 30
0.0
 10
15.554886037
 20
12.1699322618
 30
0.0
 10
15.5171542151
 20
12.0826972682
 30
0.0
 10
15.5067371535
 20
12.0199760344
 30
0.0
 10
15.5067371535
 20
11.9897860612
 30
0.0
 11
15.6835138488
 21
12.2946807598
 31
0.0
 11
15.6158612763
 21
12.2443721286
 31
0.0
 11
15.5585073783
 21
12.1687563823
 31
0.0
 11
15.5201884221
 21
12.0793515327
 31
0.0
 11
15.5067371535
 21
11.9897860612
 31
0.0
  0
SPLINE
  5
475
100
AcDbEntity
  8
RACCORDO
100
AcDbSpline
 62
253
  6
CONTINUOUS
 70
0
 71
3
 72
11
 73
7
 74
5
 42
0.0000001
 43
0.0000001
 44
0.0000000001
 12
-0.3283037267
 22
-0.1641518634
 32
0.0
 13
0.0
 23
-0.3670547251
 33
0.0
 40
0.0
 40
0.0
 40
0.0
 40
0.0
 40
0.2296755894
 40
0.4882147766
 40
0.7532068921
 40
1.0
 40
1.0
 40
1.0
 40
1.0
 10
14.3400109646
 20
12.9664322019
 30
0.0
 10
14.3148765139
 20
12.9538649766
 30
0.0
 10
14.2668484399
 20
12.9162909406
 30
0.0
 10
14.2113891947
 20
12.8416934762
 30
0.0
 10
14.1736545455
 20
12.7544584067
 30
0.0
 10
14.1632342693
 20
12.6917330288
 30
0.0
 10
14.1632342693
 20
12.6615375033
 30
0.0
 11
14.3400109646
 21
12.9664322019
 31
0.0
 11
14.272361452
 21
12.916126881
 31
0.0
 11
14.2150109646
 21
12.8405189599
 31
0.0
 11
14.176690594
 21
12.7511190592
 31
0.0
 11
14.1632342693
 21
12.6615375033
 31
0.0
  0
SPLINE
  5
476
100
AcDbEntity
  8
RACCORDO
100
AcDbSpline
 62
253
  6
CONTINUOUS
 70
0
 71
3
 72
11
 73
7
 74
5
 42
0.0000001
 43
0.0000001
 44
0.0000000001
 12
-0.3249549506
 22
-0.1624774753
 32
0.0
 13
-0.3249549506
 23
0.1624774753
 33
0.0
 40
0.0
 40
0.0
 40
0.0
 40
0.0
 40
0.2353555477
 40
0.4999881527
 40
0.764625342
 40
1.0
 40
1.0
 40
1.0
 40
1.0
 10
15.8602905441
 20
11.6384720891
 30
0.0
 10
15.8347972273
 20
11.6257254307
 30
0.0
 10
15.7762063273
 20
11.6075410083
 30
0.0
 10
15.6835176457
 20
11.5988541305
 30
0.0
 10
15.5908266322
 20
11.607540062
 30
0.0
 10
15.5322325403
 20
11.6257243957
 30
0.0
 10
15.5067371535
 20
11.6384720891
 30
0.0
 11
15.8602905441
 21
11.6384720891
 31
0.0
 11
15.7791899585
 21
11.6113764527
 31
0.0
 11
15.6835181987
 21
11.6018604356
 31
0.0
 11
15.5878446405
 21
11.611375199
 31
0.0
 11
15.5067371535
 21
11.6384720891
 31
0.0
  0
SPLINE
  5
477
100
AcDbEntity
  8
RACCORDO
100
AcDbSpline
 62
253
  6
CONTINUOUS
 70
0
 71
3
 72
11
 73
7
 74
5
 42
0.0000001
 43
0.0000001
 44
0.0000000001
 12
-0.324954929
 22
-0.1624774645
 32
0.0
 13
-0.324954929
 23
0.1624774645
 33
0.0
 40
0.0
 40
0.0
 40
0.0
 40
0.0
 40
0.2353701082
 40
0.5
 40
0.7646298918
 40
1.0
 40
1.0
 40
1.0
 40
1.0
 10
15.8602905441
 20
11.9897860612
 30
0.0
 10
15.8347956519
 20
11.9770386151
 30
0.0
 10
15.7762030539
 20
11.9588544893
 30
0.0
 10
15.6835138488
 20
11.9501681707
 30
0.0
 10
15.5908246438
 20
11.9588544893
 30
0.0
 10
15.5322320458
 20
11.9770386151
 30
0.0
 10
15.5067371535
 20
11.9897860612
 30
0.0
 11
15.8602905441
 21
11.9897860612
 31
0.0
 11
15.7791847069
 21
11.9626894673
 31
0.0
 11
15.6835138488
 21
11.9531744088
 31
0.0
 11
15.5878429907
 21
11.9626894673
 31
0.0
 11
15.5067371535
 21
11.9897860612
 31
0.0
  0
SPLINE
  5
478
100
AcDbEntity
  8
RACCORDO
100
AcDbSpline
 62
253
  6
CONTINUOUS
 70
0
 71
3
 72
11
 73
7
 74
5
 42
0.0000001
 43
0.0000001
 44
0.0000000001
 12
-0.324954929
 22
-0.1624774645
 32
0.0
 13
-0.324954929
 23
0.1624774645
 33
0.0
 40
0.0
 40
0.0
 40
0.0
 40
0.0
 40
0.2353701082
 40
0.5
 40
0.7646298918
 40
1.0
 40
1.0
 40
1.0
 40
1.0
 10
16.5673973253
 20
11.2420254797
 30
0.0
 10
16.541902433
 20
11.2292780336
 30
0.0
 10
16.4833098351
 20
11.2110939078
 30
0.0
 10
16.39062063
 20
11.2024075892
 30
0.0
 10
16.297931425
 20
11.2110939078
 30
0.0
 10
16.239338827
 20
11.2292780336
 30
0.0
 10
16.2138439347
 20
11.2420254797
 30
0.0
 11
16.5673973253
 21
11.2420254797
 31
0.0
 11
16.4862914881
 21
11.2149288858
 31
0.0
 11
16.39062063
 21
11.2054138273
 31
0.0
 11
16.2949497719
 21
11.2149288858
 31
0.0
 11
16.2138439347
 21
11.2420254797
 31
0.0
  0
SPLINE
  5
479
100
AcDbEntity
  8
RACCORDO
100
AcDbSpline
 62
253
  6
CONTINUOUS
 70
0
 71
3
 72
11
 73
7
 74
5
 42
0.0000001
 43
0.0000001
 44
0.0000000001
 12
-0.324954929
 22
-0.1624774645
 32
0.0
 13
-0.324954929
 23
0.1624774645
 33
0.0
 40
0.0
 40
0.0
 40
0.0
 40
0.0
 40
0.2353701082
 40
0.5
 40
0.7646298918
 40
1.0
 40
1.0
 40
1.0
 40
1.0
 10
3.2030791609
 20
17.9241845619
 30
0.0
 10
3.1775842686
 20
17.9114371158
 30
0.0
 10
3.1189916706
 20
17.89325299
 30
0.0
 10
3.0263024656
 20
17.8845666714
 30
0.0
 10
2.9336132605
 20
17.89325299
 30
0.0
 10
2.8750206625
 20
17.9114371158
 30
0.0
 10
2.8495257703
 20
17.9241845619
 30
0.0
 11
3.2030791609
 21
17.9241845619
 31
0.0
 11
3.1219733237
 21
17.897087968
 31
0.0
 11
3.0263024656
 21
17.8875729096
 31
0.0
 11
2.9306316075
 21
17.897087968
 31
0.0
 11
2.8495257703
 21
17.9241845619
 31
0.0
  0
SPLINE
  5
47A
100
AcDbEntity
  8
RACCORDO
100
AcDbSpline
 62
253
  6
CONTINUOUS
 70
0
 71
3
 72
11
 73
7
 74
5
 42
0.0000001
 43
0.0000001
 44
0.0000000001
 12
0.0
 22
0.3637747172
 32
0.0
 13
-0.3562153171
 23
0.0737746077
 33
0.0
 40
0.0
 40
0.0
 40
0.0
 40
0.0
 40
0.2934021086
 40
0.5509410244
 40
0.78010513
 40
1.0
 40
1.0
 40
1.0
 40
1.0
 10
3.2030791609
 20
17.9241845619
 30
0.0
 10
3.2030791609
 20
17.9597619849
 30
0.0
 10
3.1964561599
 20
18.0269435176
 30
0.0
 10
3.162147929
 20
18.1166674268
 30
0.0
 10
3.1041704188
 20
18.1827808959
 30
0.0
 10
3.0524124392
 20
18.2053886617
 30
0.0
 10
3.0263024656
 20
18.2107962143
 30
0.0
 11
3.2030791609
 21
17.9241845619
 31
0.0
 11
3.1910316286
 21
18.0302347115
 31
0.0
 11
3.1557116179
 21
18.1170079265
 31
0.0
 11
3.0995263827
 21
18.1785935889
 31
0.0
 11
3.0263024656
 21
18.2107962143
 31
0.0
  0
SPLINE
  5
47B
100
AcDbEntity
  8
RACCORDO
100
AcDbSpline
 62
253
  6
CONTINUOUS
 70
0
 71
3
 72
11
 73
7
 74
5
 42
0.0000001
 43
0.0000001
 44
0.0000000001
 12
0.0
 22
-0.1574222712
 32
0.0
 13
-0.1408317318
 23
-0.0703434061
 33
0.0
 40
0.0
 40
0.0
 40
0.0
 40
0.0
 40
0.2892516425
 40
0.5496863449
 40
0.7829702418
 40
1.0
 40
1.0
 40
1.0
 40
1.0
 10
17.9816108877
 20
-28.9517858506
 30
0.0
 10
17.9816108877
 20
-28.9669640674
 30
0.0
 10
17.9791110078
 20
-28.9959086918
 30
0.0
 10
17.9668099558
 20
-29.0355326221
 30
0.0
 10
17.9460973838
 20
-29.0672342904
 30
0.0
 10
17.9268233439
 20
-29.0819104821
 30
0.0
 10
17.9166351183
 20
-29.0869993529
 30
0.0
 11
17.9816108877
 21
-28.9517858506
 31
0.0
 11
17.97728087
 21
-28.9971141568
 31
0.0
 11
17.9645382449
 21
-29.0360818324
 31
0.0
 11
17.9439729334
 21
-29.0665075794
 31
0.0
 11
17.9166351183
 21
-29.0869993529
 31
0.0
  0
SPLINE
  5
47C
100
AcDbEntity
  8
RACCORDO
100
AcDbSpline
 62
7
  6
CONTINUOUS
 70
0
 71
3
 72
11
 73
7
 74
5
 42
0.0000001
 43
0.0000001
 44
0.0000000001
 12
-0.00000452
 22
-0.24065108
 32
0.0
 13
0.2152448696
 23
-0.1076224348
 33
0.0
 40
0.0
 40
0.0
 40
0.0
 40
0.0
 40
0.2065677123
 40
0.4345128221
 40
0.6974273522
 40
1.0
 40
1.0
 40
1.0
 40
1.0
 10
6.3072932715
 20
17.3640145865
 30
0.0
 10
6.3072929603
 20
17.3474443388
 30
0.0
 10
6.3146104211
 20
17.3123210061
 30
0.0
 10
6.3451681114
 20
17.2644092861
 30
0.0
 10
6.3927932861
 20
17.2213686529
 30
0.0
 10
6.4320308047
 20
17.1980879757
 30
0.0
 10
6.4537398747
 20
17.1872334407
 30
0.0
 11
6.3072932715
 21
17.3640145865
 31
0.0
 11
6.3168993511
 21
17.3152408107
 31
0.0
 11
6.3453517418
 21
17.26834136
 31
0.0
 11
6.3915573353
 21
17.2251184463
 31
0.0
 11
6.4537398747
 21
17.1872334407
 31
0.0
  0
SPLINE
  5
47D
100
AcDbEntity
  8
RACCORDO
100
AcDbSpline
 62
253
  6
CONTINUOUS
 70
0
 71
3
 72
11
 73
7
 74
5
 42
0.0000001
 43
0.0000001
 44
0.0000000001
 12
-0.3283038305
 22
-0.1641519152
 32
0.0
 13
0.0
 23
-0.3670548411
 33
0.0
 40
0.0
 40
0.0
 40
0.0
 40
0.0
 40
0.2296322548
 40
0.488180216
 40
0.7531943267
 40
1.0
 40
1.0
 40
1.0
 40
1.0
 10
2.3191956844
 20
18.976839842
 30
0.0
 10
2.2940659681
 20
18.9642749839
 30
0.0
 10
2.2460398395
 20
18.926706092
 30
0.0
 10
2.1905792483
 20
18.8521110615
 30
0.0
 10
2.1528407271
 20
18.7648718306
 30
0.0
 10
2.1424189891
 20
18.7021422158
 30
0.0
 10
2.1424189891
 20
18.6719451434
 30
0.0
 11
2.3191956844
 21
18.976839842
 31
0.0
 11
2.2515572405
 21
18.9265462478
 31
0.0
 11
2.1942021349
 21
18.8509377499
 31
0.0
 11
2.1558767674
 21
18.7615311738
 31
0.0
 11
2.1424189891
 21
18.6719451434
 31
0.0
  0
SPLINE
  5
47E
100
AcDbEntity
  8
RACCORDO
100
AcDbSpline
 62
253
  6
CONTINUOUS
 70
0
 71
3
 72
11
 73
7
 74
5
 42
0.0000001
 43
0.0000001
 44
0.0000000001
 12
-0.3283038305
 22
-0.1641519152
 32
0.0
 13
0.0
 23
-0.3670548411
 33
0.0
 40
0.0
 40
0.0
 40
0.0
 40
0.0
 40
0.2296322548
 40
0.488180216
 40
0.7531943267
 40
1.0
 40
1.0
 40
1.0
 40
1.0
 10
0.9756928001
 20
19.6485912841
 30
0.0
 10
0.9505630839
 20
19.636026426
 30
0.0
 10
0.9025369553
 20
19.5984575341
 30
0.0
 10
0.847076364
 20
19.5238625037
 30
0.0
 10
0.8093378429
 20
19.4366232728
 30
0.0
 10
0.7989161048
 20
19.3738936579
 30
0.0
 10
0.7989161048
 20
19.3436965855
 30
0.0
 11
0.9756928001
 21
19.6485912841
 31
0.0
 11
0.9080543563
 21
19.5982976899
 31
0.0
 11
0.8506992506
 21
19.522689192
 31
0.0
 11
0.8123738832
 21
19.4332826159
 31
0.0
 11
0.7989161048
 21
19.3436965855
 31
0.0
  0
SPLINE
  5
47F
100
AcDbEntity
  8
RACCORDO
100
AcDbSpline
 62
253
  6
CONTINUOUS
 70
0
 71
3
 72
11
 73
7
 74
5
 42
0.0000001
 43
0.0000001
 44
0.0000000001
 12
-0.324954929
 22
-0.1624774645
 32
0.0
 13
-0.324954929
 23
0.1624774645
 33
0.0
 40
0.0
 40
0.0
 40
0.0
 40
0.0
 40
0.2353701082
 40
0.5
 40
0.7646298918
 40
1.0
 40
1.0
 40
1.0
 40
1.0
 10
2.4959723797
 20
18.3206311713
 30
0.0
 10
2.4704774874
 20
18.3078837252
 30
0.0
 10
2.4118848894
 20
18.2896995994
 30
0.0
 10
2.3191956844
 20
18.2810132808
 30
0.0
 10
2.2265064793
 20
18.2896995994
 30
0.0
 10
2.1679138814
 20
18.3078837252
 30
0.0
 10
2.1424189891
 20
18.3206311713
 30
0.0
 11
2.4959723797
 21
18.3206311713
 31
0.0
 11
2.4148665425
 21
18.2935345774
 31
0.0
 11
2.3191956844
 21
18.284019519
 31
0.0
 11
2.2235248263
 21
18.2935345774
 31
0.0
 11
2.1424189891
 21
18.3206311713
 31
0.0
  0
SPLINE
  5
480
100
AcDbEntity
  8
RACCORDO
100
AcDbSpline
 62
253
  6
CONTINUOUS
 70
0
 71
3
 72
11
 73
7
 74
5
 42
0.0000001
 43
0.0000001
 44
0.0000000001
 12
-0.3249549857
 22
-0.1624774928
 32
0.0
 13
-0.3249549857
 23
0.1624774928
 33
0.0
 40
0.0
 40
0.0
 40
0.0
 40
0.0
 40
0.2353253496
 40
0.499964792
 40
0.764617449
 40
1.0
 40
1.0
 40
1.0
 40
1.0
 10
2.4959723797
 20
18.6719451434
 30
0.0
 10
2.4704823312
 20
18.6592001191
 30
0.0
 10
2.4118947786
 20
18.6410151572
 30
0.0
 10
2.3192070156
 20
18.6323269856
 30
0.0
 10
2.2265122486
 20
18.641012244
 30
0.0
 10
2.1679152336
 20
18.6591970212
 30
0.0
 10
2.1424189891
 20
18.6719451434
 30
0.0
 11
2.4959723797
 21
18.6719451434
 31
0.0
 11
2.4148826672
 21
18.6448515558
 31
0.0
 11
2.3192086054
 21
18.635333481
 31
0.0
 11
2.2235293399
 21
18.6448477463
 31
0.0
 11
2.1424189891
 21
18.6719451434
 31
0.0
  0
SPLINE
  5
481
100
AcDbEntity
  8
RACCORDO
100
AcDbSpline
 62
253
  6
CONTINUOUS
 70
0
 71
3
 72
11
 73
7
 74
5
 42
0.0000001
 43
0.0000001
 44
0.0000000001
 12
-0.1063646839
 22
-0.2788159098
 32
0.0
 13
-0.2922163674
 23
0.0605091078
 33
0.0
 40
0.0
 40
0.0
 40
0.0
 40
0.0
 40
0.2770958208
 40
0.5368340029
 40
0.7754612626
 40
1.0
 40
1.0
 40
1.0
 40
1.0
 10
3.0263024656
 20
18.2107962143
 30
0.0
 10
3.0164780625
 20
18.1850433065
 30
0.0
 10
2.9907168006
 20
18.137347032
 30
0.0
 10
2.9351184542
 20
18.0820873169
 30
0.0
 10
2.8684790284
 20
18.0508458865
 30
0.0
 10
2.8207031989
 20
18.0498840316
 30
0.0
 10
2.7988319008
 20
18.0544129112
 30
0.0
 11
3.0263024656
 21
18.2107962143
 31
0.0
 11
2.9864927049
 21
18.1383202641
 31
0.0
 11
2.9308316908
 21
18.0843792551
 31
0.0
 11
2.8658319156
 21
18.0552948829
 31
0.0
 11
2.7988319008
 21
18.0544129112
 31
0.0
  0
SPLINE
  5
482
100
AcDbEntity
  8
RACCORDO
100
AcDbSpline
 62
253
  6
CONTINUOUS
 70
0
 71
3
 72
11
 73
7
 74
5
 42
0.0000001
 43
0.0000001
 44
0.0000000001
 12
0.0
 22
-0.1574222712
 32
0.0
 13
-0.1408317318
 23
-0.0703434061
 33
0.0
 40
0.0
 40
0.0
 40
0.0
 40
0.0
 40
0.2892516425
 40
0.5496863449
 40
0.7829702418
 40
1.0
 40
1.0
 40
1.0
 40
1.0
 10
15.8602905441
 20
-30.0124460224
 30
0.0
 10
15.8602905441
 20
-30.0276242392
 30
0.0
 10
15.8577906643
 20
-30.0565688636
 30
0.0
 10
15.8454896123
 20
-30.0961927939
 30
0.0
 10
15.8247770402
 20
-30.1278944621
 30
0.0
 10
15.8055030003
 20
-30.1425706539
 30
0.0
 10
15.7953147748
 20
-30.1476595247
 30
0.0
 11
15.8602905441
 21
-30.0124460224
 31
0.0
 11
15.8559605265
 21
-30.0577743286
 31
0.0
 11
15.8432179014
 21
-30.0967420042
 31
0.0
 11
15.8226525899
 21
-30.1271677512
 31
0.0
 11
15.7953147748
 21
-30.1476595247
 31
0.0
  0
SPLINE
  5
483
100
AcDbEntity
  8
RACCORDO
100
AcDbSpline
 62
253
  6
CONTINUOUS
 70
0
 71
3
 72
11
 73
7
 74
5
 42
0.0000001
 43
0.0000001
 44
0.0000000001
 12
-0.1059307198
 22
-0.2776783507
 32
0.0
 13
-0.2915002733
 23
0.0579152356
 33
0.0
 40
0.0
 40
0.0
 40
0.0
 40
0.0
 40
0.2769633699
 40
0.5367118852
 40
0.7754445235
 40
1.0
 40
1.0
 40
1.0
 40
1.0
 10
2.4959723797
 20
18.3206311713
 30
0.0
 10
2.4861927367
 20
18.2949955941
 30
0.0
 10
2.4605743071
 20
18.247496297
 30
0.0
 10
2.4053278677
 20
18.1923584159
 30
0.0
 10
2.3391037565
 20
18.1609666462
 30
0.0
 10
2.2915378469
 20
18.1596662444
 30
0.0
 10
2.2697185193
 20
18.1640013055
 30
0.0
 11
2.4959723797
 21
18.3206311713
 31
0.0
 11
2.4563920913
 21
18.2484590235
 31
0.0
 11
2.4010766635
 21
18.1946116887
 31
0.0
 11
2.336442366
 21
18.1653468866
 31
0.0
 11
2.2697185193
 21
18.1640013055
 31
0.0
  0
SPLINE
  5
484
100
AcDbEntity
  8
RACCORDO
100
AcDbSpline
 62
253
  6
CONTINUOUS
 70
0
 71
3
 72
11
 73
7
 74
5
 42
0.0000001
 43
0.0000001
 44
0.0000000001
 12
0.0
 22
-0.1574253087
 32
0.0
 13
0.1407691098
 23
-0.0704754252
 33
0.0
 40
0.0
 40
0.0
 40
0.0
 40
0.0
 40
0.2893385886
 40
0.5494402709
 40
0.7826225719
 40
1.0
 40
1.0
 40
1.0
 40
1.0
 10
2.1424189891
 20
18.3206311713
 30
0.0
 10
2.1424189891
 20
18.3054480991
 30
0.0
 10
2.1449018309
 20
18.2765114966
 30
0.0
 10
2.1572161365
 20
18.2369169556
 30
0.0
 10
2.1778863915
 20
18.2051833046
 30
0.0
 10
2.1972030843
 20
18.1905408428
 30
0.0
 10
2.2074030933
 20
18.1854342539
 30
0.0
 11
2.1424189891
 21
18.3206311713
 31
0.0
 11
2.1467428729
 21
18.2752876474
 31
0.0
 11
2.1594708037
 21
18.236369492
 31
0.0
 11
2.1800098855
 21
18.2059444727
 31
0.0
 11
2.2074030933
 21
18.1854342539
 31
0.0
  0
SPLINE
  5
485
100
AcDbEntity
  8
RACCORDO
100
AcDbSpline
 62
253
  6
CONTINUOUS
 70
0
 71
3
 72
11
 73
7
 74
5
 42
0.0000001
 43
0.0000001
 44
0.0000000001
 12
-0.0
 22
-0.157526034
 32
0.0
 13
0.1409395254
 23
-0.0703598007
 33
0.0
 40
0.0
 40
0.0
 40
0.0
 40
0.0
 40
0.2893786307
 40
0.5495163242
 40
0.7826658298
 40
1.0
 40
1.0
 40
1.0
 40
1.0
 10
0.7989161048
 20
18.9923826134
 30
0.0
 10
0.7989161048
 20
18.9771877241
 30
0.0
 10
0.8014053269
 20
18.9482288615
 30
0.0
 10
0.8137365817
 20
18.9086082433
 30
0.0
 10
0.8344408987
 20
18.8768689835
 30
0.0
 10
0.8537804585
 20
18.8622361157
 30
0.0
 10
0.8639907834
 20
18.8571389194
 30
0.0
 11
0.7989161048
 21
18.9923826134
 31
0.0
 11
0.8032484383
 21
18.9470042833
 31
0.0
 11
0.8159973365
 21
18.9080594543
 31
0.0
 11
0.8365663108
 21
18.8776325186
 31
0.0
 11
0.8639907834
 21
18.8571389194
 31
0.0
  0
SPLINE
  5
486
100
AcDbEntity
  8
RACCORDO
100
AcDbSpline
 62
253
  6
CONTINUOUS
 70
0
 71
3
 72
11
 73
7
 74
5
 42
0.0000001
 43
0.0000001
 44
0.0000000001
 12
0.3283037813
 22
-0.1641518906
 32
0.0
 13
0.0
 23
-0.3670547861
 33
0.0
 40
0.0
 40
0.0
 40
0.0
 40
0.0
 40
0.2296876225
 40
0.4882493672
 40
0.7532523129
 40
1.0
 40
1.0
 40
1.0
 40
1.0
 10
4.440516028
 20
20.0375000138
 30
0.0
 10
4.4656517996
 20
20.0249321279
 30
0.0
 10
4.5136828475
 20
19.9873546716
 30
0.0
 10
4.5691438398
 20
19.9127515158
 30
0.0
 10
4.6068756617
 20
19.8255165221
 30
0.0
 10
4.6172927233
 20
19.7627952884
 30
0.0
 10
4.6172927233
 20
19.7326053152
 30
0.0
 11
4.440516028
 21
20.0375000138
 31
0.0
 11
4.5081686005
 21
19.9871913825
 31
0.0
 11
4.5655224985
 21
19.9115756363
 31
0.0
 11
4.6038414546
 21
19.8221707867
 31
0.0
 11
4.6172927233
 21
19.7326053152
 31
0.0
  0
SPLINE
  5
487
100
AcDbEntity
  8
RACCORDO
100
AcDbSpline
 62
253
  6
CONTINUOUS
 70
0
 71
3
 72
11
 73
7
 74
5
 42
0.0000001
 43
0.0000001
 44
0.0000000001
 12
0.3283037267
 22
-0.1641518634
 32
0.0
 13
0.0
 23
-0.3670547251
 33
0.0
 40
0.0
 40
0.0
 40
0.0
 40
0.0
 40
0.2296755894
 40
0.4882147766
 40
0.7532068921
 40
1.0
 40
1.0
 40
1.0
 40
1.0
 10
2.3191956844
 20
18.976839842
 30
0.0
 10
2.344330135
 20
18.9642726167
 30
0.0
 10
2.3923582091
 20
18.9266985806
 30
0.0
 10
2.4478174543
 20
18.8521011163
 30
0.0
 10
2.4855521035
 20
18.7648660468
 30
0.0
 10
2.4959723797
 20
18.7021406689
 30
0.0
 10
2.4959723797
 20
18.6719451434
 30
0.0
 11
2.3191956844
 21
18.976839842
 31
0.0
 11
2.3868451969
 21
18.9265345211
 31
0.0
 11
2.4441956844
 21
18.8509266
 31
0.0
 11
2.482516055
 21
18.7615266993
 31
0.0
 11
2.4959723797
 21
18.6719451434
 31
0.0
  0
SPLINE
  5
488
100
AcDbEntity
  8
RACCORDO
100
AcDbSpline
 62
253
  6
CONTINUOUS
 70
0
 71
3
 72
11
 73
7
 74
5
 42
0.0000001
 43
0.0000001
 44
0.0000000001
 12
0.0
 22
-0.1203158962
 32
0.0
 13
0.107613809
 23
-0.0538069045
 33
0.0
 40
0.0
 40
0.0
 40
0.0
 40
0.0
 40
0.2064758915
 40
0.434520967
 40
0.6981193998
 40
1.0
 40
1.0
 40
1.0
 40
1.0
 10
14.7971177458
 20
-27.7974388699
 30
0.0
 10
14.7971177458
 20
-27.8057196472
 30
0.0
 10
14.800788771
 20
-27.8232750408
 30
0.0
 10
14.8160580986
 20
-27.847270111
 30
0.0
 10
14.8399211665
 20
-27.8687393436
 30
0.0
 10
14.85951221
 20
-27.8804127973
 30
0.0
 10
14.8703410505
 20
-27.8858272176
 30
0.0
 11
14.7971177458
 21
-27.7974388699
 31
0.0
 11
14.8019235833
 21
-27.8218119161
 31
0.0
 11
14.8161478626
 21
-27.845274299
 31
0.0
 11
14.8393318219
 21
-27.8669157046
 31
0.0
 11
14.8703410505
 21
-27.8858272176
 31
0.0
  0
SPLINE
  5
489
100
AcDbEntity
  8
RACCORDO
100
AcDbSpline
 62
253
  6
CONTINUOUS
 70
0
 71
3
 72
10
 73
6
 74
4
 42
0.0000001
 43
0.0000001
 44
0.0000000001
 12
0.0696487429
 22
0.0842366601
 32
0.0
 13
0.0977620061
 23
-0.048881003
 33
0.0
 40
0.0
 40
0.0
 40
0.0
 40
0.0
 40
0.3486721975
 40
0.6375289811
 40
1.0
 40
1.0
 40
1.0
 40
1.0
 10
14.6778259162
 20
-28.1013424579
 30
0.0
 10
14.6859207762
 20
-28.0915521308
 30
0.0
 10
14.7146862299
 20
-28.0915497159
 30
0.0
 10
14.7479635658
 20
-28.1019290875
 30
0.0
 10
14.7701407382
 20
-28.1116154091
 30
0.0
 10
14.7819527028
 20
-28.1175213914
 30
0.0
 11
14.6778259162
 21
-28.1013424579
 31
0.0
 11
14.7151267585
 21
-28.0935294849
 31
0.0
 11
14.7456127561
 21
-28.101740501
 31
0.0
 11
14.7819527028
 21
-28.1175213914
 31
0.0
  0
SPLINE
  5
48A
100
AcDbEntity
  8
RACCORDO
100
AcDbSpline
 62
253
  6
CONTINUOUS
 70
0
 71
3
 72
10
 73
6
 74
4
 42
0.0000001
 43
0.0000001
 44
0.0000000001
 12
0.0696285401
 22
0.0842572943
 32
0.0
 13
0.0977647186
 23
-0.0488823593
 33
0.0
 40
0.0
 40
0.0
 40
0.0
 40
0.0
 40
0.348660957
 40
0.6375246301
 40
1.0
 40
1.0
 40
1.0
 40
1.0
 10
14.147493589
 20
-28.7415106521
 30
0.0
 10
14.1555858401
 20
-28.7317182424
 30
0.0
 10
14.1843542835
 20
-28.7317137948
 30
0.0
 10
14.2176316885
 20
-28.7420938089
 30
0.0
 10
14.2398101827
 20
-28.7517802172
 30
0.0
 10
14.2516226169
 20
-28.7576864343
 30
0.0
 11
14.147493589
 21
-28.7415106521
 31
0.0
 11
14.1847934833
 21
-28.7336939896
 31
0.0
 11
14.215281137
 21
-28.7419051209
 31
0.0
 11
14.2516226169
 21
-28.7576864343
 31
0.0
  0
SPLINE
  5
48B
100
AcDbEntity
  8
RACCORDO
100
AcDbSpline
 62
253
  6
CONTINUOUS
 70
0
 71
3
 72
11
 73
7
 74
5
 42
0.0000001
 43
0.0000001
 44
0.0000000001
 12
0.0
 22
-0.1203158962
 32
0.0
 13
0.107613809
 23
-0.0538069045
 33
0.0
 40
0.0
 40
0.0
 40
0.0
 40
0.0
 40
0.2064758915
 40
0.434520967
 40
0.6981193998
 40
1.0
 40
1.0
 40
1.0
 40
1.0
 10
14.0900109646
 20
-28.9009922605
 30
0.0
 10
14.0900109646
 20
-28.9092730378
 30
0.0
 10
14.0936819899
 20
-28.9268284314
 30
0.0
 10
14.1089513174
 20
-28.9508235015
 30
0.0
 10
14.1328143853
 20
-28.9722927342
 30
0.0
 10
14.1524054288
 20
-28.9839661879
 30
0.0
 10
14.1632342693
 20
-28.9893806081
 30
0.0
 11
14.0900109646
 21
-28.9009922605
 31
0.0
 11
14.0948168021
 21
-28.9253653067
 31
0.0
 11
14.1090410814
 21
-28.9488276895
 31
0.0
 11
14.1322250407
 21
-28.9704690952
 31
0.0
 11
14.1632342693
 21
-28.9893806081
 31
0.0
  0
SPLINE
  5
48C
100
AcDbEntity
  8
RACCORDO
100
AcDbSpline
 62
253
  6
CONTINUOUS
 70
0
 71
3
 72
11
 73
7
 74
5
 42
0.0000001
 43
0.0000001
 44
0.0000000001
 12
0.0002718853
 22
-0.1201769408
 32
0.0
 13
0.1074897987
 23
-0.0537448994
 33
0.0
 40
0.0
 40
0.0
 40
0.0
 40
0.0
 40
0.2064813555
 40
0.434578121
 40
0.6981915953
 40
1.0
 40
1.0
 40
1.0
 40
1.0
 10
14.0900111027
 20
-29.2524469251
 30
0.0
 10
14.0900298158
 20
-29.2607183577
 30
0.0
 10
14.0937301437
 20
-29.2782468295
 30
0.0
 10
14.1090093691
 20
-29.30219773
 30
0.0
 10
14.1328535625
 20
-29.3236303134
 30
0.0
 10
14.1524204944
 20
-29.3352876928
 30
0.0
 10
14.1632342693
 20
-29.3406945802
 30
0.0
 11
14.0900111027
 21
-29.2524469251
 31
0.0
 11
14.0948576913
 21
-29.2767833813
 31
0.0
 11
14.1090960314
 21
-29.3002075077
 31
0.0
 11
14.13226595
 21
-29.321813038
 31
0.0
 11
14.1632342693
 21
-29.3406945802
 31
0.0
  0
SPLINE
  5
48D
100
AcDbEntity
  8
RACCORDO
100
AcDbSpline
 62
253
  6
CONTINUOUS
 70
0
 71
3
 72
11
 73
7
 74
5
 42
0.0000001
 43
0.0000001
 44
0.0000000001
 12
-0.1408846323
 22
0.0702997747
 32
0.0
 13
0.0
 23
0.1574501125
 33
0.0
 40
0.0
 40
0.0
 40
0.0
 40
0.0
 40
0.2170350907
 40
0.4503173148
 40
0.7107563689
 40
1.0
 40
1.0
 40
1.0
 40
1.0
 10
14.2282358219
 20
-29.4759199087
 30
0.0
 10
14.2180435189
 20
-29.4708340694
 30
0.0
 10
14.1987614369
 20
-29.456160034
 30
0.0
 10
14.1780401591
 20
-29.4244550292
 30
0.0
 10
14.1657360738
 20
-29.3848244689
 30
0.0
 10
14.1632342693
 20
-29.355875061
 30
0.0
 10
14.1632342693
 20
-29.3406945802
 30
0.0
 11
14.2282358219
 21
-29.4759199087
 31
0.0
 11
14.2008865154
 21
-29.455431994
 31
0.0
 11
14.1803132151
 21
-29.4250041258
 31
0.0
 11
14.1675662427
 21
-29.3860295223
 31
0.0
 11
14.1632342693
 21
-29.3406945802
 31
0.0
  0
SPLINE
  5
48E
100
AcDbEntity
  8
RACCORDO
100
AcDbSpline
 62
253
  6
CONTINUOUS
 70
0
 71
3
 72
11
 73
7
 74
5
 42
0.0000001
 43
0.0000001
 44
0.0000000001
 12
-0.1405432827
 22
0.070520634
 32
0.0
 13
0.0
 23
0.1572436776
 33
0.0
 40
0.0
 40
0.0
 40
0.0
 40
0.0
 40
0.2170330954
 40
0.4503508394
 40
0.7108004038
 40
1.0
 40
1.0
 40
1.0
 40
1.0
 10
15.5715516731
 20
-30.1475777634
 30
0.0
 10
15.5613841585
 20
-30.1424759929
 30
0.0
 10
15.5421567383
 20
-30.1277836233
 30
0.0
 10
15.5214988803
 20
-30.0960971764
 30
0.0
 10
15.5092321259
 20
-30.0565135647
 30
0.0
 10
15.5067371535
 20
-30.0276042917
 30
0.0
 10
15.5067371535
 20
-30.0124460224
 30
0.0
 11
15.5715516731
 21
-30.1475777634
 31
0.0
 11
15.5442777545
 21
-30.1270645701
 31
0.0
 11
15.5237642754
 21
-30.096647676
 31
0.0
 11
15.5110558715
 21
-30.0577152928
 31
0.0
 11
15.5067371535
 21
-30.0124460224
 31
0.0
  0
SPLINE
  5
48F
100
AcDbEntity
  8
RACCORDO
100
AcDbSpline
 62
253
  6
CONTINUOUS
 70
0
 71
3
 72
9
 73
5
 74
3
 42
0.0000001
 43
0.0000001
 44
0.0000000001
 12
-0.0618068848
 22
-0.193173312
 32
0.0
 13
0.0
 23
-0.2028201654
 33
0.0
 40
0.0
 40
0.0
 40
0.0
 40
0.0
 40
0.2612978907
 40
1.0
 40
1.0
 40
1.0
 40
1.0
 10
3.9433415959
 20
18.4773895686
 30
0.0
 10
3.9379582596
 20
18.460564309
 30
0.0
 10
3.9195785289
 20
18.3955157977
 30
0.0
 10
3.9101859421
 20
18.3276791805
 30
0.0
 10
3.9101859421
 20
18.2777379525
 30
0.0
 11
3.9433415959
 21
18.4773895686
 31
0.0
 11
3.9289667014
 21
18.426379869
 31
0.0
 11
3.9101859421
 21
18.2777379525
 31
0.0
  0
SPLINE
  5
490
100
AcDbEntity
  8
RACCORDO
100
AcDbSpline
 62
253
  6
CONTINUOUS
 70
0
 71
3
 72
11
 73
7
 74
5
 42
0.0000001
 43
0.0000001
 44
0.0000000001
 12
0.107613809
 22
0.0538069045
 32
0.0
 13
0.0
 23
0.1203158962
 33
0.0
 40
0.0
 40
0.0
 40
0.0
 40
0.0
 40
0.3018806002
 40
0.565479033
 40
0.7935241085
 40
1.0
 40
1.0
 40
1.0
 40
1.0
 10
3.9101859421
 20
18.2777379525
 30
0.0
 10
3.9210147825
 20
18.2831523727
 30
0.0
 10
3.940605826
 20
18.2948258265
 30
0.0
 10
3.9644688939
 20
18.3162950591
 30
0.0
 10
3.9797382215
 20
18.3402901293
 30
0.0
 10
3.9834092468
 20
18.3578455228
 30
0.0
 10
3.9834092468
 20
18.3661263002
 30
0.0
 11
3.9101859421
 21
18.2777379525
 31
0.0
 11
3.9411951707
 21
18.2966494654
 31
0.0
 11
3.9643791299
 21
18.3182908711
 31
0.0
 11
3.9786034092
 21
18.341753254
 31
0.0
 11
3.9834092468
 21
18.3661263002
 31
0.0
  0
SPLINE
  5
491
100
AcDbEntity
  8
RACCORDO
100
AcDbSpline
 62
253
  6
CONTINUOUS
 70
0
 71
3
 72
10
 73
6
 74
4
 42
0.0000001
 43
0.0000001
 44
0.0000000001
 12
0.0397280143
 22
-0.0644118378
 32
0.0
 13
-0.0482235685
 23
-0.0583239866
 33
0.0
 40
0.0
 40
0.0
 40
0.0
 40
0.0
 40
0.3492690482
 40
0.6298549571
 40
1.0
 40
1.0
 40
1.0
 40
1.0
 10
4.6172927233
 20
19.3812913431
 30
0.0
 10
4.6219179785
 20
19.3737923227
 30
0.0
 10
4.629596788
 20
19.3596494113
 30
0.0
 10
4.6386078675
 20
19.3367214791
 30
0.0
 10
4.6389810672
 20
19.3173910426
 30
0.0
 10
4.6330311623
 20
19.3101949311
 30
0.0
 11
4.6172927233
 21
19.3812913431
 31
0.0
 11
4.6298181752
 21
19.3580154394
 31
0.0
 11
4.6367800265
 21
19.3379548757
 31
0.0
 11
4.6330311623
 21
19.3101949311
 31
0.0
  0
SPLINE
  5
492
100
AcDbEntity
  8
RACCORDO
100
AcDbSpline
 62
253
  6
CONTINUOUS
 70
0
 71
3
 72
10
 73
6
 74
4
 42
0.0000001
 43
0.0000001
 44
0.0000000001
 12
0.0397280143
 22
-0.0644118378
 32
0.0
 13
-0.0482235685
 23
-0.0583239866
 33
0.0
 40
0.0
 40
0.0
 40
0.0
 40
0.0
 40
0.3492690482
 40
0.6298549571
 40
1.0
 40
1.0
 40
1.0
 40
1.0
 10
4.0869626374
 20
18.7411263002
 30
0.0
 10
4.0915878926
 20
18.7336272797
 30
0.0
 10
4.0992667021
 20
18.7194843683
 30
0.0
 10
4.1082777816
 20
18.6965564362
 30
0.0
 10
4.1086509813
 20
18.6772259996
 30
0.0
 10
4.1027010764
 20
18.6700298881
 30
0.0
 11
4.0869626374
 21
18.7411263002
 31
0.0
 11
4.0994880894
 21
18.7178503964
 31
0.0
 11
4.1064499406
 21
18.6977898327
 31
0.0
 11
4.1027010764
 21
18.6700298881
 31
0.0
  0
SPLINE
  5
493
100
AcDbEntity
  8
RACCORDO
100
AcDbSpline
 62
253
  6
CONTINUOUS
 70
0
 71
3
 72
11
 73
7
 74
5
 42
0.0000001
 43
0.0000001
 44
0.0000000001
 12
-0.0000428024
 22
-0.120294451
 32
0.0
 13
-0.1075946347
 23
-0.0537973174
 33
0.0
 40
0.0
 40
0.0
 40
0.0
 40
0.0
 40
0.2065139657
 40
0.4345738457
 40
0.6981297526
 40
1.0
 40
1.0
 40
1.0
 40
1.0
 10
18.0548342089
 20
-28.8634190593
 30
0.0
 10
18.0548312624
 20
-28.8716998873
 30
0.0
 10
18.0511507988
 20
-28.8892519462
 30
0.0
 10
18.0358834494
 20
-28.9132412707
 30
0.0
 10
18.0120248598
 20
-28.9347054238
 30
0.0
 10
17.9924374273
 20
-28.9463725807
 30
0.0
 10
17.9816108877
 20
-28.9517858506
 30
0.0
 11
18.0548342089
 21
-28.8634190593
 31
0.0
 11
18.0500182508
 21
-28.8877902645
 31
0.0
 11
18.0357922681
 21
-28.91124798
 31
0.0
 11
18.0126150102
 21
-28.9328807865
 31
0.0
 11
17.9816108877
 21
-28.9517858506
 31
0.0
  0
SPLINE
  5
494
100
AcDbEntity
  8
RACCORDO
100
AcDbSpline
 62
253
  6
CONTINUOUS
 70
0
 71
3
 72
9
 73
5
 74
3
 42
0.0000001
 43
0.0000001
 44
0.0000000001
 12
-0.0564143035
 22
-0.0270011266
 32
0.0
 13
-0.0621381577
 23
0.0071051982
 33
0.0
 40
0.0
 40
0.0
 40
0.0
 40
0.0
 40
0.2713526231
 40
1.0
 40
1.0
 40
1.0
 40
1.0
 10
4.0491391553
 20
18.0201876875
 30
0.0
 10
4.0440364322
 20
18.017745412
 30
0.0
 10
4.0248052021
 20
18.0097859499
 30
0.0
 10
4.003309271
 20
18.006347409
 30
0.0
 10
3.9882170025
 20
18.008073137
 30
0.0
 11
4.0491391553
 21
18.0201876875
 31
0.0
 11
4.0334327877
 21
18.0137586558
 31
0.0
 11
3.9882170025
 21
18.008073137
 31
0.0
  0
SPLINE
  5
495
100
AcDbEntity
  8
RACCORDO
100
AcDbSpline
 62
253
  6
CONTINUOUS
 70
0
 71
3
 72
8
 73
4
 74
2
 42
0.0000001
 43
0.0000001
 44
0.0000000001
 12
-0.0269734927
 22
0.0030842886
 32
0.0
 13
-0.0242873509
 23
0.012132878
 33
0.0
 40
0.0
 40
0.0
 40
0.0
 40
0.0
 40
1.0
 40
1.0
 40
1.0
 40
1.0
 10
3.9882170025
 20
18.008073137
 30
0.0
 10
3.9792258382
 20
18.0091012332
 30
0.0
 10
3.970262455
 20
18.0116749147
 30
0.0
 10
3.9621666714
 20
18.0157192074
 30
0.0
 11
3.9882170025
 21
18.008073137
 31
0.0
 11
3.9621666714
 21
18.0157192074
 31
0.0
  0
SPLINE
  5
496
100
AcDbEntity
  8
RACCORDO
100
AcDbSpline
 62
253
  6
CONTINUOUS
 70
0
 71
3
 72
11
 73
7
 74
5
 42
0.0000001
 43
0.0000001
 44
0.0000000001
 12
0.0
 22
-0.1203158962
 32
0.0
 13
-0.107613809
 23
-0.0538069045
 33
0.0
 40
0.0
 40
0.0
 40
0.0
 40
0.0
 40
0.2064758915
 40
0.434520967
 40
0.6981193998
 40
1.0
 40
1.0
 40
1.0
 40
1.0
 10
18.0548341924
 20
-28.5120835308
 30
0.0
 10
18.0548341924
 20
-28.5203643082
 30
0.0
 10
18.0511631671
 20
-28.5379197017
 30
0.0
 10
18.0358938395
 20
-28.5619147719
 30
0.0
 10
18.0120307716
 20
-28.5833840045
 30
0.0
 10
17.9924397281
 20
-28.5950574583
 30
0.0
 10
17.9816108877
 20
-28.6004718785
 30
0.0
 11
18.0548341924
 21
-28.5120835308
 31
0.0
 11
18.0500283549
 21
-28.5364565771
 31
0.0
 11
18.0358040755
 21
-28.5599189599
 31
0.0
 11
18.0126201163
 21
-28.5815603656
 31
0.0
 11
17.9816108877
 21
-28.6004718785
 31
0.0
  0
SPLINE
  5
497
100
AcDbEntity
  8
RACCORDO
100
AcDbSpline
 62
253
  6
CONTINUOUS
 70
0
 71
3
 72
15
 73
11
 74
9
 42
0.0000001
 43
0.0000001
 44
0.0000000001
 12
0.3860288314
 22
0.1845698783
 32
0.0
 13
-0.3827055692
 23
0.1913654774
 33
0.0
 40
0.0
 40
0.0
 40
0.0
 40
0.0
 40
0.1514155391
 40
0.2826460431
 40
0.3956500446
 40
0.4978214288
 40
0.6004154458
 40
0.7145216826
 40
0.8471605453
 40
1.0
 40
1.0
 40
1.0
 40
1.0
 10
4.0491391553
 20
17.7087920744
 30
0.0
 10
4.0686227432
 20
17.7181076569
 30
0.0
 10
4.1038393475
 20
17.7382029054
 30
0.0
 10
4.1467499539
 20
17.7755805766
 30
0.0
 10
4.1743409142
 20
17.817595277
 30
0.0
 10
4.1840440414
 20
17.8631396491
 30
0.0
 10
4.1742872715
 20
17.9088169875
 30
0.0
 10
4.1467212665
 20
17.9513104602
 30
0.0
 10
4.1038621186
 20
17.9895679741
 30
0.0
 10
4.0686366588
 20
18.0104382891
 30
0.0
 10
4.0491391553
 20
18.0201876875
 30
0.0
 11
4.0491391553
 21
17.7087920744
 31
0.0
 11
4.1050451244
 21
17.7415340212
 31
0.0
 11
4.1466955082
 21
17.7791933062
 31
0.0
 11
4.172288974
 21
17.8202170005
 31
0.0
 11
4.1809145646
 21
17.8630750764
 31
0.0
 11
4.1722929549
 21
17.9061183981
 31
0.0
 11
4.1466876728
 21
17.9476896599
 31
0.0
 11
4.1050346742
 21
17.9862388779
 31
0.0
 11
4.0491391553
 21
18.0201876875
 31
0.0
  0
SPLINE
  5
498
100
AcDbEntity
  8
RACCORDO
100
AcDbSpline
 62
253
  6
CONTINUOUS
 70
0
 71
3
 72
11
 73
7
 74
5
 42
0.0000001
 43
0.0000001
 44
0.0000000001
 12
-0.262790765
 22
0.1313953819
 32
0.0
 13
0.0041573225
 23
0.2937795929
 33
0.0
 40
0.0
 40
0.0
 40
0.0
 40
0.0
 40
0.2292208772
 40
0.4872317535
 40
0.7522441527
 40
1.0
 40
1.0
 40
1.0
 40
1.0
 10
4.0491391553
 20
17.7087920744
 30
0.0
 10
4.0290601121
 20
17.7188315959
 30
0.0
 10
3.9907542437
 20
17.7489791992
 30
0.0
 10
3.9468880702
 20
17.8089907095
 30
0.0
 10
3.9174785609
 20
17.8792269717
 30
0.0
 10
3.9098426084
 20
17.9296536541
 30
0.0
 10
3.9101859421
 20
17.9539155247
 30
0.0
 11
4.0491391553
 21
17.7087920744
 31
0.0
 11
3.9952074222
 21
17.7491282602
 31
0.0
 11
3.9498620585
 21
17.8098763911
 31
0.0
 11
3.9200064846
 21
17.8817881156
 31
0.0
 11
3.9101859421
 21
17.9539155247
 31
0.0
  0
SPLINE
  5
499
100
AcDbEntity
  8
RACCORDO
100
AcDbSpline
 62
253
  6
CONTINUOUS
 70
0
 71
3
 72
10
 73
6
 74
4
 42
0.0000001
 43
0.0000001
 44
0.0000000001
 12
0.1000264795
 22
0.0461621917
 32
0.0
 13
0.0114502833
 23
0.1095679495
 33
0.0
 40
0.0
 40
0.0
 40
0.0
 40
0.0
 40
0.3046286573
 40
0.5704755089
 40
1.0
 40
1.0
 40
1.0
 40
1.0
 10
3.9101859421
 20
17.9539155247
 30
0.0
 10
3.9203429194
 20
17.9586029669
 30
0.0
 10
3.9388369247
 20
17.9687817582
 30
0.0
 10
3.9674457168
 20
17.9916962702
 30
0.0
 10
3.9814433258
 20
18.0157593121
 30
0.0
 10
3.9830827182
 20
18.0314466847
 30
0.0
 11
3.9101859421
 21
17.9539155247
 31
0.0
 11
3.939474442
 21
17.9702987633
 31
0.0
 11
3.9619013178
 21
17.9891338064
 31
0.0
 11
3.9830827182
 21
18.0314466847
 31
0.0
  0
SPLINE
  5
49A
100
AcDbEntity
  8
RACCORDO
100
AcDbSpline
 62
253
  6
CONTINUOUS
 70
0
 71
3
 72
11
 73
7
 74
5
 42
0.0000001
 43
0.0000001
 44
0.0000000001
 12
-0.2627907646
 22
0.1313953824
 32
0.0
 13
0.0041573218
 23
0.2937795929
 33
0.0
 40
0.0
 40
0.0
 40
0.0
 40
0.0
 40
0.2292208809
 40
0.4872317594
 40
0.752244156
 40
1.0
 40
1.0
 40
1.0
 40
1.0
 10
3.3420323741
 20
17.3703552134
 30
0.0
 10
3.3219533306
 20
17.3803947352
 30
0.0
 10
3.2836474619
 20
17.410542339
 30
0.0
 10
3.2397812884
 20
17.4705538497
 30
0.0
 10
3.2103717796
 20
17.5407901117
 30
0.0
 10
3.2027358273
 20
17.5912167935
 30
0.0
 10
3.2030791609
 20
17.6154786638
 30
0.0
 11
3.3420323741
 21
17.3703552134
 31
0.0
 11
3.2881006403
 21
17.4106914002
 31
0.0
 11
3.2427552765
 21
17.4714395317
 31
0.0
 11
3.2128997032
 21
17.5433512556
 31
0.0
 11
3.2030791609
 21
17.6154786638
 31
0.0
  0
SPLINE
  5
49B
100
AcDbEntity
  8
RACCORDO
100
AcDbSpline
 62
253
  6
CONTINUOUS
 70
0
 71
3
 72
11
 73
7
 74
5
 42
0.0000001
 43
0.0000001
 44
0.0000000001
 12
0.5843324218
 22
-0.2920747136
 32
0.0
 13
0.5891333018
 23
0.2822657793
 33
0.0
 40
0.0
 40
0.0
 40
0.0
 40
0.0
 40
0.2359339744
 40
0.5010327342
 40
0.7655841254
 40
1.0
 40
1.0
 40
1.0
 40
1.0
 10
2.7056362711
 20
17.3771576518
 30
0.0
 10
2.7515908946
 20
17.3541875358
 30
0.0
 10
2.8569832585
 20
17.3210729819
 30
0.0
 10
3.0236721418
 20
17.3039920304
 30
0.0
 10
3.1903497118
 20
17.3174481273
 30
0.0
 10
3.2959983081
 20
17.3482993536
 30
0.0
 10
3.3420323741
 20
17.3703552134
 30
0.0
 11
2.7056362711
 21
17.3771576518
 31
0.0
 11
2.8516680758
 21
17.327864702
 31
0.0
 11
3.0238467542
 21
17.3092769464
 31
0.0
 11
3.1960244055
 21
17.3241812076
 31
0.0
 11
3.3420323741
 21
17.3703552134
 31
0.0
  0
SPLINE
  5
49C
100
AcDbEntity
  8
RACCORDO
100
AcDbSpline
 62
253
  6
CONTINUOUS
 70
0
 71
3
 72
11
 73
7
 74
5
 42
0.0000001
 43
0.0000001
 44
0.0000000001
 12
0.2673132834
 22
0.1279420285
 32
0.0
 13
0.000000009
 23
0.2963537652
 33
0.0
 40
0.0
 40
0.0
 40
0.0
 40
0.0
 40
0.2286190611
 40
0.4870721424
 40
0.7526205645
 40
1.0
 40
1.0
 40
1.0
 40
1.0
 10
2.7056362711
 20
17.3771576518
 30
0.0
 10
2.7260072417
 20
17.3869076472
 30
0.0
 10
2.7650730253
 20
17.4167636686
 30
0.0
 10
2.8102103952
 20
17.4766671165
 30
0.0
 10
2.8410006816
 20
17.5470874182
 30
0.0
 10
2.8495257695
 20
17.5978438264
 30
0.0
 10
2.8495257703
 20
17.6222811022
 30
0.0
 11
2.7056362711
 21
17.3771576518
 31
0.0
 11
2.7605091542
 21
17.4168982657
 31
0.0
 11
2.8072279583
 21
17.4775936056
 31
0.0
 11
2.8385233273
 21
17.5497995856
 31
0.0
 11
2.8495257703
 21
17.6222811022
 31
0.0
  0
SPLINE
  5
49D
100
AcDbEntity
  8
RACCORDO
100
AcDbSpline
 62
253
  6
CONTINUOUS
 70
0
 71
3
 72
11
 73
7
 74
5
 42
0.0000001
 43
0.0000001
 44
0.0000000001
 12
0.3243712491
 22
-0.1621680348
 32
0.0
 13
0.3292300846
 23
0.1520615998
 33
0.0
 40
0.0
 40
0.0
 40
0.0
 40
0.0
 40
0.2363471691
 40
0.5018768777
 40
0.7663880892
 40
1.0
 40
1.0
 40
1.0
 40
1.0
 10
2.8495257703
 20
17.6222811022
 30
0.0
 10
2.8750805124
 20
17.6095051168
 30
0.0
 10
2.9336058015
 20
17.5909293282
 30
0.0
 10
3.026153098
 20
17.5808034002
 30
0.0
 10
3.1186847312
 20
17.5873191572
 30
0.0
 10
3.1774418045
 20
17.6036375302
 30
0.0
 10
3.2030791609
 20
17.6154786638
 30
0.0
 11
2.8495257703
 21
17.6222811022
 31
0.0
 11
2.9306640792
 21
17.5946584546
 31
0.0
 11
3.0263308963
 21
17.5836824476
 31
0.0
 11
3.1219775185
 21
17.590985767
 31
0.0
 11
3.2030791609
 21
17.6154786638
 31
0.0
  0
SPLINE
  5
49E
100
AcDbEntity
  8
RACCORDO
100
AcDbSpline
 62
253
  6
CONTINUOUS
 70
0
 71
3
 72
11
 73
7
 74
5
 42
0.0000001
 43
0.0000001
 44
0.0000000001
 12
0.267313289
 22
0.1279420203
 32
0.0
 13
-0.0000000003
 23
0.2963537667
 33
0.0
 40
0.0
 40
0.0
 40
0.0
 40
0.0
 40
0.2286190318
 40
0.4870720935
 40
0.7526205358
 40
1.0
 40
1.0
 40
1.0
 40
1.0
 10
1.3621333868
 20
18.0489090939
 30
0.0
 10
1.3825043553
 20
18.0586590875
 30
0.0
 10
1.4215701369
 20
18.0885151035
 30
0.0
 10
1.4667075075
 20
18.1484185481
 30
0.0
 10
1.4974977971
 20
18.218838852
 30
0.0
 10
1.5060228861
 20
18.2695952656
 30
0.0
 10
1.506022886
 20
18.2940325443
 30
0.0
 11
1.3621333868
 21
18.0489090939
 31
0.0
 11
1.4170062652
 21
18.0886497002
 31
0.0
 11
1.4637250685
 21
18.1493450339
 31
0.0
 11
1.495020442
 21
18.2215510189
 31
0.0
 11
1.506022886
 21
18.2940325443
 31
0.0
  0
SPLINE
  5
49F
100
AcDbEntity
  8
RACCORDO
100
AcDbSpline
 62
253
  6
CONTINUOUS
 70
0
 71
3
 72
8
 73
4
 74
2
 42
0.0000001
 43
0.0000001
 44
0.0000000001
 12
0.0156792675
 22
-0.000791969
 32
0.0
 13
0.0155782856
 23
0.0019451638
 33
0.0
 40
0.0
 40
0.0
 40
0.0
 40
0.0
 40
1.0
 40
1.0
 40
1.0
 40
1.0
 10
1.410678904
 20
18.346637204
 30
0.0
 10
1.4159053265
 20
18.3463732144
 30
0.0
 10
1.4211756247
 20
18.346542695
 30
0.0
 10
1.4263683865
 20
18.347191083
 30
0.0
 11
1.410678904
 21
18.346637204
 31
0.0
 11
1.4263683865
 21
18.347191083
 31
0.0
  0
SPLINE
  5
4A0
100
AcDbEntity
  8
RACCORDO
100
AcDbSpline
 62
253
  6
CONTINUOUS
 70
0
 71
3
 72
8
 73
4
 74
2
 42
0.0000001
 43
0.0000001
 44
0.0000000001
 12
0.0253921028
 22
0.0031705542
 32
0.0
 13
0.0230832389
 23
0.0110442465
 33
0.0
 40
0.0
 40
0.0
 40
0.0
 40
0.0
 40
1.0
 40
1.0
 40
1.0
 40
1.0
 10
1.4263683865
 20
18.347191083
 30
0.0
 10
1.4348324208
 20
18.3482479344
 30
0.0
 10
1.4432515067
 20
18.3506340034
 30
0.0
 10
1.4509459197
 20
18.3543154189
 30
0.0
 11
1.4263683865
 21
18.347191083
 31
0.0
 11
1.4509459197
 21
18.3543154189
 31
0.0
  0
SPLINE
  5
4A1
100
AcDbEntity
  8
RACCORDO
100
AcDbSpline
 62
253
  6
CONTINUOUS
 70
0
 71
3
 72
9
 73
5
 74
3
 42
0.0000001
 43
0.0000001
 44
0.0000000001
 12
0.0784028949
 22
-0.1179873957
 32
0.0
 13
0.1266981488
 23
-0.0633689085
 33
0.0
 40
0.0
 40
0.0
 40
0.0
 40
0.0
 40
0.2185316941
 40
1.0
 40
1.0
 40
1.0
 40
1.0
 10
1.2526487805
 20
18.1373178602
 30
0.0
 10
1.258359953
 20
18.1287231984
 30
0.0
 10
1.2882498132
 20
18.0918701807
 30
0.0
 10
1.3291298576
 20
18.0654160251
 30
0.0
 10
1.3621333868
 20
18.0489090939
 30
0.0
 11
1.2526487805
 21
18.1373178602
 31
0.0
 11
1.2719485649
 21
18.1131127027
 31
0.0
 11
1.3621333868
 21
18.0489090939
 31
0.0
  0
SPLINE
  5
4A2
100
AcDbEntity
  8
RACCORDO
100
AcDbSpline
 62
253
  6
CONTINUOUS
 70
0
 71
3
 72
9
 73
5
 74
3
 42
0.0000001
 43
0.0000001
 44
0.0000000001
 12
0.0812967028
 22
0.0437701768
 32
0.0
 13
0.038222943
 23
0.0840475395
 33
0.0
 40
0.0
 40
0.0
 40
0.0
 40
0.0
 40
0.2871604962
 40
1.0
 40
1.0
 40
1.0
 40
1.0
 10
17.2745041065
 20
-27.8802028413
 30
0.0
 10
17.2822858403
 20
-27.8760131528
 30
0.0
 10
17.308441114
 20
-27.8601082179
 30
0.0
 10
17.3318428172
 20
-27.8371837121
 30
0.0
 10
17.3409250918
 20
-27.81721291
 30
0.0
 11
17.2745041065
 21
-27.8802028413
 31
0.0
 11
17.2970803005
 21
-27.8662997729
 31
0.0
 11
17.3409250918
 21
-27.81721291
 31
0.0
  0
SPLINE
  5
4A3
100
AcDbEntity
  8
RACCORDO
100
AcDbSpline
 62
253
  6
CONTINUOUS
 70
0
 71
3
 72
9
 73
5
 74
3
 42
0.0000001
 43
0.0000001
 44
0.0000000001
 12
-0.0004368348
 22
0.0304323504
 32
0.0
 13
0.0045336488
 23
0.0300959267
 33
0.0
 40
0.0
 40
0.0
 40
0.0
 40
0.0
 40
0.257568287
 40
1.0
 40
1.0
 40
1.0
 40
1.0
 10
17.2745041065
 20
-27.8802028413
 30
0.0
 10
17.2744666016
 20
-27.8775900385
 30
0.0
 10
17.2745128511
 20
-27.867444864
 30
0.0
 10
17.2753390171
 20
-27.8572971236
 30
0.0
 10
17.276460992
 20
-27.8498490668
 30
0.0
 11
17.2745041065
 21
-27.8802028413
 31
0.0
 11
17.2745421672
 21
-27.8723637179
 31
0.0
 11
17.276460992
 21
-27.8498490668
 31
0.0
  0
SPLINE
  5
4A4
100
AcDbEntity
  8
RACCORDO
100
AcDbSpline
 62
253
  6
CONTINUOUS
 70
0
 71
3
 72
9
 73
5
 74
3
 42
0.0000001
 43
0.0000001
 44
0.0000000001
 12
-0.0009125278
 22
0.0635717876
 32
0.0
 13
0.0243936007
 23
0.0587124955
 33
0.0
 40
0.0
 40
0.0
 40
0.0
 40
0.0
 40
0.2692555591
 40
1.0
 40
1.0
 40
1.0
 40
1.0
 10
16.5673973253
 20
-28.2488727616
 30
0.0
 10
16.5673154242
 20
-28.2431670758
 30
0.0
 10
16.5678803326
 20
-28.2220006424
 30
0.0
 10
16.5720974584
 20
-28.2007260132
 30
0.0
 10
16.5780392878
 20
-28.1864247367
 30
0.0
 11
16.5673973253
 21
-28.2488727616
 31
0.0
 11
16.5678844142
 21
-28.2317608721
 31
0.0
 11
16.5780392878
 21
-28.1864247367
 31
0.0
  0
SPLINE
  5
4A5
100
AcDbEntity
  8
RACCORDO
100
AcDbSpline
 62
253
  6
CONTINUOUS
 70
0
 71
3
 72
9
 73
5
 74
3
 42
0.0000001
 43
0.0000001
 44
0.0000000001
 12
0.1992318979
 22
-0.0123680175
 32
0.0
 13
0.1828185238
 23
0.0801480152
 33
0.0
 40
0.0
 40
0.0
 40
0.0
 40
0.0
 40
0.518907027
 40
1.0
 40
1.0
 40
1.0
 40
1.0
 10
16.3518829768
 20
-28.2894717379
 30
0.0
 10
16.3863439207
 20
-28.2916110216
 30
0.0
 10
16.4533253248
 20
-28.2885809638
 30
0.0
 10
16.5184241286
 20
-28.2712750505
 30
0.0
 10
16.5477416976
 20
-28.2584221682
 30
0.0
 11
16.3518829768
 21
-28.2894717379
 31
0.0
 11
16.4553512458
 21
-28.2846224039
 31
0.0
 11
16.5477416976
 21
-28.2584221682
 31
0.0
  0
SPLINE
  5
4A6
100
AcDbEntity
  8
RACCORDO
100
AcDbSpline
 62
253
  6
CONTINUOUS
 70
0
 71
3
 72
9
 73
5
 74
3
 42
0.0000001
 43
0.0000001
 44
0.0000000001
 12
-0.1688342853
 22
0.1612772804
 32
0.0
 13
0.0033037564
 23
0.2334619075
 33
0.0
 40
0.0
 40
0.0
 40
0.0
 40
0.0
 40
0.5059024405
 40
1.0
 40
1.0
 40
1.0
 40
1.0
 10
16.658103066
 20
10.722925123
 30
0.0
 10
16.6296318403
 20
10.7501219796
 30
0.0
 10
16.5855953534
 20
10.8168182934
 30
0.0
 10
16.5668531993
 20
10.8948685953
 30
0.0
 10
16.5673973253
 20
10.9333195816
 30
0.0
 11
16.658103066
 21
10.722925123
 31
0.0
 11
16.5915492706
 21
10.8205115442
 31
0.0
 11
16.5673973253
 21
10.9333195816
 31
0.0
  0
SPLINE
  5
4A7
100
AcDbEntity
  8
RACCORDO
100
AcDbSpline
 62
253
  6
CONTINUOUS
 70
0
 71
3
 72
9
 73
5
 74
3
 42
0.0000001
 43
0.0000001
 44
0.0000000001
 12
0.1673638995
 22
-0.0836557432
 32
0.0
 13
0.1844285446
 23
-0.0315447325
 33
0.0
 40
0.0
 40
0.0
 40
0.0
 40
0.0
 40
0.2305413761
 40
1.0
 40
1.0
 40
1.0
 40
1.0
 10
16.0699544355
 20
10.6949985695
 30
0.0
 10
16.08281587
 20
10.6885698662
 30
0.0
 10
16.139924492
 20
10.6633371213
 30
0.0
 10
16.2009392854
 20
10.647611537
 30
0.0
 10
16.2482426634
 20
10.6395207482
 30
0.0
 11
16.0699544355
 21
10.6949985695
 31
0.0
 11
16.109355281
 21
10.6774407819
 31
0.0
 11
16.2482426634
 21
10.6395207482
 31
0.0
  0
SPLINE
  5
4A8
100
AcDbEntity
  8
RACCORDO
100
AcDbSpline
 62
253
  6
CONTINUOUS
 70
0
 71
3
 72
11
 73
7
 74
5
 42
0.0000001
 43
0.0000001
 44
0.0000000001
 12
0.2673132834
 22
0.1279420285
 32
0.0
 13
0.000000009
 23
0.2963537652
 33
0.0
 40
0.0
 40
0.0
 40
0.0
 40
0.0
 40
0.2286190611
 40
0.4870721424
 40
0.7526205645
 40
1.0
 40
1.0
 40
1.0
 40
1.0
 10
16.0699544355
 20
10.6949985695
 30
0.0
 10
16.0903254061
 20
10.704748565
 30
0.0
 10
16.1293911897
 20
10.7346045864
 30
0.0
 10
16.1745285596
 20
10.7945080343
 30
0.0
 10
16.205318846
 20
10.864928336
 30
0.0
 10
16.213843934
 20
10.9156847442
 30
0.0
 10
16.2138439347
 20
10.9401220199
 30
0.0
 11
16.0699544355
 21
10.6949985695
 31
0.0
 11
16.1248273186
 21
10.7347391835
 31
0.0
 11
16.1715461227
 21
10.7954345234
 31
0.0
 11
16.2028414917
 21
10.8676405034
 31
0.0
 11
16.2138439347
 21
10.9401220199
 31
0.0
  0
SPLINE
  5
4A9
100
AcDbEntity
  8
RACCORDO
100
AcDbSpline
 62
253
  6
CONTINUOUS
 70
0
 71
3
 72
11
 73
7
 74
5
 42
0.0000001
 43
0.0000001
 44
0.0000000001
 12
0.3243712491
 22
-0.1621680348
 32
0.0
 13
0.3292300846
 23
0.1520615998
 33
0.0
 40
0.0
 40
0.0
 40
0.0
 40
0.0
 40
0.2363471691
 40
0.5018768777
 40
0.7663880892
 40
1.0
 40
1.0
 40
1.0
 40
1.0
 10
16.2138439347
 20
10.9401220199
 30
0.0
 10
16.2393986769
 20
10.9273460346
 30
0.0
 10
16.2979239659
 20
10.908770246
 30
0.0
 10
16.3904712625
 20
10.898644318
 30
0.0
 10
16.4830028956
 20
10.905160075
 30
0.0
 10
16.5417599689
 20
10.921478448
 30
0.0
 10
16.5673973253
 20
10.9333195816
 30
0.0
 11
16.2138439347
 21
10.9401220199
 31
0.0
 11
16.2949822436
 21
10.9124993724
 31
0.0
 11
16.3906490608
 21
10.9015233654
 31
0.0
 11
16.4862956829
 21
10.9088266848
 31
0.0
 11
16.5673973253
 21
10.9333195816
 31
0.0
  0
SPLINE
  5
4AA
100
AcDbEntity
  8
RACCORDO
100
AcDbSpline
 62
253
  6
CONTINUOUS
 70
0
 71
3
 72
11
 73
7
 74
5
 42
0.0000001
 43
0.0000001
 44
0.0000000001
 12
0.267313289
 22
0.1279420203
 32
0.0
 13
-0.0000000003
 23
0.2963537667
 33
0.0
 40
0.0
 40
0.0
 40
0.0
 40
0.0
 40
0.2286190318
 40
0.4870720935
 40
0.7526205358
 40
1.0
 40
1.0
 40
1.0
 40
1.0
 10
14.7264515512
 20
11.3667500117
 30
0.0
 10
14.7468225197
 20
11.3765000053
 30
0.0
 10
14.7858883014
 20
11.4063560213
 30
0.0
 10
14.8310256719
 20
11.4662594659
 30
0.0
 10
14.8618159615
 20
11.5366797698
 30
0.0
 10
14.8703410505
 20
11.5874361834
 30
0.0
 10
14.8703410505
 20
11.6118734621
 30
0.0
 11
14.7264515512
 21
11.3667500117
 31
0.0
 11
14.7813244296
 21
11.406490618
 31
0.0
 11
14.828043233
 21
11.4671859517
 31
0.0
 11
14.8593386064
 21
11.5393919367
 31
0.0
 11
14.8703410505
 21
11.6118734621
 31
0.0
  0
SPLINE
  5
4AB
100
AcDbEntity
  8
RACCORDO
100
AcDbSpline
 62
253
  6
CONTINUOUS
 70
0
 71
3
 72
15
 73
11
 74
9
 42
0.0000001
 43
0.0000001
 44
0.0000000001
 12
-0.385973033
 22
-0.1846858223
 32
0.0
 13
0.3826864049
 23
-0.1914031106
 33
0.0
 40
0.0
 40
0.0
 40
0.0
 40
0.0
 40
0.1514215024
 40
0.2826422058
 40
0.3956485339
 40
0.4978215362
 40
0.6004151778
 40
0.7145220656
 40
0.8471579877
 40
1.0
 40
1.0
 40
1.0
 40
1.0
 10
14.7264515512
 20
11.6781456249
 30
0.0
 10
14.7069700124
 20
11.6688238233
 30
0.0
 10
14.6717543142
 20
11.6487305678
 30
0.0
 10
14.6288385593
 20
11.6113581838
 30
0.0
 10
14.6012499636
 20
11.569342627
 30
0.0
 10
14.5915464437
 20
11.523798056
 30
0.0
 10
14.6013034838
 20
11.4781205712
 30
0.0
 10
14.6288681867
 20
11.435626684
 30
0.0
 10
14.6717292884
 20
11.3973709139
 30
0.0
 10
14.7069546978
 20
11.3765014905
 30
0.0
 10
14.7264515512
 20
11.3667500117
 30
0.0
 11
14.7264515512
 21
11.6781456249
 31
0.0
 11
14.6705455126
 21
11.6453988402
 31
0.0
 11
14.6288951675
 21
11.6077458257
 31
0.0
 11
14.6033015951
 21
11.5667210655
 31
0.0
 11
14.5946760192
 21
11.5238623125
 31
0.0
 11
14.603297557
 21
11.4808191724
 31
0.0
 11
14.6289025719
 21
11.4392474601
 31
0.0
 11
14.6705557055
 21
11.4007003006
 31
0.0
 11
14.7264515512
 21
11.3667500117
 31
0.0
  0
SPLINE
  5
4AC
100
AcDbEntity
  8
RACCORDO
100
AcDbSpline
 62
253
  6
CONTINUOUS
 70
0
 71
3
 72
9
 73
5
 74
3
 42
0.0000001
 43
0.0000001
 44
0.0000000001
 12
0.0592552807
 22
-0.0296276402
 32
0.0
 13
0.0657206195
 23
0.0083537735
 33
0.0
 40
0.0
 40
0.0
 40
0.0
 40
0.0
 40
0.2718090839
 40
1.0
 40
1.0
 40
1.0
 40
1.0
 10
14.7264515512
 20
11.6781456249
 30
0.0
 10
14.7318202591
 20
11.6754612709
 30
0.0
 10
14.7520597115
 20
11.6667293618
 30
0.0
 10
14.7749273839
 20
11.6630191751
 30
0.0
 10
14.7908797699
 20
11.6650468891
 30
0.0
 11
14.7264515512
 21
11.6781456249
 31
0.0
 11
14.7430169665
 21
11.6710854522
 31
0.0
 11
14.7908797699
 21
11.6650468891
 31
0.0
  0
SPLINE
  5
4AD
100
AcDbEntity
  8
RACCORDO
100
AcDbSpline
 62
253
  6
CONTINUOUS
 70
0
 71
3
 72
8
 73
4
 74
2
 42
0.0000001
 43
0.0000001
 44
0.0000000001
 12
0.0251959546
 22
0.0032026676
 32
0.0
 13
0.0229137509
 23
0.0109568804
 33
0.0
 40
0.0
 40
0.0
 40
0.0
 40
0.0
 40
1.0
 40
1.0
 40
1.0
 40
1.0
 10
14.7908797699
 20
11.6650468891
 30
0.0
 10
14.7992784215
 20
11.666114445
 30
0.0
 10
14.8076237608
 20
11.6685090723
 30
0.0
 10
14.8152616778
 20
11.6721613658
 30
0.0
 11
14.7908797699
 21
11.6650468891
 31
0.0
 11
14.8152616778
 21
11.6721613658
 31
0.0
  0
SPLINE
  5
4AE
100
AcDbEntity
  8
RACCORDO
100
AcDbSpline
 62
253
  6
CONTINUOUS
 70
0
 71
3
 72
10
 73
6
 74
4
 42
0.0000001
 43
0.0000001
 44
0.0000000001
 12
0.2110954049
 22
0.1048616986
 32
0.0
 13
0.2122381852
 23
-0.102529013
 33
0.0
 40
0.0
 40
0.0
 40
0.0
 40
0.0
 40
0.229603066
 40
0.4688204106
 40
1.0
 40
1.0
 40
1.0
 40
1.0
 10
1.0243684241
 20
18.1491950051
 30
0.0
 10
1.0405244749
 20
18.1572205276
 30
0.0
 10
1.0759693117
 20
18.169075086
 30
0.0
 10
1.1550819846
 20
18.1738586581
 30
0.0
 10
1.215086843
 20
18.155480029
 30
0.0
 10
1.2526657071
 20
18.137326256
 30
0.0
 11
1.0243684241
 21
18.1491950051
 31
0.0
 11
1.0756369383
 21
18.1665265466
 31
0.0
 11
1.1318931201
 21
18.1703346898
 31
0.0
 11
1.2526657071
 21
18.137326256
 31
0.0
  0
SPLINE
  5
4AF
100
AcDbEntity
  8
RACCORDO
100
AcDbSpline
 62
253
  6
CONTINUOUS
 70
0
 71
3
 72
9
 73
5
 74
3
 42
0.0000001
 43
0.0000001
 44
0.0000000001
 12
-0.0564159012
 22
-0.0270018913
 32
0.0
 13
-0.0621397632
 23
0.0071067483
 33
0.0
 40
0.0
 40
0.0
 40
0.0
 40
0.0
 40
0.2713533432
 40
1.0
 40
1.0
 40
1.0
 40
1.0
 10
17.4134573197
 20
11.3380286053
 30
0.0
 10
17.4083544386
 20
11.3355862542
 30
0.0
 10
17.3891226557
 20
11.3276265963
 30
0.0
 10
17.3676260092
 20
11.3241881579
 30
0.0
 10
17.3525333657
 20
11.3259142607
 30
0.0
 11
17.4134573197
 21
11.3380286053
 31
0.0
 11
17.3977504536
 21
11.331599404
 31
0.0
 11
17.3525333657
 21
11.3259142607
 31
0.0
  0
SPLINE
  5
4B0
100
AcDbEntity
  8
RACCORDO
100
AcDbSpline
 62
253
  6
CONTINUOUS
 70
0
 71
3
 72
8
 73
4
 74
2
 42
0.0000001
 43
0.0000001
 44
0.0000000001
 12
-0.026971651
 22
0.0030846712
 32
0.0
 13
-0.0242857529
 23
0.0121320797
 33
0.0
 40
0.0
 40
0.0
 40
0.0
 40
0.0
 40
1.0
 40
1.0
 40
1.0
 40
1.0
 10
17.3525333657
 20
11.3259142607
 30
0.0
 10
17.3435428153
 20
11.3269424845
 30
0.0
 10
17.3345800867
 20
11.3295160986
 30
0.0
 10
17.3264848358
 20
11.3335601251
 30
0.0
 11
17.3525333657
 21
11.3259142607
 31
0.0
 11
17.3264848358
 21
11.3335601251
 31
0.0
  0
SPLINE
  5
4B1
100
AcDbEntity
  8
RACCORDO
100
AcDbSpline
 62
253
  6
CONTINUOUS
 70
0
 71
3
 72
9
 73
5
 74
3
 42
0.0000001
 43
0.0000001
 44
0.0000000001
 12
-0.1754576869
 22
0.1610663313
 32
0.0
 13
0.0033701286
 23
0.2381520632
 33
0.0
 40
0.0
 40
0.0
 40
0.0
 40
0.0
 40
0.5047721275
 40
1.0
 40
1.0
 40
1.0
 40
1.0
 10
17.3687144309
 20
11.0580798768
 30
0.0
 10
17.3391923809
 20
11.085180475
 30
0.0
 10
17.2934725015
 20
11.1528418693
 30
0.0
 10
17.2739477793
 20
11.2324432627
 30
0.0
 10
17.2745041065
 20
11.2717564425
 30
0.0
 11
17.3687144309
 21
11.0580798768
 31
0.0
 11
17.2997105318
 21
11.1565298978
 31
0.0
 11
17.2745041065
 21
11.2717564425
 31
0.0
  0
SPLINE
  5
4B2
100
AcDbEntity
  8
RACCORDO
100
AcDbSpline
 62
253
  6
CONTINUOUS
 70
0
 71
3
 72
10
 73
6
 74
4
 42
0.0000001
 43
0.0000001
 44
0.0000000001
 12
0.1000264795
 22
0.0461621917
 32
0.0
 13
0.0114502833
 23
0.1095679495
 33
0.0
 40
0.0
 40
0.0
 40
0.0
 40
0.0
 40
0.3046286573
 40
0.5704755089
 40
1.0
 40
1.0
 40
1.0
 40
1.0
 10
17.2745041065
 20
11.2717564425
 30
0.0
 10
17.2846610839
 20
11.2764438847
 30
0.0
 10
17.3031550892
 20
11.286622676
 30
0.0
 10
17.3317638812
 20
11.309537188
 30
0.0
 10
17.3457614903
 20
11.3336002299
 30
0.0
 10
17.3474008826
 20
11.3492876025
 30
0.0
 11
17.2745041065
 21
11.2717564425
 31
0.0
 11
17.3037926064
 21
11.2881396811
 31
0.0
 11
17.3262194822
 21
11.3069747242
 31
0.0
 11
17.3474008826
 21
11.3492876025
 31
0.0
  0
SPLINE
  5
4B3
100
AcDbEntity
  8
RACCORDO
100
AcDbSpline
 62
253
  6
CONTINUOUS
 70
0
 71
3
 72
9
 73
5
 74
3
 42
0.0000001
 43
0.0000001
 44
0.0000000001
 12
-0.070988012
 22
0.1445658652
 32
0.0
 13
-0.1440497109
 23
0.072029633
 33
0.0
 40
0.0
 40
0.0
 40
0.0
 40
0.0
 40
0.4483272618
 40
1.0
 40
1.0
 40
1.0
 40
1.0
 10
17.5326810117
 20
11.2327534365
 30
0.0
 10
17.5220723913
 20
11.2543577093
 30
0.0
 10
17.4859999492
 20
11.2962864369
 30
0.0
 10
17.4399467526
 20
11.3247830104
 30
0.0
 10
17.4134573197
 20
11.3380286053
 30
0.0
 11
17.5326810117
 21
11.2327534365
 31
0.0
 11
17.4877217679
 21
11.2892534654
 31
0.0
 11
17.4134573197
 21
11.3380286053
 31
0.0
  0
SPLINE
  5
4B4
100
AcDbEntity
  8
RACCORDO
100
AcDbSpline
 62
253
  6
CONTINUOUS
 70
0
 71
3
 72
9
 73
5
 74
3
 42
0.0000001
 43
0.0000001
 44
0.0000000001
 12
0.0185549612
 22
0.0502320817
 32
0.0
 13
0.0155225426
 23
0.0512503589
 33
0.0
 40
0.0
 40
0.0
 40
0.0
 40
0.0
 40
0.2435459674
 40
1.0
 40
1.0
 40
1.0
 40
1.0
 10
1.2526261801
 20
18.1373536561
 30
0.0
 10
1.2541325088
 20
18.1414315965
 30
0.0
 10
1.2598249614
 20
18.158359086
 30
0.0
 10
1.2642263502
 20
18.1756732226
 30
0.0
 10
1.2681403802
 20
18.1885960695
 30
0.0
 11
1.2526261801
 21
18.1373536561
 31
0.0
 11
1.2568286775
 21
18.1496997739
 31
0.0
 11
1.2681403802
 21
18.1885960695
 31
0.0
  0
SPLINE
  5
4B5
100
AcDbEntity
  8
RACCORDO
100
AcDbSpline
 62
253
  6
CONTINUOUS
 70
0
 71
3
 72
10
 73
6
 74
4
 42
0.0000001
 43
0.0000001
 44
0.0000000001
 12
0.063468689
 22
0.209552853
 32
0.0
 13
0.1973729766
 23
0.0947870287
 33
0.0
 40
0.0
 40
0.0
 40
0.0
 40
0.0
 40
0.2194931185
 40
0.4521466587
 40
1.0
 40
1.0
 40
1.0
 40
1.0
 10
1.2681403802
 20
18.1885960695
 30
0.0
 10
1.272784027
 20
18.2039278726
 30
0.0
 10
1.2843173466
 20
18.2350789791
 30
0.0
 10
1.3253342408
 20
18.2963314487
 30
0.0
 10
1.3746338524
 20
18.3293300021
 30
0.0
 10
1.4106776673
 20
18.3466397989
 30
0.0
 11
1.2681403802
 21
18.1885960695
 31
0.0
 11
1.2856341675
 21
18.2333578409
 31
0.0
 11
1.3139415831
 21
18.2757088399
 31
0.0
 11
1.4106776673
 21
18.3466397989
 31
0.0
  0
SPLINE
  5
4B6
100
AcDbEntity
  8
RACCORDO
100
AcDbSpline
 62
253
  6
CONTINUOUS
 70
0
 71
3
 72
9
 73
5
 74
3
 42
0.0000001
 43
0.0000001
 44
0.0000000001
 12
0.0
 22
-0.2514099855
 32
0.0
 13
-0.1603874962
 23
-0.1936048343
 33
0.0
 40
0.0
 40
0.0
 40
0.0
 40
0.0
 40
0.4868861085
 40
1.0
 40
1.0
 40
1.0
 40
1.0
 10
16.2138439347
 20
-28.5575786597
 30
0.0
 10
16.2138439347
 20
-28.5983813362
 30
0.0
 10
16.1953742799
 20
-28.6822206964
 30
0.0
 10
16.1528879378
 20
-28.7561590569
 30
0.0
 10
16.1254555871
 20
-28.7892728335
 30
0.0
 11
16.2138439347
 21
-28.5575786597
 31
0.0
 11
16.1901653482
 21
-28.6776746638
 31
0.0
 11
16.1254555871
 21
-28.7892728335
 31
0.0
  0
SPLINE
  5
4B7
100
AcDbEntity
  8
RACCORDO
100
AcDbSpline
 62
253
  6
CONTINUOUS
 70
0
 71
3
 72
9
 73
5
 74
3
 42
0.0000001
 43
0.0000001
 44
0.0000000001
 12
0.0
 22
-0.2514099855
 32
0.0
 13
-0.1603874962
 23
-0.1936048343
 33
0.0
 40
0.0
 40
0.0
 40
0.0
 40
0.0
 40
0.4868861085
 40
1.0
 40
1.0
 40
1.0
 40
1.0
 10
14.8703410505
 20
-27.8858272176
 30
0.0
 10
14.8703410505
 20
-27.926629894
 30
0.0
 10
14.8518713957
 20
-28.0104692543
 30
0.0
 10
14.8093850536
 20
-28.0844076147
 30
0.0
 10
14.7819527028
 20
-28.1175213914
 30
0.0
 11
14.8703410505
 21
-27.8858272176
 31
0.0
 11
14.8466624639
 21
-28.0059232217
 31
0.0
 11
14.7819527028
 21
-28.1175213914
 31
0.0
  0
SPLINE
  5
4B8
100
AcDbEntity
  8
RACCORDO
100
AcDbSpline
 62
7
  6
CONTINUOUS
 70
0
 71
3
 72
10
 73
6
 74
4
 42
0.0000001
 43
0.0000001
 44
0.0000000001
 12
-0.2068624299
 22
0.1034310466
 32
0.0
 13
-0.2068623626
 23
-0.1034311813
 33
0.0
 40
0.0
 40
0.0
 40
0.0
 40
0.0
 40
0.2277204504
 40
0.4659009814
 40
1.0
 40
1.0
 40
1.0
 40
1.0
 10
12.972624515
 20
20.0642011049
 30
0.0
 10
12.9569222465
 20
20.0720522264
 30
0.0
 10
12.922307857
 20
20.0835612119
 30
0.0
 10
12.8445964518
 20
20.0874757882
 30
0.0
 10
12.7858490352
 20
20.0684148288
 30
0.0
 10
12.7490207069
 20
20.0500006647
 30
0.0
 11
12.972624515
 21
20.0642011049
 31
0.0
 11
12.9227048016
 21
20.0809890271
 31
0.0
 11
12.8677132568
 21
20.0842167931
 31
0.0
 11
12.7490207069
 21
20.0500006647
 31
0.0
  0
SPLINE
  5
4B9
100
AcDbEntity
  8
RACCORDO
100
AcDbSpline
 62
253
  6
CONTINUOUS
 70
0
 71
3
 72
9
 73
5
 74
3
 42
0.0000001
 43
0.0000001
 44
0.0000000001
 12
0.3207728743
 22
0.3872071118
 32
0.0
 13
0.0
 23
0.5028166508
 33
0.0
 40
0.0
 40
0.0
 40
0.0
 40
0.0
 40
0.5131129059
 40
1.0
 40
1.0
 40
1.0
 40
1.0
 10
16.39062063
 20
-29.0209670073
 30
0.0
 10
16.4454848639
 20
-28.9547400185
 30
0.0
 10
16.5304392031
 20
-28.8068559519
 30
0.0
 10
16.5673973253
 20
-28.639183639
 30
0.0
 10
16.5673973253
 20
-28.5575786597
 30
0.0
 11
16.39062063
 21
-29.0209670073
 31
0.0
 11
16.5200305226
 21
-28.7977676267
 31
0.0
 11
16.5673973253
 21
-28.5575786597
 31
0.0
  0
SPLINE
  5
4BA
100
AcDbEntity
  8
RACCORDO
100
AcDbSpline
 62
7
  6
CONTINUOUS
 70
0
 71
3
 72
11
 73
7
 74
5
 42
0.0000001
 43
0.0000001
 44
0.0000000001
 12
-0.4025879436
 22
0.2012804126
 32
0.0
 13
-0.4059943767
 23
-0.1943178401
 33
0.0
 40
0.0
 40
0.0
 40
0.0
 40
0.0
 40
0.2279938256
 40
0.4659602826
 40
0.7218001075
 40
1.0
 40
1.0
 40
1.0
 40
1.0
 10
15.3175322821
 20
19.4217840696
 30
0.0
 10
15.286936427
 20
19.4370809667
 30
0.0
 10
15.2197207789
 20
19.4597184156
 30
0.0
 10
15.1105524634
 20
19.466307577
 30
0.0
 10
14.9955692613
 20
19.446396514
 30
0.0
 10
14.9203309627
 20
19.4174328558
 30
0.0
 10
14.8826817654
 20
19.3994131217
 30
0.0
 11
15.3175322821
 21
19.4217840696
 31
0.0
 11
15.2203792706
 21
19.4548325955
 31
0.0
 11
15.1135198983
 21
19.462139894
 31
0.0
 11
14.9998869095
 21
19.4434870376
 31
0.0
 11
14.8826817654
 21
19.3994131217
 31
0.0
  0
SPLINE
  5
4BB
100
AcDbEntity
  8
RACCORDO
100
AcDbSpline
 62
253
  6
CONTINUOUS
 70
0
 71
3
 72
11
 73
7
 74
5
 42
0.0000001
 43
0.0000001
 44
0.0000000001
 12
-0.324954929
 22
-0.1624774645
 32
0.0
 13
-0.324954929
 23
0.1624774645
 33
0.0
 40
0.0
 40
0.0
 40
0.0
 40
0.0
 40
0.2353701082
 40
0.5
 40
0.7646298918
 40
1.0
 40
1.0
 40
1.0
 40
1.0
 10
16.5673973253
 20
-28.5575786597
 30
0.0
 10
16.541902433
 20
-28.5703261058
 30
0.0
 10
16.4833098351
 20
-28.5885102316
 30
0.0
 10
16.39062063
 20
-28.5971965502
 30
0.0
 10
16.297931425
 20
-28.5885102316
 30
0.0
 10
16.239338827
 20
-28.5703261058
 30
0.0
 10
16.2138439347
 20
-28.5575786597
 30
0.0
 11
16.5673973253
 21
-28.5575786597
 31
0.0
 11
16.4862914881
 21
-28.5846752536
 31
0.0
 11
16.39062063
 21
-28.594190312
 31
0.0
 11
16.2949497719
 21
-28.5846752536
 31
0.0
 11
16.2138439347
 21
-28.5575786597
 31
0.0
  0
SPLINE
  5
4BC
100
AcDbEntity
  8
RACCORDO
100
AcDbSpline
 62
253
  6
CONTINUOUS
 70
0
 71
3
 72
10
 73
6
 74
4
 42
0.0000001
 43
0.0000001
 44
0.0000000001
 12
0.4185825973
 22
0.032454263
 32
0.0
 13
0.3791952386
 23
0.1802099915
 33
0.0
 40
0.0
 40
0.0
 40
0.0
 40
0.0
 40
0.2647647673
 40
0.5267054518
 40
1.0
 40
1.0
 40
1.0
 40
1.0
 10
16.2482987248
 20
10.6395163844
 30
0.0
 10
16.2852406994
 20
10.6423806329
 30
0.0
 10
16.3586854073
 20
10.6493259322
 30
0.0
 10
16.4971723116
 20
10.6680600833
 30
0.0
 10
16.5982799185
 20
10.6944936275
 30
0.0
 10
16.6581035982
 20
10.7229244297
 30
0.0
 11
16.2482987248
 21
10.6395163844
 31
0.0
 11
16.3589521253
 21
10.6501015462
 31
0.0
 11
16.4678120903
 21
10.6657073824
 31
0.0
 11
16.6581035982
 21
10.7229244297
 31
0.0
  0
SPLINE
  5
4BD
100
AcDbEntity
  8
RACCORDO
100
AcDbSpline
 62
253
  6
CONTINUOUS
 70
0
 71
3
 72
9
 73
5
 74
3
 42
0.0000001
 43
0.0000001
 44
0.0000000001
 12
0.3048477605
 22
0.1407144761
 32
0.0
 13
0.3056706765
 23
0.1389178115
 33
0.0
 40
0.0
 40
0.0
 40
0.0
 40
0.0
 40
0.4977161132
 40
1.0
 40
1.0
 40
1.0
 40
1.0
 10
16.5893389824
 20
10.0236663772
 30
0.0
 10
16.6399148632
 20
10.0470116646
 30
0.0
 10
16.7355007292
 20
10.1057496731
 30
0.0
 10
16.8275368854
 20
10.1706544731
 30
0.0
 10
16.8787147039
 20
10.1939131992
 30
0.0
 11
16.5893389824
 21
10.0236663772
 31
0.0
 11
16.7341847758
 21
10.107009017
 31
0.0
 11
16.8787147039
 21
10.1939131992
 31
0.0
  0
SPLINE
  5
4BE
100
AcDbEntity
  8
RACCORDO
100
AcDbSpline
 62
253
  6
CONTINUOUS
 70
0
 71
3
 72
11
 73
7
 74
5
 42
0.0000001
 43
0.0000001
 44
0.0000000001
 12
0.6512395105
 22
-0.3368434973
 32
0.0
 13
-0.0106227556
 23
-0.7331190891
 33
0.0
 40
0.0
 40
0.0
 40
0.0
 40
0.0
 40
0.2280517953
 40
0.485946771
 40
0.7515354279
 40
1.0
 40
1.0
 40
1.0
 40
1.0
 10
16.2482393598
 20
10.6395192203
 30
0.0
 10
16.2977448063
 20
10.6139132989
 30
0.0
 10
16.3919654561
 20
10.5374863367
 30
0.0
 10
16.4994456958
 20
10.3865884029
 30
0.0
 10
16.5715362248
 20
10.2105304908
 30
0.0
 10
16.5902187752
 20
10.0843844175
 30
0.0
 10
16.5893389824
 20
10.0236663773
 30
0.0
 11
16.2482393598
 21
10.6395192203
 31
0.0
 11
16.3807341455
 21
10.5375231234
 31
0.0
 11
16.4920402372
 21
10.3846667676
 31
0.0
 11
16.5653079206
 21
10.2042476557
 31
0.0
 11
16.5893389824
 21
10.0236663773
 31
0.0
  0
LINE
  5
4BF
100
AcDbEntity
  8
RACCORDO
100
AcDbLine
 62
253
  6
CONTINUOUS
 10
16.8787147039
 20
10.1939131992
 11
17.5979379649
 21
10.5207947084
  0
SPLINE
  5
4C0
100
AcDbEntity
  8
RACCORDO
100
AcDbSpline
 62
253
  6
CONTINUOUS
 70
0
 71
3
 72
11
 73
7
 74
5
 42
0.0000001
 43
0.0000001
 44
0.0000000001
 12
0.4181618484
 22
-0.4116118851
 32
0.0
 13
-0.0114922088
 23
-0.5866443595
 33
0.0
 40
0.0
 40
0.0
 40
0.0
 40
0.0
 40
0.2462879081
 40
0.504747665
 40
0.7607052784
 40
1.0
 40
1.0
 40
1.0
 40
1.0
 10
16.6581030659
 20
10.722925123
 30
0.0
 10
16.6924324682
 20
10.6891334463
 30
0.0
 10
16.7548190026
 20
10.6115399135
 30
0.0
 10
16.8247948817
 20
10.4793376581
 30
0.0
 10
16.8691709702
 20
10.337917472
 30
0.0
 10
16.8795598872
 20
10.2406743545
 30
0.0
 10
16.8786432122
 20
10.1938807216
 30
0.0
 11
16.6581030659
 21
10.722925123
 31
0.0
 11
16.7495157017
 21
10.6110001592
 31
0.0
 11
16.8207252475
 21
10.4771052455
 31
0.0
 11
16.8651384775
 21
10.3336375873
 31
0.0
 11
16.8786432122
 21
10.1938807216
 31
0.0
  0
SPLINE
  5
4C1
100
AcDbEntity
  8
RACCORDO
100
AcDbSpline
 62
253
  6
CONTINUOUS
 70
0
 71
3
 72
11
 73
7
 74
5
 42
0.0000001
 43
0.0000001
 44
0.0000000001
 12
0.222658772
 22
0.1055330666
 32
0.0
 13
0.1026419384
 23
0.2240062262
 33
0.0
 40
0.0
 40
0.0
 40
0.0
 40
0.0
 40
0.3088744716
 40
0.5674675809
 40
0.7883368477
 40
1.0
 40
1.0
 40
1.0
 40
1.0
 10
17.3687146368
 20
11.0580807744
 30
0.0
 10
17.3916391736
 20
11.0689462644
 30
0.0
 10
17.4324270041
 20
11.0921141595
 30
0.0
 10
17.481158565
 20
11.1357485801
 30
0.0
 10
17.5124120732
 20
11.1838329932
 30
0.0
 10
17.525439632
 20
11.2169478415
 30
0.0
 10
17.5326814707
 20
11.2327524628
 30
0.0
 11
17.3687146368
 21
11.0580807744
 31
0.0
 11
17.4343495584
 21
11.0966086401
 31
0.0
 11
17.4811760642
 21
11.1398204218
 31
0.0
 11
17.5111251134
 21
11.185261453
 31
0.0
 11
17.5326814707
 21
11.2327524628
 31
0.0
  0
SPLINE
  5
4C2
100
AcDbEntity
  8
RACCORDO
100
AcDbSpline
 62
253
  6
CONTINUOUS
 70
0
 71
3
 72
11
 73
7
 74
5
 42
0.0000001
 43
0.0000001
 44
0.0000000001
 12
0.2661857721
 22
0.1209887232
 32
0.0
 13
0.2654433732
 23
0.1226089394
 33
0.0
 40
0.0
 40
0.0
 40
0.0
 40
0.0
 40
0.2529471725
 40
0.4975323023
 40
0.7443094627
 40
1.0
 40
1.0
 40
1.0
 40
1.0
 10
17.5979379649
 20
10.5207947084
 30
0.0
 10
17.620381611
 20
10.5309959602
 30
0.0
 10
17.6660572857
 20
10.5477173204
 30
0.0
 10
17.7360306949
 20
10.5668140265
 30
0.0
 10
17.8056792952
 20
10.5881643418
 30
0.0
 10
17.8512155453
 20
10.6064372511
 30
0.0
 10
17.8738393315
 20
10.616887233
 30
0.0
 11
17.5979379649
 21
10.5207947084
 31
0.0
 11
17.667108743
 21
10.546975781
 31
0.0
 11
17.7357296545
 21
10.567113585
 31
0.0
 11
17.8045324527
 21
10.5888533788
 31
0.0
 11
17.8738393315
 21
10.616887233
 31
0.0
  0
SPLINE
  5
4C3
100
AcDbEntity
  8
RACCORDO
100
AcDbSpline
 62
253
  6
CONTINUOUS
 70
0
 71
3
 72
11
 73
7
 74
5
 42
0.0000001
 43
0.0000001
 44
0.0000000001
 12
0.434907209
 22
-0.4113304504
 32
0.0
 13
-0.011598659
 23
-0.5985002014
 33
0.0
 40
0.0
 40
0.0
 40
0.0
 40
0.0
 40
0.2451288525
 40
0.5036123513
 40
0.7601874968
 40
1.0
 40
1.0
 40
1.0
 40
1.0
 10
17.3687146368
 20
11.0580807744
 30
0.0
 10
17.4042507384
 20
11.0244711206
 30
0.0
 10
17.4689769789
 20
10.9464086051
 30
0.0
 10
17.5416769334
 20
10.8123164051
 30
0.0
 10
17.5879544814
 20
10.6680819779
 30
0.0
 10
17.5988735525
 20
10.5686409628
 30
0.0
 10
17.5979463847
 20
10.5207983523
 30
0.0
 11
17.3687146368
 21
11.0580807744
 31
0.0
 11
17.4633363766
 21
10.9459266996
 31
0.0
 11
17.5374062569
 21
10.810075745
 31
0.0
 11
17.5837690802
 21
10.6636513508
 31
0.0
 11
17.5979463847
 21
10.5207983523
 31
0.0
  0
SPLINE
  5
4C4
100
AcDbEntity
  8
RACCORDO
100
AcDbSpline
 62
253
  6
CONTINUOUS
 70
0
 71
3
 72
11
 73
7
 74
5
 42
0.0000001
 43
0.0000001
 44
0.0000000001
 12
0.6512282866
 22
-0.3369341594
 32
0.0
 13
-0.0105536137
 23
-0.7331517785
 33
0.0
 40
0.0
 40
0.0
 40
0.0
 40
0.0
 40
0.2280358042
 40
0.4859386048
 40
0.751534838
 40
1.0
 40
1.0
 40
1.0
 40
1.0
 10
17.5326809101
 20
11.2327533896
 30
0.0
 10
17.5821820321
 20
11.2071423723
 30
0.0
 10
17.6763996484
 20
11.1307113792
 30
0.0
 10
17.7839059033
 20
10.9798231067
 30
0.0
 10
17.8560160887
 20
10.8037593845
 30
0.0
 10
17.8747133999
 20
10.6776081248
 30
0.0
 10
17.8738393315
 20
10.616887233
 30
0.0
 11
17.5326809101
 21
11.2327533896
 31
0.0
 11
17.6651685169
 21
11.1307553423
 31
0.0
 11
17.7764985929
 21
10.977899246
 31
0.0
 11
17.8497891502
 21
10.7974743451
 31
0.0
 11
17.8738393315
 21
10.616887233
 31
0.0
  0
SPLINE
  5
4C5
100
AcDbEntity
  8
RACCORDO
100
AcDbSpline
 62
253
  6
CONTINUOUS
 70
0
 71
3
 72
11
 73
7
 74
5
 42
0.0000001
 43
0.0000001
 44
0.0000000001
 12
0.2764622226
 22
0.1392845167
 32
0.0
 13
0.2755993419
 23
0.1409841831
 33
0.0
 40
0.0
 40
0.0
 40
0.0
 40
0.0
 40
0.2563866308
 40
0.5026664298
 40
0.7462301632
 40
1.0
 40
1.0
 40
1.0
 40
1.0
 10
16.5893451634
 20
-27.9584175824
 30
0.0
 10
16.612972236
 20
-27.9465140198
 30
0.0
 10
16.660589472
 20
-27.9256561303
 30
0.0
 10
16.733760795
 20
-27.9014899226
 30
0.0
 10
16.807505325
 20
-27.8803444149
 30
0.0
 10
16.8553554165
 20
-27.8611673375
 30
0.0
 10
16.8786683498
 20
-27.8492414931
 30
0.0
 11
16.5893451634
 21
-27.9584175824
 31
0.0
 11
16.661981742
 21
-27.9264280885
 31
0.0
 11
16.7341652911
 21
-27.9018908449
 31
0.0
 11
16.8061404313
 21
-27.8794270633
 31
0.0
 11
16.8786683498
 21
-27.8492414931
 31
0.0
  0
SPLINE
  5
4C6
100
AcDbEntity
  8
RACCORDO
100
AcDbSpline
 62
253
  6
CONTINUOUS
 70
0
 71
3
 72
11
 73
7
 74
5
 42
0.0000001
 43
0.0000001
 44
0.0000000001
 12
-0.1865148908
 22
0.3024003869
 32
0.0
 13
-0.3177845792
 23
0.1588922896
 33
0.0
 40
0.0
 40
0.0
 40
0.0
 40
0.0
 40
0.218477527
 40
0.4824886594
 40
0.7557089095
 40
1.0
 40
1.0
 40
1.0
 40
1.0
 10
15.8602905441
 20
-29.6611320503
 30
0.0
 10
15.8467074401
 20
-29.6391094874
 30
0.0
 10
15.8106323688
 20
-29.5943260748
 30
0.0
 10
15.746307265
 20
-29.5319324097
 30
0.0
 10
15.6733154204
 20
-29.4747640882
 30
0.0
 10
15.621002815
 20
-29.4423765334
 30
0.0
 10
15.5951255012
 20
-29.4294378765
 30
0.0
 11
15.8602905441
 21
-29.6611320503
 31
0.0
 11
15.8130129231
 21
-29.5995668614
 31
0.0
 11
15.7460171118
 21
-29.5339140314
 31
0.0
 11
15.6695045615
 21
-29.4741721283
 31
0.0
 11
15.5951255012
 21
-29.4294378765
 31
0.0
  0
SPLINE
  5
4C7
100
AcDbEntity
  8
RACCORDO
100
AcDbSpline
 62
253
  6
CONTINUOUS
 70
0
 71
3
 72
11
 73
7
 74
5
 42
0.0000001
 43
0.0000001
 44
0.0000000001
 12
0.0044915447
 22
-0.3080984702
 32
0.0
 13
-0.2750771889
 23
-0.1388430101
 33
0.0
 40
0.0
 40
0.0
 40
0.0
 40
0.0
 40
0.2924682406
 40
0.5533914059
 40
0.7853904162
 40
1.0
 40
1.0
 40
1.0
 40
1.0
 10
16.5893451634
 20
-27.9584175824
 30
0.0
 10
16.5897830414
 20
-27.9884539215
 30
0.0
 10
16.5858666844
 20
-28.0455622609
 30
0.0
 10
16.5631065334
 20
-28.1237639573
 30
0.0
 10
16.5238932142
 20
-28.1863091331
 30
0.0
 10
16.4866697326
 20
-28.21515811
 30
0.0
 10
16.4669916656
 20
-28.2250904569
 30
0.0
 11
16.5893451634
 21
-27.9584175824
 31
0.0
 11
16.5822579872
 21
-28.0482570648
 31
0.0
 11
16.5586160626
 21
-28.1251009942
 31
0.0
 11
16.5195641177
 21
-28.1849776435
 31
0.0
 11
16.4669916656
 21
-28.2250904569
 31
0.0
  0
LINE
  5
4C8
100
AcDbEntity
  8
RACCORDO
100
AcDbLine
 62
253
  6
CONTINUOUS
 10
16.8786683498
 20
-27.8492414931
 11
17.5979817145
 21
-27.4815311113
  0
SPLINE
  5
4C9
100
AcDbEntity
  8
RACCORDO
100
AcDbSpline
 62
253
  6
CONTINUOUS
 70
0
 71
3
 72
11
 73
7
 74
5
 42
0.0000001
 43
0.0000001
 44
0.0000000001
 12
0.0060992045
 22
-0.3054570354
 32
0.0
 13
-0.2719152663
 23
-0.1392956879
 33
0.0
 40
0.0
 40
0.0
 40
0.0
 40
0.0
 40
0.2928262984
 40
0.5538059176
 40
0.7856647474
 40
1.0
 40
1.0
 40
1.0
 40
1.0
 10
16.8786432122
 20
-27.8492543487
 30
0.0
 10
16.879238548
 20
-27.879069633
 30
0.0
 10
16.8756919528
 20
-27.935755615
 30
0.0
 10
16.8536053339
 20
-28.0134595122
 30
0.0
 10
16.8151882642
 20
-28.0757075585
 30
0.0
 10
16.7785267829
 20
-28.104569072
 30
0.0
 10
16.7590997738
 20
-28.1145210641
 30
0.0
 11
16.8786432122
 21
-27.8492543487
 31
0.0
 11
16.872126902
 21
-27.9384803995
 31
0.0
 11
16.8491640783
 21
-28.0148362222
 31
0.0
 11
16.8108820613
 21
-28.0744379981
 31
0.0
 11
16.7590997738
 21
-28.1145210641
 31
0.0
  0
SPLINE
  5
4CA
100
AcDbEntity
  8
RACCORDO
100
AcDbSpline
 62
253
  6
CONTINUOUS
 70
0
 71
3
 72
9
 73
5
 74
3
 42
0.0000001
 43
0.0000001
 44
0.0000000001
 12
0.2887050728
 22
0.1474957329
 32
0.0
 13
0.2895411384
 23
0.1458476585
 33
0.0
 40
0.0
 40
0.0
 40
0.0
 40
0.0
 40
0.502134389
 40
1.0
 40
1.0
 40
1.0
 40
1.0
 10
17.5979817145
 20
-27.4815311113
 30
0.0
 10
17.6463046296
 20
-27.4568435514
 30
0.0
 10
17.7346825133
 20
-27.3939818975
 30
0.0
 10
17.8257783976
 20
-27.3354249587
 30
0.0
 10
17.8738292562
 20
-27.3112207809
 30
0.0
 11
17.5979817145
 21
-27.4815311113
 31
0.0
 11
17.7357450927
 21
-27.3947989414
 31
0.0
 11
17.8738292562
 21
-27.3112207809
 31
0.0
  0
SPLINE
  5
4CB
100
AcDbEntity
  8
RACCORDO
100
AcDbSpline
 62
253
  6
CONTINUOUS
 70
0
 71
3
 72
11
 73
7
 74
5
 42
0.0000001
 43
0.0000001
 44
0.0000000001
 12
0.0059662917
 22
-0.3056769567
 32
0.0
 13
-0.2721641128
 23
-0.1392863748
 33
0.0
 40
0.0
 40
0.0
 40
0.0
 40
0.0
 40
0.2927815281
 40
0.5537809513
 40
0.7856560945
 40
1.0
 40
1.0
 40
1.0
 40
1.0
 10
17.5980217996
 20
-27.4815096347
 30
0.0
 10
17.5986040729
 20
-27.5113418235
 30
0.0
 10
17.5950243036
 20
-27.5680637927
 30
0.0
 10
17.5728840888
 20
-27.6458108664
 30
0.0
 10
17.534401108
 20
-27.7080870714
 30
0.0
 10
17.4976917752
 20
-27.7369434573
 30
0.0
 10
17.4782462022
 20
-27.7468951858
 30
0.0
 11
17.5980217996
 21
-27.4815096347
 31
0.0
 11
17.5914573394
 21
-27.5707822209
 31
0.0
 11
17.5684375206
 21
-27.6471864227
 31
0.0
 11
17.5300910788
 21
-27.7068126005
 31
0.0
 11
17.4782462022
 21
-27.7468951858
 31
0.0
  0
SPLINE
  5
4CC
100
AcDbEntity
  8
RACCORDO
100
AcDbSpline
 62
253
  6
CONTINUOUS
 70
0
 71
3
 72
11
 73
7
 74
5
 42
0.0000001
 43
0.0000001
 44
0.0000000001
 12
0.0044874441
 22
-0.308107001
 32
0.0
 13
-0.2750847167
 23
-0.1388468936
 33
0.0
 40
0.0
 40
0.0
 40
0.0
 40
0.0
 40
0.2924658029
 40
0.5533881067
 40
0.7853880747
 40
1.0
 40
1.0
 40
1.0
 40
1.0
 10
17.8738292562
 20
-27.3112207808
 30
0.0
 10
17.8742667308
 20
-27.3412577013
 30
0.0
 10
17.8703494745
 20
-27.3983672175
 30
0.0
 10
17.8475875993
 20
-27.4765704927
 30
0.0
 10
17.8083722626
 20
-27.5391170558
 30
0.0
 10
17.7711473862
 20
-27.5679668153
 30
0.0
 10
17.751468566
 20
-27.5778995483
 30
0.0
 11
17.8738292562
 21
-27.3112207808
 31
0.0
 11
17.8667406771
 21
-27.4010618841
 31
0.0
 11
17.8430970878
 21
-27.4779073358
 31
0.0
 11
17.8040432121
 21
-27.5377854242
 31
0.0
 11
17.751468566
 21
-27.5778995483
 31
0.0
  0
SPLINE
  5
4CD
100
AcDbEntity
  8
RACCORDO
100
AcDbSpline
 62
253
  6
CONTINUOUS
 70
0
 71
3
 72
11
 73
7
 74
5
 42
0.0000001
 43
0.0000001
 44
0.0000000001
 12
-0.1865148844
 22
0.3024003765
 32
0.0
 13
-0.3177845683
 23
0.1588922841
 33
0.0
 40
0.0
 40
0.0
 40
0.0
 40
0.0
 40
0.2184918121
 40
0.482500807
 40
0.7557136777
 40
1.0
 40
1.0
 40
1.0
 40
1.0
 10
16.39062063
 20
-29.0209670073
 30
0.0
 10
16.3770366383
 20
-28.9989430052
 30
0.0
 10
16.3409602242
 20
-28.9541587697
 30
0.0
 10
16.2766345349
 20
-28.8917649522
 30
0.0
 10
16.2036438308
 20
-28.8345979138
 30
0.0
 10
16.1513323949
 20
-28.8022112374
 30
0.0
 10
16.1254555871
 20
-28.7892728335
 30
0.0
 11
16.39062063
 21
-29.0209670073
 31
0.0
 11
16.3433395491
 21
-28.9593980795
 31
0.0
 11
16.2763439347
 21
-28.8937461382
 31
0.0
 11
16.1998332619
 21
-28.8340060962
 31
0.0
 11
16.1254555871
 21
-28.7892728335
 31
0.0
  0
SPLINE
  5
4CE
100
AcDbEntity
  8
RACCORDO
100
AcDbSpline
 62
253
  6
CONTINUOUS
 70
0
 71
3
 72
9
 73
5
 74
3
 42
0.0000001
 43
0.0000001
 44
0.0000000001
 12
-0.1603874072
 22
-0.1936047269
 32
0.0
 13
0.0
 23
-0.251409846
 33
0.0
 40
0.0
 40
0.0
 40
0.0
 40
0.0
 40
0.5131459117
 40
1.0
 40
1.0
 40
1.0
 40
1.0
 10
15.5951255012
 20
-29.4294378765
 30
0.0
 10
15.5676914537
 20
-29.4625537011
 30
0.0
 10
15.5252065185
 20
-29.5364930702
 30
0.0
 10
15.5067371535
 20
-29.6203320798
 30
0.0
 10
15.5067371535
 20
-29.6611320503
 30
0.0
 11
15.5951255012
 21
-29.4294378765
 31
0.0
 11
15.5304132615
 21
-29.5410438318
 31
0.0
 11
15.5067371535
 21
-29.6611320503
 31
0.0
  0
LINE
  5
4CF
100
AcDbEntity
  8
RACCORDO
100
AcDbLine
 62
253
  6
CONTINUOUS
 10
18.5119409736
 20
-19.8216582578
 11
22.7105510563
 21
-19.525450335
  0
SPLINE
  5
4D0
100
AcDbEntity
  8
RACCORDO
100
AcDbSpline
 62
253
  6
CONTINUOUS
 70
0
 71
3
 72
9
 73
5
 74
3
 42
0.0000001
 43
0.0000001
 44
0.0000000001
 12
-0.1603874072
 22
-0.1936047269
 32
0.0
 13
0.0
 23
-0.251409846
 33
0.0
 40
0.0
 40
0.0
 40
0.0
 40
0.0
 40
0.5131459117
 40
1.0
 40
1.0
 40
1.0
 40
1.0
 10
14.2516226169
 20
-28.7576864343
 30
0.0
 10
14.2241885695
 20
-28.790802259
 30
0.0
 10
14.1817036343
 20
-28.8647416281
 30
0.0
 10
14.1632342693
 20
-28.9485806377
 30
0.0
 10
14.1632342693
 20
-28.9893806081
 30
0.0
 11
14.2516226169
 21
-28.7576864343
 31
0.0
 11
14.1869103772
 21
-28.8692923897
 31
0.0
 11
14.1632342693
 21
-28.9893806081
 31
0.0
  0
SPLINE
  5
4D1
100
AcDbEntity
  8
RACCORDO
100
AcDbSpline
 62
253
  6
CONTINUOUS
 70
0
 71
3
 72
11
 73
7
 74
5
 42
0.0000001
 43
0.0000001
 44
0.0000000001
 12
-0.3249549857
 22
-0.1624774928
 32
0.0
 13
-0.3249549857
 23
0.1624774928
 33
0.0
 40
0.0
 40
0.0
 40
0.0
 40
0.0
 40
0.2353253496
 40
0.499964792
 40
0.764617449
 40
1.0
 40
1.0
 40
1.0
 40
1.0
 10
15.8602905441
 20
-30.0124460224
 30
0.0
 10
15.8348004956
 20
-30.0251910466
 30
0.0
 10
15.776212943
 20
-30.0433760086
 30
0.0
 10
15.68352518
 20
-30.0520641801
 30
0.0
 10
15.5908304131
 20
-30.0433789218
 30
0.0
 10
15.532233398
 20
-30.0251941446
 30
0.0
 10
15.5067371535
 20
-30.0124460224
 30
0.0
 11
15.8602905441
 21
-30.0124460224
 31
0.0
 11
15.7792008316
 21
-30.03953961
 31
0.0
 11
15.6835267698
 21
-30.0490576847
 31
0.0
 11
15.5878475043
 21
-30.0395434195
 31
0.0
 11
15.5067371535
 21
-30.0124460224
 31
0.0
  0
SPLINE
  5
4D2
100
AcDbEntity
  8
RACCORDO
100
AcDbSpline
 62
253
  6
CONTINUOUS
 70
0
 71
3
 72
11
 73
7
 74
5
 42
0.0000001
 43
0.0000001
 44
0.0000000001
 12
-0.324954929
 22
-0.1624774645
 32
0.0
 13
-0.324954929
 23
0.1624774645
 33
0.0
 40
0.0
 40
0.0
 40
0.0
 40
0.0
 40
0.2353701082
 40
0.5
 40
0.7646298918
 40
1.0
 40
1.0
 40
1.0
 40
1.0
 10
15.8602905441
 20
-29.6611320503
 30
0.0
 10
15.8347956519
 20
-29.6738794964
 30
0.0
 10
15.7762030539
 20
-29.6920636222
 30
0.0
 10
15.6835138488
 20
-29.7007499408
 30
0.0
 10
15.5908246438
 20
-29.6920636222
 30
0.0
 10
15.5322320458
 20
-29.6738794964
 30
0.0
 10
15.5067371535
 20
-29.6611320503
 30
0.0
 11
15.8602905441
 21
-29.6611320503
 31
0.0
 11
15.7791847069
 21
-29.6882286442
 31
0.0
 11
15.6835138488
 21
-29.6977437026
 31
0.0
 11
15.5878429907
 21
-29.6882286442
 31
0.0
 11
15.5067371535
 21
-29.6611320503
 31
0.0
  0
LINE
  5
4D3
100
AcDbEntity
  8
RACCORDO
100
AcDbLine
 62
253
  6
CONTINUOUS
 10
18.5119409736
 20
9.4145308255
 11
22.541343028
 21
13.230609687
  0
LINE
  5
4D4
100
AcDbEntity
  8
RACCORDO
100
AcDbLine
 62
253
  6
CONTINUOUS
 10
22.541343028
 20
13.230609687
 11
22.7105510563
 21
13.3908595631
  0
SPLINE
  5
4D5
100
AcDbEntity
  8
RACCORDO
100
AcDbSpline
 62
7
  6
CONTINUOUS
 70
0
 71
3
 72
11
 73
7
 74
5
 42
0.0000001
 43
0.0000001
 44
0.0000000001
 12
0.6519240444
 22
-0.3259620222
 32
0.0
 13
0.6504099419
 23
0.3289728061
 33
0.0
 40
0.0
 40
0.0
 40
0.0
 40
0.0
 40
0.2355685165
 40
0.5004196096
 40
0.7650446261
 40
1.0
 40
1.0
 40
1.0
 40
1.0
 10
11.9732337272
 20
14.4274865144
 30
0.0
 10
12.0244246539
 20
14.4018910511
 30
0.0
 10
12.1421020268
 20
14.3654447529
 30
0.0
 10
12.3281806988
 20
14.3482105963
 30
0.0
 10
12.5140601889
 20
14.365949648
 30
0.0
 10
12.6314318506
 20
14.4027429587
 30
0.0
 10
12.6823709543
 20
14.4285076016
 30
0.0
 11
11.9732337272
 21
14.4274865144
 31
0.0
 11
12.1361107452
 21
14.3731558099
 31
0.0
 11
12.3282270124
 21
14.3542642464
 31
0.0
 11
12.5201224791
 21
14.3737087487
 31
0.0
 11
12.6823709543
 21
14.4285076016
 31
0.0
  0
SPLINE
  5
4D6
100
AcDbEntity
  8
RACCORDO
100
AcDbSpline
 62
7
  6
CONTINUOUS
 70
0
 71
3
 72
9
 73
5
 74
3
 42
0.0000001
 43
0.0000001
 44
0.0000000001
 12
-0.2628829155
 22
-0.3141343906
 32
0.0
 13
-0.3439459295
 23
-0.2224613229
 33
0.0
 40
0.0
 40
0.0
 40
0.0
 40
0.0
 40
0.5029694279
 40
1.0
 40
1.0
 40
1.0
 40
1.0
 10
19.0588172794
 20
5.8118182894
 30
0.0
 10
19.0147432562
 20
5.7591516245
 30
0.0
 10
18.9195802483
 20
5.6604789176
 30
0.0
 10
18.810585875
 20
5.5772236062
 30
0.0
 10
18.7536019943
 20
5.5403669133
 30
0.0
 11
19.0588172794
 21
5.8118182894
 31
0.0
 11
18.9155160544
 21
5.6637931803
 31
0.0
 11
18.7536019943
 21
5.5403669133
 31
0.0
  0
LINE
  5
4D7
100
AcDbEntity
  8
RACCORDO
100
AcDbLine
 62
7
  6
CONTINUOUS
 10
19.1557899383
 20
8.4376882146
 11
19.1577178186
 21
8.432241229
  0
LINE
  5
4D8
100
AcDbEntity
  8
RACCORDO
100
AcDbLine
 62
7
  6
CONTINUOUS
 10
19.1577178186
 20
8.432241229
 11
19.1579842927
 21
8.431486475
  0
SPLINE
  5
4D9
100
AcDbEntity
  8
RACCORDO
100
AcDbSpline
 62
7
  6
CONTINUOUS
 70
0
 71
3
 72
15
 73
11
 74
9
 42
0.0000001
 43
0.0000001
 44
0.0000000001
 12
0.7594422826
 22
-2.1516712582
 32
0.0
 13
-1.0471258257
 23
-2.0273059191
 33
0.0
 40
0.0
 40
0.0
 40
0.0
 40
0.0
 40
0.1388161433
 40
0.2748300603
 40
0.4071919408
 40
0.5352364122
 40
0.6585338955
 40
0.7769348731
 40
0.8905995613
 40
1.0
 40
1.0
 40
1.0
 40
1.0
 10
19.1579842927
 20
8.431486475
 30
0.0
 10
19.1931252423
 20
8.3319242398
 30
0.0
 10
19.2553607
 20
8.132119431
 30
0.0
 10
19.3241828871
 20
7.8298331475
 30
0.0
 10
19.3667330075
 20
7.5309662504
 30
0.0
 10
19.3821995326
 20
7.2391226729
 30
0.0
 10
19.3699731787
 20
6.9576913264
 30
0.0
 10
19.3295469737
 20
6.6898620048
 30
0.0
 10
19.2605227609
 20
6.4388301163
 30
0.0
 10
19.1939849914
 20
6.2820320029
 30
0.0
 10
19.1557996499
 20
6.2081026172
 30
0.0
 11
19.1579842927
 21
8.431486475
 31
0.0
 11
19.2519682286
 21
8.1290054922
 31
0.0
 11
19.3205483443
 21
7.8263260831
 31
0.0
 11
19.3626869393
 21
7.5272617636
 31
0.0
 11
19.3776044791
 21
7.2354757236
 31
0.0
 11
19.3647358581
 21
6.9544345716
 31
0.0
 11
19.3236692197
 21
6.6874110651
 31
0.0
 11
19.2540920192
 21
6.4375621551
 31
0.0
 11
19.1557996499
 21
6.2081026172
 31
0.0
  0
SPLINE
  5
4DA
100
AcDbEntity
  8
RACCORDO
100
AcDbSpline
 62
7
  6
CONTINUOUS
 70
0
 71
3
 72
14
 73
10
 74
8
 42
0.0000001
 43
0.0000001
 44
0.0000000001
 12
2.2024500824
 22
-1.1528982074
 32
0.0
 13
1.0306512342
 23
-2.2622375373
 33
0.0
 40
0.0
 40
0.0
 40
0.0
 40
0.0
 40
0.1126871705
 40
0.2298597891
 40
0.3512781161
 40
0.4764776334
 40
0.6048079654
 40
0.735474562
 40
1.0
 40
1.0
 40
1.0
 40
1.0
 10
17.4848805417
 20
22.3418154764
 30
0.0
 10
17.5676098311
 20
22.2985098641
 30
0.0
 10
17.7315180248
 20
22.2006728113
 30
0.0
 10
17.9658142287
 20
22.0272623784
 30
0.0
 10
18.1912468965
 20
21.8265411522
 30
0.0
 10
18.4054699687
 20
21.6010449484
 30
0.0
 10
18.60620369
 20
21.3535074533
 30
0.0
 10
18.853684674
 20
20.9968805614
 30
0.0
 10
19.0108737981
 20
20.7079084257
 30
0.0
 10
19.1017516211
 20
20.5084353006
 30
0.0
 11
17.4848805417
 21
22.3418154764
 31
0.0
 11
17.7257729608
 21
22.1988244111
 31
0.0
 11
17.9602603188
 21
22.0260153551
 31
0.0
 11
18.1860142873
 21
21.8256590222
 31
0.0
 11
18.4006601248
 21
21.6002759091
 31
0.0
 11
18.6018193743
 21
21.3526659046
 31
0.0
 11
18.7871675998
 21
21.0859053438
 31
0.0
 11
19.1017516211
 21
20.5084353006
 31
0.0
  0
SPLINE
  5
4DB
100
AcDbEntity
  8
RACCORDO
100
AcDbSpline
 62
7
  6
CONTINUOUS
 70
0
 71
3
 72
9
 73
5
 74
3
 42
0.0000001
 43
0.0000001
 44
0.0000000001
 12
-0.262882933
 22
-0.3141344303
 32
0.0
 13
-0.3439459644
 23
-0.2224613458
 33
0.0
 40
0.0
 40
0.0
 40
0.0
 40
0.0
 40
0.5029694283
 40
1.0
 40
1.0
 40
1.0
 40
1.0
 10
19.058817307
 20
17.5031612733
 30
0.0
 10
19.0147432808
 20
17.4504946017
 30
0.0
 10
18.9195802654
 20
17.3518218825
 30
0.0
 10
18.8105858816
 20
17.2685665616
 30
0.0
 10
18.7536019952
 20
17.231709865
 30
0.0
 11
19.058817307
 21
17.5031612733
 31
0.0
 11
18.9155160706
 21
17.3551361458
 31
0.0
 11
18.7536019952
 21
17.231709865
 31
0.0
  0
LINE
  5
4DC
100
AcDbEntity
  8
RACCORDO
100
AcDbLine
 62
7
  6
CONTINUOUS
 10
19.1557899383
 20
20.1290311657
 11
19.1577178186
 21
20.1235841801
  0
LINE
  5
4DD
100
AcDbEntity
  8
RACCORDO
100
AcDbLine
 62
7
  6
CONTINUOUS
 10
19.1577178186
 20
20.1235841801
 11
19.1579842927
 21
20.1228294261
  0
SPLINE
  5
4DE
100
AcDbEntity
  8
RACCORDO
100
AcDbSpline
 62
7
  6
CONTINUOUS
 70
0
 71
3
 72
15
 73
11
 74
9
 42
0.0000001
 43
0.0000001
 44
0.0000000001
 12
0.7594422826
 22
-2.1516712582
 32
0.0
 13
-1.0471258257
 23
-2.0273059191
 33
0.0
 40
0.0
 40
0.0
 40
0.0
 40
0.0
 40
0.1388161433
 40
0.2748300603
 40
0.4071919408
 40
0.5352364122
 40
0.6585338955
 40
0.7769348731
 40
0.8905995613
 40
1.0
 40
1.0
 40
1.0
 40
1.0
 10
19.1579842927
 20
20.1228294261
 30
0.0
 10
19.1931252423
 20
20.0232671909
 30
0.0
 10
19.2553607
 20
19.8234623821
 30
0.0
 10
19.3241828871
 20
19.5211760985
 30
0.0
 10
19.3667330075
 20
19.2223092014
 30
0.0
 10
19.3821995326
 20
18.930465624
 30
0.0
 10
19.3699731787
 20
18.6490342775
 30
0.0
 10
19.3295469737
 20
18.3812049559
 30
0.0
 10
19.2605227609
 20
18.1301730674
 30
0.0
 10
19.1939849914
 20
17.973374954
 30
0.0
 10
19.1557996499
 20
17.8994455683
 30
0.0
 11
19.1579842927
 21
20.1228294261
 31
0.0
 11
19.2519682286
 21
19.8203484433
 31
0.0
 11
19.3205483443
 21
19.5176690342
 31
0.0
 11
19.3626869393
 21
19.2186047147
 31
0.0
 11
19.3776044791
 21
18.9268186747
 31
0.0
 11
19.3647358581
 21
18.6457775226
 31
0.0
 11
19.3236692197
 21
18.3787540162
 31
0.0
 11
19.2540920192
 21
18.1289051062
 31
0.0
 11
19.1557996499
 21
17.8994455683
 31
0.0
  0
SPLINE
  5
4DF
100
AcDbEntity
  8
RACCORDO
100
AcDbSpline
 62
253
  6
CONTINUOUS
 70
0
 71
3
 72
16
 73
12
 74
10
 42
0.0000001
 43
0.0000001
 44
0.0000000001
 12
0.0403747361
 22
-0.088561623
 32
0.0
 13
-0.0867485288
 23
-0.0441358487
 33
0.0
 40
0.0
 40
0.0
 40
0.0
 40
0.0
 40
0.008445533
 40
0.0227332945
 40
0.0736634099
 40
0.1556613134
 40
0.2683515984
 40
0.4107192484
 40
0.5813345403
 40
0.7784538427
 40
1.0
 40
1.0
 40
1.0
 40
1.0
 10
19.1017515664
 20
20.5084352756
 30
0.0
 10
19.1018652284
 20
20.5081859589
 30
0.0
 10
19.1016794668
 20
20.5073716742
 30
0.0
 10
19.1001630436
 20
20.5055494485
 30
0.0
 10
19.0964022996
 20
20.5025151052
 30
0.0
 10
19.0898011204
 20
20.4980884288
 30
0.0
 10
19.0804454796
 20
20.4924022416
 30
0.0
 10
19.0684506012
 20
20.4855635048
 30
0.0
 10
19.0539206525
 20
20.4776364539
 30
0.0
 10
19.0370122138
 20
20.468713669
 30
0.0
 10
19.0249314695
 20
20.4625036924
 30
0.0
 10
19.0185252017
 20
20.4592443165
 30
0.0
 11
19.1017515664
 21
20.5084352756
 31
0.0
 11
19.1016882545
 21
20.5076157071
 31
0.0
 11
19.100901832
 21
20.5064687911
 31
0.0
 11
19.0971699987
 21
20.5032059793
 31
0.0
 11
19.0905955694
 21
20.4986813842
 31
0.0
 11
19.0812482386
 21
20.4929429573
 31
0.0
 11
19.0692267784
 21
20.4860513587
 31
0.0
 11
19.0546590615
 21
20.4780798585
 31
0.0
 11
19.0376980657
 21
20.4691122173
 31
0.0
 11
19.0185252017
 21
20.4592443165
 31
0.0
  0
SPLINE
  5
4E0
100
AcDbEntity
  8
RACCORDO
100
AcDbSpline
 62
253
  6
CONTINUOUS
 70
0
 71
3
 72
12
 73
8
 74
6
 42
0.0000001
 43
0.0000001
 44
0.0000000001
 12
-0.0000041937
 22
-0.140420672
 32
0.0
 13
-0.1246974553
 23
-0.0645639975
 33
0.0
 40
0.0
 40
0.0
 40
0.0
 40
0.0
 40
0.1028546464
 40
0.2084745189
 40
0.4366765744
 40
0.6988746826
 40
1.0
 40
1.0
 40
1.0
 40
1.0
 10
19.1557852567
 20
20.2679697725
 30
0.0
 10
19.155785113
 20
20.2631554663
 30
0.0
 10
19.1548320573
 20
20.2533726027
 30
0.0
 10
19.1490427408
 20
20.2336616273
 30
0.0
 10
19.1340984192
 20
20.209503401
 30
0.0
 10
19.1067169507
 20
20.1841151823
 30
0.0
 10
19.0841037271
 20
20.1702528266
 30
0.0
 10
19.0715872069
 20
20.1637722085
 30
0.0
 11
19.1557852567
 21
20.2679697725
 31
0.0
 11
19.1544039206
 21
20.2535930619
 31
0.0
 11
19.1502730374
 21
20.2393487403
 31
0.0
 11
19.1339399048
 21
20.2117794632
 31
0.0
 11
19.1073863436
 21
20.1862750311
 31
0.0
 11
19.0715872069
 21
20.1637722085
 31
0.0
  0
SPLINE
  5
4E1
100
AcDbEntity
  8
RACCORDO
100
AcDbSpline
 62
7
  6
CONTINUOUS
 70
0
 71
3
 72
14
 73
10
 74
8
 42
0.0000001
 43
0.0000001
 44
0.0000000001
 12
0.0000089474
 22
-0.1249350135
 32
0.0
 13
-0.1111854209
 23
-0.0569785911
 33
0.0
 40
0.0
 40
0.0
 40
0.0
 40
0.0
 40
0.0819502751
 40
0.1721976201
 40
0.2741154028
 40
0.3897757245
 40
0.5202143261
 40
0.6657011406
 40
1.0
 40
1.0
 40
1.0
 40
1.0
 10
19.1557852235
 20
20.1229456664
 30
0.0
 10
19.1557854679
 20
20.1195328468
 30
0.0
 10
19.1547546072
 20
20.112339227
 30
0.0
 10
19.1504613196
 20
20.1016742225
 30
0.0
 10
19.1434834296
 20
20.0908478062
 30
0.0
 10
19.1338916224
 20
20.0799290962
 30
0.0
 10
19.1217591454
 20
20.0689879013
 30
0.0
 10
19.101360602
 20
20.0537879142
 30
0.0
 10
19.0839769267
 20
20.043778419
 30
0.0
 10
19.0715872069
 20
20.0374291263
 30
0.0
 11
19.1557852235
 21
20.1229456664
 31
0.0
 11
19.154426912
 21
20.1127977096
 31
0.0
 11
19.150347169
 21
20.1022866429
 31
0.0
 11
19.1435613566
 21
20.0915123877
 31
0.0
 11
19.1341129423
 21
20.08057938
 31
0.0
 11
19.1220746183
 21
20.0695953129
 31
0.0
 11
19.1075484884
 21
20.0586695194
 31
0.0
 11
19.0715872069
 21
20.0374291263
 31
0.0
  0
SPLINE
  5
4E2
100
AcDbEntity
  8
RACCORDO
100
AcDbSpline
 62
253
  6
CONTINUOUS
 70
0
 71
3
 72
12
 73
8
 74
6
 42
0.0000001
 43
0.0000001
 44
0.0000000001
 12
-0.0000081001
 22
-0.1404186068
 32
0.0
 13
-0.1246956218
 23
-0.0645630475
 33
0.0
 40
0.0
 40
0.0
 40
0.0
 40
0.0
 40
0.1028544898
 40
0.2084744835
 40
0.4366770801
 40
0.6988753356
 40
1.0
 40
1.0
 40
1.0
 40
1.0
 10
19.1557852567
 20
17.7847414052
 30
0.0
 10
19.1557849789
 20
17.7799271771
 30
0.0
 10
19.1548316818
 20
17.770144487
 30
0.0
 10
19.1490420239
 20
17.7504339084
 30
0.0
 10
19.1340975938
 20
17.7262762302
 30
0.0
 10
19.1067163981
 20
17.7008885454
 30
0.0
 10
19.084103516
 20
17.6870264356
 30
0.0
 10
19.0715872069
 20
17.680545927
 30
0.0
 11
19.1557852567
 21
17.7847414052
 31
0.0
 11
19.1544035708
 21
17.7703649637
 31
0.0
 11
19.1502724405
 21
17.7561209231
 31
0.0
 11
19.1339391236
 21
17.7285522146
 31
0.0
 11
19.1073857757
 21
17.7030483122
 31
0.0
 11
19.0715872069
 21
17.680545927
 31
0.0
  0
SPLINE
  5
4E3
100
AcDbEntity
  8
RACCORDO
100
AcDbSpline
 62
253
  6
CONTINUOUS
 70
0
 71
3
 72
9
 73
5
 74
3
 42
0.0000001
 43
0.0000001
 44
0.0000000001
 12
-0.0345413994
 22
-0.0412769744
 32
0.0
 13
-0.0452536915
 23
-0.0291376095
 33
0.0
 40
0.0
 40
0.0
 40
0.0
 40
0.0
 40
0.4976208479
 40
1.0
 40
1.0
 40
1.0
 40
1.0
 10
19.0588172935
 20
17.5031612846
 30
0.0
 10
19.0530877867
 20
17.4963145236
 30
0.0
 10
19.040498526
 20
17.4834213855
 30
0.0
 10
19.0261033833
 20
17.4725879138
 30
0.0
 10
19.0185252129
 20
17.4677085379
 30
0.0
 11
19.0588172935
 21
17.5031612846
 31
0.0
 11
19.0401112453
 21
17.483992763
 31
0.0
 11
19.0185252129
 21
17.4677085379
 31
0.0
  0
SPLINE
  5
4E4
100
AcDbEntity
  8
RACCORDO
100
AcDbSpline
 62
253
  6
CONTINUOUS
 70
0
 71
3
 72
13
 73
9
 74
7
 42
0.0000001
 43
0.0000001
 44
0.0000000001
 12
-0.4029948912
 22
0.2015008568
 32
0.0
 13
-0.4064116186
 23
-0.1945175412
 33
0.0
 40
0.0
 40
0.0
 40
0.0
 40
0.0
 40
0.1134934584
 40
0.2282840573
 40
0.3455908831
 40
0.4664899683
 40
0.722046102
 40
1.0
 40
1.0
 40
1.0
 40
1.0
 10
16.589187823
 20
24.8407617794
 30
0.0
 10
16.5739420617
 20
24.8483847891
 30
0.0
 10
16.5421840593
 20
24.8616341332
 30
0.0
 10
16.4918833164
 20
24.875011535
 30
0.0
 10
16.4391632274
 20
24.881864326
 30
0.0
 10
16.3648424976
 20
24.8822690645
 30
0.0
 10
16.26718393
 20
24.8653926795
 30
0.0
 10
16.1919695216
 20
24.8364207819
 30
0.0
 10
16.1543149571
 20
24.818398479
 30
0.0
 11
16.589187823
 21
24.8407617794
 31
0.0
 11
16.5420014896
 21
24.8604681633
 31
0.0
 11
16.4920338041
 21
24.8738186656
 31
0.0
 11
16.4396321912
 21
24.8807204633
 31
0.0
 11
16.3851609812
 21
24.8811255624
 31
0.0
 11
16.2715364661
 21
24.8624795921
 31
0.0
 11
16.1543149571
 21
24.818398479
 31
0.0
  0
SPLINE
  5
4E5
100
AcDbEntity
  8
RACCORDO
100
AcDbSpline
 62
253
  6
CONTINUOUS
 70
0
 71
3
 72
19
 73
15
 74
13
 42
0.0000001
 43
0.0000001
 44
0.0000000001
 12
-0.1916406811
 22
0.3305015699
 32
0.0
 13
-0.342093789
 23
-0.1700860898
 33
0.0
 40
0.0
 40
0.0
 40
0.0
 40
0.0
 40
0.0282727335
 40
0.0390580616
 40
0.0515824066
 40
0.08206194
 40
0.1199708655
 40
0.1653604797
 40
0.21818795
 40
0.2783507375
 40
0.4200586065
 40
0.5889462
 40
0.7830344787
 40
1.0
 40
1.0
 40
1.0
 40
1.0
 10
17.0070820423
 20
24.4479205707
 30
0.0
 10
17.0052759736
 20
24.4510352983
 30
0.0
 10
16.9993685837
 20
24.4525032556
 30
0.0
 10
16.9929644753
 20
24.4526619618
 30
0.0
 10
16.986072171
 20
24.4522872836
 30
0.0
 10
16.9759010055
 20
24.4506838597
 30
0.0
 10
16.9617770293
 20
24.4473719256
 30
0.0
 10
16.9451302186
 20
24.4425252688
 30
0.0
 10
16.9259869115
 20
24.4361598444
 30
0.0
 10
16.8955163596
 20
24.4250337323
 30
0.0
 10
16.8517501485
 20
24.40728447
 30
0.0
 10
16.79292751
 20
24.3813755251
 30
0.0
 10
16.7260133276
 20
24.3501073765
 30
0.0
 10
16.6789796571
 20
24.3271231587
 30
0.0
 10
16.6542388046
 20
24.3148222197
 30
0.0
 11
17.0070820423
 21
24.4479205707
 31
0.0
 11
16.9972781606
 21
24.4524542901
 31
0.0
 11
16.9931605054
 21
24.4526064961
 31
0.0
 11
16.9883817314
 21
24.4523654788
 31
0.0
 11
16.9768562339
 21
24.450704861
 31
0.0
 11
16.9627375093
 21
24.4474776174
 31
0.0
 11
16.946069581
 21
24.4426938769
 31
0.0
 11
16.9269040458
 21
24.4363683922
 31
0.0
 11
16.9053004107
 21
24.4285207936
 31
0.0
 11
16.8550550255
 21
24.4083616736
 31
0.0
 11
16.7959568754
 21
24.3824665874
 31
0.0
 11
16.7287407893
 21
24.3511576047
 31
0.0
 11
16.6542388046
 21
24.3148222197
 31
0.0
  0
SPLINE
  5
4E6
100
AcDbEntity
  8
RACCORDO
100
AcDbSpline
 62
253
  6
CONTINUOUS
 70
0
 71
3
 72
19
 73
15
 74
13
 42
0.0000001
 43
0.0000001
 44
0.0000000001
 12
-0.1916424148
 22
0.3305005298
 32
0.0
 13
-0.342093762
 23
-0.1700860763
 33
0.0
 40
0.0
 40
0.0
 40
0.0
 40
0.0
 40
0.0282727879
 40
0.0390581337
 40
0.051582496
 40
0.0820620608
 40
0.119971012
 40
0.1653606453
 40
0.218188128
 40
0.278350921
 40
0.4200587807
 40
0.588946339
 40
0.7830345586
 40
1.0
 40
1.0
 40
1.0
 40
1.0
 10
17.1429043637
 20
24.2136617184
 30
0.0
 10
17.1410982752
 20
24.2167764421
 30
0.0
 10
17.1351908767
 20
24.2182443799
 30
0.0
 10
17.1287867568
 20
24.2184030799
 30
0.0
 10
17.1218944452
 20
24.2180283946
 30
0.0
 10
17.111723272
 20
24.2164249642
 30
0.0
 10
17.0975992887
 20
24.2131130233
 30
0.0
 10
17.0809524733
 20
24.2082663613
 30
0.0
 10
17.0618091641
 20
24.2019009332
 30
0.0
 10
17.0313386148
 20
24.1907748185
 30
0.0
 10
16.9875724127
 20
24.1730255571
 30
0.0
 10
16.9287497917
 20
24.1471166179
 30
0.0
 10
16.861835635
 20
24.1158484804
 30
0.0
 10
16.8148019841
 20
24.0928642721
 30
0.0
 10
16.7900611428
 20
24.0805633385
 30
0.0
 11
17.1429043637
 21
24.2136617184
 31
0.0
 11
17.1331004488
 21
24.2181954135
 31
0.0
 11
17.1289827869
 21
24.2183476143
 31
0.0
 11
17.124204007
 21
24.2181065922
 31
0.0
 11
17.1126784995
 21
24.2164459659
 31
0.0
 11
17.0985597677
 21
24.2132187154
 31
0.0
 11
17.0818918347
 21
24.2084349695
 31
0.0
 11
17.0627262974
 21
24.2021094809
 31
0.0
 11
17.041122663
 21
24.1942618799
 31
0.0
 11
16.9908772862
 21
24.1741027598
 31
0.0
 11
16.931779154
 21
24.1482076792
 31
0.0
 11
16.864563094
 21
24.1168987075
 31
0.0
 11
16.7900611428
 21
24.0805633385
 31
0.0
  0
SPLINE
  5
4E7
100
AcDbEntity
  8
RACCORDO
100
AcDbSpline
 62
253
  6
CONTINUOUS
 70
0
 71
3
 72
12
 73
8
 74
6
 42
0.0000001
 43
0.0000001
 44
0.0000000001
 12
-0.0000081001
 22
-0.1404186068
 32
0.0
 13
-0.1246956218
 23
-0.0645630475
 33
0.0
 40
0.0
 40
0.0
 40
0.0
 40
0.0
 40
0.1028544898
 40
0.2084744835
 40
0.4366770801
 40
0.6988753356
 40
1.0
 40
1.0
 40
1.0
 40
1.0
 10
19.1557852567
 20
6.0933983972
 30
0.0
 10
19.1557849789
 20
6.0885841691
 30
0.0
 10
19.1548316818
 20
6.078801479
 30
0.0
 10
19.1490420239
 20
6.0590909004
 30
0.0
 10
19.1340975938
 20
6.0349332222
 30
0.0
 10
19.1067163981
 20
6.0095455374
 30
0.0
 10
19.084103516
 20
5.9956834276
 30
0.0
 10
19.0715872069
 20
5.989202919
 30
0.0
 11
19.1557852567
 21
6.0933983972
 31
0.0
 11
19.1544035708
 21
6.0790219557
 31
0.0
 11
19.1502724405
 21
6.0647779151
 31
0.0
 11
19.1339391236
 21
6.0372092066
 31
0.0
 11
19.1073857757
 21
6.0117053042
 31
0.0
 11
19.0715872069
 21
5.989202919
 31
0.0
  0
SPLINE
  5
4E8
100
AcDbEntity
  8
RACCORDO
100
AcDbSpline
 62
253
  6
CONTINUOUS
 70
0
 71
3
 72
9
 73
5
 74
3
 42
0.0000001
 43
0.0000001
 44
0.0000000001
 12
-0.0345414731
 22
-0.0412770601
 32
0.0
 13
-0.0452538046
 23
-0.0291376428
 33
0.0
 40
0.0
 40
0.0
 40
0.0
 40
0.0
 40
0.4976208386
 40
1.0
 40
1.0
 40
1.0
 40
1.0
 10
19.058817266
 20
5.8118183006
 30
0.0
 10
19.0530877471
 20
5.8049715255
 30
0.0
 10
19.0404984573
 20
5.7920783625
 30
0.0
 10
19.0261032789
 20
5.7812448748
 30
0.0
 10
19.0185250895
 20
5.7763654933
 30
0.0
 11
19.058817266
 21
5.8118183006
 31
0.0
 11
19.0401111753
 21
5.7926497425
 31
0.0
 11
19.0185250895
 21
5.7763654933
 31
0.0
  0
LINE
  5
4E9
100
AcDbEntity
  8
RACCORDO
100
AcDbLine
 62
253
  6
CONTINUOUS
 10
18.5278521534
 20
17.3155387999
 11
18.514060723
 21
17.3063158585
  0
LINE
  5
4EA
100
AcDbEntity
  8
RACCORDO
100
AcDbLine
 62
253
  6
CONTINUOUS
 10
18.514060723
 20
17.3063158585
 11
18.503070487
 21
17.2989673664
  0
SPLINE
  5
4EB
100
AcDbEntity
  8
RACCORDO
100
AcDbSpline
 62
253
  6
CONTINUOUS
 70
0
 71
3
 72
14
 73
10
 74
8
 42
0.0000001
 43
0.0000001
 44
0.0000000001
 12
2.0757473182
 22
-1.2292475321
 32
0.0
 13
1.0001651587
 23
-2.1953236844
 33
0.0
 40
0.0
 40
0.0
 40
0.0
 40
0.0
 40
0.111597871
 40
0.228366585
 40
0.3497962649
 40
0.4752254791
 40
0.6038737448
 40
0.7348710124
 40
1.0
 40
1.0
 40
1.0
 40
1.0
 10
17.4848748947
 20
22.2769893388
 30
0.0
 10
17.5620912219
 20
22.2312622029
 30
0.0
 10
17.7154364577
 20
22.1296340858
 30
0.0
 10
17.9352866905
 20
21.953655613
 30
0.0
 10
18.1479789582
 20
21.7525372645
 30
0.0
 10
18.3510106387
 20
21.528656483
 30
0.0
 10
18.5420470754
 20
21.2845993179
 30
0.0
 10
18.7786102928
 20
20.934878164
 30
0.0
 10
18.9301353861
 20
20.6532564479
 30
0.0
 10
19.0185263114
 20
20.4592417992
 30
0.0
 11
17.4848748947
 21
22.2769893388
 31
0.0
 11
17.7096204867
 21
22.1287685305
 31
0.0
 11
17.9298619654
 21
21.9531383788
 31
0.0
 11
18.142997576
 21
21.7521737359
 31
0.0
 11
18.3465094755
 21
21.5282485962
 31
0.0
 11
18.5379934436
 21
21.2840081824
 31
0.0
 11
18.7151874217
 21
21.0223379492
 31
0.0
 11
19.0185263114
 21
20.4592417992
 31
0.0
  0
SPLINE
  5
4EC
100
AcDbEntity
  8
RACCORDO
100
AcDbSpline
 62
253
  6
CONTINUOUS
 70
0
 71
3
 72
11
 73
7
 74
5
 42
0.0000001
 43
0.0000001
 44
0.0000000001
 12
0.0801549725
 22
0.0383639377
 32
0.0
 13
0.0800915805
 23
-0.0384961046
 33
0.0
 40
0.0
 40
0.0
 40
0.0
 40
0.0
 40
0.2780070439
 40
0.5338892322
 40
0.7720586044
 40
1.0
 40
1.0
 40
1.0
 40
1.0
 10
-2.8760696598
 20
25.1894034435
 30
0.0
 10
-2.8686417775
 20
25.1929585918
 30
0.0
 10
-2.8538007786
 20
25.1986908821
 30
0.0
 10
-2.8311211552
 20
25.2027166285
 30
0.0
 10
-2.8095599841
 20
25.2016051955
 30
0.0
 10
-2.7962323289
 20
25.1973166553
 30
0.0
 10
-2.7901469333
 20
25.1943917034
 30
0.0
 11
-2.8760696598
 21
25.1894034435
 31
0.0
 11
-2.8529573714
 21
25.198128967
 31
0.0
 11
-2.8305361731
 21
25.2019139341
 31
0.0
 11
-2.8094091086
 21
25.2006570882
 31
0.0
 11
-2.7901469333
 21
25.1943917034
 31
0.0
  0
SPLINE
  5
4ED
100
AcDbEntity
  8
RACCORDO
100
AcDbSpline
 62
253
  6
CONTINUOUS
 70
0
 71
3
 72
19
 73
15
 74
13
 42
0.0000001
 43
0.0000001
 44
0.0000000001
 12
0.8989405143
 22
0.4151598182
 32
0.0
 13
0.8856417654
 23
-0.4428209416
 33
0.0
 40
0.0
 40
0.0
 40
0.0
 40
0.0
 40
0.0542549267
 40
0.1085353699
 40
0.1640020383
 40
0.2212699897
 40
0.3420239029
 40
0.4708119243
 40
0.6058420355
 40
0.7438179607
 40
0.8122668861
 40
0.8788956369
 40
0.9421085071
 40
1.0
 40
1.0
 40
1.0
 40
1.0
 10
-3.830583503
 20
25.0793977139
 30
0.0
 10
-3.8143261857
 20
25.086905869
 30
0.0
 10
-3.7821065949
 20
25.1025707435
 30
0.0
 10
-3.733346503
 20
25.1260793275
 30
0.0
 10
-3.6829703684
 20
25.1484979624
 30
0.0
 10
-3.6112669748
 20
25.1768020752
 30
0.0
 10
-3.5144372975
 20
25.2070405834
 30
0.0
 10
-3.3899510888
 20
25.2328461715
 30
0.0
 10
-3.2578931796
 20
25.247040782
 30
0.0
 10
-3.1449216443
 20
25.2475005566
 30
0.0
 10
-3.0551036273
 20
25.2393683376
 30
0.0
 10
-2.9904688933
 20
25.2285876101
 30
0.0
 10
-2.930461395
 20
25.2127634344
 30
0.0
 10
-2.8931600345
 20
25.197948632
 30
0.0
 10
-2.8760696598
 20
25.1894034435
 30
0.0
 11
-3.830583503
 21
25.0793977139
 31
0.0
 11
-3.7821018036
 21
25.1025403077
 31
0.0
 11
-3.733583411
 21
25.1256646607
 31
0.0
 11
-3.6833644135
 21
25.1479011692
 31
0.0
 11
-3.6306065653
 21
25.1686885892
 31
0.0
 11
-3.5164996213
 21
25.2044107047
 31
0.0
 11
-3.3916591899
 21
25.2304296688
 31
0.0
 11
-3.2587156029
 21
25.2446672011
 31
0.0
 11
-3.122094941
 21
25.2447233288
 31
0.0
 11
-3.0546082432
 21
25.2384613528
 31
0.0
 11
-2.9895714422
 21
25.2273788208
 31
0.0
 11
-2.9291442747
 21
25.2110597503
 31
0.0
 11
-2.8760696598
 21
25.1894034435
 31
0.0
  0
SPLINE
  5
4EE
100
AcDbEntity
  8
RACCORDO
100
AcDbSpline
 62
253
  6
CONTINUOUS
 70
0
 71
3
 72
11
 73
7
 74
5
 42
0.0000001
 43
0.0000001
 44
0.0000000001
 12
0.2032260441
 22
0.0938534404
 32
0.0
 13
0.1988172014
 23
-0.1028640546
 33
0.0
 40
0.0
 40
0.0
 40
0.0
 40
0.0
 40
0.2278650143
 40
0.4657801303
 40
0.7216148653
 40
1.0
 40
1.0
 40
1.0
 40
1.0
 10
-4.0463931897
 20
25.0972945162
 30
0.0
 10
-4.0309571545
 20
25.1044231548
 30
0.0
 10
-3.9972074715
 20
25.1146364586
 30
0.0
 10
-3.9428511383
 20
25.116203584
 30
0.0
 10
-3.8859949441
 20
25.1045157614
 30
0.0
 10
-3.8490327541
 20
25.0889429884
 30
0.0
 10
-3.830583503
 20
25.0793977139
 30
0.0
 11
-4.0463931897
 21
25.0972945162
 31
0.0
 11
-3.9976160268
 21
25.1122138457
 31
0.0
 11
-3.9443947979
 21
25.1141803931
 31
0.0
 11
-3.8882001514
 21
25.1031402081
 31
0.0
 11
-3.830583503
 21
25.0793977139
 31
0.0
  0
SPLINE
  5
4EF
100
AcDbEntity
  8
RACCORDO
100
AcDbSpline
 62
7
  6
CONTINUOUS
 70
0
 71
3
 72
11
 73
7
 74
5
 42
0.0000001
 43
0.0000001
 44
0.0000000001
 12
-0.1964237998
 22
0.0943399015
 32
0.0
 13
-0.1978305345
 23
-0.0913531925
 33
0.0
 40
0.0
 40
0.0
 40
0.0
 40
0.0
 40
0.2875953613
 40
0.5471845931
 40
0.7820765174
 40
1.0
 40
1.0
 40
1.0
 40
1.0
 10
-3.8696474237
 20
25.0628844339
 30
0.0
 10
-3.8884776149
 20
25.0719283399
 30
0.0
 10
-3.9255670856
 20
25.0867325195
 30
0.0
 10
-3.9815452525
 20
25.0983114847
 30
0.0
 10
-4.0337653488
 20
25.0975820287
 30
0.0
 10
-4.0658633861
 20
25.0883016419
 30
0.0
 10
-4.0802340258
 20
25.08166564
 30
0.0
 11
-3.8696474237
 21
25.0628844339
 31
0.0
 11
-3.9280388927
 21
25.0856385848
 31
0.0
 11
-3.9835480523
 21
25.0965199574
 31
0.0
 11
-4.0347148103
 21
25.09519218
 31
0.0
 11
-4.0802340258
 21
25.08166564
 31
0.0
  0
SPLINE
  5
4F0
100
AcDbEntity
  8
RACCORDO
100
AcDbSpline
 62
253
  6
CONTINUOUS
 70
0
 71
3
 72
16
 73
12
 74
10
 42
0.0000001
 43
0.0000001
 44
0.0000000001
 12
0.0403747356
 22
-0.0885616233
 32
0.0
 13
-0.0867485287
 23
-0.0441358489
 33
0.0
 40
0.0
 40
0.0
 40
0.0
 40
0.0
 40
0.0084455341
 40
0.0227332963
 40
0.0736634122
 40
0.1556613158
 40
0.2683516007
 40
0.4107192504
 40
0.5813345417
 40
0.7784538434
 40
1.0
 40
1.0
 40
1.0
 40
1.0
 10
19.101751579
 20
8.8170922967
 30
0.0
 10
19.1018652411
 20
8.81684298
 30
0.0
 10
19.1016794796
 20
8.8160286952
 30
0.0
 10
19.1001630564
 20
8.8142064693
 30
0.0
 10
19.0964023125
 20
8.8111721258
 30
0.0
 10
19.0898011334
 20
8.8067454493
 30
0.0
 10
19.0804454927
 20
8.8010592619
 30
0.0
 10
19.0684506144
 20
8.794220525
 30
0.0
 10
19.0539206658
 20
8.7862934741
 30
0.0
 10
19.0370122272
 20
8.7773706891
 30
0.0
 10
19.0249314829
 20
8.7711607125
 30
0.0
 10
19.0185252152
 20
8.7679013366
 30
0.0
 11
19.101751579
 21
8.8170922967
 31
0.0
 11
19.1016882672
 21
8.8162727281
 31
0.0
 11
19.1009018447
 21
8.815125812
 31
0.0
 11
19.0971700116
 21
8.8118629999
 31
0.0
 11
19.0905955824
 21
8.8073384047
 31
0.0
 11
19.0812482516
 21
8.8015999777
 31
0.0
 11
19.0692267916
 21
8.7947083789
 31
0.0
 11
19.0546590747
 21
8.7867368786
 31
0.0
 11
19.037698079
 21
8.7777692374
 31
0.0
 11
19.0185252152
 21
8.7679013366
 31
0.0
  0
SPLINE
  5
4F1
100
AcDbEntity
  8
RACCORDO
100
AcDbSpline
 62
7
  6
CONTINUOUS
 70
0
 71
3
 72
10
 73
6
 74
4
 42
0.0000001
 43
0.0000001
 44
0.0000000001
 12
0.08518834
 22
0.0445591007
 32
0.0
 13
0.0457515924
 23
0.0845538794
 33
0.0
 40
0.0
 40
0.0
 40
0.0
 40
0.0
 40
0.5245740276
 40
0.7673422648
 40
1.0
 40
1.0
 40
1.0
 40
1.0
 10
19.0715872069
 20
6.1155460052
 30
0.0
 10
19.0864830704
 20
6.1233375209
 30
0.0
 10
19.1071901549
 20
6.1373346338
 30
0.0
 10
19.1290593832
 20
6.1608990975
 30
0.0
 10
19.1375180147
 20
6.1736785232
 30
0.0
 10
19.1410661687
 20
6.1802358946
 30
0.0
 11
19.0715872069
 21
6.1155460052
 31
0.0
 11
19.1129600732
 21
6.1443841073
 31
0.0
 11
19.128775018
 21
6.1615483518
 31
0.0
 11
19.1410661687
 21
6.1802358946
 31
0.0
  0
SPLINE
  5
4F2
100
AcDbEntity
  8
RACCORDO
100
AcDbSpline
 62
253
  6
CONTINUOUS
 70
0
 71
3
 72
12
 73
8
 74
6
 42
0.0000001
 43
0.0000001
 44
0.0000000001
 12
-0.0000041937
 22
-0.140420672
 32
0.0
 13
-0.1246974553
 23
-0.0645639975
 33
0.0
 40
0.0
 40
0.0
 40
0.0
 40
0.0
 40
0.1028546464
 40
0.2084745189
 40
0.4366765744
 40
0.6988746826
 40
1.0
 40
1.0
 40
1.0
 40
1.0
 10
19.1557852567
 20
8.5766267937
 30
0.0
 10
19.155785113
 20
8.5718124875
 30
0.0
 10
19.1548320573
 20
8.5620296239
 30
0.0
 10
19.1490427408
 20
8.5423186485
 30
0.0
 10
19.1340984192
 20
8.5181604222
 30
0.0
 10
19.1067169507
 20
8.4927722035
 30
0.0
 10
19.0841037271
 20
8.4789098478
 30
0.0
 10
19.0715872069
 20
8.4724292297
 30
0.0
 11
19.1557852567
 21
8.5766267937
 31
0.0
 11
19.1544039206
 21
8.5622500831
 31
0.0
 11
19.1502730374
 21
8.5480057615
 31
0.0
 11
19.1339399048
 21
8.5204364844
 31
0.0
 11
19.1073863436
 21
8.4949320523
 31
0.0
 11
19.0715872069
 21
8.4724292297
 31
0.0
  0
SPLINE
  5
4F3
100
AcDbEntity
  8
RACCORDO
100
AcDbSpline
 62
7
  6
CONTINUOUS
 70
0
 71
3
 72
10
 73
6
 74
4
 42
0.0000001
 43
0.0000001
 44
0.0000000001
 12
0.08518834
 22
0.0445591007
 32
0.0
 13
0.0457515924
 23
0.0845538794
 33
0.0
 40
0.0
 40
0.0
 40
0.0
 40
0.0
 40
0.5245740276
 40
0.7673422648
 40
1.0
 40
1.0
 40
1.0
 40
1.0
 10
19.0715872069
 20
17.8068889563
 30
0.0
 10
19.0864830704
 20
17.814680472
 30
0.0
 10
19.1071901549
 20
17.8286775849
 30
0.0
 10
19.1290593832
 20
17.8522420485
 30
0.0
 10
19.1375180147
 20
17.8650214743
 30
0.0
 10
19.1410661687
 20
17.8715788457
 30
0.0
 11
19.0715872069
 21
17.8068889563
 31
0.0
 11
19.1129600732
 21
17.8357270584
 31
0.0
 11
19.128775018
 21
17.8528913029
 31
0.0
 11
19.1410661687
 21
17.8715788457
 31
0.0
  0
SPLINE
  5
4F4
100
AcDbEntity
  8
RACCORDO
100
AcDbSpline
 62
253
  6
CONTINUOUS
 70
0
 71
3
 72
11
 73
7
 74
5
 42
0.0000001
 43
0.0000001
 44
0.0000000001
 12
-0.1487780496
 22
0.0881249855
 32
0.0
 13
-0.0324554946
 23
0.1698457005
 33
0.0
 40
0.0
 40
0.0
 40
0.0
 40
0.0
 40
0.2984306598
 40
0.43639501
 40
0.5661334734
 40
1.0
 40
1.0
 40
1.0
 40
1.0
 10
17.5709011713
 20
19.9625964304
 30
0.0
 10
17.5561011941
 20
19.9713628296
 30
0.0
 10
17.5351883749
 20
19.9855115626
 30
0.0
 10
17.5104613096
 20
20.0069172915
 30
0.0
 10
17.4823815796
 20
20.0358018836
 30
0.0
 10
17.4641436633
 20
20.0652293375
 30
0.0
 10
17.4594498791
 20
20.0897927922
 30
0.0
 11
17.5709011713
 21
19.9625964304
 31
0.0
 11
17.5283648117
 21
19.9918138879
 31
0.0
 11
17.5103617565
 21
20.0074672893
 31
0.0
 11
17.4947829613
 21
20.02361026
 31
0.0
 11
17.4594498791
 21
20.0897927922
 31
0.0
  0
SPLINE
  5
4F5
100
AcDbEntity
  8
RACCORDO
100
AcDbSpline
 62
253
  6
CONTINUOUS
 70
0
 71
3
 72
11
 73
7
 74
5
 42
0.0000001
 43
0.0000001
 44
0.0000000001
 12
0.013820779
 22
-0.2235308787
 32
0.0
 13
-0.1401278519
 23
-0.1747033279
 33
0.0
 40
0.0
 40
0.0
 40
0.0
 40
0.0
 40
0.2830584669
 40
0.5431102783
 40
0.7809257577
 40
1.0
 40
1.0
 40
1.0
 40
1.0
 10
19.0715872069
 20
5.989202919
 30
0.0
 10
19.0728912364
 20
5.9681121497
 30
0.0
 10
19.072898771
 20
5.9274181284
 30
0.0
 10
19.064126542
 20
5.8695215381
 30
0.0
 10
19.0466829319
 20
5.8185810256
 30
0.0
 10
19.0287589376
 20
5.7891244083
 30
0.0
 10
19.0185261366
 20
5.7763667419
 30
0.0
 11
19.0715872069
 21
5.989202919
 31
0.0
 11
19.0712398834
 21
5.925810737
 31
0.0
 11
19.0620976859
 21
5.868292136
 31
0.0
 11
19.0443825625
 21
5.8180639799
 31
0.0
 11
19.0185261366
 21
5.7763667419
 31
0.0
  0
SPLINE
  5
4F6
100
AcDbEntity
  8
RACCORDO
100
AcDbSpline
 62
253
  6
CONTINUOUS
 70
0
 71
3
 72
9
 73
5
 74
3
 42
0.0000001
 43
0.0000001
 44
0.0000000001
 12
0.1141671521
 22
-0.2796011305
 32
0.0
 13
-0.0175201335
 23
-0.3015028618
 33
0.0
 40
0.0
 40
0.0
 40
0.0
 40
0.0
 40
0.514457549
 40
1.0
 40
1.0
 40
1.0
 40
1.0
 10
19.0185262919
 20
8.7678988
 30
0.0
 10
19.0381043429
 20
8.7199511625
 30
0.0
 10
19.0668908006
 20
8.6226814679
 30
0.0
 10
19.0744227964
 20
8.5212267092
 30
0.0
 10
19.0715872069
 20
8.4724292297
 30
0.0
 11
19.0185262919
 21
8.7678988
 31
0.0
 11
19.0620978183
 21
8.6187612586
 31
0.0
 11
19.0715872069
 21
8.4724292297
 31
0.0
  0
SPLINE
  5
4F7
100
AcDbEntity
  8
RACCORDO
100
AcDbSpline
 62
253
  6
CONTINUOUS
 70
0
 71
3
 72
11
 73
7
 74
5
 42
0.0000001
 43
0.0000001
 44
0.0000000001
 12
0.0138210501
 22
-0.2235307526
 32
0.0
 13
-0.1401276859
 23
-0.1747033211
 33
0.0
 40
0.0
 40
0.0
 40
0.0
 40
0.0
 40
0.2830584327
 40
0.5431101381
 40
0.78092543
 40
1.0
 40
1.0
 40
1.0
 40
1.0
 10
19.0715872069
 20
17.680545927
 30
0.0
 10
19.0728912618
 20
17.6594551721
 30
0.0
 10
19.0728988506
 20
17.6187611797
 30
0.0
 10
19.0641266911
 20
17.5608646371
 30
0.0
 10
19.0466831784
 20
17.5099241067
 30
0.0
 10
19.0287591331
 20
17.4804675265
 30
0.0
 10
19.018526329
 20
17.4677098416
 30
0.0
 11
19.0715872069
 21
17.680545927
 31
0.0
 11
19.0712399629
 21
17.6171537831
 31
0.0
 11
19.0620978435
 21
17.5596352224
 31
0.0
 11
19.0443827982
 21
17.5094071108
 31
0.0
 11
19.018526329
 21
17.4677098416
 31
0.0
  0
SPLINE
  5
4F8
100
AcDbEntity
  8
RACCORDO
100
AcDbSpline
 62
253
  6
CONTINUOUS
 70
0
 71
3
 72
11
 73
7
 74
5
 42
0.0000001
 43
0.0000001
 44
0.0000000001
 12
0.4309148798
 22
0.4361914956
 32
0.0
 13
0.2825163861
 23
0.5441830079
 33
0.0
 40
0.0
 40
0.0
 40
0.0
 40
0.0
 40
0.261981532
 40
0.517033885
 40
0.7637318712
 40
1.0
 40
1.0
 40
1.0
 40
1.0
 10
17.2042116184
 20
19.473750845
 30
0.0
 10
17.2418421986
 20
19.5118422171
 30
0.0
 10
17.3137387656
 20
19.5894044778
 30
0.0
 10
17.4121564013
 20
19.7107148332
 30
0.0
 10
17.4987005383
 20
19.834412744
 30
0.0
 10
17.5486506751
 20
19.9197371459
 30
0.0
 10
17.5709005477
 20
19.9625948462
 30
0.0
 11
17.2042116184
 21
19.473750845
 31
0.0
 11
17.313349399
 21
19.5916154434
 31
0.0
 11
17.4117292293
 21
19.7131787571
 31
0.0
 11
17.4981793506
 21
19.837302463
 31
0.0
 11
17.5709005477
 21
19.9625948462
 31
0.0
  0
SPLINE
  5
4F9
100
AcDbEntity
  8
RACCORDO
100
AcDbSpline
 62
253
  6
CONTINUOUS
 70
0
 71
3
 72
9
 73
5
 74
3
 42
0.0000001
 43
0.0000001
 44
0.0000000001
 12
0.1141671644
 22
-0.2796011428
 32
0.0
 13
-0.0175201385
 23
-0.3015028777
 33
0.0
 40
0.0
 40
0.0
 40
0.0
 40
0.0
 40
0.5144575484
 40
1.0
 40
1.0
 40
1.0
 40
1.0
 10
19.0185262867
 20
20.4592417938
 30
0.0
 10
19.0381043399
 20
20.4112941543
 30
0.0
 10
19.0668908009
 20
20.3140244549
 30
0.0
 10
19.0744227972
 20
20.2125696906
 30
0.0
 10
19.0715872069
 20
20.1637722085
 30
0.0
 11
19.0185262867
 21
20.4592417938
 31
0.0
 11
19.0620978179
 21
20.3101042454
 31
0.0
 11
19.0715872069
 21
20.1637722085
 31
0.0
  0
SPLINE
  5
4FA
100
AcDbEntity
  8
RACCORDO
100
AcDbSpline
 62
253
  6
CONTINUOUS
 70
0
 71
3
 72
9
 73
5
 74
3
 42
0.0000001
 43
0.0000001
 44
0.0000000001
 12
-0.2283442775
 22
-0.2728625296
 32
0.0
 13
-0.2987574508
 23
-0.1932331616
 33
0.0
 40
0.0
 40
0.0
 40
0.0
 40
0.0
 40
0.5061611222
 40
1.0
 40
1.0
 40
1.0
 40
1.0
 10
19.0185263564
 20
17.4677099044
 30
0.0
 10
18.9800000245
 20
17.4216724363
 30
0.0
 10
18.8974134768
 20
17.3358949671
 30
0.0
 10
18.8027813411
 20
17.263518551
 30
0.0
 10
18.753601993
 20
17.2317098684
 30
0.0
 11
19.0185263564
 21
17.4677099044
 31
0.0
 11
18.8933097566
 21
17.3382713336
 31
0.0
 11
18.753601993
 21
17.2317098684
 31
0.0
  0
SPLINE
  5
4FB
100
AcDbEntity
  8
RACCORDO
100
AcDbSpline
 62
253
  6
CONTINUOUS
 70
0
 71
3
 72
12
 73
8
 74
6
 42
0.0000001
 43
0.0000001
 44
0.0000000001
 12
0.2591305495
 22
0.9020389953
 32
0.0
 13
-0.4030527165
 23
0.8475679905
 33
0.0
 40
0.0
 40
0.0
 40
0.0
 40
0.0
 40
0.1200887533
 40
0.2421850015
 40
0.4905608259
 40
0.7433267346
 40
1.0
 40
1.0
 40
1.0
 40
1.0
 10
17.5709010582
 20
19.9625950129
 30
0.0
 10
17.5812739464
 20
19.9987032591
 30
0.0
 10
17.5981968766
 20
20.0727243149
 30
0.0
 10
17.6177289823
 20
20.2251192978
 30
0.0
 10
17.6162528704
 20
20.4211762211
 30
0.0
 10
17.57451373
 20
20.6556005187
 30
0.0
 10
17.5193567176
 20
20.80623898
 30
0.0
 10
17.484872432
 20
20.8787549946
 30
0.0
 11
17.5709010582
 21
19.9625950129
 31
0.0
 11
17.5962666176
 21
20.0724094411
 31
0.0
 11
17.6110035884
 21
20.1860478368
 31
0.0
 11
17.6097746895
 21
20.4191506997
 31
0.0
 11
17.5680579658
 21
20.6526802019
 31
0.0
 11
17.484872432
 21
20.8787549946
 31
0.0
  0
SPLINE
  5
4FC
100
AcDbEntity
  8
RACCORDO
100
AcDbSpline
 62
7
  6
CONTINUOUS
 70
0
 71
3
 72
14
 73
10
 74
8
 42
0.0000001
 43
0.0000001
 44
0.0000000001
 12
0.0000089474
 22
-0.1249350135
 32
0.0
 13
-0.1111854209
 23
-0.0569785911
 33
0.0
 40
0.0
 40
0.0
 40
0.0
 40
0.0
 40
0.0819502751
 40
0.1721976201
 40
0.2741154028
 40
0.3897757245
 40
0.5202143261
 40
0.6657011406
 40
1.0
 40
1.0
 40
1.0
 40
1.0
 10
19.1557852235
 20
8.4316027153
 30
0.0
 10
19.1557854679
 20
8.4281898958
 30
0.0
 10
19.1547546072
 20
8.4209962759
 30
0.0
 10
19.1504613196
 20
8.4103312714
 30
0.0
 10
19.1434834296
 20
8.3995048551
 30
0.0
 10
19.1338916224
 20
8.3885861451
 30
0.0
 10
19.1217591454
 20
8.3776449502
 30
0.0
 10
19.101360602
 20
8.3624449631
 30
0.0
 10
19.0839769267
 20
8.3524354679
 30
0.0
 10
19.0715872069
 20
8.3460861752
 30
0.0
 11
19.1557852235
 21
8.4316027153
 31
0.0
 11
19.154426912
 21
8.4214547585
 31
0.0
 11
19.150347169
 21
8.4109436918
 31
0.0
 11
19.1435613566
 21
8.4001694366
 31
0.0
 11
19.1341129423
 21
8.3892364289
 31
0.0
 11
19.1220746183
 21
8.3782523618
 31
0.0
 11
19.1075484884
 21
8.3673265683
 31
0.0
 11
19.0715872069
 21
8.3460861752
 31
0.0
  0
SPLINE
  5
4FD
100
AcDbEntity
  8
RACCORDO
100
AcDbSpline
 62
253
  6
CONTINUOUS
 70
0
 71
3
 72
9
 73
5
 74
3
 42
0.0000001
 43
0.0000001
 44
0.0000000001
 12
-0.2283442097
 22
-0.2728624404
 32
0.0
 13
-0.2987573569
 23
-0.1932331006
 33
0.0
 40
0.0
 40
0.0
 40
0.0
 40
0.0
 40
0.5061609268
 40
1.0
 40
1.0
 40
1.0
 40
1.0
 10
19.0185262589
 20
5.7763668907
 30
0.0
 10
18.9799999533
 20
5.7303294554
 30
0.0
 10
18.8974134637
 20
5.6445519823
 30
0.0
 10
18.8027813447
 20
5.5721756022
 30
0.0
 10
18.7536019926
 20
5.540366917
 30
0.0
 11
19.0185262589
 21
5.7763668907
 31
0.0
 11
18.8933097682
 21
5.6469283899
 31
0.0
 11
18.7536019926
 21
5.540366917
 31
0.0
  0
SPLINE
  5
4FE
100
AcDbEntity
  8
RACCORDO
100
AcDbSpline
 62
253
  6
CONTINUOUS
 70
0
 71
3
 72
13
 73
9
 74
7
 42
0.0000001
 43
0.0000001
 44
0.0000000001
 12
0.4064116187
 22
0.1945175412
 32
0.0
 13
0.4029948916
 23
-0.2015008559
 33
0.0
 40
0.0
 40
0.0
 40
0.0
 40
0.0
 40
0.2779538981
 40
0.5335100317
 40
0.6544091169
 40
0.7717159427
 40
0.8865065416
 40
1.0
 40
1.0
 40
1.0
 40
1.0
 10
3.0044468559
 20
31.3933325295
 30
0.0
 10
3.0421014205
 20
31.4113548325
 30
0.0
 10
3.1173158289
 20
31.4403267301
 30
0.0
 10
3.2149743965
 20
31.4572031151
 30
0.0
 10
3.2892951263
 20
31.4567983766
 30
0.0
 10
3.3420152153
 20
31.4499455856
 30
0.0
 10
3.3923159582
 20
31.4365681838
 30
0.0
 10
3.4240739606
 20
31.4233188397
 30
0.0
 10
3.4393197219
 20
31.41569583
 30
0.0
 11
3.0044468559
 21
31.3933325295
 31
0.0
 11
3.121668365
 21
31.4374136426
 31
0.0
 11
3.2352928801
 21
31.456059613
 31
0.0
 11
3.2897640901
 21
31.4556545138
 31
0.0
 11
3.342165703
 21
31.4487527162
 31
0.0
 11
3.3921333885
 21
31.4354022139
 31
0.0
 11
3.4393197219
 21
31.41569583
 31
0.0
  0
SPLINE
  5
4FF
100
AcDbEntity
  8
RACCORDO
100
AcDbSpline
 62
253
  6
CONTINUOUS
 70
0
 71
3
 72
13
 73
9
 74
7
 42
0.0000001
 43
0.0000001
 44
0.0000000001
 12
-0.4061175693
 22
0.2059523326
 32
0.0
 13
-0.4118537678
 23
-0.1942274885
 33
0.0
 40
0.0
 40
0.0
 40
0.0
 40
0.0
 40
0.2776481467
 40
0.5331430789
 40
0.6540879816
 40
0.7714793583
 40
0.8863824325
 40
1.0
 40
1.0
 40
1.0
 40
1.0
 10
3.0044468559
 20
31.3933325295
 30
0.0
 10
2.9668609258
 20
31.4123932907
 30
0.0
 10
2.8915775323
 20
31.4433648281
 30
0.0
 10
2.7933320322
 20
31.4626049668
 30
0.0
 10
2.718220315
 20
31.4638712957
 30
0.0
 10
2.6647613748
 20
31.4581372933
 30
0.0
 10
2.6135863232
 20
31.445757895
 30
0.0
 10
2.5811600345
 20
31.4330913751
 30
0.0
 10
2.5655620934
 20
31.4257354902
 30
0.0
 11
3.0044468559
 21
31.3933325295
 31
0.0
 11
2.8871486622
 21
31.4405052609
 31
0.0
 11
2.7727932344
 21
31.4619066219
 31
0.0
 11
2.7177265196
 21
31.4627267643
 31
0.0
 11
2.6645863074
 21
31.4569368076
 31
0.0
 11
2.6137454396
 21
31.4445771576
 31
0.0
 11
2.5655620934
 21
31.4257354902
 31
0.0
  0
SPLINE
  5
500
100
AcDbEntity
  8
RACCORDO
100
AcDbSpline
 62
253
  6
CONTINUOUS
 70
0
 71
3
 72
11
 73
7
 74
5
 42
0.0000001
 43
0.0000001
 44
0.0000000001
 12
-0.3570947129
 22
0.6239892882
 32
0.0
 13
-0.6448435076
 23
0.3178932469
 33
0.0
 40
0.0
 40
0.0
 40
0.0
 40
0.0
 40
0.2691312001
 40
0.5287222304
 40
0.7735798097
 40
1.0
 40
1.0
 40
1.0
 40
1.0
 10
16.6542388046
 20
24.3148222197
 30
0.0
 10
16.6222036951
 20
24.3708005483
 30
0.0
 10
16.5524944452
 20
24.4770716171
 30
0.0
 10
16.4314150935
 20
24.6181790811
 30
0.0
 10
16.2993603531
 20
24.7341631047
 30
0.0
 10
16.202983487
 20
24.7944059958
 30
0.0
 10
16.1543149571
 20
24.818398479
 30
0.0
 11
16.6542388046
 21
24.3148222197
 31
0.0
 11
16.5478565114
 21
24.4764427672
 31
0.0
 11
16.4258811063
 21
24.6176985764
 31
0.0
 11
16.2929987933
 21
24.7331624595
 31
0.0
 11
16.1543149571
 21
24.818398479
 31
0.0
  0
SPLINE
  5
501
100
AcDbEntity
  8
RACCORDO
100
AcDbSpline
 62
253
  6
CONTINUOUS
 70
0
 71
3
 72
11
 73
7
 74
5
 42
0.0000001
 43
0.0000001
 44
0.0000000001
 12
0.7591371268
 22
-1.3008479134
 32
0.0
 13
-0.0043593853
 23
-1.5061458983
 33
0.0
 40
0.0
 40
0.0
 40
0.0
 40
0.0
 40
0.2602702373
 40
0.5174813741
 40
0.7657527574
 40
1.0
 40
1.0
 40
1.0
 40
1.0
 10
16.7900611428
 20
24.0805633385
 30
0.0
 10
16.8559214095
 20
23.9677060068
 30
0.0
 10
16.9733053734
 20
23.7350968325
 30
0.0
 10
17.104062356
 20
23.3725577701
 30
0.0
 10
17.1850954696
 20
23.0090899281
 30
0.0
 10
17.2045520098
 20
22.7665332717
 30
0.0
 10
17.2042116184
 20
22.6489297639
 30
0.0
 11
16.7900611428
 21
24.0805633385
 31
0.0
 11
16.9666580478
 21
23.7305880514
 31
0.0
 11
17.097577455
 21
23.3659811561
 31
0.0
 11
17.1777891489
 21
23.0007509705
 31
0.0
 11
17.2042116184
 21
22.6489297639
 31
0.0
  0
SPLINE
  5
502
100
AcDbEntity
  8
RACCORDO
100
AcDbSpline
 62
253
  6
CONTINUOUS
 70
0
 71
3
 72
15
 73
11
 74
9
 42
0.0000001
 43
0.0000001
 44
0.0000000001
 12
0.4162595084
 22
0.2155340921
 32
0.0
 13
-0.0000021098
 23
0.4687503847
 33
0.0
 40
0.0
 40
0.0
 40
0.0
 40
0.0
 40
0.1553711952
 40
0.3009879167
 40
0.4368298868
 40
0.5632631063
 40
0.6811312529
 40
0.7918213155
 40
0.8972910936
 40
1.0
 40
1.0
 40
1.0
 40
1.0
 10
17.2042116184
 20
22.6489297639
 30
0.0
 10
17.2257698642
 20
22.6600923604
 30
0.0
 10
17.2667398059
 20
22.6833117941
 30
0.0
 10
17.3230026612
 20
22.7221254338
 30
0.0
 10
17.3716426662
 20
22.7635020504
 30
0.0
 10
17.4122079878
 20
22.8071018351
 30
0.0
 10
17.444303842
 20
22.852574919
 30
0.0
 10
17.4675730966
 20
22.8995595026
 30
0.0
 10
17.4816979998
 20
22.9476117041
 30
0.0
 10
17.4848717842
 20
22.9802214924
 30
0.0
 10
17.484871712
 20
22.9962697722
 30
0.0
 11
17.2042116184
 21
22.6489297639
 31
0.0
 11
17.2674804688
 21
22.6850033868
 31
0.0
 11
17.3235421026
 21
22.7239422277
 31
0.0
 11
17.371882583
 21
22.7653889145
 31
0.0
 11
17.4120555747
 21
22.8089612048
 31
0.0
 11
17.4436915192
 21
22.8542581272
 31
0.0
 11
17.4664989879
 21
22.900862605
 31
0.0
 11
17.4802679558
 21
22.9483455509
 31
0.0
 11
17.484871712
 21
22.9962697722
 31
0.0
  0
SPLINE
  5
503
100
AcDbEntity
  8
RACCORDO
100
AcDbSpline
 62
253
  6
CONTINUOUS
 70
0
 71
3
 72
11
 73
7
 74
5
 42
0.0000001
 43
0.0000001
 44
0.0000000001
 12
0.3529376303
 22
0.5693651139
 32
0.0
 13
0.13671212
 23
0.6557830434
 33
0.0
 40
0.0
 40
0.0
 40
0.0
 40
0.0
 40
0.2567925344
 40
0.5102233692
 40
0.7587154285
 40
1.0
 40
1.0
 40
1.0
 40
1.0
 10
17.2042116184
 20
19.473750845
 30
0.0
 10
17.2344222013
 20
19.5224870819
 30
0.0
 10
17.2906978805
 20
19.6217048591
 30
0.0
 10
17.3624912623
 20
19.7753544543
 30
0.0
 10
17.4201014722
 20
19.9311920165
 30
0.0
 10
17.4484542486
 20
20.0370493627
 30
0.0
 10
17.459449757
 20
20.0897928062
 30
0.0
 11
17.2042116184
 21
19.473750845
 31
0.0
 11
17.289043276
 21
19.6233994026
 31
0.0
 11
17.3607692535
 21
19.7772720626
 31
0.0
 11
17.4181857718
 21
19.9335166663
 31
0.0
 11
17.459449757
 21
20.0897928062
 31
0.0
  0
SPLINE
  5
504
100
AcDbEntity
  8
RACCORDO
100
AcDbSpline
 62
253
  6
CONTINUOUS
 70
0
 71
3
 72
9
 73
5
 74
3
 42
0.0000001
 43
0.0000001
 44
0.0000000001
 12
0.0538283508
 22
0.2582034918
 32
0.0
 13
0.0000420075
 23
0.2637546829
 33
0.0
 40
0.0
 40
0.0
 40
0.0
 40
0.0
 40
0.4959208033
 40
1.0
 40
1.0
 40
1.0
 40
1.0
 10
17.459449757
 20
20.0897928062
 30
0.0
 10
17.4683479567
 20
20.1324756339
 30
0.0
 10
17.4809801009
 20
20.2196938632
 30
0.0
 10
17.4848649038
 20
20.3076594708
 30
0.0
 10
17.4848719621
 20
20.3519772203
 30
0.0
 11
17.459449757
 21
20.0897928062
 31
0.0
 11
17.4787257441
 21
20.2191661109
 31
0.0
 11
17.4848719621
 21
20.3519772203
 31
0.0
  0
SPLINE
  5
505
100
AcDbEntity
  8
RACCORDO
100
AcDbSpline
 62
253
  6
CONTINUOUS
 70
0
 71
3
 72
15
 73
11
 74
9
 42
0.0000001
 43
0.0000001
 44
0.0000000001
 12
0.7545663129
 22
-2.1616155713
 32
0.0
 13
-1.0820456139
 23
-2.017704014
 33
0.0
 40
0.0
 40
0.0
 40
0.0
 40
0.0
 40
0.1428199638
 40
0.2822220119
 40
0.4171188376
 40
0.5465804561
 40
0.6698852226
 40
0.7865764752
 40
0.8965257314
 40
1.0
 40
1.0
 40
1.0
 40
1.0
 10
19.0679496148
 20
20.0354789385
 30
0.0
 10
19.1038719926
 20
19.9325716526
 30
0.0
 10
19.1673325993
 20
19.7264898455
 30
0.0
 10
19.2371384628
 20
19.415569723
 30
0.0
 10
19.2797162799
 20
19.1100038544
 30
0.0
 10
19.2944415484
 20
18.8140915898
 30
0.0
 10
19.2810779702
 20
18.5319609068
 30
0.0
 10
19.2397317963
 20
18.2675121559
 30
0.0
 10
19.1709040011
 20
18.0244916463
 30
0.0
 10
19.1052709076
 20
17.8746657895
 30
0.0
 10
19.0679496148
 20
17.8050723072
 30
0.0
 11
19.0679496148
 21
20.0354789385
 31
0.0
 11
19.163944765
 21
19.7228963549
 31
0.0
 11
19.2335071152
 21
19.4114038592
 31
0.0
 11
19.275645238
 21
19.1054414631
 31
0.0
 11
19.2897583481
 21
18.8093712562
 31
0.0
 11
19.275645238
 21
18.5274141593
 31
0.0
 11
19.2335071152
 21
18.2635898861
 31
0.0
 11
19.163944765
 21
18.0216597406
 31
0.0
 11
19.0679496148
 21
17.8050723072
 31
0.0
  0
SPLINE
  5
506
100
AcDbEntity
  8
RACCORDO
100
AcDbSpline
 62
253
  6
CONTINUOUS
 70
0
 71
3
 72
15
 73
11
 74
9
 42
0.0000001
 43
0.0000001
 44
0.0000000001
 12
0.7545663129
 22
-2.1616155713
 32
0.0
 13
-1.0820456139
 23
-2.017704014
 33
0.0
 40
0.0
 40
0.0
 40
0.0
 40
0.0
 40
0.1428199638
 40
0.2822220119
 40
0.4171188376
 40
0.5465804561
 40
0.6698852226
 40
0.7865764752
 40
0.8965257314
 40
1.0
 40
1.0
 40
1.0
 40
1.0
 10
19.0679496148
 20
8.3441359874
 30
0.0
 10
19.1038719926
 20
8.2412287015
 30
0.0
 10
19.1673325993
 20
8.0351468944
 30
0.0
 10
19.2371384628
 20
7.7242267719
 30
0.0
 10
19.2797162799
 20
7.4186609033
 30
0.0
 10
19.2944415484
 20
7.1227486387
 30
0.0
 10
19.2810779702
 20
6.8406179557
 30
0.0
 10
19.2397317963
 20
6.5761692048
 30
0.0
 10
19.1709040011
 20
6.3331486952
 30
0.0
 10
19.1052709076
 20
6.1833228385
 30
0.0
 10
19.0679496148
 20
6.1137293561
 30
0.0
 11
19.0679496148
 21
8.3441359874
 31
0.0
 11
19.163944765
 21
8.0315534038
 31
0.0
 11
19.2335071152
 21
7.7200609081
 31
0.0
 11
19.275645238
 21
7.414098512
 31
0.0
 11
19.2897583481
 21
7.1180283051
 31
0.0
 11
19.275645238
 21
6.8360712082
 31
0.0
 11
19.2335071152
 21
6.572246935
 31
0.0
 11
19.163944765
 21
6.3303167895
 31
0.0
 11
19.0679496148
 21
6.1137293561
 31
0.0
  0
SPLINE
  5
507
100
AcDbEntity
  8
0
100
AcDbSpline
 62
7
  6
CONTINUOUS
 70
0
 71
3
 72
15
 73
11
 74
9
 42
0.0000001
 43
0.0000001
 44
0.0000000001
 12
-1.1656304999
 22
-0.5930771071
 32
0.0
 13
0.0000053518
 23
-1.3078359673
 33
0.0
 40
0.0
 40
0.0
 40
0.0
 40
0.0
 40
0.1556943211
 40
0.301573237
 40
0.437586056
 40
0.5640811213
 40
0.6818911495
 40
0.7924077098
 40
0.8976106823
 40
1.0
 40
1.0
 40
1.0
 40
1.0
 10
0.3577569492
 20
28.3995444657
 30
0.0
 10
0.2972629328
 20
28.3687648865
 30
0.0
 10
0.1822751221
 20
28.3046689419
 30
0.0
 10
0.0242696064
 20
28.1972950242
 30
0.0
 10
-0.1123914828
 20
28.0826432139
 30
0.0
 10
-0.226413694
 20
27.9616782404
 30
0.0
 10
-0.3166650008
 20
27.8353885809
 30
0.0
 10
-0.3821223169
 20
27.7047978017
 30
0.0
 10
-0.4218702026
 20
27.5711618065
 30
0.0
 10
-0.4308044564
 20
27.4804303714
 30
0.0
 10
-0.4308042738
 20
27.4357942273
 30
0.0
 11
0.3577569492
 21
28.3995444657
 31
0.0
 11
0.1801569695
 21
28.299943141
 31
0.0
 11
0.0227037358
 21
28.1922042907
 31
0.0
 11
-0.1131220122
 21
28.0773411782
 31
0.0
 11
-0.226040689
 21
27.9564360742
 31
0.0
 11
-0.3149884167
 21
27.8306275898
 31
0.0
 11
-0.3791278492
 21
27.701100637
 31
0.0
 11
-0.417854621
 21
27.5690750389
 31
0.0
 11
-0.4308042738
 21
27.4357942273
 31
0.0
  0
SPLINE
  5
508
100
AcDbEntity
  8
0
100
AcDbSpline
 62
7
  6
CONTINUOUS
 70
0
 71
3
 72
15
 73
11
 74
9
 42
0.0000001
 43
0.0000001
 44
0.0000000001
 12
-1.1656304999
 22
-0.5930771071
 32
0.0
 13
0.0000053518
 23
-1.3078359673
 33
0.0
 40
0.0
 40
0.0
 40
0.0
 40
0.0
 40
0.1556943211
 40
0.301573237
 40
0.437586056
 40
0.5640811213
 40
0.6818911495
 40
0.7924077098
 40
0.8976106823
 40
1.0
 40
1.0
 40
1.0
 40
1.0
 10
7.7823781517
 20
24.6872338645
 30
0.0
 10
7.7218841352
 20
24.6564542853
 30
0.0
 10
7.6068963245
 20
24.5923583407
 30
0.0
 10
7.4488908088
 20
24.4849844229
 30
0.0
 10
7.3122297197
 20
24.3703326127
 30
0.0
 10
7.1982075085
 20
24.2493676392
 30
0.0
 10
7.1079562017
 20
24.1230779797
 30
0.0
 10
7.0424988855
 20
23.9924872005
 30
0.0
 10
7.0027509999
 20
23.8588512052
 30
0.0
 10
6.993816746
 20
23.7681197702
 30
0.0
 10
6.9938169287
 20
23.7234836261
 30
0.0
 11
7.7823781517
 21
24.6872338645
 31
0.0
 11
7.6047781719
 21
24.5876325398
 31
0.0
 11
7.4473249383
 21
24.4798936895
 31
0.0
 11
7.3114991903
 21
24.365030577
 31
0.0
 11
7.1985805134
 21
24.2441254729
 31
0.0
 11
7.1096327858
 21
24.1183169886
 31
0.0
 11
7.0454933533
 21
23.9887900357
 31
0.0
 11
7.0067665814
 21
23.8567644377
 31
0.0
 11
6.9938169287
 21
23.7234836261
 31
0.0
  0
SPLINE
  5
509
100
AcDbEntity
  8
ASSI
100
AcDbSpline
 62
253
  6
CONTINUOUS
 70
0
 71
3
 72
13
 73
9
 74
7
 42
0.0000001
 43
0.0000001
 44
0.0000000001
 12
-0.6966108313
 22
-0.2181405187
 32
0.0
 13
0.0307568541
 23
0.7293188274
 33
0.0
 40
0.0
 40
0.0
 40
0.0
 40
0.0
 40
0.2422180433
 40
0.3538266741
 40
0.4655979873
 40
0.7087592626
 40
0.848331981
 40
1.0
 40
1.0
 40
1.0
 40
1.0
 10
8.845049729
 20
-30.3385514464
 30
0.0
 10
8.7888058248
 20
-30.3561639696
 30
0.0
 10
8.698424734
 20
-30.3664035284
 30
0.0
 10
8.5898593625
 20
-30.3289342446
 30
0.0
 10
8.4970183499
 20
-30.2607216821
 30
0.0
 10
8.4371599703
 20
-30.1496168915
 30
0.0
 10
8.4117425675
 20
-30.0219329539
 30
0.0
 10
8.4096671199
 20
-29.9506592336
 30
0.0
 10
8.4112220636
 20
-29.9137877864
 30
0.0
 11
8.845049729
 21
-30.3385514464
 31
0.0
 11
8.6687538418
 21
-30.3520406918
 31
0.0
 11
8.5918030493
 21
-30.325281797
 31
0.0
 11
8.525908476
 21
-30.2771701354
 31
0.0
 11
8.4359733086
 21
-30.12414132
 31
0.0
 11
8.4150225425
 21
-30.0244351976
 31
0.0
 11
8.4112220636
 21
-29.9137877864
 31
0.0
  0
SPLINE
  5
50A
100
AcDbEntity
  8
ASSI
100
AcDbSpline
 62
253
  6
CONTINUOUS
 70
0
 71
3
 72
11
 73
7
 74
5
 42
0.0000001
 43
0.0000001
 44
0.0000000001
 12
1.0270954837
 22
-0.5119944547
 32
0.0
 13
1.0590491402
 23
0.4421293622
 33
0.0
 40
0.0
 40
0.0
 40
0.0
 40
0.0
 40
0.2362692934
 40
0.5017866371
 40
0.7663479496
 40
1.0
 40
1.0
 40
1.0
 40
1.0
 10
7.290569564
 20
-29.8723994776
 30
0.0
 10
7.3714599387
 20
-29.9127223336
 30
0.0
 10
7.556134238
 20
-29.9724173551
 30
0.0
 10
7.8483876186
 20
-30.00858389
 30
0.0
 10
8.1415029958
 20
-29.9942225623
 30
0.0
 10
8.3287390626
 20
-29.9482225971
 30
0.0
 10
8.4112220636
 20
-29.9137877864
 30
0.0
 11
7.290569564
 21
-29.8723994776
 31
0.0
 11
7.5468523755
 21
-29.9609533567
 31
0.0
 11
7.8490761329
 21
-29.9998514605
 31
0.0
 11
8.1522448233
 21
-29.9833119102
 31
0.0
 11
8.4112220636
 21
-29.9137877864
 31
0.0
  0
SPLINE
  5
50B
100
AcDbEntity
  8
ASSI
100
AcDbSpline
 62
253
  6
CONTINUOUS
 70
0
 71
3
 72
12
 73
8
 74
6
 42
0.0000001
 43
0.0000001
 44
0.0000000001
 12
0.2997681236
 22
2.0501711115
 32
0.0
 13
1.9467642559
 23
0.7093457878
 33
0.0
 40
0.0
 40
0.0
 40
0.0
 40
0.0
 40
0.2593885477
 40
0.5264100286
 40
0.6560115945
 40
0.7794492076
 40
1.0
 40
1.0
 40
1.0
 40
1.0
 10
10.7981912858
 20
6.8690491841
 30
0.0
 10
10.8241100918
 20
7.0463128198
 30
0.0
 10
10.9258919923
 20
7.3996676128
 30
0.0
 10
11.1466296251
 20
7.7997555095
 30
0.0
 10
11.3732060965
 20
8.0797786142
 30
0.0
 10
11.6096559703
 20
8.3060373815
 30
0.0
 10
11.8159692964
 20
8.4353847402
 30
0.0
 10
11.9590894294
 20
8.4875336654
 30
0.0
 11
10.7981912858
 21
6.8690491841
 31
0.0
 11
10.9427105623
 21
7.38669946
 31
0.0
 11
11.210700335
 21
7.8707230775
 31
0.0
 11
11.3801131649
 21
8.0790689449
 31
0.0
 11
11.5656216261
 21
8.2551352279
 31
0.0
 11
11.9590894294
 21
8.4875336654
 31
0.0
  0
SPLINE
  5
50C
100
AcDbEntity
  8
ASSI
100
AcDbSpline
 62
253
  6
CONTINUOUS
 70
0
 71
3
 72
11
 73
7
 74
5
 42
0.0000001
 43
0.0000001
 44
0.0000000001
 12
0.1406354345
 22
0.9575653691
 32
0.0
 13
0.9115998166
 23
0.3251084988
 33
0.0
 40
0.0
 40
0.0
 40
0.0
 40
0.0
 40
0.2590727034
 40
0.525887561
 40
0.7786117216
 40
1.0
 40
1.0
 40
1.0
 40
1.0
 10
11.9094901516
 20
6.7296836894
 30
0.0
 10
11.9216350857
 20
6.8123767056
 30
0.0
 10
11.9694369787
 20
6.977260071
 30
0.0
 10
12.0928829019
 20
7.198376929
 30
0.0
 10
12.2552915476
 20
7.3766568918
 30
0.0
 10
12.3884869816
 20
7.4587262765
 30
0.0
 10
12.4557594863
 20
7.4827180135
 30
0.0
 11
11.9094901516
 21
6.7296836894
 31
0.0
 11
11.9773671846
 21
6.9710618525
 31
0.0
 11
12.1034275712
 21
7.1964355521
 31
0.0
 11
12.2704774827
 21
7.3751014762
 31
0.0
 11
12.4557594863
 21
7.4827180135
 31
0.0
  0
SPLINE
  5
50D
100
AcDbEntity
  8
ASSI
100
AcDbSpline
 62
253
  6
CONTINUOUS
 70
0
 71
3
 72
12
 73
8
 74
6
 42
0.0000001
 43
0.0000001
 44
0.0000000001
 12
1.016888451
 22
-0.5101207299
 32
0.0
 13
1.1034338794
 23
0.276981867
 33
0.0
 40
0.0
 40
0.0
 40
0.0
 40
0.0
 40
0.2400817375
 40
0.5091998383
 40
0.7733607236
 40
0.8931910308
 40
1.0
 40
1.0
 40
1.0
 40
1.0
 10
10.7982062294
 20
6.8690531291
 30
0.0
 10
10.8795850114
 20
6.8282295721
 30
0.0
 10
11.0626476466
 20
6.7625448433
 30
0.0
 10
11.3510445195
 20
6.7056060733
 30
0.0
 10
11.5994691386
 20
6.6915107996
 30
0.0
 10
11.7853132016
 20
6.7048813348
 30
0.0
 10
11.8702046065
 20
6.7198223068
 30
0.0
 10
11.9094901515
 20
6.7296836894
 30
0.0
 11
10.7982062294
 21
6.8690531291
 31
0.0
 11
11.0537259782
 21
6.7725581616
 31
0.0
 11
11.3539060603
 21
6.7123090935
 31
0.0
 11
11.6540564664
 21
6.6972684713
 31
0.0
 11
11.7899847248
 21
6.7076868428
 31
0.0
 11
11.9094901515
 21
6.7296836894
 31
0.0
  0
SPLINE
  5
50E
100
AcDbEntity
  8
ASSI
100
AcDbSpline
 62
253
  6
CONTINUOUS
 70
0
 71
3
 72
11
 73
7
 74
5
 42
0.0000001
 43
0.0000001
 44
0.0000000001
 12
1.0439181784
 22
-0.538024582
 32
0.0
 13
-0.0960269303
 23
-1.1704761606
 33
0.0
 40
0.0
 40
0.0
 40
0.0
 40
0.0
 40
0.2257931931
 40
0.4810447258
 40
0.7467509226
 40
1.0
 40
1.0
 40
1.0
 40
1.0
 10
11.9590894294
 20
8.4875336654
 30
0.0
 10
12.0376593024
 20
8.4470395693
 30
0.0
 10
12.1860334257
 20
8.3235346351
 30
0.0
 10
12.3479995548
 20
8.0765334515
 30
0.0
 10
12.4477050421
 20
7.787220144
 30
0.0
 10
12.4638657301
 20
7.5815253494
 30
0.0
 10
12.4557594863
 20
7.4827180135
 30
0.0
 11
11.9590894294
 21
8.4875336654
 31
0.0
 11
12.1672448289
 21
8.3232525026
 31
0.0
 11
12.3347125086
 21
8.0746234819
 31
0.0
 11
12.4360257259
 21
7.7794805214
 31
0.0
 11
12.4557594863
 21
7.4827180135
 31
0.0
  0
SPLINE
  5
50F
100
AcDbEntity
  8
ASSI
100
AcDbSpline
 62
253
  6
CONTINUOUS
 70
0
 71
3
 72
12
 73
8
 74
6
 42
0.0000001
 43
0.0000001
 44
0.0000000001
 12
-1.9328141442
 22
-0.7318744737
 32
0.0
 13
-0.2971586912
 23
-2.0452646464
 33
0.0
 40
0.0
 40
0.0
 40
0.0
 40
0.0
 40
0.2192928119
 40
0.3425280844
 40
0.4721685274
 40
0.7397887221
 40
1.0
 40
1.0
 40
1.0
 40
1.0
 10
-18.0928862232
 20
23.5135214917
 30
0.0
 10
-18.2341703061
 20
23.4600232213
 30
0.0
 10
-18.4372761871
 20
23.328717991
 30
0.0
 10
-18.6697333077
 20
23.1009796135
 30
0.0
 10
-18.8930133729
 20
22.819116666
 30
0.0
 10
-19.1105146004
 20
22.4175743368
 30
0.0
 10
-19.2110714324
 20
22.0639681927
 30
0.0
 10
-19.2368461133
 20
21.8865678836
 30
0.0
 11
-18.0928862232
 21
23.5135214917
 31
0.0
 11
-18.4801047618
 21
23.2779984219
 31
0.0
 11
-18.6627757731
 21
23.1005134139
 31
0.0
 11
-18.8296705812
 21
22.8909085355
 31
0.0
 11
-19.09392781
 21
22.4050186462
 31
0.0
 11
-19.2368461133
 21
21.8865678836
 31
0.0
  0
SPLINE
  5
510
100
AcDbEntity
  8
ASSI
100
AcDbSpline
 62
253
  6
CONTINUOUS
 70
0
 71
3
 72
10
 73
6
 74
4
 42
0.0000001
 43
0.0000001
 44
0.0000000001
 12
-0.3217130193
 22
0.156074394
 32
0.0
 13
-0.3335143923
 23
-0.1289443033
 33
0.0
 40
0.0
 40
0.0
 40
0.0
 40
0.0
 40
0.5224872962
 40
0.7645724484
 40
1.0
 40
1.0
 40
1.0
 40
1.0
 10
-18.0928862232
 20
23.5135214917
 30
0.0
 10
-18.1489165451
 20
23.5407037878
 30
0.0
 10
-18.2387970145
 20
23.5683197143
 30
0.0
 10
-18.3587421751
 20
23.5654842827
 30
0.0
 10
-18.4144688679
 20
23.5511666321
 30
0.0
 10
-18.4406416935
 20
23.5410476182
 30
0.0
 11
-18.0928862232
 21
23.5135214917
 31
0.0
 11
-18.272612987
 21
23.5645387247
 31
0.0
 11
-18.3591426897
 21
23.56213348
 31
0.0
 11
-18.4406416935
 21
23.5410476182
 31
0.0
  0
SPLINE
  5
511
100
AcDbEntity
  8
ASSI
100
AcDbSpline
 62
253
  6
CONTINUOUS
 70
0
 71
3
 72
13
 73
9
 74
7
 42
0.0000001
 43
0.0000001
 44
0.0000000001
 12
-0.3330902114
 22
0.1659963303
 32
0.0
 13
0.0530079673
 23
0.3683667005
 33
0.0
 40
0.0
 40
0.0
 40
0.0
 40
0.0
 40
0.3324169942
 40
0.6056732306
 40
0.7204066966
 40
0.8221913543
 40
0.9138992102
 40
1.0
 40
1.0
 40
1.0
 40
1.0
 10
-19.2368460872
 20
21.8865678905
 30
0.0
 10
-19.2737543694
 20
21.9049612242
 30
0.0
 10
-19.3391825445
 20
21.9423300142
 30
0.0
 10
-19.4088883804
 20
21.9995916026
 30
0.0
 10
-19.4468256703
 20
22.04735145
 30
0.0
 10
-19.4651357799
 20
22.0812065426
 30
0.0
 10
-19.4745802227
 20
22.1149296416
 30
0.0
 10
-19.4746352355
 20
22.137331056
 30
0.0
 10
-19.4731138929
 20
22.1479032773
 30
0.0
 11
-19.2368460872
 21
21.8865678905
 31
0.0
 11
-19.3435179136
 21
21.9492252579
 31
0.0
 11
-19.4205125265
 21
22.0156614758
 31
0.0
 11
-19.4467310365
 21
22.0493634429
 31
0.0
 11
-19.4643623257
 21
22.0828903557
 31
0.0
 11
-19.4731865058
 21
22.1158599965
 31
0.0
 11
-19.4731138929
 21
22.1479032773
 31
0.0
  0
SPLINE
  5
512
100
AcDbEntity
  8
ASSI
100
AcDbSpline
 62
253
  6
CONTINUOUS
 70
0
 71
3
 72
11
 73
7
 74
5
 42
0.0000001
 43
0.0000001
 44
0.0000000001
 12
-0.0437043105
 22
-0.999165096
 32
0.0
 13
0.8848937599
 23
-0.4660514881
 33
0.0
 40
0.0
 40
0.0
 40
0.0
 40
0.0
 40
0.2925886192
 40
0.5539294563
 40
0.7862927648
 40
1.0
 40
1.0
 40
1.0
 40
1.0
 10
-22.7444678593
 20
-14.8548807886
 30
0.0
 10
-22.7487303206
 20
-14.9523289005
 30
0.0
 10
-22.7412875753
 20
-15.1381929746
 30
0.0
 10
-22.6739638192
 20
-15.3941610028
 30
0.0
 10
-22.5521668175
 20
-15.6004472776
 30
0.0
 10
-22.433630316
 20
-15.6969122259
 30
0.0
 10
-22.3705942497
 20
-15.7301117509
 30
0.0
 11
-22.7444678593
 21
-14.8548807886
 31
0.0
 11
-22.7297116781
 21
-15.1471323634
 31
0.0
 11
-22.6595092384
 21
-15.3989003273
 31
0.0
 11
-22.5376299269
 21
-15.5967668237
 31
0.0
 11
-22.3705942497
 21
-15.7301117509
 31
0.0
  0
SPLINE
  5
513
100
AcDbEntity
  8
ASSI
100
AcDbSpline
 62
253
  6
CONTINUOUS
 70
0
 71
3
 72
11
 73
7
 74
5
 42
0.0000001
 43
0.0000001
 44
0.0000000001
 12
-0.3431378893
 22
0.1720876979
 32
0.0
 13
0.0167420727
 23
0.3835068315
 33
0.0
 40
0.0
 40
0.0
 40
0.0
 40
0.0
 40
0.3102615609
 40
0.5757763596
 40
0.8006446194
 40
1.0
 40
1.0
 40
1.0
 40
1.0
 10
-22.7444526629
 20
-14.854874196
 30
0.0
 10
-22.7799401619
 20
-14.8370767968
 30
0.0
 10
-22.8437347639
 20
-14.7994367624
 30
0.0
 10
-22.9209088559
 20
-14.7307840137
 30
0.0
 10
-22.9696076772
 20
-14.6553817129
 30
0.0
 10
-22.9799305364
 20
-14.6001659649
 30
0.0
 10
-22.9788179956
 20
-14.5746812481
 30
0.0
 11
-22.7444526629
 21
-14.854874196
 31
0.0
 11
-22.8462838354
 21
-14.7931052525
 31
0.0
 11
-22.9211198625
 21
-14.7239097738
 31
0.0
 11
-22.9658936648
 21
-14.6501089519
 31
0.0
 11
-22.9788179956
 21
-14.5746812481
 31
0.0
  0
SPLINE
  5
514
100
AcDbEntity
  8
ASSI
100
AcDbSpline
 62
253
  6
CONTINUOUS
 70
0
 71
3
 72
11
 73
7
 74
5
 42
0.0000001
 43
0.0000001
 44
0.0000000001
 12
-0.9105327823
 22
0.4564106026
 32
0.0
 13
0.0435798275
 23
1.0175860575
 33
0.0
 40
0.0
 40
0.0
 40
0.0
 40
0.0
 40
0.2155067681
 40
0.4481538884
 40
0.7087372151
 40
1.0
 40
1.0
 40
1.0
 40
1.0
 10
7.6823077407
 20
-30.7566997482
 30
0.0
 10
7.6168990816
 20
-30.7239132235
 30
0.0
 10
7.4934891325
 20
-30.627833371
 30
0.0
 10
7.3655723532
 20
-30.4193567551
 30
0.0
 10
7.2945561111
 20
-30.1598219216
 30
0.0
 10
7.2863384791
 20
-29.9711944711
 30
0.0
 10
7.2905695397
 20
-29.8723994881
 30
0.0
 11
7.6823077407
 21
-30.7566997482
 31
0.0
 11
7.5080426496
 21
-30.6232421971
 31
0.0
 11
7.3804862549
 21
-30.4235492801
 31
0.0
 11
7.3066399746
 21
-30.1686205136
 31
0.0
 11
7.2905695397
 21
-29.8723994881
 31
0.0
  0
SPLINE
  5
515
100
AcDbEntity
  8
ASSI
100
AcDbSpline
 62
253
  6
CONTINUOUS
 70
0
 71
3
 72
11
 73
7
 74
5
 42
0.0000001
 43
0.0000001
 44
0.0000000001
 12
0.5759936422
 22
0.1805369222
 32
0.0
 13
0.0652718073
 23
0.6000848667
 33
0.0
 40
0.0
 40
0.0
 40
0.0
 40
0.0
 40
0.2195741428
 40
0.4543959935
 40
0.7138618431
 40
1.0
 40
1.0
 40
1.0
 40
1.0
 10
8.5285873672
 20
-30.8156775023
 30
0.0
 10
8.5707451373
 20
-30.8024637557
 30
0.0
 10
8.6533421578
 20
-30.7578451485
 30
0.0
 10
8.749822632
 20
-30.6482618081
 30
0.0
 10
8.8166574626
 20
-30.5042791692
 30
0.0
 10
8.8388241441
 20
-30.3957871724
 30
0.0
 10
8.845049729
 20
-30.3385514464
 30
0.0
 11
8.5285873672
 21
-30.8156775023
 31
0.0
 11
8.6456239714
 21
-30.7534733274
 31
0.0
 11
8.7409682932
 21
-30.6485882982
 31
0.0
 11
8.8088193133
 21
-30.5074287185
 31
0.0
 11
8.845049729
 21
-30.3385514464
 31
0.0
  0
SPLINE
  5
516
100
AcDbEntity
  8
CURVE
100
AcDbSpline
 62
253
  6
CONTINUOUS
 70
0
 71
3
 72
63
 73
59
 74
57
 42
0.0000001
 43
0.0000001
 44
0.0000000001
 12
0.1130360563
 22
1.8650254426
 32
0.0
 13
0.1656283643
 23
2.5950470249
 33
0.0
 40
0.0
 40
0.0
 40
0.0
 40
0.0
 40
0.0625
 40
0.125
 40
0.1875
 40
0.25
 40
0.28125
 40
0.3125
 40
0.34375
 40
0.375
 40
0.390625
 40
0.40625
 40
0.421875
 40
0.4375
 40
0.453125
 40
0.4609375
 40
0.46875
 40
0.4765625
 40
0.48046875
 40
0.484375
 40
0.48828125
 40
0.4921875
 40
0.494140625
 40
0.49609375
 40
0.4970703125
 40
0.498046875
 40
0.4990234375
 40
0.4995117188
 40
0.4997558594
 40
0.5
 40
0.5002441406
 40
0.5004882812
 40
0.5009765625
 40
0.501953125
 40
0.5029296875
 40
0.50390625
 40
0.505859375
 40
0.5078125
 40
0.51171875
 40
0.515625
 40
0.51953125
 40
0.5234375
 40
0.53125
 40
0.5390625
 40
0.546875
 40
0.5625
 40
0.578125
 40
0.59375
 40
0.609375
 40
0.625
 40
0.65625
 40
0.6875
 40
0.71875
 40
0.75
 40
0.8125
 40
0.875
 40
0.9375
 40
1.0
 40
1.0
 40
1.0
 40
1.0
 10
-15.7570254348
 20
-12.788026738
 30
0.0
 10
-15.754670517
 20
-12.7491720412
 30
0.0
 10
-15.7499606813
 20
-12.6714626478
 30
0.0
 10
-15.7428959278
 20
-12.5548985576
 30
0.0
 10
-15.7358311743
 20
-12.4383344675
 30
0.0
 10
-15.7299438797
 20
-12.3411977257
 30
0.0
 10
-15.725234044
 20
-12.2634883322
 30
0.0
 10
-15.7217016672
 20
-12.2052062871
 30
0.0
 10
-15.7181692905
 20
-12.1469242421
 30
0.0
 10
-15.7152256432
 20
-12.0983558712
 30
0.0
 10
-15.7128707253
 20
-12.0595011744
 30
0.0
 10
-15.711104537
 20
-12.0303601519
 30
0.0
 10
-15.7093383486
 20
-12.0012191294
 30
0.0
 10
-15.7075721602
 20
-11.9720781068
 30
0.0
 10
-15.7061003365
 20
-11.9477939213
 30
0.0
 10
-15.7049228776
 20
-11.9283665731
 30
0.0
 10
-15.7040397834
 20
-11.9137960615
 30
0.0
 10
-15.7033038717
 20
-11.9016539698
 30
0.0
 10
-15.7027151421
 20
-11.8919402935
 30
0.0
 10
-15.7022735954
 20
-11.8846550441
 30
0.0
 10
-15.7018320466
 20
-11.8773697652
 30
0.0
 10
-15.7014640959
 20
-11.8712987912
 30
0.0
 10
-15.7011697206
 20
-11.8664418066
 30
0.0
 10
-15.7009857697
 20
-11.8634066586
 30
0.0
 10
-15.7008385318
 20
-11.86097747
 30
0.0
 10
-15.7007283145
 20
-11.8591585088
 30
0.0
 10
-15.7006357953
 20
-11.8576333862
 30
0.0
 10
-15.7005723496
 20
-11.8565840937
 30
0.0
 10
-15.7005340372
 20
-11.8559559345
 30
0.0
 10
-15.7005110997
 20
-11.855565279
 30
0.0
 10
-15.7004660039
 20
-11.8548670496
 30
0.0
 10
-15.7004136053
 20
-11.8540433623
 30
0.0
 10
-15.7003183065
 20
-11.8525519234
 30
0.0
 10
-15.7001840481
 20
-11.8504474297
 30
0.0
 10
-15.7000221321
 20
-11.8479108514
 30
0.0
 10
-15.6998065257
 20
-11.844532654
 30
0.0
 10
-15.6995369212
 20
-11.8403085695
 30
0.0
 10
-15.699105608
 20
-11.833550782
 30
0.0
 10
-15.698566448
 20
-11.825103291
 30
0.0
 10
-15.6979194638
 20
-11.8149664118
 30
0.0
 10
-15.6972724776
 20
-11.8048295032
 30
0.0
 10
-15.69640983
 20
-11.7913136353
 30
0.0
 10
-15.6953315203
 20
-11.7744187969
 30
0.0
 10
-15.6940375487
 20
-11.7541449923
 30
0.0
 10
-15.6923122532
 20
-11.7271132524
 30
0.0
 10
-15.6901556339
 20
-11.6933235776
 30
0.0
 10
-15.6875676907
 20
-11.6527759678
 30
0.0
 10
-15.6849797475
 20
-11.6122283581
 30
0.0
 10
-15.6823918043
 20
-11.5716807483
 30
0.0
 10
-15.6789412134
 20
-11.5176172686
 30
0.0
 10
-15.6746279748
 20
-11.450037919
 30
0.0
 10
-15.6694520884
 20
-11.3689426995
 30
0.0
 10
-15.664276202
 20
-11.2878474799
 30
0.0
 10
-15.6573750201
 20
-11.1797205206
 30
0.0
 10
-15.6487485428
 20
-11.0445618214
 30
0.0
 10
-15.6383967701
 20
-10.8823713823
 30
0.0
 10
-15.6280449973
 20
-10.7201809432
 30
0.0
 10
-15.6211438154
 20
-10.6120539839
 30
0.0
 10
-15.6176932245
 20
-10.5579905042
 30
0.0
 11
-15.7570254348
 21
-12.788026738
 31
0.0
 11
-15.7499606813
 21
-12.6714626478
 31
0.0
 11
-15.7428959278
 21
-12.5548985576
 31
0.0
 11
-15.7358311743
 21
-12.4383344675
 31
0.0
 11
-15.7287664208
 21
-12.3217703773
 31
0.0
 11
-15.725234044
 21
-12.2634883322
 31
0.0
 11
-15.7217016672
 21
-12.2052062871
 31
0.0
 11
-15.7181692905
 21
-12.1469242421
 31
0.0
 11
-15.7146369137
 21
-12.088642197
 31
0.0
 11
-15.7128707253
 21
-12.0595011744
 31
0.0
 11
-15.711104537
 21
-12.0303601519
 31
0.0
 11
-15.7093383486
 21
-12.0012191294
 31
0.0
 11
-15.7075721602
 21
-11.9720781068
 31
0.0
 11
-15.7058059718
 21
-11.9429370843
 31
0.0
 11
-15.7049228776
 21
-11.928366573
 31
0.0
 11
-15.7040397834
 21
-11.9137960617
 31
0.0
 11
-15.7031566892
 21
-11.8992255505
 31
0.0
 11
-15.7027151422
 21
-11.8919402948
 31
0.0
 11
-15.7022735951
 21
-11.8846550392
 31
0.0
 11
-15.701832048
 21
-11.8773697836
 31
0.0
 11
-15.7013905009
 21
-11.8700845279
 31
0.0
 11
-15.7011697273
 21
-11.8664419001
 31
0.0
 11
-15.7009489538
 21
-11.8627992723
 31
0.0
 11
-15.700838567
 21
-11.8609779584
 31
0.0
 11
-15.7007281802
 21
-11.8591566445
 31
0.0
 11
-15.7006177934
 21
-11.8573353306
 31
0.0
 11
-15.7005626001
 21
-11.8564246736
 31
0.0
 11
-15.7005350034
 21
-11.8559693451
 31
0.0
 11
-15.7005074067
 21
-11.8555140167
 31
0.0
 11
-15.7004669701
 21
-11.8548804603
 31
0.0
 11
-15.7004265335
 21
-11.8542469038
 31
0.0
 11
-15.7003456602
 21
-11.852979791
 31
0.0
 11
-15.7001839138
 21
-11.8504455654
 31
0.0
 11
-15.7000221673
 21
-11.8479113398
 31
0.0
 11
-15.6998604209
 21
-11.8453771142
 31
0.0
 11
-15.699536928
 21
-11.840308663
 31
0.0
 11
-15.6992134351
 21
-11.8352402118
 31
0.0
 11
-15.6985664493
 21
-11.8251033093
 31
0.0
 11
-15.6979194635
 21
-11.8149664069
 31
0.0
 11
-15.6972724777
 21
-11.8048295044
 31
0.0
 11
-15.6966254919
 21
-11.794692602
 31
0.0
 11
-15.6953315203
 21
-11.7744187971
 31
0.0
 11
-15.6940375487
 21
-11.7541449922
 31
0.0
 11
-15.6927435771
 21
-11.7338711874
 31
0.0
 11
-15.6901556339
 21
-11.6933235776
 31
0.0
 11
-15.6875676907
 21
-11.6527759678
 31
0.0
 11
-15.6849797475
 21
-11.6122283581
 31
0.0
 11
-15.6823918043
 21
-11.5716807483
 31
0.0
 11
-15.6798038611
 21
-11.5311331385
 31
0.0
 11
-15.6746279748
 21
-11.450037919
 31
0.0
 11
-15.6694520884
 21
-11.3689426995
 31
0.0
 11
-15.664276202
 21
-11.2878474799
 31
0.0
 11
-15.6591003156
 21
-11.2067522604
 31
0.0
 11
-15.6487485428
 21
-11.0445618214
 31
0.0
 11
-15.6383967701
 21
-10.8823713823
 31
0.0
 11
-15.6280449973
 21
-10.7201809432
 31
0.0
 11
-15.6176932245
 21
-10.5579905042
 31
0.0
  0
SPLINE
  5
517
100
AcDbEntity
  8
CURVE
100
AcDbSpline
 62
253
  6
CONTINUOUS
 70
0
 71
3
 72
67
 73
63
 74
61
 42
0.0000001
 43
0.0000001
 44
0.0000000001
 12
-0.374983824
 22
-2.8691474608
 32
0.0
 13
-0.482152516
 23
-3.853597996
 33
0.0
 40
0.0
 40
0.0
 40
0.0
 40
0.0
 40
0.0625
 40
0.125
 40
0.1875
 40
0.25
 40
0.28125
 40
0.3125
 40
0.328125
 40
0.34375
 40
0.375
 40
0.4375
 40
0.46875
 40
0.5
 40
0.53125
 40
0.546875
 40
0.5625
 40
0.578125
 40
0.59375
 40
0.609375
 40
0.625
 40
0.6328125
 40
0.640625
 40
0.64453125
 40
0.6484375
 40
0.65234375
 40
0.65625
 40
0.66015625
 40
0.662109375
 40
0.6630859375
 40
0.6640625
 40
0.6650390625
 40
0.666015625
 40
0.6662597656
 40
0.6665039062
 40
0.6666259766
 40
0.6667480469
 40
0.6669921875
 40
0.6674804688
 40
0.66796875
 40
0.6689453125
 40
0.669921875
 40
0.671875
 40
0.673828125
 40
0.67578125
 40
0.6796875
 40
0.68359375
 40
0.6875
 40
0.6953125
 40
0.703125
 40
0.7109375
 40
0.71875
 40
0.734375
 40
0.75
 40
0.765625
 40
0.78125
 40
0.8125
 40
0.84375
 40
0.875
 40
0.90625
 40
0.9375
 40
1.0
 40
1.0
 40
1.0
 40
1.0
 10
-11.561601404
 20
12.5552883411
 30
0.0
 10
-11.569413567
 20
12.4955144357
 30
0.0
 10
-11.5850379506
 20
12.375966608
 30
0.0
 10
-11.6084741805
 20
12.1966449675
 30
0.0
 10
-11.6319116197
 20
12.0173229733
 30
0.0
 10
-11.6514390759
 20
11.8678890728
 30
0.0
 10
-11.6670694196
 20
11.748339502
 30
0.0
 10
-11.676819309
 20
11.6736265989
 30
0.0
 10
-11.684662907
 20
11.6138435004
 30
0.0
 10
-11.6923470196
 20
11.5541070433
 30
0.0
 10
-11.7057199556
 20
11.4495899611
 30
0.0
 10
-11.7210353246
 20
11.3301325047
 30
0.0
 10
-11.7363395228
 20
11.2106783153
 30
0.0
 10
-11.7478191704
 20
11.1210872349
 30
0.0
 10
-11.7573852013
 20
11.0464281012
 30
0.0
 10
-11.7650380977
 20
10.9867007733
 30
0.0
 10
-11.7707777603
 20
10.9419052802
 30
0.0
 10
-11.7765174255
 20
10.8971097864
 30
0.0
 10
-11.7822570901
 20
10.8523142927
 30
0.0
 10
-11.7879967548
 20
10.8075187991
 30
0.0
 10
-11.7927798087
 20
10.7701892209
 30
0.0
 10
-11.7966062518
 20
10.7403255586
 30
0.0
 10
-11.7989977788
 20
10.7216607693
 30
0.0
 10
-11.8009110003
 20
10.7067289386
 30
0.0
 10
-11.8023459166
 20
10.6955300636
 30
0.0
 10
-11.8037808321
 20
10.6843311961
 30
0.0
 10
-11.8052157509
 20
10.6731323004
 30
0.0
 10
-11.8064115063
 20
10.6637999754
 30
0.0
 10
-11.8072485551
 20
10.6572671751
 30
0.0
 10
-11.8077268374
 20
10.6535344162
 30
0.0
 10
-11.8080856375
 20
10.650734087
 30
0.0
 10
-11.8084440996
 20
10.6479366628
 30
0.0
 10
-11.8087138939
 20
10.6458304497
 30
0.0
 10
-11.8088922829
 20
10.6444389747
 30
0.0
 10
-11.8089688049
 20
10.6438403442
 30
0.0
 10
-11.8090249059
 20
10.6434054113
 30
0.0
 10
-11.8090997189
 20
10.6428096719
 30
0.0
 10
-11.8092393355
 20
10.6416924136
 30
0.0
 10
-11.8094342518
 20
10.6401353126
 30
0.0
 10
-11.8097486528
 20
10.6376221658
 30
0.0
 10
-11.8101407861
 20
10.6344881916
 30
0.0
 10
-11.8107686845
 20
10.6294696639
 30
0.0
 10
-11.8115533911
 20
10.6231979347
 30
0.0
 10
-11.8124951102
 20
10.6156712473
 30
0.0
 10
-11.8137507108
 20
10.605635878
 30
0.0
 10
-11.8153202201
 20
10.5930915931
 30
0.0
 10
-11.8172036276
 20
10.5780384825
 30
0.0
 10
-11.8197148389
 20
10.5579676574
 30
0.0
 10
-11.8228538525
 20
10.5328791299
 30
0.0
 10
-11.8266206691
 20
10.5027728952
 30
0.0
 10
-11.8303874856
 20
10.4726666609
 30
0.0
 10
-11.8354099077
 20
10.4325250151
 30
0.0
 10
-11.8416879352
 20
10.3823479579
 30
0.0
 10
-11.8492215683
 20
10.3221354892
 30
0.0
 10
-11.8567552014
 20
10.2619230205
 30
0.0
 10
-11.8668000454
 20
10.1816397289
 30
0.0
 10
-11.8793561005
 20
10.0812856145
 30
0.0
 10
-11.8944233667
 20
9.9608606771
 30
0.0
 10
-11.9094906328
 20
9.8404357397
 30
0.0
 10
-11.9245578989
 20
9.7200108023
 30
0.0
 10
-11.9446475871
 20
9.5594442192
 30
0.0
 10
-11.9597148532
 20
9.4390192818
 30
0.0
 10
-11.9697596973
 20
9.3587359902
 30
0.0
 11
-11.561601404
 21
12.5552883411
 31
0.0
 11
-11.585037893
 21
12.3759666248
 31
0.0
 11
-11.608474382
 21
12.1966449085
 31
0.0
 11
-11.631910871
 21
12.0173231922
 31
0.0
 11
-11.65534736
 21
11.8380014759
 31
0.0
 11
-11.6670656045
 21
11.7483406178
 31
0.0
 11
-11.678783849
 21
11.6586797596
 31
0.0
 11
-11.6846429713
 21
11.6138493305
 31
0.0
 11
-11.6904224552
 21
11.5690421917
 31
0.0
 11
-11.7019017845
 21
11.4794512044
 31
0.0
 11
-11.7248604433
 21
11.3002692296
 31
0.0
 11
-11.7363397726
 21
11.2106782422
 31
0.0
 11
-11.747819102
 21
11.1210872549
 31
0.0
 11
-11.7592984314
 21
11.0314962675
 31
0.0
 11
-11.7650380961
 21
10.9867007738
 31
0.0
 11
-11.7707777607
 21
10.9419052801
 31
0.0
 11
-11.7765174254
 21
10.8971097864
 31
0.0
 11
-11.7822570901
 21
10.8523142927
 31
0.0
 11
-11.7879967548
 21
10.8075187991
 31
0.0
 11
-11.7937364195
 21
10.7627233054
 31
0.0
 11
-11.7966062518
 21
10.7403255585
 31
0.0
 11
-11.7994760842
 21
10.7179278117
 31
0.0
 11
-11.8009110003
 21
10.7067289383
 31
0.0
 11
-11.8023459165
 21
10.6955300648
 31
0.0
 11
-11.8037808327
 21
10.6843311914
 31
0.0
 11
-11.8052157488
 21
10.673132318
 31
0.0
 11
-11.806650665
 21
10.6619334446
 31
0.0
 11
-11.8073681231
 21
10.6563340079
 31
0.0
 11
-11.8077268521
 21
10.6535342895
 31
0.0
 11
-11.8080855812
 21
10.6507345712
 31
0.0
 11
-11.8084443102
 21
10.6479348528
 31
0.0
 11
-11.8088030393
 21
10.6451351344
 31
0.0
 11
-11.8088927215
 21
10.6444352049
 31
0.0
 11
-11.8089824038
 21
10.6437352753
 31
0.0
 11
-11.8090272449
 21
10.6433853105
 31
0.0
 11
-11.8090814296
 21
10.6429550489
 31
0.0
 11
-11.8091991426
 21
10.6420142291
 31
0.0
 11
-11.8094345687
 21
10.6401325895
 31
0.0
 11
-11.8096699947
 21
10.6382509498
 31
0.0
 11
-11.8101408468
 21
10.6344876705
 31
0.0
 11
-11.8106116988
 21
10.6307243912
 31
0.0
 11
-11.811553403
 21
10.6231978326
 31
0.0
 11
-11.8124951071
 21
10.6156712741
 31
0.0
 11
-11.8134368112
 21
10.6081447155
 31
0.0
 11
-11.8153202195
 21
10.5930915983
 31
0.0
 11
-11.8172036278
 21
10.5780384811
 31
0.0
 11
-11.819087036
 21
10.562985364
 31
0.0
 11
-11.8228538526
 21
10.5328791296
 31
0.0
 11
-11.8266206691
 21
10.5027728953
 31
0.0
 11
-11.8303874856
 21
10.4726666609
 31
0.0
 11
-11.8341543022
 21
10.4425604266
 31
0.0
 11
-11.8416879352
 21
10.3823479579
 31
0.0
 11
-11.8492215683
 21
10.3221354892
 31
0.0
 11
-11.8567552014
 21
10.2619230205
 31
0.0
 11
-11.8642888344
 21
10.2017105518
 31
0.0
 11
-11.8793561005
 21
10.0812856145
 31
0.0
 11
-11.8944233667
 21
9.9608606771
 31
0.0
 11
-11.9094906328
 21
9.8404357397
 31
0.0
 11
-11.9245578989
 21
9.7200108023
 31
0.0
 11
-11.9396251651
 21
9.599585865
 31
0.0
 11
-11.9697596973
 21
9.3587359902
 31
0.0
  0
SPLINE
  5
518
100
AcDbEntity
  8
CURVE
100
AcDbSpline
 62
253
  6
CONTINUOUS
 70
0
 71
3
 72
67
 73
63
 74
61
 42
0.0000001
 43
0.0000001
 44
0.0000000001
 12
-0.1839884362
 22
-2.8033440973
 32
0.0
 13
-0.2249444727
 23
-3.7625571472
 33
0.0
 40
0.0
 40
0.0
 40
0.0
 40
0.0
 40
0.0625
 40
0.125
 40
0.1875
 40
0.25
 40
0.28125
 40
0.3125
 40
0.328125
 40
0.34375
 40
0.375
 40
0.4375
 40
0.46875
 40
0.5
 40
0.53125
 40
0.546875
 40
0.5625
 40
0.578125
 40
0.59375
 40
0.609375
 40
0.625
 40
0.6328125
 40
0.640625
 40
0.64453125
 40
0.6484375
 40
0.65234375
 40
0.65625
 40
0.66015625
 40
0.662109375
 40
0.6630859375
 40
0.6640625
 40
0.6650390625
 40
0.666015625
 40
0.6662597656
 40
0.6665039062
 40
0.6666259766
 40
0.6667480469
 40
0.6669921875
 40
0.6674804688
 40
0.66796875
 40
0.6689453125
 40
0.669921875
 40
0.671875
 40
0.673828125
 40
0.67578125
 40
0.6796875
 40
0.68359375
 40
0.6875
 40
0.6953125
 40
0.703125
 40
0.7109375
 40
0.71875
 40
0.734375
 40
0.75
 40
0.765625
 40
0.78125
 40
0.8125
 40
0.84375
 40
0.875
 40
0.90625
 40
0.9375
 40
1.0
 40
1.0
 40
1.0
 40
1.0
 10
-14.8809609328
 20
-10.4649217633
 30
0.0
 10
-14.8847940252
 20
-10.5233247653
 30
0.0
 10
-14.8924602682
 20
-10.6401307927
 30
0.0
 10
-14.9039592835
 20
-10.8153396939
 30
0.0
 10
-14.9154595213
 20
-10.9905490845
 30
0.0
 10
-14.9250392689
 20
-11.1365553951
 30
0.0
 10
-14.9327115372
 20
-11.2533638348
 30
0.0
 10
-14.9374874211
 20
-11.3263613891
 30
0.0
 10
-14.9413522917
 20
-11.3847771139
 30
0.0
 10
-14.9450559357
 20
-11.4431282894
 30
0.0
 10
-14.951462241
 20
-11.5452127906
 30
0.0
 10
-14.9588160958
 20
-11.6618937489
 30
0.0
 10
-14.9661586577
 20
-11.778570186
 30
0.0
 10
-14.9716670946
 20
-11.8660781205
 30
0.0
 10
-14.9762571127
 20
-11.9390012607
 30
0.0
 10
-14.9799291997
 20
-11.9973398019
 30
0.0
 10
-14.9826832552
 20
-12.041093704
 30
0.0
 10
-14.9854373133
 20
-12.084847607
 30
0.0
 10
-14.9881913707
 20
-12.1286015098
 30
0.0
 10
-14.9909454283
 20
-12.1723554127
 30
0.0
 10
-14.9932404763
 20
-12.2088169984
 30
0.0
 10
-14.9950765146
 20
-12.2379862669
 30
0.0
 10
-14.9962240386
 20
-12.25621706
 30
0.0
 10
-14.9971420578
 20
-12.2708016938
 30
0.0
 10
-14.9978305722
 20
-12.281740171
 30
0.0
 10
-14.9985190863
 20
-12.2926786409
 30
0.0
 10
-14.9992076018
 20
-12.3036171384
 30
0.0
 10
-14.9997813604
 20
-12.312732467
 30
0.0
 10
-15.0001829999
 20
-12.3191133655
 30
0.0
 10
-15.0004124949
 20
-12.3227593302
 30
0.0
 10
-15.0005846536
 20
-12.3254945448
 30
0.0
 10
-15.000756669
 20
-12.3282269263
 30
0.0
 10
-15.0008860825
 20
-12.3302841561
 30
0.0
 10
-15.0009717331
 20
-12.3316432885
 30
0.0
 10
-15.0010083509
 20
-12.3322279772
 30
0.0
 10
-15.0010354755
 20
-12.3326528432
 30
0.0
 10
-15.0010705346
 20
-12.3332345423
 30
0.0
 10
-15.0011355745
 20
-12.3343253842
 30
0.0
 10
-15.0012265652
 20
-12.3358457108
 30
0.0
 10
-15.0013732253
 20
-12.33829948
 30
0.0
 10
-15.0015561824
 20
-12.3413594167
 30
0.0
 10
-15.0018491194
 20
-12.3462593813
 30
0.0
 10
-15.0022152201
 20
-12.3523829421
 30
0.0
 10
-15.0026545711
 20
-12.3597318121
 30
0.0
 10
-15.0032403619
 20
-12.3695300969
 30
0.0
 10
-15.0039726041
 20
-12.3817780244
 30
0.0
 10
-15.0048512931
 20
-12.3964755068
 30
0.0
 10
-15.006022879
 20
-12.4160721607
 30
0.0
 10
-15.0074873612
 20
-12.4405679745
 30
0.0
 10
-15.0092447399
 20
-12.4699629525
 30
0.0
 10
-15.0110021186
 20
-12.4993579301
 30
0.0
 10
-15.0133452902
 20
-12.5385512338
 30
0.0
 10
-15.0162742547
 20
-12.5875428633
 30
0.0
 10
-15.0197890121
 20
-12.6463328187
 30
0.0
 10
-15.0233037694
 20
-12.7051227741
 30
0.0
 10
-15.0279901126
 20
-12.7835093814
 30
0.0
 10
-15.0338480416
 20
-12.8814926404
 30
0.0
 10
-15.0408775564
 20
-12.9990725513
 30
0.0
 10
-15.0479070711
 20
-13.1166524621
 30
0.0
 10
-15.0549365859
 20
-13.234232373
 30
0.0
 10
-15.0643092723
 20
-13.3910055874
 30
0.0
 10
-15.0713387871
 20
-13.5085854983
 30
0.0
 10
-15.0760251302
 20
-13.5869721055
 30
0.0
 11
-14.8809609328
 21
-10.4649217633
 31
0.0
 11
-14.89246021
 21
-10.6401307694
 31
0.0
 11
-14.9039594873
 21
-10.8153397755
 31
0.0
 11
-14.9154587645
 21
-10.9905487816
 31
0.0
 11
-14.9269580418
 21
-11.1657577876
 31
0.0
 11
-14.9327076804
 21
-11.2533622907
 31
0.0
 11
-14.9384573191
 21
-11.3409667937
 31
0.0
 11
-14.9413321384
 21
-11.3847690452
 31
0.0
 11
-14.9441264499
 21
-11.4285390643
 31
0.0
 11
-14.949634565
 21
-11.51604687
 31
0.0
 11
-14.9606507952
 21
-11.6910624814
 31
0.0
 11
-14.9661589103
 21
-11.7785702871
 31
0.0
 11
-14.9716670254
 21
-11.8660780928
 31
0.0
 11
-14.9771751405
 21
-11.9535858985
 31
0.0
 11
-14.9799291981
 21
-11.9973398013
 31
0.0
 11
-14.9826832556
 21
-12.0410937041
 31
0.0
 11
-14.9854373132
 21
-12.084847607
 31
0.0
 11
-14.9881913707
 21
-12.1286015098
 31
0.0
 11
-14.9909454283
 21
-12.1723554127
 31
0.0
 11
-14.9936994858
 21
-12.2161093155
 31
0.0
 11
-14.9950765146
 21
-12.2379862669
 31
0.0
 11
-14.9964535434
 21
-12.2598632184
 31
0.0
 11
-14.9971420578
 21
-12.2708016941
 31
0.0
 11
-14.9978305722
 21
-12.2817401698
 31
0.0
 11
-14.9985190866
 21
-12.2926786455
 31
0.0
 11
-14.999207601
 21
-12.3036171212
 31
0.0
 11
-14.9998961153
 21
-12.3145555969
 31
0.0
 11
-15.0002403725
 21
-12.3200248348
 31
0.0
 11
-15.0004125011
 21
-12.3227594537
 31
0.0
 11
-15.0005846297
 21
-12.3254940726
 31
0.0
 11
-15.0007567583
 21
-12.3282286916
 31
0.0
 11
-15.0009288869
 21
-12.3309633105
 31
0.0
 11
-15.0009719191
 21
-12.3316469652
 31
0.0
 11
-15.0010149512
 21
-12.33233062
 31
0.0
 11
-15.0010364673
 21
-12.3326724473
 31
0.0
 11
-15.0010619454
 21
-12.3330925875
 31
0.0
 11
-15.0011168634
 21
-12.3340111805
 31
0.0
 11
-15.0012266996
 21
-12.3358483666
 31
0.0
 11
-15.0013365358
 21
-12.3376855527
 31
0.0
 11
-15.0015562081
 21
-12.3413599249
 31
0.0
 11
-15.0017758805
 21
-12.3450342972
 31
0.0
 11
-15.0022152251
 21
-12.3523830416
 31
0.0
 11
-15.0026545698
 21
-12.359731786
 31
0.0
 11
-15.0030939145
 21
-12.3670805304
 31
0.0
 11
-15.0039726038
 21
-12.3817780193
 31
0.0
 11
-15.0048512932
 21
-12.3964755082
 31
0.0
 11
-15.0057299825
 21
-12.411172997
 31
0.0
 11
-15.0074873612
 21
-12.4405679747
 31
0.0
 11
-15.0092447399
 21
-12.4699629524
 31
0.0
 11
-15.0110021186
 21
-12.4993579301
 31
0.0
 11
-15.0127594973
 21
-12.5287529079
 31
0.0
 11
-15.0162742547
 21
-12.5875428633
 31
0.0
 11
-15.0197890121
 21
-12.6463328187
 31
0.0
 11
-15.0233037694
 21
-12.7051227741
 31
0.0
 11
-15.0268185268
 21
-12.7639127296
 31
0.0
 11
-15.0338480416
 21
-12.8814926404
 31
0.0
 11
-15.0408775564
 21
-12.9990725513
 31
0.0
 11
-15.0479070711
 21
-13.1166524621
 31
0.0
 11
-15.0549365859
 21
-13.234232373
 31
0.0
 11
-15.0619661007
 21
-13.3518122838
 31
0.0
 11
-15.0760251302
 21
-13.5869721055
 31
0.0
  0
SPLINE
  5
519
100
AcDbEntity
  8
CURVE
100
AcDbSpline
 62
253
  6
CONTINUOUS
 70
0
 71
3
 72
63
 73
59
 74
57
 42
0.0000001
 43
0.0000001
 44
0.0000000001
 12
-0.120197192
 22
-1.8679132286
 32
0.0
 13
-0.1584672272
 23
-2.5921592384
 33
0.0
 40
0.0
 40
0.0
 40
0.0
 40
0.0
 40
0.0625
 40
0.125
 40
0.1875
 40
0.25
 40
0.28125
 40
0.3125
 40
0.34375
 40
0.375
 40
0.390625
 40
0.40625
 40
0.421875
 40
0.4375
 40
0.453125
 40
0.4609375
 40
0.46875
 40
0.4765625
 40
0.48046875
 40
0.484375
 40
0.48828125
 40
0.4921875
 40
0.494140625
 40
0.49609375
 40
0.4970703125
 40
0.498046875
 40
0.4990234375
 40
0.4995117188
 40
0.4997558594
 40
0.5
 40
0.5002441406
 40
0.5004882812
 40
0.5009765625
 40
0.501953125
 40
0.5029296875
 40
0.50390625
 40
0.505859375
 40
0.5078125
 40
0.51171875
 40
0.515625
 40
0.51953125
 40
0.5234375
 40
0.53125
 40
0.5390625
 40
0.546875
 40
0.5625
 40
0.578125
 40
0.59375
 40
0.609375
 40
0.625
 40
0.65625
 40
0.6875
 40
0.71875
 40
0.75
 40
0.8125
 40
0.875
 40
0.9375
 40
1.0
 40
1.0
 40
1.0
 40
1.0
 10
-16.8551300989
 20
-9.9392721813
 30
0.0
 10
-16.857634207
 20
-9.9781870402
 30
0.0
 10
-16.8626424234
 20
-10.0560167581
 30
0.0
 10
-16.8701547479
 20
-10.1727613349
 30
0.0
 10
-16.8776670724
 20
-10.2895059117
 30
0.0
 10
-16.8839273428
 20
-10.386793059
 30
0.0
 10
-16.8889355591
 20
-10.4646227768
 30
0.0
 10
-16.8926917214
 20
-10.5229950652
 30
0.0
 10
-16.8964478836
 20
-10.5813673536
 30
0.0
 10
-16.8995780188
 20
-10.6300109273
 30
0.0
 10
-16.902082127
 20
-10.6689257862
 30
0.0
 10
-16.9039602081
 20
-10.6981119304
 30
0.0
 10
-16.9058382892
 20
-10.7272980746
 30
0.0
 10
-16.9077163704
 20
-10.7564842188
 30
0.0
 10
-16.909281438
 20
-10.7808060057
 30
0.0
 10
-16.9105334921
 20
-10.800263435
 30
0.0
 10
-16.9114725326
 20
-10.8148565074
 30
0.0
 10
-16.9122550664
 20
-10.8270173999
 30
0.0
 10
-16.9128810935
 20
-10.8367461166
 30
0.0
 10
-16.9133506135
 20
-10.8440426465
 30
0.0
 10
-16.913820135
 20
-10.8513392056
 30
0.0
 10
-16.9142113981
 20
-10.8574195806
 30
0.0
 10
-16.9145244194
 20
-10.8622840842
 30
0.0
 10
-16.9147200331
 20
-10.8653239354
 30
0.0
 10
-16.9148765803
 20
-10.8677568781
 30
0.0
 10
-16.914993837
 20
-10.869578678
 30
0.0
 10
-16.9150920396
 20
-10.8711060924
 30
0.0
 10
-16.9151598224
 20
-10.872157134
 30
0.0
 10
-16.9152000529
 20
-10.8727860666
 30
0.0
 10
-16.9152260075
 20
-10.8731779388
 30
0.0
 10
-16.9152680862
 20
-10.8738749515
 30
0.0
 10
-16.9153185668
 20
-10.8746978653
 30
0.0
 10
-16.9154095284
 20
-10.8761875552
 30
0.0
 10
-16.9155381034
 20
-10.878289757
 30
0.0
 10
-16.9156929799
 20
-10.8808234966
 30
0.0
 10
-16.9158992771
 20
-10.88419794
 30
0.0
 10
-16.9161572187
 20
-10.8884173214
 30
0.0
 10
-16.916569886
 20
-10.8951675898
 30
0.0
 10
-16.9170857337
 20
-10.9036056799
 30
0.0
 10
-16.917704745
 20
-10.9137312788
 30
0.0
 10
-16.918323758
 20
-10.923856907
 30
0.0
 10
-16.919149108
 20
-10.9373577343
 30
0.0
 10
-16.9201807957
 20
-10.954233772
 30
0.0
 10
-16.9214188209
 20
-10.9744850158
 30
0.0
 10
-16.9230695212
 20
-11.0014866746
 30
0.0
 10
-16.9251328966
 20
-11.035238748
 30
0.0
 10
-16.927608947
 20
-11.0757412361
 30
0.0
 10
-16.9300849974
 20
-11.1162437242
 30
0.0
 10
-16.9325610478
 20
-11.1567462123
 30
0.0
 10
-16.9358624484
 20
-11.2107495298
 30
0.0
 10
-16.9399891991
 20
-11.2782536766
 30
0.0
 10
-16.9449413
 20
-11.3592586528
 30
0.0
 10
-16.9498934008
 20
-11.440263629
 30
0.0
 10
-16.9564962019
 20
-11.5482702639
 30
0.0
 10
-16.9647497034
 20
-11.6832785576
 30
0.0
 10
-16.9746539051
 20
-11.84528851
 30
0.0
 10
-16.9845581068
 20
-12.0072984624
 30
0.0
 10
-16.9911609079
 20
-12.1153050973
 30
0.0
 10
-16.9944623084
 20
-12.1693084148
 30
0.0
 11
-16.8551300989
 21
-9.9392721813
 31
0.0
 11
-16.8626424234
 21
-10.0560167581
 31
0.0
 11
-16.8701547479
 21
-10.1727613349
 31
0.0
 11
-16.8776670724
 21
-10.2895059117
 31
0.0
 11
-16.8851793969
 21
-10.4062504884
 31
0.0
 11
-16.8889355591
 21
-10.4646227768
 31
0.0
 11
-16.8926917214
 21
-10.5229950652
 31
0.0
 11
-16.8964478836
 21
-10.5813673536
 31
0.0
 11
-16.9002040459
 21
-10.639739642
 31
0.0
 11
-16.902082127
 21
-10.6689257862
 31
0.0
 11
-16.9039602081
 21
-10.6981119304
 31
0.0
 11
-16.9058382892
 21
-10.7272980746
 31
0.0
 11
-16.9077163704
 21
-10.7564842188
 31
0.0
 11
-16.9095944515
 21
-10.785670363
 31
0.0
 11
-16.9105334921
 21
-10.8002634351
 31
0.0
 11
-16.9114725326
 21
-10.8148565072
 31
0.0
 11
-16.9124115732
 21
-10.8294495793
 31
0.0
 11
-16.9128810935
 21
-10.8367461153
 31
0.0
 11
-16.9133506137
 21
-10.8440426514
 31
0.0
 11
-16.913820134
 21
-10.8513391874
 31
0.0
 11
-16.9142896543
 21
-10.8586357235
 31
0.0
 11
-16.9145244145
 21
-10.8622839915
 31
0.0
 11
-16.9147591746
 21
-10.8659322595
 31
0.0
 11
-16.9148765547
 21
-10.8677563936
 31
0.0
 11
-16.9149939347
 21
-10.8695805276
 31
0.0
 11
-16.9151113148
 21
-10.8714046616
 31
0.0
 11
-16.9151700048
 21
-10.8723167286
 31
0.0
 11
-16.9151993499
 21
-10.8727727621
 31
0.0
 11
-16.9152286949
 21
-10.8732287956
 31
0.0
 11
-16.9152673832
 21
-10.873861647
 31
0.0
 11
-16.9153060714
 21
-10.8744944983
 31
0.0
 11
-16.915383448
 21
-10.8757602011
 31
0.0
 11
-16.9155382012
 21
-10.8782916066
 31
0.0
 11
-16.9156929543
 21
-10.8808230121
 31
0.0
 11
-16.9158477075
 21
-10.8833544176
 31
0.0
 11
-16.9161572138
 21
-10.8884172286
 31
0.0
 11
-16.9164667201
 21
-10.8934800396
 31
0.0
 11
-16.9170857327
 21
-10.9036056617
 31
0.0
 11
-16.9177047453
 21
-10.9137312837
 31
0.0
 11
-16.9183237579
 21
-10.9238569057
 31
0.0
 11
-16.9189427705
 21
-10.9339825277
 31
0.0
 11
-16.9201807957
 21
-10.9542337718
 31
0.0
 11
-16.9214188209
 21
-10.9744850158
 31
0.0
 11
-16.9226568461
 21
-10.9947362599
 31
0.0
 11
-16.9251328966
 21
-11.035238748
 31
0.0
 11
-16.927608947
 21
-11.0757412361
 31
0.0
 11
-16.9300849974
 21
-11.1162437242
 31
0.0
 11
-16.9325610478
 21
-11.1567462123
 31
0.0
 11
-16.9350370983
 21
-11.1972487004
 31
0.0
 11
-16.9399891991
 21
-11.2782536766
 31
0.0
 11
-16.9449413
 21
-11.3592586528
 31
0.0
 11
-16.9498934008
 21
-11.440263629
 31
0.0
 11
-16.9548455017
 21
-11.5212686052
 31
0.0
 11
-16.9647497034
 21
-11.6832785576
 31
0.0
 11
-16.9746539051
 21
-11.84528851
 31
0.0
 11
-16.9845581068
 21
-12.0072984624
 31
0.0
 11
-16.9944623084
 21
-12.1693084148
 31
0.0
  0
SPLINE
  5
51A
100
AcDbEntity
  8
CURVE
100
AcDbSpline
 62
253
  6
CONTINUOUS
 70
0
 71
3
 72
67
 73
63
 74
61
 42
0.0000001
 43
0.0000001
 44
0.0000000001
 12
-0.374983824
 22
-2.8691474608
 32
0.0
 13
-0.482152516
 23
-3.853597996
 33
0.0
 40
0.0
 40
0.0
 40
0.0
 40
0.0
 40
0.0625
 40
0.125
 40
0.1875
 40
0.25
 40
0.28125
 40
0.3125
 40
0.328125
 40
0.34375
 40
0.375
 40
0.4375
 40
0.46875
 40
0.5
 40
0.53125
 40
0.546875
 40
0.5625
 40
0.578125
 40
0.59375
 40
0.609375
 40
0.625
 40
0.6328125
 40
0.640625
 40
0.64453125
 40
0.6484375
 40
0.65234375
 40
0.65625
 40
0.66015625
 40
0.662109375
 40
0.6630859375
 40
0.6640625
 40
0.6650390625
 40
0.666015625
 40
0.6662597656
 40
0.6665039062
 40
0.6666259766
 40
0.6667480469
 40
0.6669921875
 40
0.6674804688
 40
0.66796875
 40
0.6689453125
 40
0.669921875
 40
0.671875
 40
0.673828125
 40
0.67578125
 40
0.6796875
 40
0.68359375
 40
0.6875
 40
0.6953125
 40
0.703125
 40
0.7109375
 40
0.71875
 40
0.734375
 40
0.75
 40
0.765625
 40
0.78125
 40
0.8125
 40
0.84375
 40
0.875
 40
0.90625
 40
0.9375
 40
1.0
 40
1.0
 40
1.0
 40
1.0
 10
-13.3293683992
 20
13.4391718387
 30
0.0
 10
-13.3371805622
 20
13.3793979332
 30
0.0
 10
-13.3528049457
 20
13.2598501055
 30
0.0
 10
-13.3762411756
 20
13.080528465
 30
0.0
 10
-13.3996786148
 20
12.9012064708
 30
0.0
 10
-13.419206071
 20
12.7517725704
 30
0.0
 10
-13.4348364148
 20
12.6322229996
 30
0.0
 10
-13.4445863041
 20
12.5575100965
 30
0.0
 10
-13.4524299021
 20
12.4977269979
 30
0.0
 10
-13.4601140147
 20
12.4379905408
 30
0.0
 10
-13.4734869507
 20
12.3334734586
 30
0.0
 10
-13.4888023197
 20
12.2140160023
 30
0.0
 10
-13.5041065179
 20
12.0945618129
 30
0.0
 10
-13.5155861655
 20
12.0049707324
 30
0.0
 10
-13.5251521964
 20
11.9303115988
 30
0.0
 10
-13.5328050928
 20
11.8705842709
 30
0.0
 10
-13.5385447554
 20
11.8257887778
 30
0.0
 10
-13.5442844206
 20
11.780993284
 30
0.0
 10
-13.5500240852
 20
11.7361977903
 30
0.0
 10
-13.5557637499
 20
11.6914022966
 30
0.0
 10
-13.5605468038
 20
11.6540727185
 30
0.0
 10
-13.5643732469
 20
11.6242090561
 30
0.0
 10
-13.5667647739
 20
11.6055442669
 30
0.0
 10
-13.5686779954
 20
11.5906124361
 30
0.0
 10
-13.5701129118
 20
11.5794135611
 30
0.0
 10
-13.5715478272
 20
11.5682146937
 30
0.0
 10
-13.572982746
 20
11.5570157979
 30
0.0
 10
-13.5741785014
 20
11.547683473
 30
0.0
 10
-13.5750155503
 20
11.5411506727
 30
0.0
 10
-13.5754938325
 20
11.5374179137
 30
0.0
 10
-13.5758526326
 20
11.5346175845
 30
0.0
 10
-13.5762110947
 20
11.5318201603
 30
0.0
 10
-13.5764808891
 20
11.5297139473
 30
0.0
 10
-13.576659278
 20
11.5283224723
 30
0.0
 10
-13.5767358
 20
11.5277238418
 30
0.0
 10
-13.576791901
 20
11.5272889088
 30
0.0
 10
-13.576866714
 20
11.5266931695
 30
0.0
 10
-13.5770063306
 20
11.5255759112
 30
0.0
 10
-13.5772012469
 20
11.5240188101
 30
0.0
 10
-13.577515648
 20
11.5215056634
 30
0.0
 10
-13.5779077813
 20
11.5183716892
 30
0.0
 10
-13.5785356797
 20
11.5133531615
 30
0.0
 10
-13.5793203862
 20
11.5070814322
 30
0.0
 10
-13.5802621053
 20
11.4995547449
 30
0.0
 10
-13.5815177059
 20
11.4895193756
 30
0.0
 10
-13.5830872152
 20
11.4769750906
 30
0.0
 10
-13.5849706227
 20
11.4619219801
 30
0.0
 10
-13.587481834
 20
11.441851155
 30
0.0
 10
-13.5906208477
 20
11.4167626274
 30
0.0
 10
-13.5943876642
 20
11.3866563928
 30
0.0
 10
-13.5981544807
 20
11.3565501585
 30
0.0
 10
-13.6031769028
 20
11.3164085127
 30
0.0
 10
-13.6094549303
 20
11.2662314555
 30
0.0
 10
-13.6169885634
 20
11.2060189868
 30
0.0
 10
-13.6245221965
 20
11.1458065181
 30
0.0
 10
-13.6345670406
 20
11.0655232265
 30
0.0
 10
-13.6471230957
 20
10.965169112
 30
0.0
 10
-13.6621903618
 20
10.8447441746
 30
0.0
 10
-13.6772576279
 20
10.7243192373
 30
0.0
 10
-13.692324894
 20
10.6038942999
 30
0.0
 10
-13.7124145822
 20
10.4433277167
 30
0.0
 10
-13.7274818483
 20
10.3229027794
 30
0.0
 10
-13.7375266924
 20
10.2426194878
 30
0.0
 11
-13.3293683992
 21
13.4391718387
 31
0.0
 11
-13.3528048882
 21
13.2598501224
 31
0.0
 11
-13.3762413772
 21
13.0805284061
 31
0.0
 11
-13.3996778662
 21
12.9012066898
 31
0.0
 11
-13.4231143552
 21
12.7218849735
 31
0.0
 11
-13.4348325997
 21
12.6322241153
 31
0.0
 11
-13.4465508442
 21
12.5425632572
 31
0.0
 11
-13.4524099664
 21
12.4977328281
 31
0.0
 11
-13.4581894503
 21
12.4529256893
 31
0.0
 11
-13.4696687797
 21
12.3633347019
 31
0.0
 11
-13.4926274384
 21
12.1841527272
 31
0.0
 11
-13.5041067678
 21
12.0945617398
 31
0.0
 11
-13.5155860971
 21
12.0049707524
 31
0.0
 11
-13.5270654265
 21
11.915379765
 31
0.0
 11
-13.5328050912
 21
11.8705842714
 31
0.0
 11
-13.5385447559
 21
11.8257887777
 31
0.0
 11
-13.5442844205
 21
11.780993284
 31
0.0
 11
-13.5500240852
 21
11.7361977903
 31
0.0
 11
-13.5557637499
 21
11.6914022966
 31
0.0
 11
-13.5615034146
 21
11.6466068029
 31
0.0
 11
-13.5643732469
 21
11.6242090561
 31
0.0
 11
-13.5672430793
 21
11.6018113092
 31
0.0
 11
-13.5686779954
 21
11.5906124358
 31
0.0
 11
-13.5701129116
 21
11.5794135624
 31
0.0
 11
-13.5715478278
 21
11.568214689
 31
0.0
 11
-13.572982744
 21
11.5570158156
 31
0.0
 11
-13.5744176601
 21
11.5458169421
 31
0.0
 11
-13.5751351182
 21
11.5402175054
 31
0.0
 11
-13.5754938473
 21
11.5374177871
 31
0.0
 11
-13.5758525763
 21
11.5346180687
 31
0.0
 11
-13.5762113053
 21
11.5318183504
 31
0.0
 11
-13.5765700344
 21
11.529018632
 31
0.0
 11
-13.5766597166
 21
11.5283187024
 31
0.0
 11
-13.5767493989
 21
11.5276187728
 31
0.0
 11
-13.57679424
 21
11.527268808
 31
0.0
 11
-13.5768484247
 21
11.5268385465
 31
0.0
 11
-13.5769661378
 21
11.5258977267
 31
0.0
 11
-13.5772015638
 21
11.524016087
 31
0.0
 11
-13.5774369898
 21
11.5221344474
 31
0.0
 11
-13.5779078419
 21
11.5183711681
 31
0.0
 11
-13.578378694
 21
11.5146078888
 31
0.0
 11
-13.5793203981
 21
11.5070813302
 31
0.0
 11
-13.5802621022
 21
11.4995547716
 31
0.0
 11
-13.5812038064
 21
11.492028213
 31
0.0
 11
-13.5830872146
 21
11.4769750959
 31
0.0
 11
-13.5849706229
 21
11.4619219787
 31
0.0
 11
-13.5868540312
 21
11.4468688615
 31
0.0
 11
-13.5906208477
 21
11.4167626272
 31
0.0
 11
-13.5943876642
 21
11.3866563928
 31
0.0
 11
-13.5981544808
 21
11.3565501585
 31
0.0
 11
-13.6019212973
 21
11.3264439241
 31
0.0
 11
-13.6094549303
 21
11.2662314554
 31
0.0
 11
-13.6169885634
 21
11.2060189868
 31
0.0
 11
-13.6245221965
 21
11.1458065181
 31
0.0
 11
-13.6320558295
 21
11.0855940494
 31
0.0
 11
-13.6471230957
 21
10.965169112
 31
0.0
 11
-13.6621903618
 21
10.8447441746
 31
0.0
 11
-13.6772576279
 21
10.7243192373
 31
0.0
 11
-13.692324894
 21
10.6038942999
 31
0.0
 11
-13.7073921602
 21
10.4834693625
 31
0.0
 11
-13.7375266924
 21
10.2426194878
 31
0.0
  0
SPLINE
  5
51B
100
AcDbEntity
  8
CURVE
100
AcDbSpline
 62
253
  6
CONTINUOUS
 70
0
 71
3
 72
63
 73
59
 74
57
 42
0.0000001
 43
0.0000001
 44
0.0000000001
 12
-0.247553175
 22
-1.9120553497
 32
0.0
 13
-0.3355288417
 23
-2.6544476704
 33
0.0
 40
0.0
 40
0.0
 40
0.0
 40
0.0
 40
0.0625
 40
0.125
 40
0.1875
 40
0.25
 40
0.28125
 40
0.3125
 40
0.34375
 40
0.375
 40
0.390625
 40
0.40625
 40
0.421875
 40
0.4375
 40
0.453125
 40
0.4609375
 40
0.46875
 40
0.4765625
 40
0.48046875
 40
0.484375
 40
0.48828125
 40
0.4921875
 40
0.494140625
 40
0.49609375
 40
0.4970703125
 40
0.498046875
 40
0.4990234375
 40
0.4995117188
 40
0.4997558594
 40
0.5
 40
0.5002441406
 40
0.5004882812
 40
0.5009765625
 40
0.501953125
 40
0.5029296875
 40
0.50390625
 40
0.505859375
 40
0.5078125
 40
0.51171875
 40
0.515625
 40
0.51953125
 40
0.5234375
 40
0.53125
 40
0.5390625
 40
0.546875
 40
0.5625
 40
0.578125
 40
0.59375
 40
0.609375
 40
0.625
 40
0.65625
 40
0.6875
 40
0.71875
 40
0.75
 40
0.8125
 40
0.875
 40
0.9375
 40
1.0
 40
1.0
 40
1.0
 40
1.0
 10
-15.3339802129
 20
13.954178055
 30
0.0
 10
-15.3391375707
 20
13.9143435685
 30
0.0
 10
-15.3494522863
 20
13.8346745956
 30
0.0
 10
-15.3649243597
 20
13.7151711362
 30
0.0
 10
-15.3803964332
 20
13.5956676769
 30
0.0
 10
-15.3932898277
 20
13.4960814607
 30
0.0
 10
-15.4036045433
 20
13.4164124878
 30
0.0
 10
-15.41134058
 20
13.3566607582
 30
0.0
 10
-15.4190766168
 20
13.2969090285
 30
0.0
 10
-15.425523314
 20
13.2471159204
 30
0.0
 10
-15.4306806718
 20
13.207281434
 30
0.0
 10
-15.4345486902
 20
13.1774055691
 30
0.0
 10
-15.4384167085
 20
13.1475297043
 30
0.0
 10
-15.4422847269
 20
13.1176538395
 30
0.0
 10
-15.4455080755
 20
13.0927572854
 30
0.0
 10
-15.4480867544
 20
13.0728400422
 30
0.0
 10
-15.4500207637
 20
13.0579021095
 30
0.0
 10
-15.4516324378
 20
13.0454538335
 30
0.0
 10
-15.4529217775
 20
13.0354952098
 30
0.0
 10
-15.4538887814
 20
13.0280262499
 30
0.0
 10
-15.4548557888
 20
13.0205572601
 30
0.0
 10
-15.4556616172
 20
13.0143331951
 30
0.0
 10
-15.4563063047
 20
13.0093537344
 30
0.0
 10
-15.4567091781
 20
13.0062420466
 30
0.0
 10
-15.4570316058
 20
13.0037516081
 30
0.0
 10
-15.4572730734
 20
13.0018867591
 30
0.0
 10
-15.4574754197
 20
13.0003232387
 30
0.0
 10
-15.4576148577
 20
12.9992473778
 30
0.0
 10
-15.4576979787
 20
12.9986035526
 30
0.0
 10
-15.4577506227
 20
12.9982025111
 30
0.0
 10
-15.4578403327
 20
12.9974886837
 30
0.0
 10
-15.457947017
 20
12.996646017
 30
0.0
 10
-15.4581397384
 20
12.9951205172
 30
0.0
 10
-15.4584119054
 20
12.9929678079
 30
0.0
 10
-15.4587398538
 20
12.9903731813
 30
0.0
 10
-15.4591766476
 20
12.9869176523
 30
0.0
 10
-15.4597228009
 20
12.9825968807
 30
0.0
 10
-15.4605965562
 20
12.9756844065
 30
0.0
 10
-15.4616887812
 20
12.9670435528
 30
0.0
 10
-15.4629994379
 20
12.9566746402
 30
0.0
 10
-15.4643100982
 20
12.9463056977
 30
0.0
 10
-15.466057644
 20
12.9324804515
 30
0.0
 10
-15.4682420767
 20
12.9151988901
 30
0.0
 10
-15.4708633957
 20
12.894461018
 30
0.0
 10
-15.4743584878
 20
12.8668105214
 30
0.0
 10
-15.4787273529
 20
12.8322474007
 30
0.0
 10
-15.4839699911
 20
12.7907716558
 30
0.0
 10
-15.4892126292
 20
12.749295911
 30
0.0
 10
-15.4944552674
 20
12.7078201661
 30
0.0
 10
-15.5014454516
 20
12.652519173
 30
0.0
 10
-15.5101831819
 20
12.5833929316
 30
0.0
 10
-15.5206684582
 20
12.5004414419
 30
0.0
 10
-15.5311537345
 20
12.4174899522
 30
0.0
 10
-15.5451341029
 20
12.3068879659
 30
0.0
 10
-15.5626095634
 20
12.1686354831
 30
0.0
 10
-15.583580116
 20
12.0027325037
 30
0.0
 10
-15.6045506686
 20
11.8368295243
 30
0.0
 10
-15.618531037
 20
11.726227538
 30
0.0
 10
-15.6255212212
 20
11.6709265449
 30
0.0
 11
-15.3339802129
 21
13.954178055
 31
0.0
 11
-15.3494522863
 21
13.8346745956
 31
0.0
 11
-15.3649243597
 21
13.7151711362
 31
0.0
 11
-15.3803964332
 21
13.5956676769
 31
0.0
 11
-15.3958685066
 21
13.4761642175
 31
0.0
 11
-15.4036045433
 21
13.4164124878
 31
0.0
 11
-15.41134058
 21
13.3566607582
 31
0.0
 11
-15.4190766168
 21
13.2969090285
 31
0.0
 11
-15.4268126535
 21
13.2371572988
 31
0.0
 11
-15.4306806718
 21
13.207281434
 31
0.0
 11
-15.4345486902
 21
13.1774055691
 31
0.0
 11
-15.4384167085
 21
13.1475297043
 31
0.0
 11
-15.4422847269
 21
13.1176538394
 31
0.0
 11
-15.4461527453
 21
13.0877779746
 31
0.0
 11
-15.4480867544
 21
13.0728400422
 31
0.0
 11
-15.4500207636
 21
13.0579021098
 31
0.0
 11
-15.4519547728
 21
13.0429641773
 31
0.0
 11
-15.4529217774
 21
13.0354952111
 31
0.0
 11
-15.453888782
 21
13.0280262449
 31
0.0
 11
-15.4548557866
 21
13.0205572787
 31
0.0
 11
-15.4558227912
 21
13.0130883125
 31
0.0
 11
-15.4563062935
 21
13.0093538294
 31
0.0
 11
-15.4567897957
 21
13.0056193463
 31
0.0
 11
-15.4570315469
 21
13.0037521047
 31
0.0
 11
-15.457273298
 21
13.0018848632
 31
0.0
 11
-15.4575150492
 21
13.0000176216
 31
0.0
 11
-15.4576359248
 21
12.9990840009
 31
0.0
 11
-15.4576963626
 21
12.9986171905
 31
0.0
 11
-15.4577568003
 21
12.9981503801
 31
0.0
 11
-15.4578387166
 21
12.9975023216
 31
0.0
 11
-15.4579206328
 21
12.9968542631
 31
0.0
 11
-15.4580844652
 21
12.995558146
 31
0.0
 11
-15.4584121301
 21
12.992965912
 31
0.0
 11
-15.458739795
 21
12.9903736779
 31
0.0
 11
-15.4590674599
 21
12.9877814439
 31
0.0
 11
-15.4597227896
 21
12.9825969758
 31
0.0
 11
-15.4603781194
 21
12.9774125077
 31
0.0
 11
-15.461688779
 21
12.9670435714
 31
0.0
 11
-15.4629994385
 21
12.9566746352
 31
0.0
 11
-15.464310098
 21
12.946305699
 31
0.0
 11
-15.4656207576
 21
12.9359367628
 31
0.0
 11
-15.4682420766
 21
12.9151988904
 31
0.0
 11
-15.4708633957
 21
12.894461018
 31
0.0
 11
-15.4734847148
 21
12.8737231455
 31
0.0
 11
-15.4787273529
 21
12.8322474007
 31
0.0
 11
-15.4839699911
 21
12.7907716558
 31
0.0
 11
-15.4892126292
 21
12.749295911
 31
0.0
 11
-15.4944552674
 21
12.7078201661
 31
0.0
 11
-15.4996979056
 21
12.6663444213
 31
0.0
 11
-15.5101831819
 21
12.5833929316
 31
0.0
 11
-15.5206684582
 21
12.5004414419
 31
0.0
 11
-15.5311537345
 21
12.4174899522
 31
0.0
 11
-15.5416390108
 21
12.3345384625
 31
0.0
 11
-15.5626095634
 21
12.1686354831
 31
0.0
 11
-15.583580116
 21
12.0027325037
 31
0.0
 11
-15.6045506686
 21
11.8368295243
 31
0.0
 11
-15.6255212212
 21
11.6709265449
 31
0.0
  0
SPLINE
  5
51C
100
AcDbEntity
  8
CURVE
100
AcDbSpline
 62
253
  6
CONTINUOUS
 70
0
 71
3
 72
63
 73
59
 74
57
 42
0.0000001
 43
0.0000001
 44
0.0000000001
 12
0.2404679115
 22
1.9099623062
 32
0.0
 13
0.3426141066
 23
2.6565407143
 33
0.0
 40
0.0
 40
0.0
 40
0.0
 40
0.0
 40
0.0625
 40
0.125
 40
0.1875
 40
0.25
 40
0.28125
 40
0.3125
 40
0.34375
 40
0.375
 40
0.390625
 40
0.40625
 40
0.421875
 40
0.4375
 40
0.453125
 40
0.4609375
 40
0.46875
 40
0.4765625
 40
0.48046875
 40
0.484375
 40
0.48828125
 40
0.4921875
 40
0.494140625
 40
0.49609375
 40
0.4970703125
 40
0.498046875
 40
0.4990234375
 40
0.4995117188
 40
0.4997558594
 40
0.5
 40
0.5002441406
 40
0.5004882812
 40
0.5009765625
 40
0.501953125
 40
0.5029296875
 40
0.50390625
 40
0.505859375
 40
0.5078125
 40
0.51171875
 40
0.515625
 40
0.51953125
 40
0.5234375
 40
0.53125
 40
0.5390625
 40
0.546875
 40
0.5625
 40
0.578125
 40
0.59375
 40
0.609375
 40
0.625
 40
0.65625
 40
0.6875
 40
0.71875
 40
0.75
 40
0.8125
 40
0.875
 40
0.9375
 40
1.0
 40
1.0
 40
1.0
 40
1.0
 10
-14.38808434
 20
11.0522082244
 30
0.0
 10
-14.3830745919
 20
11.0919991058
 30
0.0
 10
-14.3730550956
 20
11.1715808685
 30
0.0
 10
-14.3580258511
 20
11.2909535127
 30
0.0
 10
-14.3429966066
 20
11.4103261568
 30
0.0
 10
-14.3304722362
 20
11.5098033602
 30
0.0
 10
-14.3204527399
 20
11.589385123
 30
0.0
 10
-14.3129381177
 20
11.6490714451
 30
0.0
 10
-14.3054234955
 20
11.7087577671
 30
0.0
 10
-14.2991613103
 20
11.7584963689
 30
0.0
 10
-14.2941515621
 20
11.7982872502
 30
0.0
 10
-14.290394251
 20
11.8281304113
 30
0.0
 10
-14.2866369399
 20
11.8579735723
 30
0.0
 10
-14.2828796287
 20
11.8878167333
 30
0.0
 10
-14.2797485361
 20
11.9126860343
 30
0.0
 10
-14.2772436621
 20
11.9325814748
 30
0.0
 10
-14.2753650065
 20
11.9475030557
 30
0.0
 10
-14.2737994603
 20
11.9599377051
 30
0.0
 10
-14.272547023
 20
11.9698854275
 30
0.0
 10
-14.2716076961
 20
11.9773462114
 30
0.0
 10
-14.2706683651
 20
11.9848070255
 30
0.0
 10
-14.269885602
 20
11.9910242767
 30
0.0
 10
-14.2692593629
 20
11.9959982877
 30
0.0
 10
-14.2688680288
 20
11.9991065666
 30
0.0
 10
-14.2685548118
 20
12.0015942842
 30
0.0
 10
-14.268320309
 20
12.0034570758
 30
0.0
 10
-14.2681235858
 20
12.005018935
 30
0.0
 10
-14.2679884391
 20
12.0060935283
 30
0.0
 10
-14.2679072158
 20
12.0067367929
 30
0.0
 10
-14.267857557
 20
12.0071369526
 30
0.0
 10
-14.2677648618
 20
12.0078516618
 30
0.0
 10
-14.2676562798
 20
12.008694889
 30
0.0
 10
-14.2674592671
 20
12.0102216566
 30
0.0
 10
-14.267181477
 20
12.012376027
 30
0.0
 10
-14.2668465637
 20
12.0149727111
 30
0.0
 10
-14.2664005593
 20
12.0184309609
 30
0.0
 10
-14.2658428667
 20
12.0227551413
 30
0.0
 10
-14.2649506631
 20
12.0296730653
 30
0.0
 10
-14.2638353727
 20
12.0383207327
 30
0.0
 10
-14.2624970395
 20
12.0486978211
 30
0.0
 10
-14.2611587023
 20
12.0590749396
 30
0.0
 10
-14.2593742541
 20
12.0729110871
 30
0.0
 10
-14.2571436934
 20
12.0902062751
 30
0.0
 10
-14.2544670207
 20
12.1109604991
 30
0.0
 10
-14.2508981238
 20
12.1386327983
 30
0.0
 10
-14.2464370026
 20
12.1732231721
 30
0.0
 10
-14.2410836572
 20
12.2147316208
 30
0.0
 10
-14.2357303118
 20
12.2562400695
 30
0.0
 10
-14.2303769664
 20
12.2977485181
 30
0.0
 10
-14.2232391725
 20
12.3530931163
 30
0.0
 10
-14.2143169301
 20
12.4222738641
 30
0.0
 10
-14.2036102393
 20
12.5052907614
 30
0.0
 10
-14.1929035485
 20
12.5883076587
 30
0.0
 10
-14.1786279607
 20
12.6989968552
 30
0.0
 10
-14.160783476
 20
12.8373583507
 30
0.0
 10
-14.1393700943
 20
13.0033921454
 30
0.0
 10
-14.1179567126
 20
13.16942594
 30
0.0
 10
-14.1036811249
 20
13.2801151364
 30
0.0
 10
-14.096543331
 20
13.3354597347
 30
0.0
 11
-14.38808434
 21
11.0522082244
 31
0.0
 11
-14.3730550956
 21
11.1715808685
 31
0.0
 11
-14.3580258511
 21
11.2909535127
 31
0.0
 11
-14.3429966066
 21
11.4103261568
 31
0.0
 11
-14.3279673622
 21
11.5296988009
 31
0.0
 11
-14.3204527399
 21
11.589385123
 31
0.0
 11
-14.3129381177
 21
11.6490714451
 31
0.0
 11
-14.3054234955
 21
11.7087577671
 31
0.0
 11
-14.2979088732
 21
11.7684440892
 31
0.0
 11
-14.2941515621
 21
11.7982872502
 31
0.0
 11
-14.290394251
 21
11.8281304113
 31
0.0
 11
-14.2866369399
 21
11.8579735723
 31
0.0
 11
-14.2828796287
 21
11.8878167333
 31
0.0
 11
-14.2791223176
 21
11.9176598944
 31
0.0
 11
-14.2772436621
 21
11.9325814749
 31
0.0
 11
-14.2753650065
 21
11.9475030554
 31
0.0
 11
-14.273486351
 21
11.9624246359
 31
0.0
 11
-14.2725470232
 21
11.9698854262
 31
0.0
 11
-14.2716076954
 21
11.9773462165
 31
0.0
 11
-14.2706683676
 21
11.9848070067
 31
0.0
 11
-14.2697290398
 21
11.992267797
 31
0.0
 11
-14.2692593759
 21
11.9959981921
 31
0.0
 11
-14.2687897121
 21
11.9997285872
 31
0.0
 11
-14.2685548801
 21
12.0015937848
 31
0.0
 11
-14.2683200482
 21
12.0034589824
 31
0.0
 11
-14.2680852162
 21
12.0053241799
 31
0.0
 11
-14.2679678003
 21
12.0062567787
 31
0.0
 11
-14.2679090923
 21
12.0067230781
 31
0.0
 11
-14.2678503843
 21
12.0071893775
 31
0.0
 11
-14.2677667383
 21
12.007837947
 31
0.0
 11
-14.2676830922
 21
12.0084865165
 31
0.0
 11
-14.2675158002
 21
12.0097836555
 31
0.0
 11
-14.2671812161
 21
12.0123779336
 31
0.0
 11
-14.266846632
 21
12.0149722116
 31
0.0
 11
-14.2665120479
 21
12.0175664897
 31
0.0
 11
-14.2658428797
 21
12.0227550457
 31
0.0
 11
-14.2651737116
 21
12.0279436018
 31
0.0
 11
-14.2638353752
 21
12.038320714
 31
0.0
 11
-14.2624970389
 21
12.0486978262
 31
0.0
 11
-14.2611587025
 21
12.0590749383
 31
0.0
 11
-14.2598203662
 21
12.0694520505
 31
0.0
 11
-14.2571436934
 21
12.0902062748
 31
0.0
 11
-14.2544670207
 21
12.1109604991
 31
0.0
 11
-14.251790348
 21
12.1317147235
 31
0.0
 11
-14.2464370026
 21
12.1732231721
 31
0.0
 11
-14.2410836572
 21
12.2147316208
 31
0.0
 11
-14.2357303118
 21
12.2562400695
 31
0.0
 11
-14.2303769664
 21
12.2977485181
 31
0.0
 11
-14.225023621
 21
12.3392569668
 31
0.0
 11
-14.2143169301
 21
12.4222738641
 31
0.0
 11
-14.2036102393
 21
12.5052907614
 31
0.0
 11
-14.1929035485
 21
12.5883076587
 31
0.0
 11
-14.1821968576
 21
12.6713245561
 31
0.0
 11
-14.160783476
 21
12.8373583507
 31
0.0
 11
-14.1393700943
 21
13.0033921454
 31
0.0
 11
-14.1179567126
 21
13.16942594
 31
0.0
 11
-14.096543331
 21
13.3354597347
 31
0.0
  0
SPLINE
  5
51D
100
AcDbEntity
  8
CURVE
100
AcDbSpline
 62
253
  6
CONTINUOUS
 70
0
 71
3
 72
67
 73
63
 74
61
 42
0.0000001
 43
0.0000001
 44
0.0000000001
 12
-0.1839884362
 22
-2.8033440973
 32
0.0
 13
-0.2249444727
 23
-3.7625571472
 33
0.0
 40
0.0
 40
0.0
 40
0.0
 40
0.0
 40
0.0625
 40
0.125
 40
0.1875
 40
0.25
 40
0.28125
 40
0.3125
 40
0.328125
 40
0.34375
 40
0.375
 40
0.4375
 40
0.46875
 40
0.5
 40
0.53125
 40
0.546875
 40
0.5625
 40
0.578125
 40
0.59375
 40
0.609375
 40
0.625
 40
0.6328125
 40
0.640625
 40
0.64453125
 40
0.6484375
 40
0.65234375
 40
0.65625
 40
0.66015625
 40
0.662109375
 40
0.6630859375
 40
0.6640625
 40
0.6650390625
 40
0.666015625
 40
0.6662597656
 40
0.6665039062
 40
0.6666259766
 40
0.6667480469
 40
0.6669921875
 40
0.6674804688
 40
0.66796875
 40
0.6689453125
 40
0.669921875
 40
0.671875
 40
0.673828125
 40
0.67578125
 40
0.6796875
 40
0.68359375
 40
0.6875
 40
0.6953125
 40
0.703125
 40
0.7109375
 40
0.71875
 40
0.734375
 40
0.75
 40
0.765625
 40
0.78125
 40
0.8125
 40
0.84375
 40
0.875
 40
0.90625
 40
0.9375
 40
1.0
 40
1.0
 40
1.0
 40
1.0
 10
-13.6435240657
 20
-11.0836401968
 30
0.0
 10
-13.6473571581
 20
-11.1420431989
 30
0.0
 10
-13.6550234012
 20
-11.2588492262
 30
0.0
 10
-13.6665224165
 20
-11.4340581274
 30
0.0
 10
-13.6780226543
 20
-11.6092675181
 30
0.0
 10
-13.6876024018
 20
-11.7552738287
 30
0.0
 10
-13.6952746701
 20
-11.8720822683
 30
0.0
 10
-13.7000505541
 20
-11.9450798226
 30
0.0
 10
-13.7039154246
 20
-12.0034955474
 30
0.0
 10
-13.7076190686
 20
-12.061846723
 30
0.0
 10
-13.7140253739
 20
-12.1639312241
 30
0.0
 10
-13.7213792287
 20
-12.2806121824
 30
0.0
 10
-13.7287217907
 20
-12.3972886195
 30
0.0
 10
-13.7342302275
 20
-12.484796554
 30
0.0
 10
-13.7388202457
 20
-12.5577196943
 30
0.0
 10
-13.7424923326
 20
-12.6160582355
 30
0.0
 10
-13.7452463881
 20
-12.6598121375
 30
0.0
 10
-13.7480004462
 20
-12.7035660406
 30
0.0
 10
-13.7507545036
 20
-12.7473199434
 30
0.0
 10
-13.7535085612
 20
-12.7910738462
 30
0.0
 10
-13.7558036092
 20
-12.827535432
 30
0.0
 10
-13.7576396475
 20
-12.8567047004
 30
0.0
 10
-13.7587871715
 20
-12.8749354935
 30
0.0
 10
-13.7597051907
 20
-12.8895201273
 30
0.0
 10
-13.7603937052
 20
-12.9004586046
 30
0.0
 10
-13.7610822193
 20
-12.9113970744
 30
0.0
 10
-13.7617707348
 20
-12.922335572
 30
0.0
 10
-13.7623444933
 20
-12.9314509005
 30
0.0
 10
-13.7627461328
 20
-12.9378317991
 30
0.0
 10
-13.7629756278
 20
-12.9414777637
 30
0.0
 10
-13.7631477865
 20
-12.9442129784
 30
0.0
 10
-13.7633198019
 20
-12.9469453598
 30
0.0
 10
-13.7634492154
 20
-12.9490025896
 30
0.0
 10
-13.763534866
 20
-12.9503617221
 30
0.0
 10
-13.7635714838
 20
-12.9509464108
 30
0.0
 10
-13.7635986084
 20
-12.9513712767
 30
0.0
 10
-13.7636336675
 20
-12.9519529759
 30
0.0
 10
-13.7636987074
 20
-12.9530438178
 30
0.0
 10
-13.7637896982
 20
-12.9545641443
 30
0.0
 10
-13.7639363583
 20
-12.9570179136
 30
0.0
 10
-13.7641193153
 20
-12.9600778502
 30
0.0
 10
-13.7644122523
 20
-12.9649778148
 30
0.0
 10
-13.764778353
 20
-12.9711013756
 30
0.0
 10
-13.765217704
 20
-12.9784502456
 30
0.0
 10
-13.7658034949
 20
-12.9882485304
 30
0.0
 10
-13.766535737
 20
-13.0004964579
 30
0.0
 10
-13.767414426
 20
-13.0151939404
 30
0.0
 10
-13.7685860119
 20
-13.0347905943
 30
0.0
 10
-13.7700504941
 20
-13.059286408
 30
0.0
 10
-13.7718078728
 20
-13.088681386
 30
0.0
 10
-13.7735652515
 20
-13.1180763637
 30
0.0
 10
-13.7759084231
 20
-13.1572696673
 30
0.0
 10
-13.7788373876
 20
-13.2062612968
 30
0.0
 10
-13.782352145
 20
-13.2650512523
 30
0.0
 10
-13.7858669024
 20
-13.3238412077
 30
0.0
 10
-13.7905532455
 20
-13.4022278149
 30
0.0
 10
-13.7964111745
 20
-13.500211074
 30
0.0
 10
-13.8034406893
 20
-13.6177909848
 30
0.0
 10
-13.8104702041
 20
-13.7353708957
 30
0.0
 10
-13.8174997188
 20
-13.8529508065
 30
0.0
 10
-13.8268724052
 20
-14.009724021
 30
0.0
 10
-13.83390192
 20
-14.1273039318
 30
0.0
 10
-13.8385882632
 20
-14.2056905391
 30
0.0
 11
-13.6435240657
 21
-11.0836401968
 31
0.0
 11
-13.6550233429
 21
-11.2588492029
 31
0.0
 11
-13.6665226202
 21
-11.434058209
 31
0.0
 11
-13.6780218975
 21
-11.6092672151
 31
0.0
 11
-13.6895211747
 21
-11.7844762212
 31
0.0
 11
-13.6952708134
 21
-11.8720807242
 31
0.0
 11
-13.701020452
 21
-11.9596852273
 31
0.0
 11
-13.7038952713
 21
-12.0034874788
 31
0.0
 11
-13.7066895828
 21
-12.0472574979
 31
0.0
 11
-13.7121976979
 21
-12.1347653035
 31
0.0
 11
-13.7232139281
 21
-12.3097809149
 31
0.0
 11
-13.7287220432
 21
-12.3972887206
 31
0.0
 11
-13.7342301583
 21
-12.4847965263
 31
0.0
 11
-13.7397382734
 21
-12.572304332
 31
0.0
 11
-13.742492331
 21
-12.6160582348
 31
0.0
 11
-13.7452463885
 21
-12.6598121377
 31
0.0
 11
-13.7480004461
 21
-12.7035660405
 31
0.0
 11
-13.7507545037
 21
-12.7473199434
 31
0.0
 11
-13.7535085612
 21
-12.7910738462
 31
0.0
 11
-13.7562626188
 21
-12.8348277491
 31
0.0
 11
-13.7576396475
 21
-12.8567047005
 31
0.0
 11
-13.7590166763
 21
-12.8785816519
 31
0.0
 11
-13.7597051907
 21
-12.8895201276
 31
0.0
 11
-13.7603937051
 21
-12.9004586033
 31
0.0
 11
-13.7610822195
 21
-12.911397079
 31
0.0
 11
-13.7617707339
 21
-12.9223355547
 31
0.0
 11
-13.7624592483
 21
-12.9332740305
 31
0.0
 11
-13.7628035055
 21
-12.9387432683
 31
0.0
 11
-13.7629756341
 21
-12.9414778872
 31
0.0
 11
-13.7631477627
 21
-12.9442125062
 31
0.0
 11
-13.7633198913
 21
-12.9469471251
 31
0.0
 11
-13.7634920199
 21
-12.949681744
 31
0.0
 11
-13.763535052
 21
-12.9503653988
 31
0.0
 11
-13.7635780842
 21
-12.9510490535
 31
0.0
 11
-13.7635996002
 21
-12.9513908809
 31
0.0
 11
-13.7636250783
 21
-12.951811021
 31
0.0
 11
-13.7636799964
 21
-12.9527296141
 31
0.0
 11
-13.7637898325
 21
-12.9545668002
 31
0.0
 11
-13.7638996687
 21
-12.9564039863
 31
0.0
 11
-13.764119341
 21
-12.9600783585
 31
0.0
 11
-13.7643390134
 21
-12.9637527307
 31
0.0
 11
-13.764778358
 21
-12.9711014751
 31
0.0
 11
-13.7652177027
 21
-12.9784502195
 31
0.0
 11
-13.7656570474
 21
-12.985798964
 31
0.0
 11
-13.7665357367
 21
-13.0004964528
 31
0.0
 11
-13.7674144261
 21
-13.0151939417
 31
0.0
 11
-13.7682931154
 21
-13.0298914305
 31
0.0
 11
-13.7700504941
 21
-13.0592864083
 31
0.0
 11
-13.7718078728
 21
-13.088681386
 31
0.0
 11
-13.7735652515
 21
-13.1180763637
 31
0.0
 11
-13.7753226302
 21
-13.1474713414
 31
0.0
 11
-13.7788373876
 21
-13.2062612968
 31
0.0
 11
-13.782352145
 21
-13.2650512522
 31
0.0
 11
-13.7858669024
 21
-13.3238412077
 31
0.0
 11
-13.7893816598
 21
-13.3826311631
 31
0.0
 11
-13.7964111745
 21
-13.500211074
 31
0.0
 11
-13.8034406893
 21
-13.6177909848
 31
0.0
 11
-13.8104702041
 21
-13.7353708957
 31
0.0
 11
-13.8174997188
 21
-13.8529508065
 31
0.0
 11
-13.8245292336
 21
-13.9705307174
 31
0.0
 11
-13.8385882632
 21
-14.2056905391
 31
0.0
  0
SPLINE
  5
51E
100
AcDbEntity
  8
RACCORDO
100
AcDbSpline
 62
253
  6
CONTINUOUS
 70
0
 71
3
 72
12
 73
8
 74
6
 42
0.0000001
 43
0.0000001
 44
0.0000000001
 12
-0.6958557226
 22
-0.2179040598
 32
0.0
 13
0.0307235144
 23
0.7285282641
 33
0.0
 40
0.0
 40
0.0
 40
0.0
 40
0.0
 40
0.2424831142
 40
0.3542107831
 40
0.4661028481
 40
0.7095251536
 40
1.0
 40
1.0
 40
1.0
 40
1.0
 10
8.845049729
 20
-30.3385514464
 30
0.0
 10
8.7888053081
 20
-30.3561641315
 30
0.0
 10
8.6984204529
 20
-30.3663992522
 30
0.0
 10
8.589864471
 20
-30.3289413105
 30
0.0
 10
8.4969885392
 20
-30.260679291
 30
0.0
 10
8.4192260589
 20
-30.1162001812
 30
0.0
 10
8.4082472609
 20
-29.9843274983
 30
0.0
 10
8.4112220636
 20
-29.9137877864
 30
0.0
 11
8.845049729
 21
-30.3385514464
 31
0.0
 11
8.6687522121
 21
-30.3520406848
 31
0.0
 11
8.591803047
 21
-30.3252817146
 31
0.0
 11
8.525908721
 21
-30.2771703784
 31
0.0
 11
8.4359738234
 21
-30.1241438037
 31
0.0
 11
8.4112220636
 21
-29.9137877864
 31
0.0
  0
SPLINE
  5
51F
100
AcDbEntity
  8
RACCORDO
100
AcDbSpline
 62
253
  6
CONTINUOUS
 70
0
 71
3
 72
11
 73
7
 74
5
 42
0.0000001
 43
0.0000001
 44
0.0000000001
 12
1.0270939593
 22
-0.5119936987
 32
0.0
 13
1.05904757
 23
0.4421287065
 33
0.0
 40
0.0
 40
0.0
 40
0.0
 40
0.0
 40
0.2362907098
 40
0.5017863732
 40
0.7663267571
 40
1.0
 40
1.0
 40
1.0
 40
1.0
 10
7.290569564
 20
-29.8723994776
 30
0.0
 10
7.3714671509
 20
-29.9127259291
 30
0.0
 10
7.5561401565
 20
-29.9724303112
 30
0.0
 10
7.8483887068
 20
-30.008553676
 30
0.0
 10
8.14149604
 20
-29.99423502
 30
0.0
 10
8.3287317036
 20
-29.9482256693
 30
0.0
 10
8.4112220636
 20
-29.9137877864
 30
0.0
 11
7.290569564
 21
-29.8723994776
 31
0.0
 11
7.5468752317
 21
-29.9609612358
 31
0.0
 11
7.8490763779
 21
-29.9998365649
 31
0.0
 11
8.1522217128
 21
-29.9833180944
 31
0.0
 11
8.4112220636
 21
-29.9137877864
 31
0.0
  0
SPLINE
  5
520
100
AcDbEntity
  8
RACCORDO
100
AcDbSpline
 62
253
  6
CONTINUOUS
 70
0
 71
3
 72
12
 73
8
 74
6
 42
0.0000001
 43
0.0000001
 44
0.0000000001
 12
0.2997679587
 22
2.0501699837
 32
0.0
 13
1.9467631849
 23
0.7093453976
 33
0.0
 40
0.0
 40
0.0
 40
0.0
 40
0.0
 40
0.259405748
 40
0.5264106855
 40
0.6560155821
 40
0.7794344883
 40
1.0
 40
1.0
 40
1.0
 40
1.0
 10
10.7981912858
 20
6.8690491841
 30
0.0
 10
10.8241117963
 20
7.0463244768
 30
0.0
 10
10.9258970087
 20
7.3996780618
 30
0.0
 10
11.146632028
 20
7.79977225
 30
0.0
 10
11.3732117408
 20
8.0797633159
 30
0.0
 10
11.6096450787
 20
8.3060373145
 30
0.0
 10
11.8159598234
 20
8.4353812885
 30
0.0
 10
11.9590894294
 20
8.4875336654
 30
0.0
 11
10.7981912858
 21
6.8690491841
 31
0.0
 11
10.9427229165
 21
7.3867327054
 31
0.0
 11
11.2107006178
 21
7.8707234778
 31
0.0
 11
11.3801246268
 21
8.079068959
 31
0.0
 11
11.5655980789
 21
8.25511562
 31
0.0
 11
11.9590894294
 21
8.4875336654
 31
0.0
  0
SPLINE
  5
521
100
AcDbEntity
  8
RACCORDO
100
AcDbSpline
 62
253
  6
CONTINUOUS
 70
0
 71
3
 72
11
 73
7
 74
5
 42
0.0000001
 43
0.0000001
 44
0.0000000001
 12
0.1406354493
 22
0.95756547
 32
0.0
 13
0.9115999126
 23
0.325108533
 33
0.0
 40
0.0
 40
0.0
 40
0.0
 40
0.0
 40
0.2590759544
 40
0.5258880937
 40
0.7786096023
 40
1.0
 40
1.0
 40
1.0
 40
1.0
 10
11.9094901516
 20
6.7296836894
 30
0.0
 10
11.9216352394
 20
6.812377752
 30
0.0
 10
11.9694371084
 20
6.9772614132
 30
0.0
 10
12.0928835478
 20
7.1983771451
 30
0.0
 10
12.2552908953
 20
7.3766568067
 30
0.0
 10
12.3884863306
 20
7.4587260443
 30
0.0
 10
12.4557594863
 20
7.4827180135
 30
0.0
 11
11.9094901516
 21
6.7296836894
 31
0.0
 11
11.9773682232
 21
6.9710648565
 31
0.0
 11
12.1034278804
 21
7.1964359807
 31
0.0
 11
12.270475744
 21
7.375100341
 31
0.0
 11
12.4557594863
 21
7.4827180135
 31
0.0
  0
SPLINE
  5
522
100
AcDbEntity
  8
RACCORDO
100
AcDbSpline
 62
253
  6
CONTINUOUS
 70
0
 71
3
 72
12
 73
8
 74
6
 42
0.0000001
 43
0.0000001
 44
0.0000000001
 12
1.0168858379
 22
-0.5101193698
 32
0.0
 13
1.1034310224
 23
0.2769811502
 33
0.0
 40
0.0
 40
0.0
 40
0.0
 40
0.0
 40
0.2401037716
 40
0.5091993336
 40
0.7733415654
 40
0.8932538225
 40
1.0
 40
1.0
 40
1.0
 40
1.0
 10
10.7982062294
 20
6.8690531291
 30
0.0
 10
10.8795922711
 20
6.8282259342
 30
0.0
 10
11.0626531115
 20
6.762531657
 30
0.0
 10
11.3510467713
 20
6.705638725
 30
0.0
 10
11.5994866503
 20
6.6914817986
 30
0.0
 10
11.7853251258
 20
6.7049149858
 30
0.0
 10
11.8702278036
 20
6.7198281297
 30
0.0
 10
11.9094901515
 20
6.7296836894
 30
0.0
 11
10.7982062294
 21
6.8690531291
 31
0.0
 11
11.0537487736
 21
6.7725495713
 31
0.0
 11
11.3539060561
 21
6.7123212411
 31
0.0
 11
11.6540336818
 21
6.6972655956
 31
0.0
 11
11.7900528623
 21
6.7077130244
 31
0.0
 11
11.9094901515
 21
6.7296836894
 31
0.0
  0
SPLINE
  5
523
100
AcDbEntity
  8
RACCORDO
100
AcDbSpline
 62
253
  6
CONTINUOUS
 70
0
 71
3
 72
11
 73
7
 74
5
 42
0.0000001
 43
0.0000001
 44
0.0000000001
 12
1.043914915
 22
-0.5380229192
 32
0.0
 13
-0.0960266318
 23
-1.1704725102
 33
0.0
 40
0.0
 40
0.0
 40
0.0
 40
0.0
 40
0.2258144118
 40
0.481047566
 40
0.7467271134
 40
1.0
 40
1.0
 40
1.0
 40
1.0
 10
11.9590894294
 20
8.4875336654
 30
0.0
 10
12.0376664403
 20
8.4470358891
 30
0.0
 10
12.1860526262
 20
8.3235378205
 30
0.0
 10
12.3479600084
 20
8.0765134898
 30
0.0
 10
12.4477199432
 20
7.7872329017
 30
0.0
 10
12.463866467
 20
7.5815343306
 30
0.0
 10
12.4557594863
 20
7.4827180135
 30
0.0
 11
11.9590894294
 21
8.4875336654
 31
0.0
 11
12.1672637209
 21
8.3232375515
 31
0.0
 11
12.3346943504
 21
8.0746107273
 31
0.0
 11
12.4360239017
 21
7.7795074939
 31
0.0
 11
12.4557594863
 21
7.4827180135
 31
0.0
  0
SPLINE
  5
524
100
AcDbEntity
  8
RACCORDO
100
AcDbSpline
 62
253
  6
CONTINUOUS
 70
0
 71
3
 72
12
 73
8
 74
6
 42
0.0000001
 43
0.0000001
 44
0.0000000001
 12
-1.9328131787
 22
-0.7318741081
 32
0.0
 13
-0.2971585427
 23
-2.0452636247
 33
0.0
 40
0.0
 40
0.0
 40
0.0
 40
0.0
 40
0.2193079598
 40
0.3425242922
 40
0.4721680258
 40
0.7397715865
 40
1.0
 40
1.0
 40
1.0
 40
1.0
 10
-18.0928862232
 20
23.5135214917
 30
0.0
 10
-18.2341799948
 20
23.4600195526
 30
0.0
 10
-18.4372894339
 20
23.3287202743
 30
0.0
 10
-18.669726963
 20
23.1009635828
 30
0.0
 10
-18.893011764
 20
22.8191339299
 30
0.0
 10
-19.1105074719
 20
22.4175838282
 30
0.0
 10
-19.2110697479
 20
22.0639797864
 30
0.0
 10
-19.2368461133
 20
21.8865678836
 30
0.0
 11
-18.0928862232
 21
23.5135214917
 31
0.0
 11
-18.4801296086
 21
23.2779794637
 31
0.0
 11
-18.6627642849
 21
23.1005134148
 31
0.0
 11
-18.8296702962
 21
22.8909089348
 31
0.0
 11
-19.0939145912
 21
22.4050514593
 31
0.0
 11
-19.2368461133
 21
21.8865678836
 31
0.0
  0
SPLINE
  5
525
100
AcDbEntity
  8
RACCORDO
100
AcDbSpline
 62
253
  6
CONTINUOUS
 70
0
 71
3
 72
9
 73
5
 74
3
 42
0.0000001
 43
0.0000001
 44
0.0000000001
 12
-0.3207393133
 22
0.1556020074
 32
0.0
 13
-0.3324410674
 23
-0.1287191847
 33
0.0
 40
0.0
 40
0.0
 40
0.0
 40
0.0
 40
0.5240370524
 40
1.0
 40
1.0
 40
1.0
 40
1.0
 10
-18.0928862232
 20
23.5135214917
 30
0.0
 10
-18.1489126513
 20
23.5407018975
 30
0.0
 10
-18.2652974062
 20
23.5770473312
 30
0.0
 10
-18.3879000707
 20
23.5614735586
 30
0.0
 10
-18.4406432808
 20
23.5410517044
 30
0.0
 11
-18.0928862232
 21
23.5135214917
 31
0.0
 11
-18.2726000293
 21
23.5645368213
 31
0.0
 11
-18.4406432808
 21
23.5410517044
 31
0.0
  0
SPLINE
  5
526
100
AcDbEntity
  8
RACCORDO
100
AcDbSpline
 62
253
  6
CONTINUOUS
 70
0
 71
3
 72
11
 73
7
 74
5
 42
0.0000001
 43
0.0000001
 44
0.0000000001
 12
-0.3322643569
 22
0.1655847651
 32
0.0
 13
0.0525087312
 23
0.367506123
 33
0.0
 40
0.0
 40
0.0
 40
0.0
 40
0.0
 40
0.3329696583
 40
0.607173301
 40
0.8233145676
 40
1.0
 40
1.0
 40
1.0
 40
1.0
 10
-19.2368460872
 20
21.8865678905
 30
0.0
 10
-19.2737240703
 20
21.9049461247
 30
0.0
 10
-19.3392477512
 20
21.9423591987
 30
0.0
 10
-19.4183323113
 20
22.0075386626
 30
0.0
 10
-19.467638638
 20
22.0756844322
 30
0.0
 10
-19.4761866518
 20
22.1262311573
 30
0.0
 10
-19.4730941426
 20
22.1478754834
 30
0.0
 11
-19.2368460872
 21
21.8865678905
 31
0.0
 11
-19.3434239926
 21
21.9491846316
 31
0.0
 11
-19.4205151427
 21
22.015661381
 31
0.0
 11
-19.4643521657
 21
22.0828682374
 31
0.0
 11
-19.4730941426
 21
22.1478754834
 31
0.0
  0
SPLINE
  5
527
100
AcDbEntity
  8
RACCORDO
100
AcDbSpline
 62
253
  6
CONTINUOUS
 70
0
 71
3
 72
11
 73
7
 74
5
 42
0.0000001
 43
0.0000001
 44
0.0000000001
 12
-0.0429217443
 22
-0.9812741191
 32
0.0
 13
0.8534872782
 23
-0.4861076413
 33
0.0
 40
0.0
 40
0.0
 40
0.0
 40
0.0
 40
0.2918342918
 40
0.5533035651
 40
0.7861865888
 40
1.0
 40
1.0
 40
1.0
 40
1.0
 10
-22.7444678593
 20
-14.8548807886
 30
0.0
 10
-22.7486432049
 20
-14.9503372678
 30
0.0
 10
-22.7416257165
 20
-15.1326159174
 30
0.0
 10
-22.6773914089
 20
-15.3843105189
 30
0.0
 10
-22.5610086743
 20
-15.5887747983
 30
0.0
 10
-22.4473324826
 20
-15.6867313971
 30
0.0
 10
-22.3865034738
 20
-15.7213768414
 30
0.0
 11
-22.7444678593
 21
-14.8548807886
 31
0.0
 11
-22.7306165807
 21
-15.1411891861
 31
0.0
 11
-22.6636271149
 21
-15.3891167582
 31
0.0
 11
-22.5469308192
 21
-15.5858506707
 31
0.0
 11
-22.3865034738
 21
-15.7213768414
 31
0.0
  0
SPLINE
  5
528
100
AcDbEntity
  8
RACCORDO
100
AcDbSpline
 62
253
  6
CONTINUOUS
 70
0
 71
3
 72
11
 73
7
 74
5
 42
0.0000001
 43
0.0000001
 44
0.0000000001
 12
-0.3430435392
 22
0.172040365
 32
0.0
 13
0.0164190248
 23
0.383415144
 33
0.0
 40
0.0
 40
0.0
 40
0.0
 40
0.0
 40
0.3100065068
 40
0.5758127951
 40
0.800661355
 40
1.0
 40
1.0
 40
1.0
 40
1.0
 10
-22.7444526629
 20
-14.854874196
 30
0.0
 10
-22.7799012393
 20
-14.8370963185
 30
0.0
 10
-22.8436584672
 20
-14.7994290445
 30
0.0
 10
-22.9208581108
 20
-14.730854967
 30
0.0
 10
-22.9696011386
 20
-14.6554541551
 30
0.0
 10
-22.9798827463
 20
-14.6002578645
 30
0.0
 10
-22.9787917643
 20
-14.5747813794
 30
0.0
 11
-22.7444526629
 21
-14.854874196
 31
0.0
 11
-22.8461649083
 21
-14.7931610723
 31
0.0
 11
-22.921095414
 21
-14.7239443004
 31
0.0
 11
-22.9658725114
 21
-14.6501820871
 31
0.0
 11
-22.9787917643
 21
-14.5747813794
 31
0.0
  0
SPLINE
  5
529
100
AcDbEntity
  8
RACCORDO
100
AcDbSpline
 62
253
  6
CONTINUOUS
 70
0
 71
3
 72
11
 73
7
 74
5
 42
0.0000001
 43
0.0000001
 44
0.0000000001
 12
-0.9105073504
 22
0.4566190209
 32
0.0
 13
0.0435828516
 23
1.0176566712
 33
0.0
 40
0.0
 40
0.0
 40
0.0
 40
0.0
 40
0.2155123932
 40
0.4481446078
 40
0.7087627333
 40
1.0
 40
1.0
 40
1.0
 40
1.0
 10
7.6823780108
 20
-30.7567238025
 30
0.0
 10
7.6169694714
 20
-30.7239214498
 30
0.0
 10
7.4935244141
 20
-30.6278868574
 30
0.0
 10
7.3655689334
 20
-30.4193900918
 30
0.0
 10
7.2945698282
 20
-30.1598347298
 30
0.0
 10
7.2863385562
 20
-29.9711926705
 30
0.0
 10
7.2905695397
 20
-29.8723994881
 30
0.0
 11
7.6823780108
 21
-30.7567238025
 31
0.0
 11
7.508078158
 21
-30.6232771705
 31
0.0
 11
7.3804990929
 21
-30.4235972407
 31
0.0
 11
7.3066442918
 21
-30.1686148648
 31
0.0
 11
7.2905695397
 21
-29.8723994881
 31
0.0
  0
SPLINE
  5
52A
100
AcDbEntity
  8
RACCORDO
100
AcDbSpline
 62
253
  6
CONTINUOUS
 70
0
 71
3
 72
11
 73
7
 74
5
 42
0.0000001
 43
0.0000001
 44
0.0000000001
 12
0.5759657837
 22
0.180585328
 32
0.0
 13
0.0652704987
 23
0.6000728344
 33
0.0
 40
0.0
 40
0.0
 40
0.0
 40
0.0
 40
0.2195759702
 40
0.4543360656
 40
0.7139756431
 40
1.0
 40
1.0
 40
1.0
 40
1.0
 10
8.5285907053
 20
-30.8156879459
 30
0.0
 10
8.5707467872
 20
-30.8024705464
 30
0.0
 10
8.6532937248
 20
-30.7578027213
 30
0.0
 10
8.7498598385
 20
-30.6482751779
 30
0.0
 10
8.8166152613
 20
-30.5042475229
 30
0.0
 10
8.8388267448
 20
-30.395763262
 30
0.0
 10
8.845049729
 20
-30.3385514464
 30
0.0
 11
8.5285907053
 21
-30.8156879459
 31
0.0
 11
8.6456072671
 21
-30.7534493864
 31
0.0
 11
8.7409530909
 21
-30.6486199465
 31
0.0
 11
8.8088197237
 21
-30.5073550099
 31
0.0
 11
8.845049729
 21
-30.3385514464
 31
0.0
  0
ELLIPSE
  5
52B
100
AcDbEntity
  8
RACCORDO
100
AcDbEllipse
 62
7
  6
CONTINUOUS
 10
-15.0663750222
 20
27.1018048723
 30
0.0
 11
0.110769438
 21
0.2241226716
 31
0.0
 40
0.6088015717
 41
-4.0304836828
 42
-3.1443650652
  0
ELLIPSE
  5
52C
100
AcDbEntity
  8
RACCORDO
100
AcDbEllipse
 62
7
  6
CONTINUOUS
 10
-1.7020568578
 20
20.4196457901
 30
0.0
 11
0.110769438
 21
0.2241226716
 31
0.0
 40
0.6088015717
 41
-4.0304836828
 42
-3.1443650652
  0
ELLIPSE
  5
52D
100
AcDbEntity
  8
RACCORDO
100
AcDbEllipse
 62
7
  6
CONTINUOUS
 10
-3.4120445251
 20
28.2331590461
 30
0.0
 11
0.2999991737
 21
-0.0014183462
 31
0.0
 40
0.4964289597
 41
0.7877451926
 42
2.3527237553
  0
ELLIPSE
  5
52E
100
AcDbEntity
  8
RACCORDO
100
AcDbEllipse
 62
7
  6
CONTINUOUS
 10
2.1424189891
 20
25.455927289
 30
0.0
 11
0.2999991737
 21
-0.0014183462
 31
0.0
 40
0.4964289597
 41
0.7877451926
 42
2.3585415194
  0
ELLIPSE
  5
52F
100
AcDbEntity
  8
RACCORDO
100
AcDbEllipse
 62
7
  6
CONTINUOUS
 10
-11.6825470398
 20
26.427657834
 30
0.0
 11
0.110769438
 21
0.2241226716
 31
0.0
 40
0.6088015717
 41
1.2055040732
 42
2.2526937431
  0
ELLIPSE
  5
530
100
AcDbEntity
  8
RACCORDO
100
AcDbEllipse
 62
7
  6
CONTINUOUS
 10
2.0332676017
 20
20.6733039039
 30
0.0
 11
0.110769438
 21
0.2241226716
 31
0.0
 40
0.6088015717
 41
-1.9360885804
 42
-0.8888910292
  0
ELLIPSE
  5
531
100
AcDbEntity
  8
RACCORDO
100
AcDbEllipse
 62
7
  6
CONTINUOUS
 10
0.4130927454
 20
21.7443203084
 30
0.0
 11
0.1128509832
 21
0.2230818409
 31
0.0
 40
0.6159267166
 41
0.0028979148
 42
0.6817883054
  0
ELLIPSE
  5
532
100
AcDbEntity
  8
RACCORDO
100
AcDbEllipse
 62
7
  6
CONTINUOUS
 10
-1.7020568578
 20
20.6730171838
 30
0.0
 11
0.110769438
 21
0.2241226716
 31
0.0
 40
0.6088015717
 41
0.6877230618
 42
2.2527016244
  0
ELLIPSE
  5
533
100
AcDbEntity
  8
RACCORDO
100
AcDbEllipse
 62
7
  6
CONTINUOUS
 10
-11.3310505627
 20
27.3554629861
 30
0.0
 11
0.110769438
 21
0.2241226716
 31
0.0
 40
0.6088015717
 41
-1.9360885804
 42
-0.8888910292
  0
ELLIPSE
  5
534
100
AcDbEntity
  8
RACCORDO
100
AcDbEllipse
 62
7
  6
CONTINUOUS
 10
-12.9512254191
 20
28.4264793906
 30
0.0
 11
0.1128509832
 21
0.2230818409
 31
0.0
 40
0.6159267166
 41
0.0028979148
 42
0.6817883054
  0
ELLIPSE
  5
535
100
AcDbEntity
  8
RACCORDO
100
AcDbEllipse
 62
7
  6
CONTINUOUS
 10
-15.0663750222
 20
27.355176266
 30
0.0
 11
0.110769438
 21
0.2241226716
 31
0.0
 40
0.6088015717
 41
0.6877230618
 42
2.2527016244
  0
ELLIPSE
  5
536
100
AcDbEntity
  8
RACCORDO
100
AcDbEllipse
 62
7
  6
CONTINUOUS
 10
-11.3310505627
 20
27.6163919624
 30
0.0
 11
0.110769438
 21
0.2241226716
 31
0.0
 40
0.6088015717
 41
5.394294278
 42
6.9592728406
  0
ELLIPSE
  5
537
100
AcDbEntity
  8
RACCORDO
100
AcDbEllipse
 62
7
  6
CONTINUOUS
 10
2.0332676017
 20
20.9342328802
 30
0.0
 11
0.110769438
 21
0.2241226716
 31
0.0
 40
0.6088015717
 41
5.394294278
 42
6.9592728406
  0
ELLIPSE
  5
538
100
AcDbEntity
  8
RACCORDO
100
AcDbEllipse
 62
7
  6
CONTINUOUS
 10
-3.2315925479
 20
26.9110988762
 30
0.0
 11
0.2999981629
 21
-0.0021225547
 31
0.0
 40
0.4946372042
 41
-0.7818985079
 42
0.0034997008
  0
ELLIPSE
  5
539
100
AcDbEntity
  8
RACCORDO
100
AcDbEllipse
 62
7
  6
CONTINUOUS
 10
2.3228709662
 20
24.1338671191
 30
0.0
 11
0.2999981629
 21
-0.0021225547
 31
0.0
 40
0.4946372042
 41
-0.7760807437
 42
0.0035109161
  0
ELLIPSE
  5
53A
100
AcDbEntity
  8
RACCORDO
100
AcDbEllipse
 62
7
  6
CONTINUOUS
 10
-9.3805382754
 20
25.3129776782
 30
0.0
 11
0.2999991335
 21
0.0014318851
 31
0.0
 40
0.5035541159
 41
8.6427941204
 42
10.207772683
  0
ELLIPSE
  5
53B
100
AcDbEntity
  8
RACCORDO
100
AcDbEllipse
 62
7
  6
CONTINUOUS
 10
-15.3938291843
 20
25.5159075769
 30
0.0
 11
-0.1565168911
 21
0.3130623908
 31
0.0
 40
0.6123677712
 41
-0.6846781644
 42
0.8861181623
  0
ELLIPSE
  5
53C
100
AcDbEntity
  8
RACCORDO
100
AcDbEllipse
 62
7
  6
CONTINUOUS
 10
-0.1203227107
 20
17.8791543401
 30
0.0
 11
-0.1565168911
 21
0.3130623908
 31
0.0
 40
0.6123677712
 41
-2.2554744912
 42
-0.6846781644
  0
ELLIPSE
  5
53D
100
AcDbEntity
  8
RACCORDO
100
AcDbEllipse
 62
7
  6
CONTINUOUS
 10
-3.5880292074
 20
22.4167231442
 30
0.0
 11
0.2999991335
 21
0.0014318851
 31
0.0
 40
0.5035541159
 41
-2.3585979313
 42
-0.7936193687
  0
ELLIPSE
  5
53E
100
AcDbEntity
  8
RACCORDO
100
AcDbEllipse
 62
7
  6
CONTINUOUS
 10
-3.5880292074
 20
21.2025240683
 30
0.0
 11
0.2999980272
 21
0.0021530184
 31
0.0
 40
0.5053247124
 41
-2.3598210761
 42
-0.7948425135
  0
ELLIPSE
  5
53F
100
AcDbEntity
  8
RACCORDO
100
AcDbEllipse
 62
7
  6
CONTINUOUS
 10
-9.3805382754
 20
24.0987786023
 30
0.0
 11
0.2999980272
 21
0.0021530184
 31
0.0
 40
0.5053247124
 41
3.1379773283
 42
3.9233642311
  0
ELLIPSE
  5
540
100
AcDbEntity
  8
RACCORDO
100
AcDbEllipse
 62
7
  6
CONTINUOUS
 10
2.3228709662
 20
25.3657013005
 30
0.0
 11
0.2999991737
 21
-0.0014183462
 31
0.0
 40
0.4964289597
 41
-0.77723337
 42
0.7877451926
  0
ELLIPSE
  5
541
100
AcDbEntity
  8
RACCORDO
100
AcDbEllipse
 62
7
  6
CONTINUOUS
 10
-3.2315925479
 20
28.1429330575
 30
0.0
 11
0.2999991737
 21
-0.0014183462
 31
0.0
 40
0.4964289597
 41
-0.7830511342
 42
0.7877451926
  0
ELLIPSE
  5
542
100
AcDbEntity
  8
RACCORDO
100
AcDbEllipse
 62
7
  6
CONTINUOUS
 10
-0.0942234822
 20
19.869100496
 30
0.0
 11
0.1128509832
 21
0.2230818409
 31
0.0
 40
0.6159267166
 41
0.6934238338
 42
2.2584023964
  0
ELLIPSE
  5
543
100
AcDbEntity
  8
RACCORDO
100
AcDbEllipse
 62
7
  6
CONTINUOUS
 10
-0.0942234822
 20
19.6157291023
 30
0.0
 11
0.1128509832
 21
0.2230818409
 31
0.0
 40
0.6159267166
 41
-4.0247829108
 42
-2.9775853596
  0
ELLIPSE
  5
544
100
AcDbEntity
  8
RACCORDO
100
AcDbEllipse
 62
7
  6
CONTINUOUS
 10
-13.4585416466
 20
26.5512595782
 30
0.0
 11
0.1128509832
 21
0.2230818409
 31
0.0
 40
0.6159267166
 41
0.6934238338
 42
2.2584023964
  0
ELLIPSE
  5
545
100
AcDbEntity
  8
RACCORDO
100
AcDbEllipse
 62
7
  6
CONTINUOUS
 10
-13.4585416466
 20
26.2978881845
 30
0.0
 11
0.1128509832
 21
0.2230818409
 31
0.0
 40
0.6159267166
 41
-4.0247829108
 42
-2.9775853596
  0
ELLIPSE
  5
546
100
AcDbEntity
  8
RACCORDO
100
AcDbEllipse
 62
7
  6
CONTINUOUS
 10
18.1583337269
 20
11.0885193201
 30
0.0
 11
-0.2237009107
 21
0.4473351135
 31
0.0
 40
0.6121897086
 41
-2.2557347926
 42
-0.6846338794
  0
ELLIPSE
  5
547
100
AcDbEntity
  8
RACCORDO
100
AcDbEllipse
 62
7
  6
CONTINUOUS
 10
18.1583337269
 20
-26.8130283864
 30
0.0
 11
-0.2235807756
 21
0.4472283268
 31
0.0
 40
0.6125552124
 41
-3.139671321
 42
-2.255296188
  0
ELLIPSE
  5
548
100
AcDbEntity
  8
RACCORDO
100
AcDbEllipse
 62
7
  6
CONTINUOUS
 10
22.9841813378
 20
-22.2928637324
 30
0.0
 11
0.9987332359
 21
0.6172510855
 31
0.0
 40
0.0815198604
 41
-2.3890806779
 42
-1.1913468732
  0
ELLIPSE
  5
549
100
AcDbEntity
  8
RACCORDO
100
AcDbEllipse
 62
7
  6
CONTINUOUS
 10
22.7495643249
 20
-22.1755552259
 30
0.0
 11
0.4349639225
 21
0.9005141702
 31
0.0
 40
0.6016116119
 41
-1.2499156631
 42
-0.8943064336
  0
ELLIPSE
  5
54A
100
AcDbEntity
  8
RACCORDO
100
AcDbEllipse
 62
7
  6
CONTINUOUS
 10
22.7495643249
 20
14.5877376231
 30
0.0
 11
0.4349639225
 21
0.9005141702
 31
0.0
 40
0.6016116119
 41
-0.8943064336
 42
-0.538697204
  0
ELLIPSE
  5
54B
100
AcDbEntity
  8
RACCORDO
100
AcDbEllipse
 62
7
  6
CONTINUOUS
 10
10.9991414502
 20
20.4629490604
 30
0.0
 11
0.9987332359
 21
0.6172510855
 31
0.0
 40
0.0815198604
 41
0.0505521044
 42
0.7176053907
  0
ELLIPSE
  5
54C
100
AcDbEntity
  8
RACCORDO
100
AcDbEllipse
 62
7
  6
CONTINUOUS
 10
12.1431697618
 20
19.9199134353
 30
0.0
 11
0.2256808774
 21
0.4461742732
 31
0.0
 40
0.6158912572
 41
0.0028657685
 42
0.6875768343
  0
ELLIPSE
  5
54D
100
AcDbEntity
  8
RACCORDO
100
AcDbEllipse
 62
7
  6
CONTINUOUS
 10
15.999985599
 20
-27.9005242549
 30
0.0
 11
-0.2235807756
 21
0.4472283268
 31
0.0
 40
0.6125552124
 41
2.4567882058
 42
4.0278891191
  0
ELLIPSE
  5
54E
100
AcDbEntity
  8
RACCORDO
100
AcDbEllipse
 62
7
  6
CONTINUOUS
 10
1.0127744406
 20
17.5853282087
 30
0.0
 11
-0.2235807756
 21
0.4472283268
 31
0.0
 40
0.6125552124
 41
-0.6848044477
 42
0.8862964655
  0
ELLIPSE
  5
54F
100
AcDbEntity
  8
RACCORDO
100
AcDbEllipse
 62
7
  6
CONTINUOUS
 10
18.3046191203
 20
16.8391887561
 30
0.0
 11
0.2215594226
 21
0.4482351134
 31
0.0
 40
0.6088373611
 41
5.3943220613
 42
6.9651183881
  0
ELLIPSE
  5
550
100
AcDbEntity
  8
RACCORDO
100
AcDbEllipse
 62
7
  6
CONTINUOUS
 10
15.999985599
 20
10.0917226295
 30
0.0
 11
-0.2237009107
 21
0.4473351135
 31
0.0
 40
0.6121897086
 41
4.0274505145
 42
5.5985514278
  0
ELLIPSE
  5
551
100
AcDbEntity
  8
RACCORDO
100
AcDbEllipse
 62
7
  6
CONTINUOUS
 10
22.9841813378
 20
14.4704291166
 30
0.0
 11
-0.7417913999
 21
1.2002436976
 31
0.0
 40
0.5587454355
 41
5.0176587298
 42
6.2153925345
  0
ELLIPSE
  5
552
100
AcDbEntity
  8
RACCORDO
100
AcDbEllipse
 62
7
  6
CONTINUOUS
 10
12.3267871178
 20
13.3993859093
 30
0.0
 11
0.4999881828
 21
-0.0070264249
 31
0.0
 40
0.4892375088
 41
-2.3493192548
 42
-0.7727633415
  0
ELLIPSE
  5
553
100
AcDbEntity
  8
RACCORDO
100
AcDbEllipse
 62
7
  6
CONTINUOUS
 10
6.8072932653
 20
16.1591328355
 30
0.0
 11
0.4999881828
 21
-0.0070264249
 31
0.0
 40
0.4892375088
 41
-3.1347355197
 42
-2.3493192548
  0
ELLIPSE
  5
554
100
AcDbEntity
  8
RACCORDO
100
AcDbEllipse
 62
7
  6
CONTINUOUS
 10
14.1830111204
 20
-23.2129539333
 30
0.0
 11
-0.2713091605
 21
0.4239062184
 31
0.0
 40
0.5451249042
 41
-3.2164578779
 42
-2.3115524019
  0
ELLIPSE
  5
555
100
AcDbEntity
  8
DRAFT
100
AcDbEllipse
 62
7
  6
CONTINUOUS
 10
2.3191956844
 20
27.0259581121
 30
0.0
 11
2.7499924258
 21
-0.0130015067
 31
0.0
 40
0.4964289597
 41
2.3672681657
 42
2.9296691279
  0
ELLIPSE
  5
556
100
AcDbEntity
  8
DRAFT
100
AcDbEllipse
 62
7
  6
CONTINUOUS
 10
9.7438168869
 20
23.3136475109
 30
0.0
 11
2.7499924258
 21
-0.0130015067
 31
0.0
 40
0.4964289597
 41
2.3672681657
 42
2.9296691392
  0
ELLIPSE
  5
557
100
AcDbEntity
  8
DRAFT
100
AcDbEllipse
 62
7
  6
CONTINUOUS
 10
10.415568329
 20
23.2117240611
 30
0.0
 11
2.7583876426
 21
-0.0130411979
 31
0.0
 40
0.4964289597
 41
0.4409543378
 42
2.3585415194
  0
ELLIPSE
  5
558
100
AcDbEntity
  8
DRAFT
100
AcDbEllipse
 62
7
  6
CONTINUOUS
 10
2.9909471265
 20
26.9240346623
 30
0.0
 11
2.7583876426
 21
-0.0130411979
 31
0.0
 40
0.4964289597
 41
0.4409543378
 42
2.3585415194
  0
ELLIPSE
  5
559
100
AcDbEntity
  8
RACCORDO
100
AcDbEllipse
 62
7
  6
CONTINUOUS
 10
3.87925776
 20
30.0776928586
 30
0.0
 11
0.4410298232
 21
0.8975092442
 31
0.0
 40
0.607010042
 41
-0.8902711325
 42
-0.7587130969
  0
ELLIPSE
  5
55A
100
AcDbEntity
  8
RACCORDO
100
AcDbEllipse
 62
7
  6
CONTINUOUS
 10
11.3038789625
 20
26.3653822574
 30
0.0
 11
0.4410298232
 21
0.8975092442
 31
0.0
 40
0.607010042
 41
-0.8902711325
 42
-0.7587130969
  0
ELLIPSE
  5
55B
100
AcDbEntity
  8
RACCORDO
100
AcDbEllipse
 62
7
  6
CONTINUOUS
 10
7.7766458306
 20
28.1289988234
 30
0.0
 11
0.79574694
 21
0.7129684349
 31
0.0
 40
0.2882345029
 41
0.1135239366
 42
0.7807533904
  0
ELLIPSE
  5
55C
100
AcDbEntity
  8
RACCORDO
100
AcDbEllipse
 62
7
  6
CONTINUOUS
 10
15.2012670331
 20
24.4166882221
 30
0.0
 11
0.79574694
 21
0.7129684349
 31
0.0
 40
0.2882345029
 41
0.1135239366
 42
0.7807533904
  0
ELLIPSE
  5
55D
100
AcDbEntity
  8
RACCORDO
100
AcDbEllipse
 62
7
  6
CONTINUOUS
 10
3.9328133501
 20
30.0509150636
 30
0.0
 11
-0.3106730325
 21
1.1082908718
 31
0.0
 40
0.6760995073
 41
4.9783291412
 42
6.4001141399
  0
ELLIPSE
  5
55E
100
AcDbEntity
  8
RACCORDO
100
AcDbEllipse
 62
7
  6
CONTINUOUS
 10
11.3574345525
 20
26.3386044624
 30
0.0
 11
-0.3106730325
 21
1.1082908718
 31
0.0
 40
0.6760995073
 41
4.9783291412
 42
6.4001141399
  0
ELLIPSE
  5
55F
100
AcDbEntity
  8
RACCORDO
100
AcDbEllipse
 62
7
  6
CONTINUOUS
 10
-5.0506400911
 20
24.082752895
 30
0.0
 11
1.2141619185
 21
0.9541526469
 31
0.0
 40
0.2329077568
 41
0.1095198182
 42
0.114024621
  0
ELLIPSE
  5
560
100
AcDbEntity
  8
0
100
AcDbEllipse
 62
7
  6
CONTINUOUS
 10
9.7202837986
 20
24.5403559076
 30
0.0
 11
3.3022643479
 21
-0.04629945
 31
0.0
 40
0.4892378494
 41
2.3616770883
 42
5.5059722822
  0
ELLIPSE
  5
561
100
AcDbEntity
  8
DRAFT
100
AcDbEllipse
 62
7
  6
CONTINUOUS
 10
2.9909471265
 20
27.3570473642
 30
0.0
 11
2.7583876426
 21
-0.0130411979
 31
0.0
 40
0.4964289597
 41
0.1874063655
 42
2.3585415194
  0
ELLIPSE
  5
562
100
AcDbEntity
  8
DRAFT
100
AcDbEllipse
 62
7
  6
CONTINUOUS
 10
10.415568329
 20
23.644736763
 30
0.0
 11
2.7583876426
 21
-0.0130411979
 31
0.0
 40
0.4964289597
 41
0.1874063655
 42
2.3585415194
  0
ELLIPSE
  5
563
100
AcDbEntity
  8
RACCORDO
100
AcDbEllipse
 62
7
  6
CONTINUOUS
 10
118.0307777842
 20
70.1597798768
 30
0.0
 11
111.4440378013
 21
57.7233873698
 31
0.0
 40
0.017156689
 41
2.654821495
 42
2.7151730237
  0
ELLIPSE
  5
564
100
AcDbEntity
  8
RACCORDO
100
AcDbEllipse
 62
7
  6
CONTINUOUS
 10
118.0307777842
 20
70.1597798768
 30
0.0
 11
111.4440378013
 21
57.7233873698
 31
0.0
 40
0.017156689
 41
-2.6886235892
 42
-2.6725939333
  0
ELLIPSE
  5
565
100
AcDbEntity
  8
RACCORDO
100
AcDbEllipse
 62
7
  6
CONTINUOUS
 10
118.0307777842
 20
58.4684369257
 30
0.0
 11
111.4440378013
 21
57.7233873698
 31
0.0
 40
0.017156689
 41
2.654821495
 42
2.6657856084
  0
ELLIPSE
  5
566
100
AcDbEntity
  8
RACCORDO
100
AcDbEllipse
 62
7
  6
CONTINUOUS
 10
118.0307777842
 20
58.4684369257
 30
0.0
 11
111.4440378013
 21
57.7233873698
 31
0.0
 40
0.017156689
 41
-2.6835580467
 42
-2.6725939333
  0
ELLIPSE
  5
567
100
AcDbEntity
  8
0
100
AcDbEllipse
 62
7
  6
CONTINUOUS
 10
2.2956625962
 20
28.2526665088
 30
0.0
 11
3.3022643479
 21
-0.04629945
 31
0.0
 40
0.4892378494
 41
2.3616770883
 42
5.5059722822
  0
ELLIPSE
  5
568
100
AcDbEntity
  8
ASSI
100
AcDbEllipse
 62
7
  6
CONTINUOUS
 10
12.3689893193
 20
-28.7731820147
 30
0.0
 11
-0.264201852
 21
0.7553638493
 31
0.0
 40
0.6685523073
 41
-3.1633359878
 42
-2.1740847918
  0
ELLIPSE
  5
569
100
AcDbEntity
  8
ASSI
100
AcDbEllipse
 62
7
  6
CONTINUOUS
 10
15.9969206242
 20
9.2284787908
 30
0.0
 11
-0.2639281287
 21
0.7552183666
 31
0.0
 40
0.6689328784
 41
-2.1734957081
 42
-0.6030039678
  0
ELLIPSE
  5
56A
100
AcDbEntity
  8
CURVE
100
AcDbEllipse
 62
253
  6
CONTINUOUS
 10
187.4756310619
 20
77.758836563
 30
0.0
 11
-204.3415896797
 21
368.7817787096
 31
0.0
 40
0.5235362911
 41
1.5188653572
 42
1.5205332498
  0
ELLIPSE
  5
56B
100
AcDbEntity
  8
CURVE
100
AcDbEllipse
 62
253
  6
CONTINUOUS
 10
205.8604062849
 20
68.5664489515
 30
0.0
 11
316.924256674
 21
175.607409681
 31
0.0
 40
0.1307566458
 41
2.2703001443
 42
2.2719687614
  0
ELLIPSE
  5
56C
100
AcDbEntity
  8
CURVE
100
AcDbEllipse
 62
253
  6
CONTINUOUS
 10
184.4704272366
 20
79.2614384756
 30
0.0
 11
-204.3415896797
 21
368.7817787096
 31
0.0
 40
0.5235362911
 41
1.5288744426
 42
1.5305430597
  0
ELLIPSE
  5
56D
100
AcDbEntity
  8
CURVE
100
AcDbEllipse
 62
253
  6
CONTINUOUS
 10
192.5137668147
 20
75.2397686866
 30
0.0
 11
-56.3883676372
 21
329.9930463972
 31
0.0
 40
0.6610523724
 41
-4.5638415439
 42
-4.5521638413
  0
ELLIPSE
  5
56E
100
AcDbEntity
  8
CURVE
100
AcDbEllipse
 62
253
  6
CONTINUOUS
 10
183.6749310199
 20
79.659186584
 30
0.0
 11
316.9242910294
 21
175.607393575
 31
0.0
 40
0.1307565694
 41
2.1735957313
 42
2.1752643483
  0
ELLIPSE
  5
56F
100
AcDbEntity
  8
CURVE
100
AcDbEllipse
 62
253
  6
CONTINUOUS
 10
205.0649122439
 20
68.964195972
 30
0.0
 11
-204.3415896797
 21
368.7817787096
 31
0.0
 40
0.5235362911
 41
1.4321700654
 42
1.4338386823
  0
ELLIPSE
  5
570
100
AcDbEntity
  8
CURVE
100
AcDbEllipse
 62
253
  6
CONTINUOUS
 10
186.6801367629
 20
78.1565837125
 30
0.0
 11
316.924256674
 21
175.607409681
 31
0.0
 40
0.1307566458
 41
2.1836055768
 42
2.1852734696
  0
ELLIPSE
  5
571
100
AcDbEntity
  8
CURVE
100
AcDbEllipse
 62
253
  6
CONTINUOUS
 10
202.0597084186
 20
70.4667978846
 30
0.0
 11
-204.3415896797
 21
368.7817787096
 31
0.0
 40
0.5235362911
 41
1.4421798751
 42
1.4438477679
  0
ELLIPSE
  5
572
100
AcDbEntity
  8
CURVE
100
AcDbEllipse
 62
253
  6
CONTINUOUS
 10
202.8552043772
 20
70.0690499053
 30
0.0
 11
316.9242910294
 21
175.607393575
 31
0.0
 40
0.1307565694
 41
2.2602910231
 42
2.2619589158
  0
ELLIPSE
  5
573
100
AcDbEntity
  8
RACCORDO
100
AcDbEllipse
 62
7
  6
CONTINUOUS
 10
12.3689893193
 20
-28.7731820147
 30
0.0
 11
-0.264201852
 21
0.7553638493
 31
0.0
 40
0.6685523073
 41
-3.1633743208
 42
-2.1740847918
  0
ELLIPSE
  5
574
100
AcDbEntity
  8
RACCORDO
100
AcDbEllipse
 62
7
  6
CONTINUOUS
 10
15.9969206242
 20
9.2284787908
 30
0.0
 11
-0.2639281287
 21
0.7552183666
 31
0.0
 40
0.6689328784
 41
-2.1734957081
 42
-0.6030039678
  0
ENDSEC
  0
SECTION
  2
OBJECTS
  0
DICTIONARY
  5
C
100
AcDbDictionary
280
0
281
1
  3
ACAD_GROUP
350
D
  3
ACAD_MLINESTYLE
350
17
  3
ACAD_LAYOUT
350
1A
  3
ACAD_PLOTSETTINGS
350
19
  3
ACAD_PLOTSTYLENAME
350
E
  0
DICTIONARY
  5
D
102
{ACAD_REACTORS
330
C
102
}
100
AcDbDictionary
280
0
281
1
  0
ACDBDICTIONARYWDFLT
  5
E
102
{ACAD_REACTORS
330
C
102
}
100
AcDbDictionary
281
1
  3
Normal
350
F
100
AcDbDictionaryWithDefault
340
F
  0
DICTIONARY
  5
17
102
{ACAD_REACTORS
330
C
102
}
100
AcDbDictionary
280
0
281
1
  3
Standard
350
18
  0
DICTIONARY
  5
19
102
{ACAD_REACTORS
330
C
102
}
100
AcDbDictionary
281
1
  0
DICTIONARY
  5
1A
102
{ACAD_REACTORS
330
C
102
}
100
AcDbDictionary
281
1
  3
Model
350
575
  3
Layout1
350
576
  0
ACDBPLACEHOLDER
  5
F
102
{ACAD_REACTORS
330
E
102
}
  0
MLINESTYLE
  5
18
102
{ACAD_REACTORS
330
17
102
}
100
AcDbMlineStyle
  2
STANDARD
 70
0
  3

 62
256
 51
90.0
 52
90.0
 71
2
 49
0.5
 62
256
  6
BYLAYER
 49
-0.5
 62
256
  6
BYLAYER
  0
LAYOUT
  5
575
102
{ACAD_REACTORS
330
1A
102
}
100
AcDbPlotSettings
  1

  2
none_device
  4
ISO_A4_(297.00_x_210.00_MM)
  6

 40
0.0
 41
0.0
 42
0.0
 43
0.0
 44
297.0
 45
210.0
 46
0.0
 47
0.0
 48
0.0
 49
0.0
140
0.0
141
0.0
142
1.0
143
1.0
 70
1024
 72
1
 73
0
 74
0
  7

 75
0
147
1.0
148
0.0
149
0.0
100
AcDbLayout
  1
Model
 70
0
 71
0
 10
0.0
 20
0.0
 11
297.0
 21
210.0
 12
0.0
 22
0.0
 32
0.0
 14
0.0
 24
0.0
 34
0.0
 15
0.0
 25
0.0
 35
0.0
146
0.0
 13
0.0
 23
0.0
 33
0.0
 16
1.0
 26
0.0
 36
0.0
 17
0.0
 27
1.0
 37
0.0
 76
0
330
21A
345
0
346
0
  0
LAYOUT
  5
576
102
{ACAD_REACTORS
330
1A
102
}
100
AcDbPlotSettings
  1

  2
none_device
  4
ISO_A4_(297.00_x_210.00_MM)
  6

 40
0.0
 41
0.0
 42
0.0
 43
0.0
 44
297.0
 45
210.0
 46
0.0
 47
0.0
 48
0.0
 49
0.0
140
0.0
141
0.0
142
1.0
143
1.0
 70
0
 72
1
 73
0
 74
0
  7

 75
0
147
1.0
148
0.0
149
0.0
100
AcDbLayout
  1
Layout1
 70
0
 71
1
 10
0.0
 20
0.0
 11
297.0
 21
210.0
 12
0.0
 22
0.0
 32
0.0
 14
0.0
 24
0.0
 34
0.0
 15
0.0
 25
0.0
 35
0.0
146
0.0
 13
0.0
 23
0.0
 33
0.0
 16
1.0
 26
0.0
 36
0.0
 17
0.0
 27
1.0
 37
0.0
 76
0
330
21B
345
0
346
0
  0
ENDSEC
  0
EOF
