  0
SECTION
  2
HEADER
  9
$ACADVER
  1
AC1015
  9
$DWGCODEPAGE
  3
ANSI_1252
  9
$EXTMAX
 10
297.0
 20
210.0
 30
0.0
  9
$EXTMIN
 10
0.0
 20
0.0
 30
0.0
  9
$LIMMIN
 10
0.0
 20
0.0
  9
$LIMMAX
 10
297.0
 20
210.0
  9
$VIEWCTR
 10
148.5
 20
105.0
  9
$VIEWSIZE
 40
210.0
  9
$CLAYER
  8
0
  9
$LTSCALE
 40
16.335
  9
$CELTYPE
  6
BYLAYER
  9
$DIMSCALE
 40
1.0
  9
$DIMASZ
 40
3.0
  9
$DIMEXO
 40
1.85625
  9
$DIMDLI
 40
11.286
  9
$DIMEXE
 40
5.346
  9
$DIMCEN
 40
2.673
  9
$DIMLFAC
 40
1.0
  9
$DIMBLK
  1
_FILLED
  9
$DIMTXT
 40
3.0
  9
$DIMTOL
 70
1
  9
$DIMLIM
 70
0
  9
$DIMTFAC
 40
1.0
  9
$DIMTP
 40
0.01
  9
$DIMTM
 40
0.01
  9
$PDMODE
 70
3
  9
$PDSIZE
 40
3.0
  9
$HANDSEED
  5
46D
  9
$TILEMODE
 70
1
  9
$MEASUREMENT
 70
1
  9
$INSUNITS
 70
4
  0
ENDSEC
  0
SECTION
  2
CLASSES
  0
CLASS
  1
ACDBDICTIONARYWDFLT
  2
AcDbDictionaryWithDefault
  3
AutoCAD 2000
 90
0
280
0
281
0
  0
CLASS
  1
ACDBPLACEHOLDER
  2
AcDbPlaceHolder
  3
AutoCAD 2000
 90
0
280
0
281
0
  0
CLASS
  1
LAYOUT
  2
AcDbLayout
  3
AutoCAD 2000
 90
0
280
0
281
0
  0
ENDSEC
  0
SECTION
  2
TABLES
  0
TABLE
  2
VPORT
  5
8
100
AcDbSymbolTable
 70
2
  0
VPORT
  5
1F4
100
AcDbSymbolTableRecord
100
AcDbViewportTableRecord
  2
*ACTIVE
 70
0
 10
0.0
 20
0.0
 11
1.0
 21
1.0
 12
148.5
 22
105.0
 13
0.0
 23
0.0
 14
1.0
 24
1.0
 15
0.0
 25
0.0
 16
0.0
 26
0.0
 36
1.0
 17
0.0
 27
0.0
 37
0.0
 40
210.0
 41
1.4142857143
 42
50.0
 43
0.0
 44
0.0
 50
0.0
 51
0.0
 71
0
 72
100
 73
1
 74
1
 75
0
 76
0
 77
0
 78
0
  0
ENDTAB
  0
TABLE
  2
LTYPE
  5
5
100
AcDbSymbolTable
 70
6
  0
LTYPE
  5
14
100
AcDbSymbolTableRecord
100
AcDbLinetypeTableRecord
  2
BYBLOCK
 70
0
  3

 72
65
 73
0
 40
0.0
  0
LTYPE
  5
15
100
AcDbSymbolTableRecord
100
AcDbLinetypeTableRecord
  2
BYLAYER
 70
0
  3

 72
65
 73
0
 40
0.0
  0
LTYPE
  5
16
100
AcDbSymbolTableRecord
100
AcDbLinetypeTableRecord
  2
CONTINUOUS
 70
64
  3
Solid line
 72
65
 73
0
 40
0.0
  0
LTYPE
  5
1F5
100
AcDbSymbolTableRecord
100
AcDbLinetypeTableRecord
  2
CENTER
 70
64
  3
____ _ ____ _ ____ _ ____ _ ____ _ ____ _ ____
 72
65
 73
4
 40
0.6
 49
0.375
 74
0
 49
-0.075
 74
0
 49
0.075
 74
0
 49
-0.075
 74
0
  0
LTYPE
  5
1F6
100
AcDbSymbolTableRecord
100
AcDbLinetypeTableRecord
  2
HIDDEN
 70
64
  3
- - - - - - - - - - - - - - - - - - - -
 72
65
 73
2
 40
0.2
 49
0.1
 74
0
 49
-0.1
 74
0
  0
LTYPE
  5
1F7
100
AcDbSymbolTableRecord
100
AcDbLinetypeTableRecord
  2
PHANTOM
 70
64
  3
_____ _ _ _____ _ _ _____ _ _ _____
 72
65
 73
6
 40
0.8
 49
0.45
 74
0
 49
-0.05
 74
0
 49
0.1
 74
0
 49
-0.05
 74
0
 49
0.1
 74
0
 49
-0.05
 74
0
  0
LTYPE
  5
1F8
100
AcDbSymbolTableRecord
100
AcDbLinetypeTableRecord
  2
DOT
 70
64
  3
. . . . . . . . . . . . . . . . . . . .
 72
65
 73
2
 40
0.2
 49
0.1
 74
0
 49
-0.1
 74
0
  0
LTYPE
  5
1F9
100
AcDbSymbolTableRecord
100
AcDbLinetypeTableRecord
  2
DASHED
 70
64
  3
- - - - - - - - - - - - - - - - - - - -
 72
65
 73
2
 40
0.2
 49
0.1
 74
0
 49
-0.1
 74
0
  0
ENDTAB
  0
TABLE
  2
LAYER
  5
2
100
AcDbSymbolTable
 70
36
  0
LAYER
  5
10
100
AcDbSymbolTableRecord
100
AcDbLayerTableRecord
  2
0
 70
0
 62
7
  6
CONTINUOUS
370
-3
390
F
  0
LAYER
  5
1FA
100
AcDbSymbolTableRecord
100
AcDbLayerTableRecord
  2
DEFAULT_1
 70
0
 62
7
  6
CENTER
370
-3
390
F
  0
LAYER
  5
1FB
100
AcDbSymbolTableRecord
100
AcDbLayerTableRecord
  2
DEFAULT_2
 70
0
 62
7
  6
HIDDEN
370
-3
390
F
  0
LAYER
  5
1FC
100
AcDbSymbolTableRecord
100
AcDbLayerTableRecord
  2
DEFAULT_3
 70
0
 62
7
  6
PHANTOM
370
-3
390
F
  0
LAYER
  5
1FD
100
AcDbSymbolTableRecord
100
AcDbLayerTableRecord
  2
ASSI
 70
0
 62
7
  6
CONTINUOUS
370
-3
390
F
  0
LAYER
  5
1FE
100
AcDbSymbolTableRecord
100
AcDbLayerTableRecord
  2
COLORE_TOP
 70
0
 62
7
  6
CONTINUOUS
370
-3
390
F
  0
LAYER
  5
1FF
100
AcDbSymbolTableRecord
100
AcDbLayerTableRecord
  2
COORDINATE
 70
0
 62
7
  6
CONTINUOUS
370
-3
390
F
  0
LAYER
  5
200
100
AcDbSymbolTableRecord
100
AcDbLayerTableRecord
  2
COORD_ORIGINE
 70
0
 62
7
  6
CONTINUOUS
370
-3
390
F
  0
LAYER
  5
201
100
AcDbSymbolTableRecord
100
AcDbLayerTableRecord
  2
COPY_PUBLISH
 70
0
 62
7
  6
CONTINUOUS
370
-3
390
F
  0
LAYER
  5
202
100
AcDbSymbolTableRecord
100
AcDbLayerTableRecord
  2
COSMETIC
 70
0
 62
7
  6
CONTINUOUS
370
-3
390
F
  0
LAYER
  5
203
100
AcDbSymbolTableRecord
100
AcDbLayerTableRecord
  2
COSMETICHE
 70
0
 62
7
  6
CONTINUOUS
370
-3
390
F
  0
LAYER
  5
204
100
AcDbSymbolTableRecord
100
AcDbLayerTableRecord
  2
CURVE
 70
0
 62
7
  6
CONTINUOUS
370
-3
390
F
  0
LAYER
  5
205
100
AcDbSymbolTableRecord
100
AcDbLayerTableRecord
  2
DRAFT
 70
0
 62
7
  6
CONTINUOUS
370
-3
390
F
  0
LAYER
  5
206
100
AcDbSymbolTableRecord
100
AcDbLayerTableRecord
  2
IMPORT
 70
0
 62
7
  6
CONTINUOUS
370
-3
390
F
  0
LAYER
  5
207
100
AcDbSymbolTableRecord
100
AcDbLayerTableRecord
  2
IMPORTED
 70
0
 62
7
  6
CONTINUOUS
370
-3
390
F
  0
LAYER
  5
208
100
AcDbSymbolTableRecord
100
AcDbLayerTableRecord
  2
IMPORT_IGES
 70
0
 62
7
  6
CONTINUOUS
370
-3
390
F
  0
LAYER
  5
209
100
AcDbSymbolTableRecord
100
AcDbLayerTableRecord
  2
NOTE
 70
0
 62
7
  6
CONTINUOUS
370
-3
390
F
  0
LAYER
  5
20A
100
AcDbSymbolTableRecord
100
AcDbLayerTableRecord
  2
PIANI
 70
0
 62
7
  6
CONTINUOUS
370
-3
390
F
  0
LAYER
  5
20B
100
AcDbSymbolTableRecord
100
AcDbLayerTableRecord
  2
PIANI_DI_RIFERIMENTO
 70
0
 62
7
  6
CONTINUOUS
370
-3
390
F
  0
LAYER
  5
20C
100
AcDbSymbolTableRecord
100
AcDbLayerTableRecord
  2
PIANI_ORIGINE
 70
0
 62
7
  6
CONTINUOUS
370
-3
390
F
  0
LAYER
  5
20D
100
AcDbSymbolTableRecord
100
AcDbLayerTableRecord
  2
PIANI_RIFERIMENTO
 70
0
 62
7
  6
CONTINUOUS
370
-3
390
F
  0
LAYER
  5
20E
100
AcDbSymbolTableRecord
100
AcDbLayerTableRecord
  2
PIANI_SFORMO
 70
0
 62
7
  6
CONTINUOUS
370
-3
390
F
  0
LAYER
  5
20F
100
AcDbSymbolTableRecord
100
AcDbLayerTableRecord
  2
PUNTI
 70
0
 62
7
  6
CONTINUOUS
370
-3
390
F
  0
LAYER
  5
210
100
AcDbSymbolTableRecord
100
AcDbLayerTableRecord
  2
RACCORDO
 70
0
 62
7
  6
CONTINUOUS
370
-3
390
F
  0
LAYER
  5
211
100
AcDbSymbolTableRecord
100
AcDbLayerTableRecord
  2
SCRITTE
 70
0
 62
7
  6
CONTINUOUS
370
-3
390
F
  0
LAYER
  5
212
100
AcDbSymbolTableRecord
100
AcDbLayerTableRecord
  2
SMUSSO
 70
0
 62
7
  6
CONTINUOUS
370
-3
390
F
  0
LAYER
  5
213
100
AcDbSymbolTableRecord
100
AcDbLayerTableRecord
  2
SNAPLINE
 70
0
 62
7
  6
CONTINUOUS
370
-3
390
F
  0
LAYER
  5
214
100
AcDbSymbolTableRecord
100
AcDbLayerTableRecord
  2
SUPERFICI
 70
0
 62
7
  6
CONTINUOUS
370
-3
390
F
  0
LAYER
  5
215
100
AcDbSymbolTableRecord
100
AcDbLayerTableRecord
  2
TRASH
 70
0
 62
7
  6
CONTINUOUS
370
-3
390
F
  0
LAYER
  5
216
100
AcDbSymbolTableRecord
100
AcDbLayerTableRecord
  2
XSEC_DATUMS
 70
0
 62
7
  6
CONTINUOUS
370
-3
390
F
  0
ENDTAB
  0
TABLE
  2
STYLE
  5
3
100
AcDbSymbolTable
 70
1
  0
STYLE
  5
11
100
AcDbSymbolTableRecord
100
AcDbTextStyleTableRecord
  2
STANDARD
 70
0
 40
0.0
 41
0.8
 50
0.0
 71
0
 42
0.2
  3
txt
  4

  0
STYLE
  5
217
100
AcDbSymbolTableRecord
100
AcDbTextStyleTableRecord
  2
TEXTSTYLE_1
 70
0
 40
0.0
 41
0.8
 50
0.0
 71
0
 42
0.2
  3
gdt
  4

  0
ENDTAB
  0
TABLE
  2
VIEW
  5
6
100
AcDbSymbolTable
 70
0
  0
ENDTAB
  0
TABLE
  2
UCS
  5
7
100
AcDbSymbolTable
 70
0
  0
ENDTAB
  0
TABLE
  2
APPID
  5
9
100
AcDbSymbolTable
 70
1
  0
APPID
  5
218
100
AcDbSymbolTableRecord
100
AcDbRegAppTableRecord
  2
ACAD
 70
0
  0
ENDTAB
  0
TABLE
  2
BLOCK_RECORD
  5
1
100
AcDbSymbolTable
 70
0
  0
BLOCK_RECORD
  5
219
100
AcDbSymbolTableRecord
100
AcDbBlockTableRecord
  2
*Model_Space
  0
BLOCK_RECORD
  5
21A
100
AcDbSymbolTableRecord
100
AcDbBlockTableRecord
  2
*Paper_Space
  0
ENDTAB
  0
TABLE
  2
DIMSTYLE
  5
A
100
AcDbSymbolTable
 70
1
100
AcDbDimStyleTable
 71
0
  0
DIMSTYLE
105
21B
100
AcDbSymbolTableRecord
100
AcDbDimStyleTableRecord
  2
STANDARD
 70
0
  3

  4

 40
1.0
 41
3.0
 42
0.0625
 43
0.38
 44
0.18
 45
0.0
 46
0.0
 47
0.01
 48
0.01
140
3.0
141
0.09
142
0.0
143
25.4
144
1.0
145
0.0
146
1.0
147
0.09
 71
1.0
 72
0.0
 73
0
 74
0
 75
0
 76
0
 77
1
 78
8
170
0
171
2
172
0
173
0
174
0
175
0
176
0
177
0
178
0
270
2
271
2
272
2
273
2
274
2
275
0
280
0
281
0
282
0
283
1
284
8
285
0
286
0
287
3
288
0
340
11
  0
ENDTAB
  0
ENDSEC
  0
SECTION
  2
BLOCKS
  0
BLOCK
  5
20
100
AcDbEntity
  8
0
100
AcDbBlockBegin
  2
*Model_Space
 70
0
 10
0.0
 20
0.0
 30
0.0
  3
*Model_Space
  1

  0
ENDBLK
  5
21
100
AcDbEntity
  8
0
100
AcDbBlockEnd
  0
BLOCK
  5
1C
100
AcDbEntity
  8
0
100
AcDbBlockBegin
  2
*Paper_Space
 70
0
 10
0.0
 20
0.0
 30
0.0
  3
*Paper_Space
  1

  0
ENDBLK
  5
1D
100
AcDbEntity
  8
0
100
AcDbBlockEnd
  0
ENDSEC
  0
SECTION
  2
ENTITIES
  0
LWPOLYLINE
  5
21C
100
AcDbEntity
  8
ASSI
100
AcDbPolyline
 62
7
  6
CONTINUOUS
 90
16
 70
0
 10
-22.0651251893
 20
19.8055250233
 10
-22.1067307048
 20
19.7746750438
 10
-22.2037882808
 20
19.6936492207
 10
-22.2945949669
 20
19.6049099556
 10
-22.3795155631
 20
19.5085732019
 10
-22.4582252583
 20
19.4052167917
 10
-22.5297702903
 20
19.2964159715
 10
-22.5941050589
 20
19.1825103723
 10
-22.6510389715
 20
19.0638359369
 10
-22.6996393191
 20
18.9423442996
 10
-22.7397914859
 20
18.8184136568
 10
-22.7712637425
 20
18.6922993722
 10
-22.7934532302
 20
18.5657421056
 10
-22.8061208196
 20
18.4393727246
 10
-22.8089901238
 20
18.3129946099
 10
-22.8075314847
 20
18.2674980078
  0
LINE
  5
21D
100
AcDbEntity
  8
ASSI
100
AcDbLine
 62
7
  6
CONTINUOUS
 10
-22.0653304639
 20
19.8053906525
 11
-18.1399250759
 21
22.6128521319
  0
LINE
  5
21E
100
AcDbEntity
  8
ASSI
100
AcDbLine
 62
253
  6
CONTINUOUS
 10
-21.6835584173
 20
19.7980897613
 11
-17.764032484
 21
22.6013462374
  0
LINE
  5
21F
100
AcDbEntity
  8
RACCORDO
100
AcDbLine
 62
7
  6
CONTINUOUS
 10
-14.7980616794
 20
26.3453892527
 11
-13.2153050763
 21
27.15737335
  0
LINE
  5
220
100
AcDbEntity
  8
RACCORDO
100
AcDbLine
 62
7
  6
CONTINUOUS
 10
-15.2820167918
 20
24.6026888507
 11
-14.2697945077
 21
25.1196188133
  0
LINE
  5
221
100
AcDbEntity
  8
RACCORDO
100
AcDbLine
 62
253
  6
CONTINUOUS
 10
-15.1244933855
 20
24.5932555211
 11
-14.2697945077
 21
25.029740141
  0
LINE
  5
222
100
AcDbEntity
  8
RACCORDO
100
AcDbLine
 62
7
  6
CONTINUOUS
 10
-13.1902402704
 20
25.5414785482
 11
-11.5889594796
 21
26.3442005517
  0
LINE
  5
223
100
AcDbEntity
  8
RACCORDO
100
AcDbLine
 62
7
  6
CONTINUOUS
 10
-11.5889594796
 20
26.3442005517
 11
-11.0606923078
 21
26.6076393717
  0
LINE
  5
224
100
AcDbEntity
  8
RACCORDO
100
AcDbLine
 62
7
  6
CONTINUOUS
 10
-13.2153050763
 20
27.15737335
 11
-12.6808551976
 21
27.4177208166
  0
LWPOLYLINE
  5
225
100
AcDbEntity
  8
ASSI
100
AcDbPolyline
 62
7
  6
CONTINUOUS
 90
15
 70
0
 10
-4.372309452
 20
-22.9074629659
 10
-4.349871344
 20
-22.9183797546
 10
-4.2680423664
 20
-22.9529741835
 10
-4.1835492677
 20
-22.9807531662
 10
-4.0967925172
 20
-23.0015746694
 10
-4.0077820367
 20
-23.0153699163
 10
-3.9170338489
 20
-23.0219560003
 10
-3.8251586111
 20
-23.0211992603
 10
-3.7321997227
 20
-23.0129639681
 10
-3.6385949911
 20
-22.9971099686
 10
-3.5449195775
 20
-22.9735836529
 10
-3.4512592014
 20
-22.9422070953
 10
-3.3578789503
 20
-22.9027889952
 10
-3.2653756409
 20
-22.8553296404
 10
-3.2383408679
 20
-22.8397989028
  0
LINE
  5
226
100
AcDbEntity
  8
ASSI
100
AcDbLine
 62
7
  6
CONTINUOUS
 10
-4.3714932577
 20
-22.9078794187
 11
-18.7072015264
 21
-15.7400252844
  0
LINE
  5
227
100
AcDbEntity
  8
DRAFT
100
AcDbLine
 62
7
  6
CONTINUOUS
 10
-11.5889594796
 20
24.6121497441
 11
-12.6557903917
 21
24.0735684946
  0
LINE
  5
228
100
AcDbEntity
  8
RACCORDO
100
AcDbLine
 62
7
  6
CONTINUOUS
 10
-10.133178503
 20
24.5838083478
 11
-3.6251418763
 21
27.8249499534
  0
LINE
  5
229
100
AcDbEntity
  8
RACCORDO
100
AcDbLine
 62
253
  6
CONTINUOUS
 10
-10.0576853625
 20
24.5460617776
 11
-3.7431450359
 21
27.6908380821
  0
LINE
  5
22A
100
AcDbEntity
  8
RACCORDO
100
AcDbLine
 62
7
  6
CONTINUOUS
 10
1.8632328042
 20
-21.5118291646
 11
2.3904775199
 21
-21.6201214365
  0
LINE
  5
22B
100
AcDbEntity
  8
ASSI
100
AcDbLine
 62
253
  6
CONTINUOUS
 10
-4.7458804652
 20
-22.3304305319
 11
-19.0743607999
 21
-15.1661903646
  0
LINE
  5
22C
100
AcDbEntity
  8
RACCORDO
100
AcDbLine
 62
7
  6
CONTINUOUS
 10
-1.5438758188
 20
-22.5830333494
 11
0.0626602787
 21
-23.3863013981
  0
LINE
  5
22D
100
AcDbEntity
  8
RACCORDO
100
AcDbLine
 62
253
  6
CONTINUOUS
 10
-1.6084692975
 20
-22.4480048081
 11
-0.0026928354
 21
-23.2508930392
  0
LINE
  5
22E
100
AcDbEntity
  8
RACCORDO
100
AcDbLine
 62
253
  6
CONTINUOUS
 10
-0.0026928354
 20
-22.9975216454
 11
-1.6084692975
 21
-22.1946334143
  0
LINE
  5
22F
100
AcDbEntity
  8
RACCORDO
100
AcDbLine
 62
253
  6
CONTINUOUS
 10
0.0862097406
 20
-22.7660845858
 11
-1.5205951783
 21
-21.9626821263
  0
LWPOLYLINE
  5
230
100
AcDbEntity
  8
ASSI
100
AcDbPolyline
 62
7
  6
CONTINUOUS
 90
13
 70
0
 10
-22.8075509162
 20
18.2677705813
 10
-22.6627548068
 20
15.4619094343
 10
-22.4885550599
 20
12.6094279525
 10
-22.2879078315
 20
9.7733388296
 10
-22.0608376493
 20
6.9540489756
 10
-21.807373946
 20
4.1519125148
 10
-21.5275462861
 20
1.3672629778
 10
-21.2213866486
 20
-1.3995518267
 10
-20.8889323462
 20
-4.1481876204
 10
-20.5302199811
 20
-6.8783157333
 10
-20.1452902338
 20
-9.5895900946
 10
-19.7341984478
 20
-12.2816249847
 10
-19.3076795007
 20
-14.8908447621
  0
LINE
  5
231
100
AcDbEntity
  8
RACCORDO
100
AcDbLine
 62
7
  6
CONTINUOUS
 10
-10.9738406446
 20
25.986641785
 11
-11.5010853603
 21
25.344934057
  0
LINE
  5
232
100
AcDbEntity
  8
RACCORDO
100
AcDbLine
 62
7
  6
CONTINUOUS
 10
-9.3245650482
 20
24.1926435542
 11
-8.8312430329
 21
24.4457270861
  0
LINE
  5
233
100
AcDbEntity
  8
RACCORDO
100
AcDbLine
 62
7
  6
CONTINUOUS
 10
-2.7501247147
 20
26.8110945513
 11
-7.4877401487
 21
24.4760440367
  0
LINE
  5
234
100
AcDbEntity
  8
RACCORDO
100
AcDbLine
 62
7
  6
CONTINUOUS
 10
-3.1743887834
 20
25.3716629491
 11
-2.7501247147
 21
25.5792603699
  0
LINE
  5
235
100
AcDbEntity
  8
RACCORDO
100
AcDbLine
 62
7
  6
CONTINUOUS
 10
-8.8312430329
 20
24.4457270861
 11
-3.3536030434
 21
27.1140590493
  0
LINE
  5
236
100
AcDbEntity
  8
RACCORDO
100
AcDbLine
 62
7
  6
CONTINUOUS
 10
3.8061805127
 20
29.9013611116
 11
0.2331068142
 21
28.1959277947
  0
LINE
  5
237
100
AcDbEntity
  8
RACCORDO
100
AcDbLine
 62
7
  6
CONTINUOUS
 10
2.8348979043
 20
30.1999629755
 11
-2.8796875491
 21
27.5049803068
  0
LINE
  5
238
100
AcDbEntity
  8
RACCORDO
100
AcDbLine
 62
253
  6
CONTINUOUS
 10
3.2737826548
 20
30.1675600405
 11
-2.633309976
 21
27.3817915203
  0
LINE
  5
239
100
AcDbEntity
  8
RACCORDO
100
AcDbLine
 62
7
  6
CONTINUOUS
 10
-0.7322561473
 20
-21.3630127415
 11
0.1490130881
 21
-21.8036473593
  0
LINE
  5
23A
100
AcDbEntity
  8
DRAFT
100
AcDbLine
 62
7
  6
CONTINUOUS
 10
0.7085277727
 20
-22.0210251683
 11
0.2992627764
 21
-21.8163926702
  0
LINE
  5
23B
100
AcDbEntity
  8
ASSI
100
AcDbLine
 62
7
  6
CONTINUOUS
 10
-0.4315851716
 20
-21.1858322909
 11
0.3965004616
 21
-21.5998751075
  0
LINE
  5
23C
100
AcDbEntity
  8
CURVE
100
AcDbLine
 62
253
  6
CONTINUOUS
 10
-13.8946705872
 20
-14.3110191288
 11
-13.510812563
 21
-14.5029481409
  0
LINE
  5
23D
100
AcDbEntity
  8
CURVE
100
AcDbLine
 62
253
  6
CONTINUOUS
 10
-11.2076647386
 20
-15.6545220531
 11
-10.8238069547
 21
-15.8464509451
  0
LINE
  5
23E
100
AcDbEntity
  8
CURVE
100
AcDbLine
 62
253
  6
CONTINUOUS
 10
-12.551167783
 20
-14.9827705309
 11
-12.935025727
 21
-14.7908415589
  0
LINE
  5
23F
100
AcDbEntity
  8
CURVE
100
AcDbLine
 62
253
  6
CONTINUOUS
 10
-14.1692531249
 20
-13.6767375149
 11
-13.5934661288
 21
-13.964631013
  0
LINE
  5
240
100
AcDbEntity
  8
CURVE
100
AcDbLine
 62
253
  6
CONTINUOUS
 10
-13.0176792928
 20
-14.252524431
 11
-12.6338213487
 21
-14.444453403
  0
LINE
  5
241
100
AcDbEntity
  8
CURVE
100
AcDbLine
 62
253
  6
CONTINUOUS
 10
-11.4822475166
 20
-15.0202403191
 11
-10.9064605204
 21
-15.3081338171
  0
LINE
  5
242
100
AcDbEntity
  8
RACCORDO
100
AcDbLine
 62
253
  6
CONTINUOUS
 10
1.8632328042
 20
-21.5118291646
 11
1.8198104782
 21
-21.4901180016
  0
LINE
  5
243
100
AcDbEntity
  8
0
100
AcDbLine
 62
7
  6
CONTINUOUS
 10
0.427197242
 20
-20.6797659681
 11
1.2096732599
 21
-21.071003977
  0
LINE
  5
244
100
AcDbEntity
  8
RACCORDO
100
AcDbLine
 62
253
  6
CONTINUOUS
 10
1.7753586849
 20
-21.3125620191
 11
2.3904775199
 21
-21.6201214365
  0
LINE
  5
245
100
AcDbEntity
  8
RACCORDO
100
AcDbLine
 62
7
  6
CONTINUOUS
 10
1.7753586849
 20
-21.3089418695
 11
2.4137568932
 21
-21.6281409737
  0
LINE
  5
246
100
AcDbEntity
  8
CURVE
100
AcDbLine
 62
253
  6
CONTINUOUS
 10
-13.2911805432
 20
-13.6175396617
 11
-12.8113581532
 21
-13.8574508567
  0
LINE
  5
247
100
AcDbEntity
  8
CURVE
100
AcDbLine
 62
253
  6
CONTINUOUS
 10
-10.2203169908
 20
-15.1529714379
 11
-10.6041747747
 21
-14.961042546
  0
LINE
  5
248
100
AcDbEntity
  8
CURVE
100
AcDbLine
 62
253
  6
CONTINUOUS
 10
-11.1799617708
 20
-14.6731490479
 11
-11.3718906628
 21
-14.5771846019
  0
LINE
  5
249
100
AcDbEntity
  8
CURVE
100
AcDbLine
 62
253
  6
CONTINUOUS
 10
-11.9476776589
 20
-14.2892911039
 11
-12.3315357632
 21
-14.0973620518
  0
LINE
  5
24A
100
AcDbEntity
  8
CURVE
100
AcDbLine
 62
253
  6
CONTINUOUS
 10
-13.8669675394
 20
-13.3296461637
 11
-14.0588965114
 21
-13.2336816776
  0
LINE
  5
24B
100
AcDbEntity
  8
CURVE
100
AcDbLine
 62
253
  6
CONTINUOUS
 10
-14.7306479535
 20
-12.8978059566
 11
-15.2104704236
 21
-12.6578947215
  0
LWPOLYLINE
  5
24C
100
AcDbEntity
  8
ASSI
100
AcDbPolyline
 62
7
  6
CONTINUOUS
 90
13
 70
0
 10
-19.307572793
 20
-14.8914087593
 10
-19.3008827658
 20
-14.9279147228
 10
-19.2750949789
 20
-15.0351993969
 10
-19.2413700579
 20
-15.136995706
 10
-19.2002914375
 20
-15.2326889723
 10
-19.1523180462
 20
-15.3222187335
 10
-19.0976752656
 20
-15.405734778
 10
-19.0369781514
 20
-15.4827001231
 10
-18.9708113183
 20
-15.5528209143
 10
-18.8992535685
 20
-15.6162719655
 10
-18.8227246994
 20
-15.6727558261
 10
-18.7421016378
 20
-15.7217412487
 10
-18.7064324283
 20
-15.7404012079
  0
LINE
  5
24D
100
AcDbEntity
  8
ASSI
100
AcDbLine
 62
7
  6
CONTINUOUS
 10
-19.3076795007
 20
-14.8908447621
 11
-19.3075834048
 21
-14.8914105667
  0
LINE
  5
24E
100
AcDbEntity
  8
0
100
AcDbLine
 62
7
  6
CONTINUOUS
 10
-11.5061176438
 20
20.2967581387
 11
-11.8570357011
 21
20.0685281364
  0
LINE
  5
24F
100
AcDbEntity
  8
RACCORDO
100
AcDbLine
 62
7
  6
CONTINUOUS
 10
-12.685547282
 20
20.3625923255
 11
-12.9746113104
 21
20.2066356506
  0
LINE
  5
250
100
AcDbEntity
  8
RACCORDO
100
AcDbLine
 62
253
  6
CONTINUOUS
 10
-12.2076398217
 20
20.3505563943
 11
-12.7149941733
 21
20.076827082
  0
LINE
  5
251
100
AcDbEntity
  8
RACCORDO
100
AcDbLine
 62
7
  6
CONTINUOUS
 10
4.8434725258
 20
29.3190815934
 11
0.6270927481
 21
27.1737719767
  0
LINE
  5
252
100
AcDbEntity
  8
DRAFT
100
AcDbLine
 62
7
  6
CONTINUOUS
 10
4.8495295127
 20
28.882096965
 11
0.6270927481
 21
26.7640567726
  0
LINE
  5
253
100
AcDbEntity
  8
0
100
AcDbLine
 62
7
  6
CONTINUOUS
 10
-1.4230508863
 20
25.3412203178
 11
-2.8208353928
 21
24.6423280645
  0
LINE
  5
254
100
AcDbEntity
  8
RACCORDO
100
AcDbLine
 62
7
  6
CONTINUOUS
 10
-0.764055135
 20
26.2012931316
 11
-2.8208353928
 21
25.1948862538
  0
LINE
  5
255
100
AcDbEntity
  8
RACCORDO
100
AcDbLine
 62
253
  6
CONTINUOUS
 10
-3.5987067
 20
23.8363254192
 11
-3.5612477041
 21
23.8536252248
  0
LINE
  5
256
100
AcDbEntity
  8
RACCORDO
100
AcDbLine
 62
7
  6
CONTINUOUS
 10
-3.7601701032
 20
23.87928272
 11
-3.8108618022
 21
23.8559100925
  0
LINE
  5
257
100
AcDbEntity
  8
CURVE
100
AcDbLine
 62
253
  6
CONTINUOUS
 10
-11.8758648863
 20
-12.9658259115
 11
-11.4920071024
 21
-13.1577548034
  0
LINE
  5
258
100
AcDbEntity
  8
CURVE
100
AcDbLine
 62
253
  6
CONTINUOUS
 10
-13.2193677706
 20
-12.2940744694
 11
-13.6032257146
 21
-12.1021454973
  0
LINE
  5
259
100
AcDbEntity
  8
0
100
AcDbLine
 62
7
  6
CONTINUOUS
 10
0.9934842329
 20
-19.3130020259
 11
1.2096732599
 21
-19.4210965395
  0
LINE
  5
25A
100
AcDbEntity
  8
CURVE
100
AcDbLine
 62
253
  6
CONTINUOUS
 10
-13.680783522
 20
-11.5605141913
 11
-13.2969255779
 21
-11.7524431633
  0
LINE
  5
25B
100
AcDbEntity
  8
CURVE
100
AcDbLine
 62
253
  6
CONTINUOUS
 10
-12.1453515856
 20
-12.3282301595
 11
-11.5695649098
 21
-12.6161234974
  0
LINE
  5
25C
100
AcDbEntity
  8
CURVE
100
AcDbLine
 62
253
  6
CONTINUOUS
 10
-13.9491907067
 20
-10.9222161606
 11
-13.4693683167
 21
-11.1621273556
  0
LINE
  5
25D
100
AcDbEntity
  8
CURVE
100
AcDbLine
 62
253
  6
CONTINUOUS
 10
-10.878326834
 20
-12.457648097
 11
-11.2621849382
 21
-12.2657190448
  0
LINE
  5
25E
100
AcDbEntity
  8
CURVE
100
AcDbLine
 62
253
  6
CONTINUOUS
 10
-11.8379719344
 20
-11.9778255468
 11
-12.0299008263
 21
-11.8818611008
  0
LINE
  5
25F
100
AcDbEntity
  8
CURVE
100
AcDbLine
 62
253
  6
CONTINUOUS
 10
-12.6056878225
 20
-11.5939676027
 11
-12.9895457665
 21
-11.4020386307
  0
LINE
  5
260
100
AcDbEntity
  8
RACCORDO
100
AcDbLine
 62
7
  6
CONTINUOUS
 10
-4.7030127712
 20
23.083680348
 11
-3.8489643875
 21
23.8311384048
  0
LINE
  5
261
100
AcDbEntity
  8
RACCORDO
100
AcDbLine
 62
253
  6
CONTINUOUS
 10
-4.5491102164
 20
23.0067290706
 11
-3.6003116248
 21
23.8371119449
  0
LINE
  5
262
100
AcDbEntity
  8
ASSI
100
AcDbLine
 62
7
  6
CONTINUOUS
 10
-8.995165065
 20
19.0412818493
 11
-8.7481916399
 21
19.17004836
  0
LINE
  5
263
100
AcDbEntity
  8
RACCORDO
100
AcDbLine
 62
7
  6
CONTINUOUS
 10
-3.1077990913
 20
21.0842605757
 11
-2.6087033585
 21
21.3344572488
  0
LINE
  5
264
100
AcDbEntity
  8
0
100
AcDbLine
 62
7
  6
CONTINUOUS
 10
3.3947710549
 20
25.7821101691
 11
4.101739995
 21
26.1355946391
  0
LINE
  5
265
100
AcDbEntity
  8
0
100
AcDbLine
 62
7
  6
CONTINUOUS
 10
3.8897458017
 20
25.5346227956
 11
4.5967147418
 21
25.8881072657
  0
LINE
  5
266
100
AcDbEntity
  8
RACCORDO
100
AcDbLine
 62
7
  6
CONTINUOUS
 10
-2.6087033585
 20
21.3344572488
 11
2.8055693367
 21
24.0344728592
  0
LINE
  5
267
100
AcDbEntity
  8
RACCORDO
100
AcDbLine
 62
7
  6
CONTINUOUS
 10
2.1996227536
 20
24.3362208172
 11
-2.5379926804
 21
22.0011703026
  0
LINE
  5
268
100
AcDbEntity
  8
RACCORDO
100
AcDbLine
 62
7
  6
CONTINUOUS
 10
3.4785855521
 20
24.0799727881
 11
2.8922067651
 21
23.7930507204
  0
LINE
  5
269
100
AcDbEntity
  8
RACCORDO
100
AcDbLine
 62
7
  6
CONTINUOUS
 10
8.4666316955
 20
27.5711355202
 11
4.903200859
 21
25.8608807723
  0
LINE
  5
26A
100
AcDbEntity
  8
RACCORDO
100
AcDbLine
 62
7
  6
CONTINUOUS
 10
-15.3719807589
 20
24.4138787746
 11
-15.3719807589
 21
24.3894832693
  0
LINE
  5
26B
100
AcDbEntity
  8
RACCORDO
100
AcDbLine
 62
7
  6
CONTINUOUS
 10
-14.972787462
 20
25.7871298072
 11
-14.972787462
 21
26.040501201
  0
LINE
  5
26C
100
AcDbEntity
  8
ASSI
100
AcDbLine
 62
7
  6
CONTINUOUS
 10
-14.5588079605
 20
23.0238774996
 11
-14.7433355504
 21
21.0909977705
  0
LINE
  5
26D
100
AcDbEntity
  8
0
100
AcDbLine
 62
7
  6
CONTINUOUS
 10
-7.2634769567
 20
18.1754377951
 11
-7.6143950139
 21
17.9472077928
  0
LINE
  5
26E
100
AcDbEntity
  8
RACCORDO
100
AcDbLine
 62
7
  6
CONTINUOUS
 10
-1.433743515
 20
19.6632301705
 11
0.1490130881
 21
20.4752142678
  0
LINE
  5
26F
100
AcDbEntity
  8
RACCORDO
100
AcDbLine
 62
7
  6
CONTINUOUS
 10
12.2680937283
 20
25.6067709922
 11
8.0517139505
 21
23.4614613755
  0
LINE
  5
270
100
AcDbEntity
  8
RACCORDO
100
AcDbLine
 62
7
  6
CONTINUOUS
 10
-3.1077990913
 20
19.8700571029
 11
-2.6087033585
 21
20.1220216835
  0
LINE
  5
271
100
AcDbEntity
  8
RACCORDO
100
AcDbLine
 62
7
  6
CONTINUOUS
 10
-2.6087033585
 20
20.1220216835
 11
2.8055693367
 21
22.8026342809
  0
LINE
  5
272
100
AcDbEntity
  8
RACCORDO
100
AcDbLine
 62
7
  6
CONTINUOUS
 10
0.1490130881
 20
20.4752142678
 11
0.6834629668
 21
20.7355617344
  0
LINE
  5
273
100
AcDbEntity
  8
RACCORDO
100
AcDbLine
 62
253
  6
CONTINUOUS
 10
1.6858364749
 20
20.2963523512
 11
6.4576754531
 21
22.5904278376
  0
LINE
  5
274
100
AcDbEntity
  8
RACCORDO
100
AcDbLine
 62
253
  6
CONTINUOUS
 10
1.9134519748
 20
20.1825446013
 11
6.899516321
 21
22.5796095573
  0
LINE
  5
275
100
AcDbEntity
  8
RACCORDO
100
AcDbLine
 62
7
  6
CONTINUOUS
 10
11.2308017152
 20
26.1890505103
 11
7.6577280167
 21
24.4836171935
  0
LINE
  5
276
100
AcDbEntity
  8
CURVE
100
AcDbLine
 62
253
  6
CONTINUOUS
 10
-13.1435718467
 20
-14.5872699522
 11
-13.1931639802
 21
-14.2642796718
  0
LINE
  5
277
100
AcDbEntity
  8
CURVE
100
AcDbLine
 62
253
  6
CONTINUOUS
 10
-12.6828944882
 20
-14.1211255594
 11
-12.5511677842
 21
-14.9827705232
  0
LINE
  5
278
100
AcDbEntity
  8
CURVE
100
AcDbLine
 62
253
  6
CONTINUOUS
 10
-14.4704575433
 20
-14.0231256508
 11
-14.618455464
 21
-13.0536485822
  0
LINE
  5
279
100
AcDbEntity
  8
CURVE
100
AcDbLine
 62
253
  6
CONTINUOUS
 10
-14.2183262644
 20
-13.3534096713
 11
-14.1197907583
 21
-13.9998121616
  0
LINE
  5
27A
100
AcDbEntity
  8
CURVE
100
AcDbLine
 62
253
  6
CONTINUOUS
 10
-13.5934661288
 20
-13.964631013
 11
-13.6425392672
 21
-13.6413031764
  0
LINE
  5
27B
100
AcDbEntity
  8
CURVE
100
AcDbLine
 62
253
  6
CONTINUOUS
 10
-13.8107527164
 20
-11.8979108927
 11
-13.8572873974
 21
-11.572932097
  0
LINE
  5
27C
100
AcDbEntity
  8
CURVE
100
AcDbLine
 62
253
  6
CONTINUOUS
 10
-13.3429420029
 20
-11.4271272945
 11
-13.2193677696
 21
-12.2940744762
  0
LINE
  5
27D
100
AcDbEntity
  8
ASSI
100
AcDbLine
 62
7
  6
CONTINUOUS
 10
-14.5588079605
 20
23.9828968701
 11
-14.5588079605
 21
23.0238774996
  0
LINE
  5
27E
100
AcDbEntity
  8
DRAFT
100
AcDbLine
 62
7
  6
CONTINUOUS
 10
-14.2697945077
 20
24.8805705526
 11
-14.2697945077
 21
25.3329015282
  0
LINE
  5
27F
100
AcDbEntity
  8
RACCORDO
100
AcDbLine
 62
7
  6
CONTINUOUS
 10
-13.3670109998
 20
25.2376129699
 11
-13.3670109998
 21
24.9842415762
  0
LINE
  5
280
100
AcDbEntity
  8
DRAFT
100
AcDbLine
 62
7
  6
CONTINUOUS
 10
-11.8570357011
 20
20.0685281364
 11
-11.9237578954
 21
19.6812089431
  0
LINE
  5
281
100
AcDbEntity
  8
0
100
AcDbLine
 62
7
  6
CONTINUOUS
 10
3.8870450604
 20
25.5321286158
 11
3.8897458017
 21
25.5346227956
  0
LINE
  5
282
100
AcDbEntity
  8
RACCORDO
100
AcDbLine
 62
253
  6
CONTINUOUS
 10
2.289439518
 20
19.1815096987
 11
7.6477662981
 21
22.0724499256
  0
LINE
  5
283
100
AcDbEntity
  8
RACCORDO
100
AcDbLine
 62
253
  6
CONTINUOUS
 10
1.9228193648
 20
18.7352975725
 11
7.5636147305
 21
21.7786360818
  0
LINE
  5
284
100
AcDbEntity
  8
RACCORDO
100
AcDbLine
 62
253
  6
CONTINUOUS
 10
1.83442941
 20
18.6000043913
 11
7.5636147305
 21
21.5663769277
  0
LINE
  5
285
100
AcDbEntity
  8
RACCORDO
100
AcDbLine
 62
7
  6
CONTINUOUS
 10
1.9541955406
 20
18.540121326
 11
7.6458244429
 21
21.4870484576
  0
LINE
  5
286
100
AcDbEntity
  8
RACCORDO
100
AcDbLine
 62
253
  6
CONTINUOUS
 10
1.9167800411
 20
17.8592799838
 11
0.1490130881
 21
16.9565022843
  0
LINE
  5
287
100
AcDbEntity
  8
DRAFT
100
AcDbLine
 62
7
  6
CONTINUOUS
 10
1.7753586849
 20
17.9299906619
 11
0.7085277727
 21
17.3914094124
  0
LINE
  5
288
100
AcDbEntity
  8
DRAFT
100
AcDbLine
 62
7
  6
CONTINUOUS
 10
12.2741507151
 20
25.1697863638
 11
8.0517139505
 21
23.0517461714
  0
LINE
  5
289
100
AcDbEntity
  8
RACCORDO
100
AcDbLine
 62
7
  6
CONTINUOUS
 10
0.174077894
 20
18.8593194659
 11
1.7753586849
 21
19.6620414694
  0
LINE
  5
28A
100
AcDbEntity
  8
0
100
AcDbLine
 62
7
  6
CONTINUOUS
 10
8.5706548521
 20
22.1757966645
 11
9.0656295989
 21
22.4232840379
  0
LINE
  5
28B
100
AcDbEntity
  8
0
100
AcDbLine
 62
7
  6
CONTINUOUS
 10
12.0460974951
 20
22.859928882
 11
10.2223432004
 21
21.9480517347
  0
LINE
  5
28C
100
AcDbEntity
  8
RACCORDO
100
AcDbLine
 62
7
  6
CONTINUOUS
 10
1.7753586849
 20
19.6620414694
 11
2.3036258566
 21
19.9254802895
  0
LINE
  5
28D
100
AcDbEntity
  8
RACCORDO
100
AcDbLine
 62
253
  6
CONTINUOUS
 10
2.6238868223
 20
18.2052756851
 11
1.9167800411
 21
17.8592799838
  0
LINE
  5
28E
100
AcDbEntity
  8
DRAFT
100
AcDbLine
 62
7
  6
CONTINUOUS
 10
2.5637518014
 20
18.2353431956
 11
8.2296163703
 21
20.9875317398
  0
LINE
  5
28F
100
AcDbEntity
  8
ASSI
100
AcDbLine
 62
7
  6
CONTINUOUS
 10
0.3965004616
 20
16.505242659
 11
1.2096732599
 21
16.789544327
  0
LINE
  5
290
100
AcDbEntity
  8
CURVE
100
AcDbLine
 62
253
  6
CONTINUOUS
 10
-11.5313206561
 20
-14.6969124755
 11
-11.4327851499
 21
-15.3433149658
  0
LINE
  5
291
100
AcDbEntity
  8
CURVE
100
AcDbLine
 62
253
  6
CONTINUOUS
 10
-10.9064605204
 20
-15.3081338171
 11
-10.9555336589
 21
-14.9848059806
  0
LINE
  5
292
100
AcDbEntity
  8
CURVE
100
AcDbLine
 62
253
  6
CONTINUOUS
 10
-10.1075268934
 20
-15.5084562221
 11
-10.140112589
 21
-15.2928199836
  0
LINE
  5
293
100
AcDbEntity
  8
CURVE
100
AcDbLine
 62
253
  6
CONTINUOUS
 10
-12.1913680106
 20
-12.0029142906
 11
-12.0989464813
 21
-12.6532932137
  0
LINE
  5
294
100
AcDbEntity
  8
CURVE
100
AcDbLine
 62
253
  6
CONTINUOUS
 10
-11.5695649098
 20
-12.6161234974
 11
-11.6155813349
 21
-12.2908076273
  0
LINE
  5
295
100
AcDbEntity
  8
CURVE
100
AcDbLine
 62
253
  6
CONTINUOUS
 10
-10.7685934132
 20
-12.8151205132
 11
-10.7991414785
 21
-12.5981590473
  0
LINE
  5
296
100
AcDbEntity
  8
DRAFT
100
AcDbLine
 62
7
  6
CONTINUOUS
 10
-12.6557903917
 20
24.0735684946
 11
-12.6557903917
 21
24.7107380533
  0
LINE
  5
297
100
AcDbEntity
  8
RACCORDO
100
AcDbLine
 62
7
  6
CONTINUOUS
 10
-11.5889594796
 20
24.6121497441
 11
-11.5889594796
 21
26.3442005517
  0
LINE
  5
298
100
AcDbEntity
  8
RACCORDO
100
AcDbLine
 62
7
  6
CONTINUOUS
 10
-10.8859665253
 20
26.4795220494
 11
-10.8859665253
 21
26.2185930731
  0
LINE
  5
299
100
AcDbEntity
  8
DRAFT
100
AcDbLine
 62
7
  6
CONTINUOUS
 10
-9.1494410845
 20
20.3191940616
 11
-9.2588535616
 21
19.1731260976
  0
LINE
  5
29A
100
AcDbEntity
  8
ASSI
100
AcDbLine
 62
253
  6
CONTINUOUS
 10
-3.1972450991
 20
15.3179525449
 11
-7.3298933442
 21
12.6212572248
  0
LINE
  5
29B
100
AcDbEntity
  8
ASSI
100
AcDbLine
 62
253
  6
CONTINUOUS
 10
-2.562837433
 20
14.3822442964
 11
-6.6954856781
 21
11.6855489763
  0
LINE
  5
29C
100
AcDbEntity
  8
RACCORDO
100
AcDbLine
 62
253
  6
CONTINUOUS
 10
2.1642674145
 20
17.4324158638
 11
0.3965004616
 21
16.5296381643
  0
LINE
  5
29D
100
AcDbEntity
  8
RACCORDO
100
AcDbLine
 62
253
  6
CONTINUOUS
 10
17.0593969416
 20
22.8547908495
 11
2.8713741957
 21
15.6365947306
  0
LINE
  5
29E
100
AcDbEntity
  8
RACCORDO
100
AcDbLine
 62
253
  6
CONTINUOUS
 10
-1.414437317
 20
14.953955142
 11
-2.5600578938
 21
14.3767277577
  0
LINE
  5
29F
100
AcDbEntity
  8
0
100
AcDbLine
 62
7
  6
CONTINUOUS
 10
12.8946256326
 20
22.4356648133
 11
12.2341067149
 21
22.1054053545
  0
LINE
  5
2A0
100
AcDbEntity
  8
RACCORDO
100
AcDbLine
 62
253
  6
CONTINUOUS
 10
2.8713741957
 20
17.7784115652
 11
2.1642674145
 21
17.4324158638
  0
LINE
  5
2A1
100
AcDbEntity
  8
RACCORDO
100
AcDbLine
 62
253
  6
CONTINUOUS
 10
8.8517173582
 20
19.9145662514
 11
16.4236507559
 21
23.59262599
  0
LINE
  5
2A2
100
AcDbEntity
  8
RACCORDO
100
AcDbLine
 62
253
  6
CONTINUOUS
 10
9.1893856921
 20
19.3321745244
 11
16.9235746035
 21
23.0890497307
  0
LINE
  5
2A3
100
AcDbEntity
  8
RACCORDO
100
AcDbLine
 62
7
  6
CONTINUOUS
 10
15.891252898
 20
23.8588249189
 11
12.3278220614
 21
22.1485701711
  0
LINE
  5
2A4
100
AcDbEntity
  8
RACCORDO
100
AcDbLine
 62
7
  6
CONTINUOUS
 10
-9.4112024766
 20
24.0861366123
 11
-9.4112024766
 21
22.8714032261
  0
LINE
  5
2A5
100
AcDbEntity
  8
RACCORDO
100
AcDbLine
 62
253
  6
CONTINUOUS
 10
-9.3233345109
 20
23.9796276555
 11
-9.3233345109
 21
22.7646727894
  0
LINE
  5
2A6
100
AcDbEntity
  8
0
100
AcDbLine
 62
7
  6
CONTINUOUS
 10
-9.1494410845
 20
21.2782134321
 11
-9.1494410845
 21
20.3191940616
  0
LINE
  5
2A7
100
AcDbEntity
  8
DRAFT
100
AcDbLine
 62
7
  6
CONTINUOUS
 10
-7.6143950139
 20
17.9472077928
 11
-7.6811172083
 21
17.5598885995
  0
LINE
  5
2A8
100
AcDbEntity
  8
RACCORDO
100
AcDbLine
 62
7
  6
CONTINUOUS
 10
2.3904775199
 20
19.3044827028
 11
1.8632328042
 21
18.6627749748
  0
LINE
  5
2A9
100
AcDbEntity
  8
RACCORDO
100
AcDbLine
 62
253
  6
CONTINUOUS
 10
17.4735474173
 20
21.4231572749
 11
2.8713741957
 21
13.9942609471
  0
LINE
  5
2AA
100
AcDbEntity
  8
RACCORDO
100
AcDbLine
 62
253
  6
CONTINUOUS
 10
-0.7959517564
 20
13.689964057
 11
-2.4042445238
 21
12.8796166819
  0
LINE
  5
2AB
100
AcDbEntity
  8
ASSI
100
AcDbLine
 62
7
  6
CONTINUOUS
 10
-8.0534255736
 20
20.3833248971
 11
-8.0534255736
 21
20.7302056766
  0
LINE
  5
2AC
100
AcDbEntity
  8
ASSI
100
AcDbLine
 62
7
  6
CONTINUOUS
 10
-0.738927381
 20
-2.8988411185
 11
-0.522738354
 21
-3.006935632
  0
LINE
  5
2AD
100
AcDbEntity
  8
RACCORDO
100
AcDbLine
 62
7
  6
CONTINUOUS
 10
-7.1716226275
 20
17.3051413091
 11
-7.2634769567
 21
18.1754377951
  0
LINE
  5
2AE
100
AcDbEntity
  8
0
100
AcDbLine
 62
7
  6
CONTINUOUS
 10
-4.1996936162
 20
18.8033396979
 11
-4.1996936162
 21
17.8443203274
  0
LINE
  5
2AF
100
AcDbEntity
  8
DRAFT
100
AcDbLine
 62
7
  6
CONTINUOUS
 10
-4.1996936162
 20
17.8443203274
 11
-4.3361648352
 21
16.414818901
  0
LINE
  5
2B0
100
AcDbEntity
  8
ASSI
100
AcDbLine
 62
7
  6
CONTINUOUS
 10
1.0651621227
 20
-19.9921318626
 11
-2.562837433
 21
14.3822442964
  0
LINE
  5
2B1
100
AcDbEntity
  8
RACCORDO
100
AcDbLine
 62
253
  6
CONTINUOUS
 10
-3.5308254429
 20
19.8684182554
 11
-3.5308254429
 21
21.0833731214
  0
LINE
  5
2B2
100
AcDbEntity
  8
DRAFT
100
AcDbLine
 62
7
  6
CONTINUOUS
 10
-3.1743887834
 20
24.0449825137
 11
-3.1743887834
 21
25.3716629491
  0
LINE
  5
2B3
100
AcDbEntity
  8
RACCORDO
100
AcDbLine
 62
253
  6
CONTINUOUS
 10
-3.1077990913
 20
19.8700571029
 11
-3.1077990913
 21
21.0842605757
  0
LINE
  5
2B4
100
AcDbEntity
  8
DRAFT
100
AcDbLine
 62
7
  6
CONTINUOUS
 10
-2.8208353928
 20
24.6423280645
 11
-2.8208353928
 21
25.1948862538
  0
LINE
  5
2B5
100
AcDbEntity
  8
RACCORDO
100
AcDbLine
 62
253
  6
CONTINUOUS
 10
-2.7501247147
 20
26.8110945513
 11
-2.7501247147
 21
25.5792603699
  0
LINE
  5
2B6
100
AcDbEntity
  8
RACCORDO
100
AcDbLine
 62
7
  6
CONTINUOUS
 10
-2.6622567491
 20
26.9160917653
 11
-2.6622567491
 21
25.6837231605
  0
LINE
  5
2B7
100
AcDbEntity
  8
DRAFT
100
AcDbLine
 62
7
  6
CONTINUOUS
 10
-2.6087033585
 20
21.3344572488
 11
-2.6087033585
 21
20.1220216835
  0
LINE
  5
2B8
100
AcDbEntity
  8
RACCORDO
100
AcDbLine
 62
7
  6
CONTINUOUS
 10
-1.6084692975
 20
-22.4480048081
 11
-1.6084692975
 21
-22.1946334143
  0
LINE
  5
2B9
100
AcDbEntity
  8
RACCORDO
100
AcDbLine
 62
7
  6
CONTINUOUS
 10
-1.6084692975
 20
19.104970725
 11
-1.6084692975
 21
19.3583421188
  0
LINE
  5
2BA
100
AcDbEntity
  8
RACCORDO
100
AcDbLine
 62
7
  6
CONTINUOUS
 10
-1.6080735844
 20
5.3360988462
 11
-0.7959517564
 21
13.689964057
  0
LINE
  5
2BB
100
AcDbEntity
  8
0
100
AcDbLine
 62
7
  6
CONTINUOUS
 10
3.900240637
 20
25.5398702133
 11
4.101739995
 21
26.1355946391
  0
LINE
  5
2BC
100
AcDbEntity
  8
RACCORDO
100
AcDbLine
 62
7
  6
CONTINUOUS
 10
-1.2697764682
 20
2.1308194222
 11
-1.2200056108
 21
2.1059339935
  0
LINE
  5
2BD
100
AcDbEntity
  8
ASSI
100
AcDbLine
 62
7
  6
CONTINUOUS
 10
-0.522738354
 20
-3.006935632
 11
1.2096732599
 21
-19.4210965395
  0
LINE
  5
2BE
100
AcDbEntity
  8
DRAFT
100
AcDbLine
 62
7
  6
CONTINUOUS
 10
-0.9054763433
 20
18.1984114704
 11
-0.9054763433
 21
18.650742446
  0
LINE
  5
2BF
100
AcDbEntity
  8
RACCORDO
100
AcDbLine
 62
7
  6
CONTINUOUS
 10
-0.0631189462
 20
25.6857687978
 11
-0.0631189462
 21
25.4149685052
  0
LINE
  5
2C0
100
AcDbEntity
  8
RACCORDO
100
AcDbLine
 62
7
  6
CONTINUOUS
 10
-0.0026928354
 20
18.5554538877
 11
-0.0026928354
 21
18.3020824939
  0
LINE
  5
2C1
100
AcDbEntity
  8
RACCORDO
100
AcDbLine
 62
7
  6
CONTINUOUS
 10
-0.0026928354
 20
-22.9975216454
 11
-0.0026928354
 21
-23.2508930392
  0
LINE
  5
2C2
100
AcDbEntity
  8
RACCORDO
100
AcDbLine
 62
7
  6
CONTINUOUS
 10
0.3965004616
 20
16.5296381643
 11
0.3965004616
 21
16.505242659
  0
LINE
  5
2C3
100
AcDbEntity
  8
RACCORDO
100
AcDbLine
 62
7
  6
CONTINUOUS
 10
0.3965004616
 20
-21.5998751075
 11
0.3965004616
 21
-21.6242706128
  0
LINE
  5
2C4
100
AcDbEntity
  8
0
100
AcDbLine
 62
253
  6
CONTINUOUS
 10
0.6270927481
 20
26.7640567726
 11
0.6270927481
 21
27.1737719767
  0
LINE
  5
2C5
100
AcDbEntity
  8
DRAFT
100
AcDbLine
 62
7
  6
CONTINUOUS
 10
0.7085277727
 20
-22.0210251683
 11
0.7085277727
 21
-21.6164030773
  0
LINE
  5
2C6
100
AcDbEntity
  8
DRAFT
100
AcDbLine
 62
7
  6
CONTINUOUS
 10
0.7085277727
 20
17.3914094124
 11
0.7085277727
 21
18.0285789711
  0
LINE
  5
2C7
100
AcDbEntity
  8
ASSI
100
AcDbLine
 62
7
  6
CONTINUOUS
 10
1.2096732599
 20
15.1396368894
 11
-0.522738354
 21
-3.006935632
  0
LINE
  5
2C8
100
AcDbEntity
  8
RACCORDO
100
AcDbLine
 62
7
  6
CONTINUOUS
 10
-1.096094765
 20
1.8534091308
 11
-1.1650049174
 21
1.1381355357
  0
LINE
  5
2C9
100
AcDbEntity
  8
DRAFT
100
AcDbLine
 62
7
  6
CONTINUOUS
 10
17.8797975514
 20
15.2665639184
 11
19.0229377941
 21
16.005937376
  0
LINE
  5
2CA
100
AcDbEntity
  8
RACCORDO
100
AcDbLine
 62
253
  6
CONTINUOUS
 10
-1.2200056108
 20
2.1059339935
 11
-1.2648256554
 21
2.0839117259
  0
LINE
  5
2CB
100
AcDbEntity
  8
RACCORDO
100
AcDbLine
 62
253
  6
CONTINUOUS
 10
-1.096094765
 20
1.8534091308
 11
-1.2333782046
 21
1.7859551006
  0
LINE
  5
2CC
100
AcDbEntity
  8
ASSI
100
AcDbLine
 62
7
  6
CONTINUOUS
 10
1.2096732599
 20
16.789544327
 11
1.2096732599
 21
15.1396368894
  0
LINE
  5
2CD
100
AcDbEntity
  8
ASSI
100
AcDbLine
 62
7
  6
CONTINUOUS
 10
1.2096732599
 20
-19.4210965395
 11
1.2096732599
 21
-21.071003977
  0
LINE
  5
2CE
100
AcDbEntity
  8
DRAFT
100
AcDbLine
 62
7
  6
CONTINUOUS
 10
1.309802946
 20
27.1065148648
 11
1.309802946
 21
26.673502163
  0
LINE
  5
2CF
100
AcDbEntity
  8
RACCORDO
100
AcDbLine
 62
7
  6
CONTINUOUS
 10
1.7753586849
 20
-21.094390109
 11
1.7753586849
 21
-22.5999982352
  0
LINE
  5
2D0
100
AcDbEntity
  8
RACCORDO
100
AcDbLine
 62
7
  6
CONTINUOUS
 10
1.7753586849
 20
17.9299906619
 11
1.7753586849
 21
19.6620414694
  0
LINE
  5
2D1
100
AcDbEntity
  8
RACCORDO
100
AcDbLine
 62
7
  6
CONTINUOUS
 10
2.4783516391
 20
19.7973629672
 11
2.4783516391
 21
19.5364339908
  0
LINE
  5
2D2
100
AcDbEntity
  8
RACCORDO
100
AcDbLine
 62
7
  6
CONTINUOUS
 10
2.4783516391
 20
-21.7631701485
 11
2.4783516391
 21
-22.0240991249
  0
LINE
  5
2D3
100
AcDbEntity
  8
RACCORDO
100
AcDbLine
 62
253
  6
CONTINUOUS
 10
2.8055693367
 20
24.0344728592
 11
2.8055693367
 21
22.8026342809
  0
LINE
  5
2D4
100
AcDbEntity
  8
DRAFT
100
AcDbLine
 62
7
  6
CONTINUOUS
 10
2.8360188567
 20
27.0527701952
 11
2.8360188567
 21
26.8656024836
  0
LINE
  5
2D5
100
AcDbEntity
  8
RACCORDO
100
AcDbLine
 62
7
  6
CONTINUOUS
 10
2.8713741957
 20
-20.3981702795
 11
2.8713741957
 21
17.7784115652
  0
LINE
  5
2D6
100
AcDbEntity
  8
RACCORDO
100
AcDbLine
 62
7
  6
CONTINUOUS
 10
2.8922067651
 20
24.1388602346
 11
2.8922067651
 21
22.9064917428
  0
LINE
  5
2D7
100
AcDbEntity
  8
0
100
AcDbLine
 62
7
  6
CONTINUOUS
 10
3.3631933077
 20
25.4505055244
 11
3.3947710549
 21
25.7821101691
  0
LINE
  5
2D8
100
AcDbEntity
  8
ASSI
100
AcDbLine
 62
253
  6
CONTINUOUS
 10
-8.2447983813
 20
10.820929812
 11
-22.5732787159
 21
17.9851699793
  0
LINE
  5
2D9
100
AcDbEntity
  8
0
100
AcDbLine
 62
7
  6
CONTINUOUS
 10
2.9450263935
 20
25.6603623359
 11
2.9521269758
 21
25.4181196316
  0
LINE
  5
2DA
100
AcDbEntity
  8
RACCORDO
100
AcDbLine
 62
7
  6
CONTINUOUS
 10
4.8495295127
 20
29.2085591739
 11
4.8495295127
 21
28.882096965
  0
LINE
  5
2DB
100
AcDbEntity
  8
ASSI
100
AcDbLine
 62
253
  6
CONTINUOUS
 10
-7.3298933442
 20
12.6212572248
 11
-21.6835584173
 21
19.7980897613
  0
LINE
  5
2DC
100
AcDbEntity
  8
RACCORDO
100
AcDbLine
 62
7
  6
CONTINUOUS
 10
7.6477662981
 20
22.0724499256
 11
7.6478127688
 21
22.0663125876
  0
LINE
  5
2DD
100
AcDbEntity
  8
RACCORDO
100
AcDbLine
 62
253
  6
CONTINUOUS
 10
7.5636147305
 20
21.7786360818
 11
7.5636147305
 21
21.5663769277
  0
LINE
  5
2DE
100
AcDbEntity
  8
RACCORDO
100
AcDbLine
 62
253
  6
CONTINUOUS
 10
7.5636147305
 20
-15.1755896428
 11
7.5636147305
 21
-15.3653593469
  0
LINE
  5
2DF
100
AcDbEntity
  8
RACCORDO
100
AcDbLine
 62
7
  6
CONTINUOUS
 10
7.6478127904
 20
22.06625696
 11
7.6478127904
 21
21.4902937705
  0
LINE
  5
2E0
100
AcDbEntity
  8
RACCORDO
100
AcDbLine
 62
7
  6
CONTINUOUS
 10
7.6478127904
 20
-15.1310643217
 11
7.6478127904
 21
-15.444582714
  0
LWPOLYLINE
  5
2E1
100
AcDbEntity
  8
RACCORDO
100
AcDbPolyline
 62
7
  6
CONTINUOUS
 90
25
 70
0
 10
19.3281638341
 20
16.2774015707
 10
19.3290682778
 20
16.2784864272
 10
19.3367636613
 20
16.2880543193
 10
19.344198712
 20
16.2979198337
 10
19.3513613248
 20
16.3080742403
 10
19.3582422615
 20
16.3185118762
 10
19.3648350048
 20
16.3292311468
 10
19.3711296117
 20
16.3402245246
 10
19.3771164681
 20
16.3514839162
 10
19.3827897246
 20
16.363008146
 10
19.388140668
 20
16.3747906469
 10
19.3931601537
 20
16.3868221988
 10
19.3978418565
 20
16.3990995569
 10
19.4021779629
 20
16.4116160247
 10
19.4061605209
 20
16.424363118
 10
19.4097834658
 20
16.4373370839
 10
19.4130401486
 20
16.4505331406
 10
19.4159230332
 20
16.4639423009
 10
19.418425531
 20
16.4775567676
 10
19.4205414255
 20
16.4913707423
 10
19.4222643712
 20
16.505378027
 10
19.42358833
 20
16.5195729251
 10
19.4245070981
 20
16.5339512773
 10
19.4250142661
 20
16.5485079245
 10
19.4251210074
 20
16.5589689161
  0
LINE
  5
2E2
100
AcDbEntity
  8
0
100
AcDbLine
 62
253
  6
CONTINUOUS
 10
8.0517139505
 20
23.0517461714
 11
8.0517139505
 21
23.4614613755
  0
LINE
  5
2E3
100
AcDbEntity
  8
DRAFT
100
AcDbLine
 62
7
  6
CONTINUOUS
 10
8.7344241485
 20
23.3942042636
 11
8.7344241485
 21
22.9611915617
  0
LINE
  5
2E4
100
AcDbEntity
  8
0
100
AcDbLine
 62
7
  6
CONTINUOUS
 10
10.2223432004
 20
21.9480517347
 11
10.2150750572
 21
21.7000925413
  0
LINE
  5
2E5
100
AcDbEntity
  8
RACCORDO
100
AcDbLine
 62
7
  6
CONTINUOUS
 10
7.6477662981
 20
-15.4454942767
 11
7.6478127688
 21
-15.4447523219
  0
LINE
  5
2E6
100
AcDbEntity
  8
DRAFT
100
AcDbLine
 62
7
  6
CONTINUOUS
 10
17.87979755
 20
3.5752209664
 11
19.0229377941
 21
4.3145944249
  0
LINE
  5
2E7
100
AcDbEntity
  8
ASSI
100
AcDbLine
 62
7
  6
CONTINUOUS
 10
-17.764032484
 20
22.6013462374
 11
-3.1972450991
 21
15.3179525449
  0
LINE
  5
2E8
100
AcDbEntity
  8
0
100
AcDbLine
 62
7
  6
CONTINUOUS
 10
-11.8570357011
 20
20.0685281364
 11
-7.6143950139
 21
17.9472077928
  0
LINE
  5
2E9
100
AcDbEntity
  8
RACCORDO
100
AcDbLine
 62
7
  6
CONTINUOUS
 10
-12.2076398217
 20
20.3505563943
 11
-11.7642609486
 21
20.1288669577
  0
LINE
  5
2EA
100
AcDbEntity
  8
RACCORDO
100
AcDbLine
 62
7
  6
CONTINUOUS
 10
-4.3361648352
 20
16.414818901
 11
-1.414437317
 21
14.953955142
  0
LINE
  5
2EB
100
AcDbEntity
  8
0
100
AcDbLine
 62
7
  6
CONTINUOUS
 10
-11.5061176438
 20
20.2967581387
 11
-7.2634769567
 21
18.1754377951
  0
LINE
  5
2EC
100
AcDbEntity
  8
ASSI
100
AcDbLine
 62
253
  6
CONTINUOUS
 10
-8.7481916399
 20
19.17004836
 11
-4.2861212141
 21
16.9390131471
  0
LINE
  5
2ED
100
AcDbEntity
  8
0
100
AcDbLine
 62
7
  6
CONTINUOUS
 10
-14.5588079605
 20
23.0238774996
 11
-9.1494410845
 21
20.3191940616
  0
LINE
  5
2EE
100
AcDbEntity
  8
0
100
AcDbLine
 62
7
  6
CONTINUOUS
 10
-4.1996936162
 20
17.8443203274
 11
1.2096732599
 21
15.1396368894
  0
LINE
  5
2EF
100
AcDbEntity
  8
0
100
AcDbLine
 62
253
  6
CONTINUOUS
 10
0.2331068142
 20
28.1959277947
 11
0.6270927481
 21
27.1737719767
  0
LINE
  5
2F0
100
AcDbEntity
  8
0
100
AcDbLine
 62
7
  6
CONTINUOUS
 10
9.8075159524
 20
21.7031243772
 11
9.772598539
 21
22.0697995678
  0
LINE
  5
2F1
100
AcDbEntity
  8
DRAFT
100
AcDbLine
 62
7
  6
CONTINUOUS
 10
10.2606400591
 20
23.1533815082
 11
10.2606400591
 21
23.3404595939
  0
LINE
  5
2F2
100
AcDbEntity
  8
RACCORDO
100
AcDbLine
 62
253
  6
CONTINUOUS
 10
10.7343348091
 20
-12.4719887189
 11
10.7343348091
 21
-4.2990757381
  0
LINE
  5
2F3
100
AcDbEntity
  8
RACCORDO
100
AcDbLine
 62
7
  6
CONTINUOUS
 10
11.0149950088
 20
-12.1246595337
 11
11.0149950088
 21
-4.8378767113
  0
LINE
  5
2F4
100
AcDbEntity
  8
RACCORDO
100
AcDbLine
 62
7
  6
CONTINUOUS
 10
12.2741507151
 20
25.4962485727
 11
12.2741507151
 21
25.1697863638
  0
LWPOLYLINE
  5
2F5
100
AcDbEntity
  8
RACCORDO
100
AcDbPolyline
 62
7
  6
CONTINUOUS
 90
35
 70
0
 10
11.0149948631
 20
-4.838524539
 10
11.0151768801
 20
-4.8252871437
 10
11.0158018424
 20
-4.8106522432
 10
11.0168948055
 20
-4.7957683832
 10
11.0184697328
 20
-4.7807322176
 10
11.0205425274
 20
-4.7655603337
 10
11.0231284493
 20
-4.7502719958
 10
11.0262246092
 20
-4.7349675065
 10
11.0298346372
 20
-4.7196764729
 10
11.0339664059
 20
-4.7044067493
 10
11.0386100725
 20
-4.689224111
 10
11.0437628743
 20
-4.6741544246
 10
11.0494263379
 20
-4.6592084423
 10
11.055589265
 20
-4.644427293
 10
11.0622472793
 20
-4.629828915
 10
11.0693957019
 20
-4.615430452
 10
11.0770176238
 20
-4.6012698016
 10
11.0851042311
 20
-4.5873643193
 10
11.0936475813
 20
-4.5737285638
 10
11.1026275672
 20
-4.5603938092
 10
11.112032736
 20
-4.5473745335
 10
11.1218516257
 20
-4.5346841698
 10
11.1320603956
 20
-4.5223497598
 10
11.1426451725
 20
-4.5103830363
 10
11.153591701
 20
-4.4987952578
 10
11.1648722858
 20
-4.487609736
 10
11.1764719104
 20
-4.4768343847
 10
11.1883731896
 20
-4.4664785773
 10
11.2005416853
 20
-4.45656412
 10
11.2129600546
 20
-4.4470958286
 10
11.225609364
 20
-4.4380790507
 10
11.2384496117
 20
-4.4295318353
 10
11.2514536929
 20
-4.4214600046
 10
11.2646091658
 20
-4.4138593135
 10
11.2702552169
 20
-4.4107642052
  0
LINE
  5
2F6
100
AcDbEntity
  8
RACCORDO
100
AcDbLine
 62
253
  6
CONTINUOUS
 10
17.4735474173
 20
-0.663115927
 11
10.7343348091
 21
-4.2990757381
  0
LINE
  5
2F7
100
AcDbEntity
  8
RACCORDO
100
AcDbLine
 62
7
  6
CONTINUOUS
 10
17.2290314374
 20
-1.1958676128
 11
11.2700809544
 21
-4.4108581068
  0
LINE
  5
2F8
100
AcDbEntity
  8
ASSI
100
AcDbLine
 62
253
  6
CONTINUOUS
 10
-8.0534255736
 20
20.3833248971
 11
-4.1996936162
 21
18.4564589183
  0
LINE
  5
2F9
100
AcDbEntity
  8
ASSI
100
AcDbLine
 62
7
  6
CONTINUOUS
 10
-15.3719807589
 20
24.3894832693
 11
0.3965004616
 21
16.505242659
  0
LINE
  5
2FA
100
AcDbEntity
  8
RACCORDO
100
AcDbLine
 62
7
  6
CONTINUOUS
 10
0.1490130881
 20
16.9565022843
 11
-15.1244933855
 21
24.5932555211
  0
LINE
  5
2FB
100
AcDbEntity
  8
DRAFT
100
AcDbLine
 62
7
  6
CONTINUOUS
 10
0.7085277727
 20
17.3914094124
 11
-0.9054763433
 21
18.1984114704
  0
LINE
  5
2FC
100
AcDbEntity
  8
DRAFT
100
AcDbLine
 62
7
  6
CONTINUOUS
 10
-12.6557903917
 20
24.0735684946
 11
-14.2697945077
 21
24.8805705526
  0
LINE
  5
2FD
100
AcDbEntity
  8
RACCORDO
100
AcDbLine
 62
7
  6
CONTINUOUS
 10
-9.3233345109
 20
22.7646727894
 11
-3.5308254429
 21
19.8684182554
  0
LINE
  5
2FE
100
AcDbEntity
  8
RACCORDO
100
AcDbLine
 62
7
  6
CONTINUOUS
 10
-14.908192716
 20
25.6521006324
 11
-13.3016591529
 21
24.8488338508
  0
LINE
  5
2FF
100
AcDbEntity
  8
RACCORDO
100
AcDbLine
 62
7
  6
CONTINUOUS
 10
-1.5438745516
 20
18.9699415502
 11
0.0626590115
 21
18.1666747686
  0
LINE
  5
300
100
AcDbEntity
  8
RACCORDO
100
AcDbLine
 62
253
  6
CONTINUOUS
 10
-14.972787462
 20
25.7871298072
 11
-13.3670109998
 21
24.9842415762
  0
LINE
  5
301
100
AcDbEntity
  8
RACCORDO
100
AcDbLine
 62
253
  6
CONTINUOUS
 10
-1.6084692975
 20
19.104970725
 11
-0.0026928354
 21
18.3020824939
  0
LINE
  5
302
100
AcDbEntity
  8
RACCORDO
100
AcDbLine
 62
7
  6
CONTINUOUS
 10
-1.5205951783
 20
-21.9626821263
 11
-1.3053811283
 21
-21.7007458472
  0
LWPOLYLINE
  5
303
100
AcDbEntity
  8
RACCORDO
100
AcDbPolyline
 62
7
  6
CONTINUOUS
 90
25
 70
0
 10
19.3281637999
 20
4.5860585519
 10
19.3290682308
 20
4.5871433925
 10
19.3367636183
 20
4.596711285
 10
19.3441986728
 20
4.6065768
 10
19.3513612892
 20
4.6167312073
 10
19.3582422293
 20
4.6271688438
 10
19.3648349759
 20
4.6378881152
 10
19.3711295857
 20
4.6488814938
 10
19.3771164451
 20
4.6601408863
 10
19.3827897043
 20
4.671665117
 10
19.3881406503
 20
4.6834476189
 10
19.3931601383
 20
4.6954791718
 10
19.3978418434
 20
4.7077565311
 10
19.4021779518
 20
4.720273
 10
19.4061605117
 20
4.7330200946
 10
19.4097834584
 20
4.7459940618
 10
19.4130401427
 20
4.7591901199
 10
19.4159230287
 20
4.7725992816
 10
19.4184255277
 20
4.7862137497
 10
19.4205414232
 20
4.8000277261
 10
19.4222643697
 20
4.8140350123
 10
19.4235883292
 20
4.8282299121
 10
19.4245070978
 20
4.842608266
 10
19.4250142661
 20
4.857164915
 10
19.4251210074
 20
4.8676259081
  0
LINE
  5
304
100
AcDbEntity
  8
RACCORDO
100
AcDbLine
 62
7
  6
CONTINUOUS
 10
0.7085277727
 20
18.0285789711
 11
0.0862097406
 21
18.1585195536
  0
LINE
  5
305
100
AcDbEntity
  8
RACCORDO
100
AcDbLine
 62
253
  6
CONTINUOUS
 10
-0.0026928354
 20
18.5554538877
 11
-1.6084692975
 21
19.3583421188
  0
LINE
  5
306
100
AcDbEntity
  8
RACCORDO
100
AcDbLine
 62
253
  6
CONTINUOUS
 10
-13.3670109998
 20
25.2376129699
 11
-14.972787462
 21
26.040501201
  0
LINE
  5
307
100
AcDbEntity
  8
DRAFT
100
AcDbLine
 62
7
  6
CONTINUOUS
 10
-11.5889594796
 20
24.6121497441
 11
-9.4112024766
 21
23.5232712426
  0
LINE
  5
308
100
AcDbEntity
  8
DRAFT
100
AcDbLine
 62
7
  6
CONTINUOUS
 10
-2.6087033585
 20
20.1220216835
 11
-1.5275814073
 21
19.581460708
  0
LINE
  5
309
100
AcDbEntity
  8
RACCORDO
100
AcDbLine
 62
7
  6
CONTINUOUS
 10
1.7753586849
 20
17.9299906619
 11
1.9167800411
 21
17.8592799838
  0
LINE
  5
30A
100
AcDbEntity
  8
RACCORDO
100
AcDbLine
 62
253
  6
CONTINUOUS
 10
0.174077894
 20
18.8593194659
 11
-1.433743515
 21
19.6632301705
  0
LINE
  5
30B
100
AcDbEntity
  8
RACCORDO
100
AcDbLine
 62
253
  6
CONTINUOUS
 10
-13.1902402704
 20
25.5414785482
 11
-14.7980616794
 21
26.3453892527
  0
LINE
  5
30C
100
AcDbEntity
  8
RACCORDO
100
AcDbLine
 62
7
  6
CONTINUOUS
 10
-9.3233345109
 20
23.9796276555
 11
-3.5308254429
 21
21.0833731214
  0
LINE
  5
30D
100
AcDbEntity
  8
RACCORDO
100
AcDbLine
 62
7
  6
CONTINUOUS
 10
2.6238868223
 20
18.2052756851
 11
1.8241547985
 21
18.6051416971
  0
LINE
  5
30E
100
AcDbEntity
  8
RACCORDO
100
AcDbLine
 62
7
  6
CONTINUOUS
 10
-10.0576853625
 20
24.5460617776
 11
-11.540163366
 21
25.2873007793
  0
LINE
  5
30F
100
AcDbEntity
  8
DRAFT
100
AcDbLine
 62
7
  6
CONTINUOUS
 10
-8.8312430329
 20
24.4457270861
 11
-2.6087033585
 21
21.3344572488
  0
LINE
  5
310
100
AcDbEntity
  8
DRAFT
100
AcDbLine
 62
7
  6
CONTINUOUS
 10
-13.2153050763
 20
27.15737335
 11
-11.5889594796
 21
26.3442005517
  0
LINE
  5
311
100
AcDbEntity
  8
DRAFT
100
AcDbLine
 62
7
  6
CONTINUOUS
 10
0.1490130881
 20
20.4752142678
 11
1.7753586849
 21
19.6620414694
  0
LINE
  5
312
100
AcDbEntity
  8
DRAFT
100
AcDbLine
 62
7
  6
CONTINUOUS
 10
-7.4877401487
 20
24.4760440367
 11
-2.5379926804
 21
22.0011703026
  0
LINE
  5
313
100
AcDbEntity
  8
0
100
AcDbLine
 62
253
  6
CONTINUOUS
 10
7.6577280167
 20
24.4836171935
 11
8.0517139505
 21
23.4614613755
  0
LINE
  5
314
100
AcDbEntity
  8
0
100
AcDbLine
 62
7
  6
CONTINUOUS
 10
9.2671289568
 20
21.8275596121
 11
9.0656295989
 21
22.4232840379
  0
LINE
  5
315
100
AcDbEntity
  8
RACCORDO
100
AcDbLine
 62
7
  6
CONTINUOUS
 10
0.0862097406
 20
-22.7660845858
 11
0.7085277727
 21
-22.0210251683
  0
LINE
  5
316
100
AcDbEntity
  8
RACCORDO
100
AcDbLine
 62
7
  6
CONTINUOUS
 10
-12.6557903917
 20
24.7107380533
 11
-13.2781084238
 21
24.8406786358
  0
LWPOLYLINE
  5
317
100
AcDbEntity
  8
RACCORDO
100
AcDbPolyline
 62
7
  6
CONTINUOUS
 90
64
 70
0
 10
-2.5197556257
 20
23.9681017871
 10
-2.5301968776
 20
23.9731972699
 10
-2.5477029593
 20
23.981204559
 10
-2.5656802971
 20
23.988780217
 10
-2.584097401
 20
23.9959180515
 10
-2.6029451953
 20
24.0026237765
 10
-2.6222361649
 20
24.0089106741
 10
-2.64194764
 20
24.0147801473
 10
-2.6620571584
 20
24.020235409
 10
-2.6825733263
 20
24.0252881845
 10
-2.7034440472
 20
24.029935338
 10
-2.7246808827
 20
24.0341891051
 10
-2.7463860144
 20
24.038074436
 10
-2.7685109178
 20
24.041584209
 10
-2.7910743361
 20
24.0447227431
 10
-2.8142800936
 20
24.0475122715
 10
-2.8382045232
 20
24.0499472614
 10
-2.8627477744
 20
24.0520028919
 10
-2.8878474119
 20
24.0536628387
 10
-2.9136062388
 20
24.0549207451
 10
-2.9398936741
 20
24.0557566539
 10
-2.9662938826
 20
24.0561562361
 10
-2.9927698735
 20
24.0561273036
 10
-3.0193313012
 20
24.0556769126
 10
-3.0456331308
 20
24.0548239647
 10
-3.071585257
 20
24.0535924403
 10
-3.0972596177
 20
24.0519983524
 10
-3.1225565443
 20
24.0500661345
 10
-3.1474561392
 20
24.0478165478
 10
-3.1719672131
 20
24.0452668754
 10
-3.1960340866
 20
24.0424407356
 10
-3.2196381112
 20
24.0393585686
 10
-3.2427928543
 20
24.0360360145
 10
-3.2654910301
 20
24.0324906078
 10
-3.2877249625
 20
24.0287396395
 10
-3.3095006919
 20
24.0247976302
 10
-3.3308304086
 20
24.0206770847
 10
-3.3517145242
 20
24.0163919982
 10
-3.3721525873
 20
24.0119561997
 10
-3.3921538549
 20
24.0073809792
 10
-3.4117206018
 20
24.0026786851
 10
-3.4308513076
 20
23.9978623555
 10
-3.4495478537
 20
23.9929440366
 10
-3.4678199139
 20
23.9879333951
 10
-3.4856587659
 20
23.9828449343
 10
-3.5030377547
 20
23.9776988839
 10
-3.5199448397
 20
23.9725119963
 10
-3.5363947679
 20
23.9672928227
 10
-3.5523996654
 20
23.9620501149
 10
-3.5679393463
 20
23.9568031613
 10
-3.5830352337
 20
23.9515573382
 10
-3.5977569742
 20
23.9462996874
 10
-3.6121031189
 20
23.9410410085
 10
-3.6260682734
 20
23.9357937051
 10
-3.6397085945
 20
23.9305464706
 10
-3.6530067795
 20
23.9253153276
 10
-3.6659628946
 20
23.9201099515
 10
-3.6786490919
 20
23.9149102921
 10
-3.691027907
 20
23.909740415
 10
-3.7031001017
 20
23.9046093628
 10
-3.7149775602
 20
23.8994779957
 10
-3.726614082
 20
23.8943744229
 10
-3.7379763622
 20
23.8893226823
 10
-3.7601701032
 20
23.87928272
  0
LINE
  5
318
100
AcDbEntity
  8
RACCORDO
100
AcDbLine
 62
253
  6
CONTINUOUS
 10
-12.6808551976
 20
27.4177208166
 11
-11.0606923078
 21
26.6076393717
  0
LINE
  5
319
100
AcDbEntity
  8
RACCORDO
100
AcDbLine
 62
253
  6
CONTINUOUS
 10
0.6834629668
 20
20.7355617344
 11
2.3036258566
 21
19.9254802895
  0
LINE
  5
31A
100
AcDbEntity
  8
RACCORDO
100
AcDbLine
 62
7
  6
CONTINUOUS
 10
-12.5694375822
 20
27.4239893798
 11
-10.9505600041
 21
26.6145505907
  0
LINE
  5
31B
100
AcDbEntity
  8
RACCORDO
100
AcDbLine
 62
7
  6
CONTINUOUS
 10
0.7948805822
 20
20.7418302976
 11
2.4137581604
 21
19.9323915085
  0
LINE
  5
31C
100
AcDbEntity
  8
RACCORDO
100
AcDbLine
 62
7
  6
CONTINUOUS
 10
-3.5987067
 20
23.8363254192
 11
-1.2238307
 21
22.6488874192
  0
LINE
  5
31D
100
AcDbEntity
  8
RACCORDO
100
AcDbLine
 62
253
  6
CONTINUOUS
 10
-0.5960656953
 20
22.9582968716
 11
-2.6067338609
 21
23.9636309545
  0
LINE
  5
31E
100
AcDbEntity
  8
RACCORDO
100
AcDbLine
 62
7
  6
CONTINUOUS
 10
-0.5477615571
 20
22.9821047565
 11
-2.5197592846
 21
23.9681036203
  0
LINE
  5
31F
100
AcDbEntity
  8
0
100
AcDbLine
 62
7
  6
CONTINUOUS
 10
-0.0203169356
 20
23.2420688359
 11
-2.8208353928
 21
24.6423280645
  0
LINE
  5
320
100
AcDbEntity
  8
RACCORDO
100
AcDbLine
 62
7
  6
CONTINUOUS
 10
9.1893856921
 20
19.3321745244
 11
8.2296163703
 21
20.9875317398
  0
LWPOLYLINE
  5
321
100
AcDbEntity
  8
RACCORDO
100
AcDbPolyline
 62
7
  6
CONTINUOUS
 90
31
 70
0
 10
17.7542076079
 20
21.7704972834
 10
17.7539152056
 20
21.8052679582
 10
17.7527723037
 20
21.8477495161
 10
17.7507728646
 20
21.8902944932
 10
17.7479232215
 20
21.9329081102
 10
17.7442308596
 20
21.9755699089
 10
17.7397067198
 20
22.0182304342
 10
17.7343587626
 20
22.0608835785
 10
17.7281942368
 20
22.1035215938
 10
17.7212276789
 20
22.1460904483
 10
17.7134676876
 20
22.1885835651
 10
17.7049217822
 20
22.2309943595
 10
17.695608302
 20
22.2732672016
 10
17.6855367705
 20
22.3153933238
 10
17.6747148459
 20
22.3573684641
 10
17.6631627195
 20
22.3991423631
 10
17.650892429
 20
22.4406987844
 10
17.6379099516
 20
22.4820412218
 10
17.62422837
 20
22.5231477277
 10
17.6098567574
 20
22.5640085887
 10
17.5948016497
 20
22.6046202381
 10
17.5790725086
 20
22.6449686243
 10
17.5626760967
 20
22.6850466273
 10
17.5456182568
 20
22.7248472979
 10
17.5279077115
 20
22.7643559554
 10
17.5095502915
 20
22.803564278
 10
17.4905503475
 20
22.8424649951
 10
17.4709146672
 20
22.8810453695
 10
17.4506475944
 20
22.9192963401
 10
17.4297522349
 20
22.9572103326
 10
17.4122401625
 20
22.9878892293
  0
LINE
  5
322
100
AcDbEntity
  8
RACCORDO
100
AcDbLine
 62
7
  6
CONTINUOUS
 10
17.7542076169
 20
3.335947901
 11
17.7542076013
 21
3.3359857307
  0
LINE
  5
323
100
AcDbEntity
  8
RACCORDO
100
AcDbLine
 62
7
  6
CONTINUOUS
 10
17.7542076169
 20
15.0272908521
 11
17.7542076013
 21
15.0273286819
  0
LINE
  5
324
100
AcDbEntity
  8
RACCORDO
100
AcDbLine
 62
253
  6
CONTINUOUS
 10
17.4735474173
 20
-0.663115927
 11
17.4735474173
 21
3.5197277042
  0
LINE
  5
325
100
AcDbEntity
  8
RACCORDO
100
AcDbLine
 62
253
  6
CONTINUOUS
 10
17.4735474173
 20
6.5566354254
 11
17.4735474173
 21
15.2110703748
  0
LINE
  5
326
100
AcDbEntity
  8
RACCORDO
100
AcDbLine
 62
253
  6
CONTINUOUS
 10
17.4735474173
 20
18.247978356
 11
17.4735474173
 21
21.4231572749
  0
LINE
  5
327
100
AcDbEntity
  8
RACCORDO
100
AcDbLine
 62
7
  6
CONTINUOUS
 10
17.7542076013
 20
19.1262021443
 11
17.7542076144
 21
19.1265054581
  0
LINE
  5
328
100
AcDbEntity
  8
RACCORDO
100
AcDbLine
 62
7
  6
CONTINUOUS
 10
17.7542076013
 20
7.4348591933
 11
17.7542076144
 21
7.435162507
  0
LINE
  5
329
100
AcDbEntity
  8
RACCORDO
100
AcDbLine
 62
7
  6
CONTINUOUS
 10
17.7542076169
 20
-0.3157867418
 11
17.7542076169
 21
3.3357718119
  0
LINE
  5
32A
100
AcDbEntity
  8
RACCORDO
100
AcDbLine
 62
7
  6
CONTINUOUS
 10
17.7542076169
 20
7.4352497424
 11
17.7542076169
 21
15.0271147621
  0
LINE
  5
32B
100
AcDbEntity
  8
RACCORDO
100
AcDbLine
 62
7
  6
CONTINUOUS
 10
17.7542076169
 20
19.1265926936
 11
17.7542076169
 21
21.7704973222
  0
LWPOLYLINE
  5
32C
100
AcDbEntity
  8
RACCORDO
100
AcDbPolyline
 62
7
  6
CONTINUOUS
 90
37
 70
0
 10
17.7542078646
 20
15.0272837438
 10
17.7542365196
 20
15.0313973234
 10
17.7546137813
 20
15.0427679416
 10
17.7554178122
 20
15.0539986028
 10
17.7566352549
 20
15.0650811879
 10
17.7582509267
 20
15.0759931679
 10
17.7602450064
 20
15.0866979496
 10
17.7625995304
 20
15.097183146
 10
17.7652963952
 20
15.1074376097
 10
17.7683102966
 20
15.1174291726
 10
17.771621436
 20
15.1271517426
 10
17.7752086735
 20
15.1365958825
 10
17.7790394454
 20
15.1457277352
 10
17.7830929091
 20
15.154547862
 10
17.7873447612
 20
15.1630491638
 10
17.7917509465
 20
15.1711909526
 10
17.7962847956
 20
15.1789723773
 10
17.8009232071
 20
15.1863985465
 10
17.8056219118
 20
15.1934429808
 10
17.8103524119
 20
15.2001075655
 10
17.8150935535
 20
15.20640404
 10
17.8198096268
 20
15.2123247491
 10
17.8244642445
 20
15.2178637504
 10
17.8290482457
 20
15.223047276
 10
17.8335694032
 20
15.2279154713
 10
17.8380040948
 20
15.2324707105
 10
17.8423415345
 20
15.2367281828
 10
17.8466146458
 20
15.2407415929
 10
17.8508179838
 20
15.244522848
 10
17.8549318069
 20
15.2480705591
 10
17.8589713365
 20
15.2514125924
 10
17.862943054
 20
15.2545663194
 10
17.8668179948
 20
15.2575204865
 10
17.8705578557
 20
15.2602594204
 10
17.8741490201
 20
15.2627874845
 10
17.8775804067
 20
15.2651107664
 10
17.8798366268
 20
15.2665894445
  0
LWPOLYLINE
  5
32D
100
AcDbEntity
  8
RACCORDO
100
AcDbPolyline
 62
7
  6
CONTINUOUS
 90
37
 70
0
 10
17.7542078646
 20
3.3359407928
 10
17.7542365187
 20
3.3400543101
 10
17.7546137781
 20
3.3514249293
 10
17.7554178067
 20
3.3626555917
 10
17.7566352473
 20
3.3737381784
 10
17.7582509172
 20
3.3846501602
 10
17.7602449952
 20
3.3953549439
 10
17.7625995177
 20
3.4058401425
 10
17.765296381
 20
3.4160946085
 10
17.7683102813
 20
3.4260861738
 10
17.7716214197
 20
3.4358087463
 10
17.7752086564
 20
3.4452528888
 10
17.7790394278
 20
3.454384744
 10
17.783092891
 20
3.4632048734
 10
17.7873447429
 20
3.4717061777
 10
17.7917509282
 20
3.479847969
 10
17.7962847774
 20
3.487629396
 10
17.8009231891
 20
3.4950555675
 10
17.8056218941
 20
3.502100004
 10
17.8103523946
 20
3.5087645907
 10
17.8150935366
 20
3.5150610671
 10
17.8198096105
 20
3.520981778
 10
17.8244642286
 20
3.5265207809
 10
17.8290482303
 20
3.531704308
 10
17.8335693884
 20
3.5365725046
 10
17.8380040805
 20
3.5411277451
 10
17.8423415208
 20
3.5453852186
 10
17.8466146327
 20
3.5493986297
 10
17.8508179713
 20
3.5531798859
 10
17.854931795
 20
3.556727598
 10
17.8589713254
 20
3.5600696324
 10
17.8629430437
 20
3.5632233603
 10
17.8668179854
 20
3.5661775284
 10
17.8705578472
 20
3.5689164631
 10
17.8741490124
 20
3.5714445281
 10
17.8775803999
 20
3.5737678108
 10
17.8798366268
 20
3.5752464934
  0
LWPOLYLINE
  5
32E
100
AcDbEntity
  8
RACCORDO
100
AcDbPolyline
 62
7
  6
CONTINUOUS
 90
40
 70
0
 10
10.3947625213
 20
-13.4431019918
 10
10.4149770099
 20
-13.4281696851
 10
10.443103404
 20
-13.4064261889
 10
10.4707248566
 20
-13.3839205677
 10
10.4978128025
 20
-13.3606723082
 10
10.5243560663
 20
-13.3366874102
 10
10.5503599392
 20
-13.3119559145
 10
10.575804947
 20
-13.2864897523
 10
10.6006723494
 20
-13.260301144
 10
10.6249666222
 20
-13.2333770504
 10
10.6486686406
 20
-13.2057288517
 10
10.6717590981
 20
-13.1773693668
 10
10.6942399296
 20
-13.1482844063
 10
10.7160927521
 20
-13.1184836901
 10
10.7372973769
 20
-13.0879811344
 10
10.7578509538
 20
-13.0567653296
 10
10.7777343718
 20
-13.0248473411
 10
10.7969287642
 20
-12.9922393992
 10
10.8154299617
 20
-12.958928508
 10
10.8332191035
 20
-12.9249254436
 10
10.8502773806
 20
-12.890242026
 10
10.8665990228
 20
-12.8548633295
 10
10.8821696923
 20
-12.8187888889
 10
10.8969655454
 20
-12.7820403706
 10
10.9109670278
 20
-12.7446333527
 10
10.9241601671
 20
-12.7065699927
 10
10.936524977
 20
-12.6678695756
 10
10.9480372378
 20
-12.6285720165
 10
10.9586841382
 20
-12.5886861225
 10
10.968451654
 20
-12.5482247721
 10
10.9773198649
 20
-12.5072329765
 10
10.9852788452
 20
-12.4657201087
 10
10.9923179936
 20
-12.4236974288
 10
10.9984224561
 20
-12.38121193
 10
11.0035846341
 20
-12.3382739738
 10
11.0077966728
 20
-12.2948926604
 10
11.0110486032
 20
-12.2511116248
 10
11.0133339516
 20
-12.206950492
 10
11.0146474563
 20
-12.1624079275
 10
11.0149949991
 20
-12.1246606014
  0
LINE
  5
32F
100
AcDbEntity
  8
RACCORDO
100
AcDbLine
 62
7
  6
CONTINUOUS
 10
8.2296163703
 20
-14.8233970049
 11
9.1893856921
 21
-14.1278091113
  0
LINE
  5
330
100
AcDbEntity
  8
RACCORDO
100
AcDbLine
 62
253
  6
CONTINUOUS
 10
10.1142297864
 20
-13.6387363196
 11
10.3201843335
 21
-13.4894718179
  0
LINE
  5
331
100
AcDbEntity
  8
RACCORDO
100
AcDbLine
 62
7
  6
CONTINUOUS
 10
10.1887973805
 20
-13.5923741868
 11
10.3947519275
 21
-13.4431096851
  0
LINE
  5
332
100
AcDbEntity
  8
RACCORDO
100
AcDbLine
 62
253
  6
CONTINUOUS
 10
10.1142297864
 20
-13.6387363196
 11
9.1893856921
 21
-14.1278091113
  0
LINE
  5
333
100
AcDbEntity
  8
RACCORDO
100
AcDbLine
 62
7
  6
CONTINUOUS
 10
10.0694418565
 20
-13.6666710136
 11
9.1676935898
 21
-14.1435303511
  0
LINE
  5
334
100
AcDbEntity
  8
DRAFT
100
AcDbLine
 62
7
  6
CONTINUOUS
 10
2.8713741957
 20
-17.6569237308
 11
8.2296163703
 21
-14.8233970049
  0
LINE
  5
335
100
AcDbEntity
  8
RACCORDO
100
AcDbLine
 62
253
  6
CONTINUOUS
 10
2.8713741957
 20
-16.6140196614
 11
10.7343348091
 21
-12.4719887189
  0
LINE
  5
336
100
AcDbEntity
  8
RACCORDO
100
AcDbLine
 62
253
  6
CONTINUOUS
 10
2.8713741957
 20
-17.4133375972
 11
10.3201843335
 21
-13.4894718179
  0
LINE
  5
337
100
AcDbEntity
  8
0
100
AcDbLine
 62
7
  6
CONTINUOUS
 10
3.3947710549
 20
25.7821101691
 11
2.9450263935
 21
25.6603623359
  0
LINE
  5
338
100
AcDbEntity
  8
DRAFT
100
AcDbLine
 62
7
  6
CONTINUOUS
 10
-3.1743887834
 20
25.3716629491
 11
-2.8208353928
 21
25.1948862538
  0
LINE
  5
339
100
AcDbEntity
  8
0
100
AcDbLine
 62
7
  6
CONTINUOUS
 10
1.3874987606
 20
23.9359454943
 11
-1.4230508863
 21
25.3412203178
  0
LINE
  5
33A
100
AcDbEntity
  8
DRAFT
100
AcDbLine
 62
7
  6
CONTINUOUS
 10
7.4418277226
 20
21.3814260637
 11
8.2296163703
 21
20.9875317398
  0
LINE
  5
33B
100
AcDbEntity
  8
0
100
AcDbLine
 62
7
  6
CONTINUOUS
 10
-0.0631189462
 20
25.4149685052
 11
2.146621942
 21
24.3100980611
  0
LINE
  5
33C
100
AcDbEntity
  8
0
100
AcDbLine
 62
7
  6
CONTINUOUS
 10
2.8922067651
 20
23.9373056495
 11
3.0380201751
 21
23.8643989445
  0
LINE
  5
33D
100
AcDbEntity
  8
RACCORDO
100
AcDbLine
 62
7
  6
CONTINUOUS
 10
-2.9305766919
 20
27.1119410577
 11
-2.7501247147
 21
27.0217150692
  0
LINE
  5
33E
100
AcDbEntity
  8
RACCORDO
100
AcDbLine
 62
7
  6
CONTINUOUS
 10
2.6238868223
 20
24.3347093007
 11
2.8043387994
 21
24.2444833121
  0
LINE
  5
33F
100
AcDbEntity
  8
RACCORDO
100
AcDbLine
 62
253
  6
CONTINUOUS
 10
-3.7431450359
 20
27.6908380821
 11
-0.764055135
 21
26.2012931316
  0
LINE
  5
340
100
AcDbEntity
  8
RACCORDO
100
AcDbLine
 62
253
  6
CONTINUOUS
 10
3.4785855521
 20
24.0799727881
 11
6.4576754531
 21
22.5904278376
  0
LWPOLYLINE
  5
341
100
AcDbEntity
  8
RACCORDO
100
AcDbPolyline
 62
7
  6
CONTINUOUS
 90
19
 70
0
 10
19.4251210074
 20
7.3508543047
 10
19.4250787717
 20
7.3574593515
 10
19.4246930279
 20
7.3719446147
 10
19.4239080292
 20
7.3864491118
 10
19.4227263651
 20
7.4009806193
 10
19.4211515793
 20
7.4155256915
 10
19.4191908446
 20
7.4300479529
 10
19.4168483536
 20
7.4445457707
 10
19.4141272984
 20
7.4590170574
 10
19.4110382051
 20
7.4734239668
 10
19.4075852413
 20
7.4877660139
 10
19.4037717286
 20
7.5020411458
 10
19.39961226
 20
7.5162087488
 10
19.395111248
 20
7.5302677873
 10
19.3902722386
 20
7.5442172705
 10
19.3851132821
 20
7.5580165583
 10
19.3796444167
 20
7.5716517483
 10
19.3738645161
 20
7.5851359247
 10
19.3710873909
 20
7.5913199835
  0
LWPOLYLINE
  5
342
100
AcDbEntity
  8
RACCORDO
100
AcDbPolyline
 62
7
  6
CONTINUOUS
 90
19
 70
0
 10
19.4251210074
 20
19.0421972835
 10
19.4250787716
 20
19.0488023306
 10
19.4246930278
 20
19.0632875941
 10
19.4239080291
 20
19.0777920914
 10
19.422726365
 20
19.0923235992
 10
19.4211515792
 20
19.1068686717
 10
19.4191908444
 20
19.1213909333
 10
19.4168483533
 20
19.1358887514
 10
19.414127298
 20
19.1503600384
 10
19.4110382046
 20
19.164766948
 10
19.4075852407
 20
19.1791089954
 10
19.4037717279
 20
19.1933841275
 10
19.3996122591
 20
19.2075517308
 10
19.395111247
 20
19.2216107695
 10
19.3902722374
 20
19.2355602529
 10
19.3851132808
 20
19.2493595409
 10
19.3796444152
 20
19.2629947312
 10
19.3738645144
 20
19.2764789077
 10
19.3710873892
 20
19.2826629666
  0
LINE
  5
343
100
AcDbEntity
  8
RACCORDO
100
AcDbLine
 62
253
  6
CONTINUOUS
 10
19.3409230057
 20
18.9379997195
 11
19.3409230057
 21
18.8116566372
  0
LINE
  5
344
100
AcDbEntity
  8
RACCORDO
100
AcDbLine
 62
253
  6
CONTINUOUS
 10
19.3409230057
 20
16.5811164673
 11
19.3409230057
 21
16.4547734379
  0
LINE
  5
345
100
AcDbEntity
  8
RACCORDO
100
AcDbLine
 62
253
  6
CONTINUOUS
 10
19.3409230057
 20
7.2466567407
 11
19.3409230057
 21
7.1203136862
  0
LINE
  5
346
100
AcDbEntity
  8
RACCORDO
100
AcDbLine
 62
253
  6
CONTINUOUS
 10
19.3409230057
 20
4.8897735162
 11
19.3409230057
 21
4.7634304299
  0
LINE
  5
347
100
AcDbEntity
  8
RACCORDO
100
AcDbLine
 62
7
  6
CONTINUOUS
 10
19.4251210656
 20
19.042198475
 11
19.4251210656
 21
18.8971265307
  0
LINE
  5
348
100
AcDbEntity
  8
RACCORDO
100
AcDbLine
 62
7
  6
CONTINUOUS
 10
19.4251210656
 20
16.6736853489
 11
19.4251210656
 21
16.558972193
  0
LINE
  5
349
100
AcDbEntity
  8
RACCORDO
100
AcDbLine
 62
7
  6
CONTINUOUS
 10
19.4251210656
 20
7.3508554962
 11
19.4251210656
 21
7.2057835796
  0
LINE
  5
34A
100
AcDbEntity
  8
RACCORDO
100
AcDbLine
 62
7
  6
CONTINUOUS
 10
19.4251210656
 20
4.9823423978
 11
19.4251210656
 21
4.867629185
  0
LINE
  5
34B
100
AcDbEntity
  8
ASSI
100
AcDbLine
 62
7
  6
CONTINUOUS
 10
1.2096732599
 20
-21.071003977
 11
0.3965004616
 21
-21.5998751075
  0
LINE
  5
34C
100
AcDbEntity
  8
ASSI
100
AcDbLine
 62
253
  6
CONTINUOUS
 10
-3.0934591986
 20
-22.4427388693
 11
1.0651621227
 21
-19.9921318626
  0
LINE
  5
34D
100
AcDbEntity
  8
ASSI
100
AcDbLine
 62
7
  6
CONTINUOUS
 10
0.9266578148
 20
-20.3854420841
 11
-3.2383373412
 21
-22.8398049025
  0
LINE
  5
34E
100
AcDbEntity
  8
RACCORDO
100
AcDbLine
 62
253
  6
CONTINUOUS
 10
2.8713741957
 20
-17.9305502745
 11
6.899516321
 21
-15.908647091
  0
LINE
  5
34F
100
AcDbEntity
  8
RACCORDO
100
AcDbLine
 62
7
  6
CONTINUOUS
 10
2.8713741957
 20
-17.9322183553
 11
6.8491372667
 21
-15.9356026534
  0
LINE
  5
350
100
AcDbEntity
  8
RACCORDO
100
AcDbLine
 62
253
  6
CONTINUOUS
 10
2.8713741957
 20
-17.6927452438
 11
7.5636147305
 21
-15.3653593469
  0
LINE
  5
351
100
AcDbEntity
  8
RACCORDO
100
AcDbLine
 62
253
  6
CONTINUOUS
 10
2.8713741957
 20
-17.8146199716
 11
7.6477662981
 21
-15.4454942767
  0
LINE
  5
352
100
AcDbEntity
  8
0
100
AcDbLine
 62
7
  6
CONTINUOUS
 10
-1.4230508863
 20
25.3412203178
 11
-0.0631189462
 21
25.4149685052
  0
LINE
  5
353
100
AcDbEntity
  8
0
100
AcDbLine
 62
7
  6
CONTINUOUS
 10
10.2223432004
 20
21.9480517347
 11
9.772598539
 21
22.0697995678
  0
LINE
  5
354
100
AcDbEntity
  8
RACCORDO
100
AcDbLine
 62
7
  6
CONTINUOUS
 10
-3.5495020241
 20
27.8398875443
 11
-0.3230121319
 21
26.2266425982
  0
LINE
  5
355
100
AcDbEntity
  8
RACCORDO
100
AcDbLine
 62
7
  6
CONTINUOUS
 10
3.9196285552
 20
24.1053222547
 11
7.1461184474
 21
22.4920773086
  0
LINE
  5
356
100
AcDbEntity
  8
0
100
AcDbLine
 62
7
  6
CONTINUOUS
 10
1.5777699178
 20
25.4954624363
 11
0.2727439613
 21
26.1479754146
  0
LINE
  5
357
100
AcDbEntity
  8
0
100
AcDbLine
 62
7
  6
CONTINUOUS
 10
9.2776237922
 20
21.8223121944
 11
8.5706548521
 21
22.1757966645
  0
LINE
  5
358
100
AcDbEntity
  8
0
100
AcDbLine
 62
7
  6
CONTINUOUS
 10
9.772598539
 20
22.0697995678
 11
9.0656295989
 21
22.4232840379
  0
LINE
  5
359
100
AcDbEntity
  8
0
100
AcDbLine
 62
7
  6
CONTINUOUS
 10
2.9450263935
 20
25.6603623359
 11
1.1212720987
 21
26.5722394833
  0
LINE
  5
35A
100
AcDbEntity
  8
DRAFT
100
AcDbLine
 62
7
  6
CONTINUOUS
 10
8.3021098977
 20
23.1773486871
 11
8.7344241485
 21
22.9611915617
  0
LINE
  5
35B
100
AcDbEntity
  8
SMUSSO
100
AcDbLine
 62
7
  6
CONTINUOUS
 10
1.309802946
 20
26.673502163
 11
0.8774886952
 21
26.8896592883
  0
LINE
  5
35C
100
AcDbEntity
  8
0
100
AcDbLine
 62
7
  6
CONTINUOUS
 10
4.101739995
 20
26.1355946391
 11
4.5967147418
 21
25.8881072657
  0
LINE
  5
35D
100
AcDbEntity
  8
0
100
AcDbLine
 62
7
  6
CONTINUOUS
 10
9.2776237922
 20
21.8223121944
 11
9.3735377147
 21
21.7337340787
  0
LINE
  5
35E
100
AcDbEntity
  8
RACCORDO
100
AcDbLine
 62
7
  6
CONTINUOUS
 10
1.7753586849
 20
-22.5999982352
 11
2.3036258566
 21
-22.3289871766
  0
LINE
  5
35F
100
AcDbEntity
  8
RACCORDO
100
AcDbLine
 62
253
  6
CONTINUOUS
 10
2.1642674145
 20
-20.7592813593
 11
2.8713741957
 21
-20.3981702795
  0
LINE
  5
360
100
AcDbEntity
  8
RACCORDO
100
AcDbLine
 62
7
  6
CONTINUOUS
 10
2.0743034464
 20
-20.9480914359
 11
2.7814102286
 21
-20.5869803556
  0
LINE
  5
361
100
AcDbEntity
  8
RACCORDO
100
AcDbLine
 62
7
  6
CONTINUOUS
 10
2.0742986404
 20
-20.9480938907
 11
2.0722910435
 21
-20.9490975981
  0
LINE
  5
362
100
AcDbEntity
  8
RACCORDO
100
AcDbLine
 62
253
  6
CONTINUOUS
 10
0.3965004616
 20
-21.6242706128
 11
2.1642674145
 21
-20.7592813593
  0
LINE
  5
363
100
AcDbEntity
  8
RACCORDO
100
AcDbLine
 62
7
  6
CONTINUOUS
 10
0.3045195426
 20
-21.814089077
 11
2.0722864969
 21
-20.9490998229
  0
LINE
  5
364
100
AcDbEntity
  8
RACCORDO
100
AcDbLine
 62
7
  6
CONTINUOUS
 10
0.174077894
 20
-23.3800328349
 11
1.7753586849
 21
-22.5999982352
  0
LINE
  5
365
100
AcDbEntity
  8
DRAFT
100
AcDbLine
 62
7
  6
CONTINUOUS
 10
15.3834804354
 20
23.6151215037
 11
12.2741507151
 21
25.1697863638
  0
LINE
  5
366
100
AcDbEntity
  8
DRAFT
100
AcDbLine
 62
7
  6
CONTINUOUS
 10
7.9588592329
 20
27.3274321049
 11
4.8495295127
 21
28.882096965
  0
LINE
  5
367
100
AcDbEntity
  8
RACCORDO
100
AcDbLine
 62
253
  6
CONTINUOUS
 10
15.891252898
 20
23.8588249189
 11
16.4236507559
 21
23.59262599
  0
LINE
  5
368
100
AcDbEntity
  8
RACCORDO
100
AcDbLine
 62
253
  6
CONTINUOUS
 10
11.2308017152
 20
26.1890505103
 11
8.4666316955
 21
27.5711355202
  0
LINE
  5
369
100
AcDbEntity
  8
RACCORDO
100
AcDbLine
 62
253
  6
CONTINUOUS
 10
3.8061805127
 20
29.9013611116
 11
3.2737826548
 21
30.1675600405
  0
LINE
  5
36A
100
AcDbEntity
  8
RACCORDO
100
AcDbLine
 62
7
  6
CONTINUOUS
 10
16.2378848892
 20
23.9253086932
 11
16.8585236365
 21
23.6149893196
  0
LINE
  5
36B
100
AcDbEntity
  8
RACCORDO
100
AcDbLine
 62
7
  6
CONTINUOUS
 10
11.753915485
 20
26.1672933953
 11
8.8132636867
 21
27.6376192944
  0
LINE
  5
36C
100
AcDbEntity
  8
RACCORDO
100
AcDbLine
 62
7
  6
CONTINUOUS
 10
4.3292942826
 20
29.8796039965
 11
3.7086555353
 21
30.1899233701
  0
LINE
  5
36D
100
AcDbEntity
  8
RACCORDO
100
AcDbLine
 62
253
  6
CONTINUOUS
 10
16.9235746035
 20
23.0890497307
 11
17.0593969416
 21
22.8547908495
  0
LINE
  5
36E
100
AcDbEntity
  8
RACCORDO
100
AcDbLine
 62
7
  6
CONTINUOUS
 10
17.2764178523
 20
23.2221480881
 11
17.4122401905
 21
22.9878892069
  0
ARC
  5
36F
100
AcDbEntity
  8
RACCORDO
100
AcDbCircle
 62
253
  6
CONTINUOUS
 10
73.3579585176
 20
-141.8091792267
 40
158.5417369698
100
AcDbArc
 50
109.9202447493
 51
110.6397036986
  0
ARC
  5
370
100
AcDbEntity
  8
RACCORDO
100
AcDbCircle
 62
253
  6
CONTINUOUS
 10
73.3575596545
 20
-130.1167464487
 40
158.5405764784
100
AcDbArc
 50
109.9202434155
 51
110.6397076372
  0
ARC
  5
371
100
AcDbEntity
  8
RACCORDO
100
AcDbCircle
 62
253
  6
CONTINUOUS
 10
50.594569147
 20
-86.0687365716
 40
98.7071606113
100
AcDbArc
 50
108.4917157281
 51
109.3800929565
  0
ARC
  5
372
100
AcDbEntity
  8
RACCORDO
100
AcDbCircle
 62
253
  6
CONTINUOUS
 10
50.5939196234
 20
-74.3754680063
 40
98.7051284511
100
AcDbArc
 50
108.4917126856
 51
109.380108253
  0
ARC
  5
373
100
AcDbEntity
  8
0
100
AcDbCircle
 62
7
  6
CONTINUOUS
 10
2.5483925004
 20
22.1489905929
 40
4.6832761914
100
AcDbArc
 50
105.3087208574
 51
107.8865202771
  0
ARC
  5
374
100
AcDbEntity
  8
0
100
AcDbCircle
 62
7
  6
CONTINUOUS
 10
10.6900814036
 20
18.6595481584
 40
4.4493422648
100
AcDbArc
 50
71.1365540201
 51
72.1042384717
  0
ARC
  5
375
100
AcDbEntity
  8
0
100
AcDbCircle
 62
7
  6
CONTINUOUS
 10
2.4664033984
 20
22.4043827219
 40
4.4150464924
100
AcDbArc
 50
107.8918797471
 51
108.8663427852
  0
ARC
  5
376
100
AcDbEntity
  8
0
100
AcDbCircle
 62
253
  6
CONTINUOUS
 10
11.6506481308
 20
20.7600684604
 40
2.0868883926
100
AcDbArc
 50
52.98732899
 51
53.4094815953
  0
ARC
  5
377
100
AcDbEntity
  8
RACCORDO
100
AcDbCircle
 62
7
  6
CONTINUOUS
 10
17.9687078007
 20
5.734539128
 40
1.6392070867
100
AcDbArc
 50
331.5829424896
 51
332.6847607632
  0
ARC
  5
378
100
AcDbEntity
  8
RACCORDO
100
AcDbCircle
 62
7
  6
CONTINUOUS
 10
17.9687078007
 20
17.4258820791
 40
1.6392070868
100
AcDbArc
 50
331.5829424896
 51
332.6847607632
  0
ARC
  5
379
100
AcDbEntity
  8
RACCORDO
100
AcDbCircle
 62
7
  6
CONTINUOUS
 10
6.3761568173
 20
-14.9910891625
 40
1.0563227358
100
AcDbArc
 50
296.597158829
 51
299.6997032394
  0
ARC
  5
37A
100
AcDbEntity
  8
RACCORDO
100
AcDbCircle
 62
7
  6
CONTINUOUS
 10
9.6017366041
 20
-12.7823217554
 40
1.0004125632
100
AcDbArc
 50
301.262116211
 51
305.9315753449
  0
ARC
  5
37B
100
AcDbEntity
  8
RACCORDO
100
AcDbCircle
 62
7
  6
CONTINUOUS
 10
9.6018671791
 20
-12.7824891369
 40
1.0002018087
100
AcDbArc
 50
297.8705034905
 51
300.3268258143
  0
ARC
  5
37C
100
AcDbEntity
  8
RACCORDO
100
AcDbCircle
 62
7
  6
CONTINUOUS
 10
16.4113097354
 20
22.7205615851
 40
1.000000537
100
AcDbArc
 50
30.1049999827
 51
63.4349132862
  0
ARC
  5
37D
100
AcDbEntity
  8
RACCORDO
100
AcDbCircle
 62
7
  6
CONTINUOUS
 10
16.7542072582
 20
-0.3157864422
 40
1.0000003531
100
AcDbArc
 50
298.3477891843
 51
0.0000676248
  0
ARC
  5
37E
100
AcDbEntity
  8
RACCORDO
100
AcDbCircle
 62
7
  6
CONTINUOUS
 10
3.2614418488
 20
29.2954967178
 40
0.9999994409
100
AcDbArc
 50
63.4349188672
 51
115.2504322683
  0
ARC
  5
37F
100
AcDbEntity
  8
RACCORDO
100
AcDbCircle
 62
7
  6
CONTINUOUS
 10
9.6020115774
 20
-12.7827416752
 40
0.9999109166
100
AcDbArc
 50
300.326990609
 51
301.2611347226
  0
ARC
  5
380
100
AcDbEntity
  8
RACCORDO
100
AcDbCircle
 62
253
  6
CONTINUOUS
 10
9.8584393209
 20
-12.8517340337
 40
0.7873486762
100
AcDbArc
 50
305.9058856771
 51
312.1964026922
  0
ARC
  5
381
100
AcDbEntity
  8
0
100
AcDbCircle
 62
7
  6
CONTINUOUS
 10
0.5277723714
 20
26.2100448567
 40
0.6892408467
100
AcDbArc
 50
180.0019218096
 51
185.67464815
  0
ARC
  5
382
100
AcDbEntity
  8
0
100
AcDbCircle
 62
7
  6
CONTINUOUS
 10
7.9523935738
 20
22.4977342555
 40
0.6892408466
100
AcDbArc
 50
180.0019218094
 51
185.674647979
  0
ARC
  5
383
100
AcDbEntity
  8
RACCORDO
100
AcDbCircle
 62
253
  6
CONTINUOUS
 10
9.8241572956
 20
-13.089044096
 40
0.6215332579
100
AcDbArc
 50
297.8206030168
 51
305.9216450286
  0
ARC
  5
384
100
AcDbEntity
  8
RACCORDO
100
AcDbCircle
 62
253
  6
CONTINUOUS
 10
10.0301126005
 20
-12.9397808263
 40
0.6215318145
100
AcDbArc
 50
297.8205942356
 51
305.9216550863
  0
ARC
  5
385
100
AcDbEntity
  8
RACCORDO
100
AcDbCircle
 62
253
  6
CONTINUOUS
 10
9.8958365788
 20
-13.3384563768
 40
0.3712999289
100
AcDbArc
 50
297.876076126
 51
306.0283461424
  0
ARC
  5
386
100
AcDbEntity
  8
RACCORDO
100
AcDbCircle
 62
253
  6
CONTINUOUS
 10
17.5041405474
 20
-0.3157878733
 40
0.2500669634
100
AcDbArc
 50
359.3409357965
 51
0.0002597188
  0
ARC
  5
387
100
AcDbEntity
  8
RACCORDO
100
AcDbCircle
 62
253
  6
CONTINUOUS
 10
10.83791925
 20
-4.8385189868
 40
0.1770761371
100
AcDbArc
 50
359.9984012688
 51
0.5452110926
  0
ARC
  5
388
100
AcDbEntity
  8
RACCORDO
100
AcDbCircle
 62
7
  6
CONTINUOUS
 10
-3.7442813278
 20
23.7118099842
 40
0.1587380553
100
AcDbArc
 50
114.8134763966
 51
131.2434515811
  0
ARC
  5
389
100
AcDbEntity
  8
RACCORDO
100
AcDbCircle
 62
7
  6
CONTINUOUS
 10
19.3921729995
 20
18.7116948641
 40
0.1123339573
100
AcDbArc
 50
117.1440294399
 51
119.249314977
  0
ARC
  5
38A
100
AcDbEntity
  8
RACCORDO
100
AcDbCircle
 62
7
  6
CONTINUOUS
 10
19.3921729995
 20
7.020351913
 40
0.1123339573
100
AcDbArc
 50
117.1440294398
 51
119.2493149772
  0
ARC
  5
38B
100
AcDbEntity
  8
RACCORDO
100
AcDbCircle
 62
7
  6
CONTINUOUS
 10
19.291128319
 20
16.6762733203
 40
0.1073980331
100
AcDbArc
 50
295.4533439599
 51
297.6226396587
  0
ARC
  5
38C
100
AcDbEntity
  8
RACCORDO
100
AcDbCircle
 62
7
  6
CONTINUOUS
 10
19.291128319
 20
4.9849303692
 40
0.1073980331
100
AcDbArc
 50
295.4533439597
 51
297.6226396588
  0
ARC
  5
38D
100
AcDbEntity
  8
RACCORDO
100
AcDbCircle
 62
253
  6
CONTINUOUS
 10
-2.5533206637
 20
23.9009827765
 40
0.075043702
100
AcDbArc
 50
63.4342951683
 51
64.3286816038
  0
ARC
  5
38E
100
AcDbEntity
  8
RACCORDO
100
AcDbCircle
 62
253
  6
CONTINUOUS
 10
-107.395549069
 20
204.7212950963
 40
226.9502512254
100
AcDbArc
 50
303.3810578594
 51
303.9474869454
  0
ARC
  5
38F
100
AcDbEntity
  8
RACCORDO
100
AcDbCircle
 62
253
  6
CONTINUOUS
 10
-107.3889359037
 20
193.0200740674
 40
226.9383639072
100
AcDbArc
 50
303.3810358764
 51
303.9474945856
  0
ARC
  5
390
100
AcDbEntity
  8
RACCORDO
100
AcDbCircle
 62
253
  6
CONTINUOUS
 10
-75.5026139978
 20
155.7979650902
 40
168.7042359566
100
AcDbArc
 50
303.5932123783
 51
304.185477062
  0
ARC
  5
391
100
AcDbEntity
  8
RACCORDO
100
AcDbCircle
 62
253
  6
CONTINUOUS
 10
-75.4995990681
 20
144.102144566
 40
168.6988379924
100
AcDbArc
 50
303.5932007388
 51
304.1854844305
  0
ARC
  5
392
100
AcDbEntity
  8
ASSI
100
AcDbCircle
 62
253
  6
CONTINUOUS
 10
276.5646136363
 20
23.3610680656
 40
285.0853490469
100
AcDbArc
 50
182.5211007937
 51
184.00200663
  0
ARC
  5
393
100
AcDbEntity
  8
ASSI
100
AcDbCircle
 62
253
  6
CONTINUOUS
 10
271.0513089434
 20
23.0458327311
 40
278.4477339127
100
AcDbArc
 50
182.5105781796
 51
185.9768198223
  0
ARC
  5
394
100
AcDbEntity
  8
ASSI
100
AcDbCircle
 62
253
  6
CONTINUOUS
 10
263.0145449517
 20
22.4144010976
 40
271.5022515403
100
AcDbArc
 50
184.0022851479
 51
186.5362455715
  0
ARC
  5
395
100
AcDbEntity
  8
ASSI
100
AcDbCircle
 62
253
  6
CONTINUOUS
 10
249.6619726207
 20
20.94845379
 40
256.9563147274
100
AcDbArc
 50
186.0083067279
 51
188.6915519497
  0
ARC
  5
396
100
AcDbEntity
  8
ASSI
100
AcDbCircle
 62
253
  6
CONTINUOUS
 10
244.5279670612
 20
20.3416231417
 40
252.8998917068
100
AcDbArc
 50
186.5464528195
 51
189.7140453852
  0
ARC
  5
397
100
AcDbEntity
  8
ASSI
100
AcDbCircle
 62
253
  6
CONTINUOUS
 10
237.1393911586
 20
19.1287138541
 40
244.3025681202
100
AcDbArc
 50
188.7134822812
 51
189.7429557652
  0
SPLINE
  5
398
100
AcDbEntity
  8
0
100
AcDbSpline
 62
7
  6
CONTINUOUS
 70
0
 71
3
 72
11
 73
7
 74
5
 42
0.0000001
 43
0.0000001
 44
0.0000000001
 12
-0.0965918699
 22
0.0482959349
 32
0.0
 13
-0.0872764601
 23
-0.0636027213
 33
0.0
 40
0.0
 40
0.0
 40
0.0
 40
0.0
 40
0.2809924464
 40
0.5358542793
 40
0.7714714315
 40
1.0
 40
1.0
 40
1.0
 40
1.0
 10
0.2727439613
 20
26.1479754146
 30
0.0
 10
0.263696766
 20
26.1524990122
 30
0.0
 10
0.245593695
 20
26.1596105714
 30
0.0
 10
0.2178089055
 20
26.1636110531
 30
0.0
 10
0.1917891495
 20
26.1599404856
 30
0.0
 10
0.1765558399
 20
26.152249585
 30
0.0
 10
0.1699074517
 20
26.147404572
 30
0.0
 11
0.2727439613
 21
26.1479754146
 31
0.0
 11
0.2443820672
 21
26.1587659226
 31
0.0
 11
0.2170928766
 21
26.1623480579
 31
0.0
 11
0.1919355033
 21
26.1585329989
 31
0.0
 11
0.1699074517
 21
26.147404572
 31
0.0
  0
SPLINE
  5
399
100
AcDbEntity
  8
0
100
AcDbSpline
 62
7
  6
CONTINUOUS
 70
0
 71
3
 72
11
 73
7
 74
5
 42
0.0000001
 43
0.0000001
 44
0.0000000001
 12
0.0090556998
 22
0.1201700239
 32
0.0
 13
0.1140377857
 23
0.038964391
 33
0.0
 40
0.0
 40
0.0
 40
0.0
 40
0.0
 40
0.2874090476
 40
0.5443562783
 40
0.777392374
 40
1.0
 40
1.0
 40
1.0
 40
1.0
 10
0.9778950935
 20
26.4858187226
 30
0.0
 10
0.9787626568
 20
26.4973313733
 30
0.0
 10
0.9824209215
 20
26.519086499
 30
0.0
 10
0.9949310633
 20
26.5481048431
 30
0.0
 10
1.0138753805
 20
26.5702363576
 30
0.0
 10
1.0302849996
 20
26.5793414963
 30
0.0
 10
1.0387468932
 20
26.5822327532
 30
0.0
 11
0.9778950935
 21
26.4858187226
 31
0.0
 11
0.9840478143
 21
26.5199037363
 31
0.0
 11
0.9967296682
 21
26.5481525556
 31
0.0
 11
1.0152764193
 21
26.5692402963
 31
0.0
 11
1.0387468932
 21
26.5822327532
 31
0.0
  0
SPLINE
  5
39A
100
AcDbEntity
  8
0
100
AcDbSpline
 62
7
  6
CONTINUOUS
 70
0
 71
3
 72
9
 73
5
 74
3
 42
0.0000001
 43
0.0000001
 44
0.0000000001
 12
0.1466015944
 22
0.1286115656
 32
0.0
 13
0.1575922883
 23
0.1148809512
 33
0.0
 40
0.0
 40
0.0
 40
0.0
 40
0.0
 40
0.2457910775
 40
1.0
 40
1.0
 40
1.0
 40
1.0
 10
0.0175363834
 20
26.0257440801
 30
0.0
 10
0.0295475047
 20
26.0362812719
 30
0.0
 10
0.0789292127
 20
26.0785632811
 30
0.0
 10
0.1302881562
 20
26.1185234127
 30
0.0
 10
0.1699073262
 20
26.1474048255
 30
0.0
 11
0.0175363834
 21
26.0257440801
 31
0.0
 11
0.0539421224
 21
26.0569260809
 31
0.0
 11
0.1699073262
 21
26.1474048255
 31
0.0
  0
LINE
  5
39B
100
AcDbEntity
  8
0
100
AcDbLine
 62
7
  6
CONTINUOUS
 10
1.3119145762
 20
26.666091237
 11
1.3168382774
 21
26.6674387878
  0
SPLINE
  5
39C
100
AcDbEntity
  8
0
100
AcDbSpline
 62
7
  6
CONTINUOUS
 70
0
 71
3
 72
15
 73
11
 74
9
 42
0.0000001
 43
0.0000001
 44
0.0000000001
 12
4.2170578851
 22
1.1518022409
 32
0.0
 13
3.570909657
 23
-2.5216720305
 33
0.0
 40
0.0
 40
0.0
 40
0.0
 40
0.0
 40
0.1270433226
 40
0.2593378432
 40
0.3939563689
 40
0.5277692799
 40
0.6577106572
 40
0.7810262982
 40
0.8955439885
 40
1.0
 40
1.0
 40
1.0
 40
1.0
 10
1.3168382774
 20
26.6674387878
 30
0.0
 10
1.4954212924
 20
26.716215049
 30
0.0
 10
1.8657513693
 20
26.7954042738
 30
0.0
 10
2.4368996054
 20
26.8604864223
 30
0.0
 10
3.0214995621
 20
26.8733353474
 30
0.0
 10
3.6014474114
 20
26.8335606441
 30
0.0
 10
4.1589353087
 20
26.7423031896
 30
0.0
 10
4.6772747703
 20
26.6019558345
 30
0.0
 10
5.1413595248
 20
26.4159654374
 30
0.0
 10
5.4193896243
 20
26.2560964079
 30
0.0
 10
5.5437239511
 20
26.1682951403
 30
0.0
 11
1.3168382774
 21
26.6674387878
 31
0.0
 11
1.8596089929
 21
26.785078503
 31
0.0
 11
2.4341255027
 21
26.8513725057
 31
0.0
 11
3.0224682167
 21
26.8644559671
 31
0.0
 11
3.6060302822
 21
26.8239465615
 31
0.0
 11
4.1664192223
 21
26.7310173525
 31
0.0
 11
4.6862494768
 21
26.5882557372
 31
0.0
 11
5.1498431213
 21
26.3993160885
 31
0.0
 11
5.5437239511
 21
26.1682951403
 31
0.0
  0
LINE
  5
39D
100
AcDbEntity
  8
0
100
AcDbLine
 62
7
  6
CONTINUOUS
 10
0.9277733099
 20
25.8204607507
 11
0.9778950935
 21
26.4858187226
  0
SPLINE
  5
39E
100
AcDbEntity
  8
0
100
AcDbSpline
 62
253
  6
CONTINUOUS
 70
0
 71
3
 72
9
 73
5
 74
3
 42
0.0000001
 43
0.0000001
 44
0.0000000001
 12
-0.1996542476
 22
-0.1482277991
 32
0.0
 13
-0.1779856347
 23
-0.1736502601
 33
0.0
 40
0.0
 40
0.0
 40
0.0
 40
0.0
 40
0.2582044062
 40
1.0
 40
1.0
 40
1.0
 40
1.0
 10
0.2727439613
 20
26.1479754146
 30
0.0
 10
0.2555600925
 20
26.1352177243
 30
0.0
 10
0.1897712293
 20
26.0847974471
 30
0.0
 10
0.1271170246
 20
26.0302264692
 30
0.0
 10
0.0831073714
 20
25.9872888033
 30
0.0
 11
0.2727439613
 21
26.1479754146
 31
0.0
 11
0.22179513
 21
26.1089035236
 31
0.0
 11
0.0831073714
 21
25.9872888033
 31
0.0
  0
SPLINE
  5
39F
100
AcDbEntity
  8
0
100
AcDbSpline
 62
253
  6
CONTINUOUS
 70
0
 71
3
 72
17
 73
13
 74
11
 42
0.0000001
 43
0.0000001
 44
0.0000000001
 12
-3.6106267271
 22
2.7220627026
 32
0.0
 13
-4.2853177281
 23
-1.4430186032
 33
0.0
 40
0.0
 40
0.0
 40
0.0
 40
0.0
 40
0.0489605725
 40
0.1012535654
 40
0.1567433275
 40
0.2151999721
 40
0.3396926854
 40
0.4717373555
 40
0.6076864287
 40
0.7436163093
 40
0.8755974606
 40
1.0
 40
1.0
 40
1.0
 40
1.0
 10
5.4822999435
 20
26.1387740831
 30
0.0
 10
5.4233738263
 20
26.1831986658
 30
0.0
 10
5.2965804518
 20
26.2686421484
 30
0.0
 10
5.0894670738
 20
26.3828250541
 30
0.0
 10
4.8609901607
 20
26.486274289
 30
0.0
 10
4.5237475959
 20
26.6111755543
 30
0.0
 10
4.0634235561
 20
26.7323875955
 30
0.0
 10
3.4773591609
 20
26.8200289002
 30
0.0
 10
2.8682632457
 20
26.8494229929
 30
0.0
 10
2.2592835681
 20
26.8194186248
 30
0.0
 10
1.673592879
 20
26.7312314467
 30
0.0
 10
1.2989735679
 20
26.6320778761
 30
0.0
 10
1.1212720987
 20
26.5722394833
 30
0.0
 11
5.4822999435
 21
26.1387740831
 31
0.0
 11
5.2991170983
 21
26.2630983479
 31
0.0
 11
5.0923456832
 21
26.3778024111
 31
0.0
 11
4.8639871398
 21
26.4817673397
 31
0.0
 11
4.6162695861
 21
26.573987284
 31
0.0
 11
4.0725364888
 21
26.7197241037
 31
0.0
 11
3.4822303248
 21
26.8093637504
 31
0.0
 11
2.8682377472
 21
26.8394269831
 31
0.0
 11
2.2543626101
 21
26.8087462212
 31
0.0
 11
1.6644356549
 21
26.7185246838
 31
0.0
 11
1.1212720987
 21
26.5722394833
 31
0.0
  0
SPLINE
  5
3A0
100
AcDbEntity
  8
0
100
AcDbSpline
 62
7
  6
CONTINUOUS
 70
0
 71
3
 72
9
 73
5
 74
3
 42
0.0000001
 43
0.0000001
 44
0.0000000001
 12
0.0802364147
 22
0.0274151503
 32
0.0
 13
0.0758391598
 23
-0.0379195799
 33
0.0
 40
0.0
 40
0.0
 40
0.0
 40
0.0
 40
0.4657494305
 40
1.0
 40
1.0
 40
1.0
 40
1.0
 10
1.0387468932
 20
26.5822327532
 30
0.0
 10
1.0512035813
 20
26.58648895
 30
0.0
 10
1.0805358739
 20
26.5885048148
 30
0.0
 10
1.107766394
 20
26.5789923357
 30
0.0
 10
1.1212720987
 20
26.5722394833
 30
0.0
 11
1.0387468932
 21
26.5822327532
 31
0.0
 11
1.0780706566
 21
26.5858659682
 31
0.0
 11
1.1212720987
 21
26.5722394833
 31
0.0
  0
SPLINE
  5
3A1
100
AcDbEntity
  8
0
100
AcDbSpline
 62
7
  6
CONTINUOUS
 70
0
 71
3
 72
9
 73
5
 74
3
 42
0.0000001
 43
0.0000001
 44
0.0000000001
 12
-0.0627845299
 22
0.0038270279
 32
0.0
 13
-0.0562604183
 23
-0.0281302091
 33
0.0
 40
0.0
 40
0.0
 40
0.0
 40
0.0
 40
0.2318995325
 40
1.0
 40
1.0
 40
1.0
 40
1.0
 10
12.9554658146
 20
22.4498700521
 30
0.0
 10
12.9506125803
 20
22.4501658807
 30
0.0
 10
12.9295733059
 20
22.4497297206
 30
0.0
 10
12.9090301838
 20
22.4428670889
 30
0.0
 10
12.8946256326
 20
22.4356648133
 30
0.0
 11
12.9554658146
 21
22.4498700521
 31
0.0
 11
12.9408812663
 21
22.4496179912
 31
0.0
 11
12.8946256326
 21
22.4356648133
 31
0.0
  0
SPLINE
  5
3A2
100
AcDbEntity
  8
0
100
AcDbSpline
 62
7
  6
CONTINUOUS
 70
0
 71
3
 72
11
 73
7
 74
5
 42
0.0000001
 43
0.0000001
 44
0.0000000001
 12
0.1140608436
 22
-0.0389453569
 32
0.0
 13
0.0090568771
 23
-0.1201856474
 33
0.0
 40
0.0
 40
0.0
 40
0.0
 40
0.0
 40
0.2226124468
 40
0.4556457327
 40
0.7125887961
 40
1.0
 40
1.0
 40
1.0
 40
1.0
 10
12.1286076505
 20
22.8699272538
 30
0.0
 10
12.1370714383
 20
22.8670373467
 30
0.0
 10
12.1534850973
 20
22.8579339342
 30
0.0
 10
12.1724344854
 20
22.8358016251
 30
0.0
 10
12.1849478436
 20
22.8067802525
 30
0.0
 10
12.1886068177
 20
22.7850223552
 30
0.0
 10
12.1894745004
 20
22.7735081214
 30
0.0
 11
12.1286076505
 21
22.8699272538
 31
0.0
 11
12.1520840384
 21
22.85693708
 31
0.0
 11
12.170635428
 21
22.8358490078
 31
0.0
 11
12.1833203997
 21
22.8075977259
 31
0.0
 11
12.1894745004
 21
22.7735081214
 31
0.0
  0
SPLINE
  5
3A3
100
AcDbEntity
  8
0
100
AcDbSpline
 62
7
  6
CONTINUOUS
 70
0
 71
3
 72
11
 73
7
 74
5
 42
0.0000001
 43
0.0000001
 44
0.0000000001
 12
1.0936541698
 22
0.9594349571
 32
0.0
 13
1.4030195664
 23
0.3848778722
 33
0.0
 40
0.0
 40
0.0
 40
0.0
 40
0.0
 40
0.2237856386
 40
0.4653808633
 40
0.7246156492
 40
1.0
 40
1.0
 40
1.0
 40
1.0
 10
7.4421510511
 20
22.3134331831
 30
0.0
 10
7.5237324167
 20
22.385002438
 30
0.0
 10
7.7056283815
 20
22.5201550374
 30
0.0
 10
8.0129395056
 20
22.6920898535
 30
0.0
 10
8.3599527053
 20
22.8395751947
 30
0.0
 10
8.6073641978
 20
22.9183508506
 30
0.0
 10
8.7361540753
 20
22.9536806316
 30
0.0
 11
7.4421510511
 21
22.3134331831
 31
0.0
 11
7.7022453062
 21
22.5092649364
 31
0.0
 11
8.0081339155
 21
22.6823952436
 31
0.0
 11
8.354709239
 21
22.8311446343
 31
0.0
 11
8.7361540753
 21
22.9536806316
 31
0.0
  0
SPLINE
  5
3A4
100
AcDbEntity
  8
0
100
AcDbSpline
 62
7
  6
CONTINUOUS
 70
0
 71
3
 72
15
 73
11
 74
9
 42
0.0000001
 43
0.0000001
 44
0.0000000001
 12
3.2441596271
 22
0.8899414408
 32
0.0
 13
3.2012255915
 23
-1.0337901947
 33
0.0
 40
0.0
 40
0.0
 40
0.0
 40
0.0
 40
0.1209424966
 40
0.2461449786
 40
0.3741382461
 40
0.5033323084
 40
0.632086795
 40
0.7587793605
 40
0.8818750997
 40
1.0
 40
1.0
 40
1.0
 40
1.0
 10
8.7361540753
 20
22.9536806316
 30
0.0
 10
8.8669396636
 20
22.9895578781
 30
0.0
 10
9.1362234056
 20
23.0516082519
 30
0.0
 10
9.5512138828
 20
23.1154263408
 30
0.0
 10
9.9788659486
 20
23.1509837158
 30
0.0
 10
10.4119070294
 20
23.1577194943
 30
0.0
 10
10.8429744804
 20
23.135529901
 30
0.0
 10
11.2647552101
 20
23.0847582682
 30
0.0
 10
11.6701184182
 20
23.0061963264
 30
0.0
 10
11.9312548294
 20
22.9343239654
 30
0.0
 10
12.0573029807
 20
22.8936185108
 30
0.0
 11
8.7361540753
 21
22.9536806316
 31
0.0
 11
9.1324653609
 21
23.0456903442
 31
0.0
 11
9.5486865046
 21
23.1101468427
 31
0.0
 11
9.9777568177
 21
23.1460606787
 31
0.0
 11
10.4123137482
 21
23.1528649497
 31
0.0
 11
10.8448648524
 21
23.1304505697
 31
0.0
 11
11.2679640289
 21
23.0791730848
 31
0.0
 11
11.67438742
 21
22.9998320114
 31
0.0
 11
12.0573029807
 21
22.8936185108
 31
0.0
  0
LINE
  5
3A5
100
AcDbEntity
  8
0
100
AcDbLine
 62
7
  6
CONTINUOUS
 10
12.1894745004
 20
22.7735081214
 11
12.2396160377
 21
22.1078878305
  0
SPLINE
  5
3A6
100
AcDbEntity
  8
0
100
AcDbSpline
 62
253
  6
CONTINUOUS
 70
0
 71
3
 72
18
 73
14
 74
12
 42
0.0000001
 43
0.0000001
 44
0.0000000001
 12
-4.5061606326
 22
1.5173842488
 32
0.0
 13
-3.4033040514
 23
-3.3204608323
 33
0.0
 40
0.0
 40
0.0
 40
0.0
 40
0.0
 40
0.1270087205
 40
0.2620145298
 40
0.4007275906
 40
0.5385408893
 40
0.6709243994
 40
0.7338082496
 40
0.7938670726
 40
0.8507338735
 40
0.9041303362
 40
0.9538930576
 40
1.0
 40
1.0
 40
1.0
 40
1.0
 10
12.0460974951
 20
22.859928882
 30
0.0
 10
11.8553235963
 20
22.924169226
 30
0.0
 10
11.4520928153
 20
23.0288544504
 30
0.0
 10
10.8218618728
 20
23.1164831693
 30
0.0
 10
10.1687067419
 20
23.1372730152
 30
0.0
 10
9.5211738117
 20
23.0902371809
 30
0.0
 10
9.0006362831
 20
22.9947112176
 30
0.0
 10
8.6109484407
 20
22.8846896361
 30
0.0
 10
8.3422772097
 20
22.788929369
 30
0.0
 10
8.0951645145
 20
22.6795931645
 30
0.0
 10
7.8722861906
 20
22.5578232744
 30
0.0
 10
7.676095466
 20
22.4249474279
 30
0.0
 10
7.560118383
 20
22.32609936
 30
0.0
 10
7.5078130684
 20
22.2750672613
 30
0.0
 11
12.0460974951
 21
22.859928882
 31
0.0
 11
11.4623219901
 21
23.014524096
 31
0.0
 11
10.8267325485
 21
23.1044752176
 31
0.0
 11
10.1675271896
 21
23.1257994459
 31
0.0
 11
9.514034799
 21
23.0775388046
 31
0.0
 11
8.895303865
 21
22.9618449979
 31
0.0
 11
8.6076671974
 21
22.8802025067
 31
0.0
 11
8.3388448277
 21
22.7838553479
 31
0.0
 11
8.091833293
 21
22.6738753469
 31
0.0
 11
7.8693919721
 21
22.5514857581
 31
0.0
 11
7.6739930766
 21
22.4180543033
 31
0.0
 11
7.5078130684
 21
22.2750672613
 31
0.0
  0
SPLINE
  5
3A7
100
AcDbEntity
  8
0
100
AcDbSpline
 62
7
  6
CONTINUOUS
 70
0
 71
3
 72
9
 73
5
 74
3
 42
0.0000001
 43
0.0000001
 44
0.0000000001
 12
0.0758252899
 22
0.037912645
 32
0.0
 13
0.0802275305
 23
-0.0273931851
 33
0.0
 40
0.0
 40
0.0
 40
0.0
 40
0.0
 40
0.5342465021
 40
1.0
 40
1.0
 40
1.0
 40
1.0
 10
12.0460974951
 20
22.859928882
 30
0.0
 10
12.0596006271
 20
22.866680448
 30
0.0
 10
12.0868257005
 20
22.8761916978
 30
0.0
 10
12.1161522329
 20
22.8741800777
 30
0.0
 10
12.1286076505
 20
22.8699272538
 30
0.0
 11
12.0460974951
 21
22.859928882
 31
0.0
 11
12.0892902246
 21
22.8735543021
 31
0.0
 11
12.1286076505
 21
22.8699272538
 31
0.0
  0
SPLINE
  5
3A8
100
AcDbEntity
  8
ASSI
100
AcDbSpline
 62
253
  6
CONTINUOUS
 70
0
 71
3
 72
11
 73
7
 74
5
 42
0.0000001
 43
0.0000001
 44
0.0000000001
 12
0.0626291314
 22
-0.3679694109
 32
0.0
 13
0.3336148942
 23
-0.1674066839
 33
0.0
 40
0.0
 40
0.0
 40
0.0
 40
0.0
 40
0.2261908787
 40
0.4633607254
 40
0.7200945025
 40
1.0
 40
1.0
 40
1.0
 40
1.0
 10
-19.3075627178
 20
-14.8914070635
 30
0.0
 10
-19.3028406717
 20
-14.9191508383
 30
0.0
 10
-19.2847448016
 20
-14.9748481684
 30
0.0
 10
-19.2344248096
 20
-15.050126614
 30
0.0
 10
-19.162929576
 20
-15.1157225314
 30
0.0
 10
-19.1054876533
 20
-15.1505709939
 30
0.0
 10
-19.0743607723
 20
-15.1661903443
 30
0.0
 11
-19.3075627178
 21
-14.8914070635
 31
0.0
 11
-19.2817698738
 21
-14.9717989911
 31
0.0
 11
-19.2332278434
 21
-15.0458299021
 31
0.0
 11
-19.1632715934
 21
-15.1113224364
 31
0.0
 11
-19.0743607723
 21
-15.1661903443
 31
0.0
  0
SPLINE
  5
3A9
100
AcDbEntity
  8
ASSI
100
AcDbSpline
 62
253
  6
CONTINUOUS
 70
0
 71
3
 72
11
 73
7
 74
5
 42
0.0000001
 43
0.0000001
 44
0.0000000001
 12
0.0184047385
 22
-0.382922627
 32
0.0
 13
0.3431756389
 23
-0.170877013
 33
0.0
 40
0.0
 40
0.0
 40
0.0
 40
0.0
 40
0.2129452299
 40
0.4437401617
 40
0.7047765826
 40
1.0
 40
1.0
 40
1.0
 40
1.0
 10
-22.807497051
 20
18.2674996356
 30
0.0
 10
-22.8061906506
 20
18.24031912
 30
0.0
 10
-22.7927892832
 20
18.1837870215
 30
0.0
 10
-22.7435186613
 20
18.1068518336
 30
0.0
 10
-22.6684681915
 20
18.0386066139
 30
0.0
 10
-22.6070425144
 20
18.0019897827
 30
0.0
 10
-22.5732713528
 20
17.9851741508
 30
0.0
 11
-22.807497051
 21
18.2674996356
 31
0.0
 11
-22.7892705484
 21
18.1879246483
 31
0.0
 11
-22.742876921
 21
18.112584764
 31
0.0
 11
-22.6698820877
 21
18.0441290268
 31
0.0
 11
-22.5732713528
 21
17.9851741508
 31
0.0
  0
SPLINE
  5
3AA
100
AcDbEntity
  8
ASSI
100
AcDbSpline
 62
253
  6
CONTINUOUS
 70
0
 71
3
 72
11
 73
7
 74
5
 42
0.0000001
 43
0.0000001
 44
0.0000000001
 12
0.3246017176
 22
0.231716536
 32
0.0
 13
0.3609230682
 23
-0.1696860836
 33
0.0
 40
0.0
 40
0.0
 40
0.0
 40
0.0
 40
0.2144054073
 40
0.4459351349
 40
0.706556215
 40
1.0
 40
1.0
 40
1.0
 40
1.0
 10
-22.0651096019
 20
19.8055032298
 30
0.0
 10
-22.0419108141
 20
19.8220636559
 30
0.0
 10
-21.9869322806
 20
19.8478063923
 30
0.0
 10
-21.8921736719
 20
19.8577047174
 30
0.0
 10
-21.7881668376
 20
19.840954281
 30
0.0
 10
-21.718861961
 20
19.8146875369
 30
0.0
 10
-21.6835584173
 20
19.7980897613
 30
0.0
 11
-22.0651096019
 21
19.8055032298
 31
0.0
 11
-21.9879275856
 21
19.8423111037
 31
0.0
 11
-21.8962626462
 21
19.8534488226
 31
0.0
 11
-21.7934082238
 21
19.8384562968
 31
0.0
 11
-21.6835584173
 21
19.7980897613
 31
0.0
  0
SPLINE
  5
3AB
100
AcDbEntity
  8
ASSI
100
AcDbSpline
 62
253
  6
CONTINUOUS
 70
0
 71
3
 72
11
 73
7
 74
5
 42
0.0000001
 43
0.0000001
 44
0.0000000001
 12
-0.6312086451
 22
0.3155300283
 32
0.0
 13
-0.1180618633
 23
0.6957333892
 33
0.0
 40
0.0
 40
0.0
 40
0.0
 40
0.0
 40
0.2254721822
 40
0.4623639029
 40
0.7190979174
 40
1.0
 40
1.0
 40
1.0
 40
1.0
 10
-18.7071542096
 20
-15.7400451591
 30
0.0
 10
-18.7545942065
 20
-15.7163307445
 30
0.0
 10
-18.8451360873
 20
-15.65297172
 30
0.0
 10
-18.9531066677
 20
-15.5204347691
 30
0.0
 10
-19.0321952779
 20
-15.3547317938
 30
0.0
 10
-19.0633061921
 20
-15.2313346839
 30
0.0
 10
-19.0743607999
 20
-15.1661903646
 30
0.0
 11
-18.7071542096
 21
-15.7400451591
 31
0.0
 11
-18.8378776493
 21
-15.649338361
 31
0.0
 11
-18.9446665322
 21
-15.520723355
 31
0.0
 11
-19.0243030289
 21
-15.357992606
 31
0.0
 11
-19.0743607999
 21
-15.1661903646
 31
0.0
  0
SPLINE
  5
3AC
100
AcDbEntity
  8
ASSI
100
AcDbSpline
 62
253
  6
CONTINUOUS
 70
0
 71
3
 72
9
 73
5
 74
3
 42
0.0000001
 43
0.0000001
 44
0.0000000001
 12
-5.5524515748
 22
32.8850959525
 32
0.0
 13
-1.5643731396
 23
33.3138408319
 33
0.0
 40
0.0
 40
0.0
 40
0.0
 40
0.0
 40
0.4919330271
 40
1.0
 40
1.0
 40
1.0
 40
1.0
 10
-19.0743607999
 20
-15.1661903646
 30
0.0
 10
-19.9848389036
 20
-9.7737687648
 30
0.0
 10
-21.4785202888
 20
1.2505397458
 30
0.0
 10
-22.3083432741
 20
12.3432825573
 30
0.0
 10
-22.5732787159
 20
17.9851699793
 30
0.0
 11
-19.0743607999
 21
-15.1661903646
 31
0.0
 11
-21.2937688408
 21
1.0892351216
 31
0.0
 11
-22.5732787159
 21
17.9851699793
 31
0.0
  0
SPLINE
  5
3AD
100
AcDbEntity
  8
ASSI
100
AcDbSpline
 62
253
  6
CONTINUOUS
 70
0
 71
3
 72
11
 73
7
 74
5
 42
0.0000001
 43
0.0000001
 44
0.0000000001
 12
-0.0962781083
 22
2.0877071307
 32
0.0
 13
1.7137805664
 23
1.1961382478
 33
0.0
 40
0.0
 40
0.0
 40
0.0
 40
0.0
 40
0.2398224792
 40
0.5006821071
 40
0.7611717646
 40
1.0
 40
1.0
 40
1.0
 40
1.0
 10
-22.5732787159
 20
17.9851699793
 30
0.0
 10
-22.5809752675
 20
18.1520630127
 30
0.0
 10
-22.5404748112
 20
18.5036060968
 30
0.0
 10
-22.3579226222
 20
19.0056404431
 30
0.0
 10
-22.0729300273
 20
19.4566454945
 30
0.0
 10
-21.8199914802
 20
19.702865899
 30
0.0
 10
-21.6835584173
 20
19.7980897613
 30
0.0
 11
-22.5732787159
 21
17.9851699793
 31
0.0
 11
-22.5239186235
 21
18.4839447527
 31
0.0
 11
-22.340203947
 21
18.9972353297
 31
0.0
 11
-22.0469164073
 21
19.4558836064
 31
0.0
 11
-21.6835584173
 21
19.7980897613
 31
0.0
  0
SPLINE
  5
3AE
100
AcDbEntity
  8
ASSI
100
AcDbSpline
 62
253
  6
CONTINUOUS
 70
0
 71
3
 72
11
 73
7
 74
5
 42
0.0000001
 43
0.0000001
 44
0.0000000001
 12
0.0359324245
 22
-0.4420190958
 32
0.0
 13
-0.3819411104
 23
-0.2253730426
 33
0.0
 40
0.0
 40
0.0
 40
0.0
 40
0.0
 40
0.2980129261
 40
0.5603464553
 40
0.7900448507
 40
1.0
 40
1.0
 40
1.0
 40
1.0
 10
-3.0934591986
 20
-22.4427388693
 30
0.0
 10
-3.0898897563
 20
-22.486648004
 30
0.0
 10
-3.0895935587
 20
-22.5700101326
 30
0.0
 10
-3.1133318325
 20
-22.6854466323
 30
0.0
 10
-3.1617143319
 20
-22.7791350755
 30
0.0
 10
-3.211385117
 20
-22.8238677239
 30
0.0
 10
-3.2381152846
 20
-22.8396404675
 30
0.0
 11
-3.0934591986
 21
-22.4427388693
 31
0.0
 11
-3.0944207148
 21
-22.5748973074
 31
0.0
 11
-3.119749795
 21
-22.6884454732
 31
0.0
 11
-3.1683619611
 21
-22.7779638465
 31
0.0
 11
-3.2381152846
 21
-22.8396404675
 31
0.0
  0
SPLINE
  5
3AF
100
AcDbEntity
  8
ASSI
100
AcDbSpline
 62
253
  6
CONTINUOUS
 70
0
 71
3
 72
11
 73
7
 74
5
 42
0.0000001
 43
0.0000001
 44
0.0000000001
 12
-0.9454632169
 22
-0.6650756841
 32
0.0
 13
-1.0346578312
 23
0.5154702052
 33
0.0
 40
0.0
 40
0.0
 40
0.0
 40
0.0
 40
0.2476673284
 40
0.5126200708
 40
0.7706965909
 40
1.0
 40
1.0
 40
1.0
 40
1.0
 10
-3.6395698241
 20
-22.2142025675
 30
0.0
 10
-3.7176232737
 20
-22.2691084068
 30
0.0
 10
-3.8975919522
 20
-22.3571756378
 30
0.0
 10
-4.1897974375
 20
-22.4221361647
 30
0.0
 10
-4.4820595701
 20
-22.4203823196
 30
0.0
 10
-4.6667857812
 20
-22.3698220133
 30
0.0
 10
-4.7458693038
 20
-22.3304223215
 30
0.0
 11
-3.6395698241
 21
-22.2142025675
 31
0.0
 11
-3.8948820769
 21
-22.3437347384
 31
0.0
 11
-4.1936567683
 21
-22.4110898796
 31
0.0
 11
-4.4919450148
 21
-22.4064572399
 31
0.0
 11
-4.7458693038
 21
-22.3304223215
 31
0.0
  0
SPLINE
  5
3B0
100
AcDbEntity
  8
ASSI
100
AcDbSpline
 62
253
  6
CONTINUOUS
 70
0
 71
3
 72
11
 73
7
 74
5
 42
0.0000001
 43
0.0000001
 44
0.0000000001
 12
0.1200614818
 22
-0.7018286746
 32
0.0
 13
0.6364289566
 23
-0.3192748518
 33
0.0
 40
0.0
 40
0.0
 40
0.0
 40
0.0
 40
0.2787806552
 40
0.5347628653
 40
0.7724151393
 40
1.0
 40
1.0
 40
1.0
 40
1.0
 10
-4.7458804652
 20
-22.3304305319
 30
0.0
 10
-4.7347235257
 20
-22.3956492845
 30
0.0
 10
-4.7031188473
 20
-22.5194218417
 30
0.0
 10
-4.6226070997
 20
-22.6857353521
 30
0.0
 10
-4.5125648681
 20
-22.8191980542
 30
0.0
 10
-4.4205438505
 20
-22.8832693293
 30
0.0
 10
-4.3722633187
 20
-22.9074900368
 30
0.0
 11
-4.7458804652
 21
-22.3304305319
 31
0.0
 11
-4.6952120794
 21
-22.522353385
 31
0.0
 11
-4.614279103
 21
-22.6856646283
 31
0.0
 11
-4.5055397243
 21
-22.8153148148
 31
0.0
 11
-4.3722633187
 21
-22.9074900368
 31
0.0
  0
SPLINE
  5
3B1
100
AcDbEntity
  8
ASSI
100
AcDbSpline
 62
253
  6
CONTINUOUS
 70
0
 71
3
 72
15
 73
11
 74
9
 42
0.0000001
 43
0.0000001
 44
0.0000000001
 12
0.1222344152
 22
-0.7109496161
 32
0.0
 13
0.6215641129
 23
0.3661265663
 33
0.0
 40
0.0
 40
0.0
 40
0.0
 40
0.0
 40
0.1362274851
 40
0.2610228157
 40
0.3771401275
 40
0.4893339407
 40
0.6033405728
 40
0.7244049057
 40
0.8561329218
 40
1.0
 40
1.0
 40
1.0
 40
1.0
 10
-3.639569824
 20
-22.2142025675
 30
0.0
 10
-3.6340192617
 20
-22.2464861936
 30
0.0
 10
-3.6179794086
 20
-22.3076592498
 30
0.0
 10
-3.5762259775
 20
-22.3890971453
 30
0.0
 10
-3.5186893041
 20
-22.4530270463
 30
0.0
 10
-3.4472411985
 20
-22.4963454196
 30
0.0
 10
-3.3650988492
 20
-22.5168952814
 30
0.0
 10
-3.2759859423
 20
-22.5143665797
 30
0.0
 10
-3.1831672166
 20
-22.4895708769
 30
0.0
 10
-3.1232667363
 20
-22.4602967225
 30
0.0
 10
-3.0934591986
 20
-22.4427388693
 30
0.0
 11
-3.639569824
 21
-22.2142025675
 31
0.0
 11
-3.6137746202
 21
-22.3090286122
 31
0.0
 11
-3.5718885698
 21
-22.3887158561
 31
0.0
 11
-3.515346722
 21
-22.4505184917
 31
0.0
 11
-3.4460713303
 21
-22.4923671687
 31
0.0
 11
-3.3664140542
 21
-22.5128244812
 31
0.0
 11
-3.2790953627
 21
-22.5112154733
 31
0.0
 11
-3.187056195
 21
-22.4875775782
 31
0.0
 11
-3.0934591986
 21
-22.4427388693
 31
0.0
  0
SPLINE
  5
3B2
100
AcDbEntity
  8
ASSI
100
AcDbSpline
 62
253
  6
CONTINUOUS
 70
0
 71
3
 72
11
 73
7
 74
5
 42
0.0000001
 43
0.0000001
 44
0.0000000001
 12
-1.0118551661
 22
-0.54589457
 32
0.0
 13
-1.0274868034
 23
0.5158707468
 33
0.0
 40
0.0
 40
0.0
 40
0.0
 40
0.0
 40
0.2401776776
 40
0.5048331443
 40
0.7668834085
 40
1.0
 40
1.0
 40
1.0
 40
1.0
 10
-7.1291572923
 20
10.8487541488
 30
0.0
 10
-7.2101656336
 20
10.8050502522
 30
0.0
 10
-7.3950893802
 20
10.7401220228
 30
0.0
 10
-7.6885089555
 20
10.7036398029
 30
0.0
 10
-7.9806830931
 20
10.7249285749
 30
0.0
 10
-8.1649569548
 20
10.7808438129
 30
0.0
 10
-8.2447983619
 20
10.820929823
 30
0.0
 11
-7.1291572923
 21
10.8487541488
 31
0.0
 11
-7.387986266
 21
10.7525304519
 31
0.0
 11
-7.689760605
 21
10.7135680164
 31
0.0
 11
-7.9900914384
 21
10.7375138201
 31
0.0
 11
-8.2447983619
 21
10.820929823
 31
0.0
  0
SPLINE
  5
3B3
100
AcDbEntity
  8
ASSI
100
AcDbSpline
 62
253
  6
CONTINUOUS
 70
0
 71
3
 72
12
 73
8
 74
6
 42
0.0000001
 43
0.0000001
 44
0.0000000001
 12
-0.1506596988
 22
1.1544697081
 32
0.0
 13
-1.0280933794
 23
0.5463722678
 33
0.0
 40
0.0
 40
0.0
 40
0.0
 40
0.0
 40
0.2391885769
 40
0.5045757834
 40
0.7673532962
 40
0.8890557524
 40
1.0
 40
1.0
 40
1.0
 40
1.0
 10
-6.6954856781
 20
11.6855489763
 30
0.0
 10
-6.7074977044
 20
11.7775942985
 30
0.0
 10
-6.7639749507
 20
11.9677932455
 30
0.0
 10
-6.9072004671
 20
12.2305753393
 30
0.0
 10
-7.069308115
 20
12.4265757245
 30
0.0
 10
-7.2157732538
 20
12.5517123573
 30
0.0
 10
-7.2918729935
 20
12.6010516059
 30
0.0
 10
-7.3298933424
 20
12.6212572259
 30
0.0
 11
-6.6954856781
 21
11.6855489763
 31
0.0
 11
-6.769514477
 21
11.9540064365
 31
0.0
 11
-6.916061713
 21
12.2260214698
 31
0.0
 11
-7.1127942912
 21
12.4603208816
 31
0.0
 11
-7.2209572125
 21
12.5518508453
 31
0.0
 11
-7.3298933424
 21
12.6212572259
 31
0.0
  0
SPLINE
  5
3B4
100
AcDbEntity
  8
ASSI
100
AcDbSpline
 62
253
  6
CONTINUOUS
 70
0
 71
3
 72
11
 73
7
 74
5
 42
0.0000001
 43
0.0000001
 44
0.0000000001
 12
-1.7398302831
 22
-1.163394056
 32
0.0
 13
0.0935772143
 23
-2.090870261
 33
0.0
 40
0.0
 40
0.0
 40
0.0
 40
0.0
 40
0.240239275
 40
0.5008321916
 40
0.7609755826
 40
1.0
 40
1.0
 40
1.0
 40
1.0
 10
-7.3298933442
 20
12.6212572248
 30
0.0
 10
-7.4692185328
 20
12.5280929099
 30
0.0
 10
-7.7282813549
 20
12.2858981682
 30
0.0
 10
-8.0215501621
 20
11.8384112101
 30
0.0
 10
-8.20995825
 20
11.3385579225
 30
0.0
 10
-8.2522541277
 20
10.987519494
 30
0.0
 10
-8.2447983813
 20
10.820929812
 30
0.0
 11
-7.3298933442
 21
12.6212572248
 31
0.0
 11
-7.7025556121
 21
12.2837032087
 31
0.0
 11
-8.0038049732
 21
11.8290358428
 31
0.0
 11
-8.1930627265
 21
11.3185168042
 31
0.0
 11
-8.2447983813
 21
10.820929812
 31
0.0
  0
SPLINE
  5
3B5
100
AcDbEntity
  8
ASSI
100
AcDbSpline
 62
253
  6
CONTINUOUS
 70
0
 71
3
 72
11
 73
7
 74
5
 42
0.0000001
 43
0.0000001
 44
0.0000000001
 12
-0.8186495715
 22
-0.5343586602
 32
0.0
 13
0.0428643373
 23
-0.9766723848
 33
0.0
 40
0.0
 40
0.0
 40
0.0
 40
0.0
 40
0.2410319132
 40
0.5016784992
 40
0.7614208535
 40
1.0
 40
1.0
 40
1.0
 40
1.0
 10
-6.6954856781
 20
11.6855489763
 30
0.0
 10
-6.7612592356
 20
11.6426164796
 30
0.0
 10
-6.8837758863
 20
11.530689885
 30
0.0
 10
-7.0228460376
 20
11.3228167356
 30
0.0
 10
-7.1123520501
 20
11.0901279079
 30
0.0
 10
-7.132566138
 20
10.9264253701
 30
0.0
 10
-7.1291572923
 20
10.8487541488
 30
0.0
 11
-6.6954856781
 21
11.6855489763
 31
0.0
 11
-6.871855909
 21
11.5292870715
 31
0.0
 11
-7.0145627453
 21
11.3181861596
 31
0.0
 11
-7.1043734128
 21
11.0806716104
 31
0.0
 11
-7.1291572923
 21
10.8487541488
 31
0.0
  0
SPLINE
  5
3B6
100
AcDbEntity
  8
CURVE
100
AcDbSpline
 62
253
  6
CONTINUOUS
 70
0
 71
3
 72
55
 73
51
 74
49
 42
0.0000001
 43
0.0000001
 44
0.0000000001
 12
0.2497262825
 22
-1.6629623449
 32
0.0
 13
0.2076848805
 23
-1.3551573585
 33
0.0
 40
0.0
 40
0.0
 40
0.0
 40
0.0
 40
0.0625
 40
0.125
 40
0.1875
 40
0.25
 40
0.28125
 40
0.3125
 40
0.34375
 40
0.375
 40
0.40625
 40
0.421875
 40
0.4375
 40
0.453125
 40
0.4609375
 40
0.46875
 40
0.4765625
 40
0.484375
 40
0.48828125
 40
0.4921875
 40
0.494140625
 40
0.49609375
 40
0.498046875
 40
0.4990234375
 40
0.4995117188
 40
0.5
 40
0.5004882812
 40
0.5009765625
 40
0.501953125
 40
0.50390625
 40
0.505859375
 40
0.5078125
 40
0.51171875
 40
0.515625
 40
0.5234375
 40
0.53125
 40
0.5390625
 40
0.546875
 40
0.5625
 40
0.578125
 40
0.59375
 40
0.625
 40
0.65625
 40
0.6875
 40
0.71875
 40
0.75
 40
0.8125
 40
0.875
 40
0.9375
 40
1.0
 40
1.0
 40
1.0
 40
1.0
 10
-15.2749500757
 20
-12.2261723544
 30
0.0
 10
-15.2697474448
 20
-12.2608174032
 30
0.0
 10
-15.2593421831
 20
-12.3301075009
 30
0.0
 10
-15.2437342904
 20
-12.4340426475
 30
0.0
 10
-15.2281263978
 20
-12.537977794
 30
0.0
 10
-15.2151198205
 20
-12.6245904162
 30
0.0
 10
-15.2047145588
 20
-12.6938805139
 30
0.0
 10
-15.1969106124
 20
-12.7458480872
 30
0.0
 10
-15.1891066661
 20
-12.7978156604
 30
0.0
 10
-15.1813027198
 20
-12.8497832337
 30
0.0
 10
-15.1747994312
 20
-12.8930895447
 30
0.0
 10
-15.1695968003
 20
-12.9277345937
 30
0.0
 10
-15.1656948272
 20
-12.9537183801
 30
0.0
 10
-15.1624431827
 20
-12.9753715364
 30
0.0
 10
-15.1598418675
 20
-12.9926940591
 30
0.0
 10
-15.1578908802
 20
-13.0056859577
 30
0.0
 10
-15.1559398963
 20
-13.0186778314
 30
0.0
 10
-15.1543140658
 20
-13.0295044701
 30
0.0
 10
-15.1530134251
 20
-13.038165608
 30
0.0
 10
-15.1522004708
 20
-13.0435792133
 30
0.0
 10
-15.1515502307
 20
-13.047909195
 30
0.0
 10
-15.151062213
 20
-13.0511591523
 30
0.0
 10
-15.1506566053
 20
-13.0538595894
 30
0.0
 10
-15.1503705729
 20
-13.0557653217
 30
0.0
 10
-15.1502104157
 20
-13.0568302246
 30
0.0
 10
-15.1500810302
 20
-13.0576967551
 30
0.0
 10
-15.1499870705
 20
-13.0583039159
 30
0.0
 10
-15.1498494339
 20
-13.0592039346
 30
0.0
 10
-15.1496143273
 20
-13.0607368153
 30
0.0
 10
-15.1492754507
 20
-13.0629486824
 30
0.0
 10
-15.1488700871
 20
-13.0655934901
 30
0.0
 10
-15.1483291524
 20
-13.0691231951
 30
0.0
 10
-15.147653138
 20
-13.0735341983
 30
0.0
 10
-15.146571429
 20
-13.0805924339
 30
0.0
 10
-15.1452193222
 20
-13.089415012
 30
0.0
 10
-15.1435967814
 20
-13.1000021984
 30
0.0
 10
-15.141974244
 20
-13.1105893601
 30
0.0
 10
-15.1398108596
 20
-13.1247055842
 30
0.0
 10
-15.1371066295
 20
-13.1423508615
 30
0.0
 10
-15.1338615532
 20
-13.1635251955
 30
0.0
 10
-15.1295347848
 20
-13.1917576404
 30
0.0
 10
-15.1241263244
 20
-13.2270481966
 30
0.0
 10
-15.1176361719
 20
-13.2693968641
 30
0.0
 10
-15.1111460194
 20
-13.3117455315
 30
0.0
 10
-15.1046558669
 20
-13.354094199
 30
0.0
 10
-15.0960023302
 20
-13.4105590889
 30
0.0
 10
-15.0851854093
 20
-13.4811402014
 30
0.0
 10
-15.0722051043
 20
-13.5658375363
 30
0.0
 10
-15.0592247993
 20
-13.6505348712
 30
0.0
 10
-15.0505712626
 20
-13.7069997611
 30
0.0
 10
-15.0462444942
 20
-13.7352322061
 30
0.0
 11
-15.2749500757
 21
-12.2261723544
 31
0.0
 11
-15.2593421831
 21
-12.3301075009
 31
0.0
 11
-15.2437342904
 21
-12.4340426475
 31
0.0
 11
-15.2281263978
 21
-12.537977794
 31
0.0
 11
-15.2125185051
 21
-12.6419129406
 31
0.0
 11
-15.2047145588
 21
-12.6938805139
 31
0.0
 11
-15.1969106124
 21
-12.7458480872
 31
0.0
 11
-15.1891066661
 21
-12.7978156604
 31
0.0
 11
-15.1813027198
 21
-12.8497832337
 31
0.0
 11
-15.1734987735
 21
-12.901750807
 31
0.0
 11
-15.1695968003
 21
-12.9277345936
 31
0.0
 11
-15.1656948271
 21
-12.9537183803
 31
0.0
 11
-15.161792854
 21
-12.9797021669
 31
0.0
 11
-15.1598418674
 21
-12.9926940602
 31
0.0
 11
-15.1578908808
 21
-13.0056859535
 31
0.0
 11
-15.1559398942
 21
-13.0186778469
 31
0.0
 11
-15.1539889076
 21
-13.0316697402
 31
0.0
 11
-15.1530134143
 21
-13.0381656868
 31
0.0
 11
-15.152037921
 21
-13.0446616335
 31
0.0
 11
-15.1515501744
 21
-13.0479096068
 31
0.0
 11
-15.1510624278
 21
-13.0511575802
 31
0.0
 11
-15.1505746811
 21
-13.0544055535
 31
0.0
 11
-15.1503308078
 21
-13.0560295402
 31
0.0
 11
-15.1502088711
 21
-13.0568415335
 31
0.0
 11
-15.1500869345
 21
-13.0576535268
 31
0.0
 11
-15.1499855258
 21
-13.0583152247
 31
0.0
 11
-15.1498841172
 21
-13.0589769227
 31
0.0
 11
-15.1496812999
 21
-13.0603003185
 31
0.0
 11
-15.1492756654
 21
-13.0629471103
 31
0.0
 11
-15.1488700309
 21
-13.065593902
 31
0.0
 11
-15.1484643963
 21
-13.0682406937
 31
0.0
 11
-15.1476531273
 21
-13.0735342771
 31
0.0
 11
-15.1468418582
 21
-13.0788278605
 31
0.0
 11
-15.1452193201
 21
-13.0894150274
 31
0.0
 11
-15.143596782
 21
-13.1000021943
 31
0.0
 11
-15.1419742438
 21
-13.1105893611
 31
0.0
 11
-15.1403517057
 21
-13.121176528
 31
0.0
 11
-15.1371066294
 21
-13.1423508617
 31
0.0
 11
-15.1338615532
 21
-13.1635251955
 31
0.0
 11
-15.1306164769
 21
-13.1846995292
 31
0.0
 11
-15.1241263244
 21
-13.2270481966
 31
0.0
 11
-15.1176361719
 21
-13.2693968641
 31
0.0
 11
-15.1111460194
 21
-13.3117455315
 31
0.0
 11
-15.1046558669
 21
-13.354094199
 31
0.0
 11
-15.0981657143
 21
-13.3964428665
 31
0.0
 11
-15.0851854093
 21
-13.4811402014
 31
0.0
 11
-15.0722051043
 21
-13.5658375363
 31
0.0
 11
-15.0592247993
 21
-13.6505348712
 31
0.0
 11
-15.0462444942
 21
-13.7352322061
 31
0.0
  0
SPLINE
  5
3B7
100
AcDbEntity
  8
CURVE
100
AcDbSpline
 62
253
  6
CONTINUOUS
 70
0
 71
3
 72
73
 73
69
 74
67
 42
0.0000001
 43
0.0000001
 44
0.0000000001
 12
0.2367764342
 22
-1.672078251
 32
0.0
 13
0.0712954465
 23
-0.495851375
 33
0.0
 40
0.0
 40
0.0
 40
0.0
 40
0.0
 40
0.0625
 40
0.125
 40
0.1875
 40
0.21875
 40
0.25
 40
0.28125
 40
0.3125
 40
0.34375
 40
0.375
 40
0.390625
 40
0.40625
 40
0.421875
 40
0.4375
 40
0.4453125
 40
0.453125
 40
0.4609375
 40
0.46875
 40
0.4765625
 40
0.48046875
 40
0.484375
 40
0.48828125
 40
0.490234375
 40
0.4921875
 40
0.494140625
 40
0.49609375
 40
0.4970703125
 40
0.498046875
 40
0.4985351562
 40
0.4990234375
 40
0.4995117188
 40
0.4997558594
 40
0.4998779297
 40
0.5
 40
0.5001220703
 40
0.5002441406
 40
0.5004882812
 40
0.5009765625
 40
0.5014648438
 40
0.501953125
 40
0.5029296875
 40
0.50390625
 40
0.505859375
 40
0.5078125
 40
0.509765625
 40
0.51171875
 40
0.515625
 40
0.51953125
 40
0.5234375
 40
0.53125
 40
0.5390625
 40
0.546875
 40
0.5546875
 40
0.5625
 40
0.578125
 40
0.59375
 40
0.609375
 40
0.625
 40
0.65625
 40
0.6875
 40
0.71875
 40
0.75
 40
0.78125
 40
0.8125
 40
0.875
 40
0.9375
 40
1.0
 40
1.0
 40
1.0
 40
1.0
 10
-11.2621849382
 20
-12.2657190448
 30
0.0
 10
-11.2572520958
 20
-12.3005540084
 30
0.0
 10
-11.2473864111
 20
-12.3702239355
 30
0.0
 10
-11.2325878839
 20
-12.4747288262
 30
0.0
 10
-11.220255778
 20
-12.5618162351
 30
0.0
 10
-11.2103900932
 20
-12.6314861623
 30
0.0
 10
-11.2029908297
 20
-12.6837386076
 30
0.0
 10
-11.1955915661
 20
-12.735991053
 30
0.0
 10
-11.1881923025
 20
-12.7882434983
 30
0.0
 10
-11.180793039
 20
-12.8404959436
 30
0.0
 10
-11.174626986
 20
-12.8840396481
 30
0.0
 10
-11.1696941436
 20
-12.9188746117
 30
0.0
 10
-11.1659945118
 20
-12.9450008343
 30
0.0
 10
-11.16229488
 20
-12.971127057
 30
0.0
 10
-11.1592118536
 20
-12.9928989092
 30
0.0
 10
-11.1567454324
 20
-13.010316391
 30
0.0
 10
-11.1548956165
 20
-13.0233795023
 30
0.0
 10
-11.1530458006
 20
-13.0364426137
 30
0.0
 10
-11.1511959847
 20
-13.049505725
 30
0.0
 10
-11.1496544714
 20
-13.0603916511
 30
0.0
 10
-11.1484212608
 20
-13.0691003921
 30
0.0
 10
-11.1474963529
 20
-13.0756319475
 30
0.0
 10
-11.1467255962
 20
-13.0810749113
 30
0.0
 10
-11.1461089911
 20
-13.0854292802
 30
0.0
 10
-11.1456465365
 20
-13.088695063
 30
0.0
 10
-11.1451840851
 20
-13.0919608221
 30
0.0
 10
-11.1447986986
 20
-13.0946823619
 30
0.0
 10
-11.1444904127
 20
-13.0968594283
 30
0.0
 10
-11.144297681
 20
-13.0982204713
 30
0.0
 10
-11.1441436169
 20
-13.0993084436
 30
0.0
 10
-11.1440277368
 20
-13.1001267834
 30
0.0
 10
-11.1439322265
 20
-13.1008012236
 30
0.0
 10
-11.143863296
 20
-13.1012880691
 30
0.0
 10
-11.1438271445
 20
-13.1015432555
 30
0.0
 10
-11.1437909111
 20
-13.1017994678
 30
0.0
 10
-11.143789538
 20
-13.1018078953
 30
0.0
 10
-11.1437755476
 20
-13.1019055621
 30
0.0
 10
-11.1437567298
 20
-13.1020362096
 30
0.0
 10
-11.1437268854
 20
-13.1022439021
 30
0.0
 10
-11.1436923398
 20
-13.1024841217
 30
0.0
 10
-11.1436458362
 20
-13.102807562
 30
0.0
 10
-11.1435878583
 20
-13.1032107846
 30
0.0
 10
-11.143495009
 20
-13.1038565432
 30
0.0
 10
-11.1433789764
 20
-13.1046635347
 30
0.0
 10
-11.1432397249
 20
-13.1056320132
 30
0.0
 10
-11.1431004767
 20
-13.1066004679
 30
0.0
 10
-11.1429148112
 20
-13.1078917492
 30
0.0
 10
-11.1426827298
 20
-13.1095058479
 30
0.0
 10
-11.1424042319
 20
-13.1114427676
 30
0.0
 10
-11.1420329015
 20
-13.1140253267
 30
0.0
 10
-11.1415687384
 20
-13.1172535258
 30
0.0
 10
-11.1410117427
 20
-13.1211273647
 30
0.0
 10
-11.1404547471
 20
-13.1250012036
 30
0.0
 10
-11.1398977514
 20
-13.1288750424
 30
0.0
 10
-11.1391550905
 20
-13.1340401609
 30
0.0
 10
-11.1382267644
 20
-13.140496559
 30
0.0
 10
-11.137112773
 20
-13.1482442368
 30
0.0
 10
-11.1359987817
 20
-13.1559919145
 30
0.0
 10
-11.1345134599
 20
-13.1663221515
 30
0.0
 10
-11.1326568076
 20
-13.1792349477
 30
0.0
 10
-11.1304288249
 20
-13.1947303032
 30
0.0
 10
-11.1282008422
 20
-13.2102256587
 30
0.0
 10
-11.1259728595
 20
-13.2257210141
 30
0.0
 10
-11.1237448768
 20
-13.2412163696
 30
0.0
 10
-11.1207742332
 20
-13.2618768436
 30
0.0
 10
-11.1170609287
 20
-13.287702436
 30
0.0
 10
-11.1126049633
 20
-13.3186931469
 30
0.0
 10
-11.1096343197
 20
-13.3393536209
 30
0.0
 10
-11.1081489979
 20
-13.3496838579
 30
0.0
 11
-11.2621849382
 21
-12.2657190448
 31
0.0
 11
-11.2473864111
 21
-12.3702239355
 31
0.0
 11
-11.2325878839
 21
-12.4747288262
 31
0.0
 11
-11.2177893568
 21
-12.5792337169
 31
0.0
 11
-11.2103900932
 21
-12.6314861623
 31
0.0
 11
-11.2029908297
 21
-12.6837386076
 31
0.0
 11
-11.1955915661
 21
-12.735991053
 31
0.0
 11
-11.1881923025
 21
-12.7882434983
 31
0.0
 11
-11.180793039
 21
-12.8404959436
 31
0.0
 11
-11.1733937754
 21
-12.892748389
 31
0.0
 11
-11.1696941436
 21
-12.9188746117
 31
0.0
 11
-11.1659945118
 21
-12.9450008343
 31
0.0
 11
-11.16229488
 21
-12.971127057
 31
0.0
 11
-11.1585952483
 21
-12.9972532797
 31
0.0
 11
-11.1567454324
 21
-13.010316391
 31
0.0
 11
-11.1548956165
 21
-13.0233795023
 31
0.0
 11
-11.1530458006
 21
-13.0364426137
 31
0.0
 11
-11.1511959847
 21
-13.049505725
 31
0.0
 11
-11.1493461688
 21
-13.0625688364
 31
0.0
 11
-11.1484212608
 21
-13.069100392
 31
0.0
 11
-11.1474963529
 21
-13.0756319477
 31
0.0
 11
-11.146571445
 21
-13.0821635034
 31
0.0
 11
-11.146108991
 21
-13.0854292812
 31
0.0
 11
-11.145646537
 21
-13.088695059
 31
0.0
 11
-11.145184083
 21
-13.0919608369
 31
0.0
 11
-11.1447216291
 21
-13.0952266147
 31
0.0
 11
-11.1444904021
 21
-13.0968595036
 31
0.0
 11
-11.1442591751
 21
-13.0984923925
 31
0.0
 11
-11.1441435616
 21
-13.099308837
 31
0.0
 11
-11.1440279481
 21
-13.1001252814
 31
0.0
 11
-11.1439123346
 21
-13.1009417259
 31
0.0
 11
-11.1438545279
 21
-13.1013499481
 31
0.0
 11
-11.1438256245
 21
-13.1015540593
 31
0.0
 11
-11.1437967211
 21
-13.1017581704
 31
0.0
 11
-11.1437880181
 21
-13.1018186991
 31
0.0
 11
-11.143779315
 21
-13.1018792278
 31
0.0
 11
-11.1437619089
 21
-13.1020002853
 31
0.0
 11
-11.1437270967
 21
-13.1022424002
 31
0.0
 11
-11.1436922844
 21
-13.1024845152
 31
0.0
 11
-11.1436574722
 21
-13.1027266301
 31
0.0
 11
-11.1435878477
 21
-13.1032108599
 31
0.0
 11
-11.1435182233
 21
-13.1036950898
 31
0.0
 11
-11.1433789744
 21
-13.1046635495
 31
0.0
 11
-11.1432397254
 21
-13.1056320092
 31
0.0
 11
-11.1431004765
 21
-13.106600469
 31
0.0
 11
-11.1429612276
 21
-13.1075689287
 31
0.0
 11
-11.1426827298
 21
-13.1095058481
 31
0.0
 11
-11.1424042319
 21
-13.1114427675
 31
0.0
 11
-11.1421257341
 21
-13.113379687
 31
0.0
 11
-11.1415687384
 21
-13.1172535258
 31
0.0
 11
-11.1410117427
 21
-13.1211273647
 31
0.0
 11
-11.1404547471
 21
-13.1250012036
 31
0.0
 11
-11.1398977514
 21
-13.1288750424
 31
0.0
 11
-11.1393407557
 21
-13.1327488813
 31
0.0
 11
-11.1382267644
 21
-13.140496559
 31
0.0
 11
-11.137112773
 21
-13.1482442368
 31
0.0
 11
-11.1359987817
 21
-13.1559919145
 31
0.0
 11
-11.1348847903
 21
-13.1637395922
 31
0.0
 11
-11.1326568076
 21
-13.1792349477
 31
0.0
 11
-11.1304288249
 21
-13.1947303032
 31
0.0
 11
-11.1282008422
 21
-13.2102256587
 31
0.0
 11
-11.1259728595
 21
-13.2257210141
 31
0.0
 11
-11.1237448768
 21
-13.2412163696
 31
0.0
 11
-11.1215168941
 21
-13.2567117251
 31
0.0
 11
-11.1170609287
 21
-13.287702436
 31
0.0
 11
-11.1126049633
 21
-13.3186931469
 31
0.0
 11
-11.1081489979
 21
-13.3496838579
 31
0.0
  0
SPLINE
  5
3B8
100
AcDbEntity
  8
CURVE
100
AcDbSpline
 62
253
  6
CONTINUOUS
 70
0
 71
3
 72
55
 73
51
 74
49
 42
0.0000001
 43
0.0000001
 44
0.0000000001
 12
0.2341289958
 22
-1.6739241154
 32
0.0
 13
0.1947535276
 23
-1.3627499584
 33
0.0
 40
0.0
 40
0.0
 40
0.0
 40
0.0
 40
0.0625
 40
0.125
 40
0.1875
 40
0.25
 40
0.28125
 40
0.3125
 40
0.34375
 40
0.375
 40
0.40625
 40
0.421875
 40
0.4375
 40
0.453125
 40
0.4609375
 40
0.46875
 40
0.4765625
 40
0.484375
 40
0.48828125
 40
0.4921875
 40
0.494140625
 40
0.49609375
 40
0.498046875
 40
0.4990234375
 40
0.4995117188
 40
0.5
 40
0.5004882812
 40
0.5009765625
 40
0.501953125
 40
0.50390625
 40
0.505859375
 40
0.5078125
 40
0.51171875
 40
0.515625
 40
0.5234375
 40
0.53125
 40
0.5390625
 40
0.546875
 40
0.5625
 40
0.578125
 40
0.59375
 40
0.625
 40
0.65625
 40
0.6875
 40
0.71875
 40
0.75
 40
0.8125
 40
0.875
 40
0.9375
 40
1.0
 40
1.0
 40
1.0
 40
1.0
 10
-12.8900102385
 20
-11.0476368268
 30
0.0
 10
-12.8851325511
 20
-11.0825102458
 30
0.0
 10
-12.8753771763
 20
-11.152257084
 30
0.0
 10
-12.8607441141
 20
-11.2568773412
 30
0.0
 10
-12.8461110518
 20
-11.3614975984
 30
0.0
 10
-12.8339168333
 20
-11.4486811461
 30
0.0
 10
-12.8241614585
 20
-11.5184279842
 30
0.0
 10
-12.8168449273
 20
-11.5707381128
 30
0.0
 10
-12.8095283962
 20
-11.6230482415
 30
0.0
 10
-12.8022118651
 20
-11.6753583701
 30
0.0
 10
-12.7961147558
 20
-11.7189501439
 30
0.0
 10
-12.7912370684
 20
-11.753823563
 30
0.0
 10
-12.7875788029
 20
-11.7799786271
 30
0.0
 10
-12.7845302481
 20
-11.8017745148
 30
0.0
 10
-12.7820914047
 20
-11.8192112226
 30
0.0
 10
-12.7802622712
 20
-11.8322887601
 30
0.0
 10
-12.7784331409
 20
-11.8453662724
 30
0.0
 10
-12.7769088558
 20
-11.8562642775
 30
0.0
 10
-12.7756894499
 20
-11.8649825066
 30
0.0
 10
-12.7749272707
 20
-11.8704317981
 30
0.0
 10
-12.7743176429
 20
-11.874790319
 30
0.0
 10
-12.7738601059
 20
-11.8780617078
 30
0.0
 10
-12.7734798306
 20
-11.8807799183
 30
0.0
 10
-12.7732116646
 20
-11.8826982609
 30
0.0
 10
-12.7730615081
 20
-11.8837701061
 30
0.0
 10
-12.7729402107
 20
-11.884642586
 30
0.0
 10
-12.7728520928
 20
-11.8852528571
 30
0.0
 10
-12.7727230289
 20
-11.8861580133
 30
0.0
 10
-12.7725025593
 20
-11.887699423
 30
0.0
 10
-12.7721847835
 20
-11.8899237159
 30
0.0
 10
-12.7718046594
 20
-11.8925833312
 30
0.0
 10
-12.7712974056
 20
-11.8961328157
 30
0.0
 10
-12.7706634828
 20
-11.9005685309
 30
0.0
 10
-12.7696491256
 20
-11.9076663126
 30
0.0
 10
-12.7683812068
 20
-11.916538321
 30
0.0
 10
-12.7668596924
 20
-11.9271848249
 30
0.0
 10
-12.7653381811
 20
-11.9378313036
 30
0.0
 10
-12.7633094983
 20
-11.9520266174
 30
0.0
 10
-12.7607736452
 20
-11.9697707567
 30
0.0
 10
-12.7577306213
 20
-11.9910637251
 30
0.0
 10
-12.7536732561
 20
-12.0194543491
 30
0.0
 10
-12.7486015497
 20
-12.0549426293
 30
0.0
 10
-12.7425155019
 20
-12.0975285655
 30
0.0
 10
-12.7364294542
 20
-12.1401145017
 30
0.0
 10
-12.7303434065
 20
-12.1827004379
 30
0.0
 10
-12.7222286762
 20
-12.2394816862
 30
0.0
 10
-12.7120852633
 20
-12.3104582465
 30
0.0
 10
-12.6999131678
 20
-12.3956301189
 30
0.0
 10
-12.6877410723
 20
-12.4808019913
 30
0.0
 10
-12.679626342
 20
-12.5375832396
 30
0.0
 10
-12.6755689768
 20
-12.5659738637
 30
0.0
 11
-12.8900102385
 21
-11.0476368268
 31
0.0
 11
-12.8753771763
 21
-11.152257084
 31
0.0
 11
-12.8607441141
 21
-11.2568773412
 31
0.0
 11
-12.8461110518
 21
-11.3614975984
 31
0.0
 11
-12.8314779896
 21
-11.4661178556
 31
0.0
 11
-12.8241614585
 21
-11.5184279842
 31
0.0
 11
-12.8168449273
 21
-11.5707381128
 31
0.0
 11
-12.8095283962
 21
-11.6230482415
 31
0.0
 11
-12.8022118651
 21
-11.6753583701
 31
0.0
 11
-12.794895334
 21
-11.7276684987
 31
0.0
 11
-12.7912370684
 21
-11.753823563
 31
0.0
 11
-12.7875788029
 21
-11.7799786273
 31
0.0
 11
-12.7839205373
 21
-11.8061336916
 31
0.0
 11
-12.7820914045
 21
-11.8192112237
 31
0.0
 11
-12.7802622717
 21
-11.8322887559
 31
0.0
 11
-12.778433139
 21
-11.845366288
 31
0.0
 11
-12.7766040062
 21
-11.8584438202
 31
0.0
 11
-12.7756894398
 21
-11.8649825863
 31
0.0
 11
-12.7747748734
 21
-11.8715213523
 31
0.0
 11
-12.7743175902
 21
-11.8747907354
 31
0.0
 11
-12.773860307
 21
-11.8780601184
 31
0.0
 11
-12.7734030238
 21
-11.8813295015
 31
0.0
 11
-12.7731743822
 21
-11.882964193
 31
0.0
 11
-12.7730600614
 21
-11.8837815387
 31
0.0
 11
-12.7729457406
 21
-11.8845988845
 31
0.0
 11
-12.7728506461
 21
-11.8852642897
 31
0.0
 11
-12.7727555516
 21
-11.885929695
 31
0.0
 11
-12.7725653626
 21
-11.8872605055
 31
0.0
 11
-12.7721849847
 21
-11.8899221265
 31
0.0
 11
-12.7718046067
 21
-11.8925837475
 31
0.0
 11
-12.7714242287
 21
-11.8952453685
 31
0.0
 11
-12.7706634727
 21
-11.9005686106
 31
0.0
 11
-12.7699027168
 21
-11.9058918526
 31
0.0
 11
-12.7683812048
 21
-11.9165383366
 31
0.0
 11
-12.7668596929
 21
-11.9271848207
 31
0.0
 11
-12.7653381809
 21
-11.9378313047
 31
0.0
 11
-12.763816669
 21
-11.9484777888
 31
0.0
 11
-12.7607736451
 21
-11.9697707569
 31
0.0
 11
-12.7577306213
 21
-11.991063725
 31
0.0
 11
-12.7546875974
 21
-12.0123566931
 31
0.0
 11
-12.7486015497
 21
-12.0549426293
 31
0.0
 11
-12.7425155019
 21
-12.0975285655
 31
0.0
 11
-12.7364294542
 21
-12.1401145017
 31
0.0
 11
-12.7303434065
 21
-12.1827004379
 31
0.0
 11
-12.7242573587
 21
-12.2252863741
 31
0.0
 11
-12.7120852633
 21
-12.3104582465
 31
0.0
 11
-12.6999131678
 21
-12.3956301189
 31
0.0
 11
-12.6877410723
 21
-12.4808019913
 31
0.0
 11
-12.6755689768
 21
-12.5659738637
 31
0.0
  0
SPLINE
  5
3B9
100
AcDbEntity
  8
CURVE
100
AcDbSpline
 62
253
  6
CONTINUOUS
 70
0
 71
3
 72
73
 73
69
 74
67
 42
0.0000001
 43
0.0000001
 44
0.0000000001
 12
0.2523701787
 22
-1.6610834222
 32
0.0
 13
0.0760816746
 23
-0.4935915118
 33
0.0
 40
0.0
 40
0.0
 40
0.0
 40
0.0
 40
0.0625
 40
0.125
 40
0.1875
 40
0.21875
 40
0.25
 40
0.28125
 40
0.3125
 40
0.34375
 40
0.375
 40
0.390625
 40
0.40625
 40
0.421875
 40
0.4375
 40
0.4453125
 40
0.453125
 40
0.4609375
 40
0.46875
 40
0.4765625
 40
0.48046875
 40
0.484375
 40
0.48828125
 40
0.490234375
 40
0.4921875
 40
0.494140625
 40
0.49609375
 40
0.4970703125
 40
0.498046875
 40
0.4985351562
 40
0.4990234375
 40
0.4995117188
 40
0.4997558594
 40
0.4998779297
 40
0.5
 40
0.5001220703
 40
0.5002441406
 40
0.5004882812
 40
0.5009765625
 40
0.5014648438
 40
0.501953125
 40
0.5029296875
 40
0.50390625
 40
0.505859375
 40
0.5078125
 40
0.509765625
 40
0.51171875
 40
0.515625
 40
0.51953125
 40
0.5234375
 40
0.53125
 40
0.5390625
 40
0.546875
 40
0.5546875
 40
0.5625
 40
0.578125
 40
0.59375
 40
0.609375
 40
0.625
 40
0.65625
 40
0.6875
 40
0.71875
 40
0.75
 40
0.78125
 40
0.8125
 40
0.875
 40
0.9375
 40
1.0
 40
1.0
 40
1.0
 40
1.0
 10
-10.6041747747
 20
-14.961042546
 30
0.0
 10
-10.5989170626
 20
-14.9956484506
 30
0.0
 10
-10.5884016385
 20
-15.0648602599
 30
0.0
 10
-10.5726285024
 20
-15.1686779738
 30
0.0
 10
-10.5594842222
 20
-15.2551927353
 30
0.0
 10
-10.5489687981
 20
-15.3244045446
 30
0.0
 10
-10.54108223
 20
-15.3763134015
 30
0.0
 10
-10.5331956619
 20
-15.4282222585
 30
0.0
 10
-10.5253090938
 20
-15.4801311154
 30
0.0
 10
-10.5174225258
 20
-15.5320399724
 30
0.0
 10
-10.5108503857
 20
-15.5752973532
 30
0.0
 10
-10.5055926736
 20
-15.6099032578
 30
0.0
 10
-10.5016493896
 20
-15.6358576863
 30
0.0
 10
-10.4977061055
 20
-15.6618121147
 30
0.0
 10
-10.4944200355
 20
-15.6834408051
 30
0.0
 10
-10.4917911795
 20
-15.7007437574
 30
0.0
 10
-10.4898195375
 20
-15.7137209717
 30
0.0
 10
-10.4878478954
 20
-15.7266981859
 30
0.0
 10
-10.4858762534
 20
-15.7396754002
 30
0.0
 10
-10.4842332184
 20
-15.7504897453
 30
0.0
 10
-10.4829187904
 20
-15.7591412216
 30
0.0
 10
-10.4819329694
 20
-15.7656298284
 30
0.0
 10
-10.4811114518
 20
-15.7710370018
 30
0.0
 10
-10.480454238
 20
-15.7753627383
 30
0.0
 10
-10.4799613268
 20
-15.7786070468
 30
0.0
 10
-10.4794684191
 20
-15.7818513318
 30
0.0
 10
-10.4790576516
 20
-15.7845549759
 30
0.0
 10
-10.4787290624
 20
-15.786717727
 30
0.0
 10
-10.4785236377
 20
-15.7880698202
 30
0.0
 10
-10.4783594272
 20
-15.7891506389
 30
0.0
 10
-10.4782359155
 20
-15.7899635961
 30
0.0
 10
-10.4781341146
 20
-15.7906336066
 30
0.0
 10
-10.4780606452
 20
-15.7911172418
 30
0.0
 10
-10.4780221115
 20
-15.7913707646
 30
0.0
 10
-10.4779834958
 20
-15.7916252479
 30
0.0
 10
-10.4779820172
 20
-15.7916337864
 30
0.0
 10
-10.477967092
 20
-15.7917309594
 30
0.0
 10
-10.4779470082
 20
-15.7918610419
 30
0.0
 10
-10.4779151617
 20
-15.7920677708
 30
0.0
 10
-10.4778782965
 20
-15.792306901
 30
0.0
 10
-10.4778286712
 20
-15.7926288654
 30
0.0
 10
-10.4777668011
 20
-15.7930302513
 30
0.0
 10
-10.4776677186
 20
-15.7936730664
 30
0.0
 10
-10.4775438965
 20
-15.7944763802
 30
0.0
 10
-10.4773952967
 20
-15.7954404447
 30
0.0
 10
-10.4772467004
 20
-15.7964044857
 30
0.0
 10
-10.4770485708
 20
-15.7976898819
 30
0.0
 10
-10.4768009092
 20
-15.7992966243
 30
0.0
 10
-10.4765037151
 20
-15.8012247164
 30
0.0
 10
-10.4761074564
 20
-15.8037955054
 30
0.0
 10
-10.475612133
 20
-15.8070089919
 30
0.0
 10
-10.4750177449
 20
-15.8108651755
 30
0.0
 10
-10.4744233568
 20
-15.8147213592
 30
0.0
 10
-10.4738289687
 20
-15.8185775429
 30
0.0
 10
-10.4730364513
 20
-15.8237191212
 30
0.0
 10
-10.4720458045
 20
-15.830146094
 30
0.0
 10
-10.4708570283
 20
-15.8378584613
 30
0.0
 10
-10.4696682522
 20
-15.8455708287
 30
0.0
 10
-10.4680832173
 20
-15.8558539852
 30
0.0
 10
-10.4661019237
 20
-15.8687079308
 30
0.0
 10
-10.4637243713
 20
-15.8841326656
 30
0.0
 10
-10.461346819
 20
-15.8995574003
 30
0.0
 10
-10.4589692667
 20
-15.9149821351
 30
0.0
 10
-10.4565917143
 20
-15.9304068698
 30
0.0
 10
-10.4534216446
 20
-15.9509731828
 30
0.0
 10
-10.4494590573
 20
-15.976681074
 30
0.0
 10
-10.4447039527
 20
-16.0075305435
 30
0.0
 10
-10.4415338829
 20
-16.0280968565
 30
0.0
 10
-10.439948848
 20
-16.038380013
 30
0.0
 11
-10.6041747747
 21
-14.961042546
 31
0.0
 11
-10.5884016385
 21
-15.0648602599
 31
0.0
 11
-10.5726285024
 21
-15.1686779738
 31
0.0
 11
-10.5568553662
 21
-15.2724956877
 31
0.0
 11
-10.5489687981
 21
-15.3244045446
 31
0.0
 11
-10.54108223
 21
-15.3763134015
 31
0.0
 11
-10.5331956619
 21
-15.4282222585
 31
0.0
 11
-10.5253090938
 21
-15.4801311154
 31
0.0
 11
-10.5174225258
 21
-15.5320399724
 31
0.0
 11
-10.5095359577
 21
-15.5839488293
 31
0.0
 11
-10.5055926736
 21
-15.6099032578
 31
0.0
 11
-10.5016493896
 21
-15.6358576863
 31
0.0
 11
-10.4977061055
 21
-15.6618121147
 31
0.0
 11
-10.4937628215
 21
-15.6877665432
 31
0.0
 11
-10.4917911795
 21
-15.7007437574
 31
0.0
 11
-10.4898195375
 21
-15.7137209717
 31
0.0
 11
-10.4878478954
 21
-15.7266981859
 31
0.0
 11
-10.4858762534
 21
-15.7396754002
 31
0.0
 11
-10.4839046114
 21
-15.7526526144
 31
0.0
 11
-10.4829187904
 21
-15.7591412215
 31
0.0
 11
-10.4819329694
 21
-15.7656298286
 31
0.0
 11
-10.4809471484
 21
-15.7721184357
 31
0.0
 11
-10.4804542379
 21
-15.7753627393
 31
0.0
 11
-10.4799613273
 21
-15.7786070429
 31
0.0
 11
-10.4794684168
 21
-15.7818513464
 31
0.0
 11
-10.4789755063
 21
-15.78509565
 31
0.0
 11
-10.4787290511
 21
-15.7867178018
 31
0.0
 11
-10.4784825958
 21
-15.7883399535
 31
0.0
 11
-10.4783593682
 21
-15.7891510294
 31
0.0
 11
-10.4782361406
 21
-15.7899621053
 31
0.0
 11
-10.478112913
 21
-15.7907731812
 31
0.0
 11
-10.4780512991
 21
-15.7911787192
 31
0.0
 11
-10.4780204922
 21
-15.7913814881
 31
0.0
 11
-10.4779896853
 21
-15.7915842571
 31
0.0
 11
-10.477980398
 21
-15.79164451
 31
0.0
 11
-10.4779711107
 21
-15.7917047628
 31
0.0
 11
-10.4779525361
 21
-15.7918252686
 31
0.0
 11
-10.4779153868
 21
-15.7920662801
 31
0.0
 11
-10.4778782376
 21
-15.7923072915
 31
0.0
 11
-10.4778410883
 21
-15.792548303
 31
0.0
 11
-10.4777667898
 21
-15.793030326
 31
0.0
 11
-10.4776924913
 21
-15.7935123489
 31
0.0
 11
-10.4775438943
 21
-15.7944763949
 31
0.0
 11
-10.4773952972
 21
-15.7954404408
 31
0.0
 11
-10.4772467002
 21
-15.7964044867
 31
0.0
 11
-10.4770981032
 21
-15.7973685326
 31
0.0
 11
-10.4768009092
 21
-15.7992966245
 31
0.0
 11
-10.4765037151
 21
-15.8012247163
 31
0.0
 11
-10.4762065211
 21
-15.8031528082
 31
0.0
 11
-10.475612133
 21
-15.8070089918
 31
0.0
 11
-10.4750177449
 21
-15.8108651755
 31
0.0
 11
-10.4744233568
 21
-15.8147213592
 31
0.0
 11
-10.4738289687
 21
-15.8185775429
 31
0.0
 11
-10.4732345807
 21
-15.8224337266
 31
0.0
 11
-10.4720458045
 21
-15.830146094
 31
0.0
 11
-10.4708570283
 21
-15.8378584613
 31
0.0
 11
-10.4696682522
 21
-15.8455708287
 31
0.0
 11
-10.468479476
 21
-15.8532831961
 31
0.0
 11
-10.4661019237
 21
-15.8687079308
 31
0.0
 11
-10.4637243713
 21
-15.8841326656
 31
0.0
 11
-10.461346819
 21
-15.8995574003
 31
0.0
 11
-10.4589692667
 21
-15.9149821351
 31
0.0
 11
-10.4565917143
 21
-15.9304068698
 31
0.0
 11
-10.454214162
 21
-15.9458316045
 31
0.0
 11
-10.4494590573
 21
-15.976681074
 31
0.0
 11
-10.4447039527
 21
-16.0075305435
 31
0.0
 11
-10.439948848
 21
-16.038380013
 31
0.0
  0
SPLINE
  5
3BA
100
AcDbEntity
  8
CURVE
100
AcDbSpline
 62
253
  6
CONTINUOUS
 70
0
 71
3
 72
55
 73
51
 74
49
 42
0.0000001
 43
0.0000001
 44
0.0000000001
 12
0.2497262825
 22
-1.6629623449
 32
0.0
 13
0.2076848805
 23
-1.3551573585
 33
0.0
 40
0.0
 40
0.0
 40
0.0
 40
0.0
 40
0.0625
 40
0.125
 40
0.1875
 40
0.25
 40
0.28125
 40
0.3125
 40
0.34375
 40
0.375
 40
0.40625
 40
0.421875
 40
0.4375
 40
0.453125
 40
0.4609375
 40
0.46875
 40
0.4765625
 40
0.484375
 40
0.48828125
 40
0.4921875
 40
0.494140625
 40
0.49609375
 40
0.498046875
 40
0.4990234375
 40
0.4995117188
 40
0.5
 40
0.5004882812
 40
0.5009765625
 40
0.501953125
 40
0.50390625
 40
0.505859375
 40
0.5078125
 40
0.51171875
 40
0.515625
 40
0.5234375
 40
0.53125
 40
0.5390625
 40
0.546875
 40
0.5625
 40
0.578125
 40
0.59375
 40
0.625
 40
0.65625
 40
0.6875
 40
0.71875
 40
0.75
 40
0.8125
 40
0.875
 40
0.9375
 40
1.0
 40
1.0
 40
1.0
 40
1.0
 10
-12.2360745652
 20
-13.7456101096
 30
0.0
 10
-12.2308719343
 20
-13.7802551585
 30
0.0
 10
-12.2204666726
 20
-13.8495452562
 30
0.0
 10
-12.2048587799
 20
-13.9534804027
 30
0.0
 10
-12.1892508872
 20
-14.0574155493
 30
0.0
 10
-12.17624431
 20
-14.1440281714
 30
0.0
 10
-12.1658390483
 20
-14.2133182691
 30
0.0
 10
-12.1580351019
 20
-14.2652858424
 30
0.0
 10
-12.1502311556
 20
-14.3172534157
 30
0.0
 10
-12.1424272093
 20
-14.369220989
 30
0.0
 10
-12.1359239207
 20
-14.4125273
 30
0.0
 10
-12.1307212898
 20
-14.4471723489
 30
0.0
 10
-12.1268193166
 20
-14.4731561353
 30
0.0
 10
-12.1235676722
 20
-14.4948092917
 30
0.0
 10
-12.120966357
 20
-14.5121318144
 30
0.0
 10
-12.1190153697
 20
-14.5251237129
 30
0.0
 10
-12.1170643858
 20
-14.5381155867
 30
0.0
 10
-12.1154385553
 20
-14.5489422254
 30
0.0
 10
-12.1141379146
 20
-14.5576033633
 30
0.0
 10
-12.1133249603
 20
-14.5630169685
 30
0.0
 10
-12.1126747201
 20
-14.5673469503
 30
0.0
 10
-12.1121867025
 20
-14.5705969076
 30
0.0
 10
-12.1117810948
 20
-14.5732973446
 30
0.0
 10
-12.1114950624
 20
-14.5752030769
 30
0.0
 10
-12.1113349052
 20
-14.5762679799
 30
0.0
 10
-12.1112055196
 20
-14.5771345104
 30
0.0
 10
-12.1111115599
 20
-14.5777416711
 30
0.0
 10
-12.1109739234
 20
-14.5786416899
 30
0.0
 10
-12.1107388168
 20
-14.5801745705
 30
0.0
 10
-12.1103999402
 20
-14.5823864376
 30
0.0
 10
-12.1099945766
 20
-14.5850312454
 30
0.0
 10
-12.1094536419
 20
-14.5885609504
 30
0.0
 10
-12.1087776275
 20
-14.5929719536
 30
0.0
 10
-12.1076959185
 20
-14.6000301891
 30
0.0
 10
-12.1063438117
 20
-14.6088527672
 30
0.0
 10
-12.1047212709
 20
-14.6194399537
 30
0.0
 10
-12.1030987335
 20
-14.6300271153
 30
0.0
 10
-12.1009353491
 20
-14.6441433395
 30
0.0
 10
-12.098231119
 20
-14.6617886168
 30
0.0
 10
-12.0949860427
 20
-14.6829629508
 30
0.0
 10
-12.0906592743
 20
-14.7111953957
 30
0.0
 10
-12.0852508139
 20
-14.7464859519
 30
0.0
 10
-12.0787606614
 20
-14.7888346193
 30
0.0
 10
-12.0722705089
 20
-14.8311832868
 30
0.0
 10
-12.0657803563
 20
-14.8735319543
 30
0.0
 10
-12.0571268197
 20
-14.9299968442
 30
0.0
 10
-12.0463098988
 20
-15.0005779566
 30
0.0
 10
-12.0333295938
 20
-15.0852752915
 30
0.0
 10
-12.0203492887
 20
-15.1699726264
 30
0.0
 10
-12.0116957521
 20
-15.2264375164
 30
0.0
 10
-12.0073689837
 20
-15.2546699613
 30
0.0
 11
-12.2360745652
 21
-13.7456101096
 31
0.0
 11
-12.2204666726
 21
-13.8495452562
 31
0.0
 11
-12.2048587799
 21
-13.9534804027
 31
0.0
 11
-12.1892508872
 21
-14.0574155493
 31
0.0
 11
-12.1736429946
 21
-14.1613506959
 31
0.0
 11
-12.1658390483
 21
-14.2133182691
 31
0.0
 11
-12.1580351019
 21
-14.2652858424
 31
0.0
 11
-12.1502311556
 21
-14.3172534157
 31
0.0
 11
-12.1424272093
 21
-14.369220989
 31
0.0
 11
-12.1346232629
 21
-14.4211885622
 31
0.0
 11
-12.1307212898
 21
-14.4471723489
 31
0.0
 11
-12.1268193166
 21
-14.4731561355
 31
0.0
 11
-12.1229173434
 21
-14.4991399222
 31
0.0
 11
-12.1209663569
 21
-14.5121318155
 31
0.0
 11
-12.1190153703
 21
-14.5251237088
 31
0.0
 11
-12.1170643837
 21
-14.5381156021
 31
0.0
 11
-12.1151133971
 21
-14.5511074954
 31
0.0
 11
-12.1141379038
 21
-14.5576034421
 31
0.0
 11
-12.1131624105
 21
-14.5640993888
 31
0.0
 11
-12.1126746639
 21
-14.5673473621
 31
0.0
 11
-12.1121869172
 21
-14.5705953354
 31
0.0
 11
-12.1116991706
 21
-14.5738433087
 31
0.0
 11
-12.1114552973
 21
-14.5754672954
 31
0.0
 11
-12.1113333606
 21
-14.5762792887
 31
0.0
 11
-12.111211424
 21
-14.5770912821
 31
0.0
 11
-12.1111100153
 21
-14.57775298
 31
0.0
 11
-12.1110086067
 21
-14.5784146779
 31
0.0
 11
-12.1108057894
 21
-14.5797380738
 31
0.0
 11
-12.1104001549
 21
-14.5823848655
 31
0.0
 11
-12.1099945204
 21
-14.5850316572
 31
0.0
 11
-12.1095888858
 21
-14.5876784489
 31
0.0
 11
-12.1087776168
 21
-14.5929720324
 31
0.0
 11
-12.1079663477
 21
-14.5982656158
 31
0.0
 11
-12.1063438096
 21
-14.6088527827
 31
0.0
 11
-12.1047212714
 21
-14.6194399495
 31
0.0
 11
-12.1030987333
 21
-14.6300271164
 31
0.0
 11
-12.1014761952
 21
-14.6406142833
 31
0.0
 11
-12.0982311189
 21
-14.661788617
 31
0.0
 11
-12.0949860427
 21
-14.6829629507
 31
0.0
 11
-12.0917409664
 21
-14.7041372844
 31
0.0
 11
-12.0852508139
 21
-14.7464859519
 31
0.0
 11
-12.0787606614
 21
-14.7888346193
 31
0.0
 11
-12.0722705089
 21
-14.8311832868
 31
0.0
 11
-12.0657803563
 21
-14.8735319543
 31
0.0
 11
-12.0592902038
 21
-14.9158806217
 31
0.0
 11
-12.0463098988
 21
-15.0005779566
 31
0.0
 11
-12.0333295938
 21
-15.0852752915
 31
0.0
 11
-12.0203492887
 21
-15.1699726264
 31
0.0
 11
-12.0073689837
 21
-15.2546699613
 31
0.0
  0
SPLINE
  5
3BB
100
AcDbEntity
  8
RACCORDO
100
AcDbSpline
 62
7
  6
CONTINUOUS
 70
0
 71
3
 72
9
 73
5
 74
3
 42
0.0000001
 43
0.0000001
 44
0.0000000001
 12
-0.0004064978
 22
0.0259299962
 32
0.0
 13
-0.0020641494
 23
0.0258509038
 33
0.0
 40
0.0
 40
0.0
 40
0.0
 40
0.0
 40
0.2485360477
 40
1.0
 40
1.0
 40
1.0
 40
1.0
 10
7.6477662981
 20
22.0724499256
 30
0.0
 10
7.6477326217
 20
22.0745981052
 30
0.0
 10
7.6475289846
 20
22.0832403733
 30
0.0
 10
7.6470202541
 20
22.0918743329
 30
0.0
 10
7.6465032095
 20
22.0983496737
 30
0.0
 11
7.6477662981
 21
22.0724499256
 31
0.0
 11
7.6476125537
 21
22.0788934223
 31
0.0
 11
7.6465032095
 21
22.0983496737
 31
0.0
  0
SPLINE
  5
3BC
100
AcDbEntity
  8
RACCORDO
100
AcDbSpline
 62
7
  6
CONTINUOUS
 70
0
 71
3
 72
9
 73
5
 74
3
 42
0.0000001
 43
0.0000001
 44
0.0000000001
 12
-0.0005033316
 22
-0.0035205451
 32
0.0
 13
-0.0017156907
 23
-0.0031151222
 33
0.0
 40
0.0
 40
0.0
 40
0.0
 40
0.0
 40
0.211301006
 40
1.0
 40
1.0
 40
1.0
 40
1.0
 10
7.6477662981
 20
-15.4454942767
 30
0.0
 10
7.6477308466
 20
-15.4457422416
 30
0.0
 10
7.6474799659
 20
-15.4469044518
 30
0.0
 10
7.646954264
 20
-15.4479870613
 30
0.0
 10
7.6465032095
 20
-15.4488060258
 30
0.0
 11
7.6477662981
 21
-15.4454942767
 31
0.0
 11
7.6476125537
 21
-15.44622984
 31
0.0
 11
7.6465032095
 21
-15.4488060258
 31
0.0
  0
SPLINE
  5
3BD
100
AcDbEntity
  8
RACCORDO
100
AcDbSpline
 62
7
  6
CONTINUOUS
 70
0
 71
3
 72
9
 73
5
 74
3
 42
0.0000001
 43
0.0000001
 44
0.0000000001
 12
0.003195696
 22
0.0016680086
 32
0.0
 13
-0.0000093949
 23
0.0036048076
 33
0.0
 40
0.0
 40
0.0
 40
0.0
 40
0.0
 40
0.5036977787
 40
1.0
 40
1.0
 40
1.0
 40
1.0
 10
7.6460325
 20
21.4871560862
 30
0.0
 10
7.646569055
 20
21.4874361437
 30
0.0
 10
7.6475558951
 20
21.4882592707
 30
0.0
 10
7.6478144146
 20
21.4895140422
 30
0.0
 10
7.6478128604
 20
21.4901104002
 30
0.0
 11
7.6460325
 21
21.4871560862
 31
0.0
 11
7.64737841
 21
21.4883748713
 31
0.0
 11
7.6478128604
 21
21.4901104002
 31
0.0
  0
SPLINE
  5
3BE
100
AcDbEntity
  8
RACCORDO
100
AcDbSpline
 62
7
  6
CONTINUOUS
 70
0
 71
3
 72
10
 73
6
 74
4
 42
0.0000001
 43
0.0000001
 44
0.0000000001
 12
-0.431001698
 22
0.4732084891
 32
0.0
 13
-0.5725276644
 23
0.286183178
 33
0.0
 40
0.0
 40
0.0
 40
0.0
 40
0.0
 40
0.506838871
 40
0.7558957822
 40
1.0
 40
1.0
 40
1.0
 40
1.0
 10
7.6465032095
 20
22.0983496737
 30
0.0
 10
7.5736870715
 20
22.1782964925
 30
0.0
 10
7.4563303816
 20
22.2902532258
 30
0.0
 10
7.2836421685
 20
22.4159464152
 30
0.0
 10
7.1924143918
 20
22.468935864
 30
0.0
 10
7.1458289193
 20
22.4922220376
 30
0.0
 11
7.6465032095
 21
22.0983496737
 31
0.0
 11
7.4103839035
 21
22.3208150136
 31
0.0
 11
7.2812401253
 21
22.4142741415
 31
0.0
 11
7.1458289193
 21
22.4922220376
 31
0.0
  0
SPLINE
  5
3BF
100
AcDbEntity
  8
RACCORDO
100
AcDbSpline
 62
7
  6
CONTINUOUS
 70
0
 71
3
 72
11
 73
7
 74
5
 42
0.0000001
 43
0.0000001
 44
0.0000000001
 12
0.4104598159
 22
0.2008428369
 32
0.0
 13
0.4087143287
 23
-0.2043714832
 33
0.0
 40
0.0
 40
0.0
 40
0.0
 40
0.0
 40
0.2787325875
 40
0.5346772883
 40
0.772449667
 40
1.0
 40
1.0
 40
1.0
 40
1.0
 10
3.4785855521
 20
24.0799727881
 30
0.0
 10
3.5167217277
 20
24.0986332693
 30
0.0
 10
3.5929527173
 20
24.1287197187
 30
0.0
 10
3.70962192
 20
24.1497738929
 30
0.0
 10
3.8204300711
 20
24.1436614986
 30
0.0
 10
3.8886414096
 20
24.1208163697
 30
0.0
 10
3.9196424368
 20
24.10531477
 30
0.0
 11
3.4785855521
 21
24.0799727881
 31
0.0
 11
3.5974315592
 21
24.1257861003
 31
0.0
 11
3.7127105223
 21
24.1455283354
 31
0.0
 11
3.8211450811
 21
24.1386395422
 31
0.0
 11
3.9196424368
 21
24.10531477
 31
0.0
  0
SPLINE
  5
3C0
100
AcDbEntity
  8
RACCORDO
100
AcDbSpline
 62
7
  6
CONTINUOUS
 70
0
 71
3
 72
14
 73
10
 74
8
 42
0.0000001
 43
0.0000001
 44
0.0000000001
 12
-0.0
 22
0.630991571
 32
0.0
 13
-0.5643681094
 23
0.2822038267
 33
0.0
 40
0.0
 40
0.0
 40
0.0
 40
0.0
 40
0.2891525564
 40
0.4227177506
 40
0.5489643138
 40
0.668508974
 40
0.7824375212
 40
0.892292605
 40
1.0
 40
1.0
 40
1.0
 40
1.0
 10
-0.0631189462
 20
25.6857687978
 30
0.0
 10
-0.0631189462
 20
25.7465864064
 30
0.0
 10
-0.0707054029
 20
25.835977831
 30
0.0
 10
-0.0997048337
 20
25.9479645065
 30
0.0
 10
-0.1291544804
 20
26.0223739971
 30
0.0
 10
-0.1665627917
 20
26.0884446116
 30
0.0
 10
-0.2115521421
 20
26.1453361708
 30
0.0
 10
-0.2635898356
 20
26.1922415333
 30
0.0
 10
-0.302736044
 20
26.2165033006
 30
0.0
 10
-0.3229982503
 20
26.2266351136
 30
0.0
 11
-0.0631189462
 21
25.6857687978
 31
0.0
 11
-0.0803963839
 21
25.8674017348
 31
0.0
 11
-0.1017946398
 21
25.9489184949
 31
0.0
 11
-0.1313842064
 21
26.0228796709
 31
0.0
 11
-0.1688023134
 21
26.0883764079
 31
0.0
 11
-0.213590581
 21
26.1446070834
 31
0.0
 11
-0.2652000224
 21
26.1908823431
 31
0.0
 11
-0.3229982503
 21
26.2266351136
 31
0.0
  0
SPLINE
  5
3C1
100
AcDbEntity
  8
RACCORDO
100
AcDbSpline
 62
7
  6
CONTINUOUS
 70
0
 71
3
 72
11
 73
7
 74
5
 42
0.0000001
 43
0.0000001
 44
0.0000000001
 12
0.0557205746
 22
0.0171953145
 32
0.0
 13
0.0521861977
 23
-0.026020416
 33
0.0
 40
0.0
 40
0.0
 40
0.0
 40
0.0
 40
0.368058145
 40
0.6517558087
 40
0.8584037383
 40
1.0
 40
1.0
 40
1.0
 40
1.0
 10
-3.6063858442
 20
27.8325606399
 30
0.0
 10
-3.5995497071
 20
27.8346702651
 30
0.0
 10
-3.5873561457
 20
27.8381217232
 30
0.0
 10
-3.5709400874
 20
27.8413624369
 30
0.0
 10
-3.558685428
 20
27.8422073248
 30
0.0
 10
-3.5518109433
 20
27.8410385384
 30
0.0
 10
-3.5493478198
 20
27.8398104072
 30
0.0
 11
-3.6063858442
 21
27.8325606399
 31
0.0
 11
-3.5856915752
 21
27.8382524616
 31
0.0
 11
-3.5694225826
 21
27.841253102
 31
0.0
 11
-3.5573812257
 21
27.8417187947
 31
0.0
 11
-3.5493478198
 21
27.8398104072
 31
0.0
  0
SPLINE
  5
3C2
100
AcDbEntity
  8
RACCORDO
100
AcDbSpline
 62
7
  6
CONTINUOUS
 70
0
 71
3
 72
9
 73
5
 74
3
 42
0.0000001
 43
0.0000001
 44
0.0000000001
 12
-0.0189527949
 22
-0.0058488139
 32
0.0
 13
-0.0177371727
 23
-0.0088774864
 33
0.0
 40
0.0
 40
0.0
 40
0.0
 40
0.0
 40
0.2476285508
 40
1.0
 40
1.0
 40
1.0
 40
1.0
 10
-3.6063858442
 20
27.8325606399
 30
0.0
 10
-3.6079502619
 20
27.8320778621
 30
0.0
 10
-3.6142249515
 20
27.829990606
 30
0.0
 10
-3.6203171956
 20
27.8273645006
 30
0.0
 10
-3.6247655098
 20
27.8251381115
 30
0.0
 11
-3.6063858442
 21
27.8325606399
 31
0.0
 11
-3.6110466589
 21
27.8310110915
 31
0.0
 11
-3.6247655098
 21
27.8251381115
 31
0.0
  0
SPLINE
  5
3C3
100
AcDbEntity
  8
RACCORDO
100
AcDbSpline
 62
7
  6
CONTINUOUS
 70
0
 71
3
 72
9
 73
5
 74
3
 42
0.0000001
 43
0.0000001
 44
0.0000000001
 12
0.7619046921
 22
0.4348977983
 32
0.0
 13
0.7317139158
 23
0.4839727266
 33
0.0
 40
0.0
 40
0.0
 40
0.0
 40
0.0
 40
0.528469183
 40
1.0
 40
1.0
 40
1.0
 40
1.0
 10
6.899516321
 20
-15.908647091
 30
0.0
 10
7.0337307044
 20
-15.8320370629
 30
0.0
 10
7.2848603529
 20
-15.6820783619
 30
0.0
 10
7.531494656
 20
-15.5248753776
 30
0.0
 10
7.6465032095
 20
-15.4488060258
 30
0.0
 11
6.899516321
 21
-15.908647091
 31
0.0
 11
7.2979038061
 21
-15.6715167774
 31
0.0
 11
7.6465032095
 21
-15.4488060258
 31
0.0
  0
SPLINE
  5
3C4
100
AcDbEntity
  8
RACCORDO
100
AcDbSpline
 62
7
  6
CONTINUOUS
 70
0
 71
3
 72
9
 73
5
 74
3
 42
0.0000001
 43
0.0000001
 44
0.0000000001
 12
-0.0000301215
 22
0.0088936241
 32
0.0
 13
-0.004951697
 23
0.0073877029
 33
0.0
 40
0.0
 40
0.0
 40
0.0
 40
0.0
 40
0.4165732146
 40
1.0
 40
1.0
 40
1.0
 40
1.0
 10
7.6478128008
 20
-15.444796597
 30
0.0
 10
7.6478086182
 20
-15.4435616485
 30
0.0
 10
7.6468795652
 20
-15.4406457031
 30
0.0
 10
7.6453561397
 20
-15.4381092422
 30
0.0
 10
7.6443931555
 20
-15.4366725143
 30
0.0
 11
7.6478128008
 21
-15.444796597
 31
0.0
 11
7.6469314376
 21
-15.4411980922
 31
0.0
 11
7.6443931555
 21
-15.4366725143
 31
0.0
  0
SPLINE
  5
3C5
100
AcDbEntity
  8
RACCORDO
100
AcDbSpline
 62
7
  6
CONTINUOUS
 70
0
 71
3
 72
12
 73
8
 74
6
 42
0.0000001
 43
0.0000001
 44
0.0000000001
 12
-0.0601569049
 22
0.0897513204
 32
0.0
 13
-0.086401292
 23
0.064876571
 33
0.0
 40
0.0
 40
0.0
 40
0.0
 40
0.0
 40
0.0704428041
 40
0.1582142984
 40
0.3820181062
 40
0.6645080291
 40
1.0
 40
1.0
 40
1.0
 40
1.0
 10
7.6443931555
 20
-15.4366725143
 30
0.0
 10
7.6429806152
 20
-15.4345650694
 30
0.0
 10
7.6394362713
 20
-15.4300845255
 30
0.0
 10
7.630070087
 20
-15.4199993812
 30
0.0
 10
7.6142795495
 20
-15.4055210482
 30
0.0
 10
7.5909206332
 20
-15.3861911699
 30
0.0
 10
7.5732770438
 20
-15.3726145364
 30
0.0
 10
7.5636147305
 20
-15.3653593469
 30
0.0
 11
7.6443931555
 21
-15.4366725143
 31
0.0
 11
7.6397581225
 21
-15.4306354772
 31
0.0
 11
7.6333542745
 21
-15.4236407305
 31
0.0
 11
7.6157238274
 21
-15.4070906858
 31
0.0
 11
7.5922879544
 21
-15.3875365624
 31
0.0
 11
7.5636147305
 21
-15.3653593469
 31
0.0
  0
SPLINE
  5
3C6
100
AcDbEntity
  8
RACCORDO
100
AcDbSpline
 62
7
  6
CONTINUOUS
 70
0
 71
3
 72
11
 73
7
 74
5
 42
0.0000001
 43
0.0000001
 44
0.0000000001
 12
-0.1620397139
 22
-0.0811011646
 32
0.0
 13
-0.0906562346
 23
-0.1568939607
 33
0.0
 40
0.0
 40
0.0
 40
0.0
 40
0.0
 40
0.2068014243
 40
0.4392363129
 40
0.7028675903
 40
1.0
 40
1.0
 40
1.0
 40
1.0
 10
-3.6247655098
 20
27.8251381115
 30
0.0
 10
-3.6359355243
 20
27.8195474994
 30
0.0
 10
-3.6579788746
 20
27.8042641672
 30
0.0
 10
-3.6876556788
 20
27.7737024427
 30
0.0
 10
-3.7163729339
 20
27.7352359646
 30
0.0
 10
-3.7341660674
 20
27.706377509
 30
0.0
 10
-3.7431450359
 20
27.6908380821
 30
0.0
 11
-3.6247655098
 21
27.8251381115
 31
0.0
 11
-3.6559170993
 21
27.804310342
 31
0.0
 11
-3.6856830664
 21
27.7745128486
 31
0.0
 11
-3.7146055123
 21
27.736492836
 31
0.0
 11
-3.7431450359
 21
27.6908380821
 31
0.0
  0
SPLINE
  5
3C7
100
AcDbEntity
  8
RACCORDO
100
AcDbSpline
 62
7
  6
CONTINUOUS
 70
0
 71
3
 72
11
 73
7
 74
5
 42
0.0000001
 43
0.0000001
 44
0.0000000001
 12
-0.4087143287
 22
0.2043714832
 32
0.0
 13
-0.4104598159
 23
-0.2008428369
 33
0.0
 40
0.0
 40
0.0
 40
0.0
 40
0.0
 40
0.227550333
 40
0.4653227117
 40
0.7212674125
 40
1.0
 40
1.0
 40
1.0
 40
1.0
 10
-0.3229982503
 20
26.2266351136
 30
0.0
 10
-0.3539992775
 20
26.2421367132
 30
0.0
 10
-0.422210616
 20
26.2649818422
 30
0.0
 10
-0.5330187671
 20
26.2710942365
 30
0.0
 10
-0.6496879698
 20
26.2500400623
 30
0.0
 10
-0.7259189594
 20
26.2199536128
 30
0.0
 10
-0.764055135
 20
26.2012931316
 30
0.0
 11
-0.3229982503
 21
26.2266351136
 31
0.0
 11
-0.421495606
 21
26.2599598857
 31
0.0
 11
-0.5299301648
 21
26.266848679
 31
0.0
 11
-0.6452091279
 21
26.2471064439
 31
0.0
 11
-0.764055135
 21
26.2012931316
 31
0.0
  0
SPLINE
  5
3C8
100
AcDbEntity
  8
RACCORDO
100
AcDbSpline
 62
7
  6
CONTINUOUS
 70
0
 71
3
 72
9
 73
5
 74
3
 42
0.0000001
 43
0.0000001
 44
0.0000000001
 12
-0.2341361533
 22
0.117035093
 32
0.0
 13
-0.2566306785
 23
0.0515523629
 33
0.0
 40
0.0
 40
0.0
 40
0.0
 40
0.0
 40
0.2560238952
 40
1.0
 40
1.0
 40
1.0
 40
1.0
 10
7.1458289193
 20
22.4922220376
 30
0.0
 10
7.1258474359
 20
22.5022099644
 30
0.0
 10
7.0467947627
 20
22.5390878768
 30
0.0
 10
6.9631586852
 20
22.5668249819
 30
0.0
 10
6.899516321
 20
22.5796095573
 30
0.0
 11
7.1458289193
 21
22.4922220376
 31
0.0
 11
7.0850682552
 21
22.5204940542
 31
0.0
 11
6.899516321
 21
22.5796095573
 31
0.0
  0
SPLINE
  5
3C9
100
AcDbEntity
  8
RACCORDO
100
AcDbSpline
 62
7
  6
CONTINUOUS
 70
0
 71
3
 72
9
 73
5
 74
3
 42
0.0000001
 43
0.0000001
 44
0.0000000001
 12
-0.0000153526
 22
0.0058907759
 32
0.0
 13
-0.0030473344
 23
0.0050413519
 33
0.0
 40
0.0
 40
0.0
 40
0.0
 40
0.0
 40
0.198822484
 40
1.0
 40
1.0
 40
1.0
 40
1.0
 10
7.6478128604
 20
21.4901104002
 30
0.0
 10
7.6478118429
 20
21.4905008064
 30
0.0
 10
7.6475496005
 20
21.4924628162
 30
0.0
 10
7.6466006026
 20
21.4942507942
 30
0.0
 10
7.645786784
 20
21.4955971334
 30
0.0
 11
7.6478128604
 21
21.4901104002
 31
0.0
 11
7.6476804158
 21
21.4912741102
 31
0.0
 11
7.645786784
 21
21.4955971334
 31
0.0
  0
SPLINE
  5
3CA
100
AcDbEntity
  8
RACCORDO
100
AcDbSpline
 62
7
  6
CONTINUOUS
 70
0
 71
3
 72
12
 73
8
 74
6
 42
0.0000001
 43
0.0000001
 44
0.0000000001
 12
-0.0562867789
 22
0.0931179267
 32
0.0
 13
-0.0879275831
 23
0.0640928225
 33
0.0
 40
0.0
 40
0.0
 40
0.0
 40
0.0
 40
0.0637627611
 40
0.1470196742
 40
0.3678913705
 40
0.6544802791
 40
1.0
 40
1.0
 40
1.0
 40
1.0
 10
7.645786784
 20
21.4955971334
 30
0.0
 10
7.6445904505
 20
21.4975762855
 30
0.0
 10
7.6413274918
 20
21.5018247351
 30
0.0
 10
7.6322311539
 20
21.5115909098
 30
0.0
 10
7.616225693
 20
21.5258890356
 30
0.0
 10
7.5921178724
 20
21.5452753621
 30
0.0
 10
7.5737416352
 20
21.5589951496
 30
0.0
 10
7.5636147305
 20
21.5663769277
 30
0.0
 11
7.645786784
 21
21.4955971334
 31
0.0
 11
7.6416901371
 21
21.5011964006
 31
0.0
 11
7.635579761
 21
21.5078843674
 31
0.0
 11
7.6178940036
 21
21.5241563892
 31
0.0
 11
7.593678412
 21
21.5438030786
 31
0.0
 11
7.5636147305
 21
21.5663769277
 31
0.0
  0
SPLINE
  5
3CB
100
AcDbEntity
  8
RACCORDO
100
AcDbSpline
 62
7
  6
CONTINUOUS
 70
0
 71
3
 72
10
 73
6
 74
4
 42
0.0000001
 43
0.0000001
 44
0.0000000001
 12
-0.0001212048
 22
-0.3024299942
 32
0.0
 13
-0.1477248048
 23
-0.2638963776
 33
0.0
 40
0.0
 40
0.0
 40
0.0
 40
0.0
 40
0.2413789779
 40
0.4900689452
 40
1.0
 40
1.0
 40
1.0
 40
1.0
 10
7.6478128008
 20
22.0663305487
 30
0.0
 10
7.6478030487
 20
22.0419971344
 30
0.0
 10
7.6431674036
 20
21.9925392743
 30
0.0
 10
7.6196544486
 20
21.894318987
 30
0.0
 10
7.5887245524
 20
21.8234924012
 30
0.0
 10
7.5636147305
 20
21.7786360818
 30
0.0
 11
7.6478128008
 21
22.0663305487
 31
0.0
 11
7.6415657188
 21
21.9935980918
 31
0.0
 11
7.6243900166
 21
21.9203742118
 31
0.0
 11
7.5636147305
 21
21.7786360818
 31
0.0
  0
SPLINE
  5
3CC
100
AcDbEntity
  8
RACCORDO
100
AcDbSpline
 62
7
  6
CONTINUOUS
 70
0
 71
3
 72
13
 73
9
 74
7
 42
0.0000001
 43
0.0000001
 44
0.0000000001
 12
0.0
 22
0.5145411392
 32
0.0
 13
-0.4602195858
 23
0.2301097929
 33
0.0
 40
0.0
 40
0.0
 40
0.0
 40
0.0
 40
0.2464774511
 40
0.5111327431
 40
0.6428451777
 40
0.7698685706
 40
0.8895552217
 40
1.0
 40
1.0
 40
1.0
 40
1.0
 10
2.1642674145
 20
17.4324158638
 30
0.0
 10
2.1642674145
 20
17.4746901267
 30
0.0
 10
2.1496777928
 20
17.5624858895
 30
0.0
 10
2.105541339
 20
17.6646203154
 30
0.0
 10
2.0558869606
 20
17.7396400145
 30
0.0
 10
2.0134181764
 20
17.7889815144
 30
0.0
 10
1.9673044408
 20
17.8296073732
 30
0.0
 10
1.9337229912
 20
17.8508085087
 30
0.0
 10
1.9167800411
 20
17.8592799838
 30
0.0
 11
2.1642674145
 21
17.4324158638
 31
0.0
 11
2.1454288375
 21
17.557831683
 31
0.0
 11
2.0917817177
 21
17.6829951727
 31
0.0
 11
2.0542784377
 21
17.7394440488
 31
0.0
 11
2.0114903033
 21
17.7888499516
 31
0.0
 11
1.9650648951
 21
17.8293127036
 31
0.0
 11
1.9167800411
 21
17.8592799838
 31
0.0
  0
SPLINE
  5
3CD
100
AcDbEntity
  8
RACCORDO
100
AcDbSpline
 62
7
  6
CONTINUOUS
 70
0
 71
3
 72
11
 73
7
 74
5
 42
0.0000001
 43
0.0000001
 44
0.0000000001
 12
0.0
 22
-0.219311122
 32
0.0
 13
-0.195312993
 23
-0.0997507042
 33
0.0
 40
0.0
 40
0.0
 40
0.0
 40
0.0
 40
0.2895883012
 40
0.5494587242
 40
0.7828521482
 40
1.0
 40
1.0
 40
1.0
 40
1.0
 10
2.1642674145
 20
-20.7592813593
 30
0.0
 10
2.1642674145
 20
-20.7804513377
 30
0.0
 10
2.1608687777
 20
-20.8207694845
 30
0.0
 10
2.1437430356
 20
-20.8759529653
 30
0.0
 10
2.1151491562
 20
-20.9202355898
 30
0.0
 10
2.0884356428
 20
-20.9408732115
 30
0.0
 10
2.0742983771
 20
-20.9480934285
 30
0.0
 11
2.1642674145
 21
-20.7592813593
 31
0.0
 11
2.1582901658
 21
-20.822509394
 31
0.0
 11
2.1406482913
 21
-20.8767026257
 31
0.0
 11
2.1121929739
 21
-20.9192499915
 31
0.0
 11
2.0742983771
 21
-20.9480934285
 31
0.0
  0
SPLINE
  5
3CE
100
AcDbEntity
  8
RACCORDO
100
AcDbSpline
 62
7
  6
CONTINUOUS
 70
0
 71
3
 72
9
 73
5
 74
3
 42
0.0000001
 43
0.0000001
 44
0.0000000001
 12
-0.4347732533
 22
0.0873379156
 32
0.0
 13
-0.4394369151
 23
-0.0595893528
 33
0.0
 40
0.0
 40
0.0
 40
0.0
 40
0.0
 40
0.4886809648
 40
1.0
 40
1.0
 40
1.0
 40
1.0
 10
6.899516321
 20
22.5796095573
 30
0.0
 10
6.8286945167
 20
22.5938363496
 30
0.0
 10
6.6808117811
 20
22.6089862676
 30
0.0
 10
6.5325729396
 20
22.6005842277
 30
0.0
 10
6.4576754531
 20
22.5904278376
 30
0.0
 11
6.899516321
 21
22.5796095573
 31
0.0
 11
6.6840745196
 21
22.6030188811
 31
0.0
 11
6.4576754531
 21
22.5904278376
 31
0.0
  0
SPLINE
  5
3CF
100
AcDbEntity
  8
ASSI
100
AcDbSpline
 62
7
  6
CONTINUOUS
 70
0
 71
3
 72
15
 73
11
 74
9
 42
0.0000001
 43
0.0000001
 44
0.0000000001
 12
1.2927245145
 22
0.6739981235
 32
0.0
 13
0.0
 23
1.4578786441
 33
0.0
 40
0.0
 40
0.0
 40
0.0
 40
0.0
 40
0.1109516471
 40
0.2309090886
 40
0.3579430161
 40
0.489443561
 40
0.622418517
 40
0.7537555272
 40
0.8804749292
 40
1.0
 40
1.0
 40
1.0
 40
1.0
 10
-8.7481916399
 20
19.17004836
 30
0.0
 10
-8.7003816685
 20
19.1949754273
 30
0.0
 10
-8.6058025222
 20
19.2565704272
 30
0.0
 10
-8.4760774741
 20
19.3732748997
 30
0.0
 10
-8.3568624566
 20
19.5140289062
 30
0.0
 10
-8.252525037
 20
19.6736719815
 30
0.0
 10
-8.1668389931
 20
19.8463768442
 30
0.0
 10
-8.1029475236
 20
20.0258413915
 30
0.0
 10
-8.0631907225
 20
20.2054560267
 30
0.0
 10
-8.0534255736
 20
20.3252405477
 30
0.0
 10
-8.0534255736
 20
20.3833248971
 30
0.0
 11
-8.7481916399
 21
19.17004836
 31
0.0
 11
-8.6120063344
 21
19.2573291198
 31
0.0
 11
-8.4814062459
 21
19.3736382669
 31
0.0
 11
-8.361295011
 21
19.5146075891
 31
0.0
 11
-8.2561883972
 21
19.6749385836
 31
0.0
 11
-8.1700360499
 21
19.8486049174
 31
0.0
 11
-8.1060765789
 21
20.0290800058
 31
0.0
 11
-8.06671345
 21
20.2095792291
 31
0.0
 11
-8.0534255736
 21
20.3833248971
 31
0.0
  0
SPLINE
  5
3D0
100
AcDbEntity
  8
RACCORDO
100
AcDbSpline
 62
7
  6
CONTINUOUS
 70
0
 71
3
 72
9
 73
5
 74
3
 42
0.0000001
 43
0.0000001
 44
0.0000000001
 12
-0.2628829155
 22
-0.3141343906
 32
0.0
 13
-0.3439459295
 23
-0.2224613229
 33
0.0
 40
0.0
 40
0.0
 40
0.0
 40
0.0
 40
0.5029694279
 40
1.0
 40
1.0
 40
1.0
 40
1.0
 10
19.3281530783
 20
4.5860458003
 30
0.0
 10
19.2840790551
 20
4.5333791354
 30
0.0
 10
19.1889160472
 20
4.4347064285
 30
0.0
 10
19.0799216739
 20
4.3514511172
 30
0.0
 10
19.0229377932
 20
4.3145944243
 30
0.0
 11
19.3281530783
 21
4.5860458003
 31
0.0
 11
19.1848518533
 21
4.4380206912
 31
0.0
 11
19.0229377932
 21
4.3145944243
 31
0.0
  0
LINE
  5
3D1
100
AcDbEntity
  8
RACCORDO
100
AcDbLine
 62
7
  6
CONTINUOUS
 10
19.4251257371
 20
7.2119157256
 11
19.4270536174
 21
7.20646874
  0
LINE
  5
3D2
100
AcDbEntity
  8
RACCORDO
100
AcDbLine
 62
7
  6
CONTINUOUS
 10
19.4270536174
 20
7.20646874
 11
19.4273200916
 21
7.205713986
  0
SPLINE
  5
3D3
100
AcDbEntity
  8
RACCORDO
100
AcDbSpline
 62
7
  6
CONTINUOUS
 70
0
 71
3
 72
15
 73
11
 74
9
 42
0.0000001
 43
0.0000001
 44
0.0000000001
 12
0.7594422826
 22
-2.1516712582
 32
0.0
 13
-1.0471258257
 23
-2.0273059191
 33
0.0
 40
0.0
 40
0.0
 40
0.0
 40
0.0
 40
0.1388161433
 40
0.2748300603
 40
0.4071919408
 40
0.5352364122
 40
0.6585338955
 40
0.7769348731
 40
0.8905995613
 40
1.0
 40
1.0
 40
1.0
 40
1.0
 10
19.4273200916
 20
7.205713986
 30
0.0
 10
19.4624610412
 20
7.1061517507
 30
0.0
 10
19.5246964989
 20
6.9063469419
 30
0.0
 10
19.5935186859
 20
6.6040606584
 30
0.0
 10
19.6360688063
 20
6.3051937613
 30
0.0
 10
19.6515353315
 20
6.0133501838
 30
0.0
 10
19.6393089776
 20
5.7319188374
 30
0.0
 10
19.5988827725
 20
5.4640895158
 30
0.0
 10
19.5298585598
 20
5.2130576273
 30
0.0
 10
19.4633207903
 20
5.0562595139
 30
0.0
 10
19.4251354487
 20
4.9823301282
 30
0.0
 11
19.4273200916
 21
7.205713986
 31
0.0
 11
19.5213040274
 21
6.9032330031
 31
0.0
 11
19.5898841432
 21
6.6005535941
 31
0.0
 11
19.6320227381
 21
6.3014892745
 31
0.0
 11
19.6469402779
 21
6.0097032346
 31
0.0
 11
19.634071657
 21
5.7286620825
 31
0.0
 11
19.5930050185
 21
5.461638576
 31
0.0
 11
19.5234278181
 21
5.2117896661
 31
0.0
 11
19.4251354487
 21
4.9823301282
 31
0.0
  0
SPLINE
  5
3D4
100
AcDbEntity
  8
RACCORDO
100
AcDbSpline
 62
7
  6
CONTINUOUS
 70
0
 71
3
 72
14
 73
10
 74
8
 42
0.0000001
 43
0.0000001
 44
0.0000000001
 12
2.2024501094
 22
-1.1528982215
 32
0.0
 13
1.0306512318
 23
-2.262237572
 33
0.0
 40
0.0
 40
0.0
 40
0.0
 40
0.0
 40
0.1126871705
 40
0.229859789
 40
0.3512781161
 40
0.4764776334
 40
0.6048079655
 40
0.7354745621
 40
1.0
 40
1.0
 40
1.0
 40
1.0
 10
17.7542163406
 20
9.4247000363
 30
0.0
 10
17.8369456309
 20
9.3813944235
 30
0.0
 10
18.0008538265
 20
9.2835573693
 30
0.0
 10
18.235150033
 20
9.110146934
 30
0.0
 10
18.4605827031
 20
8.9094257047
 30
0.0
 10
18.6748057773
 20
8.6839294973
 30
0.0
 10
18.8755395002
 20
8.4363919982
 30
0.0
 10
19.1230204855
 20
8.0797651008
 30
0.0
 10
19.2802096099
 20
7.7907929607
 30
0.0
 10
19.3710874327
 20
7.5913198326
 30
0.0
 11
17.7542163406
 21
9.4247000363
 31
0.0
 11
17.9951087624
 21
9.2817089692
 31
0.0
 11
18.229596123
 21
9.1088999107
 31
0.0
 11
18.4553500939
 21
8.9085435746
 31
0.0
 11
18.6699959333
 21
8.683160458
 31
0.0
 11
18.8711551844
 21
8.4355504495
 31
0.0
 11
19.0565034109
 21
8.1687898845
 31
0.0
 11
19.3710874327
 21
7.5913198326
 31
0.0
  0
SPLINE
  5
3D5
100
AcDbEntity
  8
RACCORDO
100
AcDbSpline
 62
7
  6
CONTINUOUS
 70
0
 71
3
 72
14
 73
10
 74
8
 42
0.0000001
 43
0.0000001
 44
0.0000000001
 12
2.2024500824
 22
-1.1528982074
 32
0.0
 13
1.0306512342
 23
-2.2622375373
 33
0.0
 40
0.0
 40
0.0
 40
0.0
 40
0.0
 40
0.1126871705
 40
0.2298597891
 40
0.3512781161
 40
0.4764776334
 40
0.6048079654
 40
0.735474562
 40
1.0
 40
1.0
 40
1.0
 40
1.0
 10
17.7542163406
 20
21.1160429874
 30
0.0
 10
17.8369456299
 20
21.0727373751
 30
0.0
 10
18.0008538236
 20
20.9749003222
 30
0.0
 10
18.2351500275
 20
20.8014898894
 30
0.0
 10
18.4605826954
 20
20.6007686632
 30
0.0
 10
18.6748057676
 20
20.3752724594
 30
0.0
 10
18.8755394889
 20
20.1277349643
 30
0.0
 10
19.1230204728
 20
19.7711080724
 30
0.0
 10
19.2802095969
 20
19.4821359367
 30
0.0
 10
19.37108742
 20
19.2826628116
 30
0.0
 11
17.7542163406
 21
21.1160429874
 31
0.0
 11
17.9951087597
 21
20.9730519221
 31
0.0
 11
18.2295961177
 21
20.8002428661
 31
0.0
 11
18.4553500862
 21
20.5998865331
 31
0.0
 11
18.6699959237
 21
20.3745034201
 31
0.0
 11
18.8711551731
 21
20.1268934156
 31
0.0
 11
19.0565033986
 21
19.8601328548
 31
0.0
 11
19.37108742
 21
19.2826628116
 31
0.0
  0
SPLINE
  5
3D6
100
AcDbEntity
  8
RACCORDO
100
AcDbSpline
 62
7
  6
CONTINUOUS
 70
0
 71
3
 72
9
 73
5
 74
3
 42
0.0000001
 43
0.0000001
 44
0.0000000001
 12
-0.262882933
 22
-0.3141344303
 32
0.0
 13
-0.3439459644
 23
-0.2224613458
 33
0.0
 40
0.0
 40
0.0
 40
0.0
 40
0.0
 40
0.5029694283
 40
1.0
 40
1.0
 40
1.0
 40
1.0
 10
19.3281531058
 20
16.2773887843
 30
0.0
 10
19.2840790796
 20
16.2247221127
 30
0.0
 10
19.1889160643
 20
16.1260493935
 30
0.0
 10
19.0799216805
 20
16.0427940726
 30
0.0
 10
19.022937794
 20
16.0059373759
 30
0.0
 11
19.3281531058
 21
16.2773887843
 31
0.0
 11
19.1848518695
 21
16.1293636567
 31
0.0
 11
19.022937794
 21
16.0059373759
 31
0.0
  0
LINE
  5
3D7
100
AcDbEntity
  8
RACCORDO
100
AcDbLine
 62
7
  6
CONTINUOUS
 10
19.4251257371
 20
18.9032586767
 11
19.4270536174
 21
18.8978116911
  0
LINE
  5
3D8
100
AcDbEntity
  8
RACCORDO
100
AcDbLine
 62
7
  6
CONTINUOUS
 10
19.4270536174
 20
18.8978116911
 11
19.4273200916
 21
18.897056937
  0
SPLINE
  5
3D9
100
AcDbEntity
  8
RACCORDO
100
AcDbSpline
 62
7
  6
CONTINUOUS
 70
0
 71
3
 72
15
 73
11
 74
9
 42
0.0000001
 43
0.0000001
 44
0.0000000001
 12
0.7594422826
 22
-2.1516712582
 32
0.0
 13
-1.0471258257
 23
-2.0273059191
 33
0.0
 40
0.0
 40
0.0
 40
0.0
 40
0.0
 40
0.1388161433
 40
0.2748300603
 40
0.4071919408
 40
0.5352364122
 40
0.6585338955
 40
0.7769348731
 40
0.8905995613
 40
1.0
 40
1.0
 40
1.0
 40
1.0
 10
19.4273200916
 20
18.897056937
 30
0.0
 10
19.4624610412
 20
18.7974947018
 30
0.0
 10
19.5246964989
 20
18.597689893
 30
0.0
 10
19.5935186859
 20
18.2954036095
 30
0.0
 10
19.6360688063
 20
17.9965367124
 30
0.0
 10
19.6515353315
 20
17.7046931349
 30
0.0
 10
19.6393089776
 20
17.4232617885
 30
0.0
 10
19.5988827725
 20
17.1554324669
 30
0.0
 10
19.5298585598
 20
16.9044005783
 30
0.0
 10
19.4633207903
 20
16.7476024649
 30
0.0
 10
19.4251354487
 20
16.6736730793
 30
0.0
 11
19.4273200916
 21
18.897056937
 31
0.0
 11
19.5213040274
 21
18.5945759542
 31
0.0
 11
19.5898841432
 21
18.2918965452
 31
0.0
 11
19.6320227381
 21
17.9928322256
 31
0.0
 11
19.6469402779
 21
17.7010461857
 31
0.0
 11
19.634071657
 21
17.4200050336
 31
0.0
 11
19.5930050185
 21
17.1529815271
 31
0.0
 11
19.5234278181
 21
16.9031326172
 31
0.0
 11
19.4251354487
 21
16.6736730793
 31
0.0
  0
SPLINE
  5
3DA
100
AcDbEntity
  8
RACCORDO
100
AcDbSpline
 62
253
  6
CONTINUOUS
 70
0
 71
3
 72
16
 73
12
 74
10
 42
0.0000001
 43
0.0000001
 44
0.0000000001
 12
0.0403747361
 22
-0.088561623
 32
0.0
 13
-0.0867485288
 23
-0.0441358487
 33
0.0
 40
0.0
 40
0.0
 40
0.0
 40
0.0
 40
0.008445533
 40
0.0227332945
 40
0.0736634099
 40
0.1556613134
 40
0.2683515984
 40
0.4107192484
 40
0.5813345403
 40
0.7784538427
 40
1.0
 40
1.0
 40
1.0
 40
1.0
 10
19.3710873652
 20
19.2826627866
 30
0.0
 10
19.3712010273
 20
19.2824134699
 30
0.0
 10
19.3710152657
 20
19.2815991851
 30
0.0
 10
19.3694988424
 20
19.2797769595
 30
0.0
 10
19.3657380984
 20
19.2767426162
 30
0.0
 10
19.3591369193
 20
19.2723159398
 30
0.0
 10
19.3497812785
 20
19.2666297526
 30
0.0
 10
19.3377864
 20
19.2597910158
 30
0.0
 10
19.3232564514
 20
19.2518639649
 30
0.0
 10
19.3063480127
 20
19.24294118
 30
0.0
 10
19.2942672683
 20
19.2367312034
 30
0.0
 10
19.2878610006
 20
19.2334718275
 30
0.0
 11
19.3710873652
 21
19.2826627866
 31
0.0
 11
19.3710240533
 21
19.2818432181
 31
0.0
 11
19.3702376308
 21
19.2806963021
 31
0.0
 11
19.3665057975
 21
19.2774334902
 31
0.0
 11
19.3599313683
 21
19.2729088952
 31
0.0
 11
19.3505840374
 21
19.2671704683
 31
0.0
 11
19.3385625772
 21
19.2602788697
 31
0.0
 11
19.3239948603
 21
19.2523073694
 31
0.0
 11
19.3070338645
 21
19.2433397283
 31
0.0
 11
19.2878610006
 21
19.2334718275
 31
0.0
  0
SPLINE
  5
3DB
100
AcDbEntity
  8
RACCORDO
100
AcDbSpline
 62
253
  6
CONTINUOUS
 70
0
 71
3
 72
12
 73
8
 74
6
 42
0.0000001
 43
0.0000001
 44
0.0000000001
 12
-0.0000041937
 22
-0.140420672
 32
0.0
 13
-0.1246974553
 23
-0.0645639975
 33
0.0
 40
0.0
 40
0.0
 40
0.0
 40
0.0
 40
0.1028546464
 40
0.2084745189
 40
0.4366765744
 40
0.6988746826
 40
1.0
 40
1.0
 40
1.0
 40
1.0
 10
19.4251210556
 20
19.0421972835
 30
0.0
 10
19.4251209118
 20
19.0373829773
 30
0.0
 10
19.4241678561
 20
19.0276001137
 30
0.0
 10
19.4183785397
 20
19.0078891382
 30
0.0
 10
19.4034342181
 20
18.9837309119
 30
0.0
 10
19.3760527496
 20
18.9583426933
 30
0.0
 10
19.353439526
 20
18.9444803376
 30
0.0
 10
19.3409230057
 20
18.9379997195
 30
0.0
 11
19.4251210556
 21
19.0421972835
 31
0.0
 11
19.4237397194
 21
19.0278205729
 31
0.0
 11
19.4196088362
 21
19.0135762513
 31
0.0
 11
19.4032757036
 21
18.9860069741
 31
0.0
 11
19.3767221424
 21
18.9605025421
 31
0.0
 11
19.3409230057
 21
18.9379997195
 31
0.0
  0
SPLINE
  5
3DC
100
AcDbEntity
  8
RACCORDO
100
AcDbSpline
 62
7
  6
CONTINUOUS
 70
0
 71
3
 72
14
 73
10
 74
8
 42
0.0000001
 43
0.0000001
 44
0.0000000001
 12
0.0000089474
 22
-0.1249350135
 32
0.0
 13
-0.1111854209
 23
-0.0569785911
 33
0.0
 40
0.0
 40
0.0
 40
0.0
 40
0.0
 40
0.0819502751
 40
0.1721976201
 40
0.2741154028
 40
0.3897757245
 40
0.5202143261
 40
0.6657011406
 40
1.0
 40
1.0
 40
1.0
 40
1.0
 10
19.4251210223
 20
18.8971731774
 30
0.0
 10
19.4251212667
 20
18.8937603578
 30
0.0
 10
19.4240904061
 20
18.886566738
 30
0.0
 10
19.4197971184
 20
18.8759017335
 30
0.0
 10
19.4128192284
 20
18.8650753172
 30
0.0
 10
19.4032274212
 20
18.8541566072
 30
0.0
 10
19.3910949443
 20
18.8432154123
 30
0.0
 10
19.3706964008
 20
18.8280154252
 30
0.0
 10
19.3533127255
 20
18.8180059299
 30
0.0
 10
19.3409230057
 20
18.8116566372
 30
0.0
 11
19.4251210223
 21
18.8971731774
 31
0.0
 11
19.4237627109
 21
18.8870252206
 31
0.0
 11
19.4196829678
 21
18.8765141539
 31
0.0
 11
19.4128971555
 21
18.8657398986
 31
0.0
 11
19.4034487411
 21
18.854806891
 31
0.0
 11
19.3914104171
 21
18.8438228239
 31
0.0
 11
19.3768842872
 21
18.8328970304
 31
0.0
 11
19.3409230057
 21
18.8116566372
 31
0.0
  0
SPLINE
  5
3DD
100
AcDbEntity
  8
RACCORDO
100
AcDbSpline
 62
253
  6
CONTINUOUS
 70
0
 71
3
 72
13
 73
9
 74
7
 42
0.0000001
 43
0.0000001
 44
0.0000000001
 12
-0.4029948912
 22
0.2015008568
 32
0.0
 13
-0.4064116186
 23
-0.1945175412
 33
0.0
 40
0.0
 40
0.0
 40
0.0
 40
0.0
 40
0.1134934584
 40
0.2282840573
 40
0.3455908831
 40
0.4664899683
 40
0.722046102
 40
1.0
 40
1.0
 40
1.0
 40
1.0
 10
16.8585236219
 20
23.6149892904
 30
0.0
 10
16.8432778606
 20
23.6226123001
 30
0.0
 10
16.8115198581
 20
23.6358616442
 30
0.0
 10
16.7612191152
 20
23.649239046
 30
0.0
 10
16.7084990263
 20
23.656091837
 30
0.0
 10
16.6341782965
 20
23.6564965755
 30
0.0
 10
16.5365197288
 20
23.6396201905
 30
0.0
 10
16.4613053204
 20
23.6106482929
 30
0.0
 10
16.4236507559
 20
23.59262599
 30
0.0
 11
16.8585236219
 21
23.6149892904
 31
0.0
 11
16.8113372884
 21
23.6346956743
 31
0.0
 11
16.761369603
 21
23.6480461766
 31
0.0
 11
16.7089679901
 21
23.6549479742
 31
0.0
 11
16.65449678
 21
23.6553530734
 31
0.0
 11
16.5408722649
 21
23.636707103
 31
0.0
 11
16.4236507559
 21
23.59262599
 31
0.0
  0
SPLINE
  5
3DE
100
AcDbEntity
  8
RACCORDO
100
AcDbSpline
 62
253
  6
CONTINUOUS
 70
0
 71
3
 72
19
 73
15
 74
13
 42
0.0000001
 43
0.0000001
 44
0.0000000001
 12
-0.1916406811
 22
0.3305015699
 32
0.0
 13
-0.342093789
 23
-0.1700860898
 33
0.0
 40
0.0
 40
0.0
 40
0.0
 40
0.0
 40
0.0282727335
 40
0.0390580616
 40
0.0515824066
 40
0.08206194
 40
0.1199708655
 40
0.1653604797
 40
0.21818795
 40
0.2783507375
 40
0.4200586065
 40
0.5889462
 40
0.7830344787
 40
1.0
 40
1.0
 40
1.0
 40
1.0
 10
17.2764178411
 20
23.2221480817
 30
0.0
 10
17.2746117725
 20
23.2252628093
 30
0.0
 10
17.2687043826
 20
23.2267307666
 30
0.0
 10
17.2623002741
 20
23.2268894728
 30
0.0
 10
17.2554079699
 20
23.2265147946
 30
0.0
 10
17.2452368043
 20
23.2249113707
 30
0.0
 10
17.2311128282
 20
23.2215994366
 30
0.0
 10
17.2144660174
 20
23.2167527798
 30
0.0
 10
17.1953227103
 20
23.2103873554
 30
0.0
 10
17.1648521585
 20
23.1992612433
 30
0.0
 10
17.1210859473
 20
23.1815119809
 30
0.0
 10
17.0622633089
 20
23.155603036
 30
0.0
 10
16.9953491264
 20
23.1243348875
 30
0.0
 10
16.9483154559
 20
23.1013506697
 30
0.0
 10
16.9235746035
 20
23.0890497307
 30
0.0
 11
17.2764178411
 21
23.2221480817
 31
0.0
 11
17.2666139594
 21
23.226681801
 31
0.0
 11
17.2624963042
 21
23.2268340071
 31
0.0
 11
17.2577175303
 21
23.2265929898
 31
0.0
 11
17.2461920327
 21
23.2249323719
 31
0.0
 11
17.2320733082
 21
23.2217051284
 31
0.0
 11
17.2154053799
 21
23.2169213879
 31
0.0
 11
17.1962398446
 21
23.2105959031
 31
0.0
 11
17.1746362096
 21
23.2027483045
 31
0.0
 11
17.1243908243
 21
23.1825891846
 31
0.0
 11
17.0652926743
 21
23.1566940984
 31
0.0
 11
16.9980765881
 21
23.1253851157
 31
0.0
 11
16.9235746035
 21
23.0890497307
 31
0.0
  0
SPLINE
  5
3DF
100
AcDbEntity
  8
RACCORDO
100
AcDbSpline
 62
253
  6
CONTINUOUS
 70
0
 71
3
 72
19
 73
15
 74
13
 42
0.0000001
 43
0.0000001
 44
0.0000000001
 12
-0.1916424148
 22
0.3305005298
 32
0.0
 13
-0.342093762
 23
-0.1700860763
 33
0.0
 40
0.0
 40
0.0
 40
0.0
 40
0.0
 40
0.0282727879
 40
0.0390581337
 40
0.051582496
 40
0.0820620608
 40
0.119971012
 40
0.1653606453
 40
0.218188128
 40
0.278350921
 40
0.4200587807
 40
0.588946339
 40
0.7830345586
 40
1.0
 40
1.0
 40
1.0
 40
1.0
 10
17.4122401625
 20
22.9878892293
 30
0.0
 10
17.4104340741
 20
22.9910039531
 30
0.0
 10
17.4045266756
 20
22.9924718909
 30
0.0
 10
17.3981225556
 20
22.9926305909
 30
0.0
 10
17.391230244
 20
22.9922559056
 30
0.0
 10
17.3810590708
 20
22.9906524752
 30
0.0
 10
17.3669350875
 20
22.9873405343
 30
0.0
 10
17.3502882721
 20
22.9824938723
 30
0.0
 10
17.331144963
 20
22.9761284442
 30
0.0
 10
17.3006744136
 20
22.9650023295
 30
0.0
 10
17.2569082115
 20
22.947253068
 30
0.0
 10
17.1980855905
 20
22.9213441289
 30
0.0
 10
17.1311714338
 20
22.8900759914
 30
0.0
 10
17.084137783
 20
22.867091783
 30
0.0
 10
17.0593969416
 20
22.8547908495
 30
0.0
 11
17.4122401625
 21
22.9878892293
 31
0.0
 11
17.4024362477
 21
22.9924229244
 31
0.0
 11
17.3983185858
 21
22.9925751253
 31
0.0
 11
17.3935398059
 21
22.9923341032
 31
0.0
 11
17.3820142983
 21
22.9906734769
 31
0.0
 11
17.3678955665
 21
22.9874462264
 31
0.0
 11
17.3512276336
 21
22.9826624805
 31
0.0
 11
17.3320620963
 21
22.9763369918
 31
0.0
 11
17.3104584618
 21
22.9684893909
 31
0.0
 11
17.2602130851
 21
22.9483302707
 31
0.0
 11
17.2011149528
 21
22.9224351902
 31
0.0
 11
17.1338988928
 21
22.8911262185
 31
0.0
 11
17.0593969416
 21
22.8547908495
 31
0.0
  0
SPLINE
  5
3E0
100
AcDbEntity
  8
RACCORDO
100
AcDbSpline
 62
253
  6
CONTINUOUS
 70
0
 71
3
 72
12
 73
8
 74
6
 42
0.0000001
 43
0.0000001
 44
0.0000000001
 12
-0.0000081001
 22
-0.1404186068
 32
0.0
 13
-0.1246956218
 23
-0.0645630475
 33
0.0
 40
0.0
 40
0.0
 40
0.0
 40
0.0
 40
0.1028544898
 40
0.2084744835
 40
0.4366770801
 40
0.6988753356
 40
1.0
 40
1.0
 40
1.0
 40
1.0
 10
19.4251210555
 20
16.5589689161
 30
0.0
 10
19.4251207778
 20
16.5541546881
 30
0.0
 10
19.4241674807
 20
16.544371998
 30
0.0
 10
19.4183778227
 20
16.5246614193
 30
0.0
 10
19.4034333927
 20
16.5005037412
 30
0.0
 10
19.3760521969
 20
16.4751160564
 30
0.0
 10
19.3534393148
 20
16.4612539466
 30
0.0
 10
19.3409230057
 20
16.4547734379
 30
0.0
 11
19.4251210555
 21
16.5589689161
 31
0.0
 11
19.4237393696
 21
16.5445924746
 31
0.0
 11
19.4196082394
 21
16.5303484341
 31
0.0
 11
19.4032749225
 21
16.5027797255
 31
0.0
 11
19.3767215746
 21
16.4772758231
 31
0.0
 11
19.3409230057
 21
16.4547734379
 31
0.0
  0
SPLINE
  5
3E1
100
AcDbEntity
  8
RACCORDO
100
AcDbSpline
 62
253
  6
CONTINUOUS
 70
0
 71
3
 72
11
 73
7
 74
5
 42
0.0000001
 43
0.0000001
 44
0.0000000001
 12
-0.0000422919
 22
0.0487041218
 32
0.0
 13
-0.0444652426
 23
0.0198729834
 33
0.0
 40
0.0
 40
0.0
 40
0.0
 40
0.0
 40
0.2433395354
 40
0.4796164073
 40
0.7252996973
 40
1.0
 40
1.0
 40
1.0
 40
1.0
 10
17.754207761
 20
15.0273212623
 30
0.0
 10
17.7542043306
 20
15.0312718084
 30
0.0
 10
17.7532730841
 20
15.0391107734
 30
0.0
 10
17.7485082432
 20
15.0500773091
 30
0.0
 10
17.7402157256
 20
15.0594059778
 30
0.0
 10
17.7328571013
 20
15.0638186619
 30
0.0
 10
17.7287855628
 20
15.0656383667
 30
0.0
 11
17.754207761
 21
15.0273212623
 31
0.0
 11
17.7526880124
 21
15.0390750617
 31
0.0
 11
17.748061546
 21
15.0496117638
 31
0.0
 11
17.7401647164
 21
15.0586017746
 31
0.0
 11
17.7287855628
 21
15.0656383667
 31
0.0
  0
SPLINE
  5
3E2
100
AcDbEntity
  8
RACCORDO
100
AcDbSpline
 62
253
  6
CONTINUOUS
 70
0
 71
3
 72
9
 73
5
 74
3
 42
0.0000001
 43
0.0000001
 44
0.0000000001
 12
-0.0345413994
 22
-0.0412769744
 32
0.0
 13
-0.0452536915
 23
-0.0291376095
 33
0.0
 40
0.0
 40
0.0
 40
0.0
 40
0.0
 40
0.4976208479
 40
1.0
 40
1.0
 40
1.0
 40
1.0
 10
19.3281530924
 20
16.2773887956
 30
0.0
 10
19.3224235855
 20
16.2705420346
 30
0.0
 10
19.3098343248
 20
16.2576488965
 30
0.0
 10
19.2954391822
 20
16.2468154248
 30
0.0
 10
19.2878610118
 20
16.2419360489
 30
0.0
 11
19.3281530924
 21
16.2773887956
 31
0.0
 11
19.3094470441
 21
16.2582202739
 31
0.0
 11
19.2878610118
 21
16.2419360489
 31
0.0
  0
SPLINE
  5
3E3
100
AcDbEntity
  8
RACCORDO
100
AcDbSpline
 62
253
  6
CONTINUOUS
 70
0
 71
3
 72
11
 73
7
 74
5
 42
0.0000001
 43
0.0000001
 44
0.0000000001
 12
-0.0000422922
 22
0.0487040646
 32
0.0
 13
-0.0444651818
 23
0.0198729794
 33
0.0
 40
0.0
 40
0.0
 40
0.0
 40
0.0
 40
0.2433396337
 40
0.4796168233
 40
0.7253000594
 40
1.0
 40
1.0
 40
1.0
 40
1.0
 10
17.7542077611
 20
3.3359783117
 30
0.0
 10
17.7542043306
 20
3.3399288548
 30
0.0
 10
17.7532730817
 20
3.3477678169
 30
0.0
 10
17.7485082547
 20
3.3587343471
 30
0.0
 10
17.7402157501
 20
3.3680630165
 30
0.0
 10
17.7328571084
 20
3.3724756372
 30
0.0
 10
17.7287855808
 20
3.3742953393
 30
0.0
 11
17.7542077611
 21
3.3359783117
 31
0.0
 11
17.7526880136
 21
3.3477321021
 31
0.0
 11
17.7480615531
 21
3.3582688089
 31
0.0
 11
17.74016473
 21
3.3672588032
 31
0.0
 11
17.7287855808
 21
3.3742953393
 31
0.0
  0
SPLINE
  5
3E4
100
AcDbEntity
  8
RACCORDO
100
AcDbSpline
 62
253
  6
CONTINUOUS
 70
0
 71
3
 72
14
 73
10
 74
8
 42
0.0000001
 43
0.0000001
 44
0.0000000001
 12
0.5417167645
 22
0.2922682683
 32
0.0
 13
-0.0086788397
 23
0.6154693098
 33
0.0
 40
0.0
 40
0.0
 40
0.0
 40
0.0
 40
0.1083200199
 40
0.2186901904
 40
0.3329587627
 40
0.4526225399
 40
0.5787530779
 40
0.7119879284
 40
1.0
 40
1.0
 40
1.0
 40
1.0
 10
17.2290313771
 20
-1.1958675071
 30
0.0
 10
17.2485909673
 20
-1.1853146722
 30
0.0
 10
17.28626347
 20
-1.1604372864
 30
0.0
 10
17.3360972666
 20
-1.1132514091
 30
0.0
 10
17.3789213588
 20
-1.0566922705
 30
0.0
 10
17.4142491377
 20
-0.9915236514
 30
0.0
 10
17.4417395999
 20
-0.9185368731
 30
0.0
 10
17.4682539764
 20
-0.8091893256
 30
0.0
 10
17.4743806208
 20
-0.7222034573
 30
0.0
 10
17.4735474173
 20
-0.663115927
 30
0.0
 11
17.2290313771
 21
-1.1958675071
 31
0.0
 11
17.2846980464
 21
-1.1591703548
 31
0.0
 11
17.3341423664
 21
-1.1125807927
 31
0.0
 11
17.3767843582
 21
-1.0566452578
 31
0.0
 11
17.4121240094
 21
-0.9920200372
 31
0.0
 11
17.4397467242
 21
-0.9194630297
 31
0.0
 11
17.4593283902
 21
-0.8398249915
 31
0.0
 11
17.4735474173
 21
-0.663115927
 31
0.0
  0
SPLINE
  5
3E5
100
AcDbEntity
  8
RACCORDO
100
AcDbSpline
 62
253
  6
CONTINUOUS
 70
0
 71
3
 72
13
 73
9
 74
7
 42
0.0000001
 43
0.0000001
 44
0.0000000001
 12
0.7802323939
 22
0.7065492314
 32
0.0
 13
-0.0030557628
 23
1.0525991959
 33
0.0
 40
0.0
 40
0.0
 40
0.0
 40
0.0
 40
0.1083039714
 40
0.2201389094
 40
0.3364211736
 40
0.4578339152
 40
0.7173257667
 40
1.0
 40
1.0
 40
1.0
 40
1.0
 10
10.387281016
 20
-13.4350387564
 30
0.0
 10
10.4154484383
 20
-13.4095313938
 30
0.0
 10
10.469094161
 20
-13.3535667413
 30
0.0
 10
10.5390049115
 20
-13.2580840628
 30
0.0
 10
10.5989356138
 20
-13.1507506902
 30
0.0
 10
10.6663925251
 20
-12.9895316654
 30
0.0
 10
10.7218028897
 20
-12.7618283246
 30
0.0
 10
10.7346227376
 20
-12.5711696091
 30
0.0
 10
10.7343348091
 20
-12.4719887189
 30
0.0
 11
10.387281016
 21
-13.4350387564
 31
0.0
 11
10.4663217249
 21
-13.3528874972
 31
0.0
 11
10.536087951
 21
-13.2580709972
 31
0.0
 11
10.5960203408
 21
-13.1513486632
 31
0.0
 11
10.6456391669
 21
-13.0335748018
 31
0.0
 11
10.7124330164
 21
-12.7687254684
 31
0.0
 11
10.7343348091
 21
-12.4719887189
 31
0.0
  0
SPLINE
  5
3E6
100
AcDbEntity
  8
RACCORDO
100
AcDbSpline
 62
253
  6
CONTINUOUS
 70
0
 71
3
 72
15
 73
11
 74
9
 42
0.0000001
 43
0.0000001
 44
0.0000000001
 12
0.4162551164
 22
0.2155223956
 32
0.0
 13
0.0000002637
 23
0.4687411065
 33
0.0
 40
0.0
 40
0.0
 40
0.0
 40
0.0
 40
0.1553723045
 40
0.3009899764
 40
0.4368323489
 40
0.5632658369
 40
0.6811336819
 40
0.7918231852
 40
0.8972921633
 40
1.0
 40
1.0
 40
1.0
 40
1.0
 10
10.7343348091
 20
-12.4719887189
 30
0.0
 10
10.7558929813
 20
-12.4608266485
 30
0.0
 10
10.7968627941
 20
-12.4376082248
 30
0.0
 10
10.8531255448
 20
-12.3987961356
 30
0.0
 10
10.9017654898
 20
-12.3574210111
 30
0.0
 10
10.9423308254
 20
-12.3138227605
 30
0.0
 10
10.9744265735
 20
-12.2683510524
 30
0.0
 10
10.9976958389
 20
-12.2213679294
 30
0.0
 10
11.0118210172
 20
-12.1733172353
 30
0.0
 10
11.0149949954
 20
-12.1407083964
 30
0.0
 10
11.0149950044
 20
-12.1246606014
 30
0.0
 11
10.7343348091
 21
-12.4719887189
 31
0.0
 11
10.7976034927
 21
-12.4359166642
 31
0.0
 11
10.8536650674
 21
-12.3969793256
 31
0.0
 11
10.9020054528
 21
-12.3555341745
 31
0.0
 11
10.9421784626
 21
-12.3119633253
 31
0.0
 11
10.9738143067
 21
-12.2666678391
 31
0.0
 11
10.996621801
 21
-12.2200648091
 31
0.0
 11
11.010390991
 21
-12.172583337
 31
0.0
 11
11.0149950044
 21
-12.1246606014
 31
0.0
  0
SPLINE
  5
3E7
100
AcDbEntity
  8
RACCORDO
100
AcDbSpline
 62
253
  6
CONTINUOUS
 70
0
 71
3
 72
12
 73
8
 74
6
 42
0.0000001
 43
0.0000001
 44
0.0000000001
 12
-0.0000081001
 22
-0.1404186068
 32
0.0
 13
-0.1246956218
 23
-0.0645630475
 33
0.0
 40
0.0
 40
0.0
 40
0.0
 40
0.0
 40
0.1028544898
 40
0.2084744835
 40
0.4366770801
 40
0.6988753356
 40
1.0
 40
1.0
 40
1.0
 40
1.0
 10
19.4251210555
 20
4.8676259081
 30
0.0
 10
19.4251207778
 20
4.8628116801
 30
0.0
 10
19.4241674807
 20
4.85302899
 30
0.0
 10
19.4183778227
 20
4.8333184113
 30
0.0
 10
19.4034333927
 20
4.8091607332
 30
0.0
 10
19.3760521969
 20
4.7837730484
 30
0.0
 10
19.3534393148
 20
4.7699109386
 30
0.0
 10
19.3409230057
 20
4.7634304299
 30
0.0
 11
19.4251210555
 21
4.8676259081
 31
0.0
 11
19.4237393696
 21
4.8532494666
 31
0.0
 11
19.4196082394
 21
4.8390054261
 31
0.0
 11
19.4032749225
 21
4.8114367175
 31
0.0
 11
19.3767215746
 21
4.7859328151
 31
0.0
 11
19.3409230057
 21
4.7634304299
 31
0.0
  0
SPLINE
  5
3E8
100
AcDbEntity
  8
RACCORDO
100
AcDbSpline
 62
253
  6
CONTINUOUS
 70
0
 71
3
 72
9
 73
5
 74
3
 42
0.0000001
 43
0.0000001
 44
0.0000000001
 12
-0.0345414731
 22
-0.0412770601
 32
0.0
 13
-0.0452538046
 23
-0.0291376428
 33
0.0
 40
0.0
 40
0.0
 40
0.0
 40
0.0
 40
0.4976208386
 40
1.0
 40
1.0
 40
1.0
 40
1.0
 10
19.3281530648
 20
4.5860458116
 30
0.0
 10
19.3224235459
 20
4.5791990365
 30
0.0
 10
19.3098342562
 20
4.5663058734
 30
0.0
 10
19.2954390778
 20
4.5554723858
 30
0.0
 10
19.2878608883
 20
4.5505930043
 30
0.0
 11
19.3281530648
 21
4.5860458116
 31
0.0
 11
19.3094469742
 21
4.5668772535
 31
0.0
 11
19.2878608883
 21
4.5505930043
 31
0.0
  0
SPLINE
  5
3E9
100
AcDbEntity
  8
RACCORDO
100
AcDbSpline
 62
253
  6
CONTINUOUS
 70
0
 71
3
 72
14
 73
10
 74
8
 42
0.0000001
 43
0.0000001
 44
0.0000000001
 12
2.0757473541
 22
-1.2292475533
 32
0.0
 13
1.000165159
 23
-2.1953237301
 33
0.0
 40
0.0
 40
0.0
 40
0.0
 40
0.0
 40
0.1115978709
 40
0.2283665849
 40
0.3497962648
 40
0.4752254791
 40
0.603873745
 40
0.7348710126
 40
1.0
 40
1.0
 40
1.0
 40
1.0
 10
17.7542106936
 20
9.3598738987
 30
0.0
 10
17.831427022
 20
9.3141467621
 30
0.0
 10
17.9847722603
 20
9.2125186431
 30
0.0
 10
18.2046224965
 20
9.0365401667
 30
0.0
 10
18.4173147674
 20
8.835421814
 30
0.0
 10
18.6203464506
 20
8.6115410276
 30
0.0
 10
18.8113828893
 20
8.3674838572
 30
0.0
 10
19.0479461087
 20
8.0177626958
 30
0.0
 10
19.1994712027
 20
7.7361409739
 30
0.0
 10
19.2878621279
 20
7.5421263213
 30
0.0
 11
17.7542106936
 21
9.3598738987
 31
0.0
 11
17.9789562892
 21
9.2116530877
 31
0.0
 11
18.1991977713
 21
9.0360229325
 31
0.0
 11
18.412333385
 21
8.8350582854
 31
0.0
 11
18.6158452873
 21
8.6111331408
 31
0.0
 11
18.8073292575
 21
8.3668927217
 31
0.0
 11
18.9845232371
 21
8.1052224827
 31
0.0
 11
19.2878621279
 21
7.5421263213
 31
0.0
  0
SPLINE
  5
3EA
100
AcDbEntity
  8
RACCORDO
100
AcDbSpline
 62
253
  6
CONTINUOUS
 70
0
 71
3
 72
20
 73
16
 74
14
 42
0.0000001
 43
0.0000001
 44
0.0000000001
 12
0.0452516034
 22
0.0292730741
 32
0.0
 13
-0.052262014
 23
-0.0131644357
 33
0.0
 40
0.0
 40
0.0
 40
0.0
 40
0.0
 40
0.0878764198
 40
0.1174622802
 40
0.1396450531
 40
0.1588589263
 40
0.1814884198
 40
0.2119530275
 40
0.2522694265
 40
0.3034075491
 40
0.3659326595
 40
0.4402436588
 40
0.5266899011
 40
0.737220222
 40
1.0
 40
1.0
 40
1.0
 40
1.0
 10
17.8798320323
 20
3.5752432701
 30
0.0
 10
17.8811575486
 20
3.576100741
 30
0.0
 10
17.882910126
 20
3.5773440941
 30
0.0
 10
17.8844726964
 20
3.5793222158
 30
0.0
 10
17.8849220987
 20
3.580572193
 30
0.0
 10
17.8845871346
 20
3.5817530562
 30
0.0
 10
17.8835400218
 20
3.5826052481
 30
0.0
 10
17.8819706827
 20
3.5832203668
 30
0.0
 10
17.8798133526
 20
3.5836491743
 30
0.0
 10
17.8770531724
 20
3.5838741352
 30
0.0
 10
17.8736733886
 20
3.5838801469
 30
0.0
 10
17.8696671085
 20
3.5836482217
 30
0.0
 10
17.8630320963
 20
3.5829450289
 30
0.0
 10
17.8531076609
 20
3.5812707103
 30
0.0
 10
17.8448147986
 20
3.5793746543
 30
0.0
 10
17.8402369984
 20
3.5782215385
 30
0.0
 11
17.8798320323
 21
3.5752432701
 31
0.0
 11
17.8835345719
 21
3.5781964802
 31
0.0
 11
17.884473386
 21
3.5794853206
 31
0.0
 11
17.8848034496
 21
3.5806343856
 31
0.0
 11
17.8845233971
 21
3.5816313198
 31
0.0
 11
17.8836311159
 21
3.582462748
 31
0.0
 11
17.882124471
 21
3.5831152639
 31
0.0
 11
17.8800007374
 21
3.5835745686
 31
0.0
 11
17.8772560392
 21
3.5838246214
 31
0.0
 11
17.8738863671
 21
3.5838491805
 31
0.0
 11
17.8698873336
 21
3.5836314492
 31
0.0
 11
17.8652530453
 21
3.5831524256
 31
0.0
 11
17.8540536047
 21
3.5813319666
 31
0.0
 11
17.8402369984
 21
3.5782215385
 31
0.0
  0
SPLINE
  5
3EB
100
AcDbEntity
  8
RACCORDO
100
AcDbSpline
 62
253
  6
CONTINUOUS
 70
0
 71
3
 72
14
 73
10
 74
8
 42
0.0000001
 43
0.0000001
 44
0.0000000001
 12
2.0757473182
 22
-1.2292475321
 32
0.0
 13
1.0001651587
 23
-2.1953236844
 33
0.0
 40
0.0
 40
0.0
 40
0.0
 40
0.0
 40
0.111597871
 40
0.228366585
 40
0.3497962649
 40
0.4752254791
 40
0.6038737448
 40
0.7348710124
 40
1.0
 40
1.0
 40
1.0
 40
1.0
 10
17.7542106936
 20
21.0512168497
 30
0.0
 10
17.8314270207
 20
21.0054897139
 30
0.0
 10
17.9847722565
 20
20.9038615968
 30
0.0
 10
18.2046224893
 20
20.7278831239
 30
0.0
 10
18.4173147571
 20
20.5267647755
 30
0.0
 10
18.6203464376
 20
20.302883994
 30
0.0
 10
18.8113828742
 20
20.0588268289
 30
0.0
 10
19.0479460917
 20
19.709105675
 30
0.0
 10
19.1994711849
 20
19.4274839588
 30
0.0
 10
19.2878621102
 20
19.2334693102
 30
0.0
 11
17.7542106936
 21
21.0512168497
 31
0.0
 11
17.9789562856
 21
20.9029960414
 31
0.0
 11
18.1991977642
 21
20.7273658897
 31
0.0
 11
18.4123333748
 21
20.5264012469
 31
0.0
 11
18.6158452744
 21
20.3024761072
 31
0.0
 11
18.8073292424
 21
20.0582356934
 31
0.0
 11
18.9845232206
 21
19.7965654601
 31
0.0
 11
19.2878621102
 21
19.2334693102
 31
0.0
  0
SPLINE
  5
3EC
100
AcDbEntity
  8
RACCORDO
100
AcDbSpline
 62
253
  6
CONTINUOUS
 70
0
 71
3
 72
20
 73
16
 74
14
 42
0.0000001
 43
0.0000001
 44
0.0000000001
 12
0.0452513615
 22
0.0292729176
 32
0.0
 13
-0.0522617326
 23
-0.0131643733
 33
0.0
 40
0.0
 40
0.0
 40
0.0
 40
0.0
 40
0.0878767791
 40
0.1174627815
 40
0.1396456605
 40
0.1588595967
 40
0.1814891127
 40
0.2119537123
 40
0.2522700878
 40
0.3034082179
 40
0.365933423
 40
0.4402446204
 40
0.5266910081
 40
0.7372207032
 40
1.0
 40
1.0
 40
1.0
 40
1.0
 10
17.8798320322
 20
15.2665862211
 30
0.0
 10
17.8811575468
 20
15.267443691
 30
0.0
 10
17.8829101222
 20
15.2686870426
 30
0.0
 10
17.8844726927
 20
15.2706651609
 30
0.0
 10
17.8849220974
 20
15.2719151354
 30
0.0
 10
17.8845871397
 20
15.2730959972
 30
0.0
 10
17.8835400352
 20
15.2739481904
 30
0.0
 10
17.8819707068
 20
15.2745633114
 30
0.0
 10
17.8798133898
 20
15.274992123
 30
0.0
 10
17.8770532232
 20
15.2752170873
 30
0.0
 10
17.873673452
 20
15.2752231
 30
0.0
 10
17.8696671856
 20
15.274991173
 30
0.0
 10
17.863032214
 20
15.2742879854
 30
0.0
 10
17.8531078432
 20
15.2726137166
 30
0.0
 10
17.844815038
 20
15.2707176997
 30
0.0
 10
17.8402372709
 20
15.2695645914
 30
0.0
 11
17.8798320322
 21
15.2665862211
 31
0.0
 11
17.8835345678
 21
15.2695394267
 31
0.0
 11
17.8844733828
 21
15.2708282654
 31
0.0
 11
17.8848034491
 21
15.2719773289
 31
0.0
 11
17.8845234014
 21
15.2729742622
 31
0.0
 11
17.8836311277
 21
15.2738056907
 31
0.0
 11
17.8821244936
 21
15.2744582086
 31
0.0
 11
17.880000774
 21
15.2749175167
 31
0.0
 11
17.8772560904
 21
15.2751675728
 31
0.0
 11
17.8738864313
 21
15.2751921332
 31
0.0
 11
17.8698874085
 21
15.2749744011
 31
0.0
 11
17.8652531371
 21
15.2744953807
 31
0.0
 11
17.8540537846
 21
15.2726749682
 31
0.0
 11
17.8402372709
 21
15.2695645914
 31
0.0
  0
SPLINE
  5
3ED
100
AcDbEntity
  8
RACCORDO
100
AcDbSpline
 62
253
  6
CONTINUOUS
 70
0
 71
3
 72
9
 73
5
 74
3
 42
0.0000001
 43
0.0000001
 44
0.0000000001
 12
-0.2283442775
 22
-0.2728625296
 32
0.0
 13
-0.2987574508
 23
-0.1932331616
 33
0.0
 40
0.0
 40
0.0
 40
0.0
 40
0.0
 40
0.5061611222
 40
1.0
 40
1.0
 40
1.0
 40
1.0
 10
19.2878621552
 20
16.2419374153
 30
0.0
 10
19.2493358233
 20
16.1958999473
 30
0.0
 10
19.1667492757
 20
16.110122478
 30
0.0
 10
19.0721171399
 20
16.037746062
 30
0.0
 10
19.0229377918
 20
16.0059373794
 30
0.0
 11
19.2878621552
 21
16.2419374153
 31
0.0
 11
19.1626455554
 21
16.1124988446
 31
0.0
 11
19.0229377918
 21
16.0059373794
 31
0.0
  0
SPLINE
  5
3EE
100
AcDbEntity
  8
RACCORDO
100
AcDbSpline
 62
253
  6
CONTINUOUS
 70
0
 71
3
 72
12
 73
8
 74
6
 42
0.0000001
 43
0.0000001
 44
0.0000000001
 12
0.2591305495
 22
0.9020389953
 32
0.0
 13
-0.4030527165
 23
0.8475679905
 33
0.0
 40
0.0
 40
0.0
 40
0.0
 40
0.0
 40
0.1200887533
 40
0.2421850015
 40
0.4905608259
 40
0.7433267346
 40
1.0
 40
1.0
 40
1.0
 40
1.0
 10
17.840236857
 20
18.7368225239
 30
0.0
 10
17.8506097452
 20
18.77293077
 30
0.0
 10
17.8675326754
 20
18.8469518258
 30
0.0
 10
17.8870647811
 20
18.9993468088
 30
0.0
 10
17.8855886692
 20
19.195403732
 30
0.0
 10
17.8438495288
 20
19.4298280297
 30
0.0
 10
17.7886925165
 20
19.580466491
 30
0.0
 10
17.7542082309
 20
19.6529825056
 30
0.0
 11
17.840236857
 21
18.7368225239
 31
0.0
 11
17.8656024164
 21
18.8466369521
 31
0.0
 11
17.8803393872
 21
18.9602753478
 31
0.0
 11
17.8791104884
 21
19.1933782107
 31
0.0
 11
17.8373937646
 21
19.4269077129
 31
0.0
 11
17.7542082309
 21
19.6529825056
 31
0.0
  0
SPLINE
  5
3EF
100
AcDbEntity
  8
RACCORDO
100
AcDbSpline
 62
253
  6
CONTINUOUS
 70
0
 71
3
 72
12
 73
8
 74
6
 42
0.0000001
 43
0.0000001
 44
0.0000000001
 12
0.2591304871
 22
0.902038857
 32
0.0
 13
-0.403052652
 23
0.8475678549
 33
0.0
 40
0.0
 40
0.0
 40
0.0
 40
0.0
 40
0.1200887561
 40
0.2421850046
 40
0.4905608291
 40
0.7433267366
 40
1.0
 40
1.0
 40
1.0
 40
1.0
 10
17.8402369006
 20
7.0454797169
 30
0.0
 10
17.8506097865
 20
7.0815879584
 30
0.0
 10
17.8675326937
 20
7.1556090082
 30
0.0
 10
17.8870647882
 20
7.308003968
 30
0.0
 10
17.8855886587
 20
7.50406086
 30
0.0
 10
17.8438495164
 20
7.7384851167
 30
0.0
 10
17.7886925108
 20
7.8891235519
 30
0.0
 10
17.7542082309
 20
7.9616395544
 30
0.0
 11
17.8402369006
 21
7.0454797169
 31
0.0
 11
17.8656024394
 21
7.155294134
 31
0.0
 11
17.880339397
 21
7.2689325133
 31
0.0
 11
17.8791104811
 21
7.5020353389
 31
0.0
 11
17.8373937541
 21
7.7355648008
 31
0.0
 11
17.7542082309
 21
7.9616395544
 31
0.0
  0
SPLINE
  5
3F0
100
AcDbEntity
  8
RACCORDO
100
AcDbSpline
 62
253
  6
CONTINUOUS
 70
0
 71
3
 72
9
 73
5
 74
3
 42
0.0000001
 43
0.0000001
 44
0.0000000001
 12
-0.2283442097
 22
-0.2728624404
 32
0.0
 13
-0.2987573569
 23
-0.1932331006
 33
0.0
 40
0.0
 40
0.0
 40
0.0
 40
0.0
 40
0.5061609268
 40
1.0
 40
1.0
 40
1.0
 40
1.0
 10
19.2878620577
 20
4.5505944016
 30
0.0
 10
19.2493357521
 20
4.5045569664
 30
0.0
 10
19.1667492625
 20
4.4187794933
 30
0.0
 10
19.0721171435
 20
4.3464031131
 30
0.0
 10
19.0229377914
 20
4.314594428
 30
0.0
 11
19.2878620577
 21
4.5505944016
 31
0.0
 11
19.1626455671
 21
4.4211559009
 31
0.0
 11
19.0229377914
 21
4.314594428
 31
0.0
  0
SPLINE
  5
3F1
100
AcDbEntity
  8
RACCORDO
100
AcDbSpline
 62
253
  6
CONTINUOUS
 70
0
 71
3
 72
11
 73
7
 74
5
 42
0.0000001
 43
0.0000001
 44
0.0000000001
 12
0.2032260441
 22
0.0938534404
 32
0.0
 13
0.1988172014
 23
-0.1028640546
 33
0.0
 40
0.0
 40
0.0
 40
0.0
 40
0.0
 40
0.2278650143
 40
0.4657801303
 40
0.7216148653
 40
1.0
 40
1.0
 40
1.0
 40
1.0
 10
-3.7770573908
 20
23.8715220272
 30
0.0
 10
-3.7616213557
 20
23.8786506657
 30
0.0
 10
-3.7278716727
 20
23.8888639696
 30
0.0
 10
-3.6735153394
 20
23.8904310949
 30
0.0
 10
-3.6166591453
 20
23.8787432723
 30
0.0
 10
-3.5796969552
 20
23.8631704994
 30
0.0
 10
-3.5612477041
 20
23.8536252248
 30
0.0
 11
-3.7770573908
 21
23.8715220272
 31
0.0
 11
-3.7282802279
 21
23.8864413567
 31
0.0
 11
-3.675058999
 21
23.8884079041
 31
0.0
 11
-3.6188643525
 21
23.877367719
 31
0.0
 11
-3.5612477041
 21
23.8536252248
 31
0.0
  0
SPLINE
  5
3F2
100
AcDbEntity
  8
RACCORDO
100
AcDbSpline
 62
7
  6
CONTINUOUS
 70
0
 71
3
 72
10
 73
6
 74
4
 42
0.0000001
 43
0.0000001
 44
0.0000000001
 12
0.08518834
 22
0.0445591007
 32
0.0
 13
0.0457515924
 23
0.0845538794
 33
0.0
 40
0.0
 40
0.0
 40
0.0
 40
0.0
 40
0.5245740276
 40
0.7673422648
 40
1.0
 40
1.0
 40
1.0
 40
1.0
 10
19.3409230057
 20
4.8897735162
 30
0.0
 10
19.3558188693
 20
4.8975650318
 30
0.0
 10
19.3765259538
 20
4.9115621448
 30
0.0
 10
19.398395182
 20
4.9351266084
 30
0.0
 10
19.4068538136
 20
4.9479060342
 30
0.0
 10
19.4104019675
 20
4.9544634056
 30
0.0
 11
19.3409230057
 21
4.8897735162
 31
0.0
 11
19.3822958721
 21
4.9186116183
 31
0.0
 11
19.3981108169
 21
4.9357758628
 31
0.0
 11
19.4104019675
 21
4.9544634056
 31
0.0
  0
SPLINE
  5
3F3
100
AcDbEntity
  8
RACCORDO
100
AcDbSpline
 62
7
  6
CONTINUOUS
 70
0
 71
3
 72
10
 73
6
 74
4
 42
0.0000001
 43
0.0000001
 44
0.0000000001
 12
0.08518834
 22
0.0445591007
 32
0.0
 13
0.0457515924
 23
0.0845538794
 33
0.0
 40
0.0
 40
0.0
 40
0.0
 40
0.0
 40
0.5245740276
 40
0.7673422648
 40
1.0
 40
1.0
 40
1.0
 40
1.0
 10
19.3409230057
 20
16.5811164673
 30
0.0
 10
19.3558188693
 20
16.5889079829
 30
0.0
 10
19.3765259538
 20
16.6029050959
 30
0.0
 10
19.398395182
 20
16.6264695595
 30
0.0
 10
19.4068538136
 20
16.6392489853
 30
0.0
 10
19.4104019675
 20
16.6458063567
 30
0.0
 11
19.3409230057
 21
16.5811164673
 31
0.0
 11
19.3822958721
 21
16.6099545694
 31
0.0
 11
19.3981108169
 21
16.6271188138
 31
0.0
 11
19.4104019675
 21
16.6458063567
 31
0.0
  0
SPLINE
  5
3F4
100
AcDbEntity
  8
RACCORDO
100
AcDbSpline
 62
253
  6
CONTINUOUS
 70
0
 71
3
 72
11
 73
7
 74
5
 42
0.0000001
 43
0.0000001
 44
0.0000000001
 12
-0.1487780496
 22
0.0881249855
 32
0.0
 13
-0.0324554946
 23
0.1698457005
 33
0.0
 40
0.0
 40
0.0
 40
0.0
 40
0.0
 40
0.2984306598
 40
0.43639501
 40
0.5661334734
 40
1.0
 40
1.0
 40
1.0
 40
1.0
 10
17.8402369702
 20
18.7368239414
 30
0.0
 10
17.825436993
 20
18.7455903405
 30
0.0
 10
17.8045241737
 20
18.7597390736
 30
0.0
 10
17.7797971084
 20
18.7811448025
 30
0.0
 10
17.7517173785
 20
18.8100293946
 30
0.0
 10
17.7334794622
 20
18.8394568485
 30
0.0
 10
17.7287856779
 20
18.8640203032
 30
0.0
 11
17.8402369702
 21
18.7368239414
 31
0.0
 11
17.7977006106
 21
18.7660413989
 31
0.0
 11
17.7796975553
 21
18.7816948003
 31
0.0
 11
17.7641187601
 21
18.797837771
 31
0.0
 11
17.7287856779
 21
18.8640203032
 31
0.0
  0
SPLINE
  5
3F5
100
AcDbEntity
  8
RACCORDO
100
AcDbSpline
 62
253
  6
CONTINUOUS
 70
0
 71
3
 72
11
 73
7
 74
5
 42
0.0000001
 43
0.0000001
 44
0.0000000001
 12
-0.1870154241
 22
-0.147664396
 32
0.0
 13
-0.0247313042
 23
-0.2369976905
 33
0.0
 40
0.0
 40
0.0
 40
0.0
 40
0.0
 40
0.2485398618
 40
0.4980895361
 40
0.7486335872
 40
1.0
 40
1.0
 40
1.0
 40
1.0
 10
17.8402374938
 20
15.2695645284
 30
0.0
 10
17.8247438979
 20
15.2573310322
 30
0.0
 10
17.7961071377
 20
15.2295751944
 30
0.0
 10
17.7623365552
 20
15.1801664834
 30
0.0
 10
17.7389237723
 20
15.1248494395
 30
0.0
 10
17.7308577854
 20
15.085496118
 30
0.0
 10
17.728785579
 20
15.0656383648
 30
0.0
 11
17.8402374938
 21
15.2695645284
 31
0.0
 11
17.7977009805
 21
15.228357314
 31
0.0
 11
17.7641189627
 21
15.1792839365
 31
0.0
 11
17.7408361287
 21
15.124310367
 31
0.0
 11
17.728785579
 21
15.0656383648
 31
0.0
  0
SPLINE
  5
3F6
100
AcDbEntity
  8
RACCORDO
100
AcDbSpline
 62
253
  6
CONTINUOUS
 70
0
 71
3
 72
11
 73
7
 74
5
 42
0.0000001
 43
0.0000001
 44
0.0000000001
 12
-0.1487780595
 22
0.0881249774
 32
0.0
 13
-0.0324554959
 23
0.1698457048
 33
0.0
 40
0.0
 40
0.0
 40
0.0
 40
0.0
 40
0.2984306657
 40
0.4363950175
 40
0.5661334815
 40
1.0
 40
1.0
 40
1.0
 40
1.0
 10
17.8402369809
 20
7.0454810025
 30
0.0
 10
17.8254370025
 20
7.054247401
 30
0.0
 10
17.8045241814
 20
7.0683961333
 30
0.0
 10
17.7797971137
 20
7.0898018615
 30
0.0
 10
17.7517173817
 20
7.1186864525
 30
0.0
 10
17.7334794635
 20
7.1481139062
 30
0.0
 10
17.7287856792
 20
7.1726773611
 30
0.0
 11
17.8402369809
 21
7.0454810025
 31
0.0
 11
17.7977006175
 21
7.0746984585
 31
0.0
 11
17.7796975606
 21
7.0903518594
 31
0.0
 11
17.764118764
 21
7.1064948297
 31
0.0
 11
17.7287856792
 21
7.1726773611
 31
0.0
  0
SPLINE
  5
3F7
100
AcDbEntity
  8
RACCORDO
100
AcDbSpline
 62
253
  6
CONTINUOUS
 70
0
 71
3
 72
11
 73
7
 74
5
 42
0.0000001
 43
0.0000001
 44
0.0000000001
 12
-0.187015254
 22
-0.1476643583
 32
0.0
 13
-0.0247313043
 23
-0.2369975328
 33
0.0
 40
0.0
 40
0.0
 40
0.0
 40
0.0
 40
0.2485398624
 40
0.4980895344
 40
0.7486335843
 40
1.0
 40
1.0
 40
1.0
 40
1.0
 10
17.8402374145
 20
3.5782213861
 30
0.0
 10
17.8247438326
 20
3.565987893
 30
0.0
 10
17.7961070991
 20
3.5382320661
 30
0.0
 10
17.762336548
 20
3.4888233821
 30
0.0
 10
17.7389237856
 20
3.4335063729
 30
0.0
 10
17.7308578035
 20
3.3941530775
 30
0.0
 10
17.7287855971
 20
3.3742953374
 30
0.0
 11
17.8402374145
 21
3.5782213861
 31
0.0
 11
17.7977009402
 21
3.5370141872
 31
0.0
 11
17.7641189537
 21
3.4879408365
 31
0.0
 11
17.7408361398
 21
3.4329673014
 31
0.0
 11
17.7287855971
 21
3.3742953374
 31
0.0
  0
SPLINE
  5
3F8
100
AcDbEntity
  8
RACCORDO
100
AcDbSpline
 62
253
  6
CONTINUOUS
 70
0
 71
3
 72
13
 73
9
 74
7
 42
0.0000001
 43
0.0000001
 44
0.0000000001
 12
-0.339656487
 22
-0.1552690628
 32
0.0
 13
-0.3733621022
 23
-0.0087035454
 33
0.0
 40
0.0
 40
0.0
 40
0.0
 40
0.0
 40
0.0993867388
 40
0.2062683658
 40
0.3206562675
 40
0.4424342795
 40
0.7074372762
 40
1.0
 40
1.0
 40
1.0
 40
1.0
 10
17.8402367416
 20
3.5782210706
 30
0.0
 10
17.8289842914
 20
3.5730771754
 30
0.0
 10
17.8050223491
 20
3.563714388
 30
0.0
 10
17.7667251368
 20
3.5523439849
 30
0.0
 10
17.7250484518
 20
3.5429094471
 30
0.0
 10
17.6635304566
 20
3.5323847006
 30
0.0
 10
17.5793289074
 20
3.5236372711
 30
0.0
 10
17.5099580285
 20
3.5205764819
 30
0.0
 10
17.4735474173
 20
3.5197277042
 30
0.0
 11
17.8402367416
 21
3.5782210706
 31
0.0
 11
17.8057366638
 21
3.5645301878
 31
0.0
 11
17.7675155095
 21
3.5530209931
 31
0.0
 11
17.7258764915
 21
3.5434729144
 31
0.0
 11
17.6810653116
 21
3.5357039751
 31
0.0
 11
17.5826853632
 21
3.5249225133
 31
0.0
 11
17.4735474173
 21
3.5197277042
 31
0.0
  0
SPLINE
  5
3F9
100
AcDbEntity
  8
RACCORDO
100
AcDbSpline
 62
253
  6
CONTINUOUS
 70
0
 71
3
 72
11
 73
7
 74
5
 42
0.0000001
 43
0.0000001
 44
0.0000000001
 12
0.013820779
 22
-0.2235308787
 32
0.0
 13
-0.1401278519
 23
-0.1747033279
 33
0.0
 40
0.0
 40
0.0
 40
0.0
 40
0.0
 40
0.2830584669
 40
0.5431102783
 40
0.7809257577
 40
1.0
 40
1.0
 40
1.0
 40
1.0
 10
19.3409230057
 20
4.7634304299
 30
0.0
 10
19.3422270352
 20
4.7423396607
 30
0.0
 10
19.3422345698
 20
4.7016456394
 30
0.0
 10
19.3334623409
 20
4.6437490491
 30
0.0
 10
19.3160187307
 20
4.5928085366
 30
0.0
 10
19.2980947365
 20
4.5633519193
 30
0.0
 10
19.2878619355
 20
4.5505942529
 30
0.0
 11
19.3409230057
 21
4.7634304299
 31
0.0
 11
19.3405756822
 21
4.7000382479
 31
0.0
 11
19.3314334848
 21
4.6425196469
 31
0.0
 11
19.3137183613
 21
4.5922914909
 31
0.0
 11
19.2878619355
 21
4.5505942529
 31
0.0
  0
SPLINE
  5
3FA
100
AcDbEntity
  8
RACCORDO
100
AcDbSpline
 62
253
  6
CONTINUOUS
 70
0
 71
3
 72
9
 73
5
 74
3
 42
0.0000001
 43
0.0000001
 44
0.0000000001
 12
0.1141671521
 22
-0.2796011305
 32
0.0
 13
-0.0175201335
 23
-0.3015028618
 33
0.0
 40
0.0
 40
0.0
 40
0.0
 40
0.0
 40
0.514457549
 40
1.0
 40
1.0
 40
1.0
 40
1.0
 10
19.2878620907
 20
7.5421263109
 30
0.0
 10
19.3074401418
 20
7.4941786735
 30
0.0
 10
19.3362265994
 20
7.3969089788
 30
0.0
 10
19.3437585952
 20
7.2954542202
 30
0.0
 10
19.3409230057
 20
7.2466567407
 30
0.0
 11
19.2878620907
 21
7.5421263109
 31
0.0
 11
19.3314336172
 21
7.3929887696
 31
0.0
 11
19.3409230057
 21
7.2466567407
 31
0.0
  0
SPLINE
  5
3FB
100
AcDbEntity
  8
RACCORDO
100
AcDbSpline
 62
253
  6
CONTINUOUS
 70
0
 71
3
 72
11
 73
7
 74
5
 42
0.0000001
 43
0.0000001
 44
0.0000000001
 12
0.0801549725
 22
0.0383639377
 32
0.0
 13
0.0800915805
 23
-0.0384961046
 33
0.0
 40
0.0
 40
0.0
 40
0.0
 40
0.0
 40
0.2780070439
 40
0.5338892322
 40
0.7720586044
 40
1.0
 40
1.0
 40
1.0
 40
1.0
 10
-2.6067338609
 20
23.9636309545
 30
0.0
 10
-2.5993059786
 20
23.9671861028
 30
0.0
 10
-2.5844649798
 20
23.972918393
 30
0.0
 10
-2.5617853563
 20
23.9769441395
 30
0.0
 10
-2.5402241852
 20
23.9758327065
 30
0.0
 10
-2.52689653
 20
23.9715441663
 30
0.0
 10
-2.5208111345
 20
23.9686192143
 30
0.0
 11
-2.6067338609
 21
23.9636309545
 31
0.0
 11
-2.5836215725
 21
23.972356478
 31
0.0
 11
-2.5612003742
 21
23.976141445
 31
0.0
 11
-2.5400733098
 21
23.9748845992
 31
0.0
 11
-2.5208111345
 21
23.9686192143
 31
0.0
  0
SPLINE
  5
3FC
100
AcDbEntity
  8
RACCORDO
100
AcDbSpline
 62
253
  6
CONTINUOUS
 70
0
 71
3
 72
11
 73
7
 74
5
 42
0.0000001
 43
0.0000001
 44
0.0000000001
 12
0.43091513
 22
0.4361915112
 32
0.0
 13
0.282516365
 23
0.5441832295
 33
0.0
 40
0.0
 40
0.0
 40
0.0
 40
0.0
 40
0.2619815011
 40
0.5170338438
 40
0.763731844
 40
1.0
 40
1.0
 40
1.0
 40
1.0
 10
17.4735474173
 20
6.5566354254
 30
0.0
 10
17.5111780148
 20
6.5947267944
 30
0.0
 10
17.583074622
 20
6.672289051
 30
0.0
 10
17.6814922864
 20
6.793599438
 30
0.0
 10
17.7680364466
 20
6.9172973974
 30
0.0
 10
17.8179865758
 20
7.0026218486
 30
0.0
 10
17.8402364494
 20
7.0454795713
 30
0.0
 11
17.4735474173
 21
6.5566354254
 31
0.0
 11
17.5826852472
 21
6.674500019
 31
0.0
 11
17.6810651097
 21
6.7960633598
 31
0.0
 11
17.7675152512
 21
6.9201871184
 31
0.0
 11
17.8402364494
 21
7.0454795713
 31
0.0
  0
SPLINE
  5
3FD
100
AcDbEntity
  8
RACCORDO
100
AcDbSpline
 62
253
  6
CONTINUOUS
 70
0
 71
3
 72
13
 73
9
 74
7
 42
0.0000001
 43
0.0000001
 44
0.0000000001
 12
-0.3396572897
 22
-0.1552688857
 32
0.0
 13
-0.3733627598
 23
-0.0087035014
 33
0.0
 40
0.0
 40
0.0
 40
0.0
 40
0.0
 40
0.0993864916
 40
0.2062681325
 40
0.3206561209
 40
0.4424342122
 40
0.7074372845
 40
1.0
 40
1.0
 40
1.0
 40
1.0
 10
17.8402373081
 20
15.2695644391
 30
0.0
 10
17.8289848593
 20
15.2644205625
 30
0.0
 10
17.8050228908
 20
15.2550578015
 30
0.0
 10
17.7667256428
 20
15.2436873441
 30
0.0
 10
17.725048888
 20
15.2342526776
 30
0.0
 10
17.663530795
 20
15.2237276777
 30
0.0
 10
17.5793291034
 20
15.2149799577
 30
0.0
 10
17.5099580916
 20
15.2119191482
 30
0.0
 10
17.4735474173
 20
15.2110703748
 30
0.0
 11
17.8402373081
 21
15.2695644391
 31
0.0
 11
17.8057372428
 21
15.2558735982
 31
0.0
 11
17.7675160268
 21
15.2443643471
 31
0.0
 11
17.725876928
 21
15.2348161401
 31
0.0
 11
17.6810656672
 21
15.2270470261
 31
0.0
 11
17.5826855487
 21
15.21626526
 31
0.0
 11
17.4735474173
 21
15.2110703748
 31
0.0
  0
SPLINE
  5
3FE
100
AcDbEntity
  8
RACCORDO
100
AcDbSpline
 62
253
  6
CONTINUOUS
 70
0
 71
3
 72
11
 73
7
 74
5
 42
0.0000001
 43
0.0000001
 44
0.0000000001
 12
0.0138210501
 22
-0.2235307526
 32
0.0
 13
-0.1401276859
 23
-0.1747033211
 33
0.0
 40
0.0
 40
0.0
 40
0.0
 40
0.0
 40
0.2830584327
 40
0.5431101381
 40
0.78092543
 40
1.0
 40
1.0
 40
1.0
 40
1.0
 10
19.3409230057
 20
16.4547734379
 30
0.0
 10
19.3422270606
 20
16.4336826831
 30
0.0
 10
19.3422346494
 20
16.3929886907
 30
0.0
 10
19.3334624899
 20
16.335092148
 30
0.0
 10
19.3160189772
 20
16.2841516177
 30
0.0
 10
19.298094932
 20
16.2546950375
 30
0.0
 10
19.2878621278
 20
16.2419373525
 30
0.0
 11
19.3409230057
 21
16.4547734379
 31
0.0
 11
19.3405757618
 21
16.391381294
 31
0.0
 11
19.3314336423
 21
16.3338627334
 31
0.0
 11
19.3137185971
 21
16.2836346218
 31
0.0
 11
19.2878621278
 21
16.2419373525
 31
0.0
  0
SPLINE
  5
3FF
100
AcDbEntity
  8
RACCORDO
100
AcDbSpline
 62
253
  6
CONTINUOUS
 70
0
 71
3
 72
11
 73
7
 74
5
 42
0.0000001
 43
0.0000001
 44
0.0000000001
 12
0.4309148798
 22
0.4361914956
 32
0.0
 13
0.2825163861
 23
0.5441830079
 33
0.0
 40
0.0
 40
0.0
 40
0.0
 40
0.0
 40
0.261981532
 40
0.517033885
 40
0.7637318712
 40
1.0
 40
1.0
 40
1.0
 40
1.0
 10
17.4735474173
 20
18.247978356
 30
0.0
 10
17.5111779974
 20
18.2860697281
 30
0.0
 10
17.5830745645
 20
18.3636319888
 30
0.0
 10
17.6814922001
 20
18.4849423442
 30
0.0
 10
17.7680363371
 20
18.608640255
 30
0.0
 10
17.8179864739
 20
18.6939646569
 30
0.0
 10
17.8402363466
 20
18.7368223572
 30
0.0
 11
17.4735474173
 21
18.247978356
 31
0.0
 11
17.5826851979
 21
18.3658429543
 31
0.0
 11
17.6810650281
 21
18.487406268
 31
0.0
 11
17.7675151495
 21
18.611529974
 31
0.0
 11
17.8402363466
 21
18.7368223572
 31
0.0
  0
SPLINE
  5
400
100
AcDbEntity
  8
RACCORDO
100
AcDbSpline
 62
253
  6
CONTINUOUS
 70
0
 71
3
 72
9
 73
5
 74
3
 42
0.0000001
 43
0.0000001
 44
0.0000000001
 12
0.1141671644
 22
-0.2796011428
 32
0.0
 13
-0.0175201385
 23
-0.3015028777
 33
0.0
 40
0.0
 40
0.0
 40
0.0
 40
0.0
 40
0.5144575484
 40
1.0
 40
1.0
 40
1.0
 40
1.0
 10
19.2878620855
 20
19.2334693047
 30
0.0
 10
19.3074401387
 20
19.1855216653
 30
0.0
 10
19.3362265997
 20
19.0882519659
 30
0.0
 10
19.343758596
 20
18.9867972016
 30
0.0
 10
19.3409230057
 20
18.9379997195
 30
0.0
 11
19.2878620855
 21
19.2334693047
 31
0.0
 11
19.3314336168
 21
19.0843317563
 31
0.0
 11
19.3409230057
 21
18.9379997195
 31
0.0
  0
SPLINE
  5
401
100
AcDbEntity
  8
RACCORDO
100
AcDbSpline
 62
253
  6
CONTINUOUS
 70
0
 71
3
 72
19
 73
15
 74
13
 42
0.0000001
 43
0.0000001
 44
0.0000000001
 12
0.8989405143
 22
0.4151598182
 32
0.0
 13
0.8856417654
 23
-0.4428209416
 33
0.0
 40
0.0
 40
0.0
 40
0.0
 40
0.0
 40
0.0542549267
 40
0.1085353699
 40
0.1640020383
 40
0.2212699897
 40
0.3420239029
 40
0.4708119243
 40
0.6058420355
 40
0.7438179607
 40
0.8122668861
 40
0.8788956369
 40
0.9421085071
 40
1.0
 40
1.0
 40
1.0
 40
1.0
 10
-3.5612477041
 20
23.8536252248
 30
0.0
 10
-3.5449903869
 20
23.86113338
 30
0.0
 10
-3.512770796
 20
23.8767982545
 30
0.0
 10
-3.4640107042
 20
23.9003068385
 30
0.0
 10
-3.4136345696
 20
23.9227254734
 30
0.0
 10
-3.341931176
 20
23.9510295861
 30
0.0
 10
-3.2451014987
 20
23.9812680943
 30
0.0
 10
-3.1206152899
 20
24.0070736825
 30
0.0
 10
-2.9885573807
 20
24.021268293
 30
0.0
 10
-2.8755858454
 20
24.0217280676
 30
0.0
 10
-2.7857678284
 20
24.0135958485
 30
0.0
 10
-2.7211330945
 20
24.0028151211
 30
0.0
 10
-2.6611255962
 20
23.9869909454
 30
0.0
 10
-2.6238242356
 20
23.9721761429
 30
0.0
 10
-2.6067338609
 20
23.9636309545
 30
0.0
 11
-3.5612477041
 21
23.8536252248
 31
0.0
 11
-3.5127660048
 21
23.8767678186
 31
0.0
 11
-3.4642476122
 21
23.8998921717
 31
0.0
 11
-3.4140286146
 21
23.9221286801
 31
0.0
 11
-3.3612707665
 21
23.9429161002
 31
0.0
 11
-3.2471638225
 21
23.9786382157
 31
0.0
 11
-3.122323391
 21
24.0046571798
 31
0.0
 11
-2.9893798041
 21
24.018894712
 31
0.0
 11
-2.8527591421
 21
24.0189508398
 31
0.0
 11
-2.7852724443
 21
24.0126888637
 31
0.0
 11
-2.7202356433
 21
24.0016063318
 31
0.0
 11
-2.6598084758
 21
23.9852872613
 31
0.0
 11
-2.6067338609
 21
23.9636309545
 31
0.0
  0
SPLINE
  5
402
100
AcDbEntity
  8
RACCORDO
100
AcDbSpline
 62
7
  6
CONTINUOUS
 70
0
 71
3
 72
11
 73
7
 74
5
 42
0.0000001
 43
0.0000001
 44
0.0000000001
 12
-0.1964237998
 22
0.0943399015
 32
0.0
 13
-0.1978305345
 23
-0.0913531925
 33
0.0
 40
0.0
 40
0.0
 40
0.0
 40
0.0
 40
0.2875953613
 40
0.5471845931
 40
0.7820765174
 40
1.0
 40
1.0
 40
1.0
 40
1.0
 10
-3.6003116248
 20
23.8371119449
 30
0.0
 10
-3.6191418161
 20
23.8461558509
 30
0.0
 10
-3.6562312868
 20
23.8609600304
 30
0.0
 10
-3.7122094537
 20
23.8725389956
 30
0.0
 10
-3.76442955
 20
23.8718095397
 30
0.0
 10
-3.7965275873
 20
23.8625291529
 30
0.0
 10
-3.8108982269
 20
23.855893151
 30
0.0
 11
-3.6003116248
 21
23.8371119449
 31
0.0
 11
-3.6587030939
 21
23.8598660958
 31
0.0
 11
-3.7142122534
 21
23.8707474684
 31
0.0
 11
-3.7653790115
 21
23.869419691
 31
0.0
 11
-3.8108982269
 21
23.855893151
 31
0.0
  0
SPLINE
  5
403
100
AcDbEntity
  8
RACCORDO
100
AcDbSpline
 62
253
  6
CONTINUOUS
 70
0
 71
3
 72
19
 73
15
 74
13
 42
0.0000001
 43
0.0000001
 44
0.0000000001
 12
-0.4846310155
 22
-0.2615406533
 32
0.0
 13
-0.5279929227
 23
0.1565062556
 33
0.0
 40
0.0
 40
0.0
 40
0.0
 40
0.0
 40
0.0088930933
 40
0.0195217651
 40
0.0461780179
 40
0.0799221124
 40
0.1203436317
 40
0.1669907272
 40
0.2194460145
 40
0.34029912
 40
0.4804248581
 40
0.637948333
 40
0.8114805034
 40
1.0
 40
1.0
 40
1.0
 40
1.0
 10
11.2702537344
 20
-4.4107649356
 30
0.0
 10
11.2688171114
 20
-4.4115402374
 30
0.0
 10
11.2654557608
 20
-4.4128547602
 30
0.0
 10
11.257178826
 20
-4.4147531536
 30
0.0
 10
11.2441156987
 20
-4.4157011418
 30
0.0
 10
11.2256077294
 20
-4.4152289996
 30
0.0
 10
11.203504825
 20
-4.4132554284
 30
0.0
 10
11.1781111379
 20
-4.4098872256
 30
0.0
 10
11.1382675383
 20
-4.4033153988
 30
0.0
 10
11.0818643971
 20
-4.3918715459
 30
0.0
 10
11.0070584409
 20
-4.3743550255
 30
0.0
 10
10.9232907094
 20
-4.352790199
 30
0.0
 10
10.8313366344
 20
-4.3274562262
 30
0.0
 10
10.7675138298
 20
-4.3089105465
 30
0.0
 10
10.7343348432
 20
-4.2990757197
 30
0.0
 11
11.2702537344
 21
-4.4107649356
 31
0.0
 11
11.2657260198
 21
-4.4126316456
 31
0.0
 11
11.2600374469
 21
-4.4140101336
 31
0.0
 11
11.2454232598
 21
-4.415394444
 31
0.0
 11
11.226843017
 21
-4.4150813634
 31
0.0
 11
11.2046616215
 21
-4.4132106642
 31
0.0
 11
11.1791870924
 21
-4.4099014678
 31
0.0
 11
11.1506763088
 21
-4.4052536747
 31
0.0
 11
11.0854000034
 21
-4.3922761364
 31
0.0
 11
11.0102318547
 21
-4.3748251259
 31
0.0
 11
10.9261969592
 21
-4.3532986599
 31
0.0
 11
10.8340471731
 21
-4.3279819827
 31
0.0
 11
10.7343348432
 21
-4.2990757197
 31
0.0
  0
SPLINE
  5
404
100
AcDbEntity
  8
RACCORDO
100
AcDbSpline
 62
253
  6
CONTINUOUS
 70
0
 71
3
 72
15
 73
11
 74
9
 42
0.0000001
 43
0.0000001
 44
0.0000000001
 12
-0.005825653
 22
0.6134919138
 32
0.0
 13
-0.3704194398
 23
0.4890763797
 33
0.0
 40
0.0
 40
0.0
 40
0.0
 40
0.0
 40
0.0391960073
 40
0.0818440227
 40
0.1774416339
 40
0.2862871314
 40
0.4074686155
 40
0.5401104883
 40
0.6834650943
 40
1.0
 40
1.0
 40
1.0
 40
1.0
 10
11.0149873701
 20
-4.8368340038
 30
0.0
 10
11.014911256
 20
-4.8288185259
 30
0.0
 10
11.0136427459
 20
-4.8120855732
 30
0.0
 10
11.0073437741
 20
-4.7763084623
 30
0.0
 10
10.9926973413
 20
-4.7277784851
 30
0.0
 10
10.9671553725
 20
-4.6662127316
 30
0.0
 10
10.9338045835
 20
-4.5999062979
 30
0.0
 10
10.8933241166
 20
-4.5294501212
 30
0.0
 10
10.8283279047
 20
-4.4271456136
 30
0.0
 10
10.7734183699
 20
-4.3506790291
 30
0.0
 10
10.7343348091
 20
-4.2990757805
 30
0.0
 11
11.0149873701
 21
-4.8368340038
 31
0.0
 11
11.0133208262
 21
-4.8128443031
 31
0.0
 11
11.0089106022
 21
-4.7870532645
 31
0.0
 11
10.9926259348
 21
-4.730708344
 31
0.0
 11
10.9674267005
 21
-4.6688665096
 31
0.0
 11
10.9342821864
 21
-4.6023161589
 31
0.0
 11
10.8939205078
 21
-4.5316523317
 31
0.0
 11
10.8468908072
 21
-4.4573316721
 31
0.0
 11
10.7343348091
 21
-4.2990757805
 31
0.0
  0
SPLINE
  5
405
100
AcDbEntity
  8
RACCORDO
100
AcDbSpline
 62
253
  6
CONTINUOUS
 70
0
 71
3
 72
16
 73
12
 74
10
 42
0.0000001
 43
0.0000001
 44
0.0000000001
 12
0.0403747356
 22
-0.0885616233
 32
0.0
 13
-0.0867485287
 23
-0.0441358489
 33
0.0
 40
0.0
 40
0.0
 40
0.0
 40
0.0
 40
0.0084455341
 40
0.0227332963
 40
0.0736634122
 40
0.1556613158
 40
0.2683516007
 40
0.4107192504
 40
0.5813345417
 40
0.7784538434
 40
1.0
 40
1.0
 40
1.0
 40
1.0
 10
19.3710873779
 20
7.5913198077
 30
0.0
 10
19.3712010399
 20
7.5910704909
 30
0.0
 10
19.3710152784
 20
7.5902562061
 30
0.0
 10
19.3694988552
 20
7.5884339802
 30
0.0
 10
19.3657381113
 20
7.5853996368
 30
0.0
 10
19.3591369323
 20
7.5809729603
 30
0.0
 10
19.3497812915
 20
7.5752867729
 30
0.0
 10
19.3377864132
 20
7.568448036
 30
0.0
 10
19.3232564646
 20
7.560520985
 30
0.0
 10
19.306348026
 20
7.5515982001
 30
0.0
 10
19.2942672817
 20
7.5453882234
 30
0.0
 10
19.287861014
 20
7.5421288475
 30
0.0
 11
19.3710873779
 21
7.5913198077
 31
0.0
 11
19.3710240661
 21
7.5905002391
 31
0.0
 11
19.3702376436
 21
7.589353323
 31
0.0
 11
19.3665058104
 21
7.5860905109
 31
0.0
 11
19.3599313813
 21
7.5815659157
 31
0.0
 11
19.3505840505
 21
7.5758274886
 31
0.0
 11
19.3385625904
 21
7.5689358899
 31
0.0
 11
19.3239948736
 21
7.5609643896
 31
0.0
 11
19.3070338779
 21
7.5519967484
 31
0.0
 11
19.287861014
 21
7.5421288475
 31
0.0
  0
SPLINE
  5
406
100
AcDbEntity
  8
RACCORDO
100
AcDbSpline
 62
253
  6
CONTINUOUS
 70
0
 71
3
 72
12
 73
8
 74
6
 42
0.0000001
 43
0.0000001
 44
0.0000000001
 12
-0.0000041937
 22
-0.140420672
 32
0.0
 13
-0.1246974553
 23
-0.0645639975
 33
0.0
 40
0.0
 40
0.0
 40
0.0
 40
0.0
 40
0.1028546464
 40
0.2084745189
 40
0.4366765744
 40
0.6988746826
 40
1.0
 40
1.0
 40
1.0
 40
1.0
 10
19.4251210556
 20
7.3508543047
 30
0.0
 10
19.4251209118
 20
7.3460399985
 30
0.0
 10
19.4241678561
 20
7.3362571348
 30
0.0
 10
19.4183785397
 20
7.3165461594
 30
0.0
 10
19.4034342181
 20
7.2923879331
 30
0.0
 10
19.3760527496
 20
7.2669997145
 30
0.0
 10
19.353439526
 20
7.2531373587
 30
0.0
 10
19.3409230057
 20
7.2466567407
 30
0.0
 11
19.4251210556
 21
7.3508543047
 31
0.0
 11
19.4237397194
 21
7.3364775941
 31
0.0
 11
19.4196088362
 21
7.3222332725
 31
0.0
 11
19.4032757036
 21
7.2946639953
 31
0.0
 11
19.3767221424
 21
7.2691595633
 31
0.0
 11
19.3409230057
 21
7.2466567407
 31
0.0
  0
SPLINE
  5
407
100
AcDbEntity
  8
RACCORDO
100
AcDbSpline
 62
7
  6
CONTINUOUS
 70
0
 71
3
 72
14
 73
10
 74
8
 42
0.0000001
 43
0.0000001
 44
0.0000000001
 12
0.0000089474
 22
-0.1249350135
 32
0.0
 13
-0.1111854209
 23
-0.0569785911
 33
0.0
 40
0.0
 40
0.0
 40
0.0
 40
0.0
 40
0.0819502751
 40
0.1721976201
 40
0.2741154028
 40
0.3897757245
 40
0.5202143261
 40
0.6657011406
 40
1.0
 40
1.0
 40
1.0
 40
1.0
 10
19.4251210223
 20
7.2058302263
 30
0.0
 10
19.4251212667
 20
7.2024174067
 30
0.0
 10
19.4240904061
 20
7.1952237869
 30
0.0
 10
19.4197971184
 20
7.1845587824
 30
0.0
 10
19.4128192284
 20
7.1737323661
 30
0.0
 10
19.4032274212
 20
7.1628136561
 30
0.0
 10
19.3910949443
 20
7.1518724612
 30
0.0
 10
19.3706964008
 20
7.1366724741
 30
0.0
 10
19.3533127255
 20
7.1266629788
 30
0.0
 10
19.3409230057
 20
7.1203136862
 30
0.0
 11
19.4251210223
 21
7.2058302263
 31
0.0
 11
19.4237627109
 21
7.1956822695
 31
0.0
 11
19.4196829678
 21
7.1851712028
 31
0.0
 11
19.4128971555
 21
7.1743969475
 31
0.0
 11
19.4034487411
 21
7.1634639399
 31
0.0
 11
19.3914104171
 21
7.1524798728
 31
0.0
 11
19.3768842872
 21
7.1415540793
 31
0.0
 11
19.3409230057
 21
7.1203136862
 31
0.0
  0
SPLINE
  5
408
100
AcDbEntity
  8
RACCORDO
100
AcDbSpline
 62
253
  6
CONTINUOUS
 70
0
 71
3
 72
13
 73
9
 74
7
 42
0.0000001
 43
0.0000001
 44
0.0000000001
 12
0.4064116187
 22
0.1945175412
 32
0.0
 13
0.4029948916
 23
-0.2015008559
 33
0.0
 40
0.0
 40
0.0
 40
0.0
 40
0.0
 40
0.2779538981
 40
0.5335100317
 40
0.6544091169
 40
0.7717159427
 40
0.8865065416
 40
1.0
 40
1.0
 40
1.0
 40
1.0
 10
3.2737826548
 20
30.1675600405
 30
0.0
 10
3.3114372193
 20
30.1855823435
 30
0.0
 10
3.3866516277
 20
30.2145542411
 30
0.0
 10
3.4843101954
 20
30.231430626
 30
0.0
 10
3.5586309252
 20
30.2310258876
 30
0.0
 10
3.6113510141
 20
30.2241730966
 30
0.0
 10
3.661651757
 20
30.2107956948
 30
0.0
 10
3.6934097595
 20
30.1975463507
 30
0.0
 10
3.7086555208
 20
30.189923341
 30
0.0
 11
3.2737826548
 21
30.1675600405
 31
0.0
 11
3.3910041638
 21
30.2116411536
 31
0.0
 11
3.5046286789
 21
30.2302871239
 31
0.0
 11
3.559099889
 21
30.2298820248
 31
0.0
 11
3.6115015019
 21
30.2229802271
 31
0.0
 11
3.6614691873
 21
30.2096297249
 31
0.0
 11
3.7086555208
 21
30.189923341
 31
0.0
  0
SPLINE
  5
409
100
AcDbEntity
  8
RACCORDO
100
AcDbSpline
 62
253
  6
CONTINUOUS
 70
0
 71
3
 72
13
 73
9
 74
7
 42
0.0000001
 43
0.0000001
 44
0.0000000001
 12
-0.4061175693
 22
0.2059523326
 32
0.0
 13
-0.4118537678
 23
-0.1942274885
 33
0.0
 40
0.0
 40
0.0
 40
0.0
 40
0.0
 40
0.2776481467
 40
0.5331430789
 40
0.6540879816
 40
0.7714793583
 40
0.8863824325
 40
1.0
 40
1.0
 40
1.0
 40
1.0
 10
3.2737826548
 20
30.1675600405
 30
0.0
 10
3.2361967246
 20
30.1866208017
 30
0.0
 10
3.1609133311
 20
30.2175923391
 30
0.0
 10
3.0626678311
 20
30.2368324778
 30
0.0
 10
2.9875561138
 20
30.2380988067
 30
0.0
 10
2.9340971737
 20
30.2323648043
 30
0.0
 10
2.882922122
 20
30.219985406
 30
0.0
 10
2.8504958333
 20
30.2073188861
 30
0.0
 10
2.8348978922
 20
30.1999630011
 30
0.0
 11
3.2737826548
 21
30.1675600405
 31
0.0
 11
3.156484461
 21
30.2147327719
 31
0.0
 11
3.0421290333
 21
30.2361341328
 31
0.0
 11
2.9870623184
 21
30.2369542753
 31
0.0
 11
2.9339221062
 21
30.2311643186
 31
0.0
 11
2.8830812384
 21
30.2188046686
 31
0.0
 11
2.8348978922
 21
30.1999630011
 31
0.0
  0
SPLINE
  5
40A
100
AcDbEntity
  8
RACCORDO
100
AcDbSpline
 62
253
  6
CONTINUOUS
 70
0
 71
3
 72
11
 73
7
 74
5
 42
0.0000001
 43
0.0000001
 44
0.0000000001
 12
-0.3570947129
 22
0.6239892882
 32
0.0
 13
-0.6448435076
 23
0.3178932469
 33
0.0
 40
0.0
 40
0.0
 40
0.0
 40
0.0
 40
0.2691312001
 40
0.5287222304
 40
0.7735798097
 40
1.0
 40
1.0
 40
1.0
 40
1.0
 10
16.9235746035
 20
23.0890497307
 30
0.0
 10
16.8915394939
 20
23.1450280593
 30
0.0
 10
16.821830244
 20
23.2512991281
 30
0.0
 10
16.7007508923
 20
23.392406592
 30
0.0
 10
16.568696152
 20
23.5083906157
 30
0.0
 10
16.4723192858
 20
23.5686335068
 30
0.0
 10
16.4236507559
 20
23.59262599
 30
0.0
 11
16.9235746035
 21
23.0890497307
 31
0.0
 11
16.8171923103
 21
23.2506702782
 31
0.0
 11
16.6952169052
 21
23.3919260874
 31
0.0
 11
16.5623345922
 21
23.5073899705
 31
0.0
 11
16.4236507559
 21
23.59262599
 31
0.0
  0
SPLINE
  5
40B
100
AcDbEntity
  8
RACCORDO
100
AcDbSpline
 62
253
  6
CONTINUOUS
 70
0
 71
3
 72
11
 73
7
 74
5
 42
0.0000001
 43
0.0000001
 44
0.0000000001
 12
0.7591371268
 22
-1.3008479134
 32
0.0
 13
-0.0043593853
 23
-1.5061458983
 33
0.0
 40
0.0
 40
0.0
 40
0.0
 40
0.0
 40
0.2602702373
 40
0.5174813741
 40
0.7657527574
 40
1.0
 40
1.0
 40
1.0
 40
1.0
 10
17.0593969416
 20
22.8547908495
 30
0.0
 10
17.1252572083
 20
22.7419335178
 30
0.0
 10
17.2426411722
 20
22.5093243435
 30
0.0
 10
17.3733981549
 20
22.146785281
 30
0.0
 10
17.4544312684
 20
21.7833174391
 30
0.0
 10
17.4738878086
 20
21.5407607827
 30
0.0
 10
17.4735474173
 20
21.4231572749
 30
0.0
 11
17.0593969416
 21
22.8547908495
 31
0.0
 11
17.2359938466
 21
22.5048155624
 31
0.0
 11
17.3669132538
 21
22.1402086671
 31
0.0
 11
17.4471249478
 21
21.7749784815
 31
0.0
 11
17.4735474173
 21
21.4231572749
 31
0.0
  0
SPLINE
  5
40C
100
AcDbEntity
  8
RACCORDO
100
AcDbSpline
 62
253
  6
CONTINUOUS
 70
0
 71
3
 72
15
 73
11
 74
9
 42
0.0000001
 43
0.0000001
 44
0.0000000001
 12
0.4162595084
 22
0.2155340921
 32
0.0
 13
-0.0000021098
 23
0.4687503847
 33
0.0
 40
0.0
 40
0.0
 40
0.0
 40
0.0
 40
0.1553711952
 40
0.3009879167
 40
0.4368298868
 40
0.5632631063
 40
0.6811312529
 40
0.7918213155
 40
0.8972910936
 40
1.0
 40
1.0
 40
1.0
 40
1.0
 10
17.4735474173
 20
21.4231572749
 30
0.0
 10
17.4951056631
 20
21.4343198714
 30
0.0
 10
17.5360756047
 20
21.457539305
 30
0.0
 10
17.59233846
 20
21.4963529447
 30
0.0
 10
17.640978465
 20
21.5377295613
 30
0.0
 10
17.6815437866
 20
21.581329346
 30
0.0
 10
17.7136396408
 20
21.6268024299
 30
0.0
 10
17.7369088955
 20
21.6737870136
 30
0.0
 10
17.7510337986
 20
21.7218392151
 30
0.0
 10
17.7542075831
 20
21.7544490034
 30
0.0
 10
17.7542075108
 20
21.7704972832
 30
0.0
 11
17.4735474173
 21
21.4231572749
 31
0.0
 11
17.5368162677
 21
21.4592308977
 31
0.0
 11
17.5928779015
 21
21.4981697387
 31
0.0
 11
17.6412183818
 21
21.5396164255
 31
0.0
 11
17.6813913735
 21
21.5831887158
 31
0.0
 11
17.7130273181
 21
21.6284856382
 31
0.0
 11
17.7358347867
 21
21.675090116
 31
0.0
 11
17.7496037547
 21
21.7225730618
 31
0.0
 11
17.7542075108
 21
21.7704972832
 31
0.0
  0
SPLINE
  5
40D
100
AcDbEntity
  8
RACCORDO
100
AcDbSpline
 62
253
  6
CONTINUOUS
 70
0
 71
3
 72
11
 73
7
 74
5
 42
0.0000001
 43
0.0000001
 44
0.0000000001
 12
0.3529376303
 22
0.5693651139
 32
0.0
 13
0.13671212
 23
0.6557830434
 33
0.0
 40
0.0
 40
0.0
 40
0.0
 40
0.0
 40
0.2567925344
 40
0.5102233692
 40
0.7587154285
 40
1.0
 40
1.0
 40
1.0
 40
1.0
 10
17.4735474173
 20
18.247978356
 30
0.0
 10
17.5037580001
 20
18.2967145929
 30
0.0
 10
17.5600336794
 20
18.3959323701
 30
0.0
 10
17.6318270611
 20
18.5495819652
 30
0.0
 10
17.6894372711
 20
18.7054195275
 30
0.0
 10
17.7177900474
 20
18.8112768737
 30
0.0
 10
17.7287855558
 20
18.8640203172
 30
0.0
 11
17.4735474173
 21
18.247978356
 31
0.0
 11
17.5583790749
 21
18.3976269135
 31
0.0
 11
17.6301050523
 21
18.5514995736
 31
0.0
 11
17.6875215707
 21
18.7077441773
 31
0.0
 11
17.7287855558
 21
18.8640203172
 31
0.0
  0
SPLINE
  5
40E
100
AcDbEntity
  8
RACCORDO
100
AcDbSpline
 62
253
  6
CONTINUOUS
 70
0
 71
3
 72
9
 73
5
 74
3
 42
0.0000001
 43
0.0000001
 44
0.0000000001
 12
0.0538283508
 22
0.2582034918
 32
0.0
 13
0.0000420075
 23
0.2637546829
 33
0.0
 40
0.0
 40
0.0
 40
0.0
 40
0.0
 40
0.4959208033
 40
1.0
 40
1.0
 40
1.0
 40
1.0
 10
17.7287855558
 20
18.8640203172
 30
0.0
 10
17.7376837555
 20
18.9067031449
 30
0.0
 10
17.7503158997
 20
18.9939213742
 30
0.0
 10
17.7542007026
 20
19.0818869817
 30
0.0
 10
17.754207761
 20
19.1262047313
 30
0.0
 11
17.7287855558
 21
18.8640203172
 31
0.0
 11
17.748061543
 21
18.9933936219
 31
0.0
 11
17.754207761
 21
19.1262047313
 31
0.0
  0
SPLINE
  5
40F
100
AcDbEntity
  8
RACCORDO
100
AcDbSpline
 62
253
  6
CONTINUOUS
 70
0
 71
3
 72
13
 73
9
 74
7
 42
0.0000001
 43
0.0000001
 44
0.0000000001
 12
-0.2682495484
 22
0.1198953627
 32
0.0
 13
-0.2544255853
 23
0.1469705406
 33
0.0
 40
0.0
 40
0.0
 40
0.0
 40
0.0
 40
0.0699263907
 40
0.1580175619
 40
0.2628215001
 40
0.3830834979
 40
0.6659193694
 40
1.0
 40
1.0
 40
1.0
 40
1.0
 10
17.7287855628
 20
15.0656383667
 30
0.0
 10
17.7225329886
 20
15.0684329834
 30
0.0
 10
17.7086764372
 20
15.0753493857
 30
0.0
 10
17.6860472875
 20
15.0876178288
 30
0.0
 10
17.6593595322
 20
15.1027369316
 30
0.0
 10
17.6163160551
 20
15.127672432
 30
0.0
 10
17.5540751154
 20
15.1642648629
 30
0.0
 10
17.5018803039
 20
15.1947037045
 30
0.0
 10
17.4735474173
 20
15.2110703748
 30
0.0
 11
17.7287855628
 21
15.0656383667
 31
0.0
 11
17.7103184794
 21
15.074644361
 31
0.0
 11
17.6875216409
 21
15.0869020422
 31
0.0
 11
17.6607000248
 21
15.1020304218
 31
0.0
 11
17.6301051563
 21
15.1197103441
 31
0.0
 11
17.5583791291
 21
15.1616824823
 31
0.0
 11
17.4735474173
 21
15.2110703748
 31
0.0
  0
SPLINE
  5
410
100
AcDbEntity
  8
RACCORDO
100
AcDbSpline
 62
253
  6
CONTINUOUS
 70
0
 71
3
 72
11
 73
7
 74
5
 42
0.0000001
 43
0.0000001
 44
0.0000000001
 12
0.3529377706
 22
0.5693650218
 32
0.0
 13
0.1367120912
 23
0.655783045
 33
0.0
 40
0.0
 40
0.0
 40
0.0
 40
0.0
 40
0.2567925193
 40
0.5102233484
 40
0.758715415
 40
1.0
 40
1.0
 40
1.0
 40
1.0
 10
17.4735474173
 20
6.5566354254
 30
0.0
 10
17.5037580104
 20
6.6053716516
 30
0.0
 10
17.560033709
 20
6.7045894123
 30
0.0
 10
17.6318270844
 20
6.8582390069
 30
0.0
 10
17.6894372799
 20
7.0140765769
 30
0.0
 10
17.7177900504
 20
7.1199339285
 30
0.0
 10
17.7287855571
 20
7.1726773751
 30
0.0
 11
17.4735474173
 21
6.5566354254
 31
0.0
 11
17.5583790974
 21
6.7062839573
 31
0.0
 11
17.6301050726
 21
6.860156613
 31
0.0
 11
17.6875215796
 21
7.0164012249
 31
0.0
 11
17.7287855571
 21
7.1726773751
 31
0.0
  0
SPLINE
  5
411
100
AcDbEntity
  8
RACCORDO
100
AcDbSpline
 62
253
  6
CONTINUOUS
 70
0
 71
3
 72
15
 73
11
 74
9
 42
0.0000001
 43
0.0000001
 44
0.0000000001
 12
0.7545663129
 22
-2.1616155713
 32
0.0
 13
-1.0820456139
 23
-2.017704014
 33
0.0
 40
0.0
 40
0.0
 40
0.0
 40
0.0
 40
0.1428199638
 40
0.2822220119
 40
0.4171188376
 40
0.5465804561
 40
0.6698852226
 40
0.7865764752
 40
0.8965257314
 40
1.0
 40
1.0
 40
1.0
 40
1.0
 10
19.3372854136
 20
18.8097064495
 30
0.0
 10
19.3732077915
 20
18.7067991636
 30
0.0
 10
19.4366683981
 20
18.5007173564
 30
0.0
 10
19.5064742617
 20
18.189797234
 30
0.0
 10
19.5490520787
 20
17.8842313654
 30
0.0
 10
19.5637773473
 20
17.5883191008
 30
0.0
 10
19.5504137691
 20
17.3061884178
 30
0.0
 10
19.5090675952
 20
17.0417396668
 30
0.0
 10
19.4402397999
 20
16.7987191572
 30
0.0
 10
19.3746067064
 20
16.6488933005
 30
0.0
 10
19.3372854136
 20
16.5792998182
 30
0.0
 11
19.3372854136
 21
18.8097064495
 31
0.0
 11
19.4332805639
 21
18.4971238658
 31
0.0
 11
19.502842914
 21
18.1856313702
 31
0.0
 11
19.5449810369
 21
17.8796689741
 31
0.0
 11
19.5590941469
 21
17.5835987671
 31
0.0
 11
19.5449810369
 21
17.3016416703
 31
0.0
 11
19.502842914
 21
17.0378173971
 31
0.0
 11
19.4332805639
 21
16.7958872515
 31
0.0
 11
19.3372854136
 21
16.5792998182
 31
0.0
  0
SPLINE
  5
412
100
AcDbEntity
  8
RACCORDO
100
AcDbSpline
 62
253
  6
CONTINUOUS
 70
0
 71
3
 72
15
 73
11
 74
9
 42
0.0000001
 43
0.0000001
 44
0.0000000001
 12
0.7545663129
 22
-2.1616155713
 32
0.0
 13
-1.0820456139
 23
-2.017704014
 33
0.0
 40
0.0
 40
0.0
 40
0.0
 40
0.0
 40
0.1428199638
 40
0.2822220119
 40
0.4171188376
 40
0.5465804561
 40
0.6698852226
 40
0.7865764752
 40
0.8965257314
 40
1.0
 40
1.0
 40
1.0
 40
1.0
 10
19.3372854136
 20
7.1183634984
 30
0.0
 10
19.3732077915
 20
7.0154562125
 30
0.0
 10
19.4366683981
 20
6.8093744053
 30
0.0
 10
19.5064742617
 20
6.4984542829
 30
0.0
 10
19.5490520787
 20
6.1928884143
 30
0.0
 10
19.5637773473
 20
5.8969761497
 30
0.0
 10
19.5504137691
 20
5.6148454667
 30
0.0
 10
19.5090675952
 20
5.3503967157
 30
0.0
 10
19.4402397999
 20
5.1073762062
 30
0.0
 10
19.3746067064
 20
4.9575503494
 30
0.0
 10
19.3372854136
 20
4.8879568671
 30
0.0
 11
19.3372854136
 21
7.1183634984
 31
0.0
 11
19.4332805639
 21
6.8057809147
 31
0.0
 11
19.502842914
 21
6.4942884191
 31
0.0
 11
19.5449810369
 21
6.188326023
 31
0.0
 11
19.5590941469
 21
5.8922558161
 31
0.0
 11
19.5449810369
 21
5.6102987192
 31
0.0
 11
19.502842914
 21
5.346474446
 31
0.0
 11
19.4332805639
 21
5.1045443004
 31
0.0
 11
19.3372854136
 21
4.8879568671
 31
0.0
  0
SPLINE
  5
413
100
AcDbEntity
  8
RACCORDO
100
AcDbSpline
 62
253
  6
CONTINUOUS
 70
0
 71
3
 72
9
 73
5
 74
3
 42
0.0000001
 43
0.0000001
 44
0.0000000001
 12
0.0538283474
 22
0.2582034833
 32
0.0
 13
0.0000420075
 23
0.2637546739
 33
0.0
 40
0.0
 40
0.0
 40
0.0
 40
0.0
 40
0.4959208009
 40
1.0
 40
1.0
 40
1.0
 40
1.0
 10
17.7287855571
 20
7.1726773751
 30
0.0
 10
17.7376837562
 20
7.2153602012
 30
0.0
 10
17.7503159003
 20
7.3025784274
 30
0.0
 10
17.7542007026
 20
7.390544032
 30
0.0
 10
17.754207761
 20
7.4348617802
 30
0.0
 11
17.7287855571
 21
7.1726773751
 31
0.0
 11
17.7480615434
 21
7.3020506747
 31
0.0
 11
17.754207761
 21
7.4348617802
 31
0.0
  0
SPLINE
  5
414
100
AcDbEntity
  8
RACCORDO
100
AcDbSpline
 62
253
  6
CONTINUOUS
 70
0
 71
3
 72
14
 73
10
 74
8
 42
0.0000001
 43
0.0000001
 44
0.0000000001
 12
0.4135887209
 22
0.2141418289
 32
0.0
 13
0.0053571831
 23
0.4657076911
 33
0.0
 40
0.0
 40
0.0
 40
0.0
 40
0.0
 40
0.3005172714
 40
0.4363929649
 40
0.562926814
 40
0.6809357292
 40
0.7917656127
 40
0.8973204247
 40
1.0
 40
1.0
 40
1.0
 40
1.0
 10
17.4735474173
 20
-0.663115927
 30
0.0
 10
17.5149776019
 20
-0.641664821
 30
0.0
 10
17.573180952
 20
-0.6060571243
 30
0.0
 10
17.6399740244
 20
-0.5494789522
 30
0.0
 10
17.6804474403
 20
-0.5062566851
 30
0.0
 10
17.7125849919
 20
-0.461185873
 30
0.0
 10
17.7360408715
 20
-0.4146135127
 30
0.0
 10
17.750502874
 20
-0.366972513
 30
0.0
 10
17.7540076094
 20
-0.3346038462
 30
0.0
 10
17.7541909672
 20
-0.3186642902
 30
0.0
 11
17.4735474173
 21
-0.663115927
 31
0.0
 11
17.5920934322
 21
-0.5887093838
 31
0.0
 11
17.6402197972
 21
-0.5476176191
 31
0.0
 11
17.680309585
 21
-0.5044232623
 31
0.0
 11
17.7119995266
 21
-0.4595178996
 31
0.0
 11
17.7350020612
 21
-0.4133088648
 31
0.0
 11
17.7491085096
 21
-0.3662152755
 31
0.0
 11
17.7541909672
 21
-0.3186642902
 31
0.0
  0
SPLINE
  5
415
100
AcDbEntity
  8
RACCORDO
100
AcDbSpline
 62
253
  6
CONTINUOUS
 70
0
 71
3
 72
13
 73
9
 74
7
 42
0.0000001
 43
0.0000001
 44
0.0000000001
 12
-0.2682503598
 22
0.1198940528
 32
0.0
 13
-0.2544257934
 23
0.1469705927
 33
0.0
 40
0.0
 40
0.0
 40
0.0
 40
0.0
 40
0.0699262261
 40
0.1580173628
 40
0.2628213347
 40
0.3830834101
 40
0.6659194026
 40
1.0
 40
1.0
 40
1.0
 40
1.0
 10
17.7287855808
 20
3.3742953393
 30
0.0
 10
17.7225330024
 20
3.3770899188
 30
0.0
 10
17.708676391
 20
3.3840061815
 30
0.0
 10
17.6860472452
 20
3.3962746409
 30
0.0
 10
17.6593594725
 20
3.4113937705
 30
0.0
 10
17.616316022
 20
3.436329433
 30
0.0
 10
17.5540751645
 20
3.4729221353
 30
0.0
 10
17.5018803243
 20
3.5033610298
 30
0.0
 10
17.4735474173
 20
3.5197277042
 30
0.0
 11
17.7287855808
 21
3.3742953393
 31
0.0
 11
17.7103184673
 21
3.3833011943
 31
0.0
 11
17.6875216053
 21
3.3955588487
 31
0.0
 11
17.6606999755
 21
3.4106872683
 31
0.0
 11
17.6301051135
 21
3.4283672969
 31
0.0
 11
17.5583791372
 21
3.4703397079
 31
0.0
 11
17.4735474173
 21
3.5197277042
 31
0.0
  0
SPLINE
  5
416
100
AcDbEntity
  8
0
100
AcDbSpline
 62
7
  6
CONTINUOUS
 70
0
 71
3
 72
15
 73
11
 74
9
 42
0.0000001
 43
0.0000001
 44
0.0000000001
 12
-1.1656304999
 22
-0.5930771071
 32
0.0
 13
0.0000053518
 23
-1.3078359673
 33
0.0
 40
0.0
 40
0.0
 40
0.0
 40
0.0
 40
0.1556943211
 40
0.301573237
 40
0.437586056
 40
0.5640811213
 40
0.6818911495
 40
0.7924077098
 40
0.8976106823
 40
1.0
 40
1.0
 40
1.0
 40
1.0
 10
0.6270927481
 20
27.1737719767
 30
0.0
 10
0.5665987316
 20
27.1429923975
 30
0.0
 10
0.4516109209
 20
27.0788964529
 30
0.0
 10
0.2936054052
 20
26.9715225351
 30
0.0
 10
0.156944316
 20
26.8568707249
 30
0.0
 10
0.0429221049
 20
26.7359057514
 30
0.0
 10
-0.0473292019
 20
26.6096160919
 30
0.0
 10
-0.1127865181
 20
26.4790253127
 30
0.0
 10
-0.1525344038
 20
26.3453893174
 30
0.0
 10
-0.1614686576
 20
26.2546578824
 30
0.0
 10
-0.1614684749
 20
26.2100217383
 30
0.0
 11
0.6270927481
 21
27.1737719767
 31
0.0
 11
0.4494927683
 21
27.074170652
 31
0.0
 11
0.2920395347
 21
26.9664318017
 31
0.0
 11
0.1562137867
 21
26.8515686892
 31
0.0
 11
0.0432951098
 21
26.7306635851
 31
0.0
 11
-0.0456526178
 21
26.6048551008
 31
0.0
 11
-0.1097920503
 21
26.4753281479
 31
0.0
 11
-0.1485188222
 21
26.3433025499
 31
0.0
 11
-0.1614684749
 21
26.2100217383
 31
0.0
  0
SPLINE
  5
417
100
AcDbEntity
  8
0
100
AcDbSpline
 62
7
  6
CONTINUOUS
 70
0
 71
3
 72
15
 73
11
 74
9
 42
0.0000001
 43
0.0000001
 44
0.0000000001
 12
-1.1656304999
 22
-0.5930771071
 32
0.0
 13
0.0000053518
 23
-1.3078359673
 33
0.0
 40
0.0
 40
0.0
 40
0.0
 40
0.0
 40
0.1556943211
 40
0.301573237
 40
0.437586056
 40
0.5640811213
 40
0.6818911495
 40
0.7924077098
 40
0.8976106823
 40
1.0
 40
1.0
 40
1.0
 40
1.0
 10
8.0517139505
 20
23.4614613755
 30
0.0
 10
7.9912199341
 20
23.4306817963
 30
0.0
 10
7.8762321234
 20
23.3665858517
 30
0.0
 10
7.7182266077
 20
23.2592119339
 30
0.0
 10
7.5815655185
 20
23.1445601237
 30
0.0
 10
7.4675433073
 20
23.0235951501
 30
0.0
 10
7.3772920005
 20
22.8973054906
 30
0.0
 10
7.3118346844
 20
22.7667147115
 30
0.0
 10
7.2720867987
 20
22.6330787162
 30
0.0
 10
7.2631525449
 20
22.5423472812
 30
0.0
 10
7.2631527275
 20
22.4977111371
 30
0.0
 11
8.0517139505
 21
23.4614613755
 31
0.0
 11
7.8741139708
 21
23.3618600508
 31
0.0
 11
7.7166607371
 21
23.2541212004
 31
0.0
 11
7.5808349891
 21
23.1392580879
 31
0.0
 11
7.4679163123
 21
23.0183529839
 31
0.0
 11
7.3789685846
 21
22.8925444995
 31
0.0
 11
7.3148291521
 21
22.7630175467
 31
0.0
 11
7.2761023803
 21
22.6309919486
 31
0.0
 11
7.2631527275
 21
22.4977111371
 31
0.0
  0
ELLIPSE
  5
418
100
AcDbEntity
  8
ASSI
100
AcDbEllipse
 62
7
  6
CONTINUOUS
 10
-17.6946813817
 20
21.9477421608
 30
0.0
 11
-0.436493403
 21
0.6710813156
 31
0.0
 40
0.5464995433
 41
-0.750067548
 42
0.0242121709
  0
ELLIPSE
  5
419
100
AcDbEntity
  8
ASSI
100
AcDbEllipse
 62
7
  6
CONTINUOUS
 10
0.4992355291
 20
-19.7087444558
 30
0.0
 11
-0.436493403
 21
0.6710813156
 31
0.0
 40
0.5464995433
 41
-3.1656409678
 42
-2.3215491074
  0
ELLIPSE
  5
41A
100
AcDbEntity
  8
ASSI
100
AcDbEllipse
 62
7
  6
CONTINUOUS
 10
-3.1286695147
 20
14.6647362273
 30
0.0
 11
-0.436144938
 21
0.6706554036
 31
0.0
 40
0.5472471754
 41
-2.3207749666
 42
-0.7506638725
  0
ELLIPSE
  5
41B
100
AcDbEntity
  8
CURVE
100
AcDbEllipse
 62
253
  6
CONTINUOUS
 10
187.8761884225
 20
138.7176750292
 30
0.0
 11
-241.6269092283
 21
348.5645625597
 31
0.0
 40
0.5920293473
 41
-4.6825354314
 42
-4.6816296358
  0
ELLIPSE
  5
41C
100
AcDbEntity
  8
CURVE
100
AcDbEllipse
 62
253
  6
CONTINUOUS
 10
217.0241270417
 20
124.1437057196
 30
0.0
 11
450.0873331918
 21
98.049299705
 31
0.0
 40
0.2245552477
 41
-2.1558881896
 42
-2.1554352467
  0
ELLIPSE
  5
41D
100
AcDbEntity
  8
CURVE
100
AcDbEllipse
 62
253
  6
CONTINUOUS
 10
174.0017504363
 20
145.6548940223
 30
0.0
 11
467.4429106603
 21
-442.6829477142
 31
0.0
 40
0.3809093774
 41
-1.6107211316
 42
-1.610268147
  0
ELLIPSE
  5
41E
100
AcDbEntity
  8
CURVE
100
AcDbEllipse
 62
253
  6
CONTINUOUS
 10
191.2627227001
 20
137.0244078904
 30
0.0
 11
-70.538989646
 21
323.8043790094
 31
0.0
 40
0.735753269
 41
-4.3932162381
 42
-4.3923104424
  0
ELLIPSE
  5
41F
100
AcDbEntity
  8
CURVE
100
AcDbEllipse
 62
253
  6
CONTINUOUS
 10
184.0376057014
 20
140.6369663897
 30
0.0
 11
-241.6269905542
 21
348.5645853786
 31
0.0
 40
0.592029255
 41
-4.6789120805
 42
-4.6780061219
  0
ELLIPSE
  5
420
100
AcDbEntity
  8
CURVE
100
AcDbEllipse
 62
253
  6
CONTINUOUS
 10
205.0689805091
 20
130.1212789859
 30
0.0
 11
281.0571118982
 21
194.8304363313
 31
0.0
 40
0.0319130414
 41
2.442489504
 42
2.4433952996
  0
ELLIPSE
  5
421
100
AcDbEntity
  8
CURVE
100
AcDbEllipse
 62
253
  6
CONTINUOUS
 10
185.1891742794
 20
140.0611821007
 30
0.0
 11
-241.6271260974
 21
348.56462341
 31
0.0
 40
0.5920291011
 41
-4.6825356247
 42
-4.6816298291
  0
ELLIPSE
  5
422
100
AcDbEntity
  8
CURVE
100
AcDbEllipse
 62
253
  6
CONTINUOUS
 10
184.3255022398
 20
140.4930181205
 30
0.0
 11
-241.6269092283
 21
348.5645625597
 31
0.0
 40
0.5920293473
 41
-4.6825354314
 42
-4.6820825383
  0
ELLIPSE
  5
423
100
AcDbEntity
  8
CURVE
100
AcDbEllipse
 62
253
  6
CONTINUOUS
 10
193.4017404193
 20
135.9548990308
 30
0.0
 11
-140.4987584968
 21
329.9347421824
 31
0.0
 40
0.6949434352
 41
-4.5541409982
 42
-4.5536883093
  0
ELLIPSE
  5
424
100
AcDbEntity
  8
CURVE
100
AcDbEllipse
 62
253
  6
CONTINUOUS
 10
188.6994631508
 20
138.306037665
 30
0.0
 11
-241.6268821197
 21
348.5645549535
 31
0.0
 40
0.5920293781
 41
-4.6895898065
 42
-4.6886842937
  0
ELLIPSE
  5
425
100
AcDbEntity
  8
CURVE
100
AcDbEllipse
 62
253
  6
CONTINUOUS
 10
205.2053479082
 20
130.0530952863
 30
0.0
 11
281.0570523998
 21
194.8304655142
 31
0.0
 40
0.0319132307
 41
2.4318134732
 42
2.4327188583
  0
ELLIPSE
  5
426
100
AcDbEntity
  8
CURVE
100
AcDbEllipse
 62
253
  6
CONTINUOUS
 10
189.8510356717
 20
137.7302514046
 30
0.0
 11
-241.6269092283
 21
348.5645625597
 31
0.0
 40
0.5920293473
 41
-4.6932115588
 42
-4.6923061738
  0
ELLIPSE
  5
427
100
AcDbEntity
  8
CURVE
100
AcDbEllipse
 62
253
  6
CONTINUOUS
 10
212.2107659576
 20
126.5503862616
 30
0.0
 11
450.0876480728
 21
98.0491000287
 31
0.0
 40
0.2245553933
 41
-2.145210335
 42
-2.1447576074
  0
ELLIPSE
  5
428
100
AcDbEntity
  8
CURVE
100
AcDbEllipse
 62
253
  6
CONTINUOUS
 10
178.239323555
 20
143.5361074629
 30
0.0
 11
467.443265989
 21
-442.6831210675
 31
0.0
 40
0.380909138
 41
-1.6213991925
 42
-1.6209464319
  0
ELLIPSE
  5
429
100
AcDbEntity
  8
CURVE
100
AcDbEllipse
 62
253
  6
CONTINUOUS
 10
192.1061930851
 20
136.6026726979
 30
0.0
 11
-70.5393836173
 21
323.8044155889
 31
0.0
 40
0.7357531283
 41
-4.4038933034
 42
-4.4029879184
  0
ELLIPSE
  5
42A
100
AcDbEntity
  8
CURVE
100
AcDbEllipse
 62
253
  6
CONTINUOUS
 10
192.0966015748
 20
136.607468453
 30
0.0
 11
44.4040790212
 21
303.9026239383
 31
0.0
 40
0.7295267014
 41
-4.1049515048
 42
-4.1004242638
  0
ELLIPSE
  5
42B
100
AcDbEntity
  8
CURVE
100
AcDbEllipse
 62
253
  6
CONTINUOUS
 10
196.9723974088
 20
134.169570536
 30
0.0
 11
186.5020241778
 21
240.9426684179
 31
0.0
 40
0.4322371373
 41
-3.7827446854
 42
-3.7791228294
  0
ELLIPSE
  5
42C
100
AcDbEntity
  8
CURVE
100
AcDbEllipse
 62
253
  6
CONTINUOUS
 10
192.3261164823
 20
136.4927109993
 30
0.0
 11
32.8166833988
 21
307.0508637904
 31
0.0
 40
0.7351278644
 41
-4.1356886705
 42
-4.1320668146
  0
ELLIPSE
  5
42D
100
AcDbEntity
  8
CURVE
100
AcDbEllipse
 62
253
  6
CONTINUOUS
 10
197.2019123619
 20
134.0548130595
 30
0.0
 11
182.8411763686
 21
242.8586920663
 31
0.0
 40
0.4481257935
 41
-3.7867038676
 42
-3.7821766266
  0
ELLIPSE
  5
42E
100
AcDbEntity
  8
CURVE
100
AcDbEllipse
 62
253
  6
CONTINUOUS
 10
192.1811119346
 20
136.5652132731
 30
0.0
 11
-140.4999891867
 21
329.9348688217
 31
0.0
 40
0.6949424485
 41
-4.5434671729
 42
-4.5430142798
  0
ELLIPSE
  5
42F
100
AcDbEntity
  8
CURVE
100
AcDbEllipse
 62
253
  6
CONTINUOUS
 10
186.7245977869
 20
139.293470347
 30
0.0
 11
-241.6273158577
 21
348.564676654
 31
0.0
 40
0.5920288857
 41
-4.6789123704
 42
-4.6780064117
  0
ELLIPSE
  5
430
100
AcDbEntity
  8
CURVE
100
AcDbEllipse
 62
253
  6
CONTINUOUS
 10
207.7559989196
 20
128.7777697806
 30
0.0
 11
281.0572903935
 21
194.8303487825
 31
0.0
 40
0.0319124734
 41
2.4424892141
 42
2.4433950098
  0
ELLIPSE
  5
431
100
AcDbEntity
  8
RACCORDO
100
AcDbEllipse
 62
7
  6
CONTINUOUS
 10
-1.432721059
 20
-22.3591022321
 30
0.0
 11
0.110769438
 21
0.2241226716
 31
0.0
 40
0.6088015717
 41
-4.0304836828
 42
-3.1443955108
  0
ELLIPSE
  5
432
100
AcDbEntity
  8
RACCORDO
100
AcDbEllipse
 62
7
  6
CONTINUOUS
 10
-14.7970392234
 20
25.8760323833
 30
0.0
 11
0.110769438
 21
0.2241226716
 31
0.0
 40
0.6088015717
 41
-4.0304836828
 42
-3.1443650652
  0
ELLIPSE
  5
433
100
AcDbEntity
  8
RACCORDO
100
AcDbEllipse
 62
7
  6
CONTINUOUS
 10
-1.432721059
 20
19.193873301
 30
0.0
 11
0.110769438
 21
0.2241226716
 31
0.0
 40
0.6088015717
 41
-4.0304836828
 42
-3.1443650652
  0
ELLIPSE
  5
434
100
AcDbEntity
  8
RACCORDO
100
AcDbEllipse
 62
7
  6
CONTINUOUS
 10
2.6238868223
 20
17.9021552519
 30
0.0
 11
-0.1565168911
 21
0.3130623908
 31
0.0
 40
0.6123677712
 41
-2.2554744912
 42
-0.6846781644
  0
ELLIPSE
  5
435
100
AcDbEntity
  8
RACCORDO
100
AcDbEllipse
 62
7
  6
CONTINUOUS
 10
2.6238868223
 20
-20.2744265928
 30
0.0
 11
-0.1565168911
 21
0.3130623908
 31
0.0
 40
0.6123677712
 41
-3.1363904945
 42
-2.2554744912
  0
ELLIPSE
  5
436
100
AcDbEntity
  8
RACCORDO
100
AcDbEllipse
 62
7
  6
CONTINUOUS
 10
-3.1427087262
 20
27.0073865571
 30
0.0
 11
0.2999991737
 21
-0.0014183462
 31
0.0
 40
0.4964289597
 41
0.7877451926
 42
2.3527237553
  0
ELLIPSE
  5
437
100
AcDbEntity
  8
RACCORDO
100
AcDbEllipse
 62
7
  6
CONTINUOUS
 10
2.4117547879
 20
24.2301548
 30
0.0
 11
0.2999991737
 21
-0.0014183462
 31
0.0
 40
0.4964289597
 41
0.7877451926
 42
2.3585415194
  0
ELLIPSE
  5
438
100
AcDbEntity
  8
RACCORDO
100
AcDbEllipse
 62
7
  6
CONTINUOUS
 10
1.9511069234
 20
18.5197262628
 30
0.0
 11
0.110769438
 21
0.2241226716
 31
0.0
 40
0.6088015717
 41
1.2055040732
 42
2.2526937431
  0
ELLIPSE
  5
439
100
AcDbEntity
  8
RACCORDO
100
AcDbEllipse
 62
7
  6
CONTINUOUS
 10
-11.413211241
 20
25.201885345
 30
0.0
 11
0.110769438
 21
0.2241226716
 31
0.0
 40
0.6088015717
 41
1.2055040732
 42
2.2526937431
  0
ELLIPSE
  5
43A
100
AcDbEntity
  8
RACCORDO
100
AcDbEllipse
 62
7
  6
CONTINUOUS
 10
2.3026034006
 20
19.4475314148
 30
0.0
 11
0.110769438
 21
0.2241226716
 31
0.0
 40
0.6088015717
 41
-1.9360885804
 42
-0.8888910292
  0
ELLIPSE
  5
43B
100
AcDbEntity
  8
RACCORDO
100
AcDbEllipse
 62
7
  6
CONTINUOUS
 10
0.6824285442
 20
20.5185478194
 30
0.0
 11
0.1128509832
 21
0.2230818409
 31
0.0
 40
0.6159267166
 41
0.0028979148
 42
0.6817883054
  0
ELLIPSE
  5
43C
100
AcDbEntity
  8
RACCORDO
100
AcDbEllipse
 62
7
  6
CONTINUOUS
 10
-1.432721059
 20
19.4472446948
 30
0.0
 11
0.110769438
 21
0.2241226716
 31
0.0
 40
0.6088015717
 41
0.6877230618
 42
2.2527016244
  0
ELLIPSE
  5
43D
100
AcDbEntity
  8
RACCORDO
100
AcDbEllipse
 62
7
  6
CONTINUOUS
 10
-11.0617147638
 20
26.129690497
 30
0.0
 11
0.110769438
 21
0.2241226716
 31
0.0
 40
0.6088015717
 41
-1.9360885804
 42
-0.8888910292
  0
ELLIPSE
  5
43E
100
AcDbEntity
  8
RACCORDO
100
AcDbEllipse
 62
7
  6
CONTINUOUS
 10
-12.6818896202
 20
27.2007069016
 30
0.0
 11
0.1128509832
 21
0.2230818409
 31
0.0
 40
0.6159267166
 41
0.0028979148
 42
0.6817883054
  0
ELLIPSE
  5
43F
100
AcDbEntity
  8
RACCORDO
100
AcDbEllipse
 62
7
  6
CONTINUOUS
 10
-14.7970392234
 20
26.129403777
 30
0.0
 11
0.110769438
 21
0.2241226716
 31
0.0
 40
0.6088015717
 41
0.6877230618
 42
2.2527016244
  0
ELLIPSE
  5
440
100
AcDbEntity
  8
RACCORDO
100
AcDbEllipse
 62
7
  6
CONTINUOUS
 10
2.3026034006
 20
-22.1130017009
 30
0.0
 11
0.110769438
 21
0.2241226716
 31
0.0
 40
0.6088015717
 41
-2.4538695918
 42
-0.8888910292
  0
ELLIPSE
  5
441
100
AcDbEntity
  8
RACCORDO
100
AcDbEllipse
 62
7
  6
CONTINUOUS
 10
-1.432721059
 20
-22.1057308383
 30
0.0
 11
0.110769438
 21
0.2241226716
 31
0.0
 40
0.6088015717
 41
1.2055040732
 42
2.2527016244
  0
ELLIPSE
  5
442
100
AcDbEntity
  8
RACCORDO
100
AcDbEllipse
 62
7
  6
CONTINUOUS
 10
-12.2929269739
 20
19.4381607737
 30
0.0
 11
-0.3234211751
 21
0.9546019167
 31
0.0
 40
0.6648686735
 41
-0.5912965599
 42
0.1123827769
  0
ELLIPSE
  5
443
100
AcDbEntity
  8
RACCORDO
100
AcDbEllipse
 62
7
  6
CONTINUOUS
 10
2.3026034006
 20
-21.8520727246
 30
0.0
 11
0.110769438
 21
0.2241226716
 31
0.0
 40
0.6088015717
 41
5.394294278
 42
6.4414918292
  0
ELLIPSE
  5
444
100
AcDbEntity
  8
RACCORDO
100
AcDbEllipse
 62
7
  6
CONTINUOUS
 10
-11.0617147638
 20
26.3906194734
 30
0.0
 11
0.110769438
 21
0.2241226716
 31
0.0
 40
0.6088015717
 41
5.394294278
 42
6.9592728406
  0
ELLIPSE
  5
445
100
AcDbEntity
  8
RACCORDO
100
AcDbEllipse
 62
7
  6
CONTINUOUS
 10
2.3026034006
 20
19.7084603912
 30
0.0
 11
0.110769438
 21
0.2241226716
 31
0.0
 40
0.6088015717
 41
5.394294278
 42
6.9592728406
  0
ELLIPSE
  5
446
100
AcDbEntity
  8
RACCORDO
100
AcDbEllipse
 62
7
  6
CONTINUOUS
 10
-2.9622567491
 20
25.6853263871
 30
0.0
 11
0.2999981629
 21
-0.0021225547
 31
0.0
 40
0.4946372042
 41
-0.7818985079
 42
0.0034997008
  0
ELLIPSE
  5
447
100
AcDbEntity
  8
RACCORDO
100
AcDbEllipse
 62
7
  6
CONTINUOUS
 10
2.5922067651
 20
22.90809463
 30
0.0
 11
0.2999981629
 21
-0.0021225547
 31
0.0
 40
0.4946372042
 41
-0.7760807437
 42
0.0035109161
  0
ELLIPSE
  5
448
100
AcDbEntity
  8
RACCORDO
100
AcDbEllipse
 62
7
  6
CONTINUOUS
 10
-9.1112024766
 20
24.0872051892
 30
0.0
 11
0.2999991335
 21
0.0014318851
 31
0.0
 40
0.5035541159
 41
8.6427941204
 42
10.207772683
  0
ELLIPSE
  5
449
100
AcDbEntity
  8
RACCORDO
100
AcDbEllipse
 62
7
  6
CONTINUOUS
 10
-15.1244933855
 20
24.2901350879
 30
0.0
 11
-0.1565168911
 21
0.3130623908
 31
0.0
 40
0.6123677712
 41
-0.6846781644
 42
0.8861181623
  0
ELLIPSE
  5
44A
100
AcDbEntity
  8
RACCORDO
100
AcDbEllipse
 62
7
  6
CONTINUOUS
 10
0.1490130881
 20
16.653381851
 30
0.0
 11
-0.1565168911
 21
0.3130623908
 31
0.0
 40
0.6123677712
 41
-2.2554744912
 42
-0.6846781644
  0
ELLIPSE
  5
44B
100
AcDbEntity
  8
RACCORDO
100
AcDbEllipse
 62
7
  6
CONTINUOUS
 10
-1.2375215064
 20
1.9241225014
 30
0.0
 11
-0.0646337196
 21
0.1902471476
 31
0.0
 40
0.6675902134
 41
-2.1647611171
 42
-0.5939647903
  0
ELLIPSE
  5
44C
100
AcDbEntity
  8
RACCORDO
100
AcDbEllipse
 62
7
  6
CONTINUOUS
 10
-3.3186934085
 20
21.1909506551
 30
0.0
 11
0.2999991335
 21
0.0014318851
 31
0.0
 40
0.5035541159
 41
-2.3585979313
 42
-0.7936193687
  0
ELLIPSE
  5
44D
100
AcDbEntity
  8
RACCORDO
100
AcDbEllipse
 62
7
  6
CONTINUOUS
 10
-3.3186934085
 20
19.9767515793
 30
0.0
 11
0.2999980272
 21
0.0021530184
 31
0.0
 40
0.5053247124
 41
-2.3598210761
 42
-0.7948425135
  0
ELLIPSE
  5
44E
100
AcDbEntity
  8
RACCORDO
100
AcDbEllipse
 62
7
  6
CONTINUOUS
 10
-9.1112024766
 20
22.8730061133
 30
0.0
 11
0.2999980272
 21
0.0021530184
 31
0.0
 40
0.5053247124
 41
3.1379773283
 42
3.9233642311
  0
ELLIPSE
  5
44F
100
AcDbEntity
  8
RACCORDO
100
AcDbEllipse
 62
7
  6
CONTINUOUS
 10
2.5922067651
 20
24.1399288114
 30
0.0
 11
0.2999991737
 21
-0.0014183462
 31
0.0
 40
0.4964289597
 41
-0.77723337
 42
0.7877451926
  0
ELLIPSE
  5
450
100
AcDbEntity
  8
RACCORDO
100
AcDbEllipse
 62
7
  6
CONTINUOUS
 10
-2.9622567491
 20
26.9171605685
 30
0.0
 11
0.2999991737
 21
-0.0014183462
 31
0.0
 40
0.4964289597
 41
-0.7830511342
 42
0.7877451926
  0
ELLIPSE
  5
451
100
AcDbEntity
  8
RACCORDO
100
AcDbEllipse
 62
7
  6
CONTINUOUS
 10
0.1490130881
 20
-21.500526926
 30
0.0
 11
-0.1565168911
 21
0.3130623908
 31
0.0
 40
0.6123677712
 41
2.4569144891
 42
4.0277108159
  0
ELLIPSE
  5
452
100
AcDbEntity
  8
RACCORDO
100
AcDbEllipse
 62
7
  6
CONTINUOUS
 10
1.9511069234
 20
-21.2798778766
 30
0.0
 11
0.110769438
 21
0.2241226716
 31
0.0
 40
0.6088015717
 41
2.2527095058
 42
3.2998991756
  0
ELLIPSE
  5
453
100
AcDbEntity
  8
RACCORDO
100
AcDbEllipse
 62
7
  6
CONTINUOUS
 10
0.1751123167
 20
18.643328007
 30
0.0
 11
0.1128509832
 21
0.2230818409
 31
0.0
 40
0.6159267166
 41
0.6934238338
 42
2.2584023964
  0
ELLIPSE
  5
454
100
AcDbEntity
  8
RACCORDO
100
AcDbEllipse
 62
7
  6
CONTINUOUS
 10
0.1751123167
 20
18.3899566132
 30
0.0
 11
0.1128509832
 21
0.2230818409
 31
0.0
 40
0.6159267166
 41
-4.0247829108
 42
-2.9775853596
  0
ELLIPSE
  5
455
100
AcDbEntity
  8
RACCORDO
100
AcDbEllipse
 62
7
  6
CONTINUOUS
 10
-13.1892058478
 20
25.3254870892
 30
0.0
 11
0.1128509832
 21
0.2230818409
 31
0.0
 40
0.6159267166
 41
0.6934238338
 42
2.2584023964
  0
ELLIPSE
  5
456
100
AcDbEntity
  8
RACCORDO
100
AcDbEllipse
 62
7
  6
CONTINUOUS
 10
-13.1892058478
 20
25.0721156954
 30
0.0
 11
0.1128509832
 21
0.2230818409
 31
0.0
 40
0.6159267166
 41
-4.0247829108
 42
-2.9775853596
  0
ELLIPSE
  5
457
100
AcDbEntity
  8
RACCORDO
100
AcDbEllipse
 62
7
  6
CONTINUOUS
 10
0.1751123167
 20
-23.1630189199
 30
0.0
 11
0.1128509832
 21
0.2230818409
 31
0.0
 40
0.6159267166
 41
-4.0247829108
 42
-2.4598043482
  0
ELLIPSE
  5
458
100
AcDbEntity
  8
RACCORDO
100
AcDbEllipse
 62
7
  6
CONTINUOUS
 10
0.1751123167
 20
-22.9096475262
 30
0.0
 11
0.1128509832
 21
0.2230818409
 31
0.0
 40
0.6159267166
 41
1.2112048452
 42
2.2584023964
  0
ELLIPSE
  5
459
100
AcDbEntity
  8
RACCORDO
100
AcDbEllipse
 62
7
  6
CONTINUOUS
 10
-1.5031932181
 20
14.0432938958
 30
0.0
 11
-0.3205676932
 21
0.9531531496
 31
0.0
 40
0.66789399
 41
-2.1618296722
 42
-0.5913379319
  0
ELLIPSE
  5
45A
100
AcDbEntity
  8
DRAFT
100
AcDbEllipse
 62
7
  6
CONTINUOUS
 10
2.5885314832
 20
25.8001856231
 30
0.0
 11
2.7499924258
 21
-0.0130015067
 31
0.0
 40
0.4964289597
 41
2.3672681657
 42
2.9296691279
  0
ELLIPSE
  5
45B
100
AcDbEntity
  8
DRAFT
100
AcDbEllipse
 62
7
  6
CONTINUOUS
 10
10.0131526857
 20
22.0878750219
 30
0.0
 11
2.7499924258
 21
-0.0130015067
 31
0.0
 40
0.4964289597
 41
2.3672681657
 42
2.9296691392
  0
ELLIPSE
  5
45C
100
AcDbEntity
  8
DRAFT
100
AcDbEllipse
 62
7
  6
CONTINUOUS
 10
10.6849041278
 20
21.985951572
 30
0.0
 11
2.7583876426
 21
-0.0130411979
 31
0.0
 40
0.4964289597
 41
0.4409543378
 42
2.3585415194
  0
ELLIPSE
  5
45D
100
AcDbEntity
  8
DRAFT
100
AcDbEllipse
 62
7
  6
CONTINUOUS
 10
3.2602829254
 20
25.6982621733
 30
0.0
 11
2.7583876426
 21
-0.0130411979
 31
0.0
 40
0.4964289597
 41
0.4409543378
 42
2.3585415194
  0
ELLIPSE
  5
45E
100
AcDbEntity
  8
RACCORDO
100
AcDbEllipse
 62
7
  6
CONTINUOUS
 10
4.1485935589
 20
28.8519203696
 30
0.0
 11
0.4410298232
 21
0.8975092442
 31
0.0
 40
0.607010042
 41
-0.8902711325
 42
-0.7587130969
  0
ELLIPSE
  5
45F
100
AcDbEntity
  8
RACCORDO
100
AcDbEllipse
 62
7
  6
CONTINUOUS
 10
11.5732147613
 20
25.1396097684
 30
0.0
 11
0.4410298232
 21
0.8975092442
 31
0.0
 40
0.607010042
 41
-0.8902711325
 42
-0.7587130969
  0
ELLIPSE
  5
460
100
AcDbEntity
  8
RACCORDO
100
AcDbEllipse
 62
7
  6
CONTINUOUS
 10
8.0459816294
 20
26.9032263343
 30
0.0
 11
0.79574694
 21
0.7129684349
 31
0.0
 40
0.2882345029
 41
0.1135239366
 42
0.7807533904
  0
ELLIPSE
  5
461
100
AcDbEntity
  8
RACCORDO
100
AcDbEllipse
 62
7
  6
CONTINUOUS
 10
15.4706028319
 20
23.1909157331
 30
0.0
 11
0.79574694
 21
0.7129684349
 31
0.0
 40
0.2882345029
 41
0.1135239366
 42
0.7807533904
  0
ELLIPSE
  5
462
100
AcDbEntity
  8
RACCORDO
100
AcDbEllipse
 62
7
  6
CONTINUOUS
 10
4.2021491489
 20
28.8251425746
 30
0.0
 11
-0.3106730325
 21
1.1082908718
 31
0.0
 40
0.6760995073
 41
4.9783291412
 42
6.4001141399
  0
ELLIPSE
  5
463
100
AcDbEntity
  8
RACCORDO
100
AcDbEllipse
 62
7
  6
CONTINUOUS
 10
11.6267703514
 20
25.1128319734
 30
0.0
 11
-0.3106730325
 21
1.1082908718
 31
0.0
 40
0.6760995073
 41
4.9783291412
 42
6.4001141399
  0
ELLIPSE
  5
464
100
AcDbEntity
  8
RACCORDO
100
AcDbEllipse
 62
7
  6
CONTINUOUS
 10
118.3001135831
 20
68.9340073878
 30
0.0
 11
111.4440378013
 21
57.7233873698
 31
0.0
 40
0.017156689
 41
2.654821495
 42
3.6105913739
  0
ELLIPSE
  5
465
100
AcDbEntity
  8
RACCORDO
100
AcDbEllipse
 62
7
  6
CONTINUOUS
 10
118.300113583
 20
57.2426644367
 30
0.0
 11
111.4440378013
 21
57.7233873698
 31
0.0
 40
0.017156689
 41
2.654821495
 42
3.6105913739
  0
ELLIPSE
  5
466
100
AcDbEntity
  8
0
100
AcDbEllipse
 62
7
  6
CONTINUOUS
 10
9.9896195975
 20
23.3145834185
 30
0.0
 11
3.3022643479
 21
-0.04629945
 31
0.0
 40
0.4892378494
 41
2.3616770883
 42
5.5059722822
  0
ELLIPSE
  5
467
100
AcDbEntity
  8
0
100
AcDbEllipse
 62
7
  6
CONTINUOUS
 10
2.564998395
 20
27.0268940198
 30
0.0
 11
3.3022643479
 21
-0.04629945
 31
0.0
 40
0.4892378494
 41
2.3616770883
 42
5.5059722822
  0
ELLIPSE
  5
468
100
AcDbEntity
  8
RACCORDO
100
AcDbEllipse
 62
7
  6
CONTINUOUS
 10
-4.7813042923
 20
22.856980406
 30
0.0
 11
1.2141619185
 21
0.9541526469
 31
0.0
 40
0.2329077568
 41
0.1095198182
 42
0.114024621
  0
ELLIPSE
  5
469
100
AcDbEntity
  8
DRAFT
100
AcDbEllipse
 62
7
  6
CONTINUOUS
 10
3.2602829254
 20
26.1312748752
 30
0.0
 11
2.7583876426
 21
-0.0130411979
 31
0.0
 40
0.4964289597
 41
0.1874063655
 42
2.3585415194
  0
ELLIPSE
  5
46A
100
AcDbEntity
  8
DRAFT
100
AcDbEllipse
 62
7
  6
CONTINUOUS
 10
10.6849041278
 20
22.4189642739
 30
0.0
 11
2.7583876426
 21
-0.0130411979
 31
0.0
 40
0.4964289597
 41
0.1874063655
 42
2.3585415194
  0
ENDSEC
  0
SECTION
  2
OBJECTS
  0
DICTIONARY
  5
C
100
AcDbDictionary
280
0
281
1
  3
ACAD_GROUP
350
D
  3
ACAD_MLINESTYLE
350
17
  3
ACAD_LAYOUT
350
1A
  3
ACAD_PLOTSETTINGS
350
19
  3
ACAD_PLOTSTYLENAME
350
E
  0
DICTIONARY
  5
D
102
{ACAD_REACTORS
330
C
102
}
100
AcDbDictionary
280
0
281
1
  0
ACDBDICTIONARYWDFLT
  5
E
102
{ACAD_REACTORS
330
C
102
}
100
AcDbDictionary
281
1
  3
Normal
350
F
100
AcDbDictionaryWithDefault
340
F
  0
DICTIONARY
  5
17
102
{ACAD_REACTORS
330
C
102
}
100
AcDbDictionary
280
0
281
1
  3
Standard
350
18
  0
DICTIONARY
  5
19
102
{ACAD_REACTORS
330
C
102
}
100
AcDbDictionary
281
1
  0
DICTIONARY
  5
1A
102
{ACAD_REACTORS
330
C
102
}
100
AcDbDictionary
281
1
  3
Model
350
46B
  3
Layout1
350
46C
  0
ACDBPLACEHOLDER
  5
F
102
{ACAD_REACTORS
330
E
102
}
  0
MLINESTYLE
  5
18
102
{ACAD_REACTORS
330
17
102
}
100
AcDbMlineStyle
  2
STANDARD
 70
0
  3

 62
256
 51
90.0
 52
90.0
 71
2
 49
0.5
 62
256
  6
BYLAYER
 49
-0.5
 62
256
  6
BYLAYER
  0
LAYOUT
  5
46B
102
{ACAD_REACTORS
330
1A
102
}
100
AcDbPlotSettings
  1

  2
none_device
  4
ISO_A4_(297.00_x_210.00_MM)
  6

 40
0.0
 41
0.0
 42
0.0
 43
0.0
 44
297.0
 45
210.0
 46
0.0
 47
0.0
 48
0.0
 49
0.0
140
0.0
141
0.0
142
1.0
143
1.0
 70
1024
 72
1
 73
0
 74
0
  7

 75
0
147
1.0
148
0.0
149
0.0
100
AcDbLayout
  1
Model
 70
0
 71
0
 10
0.0
 20
0.0
 11
297.0
 21
210.0
 12
0.0
 22
0.0
 32
0.0
 14
0.0
 24
0.0
 34
0.0
 15
0.0
 25
0.0
 35
0.0
146
0.0
 13
0.0
 23
0.0
 33
0.0
 16
1.0
 26
0.0
 36
0.0
 17
0.0
 27
1.0
 37
0.0
 76
0
330
219
345
0
346
0
  0
LAYOUT
  5
46C
102
{ACAD_REACTORS
330
1A
102
}
100
AcDbPlotSettings
  1

  2
none_device
  4
ISO_A4_(297.00_x_210.00_MM)
  6

 40
0.0
 41
0.0
 42
0.0
 43
0.0
 44
297.0
 45
210.0
 46
0.0
 47
0.0
 48
0.0
 49
0.0
140
0.0
141
0.0
142
1.0
143
1.0
 70
0
 72
1
 73
0
 74
0
  7

 75
0
147
1.0
148
0.0
149
0.0
100
AcDbLayout
  1
Layout1
 70
0
 71
1
 10
0.0
 20
0.0
 11
297.0
 21
210.0
 12
0.0
 22
0.0
 32
0.0
 14
0.0
 24
0.0
 34
0.0
 15
0.0
 25
0.0
 35
0.0
146
0.0
 13
0.0
 23
0.0
 33
0.0
 16
1.0
 26
0.0
 36
0.0
 17
0.0
 27
1.0
 37
0.0
 76
0
330
21A
345
0
346
0
  0
ENDSEC
  0
EOF
