  0
SECTION
  2
HEADER
  9
$ACADVER
  1
AC1024
  9
$DWGCODEPAGE
  3
ANSI_1252
  9
$EXTMAX
 10
297.0
 20
210.0
 30
0.0
  9
$EXTMIN
 10
0.0
 20
0.0
 30
0.0
  9
$LIMMIN
 10
0.0
 20
0.0
  9
$LIMMAX
 10
297.0
 20
210.0
  9
$VIEWCTR
 10
148.5
 20
105.0
  9
$VIEWSIZE
 40
210.0
  9
$CLAYER
  8
0
  9
$LTSCALE
 40
16.335
  9
$CELTYPE
  6
BYLAYER
  9
$DIMSCALE
 40
1.0
  9
$DIMASZ
 40
3.0
  9
$DIMEXO
 40
0.5
  9
$DIMDLI
 40
11.286
  9
$DIMEXE
 40
1.5
  9
$DIMCEN
 40
2.673
  9
$DIMLFAC
 40
1.0
  9
$DIMBLK
  1
_FILLED
  9
$DIMALT
 70
0
  9
$DIMALTF
 40
0.0393700787
  9
$DIMTXT
 40
3.0
  9
$DIMTOL
 70
1
  9
$DIMLIM
 70
0
  9
$DIMTFAC
 40
1.0
  9
$DIMTP
 40
0.01
  9
$DIMTM
 40
0.01
  9
$DIMGAP
 40
0.625
  9
$DIMDSEP
 70
44
  9
$AUNITS
 70
0
  9
$PDMODE
 70
3
  9
$PDSIZE
 40
3.0
  9
$HANDSEED
  5
26D
  9
$TILEMODE
 70
1
  9
$MEASUREMENT
 70
1
  9
$INSUNITS
 70
4
  0
ENDSEC
  0
SECTION
  2
CLASSES
  0
CLASS
  1
ACDBDICTIONARYWDFLT
  2
AcDbDictionaryWithDefault
  3
AutoCAD 2000
 90
0
 91
1
280
0
281
0
  0
CLASS
  1
ACDBPLACEHOLDER
  2
AcDbPlaceHolder
  3
AutoCAD 2000
 90
0
 91
1
280
0
281
0
  0
CLASS
  1
LAYOUT
  2
AcDbLayout
  3
AutoCAD 2000
 90
0
 91
0
280
0
281
0
  0
ENDSEC
  0
SECTION
  2
TABLES
  0
TABLE
  2
VPORT
  5
8
100
AcDbSymbolTable
 70
2
  0
VPORT
  5
1F4
100
AcDbSymbolTableRecord
100
AcDbViewportTableRecord
  2
*ACTIVE
 70
0
 10
0.0
 20
0.0
 11
1.0
 21
1.0
 12
148.5
 22
105.0
 13
0.0
 23
0.0
 14
1.0
 24
1.0
 15
0.0
 25
0.0
 16
0.0
 26
0.0
 36
1.0
 17
0.0
 27
0.0
 37
0.0
 40
210.0
 41
1.4142857143
 42
50.0
 43
0.0
 44
0.0
 50
0.0
 51
0.0
 71
0
 72
100
 73
1
 74
1
 75
0
 76
0
 77
0
 78
0
  0
ENDTAB
  0
TABLE
  2
LTYPE
  5
5
100
AcDbSymbolTable
 70
6
  0
LTYPE
  5
14
100
AcDbSymbolTableRecord
100
AcDbLinetypeTableRecord
  2
BYBLOCK
 70
0
  3

 72
65
 73
0
 40
0.0
  0
LTYPE
  5
15
100
AcDbSymbolTableRecord
100
AcDbLinetypeTableRecord
  2
BYLAYER
 70
0
  3

 72
65
 73
0
 40
0.0
  0
LTYPE
  5
16
100
AcDbSymbolTableRecord
100
AcDbLinetypeTableRecord
  2
CONTINUOUS
 70
64
  3
Solid line
 72
65
 73
0
 40
0.0
  0
LTYPE
  5
1F5
100
AcDbSymbolTableRecord
100
AcDbLinetypeTableRecord
  2
CENTER
 70
64
  3
____ _ ____ _ ____ _ ____ _ ____ _ ____ _ ____
 72
65
 73
4
 40
0.6
 49
0.375
 74
0
 49
-0.075
 74
0
 49
0.075
 74
0
 49
-0.075
 74
0
  0
LTYPE
  5
1F6
100
AcDbSymbolTableRecord
100
AcDbLinetypeTableRecord
  2
HIDDEN
 70
64
  3
- - - - - - - - - - - - - - - - - - - -
 72
65
 73
2
 40
0.2
 49
0.1
 74
0
 49
-0.1
 74
0
  0
LTYPE
  5
1F7
100
AcDbSymbolTableRecord
100
AcDbLinetypeTableRecord
  2
PHANTOM
 70
64
  3
_____ _ _ _____ _ _ _____ _ _ _____
 72
65
 73
6
 40
0.8
 49
0.45
 74
0
 49
-0.05
 74
0
 49
0.1
 74
0
 49
-0.05
 74
0
 49
0.1
 74
0
 49
-0.05
 74
0
  0
LTYPE
  5
1F8
100
AcDbSymbolTableRecord
100
AcDbLinetypeTableRecord
  2
DOT
 70
64
  3
. . . . . . . . . . . . . . . . . . . .
 72
65
 73
2
 40
0.2
 49
0.1
 74
0
 49
-0.1
 74
0
  0
LTYPE
  5
1F9
100
AcDbSymbolTableRecord
100
AcDbLinetypeTableRecord
  2
DASHED
 70
64
  3
- - - - - - - - - - - - - - - - - - - -
 72
65
 73
2
 40
0.2
 49
0.1
 74
0
 49
-0.1
 74
0
  0
ENDTAB
  0
TABLE
  2
LAYER
  5
2
100
AcDbSymbolTable
 70
36
  0
LAYER
  5
10
100
AcDbSymbolTableRecord
100
AcDbLayerTableRecord
  2
0
 70
0
 62
7
  6
CONTINUOUS
370
-3
390
F
  0
LAYER
  5
1FA
100
AcDbSymbolTableRecord
100
AcDbLayerTableRecord
  2
DEFAULT_1
 70
0
 62
7
  6
CENTER
370
-3
390
F
  0
LAYER
  5
1FB
100
AcDbSymbolTableRecord
100
AcDbLayerTableRecord
  2
DEFAULT_2
 70
0
 62
7
  6
HIDDEN
370
-3
390
F
  0
LAYER
  5
1FC
100
AcDbSymbolTableRecord
100
AcDbLayerTableRecord
  2
DEFAULT_3
 70
0
 62
7
  6
PHANTOM
370
-3
390
F
  0
LAYER
  5
1FD
100
AcDbSymbolTableRecord
100
AcDbLayerTableRecord
  2
ASSI
 70
0
 62
7
  6
CONTINUOUS
370
-3
390
F
  0
LAYER
  5
1FE
100
AcDbSymbolTableRecord
100
AcDbLayerTableRecord
  2
COORDINATE
 70
0
 62
7
  6
CONTINUOUS
370
-3
390
F
  0
LAYER
  5
1FF
100
AcDbSymbolTableRecord
100
AcDbLayerTableRecord
  2
COORD_ORIGINE
 70
0
 62
7
  6
CONTINUOUS
370
-3
390
F
  0
LAYER
  5
200
100
AcDbSymbolTableRecord
100
AcDbLayerTableRecord
  2
COPY_PUBLISH
 70
0
 62
7
  6
CONTINUOUS
370
-3
390
F
  0
LAYER
  5
201
100
AcDbSymbolTableRecord
100
AcDbLayerTableRecord
  2
COSMETICI
 70
0
 62
7
  6
CONTINUOUS
370
-3
390
F
  0
LAYER
  5
202
100
AcDbSymbolTableRecord
100
AcDbLayerTableRecord
  2
CURVE
 70
0
 62
7
  6
CONTINUOUS
370
-3
390
F
  0
LAYER
  5
203
100
AcDbSymbolTableRecord
100
AcDbLayerTableRecord
  2
DRAFT
 70
0
 62
7
  6
CONTINUOUS
370
-3
390
F
  0
LAYER
  5
204
100
AcDbSymbolTableRecord
100
AcDbLayerTableRecord
  2
IGES
 70
0
 62
7
  6
CONTINUOUS
370
-3
390
F
  0
LAYER
  5
205
100
AcDbSymbolTableRecord
100
AcDbLayerTableRecord
  2
IMPORT_IGES
 70
0
 62
7
  6
CONTINUOUS
370
-3
390
F
  0
LAYER
  5
206
100
AcDbSymbolTableRecord
100
AcDbLayerTableRecord
  2
INTF_1
 70
0
 62
7
  6
CONTINUOUS
370
-3
390
F
  0
LAYER
  5
207
100
AcDbSymbolTableRecord
100
AcDbLayerTableRecord
  2
INTF_5
 70
0
 62
7
  6
CONTINUOUS
370
-3
390
F
  0
LAYER
  5
208
100
AcDbSymbolTableRecord
100
AcDbLayerTableRecord
  2
INTF_8
 70
0
 62
7
  6
CONTINUOUS
370
-3
390
F
  0
LAYER
  5
209
100
AcDbSymbolTableRecord
100
AcDbLayerTableRecord
  2
INTF_CYAN
 70
0
 62
7
  6
CONTINUOUS
370
-3
390
F
  0
LAYER
  5
20A
100
AcDbSymbolTableRecord
100
AcDbLayerTableRecord
  2
NOTE
 70
0
 62
7
  6
CONTINUOUS
370
-3
390
F
  0
LAYER
  5
20B
100
AcDbSymbolTableRecord
100
AcDbLayerTableRecord
  2
PIANI
 70
0
 62
7
  6
CONTINUOUS
370
-3
390
F
  0
LAYER
  5
20C
100
AcDbSymbolTableRecord
100
AcDbLayerTableRecord
  2
PIANI_ORIGINE
 70
0
 62
7
  6
CONTINUOUS
370
-3
390
F
  0
LAYER
  5
20D
100
AcDbSymbolTableRecord
100
AcDbLayerTableRecord
  2
PUNTI
 70
0
 62
7
  6
CONTINUOUS
370
-3
390
F
  0
LAYER
  5
20E
100
AcDbSymbolTableRecord
100
AcDbLayerTableRecord
  2
RACCORDO
 70
0
 62
7
  6
CONTINUOUS
370
-3
390
F
  0
LAYER
  5
20F
100
AcDbSymbolTableRecord
100
AcDbLayerTableRecord
  2
RGB____0____0____0__
 70
0
 62
7
  6
CONTINUOUS
370
-3
390
F
  0
LAYER
  5
210
100
AcDbSymbolTableRecord
100
AcDbLayerTableRecord
  2
SIMBOLI
 70
0
 62
7
  6
CONTINUOUS
370
-3
390
F
  0
LAYER
  5
211
100
AcDbSymbolTableRecord
100
AcDbLayerTableRecord
  2
SMUSSO
 70
0
 62
7
  6
CONTINUOUS
370
-3
390
F
  0
LAYER
  5
212
100
AcDbSymbolTableRecord
100
AcDbLayerTableRecord
  2
SNAPLINE
 70
0
 62
7
  6
CONTINUOUS
370
-3
390
F
  0
LAYER
  5
213
100
AcDbSymbolTableRecord
100
AcDbLayerTableRecord
  2
SUPERFICI
 70
0
 62
7
  6
CONTINUOUS
370
-3
390
F
  0
LAYER
  5
214
100
AcDbSymbolTableRecord
100
AcDbLayerTableRecord
  2
TRASH
 70
0
 62
7
  6
CONTINUOUS
370
-3
390
F
  0
LAYER
  5
215
100
AcDbSymbolTableRecord
100
AcDbLayerTableRecord
  2
WHITE
 70
0
 62
7
  6
CONTINUOUS
370
-3
390
F
  0
ENDTAB
  0
TABLE
  2
STYLE
  5
3
100
AcDbSymbolTable
 70
1
  0
STYLE
  5
11
100
AcDbSymbolTableRecord
100
AcDbTextStyleTableRecord
  2
STANDARD
 70
0
 40
0.0
 41
0.8
 50
0.0
 71
0
 42
0.2
  3
txt
  4

  0
STYLE
  5
216
100
AcDbSymbolTableRecord
100
AcDbTextStyleTableRecord
  2
TEXTSTYLE_1
 70
0
 40
0.0
 41
0.8
 50
0.0
 71
0
 42
0.2
  3
gdt
  4

  0
ENDTAB
  0
TABLE
  2
VIEW
  5
6
100
AcDbSymbolTable
 70
0
  0
ENDTAB
  0
TABLE
  2
UCS
  5
7
100
AcDbSymbolTable
 70
0
  0
ENDTAB
  0
TABLE
  2
APPID
  5
9
100
AcDbSymbolTable
 70
1
  0
APPID
  5
217
100
AcDbSymbolTableRecord
100
AcDbRegAppTableRecord
  2
ACAD
 70
0
  0
ENDTAB
  0
TABLE
  2
BLOCK_RECORD
  5
1
100
AcDbSymbolTable
 70
0
  0
BLOCK_RECORD
  5
218
100
AcDbSymbolTableRecord
100
AcDbBlockTableRecord
  2
*Model_Space
  0
BLOCK_RECORD
  5
219
100
AcDbSymbolTableRecord
100
AcDbBlockTableRecord
  2
*Paper_Space
  0
BLOCK_RECORD
  5
21A
100
AcDbSymbolTableRecord
100
AcDbBlockTableRecord
  2
_FILLED
  0
ENDTAB
  0
TABLE
  2
DIMSTYLE
  5
A
100
AcDbSymbolTable
 70
1
100
AcDbDimStyleTable
 71
0
  0
DIMSTYLE
105
21B
100
AcDbSymbolTableRecord
100
AcDbDimStyleTableRecord
  2
STANDARD
 70
0
  3

  4

 40
1.0
 41
3.0
 42
0.5
 43
0.38
 44
1.5
 45
0.0
 46
0.0
 47
0.01
 48
0.01
140
3.0
141
0.09
142
0.0
143
25.4
144
1.0
145
0.0
146
1.0
147
0.625
 71
1
 72
0
 73
0
 74
0
 75
0
 76
0
 77
1
 78
8
 79
2
170
0
171
1
172
0
173
0
174
0
175
0
176
0
177
0
178
0
270
2
179
2
271
2
272
2
273
2
274
2
275
0
280
0
281
0
282
0
283
1
284
8
285
0
286
0
287
3
288
0
340
11
278
44
341
21A
342
21A
343
21A
344
21A
  0
ENDTAB
  0
ENDSEC
  0
SECTION
  2
BLOCKS
  0
BLOCK
  5
20
100
AcDbEntity
  8
0
100
AcDbBlockBegin
  2
*Model_Space
 70
0
 10
0.0
 20
0.0
 30
0.0
  3
*Model_Space
  1

  0
ENDBLK
  5
21
100
AcDbEntity
  8
0
100
AcDbBlockEnd
  0
BLOCK
  5
1C
100
AcDbEntity
  8
0
100
AcDbBlockBegin
  2
*Paper_Space
 70
0
 10
0.0
 20
0.0
 30
0.0
  3
*Paper_Space
  1

  0
ENDBLK
  5
1D
100
AcDbEntity
  8
0
100
AcDbBlockEnd
  0
BLOCK
  5
21C
100
AcDbEntity
  8
0
100
AcDbBlockBegin
  2
_FILLED
 70
64
 10
0.0
 20
0.0
  3
_FILLED
  1

  0
SOLID
  5
21D
100
AcDbEntity
  8
0
  6
BYBLOCK
 62
0
100
AcDbTrace
 10
0.0
 20
0.0
 11
-1.0
 21
0.3166666667
 12
-1.0
 22
-0.3166666667
 13
-1.0
 23
-0.3166666667
  0
ENDBLK
  5
21E
100
AcDbEntity
  8
0
  6
BYBLOCK
 62
0
100
AcDbBlockEnd
  0
ENDSEC
  0
SECTION
  2
ENTITIES
  0
LWPOLYLINE
  5
21F
100
AcDbEntity
  8
RACCORDO
100
AcDbPolyline
 62
7
  6
CONTINUOUS
 90
19
 70
0
 10
60.9276179977
 20
104.079034014
 10
60.9058292532
 20
104.0670559341
 10
60.8171484491
 20
104.0128471805
 10
60.7320149947
 20
103.9520006137
 10
60.6503275411
 20
103.8846421726
 10
60.5723141808
 20
103.8111280981
 10
60.4985696249
 20
103.732188135
 10
60.4290556627
 20
103.6479651556
 10
60.3639022647
 20
103.5586720536
 10
60.3038661176
 20
103.4654019419
 10
60.2489840937
 20
103.368360426
 10
60.1994026645
 20
103.2677236798
 10
60.1557731433
 20
103.1648165308
 10
60.1181779321
 20
103.059879624
 10
60.0867673315
 20
102.953058544
 10
60.0619651141
 20
102.8455708332
 10
60.0439379496
 20
102.7378842275
 10
60.0327697111
 20
102.6298480807
 10
60.0309427608
 20
102.6002913203
  0
LINE
  5
220
100
AcDbEntity
  8
RACCORDO
100
AcDbLine
 62
7
  6
CONTINUOUS
 10
60.927572501
 20
104.0790223459
 11
64.8758795362
 21
106.2026810963
  0
LINE
  5
221
100
AcDbEntity
  8
RACCORDO
100
AcDbLine
 62
250
  6
CONTINUOUS
 10
61.3015903794
 20
104.064795996
 11
65.2417147586
 21
106.1840535768
  0
LWPOLYLINE
  5
222
100
AcDbEntity
  8
RACCORDO
100
AcDbPolyline
 62
250
  6
CONTINUOUS
 90
8
 70
0
 10
60.9276126656
 20
104.0790439452
 10
60.9614849639
 20
104.0947214301
 10
61.0121406297
 20
104.1099100941
 10
61.0660207153
 20
104.117043467
 10
61.1225350707
 20
104.1160434167
 10
61.1810646928
 20
104.1069208968
 10
61.240968505
 20
104.0897758264
 10
61.3015903794
 20
104.064795996
  0
LWPOLYLINE
  5
223
100
AcDbEntity
  8
RACCORDO
100
AcDbPolyline
 62
7
  6
CONTINUOUS
 90
12
 70
0
 10
74.9854711356
 20
59.0952322966
 10
75.0807575159
 20
59.0531211041
 10
75.1718566121
 20
59.0225974067
 10
75.2658187259
 20
59.0001233887
 10
75.3621098857
 20
58.9859018057
 10
75.4606415616
 20
58.980110043
 10
75.5608007954
 20
58.9829959504
 10
75.6618162689
 20
58.9947043951
 10
75.7635409852
 20
59.0154370843
 10
75.8655810047
 20
59.0454228466
 10
75.9671136894
 20
59.084679401
 10
75.9972301273
 20
59.0981971667
  0
LINE
  5
224
100
AcDbEntity
  8
RACCORDO
100
AcDbLine
 62
7
  6
CONTINUOUS
 10
74.9863123514
 20
59.0948088122
 11
60.6481094147
 21
66.2639102805
  0
LWPOLYLINE
  5
225
100
AcDbEntity
  8
RACCORDO
100
AcDbPolyline
 62
250
  6
CONTINUOUS
 90
13
 70
0
 10
60.6481089205
 20
66.2639105276
 10
60.6197367044
 20
66.2791522268
 10
60.5655335065
 20
66.3147159721
 10
60.5150851065
 20
66.3568338832
 10
60.468641818
 20
66.4053059643
 10
60.4264554173
 20
66.4598802598
 10
60.388745601
 20
66.520269953
 10
60.3557075495
 20
66.5861582011
 10
60.3275048453
 20
66.6572165268
 10
60.3042725715
 20
66.7330968985
 10
60.2861280924
 20
66.8134202279
 10
60.2731681308
 20
66.8977759942
 10
60.2654599522
 20
66.9857375994
  0
LINE
  5
226
100
AcDbEntity
  8
RACCORDO
100
AcDbLine
 62
250
  6
CONTINUOUS
 10
74.59419346
 20
59.8213708455
 11
60.2654599522
 21
66.9857375994
  0
LINE
  5
227
100
AcDbEntity
  8
0
100
AcDbLine
 62
7
  6
CONTINUOUS
 10
67.4737240534
 20
68.7489018226
 11
67.4156258106
 21
68.7481254232
  0
LINE
  5
228
100
AcDbEntity
  8
0
100
AcDbLine
 62
7
  6
CONTINUOUS
 10
67.4156258106
 20
68.7481254232
 11
67.3560129744
 21
68.7546497709
  0
LWPOLYLINE
  5
229
100
AcDbEntity
  8
0
100
AcDbPolyline
 62
7
  6
CONTINUOUS
 90
4
 70
0
 10
67.3560129744
 20
68.7546497709
 10
67.2954663187
 20
68.7684542278
 10
67.2334023812
 20
68.7895579345
 10
67.1698204994
 20
68.8179605219
  0
LINE
  5
22A
100
AcDbEntity
  8
0
100
AcDbLine
 62
7
  6
CONTINUOUS
 10
67.5285624181
 20
68.7570392322
 11
67.4737240534
 21
68.7489018226
  0
LINE
  5
22B
100
AcDbEntity
  8
0
100
AcDbLine
 62
7
  6
CONTINUOUS
 10
66.786100197
 20
70.5863677214
 11
66.8464481697
 21
70.5896713361
  0
LINE
  5
22C
100
AcDbEntity
  8
0
100
AcDbLine
 62
7
  6
CONTINUOUS
 10
66.8464481697
 20
70.5896713361
 11
66.9090103337
 21
70.5846400453
  0
LINE
  5
22D
100
AcDbEntity
  8
0
100
AcDbLine
 62
7
  6
CONTINUOUS
 10
66.9090103337
 20
70.5846400453
 11
66.9732896202
 21
70.5712106013
  0
LWPOLYLINE
  5
22E
100
AcDbEntity
  8
0
100
AcDbPolyline
 62
7
  6
CONTINUOUS
 90
3
 70
0
 10
66.9732896202
 20
70.5712106013
 10
67.0397797717
 20
70.5494444245
 10
67.1084799509
 20
70.5193410553
  0
LWPOLYLINE
  5
22F
100
AcDbEntity
  8
0
100
AcDbPolyline
 62
7
  6
CONTINUOUS
 90
8
 70
0
 10
67.1698204994
 20
68.8179605219
 10
67.1381265502
 20
68.8346236378
 10
67.1064581887
 20
68.852959377
 10
67.0748154578
 20
68.8729677636
 10
67.0430992702
 20
68.894715024
 10
67.0114088872
 20
68.9181350286
 10
66.9800419136
 20
68.9430292895
 10
66.9490027517
 20
68.9694276275
  0
LWPOLYLINE
  5
230
100
AcDbEntity
  8
0
100
AcDbPolyline
 62
7
  6
CONTINUOUS
 90
8
 70
0
 10
67.1084799509
 20
70.5193410553
 10
67.1401732312
 20
70.5026734942
 10
67.1718314771
 20
70.484328009
 10
67.2034547316
 20
70.4643046232
 10
67.2351421397
 20
70.4425371755
 10
67.2667947302
 20
70.4190919226
 10
67.2981154118
 20
70.3941675378
 10
67.3290999301
 20
70.3677342907
  0
LWPOLYLINE
  5
231
100
AcDbEntity
  8
0
100
AcDbPolyline
 62
7
  6
CONTINUOUS
 90
20
 70
0
 10
67.1698204994
 20
68.8179605219
 10
67.101107203
 20
68.8564820395
 10
67.0340209852
 20
68.9013563883
 10
66.9685626745
 20
68.95258403
 10
66.904211624
 20
69.010723594
 10
66.8414917754
 20
69.0752182857
 10
66.7819713264
 20
69.1443957006
 10
66.7257067931
 20
69.2183984086
 10
66.6726471658
 20
69.2970869017
 10
66.6241989186
 20
69.3783654149
 10
66.5804830213
 20
69.4623255482
 10
66.5413844921
 20
69.5488790225
 10
66.5079542514
 20
69.6356593481
 10
66.4803611268
 20
69.7226014399
 10
66.4584407331
 20
69.8097728355
 10
66.4427415994
 20
69.8950045495
 10
66.4333983186
 20
69.978300342
 10
66.4302781569
 20
70.0596574666
 10
66.4335255125
 20
70.1368954377
 10
66.4433244708
 20
70.2099362118
  0
LWPOLYLINE
  5
232
100
AcDbEntity
  8
0
100
AcDbPolyline
 62
7
  6
CONTINUOUS
 90
3
 70
0
 10
67.1084799509
 20
70.5193410553
 10
67.1771858533
 20
70.4807966031
 10
67.2432677606
 20
70.4365184821
  0
LINE
  5
233
100
AcDbEntity
  8
0
100
AcDbLine
 62
7
  6
CONTINUOUS
 10
66.9182873366
 20
68.9973004097
 11
66.8881805913
 21
69.0263599786
  0
LWPOLYLINE
  5
234
100
AcDbEntity
  8
RACCORDO
100
AcDbPolyline
 62
250
  6
CONTINUOUS
 90
8
 70
0
 10
60.032441043
 20
67.2551258333
 10
60.0420640378
 20
67.2111655277
 10
60.0600336284
 20
67.168305816
 10
60.0861594233
 20
67.1270008052
 10
60.1201646148
 20
67.0876881297
 10
60.161688911
 20
67.0507843151
 10
60.2102923539
 20
67.0166803645
 10
60.2654599806
 20
66.985737616
  0
LWPOLYLINE
  5
235
100
AcDbEntity
  8
RACCORDO
100
AcDbPolyline
 62
7
  6
CONTINUOUS
 90
15
 70
0
 10
60.0310904502
 20
67.270437482
 10
60.0405651534
 20
67.1667947295
 10
60.0573980176
 20
67.0650320976
 10
60.0811035392
 20
66.9678331997
 10
60.1112155708
 20
66.875598109
 10
60.1473811472
 20
66.7883159375
 10
60.1894293174
 20
66.7057836928
 10
60.2369062379
 20
66.6284126093
 10
60.2894144594
 20
66.556392335
 10
60.3469660893
 20
66.489463811
 10
60.4091258242
 20
66.4280239173
 10
60.4754478761
 20
66.3723591722
 10
60.5460618206
 20
66.3223045239
 10
60.6207315796
 20
66.2781103289
 10
60.6489425715
 20
66.2634961146
  0
LINE
  5
236
100
AcDbEntity
  8
RACCORDO
100
AcDbLine
 62
7
  6
CONTINUOUS
 10
60.0310779612
 20
67.2704777176
 11
60.0310802419
 21
67.2704369038
  0
LWPOLYLINE
  5
237
100
AcDbEntity
  8
RACCORDO
100
AcDbPolyline
 62
250
  6
CONTINUOUS
 90
13
 70
0
 10
60.2654599522
 20
66.9857375994
 10
60.1193542129
 20
69.8500859748
 10
59.9997869413
 20
72.7303107884
 10
59.9067739313
 20
75.6260412381
 10
59.8403276067
 20
78.5369044673
 10
59.8004566043
 20
81.4625259283
 10
59.7871657766
 20
84.4025294325
 10
59.8004566044
 20
87.3565368087
 10
59.8403276068
 20
90.3241678549
 10
59.9067739315
 20
93.3050407051
 10
59.9997869415
 20
96.2987719
 10
60.1193542131
 20
99.304976434
 10
60.2654599522
 20
102.323267711
  0
LWPOLYLINE
  5
238
100
AcDbEntity
  8
RACCORDO
100
AcDbPolyline
 62
7
  6
CONTINUOUS
 90
13
 70
0
 10
60.0309441079
 20
102.6004358903
 10
59.8873033857
 20
99.6375709993
 10
59.7669027672
 20
96.6207718652
 10
59.6732439078
 20
93.6164376963
 10
59.6063443782
 20
90.6250031748
 10
59.5662117124
 20
87.6468485903
 10
59.5528512157
 20
84.682333036
 10
59.5662672932
 20
81.7318302875
 10
59.6064588713
 20
78.7957113464
 10
59.6734239459
 20
75.8743314398
 10
59.7671583452
 20
72.9680643366
 10
59.8876478591
 20
70.0773277571
 10
60.0310779612
 20
67.2704777176
  0
LWPOLYLINE
  5
239
100
AcDbEntity
  8
RACCORDO
100
AcDbPolyline
 62
250
  6
CONTINUOUS
 90
22
 70
0
 10
60.2654599522
 20
102.323267711
 10
60.2731686751
 20
102.4191373707
 10
60.2861294641
 20
102.5167766944
 10
60.304274732
 20
102.6156916769
 10
60.3275071329
 20
102.7153771556
 10
60.3557091812
 20
102.8153344903
 10
60.3887468095
 20
102.9150741105
 10
60.4264575493
 20
103.0141081115
 10
60.4686458272
 20
103.1119201926
 10
60.5150908615
 20
103.2079847824
 10
60.5655402532
 20
103.3017983946
 10
60.6197439527
 20
103.3929105951
 10
60.6774545742
 20
103.4808911384
 10
60.7383909748
 20
103.5653127224
 10
60.8022317067
 20
103.645728856
 10
60.8686458496
 20
103.7217071301
 10
60.9372831689
 20
103.7928572532
 10
61.0078005133
 20
103.8588326289
 10
61.0798592479
 20
103.9193042416
 10
61.1530982588
 20
103.9739675258
 10
61.2271350305
 20
104.0225463426
 10
61.3015903794
 20
104.064795996
  0
LINE
  5
23A
100
AcDbEntity
  8
RACCORDO
100
AcDbLine
 62
250
  6
CONTINUOUS
 10
79.8079851578
 20
98.9009183772
 11
75.6559603959
 21
96.8876109877
  0
LINE
  5
23B
100
AcDbEntity
  8
0
100
AcDbLine
 62
7
  6
CONTINUOUS
 10
66.7294539487
 20
70.5749169272
 11
66.786100197
 21
70.5863677214
  0
LWPOLYLINE
  5
23C
100
AcDbEntity
  8
0
100
AcDbPolyline
 62
7
  6
CONTINUOUS
 90
18
 70
0
 10
67.2442217533
 20
70.4358792602
 10
67.3095884796
 20
70.3845894816
 10
67.3738077367
 20
70.3263687848
 10
67.4363611159
 20
70.2617774629
 10
67.4956897618
 20
70.192494402
 10
67.5517410012
 20
70.1183801162
 10
67.6045730127
 20
70.0395771203
 10
67.6527927831
 20
69.9581870632
 10
67.6962843468
 20
69.8741225671
 10
67.7351696539
 20
69.7874743111
 10
67.7684109422
 20
69.7006101378
 10
67.7958445435
 20
69.6135961042
 10
67.8176385697
 20
69.526368616
 10
67.8332503602
 20
69.4410996245
 10
67.8425473568
 20
69.35778683
 10
67.8456639786
 20
69.2764335762
 10
67.8424548916
 20
69.1992185457
 10
67.8327341175
 20
69.1262168112
  0
LINE
  5
23D
100
AcDbEntity
  8
0
100
AcDbLine
 62
7
  6
CONTINUOUS
 10
67.3597528769
 20
70.339822097
 11
67.3897904481
 21
70.3107191091
  0
LINE
  5
23E
100
AcDbEntity
  8
0
100
AcDbLine
 62
7
  6
CONTINUOUS
 10
66.8587580732
 20
69.0565400212
 11
66.8299446701
 21
69.0879070983
  0
LINE
  5
23F
100
AcDbEntity
  8
0
100
AcDbLine
 62
7
  6
CONTINUOUS
 10
67.4191376952
 20
70.2804919227
 11
67.447870012
 21
70.2490741869
  0
LWPOLYLINE
  5
240
100
AcDbEntity
  8
0
100
AcDbPolyline
 62
7
  6
CONTINUOUS
 90
10
 70
0
 10
66.8017993055
 20
69.1203728657
 10
66.7744189192
 20
69.1537581449
 10
66.7477071103
 20
69.1882424142
 10
66.7214328842
 20
69.2242753665
 10
66.695507096
 20
69.2618560552
 10
66.670019738
 20
69.3009858979
 10
66.6450087686
 20
69.3421182712
 10
66.6203732694
 20
69.3852854469
 10
66.5962155106
 20
69.4304559038
 10
66.5728786156
 20
69.4779875406
  0
LWPOLYLINE
  5
241
100
AcDbEntity
  8
RACCORDO
100
AcDbPolyline
 62
250
  6
CONTINUOUS
 90
9
 70
0
 10
60.0309365696
 20
102.6002916428
 10
60.0324477834
 20
102.5675915522
 10
60.0420712253
 20
102.5298487737
 10
60.0600411514
 20
102.4924078703
 10
60.0861671687
 20
102.4556655319
 10
60.1201724695
 20
102.4200110471
 10
60.1616967646
 20
102.3858221786
 10
60.2103001002
 20
102.3534611605
 10
60.2654675194
 20
102.3232708611
  0
LWPOLYLINE
  5
242
100
AcDbEntity
  8
RACCORDO
100
AcDbPolyline
 62
250
  6
CONTINUOUS
 90
22
 70
0
 10
75.6559603959
 20
96.8876109877
 10
75.5796475631
 20
96.8462900763
 10
75.5037822925
 20
96.7986255089
 10
75.4287437678
 20
96.7448619817
 10
75.3549059209
 20
96.6852799251
 10
75.2826384493
 20
96.620179613
 10
75.2123057377
 20
96.549877186
 10
75.144251301
 20
96.4747190589
 10
75.0788250102
 20
96.3950957047
 10
75.0163824445
 20
96.3114272032
 10
74.9572467612
 20
96.2241591908
 10
74.9016973938
 20
96.1337198243
 10
74.8500012589
 20
96.0405295837
 10
74.8024094603
 20
95.9450383761
 10
74.7591733428
 20
95.8477502148
 10
74.7205300553
 20
95.7491824876
 10
74.6866772317
 20
95.6498504651
 10
74.6577752799
 20
95.550243082
 10
74.6339684544
 20
95.4508448157
 10
74.6153776363
 20
95.3521526083
 10
74.6020967757
 20
95.2546733204
 10
74.59419346
 20
95.1589009571
  0
LWPOLYLINE
  5
243
100
AcDbEntity
  8
RACCORDO
100
AcDbPolyline
 62
250
  6
CONTINUOUS
 90
22
 70
0
 10
76.2115805304
 20
95.9071355337
 10
76.1753577505
 20
95.8880102251
 10
76.1396476474
 20
95.8661399393
 10
76.1044502214
 20
95.8415246766
 10
76.0695774117
 20
95.8140058664
 10
76.0352172789
 20
95.7837420792
 10
76.0019340048
 20
95.7512090261
 10
75.9697566433
 20
95.7163762007
 10
75.9386561404
 20
95.6792741094
 10
75.9091095158
 20
95.6404699824
 10
75.8811451894
 20
95.599944746
 10
75.8547347414
 20
95.5577174739
 10
75.8302699313
 20
95.5144126174
 10
75.8077753713
 20
95.470003613
 10
75.7872264493
 20
95.4245170243
 10
75.7689410888
 20
95.3786569926
 10
75.7529566226
 20
95.3324078761
 10
75.739235718
 20
95.2857853166
 10
75.7279843
 20
95.2395403813
 10
75.7192710105
 20
95.1939234258
 10
75.7130272076
 20
95.1486840945
 10
75.7092528913
 20
95.1038223873
  0
LINE
  5
244
100
AcDbEntity
  8
RACCORDO
100
AcDbLine
 62
250
  6
CONTINUOUS
 10
80.3737352293
 20
97.9253549067
 11
76.2115805304
 21
95.9071355337
  0
LWPOLYLINE
  5
245
100
AcDbEntity
  8
RACCORDO
100
AcDbPolyline
 62
250
  6
CONTINUOUS
 90
16
 70
0
 10
75.7092528913
 20
95.1038223873
 10
75.6468210001
 20
95.0819659549
 10
75.5792159857
 20
95.0634152894
 10
75.5071541367
 20
95.0483669385
 10
75.4313989624
 20
95.0369803426
 10
75.3527531037
 20
95.0293761448
 10
75.2720498291
 20
95.0256349132
 10
75.1901442054
 20
95.0257962868
 10
75.1079040389
 20
95.0298585558
 10
75.0262006803
 20
95.0377786798
 10
74.9458997927
 20
95.0494727433
 10
74.8678521796
 20
95.0648168456
 10
74.792884771
 20
95.083648413
 10
74.7217918613
 20
95.1057679213
 10
74.6553266936
 20
95.13094101
 10
74.5941934797
 20
95.1589009653
  0
LWPOLYLINE
  5
246
100
AcDbEntity
  8
0
100
AcDbPolyline
 62
7
  6
CONTINUOUS
 90
10
 70
0
 10
67.4759291131
 20
70.2165546364
 10
67.503219283
 20
70.1831129614
 10
67.5298367764
 20
70.1485697684
 10
67.5560113571
 20
70.1124752186
 10
67.5818331834
 20
70.0748307982
 10
67.6072129448
 20
70.0356354877
 10
67.6321114487
 20
69.9944358261
 10
67.656630905
 20
69.9512004362
 10
67.680670456
 20
69.9059614402
 10
67.70388669
 20
69.8583608366
  0
LWPOLYLINE
  5
247
100
AcDbEntity
  8
0
100
AcDbPolyline
 62
7
  6
CONTINUOUS
 90
6
 70
0
 10
66.5502542526
 20
69.5278800278
 10
66.528452836
 20
69.5801348501
 10
66.5081461984
 20
69.6351129541
 10
66.4891122607
 20
69.6933058166
 10
66.4715765156
 20
69.7542238514
 10
66.4568823957
 20
69.8167565451
  0
LWPOLYLINE
  5
248
100
AcDbEntity
  8
0
100
AcDbPolyline
 62
7
  6
CONTINUOUS
 90
6
 70
0
 10
67.7263901567
 20
69.8084001489
 10
67.7480723896
 20
69.7560790028
 10
67.7682620419
 20
69.7010368748
 10
67.7871835169
 20
69.6427838588
 10
67.8046158256
 20
69.5818117472
 10
67.8192197768
 20
69.5192326993
  0
LWPOLYLINE
  5
249
100
AcDbEntity
  8
0
100
AcDbPolyline
 62
7
  6
CONTINUOUS
 90
5
 70
0
 10
66.4450386633
 20
69.8810762339
 10
66.436040114
 20
69.9470125468
 10
66.4312085357
 20
70.0129405229
 10
66.4306602048
 20
70.0791392196
 10
66.4342816989
 20
70.1453311493
  0
LWPOLYLINE
  5
24A
100
AcDbEntity
  8
0
100
AcDbPolyline
 62
7
  6
CONTINUOUS
 90
5
 70
0
 10
67.8309897806
 20
69.4548749165
 10
67.8399349866
 20
69.3889121692
 10
67.8447376169
 20
69.3229745874
 10
67.8452838788
 20
69.2567865946
 10
67.8416904149
 20
69.1906253525
  0
LWPOLYLINE
  5
24B
100
AcDbEntity
  8
0
100
AcDbPolyline
 62
7
  6
CONTINUOUS
 90
8
 70
0
 10
66.4430483677
 20
70.2090554876
 10
66.4594894322
 20
70.2788569798
 10
66.4816069105
 20
70.3417082535
 10
66.509866065
 20
70.3983004692
 10
66.544073134
 20
70.4488206401
 10
66.5832374462
 20
70.4918825995
 10
66.6274398032
 20
70.5272498254
 10
66.6473501728
 20
70.539799764
  0
LWPOLYLINE
  5
24C
100
AcDbEntity
  8
0
100
AcDbPolyline
 62
7
  6
CONTINUOUS
 90
7
 70
0
 10
67.8329832099
 20
69.1269490539
 10
67.816686128
 20
69.0573524819
 10
67.7947179048
 20
68.994575934
 10
67.7666349237
 20
68.9380751758
 10
67.7326271052
 20
68.8876596574
 10
67.6936752902
 20
68.8447103584
 10
67.6496916427
 20
68.8094603679
  0
LWPOLYLINE
  5
24D
100
AcDbEntity
  8
0
100
AcDbPolyline
 62
7
  6
CONTINUOUS
 90
6
 70
0
 10
66.4573011949
 20
70.2703703864
 10
66.4766994251
 20
70.3292178093
 10
66.5011926111
 20
70.3829608894
 10
66.5309809665
 20
70.4311997326
 10
66.5658607873
 20
70.4743323001
 10
66.605172938
 20
70.5109169594
  0
LWPOLYLINE
  5
24E
100
AcDbEntity
  8
RACCORDO
100
AcDbPolyline
 62
250
  6
CONTINUOUS
 90
22
 70
0
 10
75.7092528913
 20
59.8605256893
 10
75.71302144
 20
59.8192770366
 10
75.7192586862
 20
59.7799872788
 10
75.7279646299
 20
59.7426564158
 10
75.7392083237
 20
59.7070973205
 10
75.7529207151
 20
59.6734971199
 10
75.7688946468
 20
59.642417196
 10
75.7871654692
 20
59.6139114564
 10
75.807697832
 20
59.5879259935
 10
75.8301785269
 20
59.5648604657
 10
75.8546331121
 20
59.5447627812
 10
75.8810360294
 20
59.5275850319
 10
75.9089973961
 20
59.5135831527
 10
75.9385477484
 20
59.5028032023
 10
75.9696565501
 20
59.495199122
 10
76.00184231
 20
59.49088867
 10
76.0351308078
 20
59.4899305063
 10
76.0694962638
 20
59.492265971
 10
76.1043798472
 20
59.4978368422
 10
76.1395952809
 20
59.5066237126
 10
76.175328842
 20
59.5186459897
 10
76.2115805304
 20
59.5339036732
  0
LWPOLYLINE
  5
24F
100
AcDbEntity
  8
RACCORDO
100
AcDbPolyline
 62
250
  6
CONTINUOUS
 90
13
 70
0
 10
74.59419346
 20
59.8213708455
 10
74.6020961659
 20
59.7333119767
 10
74.6153761577
 20
59.6487961953
 10
74.6339661698
 20
59.5682500993
 10
74.6577729211
 20
59.4920824889
 10
74.6866756058
 20
59.420674173
 10
74.7205288159
 20
59.3543783455
 10
74.75917092
 20
59.2935225085
 10
74.8024047867
 20
59.2384244799
 10
74.8499945429
 20
59.189379165
 10
74.9016895221
 20
59.1466379643
 10
74.9572383008
 20
59.1104014286
 10
74.985411754
 20
59.0952600963
  0
LWPOLYLINE
  5
250
100
AcDbEntity
  8
0
100
AcDbPolyline
 62
7
  6
CONTINUOUS
 90
8
 70
0
 10
67.8188214421
 20
69.0656984722
 10
67.7995461612
 20
69.0069329708
 10
67.7752029713
 20
68.9532868606
 10
67.7455879087
 20
68.9051588398
 10
67.7109014427
 20
68.8621482796
 10
67.6717930153
 20
68.8256889387
 10
67.6280857558
 20
68.7959854796
 10
67.5885798871
 20
68.7763473519
  0
LWPOLYLINE
  5
251
100
AcDbEntity
  8
RACCORDO
100
AcDbPolyline
 62
250
  6
CONTINUOUS
 90
5
 70
0
 10
75.2624922226
 20
71.3921253171
 10
75.3323125302
 20
68.4873636355
 10
75.4300433269
 20
65.5973651887
 10
75.5556901139
 20
62.72175254
 10
75.7092528913
 20
59.8605256893
  0
LINE
  5
252
100
AcDbEntity
  8
RACCORDO
100
AcDbLine
 62
250
  6
CONTINUOUS
 10
75.2205879054
 20
74.3112727969
 11
75.2624922226
 21
71.3921253171
  0
LWPOLYLINE
  5
253
100
AcDbEntity
  8
RACCORDO
100
AcDbPolyline
 62
250
  6
CONTINUOUS
 90
4
 70
0
 10
75.2624918593
 20
83.1482454237
 10
75.2205877237
 20
80.1893328502
 10
75.2066160826
 20
77.2436737645
 10
75.2205879054
 20
74.3112727969
  0
LINE
  5
254
100
AcDbEntity
  8
RACCORDO
100
AcDbLine
 62
250
  6
CONTINUOUS
 10
75.3323120843
 20
86.1192652842
 11
75.2624918593
 21
83.1482454237
  0
LWPOLYLINE
  5
255
100
AcDbEntity
  8
RACCORDO
100
AcDbPolyline
 62
250
  6
CONTINUOUS
 90
13
 70
0
 10
74.59419346
 20
95.1589009571
 10
74.440250553
 20
92.1445282641
 10
74.3142708282
 20
89.1415299566
 10
74.2162700797
 20
86.150292631
 10
74.1462604562
 20
83.1712014302
 10
74.1042508696
 20
80.2046396761
 10
74.090246997
 20
77.2509888222
 10
74.1042508694
 20
74.3106287958
 10
74.1462604557
 20
71.3839380428
 10
74.2162700791
 20
68.4712931642
 10
74.3142708277
 20
65.5730688452
 10
74.4402505527
 20
62.6896378049
 10
74.59419346
 20
59.8213708455
  0
LWPOLYLINE
  5
256
100
AcDbEntity
  8
RACCORDO
100
AcDbPolyline
 62
250
  6
CONTINUOUS
 90
4
 70
0
 10
75.7092528913
 20
95.1038223873
 10
75.5556898662
 20
92.0968627326
 10
75.4300429305
 20
89.1020103649
 10
75.3323120843
 20
86.1192652842
  0
LWPOLYLINE
  5
257
100
AcDbEntity
  8
RACCORDO
100
AcDbPolyline
 62
250
  6
CONTINUOUS
 90
16
 70
0
 10
76.2115805304
 20
95.9071355337
 10
76.2080356999
 20
95.9808788713
 10
76.1984981546
 20
96.0569925953
 10
76.1830723266
 20
96.1346430558
 10
76.1619271419
 20
96.2129797667
 10
76.1352941728
 20
96.2911447126
 10
76.1034651044
 20
96.3682817465
 10
76.0667885332
 20
96.4435459855
 10
76.0256661568
 20
96.5161130446
 10
75.9805483823
 20
96.5851880604
 10
75.9319293706
 20
96.6500144363
 10
75.8803416394
 20
96.7098821001
 10
75.8263502471
 20
96.7641352712
 10
75.770546571
 20
96.8121796829
 10
75.7135418274
 20
96.8534890854
 10
75.6559603979
 20
96.8876109887
  0
LWPOLYLINE
  5
258
100
AcDbEntity
  8
RACCORDO
100
AcDbPolyline
 62
250
  6
CONTINUOUS
 90
10
 70
0
 10
76.2115805304
 20
59.5339036732
 10
76.2080356297
 20
59.4628354503
 10
76.1984979041
 20
59.395723657
 10
76.1830718205
 20
59.3333033708
 10
76.1619263413
 20
59.2762582825
 10
76.1352930733
 20
59.2252132085
 10
76.1034637315
 20
59.1807272467
 10
76.0667869434
 20
59.1432876532
 10
76.025664431
 20
59.1133045047
 10
75.997655243
 20
59.0983855926
  0
LINE
  5
259
100
AcDbEntity
  8
0
100
AcDbLine
 62
7
  6
CONTINUOUS
 10
66.605172938
 20
70.5109169594
 11
66.6473764857
 21
70.5397527971
  0
LINE
  5
25A
100
AcDbEntity
  8
RACCORDO
100
AcDbLine
 62
7
  6
CONTINUOUS
 10
80.3737352293
 20
61.4654216308
 11
80.3737352293
 21
97.9253549067
  0
LINE
  5
25B
100
AcDbEntity
  8
0
100
AcDbLine
 62
7
  6
CONTINUOUS
 10
66.6473501728
 20
70.539799764
 11
66.6765932625
 21
70.5551554524
  0
LWPOLYLINE
  5
25C
100
AcDbEntity
  8
0
100
AcDbPolyline
 62
7
  6
CONTINUOUS
 90
9
 70
0
 10
66.6473764857
 20
70.5397527971
 10
66.697432021
 20
70.5640234984
 10
66.7490212381
 20
70.5799291778
 10
66.8040446111
 20
70.5881690688
 10
66.8623093357
 20
70.5890341394
 10
66.9220617665
 20
70.5825790499
 10
66.9827163666
 20
70.5688214777
 10
67.0448559824
 20
70.5477422675
 10
67.1084799509
 20
70.5193410553
  0
LINE
  5
25D
100
AcDbEntity
  8
0
100
AcDbLine
 62
7
  6
CONTINUOUS
 10
66.6765932625
 20
70.5551554524
 11
66.7294539487
 21
70.5749169272
  0
LWPOLYLINE
  5
25E
100
AcDbEntity
  8
0
100
AcDbPolyline
 62
7
  6
CONTINUOUS
 90
3
 70
0
 10
67.6496916427
 20
68.8094603679
 10
67.6007578554
 20
68.7816731897
 10
67.5886165803
 20
68.7762751849
  0
LINE
  5
25F
100
AcDbEntity
  8
0
100
AcDbLine
 62
7
  6
CONTINUOUS
 10
67.5885798871
 20
68.7763473519
 11
67.5799517512
 21
68.7728305856
  0
LWPOLYLINE
  5
260
100
AcDbEntity
  8
0
100
AcDbPolyline
 62
7
  6
CONTINUOUS
 90
8
 70
0
 10
67.5886165803
 20
68.7762751849
 10
67.5481074731
 20
68.7620245397
 10
67.4916557911
 20
68.7506776465
 10
67.4314820109
 20
68.7474662215
 10
67.3690651395
 20
68.7525714816
 10
67.3048969553
 20
68.7660531507
 10
67.2384823543
 20
68.7878496529
 10
67.1698204994
 20
68.8179605219
  0
LINE
  5
261
100
AcDbEntity
  8
0
100
AcDbLine
 62
7
  6
CONTINUOUS
 10
67.5799517512
 20
68.7728305856
 11
67.5285624181
 21
68.7570392322
  0
LINE
  5
262
100
AcDbEntity
  8
RACCORDO
100
AcDbLine
 62
250
  6
CONTINUOUS
 10
74.59419346
 20
95.1589009571
 11
60.2654599522
 21
102.323267711
  0
LINE
  5
263
100
AcDbEntity
  8
RACCORDO
100
AcDbLine
 62
250
  6
CONTINUOUS
 10
75.6559603959
 20
96.8876109877
 11
61.3015903794
 21
104.064795996
  0
LINE
  5
264
100
AcDbEntity
  8
RACCORDO
100
AcDbLine
 62
7
  6
CONTINUOUS
 10
65.2417147586
 20
106.1840535768
 11
79.8079851578
 21
98.9009183772
  0
LWPOLYLINE
  5
265
100
AcDbEntity
  8
RACCORDO
100
AcDbPolyline
 62
250
  6
CONTINUOUS
 90
16
 70
0
 10
75.7092528913
 20
59.8605256894
 10
75.6468213924
 20
59.8289799593
 10
75.5792169104
 20
59.8008426472
 10
75.5071557181
 20
59.7764118692
 10
75.4314013069
 20
59.7559464705
 10
75.3527562984
 20
59.7396632829
 10
75.27205394
 20
59.7277348276
 10
75.1901492768
 20
59.720287487
 10
75.1079100925
 20
59.7174001661
 10
75.0262077151
 20
59.7191034562
 10
74.9459077848
 20
59.7253793109
 10
74.8678610832
 20
59.736161237
 10
74.7928945185
 20
59.7513349996
 10
74.7218023651
 20
59.7707398318
 10
74.6553378474
 20
59.7941701386
 10
74.5942051602
 20
59.8213776747
  0
LINE
  5
266
100
AcDbEntity
  8
RACCORDO
100
AcDbLine
 62
250
  6
CONTINUOUS
 10
76.2115805304
 20
59.5339036732
 11
80.3737352293
 21
61.4654216308
  0
LINE
  5
267
100
AcDbEntity
  8
RACCORDO
100
AcDbLine
 62
7
  6
CONTINUOUS
 10
75.997655243
 20
59.0983855926
 11
80.1579934414
 21
61.0290605725
  0
ELLIPSE
  5
268
100
AcDbEntity
  8
RACCORDO
100
AcDbEllipse
 62
7
  6
CONTINUOUS
 10
65.2418440247
 20
105.4911422393
 30
0.0
 11
-0.3581094316
 21
0.7156156536
 31
0.0
 40
0.6122726162
 41
-0.6849834533
 42
0.0180620089
  0
ELLIPSE
  5
269
100
AcDbEntity
  8
RACCORDO
100
AcDbEllipse
 62
7
  6
CONTINUOUS
 10
79.8078558917
 20
98.2081363057
 30
0.0
 11
-0.3579654214
 21
0.7154874336
 31
0.0
 40
0.6125467905
 41
-2.2556795818
 42
-0.6851116891
  0
ELLIPSE
  5
26A
100
AcDbEntity
  8
RACCORDO
100
AcDbEllipse
 62
7
  6
CONTINUOUS
 10
79.8078558917
 20
61.7485195694
 30
0.0
 11
-0.3581094316
 21
0.7156156536
 31
0.0
 40
0.6122726162
 41
-3.1596546637
 42
-2.2560082141
  0
ENDSEC
  0
SECTION
  2
OBJECTS
  0
DICTIONARY
  5
C
100
AcDbDictionary
280
0
281
1
  3
ACAD_GROUP
350
D
  3
ACAD_MLINESTYLE
350
17
  3
ACAD_LAYOUT
350
1A
  3
ACAD_PLOTSETTINGS
350
19
  3
ACAD_PLOTSTYLENAME
350
E
  0
DICTIONARY
  5
D
102
{ACAD_REACTORS
330
C
102
}
100
AcDbDictionary
280
0
281
1
  0
ACDBDICTIONARYWDFLT
  5
E
102
{ACAD_REACTORS
330
C
102
}
100
AcDbDictionary
281
1
  3
Normal
350
F
100
AcDbDictionaryWithDefault
340
F
  0
DICTIONARY
  5
17
102
{ACAD_REACTORS
330
C
102
}
100
AcDbDictionary
280
0
281
1
  3
Standard
350
18
  0
DICTIONARY
  5
19
102
{ACAD_REACTORS
330
C
102
}
100
AcDbDictionary
281
1
  0
DICTIONARY
  5
1A
102
{ACAD_REACTORS
330
C
102
}
100
AcDbDictionary
281
1
  3
Model
350
26B
  3
Layout1
350
26C
  0
ACDBPLACEHOLDER
  5
F
102
{ACAD_REACTORS
330
E
102
}
  0
MLINESTYLE
  5
18
102
{ACAD_REACTORS
330
17
102
}
100
AcDbMlineStyle
  2
STANDARD
 70
0
  3

 62
256
 51
90.0
 52
90.0
 71
2
 49
0.5
 62
256
  6
BYLAYER
 49
-0.5
 62
256
  6
BYLAYER
  0
LAYOUT
  5
26B
102
{ACAD_REACTORS
330
1A
102
}
100
AcDbPlotSettings
  1

  2
none_device
  4
ISO_A4_(297.00_x_210.00_MM)
  6

 40
0.0
 41
0.0
 42
0.0
 43
0.0
 44
297.0
 45
210.0
 46
0.0
 47
0.0
 48
0.0
 49
0.0
140
0.0
141
0.0
142
1.0
143
1.0
 70
1024
 72
1
 73
0
 74
0
  7

 75
0
147
1.0
148
0.0
149
0.0
100
AcDbLayout
  1
Model
 70
0
 71
0
 10
0.0
 20
0.0
 11
297.0
 21
210.0
 12
0.0
 22
0.0
 32
0.0
 14
0.0
 24
0.0
 34
0.0
 15
0.0
 25
0.0
 35
0.0
146
0.0
 13
0.0
 23
0.0
 33
0.0
 16
1.0
 26
0.0
 36
0.0
 17
0.0
 27
1.0
 37
0.0
 76
0
330
218
345
0
346
0
  0
LAYOUT
  5
26C
102
{ACAD_REACTORS
330
1A
102
}
100
AcDbPlotSettings
  1

  2
none_device
  4
ISO_A4_(297.00_x_210.00_MM)
  6

 40
0.0
 41
0.0
 42
0.0
 43
0.0
 44
297.0
 45
210.0
 46
0.0
 47
0.0
 48
0.0
 49
0.0
140
0.0
141
0.0
142
1.0
143
1.0
 70
0
 72
1
 73
0
 74
0
  7

 75
0
147
1.0
148
0.0
149
0.0
100
AcDbLayout
  1
Layout1
 70
0
 71
1
 10
0.0
 20
0.0
 11
297.0
 21
210.0
 12
0.0
 22
0.0
 32
0.0
 14
0.0
 24
0.0
 34
0.0
 15
0.0
 25
0.0
 35
0.0
146
0.0
 13
0.0
 23
0.0
 33
0.0
 16
1.0
 26
0.0
 36
0.0
 17
0.0
 27
1.0
 37
0.0
 76
0
330
219
345
0
346
0
  0
ENDSEC
  0
EOF
