0
SECTION
2
HEADER
9
$ACADVER
1
AC1015
9
$DWGCODEPAGE
3
ANSI_1252
9
$EXTMAX
10
431.8000000000
20
558.8000000000
30
0.0000000000
9
$EXTMIN
10
0.0000000000
20
0.0000000000
30
0.0000000000
9
$LIMMIN
10
0.0000000000
20
0.0000000000
9
$LIMMAX
10
431.8000000000
20
558.8000000000
9
$VIEWCTR
10
215.9000000000
20
279.4000000000
9
$VIEWSIZE
40
558.8000000000
9
$CLAYER
8
0
9
$LTSCALE
40
36.4254814815
9
$CELTYPE
6
BYLAYER
9
$DIMSCALE
40
1
9
$DIMASZ
40
3.0000000000
9
$DIMEXO
40
4.1392592593
9
$DIMDLI
40
25.1666962963
9
$DIMEXE
40
11.9210666667
9
$DIMCEN
40
5.9605333333
9
$DIMLFAC
40
1.0000000000
9
$DIMBLK
1
_FILLED
9
$DIMTXT
40
3.0000000000
9
$DIMTOL
70
1
9
$DIMLIM
70
0
9
$DIMTFAC
40
1.0000000000
9
$DIMTP
40
0.0100000000
9
$DIMTM
40
0.0100000000
9
$PDMODE
70
3
9
$PDSIZE
40
3.0000000000
9
$HANDSEED
5
39A
9
$MEASUREMENT
70
1
9
$INSUNITS
70
4
0
ENDSEC
0
SECTION
2
CLASSES
0
CLASS
1
ACDBDICTIONARYWDFLT
2
AcDbDictionaryWithDefault
3
AutoCAD 2000
90
0
280
0
281
0
0
CLASS
1
ACDBPLACEHOLDER
2
AcDbPlaceHolder
3
AutoCAD 2000
90
0
280
0
281
0
0
CLASS
1
LAYOUT
2
AcDbLayout
3
AutoCAD 2000
90
0
280
0
281
0
0
ENDSEC
0
SECTION
2
TABLES
0
TABLE
2
VPORT
5
8
100
AcDbSymbolTable
70
2
0
VPORT
5
1F4
100
AcDbSymbolTableRecord
100
AcDbViewportTableRecord
2
*ACTIVE
70
0
10
0.0
20
0.0
11
1.0
21
1.0
12
215.9000000000
22
279.4000000000
13
0.0
23
0.0
14
1.0
24
1.0
15
0.0
25
0.0
16
0.0
26
0.0
36
1.0
17
0.0
27
0.0
37
0.0
40
558.8000000000
41
0.7727272727
42
50.0
43
0.0
44
0.0
50
0.0
51
0.0
71
0
72
100
73
1
74
1
75
0
76
0
77
0
78
0
0
ENDTAB
0
TABLE
2
LTYPE
5
5
100
AcDbSymbolTable
70
6
0
LTYPE
5
14
100
AcDbSymbolTableRecord
100
AcDbLinetypeTableRecord
2
BYBLOCK
70
0
3

72
65
73
0
40
0.0
0
LTYPE
5
15
100
AcDbSymbolTableRecord
100
AcDbLinetypeTableRecord
2
BYLAYER
70
0
3

72
65
73
0
40
0.0
0
LTYPE
5
16
100
AcDbSymbolTableRecord
100
AcDbLinetypeTableRecord
2
CONTINUOUS
70
64
3
Solid line
72
65
73
0
40
0
0
LTYPE
5
1F5
100
AcDbSymbolTableRecord
100
AcDbLinetypeTableRecord
2
CENTER
70
64
3
____ _ ____ _ ____ _ ____ _ ____ _ ____ _ ____
72
65
73
4
40
0.6
49
0.375
74
0
49
-0.075
74
0
49
0.075
74
0
49
-0.075
74
0
0
LTYPE
5
1F6
100
AcDbSymbolTableRecord
100
AcDbLinetypeTableRecord
2
HIDDEN
70
64
3
- - - - - - - - - - - - - - - - - - - -
72
65
73
2
40
0.2
49
0.1
74
0
49
-0.1
74
0
0
LTYPE
5
1F7
100
AcDbSymbolTableRecord
100
AcDbLinetypeTableRecord
2
PHANTOM
70
64
3
_____ _ _ _____ _ _ _____ _ _ _____
72
65
73
6
40
0.8
49
0.45
74
0
49
-0.05
74
0
49
0.1
74
0
49
-0.05
74
0
49
0.1
74
0
49
-0.05
74
0
0
LTYPE
5
1F8
100
AcDbSymbolTableRecord
100
AcDbLinetypeTableRecord
2
DOT
70
64
3
. . . . . . . . . . . . . . . . . . . .
72
65
73
2
40
0.2
49
0.1
74
0
49
-0.1
74
0
0
LTYPE
5
1F9
100
AcDbSymbolTableRecord
100
AcDbLinetypeTableRecord
2
DASHED
70
64
3
- - - - - - - - - - - - - - - - - - - -
72
65
73
2
40
0.2
49
0.1
74
0
49
-0.1
74
0
0
ENDTAB
0
TABLE
2
LAYER
5
2
100
AcDbSymbolTable
70
36
0
LAYER
5
10
100
AcDbSymbolTableRecord
100
AcDbLayerTableRecord
2
0
70
0
62
7
6
CONTINUOUS
370
-3
390
F
0
LAYER
5
1FA
100
AcDbSymbolTableRecord
100
AcDbLayerTableRecord
2
DEFAULT_1
70
0
62
7
6
CENTER
370
-3
390
F
0
LAYER
5
1FB
100
AcDbSymbolTableRecord
100
AcDbLayerTableRecord
2
DEFAULT_2
70
0
62
9
6
HIDDEN
370
-3
390
F
0
LAYER
5
1FC
100
AcDbSymbolTableRecord
100
AcDbLayerTableRecord
2
DEFAULT_3
70
0
62
7
6
PHANTOM
370
-3
390
F
0
LAYER
5
1FD
100
AcDbSymbolTableRecord
100
AcDbLayerTableRecord
2
_BLACK_HOLE
70
0
62
7
6
CONTINUOUS
370
-3
390
F
0
LAYER
5
1FE
100
AcDbSymbolTableRecord
100
AcDbLayerTableRecord
2
ASSI
70
0
62
7
6
CONTINUOUS
370
-3
390
F
0
LAYER
5
1FF
100
AcDbSymbolTableRecord
100
AcDbLayerTableRecord
2
COORDINATE
70
0
62
7
6
CONTINUOUS
370
-3
390
F
0
LAYER
5
200
100
AcDbSymbolTableRecord
100
AcDbLayerTableRecord
2
COORD_ORIGINE
70
0
62
7
6
CONTINUOUS
370
-3
390
F
0
LAYER
5
201
100
AcDbSymbolTableRecord
100
AcDbLayerTableRecord
2
COPY_PUBLISH
70
0
62
7
6
CONTINUOUS
370
-3
390
F
0
LAYER
5
202
100
AcDbSymbolTableRecord
100
AcDbLayerTableRecord
2
COSMETIC
70
0
62
7
6
CONTINUOUS
370
-3
390
F
0
LAYER
5
203
100
AcDbSymbolTableRecord
100
AcDbLayerTableRecord
2
CURVE
70
0
62
7
6
CONTINUOUS
370
-3
390
F
0
LAYER
5
204
100
AcDbSymbolTableRecord
100
AcDbLayerTableRecord
2
DRAFT
70
0
62
7
6
CONTINUOUS
370
-3
390
F
0
LAYER
5
205
100
AcDbSymbolTableRecord
100
AcDbLayerTableRecord
2
IMPORT
70
0
62
7
6
CONTINUOUS
370
-3
390
F
0
LAYER
5
206
100
AcDbSymbolTableRecord
100
AcDbLayerTableRecord
2
IMPORT_IGES
70
0
62
7
6
CONTINUOUS
370
-3
390
F
0
LAYER
5
207
100
AcDbSymbolTableRecord
100
AcDbLayerTableRecord
2
NOTE
70
0
62
7
6
CONTINUOUS
370
-3
390
F
0
LAYER
5
208
100
AcDbSymbolTableRecord
100
AcDbLayerTableRecord
2
PIANI
70
0
62
7
6
CONTINUOUS
370
-3
390
F
0
LAYER
5
209
100
AcDbSymbolTableRecord
100
AcDbLayerTableRecord
2
PIANI_ORIGINE
70
0
62
7
6
CONTINUOUS
370
-3
390
F
0
LAYER
5
20A
100
AcDbSymbolTableRecord
100
AcDbLayerTableRecord
2
PUNTI
70
0
62
7
6
CONTINUOUS
370
-3
390
F
0
LAYER
5
20B
100
AcDbSymbolTableRecord
100
AcDbLayerTableRecord
2
RACCORDO
70
0
62
7
6
CONTINUOUS
370
-3
390
F
0
LAYER
5
20C
100
AcDbSymbolTableRecord
100
AcDbLayerTableRecord
2
SMUSSO
70
0
62
7
6
CONTINUOUS
370
-3
390
F
0
LAYER
5
20D
100
AcDbSymbolTableRecord
100
AcDbLayerTableRecord
2
SUPERFICI
70
0
62
7
6
CONTINUOUS
370
-3
390
F
0
LAYER
5
20E
100
AcDbSymbolTableRecord
100
AcDbLayerTableRecord
2
TRASH
70
0
62
7
6
CONTINUOUS
370
-3
390
F
0
LAYER
5
20F
100
AcDbSymbolTableRecord
100
AcDbLayerTableRecord
2
XSEC_DATUMS
70
0
62
7
6
CONTINUOUS
370
-3
390
F
0
ENDTAB
0
TABLE
2
STYLE
5
3
100
AcDbSymbolTable
70
1
0
STYLE
5
11
100
AcDbSymbolTableRecord
100
AcDbTextStyleTableRecord
2
STANDARD
70
0
40
0.0
41
0.8000000000
50
0.0
71
0
42
0.2
3
txt
4

0
ENDTAB
0
TABLE
2
VIEW
5
6
100
AcDbSymbolTable
70
0
0
ENDTAB
0
TABLE
2
UCS
5
7
100
AcDbSymbolTable
70
0
0
ENDTAB
0
TABLE
2
APPID
5
9
100
AcDbSymbolTable
70
1
0
APPID
5
210
100
AcDbSymbolTableRecord
100
AcDbRegAppTableRecord
2
ACAD
70
0
0
ENDTAB
0
TABLE
2
BLOCK_RECORD
5
1
100
AcDbSymbolTable
70
0
0
BLOCK_RECORD
5
1F
100
AcDbSymbolTableRecord
100
AcDbBlockTableRecord
2
*MODEL_SPACE
0
BLOCK_RECORD
5
1B
100
AcDbSymbolTableRecord
100
AcDbBlockTableRecord
2
*PAPER_SPACE
0
ENDTAB
0
TABLE
2
DIMSTYLE
5
A
100
AcDbSymbolTable
70
1
100
AcDbDimStyleTable
71
0
0
DIMSTYLE
105
211
100
AcDbSymbolTableRecord
100
AcDbDimStyleTableRecord
2
STANDARD
70
0
3

4

40
1.0
41
3.0000000000
42
0.0625
43
0.38
44
0.18
45
0.0
46
0.0
47
0.0100000000
48
0.0100000000
140
3.0000000000
141
0.09
142
0.0
143
25.4
144
1.0000000000
145
0.0
146
1.0000000000
147
0.09
71
1
72
0
73
0
74
0
75
0
76
0
77
1
78
8
170
0
171
2
172
0
173
0
174
0
175
0
176
0
177
0
178
0
270
2
271
2
272
2
273
2
274
2
275
0
280
0
281
0
282
0
283
1
284
8
285
0
286
0
287
3
288
0
340
11
0
ENDTAB
0
ENDSEC
0
SECTION
2
BLOCKS
0
BLOCK
5
20
100
AcDbEntity
8
0
100
AcDbBlockBegin
2
*MODEL_SPACE
70
0
10
0.0
20
0.0
30
0.0
3
*MODEL_SPACE
1

0
ENDBLK
5
21
100
AcDbEntity
8
0
100
AcDbBlockEnd
0
BLOCK
5
1C
100
AcDbEntity
8
0
100
AcDbBlockBegin
2
*PAPER_SPACE
70
0
10
0.0
20
0.0
30
0.0
3
*PAPER_SPACE
1

0
ENDBLK
5
1D
100
AcDbEntity
8
0
100
AcDbBlockEnd
0
ENDSEC
0
SECTION
2
ENTITIES
0
LWPOLYLINE
5
212
100
AcDbEntity
8
0
100
AcDbPolyline
62
0
6
CONTINUOUS
90
9
70
0
10
-7.8041487041
20
22.9492097617
10
-7.9663113858
20
22.8412288918
10
-8.1197611132
20
22.7073732085
10
-8.2578797970
20
22.5535523693
10
-8.3808294411
20
22.3800879795
10
-8.4866108968
20
22.1884043458
10
-8.5691955456
20
21.9893253483
10
-8.6276706640
20
21.7878407493
10
-8.6625188113
20
21.5816830734
0
LWPOLYLINE
5
213
100
AcDbEntity
8
0
100
AcDbPolyline
62
0
6
CONTINUOUS
90
5
70
0
10
-7.7735588476
20
22.9662046907
10
-7.9137905926
20
22.8796527512
10
-8.0424450693
20
22.7790868780
10
-8.1629243909
20
22.6631334767
10
-8.2740265671
20
22.5330242813
0
LINE
5
214
100
AcDbEntity
8
0
100
AcDbLine
62
0
6
CONTINUOUS
10
-7.7741201182
20
22.9659021780
11
-7.8041487041
21
22.9492097617
0
LINE
5
215
100
AcDbEntity
8
0
100
AcDbLine
62
0
6
CONTINUOUS
10
-7.7741202665
20
22.9659024531
11
-3.8432794007
21
25.0866813496
0
LINE
5
216
100
AcDbEntity
8
0
100
AcDbLine
62
9
6
CONTINUOUS
10
-7.4039650855
20
22.9497073584
11
-3.4771992939
21
25.0682875896
0
LWPOLYLINE
5
217
100
AcDbEntity
8
0
100
AcDbPolyline
62
0
6
CONTINUOUS
90
6
70
0
10
6.2543771453
20
-21.5494058996
10
6.3852989273
20
-21.5800000522
10
6.5205567601
20
-21.5944260350
10
6.6586426071
20
-21.5922343192
10
6.7993079209
20
-21.5728919175
10
6.9414988851
20
-21.5356535597
0
LWPOLYLINE
5
218
100
AcDbEntity
8
0
100
AcDbPolyline
62
0
6
CONTINUOUS
90
7
70
0
10
-8.3730480524
20
22.3923811173
10
-8.4598999275
20
22.2418433789
10
-8.5338800474
20
22.0821816788
10
-8.5925835502
20
21.9183450442
10
-8.6354373267
20
21.7524827536
10
-8.6622999330
20
21.5837145693
10
-8.6697720564
20
21.4910081093
0
LWPOLYLINE
5
219
100
AcDbEntity
8
0
100
AcDbPolyline
62
0
6
CONTINUOUS
90
6
70
0
10
6.1298144538
20
-21.5034800887
10
6.2613961875
20
-21.5514852527
10
6.4007484092
20
-21.5825047294
10
6.5454703459
20
-21.5952737630
10
6.6934080380
20
-21.5890557315
10
6.8432290110
20
-21.5633088896
0
LINE
5
21A
100
AcDbEntity
8
0
100
AcDbLine
62
0
6
CONTINUOUS
10
6.0804618760
20
-21.4802240962
11
6.1301215516
21
-21.5036173675
0
LINE
5
21B
100
AcDbEntity
8
0
100
AcDbLine
62
0
6
CONTINUOUS
10
6.0826247978
20
-21.4813117719
11
-8.0509660051
21
-14.4145163704
0
LINE
5
21C
100
AcDbEntity
8
0
100
AcDbLine
62
0
6
CONTINUOUS
10
-8.0810955234
20
-14.3975415314
11
-8.0495691843
21
-14.4152120671
0
LWPOLYLINE
5
21D
100
AcDbEntity
8
0
100
AcDbPolyline
62
0
6
CONTINUOUS
90
3
70
0
10
-8.2326824219
20
-14.2991135689
10
-8.0699159562
20
-14.4048006154
10
-8.0501031658
20
-14.4149466329
0
LINE
5
21E
100
AcDbEntity
8
0
100
AcDbLine
62
0
6
CONTINUOUS
10
1.3538777620
20
-15.8411934248
11
1.6286613902
21
-15.7806490532
0
LWPOLYLINE
5
21F
100
AcDbEntity
8
0
100
AcDbPolyline
62
0
6
CONTINUOUS
90
3
70
0
10
1.2697197104
20
-15.8504328004
10
1.4290547924
20
-15.8294263438
10
1.5830661098
20
-15.7941718610
0
LINE
5
220
100
AcDbEntity
8
0
100
AcDbLine
62
0
6
CONTINUOUS
10
1.0627725555
20
-15.8566876394
11
1.3538777620
21
-15.8411934248
0
LWPOLYLINE
5
221
100
AcDbEntity
8
0
100
AcDbPolyline
62
0
6
CONTINUOUS
90
3
70
0
10
0.9374605474
20
-15.8498655584
10
1.1056368702
20
-15.8572315879
10
1.2697197104
20
-15.8504328004
0
LINE
5
222
100
AcDbEntity
8
0
100
AcDbLine
62
0
6
CONTINUOUS
10
0.7591419488
20
-15.8273666832
11
1.0627725555
21
-15.8566876394
0
LWPOLYLINE
5
223
100
AcDbEntity
8
0
100
AcDbPolyline
62
0
6
CONTINUOUS
90
3
70
0
10
0.5912424263
20
-15.7932248727
10
0.7658156844
20
-15.8284689721
10
0.9374605474
20
-15.8498655584
0
LINE
5
224
100
AcDbEntity
8
0
100
AcDbLine
62
0
6
CONTINUOUS
10
0.4463694376
20
-15.7541355124
11
0.7591419488
21
-15.8273666832
0
LINE
5
225
100
AcDbEntity
8
0
100
AcDbLine
62
0
6
CONTINUOUS
10
0.4142394258
20
-15.7442894215
11
0.5912424263
21
-15.7932248727
0
LINE
5
226
100
AcDbEntity
8
0
100
AcDbLine
62
0
6
CONTINUOUS
10
0.1276351853
20
-15.6381696196
11
0.4463694376
21
-15.7541355124
0
LWPOLYLINE
5
227
100
AcDbEntity
8
0
100
AcDbPolyline
62
0
6
CONTINUOUS
90
3
70
0
10
0.0553418415
20
-15.6063164133
10
0.2353763435
20
-15.6818708983
10
0.4142394258
20
-15.7442894215
0
LINE
5
228
100
AcDbEntity
8
0
100
AcDbLine
62
9
6
CONTINUOUS
10
5.6920221429
20
-20.7544860331
11
-8.4352488985
21
-13.6908505124
0
LINE
5
229
100
AcDbEntity
8
0
100
AcDbLine
62
0
6
CONTINUOUS
10
-8.3723386597
20
-14.1671124557
11
-8.2326824219
21
-14.2991135689
0
LWPOLYLINE
5
22A
100
AcDbEntity
8
0
100
AcDbPolyline
62
0
6
CONTINUOUS
90
4
70
0
10
-8.4063109198
20
-14.1268452588
10
-8.3254009391
20
-14.2168878470
10
-8.2364461532
20
-14.2961341178
10
-8.2340124750
20
-14.2978564213
0
LINE
5
22B
100
AcDbEntity
8
0
100
AcDbLine
62
0
6
CONTINUOUS
10
-8.4903937409
20
-14.0068687969
11
-8.3723386597
21
-14.1671124557
0
LINE
5
22C
100
AcDbEntity
8
0
100
AcDbLine
62
0
6
CONTINUOUS
10
-0.0622842198
20
-15.5501799927
11
0.1276351853
21
-15.6381696196
0
LINE
5
22D
100
AcDbEntity
8
0
100
AcDbLine
62
0
6
CONTINUOUS
10
-0.0622480619
20
-15.5501981128
11
0.0553418415
21
-15.6063164133
0
LINE
5
22E
100
AcDbEntity
8
0
100
AcDbLine
62
9
6
CONTINUOUS
10
-0.0020616135
20
-15.7792858292
11
-2.9719100945
21
-14.2943615888
0
LINE
5
22F
100
AcDbEntity
8
0
100
AcDbLine
62
9
6
CONTINUOUS
10
0.0672937326
20
-15.6529491714
11
-2.9025547484
21
-14.1680249309
0
LINE
5
230
100
AcDbEntity
8
0
100
AcDbLine
62
0
6
CONTINUOUS
10
-3.0320834474
20
-14.0652899553
11
-0.0622349668
21
-15.5502141956
0
LINE
5
231
100
AcDbEntity
8
0
100
AcDbLine
62
9
6
CONTINUOUS
10
-3.0579566562
20
-14.0161054079
11
-0.0881081752
21
-15.5010296484
0
LINE
5
232
100
AcDbEntity
8
0
100
AcDbLine
62
0
6
CONTINUOUS
10
-3.1777723350
20
-13.9883486786
11
-3.0320697279
21
-14.0652908066
0
LINE
5
233
100
AcDbEntity
8
0
100
AcDbLine
62
0
6
CONTINUOUS
10
-3.3796059068
20
-13.8683516244
11
-3.1773589238
21
-13.9885669767
0
LINE
5
234
100
AcDbEntity
8
0
100
AcDbLine
62
0
6
CONTINUOUS
10
-3.5634526873
20
-13.7453872199
11
-3.1777723350
21
-13.9883486786
0
LINE
5
235
100
AcDbEntity
8
0
100
AcDbLine
62
0
6
CONTINUOUS
10
-3.5810789129
20
-13.7329044634
11
-3.3796059068
21
-13.8683516244
0
LINE
5
236
100
AcDbEntity
8
0
100
AcDbLine
62
0
6
CONTINUOUS
10
-3.7805113083
20
-13.5830381700
11
-3.5810789129
21
-13.7329044634
0
LINE
5
237
100
AcDbEntity
8
0
100
AcDbLine
62
0
6
CONTINUOUS
10
-3.9423868281
20
-13.4494905096
11
-3.5634526873
21
-13.7453872199
0
LINE
5
238
100
AcDbEntity
8
0
100
AcDbLine
62
0
6
CONTINUOUS
10
-3.9770787520
20
-13.4194414825
11
-3.7805113083
21
-13.5830381700
0
LWPOLYLINE
5
239
100
AcDbEntity
8
0
100
AcDbPolyline
62
0
6
CONTINUOUS
90
3
70
0
10
-8.5395867495
20
-13.9173257135
10
-8.4781020874
20
-14.0266211572
10
-8.4063109198
20
-14.1268452588
0
LINE
5
23A
100
AcDbEntity
8
0
100
AcDbLine
62
0
6
CONTINUOUS
10
-8.5905640043
20
-13.7983552291
11
-8.5395867495
21
-13.9173257135
0
LWPOLYLINE
5
23B
100
AcDbEntity
8
0
100
AcDbPolyline
62
0
6
CONTINUOUS
90
5
70
0
10
-5.2747697954
20
-11.8415039353
10
-4.9807291352
20
-12.2943864351
10
-4.6569630552
20
-12.7179830609
10
-4.3088311653
20
-13.1052201944
10
-3.9423868281
20
-13.4494905096
0
LWPOLYLINE
5
23C
100
AcDbEntity
8
0
100
AcDbPolyline
62
0
6
CONTINUOUS
90
3
70
0
10
-8.6442524451
20
-13.6070249261
10
-8.5830791586
20
-13.8181427663
10
-8.4903937409
20
-14.0068687969
0
LWPOLYLINE
5
23D
100
AcDbEntity
8
0
100
AcDbPolyline
62
0
6
CONTINUOUS
90
3
70
0
10
-8.6570937799
20
-13.5326194417
10
-8.6301460756
20
-13.6696993416
10
-8.5905640043
20
-13.7983552291
0
LINE
5
23E
100
AcDbEntity
8
0
100
AcDbLine
62
0
6
CONTINUOUS
10
-8.6695964089
20
-13.4067114511
11
-8.6570937799
21
-13.5326194417
0
LINE
5
23F
100
AcDbEntity
8
0
100
AcDbLine
62
0
6
CONTINUOUS
10
-8.6696089358
20
-13.4064922124
11
-8.6695573307
21
-13.4073897285
0
LWPOLYLINE
5
240
100
AcDbEntity
8
0
100
AcDbPolyline
62
0
6
CONTINUOUS
90
3
70
0
10
-8.9848632669
20
-6.1522261584
10
-8.8360209310
20
-10.0759017139
10
-8.6696089358
20
-13.4064922124
0
LWPOLYLINE
5
241
100
AcDbEntity
8
0
100
AcDbPolyline
62
0
6
CONTINUOUS
90
3
70
0
10
-8.9926304043
20
-5.9025616421
10
-8.8509209620
20
-9.7359985999
10
-8.6696089741
20
-13.4064915233
0
LINE
5
242
100
AcDbEntity
8
0
100
AcDbLine
62
0
6
CONTINUOUS
10
-9.0871455590
20
-2.0426448992
11
-8.9848632669
21
-6.1522261584
0
LINE
5
243
100
AcDbEntity
8
0
100
AcDbLine
62
0
6
CONTINUOUS
10
-9.1344393474
20
1.8427687803
11
-9.0842117505
21
-2.2007147001
0
LINE
5
244
100
AcDbEntity
8
0
100
AcDbLine
62
0
6
CONTINUOUS
10
-9.1343361676
20
5.7817369496
11
-9.1340366056
21
1.7775708162
0
LINE
5
245
100
AcDbEntity
8
0
100
AcDbLine
62
0
6
CONTINUOUS
10
-9.0851145491
20
9.8109646689
11
-9.1345108095
21
5.7528492371
0
LWPOLYLINE
5
246
100
AcDbEntity
8
0
100
AcDbPolyline
62
0
6
CONTINUOUS
90
3
70
0
10
-8.8381755827
20
17.9408077403
10
-8.9863816830
20
13.8643539431
10
-9.0873637936
20
9.6868274183
0
LWPOLYLINE
5
247
100
AcDbEntity
8
0
100
AcDbPolyline
62
0
6
CONTINUOUS
90
3
70
0
10
-8.6697391621
20
21.4916584328
10
-8.8514759431
20
17.6229507529
10
-8.9930071783
20
13.6438666009
0
LINE
5
248
100
AcDbEntity
8
0
100
AcDbLine
62
0
6
CONTINUOUS
10
-8.6697391567
20
21.4916584325
11
-8.6697586637
21
21.4912789437
0
LINE
5
249
100
AcDbEntity
8
0
100
AcDbLine
62
9
6
CONTINUOUS
10
10.8065299993
20
17.9264229430
11
6.7402449870
21
15.8776023222
0
LINE
5
24A
100
AcDbEntity
8
0
100
AcDbLine
62
9
6
CONTINUOUS
10
11.3721292676
20
16.9509085057
11
7.3058442553
21
14.9020878849
0
LINE
5
24B
100
AcDbEntity
8
0
100
AcDbLine
62
0
6
CONTINUOUS
10
-5.5345677131
20
-11.3661938592
11
-5.2747697954
21
-11.8415039353
0
LWPOLYLINE
5
24C
100
AcDbEntity
8
0
100
AcDbPolyline
62
0
6
CONTINUOUS
90
11
70
0
10
-5.6103332448
20
-11.2093694273
10
-5.4853402228
20
-11.4631069075
10
-5.3500503849
20
-11.7122952725
10
-5.2050716416
20
-11.9558712751
10
-5.0510258067
20
-12.1927749149
10
-4.8886115553
20
-12.4219982093
10
-4.7185450301
20
-12.6425554664
10
-4.5415421305
20
-12.8534854315
10
-4.3584068733
20
-13.0538732115
10
-4.1699792257
20
-13.2428114577
10
-3.9770787520
20
-13.4194414825
0
LINE
5
24D
100
AcDbEntity
8
0
100
AcDbLine
62
0
6
CONTINUOUS
10
-5.7560201238
20
-10.8756321177
11
-5.5345677131
21
-11.3661938592
0
LINE
5
24E
100
AcDbEntity
8
0
100
AcDbLine
62
0
6
CONTINUOUS
10
-5.7244453624
20
-10.9521630201
11
-5.6103332448
21
-11.2093694273
0
LINE
5
24F
100
AcDbEntity
8
0
100
AcDbLine
62
0
6
CONTINUOUS
10
-5.8271853823
20
-10.6925965894
11
-5.7244453624
21
-10.9521630201
0
LINE
5
250
100
AcDbEntity
8
0
100
AcDbLine
62
0
6
CONTINUOUS
10
-5.9355076393
20
-10.3772932851
11
-5.7560201238
21
-10.8756321177
0
LINE
5
251
100
AcDbEntity
8
0
100
AcDbLine
62
0
6
CONTINUOUS
10
-8.6695570903
20
-13.4073897149
11
-8.6442524451
21
-13.6070249261
0
LINE
5
252
100
AcDbEntity
8
0
100
AcDbLine
62
0
6
CONTINUOUS
10
-3.4726891524
20
-6.4745767375
11
-3.2259009872
21
-6.5862622370
0
LINE
5
253
100
AcDbEntity
8
0
100
AcDbLine
62
0
6
CONTINUOUS
10
-3.3732234956
20
-6.5167816601
11
-3.2257887550
21
-6.5863186962
0
LINE
5
254
100
AcDbEntity
8
0
100
AcDbLine
62
0
6
CONTINUOUS
10
-5.3221911017
20
-6.6880379488
11
-5.2621588729
21
-6.7180540632
0
LINE
5
255
100
AcDbEntity
8
0
100
AcDbLine
62
9
6
CONTINUOUS
10
-0.3447970033
20
-8.3837797717
11
-3.3146454843
21
-6.8988555312
0
LINE
5
256
100
AcDbEntity
8
0
100
AcDbLine
62
9
6
CONTINUOUS
10
-0.2753509721
20
-8.2599209114
11
-3.2451994531
21
-6.7749966709
0
LINE
5
257
100
AcDbEntity
8
0
100
AcDbLine
62
0
6
CONTINUOUS
10
-3.2257635665
20
-6.5863138503
11
-0.2559150937
21
-8.0712380867
0
LINE
5
258
100
AcDbEntity
8
0
100
AcDbLine
62
9
6
CONTINUOUS
10
-3.2517248968
20
-6.5346489032
11
-0.2818764158
21
-8.0195731437
0
LINE
5
259
100
AcDbEntity
8
0
100
AcDbLine
62
0
6
CONTINUOUS
10
-0.2556740977
20
-8.0713988854
11
0.0723131827
21
-8.2559392361
0
LINE
5
25A
100
AcDbEntity
8
0
100
AcDbLine
62
0
6
CONTINUOUS
10
-4.7734768288
20
-6.3141647618
11
-4.5604345752
21
-6.2832750975
0
LINE
5
25B
100
AcDbEntity
8
0
100
AcDbLine
62
0
6
CONTINUOUS
10
-4.7354009654
20
-6.3066281116
11
-4.4410004961
21
-6.2772746703
0
LWPOLYLINE
5
25C
100
AcDbEntity
8
0
100
AcDbPolyline
62
0
6
CONTINUOUS
90
6
70
0
10
-4.5604345752
20
-6.2832750975
10
-4.3373043327
20
-6.2781340885
10
-4.1055699470
20
-6.2989392936
10
-3.8665848853
20
-6.3457236160
10
-3.6218662956
20
-6.4184813074
10
-3.3732234956
20
-6.5167816601
0
LWPOLYLINE
5
25D
100
AcDbEntity
8
0
100
AcDbPolyline
62
0
6
CONTINUOUS
90
4
70
0
10
-4.4410004961
20
-6.2772746703
10
-4.1302209006
20
-6.2955406862
10
-3.8061871809
20
-6.3613996046
10
-3.4726891524
20
-6.4745767375
0
LWPOLYLINE
5
25E
100
AcDbEntity
8
0
100
AcDbPolyline
62
0
6
CONTINUOUS
90
8
70
0
10
0.0723131827
20
-8.2559392361
10
0.4718070941
20
-8.5364225986
10
0.8642922876
20
-8.8748315684
10
1.2423376608
20
-9.2658445563
10
1.5977880019
20
-9.7016489988
10
1.9242385295
20
-10.1742229430
10
2.2164915079
20
-10.6759831294
10
2.4694389558
20
-11.1977249424
0
LINE
5
25F
100
AcDbEntity
8
0
100
AcDbLine
62
0
6
CONTINUOUS
10
-4.9752804467
20
-6.3703230653
11
-4.7734768288
21
-6.3141647618
0
LINE
5
260
100
AcDbEntity
8
0
100
AcDbLine
62
0
6
CONTINUOUS
10
-5.0099061278
20
-6.3829219632
11
-4.7354009654
21
-6.3066281116
0
LWPOLYLINE
5
261
100
AcDbEntity
8
0
100
AcDbPolyline
62
0
6
CONTINUOUS
90
15
70
0
10
-5.9035915635
20
-7.4286871653
10
-5.9846974835
20
-7.6063562704
10
-6.0530546700
20
-7.7964789989
10
-6.1083461954
20
-7.9981934015
10
-6.1503060380
20
-8.2105592433
10
-6.1787223450
20
-8.4328021811
10
-6.1934666942
20
-8.6639228593
10
-6.1944741038
20
-8.9025656526
10
-6.1817553810
20
-9.1476113094
10
-6.1554284312
20
-9.3981071287
10
-6.1156641777
20
-9.6528790144
10
-6.0626535216
20
-9.9107991451
10
-5.9966832903
20
-10.1707990890
10
-5.9180795449
20
-10.4317717789
10
-5.8271853823
20
-10.6925965894
0
LWPOLYLINE
5
262
100
AcDbEntity
8
0
100
AcDbPolyline
62
0
6
CONTINUOUS
90
8
70
0
10
-5.8485905429
20
-7.3276929464
10
-6.0073394551
20
-7.6641883888
10
-6.1188698367
20
-8.0446734480
10
-6.1815359229
20
-8.4637754149
10
-6.1941595747
20
-8.9148255207
10
-6.1565707730
20
-9.3893153927
10
-6.0698258160
20
-9.8791798229
10
-5.9355076393
20
-10.3772932851
0
LINE
5
263
100
AcDbEntity
8
0
100
AcDbLine
62
0
6
CONTINUOUS
10
2.4694389558
20
-11.1977249424
11
2.6788689352
21
-11.7301513703
0
LWPOLYLINE
5
264
100
AcDbEntity
8
0
100
AcDbPolyline
62
0
6
CONTINUOUS
90
3
70
0
10
-5.7045703779
20
-7.1132396319
10
-5.8101021559
20
-7.2641066162
10
-5.9035915635
20
-7.4286871653
0
LINE
5
265
100
AcDbEntity
8
0
100
AcDbLine
62
0
6
CONTINUOUS
10
-5.6451900188
20
-7.0405870725
11
-5.8485905429
21
-7.3276929464
0
LWPOLYLINE
5
266
100
AcDbEntity
8
0
100
AcDbPolyline
62
0
6
CONTINUOUS
90
6
70
0
10
2.6788689352
20
-11.7301513703
10
2.8416544960
20
-12.2643443336
10
2.9553347605
20
-12.7914630188
10
3.0181734634
20
-13.3020107252
10
3.0294603782
20
-13.7876947371
10
2.9891212419
20
-14.2412514542
0
LINE
5
267
100
AcDbEntity
8
0
100
AcDbLine
62
0
6
CONTINUOUS
10
-5.5873944524
20
-6.9767636756
11
-5.7045703779
21
-7.1132396319
0
LINE
5
268
100
AcDbEntity
8
0
100
AcDbLine
62
0
6
CONTINUOUS
10
-5.4003822016
20
-6.8076158679
11
-5.6451900188
21
-7.0405870725
0
LINE
5
269
100
AcDbEntity
8
0
100
AcDbLine
62
0
6
CONTINUOUS
10
-5.4591603525
20
-6.8553444590
11
-5.5873944524
21
-6.9767636756
0
LINE
5
26A
100
AcDbEntity
8
0
100
AcDbLine
62
0
6
CONTINUOUS
10
2.2858071294
20
-15.6224409686
11
2.2858071294
21
-15.4717375129
0
LINE
5
26B
100
AcDbEntity
8
0
100
AcDbLine
62
0
6
CONTINUOUS
10
-5.3205326457
20
-6.7496342021
11
-5.4591603525
21
-6.8553444590
0
LINE
5
26C
100
AcDbEntity
8
0
100
AcDbLine
62
0
6
CONTINUOUS
10
-5.1758844661
20
-6.6621525619
11
-5.4003822016
21
-6.8076158679
0
LINE
5
26D
100
AcDbEntity
8
0
100
AcDbLine
62
0
6
CONTINUOUS
10
-5.1702095990
20
-6.6591356705
11
-5.3205326457
21
-6.7496342021
0
LINE
5
26E
100
AcDbEntity
8
0
100
AcDbLine
62
0
6
CONTINUOUS
10
-5.1757927254
20
-6.6620895176
11
-4.6154530376
21
-6.3662586547
0
LINE
5
26F
100
AcDbEntity
8
0
100
AcDbLine
62
0
6
CONTINUOUS
10
-5.1238483808
20
-6.4312307566
11
-5.1183855804
21
-6.4286608282
0
LINE
5
270
100
AcDbEntity
8
0
100
AcDbLine
62
0
6
CONTINUOUS
10
2.9953498016
20
-14.1984559242
11
2.9402709038
21
-14.4949603952
0
LINE
5
271
100
AcDbEntity
8
0
100
AcDbLine
62
9
6
CONTINUOUS
10
-3.0509513815
20
-6.6737199428
11
-3.2451994531
21
-6.7749966709
0
LINE
5
272
100
AcDbEntity
8
0
100
AcDbLine
62
0
6
CONTINUOUS
10
-5.1185620850
20
-6.4287460144
11
-5.0099061278
21
-6.3829219632
0
LINE
5
273
100
AcDbEntity
8
0
100
AcDbLine
62
0
6
CONTINUOUS
10
-5.1174842459
20
-6.4282421295
11
-4.9752804467
21
-6.3703230653
0
LINE
5
274
100
AcDbEntity
8
0
100
AcDbLine
62
0
6
CONTINUOUS
10
2.9891212419
20
-14.2412514542
11
2.8977227798
21
-14.6549554123
0
LINE
5
275
100
AcDbEntity
8
0
100
AcDbLine
62
0
6
CONTINUOUS
10
2.9402709038
20
-14.4949603952
11
2.8605683598
21
-14.7701218572
0
LINE
5
276
100
AcDbEntity
8
0
100
AcDbLine
62
9
6
CONTINUOUS
10
-0.0912283592
20
-8.1639234315
11
-0.2753509721
21
-8.2599209114
0
LINE
5
277
100
AcDbEntity
8
0
100
AcDbLine
62
0
6
CONTINUOUS
10
2.8977227798
20
-14.6549554123
11
2.7569311072
21
-15.0209432941
0
LINE
5
278
100
AcDbEntity
8
0
100
AcDbLine
62
0
6
CONTINUOUS
10
2.8605683598
20
-14.7701218572
11
2.7568532933
21
-15.0211008245
0
LINE
5
279
100
AcDbEntity
8
0
100
AcDbLine
62
0
6
CONTINUOUS
10
11.3721292676
20
-19.1625618719
11
11.3721292676
21
16.9509085057
0
LINE
5
27A
100
AcDbEntity
8
0
100
AcDbLine
62
0
6
CONTINUOUS
10
2.7568532933
20
-15.0211008245
11
2.6302334610
21
-15.2455165994
0
LINE
5
27B
100
AcDbEntity
8
0
100
AcDbLine
62
0
6
CONTINUOUS
10
2.7569311072
20
-15.0209432941
11
2.5694840756
21
-15.3327864794
0
LINE
5
27C
100
AcDbEntity
8
0
100
AcDbLine
62
0
6
CONTINUOUS
10
2.6302334610
20
-15.2455165994
11
2.4819489983
21
-15.4414612870
0
LINE
5
27D
100
AcDbEntity
8
0
100
AcDbLine
62
0
6
CONTINUOUS
10
2.5694840756
20
-15.3327864794
11
2.3389668764
21
-15.5852150660
0
LINE
5
27E
100
AcDbEntity
8
0
100
AcDbLine
62
0
6
CONTINUOUS
10
2.4819489983
20
-15.4414612870
11
2.3131353061
21
-15.6075193325
0
LINE
5
27F
100
AcDbEntity
8
0
100
AcDbLine
62
9
6
CONTINUOUS
10
-2.8653788684
20
-14.1486422448
11
-2.9025547484
21
-14.1680249309
0
LINE
5
280
100
AcDbEntity
8
0
100
AcDbLine
62
0
6
CONTINUOUS
10
2.3131353061
20
-15.6075193325
11
2.1250296490
21
-15.7427846143
0
LINE
5
281
100
AcDbEntity
8
0
100
AcDbLine
62
0
6
CONTINUOUS
10
2.3389668764
20
-15.5852150660
11
2.0639320697
21
-15.7778122755
0
LINE
5
282
100
AcDbEntity
8
0
100
AcDbLine
62
0
6
CONTINUOUS
10
2.1250296490
20
-15.7427846143
11
2.0499250651
21
-15.7852970792
0
LINE
5
283
100
AcDbEntity
8
0
100
AcDbLine
62
0
6
CONTINUOUS
10
2.0505053121
20
-15.7849922674
11
2.0500645846
21
-15.7852248431
0
LINE
5
284
100
AcDbEntity
8
0
100
AcDbLine
62
9
6
CONTINUOUS
10
0.1106944624
20
-15.6303209856
11
0.0672937326
21
-15.6529491714
0
LINE
5
285
100
AcDbEntity
8
0
100
AcDbLine
62
0
6
CONTINUOUS
10
2.5434374306
20
-15.3630698800
11
2.4797496418
21
-15.3949137744
0
LINE
5
286
100
AcDbEntity
8
0
100
AcDbLine
62
9
6
CONTINUOUS
10
5.6920221429
20
14.1503823307
11
-8.4352488985
21
21.2140178514
0
LINE
5
287
100
AcDbEntity
8
0
100
AcDbLine
62
0
6
CONTINUOUS
10
1.8293730788
20
-15.7023467778
11
2.4797496415
21
-15.3949137745
0
LINE
5
288
100
AcDbEntity
8
0
100
AcDbLine
62
0
6
CONTINUOUS
10
1.6286613902
20
-15.7806490532
11
1.8344880942
21
-15.6998997313
0
LWPOLYLINE
5
289
100
AcDbEntity
8
0
100
AcDbPolyline
62
0
6
CONTINUOUS
90
3
70
0
10
1.5830661098
20
-15.7941718610
10
1.7310773795
20
-15.7446879307
10
1.8287319469
20
-15.7026323954
0
LINE
5
28A
100
AcDbEntity
8
0
100
AcDbLine
62
9
6
CONTINUOUS
10
6.7402449870
20
15.8776023222
11
-7.4039650855
21
22.9497073584
0
LINE
5
28B
100
AcDbEntity
8
0
100
AcDbLine
62
0
6
CONTINUOUS
10
-3.4771992939
20
25.0682875896
11
10.8065299993
21
17.9264229430
0
LINE
5
28C
100
AcDbEntity
8
0
100
AcDbLine
62
9
6
CONTINUOUS
10
7.3058442553
20
-21.0405070426
11
11.3721292676
21
-19.1625618719
0
LINE
5
28D
100
AcDbEntity
8
0
100
AcDbLine
62
0
6
CONTINUOUS
10
7.0855405270
20
-21.4790571767
11
11.1558178557
21
-19.5992682219
0
LINE
5
28E
100
AcDbEntity
8
0
100
AcDbLine
62
0
6
CONTINUOUS
10
6.9414988851
20
-21.5356535597
11
7.0840556950
21
-21.4797379708
0
LWPOLYLINE
5
28F
100
AcDbEntity
8
0
100
AcDbPolyline
62
0
6
CONTINUOUS
90
3
70
0
10
6.8432290110
20
-21.5633088896
10
6.9934256322
20
-21.5174993262
10
7.0838940188
20
-21.4798115071
0
SPLINE
5
290
100
AcDbEntity
8
0
100
AcDbSpline
62
9
6
CONTINUOUS
70
0
71
3
72
9
73
5
74
3
42
0.0000001000
43
0.0000001000
44
0.0000000001
12
0.0027388049
22
-0.0570913148
32
0.0000000000
13
0.0517391824
23
-0.0271161704
33
0.0000000000
40
0.0000000000
40
0.0000000000
40
0.0000000000
40
0.0000000000
40
0.6474961356
40
1.0000000000
40
1.0000000000
40
1.0000000000
40
1.0000000000
10
-0.0881081752
20
-15.5010296484
30
0.0000000000
10
-0.0875170534
20
-15.5133517837
30
0.0000000000
10
-0.0834677133
20
-15.5333674582
30
0.0000000000
10
-0.0682110880
20
-15.5467902194
30
0.0000000000
10
-0.0621316674
20
-15.5499764043
30
0.0000000000
11
-0.0881081752
21
-15.5010296484
31
0.0000000000
11
-0.0775745209
21
-15.5365078404
31
0.0000000000
11
-0.0621316674
21
-15.5499764043
31
0.0000000000
0
SPLINE
5
291
100
AcDbEntity
8
0
100
AcDbSpline
62
9
6
CONTINUOUS
70
0
71
3
72
8
73
4
74
2
42
0.0000001000
43
0.0000001000
44
0.0000000001
12
0.1878200947
22
-0.0794958125
32
0.0000000000
13
0.1928533264
23
-0.0665952472
33
0.0000000000
40
0.0000000000
40
0.0000000000
40
0.0000000000
40
0.0000000000
40
1.0000000000
40
1.0000000000
40
1.0000000000
40
1.0000000000
10
0.1051009443
20
-15.5902456886
30
0.0000000000
10
0.1677076425
20
-15.6167442927
30
0.0000000000
10
0.2311875905
20
-15.6412437769
30
0.0000000000
10
0.2954720326
20
-15.6634421927
30
0.0000000000
11
0.1051009443
21
-15.5902456886
31
0.0000000000
11
0.2954720326
21
-15.6634421927
31
0.0000000000
0
SPLINE
5
292
100
AcDbEntity
8
0
100
AcDbSpline
62
9
6
CONTINUOUS
70
0
71
3
72
9
73
5
74
3
42
0.0000001000
43
0.0000001000
44
0.0000000001
12
0.3648248377
22
-0.1259796794
32
0.0000000000
13
0.3799219847
23
-0.0698056381
33
0.0000000000
40
0.0000000000
40
0.0000000000
40
0.0000000000
40
0.0000000000
40
0.5079050151
40
1.0000000000
40
1.0000000000
40
1.0000000000
40
1.0000000000
10
0.2954720326
20
-15.6634421927
30
0.0000000000
10
0.3572374875
20
-15.6847707630
30
0.0000000000
10
0.4803080111
20
-15.7225815797
30
0.0000000000
10
0.6060210985
20
-15.7511195521
30
0.0000000000
10
0.6683403329
20
-15.7625698869
30
0.0000000000
11
0.2954720326
21
-15.6634421927
31
0.0000000000
11
0.4829354554
21
-15.7207872774
31
0.0000000000
11
0.6683403329
21
-15.7625698869
31
0.0000000000
0
SPLINE
5
293
100
AcDbEntity
8
0
100
AcDbSpline
62
9
6
CONTINUOUS
70
0
71
3
72
9
73
5
74
3
42
0.0000001000
43
0.0000001000
44
0.0000000001
12
0.8506302026
22
-0.1562920454
32
0.0000000000
13
0.8266924543
23
0.2570350613
33
0.0000000000
40
0.0000000000
40
0.0000000000
40
0.0000000000
40
0.0000000000
40
0.4185586656
40
1.0000000000
40
1.0000000000
40
1.0000000000
40
1.0000000000
10
0.6683403329
20
-15.7625698869
30
0.0000000000
10
0.7870198804
20
-15.7843756835
30
0.0000000000
10
1.0745183021
20
-15.8140050803
30
0.0000000000
10
1.3642332608
20
-15.7762529334
30
0.0000000000
10
1.5244576487
20
-15.7264359970
30
0.0000000000
11
0.6683403329
21
-15.7625698869
31
0.0000000000
11
1.0280781101
21
-15.7973743011
31
0.0000000000
11
1.5244576487
21
-15.7264359970
31
0.0000000000
0
SPLINE
5
294
100
AcDbEntity
8
0
100
AcDbSpline
62
9
6
CONTINUOUS
70
0
71
3
72
8
73
4
74
2
42
0.0000001000
43
0.0000001000
44
0.0000000001
12
0.2705715317
22
0.0841260494
32
0.0000000000
13
0.2495035915
23
0.1348988331
33
0.0000000000
40
0.0000000000
40
0.0000000000
40
0.0000000000
40
0.0000000000
40
1.0000000000
40
1.0000000000
40
1.0000000000
40
1.0000000000
10
1.5244576487
20
-15.7264359970
30
0.0000000000
10
1.6146481593
20
-15.6983939806
30
0.0000000000
10
1.7022316066
20
-15.6615223157
30
0.0000000000
10
1.7853994704
20
-15.6165560380
30
0.0000000000
11
1.5244576487
21
-15.7264359970
31
0.0000000000
11
1.7853994704
21
-15.6165560380
31
0.0000000000
0
SPLINE
5
295
100
AcDbEntity
8
0
100
AcDbSpline
62
9
6
CONTINUOUS
70
0
71
3
72
8
73
4
74
2
42
0.0000001000
43
0.0000001000
44
0.0000000001
12
0.0336490352
22
0.0181929870
32
0.0000000000
13
0.0331538554
23
0.0190709405
33
0.0000000000
40
0.0000000000
40
0.0000000000
40
0.0000000000
40
0.0000000000
40
1.0000000000
40
1.0000000000
40
1.0000000000
40
1.0000000000
10
1.7853994704
20
-15.6165560380
30
0.0000000000
10
1.7966158155
20
-15.6104917091
30
0.0000000000
10
1.8077518487
20
-15.6042801530
30
0.0000000000
10
1.8188031338
20
-15.5979231728
30
0.0000000000
11
1.7853994704
21
-15.6165560380
31
0.0000000000
11
1.8188031338
21
-15.5979231728
31
0.0000000000
0
SPLINE
5
296
100
AcDbEntity
8
0
100
AcDbSpline
62
9
6
CONTINUOUS
70
0
71
3
72
8
73
4
74
2
42
0.0000001000
43
0.0000001000
44
0.0000000001
12
0.0076941707
22
0.0070877183
32
0.0000000000
13
0.0076456852
23
0.0071407863
33
0.0000000000
40
0.0000000000
40
0.0000000000
40
0.0000000000
40
0.0000000000
40
1.0000000000
40
1.0000000000
40
1.0000000000
40
1.0000000000
10
2.0777206839
20
-15.4075351844
30
0.0000000000
10
2.0802854075
20
-15.4051726117
30
0.0000000000
10
2.0828420607
20
-15.4028011477
30
0.0000000000
10
2.0853906224
20
-15.4004208856
30
0.0000000000
11
2.0777206839
21
-15.4075351844
31
0.0000000000
11
2.0853906224
21
-15.4004208856
31
0.0000000000
0
SPLINE
5
297
100
AcDbEntity
8
0
100
AcDbSpline
62
9
6
CONTINUOUS
70
0
71
3
72
8
73
4
74
2
42
0.0000001000
43
0.0000001000
44
0.0000000001
12
0.0580438479
22
0.0542108004
32
0.0000000000
13
0.0552180613
23
0.0571310934
33
0.0000000000
40
0.0000000000
40
0.0000000000
40
0.0000000000
40
0.0000000000
40
1.0000000000
40
1.0000000000
40
1.0000000000
40
1.0000000000
10
2.0853906224
20
-15.4004208856
30
0.0000000000
10
2.1047385718
20
-15.3823506188
30
0.0000000000
10
2.1236201759
20
-15.3637732787
30
0.0000000000
10
2.1420261964
20
-15.3447295809
30
0.0000000000
11
2.0853906224
21
-15.4004208856
31
0.0000000000
11
2.1420261964
21
-15.3447295809
31
0.0000000000
0
SPLINE
5
298
100
AcDbEntity
8
0
100
AcDbSpline
62
9
6
CONTINUOUS
70
0
71
3
72
8
73
4
74
2
42
0.0000001000
43
0.0000001000
44
0.0000000001
12
0.0524089476
22
0.0542246578
32
0.0000000000
13
0.0498146959
23
0.0566409084
33
0.0000000000
40
0.0000000000
40
0.0000000000
40
0.0000000000
40
0.0000000000
40
1.0000000000
40
1.0000000000
40
1.0000000000
40
1.0000000000
10
2.1420261964
20
-15.3447295809
30
0.0000000000
10
2.1594958455
20
-15.3266546950
30
0.0000000000
10
2.1765370690
20
-15.3081596945
30
0.0000000000
10
2.1931419676
20
-15.2892793917
30
0.0000000000
11
2.1420261964
21
-15.3447295809
31
0.0000000000
11
2.1931419676
21
-15.2892793917
31
0.0000000000
0
SPLINE
5
299
100
AcDbEntity
8
0
100
AcDbSpline
62
9
6
CONTINUOUS
70
0
71
3
72
8
73
4
74
2
42
0.0000001000
43
0.0000001000
44
0.0000000001
12
0.0050065811
22
0.0069252588
32
0.0000000000
13
0.0049715948
23
0.0069491323
33
0.0000000000
40
0.0000000000
40
0.0000000000
40
0.0000000000
40
0.0000000000
40
1.0000000000
40
1.0000000000
40
1.0000000000
40
1.0000000000
10
2.2928562249
20
-15.1642467685
30
0.0000000000
10
2.2945250853
20
-15.1619383489
30
0.0000000000
10
2.2961881204
20
-15.1596259250
30
0.0000000000
10
2.2978453186
20
-15.1573095476
30
0.0000000000
11
2.2928562249
21
-15.1642467685
31
0.0000000000
11
2.2978453186
21
-15.1573095476
31
0.0000000000
0
SPLINE
5
29A
100
AcDbEntity
8
0
100
AcDbSpline
62
9
6
CONTINUOUS
70
0
71
3
72
8
73
4
74
2
42
0.0000001000
43
0.0000001000
44
0.0000000001
12
0.2059022600
22
0.2878034342
32
0.0000000000
13
0.1492693805
23
0.3206831023
33
0.0000000000
40
0.0000000000
40
0.0000000000
40
0.0000000000
40
0.0000000000
40
1.0000000000
40
1.0000000000
40
1.0000000000
40
1.0000000000
10
2.2978453186
20
-15.1573095476
30
0.0000000000
10
2.3664794053
20
-15.0613750695
30
0.0000000000
10
2.4251018319
20
-14.9586592137
30
0.0000000000
10
2.4748582920
20
-14.8517648463
30
0.0000000000
11
2.2978453186
21
-15.1573095476
31
0.0000000000
11
2.4748582920
21
-14.8517648463
31
0.0000000000
0
SPLINE
5
29B
100
AcDbEntity
8
0
100
AcDbSpline
62
9
6
CONTINUOUS
70
0
71
3
72
18
73
14
74
12
42
0.0000001000
43
0.0000001000
44
0.0000000001
12
3.2162924503
22
6.9097268143
32
0.0000000000
13
-6.7947851211
23
3.3983533908
33
0.0000000000
40
0.0000000000
40
0.0000000000
40
0.0000000000
40
0.0000000000
40
0.0243697937
40
0.1033250458
40
0.1910882570
40
0.2869385249
40
0.3892135825
40
0.4956436873
40
0.6036345102
40
0.7104630881
40
0.8136152416
40
0.9108466943
40
1.0000000000
40
1.0000000000
40
1.0000000000
40
1.0000000000
10
2.4748582920
20
-14.8517648463
30
0.0000000000
10
2.5009850865
20
-14.7956353073
30
0.0000000000
10
2.6013949939
20
-14.5527678727
30
0.0000000000
10
2.7113356874
20
-14.0778370179
30
0.0000000000
10
2.7368651783
20
-13.4101880974
30
0.0000000000
10
2.6519685332
20
-12.6887142753
30
0.0000000000
10
2.4601557359
20
-11.9395743111
30
0.0000000000
10
2.1684248276
20
-11.1905410936
30
0.0000000000
10
1.7873344977
20
-10.4697691374
30
0.0000000000
10
1.3306650429
20
-9.8043249563
30
0.0000000000
10
0.8147460147
20
-9.2191592045
30
0.0000000000
10
0.2592462771
20
-8.7371056917
30
0.0000000000
10
-0.1428711516
20
-8.4847712513
30
0.0000000000
10
-0.3447970033
20
-8.3837797717
30
0.0000000000
11
2.4748582920
21
-14.8517648463
31
0.0000000000
11
2.5460708918
21
-14.6802967356
31
0.0000000000
11
2.6883906376
21
-14.0975835896
31
0.0000000000
11
2.7195431740
21
-13.4315544078
31
0.0000000000
11
2.6384415806
21
-12.7078881983
31
0.0000000000
11
2.4481699455
21
-11.9545377709
31
0.0000000000
11
2.1558576232
21
-11.2006508603
31
0.0000000000
11
1.7723881734
21
-10.4753519675
31
0.0000000000
11
1.3121692811
21
-9.8068496990
31
0.0000000000
11
0.7921003194
21
-9.2206176515
31
0.0000000000
11
0.2316311098
21
-8.7394349240
31
0.0000000000
11
-0.3447970033
21
-8.3837797717
31
0.0000000000
0
SPLINE
5
29C
100
AcDbEntity
8
0
100
AcDbSpline
62
9
6
CONTINUOUS
70
0
71
3
72
8
73
4
74
2
42
0.0000001000
43
0.0000001000
44
0.0000000001
12
-0.1905060611
22
0.0952232527
32
0.0000000000
13
-0.1966064821
23
0.0828600258
33
0.0000000000
40
0.0000000000
40
0.0000000000
40
0.0000000000
40
0.0000000000
40
1.0000000000
40
1.0000000000
40
1.0000000000
40
1.0000000000
10
-3.3146454843
20
-6.8988555312
30
0.0000000000
10
-3.3781475046
20
-6.8671144470
30
0.0000000000
10
-3.4427112073
20
-6.8372632113
30
0.0000000000
10
-3.5082467013
20
-6.8096432027
30
0.0000000000
11
-3.3146454843
21
-6.8988555312
31
0.0000000000
11
-3.5082467013
21
-6.8096432027
31
0.0000000000
0
SPLINE
5
29D
100
AcDbEntity
8
0
100
AcDbSpline
62
9
6
CONTINUOUS
70
0
71
3
72
10
73
6
74
4
42
0.0000001000
43
0.0000001000
44
0.0000000001
12
-1.1986824737
22
0.5051860933
32
0.0000000000
13
-1.2777318896
23
-0.2564997449
33
0.0000000000
40
0.0000000000
40
0.0000000000
40
0.0000000000
40
0.0000000000
40
0.3085480725
40
0.7359137628
40
1.0000000000
40
1.0000000000
40
1.0000000000
40
1.0000000000
10
-3.5082467013
20
-6.8096432027
30
0.0000000000
10
-3.6315304236
20
-6.7576851375
30
0.0000000000
10
-3.9337750300
20
-6.6525930941
30
0.0000000000
10
-4.3664393406
20
-6.5883911824
30
0.0000000000
10
-4.6673965342
20
-6.6162925669
30
0.0000000000
10
-4.7798736698
20
-6.6388719177
30
0.0000000000
11
-3.5082467013
21
-6.8096432027
31
0.0000000000
11
-3.8878164333
21
-6.6797293374
31
0.0000000000
11
-4.4377685690
21
-6.6055253674
31
0.0000000000
11
-4.7798736698
21
-6.6388719177
31
0.0000000000
0
SPLINE
5
29E
100
AcDbEntity
8
0
100
AcDbSpline
62
9
6
CONTINUOUS
70
0
71
3
72
8
73
4
74
2
42
0.0000001000
43
0.0000001000
44
0.0000000001
12
-0.1563416805
22
-0.0491682767
32
0.0000000000
13
-0.1502274511
23
-0.0658810687
33
0.0000000000
40
0.0000000000
40
0.0000000000
40
0.0000000000
40
0.0000000000
40
1.0000000000
40
1.0000000000
40
1.0000000000
40
1.0000000000
10
-4.9408797388
20
-6.6801082962
30
0.0000000000
10
-4.9929936323
20
-6.6964977218
30
0.0000000000
10
-5.0442493053
20
-6.7157408312
30
0.0000000000
10
-5.0943251223
20
-6.7377011874
30
0.0000000000
11
-4.9408797388
21
-6.6801082962
31
0.0000000000
11
-5.0943251223
21
-6.7377011874
31
0.0000000000
0
SPLINE
5
29F
100
AcDbEntity
8
0
100
AcDbSpline
62
9
6
CONTINUOUS
70
0
71
3
72
8
73
4
74
2
42
0.0000001000
43
0.0000001000
44
0.0000000001
12
-0.0296057641
22
-0.0129833753
32
0.0000000000
13
-0.0293234412
23
-0.0136134328
33
0.0000000000
40
0.0000000000
40
0.0000000000
40
0.0000000000
40
0.0000000000
40
1.0000000000
40
1.0000000000
40
1.0000000000
40
1.0000000000
10
-5.0943251223
20
-6.7377011874
30
0.0000000000
10
-5.1041937104
20
-6.7420289792
30
0.0000000000
10
-5.1140164755
20
-6.7464623027
30
0.0000000000
10
-5.1237909558
20
-6.7510001136
30
0.0000000000
11
-5.0943251223
21
-6.7377011874
31
0.0000000000
11
-5.1237909558
21
-6.7510001136
31
0.0000000000
0
SPLINE
5
2A0
100
AcDbEntity
8
0
100
AcDbSpline
62
9
6
CONTINUOUS
70
0
71
3
72
8
73
4
74
2
42
0.0000001000
43
0.0000001000
44
0.0000000001
12
-0.0848381731
22
-0.0487637390
32
0.0000000000
13
-0.0814285060
23
-0.0541888873
33
0.0000000000
40
0.0000000000
40
0.0000000000
40
0.0000000000
40
0.0000000000
40
1.0000000000
40
1.0000000000
40
1.0000000000
40
1.0000000000
10
-5.2403452364
20
-6.8113985457
30
0.0000000000
10
-5.2686246274
20
-6.8276531253
30
0.0000000000
10
-5.2963698882
20
-6.8448263817
30
0.0000000000
10
-5.3235127236
20
-6.8628893441
30
0.0000000000
11
-5.2403452364
21
-6.8113985457
31
0.0000000000
11
-5.3235127236
21
-6.8628893441
31
0.0000000000
0
SPLINE
5
2A1
100
AcDbEntity
8
0
100
AcDbSpline
62
9
6
CONTINUOUS
70
0
71
3
72
8
73
4
74
2
42
0.0000001000
43
0.0000001000
44
0.0000000001
12
-0.0544268280
22
-0.0362198620
32
0.0000000000
13
-0.0527508132
23
-0.0385788129
33
0.0000000000
40
0.0000000000
40
0.0000000000
40
0.0000000000
40
0.0000000000
40
1.0000000000
40
1.0000000000
40
1.0000000000
40
1.0000000000
10
-5.3235127236
20
-6.8628893441
30
0.0000000000
10
-5.3416549996
20
-6.8749626315
30
0.0000000000
10
-5.3595281367
20
-6.8874334028
30
0.0000000000
10
-5.3771117411
20
-6.9002930071
30
0.0000000000
11
-5.3235127236
21
-6.8628893441
31
0.0000000000
11
-5.3771117411
21
-6.9002930071
31
0.0000000000
0
SPLINE
5
2A2
100
AcDbEntity
8
0
100
AcDbSpline
62
9
6
CONTINUOUS
70
0
71
3
72
9
73
5
74
3
42
0.0000001000
43
0.0000001000
44
0.0000000001
12
-0.2308673964
22
-0.2593595767
32
0.0000000000
13
-0.1760696700
23
-0.2985698091
33
0.0000000000
40
0.0000000000
40
0.0000000000
40
0.0000000000
40
0.0000000000
40
0.4928401294
40
1.0000000000
40
1.0000000000
40
1.0000000000
40
1.0000000000
10
-5.6224762975
20
-7.1242454307
30
0.0000000000
10
-5.6604032033
20
-7.1668530331
30
0.0000000000
10
-5.7329502094
20
-7.2572430193
30
0.0000000000
10
-5.7961491016
20
-7.3540925436
30
0.0000000000
10
-5.8259142587
20
-7.4045667522
30
0.0000000000
11
-5.6224762975
21
-7.1242454307
31
0.0000000000
11
-5.7296407787
21
-7.2575176243
31
0.0000000000
11
-5.8259142587
21
-7.4045667522
31
0.0000000000
0
SPLINE
5
2A3
100
AcDbEntity
8
0
100
AcDbSpline
62
9
6
CONTINUOUS
70
0
71
3
72
13
73
9
74
7
42
0.0000001000
43
0.0000001000
44
0.0000000001
12
-1.7364225944
22
-2.9445353219
32
0.0000000000
13
1.1984326256
23
-3.1937628246
33
0.0000000000
40
0.0000000000
40
0.0000000000
40
0.0000000000
40
0.0000000000
40
0.1080441477
40
0.2849004978
40
0.4807119435
40
0.6941667681
40
0.9218552608
40
1.0000000000
40
1.0000000000
40
1.0000000000
40
1.0000000000
10
-5.8259142587
20
-7.4045667522
30
0.0000000000
10
-5.8884510251
20
-7.5106133553
30
0.0000000000
10
-6.0267358024
20
-7.8060303413
30
0.0000000000
10
-6.1544366958
20
-8.3414772589
30
0.0000000000
10
-6.1815324492
20
-9.0103932371
30
0.0000000000
10
-6.0948294434
20
-9.7316610670
30
0.0000000000
10
-5.9442309793
20
-10.3039549354
30
0.0000000000
10
-5.8286422985
20
-10.6320142938
30
0.0000000000
10
-5.7974252301
20
-10.7152062148
30
0.0000000000
11
-5.8259142587
21
-7.4045667522
31
0.0000000000
11
-5.9843325667
21
-7.7378310190
31
0.0000000000
11
-6.1309852101
21
-8.3226630590
31
0.0000000000
11
-6.1636333565
21
-8.9894250426
31
0.0000000000
11
-6.0808727711
21
-9.7124143197
31
0.0000000000
11
-5.8859555497
21
-10.4637796002
31
0.0000000000
11
-5.7974252301
21
-10.7152062148
31
0.0000000000
0
SPLINE
5
2A4
100
AcDbEntity
8
0
100
AcDbSpline
62
9
6
CONTINUOUS
70
0
71
3
72
12
73
8
74
6
42
0.0000001000
43
0.0000001000
44
0.0000000001
12
1.2166429996
22
-3.2422925577
32
0.0000000000
13
2.6956502226
23
-2.1752646970
33
0.0000000000
40
0.0000000000
40
0.0000000000
40
0.0000000000
40
0.0000000000
40
0.1565582387
40
0.3937511423
40
0.6286174752
40
0.8555295673
40
1.0000000000
40
1.0000000000
40
1.0000000000
40
1.0000000000
10
-5.7974252301
20
-10.7152062148
30
0.0000000000
10
-5.7339334017
20
-10.8844087523
30
0.0000000000
10
-5.5567437602
20
-11.3033865435
30
0.0000000000
10
-5.2098083431
20
-11.9420675407
30
0.0000000000
10
-4.7450200392
20
-12.6032432049
30
0.0000000000
10
-4.2761769548
20
-13.1247333595
30
0.0000000000
10
-3.9559387226
20
-13.4105035148
30
0.0000000000
10
-3.8261248047
20
-13.5152573255
30
0.0000000000
11
-5.7974252301
21
-10.7152062148
31
0.0000000000
11
-5.5866866694
21
-11.2145942392
31
0.0000000000
11
-5.1950499194
21
-11.9360788882
31
0.0000000000
11
-4.7267829016
21
-12.6005257557
31
0.0000000000
11
-4.2000904054
21
-13.1830721016
31
0.0000000000
11
-3.8261248047
21
-13.5152573255
31
0.0000000000
0
SPLINE
5
2A5
100
AcDbEntity
8
0
100
AcDbSpline
62
9
6
CONTINUOUS
70
0
71
3
72
8
73
4
74
2
42
0.0000001000
43
0.0000001000
44
0.0000000001
12
0.1870254828
22
-0.1509208898
32
0.0000000000
13
0.1943550919
23
-0.1416101511
33
0.0000000000
40
0.0000000000
40
0.0000000000
40
0.0000000000
40
0.0000000000
40
1.0000000000
40
1.0000000000
40
1.0000000000
40
1.0000000000
10
-3.8261248047
20
-13.5152573255
30
0.0000000000
10
-3.7637829771
20
-13.5655642887
30
0.0000000000
10
-3.7002328820
20
-13.6143922645
30
0.0000000000
10
-3.6354478514
20
-13.6615956482
30
0.0000000000
11
-3.8261248047
21
-13.5152573255
31
0.0000000000
11
-3.6354478514
21
-13.6615956482
31
0.0000000000
0
SPLINE
5
2A6
100
AcDbEntity
8
0
100
AcDbSpline
62
9
6
CONTINUOUS
70
0
71
3
72
8
73
4
74
2
42
0.0000001000
43
0.0000001000
44
0.0000000001
12
0.0268883426
22
-0.0157788503
32
0.0000000000
13
0.0270090935
23
-0.0155628485
33
0.0000000000
40
0.0000000000
40
0.0000000000
40
0.0000000000
40
0.0000000000
40
1.0000000000
40
1.0000000000
40
1.0000000000
40
1.0000000000
10
-3.2788411729
20
-13.8960735209
30
0.0000000000
10
-3.2698783920
20
-13.9013331377
30
0.0000000000
10
-3.2608954631
20
-13.9065570597
30
0.0000000000
10
-3.2518924319
20
-13.9117446759
30
0.0000000000
11
-3.2788411729
21
-13.8960735209
31
0.0000000000
11
-3.2518924319
21
-13.9117446759
31
0.0000000000
0
SPLINE
5
2A7
100
AcDbEntity
8
0
100
AcDbSpline
62
9
6
CONTINUOUS
70
0
71
3
72
8
73
4
74
2
42
0.0000001000
43
0.0000001000
44
0.0000000001
12
0.1075472236
22
0.0508904246
32
0.0000000000
13
0.1031373818
23
0.0592726846
33
0.0000000000
40
0.0000000000
40
0.0000000000
40
0.0000000000
40
0.0000000000
40
1.0000000000
40
1.0000000000
40
1.0000000000
40
1.0000000000
10
1.8292798103
20
-15.7021496726
30
0.0000000000
10
1.8651288848
20
-15.6851861977
30
0.0000000000
10
1.9003063298
20
-15.6667998882
30
0.0000000000
10
1.9346854571
20
-15.6470423266
30
0.0000000000
11
1.8292798103
21
-15.7021496726
31
0.0000000000
11
1.9346854571
21
-15.6470423266
31
0.0000000000
0
SPLINE
5
2A8
100
AcDbEntity
8
0
100
AcDbSpline
62
9
6
CONTINUOUS
70
0
71
3
72
8
73
4
74
2
42
0.0000001000
43
0.0000001000
44
0.0000000001
12
0.1426567262
22
0.0819843105
32
0.0000000000
13
0.1324871080
23
0.0973153943
33
0.0000000000
40
0.0000000000
40
0.0000000000
40
0.0000000000
40
0.0000000000
40
1.0000000000
40
1.0000000000
40
1.0000000000
40
1.0000000000
10
1.9346854571
20
-15.6470423266
30
0.0000000000
10
1.9822376991
20
-15.6197142231
30
0.0000000000
10
2.0282626281
20
-15.5897626890
30
0.0000000000
10
2.0724249974
20
-15.5573242242
30
0.0000000000
11
1.9346854571
21
-15.6470423266
31
0.0000000000
11
2.0724249974
21
-15.5573242242
31
0.0000000000
0
SPLINE
5
2A9
100
AcDbEntity
8
0
100
AcDbSpline
62
9
6
CONTINUOUS
70
0
71
3
72
8
73
4
74
2
42
0.0000001000
43
0.0000001000
44
0.0000000001
12
0.1338661503
22
0.0983283385
32
0.0000000000
13
0.1222148867
23
0.1125011713
33
0.0000000000
40
0.0000000000
40
0.0000000000
40
0.0000000000
40
0.0000000000
40
1.0000000000
40
1.0000000000
40
1.0000000000
40
1.0000000000
10
2.0724249974
20
-15.5573242242
30
0.0000000000
10
2.1170470475
20
-15.5245481114
30
0.0000000000
10
2.1597675618
20
-15.4892330261
30
0.0000000000
10
2.2005058574
20
-15.4517326357
30
0.0000000000
11
2.0724249974
21
-15.5573242242
31
0.0000000000
11
2.2005058574
21
-15.4517326357
31
0.0000000000
0
SPLINE
5
2AA
100
AcDbEntity
8
0
100
AcDbSpline
62
9
6
CONTINUOUS
70
0
71
3
72
18
73
14
74
12
42
0.0000001000
43
0.0000001000
44
0.0000000001
12
3.3003767162
22
7.0712719578
32
0.0000000000
13
-6.9572275139
23
3.4791062491
33
0.0000000000
40
0.0000000000
40
0.0000000000
40
0.0000000000
40
0.0000000000
40
0.0244250158
40
0.1034083724
40
0.1911808100
40
0.2870240006
40
0.3892799537
40
0.4956848330
40
0.6036489259
40
0.7104531115
40
0.8135864757
40
0.9108070915
40
1.0000000000
40
1.0000000000
40
1.0000000000
40
1.0000000000
10
2.6075572497
20
-14.8829924309
30
0.0000000000
10
2.6344278342
20
-14.8254204544
30
0.0000000000
10
2.7375611638
20
-14.5766548607
30
0.0000000000
10
2.8506545076
20
-14.0902569686
30
0.0000000000
10
2.8774196904
20
-13.4066075786
30
0.0000000000
10
2.7910890742
20
-12.6678767407
30
0.0000000000
10
2.5952401664
20
-11.9008431866
30
0.0000000000
10
2.2970227389
20
-11.1339319966
30
0.0000000000
10
1.9072360511
20
-10.3959563729
30
0.0000000000
10
1.4399775967
20
-9.7146237420
30
0.0000000000
10
0.9119717806
20
-9.1154620377
30
0.0000000000
10
0.3432522133
20
-8.6218082625
30
0.0000000000
10
-0.0685058531
20
-8.3633581132
30
0.0000000000
10
-0.2753509721
20
-8.2599209114
30
0.0000000000
11
2.6075572497
21
-14.8829924309
31
0.0000000000
11
2.6808068695
21
-14.7071046689
31
0.0000000000
11
2.8271382365
21
-14.1104025333
31
0.0000000000
11
2.8596499334
21
-13.4284271175
31
0.0000000000
11
2.7772049314
21
-12.6874703687
31
0.0000000000
11
2.5829408842
21
-11.9161457614
31
0.0000000000
11
2.2841376088
21
-11.1442785691
31
0.0000000000
11
1.8919241735
21
-10.4016781837
31
0.0000000000
11
1.4210426215
21
-9.7172190916
31
0.0000000000
11
0.8887921564
21
-9.1169744205
31
0.0000000000
11
0.3150786909
21
-8.6242699678
31
0.0000000000
11
-0.2753509721
21
-8.2599209114
31
0.0000000000
0
SPLINE
5
2AB
100
AcDbEntity
8
0
100
AcDbSpline
62
9
6
CONTINUOUS
70
0
71
3
72
10
73
6
74
4
42
0.0000001000
43
0.0000001000
44
0.0000000001
12
-1.3855129132
22
0.5845721002
32
0.0000000000
13
-1.4374517333
23
-0.4520684663
33
0.0000000000
40
0.0000000000
40
0.0000000000
40
0.0000000000
40
0.0000000000
40
0.2744034588
40
0.6529734048
40
1.0000000000
40
1.0000000000
40
1.0000000000
40
1.0000000000
10
-3.4422137892
20
-6.6841597315
30
0.0000000000
10
-3.5689436344
20
-6.6306901961
30
0.0000000000
10
-3.8789716515
20
-6.5228473356
30
0.0000000000
10
-4.3791658814
20
-6.4486935806
30
0.0000000000
10
-4.7446614889
20
-6.4987775993
30
0.0000000000
10
-4.9109394824
20
-6.5510708596
30
0.0000000000
11
-3.4422137892
21
-6.6841597315
31
0.0000000000
11
-3.8324429869
21
-6.5505450576
31
0.0000000000
11
-4.3956395587
21
-6.4746342009
31
0.0000000000
11
-4.9109394824
21
-6.5510708596
31
0.0000000000
0
SPLINE
5
2AC
100
AcDbEntity
8
0
100
AcDbSpline
62
9
6
CONTINUOUS
70
0
71
3
72
8
73
4
74
2
42
0.0000001000
43
0.0000001000
44
0.0000000001
12
-0.1190504818
22
-0.0506058849
32
0.0000000000
13
-0.1144276794
23
-0.0603579604
33
0.0000000000
40
0.0000000000
40
0.0000000000
40
0.0000000000
40
0.0000000000
40
1.0000000000
40
1.0000000000
40
1.0000000000
40
1.0000000000
10
-5.0520685352
20
-6.6031283027
30
0.0000000000
10
-5.0917520291
20
-6.6199969310
30
0.0000000000
10
-5.1307400778
20
-6.6385227677
30
0.0000000000
10
-5.1688826376
20
-6.6586420878
30
0.0000000000
11
-5.0520685352
21
-6.6031283027
31
0.0000000000
11
-5.1688826376
21
-6.6586420878
31
0.0000000000
0
SPLINE
5
2AD
100
AcDbEntity
8
0
100
AcDbSpline
62
9
6
CONTINUOUS
70
0
71
3
72
9
73
5
74
3
42
0.0000001000
43
0.0000001000
44
0.0000000001
12
0.0027396837
22
-0.0571096483
32
0.0000000000
13
0.0517668929
23
-0.0271007761
33
0.0000000000
40
0.0000000000
40
0.0000000000
40
0.0000000000
40
0.0000000000
40
0.6473127876
40
1.0000000000
40
1.0000000000
40
1.0000000000
40
1.0000000000
10
-3.0579566562
20
-14.0161054079
30
0.0000000000
10
-3.0573655121
20
-14.0284280098
30
0.0000000000
10
-3.0533146908
20
-14.0484502917
30
0.0000000000
10
-3.0380493469
20
-14.0618748163
30
0.0000000000
10
-3.0319635065
20
-14.0650608487
30
0.0000000000
11
-3.0579566562
21
-14.0161054079
31
0.0000000000
11
-3.0474221750
21
-14.0515848164
31
0.0000000000
11
-3.0319635065
21
-14.0650608487
31
0.0000000000
0
SPLINE
5
2AE
100
AcDbEntity
8
0
100
AcDbSpline
62
9
6
CONTINUOUS
70
0
71
3
72
10
73
6
74
4
42
0.0000001000
43
0.0000001000
44
0.0000000001
12
-0.0035871819
22
0.1475541843
32
0.0000000000
13
0.1308773356
23
0.0682365606
33
0.0000000000
40
0.0000000000
40
0.0000000000
40
0.0000000000
40
0.0000000000
40
0.3317229985
40
0.6843835811
40
1.0000000000
40
1.0000000000
40
1.0000000000
40
1.0000000000
10
-3.3146454843
20
-6.8988555312
30
0.0000000000
10
-3.3150421345
20
-6.8825398258
30
0.0000000000
10
-3.3081236933
20
-6.8486336053
30
0.0000000000
10
-3.2840026743
20
-6.8051714343
30
0.0000000000
10
-3.2589684640
20
-6.7821755311
30
0.0000000000
10
-3.2451994521
20
-6.7749966714
30
0.0000000000
11
-3.3146454843
21
-6.8988555312
31
0.0000000000
11
-3.3060823995
21
-6.8506485839
31
0.0000000000
11
-3.2806265301
21
-6.8052459291
31
0.0000000000
11
-3.2451994521
21
-6.7749966714
31
0.0000000000
0
SPLINE
5
2AF
100
AcDbEntity
8
0
100
AcDbSpline
62
9
6
CONTINUOUS
70
0
71
3
72
9
73
5
74
3
42
0.0000001000
43
0.0000001000
44
0.0000000001
12
0.2867983489
22
0.1648219859
32
0.0000000000
13
0.2431707584
23
0.2238433949
33
0.0000000000
40
0.0000000000
40
0.0000000000
40
0.0000000000
40
0.0000000000
40
0.4974112532
40
1.0000000000
40
1.0000000000
40
1.0000000000
40
1.0000000000
10
1.9346854571
20
-15.6470423266
30
0.0000000000
10
1.9822376991
20
-15.6197142231
30
0.0000000000
10
2.0747666251
20
-15.5594993930
30
0.0000000000
10
2.1597675618
20
-15.4892330261
30
0.0000000000
10
2.2005058574
20
-15.4517326357
30
0.0000000000
11
1.9346854571
21
-15.6470423266
31
0.0000000000
11
2.0724249974
21
-15.5573242242
31
0.0000000000
11
2.2005058574
21
-15.4517326357
31
0.0000000000
0
SPLINE
5
2B0
100
AcDbEntity
8
0
100
AcDbSpline
62
9
6
CONTINUOUS
70
0
71
3
72
8
73
4
74
2
42
0.0000001000
43
0.0000001000
44
0.0000000001
12
0.1242148224
22
0.1143421509
32
0.0000000000
13
0.1116749520
23
0.1267726735
33
0.0000000000
40
0.0000000000
40
0.0000000000
40
0.0000000000
40
0.0000000000
40
1.0000000000
40
1.0000000000
40
1.0000000000
40
1.0000000000
10
2.2005058574
20
-15.4517326357
30
0.0000000000
10
2.2419107982
20
-15.4136185854
30
0.0000000000
10
2.2812681151
20
-15.3732471236
30
0.0000000000
10
2.3184930991
20
-15.3309895658
30
0.0000000000
11
2.2005058574
21
-15.4517326357
31
0.0000000000
11
2.3184930991
21
-15.3309895658
31
0.0000000000
0
SPLINE
5
2B1
100
AcDbEntity
8
0
100
AcDbSpline
62
9
6
CONTINUOUS
70
0
71
3
72
8
73
4
74
2
42
0.0000001000
43
0.0000001000
44
0.0000000001
12
0.1143788902
22
0.1298421665
32
0.0000000000
13
0.1006848044
23
0.1405165492
33
0.0000000000
40
0.0000000000
40
0.0000000000
40
0.0000000000
40
0.0000000000
40
1.0000000000
40
1.0000000000
40
1.0000000000
40
1.0000000000
10
2.3184930991
20
-15.3309895658
30
0.0000000000
10
2.3566193958
20
-15.2877088436
30
0.0000000000
10
2.3925088510
20
-15.2424495851
30
0.0000000000
10
2.4260704525
20
-15.1956107354
30
0.0000000000
11
2.3184930991
21
-15.3309895658
31
0.0000000000
11
2.4260704525
21
-15.1956107354
31
0.0000000000
0
SPLINE
5
2B2
100
AcDbEntity
8
0
100
AcDbSpline
62
9
6
CONTINUOUS
70
0
71
3
72
8
73
4
74
2
42
0.0000001000
43
0.0000001000
44
0.0000000001
12
0.2109927838
22
0.2944632812
32
0.0000000000
13
0.1531427414
23
0.3281182925
33
0.0000000000
40
0.0000000000
40
0.0000000000
40
0.0000000000
40
0.0000000000
40
1.0000000000
40
1.0000000000
40
1.0000000000
40
1.0000000000
10
2.4260704525
20
-15.1956107354
30
0.0000000000
10
2.4964013805
20
-15.0974563084
30
0.0000000000
10
2.5565096692
20
-14.9923651950
30
0.0000000000
10
2.6075572497
20
-14.8829924309
30
0.0000000000
11
2.4260704525
21
-15.1956107354
31
0.0000000000
11
2.6075572497
21
-14.8829924309
31
0.0000000000
0
SPLINE
5
2B3
100
AcDbEntity
8
0
100
AcDbSpline
62
9
6
CONTINUOUS
70
0
71
3
72
8
73
4
74
2
42
0.0000001000
43
0.0000001000
44
0.0000000001
12
0.0806117535
22
0.1727159294
32
0.0000000000
13
0.0660569536
23
0.1786723581
33
0.0000000000
40
0.0000000000
40
0.0000000000
40
0.0000000000
40
0.0000000000
40
1.0000000000
40
1.0000000000
40
1.0000000000
40
1.0000000000
10
2.6075572497
20
-14.8829924309
30
0.0000000000
10
2.6344278342
20
-14.8254204544
30
0.0000000000
10
2.6587878850
20
-14.7666621216
30
0.0000000000
10
2.6808068695
20
-14.7071046689
30
0.0000000000
11
2.6075572497
21
-14.8829924309
31
0.0000000000
11
2.6808068695
21
-14.7071046689
31
0.0000000000
0
SPLINE
5
2B4
100
AcDbEntity
8
0
100
AcDbSpline
62
9
6
CONTINUOUS
70
0
71
3
72
8
73
4
74
2
42
0.0000001000
43
0.0000001000
44
0.0000000001
12
0.2136088659
22
0.5777741429
32
0.0000000000
13
0.0852170052
23
0.6094892564
33
0.0000000000
40
0.0000000000
40
0.0000000000
40
0.0000000000
40
0.0000000000
40
1.0000000000
40
1.0000000000
40
1.0000000000
40
1.0000000000
10
2.6808068695
20
-14.7071046689
30
0.0000000000
10
2.7520098248
20
-14.5145132880
30
0.0000000000
10
2.7987325681
20
-14.3135656187
30
0.0000000000
10
2.8271382365
20
-14.1104025333
30
0.0000000000
11
2.6808068695
21
-14.7071046689
31
0.0000000000
11
2.8271382365
21
-14.1104025333
31
0.0000000000
0
SPLINE
5
2B5
100
AcDbEntity
8
0
100
AcDbSpline
62
9
6
CONTINUOUS
70
0
71
3
72
10
73
6
74
4
42
0.0000001000
43
0.0000001000
44
0.0000000001
12
0.3084335875
22
2.2059793979
32
0.0000000000
13
-0.6771287925
23
2.1196074761
33
0.0000000000
40
0.0000000000
40
0.0000000000
40
0.0000000000
40
0.0000000000
40
0.3070344984
40
0.6423010896
40
1.0000000000
40
1.0000000000
40
1.0000000000
40
1.0000000000
10
2.8271382365
20
-14.1104025333
30
0.0000000000
10
2.8587048204
20
-13.8846319407
30
0.0000000000
10
2.8774196904
20
-13.4066075786
30
0.0000000000
10
2.7910890742
20
-12.6678767407
30
0.0000000000
10
2.6636769613
20
-12.1688728563
30
0.0000000000
10
2.5829408842
20
-11.9161457614
30
0.0000000000
11
2.8271382365
21
-14.1104025333
31
0.0000000000
11
2.8596499334
21
-13.4284271175
31
0.0000000000
11
2.7772049314
21
-12.6874703687
31
0.0000000000
11
2.5829408842
21
-11.9161457614
31
0.0000000000
0
SPLINE
5
2B6
100
AcDbEntity
8
0
100
AcDbSpline
62
9
6
CONTINUOUS
70
0
71
3
72
8
73
4
74
2
42
0.0000001000
43
0.0000001000
44
0.0000000001
12
-0.0832135611
22
0.2604823310
32
0.0000000000
13
-0.0936137614
23
0.2569042222
33
0.0000000000
40
0.0000000000
40
0.0000000000
40
0.0000000000
40
0.0000000000
40
1.0000000000
40
1.0000000000
40
1.0000000000
40
1.0000000000
10
2.5829408842
20
-11.9161457614
30
0.0000000000
10
2.5552030305
20
-11.8293183177
30
0.0000000000
10
2.5256984587
20
-11.7430635315
30
0.0000000000
10
2.4944938716
20
-11.6574287908
30
0.0000000000
11
2.5829408842
21
-11.9161457614
31
0.0000000000
11
2.4944938716
21
-11.6574287908
31
0.0000000000
0
SPLINE
5
2B7
100
AcDbEntity
8
0
100
AcDbSpline
62
9
6
CONTINUOUS
70
0
71
3
72
13
73
9
74
7
42
0.0000001000
43
0.0000001000
44
0.0000000001
12
-1.3777845568
22
3.7810538151
32
0.0000000000
13
-3.3682588736
23
2.2108366888
33
0.0000000000
40
0.0000000000
40
0.0000000000
40
0.0000000000
40
0.0000000000
40
0.1378457381
40
0.3466521895
40
0.5532153383
40
0.7526789859
40
0.9407071649
40
1.0000000000
40
1.0000000000
40
1.0000000000
40
1.0000000000
10
2.4944938716
20
-11.6574287908
30
0.0000000000
10
2.4311866285
20
-11.4836947395
30
0.0000000000
10
2.2543862364
20
-11.0532091281
30
0.0000000000
10
1.9072360511
20
-10.3959563729
30
0.0000000000
10
1.4399775967
20
-9.7146237420
30
0.0000000000
10
0.9119717806
20
-9.1154620377
30
0.0000000000
10
0.4582256324
20
-8.7216062396
30
0.0000000000
10
0.1855876308
20
-8.5315228718
30
0.0000000000
10
0.1190164248
20
-8.4878272800
30
0.0000000000
11
2.4944938716
21
-11.6574287908
31
0.0000000000
11
2.2841376088
21
-11.1442785691
31
0.0000000000
11
1.8919241735
21
-10.4016781837
31
0.0000000000
11
1.4210426215
21
-9.7172190916
31
0.0000000000
11
0.8887921564
21
-9.1169744205
31
0.0000000000
11
0.3150786909
21
-8.6242699678
31
0.0000000000
11
0.1190164248
21
-8.4878272800
31
0.0000000000
0
SPLINE
5
2B8
100
AcDbEntity
8
0
100
AcDbSpline
62
9
6
CONTINUOUS
70
0
71
3
72
8
73
4
74
2
42
0.0000001000
43
0.0000001000
44
0.0000000001
12
-0.1937012548
22
0.1271404179
32
0.0000000000
13
-0.2004565634
23
0.1158201127
33
0.0000000000
40
0.0000000000
40
0.0000000000
40
0.0000000000
40
0.0000000000
40
1.0000000000
40
1.0000000000
40
1.0000000000
40
1.0000000000
10
0.1190164248
20
-8.4878272800
30
0.0000000000
10
0.0544493399
20
-8.4454471407
30
0.0000000000
10
-0.0112549216
20
-8.4048308713
30
0.0000000000
10
-0.0780737760
20
-8.3662241670
30
0.0000000000
11
0.1190164248
21
-8.4878272800
31
0.0000000000
11
-0.0780737760
21
-8.3662241670
31
0.0000000000
0
SPLINE
5
2B9
100
AcDbEntity
8
0
100
AcDbSpline
62
9
6
CONTINUOUS
70
0
71
3
72
8
73
4
74
2
42
0.0000001000
43
0.0000001000
44
0.0000000001
12
-0.1941606811
22
0.1121824678
32
0.0000000000
13
-0.2003731894
23
0.1002007788
33
0.0000000000
40
0.0000000000
40
0.0000000000
40
0.0000000000
40
0.0000000000
40
1.0000000000
40
1.0000000000
40
1.0000000000
40
1.0000000000
10
-0.0780737760
20
-8.3662241670
30
0.0000000000
10
-0.1427940031
20
-8.3288300111
30
0.0000000000
10
-0.2085599090
20
-8.2933211710
30
0.0000000000
10
-0.2753509721
20
-8.2599209114
30
0.0000000000
11
-0.0780737760
21
-8.3662241670
31
0.0000000000
11
-0.2753509721
21
-8.2599209114
31
0.0000000000
0
SPLINE
5
2BA
100
AcDbEntity
8
0
100
AcDbSpline
62
9
6
CONTINUOUS
70
0
71
3
72
8
73
4
74
2
42
0.0000001000
43
0.0000001000
44
0.0000000001
12
0.0394117428
22
-0.0196999256
32
0.0000000000
13
0.0396751907
23
-0.0192176397
33
0.0000000000
40
0.0000000000
40
0.0000000000
40
0.0000000000
40
0.0000000000
40
1.0000000000
40
1.0000000000
40
1.0000000000
40
1.0000000000
10
-0.0881081752
20
-15.5010296484
30
0.0000000000
10
-0.0749709276
20
-15.5075962903
30
0.0000000000
10
-0.0617894237
20
-15.5140840812
30
0.0000000000
10
-0.0485643601
20
-15.5204899611
30
0.0000000000
11
-0.0881081752
21
-15.5010296484
31
0.0000000000
11
-0.0485643601
21
-15.5204899611
31
0.0000000000
0
SPLINE
5
2BB
100
AcDbEntity
8
0
100
AcDbSpline
62
9
6
CONTINUOUS
70
0
71
3
72
8
73
4
74
2
42
0.0000001000
43
0.0000001000
44
0.0000000001
12
0.1517915553
22
-0.0735239170
32
0.0000000000
13
0.1555000348
23
-0.0658161824
33
0.0000000000
40
0.0000000000
40
0.0000000000
40
0.0000000000
40
0.0000000000
40
1.0000000000
40
1.0000000000
40
1.0000000000
40
1.0000000000
10
-0.0485643601
20
-15.5204899611
30
0.0000000000
10
0.0020328250
20
-15.5449979334
30
0.0000000000
10
0.0532675994
20
-15.5683069611
30
0.0000000000
10
0.1051009443
20
-15.5902456886
30
0.0000000000
11
-0.0485643601
21
-15.5204899611
31
0.0000000000
11
0.1051009443
21
-15.5902456886
31
0.0000000000
0
SPLINE
5
2BC
100
AcDbEntity
8
0
100
AcDbSpline
62
9
6
CONTINUOUS
70
0
71
3
72
8
73
4
74
2
42
0.0000001000
43
0.0000001000
44
0.0000000001
12
0.3682804549
22
-0.1558765799
32
0.0000000000
13
0.3868702236
23
-0.1029302282
33
0.0000000000
40
0.0000000000
40
0.0000000000
40
0.0000000000
40
0.0000000000
40
1.0000000000
40
1.0000000000
40
1.0000000000
40
1.0000000000
10
0.1051009443
20
-15.5902456886
30
0.0000000000
10
0.2278610959
20
-15.6422045485
30
0.0000000000
10
0.3539787142
20
-15.6864772013
30
0.0000000000
10
0.4829354554
20
-15.7207872774
30
0.0000000000
11
0.1051009443
21
-15.5902456886
31
0.0000000000
11
0.4829354554
21
-15.7207872774
31
0.0000000000
0
SPLINE
5
2BD
100
AcDbEntity
8
0
100
AcDbSpline
62
9
6
CONTINUOUS
70
0
71
3
72
8
73
4
74
2
42
0.0000001000
43
0.0000001000
44
0.0000000001
12
0.1836685898
22
-0.0488666450
32
0.0000000000
13
0.1869577033
23
-0.0343510044
33
0.0000000000
40
0.0000000000
40
0.0000000000
40
0.0000000000
40
0.0000000000
40
1.0000000000
40
1.0000000000
40
1.0000000000
40
1.0000000000
10
0.4829354554
20
-15.7207872774
30
0.0000000000
10
0.5441583186
20
-15.7370761590
30
0.0000000000
10
0.6060210985
20
-15.7511195521
30
0.0000000000
10
0.6683403329
20
-15.7625698869
30
0.0000000000
11
0.4829354554
21
-15.7207872774
31
0.0000000000
11
0.6683403329
21
-15.7625698869
31
0.0000000000
0
SPLINE
5
2BE
100
AcDbEntity
8
0
100
AcDbSpline
62
9
6
CONTINUOUS
70
0
71
3
72
8
73
4
74
2
42
0.0000001000
43
0.0000001000
44
0.0000000001
12
0.1814602202
22
-0.0333409146
32
0.0000000000
13
0.1835370038
23
-0.0177306929
33
0.0000000000
40
0.0000000000
40
0.0000000000
40
0.0000000000
40
0.0000000000
40
1.0000000000
40
1.0000000000
40
1.0000000000
40
1.0000000000
10
0.6683403329
20
-15.7625698869
30
0.0000000000
10
0.7288270730
20
-15.7736835251
30
0.0000000000
10
0.7897438182
20
-15.7823543605
30
0.0000000000
10
0.8509228195
20
-15.7882645914
30
0.0000000000
11
0.6683403329
21
-15.7625698869
31
0.0000000000
11
0.8509228195
21
-15.7882645914
31
0.0000000000
0
SPLINE
5
2BF
100
AcDbEntity
8
0
100
AcDbSpline
62
9
6
CONTINUOUS
70
0
71
3
72
9
73
5
74
3
42
0.0000001000
43
0.0000001000
44
0.0000000001
12
0.5141602316
22
-0.0496707311
32
0.0000000000
13
0.5076092878
23
0.0993845172
33
0.0000000000
40
0.0000000000
40
0.0000000000
40
0.0000000000
40
0.0000000000
40
0.3434268815
40
1.0000000000
40
1.0000000000
40
1.0000000000
40
1.0000000000
10
0.8509228195
20
-15.7882645914
30
0.0000000000
10
0.9097816345
20
-15.7939506795
30
0.0000000000
10
1.0818751994
20
-15.8030673292
30
0.0000000000
10
1.2547603645
20
-15.7881197518
30
0.0000000000
10
1.3658545689
20
-15.7663686844
30
0.0000000000
11
0.8509228195
21
-15.7882645914
31
0.0000000000
11
1.0280781101
21
-15.7973743011
31
0.0000000000
11
1.3658545689
21
-15.7663686844
31
0.0000000000
0
SPLINE
5
2C0
100
AcDbEntity
8
0
100
AcDbSpline
62
9
6
CONTINUOUS
70
0
71
3
72
8
73
4
74
2
42
0.0000001000
43
0.0000001000
44
0.0000000001
12
0.1605957302
22
0.0314429414
32
0.0000000000
13
0.1563017670
23
0.0485973158
33
0.0000000000
40
0.0000000000
40
0.0000000000
40
0.0000000000
40
0.0000000000
40
1.0000000000
40
1.0000000000
40
1.0000000000
40
1.0000000000
10
1.3658545689
20
-15.7663686844
30
0.0000000000
10
1.4193864789
20
-15.7558877039
30
0.0000000000
10
1.4723570597
20
-15.7426351023
30
0.0000000000
10
1.5244576487
20
-15.7264359970
30
0.0000000000
11
1.3658545689
21
-15.7663686844
31
0.0000000000
11
1.5244576487
21
-15.7264359970
31
0.0000000000
0
SPLINE
5
2C1
100
AcDbEntity
8
0
100
AcDbSpline
62
9
6
CONTINUOUS
70
0
71
3
72
8
73
4
74
2
42
0.0000001000
43
0.0000001000
44
0.0000000001
12
0.1537806993
22
0.0478134659
32
0.0000000000
13
0.1477316789
23
0.0645219350
33
0.0000000000
40
0.0000000000
40
0.0000000000
40
0.0000000000
40
0.0000000000
40
1.0000000000
40
1.0000000000
40
1.0000000000
40
1.0000000000
10
1.5244576487
20
-15.7264359970
30
0.0000000000
10
1.5757178818
20
-15.7104981751
30
0.0000000000
10
1.6261359618
20
-15.6917081341
30
0.0000000000
10
1.6753798548
20
-15.6702008224
30
0.0000000000
11
1.5244576487
21
-15.7264359970
31
0.0000000000
11
1.6753798548
21
-15.6702008224
31
0.0000000000
0
SPLINE
5
2C2
100
AcDbEntity
8
0
100
AcDbSpline
62
9
6
CONTINUOUS
70
0
71
3
72
8
73
4
74
2
42
0.0000001000
43
0.0000001000
44
0.0000000001
12
0.1472518016
22
0.0643123482
32
0.0000000000
13
0.1392659476
23
0.0801093135
33
0.0000000000
40
0.0000000000
40
0.0000000000
40
0.0000000000
40
0.0000000000
40
1.0000000000
40
1.0000000000
40
1.0000000000
40
1.0000000000
10
1.6753798548
20
-15.6702008224
30
0.0000000000
10
1.7244637887
20
-15.6487633730
30
0.0000000000
10
1.7723811513
20
-15.6246262773
30
0.0000000000
10
1.8188031338
20
-15.5979231728
30
0.0000000000
11
1.6753798548
21
-15.6702008224
31
0.0000000000
11
1.8188031338
21
-15.5979231728
31
0.0000000000
0
SPLINE
5
2C3
100
AcDbEntity
8
0
100
AcDbSpline
62
9
6
CONTINUOUS
70
0
71
3
72
8
73
4
74
2
42
0.0000001000
43
0.0000001000
44
0.0000000001
12
0.1389489618
22
0.0799269752
32
0.0000000000
13
0.1290377725
23
0.0948548399
33
0.0000000000
40
0.0000000000
40
0.0000000000
40
0.0000000000
40
0.0000000000
40
1.0000000000
40
1.0000000000
40
1.0000000000
40
1.0000000000
10
1.8188031338
20
-15.5979231728
30
0.0000000000
10
1.8651194544
20
-15.5712808478
30
0.0000000000
10
1.9099471945
20
-15.5420841817
30
0.0000000000
10
1.9529597854
20
-15.5104659017
30
0.0000000000
11
1.8188031338
21
-15.5979231728
31
0.0000000000
11
1.9529597854
21
-15.5104659017
31
0.0000000000
0
SPLINE
5
2C4
100
AcDbEntity
8
0
100
AcDbSpline
62
9
6
CONTINUOUS
70
0
71
3
72
8
73
4
74
2
42
0.0000001000
43
0.0000001000
44
0.0000000001
12
0.1304001401
22
0.0958563076
32
0.0000000000
13
0.1190434552
23
0.1096604822
33
0.0000000000
40
0.0000000000
40
0.0000000000
40
0.0000000000
40
0.0000000000
40
1.0000000000
40
1.0000000000
40
1.0000000000
40
1.0000000000
10
1.9529597854
20
-15.5104659017
30
0.0000000000
10
1.9964264987
20
-15.4785137992
30
0.0000000000
10
2.0380395322
20
-15.4440886785
30
0.0000000000
10
2.0777206839
20
-15.4075351844
30
0.0000000000
11
1.9529597854
21
-15.5104659017
31
0.0000000000
11
2.0777206839
21
-15.4075351844
31
0.0000000000
0
SPLINE
5
2C5
100
AcDbEntity
8
0
100
AcDbSpline
62
9
6
CONTINUOUS
70
0
71
3
72
8
73
4
74
2
42
0.0000001000
43
0.0000001000
44
0.0000000001
12
0.1215464470
22
0.1119661889
32
0.0000000000
13
0.1092128815
23
0.1241785522
33
0.0000000000
40
0.0000000000
40
0.0000000000
40
0.0000000000
40
0.0000000000
40
1.0000000000
40
1.0000000000
40
1.0000000000
40
1.0000000000
10
2.0777206839
20
-15.4075351844
30
0.0000000000
10
2.1182361662
20
-15.3702131215
30
0.0000000000
10
2.1567376738
20
-15.3306722424
30
0.0000000000
10
2.1931419676
20
-15.2892793917
30
0.0000000000
11
2.0777206839
21
-15.4075351844
31
0.0000000000
11
2.1931419676
21
-15.2892793917
31
0.0000000000
0
SPLINE
5
2C6
100
AcDbEntity
8
0
100
AcDbSpline
62
9
6
CONTINUOUS
70
0
71
3
72
8
73
4
74
2
42
0.0000001000
43
0.0000001000
44
0.0000000001
12
0.1113293875
22
0.1265850875
32
0.0000000000
13
0.0979891416
23
0.1369660123
33
0.0000000000
40
0.0000000000
40
0.0000000000
40
0.0000000000
40
0.0000000000
40
1.0000000000
40
1.0000000000
40
1.0000000000
40
1.0000000000
10
2.1931419676
20
-15.2892793917
30
0.0000000000
10
2.2302517635
20
-15.2470843625
30
0.0000000000
10
2.2651822714
20
-15.2029648850
30
0.0000000000
10
2.2978453186
20
-15.1573095476
30
0.0000000000
11
2.1931419676
21
-15.2892793917
31
0.0000000000
11
2.2978453186
21
-15.1573095476
31
0.0000000000
0
SPLINE
5
2C7
100
AcDbEntity
8
0
100
AcDbSpline
62
9
6
CONTINUOUS
70
0
71
3
72
8
73
4
74
2
42
0.0000001000
43
0.0000001000
44
0.0000000001
12
0.3140202012
22
0.4389271508
32
0.0000000000
13
0.1864949846
23
0.5058655069
33
0.0000000000
40
0.0000000000
40
0.0000000000
40
0.0000000000
40
0.0000000000
40
1.0000000000
40
1.0000000000
40
1.0000000000
40
1.0000000000
10
2.2978453186
20
-15.1573095476
30
0.0000000000
10
2.4025187190
20
-15.0110004973
30
0.0000000000
10
2.4839058969
20
-14.8489185712
30
0.0000000000
10
2.5460708918
20
-14.6802967356
30
0.0000000000
11
2.2978453186
21
-15.1573095476
31
0.0000000000
11
2.5460708918
21
-14.6802967356
31
0.0000000000
0
SPLINE
5
2C8
100
AcDbEntity
8
0
100
AcDbSpline
62
9
6
CONTINUOUS
70
0
71
3
72
17
73
13
74
11
42
0.0000001000
43
0.0000001000
44
0.0000000001
12
2.5706368073
22
6.9728228581
32
0.0000000000
13
-6.6291976094
23
3.3155362197
33
0.0000000000
40
0.0000000000
40
0.0000000000
40
0.0000000000
40
0.0000000000
40
0.0809274371
40
0.1708828429
40
0.2691273082
40
0.3739570448
40
0.4830456156
40
0.5937338889
40
0.7032308860
40
0.8089596271
40
0.9086197771
40
1.0000000000
40
1.0000000000
40
1.0000000000
40
1.0000000000
10
2.5460708918
20
-14.6802967356
30
0.0000000000
10
2.6154159079
20
-14.4921991746
30
0.0000000000
10
2.7113356874
20
-14.0778370179
30
0.0000000000
10
2.7368651783
20
-13.4101880974
30
0.0000000000
10
2.6519685332
20
-12.6887142753
30
0.0000000000
10
2.4601557359
20
-11.9395743111
30
0.0000000000
10
2.1684248276
20
-11.1905410936
30
0.0000000000
10
1.7873344977
20
-10.4697691374
30
0.0000000000
10
1.3306650429
20
-9.8043249563
30
0.0000000000
10
0.8147460147
20
-9.2191592045
30
0.0000000000
10
0.2592462771
20
-8.7371056917
30
0.0000000000
10
-0.1428711516
20
-8.4847712513
30
0.0000000000
10
-0.3447970033
20
-8.3837797717
30
0.0000000000
11
2.5460708918
21
-14.6802967356
31
0.0000000000
11
2.6883906376
21
-14.0975835896
31
0.0000000000
11
2.7195431740
21
-13.4315544078
31
0.0000000000
11
2.6384415806
21
-12.7078881983
31
0.0000000000
11
2.4481699455
21
-11.9545377709
31
0.0000000000
11
2.1558576232
21
-11.2006508603
31
0.0000000000
11
1.7723881734
21
-10.4753519675
31
0.0000000000
11
1.3121692811
21
-9.8068496990
31
0.0000000000
11
0.7921003194
21
-9.2206176515
31
0.0000000000
11
0.2316311098
21
-8.7394349240
31
0.0000000000
11
-0.3447970033
21
-8.3837797717
31
0.0000000000
0
SPLINE
5
2C9
100
AcDbEntity
8
0
100
AcDbSpline
62
9
6
CONTINUOUS
70
0
71
3
72
10
73
6
74
4
42
0.0000001000
43
0.0000001000
44
0.0000000001
12
-0.0035871791
22
0.1475541866
32
0.0000000000
13
0.1308773370
23
0.0682365629
33
0.0000000000
40
0.0000000000
40
0.0000000000
40
0.0000000000
40
0.0000000000
40
0.3317386883
40
0.6843963937
40
1.0000000000
40
1.0000000000
40
1.0000000000
40
1.0000000000
10
-0.3447970033
20
-8.3837797717
30
0.0000000000
10
-0.3451936720
20
-8.3674632943
30
0.0000000000
10
-0.3382747635
20
-8.3335564302
30
0.0000000000
10
-0.3141532114
20
-8.2900945631
30
0.0000000000
10
-0.2891194253
20
-8.2670994798
30
0.0000000000
10
-0.2753509721
20
-8.2599209114
30
0.0000000000
11
-0.3447970033
21
-8.3837797717
31
0.0000000000
11
-0.3362331150
21
-8.3355706143
31
0.0000000000
11
-0.3107768437
21
-8.2901686709
31
0.0000000000
11
-0.2753509721
21
-8.2599209114
31
0.0000000000
0
SPLINE
5
2CA
100
AcDbEntity
8
0
100
AcDbSpline
62
9
6
CONTINUOUS
70
0
71
3
72
8
73
4
74
2
42
0.0000001000
43
0.0000001000
44
0.0000000001
12
-0.0446821261
22
0.0223340789
32
0.0000000000
13
-0.0450290723
23
0.0216970894
33
0.0000000000
40
0.0000000000
40
0.0000000000
40
0.0000000000
40
0.0000000000
40
1.0000000000
40
1.0000000000
40
1.0000000000
40
1.0000000000
10
-3.3146454843
20
-6.8988555312
30
0.0000000000
10
-3.3295395263
20
-6.8914108383
30
0.0000000000
10
-3.3444919726
20
-6.8840701079
30
0.0000000000
10
-3.3595016634
20
-6.8768377448
30
0.0000000000
11
-3.3146454843
21
-6.8988555312
31
0.0000000000
11
-3.3595016634
21
-6.8768377448
31
0.0000000000
0
SPLINE
5
2CB
100
AcDbEntity
8
0
100
AcDbSpline
62
9
6
CONTINUOUS
70
0
71
3
72
8
73
4
74
2
42
0.0000001000
43
0.0000001000
44
0.0000000001
12
-0.1884826806
22
0.0794362403
32
0.0000000000
13
-0.1936039237
23
0.0662299979
33
0.0000000000
40
0.0000000000
40
0.0000000000
40
0.0000000000
40
0.0000000000
40
1.0000000000
40
1.0000000000
40
1.0000000000
40
1.0000000000
10
-3.5082467013
20
-6.8096432027
30
0.0000000000
10
-3.5710742615
20
-6.7831644559
30
0.0000000000
10
-3.6347949633
20
-6.7587363566
30
0.0000000000
10
-3.6993296045
20
-6.7366596907
30
0.0000000000
11
-3.5082467013
21
-6.8096432027
31
0.0000000000
11
-3.6993296045
21
-6.7366596907
31
0.0000000000
0
SPLINE
5
2CC
100
AcDbEntity
8
0
100
AcDbSpline
62
9
6
CONTINUOUS
70
0
71
3
72
10
73
6
74
4
42
0.0000001000
43
0.0000001000
44
0.0000000001
12
-0.8767544613
22
0.2999290769
32
0.0000000000
13
-0.9242007057
23
-0.0899294697
33
0.0000000000
40
0.0000000000
40
0.0000000000
40
0.0000000000
40
0.0000000000
40
0.2124841543
40
0.8126462030
40
1.0000000000
40
1.0000000000
40
1.0000000000
40
1.0000000000
10
-3.6993296045
20
-6.7366596907
30
0.0000000000
10
-3.7614284146
20
-6.7154162986
30
0.0000000000
10
-4.0018078333
20
-6.6424978865
30
0.0000000000
10
-4.3099010928
20
-6.5967807433
30
0.0000000000
10
-4.5537071874
20
-6.6083286577
30
0.0000000000
10
-4.6114246912
20
-6.6139448669
30
0.0000000000
11
-3.6993296045
21
-6.7366596907
31
0.0000000000
11
-3.8878164333
21
-6.6797293374
31
0.0000000000
11
-4.4377685690
21
-6.6055253674
31
0.0000000000
11
-4.6114246912
21
-6.6139448669
31
0.0000000000
0
SPLINE
5
2CD
100
AcDbEntity
8
0
100
AcDbSpline
62
9
6
CONTINUOUS
70
0
71
3
72
8
73
4
74
2
42
0.0000001000
43
0.0000001000
44
0.0000000001
12
-0.1696002327
22
-0.0165029727
32
0.0000000000
13
-0.1669671392
23
-0.0335180087
33
0.0000000000
40
0.0000000000
40
0.0000000000
40
0.0000000000
40
0.0000000000
40
1.0000000000
40
1.0000000000
40
1.0000000000
40
1.0000000000
10
-4.6114246912
20
-6.6139448669
30
0.0000000000
10
-4.6679581021
20
-6.6194458578
30
0.0000000000
10
-4.7242179568
20
-6.6276992482
30
0.0000000000
10
-4.7798736698
20
-6.6388719177
30
0.0000000000
11
-4.6114246912
21
-6.6139448669
31
0.0000000000
11
-4.7798736698
21
-6.6388719177
31
0.0000000000
0
SPLINE
5
2CE
100
AcDbEntity
8
0
100
AcDbSpline
62
9
6
CONTINUOUS
70
0
71
3
72
8
73
4
74
2
42
0.0000001000
43
0.0000001000
44
0.0000000001
12
-0.1630420979
22
-0.0327300718
32
0.0000000000
13
-0.1586622250
23
-0.0498980704
33
0.0000000000
40
0.0000000000
40
0.0000000000
40
0.0000000000
40
0.0000000000
40
1.0000000000
40
1.0000000000
40
1.0000000000
40
1.0000000000
10
-4.7798736698
20
-6.6388719177
30
0.0000000000
10
-4.8342210358
20
-6.6497819417
30
0.0000000000
10
-4.8879923305
20
-6.6634756061
30
0.0000000000
10
-4.9408797388
20
-6.6801082962
30
0.0000000000
11
-4.7798736698
21
-6.6388719177
31
0.0000000000
11
-4.9408797388
21
-6.6801082962
31
0.0000000000
0
SPLINE
5
2CF
100
AcDbEntity
8
0
100
AcDbSpline
62
9
6
CONTINUOUS
70
0
71
3
72
8
73
4
74
2
42
0.0000001000
43
0.0000001000
44
0.0000000001
12
-0.0506747261
22
-0.0159368183
32
0.0000000000
13
-0.0501008858
23
-0.0177217113
33
0.0000000000
40
0.0000000000
40
0.0000000000
40
0.0000000000
40
0.0000000000
40
1.0000000000
40
1.0000000000
40
1.0000000000
40
1.0000000000
10
-4.9408797388
20
-6.6801082962
30
0.0000000000
10
-4.9577713142
20
-6.6854205689
30
0.0000000000
10
-4.9745727258
20
-6.6910326469
30
0.0000000000
10
-4.9912730210
20
-6.6969398840
30
0.0000000000
11
-4.9408797388
21
-6.6801082962
31
0.0000000000
11
-4.9912730210
21
-6.6969398840
31
0.0000000000
0
SPLINE
5
2D0
100
AcDbEntity
8
0
100
AcDbSpline
62
9
6
CONTINUOUS
70
0
71
3
72
8
73
4
74
2
42
0.0000001000
43
0.0000001000
44
0.0000000001
12
-0.1498617630
22
-0.0657206991
32
0.0000000000
13
-0.1418591728
23
-0.0815385742
33
0.0000000000
40
0.0000000000
40
0.0000000000
40
0.0000000000
40
0.0000000000
40
1.0000000000
40
1.0000000000
40
1.0000000000
40
1.0000000000
10
-5.0943251223
20
-6.7377011874
30
0.0000000000
10
-5.1442790433
20
-6.7596080871
30
0.0000000000
10
-5.1930588455
20
-6.7842190209
30
0.0000000000
10
-5.2403452364
20
-6.8113985457
30
0.0000000000
11
-5.0943251223
21
-6.7377011874
31
0.0000000000
11
-5.2403452364
21
-6.8113985457
31
0.0000000000
0
SPLINE
5
2D1
100
AcDbEntity
8
0
100
AcDbSpline
62
9
6
CONTINUOUS
70
0
71
3
72
8
73
4
74
2
42
0.0000001000
43
0.0000001000
44
0.0000000001
12
-0.1415440232
22
-0.0813574308
32
0.0000000000
13
-0.1316718172
23
-0.0962969496
33
0.0000000000
40
0.0000000000
40
0.0000000000
40
0.0000000000
40
0.0000000000
40
1.0000000000
40
1.0000000000
40
1.0000000000
40
1.0000000000
10
-5.2403452364
20
-6.8113985457
30
0.0000000000
10
-5.2875265775
20
-6.8385176893
30
0.0000000000
10
-5.3332211354
20
-6.8681940239
30
0.0000000000
10
-5.3771117411
20
-6.9002930071
30
0.0000000000
11
-5.2403452364
21
-6.8113985457
31
0.0000000000
11
-5.3771117411
21
-6.9002930071
31
0.0000000000
0
SPLINE
5
2D2
100
AcDbEntity
8
0
100
AcDbSpline
62
9
6
CONTINUOUS
70
0
71
3
72
8
73
4
74
2
42
0.0000001000
43
0.0000001000
44
0.0000000001
12
-0.1329791617
22
-0.0972530638
32
0.0000000000
13
-0.1216772859
23
-0.1110833362
33
0.0000000000
40
0.0000000000
40
0.0000000000
40
0.0000000000
40
0.0000000000
40
1.0000000000
40
1.0000000000
40
1.0000000000
40
1.0000000000
10
-5.3771117411
20
-6.9002930071
30
0.0000000000
10
-5.4214381284
20
-6.9327106950
30
0.0000000000
10
-5.4639245634
20
-6.9675993784
30
0.0000000000
10
-5.5044836587
20
-7.0046271571
30
0.0000000000
11
-5.3771117411
21
-6.9002930071
31
0.0000000000
11
-5.5044836587
21
-7.0046271571
31
0.0000000000
0
SPLINE
5
2D3
100
AcDbEntity
8
0
100
AcDbSpline
62
9
6
CONTINUOUS
70
0
71
3
72
8
73
4
74
2
42
0.0000001000
43
0.0000001000
44
0.0000000001
12
-0.1281329012
22
-0.1169768871
32
0.0000000000
13
-0.1150031040
23
-0.1300467306
33
0.0000000000
40
0.0000000000
40
0.0000000000
40
0.0000000000
40
0.0000000000
40
1.0000000000
40
1.0000000000
40
1.0000000000
40
1.0000000000
10
-5.5044836587
20
-7.0046271571
30
0.0000000000
10
-5.5471946257
20
-7.0436194528
30
0.0000000000
10
-5.5877683170
20
-7.0849838455
30
0.0000000000
10
-5.6261026850
20
-7.1283327557
30
0.0000000000
11
-5.5044836587
21
-7.0046271571
31
0.0000000000
11
-5.6261026850
21
-7.1283327557
31
0.0000000000
0
SPLINE
5
2D4
100
AcDbEntity
8
0
100
AcDbSpline
62
9
6
CONTINUOUS
70
0
71
3
72
8
73
4
74
2
42
0.0000001000
43
0.0000001000
44
0.0000000001
12
-0.1097444103
22
-0.1241001440
32
0.0000000000
13
-0.0972430979
23
-0.1339327877
33
0.0000000000
40
0.0000000000
40
0.0000000000
40
0.0000000000
40
0.0000000000
40
1.0000000000
40
1.0000000000
40
1.0000000000
40
1.0000000000
10
-5.6261026850
20
-7.1283327557
30
0.0000000000
10
-5.6626841551
20
-7.1696994704
30
0.0000000000
10
-5.6972264127
20
-7.2128733618
30
0.0000000000
10
-5.7296407787
20
-7.2575176243
30
0.0000000000
11
-5.6261026850
21
-7.1283327557
31
0.0000000000
11
-5.7296407787
21
-7.2575176243
31
0.0000000000
0
SPLINE
5
2D5
100
AcDbEntity
8
0
100
AcDbSpline
62
9
6
CONTINUOUS
70
0
71
3
72
12
73
8
74
6
42
0.0000001000
43
0.0000001000
44
0.0000000001
12
-1.6007303036
22
-2.7144353771
32
0.0000000000
13
0.9830965243
23
-2.9873257857
33
0.0000000000
40
0.0000000000
40
0.0000000000
40
0.0000000000
40
0.0000000000
40
0.1172029410
40
0.3090512252
40
0.5214614094
40
0.7530105838
40
1.0000000000
40
1.0000000000
40
1.0000000000
40
1.0000000000
10
-5.8259142587
20
-7.4045667522
30
0.0000000000
10
-5.8884510251
20
-7.5106133553
30
0.0000000000
10
-6.0267358024
20
-7.8060303413
30
0.0000000000
10
-6.1544366958
20
-8.3414772589
30
0.0000000000
10
-6.1815324492
20
-9.0103932371
30
0.0000000000
10
-6.0948294434
20
-9.7316610670
30
0.0000000000
10
-5.9668936952
20
-10.2178336496
30
0.0000000000
10
-5.8859555497
20
-10.4637796002
30
0.0000000000
11
-5.8259142587
21
-7.4045667522
31
0.0000000000
11
-5.9843325667
21
-7.7378310190
31
0.0000000000
11
-6.1309852101
21
-8.3226630590
31
0.0000000000
11
-6.1636333565
21
-8.9894250426
31
0.0000000000
11
-6.0808727711
21
-9.7124143197
31
0.0000000000
11
-5.8859555497
21
-10.4637796002
31
0.0000000000
0
SPLINE
5
2D6
100
AcDbEntity
8
0
100
AcDbSpline
62
9
6
CONTINUOUS
70
0
71
3
72
8
73
4
74
2
42
0.0000001000
43
0.0000001000
44
0.0000000001
12
0.0833360993
22
-0.2532325891
32
0.0000000000
13
0.0936512050
23
-0.2495757631
33
0.0000000000
40
0.0000000000
40
0.0000000000
40
0.0000000000
40
0.0000000000
40
1.0000000000
40
1.0000000000
40
1.0000000000
40
1.0000000000
10
-5.8859555497
20
-10.4637796002
30
0.0000000000
10
-5.8581768499
20
-10.5481904632
30
0.0000000000
10
-5.8286422985
20
-10.6320142938
30
0.0000000000
10
-5.7974252301
20
-10.7152062148
30
0.0000000000
11
-5.8859555497
21
-10.4637796002
31
0.0000000000
11
-5.7974252301
21
-10.7152062148
31
0.0000000000
0
SPLINE
5
2D7
100
AcDbEntity
8
0
100
AcDbSpline
62
9
6
CONTINUOUS
70
0
71
3
72
8
73
4
74
2
42
0.0000001000
43
0.0000001000
44
0.0000000001
12
0.0950661936
22
-0.2533466367
32
0.0000000000
13
0.1052385280
23
-0.2492989161
33
0.0000000000
40
0.0000000000
40
0.0000000000
40
0.0000000000
40
0.0000000000
40
1.0000000000
40
1.0000000000
40
1.0000000000
40
1.0000000000
10
-5.7974252301
20
-10.7152062148
30
0.0000000000
10
-5.7657364989
20
-10.7996550937
30
0.0000000000
10
-5.7323140240
20
-10.8834528236
30
0.0000000000
10
-5.6972345147
20
-10.9665524623
30
0.0000000000
11
-5.7974252301
21
-10.7152062148
31
0.0000000000
11
-5.6972345147
21
-10.9665524623
31
0.0000000000
0
SPLINE
5
2D8
100
AcDbEntity
8
0
100
AcDbSpline
62
9
6
CONTINUOUS
70
0
71
3
72
9
73
5
74
3
42
0.0000001000
43
0.0000001000
44
0.0000000001
12
0.2117982734
22
-0.5017276560
32
0.0000000000
13
0.2504250584
23
-0.4835765669
33
0.0000000000
40
0.0000000000
40
0.0000000000
40
0.0000000000
40
0.0000000000
40
0.4986742182
40
1.0000000000
40
1.0000000000
40
1.0000000000
40
1.0000000000
10
-5.6972345147
20
-10.9665524623
30
0.0000000000
10
-5.6620284019
20
-11.0499520112
30
0.0000000000
10
-5.5880820697
20
-11.2157845461
30
0.0000000000
10
-5.5077359487
20
-11.3785987302
30
0.0000000000
10
-5.4658877693
20
-11.4594085303
30
0.0000000000
11
-5.6972345147
21
-10.9665524623
31
0.0000000000
11
-5.5866866694
21
-11.2145942392
31
0.0000000000
11
-5.4658877693
21
-11.4594085303
31
0.0000000000
0
SPLINE
5
2D9
100
AcDbEntity
8
0
100
AcDbSpline
62
9
6
CONTINUOUS
70
0
71
3
72
8
73
4
74
2
42
0.0000001000
43
0.0000001000
44
0.0000000001
12
0.2521745052
22
-0.4869547890
32
0.0000000000
13
0.2891782771
23
-0.4659438166
33
0.0000000000
40
0.0000000000
40
0.0000000000
40
0.0000000000
40
0.0000000000
40
1.0000000000
40
1.0000000000
40
1.0000000000
40
1.0000000000
10
-5.4658877693
20
-11.4594085303
30
0.0000000000
10
-5.3818296009
20
-11.6217267933
30
0.0000000000
10
-5.2914426785
20
-11.7807642826
30
0.0000000000
10
-5.1950499194
20
-11.9360788882
30
0.0000000000
11
-5.4658877693
21
-11.4594085303
31
0.0000000000
11
-5.1950499194
21
-11.9360788882
31
0.0000000000
0
SPLINE
5
2DA
100
AcDbEntity
8
0
100
AcDbSpline
62
9
6
CONTINUOUS
70
0
71
3
72
10
73
6
74
4
42
0.0000001000
43
0.0000001000
44
0.0000000001
12
1.1070891933
22
-1.7838178206
32
0.0000000000
13
1.6342348682
23
-1.3187517377
33
0.0000000000
40
0.0000000000
40
0.0000000000
40
0.0000000000
40
0.0000000000
40
0.3874091141
40
0.7616978064
40
1.0000000000
40
1.0000000000
40
1.0000000000
40
1.0000000000
10
-5.1950499194
20
-11.9360788882
30
0.0000000000
10
-5.0520844382
20
-12.1664346487
30
0.0000000000
10
-4.7450200392
20
-12.6032432049
30
0.0000000000
10
-4.2761769548
20
-13.1247333595
30
0.0000000000
10
-3.9559387226
20
-13.4105035148
30
0.0000000000
10
-3.8261248047
20
-13.5152573255
30
0.0000000000
11
-5.1950499194
21
-11.9360788882
31
0.0000000000
11
-4.7267829016
21
-12.6005257557
31
0.0000000000
11
-4.2000904054
21
-13.1830721016
31
0.0000000000
11
-3.8261248047
21
-13.5152573255
31
0.0000000000
0
SPLINE
5
2DB
100
AcDbEntity
8
0
100
AcDbSpline
62
9
6
CONTINUOUS
70
0
71
3
72
8
73
4
74
2
42
0.0000001000
43
0.0000001000
44
0.0000000001
12
0.1876518673
22
-0.1367260770
32
0.0000000000
13
0.1945025658
23
-0.1268829554
33
0.0000000000
40
0.0000000000
40
0.0000000000
40
0.0000000000
40
0.0000000000
40
1.0000000000
40
1.0000000000
40
1.0000000000
40
1.0000000000
10
-3.6354478514
20
-13.6615956482
30
0.0000000000
10
-3.5728972290
20
-13.7071710072
30
0.0000000000
10
-3.5091953867
20
-13.7512319046
30
0.0000000000
10
-3.4443611982
20
-13.7935262231
30
0.0000000000
11
-3.6354478514
21
-13.6615956482
31
0.0000000000
11
-3.4443611982
21
-13.7935262231
31
0.0000000000
0
SPLINE
5
2DC
100
AcDbEntity
8
0
100
AcDbSpline
62
9
6
CONTINUOUS
70
0
71
3
72
8
73
4
74
2
42
0.0000001000
43
0.0000001000
44
0.0000000001
12
0.0472317020
22
-0.0308114081
32
0.0000000000
13
0.0476315245
23
-0.0301755477
33
0.0000000000
40
0.0000000000
40
0.0000000000
40
0.0000000000
40
0.0000000000
40
1.0000000000
40
1.0000000000
40
1.0000000000
40
1.0000000000
10
-3.4443611982
20
-13.7935262231
30
0.0000000000
10
-3.4286172975
20
-13.8037966925
30
0.0000000000
10
-3.4128066246
20
-13.8139629902
30
0.0000000000
10
-3.3969294498
20
-13.8240215061
30
0.0000000000
11
-3.4443611982
21
-13.7935262231
31
0.0000000000
11
-3.3969294498
21
-13.8240215061
31
0.0000000000
0
SPLINE
5
2DD
100
AcDbEntity
8
0
100
AcDbSpline
62
9
6
CONTINUOUS
70
0
71
3
72
8
73
4
74
2
42
0.0000001000
43
0.0000001000
44
0.0000000001
12
0.1432401203
22
-0.0907455540
32
0.0000000000
13
0.1468265654
23
-0.0846026023
33
0.0000000000
40
0.0000000000
40
0.0000000000
40
0.0000000000
40
0.0000000000
40
1.0000000000
40
1.0000000000
40
1.0000000000
40
1.0000000000
10
-3.3969294498
20
-13.8240215061
30
0.0000000000
10
-3.3491827430
20
-13.8542700241
30
0.0000000000
10
-3.3008346204
20
-13.8835438085
30
0.0000000000
10
-3.2518924319
20
-13.9117446759
30
0.0000000000
11
-3.3969294498
21
-13.8240215061
31
0.0000000000
11
-3.2518924319
21
-13.9117446759
31
0.0000000000
0
SPLINE
5
2DE
100
AcDbEntity
8
0
100
AcDbSpline
62
9
6
CONTINUOUS
70
0
71
3
72
8
73
4
74
2
42
0.0000001000
43
0.0000001000
44
0.0000000001
12
0.1909380220
22
-0.1100199647
32
0.0000000000
13
0.1969173655
23
-0.0984855751
33
0.0000000000
40
0.0000000000
40
0.0000000000
40
0.0000000000
40
0.0000000000
40
1.0000000000
40
1.0000000000
40
1.0000000000
40
1.0000000000
10
-3.2518924319
20
-13.9117446759
30
0.0000000000
10
-3.1882464246
20
-13.9484179975
30
0.0000000000
10
-3.1235957780
20
-13.9832768829
30
0.0000000000
10
-3.0579566562
20
-14.0161054079
30
0.0000000000
11
-3.2518924319
21
-13.9117446759
31
0.0000000000
11
-3.0579566562
21
-14.0161054079
31
0.0000000000
0
SPLINE
5
2DF
100
AcDbEntity
8
0
100
AcDbSpline
62
0
6
CONTINUOUS
70
0
71
3
72
8
73
4
74
2
42
0.0000001000
43
0.0000001000
44
0.0000000001
12
0.1924333861
22
0.1015557269
32
0.0000000000
13
0.2043295717
23
0.0748717477
33
0.0000000000
40
0.0000000000
40
0.0000000000
40
0.0000000000
40
0.0000000000
40
1.0000000000
40
1.0000000000
40
1.0000000000
40
1.0000000000
10
-4.6154976315
20
-6.3662859877
30
0.0000000000
10
-4.5513531695
20
-6.3324340787
30
0.0000000000
10
-4.4849022411
20
-6.3029263504
30
0.0000000000
10
-4.4167923839
20
-6.2779691011
30
0.0000000000
11
-4.6154976315
21
-6.3662859877
31
0.0000000000
11
-4.4167923839
21
-6.2779691011
31
0.0000000000
0
SPLINE
5
2E0
100
AcDbEntity
8
0
100
AcDbSpline
62
9
6
CONTINUOUS
70
0
71
3
72
8
73
4
74
2
42
0.0000001000
43
0.0000001000
44
0.0000000001
12
-0.0548366221
22
0.0274140009
32
0.0000000000
13
-0.0553467635
23
0.0264715514
33
0.0000000000
40
0.0000000000
40
0.0000000000
40
0.0000000000
40
0.0000000000
40
1.0000000000
40
1.0000000000
40
1.0000000000
40
1.0000000000
10
-3.2451994531
20
-6.7749966709
30
0.0000000000
10
-3.2634783271
20
-6.7658586706
30
0.0000000000
10
-3.2818432572
20
-6.7568738814
30
0.0000000000
10
-3.3002921784
20
-6.7480500309
30
0.0000000000
11
-3.2451994531
21
-6.7749966709
31
0.0000000000
11
-3.3002921784
21
-6.7480500309
31
0.0000000000
0
SPLINE
5
2E1
100
AcDbEntity
8
0
100
AcDbSpline
62
9
6
CONTINUOUS
70
0
71
3
72
8
73
4
74
2
42
0.0000001000
43
0.0000001000
44
0.0000000001
12
-0.1403353143
22
0.0671203382
32
0.0000000000
13
-0.1434742451
23
0.0605342902
33
0.0000000000
40
0.0000000000
40
0.0000000000
40
0.0000000000
40
0.0000000000
40
1.0000000000
40
1.0000000000
40
1.0000000000
40
1.0000000000
10
-3.3002921784
20
-6.7480500309
30
0.0000000000
10
-3.3470706165
20
-6.7256765848
30
0.0000000000
10
-3.3943890408
20
-6.7043378282
30
0.0000000000
10
-3.4422137892
20
-6.6841597315
30
0.0000000000
11
-3.3002921784
21
-6.7480500309
31
0.0000000000
11
-3.4422137892
21
-6.6841597315
31
0.0000000000
0
SPLINE
5
2E2
100
AcDbEntity
8
0
100
AcDbSpline
62
9
6
CONTINUOUS
70
0
71
3
72
8
73
4
74
2
42
0.0000001000
43
0.0000001000
44
0.0000000001
12
-0.1933518139
22
0.0815785077
32
0.0000000000
13
-0.1986219729
23
0.0680060652
33
0.0000000000
40
0.0000000000
40
0.0000000000
40
0.0000000000
40
0.0000000000
40
1.0000000000
40
1.0000000000
40
1.0000000000
40
1.0000000000
10
-3.4422137892
20
-6.6841597315
30
0.0000000000
10
-3.5066643938
20
-6.6569668956
30
0.0000000000
10
-3.5720345523
20
-6.6318819770
30
0.0000000000
10
-3.6382418766
20
-6.6092132886
30
0.0000000000
11
-3.4422137892
21
-6.6841597315
31
0.0000000000
11
-3.6382418766
21
-6.6092132886
31
0.0000000000
0
SPLINE
5
2E3
100
AcDbEntity
8
0
100
AcDbSpline
62
9
6
CONTINUOUS
70
0
71
3
72
8
73
4
74
2
42
0.0000001000
43
0.0000001000
44
0.0000000001
12
-0.3521549999
22
-0.0003841008
32
0.0000000000
13
-0.3453879258
23
-0.0693121844
33
0.0000000000
40
0.0000000000
40
0.0000000000
40
0.0000000000
40
0.0000000000
40
1.0000000000
40
1.0000000000
40
1.0000000000
40
1.0000000000
10
-4.3956395587
20
-6.4746342009
30
0.0000000000
10
-4.5130245587
20
-6.4747622345
30
0.0000000000
10
-4.6306750197
20
-6.4856783420
30
0.0000000000
10
-4.7458043284
20
-6.5087824035
30
0.0000000000
11
-4.3956395587
21
-6.4746342009
31
0.0000000000
11
-4.7458043284
21
-6.5087824035
31
0.0000000000
0
SPLINE
5
2E4
100
AcDbEntity
8
0
100
AcDbSpline
62
9
6
CONTINUOUS
70
0
71
3
72
8
73
4
74
2
42
0.0000001000
43
0.0000001000
44
0.0000000001
12
-0.1672244077
22
-0.0335584660
32
0.0000000000
13
-0.1627296331
23
-0.0511773258
33
0.0000000000
40
0.0000000000
40
0.0000000000
40
0.0000000000
40
0.0000000000
40
1.0000000000
40
1.0000000000
40
1.0000000000
40
1.0000000000
10
-4.7458043284
20
-6.5087824035
30
0.0000000000
10
-4.8015457976
20
-6.5199685588
30
0.0000000000
10
-4.8566962714
20
-6.5340117510
30
0.0000000000
10
-4.9109394824
20
-6.5510708596
30
0.0000000000
11
-4.7458043284
21
-6.5087824035
31
0.0000000000
11
-4.9109394824
21
-6.5510708596
31
0.0000000000
0
SPLINE
5
2E5
100
AcDbEntity
8
0
100
AcDbSpline
62
9
6
CONTINUOUS
70
0
71
3
72
8
73
4
74
2
42
0.0000001000
43
0.0000001000
44
0.0000000001
12
-0.1603817204
22
-0.0504389237
32
0.0000000000
13
-0.1541033769
23
-0.0675952485
33
0.0000000000
40
0.0000000000
40
0.0000000000
40
0.0000000000
40
0.0000000000
40
1.0000000000
40
1.0000000000
40
1.0000000000
40
1.0000000000
10
-4.9109394824
20
-6.5510708596
30
0.0000000000
10
-4.9644000559
20
-6.5678838341
30
0.0000000000
10
-5.0169793582
20
-6.5876263239
30
0.0000000000
10
-5.0683471505
20
-6.6101580734
30
0.0000000000
11
-4.9109394824
21
-6.5510708596
31
0.0000000000
11
-5.0683471505
21
-6.6101580734
31
0.0000000000
0
SPLINE
5
2E6
100
AcDbEntity
8
0
100
AcDbSpline
62
0
6
CONTINUOUS
70
0
71
3
72
8
73
4
74
2
42
0.0000001000
43
0.0000001000
44
0.0000000001
12
-0.1151517737
22
-0.0884235309
32
0.0000000000
13
-0.1075013267
23
-0.0975466301
33
0.0000000000
40
0.0000000000
40
0.0000000000
40
0.0000000000
40
0.0000000000
40
1.0000000000
40
1.0000000000
40
1.0000000000
40
1.0000000000
10
-5.0715607410
20
-6.4497005632
30
0.0000000000
10
-5.1099446656
20
-6.4791750735
30
0.0000000000
10
-5.1471154360
20
-6.5102396339
30
0.0000000000
10
-5.1829492116
20
-6.5427551772
30
0.0000000000
11
-5.0715607410
21
-6.4497005632
31
0.0000000000
11
-5.1829492116
21
-6.5427551772
31
0.0000000000
0
SPLINE
5
2E7
100
AcDbEntity
8
0
100
AcDbSpline
62
0
6
CONTINUOUS
70
0
71
3
72
8
73
4
74
2
42
0.0000001000
43
0.0000001000
44
0.0000000001
12
-0.0475191805
22
-0.0431188718
32
0.0000000000
13
-0.0459196509
23
-0.0447839142
33
0.0000000000
40
0.0000000000
40
0.0000000000
40
0.0000000000
40
0.0000000000
40
1.0000000000
40
1.0000000000
40
1.0000000000
40
1.0000000000
10
-5.1829492116
20
-6.5427551772
30
0.0000000000
10
-5.1987889384
20
-6.5571281345
30
0.0000000000
10
-5.2143674251
20
-6.5717846045
30
0.0000000000
10
-5.2296739754
20
-6.5867125759
30
0.0000000000
11
-5.1829492116
21
-6.5427551772
31
0.0000000000
11
-5.2296739754
21
-6.5867125759
31
0.0000000000
0
SPLINE
5
2E8
100
AcDbEntity
8
0
100
AcDbSpline
62
0
6
CONTINUOUS
70
0
71
3
72
8
73
4
74
2
42
0.0000001000
43
0.0000001000
44
0.0000000001
12
-0.0095722119
22
-0.0093354612
32
0.0000000000
13
-0.0095013346
23
-0.0094058258
33
0.0000000000
40
0.0000000000
40
0.0000000000
40
0.0000000000
40
0.0000000000
40
1.0000000000
40
1.0000000000
40
1.0000000000
40
1.0000000000
10
-5.2296739754
20
-6.5867125759
30
0.0000000000
10
-5.2328647127
20
-6.5898243963
30
0.0000000000
10
-5.2360436333
20
-6.5929480144
30
0.0000000000
10
-5.2392107449
20
-6.5960832897
30
0.0000000000
11
-5.2296739754
21
-6.5867125759
31
0.0000000000
11
-5.2392107449
21
-6.5960832897
31
0.0000000000
0
SPLINE
5
2E9
100
AcDbEntity
8
0
100
AcDbSpline
62
0
6
CONTINUOUS
70
0
71
3
72
8
73
4
74
2
42
0.0000001000
43
0.0000001000
44
0.0000000001
12
-0.0457746054
22
-0.0453144723
32
0.0000000000
13
-0.0441325756
23
-0.0468906725
33
0.0000000000
40
0.0000000000
40
0.0000000000
40
0.0000000000
40
0.0000000000
40
1.0000000000
40
1.0000000000
40
1.0000000000
40
1.0000000000
10
-5.2392107449
20
-6.5960832897
30
0.0000000000
10
-5.2544689467
20
-6.6111881138
30
0.0000000000
10
-5.2694530556
20
-6.6265635023
30
0.0000000000
10
-5.2841639141
20
-6.6421937264
30
0.0000000000
11
-5.2392107449
21
-6.5960832897
31
0.0000000000
11
-5.2841639141
21
-6.6421937264
31
0.0000000000
0
SPLINE
5
2EA
100
AcDbEntity
8
0
100
AcDbSpline
62
0
6
CONTINUOUS
70
0
71
3
72
8
73
4
74
2
42
0.0000001000
43
0.0000001000
44
0.0000000001
12
-0.0408118343
22
-0.0433623991
32
0.0000000000
13
-0.0394117757
23
-0.0446326542
33
0.0000000000
40
0.0000000000
40
0.0000000000
40
0.0000000000
40
0.0000000000
40
1.0000000000
40
1.0000000000
40
1.0000000000
40
1.0000000000
10
-5.2841639141
20
-6.6421937264
30
0.0000000000
10
-5.2977678589
20
-6.6566478595
30
0.0000000000
10
-5.3111381274
20
-6.6713199210
30
0.0000000000
10
-5.3242753860
20
-6.6861974724
30
0.0000000000
11
-5.2841639141
21
-6.6421937264
31
0.0000000000
11
-5.3242753860
21
-6.6861974724
31
0.0000000000
0
SPLINE
5
2EB
100
AcDbEntity
8
0
100
AcDbSpline
62
0
6
CONTINUOUS
70
0
71
3
72
8
73
4
74
2
42
0.0000001000
43
0.0000001000
44
0.0000000001
12
-0.0154638225
22
-0.0184965101
32
0.0000000000
13
-0.0152353232
23
-0.0186854752
33
0.0000000000
40
0.0000000000
40
0.0000000000
40
0.0000000000
40
0.0000000000
40
1.0000000000
40
1.0000000000
40
1.0000000000
40
1.0000000000
10
-5.3581819032
20
-6.7256620199
30
0.0000000000
10
-5.3633365107
20
-6.7318275233
30
0.0000000000
10
-5.3684530129
20
-6.7380249337
30
0.0000000000
10
-5.3735314539
20
-6.7442534254
30
0.0000000000
11
-5.3581819032
21
-6.7256620199
31
0.0000000000
11
-5.3735314539
21
-6.7442534254
31
0.0000000000
0
SPLINE
5
2EC
100
AcDbEntity
8
0
100
AcDbSpline
62
9
6
CONTINUOUS
70
0
71
3
72
8
73
4
74
2
42
0.0000001000
43
0.0000001000
44
0.0000000001
12
0.0426700386
22
-0.0213491025
32
0.0000000000
13
0.0424089418
23
-0.0218786539
33
0.0000000000
40
0.0000000000
40
0.0000000000
40
0.0000000000
40
0.0000000000
40
1.0000000000
40
1.0000000000
40
1.0000000000
40
1.0000000000
10
-0.2818764158
20
-8.0195731437
30
0.0000000000
10
-0.2676530696
20
-8.0266895112
30
0.0000000000
10
-0.2534731698
20
-8.0338950164
30
0.0000000000
10
-0.2393368559
20
-8.0411879011
30
0.0000000000
11
-0.2818764158
21
-8.0195731437
31
0.0000000000
11
-0.2393368559
21
-8.0411879011
31
0.0000000000
0
SPLINE
5
2ED
100
AcDbEntity
8
0
100
AcDbSpline
62
9
6
CONTINUOUS
70
0
71
3
72
8
73
4
74
2
42
0.0000001000
43
0.0000001000
44
0.0000000001
12
0.1825964663
22
-0.3989411401
32
0.0000000000
13
0.1592711885
23
-0.4088125944
33
0.0000000000
40
0.0000000000
40
0.0000000000
40
0.0000000000
40
0.0000000000
40
1.0000000000
40
1.0000000000
40
1.0000000000
40
1.0000000000
10
2.4399782276
20
-11.0834887375
30
0.0000000000
10
2.5008437164
20
-11.2164691175
30
0.0000000000
10
2.5579515864
20
-11.3511804290
30
0.0000000000
10
2.6110419825
20
-11.4874512938
30
0.0000000000
11
2.4399782276
21
-11.0834887375
31
0.0000000000
11
2.6110419825
21
-11.4874512938
31
0.0000000000
0
SPLINE
5
2EE
100
AcDbEntity
8
0
100
AcDbSpline
62
9
6
CONTINUOUS
70
0
71
3
72
8
73
4
74
2
42
0.0000001000
43
0.0000001000
44
0.0000000001
12
0.0207899603
22
-0.0533630575
32
0.0000000000
13
0.0203775146
23
-0.0535213493
33
0.0000000000
40
0.0000000000
40
0.0000000000
40
0.0000000000
40
0.0000000000
40
1.0000000000
40
1.0000000000
40
1.0000000000
40
1.0000000000
10
2.6110419825
20
-11.4874512938
30
0.0000000000
10
2.6179719693
20
-11.5052389796
30
0.0000000000
10
2.6248335041
20
-11.5230532380
30
0.0000000000
10
2.6316260089
20
-11.5408936877
30
0.0000000000
11
2.6110419825
21
-11.4874512938
31
0.0000000000
11
2.6316260089
21
-11.5408936877
31
0.0000000000
0
SPLINE
5
2EF
100
AcDbEntity
8
0
100
AcDbSpline
62
9
6
CONTINUOUS
70
0
71
3
72
8
73
4
74
2
42
0.0000001000
43
0.0000001000
44
0.0000000001
12
0.0370686618
22
-0.0973604893
32
0.0000000000
13
0.0356876591
23
-0.0978736274
33
0.0000000000
40
0.0000000000
40
0.0000000000
40
0.0000000000
40
0.0000000000
40
1.0000000000
40
1.0000000000
40
1.0000000000
40
1.0000000000
10
2.6316260089
20
-11.5408936877
30
0.0000000000
10
2.6439822295
20
-11.5733471842
30
0.0000000000
10
2.6561100225
20
-11.6058873508
30
0.0000000000
10
2.6680059089
20
-11.6385118933
30
0.0000000000
11
2.6316260089
21
-11.5408936877
31
0.0000000000
11
2.6680059089
21
-11.6385118933
31
0.0000000000
0
SPLINE
5
2F0
100
AcDbEntity
8
0
100
AcDbSpline
62
9
6
CONTINUOUS
70
0
71
3
72
8
73
4
74
2
42
0.0000001000
43
0.0000001000
44
0.0000000001
12
0.0465373932
22
-0.1276290905
32
0.0000000000
13
0.0441481543
23
-0.1284746964
33
0.0000000000
40
0.0000000000
40
0.0000000000
40
0.0000000000
40
0.0000000000
40
1.0000000000
40
1.0000000000
40
1.0000000000
40
1.0000000000
10
2.6680059089
20
-11.6385118933
30
0.0000000000
10
2.6835183733
20
-11.6810549235
30
0.0000000000
10
2.6986364884
20
-11.7237414318
30
0.0000000000
10
2.7133525398
20
-11.7665663306
30
0.0000000000
11
2.6680059089
21
-11.6385118933
31
0.0000000000
11
2.7133525398
21
-11.7665663306
31
0.0000000000
0
SPLINE
5
2F1
100
AcDbEntity
8
0
100
AcDbSpline
62
9
6
CONTINUOUS
70
0
71
3
72
11
73
7
74
5
42
0.0000001000
43
0.0000001000
44
0.0000000001
12
0.8503820859
22
-2.4746805833
32
0.0000000000
13
-0.4272386980
23
-2.5865168380
33
0.0000000000
40
0.0000000000
40
0.0000000000
40
0.0000000000
40
0.0000000000
40
0.1372994770
40
0.5304578648
40
0.8903969803
40
1.0000000000
40
1.0000000000
40
1.0000000000
40
1.0000000000
10
2.7133525398
20
-11.7665663306
30
0.0000000000
10
2.7522715450
20
-11.8798237806
30
0.0000000000
10
2.8917708015
20
-12.3211346732
30
0.0000000000
10
3.0518928592
20
-13.0837883742
30
0.0000000000
10
3.0756084330
20
-13.8400233723
30
0.0000000000
10
3.0257118332
20
-14.2477519511
30
0.0000000000
10
3.0101029494
20
-14.3422486365
30
0.0000000000
11
2.7133525398
21
-11.7665663306
31
0.0000000000
11
2.8215304643
21
-12.1091483810
31
0.0000000000
11
3.0265984488
21
-13.1163587002
31
0.0000000000
11
3.0455840516
21
-14.0571928764
31
0.0000000000
11
3.0101029494
21
-14.3422486365
31
0.0000000000
0
SPLINE
5
2F2
100
AcDbEntity
8
0
100
AcDbSpline
62
9
6
CONTINUOUS
70
0
71
3
72
8
73
4
74
2
42
0.0000001000
43
0.0000001000
44
0.0000000001
12
-0.0351040823
22
-0.1372853140
32
0.0000000000
13
-0.0418403908
23
-0.1354731720
33
0.0000000000
40
0.0000000000
40
0.0000000000
40
0.0000000000
40
0.0000000000
40
1.0000000000
40
1.0000000000
40
1.0000000000
40
1.0000000000
10
2.9536624116
20
-14.6123320228
30
0.0000000000
10
2.9419610509
20
-14.6580937941
30
0.0000000000
10
2.9291693690
20
-14.7035815592
30
0.0000000000
10
2.9152225721
20
-14.7487392831
30
0.0000000000
11
2.9536624116
21
-14.6123320228
31
0.0000000000
11
2.9152225721
21
-14.7487392831
31
0.0000000000
0
SPLINE
5
2F3
100
AcDbEntity
8
0
100
AcDbSpline
62
9
6
CONTINUOUS
70
0
71
3
72
8
73
4
74
2
42
0.0000001000
43
0.0000001000
44
0.0000000001
12
-0.0320055842
22
-0.1036294817
32
0.0000000000
13
-0.0361480160
23
-0.1023955162
33
0.0000000000
40
0.0000000000
40
0.0000000000
40
0.0000000000
40
0.0000000000
40
1.0000000000
40
1.0000000000
40
1.0000000000
40
1.0000000000
10
2.9152225721
20
-14.7487392831
30
0.0000000000
10
2.9045540440
20
-14.7832824437
30
0.0000000000
10
2.8932096115
20
-14.8176324839
30
0.0000000000
10
2.8811602729
20
-14.8517643227
30
0.0000000000
11
2.9152225721
21
-14.7487392831
31
0.0000000000
11
2.8811602729
21
-14.8517643227
31
0.0000000000
0
SPLINE
5
2F4
100
AcDbEntity
8
0
100
AcDbSpline
62
9
6
CONTINUOUS
70
0
71
3
72
8
73
4
74
2
42
0.0000001000
43
0.0000001000
44
0.0000000001
12
-0.0040704767
22
-0.0115303302
32
0.0000000000
13
-0.0041242305
23
-0.0115136219
33
0.0000000000
40
0.0000000000
40
0.0000000000
40
0.0000000000
40
0.0000000000
40
1.0000000000
40
1.0000000000
40
1.0000000000
40
1.0000000000
10
2.8811602729
20
-14.8517643227
30
0.0000000000
10
2.8798034473
20
-14.8556077661
30
0.0000000000
10
2.8784376835
20
-14.8594484426
30
0.0000000000
10
2.8770629400
20
-14.8632863166
30
0.0000000000
11
2.8811602729
21
-14.8517643227
31
0.0000000000
11
2.8770629400
21
-14.8632863166
31
0.0000000000
0
SPLINE
5
2F5
100
AcDbEntity
8
0
100
AcDbSpline
62
9
6
CONTINUOUS
70
0
71
3
72
8
73
4
74
2
42
0.0000001000
43
0.0000001000
44
0.0000000001
12
-0.0848692967
22
-0.2369297749
32
0.0000000000
13
-0.1087155715
23
-0.2272697431
33
0.0000000000
40
0.0000000000
40
0.0000000000
40
0.0000000000
40
0.0000000000
40
1.0000000000
40
1.0000000000
40
1.0000000000
40
1.0000000000
10
2.8770629400
20
-14.8632863166
30
0.0000000000
10
2.8487731745
20
-14.9422629082
30
0.0000000000
10
2.8166808524
20
-15.0200526934
30
0.0000000000
10
2.7804423285
20
-15.0958092745
30
0.0000000000
11
2.8770629400
21
-14.8632863166
31
0.0000000000
11
2.7804423285
21
-15.0958092745
31
0.0000000000
0
SPLINE
5
2F6
100
AcDbEntity
8
0
100
AcDbSpline
62
9
6
CONTINUOUS
70
0
71
3
72
8
73
4
74
2
42
0.0000001000
43
0.0000001000
44
0.0000000001
12
-0.0211157928
22
-0.0441425339
32
0.0000000000
13
-0.0220618440
23
-0.0436637104
33
0.0000000000
40
0.0000000000
40
0.0000000000
40
0.0000000000
40
0.0000000000
40
1.0000000000
40
1.0000000000
40
1.0000000000
40
1.0000000000
10
2.7804423285
20
-15.0958092745
30
0.0000000000
10
2.7734037309
20
-15.1105234524
30
0.0000000000
10
2.7662087172
20
-15.1251609274
30
0.0000000000
10
2.7588547692
20
-15.1397154976
30
0.0000000000
11
2.7804423285
21
-15.0958092745
31
0.0000000000
11
2.7588547692
21
-15.1397154976
31
0.0000000000
0
SPLINE
5
2F7
100
AcDbEntity
8
0
100
AcDbSpline
62
9
6
CONTINUOUS
70
0
71
3
72
8
73
4
74
2
42
0.0000001000
43
0.0000001000
44
0.0000000001
12
-0.0878075754
22
-0.1737844104
32
0.0000000000
13
-0.1033898230
23
-0.1647316370
33
0.0000000000
40
0.0000000000
40
0.0000000000
40
0.0000000000
40
0.0000000000
40
1.0000000000
40
1.0000000000
40
1.0000000000
40
1.0000000000
10
2.7588547692
20
-15.1397154976
30
0.0000000000
10
2.7295855774
20
-15.1976436344
30
0.0000000000
10
2.6977987219
20
-15.2542584824
30
0.0000000000
10
2.6633354476
20
-15.3091690281
30
0.0000000000
11
2.7588547692
21
-15.1397154976
31
0.0000000000
11
2.6633354476
21
-15.3091690281
31
0.0000000000
0
SPLINE
5
2F8
100
AcDbEntity
8
0
100
AcDbSpline
62
9
6
CONTINUOUS
70
0
71
3
72
8
73
4
74
2
42
0.0000001000
43
0.0000001000
44
0.0000000001
12
-0.0435544227
22
-0.0336952842
32
0.0000000000
13
-0.0446560411
23
-0.0321748795
33
0.0000000000
40
0.0000000000
40
0.0000000000
40
0.0000000000
40
0.0000000000
40
1.0000000000
40
1.0000000000
40
1.0000000000
40
1.0000000000
10
2.2514352876
20
-15.7681939232
30
0.0000000000
10
2.2369171467
20
-15.7794256846
30
0.0000000000
10
2.2222124314
20
-15.7904093753
30
0.0000000000
10
2.2073270843
20
-15.8011343351
30
0.0000000000
11
2.2514352876
21
-15.7681939232
31
0.0000000000
11
2.2073270843
21
-15.8011343351
31
0.0000000000
0
SPLINE
5
2F9
100
AcDbEntity
8
0
100
AcDbSpline
62
9
6
CONTINUOUS
70
0
71
3
72
8
73
4
74
2
42
0.0000001000
43
0.0000001000
44
0.0000000001
12
-0.1188410316
22
-0.0538863172
32
0.0000000000
13
-0.1230273859
23
-0.0439194197
33
0.0000000000
40
0.0000000000
40
0.0000000000
40
0.0000000000
40
0.0000000000
40
1.0000000000
40
1.0000000000
40
1.0000000000
40
1.0000000000
10
1.9445555541
20
-15.9537018295
30
0.0000000000
10
1.9049418769
20
-15.9716639352
30
0.0000000000
10
1.8645503068
20
-15.9879508475
30
0.0000000000
10
1.8235411782
20
-16.0025906541
30
0.0000000000
11
1.9445555541
21
-15.9537018295
31
0.0000000000
11
1.8235411782
21
-16.0025906541
31
0.0000000000
0
SPLINE
5
2FA
100
AcDbEntity
8
0
100
AcDbSpline
62
9
6
CONTINUOUS
70
0
71
3
72
10
73
6
74
4
42
0.0000001000
43
0.0000001000
44
0.0000000001
12
-1.3895133678
22
-0.2957382473
32
0.0000000000
13
-1.3033939578
23
0.5436145239
33
0.0000000000
40
0.0000000000
40
0.0000000000
40
0.0000000000
40
0.0000000000
40
0.1585786434
40
0.6583951995
40
1.0000000000
40
1.0000000000
40
1.0000000000
40
1.0000000000
10
1.6081319966
20
-16.0634731321
30
0.0000000000
10
1.5346829483
20
-16.0791057221
30
0.0000000000
10
1.2255123964
20
-16.1243253120
30
0.0000000000
10
0.7507463534
20
-16.0726299266
30
0.0000000000
10
0.3741528831
20
-15.9456784586
30
0.0000000000
10
0.2257376721
20
-15.8837780149
30
0.0000000000
11
1.6081319966
21
-16.0634731321
31
0.0000000000
11
1.3855535850
21
-16.0962908136
31
0.0000000000
11
0.6837077683
21
-16.0350041346
31
0.0000000000
11
0.2257376721
21
-15.8837780149
31
0.0000000000
0
SPLINE
5
2FB
100
AcDbEntity
8
0
100
AcDbSpline
62
9
6
CONTINUOUS
70
0
71
3
72
9
73
5
74
3
42
0.0000001000
43
0.0000001000
44
0.0000000001
12
0.0242459641
22
-0.3798716375
32
0.0000000000
13
0.3404367378
23
-0.1706792996
33
0.0000000000
40
0.0000000000
40
0.0000000000
40
0.0000000000
40
0.0000000000
40
0.4304745147
40
1.0000000000
40
1.0000000000
40
1.0000000000
40
1.0000000000
10
-8.6695498753
20
-13.4067084791
30
0.0000000000
10
-8.6660707854
20
-13.4612168320
30
0.0000000000
10
-8.6093036633
20
-13.5860438107
30
0.0000000000
10
-8.4998779867
20
-13.6584484162
30
0.0000000000
10
-8.4352488540
20
-13.6908504865
30
0.0000000000
11
-8.6695498753
21
-13.4067084791
31
0.0000000000
11
-8.6074391191
21
-13.5589721969
31
0.0000000000
11
-8.4352488540
21
-13.6908504865
31
0.0000000000
0
SPLINE
5
2FC
100
AcDbEntity
8
0
100
AcDbSpline
62
9
6
CONTINUOUS
70
0
71
3
72
8
73
4
74
2
42
0.0000001000
43
0.0000001000
44
0.0000000001
12
-0.1498649572
22
-0.0791007717
32
0.0000000000
13
-0.1579791690
23
-0.0617167009
33
0.0000000000
40
0.0000000000
40
0.0000000000
40
0.0000000000
40
0.0000000000
40
1.0000000000
40
1.0000000000
40
1.0000000000
40
1.0000000000
10
2.0500643682
20
-15.7852244331
30
0.0000000000
10
2.0001093825
20
-15.8115913570
30
0.0000000000
10
1.9486176742
20
-15.8350283033
30
0.0000000000
10
1.8959579511
20
-15.8556005370
30
0.0000000000
11
2.0500643682
21
-15.7852244331
31
0.0000000000
11
1.8959579511
21
-15.8556005370
31
0.0000000000
0
SPLINE
5
2FD
100
AcDbEntity
8
0
100
AcDbSpline
62
9
6
CONTINUOUS
70
0
71
3
72
8
73
4
74
2
42
0.0000001000
43
0.0000001000
44
0.0000000001
12
-0.0436206853
22
-0.0170410112
32
0.0000000000
13
-0.0441316793
23
-0.0157347346
33
0.0000000000
40
0.0000000000
40
0.0000000000
40
0.0000000000
40
0.0000000000
40
1.0000000000
40
1.0000000000
40
1.0000000000
40
1.0000000000
10
1.8959579511
20
-15.8556005370
30
0.0000000000
10
1.8814177227
20
-15.8612808740
30
0.0000000000
10
1.8667884467
20
-15.8667428093
30
0.0000000000
10
1.8520778869
20
-15.8719877208
30
0.0000000000
11
1.8959579511
21
-15.8556005370
31
0.0000000000
11
1.8520778869
21
-15.8719877208
31
0.0000000000
0
SPLINE
5
2FE
100
AcDbEntity
8
0
100
AcDbSpline
62
9
6
CONTINUOUS
70
0
71
3
72
10
73
6
74
4
42
0.0000001000
43
0.0000001000
44
0.0000000001
12
-1.6009864870
22
-0.3411249968
32
0.0000000000
13
-1.4527195532
23
0.7262306810
33
0.0000000000
40
0.0000000000
40
0.0000000000
40
0.0000000000
40
0.0000000000
40
0.1348907184
40
0.5590008127
40
1.0000000000
40
1.0000000000
40
1.0000000000
40
1.0000000000
10
1.6427189489
20
-15.9311414481
30
0.0000000000
10
1.5707328764
20
-15.9464796467
30
0.0000000000
10
1.2682639276
20
-15.9907153364
30
0.0000000000
10
0.7212518559
20
-15.9309787026
30
0.0000000000
10
0.2808431134
20
-15.7597048847
30
0.0000000000
10
0.0672937326
20
-15.6529491714
30
0.0000000000
11
1.6427189489
21
-15.9311414481
31
0.0000000000
11
1.4245644148
21
-15.9633081654
31
0.0000000000
11
0.7383773101
21
-15.9032448270
31
0.0000000000
11
0.0672937326
21
-15.6529491714
31
0.0000000000
0
SPLINE
5
2FF
100
AcDbEntity
8
0
100
AcDbSpline
62
9
6
CONTINUOUS
70
0
71
3
72
10
73
6
74
4
42
0.0000001000
43
0.0000001000
44
0.0000000001
12
-0.0264045932
22
-0.3740282278
32
0.0000000000
13
0.3389132583
23
-0.1689443759
33
0.0000000000
40
0.0000000000
40
0.0000000000
40
0.0000000000
40
0.0000000000
40
0.0320897254
40
0.4391496545
40
1.0000000000
40
1.0000000000
40
1.0000000000
40
1.0000000000
10
-8.6695661070
20
21.4912653501
30
0.0000000000
10
-8.6698485457
20
21.4872645291
30
0.0000000000
10
-8.6715511932
20
21.4324929496
30
0.0000000000
10
-8.6042538424
20
21.3098659718
30
0.0000000000
10
-8.4986087290
20
21.2456020396
30
0.0000000000
10
-8.4352488563
20
21.2140178690
30
0.0000000000
11
-8.6695661070
21
21.4912653501
31
0.0000000000
11
-8.6699304836
21
21.4792648583
31
0.0000000000
11
-8.6074391275
21
21.3383513325
31
0.0000000000
11
-8.4352488563
21
21.2140178690
31
0.0000000000
0
SPLINE
5
300
100
AcDbEntity
8
0
100
AcDbSpline
62
0
6
CONTINUOUS
70
0
71
3
72
8
73
4
74
2
42
0.0000001000
43
0.0000001000
44
0.0000000001
12
0.0367654782
22
0.0063123453
32
0.0000000000
13
0.0366419476
23
0.0070943049
33
0.0000000000
40
0.0000000000
40
0.0000000000
40
0.0000000000
40
0.0000000000
40
1.0000000000
40
1.0000000000
40
1.0000000000
40
1.0000000000
10
1.8160819731
20
-15.8107816836
30
0.0000000000
10
1.8283371325
20
-15.8086775685
30
0.0000000000
10
1.8405732952
20
-15.8064428672
30
0.0000000000
10
1.8527872777
20
-15.8040780989
30
0.0000000000
11
1.8160819731
21
-15.8107816836
31
0.0000000000
11
1.8527872777
21
-15.8040780989
31
0.0000000000
0
SPLINE
5
301
100
AcDbEntity
8
0
100
AcDbSpline
62
9
6
CONTINUOUS
70
0
71
3
72
13
73
9
74
7
42
0.0000001000
43
0.0000001000
44
0.0000000001
12
-0.6169966569
22
0.4521122190
32
0.0000000000
13
-0.0427161828
23
0.7617214815
33
0.0000000000
40
0.0000000000
40
0.0000000000
40
0.0000000000
40
0.0000000000
40
0.0423602160
40
0.2293759929
40
0.4224736885
40
0.6192367438
40
0.8142690741
40
1.0000000000
40
1.0000000000
40
1.0000000000
40
1.0000000000
10
-8.1315274256
20
-14.3652613884
30
0.0000000000
10
-8.1402394629
20
-14.3588775313
30
0.0000000000
10
-8.1864301013
20
-14.3229748310
30
0.0000000000
10
-8.2609566114
20
-14.2442541894
30
0.0000000000
10
-8.3372450911
20
-14.1178343282
30
0.0000000000
10
-8.3904547228
20
-13.9782437644
30
0.0000000000
10
-8.4225345895
20
-13.8345123994
30
0.0000000000
10
-8.4326043264
20
-13.7380089245
30
0.0000000000
10
-8.4352488985
20
-13.6908505124
30
0.0000000000
11
-8.1315274256
21
-14.3652613884
31
0.0000000000
11
-8.1571047186
21
-14.3453836095
31
0.0000000000
11
-8.2558203943
21
-14.2423682874
31
0.0000000000
11
-8.3328131861
21
-14.1167711838
31
0.0000000000
11
-8.3871114889
21
-13.9768213846
31
0.0000000000
11
-8.4201441304
21
-13.8317406549
31
0.0000000000
11
-8.4352488985
21
-13.6908505124
31
0.0000000000
0
SPLINE
5
302
100
AcDbEntity
8
0
100
AcDbSpline
62
9
6
CONTINUOUS
70
0
71
3
72
8
73
4
74
2
42
0.0000001000
43
0.0000001000
44
0.0000000001
12
-0.1515930246
22
0.0901658701
32
0.0000000000
13
-0.1479878249
23
0.0962409490
33
0.0000000000
40
0.0000000000
40
0.0000000000
40
0.0000000000
40
0.0000000000
40
1.0000000000
40
1.0000000000
40
1.0000000000
40
1.0000000000
10
-3.1610146599
20
-14.0265576283
30
0.0000000000
10
-3.2115456681
20
-13.9965023382
30
0.0000000000
10
-3.2614783202
20
-13.9653894763
30
0.0000000000
10
-3.3108075951
20
-13.9333091599
30
0.0000000000
11
-3.1610146599
21
-14.0265576283
31
0.0000000000
11
-3.3108075951
21
-13.9333091599
31
0.0000000000
0
SPLINE
5
303
100
AcDbEntity
8
0
100
AcDbSpline
62
9
6
CONTINUOUS
70
0
71
3
72
8
73
4
74
2
42
0.0000001000
43
0.0000001000
44
0.0000000001
12
-0.1091025422
22
0.0709526761
32
0.0000000000
13
-0.1071288109
23
0.0739993451
33
0.0000000000
40
0.0000000000
40
0.0000000000
40
0.0000000000
40
0.0000000000
40
1.0000000000
40
1.0000000000
40
1.0000000000
40
1.0000000000
10
-3.3108075951
20
-13.9333091599
30
0.0000000000
10
-3.3471751092
20
-13.9096582679
30
0.0000000000
10
-3.3832146740
20
-13.8854815424
30
0.0000000000
10
-3.4189242777
20
-13.8608150940
30
0.0000000000
11
-3.3108075951
21
-13.9333091599
31
0.0000000000
11
-3.4189242777
21
-13.8608150940
31
0.0000000000
0
SPLINE
5
304
100
AcDbEntity
8
0
100
AcDbSpline
62
9
6
CONTINUOUS
70
0
71
3
72
8
73
4
74
2
42
0.0000001000
43
0.0000001000
44
0.0000000001
12
-0.0275170049
22
0.0190074017
32
0.0000000000
13
-0.0273862844
23
0.0191994272
33
0.0000000000
40
0.0000000000
40
0.0000000000
40
0.0000000000
40
0.0000000000
40
1.0000000000
40
1.0000000000
40
1.0000000000
40
1.0000000000
10
-3.4189242777
20
-13.8608150940
30
0.0000000000
10
-3.4280966127
20
-13.8544792934
30
0.0000000000
10
-3.4372471779
20
-13.8481111826
30
0.0000000000
10
-3.4463759394
20
-13.8417113736
30
0.0000000000
11
-3.4189242777
21
-13.8608150940
31
0.0000000000
11
-3.4463759394
21
-13.8417113736
31
0.0000000000
0
SPLINE
5
305
100
AcDbEntity
8
0
100
AcDbSpline
62
9
6
CONTINUOUS
70
0
71
3
72
8
73
4
74
2
42
0.0000001000
43
0.0000001000
44
0.0000000001
12
-0.0503628655
22
0.0423971049
32
0.0000000000
13
-0.0498564811
23
0.0429742853
33
0.0000000000
40
0.0000000000
40
0.0000000000
40
0.0000000000
40
0.0000000000
40
1.0000000000
40
1.0000000000
40
1.0000000000
40
1.0000000000
10
-3.8139041504
20
-13.5584142398
30
0.0000000000
10
-3.8306917723
20
-13.5442818715
30
0.0000000000
10
-3.8473947812
20
-13.5300522730
30
0.0000000000
10
-3.8640136082
20
-13.5157275112
30
0.0000000000
11
-3.8139041504
21
-13.5584142398
31
0.0000000000
11
-3.8640136082
21
-13.5157275112
31
0.0000000000
0
SPLINE
5
306
100
AcDbEntity
8
0
100
AcDbSpline
62
9
6
CONTINUOUS
70
0
71
3
72
8
73
4
74
2
42
0.0000001000
43
0.0000001000
44
0.0000000001
12
0.1052507978
22
0.2156636355
32
0.0000000000
13
0.1287901607
23
0.2021323583
33
0.0000000000
40
0.0000000000
40
0.0000000000
40
0.0000000000
40
0.0000000000
40
1.0000000000
40
1.0000000000
40
1.0000000000
40
1.0000000000
10
-5.9416602294
20
-7.2720977603
30
0.0000000000
10
-5.9065766301
20
-7.2002098818
30
0.0000000000
10
-5.8676959796
20
-7.1302152291
30
0.0000000000
10
-5.8247659260
20
-7.0628377764
30
0.0000000000
11
-5.9416602294
21
-7.2720977603
31
0.0000000000
11
-5.8247659260
21
-7.0628377764
31
0.0000000000
0
SPLINE
5
307
100
AcDbEntity
8
0
100
AcDbSpline
62
9
6
CONTINUOUS
70
0
71
3
72
8
73
4
74
2
42
0.0000001000
43
0.0000001000
44
0.0000000001
12
0.0420845739
22
0.0660504974
32
0.0000000000
13
0.0447053041
23
0.0642979643
33
0.0000000000
40
0.0000000000
40
0.0000000000
40
0.0000000000
40
0.0000000000
40
1.0000000000
40
1.0000000000
40
1.0000000000
40
1.0000000000
10
-5.8247659260
20
-7.0628377764
30
0.0000000000
10
-5.8107377347
20
-7.0408209439
30
0.0000000000
10
-5.7962771575
20
-7.0190835700
30
0.0000000000
10
-5.7813753895
20
-6.9976509152
30
0.0000000000
11
-5.8247659260
21
-7.0628377764
31
0.0000000000
11
-5.7813753895
21
-6.9976509152
31
0.0000000000
0
SPLINE
5
308
100
AcDbEntity
8
0
100
AcDbSpline
62
9
6
CONTINUOUS
70
0
71
3
72
8
73
4
74
2
42
0.0000001000
43
0.0000001000
44
0.0000000001
12
0.0056150769
22
0.0080759547
32
0.0000000000
13
0.0056568902
23
0.0080469613
33
0.0000000000
40
0.0000000000
40
0.0000000000
40
0.0000000000
40
0.0000000000
40
1.0000000000
40
1.0000000000
40
1.0000000000
40
1.0000000000
10
-5.7813753895
20
-6.9976509152
30
0.0000000000
10
-5.7795036972
20
-6.9949589303
30
0.0000000000
10
-5.7776250447
20
-6.9922717526
30
0.0000000000
10
-5.7757394146
20
-6.9895894321
30
0.0000000000
11
-5.7813753895
21
-6.9976509152
31
0.0000000000
11
-5.7757394146
21
-6.9895894321
31
0.0000000000
0
SPLINE
5
309
100
AcDbEntity
8
0
100
AcDbSpline
62
9
6
CONTINUOUS
70
0
71
3
72
8
73
4
74
2
42
0.0000001000
43
0.0000001000
44
0.0000000001
12
0.0819474777
22
0.1165707936
32
0.0000000000
13
0.0908922449
23
0.1099984321
33
0.0000000000
40
0.0000000000
40
0.0000000000
40
0.0000000000
40
0.0000000000
40
1.0000000000
40
1.0000000000
40
1.0000000000
40
1.0000000000
10
-5.7757394146
20
-6.9895894321
30
0.0000000000
10
-5.7484235887
20
-6.9507325010
30
0.0000000000
10
-5.7196434875
20
-6.9128948822
30
0.0000000000
10
-5.6893460725
20
-6.8762287381
30
0.0000000000
11
-5.7757394146
21
-6.9895894321
31
0.0000000000
11
-5.6893460725
21
-6.8762287381
31
0.0000000000
0
SPLINE
5
30A
100
AcDbEntity
8
0
100
AcDbSpline
62
9
6
CONTINUOUS
70
0
71
3
72
8
73
4
74
2
42
0.0000001000
43
0.0000001000
44
0.0000000001
12
0.1417045672
22
0.1714918608
32
0.0000000000
13
0.1626554577
23
0.1524023417
33
0.0000000000
40
0.0000000000
40
0.0000000000
40
0.0000000000
40
0.0000000000
40
1.0000000000
40
1.0000000000
40
1.0000000000
40
1.0000000000
10
-5.6893460725
20
-6.8762287381
30
0.0000000000
10
-5.6421112168
20
-6.8190647845
30
0.0000000000
10
-5.5911883736
20
-6.7647482211
30
0.0000000000
10
-5.5369698877
20
-6.7139474405
30
0.0000000000
11
-5.6893460725
21
-6.8762287381
31
0.0000000000
11
-5.5369698877
21
-6.7139474405
31
0.0000000000
0
SPLINE
5
30B
100
AcDbEntity
8
0
100
AcDbSpline
62
9
6
CONTINUOUS
70
0
71
3
72
8
73
4
74
2
42
0.0000001000
43
0.0000001000
44
0.0000000001
12
0.1034774020
22
0.0743130627
32
0.0000000000
13
0.1089775343
23
0.0657488150
33
0.0000000000
40
0.0000000000
40
0.0000000000
40
0.0000000000
40
0.0000000000
40
1.0000000000
40
1.0000000000
40
1.0000000000
40
1.0000000000
10
-5.3689872403
20
-6.5757437299
30
0.0000000000
10
-5.3344947730
20
-6.5509727090
30
0.0000000000
10
-5.2990488706
20
-6.5275664622
30
0.0000000000
10
-5.2627230259
20
-6.5056501905
30
0.0000000000
11
-5.3689872403
21
-6.5757437299
31
0.0000000000
11
-5.2627230259
21
-6.5056501905
31
0.0000000000
0
SPLINE
5
30C
100
AcDbEntity
8
0
100
AcDbSpline
62
9
6
CONTINUOUS
70
0
71
3
72
8
73
4
74
2
42
0.0000001000
43
0.0000001000
44
0.0000000001
12
0.0609206095
22
0.0321134191
32
0.0000000000
13
0.0623088928
23
0.0293498509
33
0.0000000000
40
0.0000000000
40
0.0000000000
40
0.0000000000
40
0.0000000000
40
1.0000000000
40
1.0000000000
40
1.0000000000
40
1.0000000000
10
-5.1854524177
20
-6.4620078276
30
0.0000000000
10
-5.1651455479
20
-6.4513033545
30
0.0000000000
10
-5.1445959033
20
-6.4410609760
30
0.0000000000
10
-5.1238262723
20
-6.4312776923
30
0.0000000000
11
-5.1854524177
21
-6.4620078276
31
0.0000000000
11
-5.1238262723
21
-6.4312776923
31
0.0000000000
0
SPLINE
5
30D
100
AcDbEntity
8
0
100
AcDbSpline
62
9
6
CONTINUOUS
70
0
71
3
72
9
73
5
74
3
42
0.0000001000
43
0.0000001000
44
0.0000000001
12
0.0013842112
22
-0.0595434742
32
0.0000000000
13
0.0537520112
23
-0.0283866195
33
0.0000000000
40
0.0000000000
40
0.0000000000
40
0.0000000000
40
0.0000000000
40
0.6411314756
40
1.0000000000
40
1.0000000000
40
1.0000000000
40
1.0000000000
10
-3.2517248968
20
-6.5346489032
30
0.0000000000
10
-3.2514290763
20
-6.5473739684
30
0.0000000000
10
-3.2478134920
20
-6.5683211700
30
0.0000000000
10
-3.2320920206
20
-6.5826822909
30
0.0000000000
10
-3.2256620523
20
-6.5860779790
30
0.0000000000
11
-3.2517248968
21
-6.5346489032
31
0.0000000000
11
-3.2418168268
21
-6.5715265833
31
0.0000000000
11
-3.2256620523
21
-6.5860779790
31
0.0000000000
0
SPLINE
5
30E
100
AcDbEntity
8
0
100
AcDbSpline
62
9
6
CONTINUOUS
70
0
71
3
72
15
73
11
74
9
42
0.0000001000
43
0.0000001000
44
0.0000000001
12
0.0848177091
22
1.5986302502
32
0.0000000000
13
1.1149654708
23
1.1497626672
33
0.0000000000
40
0.0000000000
40
0.0000000000
40
0.0000000000
40
0.0000000000
40
0.0905979484
40
0.1975885532
40
0.3188117803
40
0.4511897323
40
0.5905786979
40
0.7319623983
40
0.8700419061
40
1.0000000000
40
1.0000000000
40
1.0000000000
40
1.0000000000
10
-8.4352488985
20
21.2140178514
30
0.0000000000
10
-8.4326874617
20
21.2622953917
30
0.0000000000
10
-8.4227114192
20
21.3673890558
30
0.0000000000
10
-8.3928980086
20
21.5350763670
30
0.0000000000
10
-8.3432274240
20
21.7212267726
30
0.0000000000
10
-8.2716701559
20
21.9186395711
30
0.0000000000
10
-8.1783291308
20
22.1187035116
30
0.0000000000
10
-8.0656823883
20
22.3121206675
30
0.0000000000
10
-7.9383978179
20
22.4900994603
30
0.0000000000
10
-7.8442013646
20
22.5980420219
30
0.0000000000
10
-7.7959017688
20
22.6478490102
30
0.0000000000
11
-8.4352488985
21
21.2140178514
31
0.0000000000
11
-8.4217517670
21
21.3584247908
31
0.0000000000
11
-8.3920102613
21
21.5271017993
31
0.0000000000
11
-8.3421948410
21
21.7146628247
31
0.0000000000
11
-8.2701198321
21
21.9139508669
31
0.0000000000
11
-8.1758030711
21
22.1161833175
31
0.0000000000
11
-8.0617933503
21
22.3117101595
31
0.0000000000
11
-7.9329892113
21
22.4913541245
31
0.0000000000
11
-7.7959017688
21
22.6478490102
31
0.0000000000
0
SPLINE
5
30F
100
AcDbEntity
8
0
100
AcDbSpline
62
9
6
CONTINUOUS
70
0
71
3
72
13
73
9
74
7
42
0.0000001000
43
0.0000001000
44
0.0000000001
12
0.0489720067
22
-0.8595734092
32
0.0000000000
13
0.7701565462
23
-0.3893217486
33
0.0000000000
40
0.0000000000
40
0.0000000000
40
0.0000000000
40
0.0000000000
40
0.1618345841
40
0.3330678211
40
0.5070245568
40
0.6788895884
40
0.8463809903
40
1.0000000000
40
1.0000000000
40
1.0000000000
40
1.0000000000
10
5.6920221429
20
-20.7544860331
30
0.0000000000
10
5.6946639310
20
-20.8008556015
30
0.0000000000
10
5.7046814727
20
-20.8961096420
30
0.0000000000
10
5.7365078099
20
-21.0384989637
30
0.0000000000
10
5.7895218349
20
-21.1777759357
30
0.0000000000
10
5.8658616157
20
-21.3048605811
30
0.0000000000
10
5.9634779161
20
-21.4089653571
30
0.0000000000
10
6.0410485666
20
-21.4602995580
30
0.0000000000
10
6.0804854619
20
-21.4802352985
30
0.0000000000
11
5.6920221429
21
-20.7544860331
31
0.0000000000
11
5.7069696683
21
-20.8930162275
31
0.0000000000
11
5.7397141062
21
-21.0367600684
31
0.0000000000
11
5.7937780400
21
-21.1764327649
31
0.0000000000
11
5.8708026832
21
-21.3027750640
31
0.0000000000
11
5.9700300174
21
-21.4074120982
31
0.0000000000
11
6.0804854619
21
-21.4802352985
31
0.0000000000
0
SPLINE
5
310
100
AcDbEntity
8
0
100
AcDbSpline
62
9
6
CONTINUOUS
70
0
71
3
72
18
73
14
74
12
42
0.0000001000
43
0.0000001000
44
0.0000000001
12
0.0415984817
22
-0.7236664353
32
0.0000000000
13
0.6580717977
23
0.3039161929
33
0.0000000000
40
0.0000000000
40
0.0000000000
40
0.0000000000
40
0.0000000000
40
0.0897504768
40
0.1847890856
40
0.2814622184
40
0.3771455650
40
0.4705961569
40
0.5619990379
40
0.6523693308
40
0.7424625758
40
0.8318728606
40
0.9187560350
40
1.0000000000
40
1.0000000000
40
1.0000000000
40
1.0000000000
10
6.8121565198
20
-20.7134782885
30
0.0000000000
10
6.8134010143
20
-20.7351280911
30
0.0000000000
10
6.8181227877
20
-20.7796184472
30
0.0000000000
10
6.8331171776
20
-20.8461422581
30
0.0000000000
10
6.8580935314
20
-20.9112571043
30
0.0000000000
10
6.8940551788
20
-20.9707247918
30
0.0000000000
10
6.9409475846
20
-21.0204791530
30
0.0000000000
10
6.9972611413
20
-21.0570932722
30
0.0000000000
10
7.0599755845
20
-21.0786639061
30
0.0000000000
10
7.1253279533
20
-21.0854354687
30
0.0000000000
10
7.1897568699
20
-21.0794561612
30
0.0000000000
10
7.2502083156
20
-21.0638475524
30
0.0000000000
10
7.2880228013
20
-21.0487374948
30
0.0000000000
10
7.3058442553
20
-21.0405070426
30
0.0000000000
11
6.8121565198
21
-20.7134782885
31
0.0000000000
11
6.8191960495
21
-20.7781529317
31
0.0000000000
11
6.8346146823
21
-20.8452950821
31
0.0000000000
11
6.8600704365
21
-20.9105825430
31
0.0000000000
11
6.8963366329
21
-20.9697025451
31
0.0000000000
11
6.9430594731
21
-21.0187485123
31
0.0000000000
11
6.9986706705
21
-21.0547629358
31
0.0000000000
11
7.0605589202
21
-21.0762307770
31
0.0000000000
11
7.1254799258
21
-21.0833030515
31
0.0000000000
11
7.1900446037
21
-21.0776689818
31
0.0000000000
11
7.2510914200
21
-21.0621917867
31
0.0000000000
11
7.3058442553
21
-21.0405070426
31
0.0000000000
0
SPLINE
5
311
100
AcDbEntity
8
0
100
AcDbSpline
62
9
6
CONTINUOUS
70
0
71
3
72
8
73
4
74
2
42
0.0000001000
43
0.0000001000
44
0.0000000001
12
-0.5444340449
22
0.3244371640
32
0.0000000000
13
-0.4983428382
23
0.3925187990
33
0.0000000000
40
0.0000000000
40
0.0000000000
40
0.0000000000
40
0.0000000000
40
1.0000000000
40
1.0000000000
40
1.0000000000
40
1.0000000000
10
-3.2388170095
20
-14.1480991180
30
0.0000000000
10
-3.4202950245
20
-14.0399533967
30
0.0000000000
10
-3.5942127924
20
-13.9184720677
30
0.0000000000
10
-3.7603270718
20
-13.7876324680
30
0.0000000000
11
-3.2388170095
21
-14.1480991180
31
0.0000000000
11
-3.7603270718
21
-13.7876324680
31
0.0000000000
0
SPLINE
5
312
100
AcDbEntity
8
0
100
AcDbSpline
62
9
6
CONTINUOUS
70
0
71
3
72
8
73
4
74
2
42
0.0000001000
43
0.0000001000
44
0.0000000001
12
-0.1997084068
22
0.1572999509
32
0.0000000000
13
-0.1922617773
23
0.1659732314
33
0.0000000000
40
0.0000000000
40
0.0000000000
40
0.0000000000
40
0.0000000000
40
1.0000000000
40
1.0000000000
40
1.0000000000
40
1.0000000000
10
-3.7603270718
20
-13.7876324680
30
0.0000000000
10
-3.8268965407
20
-13.7351991511
30
0.0000000000
10
-3.8922127962
20
-13.6812629280
30
0.0000000000
10
-3.9563000553
20
-13.6259385175
30
0.0000000000
11
-3.7603270718
21
-13.7876324680
31
0.0000000000
11
-3.9563000553
21
-13.6259385175
31
0.0000000000
0
SPLINE
5
313
100
AcDbEntity
8
0
100
AcDbSpline
62
9
6
CONTINUOUS
70
0
71
3
72
15
73
11
74
9
42
0.0000001000
43
0.0000001000
44
0.0000000001
12
-5.5850979415
22
4.8214302690
32
0.0000000000
13
3.9793811868
23
6.2378912846
33
0.0000000000
40
0.0000000000
40
0.0000000000
40
0.0000000000
40
0.0000000000
40
0.1058285735
40
0.2539275070
40
0.4045314209
40
0.5529524975
40
0.6922946772
40
0.8200383965
40
0.9323424349
40
1.0000000000
40
1.0000000000
40
1.0000000000
40
1.0000000000
10
-3.9563000553
20
-13.6259385175
30
0.0000000000
10
-4.1533210380
20
-13.4558568216
30
0.0000000000
10
-4.5981875752
20
-13.0162787732
30
0.0000000000
10
-5.2068231609
20
-12.2262257807
30
0.0000000000
10
-5.7480162587
20
-11.2663899903
30
0.0000000000
10
-6.1381801535
20
-10.2585242610
30
0.0000000000
10
-6.3550164223
20
-9.2564589479
30
0.0000000000
10
-6.3844546687
20
-8.3187228465
30
0.0000000000
10
-6.2367658582
20
-7.5692875876
30
0.0000000000
10
-6.0439129341
20
-7.1654246534
30
0.0000000000
10
-5.9541678534
20
-7.0247444747
30
0.0000000000
11
-3.9563000553
21
-13.6259385175
31
0.0000000000
11
-4.5132205946
21
-13.0796669742
31
0.0000000000
11
-5.1814547773
21
-12.2168963428
31
0.0000000000
11
-5.7263593966
21
-11.2501407273
31
0.0000000000
11
-6.1180758944
21
-10.2290360244
31
0.0000000000
11
-6.3287725602
21
-9.2241236372
31
0.0000000000
11
-6.3477496008
21
-8.2830170015
31
0.0000000000
11
-6.1738714500
21
-7.4739621765
31
0.0000000000
11
-5.9541678534
21
-7.0247444747
31
0.0000000000
0
SPLINE
5
314
100
AcDbEntity
8
0
100
AcDbSpline
62
9
6
CONTINUOUS
70
0
71
3
72
8
73
4
74
2
42
0.0000001000
43
0.0000001000
44
0.0000000001
12
0.1267937158
22
0.1987558813
32
0.0000000000
13
0.1504229935
23
0.1819430932
33
0.0000000000
40
0.0000000000
40
0.0000000000
40
0.0000000000
40
0.0000000000
40
1.0000000000
40
1.0000000000
40
1.0000000000
40
1.0000000000
10
-5.9541678534
20
-7.0247444747
30
0.0000000000
10
-5.9119032815
20
-6.9584925143
30
0.0000000000
10
-5.8658149297
20
-6.8947144153
30
0.0000000000
10
-5.8156739318
20
-6.8340667176
30
0.0000000000
11
-5.9541678534
21
-7.0247444747
31
0.0000000000
11
-5.8156739318
21
-6.8340667176
31
0.0000000000
0
SPLINE
5
315
100
AcDbEntity
8
0
100
AcDbSpline
62
9
6
CONTINUOUS
70
0
71
3
72
8
73
4
74
2
42
0.0000001000
43
0.0000001000
44
0.0000000001
12
0.0204645821
22
0.0116410741
32
0.0000000000
13
0.0206352104
23
0.0113320112
33
0.0000000000
40
0.0000000000
40
0.0000000000
40
0.0000000000
40
0.0000000000
40
1.0000000000
40
1.0000000000
40
1.0000000000
40
1.0000000000
10
-5.3439183074
20
-6.4343037668
30
0.0000000000
10
-5.3370967800
20
-6.4304234088
30
0.0000000000
10
-5.3302465932
20
-6.4265941825
30
0.0000000000
10
-5.3233681897
20
-6.4228168454
30
0.0000000000
11
-5.3439183074
21
-6.4343037668
31
0.0000000000
11
-5.3233681897
21
-6.4228168454
31
0.0000000000
0
SPLINE
5
316
100
AcDbEntity
8
0
100
AcDbSpline
62
9
6
CONTINUOUS
70
0
71
3
72
8
73
4
74
2
42
0.0000001000
43
0.0000001000
44
0.0000000001
12
0.0067494275
22
0.0037065088
32
0.0000000000
13
0.0067674933
23
0.0036731215
33
0.0000000000
40
0.0000000000
40
0.0000000000
40
0.0000000000
40
0.0000000000
40
1.0000000000
40
1.0000000000
40
1.0000000000
40
1.0000000000
10
-5.3233681897
20
-6.4228168454
30
0.0000000000
10
-5.3211183806
20
-6.4215813425
30
0.0000000000
10
-5.3188655527
20
-6.4203513908
30
0.0000000000
10
-5.3166097216
20
-6.4191270170
30
0.0000000000
11
-5.3233681897
21
-6.4228168454
31
0.0000000000
11
-5.3166097216
21
-6.4191270170
31
0.0000000000
0
SPLINE
5
317
100
AcDbEntity
8
0
100
AcDbSpline
62
9
6
CONTINUOUS
70
0
71
3
72
8
73
4
74
2
42
0.0000001000
43
0.0000001000
44
0.0000000001
12
0.1354221756
22
0.0713776087
32
0.0000000000
13
0.1417372446
23
0.0580881102
33
0.0000000000
40
0.0000000000
40
0.0000000000
40
0.0000000000
40
0.0000000000
40
1.0000000000
40
1.0000000000
40
1.0000000000
40
1.0000000000
10
-5.2998882551
20
-6.4101827077
30
0.0000000000
10
-5.2547475299
20
-6.3863901715
30
0.0000000000
10
-5.2084348297
20
-6.3648281166
30
0.0000000000
10
-5.1611890815
20
-6.3454654131
30
0.0000000000
11
-5.2998882551
21
-6.4101827077
31
0.0000000000
11
-5.1611890815
21
-6.3454654131
31
0.0000000000
0
SPLINE
5
318
100
AcDbEntity
8
0
100
AcDbSpline
62
9
6
CONTINUOUS
70
0
71
3
72
8
73
4
74
2
42
0.0000001000
43
0.0000001000
44
0.0000000001
12
0.0067126176
22
0.0027510290
32
0.0000000000
13
0.0067250981
23
0.0027214410
33
0.0000000000
40
0.0000000000
40
0.0000000000
40
0.0000000000
40
0.0000000000
40
1.0000000000
40
1.0000000000
40
1.0000000000
40
1.0000000000
10
-5.1611890815
20
-6.3454654131
30
0.0000000000
10
-5.1589515423
20
-6.3445484035
30
0.0000000000
10
-5.1567119103
20
-6.3436363268
30
0.0000000000
10
-5.1544702110
20
-6.3427291798
30
0.0000000000
11
-5.1611890815
21
-6.3454654131
31
0.0000000000
11
-5.1544702110
21
-6.3427291798
31
0.0000000000
0
SPLINE
5
319
100
AcDbEntity
8
0
100
AcDbSpline
62
9
6
CONTINUOUS
70
0
71
3
72
8
73
4
74
2
42
0.0000001000
43
0.0000001000
44
0.0000000001
12
0.0596645855
22
0.0215599832
32
0.0000000000
13
0.0604608668
23
0.0193202356
33
0.0000000000
40
0.0000000000
40
0.0000000000
40
0.0000000000
40
0.0000000000
40
1.0000000000
40
1.0000000000
40
1.0000000000
40
1.0000000000
10
-5.0959559182
20
-6.3203312263
30
0.0000000000
10
-5.0760677230
20
-6.3131445653
30
0.0000000000
10
-5.0560383419
20
-6.3063322994
30
0.0000000000
10
-5.0358847196
20
-6.2998922209
30
0.0000000000
11
-5.0959559182
21
-6.3203312263
31
0.0000000000
11
-5.0358847196
21
-6.2998922209
31
0.0000000000
0
SPLINE
5
31A
100
AcDbEntity
8
0
100
AcDbSpline
62
9
6
CONTINUOUS
70
0
71
3
72
9
73
5
74
3
42
0.0000001000
43
0.0000001000
44
0.0000000001
12
0.4521369566
22
0.0989210876
32
0.0000000000
13
0.4608999242
23
-0.0127815836
33
0.0000000000
40
0.0000000000
40
0.0000000000
40
0.0000000000
40
0.0000000000
40
0.4945837083
40
1.0000000000
40
1.0000000000
40
1.0000000000
40
1.0000000000
10
-4.8769479369
20
-6.2572744249
30
0.0000000000
10
-4.8024080794
20
-6.2409661722
30
0.0000000000
10
-4.6495867589
20
-6.2176153589
30
0.0000000000
10
-4.4957433666
20
-6.2132986591
30
0.0000000000
10
-4.4180945897
20
-6.2154519993
30
0.0000000000
11
-4.8769479369
21
-6.2572744249
31
0.0000000000
11
-4.6509921965
21
-6.2225243010
31
0.0000000000
11
-4.4180945897
21
-6.2154519993
31
0.0000000000
0
SPLINE
5
31B
100
AcDbEntity
8
0
100
AcDbSpline
62
9
6
CONTINUOUS
70
0
71
3
72
9
73
5
74
3
42
0.0000001000
43
0.0000001000
44
0.0000000001
12
0.9671568254
22
-0.0268209976
32
0.0000000000
13
0.8921610386
23
-0.3701668474
33
0.0000000000
40
0.0000000000
40
0.0000000000
40
0.0000000000
40
0.0000000000
40
0.4979214592
40
1.0000000000
40
1.0000000000
40
1.0000000000
40
1.0000000000
10
-4.4180945897
20
-6.2154519993
30
0.0000000000
10
-4.2575718771
20
-6.2199035828
30
0.0000000000
10
-3.9360976198
20
-6.2660521503
30
0.0000000000
10
-3.6295413360
20
-6.3681439419
30
0.0000000000
10
-3.4802296985
20
-6.4300948854
30
0.0000000000
11
-4.4180945897
21
-6.2154519993
31
0.0000000000
11
-3.9411325647
21
-6.2797300744
31
0.0000000000
11
-3.4802296985
21
-6.4300948854
31
0.0000000000
0
SPLINE
5
31C
100
AcDbEntity
8
0
100
AcDbSpline
62
0
6
CONTINUOUS
70
0
71
3
72
11
73
7
74
5
42
0.0000001000
43
0.0000001000
44
0.0000000001
12
0.3360387486
22
0.1811604904
32
0.0000000000
13
0.3399310086
23
-0.1699655043
33
0.0000000000
40
0.0000000000
40
0.0000000000
40
0.0000000000
40
0.0000000000
40
0.1476291523
40
0.4079854878
40
0.6894667517
40
1.0000000000
40
1.0000000000
40
1.0000000000
40
1.0000000000
10
-3.8432224053
20
25.0866741592
30
0.0000000000
10
-3.8266860334
20
25.0955890158
30
0.0000000000
10
-3.7786987164
20
25.1160028818
30
0.0000000000
10
-3.6908879390
20
25.1287289978
30
0.0000000000
10
-3.5828116324
20
25.1134759822
30
0.0000000000
10
-3.5123859207
20
25.0858809030
30
0.0000000000
10
-3.4771992939
20
25.0682875896
30
0.0000000000
11
-3.8432224053
21
25.0866741592
31
0.0000000000
11
-3.7914373855
21
25.1086756189
31
0.0000000000
11
-3.6936491630
21
25.1237912470
31
0.0000000000
11
-3.5875439337
21
25.1101525019
31
0.0000000000
11
-3.4771992939
21
25.0682875896
31
0.0000000000
0
SPLINE
5
31D
100
AcDbEntity
8
0
100
AcDbSpline
62
0
6
CONTINUOUS
70
0
71
3
72
8
73
4
74
2
42
0.0000001000
43
0.0000001000
44
0.0000000001
12
-0.1259062164
22
-0.0804904942
32
0.0000000000
13
-0.1185917279
23
-0.0910650264
33
0.0000000000
40
0.0000000000
40
0.0000000000
40
0.0000000000
40
0.0000000000
40
1.0000000000
40
1.0000000000
40
1.0000000000
40
1.0000000000
10
-4.9492441319
20
-6.3638468497
30
0.0000000000
10
-4.9912128707
20
-6.3906770145
30
0.0000000000
10
-5.0320301651
20
-6.4193455544
30
0.0000000000
10
-5.0715607410
20
-6.4497005632
30
0.0000000000
11
-4.9492441319
21
-6.3638468497
31
0.0000000000
11
-5.0715607410
21
-6.4497005632
31
0.0000000000
0
SPLINE
5
31E
100
AcDbEntity
8
0
100
AcDbSpline
62
0
6
CONTINUOUS
70
0
71
3
72
8
73
4
74
2
42
0.0000001000
43
0.0000001000
44
0.0000000001
12
-0.0216867033
22
-0.0166529340
32
0.0000000000
13
-0.0214260473
23
-0.0169885296
33
0.0000000000
40
0.0000000000
40
0.0000000000
40
0.0000000000
40
0.0000000000
40
1.0000000000
40
1.0000000000
40
1.0000000000
40
1.0000000000
10
-5.0715607410
20
-6.4497005632
30
0.0000000000
10
-5.0787896422
20
-6.4552515412
30
0.0000000000
10
-5.0859755142
20
-6.4608589162
30
0.0000000000
10
-5.0931175300
20
-6.4665217594
30
0.0000000000
11
-5.0715607410
21
-6.4497005632
31
0.0000000000
11
-5.0931175300
21
-6.4665217594
31
0.0000000000
0
SPLINE
5
31F
100
AcDbEntity
8
0
100
AcDbSpline
62
0
6
CONTINUOUS
70
0
71
3
72
8
73
4
74
2
42
0.0000001000
43
0.0000001000
44
0.0000000001
12
-0.1426308455
22
-0.1130907771
32
0.0000000000
13
-0.1302380136
23
-0.1270168200
33
0.0000000000
40
0.0000000000
40
0.0000000000
40
0.0000000000
40
0.0000000000
40
1.0000000000
40
1.0000000000
40
1.0000000000
40
1.0000000000
10
-5.0931175300
20
-6.4665217594
30
0.0000000000
10
-5.1406611451
20
-6.5042186851
30
0.0000000000
10
-5.1862613042
20
-6.5443736359
30
0.0000000000
10
-5.2296739754
20
-6.5867125759
30
0.0000000000
11
-5.0931175300
21
-6.4665217594
31
0.0000000000
11
-5.2296739754
21
-6.5867125759
31
0.0000000000
0
SPLINE
5
320
100
AcDbEntity
8
0
100
AcDbSpline
62
0
6
CONTINUOUS
70
0
71
3
72
8
73
4
74
2
42
0.0000001000
43
0.0000001000
44
0.0000000001
12
-0.0983343660
22
-0.0959022495
32
0.0000000000
13
-0.0908766232
23
-0.1029150507
33
0.0000000000
40
0.0000000000
40
0.0000000000
40
0.0000000000
40
0.0000000000
40
1.0000000000
40
1.0000000000
40
1.0000000000
40
1.0000000000
10
-5.2296739754
20
-6.5867125759
30
0.0000000000
10
-5.2624520974
20
-6.6186799924
30
0.0000000000
10
-5.2939831783
20
-6.6518924555
30
0.0000000000
10
-5.3242753860
20
-6.6861974724
30
0.0000000000
11
-5.2296739754
21
-6.5867125759
31
0.0000000000
11
-5.3242753860
21
-6.6861974724
31
0.0000000000
0
SPLINE
5
321
100
AcDbEntity
8
0
100
AcDbSpline
62
0
6
CONTINUOUS
70
0
71
3
72
8
73
4
74
2
42
0.0000001000
43
0.0000001000
44
0.0000000001
12
-0.0503977259
22
-0.0570739133
32
0.0000000000
13
-0.0481158031
23
-0.0590119837
33
0.0000000000
40
0.0000000000
40
0.0000000000
40
0.0000000000
40
0.0000000000
40
1.0000000000
40
1.0000000000
40
1.0000000000
40
1.0000000000
10
-5.3242753860
20
-6.6861974724
30
0.0000000000
10
-5.3410746280
20
-6.7052221101
30
0.0000000000
10
-5.3574928529
20
-6.7245827642
30
0.0000000000
10
-5.3735314539
20
-6.7442534254
30
0.0000000000
11
-5.3242753860
21
-6.6861974724
31
0.0000000000
11
-5.3735314539
21
-6.7442534254
31
0.0000000000
0
SPLINE
5
322
100
AcDbEntity
8
0
100
AcDbSpline
62
0
6
CONTINUOUS
70
0
71
3
72
8
73
4
74
2
42
0.0000001000
43
0.0000001000
44
0.0000000001
12
-0.0808180952
22
-0.0991199525
32
0.0000000000
13
-0.0744118135
23
-0.1039978499
33
0.0000000000
40
0.0000000000
40
0.0000000000
40
0.0000000000
40
0.0000000000
40
1.0000000000
40
1.0000000000
40
1.0000000000
40
1.0000000000
10
-5.3735314539
20
-6.7442534254
30
0.0000000000
10
-5.4004708190
20
-6.7772934096
30
0.0000000000
10
-5.4263391696
20
-6.8112080019
30
0.0000000000
10
-5.4511431075
20
-6.8458739518
30
0.0000000000
11
-5.3735314539
21
-6.7442534254
31
0.0000000000
11
-5.4511431075
21
-6.8458739518
31
0.0000000000
0
SPLINE
5
323
100
AcDbEntity
8
0
100
AcDbSpline
62
0
6
CONTINUOUS
70
0
71
3
72
8
73
4
74
2
42
0.0000001000
43
0.0000001000
44
0.0000000001
12
0.0659051340
22
0.0007905893
32
0.0000000000
13
0.0658460127
23
0.0029539083
33
0.0000000000
40
0.0000000000
40
0.0000000000
40
0.0000000000
40
0.0000000000
40
1.0000000000
40
1.0000000000
40
1.0000000000
40
1.0000000000
10
1.6610026130
20
-15.7697538719
30
0.0000000000
10
1.6829709910
20
-15.7694903421
30
0.0000000000
10
1.7049367201
20
-15.7688704831
30
0.0000000000
10
1.7268853911
20
-15.7678858470
30
0.0000000000
11
1.6610026130
21
-15.7697538719
31
0.0000000000
11
1.7268853911
21
-15.7678858470
31
0.0000000000
0
SPLINE
5
324
100
AcDbEntity
8
0
100
AcDbSpline
62
0
6
CONTINUOUS
70
0
71
3
72
8
73
4
74
2
42
0.0000001000
43
0.0000001000
44
0.0000000001
12
0.1072856241
22
0.0048129247
32
0.0000000000
13
0.1068269303
23
0.0107329054
33
0.0000000000
40
0.0000000000
40
0.0000000000
40
0.0000000000
40
0.0000000000
40
1.0000000000
40
1.0000000000
40
1.0000000000
40
1.0000000000
10
1.7268853911
20
-15.7678858470
30
0.0000000000
10
1.7626472658
20
-15.7662815387
30
0.0000000000
10
1.7983638552
20
-15.7637088375
30
0.0000000000
10
1.8339728320
20
-15.7601312024
30
0.0000000000
11
1.7268853911
21
-15.7678858470
31
0.0000000000
11
1.8339728320
21
-15.7601312024
31
0.0000000000
0
SPLINE
5
325
100
AcDbEntity
8
0
100
AcDbSpline
62
0
6
CONTINUOUS
70
0
71
3
72
8
73
4
74
2
42
0.0000001000
43
0.0000001000
44
0.0000000001
12
0.0684980264
22
0.0068819991
32
0.0000000000
13
0.0681832664
23
0.0093899379
33
0.0000000000
40
0.0000000000
40
0.0000000000
40
0.0000000000
40
0.0000000000
40
1.0000000000
40
1.0000000000
40
1.0000000000
40
1.0000000000
10
1.8339728320
20
-15.7601312024
30
0.0000000000
10
1.8568055074
20
-15.7578372027
30
0.0000000000
10
1.8795939385
20
-15.7551300298
30
0.0000000000
10
1.9023216940
20
-15.7520000505
30
0.0000000000
11
1.8339728320
21
-15.7601312024
31
0.0000000000
11
1.9023216940
21
-15.7520000505
31
0.0000000000
0
SPLINE
5
326
100
AcDbEntity
8
0
100
AcDbSpline
62
0
6
CONTINUOUS
70
0
71
3
72
8
73
4
74
2
42
0.0000001000
43
0.0000001000
44
0.0000000001
12
0.1710568625
22
0.0235572949
32
0.0000000000
13
0.1679871564
23
0.0399804390
33
0.0000000000
40
0.0000000000
40
0.0000000000
40
0.0000000000
40
0.0000000000
40
1.0000000000
40
1.0000000000
40
1.0000000000
40
1.0000000000
10
1.9023216940
20
-15.7520000505
30
0.0000000000
10
1.9593406482
20
-15.7441476189
30
0.0000000000
10
2.0159777112
20
-15.7336340520
30
0.0000000000
10
2.0719734300
20
-15.7203072390
30
0.0000000000
11
1.9023216940
21
-15.7520000505
31
0.0000000000
11
2.0719734300
21
-15.7203072390
31
0.0000000000
0
SPLINE
5
327
100
AcDbEntity
8
0
100
AcDbSpline
62
0
6
CONTINUOUS
70
0
71
3
72
8
73
4
74
2
42
0.0000001000
43
0.0000001000
44
0.0000000001
12
0.1281629439
22
0.0305023959
32
0.0000000000
13
0.1255201578
23
0.0402395440
33
0.0000000000
40
0.0000000000
40
0.0000000000
40
0.0000000000
40
0.0000000000
40
1.0000000000
40
1.0000000000
40
1.0000000000
40
1.0000000000
10
2.0719734300
20
-15.7203072390
30
0.0000000000
10
2.1146944113
20
-15.7101397737
30
0.0000000000
10
2.1570420874
20
-15.6983348114
30
0.0000000000
10
2.1988821400
20
-15.6849216300
30
0.0000000000
11
2.0719734300
21
-15.7203072390
31
0.0000000000
11
2.1988821400
21
-15.6849216300
31
0.0000000000
0
SPLINE
5
328
100
AcDbEntity
8
0
100
AcDbSpline
62
0
6
CONTINUOUS
70
0
71
3
72
12
73
8
74
6
42
0.0000001000
43
0.0000001000
44
0.0000000001
12
0.0000000000
22
-0.5133412236
32
0.0000000000
13
-0.4680310162
23
-0.2163953326
33
0.0000000000
40
0.0000000000
40
0.0000000000
40
0.0000000000
40
0.0000000000
40
0.2535655415
40
0.4840588656
40
0.6929500270
40
0.8859942861
40
1.0000000000
40
1.0000000000
40
1.0000000000
40
1.0000000000
10
11.3721292676
20
-19.1625618719
30
0.0000000000
10
11.3721292676
20
-19.2059504203
30
0.0000000000
10
11.3658260102
20
-19.2890180078
30
0.0000000000
10
11.3345690679
20
-19.4042592907
30
0.0000000000
10
11.2824412330
20
-19.5004531433
30
0.0000000000
10
11.2194013965
20
-19.5642193700
30
0.0000000000
10
11.1736253100
20
-19.5909995511
30
0.0000000000
10
11.1558392400
20
-19.5992229859
30
0.0000000000
11
11.3721292676
21
-19.1625618719
31
0.0000000000
11
11.3612638052
21
-19.2922732320
31
0.0000000000
11
11.3290824648
21
-19.4061345158
31
0.0000000000
11
11.2768186426
21
-19.4997683239
31
0.0000000000
11
11.2064794146
21
-19.5695732136
31
0.0000000000
11
11.1558392400
21
-19.5992229859
31
0.0000000000
0
SPLINE
5
329
100
AcDbEntity
8
0
100
AcDbSpline
62
0
6
CONTINUOUS
70
0
71
3
72
15
73
11
74
9
42
0.0000001000
43
0.0000001000
44
0.0000000001
12
1.0529012362
22
-0.5264506181
32
0.0000000000
13
0.0000000000
23
-1.1771793689
33
0.0000000000
40
0.0000000000
40
0.0000000000
40
0.0000000000
40
0.0000000000
40
0.1103204553
40
0.2298794297
40
0.3567631267
40
0.4883331237
40
0.6215375352
40
0.7531878619
40
0.8802255268
40
1.0000000000
40
1.0000000000
40
1.0000000000
40
1.0000000000
10
10.8065299993
20
17.9264229430
30
0.0000000000
10
10.8452488472
20
17.9070635190
30
0.0000000000
10
10.9219934348
20
17.8586147192
30
0.0000000000
10
11.0273881935
20
17.7657784284
30
0.0000000000
10
11.1244339415
20
17.6530235888
30
0.0000000000
10
11.2094996562
20
17.5245739117
30
0.0000000000
10
11.2794412334
20
17.3852193838
30
0.0000000000
10
11.3316386018
20
17.2401585210
30
0.0000000000
10
11.3641379898
20
17.0948528491
30
0.0000000000
10
11.3721292676
20
16.9979071853
30
0.0000000000
10
11.3721292676
20
16.9509085057
30
0.0000000000
11
10.8065299993
21
17.9264229430
31
0.0000000000
11
10.9168746879
21
17.8579431793
31
0.0000000000
11
11.0229800140
21
17.7654765847
31
0.0000000000
11
11.1207683142
21
17.6525725863
31
0.0000000000
11
11.2064796375
21
17.5235693160
31
0.0000000000
11
11.2768187918
21
17.3834252347
31
0.0000000000
11
11.3290825251
21
17.2375277440
31
0.0000000000
11
11.3612638149
21
17.0914852637
31
0.0000000000
11
11.3721292676
21
16.9509085057
31
0.0000000000
0
SPLINE
5
32A
100
AcDbEntity
8
0
100
AcDbSpline
62
0
6
CONTINUOUS
70
0
71
3
72
8
73
4
74
2
42
0.0000001000
43
0.0000001000
44
0.0000000001
12
0.1865566837
22
-0.0091362371
32
0.0000000000
13
0.1863503521
23
0.0078700599
33
0.0000000000
40
0.0000000000
40
0.0000000000
40
0.0000000000
40
0.0000000000
40
1.0000000000
40
1.0000000000
40
1.0000000000
40
1.0000000000
10
1.3942084849
20
-15.8348161933
30
0.0000000000
10
1.4563940461
20
-15.8378616057
30
0.0000000000
10
1.5186698520
20
-15.8381952837
30
0.0000000000
10
1.5807866360
20
-15.8355719304
30
0.0000000000
11
1.3942084849
21
-15.8348161933
31
0.0000000000
11
1.5807866360
21
-15.8355719304
31
0.0000000000
0
SPLINE
5
32B
100
AcDbEntity
8
0
100
AcDbSpline
62
0
6
CONTINUOUS
70
0
71
3
72
8
73
4
74
2
42
0.0000001000
43
0.0000001000
44
0.0000000001
12
0.2365742125
22
0.0099911441
32
0.0000000000
13
0.2335064555
23
0.0400912338
33
0.0000000000
40
0.0000000000
40
0.0000000000
40
0.0000000000
40
0.0000000000
40
1.0000000000
40
1.0000000000
40
1.0000000000
40
1.0000000000
10
1.5807866360
20
-15.8355719304
30
0.0000000000
10
1.6596447068
20
-15.8322415490
30
0.0000000000
10
1.7382464879
20
-15.8241454283
30
0.0000000000
10
1.8160819731
20
-15.8107816836
30
0.0000000000
11
1.5807866360
21
-15.8355719304
31
0.0000000000
11
1.8160819731
21
-15.8107816836
31
0.0000000000
0
SPLINE
5
32C
100
AcDbEntity
8
0
100
AcDbSpline
62
0
6
CONTINUOUS
70
0
71
3
72
8
73
4
74
2
42
0.0000001000
43
0.0000001000
44
0.0000000001
12
0.2275858562
22
0.0390747132
32
0.0000000000
13
0.2209529802
23
0.0687285123
33
0.0000000000
40
0.0000000000
40
0.0000000000
40
0.0000000000
40
0.0000000000
40
1.0000000000
40
1.0000000000
40
1.0000000000
40
1.0000000000
10
1.8160819731
20
-15.8107816836
30
0.0000000000
10
1.8919439252
20
-15.7977567792
30
0.0000000000
10
1.9670779478
20
-15.7797279877
30
0.0000000000
10
2.0407289412
20
-15.7568184836
30
0.0000000000
11
1.8160819731
21
-15.8107816836
31
0.0000000000
11
2.0407289412
21
-15.7568184836
31
0.0000000000
0
SPLINE
5
32D
100
AcDbEntity
8
0
100
AcDbSpline
62
0
6
CONTINUOUS
70
0
71
3
72
8
73
4
74
2
42
0.0000001000
43
0.0000001000
44
0.0000000001
12
0.1205485351
22
0.0374972154
32
0.0000000000
13
0.1175319971
23
0.0461540357
33
0.0000000000
40
0.0000000000
40
0.0000000000
40
0.0000000000
40
0.0000000000
40
1.0000000000
40
1.0000000000
40
1.0000000000
40
1.0000000000
10
2.0407289412
20
-15.7568184836
30
0.0000000000
10
2.0809117863
20
-15.7443194118
30
0.0000000000
10
2.1206531891
20
-15.7303675349
30
0.0000000000
10
2.1598305215
20
-15.7149828563
30
0.0000000000
11
2.0407289412
21
-15.7568184836
31
0.0000000000
11
2.1598305215
21
-15.7149828563
31
0.0000000000
0
SPLINE
5
32E
100
AcDbEntity
8
0
100
AcDbSpline
62
9
6
CONTINUOUS
70
0
71
3
72
8
73
4
74
2
42
0.0000001000
43
0.0000001000
44
0.0000000001
12
-0.1457357841
22
0.0728897343
32
0.0000000000
13
-0.1426952070
23
0.0788785038
33
0.0000000000
40
0.0000000000
40
0.0000000000
40
0.0000000000
40
0.0000000000
40
1.0000000000
40
1.0000000000
40
1.0000000000
40
1.0000000000
10
-2.9025547484
20
-14.1680249309
30
0.0000000000
10
-2.9511333431
20
-14.1437283528
30
0.0000000000
10
-2.9992071619
20
-14.1183979855
30
0.0000000000
10
-3.0467722309
20
-14.0921051509
30
0.0000000000
11
-2.9025547484
21
-14.1680249309
31
0.0000000000
11
-3.0467722309
21
-14.0921051509
31
0.0000000000
0
SPLINE
5
32F
100
AcDbEntity
8
0
100
AcDbSpline
62
9
6
CONTINUOUS
70
0
71
3
72
8
73
4
74
2
42
0.0000001000
43
0.0000001000
44
0.0000000001
12
-0.1152399570
22
0.0637018971
32
0.0000000000
13
-0.1132428080
23
0.0673555814
33
0.0000000000
40
0.0000000000
40
0.0000000000
40
0.0000000000
40
0.0000000000
40
1.0000000000
40
1.0000000000
40
1.0000000000
40
1.0000000000
10
-3.0467722309
20
-14.0921051509
30
0.0000000000
10
-3.0851855499
20
-14.0708711852
30
0.0000000000
10
-3.1232670572
20
-14.0490094887
30
0.0000000000
10
-3.1610146599
20
-14.0265576283
30
0.0000000000
11
-3.0467722309
21
-14.0921051509
31
0.0000000000
11
-3.1610146599
21
-14.0265576283
31
0.0000000000
0
SPLINE
5
330
100
AcDbEntity
8
0
100
AcDbSpline
62
9
6
CONTINUOUS
70
0
71
3
72
8
73
4
74
2
42
0.0000001000
43
0.0000001000
44
0.0000000001
12
-0.2633534642
22
0.1566397551
32
0.0000000000
13
-0.2524394461
23
0.1743728277
33
0.0000000000
40
0.0000000000
40
0.0000000000
40
0.0000000000
40
0.0000000000
40
1.0000000000
40
1.0000000000
40
1.0000000000
40
1.0000000000
10
-3.1610146599
20
-14.0265576283
30
0.0000000000
10
-3.2487991480
20
-13.9743443766
30
0.0000000000
10
-3.3347777956
20
-13.9189393699
30
0.0000000000
10
-3.4189242777
20
-13.8608150940
30
0.0000000000
11
-3.1610146599
21
-14.0265576283
31
0.0000000000
11
-3.4189242777
21
-13.8608150940
31
0.0000000000
0
SPLINE
5
331
100
AcDbEntity
8
0
100
AcDbSpline
62
9
6
CONTINUOUS
70
0
71
3
72
8
73
4
74
2
42
0.0000001000
43
0.0000001000
44
0.0000000001
12
-0.2615708635
22
0.1806803644
32
0.0000000000
13
-0.2496803337
23
0.1966207801
33
0.0000000000
40
0.0000000000
40
0.0000000000
40
0.0000000000
40
0.0000000000
40
1.0000000000
40
1.0000000000
40
1.0000000000
40
1.0000000000
10
-3.4189242777
20
-13.8608150940
30
0.0000000000
10
-3.5061145655
20
-13.8005883059
30
0.0000000000
10
-3.5913377417
20
-13.7374419638
30
0.0000000000
10
-3.6745645196
20
-13.6719017038
30
0.0000000000
11
-3.4189242777
21
-13.8608150940
31
0.0000000000
11
-3.6745645196
21
-13.6719017038
31
0.0000000000
0
SPLINE
5
332
100
AcDbEntity
8
0
100
AcDbSpline
62
9
6
CONTINUOUS
70
0
71
3
72
8
73
4
74
2
42
0.0000001000
43
0.0000001000
44
0.0000000001
12
-0.1412476050
22
0.1112310844
32
0.0000000000
13
-0.1374404171
23
0.1157018315
33
0.0000000000
40
0.0000000000
40
0.0000000000
40
0.0000000000
40
0.0000000000
40
1.0000000000
40
1.0000000000
40
1.0000000000
40
1.0000000000
10
-3.6745645196
20
-13.6719017038
30
0.0000000000
10
-3.7216470546
20
-13.6348246756
30
0.0000000000
10
-3.7680906781
20
-13.5969815170
30
0.0000000000
10
-3.8139041504
20
-13.5584142398
30
0.0000000000
11
-3.6745645196
21
-13.6719017038
31
0.0000000000
11
-3.8139041504
21
-13.5584142398
31
0.0000000000
0
SPLINE
5
333
100
AcDbEntity
8
0
100
AcDbSpline
62
9
6
CONTINUOUS
70
0
71
3
72
8
73
4
74
2
42
0.0000001000
43
0.0000001000
44
0.0000000001
12
-0.0392937531
22
0.1688861577
32
0.0000000000
13
-0.0343427670
23
0.1699511517
33
0.0000000000
40
0.0000000000
40
0.0000000000
40
0.0000000000
40
0.0000000000
40
1.0000000000
40
1.0000000000
40
1.0000000000
40
1.0000000000
10
-6.0813787046
20
-9.8204662454
30
0.0000000000
10
-6.0944766223
20
-9.7641708595
30
0.0000000000
10
-6.1067681613
20
-9.7076898908
30
0.0000000000
10
-6.1182157503
20
-9.6510395069
30
0.0000000000
11
-6.0813787046
21
-9.8204662454
31
0.0000000000
11
-6.1182157503
21
-9.6510395069
31
0.0000000000
0
SPLINE
5
334
100
AcDbEntity
8
0
100
AcDbSpline
62
9
6
CONTINUOUS
70
0
71
3
72
11
73
7
74
5
42
0.0000001000
43
0.0000001000
44
0.0000000001
12
-0.4800545300
22
2.3756332775
32
0.0000000000
13
1.0675231895
23
2.1874032010
33
0.0000000000
40
0.0000000000
40
0.0000000000
40
0.0000000000
40
0.0000000000
40
0.1837090347
40
0.5636209913
40
0.8975594750
40
1.0000000000
40
1.0000000000
40
1.0000000000
40
1.0000000000
10
-6.1182157503
20
-9.6510395069
30
0.0000000000
10
-6.1476125351
20
-9.5055644081
30
0.0000000000
10
-6.2207277580
20
-9.0558179563
30
0.0000000000
10
-6.2442046141
20
-8.3269600712
30
0.0000000000
10
-6.1159326682
20
-7.6736760839
30
0.0000000000
10
-5.9781127747
20
-7.3467906711
30
0.0000000000
10
-5.9416602294
20
-7.2720977603
30
0.0000000000
11
-6.1182157503
21
-9.6510395069
31
0.0000000000
11
-6.1890739866
21
-9.2115364468
31
0.0000000000
11
-6.2083465152
21
-8.2920005523
31
0.0000000000
11
-6.0390034725
21
-7.5014959830
31
0.0000000000
11
-5.9416602294
21
-7.2720977603
31
0.0000000000
0
SPLINE
5
335
100
AcDbEntity
8
0
100
AcDbSpline
62
9
6
CONTINUOUS
70
0
71
3
72
8
73
4
74
2
42
0.0000001000
43
0.0000001000
44
0.0000000001
12
0.2065410130
22
0.4232118584
32
0.0000000000
13
0.2999942940
23
0.3630551979
33
0.0000000000
40
0.0000000000
40
0.0000000000
40
0.0000000000
40
0.0000000000
40
1.0000000000
40
1.0000000000
40
1.0000000000
40
1.0000000000
10
-5.9416602294
20
-7.2720977603
30
0.0000000000
10
-5.8728132251
20
-7.1310271409
30
0.0000000000
10
-5.7893441705
20
-6.9972471375
30
0.0000000000
10
-5.6893460725
20
-6.8762287381
30
0.0000000000
11
-5.9416602294
21
-7.2720977603
31
0.0000000000
11
-5.6893460725
21
-6.8762287381
31
0.0000000000
0
SPLINE
5
336
100
AcDbEntity
8
0
100
AcDbSpline
62
9
6
CONTINUOUS
70
0
71
3
72
8
73
4
74
2
42
0.0000001000
43
0.0000001000
44
0.0000000001
12
0.0373031024
22
0.0371506285
32
0.0000000000
13
0.0384219662
23
0.0360000071
33
0.0000000000
40
0.0000000000
40
0.0000000000
40
0.0000000000
40
0.0000000000
40
1.0000000000
40
1.0000000000
40
1.0000000000
40
1.0000000000
10
-5.5748350077
20
-6.7505271632
30
0.0000000000
10
-5.5624006402
20
-6.7381436203
30
0.0000000000
10
-5.5497772098
20
-6.7259474429
30
0.0000000000
10
-5.5369698877
20
-6.7139474405
30
0.0000000000
11
-5.5748350077
21
-6.7505271632
31
0.0000000000
11
-5.5369698877
21
-6.7139474405
31
0.0000000000
0
SPLINE
5
337
100
AcDbEntity
8
0
100
AcDbSpline
62
9
6
CONTINUOUS
70
0
71
3
72
8
73
4
74
2
42
0.0000001000
43
0.0000001000
44
0.0000000001
12
0.0952051454
22
0.0892038134
32
0.0000000000
13
0.1017435809
23
0.0815747386
33
0.0000000000
40
0.0000000000
40
0.0000000000
40
0.0000000000
40
0.0000000000
40
1.0000000000
40
1.0000000000
40
1.0000000000
40
1.0000000000
10
-5.5369698877
20
-6.7139474405
30
0.0000000000
10
-5.5052348393
20
-6.6842128360
30
0.0000000000
10
-5.4723707135
20
-6.6556827282
30
0.0000000000
10
-5.4384561865
20
-6.6284911487
30
0.0000000000
11
-5.5369698877
21
-6.7139474405
31
0.0000000000
11
-5.4384561865
21
-6.6284911487
31
0.0000000000
0
SPLINE
5
338
100
AcDbEntity
8
0
100
AcDbSpline
62
9
6
CONTINUOUS
70
0
71
3
72
8
73
4
74
2
42
0.0000001000
43
0.0000001000
44
0.0000000001
12
0.0680815381
22
0.0545855927
32
0.0000000000
13
0.0708327816
23
0.0508690868
33
0.0000000000
40
0.0000000000
40
0.0000000000
40
0.0000000000
40
0.0000000000
40
1.0000000000
40
1.0000000000
40
1.0000000000
40
1.0000000000
10
-5.4384561865
20
-6.6284911487
30
0.0000000000
10
-5.4157623405
20
-6.6102959511
30
0.0000000000
10
-5.3925981675
20
-6.5927000921
30
0.0000000000
10
-5.3689872403
20
-6.5757437299
30
0.0000000000
11
-5.4384561865
21
-6.6284911487
31
0.0000000000
11
-5.3689872403
21
-6.5757437299
31
0.0000000000
0
SPLINE
5
339
100
AcDbEntity
8
0
100
AcDbSpline
62
9
6
CONTINUOUS
70
0
71
3
72
8
73
4
74
2
42
0.0000001000
43
0.0000001000
44
0.0000000001
12
0.1019981487
22
0.0643966201
32
0.0000000000
13
0.1066499680
23
0.0562189897
33
0.0000000000
40
0.0000000000
40
0.0000000000
40
0.0000000000
40
0.0000000000
40
1.0000000000
40
1.0000000000
40
1.0000000000
40
1.0000000000
10
-5.2898077388
20
-6.5223688912
30
0.0000000000
10
-5.2558083559
20
-6.5009033512
30
0.0000000000
10
-5.2210024070
20
-6.4807474908
30
0.0000000000
10
-5.1854524177
20
-6.4620078276
30
0.0000000000
11
-5.2898077388
21
-6.5223688912
31
0.0000000000
11
-5.1854524177
21
-6.4620078276
31
0.0000000000
0
SPLINE
5
33A
100
AcDbEntity
8
0
100
AcDbSpline
62
9
6
CONTINUOUS
70
0
71
3
72
8
73
4
74
2
42
0.0000001000
43
0.0000001000
44
0.0000000001
12
0.0193240409
22
0.0094327606
32
0.0000000000
13
0.0194547987
23
0.0091639478
33
0.0000000000
40
0.0000000000
40
0.0000000000
40
0.0000000000
40
0.0000000000
40
1.0000000000
40
1.0000000000
40
1.0000000000
40
1.0000000000
10
-5.1432160390
20
-6.4405760009
30
0.0000000000
10
-5.1367746920
20
-6.4374317473
30
0.0000000000
10
-5.1303112052
20
-6.4343323416
30
0.0000000000
10
-5.1238262723
20
-6.4312776923
30
0.0000000000
11
-5.1432160390
21
-6.4405760009
31
0.0000000000
11
-5.1238262723
21
-6.4312776923
31
0.0000000000
0
SPLINE
5
33B
100
AcDbEntity
8
0
100
AcDbSpline
62
9
6
CONTINUOUS
70
0
71
3
72
10
73
6
74
4
42
0.0000001000
43
0.0000001000
44
0.0000000001
12
-0.0257206450
22
-0.3737639936
32
0.0000000000
13
0.3386685021
23
-0.1688223678
33
0.0000000000
40
0.0000000000
40
0.0000000000
40
0.0000000000
40
0.0000000000
40
0.0313902155
40
0.4387443272
40
1.0000000000
40
1.0000000000
40
1.0000000000
40
1.0000000000
10
-8.6695849357
20
21.4909952325
30
0.0000000000
10
-8.6698540612
20
21.4870843884
30
0.0000000000
10
-8.6715025925
20
21.4324043910
30
0.0000000000
10
-8.6042538424
20
21.3098659718
30
0.0000000000
10
-8.4986087290
20
21.2456020396
30
0.0000000000
10
-8.4352488563
20
21.2140178690
30
0.0000000000
11
-8.6695849357
21
21.4909952325
31
0.0000000000
11
-8.6699304836
21
21.4792648583
31
0.0000000000
11
-8.6074391275
21
21.3383513325
31
0.0000000000
11
-8.4352488563
21
21.2140178690
31
0.0000000000
0
SPLINE
5
33C
100
AcDbEntity
8
0
100
AcDbSpline
62
9
6
CONTINUOUS
70
0
71
3
72
9
73
5
74
3
42
0.0000001000
43
0.0000001000
44
0.0000000001
12
0.3394723926
22
0.1783090698
32
0.0000000000
13
0.3420788848
23
-0.1650472056
33
0.0000000000
40
0.0000000000
40
0.0000000000
40
0.0000000000
40
0.0000000000
40
0.4050937236
40
1.0000000000
40
1.0000000000
40
1.0000000000
40
1.0000000000
10
-7.7737710289
20
22.9656498165
30
0.0000000000
10
-7.7279316504
20
22.9897271115
30
0.0000000000
10
-7.5982505242
20
23.0210074113
30
0.0000000000
10
-7.4718000440
20
22.9824365646
30
0.0000000000
10
-7.4039650855
20
22.9497073584
30
0.0000000000
11
-7.7737710289
21
22.9656498165
31
0.0000000000
11
-7.6233957818
21
23.0036073800
31
0.0000000000
11
-7.4039650855
21
22.9497073584
31
0.0000000000
0
SPLINE
5
33D
100
AcDbEntity
8
0
100
AcDbSpline
62
9
6
CONTINUOUS
70
0
71
3
72
8
73
4
74
2
42
0.0000001000
43
0.0000001000
44
0.0000000001
12
-0.1458188947
22
0.0729572059
32
0.0000000000
13
-0.1428429094
23
0.0788238962
33
0.0000000000
40
0.0000000000
40
0.0000000000
40
0.0000000000
40
0.0000000000
40
1.0000000000
40
1.0000000000
40
1.0000000000
40
1.0000000000
10
-2.9719100945
20
-14.2943615888
30
0.0000000000
10
-3.0205163927
20
-14.2700425201
30
0.0000000000
10
-3.0686287724
20
-14.2447116764
30
0.0000000000
10
-3.1162430755
20
-14.2184370443
30
0.0000000000
11
-2.9719100945
21
-14.2943615888
31
0.0000000000
11
-3.1162430755
21
-14.2184370443
31
0.0000000000
0
SPLINE
5
33E
100
AcDbEntity
8
0
100
AcDbSpline
62
9
6
CONTINUOUS
70
0
71
3
72
8
73
4
74
2
42
0.0000001000
43
0.0000001000
44
0.0000000001
12
-0.1236971533
22
0.0682588419
32
0.0000000000
13
-0.1214480146
23
0.0723728610
33
0.0000000000
40
0.0000000000
40
0.0000000000
40
0.0000000000
40
0.0000000000
40
1.0000000000
40
1.0000000000
40
1.0000000000
40
1.0000000000
10
-3.1162430755
20
-14.2184370443
30
0.0000000000
10
-3.1574754599
20
-14.1956840970
30
0.0000000000
10
-3.1983343380
20
-14.1722234050
30
0.0000000000
10
-3.2388170095
20
-14.1480991180
30
0.0000000000
11
-3.1162430755
21
-14.2184370443
31
0.0000000000
11
-3.2388170095
21
-14.1480991180
31
0.0000000000
0
SPLINE
5
33F
100
AcDbEntity
8
0
100
AcDbSpline
62
9
6
CONTINUOUS
70
0
71
3
72
8
73
4
74
2
42
0.0000001000
43
0.0000001000
44
0.0000000001
12
-0.1517539391
22
0.0904326577
32
0.0000000000
13
-0.1482138054
23
0.0963908622
33
0.0000000000
40
0.0000000000
40
0.0000000000
40
0.0000000000
40
0.0000000000
40
1.0000000000
40
1.0000000000
40
1.0000000000
40
1.0000000000
10
-3.2388170095
20
-14.1480991180
30
0.0000000000
10
-3.2894016558
20
-14.1179548988
30
0.0000000000
10
-3.3393989138
20
-14.0867745783
30
0.0000000000
10
-3.3888035156
20
-14.0546442909
30
0.0000000000
11
-3.2388170095
21
-14.1480991180
31
0.0000000000
11
-3.3888035156
21
-14.0546442909
31
0.0000000000
0
SPLINE
5
340
100
AcDbEntity
8
0
100
AcDbSpline
62
9
6
CONTINUOUS
70
0
71
3
72
8
73
4
74
2
42
0.0000001000
43
0.0000001000
44
0.0000000001
12
-0.1137758519
22
0.0739941359
32
0.0000000000
13
-0.1116732551
23
0.0772360327
33
0.0000000000
40
0.0000000000
40
0.0000000000
40
0.0000000000
40
0.0000000000
40
1.0000000000
40
1.0000000000
40
1.0000000000
40
1.0000000000
10
-3.3888035156
20
-14.0546442909
30
0.0000000000
10
-3.4267287995
20
-14.0299795789
30
0.0000000000
10
-3.4643048421
20
-14.0047550690
30
0.0000000000
10
-3.5015292605
20
-13.9790097248
30
0.0000000000
11
-3.3888035156
21
-14.0546442909
31
0.0000000000
11
-3.5015292605
21
-13.9790097248
31
0.0000000000
0
SPLINE
5
341
100
AcDbEntity
8
0
100
AcDbSpline
62
9
6
CONTINUOUS
70
0
71
3
72
8
73
4
74
2
42
0.0000001000
43
0.0000001000
44
0.0000000001
12
-0.0305772054
22
0.0211479645
32
0.0000000000
13
-0.0304188875
23
0.0213798519
33
0.0000000000
40
0.0000000000
40
0.0000000000
40
0.0000000000
40
0.0000000000
40
1.0000000000
40
1.0000000000
40
1.0000000000
40
1.0000000000
10
-3.5015292605
20
-13.9790097248
30
0.0000000000
10
-3.5117216623
20
-13.9719604032
30
0.0000000000
10
-3.5218877022
20
-13.9648720339
30
0.0000000000
10
-3.5320273314
20
-13.9577454166
30
0.0000000000
11
-3.5015292605
21
-13.9790097248
31
0.0000000000
11
-3.5320273314
21
-13.9577454166
31
0.0000000000
0
SPLINE
5
342
100
AcDbEntity
8
0
100
AcDbSpline
62
9
6
CONTINUOUS
70
0
71
3
72
8
73
4
74
2
42
0.0000001000
43
0.0000001000
44
0.0000000001
12
-0.2329691417
22
0.1637418773
32
0.0000000000
13
-0.2236083647
23
0.1761247078
33
0.0000000000
40
0.0000000000
40
0.0000000000
40
0.0000000000
40
0.0000000000
40
1.0000000000
40
1.0000000000
40
1.0000000000
40
1.0000000000
10
-3.5320273314
20
-13.9577454166
30
0.0000000000
10
-3.6096837120
20
-13.9031647909
30
0.0000000000
10
-3.6857909502
20
-13.8463407040
30
0.0000000000
10
-3.7603270718
20
-13.7876324680
30
0.0000000000
11
-3.5320273314
21
-13.9577454166
31
0.0000000000
11
-3.7603270718
21
-13.7876324680
31
0.0000000000
0
SPLINE
5
343
100
AcDbEntity
8
0
100
AcDbSpline
62
9
6
CONTINUOUS
70
0
71
3
72
10
73
6
74
4
42
0.0000001000
43
0.0000001000
44
0.0000000001
12
-1.6977843110
22
1.4656410242
32
0.0000000000
13
-1.1478482178
23
1.9257232387
33
0.0000000000
40
0.0000000000
40
0.0000000000
40
0.0000000000
40
0.0000000000
40
0.3481378313
40
0.8353298988
40
1.0000000000
40
1.0000000000
40
1.0000000000
40
1.0000000000
10
-3.9563000553
20
-13.6259385175
30
0.0000000000
10
-4.1533210380
20
-13.4558568216
30
0.0000000000
10
-4.5981875752
20
-13.0162787732
30
0.0000000000
10
-5.0555461268
20
-12.4225943078
30
0.0000000000
10
-5.3150125342
20
-12.0101336442
30
0.0000000000
10
-5.3780179616
20
-11.9044306306
30
0.0000000000
11
-3.9563000553
21
-13.6259385175
31
0.0000000000
11
-4.5132205946
21
-13.0796669742
31
0.0000000000
11
-5.1814547773
21
-12.2168963428
31
0.0000000000
11
-5.3780179616
21
-11.9044306306
31
0.0000000000
0
SPLINE
5
344
100
AcDbEntity
8
0
100
AcDbSpline
62
9
6
CONTINUOUS
70
0
71
3
72
8
73
4
74
2
42
0.0000001000
43
0.0000001000
44
0.0000000001
12
-0.1905211297
22
0.3196336948
32
0.0000000000
13
-0.1748182074
23
0.3284796613
33
0.0000000000
40
0.0000000000
40
0.0000000000
40
0.0000000000
40
0.0000000000
40
1.0000000000
40
1.0000000000
40
1.0000000000
40
1.0000000000
10
-5.3780179616
20
-11.9044306306
30
0.0000000000
10
-5.4415250049
20
-11.7978860657
30
0.0000000000
10
-5.5024517933
20
-11.6898080713
30
0.0000000000
10
-5.5607245291
20
-11.5803148509
30
0.0000000000
11
-5.3780179616
21
-11.9044306306
31
0.0000000000
11
-5.5607245291
21
-11.5803148509
31
0.0000000000
0
SPLINE
5
345
100
AcDbEntity
8
0
100
AcDbSpline
62
9
6
CONTINUOUS
70
0
71
3
72
8
73
4
74
2
42
0.0000001000
43
0.0000001000
44
0.0000000001
12
-0.1735545424
22
0.3261052618
32
0.0000000000
13
-0.1576429834
23
0.3341273267
33
0.0000000000
40
0.0000000000
40
0.0000000000
40
0.0000000000
40
0.0000000000
40
1.0000000000
40
1.0000000000
40
1.0000000000
40
1.0000000000
10
-5.5607245291
20
-11.5803148509
30
0.0000000000
10
-5.6185760433
20
-11.4716130969
30
0.0000000000
10
-5.6738117354
20
-11.3615165028
30
0.0000000000
10
-5.7263593966
20
-11.2501407273
30
0.0000000000
11
-5.5607245291
21
-11.5803148509
31
0.0000000000
11
-5.7263593966
21
-11.2501407273
31
0.0000000000
0
SPLINE
5
346
100
AcDbEntity
8
0
100
AcDbSpline
62
9
6
CONTINUOUS
70
0
71
3
72
8
73
4
74
2
42
0.0000001000
43
0.0000001000
44
0.0000000001
12
-0.0486827147
22
0.1031839474
32
0.0000000000
13
-0.0471290374
23
0.1039070164
33
0.0000000000
40
0.0000000000
40
0.0000000000
40
0.0000000000
40
0.0000000000
40
1.0000000000
40
1.0000000000
40
1.0000000000
40
1.0000000000
10
-5.7263593966
20
-11.2501407273
30
0.0000000000
10
-5.7425869681
20
-11.2157460781
30
0.0000000000
10
-5.7585581890
20
-11.1812294367
30
0.0000000000
10
-5.7742678681
20
-11.1465937645
30
0.0000000000
11
-5.7263593966
21
-11.2501407273
31
0.0000000000
11
-5.7742678681
21
-11.1465937645
31
0.0000000000
0
SPLINE
5
347
100
AcDbEntity
8
0
100
AcDbSpline
62
9
6
CONTINUOUS
70
0
71
3
72
8
73
4
74
2
42
0.0000001000
43
0.0000001000
44
0.0000000001
12
-0.1050067902
22
0.2315120968
32
0.0000000000
13
-0.0970443205
23
0.2349592433
33
0.0000000000
40
0.0000000000
40
0.0000000000
40
0.0000000000
40
0.0000000000
40
1.0000000000
40
1.0000000000
40
1.0000000000
40
1.0000000000
10
-5.7742678681
20
-11.1465937645
30
0.0000000000
10
-5.8092701315
20
-11.0694230656
30
0.0000000000
10
-5.8429740247
20
-10.9916614632
30
0.0000000000
10
-5.8753221316
20
-10.9133417155
30
0.0000000000
11
-5.7742678681
21
-11.1465937645
31
0.0000000000
11
-5.8753221316
21
-10.9133417155
31
0.0000000000
0
SPLINE
5
348
100
AcDbEntity
8
0
100
AcDbSpline
62
9
6
CONTINUOUS
70
0
71
3
72
8
73
4
74
2
42
0.0000001000
43
0.0000001000
44
0.0000000001
12
-0.0867368242
22
0.2100032074
32
0.0000000000
13
-0.0801153957
23
0.2126082956
33
0.0000000000
40
0.0000000000
40
0.0000000000
40
0.0000000000
40
0.0000000000
40
1.0000000000
40
1.0000000000
40
1.0000000000
40
1.0000000000
10
-5.8753221316
20
-10.9133417155
30
0.0000000000
10
-5.9042344063
20
-10.8433406463
30
0.0000000000
10
-5.9320636072
20
-10.7728937012
30
0.0000000000
10
-5.9587687391
20
-10.7020242693
30
0.0000000000
11
-5.8753221316
21
-10.9133417155
31
0.0000000000
11
-5.9587687391
21
-10.7020242693
31
0.0000000000
0
SPLINE
5
349
100
AcDbEntity
8
0
100
AcDbSpline
62
9
6
CONTINUOUS
70
0
71
3
72
12
73
8
74
6
42
0.0000001000
43
0.0000001000
44
0.0000000001
12
-1.2520341444
22
3.3226178724
32
0.0000000000
13
1.5646843259
23
3.2049675947
33
0.0000000000
40
0.0000000000
40
0.0000000000
40
0.0000000000
40
0.0000000000
40
0.1405873542
40
0.4300285416
40
0.6953774395
40
0.9286550751
40
1.0000000000
40
1.0000000000
40
1.0000000000
40
1.0000000000
10
-5.9587687391
20
-10.7020242693
30
0.0000000000
10
-6.0174421284
20
-10.5463182507
30
0.0000000000
10
-6.1803149876
20
-10.0638065784
30
0.0000000000
10
-6.3550164223
20
-9.2564589479
30
0.0000000000
10
-6.3844546687
20
-8.3187228465
30
0.0000000000
10
-6.2527540058
20
-7.6504181857
30
0.0000000000
10
-6.1116588642
20
-7.3161146064
30
0.0000000000
10
-6.0744481023
20
-7.2398952156
30
0.0000000000
11
-5.9587687391
21
-10.7020242693
31
0.0000000000
11
-6.1180758944
21
-10.2290360244
31
0.0000000000
11
-6.3287725602
21
-9.2241236372
31
0.0000000000
11
-6.3477496008
21
-8.2830170015
31
0.0000000000
11
-6.1738714500
21
-7.4739621765
31
0.0000000000
11
-6.0744481023
21
-7.2398952156
31
0.0000000000
0
SPLINE
5
34A
100
AcDbEntity
8
0
100
AcDbSpline
62
9
6
CONTINUOUS
70
0
71
3
72
8
73
4
74
2
42
0.0000001000
43
0.0000001000
44
0.0000000001
12
0.2118242001
22
0.4338828516
32
0.0000000000
13
0.3076827522
23
0.3721555485
33
0.0000000000
40
0.0000000000
40
0.0000000000
40
0.0000000000
40
0.0000000000
40
1.0000000000
40
1.0000000000
40
1.0000000000
40
1.0000000000
10
-6.0744481023
20
-7.2398952156
30
0.0000000000
10
-6.0038400356
20
-7.0952675984
30
0.0000000000
10
-5.9182348492
20
-6.9581185671
30
0.0000000000
10
-5.8156739318
20
-6.8340667176
30
0.0000000000
11
-6.0744481023
21
-7.2398952156
31
0.0000000000
11
-5.8156739318
21
-6.8340667176
31
0.0000000000
0
SPLINE
5
34B
100
AcDbEntity
8
0
100
AcDbSpline
62
9
6
CONTINUOUS
70
0
71
3
72
8
73
4
74
2
42
0.0000001000
43
0.0000001000
44
0.0000000001
12
0.1447735069
22
0.1751097957
32
0.0000000000
13
0.1661047091
23
0.1556711095
33
0.0000000000
40
0.0000000000
40
0.0000000000
40
0.0000000000
40
0.0000000000
40
1.0000000000
40
1.0000000000
40
1.0000000000
40
1.0000000000
10
-5.8156739318
20
-6.8340667176
30
0.0000000000
10
-5.7674160962
20
-6.7756967857
30
0.0000000000
10
-5.7154043112
20
-6.7202265316
30
0.0000000000
10
-5.6600360748
20
-6.6683361617
30
0.0000000000
11
-5.8156739318
21
-6.8340667176
31
0.0000000000
11
-5.6600360748
21
-6.6683361617
31
0.0000000000
0
SPLINE
5
34C
100
AcDbEntity
8
0
100
AcDbSpline
62
9
6
CONTINUOUS
70
0
71
3
72
8
73
4
74
2
42
0.0000001000
43
0.0000001000
44
0.0000000001
12
0.1248641269
22
0.1170209880
32
0.0000000000
13
0.1357375974
23
0.1040165981
33
0.0000000000
40
0.0000000000
40
0.0000000000
40
0.0000000000
40
0.0000000000
40
1.0000000000
40
1.0000000000
40
1.0000000000
40
1.0000000000
10
-5.6600360748
20
-6.6683361617
30
0.0000000000
10
-5.6184146992
20
-6.6293291657
30
0.0000000000
10
-5.5748966533
20
-6.5923450979
30
0.0000000000
10
-5.5296507875
20
-6.5576728986
30
0.0000000000
11
-5.6600360748
21
-6.6683361617
31
0.0000000000
11
-5.5296507875
21
-6.5576728986
31
0.0000000000
0
SPLINE
5
34D
100
AcDbEntity
8
0
100
AcDbSpline
62
9
6
CONTINUOUS
70
0
71
3
72
8
73
4
74
2
42
0.0000001000
43
0.0000001000
44
0.0000000001
12
0.0418438884
22
0.0320652421
32
0.0000000000
13
0.0428142241
23
0.0307216581
33
0.0000000000
40
0.0000000000
40
0.0000000000
40
0.0000000000
40
0.0000000000
40
1.0000000000
40
1.0000000000
40
1.0000000000
40
1.0000000000
10
-5.5296507875
20
-6.5576728986
30
0.0000000000
10
-5.5157028247
20
-6.5469844846
30
0.0000000000
10
-5.5015906660
20
-6.5365157689
30
0.0000000000
10
-5.4873192580
20
-6.5262752162
30
0.0000000000
11
-5.5296507875
21
-6.5576728986
31
0.0000000000
11
-5.4873192580
21
-6.5262752162
31
0.0000000000
0
SPLINE
5
34E
100
AcDbEntity
8
0
100
AcDbSpline
62
9
6
CONTINUOUS
70
0
71
3
72
8
73
4
74
2
42
0.0000001000
43
0.0000001000
44
0.0000000001
12
0.1639793320
22
0.1176645631
32
0.0000000000
13
0.1771618329
23
0.0961562737
33
0.0000000000
40
0.0000000000
40
0.0000000000
40
0.0000000000
40
0.0000000000
40
1.0000000000
40
1.0000000000
40
1.0000000000
40
1.0000000000
10
-5.4873192580
20
-6.5262752162
30
0.0000000000
10
-5.4326594807
20
-6.4870536952
30
0.0000000000
10
-5.3756636659
20
-6.4511791082
30
0.0000000000
10
-5.3166097216
20
-6.4191270170
30
0.0000000000
11
-5.4873192580
21
-6.5262752162
31
0.0000000000
11
-5.3166097216
21
-6.4191270170
31
0.0000000000
0
SPLINE
5
34F
100
AcDbEntity
8
0
100
AcDbSpline
62
9
6
CONTINUOUS
70
0
71
3
72
8
73
4
74
2
42
0.0000001000
43
0.0000001000
44
0.0000000001
12
0.0166670503
22
0.0090462004
32
0.0000000000
13
0.0167756513
23
0.0088420221
33
0.0000000000
40
0.0000000000
40
0.0000000000
40
0.0000000000
40
0.0000000000
40
1.0000000000
40
1.0000000000
40
1.0000000000
40
1.0000000000
10
-5.3166097216
20
-6.4191270170
30
0.0000000000
10
-5.3110540382
20
-6.4161116169
30
0.0000000000
10
-5.3054801389
20
-6.4131300484
30
0.0000000000
10
-5.2998882551
20
-6.4101827077
30
0.0000000000
11
-5.3166097216
21
-6.4191270170
31
0.0000000000
11
-5.2998882551
21
-6.4101827077
31
0.0000000000
0
SPLINE
5
350
100
AcDbEntity
8
0
100
AcDbSpline
62
9
6
CONTINUOUS
70
0
71
3
72
8
73
4
74
2
42
0.0000001000
43
0.0000001000
44
0.0000000001
12
0.0186754084
22
0.0098433361
32
0.0000000000
13
0.0188072590
23
0.0095890678
33
0.0000000000
40
0.0000000000
40
0.0000000000
40
0.0000000000
40
0.0000000000
40
1.0000000000
40
1.0000000000
40
1.0000000000
40
1.0000000000
10
-5.2998882551
20
-6.4101827077
30
0.0000000000
10
-5.2936631189
20
-6.4069015957
30
0.0000000000
10
-5.2874156944
20
-6.4036629025
30
0.0000000000
10
-5.2811466081
20
-6.4004665466
30
0.0000000000
11
-5.2998882551
21
-6.4101827077
31
0.0000000000
11
-5.2811466081
21
-6.4004665466
31
0.0000000000
0
SPLINE
5
351
100
AcDbEntity
8
0
100
AcDbSpline
62
9
6
CONTINUOUS
70
0
71
3
72
8
73
4
74
2
42
0.0000001000
43
0.0000001000
44
0.0000000001
12
0.0646730815
22
0.0265049394
32
0.0000000000
13
0.0657705474
23
0.0237663915
33
0.0000000000
40
0.0000000000
40
0.0000000000
40
0.0000000000
40
0.0000000000
40
1.0000000000
40
1.0000000000
40
1.0000000000
40
1.0000000000
10
-5.1611890815
20
-6.3454654131
30
0.0000000000
10
-5.1396313877
20
-6.3366304333
30
0.0000000000
10
-5.1178794340
20
-6.3282533568
30
0.0000000000
10
-5.0959559182
20
-6.3203312263
30
0.0000000000
11
-5.1611890815
21
-6.3454654131
31
0.0000000000
11
-5.0959559182
21
-6.3203312263
31
0.0000000000
0
SPLINE
5
352
100
AcDbEntity
8
0
100
AcDbSpline
62
9
6
CONTINUOUS
70
0
71
3
72
8
73
4
74
2
42
0.0000001000
43
0.0000001000
44
0.0000000001
12
0.2143278557
22
0.0774480360
32
0.0000000000
13
0.2229026445
23
0.0487679047
33
0.0000000000
40
0.0000000000
40
0.0000000000
40
0.0000000000
40
0.0000000000
40
1.0000000000
40
1.0000000000
40
1.0000000000
40
1.0000000000
10
-5.0959559182
20
-6.3203312263
30
0.0000000000
10
-5.0245132996
20
-6.2945152143
30
0.0000000000
10
-4.9512488184
20
-6.2735303932
30
0.0000000000
10
-4.8769479369
20
-6.2572744249
30
0.0000000000
11
-5.0959559182
21
-6.3203312263
31
0.0000000000
11
-4.8769479369
21
-6.2572744249
31
0.0000000000
0
SPLINE
5
353
100
AcDbEntity
8
0
100
AcDbSpline
62
9
6
CONTINUOUS
70
0
71
3
72
8
73
4
74
2
42
0.0000001000
43
0.0000001000
44
0.0000000001
12
0.2236195726
22
0.0489247583
32
0.0000000000
13
0.2274988424
23
0.0206788181
33
0.0000000000
40
0.0000000000
40
0.0000000000
40
0.0000000000
40
0.0000000000
40
1.0000000000
40
1.0000000000
40
1.0000000000
40
1.0000000000
10
-4.8769479369
20
-6.2572744249
30
0.0000000000
10
-4.8024080794
20
-6.2409661722
30
0.0000000000
10
-4.7268251440
20
-6.2294172403
30
0.0000000000
10
-4.6509921965
20
-6.2225243010
30
0.0000000000
11
-4.8769479369
21
-6.2572744249
31
0.0000000000
11
-4.6509921965
21
-6.2225243010
31
0.0000000000
0
SPLINE
5
354
100
AcDbEntity
8
0
100
AcDbSpline
62
9
6
CONTINUOUS
70
0
71
3
72
8
73
4
74
2
42
0.0000001000
43
0.0000001000
44
0.0000000001
12
0.2324816192
22
0.0211317344
32
0.0000000000
13
0.2329463305
23
-0.0064600206
33
0.0000000000
40
0.0000000000
40
0.0000000000
40
0.0000000000
40
0.0000000000
40
1.0000000000
40
1.0000000000
40
1.0000000000
40
1.0000000000
10
-4.6509921965
20
-6.2225243010
30
0.0000000000
10
-4.5734983234
20
-6.2154803895
30
0.0000000000
10
-4.4957433666
20
-6.2132986591
30
0.0000000000
10
-4.4180945897
20
-6.2154519993
30
0.0000000000
11
-4.6509921965
21
-6.2225243010
31
0.0000000000
11
-4.4180945897
21
-6.2154519993
31
0.0000000000
0
SPLINE
5
355
100
AcDbEntity
8
0
100
AcDbSpline
62
9
6
CONTINUOUS
70
0
71
3
72
8
73
4
74
2
42
0.0000001000
43
0.0000001000
44
0.0000000001
12
0.2328209884
22
-0.0761516964
32
0.0000000000
13
0.2261081361
23
-0.0938146056
33
0.0000000000
40
0.0000000000
40
0.0000000000
40
0.0000000000
40
0.0000000000
40
1.0000000000
40
1.0000000000
40
1.0000000000
40
1.0000000000
10
-3.7097484818
20
-6.3448924730
30
0.0000000000
10
-3.6321414857
20
-6.3702763718
30
0.0000000000
10
-3.5555990772
20
-6.3988233502
30
0.0000000000
10
-3.4802296985
20
-6.4300948854
30
0.0000000000
11
-3.7097484818
21
-6.3448924730
31
0.0000000000
11
-3.4802296985
21
-6.4300948854
31
0.0000000000
0
SPLINE
5
356
100
AcDbEntity
8
0
100
AcDbSpline
62
9
6
CONTINUOUS
70
0
71
3
72
8
73
4
74
2
42
0.0000001000
43
0.0000001000
44
0.0000000001
12
0.2323381420
22
-0.0963994995
32
0.0000000000
13
0.2245538063
23
-0.1122327572
33
0.0000000000
40
0.0000000000
40
0.0000000000
40
0.0000000000
40
0.0000000000
40
1.0000000000
40
1.0000000000
40
1.0000000000
40
1.0000000000
10
-3.4802296985
20
-6.4300948854
30
0.0000000000
10
-3.4027836511
20
-6.4622280519
30
0.0000000000
10
-3.3265761656
20
-6.4972379841
30
0.0000000000
10
-3.2517248968
20
-6.5346489032
30
0.0000000000
11
-3.4802296985
21
-6.4300948854
31
0.0000000000
11
-3.2517248968
21
-6.5346489032
31
0.0000000000
0
SPLINE
5
357
100
AcDbEntity
8
0
100
AcDbSpline
62
9
6
CONTINUOUS
70
0
71
3
72
8
73
4
74
2
42
0.0000001000
43
0.0000001000
44
0.0000000001
12
-0.0239154218
22
0.0119617432
32
0.0000000000
13
-0.0233118694
23
0.0131059609
33
0.0000000000
40
0.0000000000
40
0.0000000000
40
0.0000000000
40
0.0000000000
40
1.0000000000
40
1.0000000000
40
1.0000000000
40
1.0000000000
10
-8.0508828155
20
-14.4145556450
30
0.0000000000
10
-8.0588546228
20
-14.4105683973
30
0.0000000000
10
-8.0667296622
20
-14.4063867035
30
0.0000000000
10
-8.0745002853
20
-14.4020180499
30
0.0000000000
11
-8.0508828155
21
-14.4145556450
31
0.0000000000
11
-8.0745002853
21
-14.4020180499
31
0.0000000000
0
SPLINE
5
358
100
AcDbEntity
8
0
100
AcDbSpline
62
9
6
CONTINUOUS
70
0
71
3
72
8
73
4
74
2
42
0.0000001000
43
0.0000001000
44
0.0000000001
12
-0.0163734484
22
0.0092051723
32
0.0000000000
13
-0.0160564362
23
0.0097507735
33
0.0000000000
40
0.0000000000
40
0.0000000000
40
0.0000000000
40
0.0000000000
40
1.0000000000
40
1.0000000000
40
1.0000000000
40
1.0000000000
10
-8.0745002853
20
-14.4020180499
30
0.0000000000
10
-8.0799581015
20
-14.3989496591
30
0.0000000000
10
-8.0853644073
20
-14.3957890379
30
0.0000000000
10
-8.0907165527
20
-14.3925387801
30
0.0000000000
11
-8.0745002853
21
-14.4020180499
31
0.0000000000
11
-8.0907165527
21
-14.3925387801
31
0.0000000000
0
SPLINE
5
359
100
AcDbEntity
8
0
100
AcDbSpline
62
9
6
CONTINUOUS
70
0
71
3
72
8
73
4
74
2
42
0.0000001000
43
0.0000001000
44
0.0000000001
12
-0.0419682573
22
0.0254865379
32
0.0000000000
13
-0.0396061653
23
0.0290219259
33
0.0000000000
40
0.0000000000
40
0.0000000000
40
0.0000000000
40
0.0000000000
40
1.0000000000
40
1.0000000000
40
1.0000000000
40
1.0000000000
10
-8.0907165527
20
-14.3925387801
30
0.0000000000
10
-8.1047059718
20
-14.3840432675
30
0.0000000000
10
-8.1183253706
20
-14.3749353637
30
0.0000000000
10
-8.1315274256
20
-14.3652613884
30
0.0000000000
11
-8.0907165527
21
-14.3925387801
31
0.0000000000
11
-8.1315274256
21
-14.3652613884
31
0.0000000000
0
SPLINE
5
35A
100
AcDbEntity
8
0
100
AcDbSpline
62
9
6
CONTINUOUS
70
0
71
3
72
9
73
5
74
3
42
0.0000001000
43
0.0000001000
44
0.0000000001
12
-0.0288495034
22
0.1417025983
32
0.0000000000
13
-0.0127412161
23
0.1440010775
33
0.0000000000
40
0.0000000000
40
0.0000000000
40
0.0000000000
40
0.0000000000
40
0.3396018041
40
1.0000000000
40
1.0000000000
40
1.0000000000
40
1.0000000000
10
-8.4113336693
20
-13.8800505757
30
0.0000000000
10
-8.4145994504
20
-13.8640097563
30
0.0000000000
10
-8.4232285428
20
-13.8165727225
30
0.0000000000
10
-8.4291156571
20
-13.7687047765
30
0.0000000000
10
-8.4319204158
20
-13.7370054259
30
0.0000000000
11
-8.4113336693
21
-13.8800505757
31
0.0000000000
11
-8.4201441304
21
-13.8317406549
31
0.0000000000
11
-8.4319204158
21
-13.7370054259
31
0.0000000000
0
SPLINE
5
35B
100
AcDbEntity
8
0
100
AcDbSpline
62
9
6
CONTINUOUS
70
0
71
3
72
8
73
4
74
2
42
0.0000001000
43
0.0000001000
44
0.0000000001
12
-0.0040793444
22
0.0461047038
32
0.0000000000
13
-0.0025904709
23
0.0461936725
33
0.0000000000
40
0.0000000000
40
0.0000000000
40
0.0000000000
40
0.0000000000
40
1.0000000000
40
1.0000000000
40
1.0000000000
40
1.0000000000
10
-8.4319204158
20
-13.7370054259
30
0.0000000000
10
-8.4332801973
20
-13.7216371913
30
0.0000000000
10
-8.4343854082
20
-13.7062484033
30
0.0000000000
10
-8.4352488985
20
-13.6908505124
30
0.0000000000
11
-8.4319204158
21
-13.7370054259
31
0.0000000000
11
-8.4352488985
21
-13.6908505124
31
0.0000000000
0
SPLINE
5
35C
100
AcDbEntity
8
0
100
AcDbSpline
62
9
6
CONTINUOUS
70
0
71
3
72
8
73
4
74
2
42
0.0000001000
43
0.0000001000
44
0.0000000001
12
0.2282086711
22
-0.1177275703
32
0.0000000000
13
0.2205710193
23
-0.1320871849
33
0.0000000000
40
0.0000000000
40
0.0000000000
40
0.0000000000
40
0.0000000000
40
1.0000000000
40
1.0000000000
40
1.0000000000
40
1.0000000000
10
-0.2393923519
20
-8.0411592714
30
0.0000000000
10
-0.1633227949
20
-8.0804017948
30
0.0000000000
10
-0.0885153160
20
-8.1221745666
30
0.0000000000
10
-0.0149916429
20
-8.1662036282
30
0.0000000000
11
-0.2393923519
21
-8.0411592714
31
0.0000000000
11
-0.0149916429
21
-8.1662036282
31
0.0000000000
0
SPLINE
5
35D
100
AcDbEntity
8
0
100
AcDbSpline
62
9
6
CONTINUOUS
70
0
71
3
72
11
73
7
74
5
42
0.0000001000
43
0.0000001000
44
0.0000000001
12
3.3184395880
22
-1.9872209175
32
0.0000000000
13
1.6090504152
23
-3.5154919480
33
0.0000000000
40
0.0000000000
40
0.0000000000
40
0.0000000000
40
0.0000000000
40
0.1636795314
40
0.4306908744
40
0.7127928750
40
1.0000000000
40
1.0000000000
40
1.0000000000
40
1.0000000000
10
-0.0149916429
20
-8.1662036282
30
0.0000000000
10
0.1660619026
20
-8.2746260911
30
0.0000000000
10
0.6219843861
20
-8.5959206656
30
0.0000000000
10
1.2836106247
20
-9.2375667843
30
0.0000000000
10
1.9328754838
20
-10.1017742182
30
0.0000000000
10
2.2859346464
20
-10.7469306257
30
0.0000000000
10
2.4399782276
20
-11.0834887375
30
0.0000000000
11
-0.0149916429
21
-8.1662036282
31
0.0000000000
11
0.5044895204
21
-8.5284265353
31
0.0000000000
11
1.2498834112
21
-9.2412712970
31
0.0000000000
11
1.9070802114
21
-10.1104609936
31
0.0000000000
11
2.4399782276
21
-11.0834887375
31
0.0000000000
0
SPLINE
5
35E
100
AcDbEntity
8
0
100
AcDbSpline
62
9
6
CONTINUOUS
70
0
71
3
72
8
73
4
74
2
42
0.0000001000
43
0.0000001000
44
0.0000000001
12
0.0262061615
22
-0.0654370648
32
0.0000000000
13
0.0255871877
23
-0.0656807170
33
0.0000000000
40
0.0000000000
40
0.0000000000
40
0.0000000000
40
0.0000000000
40
1.0000000000
40
1.0000000000
40
1.0000000000
40
1.0000000000
10
2.5852043002
20
-11.4220448551
30
0.0000000000
10
2.5939396874
20
-11.4438572101
30
0.0000000000
10
2.6025724511
20
-11.4657105290
30
0.0000000000
10
2.6111015136
20
-11.4876041014
30
0.0000000000
11
2.5852043002
21
-11.4220448551
31
0.0000000000
11
2.6111015136
21
-11.4876041014
31
0.0000000000
0
SPLINE
5
35F
100
AcDbEntity
8
0
100
AcDbSpline
62
9
6
CONTINUOUS
70
0
71
3
72
8
73
4
74
2
42
0.0000001000
43
0.0000001000
44
0.0000000001
12
0.0149457570
22
-0.0383648274
32
0.0000000000
13
0.0147328248
23
-0.0384468057
33
0.0000000000
40
0.0000000000
40
0.0000000000
40
0.0000000000
40
0.0000000000
40
1.0000000000
40
1.0000000000
40
1.0000000000
40
1.0000000000
10
2.6111015136
20
-11.4876041014
30
0.0000000000
10
2.6160834326
20
-11.5003923772
30
0.0000000000
10
2.6210299703
20
-11.5131943868
30
0.0000000000
10
2.6259409119
20
-11.5260099887
30
0.0000000000
11
2.6111015136
21
-11.4876041014
31
0.0000000000
11
2.6259409119
21
-11.5260099887
31
0.0000000000
0
SPLINE
5
360
100
AcDbEntity
8
0
100
AcDbSpline
62
9
6
CONTINUOUS
70
0
71
3
72
8
73
4
74
2
42
0.0000001000
43
0.0000001000
44
0.0000000001
12
0.0915903853
22
-0.2390144314
32
0.0000000000
13
0.0831812718
23
-0.2420642223
33
0.0000000000
40
0.0000000000
40
0.0000000000
40
0.0000000000
40
0.0000000000
40
1.0000000000
40
1.0000000000
40
1.0000000000
40
1.0000000000
10
2.6259409119
20
-11.5260099887
30
0.0000000000
10
2.6564710403
20
-11.6056814659
30
0.0000000000
10
2.6856254492
20
-11.6858782565
30
0.0000000000
10
2.7133525398
20
-11.7665663306
30
0.0000000000
11
2.6259409119
21
-11.5260099887
31
0.0000000000
11
2.7133525398
21
-11.7665663306
31
0.0000000000
0
SPLINE
5
361
100
AcDbEntity
8
0
100
AcDbSpline
62
9
6
CONTINUOUS
70
0
71
3
72
10
73
6
74
4
42
0.0000001000
43
0.0000001000
44
0.0000000001
12
0.7571776413
22
-2.2034481185
32
0.0000000000
13
-0.2004578283
23
-2.3246740026
33
0.0000000000
40
0.0000000000
40
0.0000000000
40
0.0000000000
40
0.0000000000
40
0.1542002950
40
0.5957543394
40
1.0000000000
40
1.0000000000
40
1.0000000000
40
1.0000000000
10
2.7133525398
20
-11.7665663306
30
0.0000000000
10
2.7522715450
20
-11.8798237806
30
0.0000000000
10
2.8917708015
20
-12.3211346732
30
0.0000000000
10
3.0518928592
20
-13.0837883742
30
0.0000000000
10
3.0725954540
20
-13.7439464172
30
0.0000000000
10
3.0455840516
20
-14.0571928764
30
0.0000000000
11
2.7133525398
21
-11.7665663306
31
0.0000000000
11
2.8215304643
21
-12.1091483810
31
0.0000000000
11
3.0265984488
21
-13.1163587002
31
0.0000000000
11
3.0455840516
21
-14.0571928764
31
0.0000000000
0
SPLINE
5
362
100
AcDbEntity
8
0
100
AcDbSpline
62
9
6
CONTINUOUS
70
0
71
3
72
8
73
4
74
2
42
0.0000001000
43
0.0000001000
44
0.0000000001
12
-0.0246752671
22
-0.2861547110
32
0.0000000000
13
-0.0468266514
23
-0.2834900560
33
0.0000000000
40
0.0000000000
40
0.0000000000
40
0.0000000000
40
0.0000000000
40
1.0000000000
40
1.0000000000
40
1.0000000000
40
1.0000000000
10
3.0455840516
20
-14.0571928764
30
0.0000000000
10
3.0373589626
20
-14.1525777801
30
0.0000000000
10
3.0257118332
20
-14.2477519511
30
0.0000000000
10
3.0101029494
20
-14.3422486365
30
0.0000000000
11
3.0455840516
21
-14.0571928764
31
0.0000000000
11
3.0101029494
21
-14.3422486365
31
0.0000000000
0
SPLINE
5
363
100
AcDbEntity
8
0
100
AcDbSpline
62
9
6
CONTINUOUS
70
0
71
3
72
8
73
4
74
2
42
0.0000001000
43
0.0000001000
44
0.0000000001
12
-0.0258130107
22
-0.1562727981
32
0.0000000000
13
-0.0333074353
23
-0.1548030281
33
0.0000000000
40
0.0000000000
40
0.0000000000
40
0.0000000000
40
0.0000000000
40
1.0000000000
40
1.0000000000
40
1.0000000000
40
1.0000000000
10
3.0101029494
20
-14.3422486365
30
0.0000000000
10
3.0014986125
20
-14.3943395692
30
0.0000000000
10
2.9916904081
20
-14.4462246327
30
0.0000000000
10
2.9805879297
20
-14.4978256421
30
0.0000000000
11
3.0101029494
21
-14.3422486365
31
0.0000000000
11
2.9805879297
21
-14.4978256421
31
0.0000000000
0
SPLINE
5
364
100
AcDbEntity
8
0
100
AcDbSpline
62
9
6
CONTINUOUS
70
0
71
3
72
8
73
4
74
2
42
0.0000001000
43
0.0000001000
44
0.0000000001
12
-0.0126573897
22
-0.0588277732
32
0.0000000000
13
-0.0137937331
23
-0.0585687745
33
0.0000000000
40
0.0000000000
40
0.0000000000
40
0.0000000000
40
0.0000000000
40
1.0000000000
40
1.0000000000
40
1.0000000000
40
1.0000000000
10
2.9805879297
20
-14.4978256421
30
0.0000000000
10
2.9763687998
20
-14.5174348998
30
0.0000000000
10
2.9719627601
20
-14.5370031364
30
0.0000000000
10
2.9673648491
20
-14.5565260613
30
0.0000000000
11
2.9805879297
21
-14.4978256421
31
0.0000000000
11
2.9673648491
21
-14.5565260613
31
0.0000000000
0
SPLINE
5
365
100
AcDbEntity
8
0
100
AcDbSpline
62
9
6
CONTINUOUS
70
0
71
3
72
8
73
4
74
2
42
0.0000001000
43
0.0000001000
44
0.0000000001
12
-0.0131731324
22
-0.0559336775
32
0.0000000000
13
-0.0142360640
23
-0.0556745082
33
0.0000000000
40
0.0000000000
40
0.0000000000
40
0.0000000000
40
0.0000000000
40
1.0000000000
40
1.0000000000
40
1.0000000000
40
1.0000000000
10
2.9673648491
20
-14.5565260613
30
0.0000000000
10
2.9629738050
20
-14.5751706204
30
0.0000000000
10
2.9584077663
20
-14.5937738534
30
0.0000000000
10
2.9536624116
20
-14.6123320228
30
0.0000000000
11
2.9673648491
21
-14.5565260613
31
0.0000000000
11
2.9536624116
21
-14.6123320228
31
0.0000000000
0
SPLINE
5
366
100
AcDbEntity
8
0
100
AcDbSpline
62
9
6
CONTINUOUS
70
0
71
3
72
8
73
4
74
2
42
0.0000001000
43
0.0000001000
44
0.0000000001
12
-0.0649805310
22
-0.2541263589
32
0.0000000000
13
-0.0886293830
23
-0.2474268150
33
0.0000000000
40
0.0000000000
40
0.0000000000
40
0.0000000000
40
0.0000000000
40
1.0000000000
40
1.0000000000
40
1.0000000000
40
1.0000000000
10
2.9536624116
20
-14.6123320228
30
0.0000000000
10
2.9320022346
20
-14.6970408091
30
0.0000000000
10
2.9066060677
20
-14.7808107116
30
0.0000000000
10
2.8770629400
20
-14.8632863166
30
0.0000000000
11
2.9536624116
21
-14.6123320228
31
0.0000000000
11
2.8770629400
21
-14.8632863166
31
0.0000000000
0
SPLINE
5
367
100
AcDbEntity
8
0
100
AcDbSpline
62
9
6
CONTINUOUS
70
0
71
3
72
8
73
4
74
2
42
0.0000001000
43
0.0000001000
44
0.0000000001
12
-0.1669613771
22
-0.4661063900
32
0.0000000000
13
-0.2631100226
23
-0.4192148075
33
0.0000000000
40
0.0000000000
40
0.0000000000
40
0.0000000000
40
0.0000000000
40
1.0000000000
40
1.0000000000
40
1.0000000000
40
1.0000000000
10
2.8770629400
20
-14.8632863166
30
0.0000000000
10
2.8214091476
20
-15.0186551133
30
0.0000000000
10
2.7510387884
20
-15.1694307589
30
0.0000000000
10
2.6633354476
20
-15.3091690281
30
0.0000000000
11
2.8770629400
21
-14.8632863166
31
0.0000000000
11
2.6633354476
21
-15.3091690281
31
0.0000000000
0
SPLINE
5
368
100
AcDbEntity
8
0
100
AcDbSpline
62
9
6
CONTINUOUS
70
0
71
3
72
8
73
4
74
2
42
0.0000001000
43
0.0000001000
44
0.0000000001
12
-0.0603314776
22
-0.0961265121
32
0.0000000000
13
-0.0658942271
23
-0.0924114166
33
0.0000000000
40
0.0000000000
40
0.0000000000
40
0.0000000000
40
0.0000000000
40
1.0000000000
40
1.0000000000
40
1.0000000000
40
1.0000000000
10
2.6633354476
20
-15.3091690281
30
0.0000000000
10
2.6432249550
20
-15.3412111988
30
0.0000000000
10
2.6222031099
20
-15.3726730342
30
0.0000000000
10
2.6002383676
20
-15.4034768397
30
0.0000000000
11
2.6633354476
21
-15.3091690281
31
0.0000000000
11
2.6002383676
21
-15.4034768397
31
0.0000000000
0
SPLINE
5
369
100
AcDbEntity
8
0
100
AcDbSpline
62
9
6
CONTINUOUS
70
0
71
3
72
8
73
4
74
2
42
0.0000001000
43
0.0000001000
44
0.0000000001
12
-0.0365516879
22
-0.0512608373
32
0.0000000000
13
-0.0383085873
23
-0.0500062208
33
0.0000000000
40
0.0000000000
40
0.0000000000
40
0.0000000000
40
0.0000000000
40
1.0000000000
40
1.0000000000
40
1.0000000000
40
1.0000000000
10
2.6002383676
20
-15.4034768397
30
0.0000000000
10
2.5880544716
20
-15.4205637855
30
0.0000000000
10
2.5755804511
20
-15.4374482589
30
0.0000000000
10
2.5628109220
20
-15.4541169992
30
0.0000000000
11
2.6002383676
21
-15.4034768397
31
0.0000000000
11
2.5628109220
21
-15.4541169992
31
0.0000000000
0
SPLINE
5
36A
100
AcDbEntity
8
0
100
AcDbSpline
62
9
6
CONTINUOUS
70
0
71
3
72
8
73
4
74
2
42
0.0000001000
43
0.0000001000
44
0.0000000001
12
-0.0338717104
22
-0.0442145311
32
0.0000000000
13
-0.0352690032
23
-0.0431751029
33
0.0000000000
40
0.0000000000
40
0.0000000000
40
0.0000000000
40
0.0000000000
40
1.0000000000
40
1.0000000000
40
1.0000000000
40
1.0000000000
10
2.5628109220
20
-15.4541169992
30
0.0000000000
10
2.5515203519
20
-15.4688551762
30
0.0000000000
10
2.5399987604
20
-15.4834246984
30
0.0000000000
10
2.5282424260
20
-15.4978163993
30
0.0000000000
11
2.5628109220
21
-15.4541169992
31
0.0000000000
11
2.5282424260
21
-15.4978163993
31
0.0000000000
0
SPLINE
5
36B
100
AcDbEntity
8
0
100
AcDbSpline
62
9
6
CONTINUOUS
70
0
71
3
72
8
73
4
74
2
42
0.0000001000
43
0.0000001000
44
0.0000000001
12
-0.1411375521
22
-0.1727757463
32
0.0000000000
13
-0.1625022198
23
-0.1535547734
33
0.0000000000
40
0.0000000000
40
0.0000000000
40
0.0000000000
40
0.0000000000
40
1.0000000000
40
1.0000000000
40
1.0000000000
40
1.0000000000
10
2.5282424260
20
-15.4978163993
30
0.0000000000
10
2.4811965753
20
-15.5554083148
30
0.0000000000
10
2.4303915602
20
-15.6101526087
30
0.0000000000
10
2.3762241537
20
-15.6613375332
30
0.0000000000
11
2.5282424260
21
-15.4978163993
31
0.0000000000
11
2.3762241537
21
-15.6613375332
31
0.0000000000
0
SPLINE
5
36C
100
AcDbEntity
8
0
100
AcDbSpline
62
9
6
CONTINUOUS
70
0
71
3
72
8
73
4
74
2
42
0.0000001000
43
0.0000001000
44
0.0000000001
12
-0.1595487591
22
-0.1507639317
32
0.0000000000
13
-0.1778698498
23
-0.1281560311
33
0.0000000000
40
0.0000000000
40
0.0000000000
40
0.0000000000
40
0.0000000000
40
1.0000000000
40
1.0000000000
40
1.0000000000
40
1.0000000000
10
2.3762241537
20
-15.6613375332
30
0.0000000000
10
2.3230412340
20
-15.7115921771
30
0.0000000000
10
2.2666170343
20
-15.7584156581
30
0.0000000000
10
2.2073270843
20
-15.8011343351
30
0.0000000000
11
2.3762241537
21
-15.6613375332
31
0.0000000000
11
2.2073270843
21
-15.8011343351
31
0.0000000000
0
SPLINE
5
36D
100
AcDbEntity
8
0
100
AcDbSpline
62
9
6
CONTINUOUS
70
0
71
3
72
8
73
4
74
2
42
0.0000001000
43
0.0000001000
44
0.0000000001
12
-0.1015328604
22
-0.0731548851
32
0.0000000000
13
-0.1069260250
23
-0.0647538603
33
0.0000000000
40
0.0000000000
40
0.0000000000
40
0.0000000000
40
0.0000000000
40
1.0000000000
40
1.0000000000
40
1.0000000000
40
1.0000000000
10
2.2073270843
20
-15.8011343351
30
0.0000000000
10
2.1734827975
20
-15.8255192968
30
0.0000000000
10
2.1387047257
20
-15.8485667363
30
0.0000000000
10
2.1030627174
20
-15.8701513564
30
0.0000000000
11
2.2073270843
21
-15.8011343351
31
0.0000000000
11
2.1030627174
21
-15.8701513564
31
0.0000000000
0
SPLINE
5
36E
100
AcDbEntity
8
0
100
AcDbSpline
62
9
6
CONTINUOUS
70
0
71
3
72
8
73
4
74
2
42
0.0000001000
43
0.0000001000
44
0.0000000001
12
-0.0779718769
22
-0.0472193745
32
0.0000000000
13
-0.0806470232
23
-0.0424064757
33
0.0000000000
40
0.0000000000
40
0.0000000000
40
0.0000000000
40
0.0000000000
40
1.0000000000
40
1.0000000000
40
1.0000000000
40
1.0000000000
10
2.1030627174
20
-15.8701513564
30
0.0000000000
10
2.0770720917
20
-15.8858911479
30
0.0000000000
10
2.0506220661
20
-15.9008530823
30
0.0000000000
10
2.0237397251
20
-15.9149885742
30
0.0000000000
11
2.1030627174
21
-15.8701513564
31
0.0000000000
11
2.0237397251
21
-15.9149885742
31
0.0000000000
0
SPLINE
5
36F
100
AcDbEntity
8
0
100
AcDbSpline
62
9
6
CONTINUOUS
70
0
71
3
72
8
73
4
74
2
42
0.0000001000
43
0.0000001000
44
0.0000000001
12
-0.0830372986
22
-0.0436633498
32
0.0000000000
13
-0.0856083398
23
-0.0384377409
33
0.0000000000
40
0.0000000000
40
0.0000000000
40
0.0000000000
40
0.0000000000
40
1.0000000000
40
1.0000000000
40
1.0000000000
40
1.0000000000
10
2.0237397251
20
-15.9149885742
30
0.0000000000
10
1.9960606255
20
-15.9295430241
30
0.0000000000
10
1.9679232042
20
-15.9432213162
30
0.0000000000
10
1.9393870909
20
-15.9560338965
30
0.0000000000
11
2.0237397251
21
-15.9149885742
31
0.0000000000
11
1.9393870909
21
-15.9560338965
31
0.0000000000
0
SPLINE
5
370
100
AcDbEntity
8
0
100
AcDbSpline
62
9
6
CONTINUOUS
70
0
71
3
72
8
73
4
74
2
42
0.0000001000
43
0.0000001000
44
0.0000000001
12
-0.2107774158
22
-0.0752452125
32
0.0000000000
13
-0.2192346537
23
-0.0466609921
33
0.0000000000
40
0.0000000000
40
0.0000000000
40
0.0000000000
40
0.0000000000
40
1.0000000000
40
1.0000000000
40
1.0000000000
40
1.0000000000
10
1.8235411782
20
-16.0025906541
30
0.0000000000
10
1.7532820396
20
-16.0276723916
30
0.0000000000
10
1.6812102145
20
-16.0479194681
30
0.0000000000
10
1.6081319966
20
-16.0634731321
30
0.0000000000
11
1.8235411782
21
-16.0025906541
31
0.0000000000
11
1.6081319966
21
-16.0634731321
31
0.0000000000
0
SPLINE
5
371
100
AcDbEntity
8
0
100
AcDbSpline
62
9
6
CONTINUOUS
70
0
71
3
72
8
73
4
74
2
42
0.0000001000
43
0.0000001000
44
0.0000000001
12
-0.2203471449
22
-0.0468977701
32
0.0000000000
13
-0.2239910475
23
-0.0188810027
33
0.0000000000
40
0.0000000000
40
0.0000000000
40
0.0000000000
40
0.0000000000
40
1.0000000000
40
1.0000000000
40
1.0000000000
40
1.0000000000
10
1.6081319966
20
-16.0634731321
30
0.0000000000
10
1.5346829483
20
-16.0791057221
30
0.0000000000
10
1.4602172676
20
-16.0899971460
30
0.0000000000
10
1.3855535850
20
-16.0962908136
30
0.0000000000
11
1.6081319966
21
-16.0634731321
31
0.0000000000
11
1.3855535850
21
-16.0962908136
31
0.0000000000
0
SPLINE
5
372
100
AcDbEntity
8
0
100
AcDbSpline
62
9
6
CONTINUOUS
70
0
71
3
72
9
73
5
74
3
42
0.0000001000
43
0.0000001000
44
0.0000000001
12
-0.9446934356
22
-0.0796315723
32
0.0000000000
13
-0.8972406355
23
0.2969917249
33
0.0000000000
40
0.0000000000
40
0.0000000000
40
0.0000000000
40
0.0000000000
40
0.7473184469
40
1.0000000000
40
1.0000000000
40
1.0000000000
40
1.0000000000
10
1.3855535850
20
-16.0962908136
30
0.0000000000
10
1.1502246414
20
-16.1161275279
30
0.0000000000
10
0.8326947723
20
-16.0815529638
30
0.0000000000
10
0.5296236373
20
-15.9942518599
30
0.0000000000
10
0.4540515848
20
-15.9692370832
30
0.0000000000
11
1.3855535850
21
-16.0962908136
31
0.0000000000
11
0.6837077683
21
-16.0350041346
31
0.0000000000
11
0.4540515848
21
-15.9692370832
31
0.0000000000
0
SPLINE
5
373
100
AcDbEntity
8
0
100
AcDbSpline
62
9
6
CONTINUOUS
70
0
71
3
72
8
73
4
74
2
42
0.0000001000
43
0.0000001000
44
0.0000000001
12
-0.1746496175
22
0.0578100112
32
0.0000000000
13
-0.1709420600
23
0.0677691861
33
0.0000000000
40
0.0000000000
40
0.0000000000
40
0.0000000000
40
0.0000000000
40
1.0000000000
40
1.0000000000
40
1.0000000000
40
1.0000000000
10
0.4540515848
20
-15.9692370832
30
0.0000000000
10
0.3958350456
20
-15.9499670795
30
0.0000000000
10
0.3382169418
20
-15.9289432504
30
0.0000000000
10
0.2812362552
20
-15.9063535217
30
0.0000000000
11
0.4540515848
21
-15.9692370832
31
0.0000000000
11
0.2812362552
21
-15.9063535217
31
0.0000000000
0
SPLINE
5
374
100
AcDbEntity
8
0
100
AcDbSpline
62
9
6
CONTINUOUS
70
0
71
3
72
8
73
4
74
2
42
0.0000001000
43
0.0000001000
44
0.0000000001
12
-0.0557029824
22
0.0220831888
32
0.0000000000
13
-0.0552928350
23
0.0230613223
33
0.0000000000
40
0.0000000000
40
0.0000000000
40
0.0000000000
40
0.0000000000
40
1.0000000000
40
1.0000000000
40
1.0000000000
40
1.0000000000
10
0.2812362552
20
-15.9063535217
30
0.0000000000
10
0.2626685944
20
-15.8989924588
30
0.0000000000
10
0.2441686171
20
-15.8914651224
30
0.0000000000
10
0.2257376721
20
-15.8837780149
30
0.0000000000
11
0.2812362552
21
-15.9063535217
31
0.0000000000
11
0.2257376721
21
-15.8837780149
31
0.0000000000
0
SPLINE
5
375
100
AcDbEntity
8
0
100
AcDbSpline
62
9
6
CONTINUOUS
70
0
71
3
72
8
73
4
74
2
42
0.0000001000
43
0.0000001000
44
0.0000000001
12
-0.2315295011
22
0.0965654312
32
0.0000000000
13
-0.2239700411
23
0.1119415349
33
0.0000000000
40
0.0000000000
40
0.0000000000
40
0.0000000000
40
0.0000000000
40
1.0000000000
40
1.0000000000
40
1.0000000000
40
1.0000000000
10
0.2257376721
20
-15.8837780149
30
0.0000000000
10
0.1485611717
20
-15.8515895379
30
0.0000000000
10
0.0725950669
20
-15.8165996742
30
0.0000000000
10
-0.0020616135
20
-15.7792858292
30
0.0000000000
11
0.2257376721
21
-15.8837780149
31
0.0000000000
11
-0.0020616135
21
-15.7792858292
31
0.0000000000
0
SPLINE
5
376
100
AcDbEntity
8
0
100
AcDbSpline
62
9
6
CONTINUOUS
70
0
71
3
72
8
73
4
74
2
42
0.0000001000
43
0.0000001000
44
0.0000000001
12
-0.1916512478
22
-0.1012404262
32
0.0000000000
13
-0.2044315052
23
-0.0728881276
33
0.0000000000
40
0.0000000000
40
0.0000000000
40
0.0000000000
40
0.0000000000
40
1.0000000000
40
1.0000000000
40
1.0000000000
40
1.0000000000
10
2.0505050365
20
-15.7849917455
30
0.0000000000
10
1.9866212872
20
-15.8187385543
30
0.0000000000
10
1.9202217220
20
-15.8476916783
30
0.0000000000
10
1.8520778869
20
-15.8719877208
30
0.0000000000
11
2.0505050365
21
-15.7849917455
31
0.0000000000
11
1.8520778869
21
-15.8719877208
31
0.0000000000
0
SPLINE
5
377
100
AcDbEntity
8
0
100
AcDbSpline
62
9
6
CONTINUOUS
70
0
71
3
72
8
73
4
74
2
42
0.0000001000
43
0.0000001000
44
0.0000000001
12
-0.2048801366
22
-0.0730480829
32
0.0000000000
13
-0.2130609203
23
-0.0453972637
33
0.0000000000
40
0.0000000000
40
0.0000000000
40
0.0000000000
40
0.0000000000
40
1.0000000000
40
1.0000000000
40
1.0000000000
40
1.0000000000
10
1.8520778869
20
-15.8719877208
30
0.0000000000
10
1.7837845081
20
-15.8963370817
30
0.0000000000
10
1.7137392556
20
-15.9160090269
30
0.0000000000
10
1.6427189489
20
-15.9311414481
30
0.0000000000
11
1.8520778869
21
-15.8719877208
31
0.0000000000
11
1.6427189489
21
-15.9311414481
31
0.0000000000
0
SPLINE
5
378
100
AcDbEntity
8
0
100
AcDbSpline
62
9
6
CONTINUOUS
70
0
71
3
72
8
73
4
74
2
42
0.0000001000
43
0.0000001000
44
0.0000000001
12
-0.2159582174
22
-0.0460145959
32
0.0000000000
13
-0.2195419079
23
-0.0184624328
33
0.0000000000
40
0.0000000000
40
0.0000000000
40
0.0000000000
40
0.0000000000
40
1.0000000000
40
1.0000000000
40
1.0000000000
40
1.0000000000
10
1.6427189489
20
-15.9311414481
30
0.0000000000
10
1.5707328764
20
-15.9464796467
30
0.0000000000
10
1.4977450508
20
-15.9571540211
30
0.0000000000
10
1.4245644148
20
-15.9633081654
30
0.0000000000
11
1.6427189489
21
-15.9311414481
31
0.0000000000
11
1.4245644148
21
-15.9633081654
31
0.0000000000
0
SPLINE
5
379
100
AcDbEntity
8
0
100
AcDbSpline
62
9
6
CONTINUOUS
70
0
71
3
72
8
73
4
74
2
42
0.0000001000
43
0.0000001000
44
0.0000000001
12
-0.6902620159
22
-0.0580477606
32
0.0000000000
13
-0.6723192744
23
0.1622330476
33
0.0000000000
40
0.0000000000
40
0.0000000000
40
0.0000000000
40
0.0000000000
40
1.0000000000
40
1.0000000000
40
1.0000000000
40
1.0000000000
10
1.4245644148
20
-15.9633081654
30
0.0000000000
10
1.1944770762
20
-15.9826574189
30
0.0000000000
10
0.9624837349
20
-15.9573225096
30
0.0000000000
10
0.7383773101
20
-15.9032448270
30
0.0000000000
11
1.4245644148
21
-15.9633081654
31
0.0000000000
11
0.7383773101
21
-15.9032448270
31
0.0000000000
0
SPLINE
5
37A
100
AcDbEntity
8
0
100
AcDbSpline
62
9
6
CONTINUOUS
70
0
71
3
72
8
73
4
74
2
42
0.0000001000
43
0.0000001000
44
0.0000000001
12
-0.4175038777
22
0.1007451802
32
0.0000000000
13
-0.3977048946
23
0.1598175741
33
0.0000000000
40
0.0000000000
40
0.0000000000
40
0.0000000000
40
0.0000000000
40
1.0000000000
40
1.0000000000
40
1.0000000000
40
1.0000000000
10
0.7383773101
20
-15.9032448270
30
0.0000000000
10
0.5992093509
20
-15.8696631003
30
0.0000000000
10
0.4630828169
20
-15.8249973211
30
0.0000000000
10
0.3305145187
20
-15.7717247964
30
0.0000000000
11
0.7383773101
21
-15.9032448270
31
0.0000000000
11
0.3305145187
21
-15.7717247964
31
0.0000000000
0
SPLINE
5
37B
100
AcDbEntity
8
0
100
AcDbSpline
62
9
6
CONTINUOUS
70
0
71
3
72
8
73
4
74
2
42
0.0000001000
43
0.0000001000
44
0.0000000001
12
-0.0439504352
22
0.0176614672
32
0.0000000000
13
-0.0436876131
23
0.0182820962
33
0.0000000000
40
0.0000000000
40
0.0000000000
40
0.0000000000
40
0.0000000000
40
1.0000000000
40
1.0000000000
40
1.0000000000
40
1.0000000000
10
0.3305145187
20
-15.7717247964
30
0.0000000000
10
0.3158643736
20
-15.7658376407
30
0.0000000000
10
0.3012576835
20
-15.7598453751
30
0.0000000000
10
0.2866951458
20
-15.7537513431
30
0.0000000000
11
0.3305145187
21
-15.7717247964
31
0.0000000000
11
0.2866951458
21
-15.7537513431
31
0.0000000000
0
SPLINE
5
37C
100
AcDbEntity
8
0
100
AcDbSpline
62
9
6
CONTINUOUS
70
0
71
3
72
8
73
4
74
2
42
0.0000001000
43
0.0000001000
44
0.0000000001
12
-0.2229435506
22
0.0932959057
32
0.0000000000
13
-0.2157665826
23
0.1078641173
33
0.0000000000
40
0.0000000000
40
0.0000000000
40
0.0000000000
40
0.0000000000
40
1.0000000000
40
1.0000000000
40
1.0000000000
40
1.0000000000
10
0.2866951458
20
-15.7537513431
30
0.0000000000
10
0.2123806289
20
-15.7226527079
30
0.0000000000
10
0.1392159268
20
-15.6889038771
30
0.0000000000
10
0.0672937326
20
-15.6529491714
30
0.0000000000
11
0.2866951458
21
-15.7537513431
31
0.0000000000
11
0.0672937326
21
-15.6529491714
31
0.0000000000
0
SPLINE
5
37D
100
AcDbEntity
8
0
100
AcDbSpline
62
9
6
CONTINUOUS
70
0
71
3
72
10
73
6
74
4
42
0.0000001000
43
0.0000001000
44
0.0000000001
12
-0.0073504583
22
0.1498460573
32
0.0000000000
13
0.1330306824
23
0.0693592652
33
0.0000000000
40
0.0000000000
40
0.0000000000
40
0.0000000000
40
0.0000000000
40
0.3299451218
40
0.6833594529
40
1.0000000000
40
1.0000000000
40
1.0000000000
40
1.0000000000
10
-0.0020616135
20
-15.7792858292
30
0.0000000000
10
-0.0028700294
20
-15.7628055040
30
0.0000000000
10
0.0036669835
20
-15.7282314431
30
0.0000000000
10
0.0278210650
20
-15.6838481409
30
0.0000000000
10
0.0532527632
20
-15.6602698233
30
0.0000000000
10
0.0672937326
20
-15.6529491714
30
0.0000000000
11
-0.0020616135
21
-15.7792858292
31
0.0000000000
11
0.0057664581
21
-15.7304082966
31
0.0000000000
11
0.0312817991
21
-15.6839299320
31
0.0000000000
11
0.0672937326
21
-15.6529491714
31
0.0000000000
0
SPLINE
5
37E
100
AcDbEntity
8
0
100
AcDbSpline
62
9
6
CONTINUOUS
70
0
71
3
72
9
73
5
74
3
42
0.0000001000
43
0.0000001000
44
0.0000000001
12
0.0013846794
22
-0.0595637513
32
0.0000000000
13
0.0537838341
23
-0.0283679622
33
0.0000000000
40
0.0000000000
40
0.0000000000
40
0.0000000000
40
0.0000000000
40
0.6410153343
40
1.0000000000
40
1.0000000000
40
1.0000000000
40
1.0000000000
10
-0.2818764158
20
-8.0195731437
30
0.0000000000
10
-0.2815805489
20
-8.0323002364
30
0.0000000000
10
-0.2779629953
20
-8.0532554099
30
0.0000000000
10
-0.2622309979
20
-8.0676172297
30
0.0000000000
10
-0.2557951406
20
-8.0710117842
30
0.0000000000
11
-0.2818764158
21
-8.0195731437
31
0.0000000000
11
-0.2719649013
21
-8.0564561981
31
0.0000000000
11
-0.2557951406
21
-8.0710117842
31
0.0000000000
0
SPLINE
5
37F
100
AcDbEntity
8
0
100
AcDbSpline
62
9
6
CONTINUOUS
70
0
71
3
72
10
73
6
74
4
42
0.0000001000
43
0.0000001000
44
0.0000000001
12
-0.0073504508
22
0.1498460657
32
0.0000000000
13
0.1330306835
23
0.0693592804
33
0.0000000000
40
0.0000000000
40
0.0000000000
40
0.0000000000
40
0.0000000000
40
0.3300116770
40
0.6834129449
40
1.0000000000
40
1.0000000000
40
1.0000000000
40
1.0000000000
10
-2.9719100945
20
-14.2943615888
30
0.0000000000
10
-2.9727186727
20
-14.2778779383
30
0.0000000000
10
-2.9661796244
20
-14.2433011022
30
0.0000000000
10
-2.9420232147
20
-14.1989191226
30
0.0000000000
10
-2.9165933352
20
-14.1753443519
30
0.0000000000
10
-2.9025547378
20
-14.1680249352
30
0.0000000000
11
-2.9719100945
21
-14.2943615888
31
0.0000000000
11
-2.9640786689
21
-14.2454744784
31
0.0000000000
11
-2.9385615901
21
-14.1989993004
31
0.0000000000
11
-2.9025547378
21
-14.1680249352
31
0.0000000000
0
SPLINE
5
380
100
AcDbEntity
8
0
100
AcDbSpline
62
9
6
CONTINUOUS
70
0
71
3
72
8
73
4
74
2
42
0.0000001000
43
0.0000001000
44
0.0000000001
12
-0.0163470994
22
0.2941782769
32
0.0000000000
13
-0.0160554546
23
0.2941957657
33
0.0000000000
40
0.0000000000
40
0.0000000000
40
0.0000000000
40
0.0000000000
40
1.0000000000
40
1.0000000000
40
1.0000000000
40
1.0000000000
10
-8.4352488985
20
-13.6908505124
30
0.0000000000
10
-8.4406979316
20
-13.5927910868
30
0.0000000000
10
-8.4460983224
20
-13.4947287176
30
0.0000000000
10
-8.4514501406
20
-13.3966634624
30
0.0000000000
11
-8.4352488985
21
-13.6908505124
31
0.0000000000
11
-8.4514501406
21
-13.3966634624
31
0.0000000000
0
SPLINE
5
381
100
AcDbEntity
8
0
100
AcDbSpline
62
9
6
CONTINUOUS
70
0
71
3
72
10
73
6
74
4
42
0.0000001000
43
0.0000001000
44
0.0000000001
12
-1.8868439343
22
34.5740129322
32
0.0000000000
13
1.8168923010
23
34.5775917656
33
0.0000000000
40
0.0000000000
40
0.0000000000
40
0.0000000000
40
0.0000000000
40
0.3213674105
40
0.6576172283
40
1.0000000000
40
1.0000000000
40
1.0000000000
40
1.0000000000
10
-8.4514501406
20
-13.3966634624
30
0.0000000000
10
-8.6535735237
20
-9.6930097937
30
0.0000000000
10
-8.9254077452
20
-2.1057637423
30
0.0000000000
10
-8.9215438556
20
9.4382306898
30
0.0000000000
10
-8.6426064391
20
17.2677606160
30
0.0000000000
10
-8.4352488985
20
21.2140178514
30
0.0000000000
11
-8.4514501406
21
-13.3966634624
31
0.0000000000
11
-8.8537316575
21
-2.2764462587
31
0.0000000000
11
-8.8537316584
21
9.3663023738
31
0.0000000000
11
-8.4352488985
21
21.2140178514
31
0.0000000000
0
SPLINE
5
382
100
AcDbEntity
8
0
100
AcDbSpline
62
9
6
CONTINUOUS
70
0
71
3
72
11
73
7
74
5
42
0.0000001000
43
0.0000001000
44
0.0000000001
12
0.0306914338
22
0.5784671042
32
0.0000000000
13
0.1886703985
23
0.5478886333
33
0.0000000000
40
0.0000000000
40
0.0000000000
40
0.0000000000
40
0.0000000000
40
0.2503731325
40
0.5460484028
40
0.8810564204
40
1.0000000000
40
1.0000000000
40
1.0000000000
40
1.0000000000
10
-8.4352488985
20
21.2140178514
30
0.0000000000
10
-8.4326874617
20
21.2622953917
30
0.0000000000
10
-8.4227114192
20
21.3673890558
30
0.0000000000
10
-8.3928980086
20
21.5350763670
30
0.0000000000
10
-8.3555335040
20
21.6751072875
30
0.0000000000
10
-8.3281893874
20
21.7584268402
30
0.0000000000
10
-8.3207090099
20
21.7801494519
30
0.0000000000
11
-8.4352488985
21
21.2140178514
31
0.0000000000
11
-8.4217517670
21
21.3584247908
31
0.0000000000
11
-8.3920102613
21
21.5271017993
31
0.0000000000
11
-8.3421948410
21
21.7146628247
31
0.0000000000
11
-8.3207090099
21
21.7801494519
31
0.0000000000
0
SPLINE
5
383
100
AcDbEntity
8
0
100
AcDbSpline
62
9
6
CONTINUOUS
70
0
71
3
72
8
73
4
74
2
42
0.0000001000
43
0.0000001000
44
0.0000000001
12
0.0230711383
22
0.0669973378
32
0.0000000000
13
0.0250467948
23
0.0662853535
33
0.0000000000
40
0.0000000000
40
0.0000000000
40
0.0000000000
40
0.0000000000
40
1.0000000000
40
1.0000000000
40
1.0000000000
40
1.0000000000
10
-8.3207090099
20
21.7801494519
30
0.0000000000
10
-8.3130186305
20
21.8024818979
30
0.0000000000
10
-8.3049945539
20
21.8246995317
30
0.0000000000
10
-8.2966456223
20
21.8467946496
30
0.0000000000
11
-8.3207090099
21
21.7801494519
31
0.0000000000
11
-8.2966456223
21
21.8467946496
31
0.0000000000
0
SPLINE
5
384
100
AcDbEntity
8
0
100
AcDbSpline
62
9
6
CONTINUOUS
70
0
71
3
72
9
73
5
74
3
42
0.0000001000
43
0.0000001000
44
0.0000000001
12
0.0514960081
22
0.1362821523
32
0.0000000000
13
0.0595298597
23
0.1329697730
33
0.0000000000
40
0.0000000000
40
0.0000000000
40
0.0000000000
40
0.0000000000
40
0.4956337275
40
1.0000000000
40
1.0000000000
40
1.0000000000
40
1.0000000000
10
-8.2966456223
20
21.8467946496
30
0.0000000000
10
-8.2881379028
20
21.8693099933
30
0.0000000000
10
-8.2702919647
20
21.9144806946
30
0.0000000000
10
-8.2511109183
20
21.9591003232
30
0.0000000000
10
-8.2411026338
20
21.9814554794
30
0.0000000000
11
-8.2966456223
21
21.8467946496
31
0.0000000000
11
-8.2701198321
21
21.9139508669
31
0.0000000000
11
-8.2411026338
21
21.9814554794
31
0.0000000000
0
SPLINE
5
385
100
AcDbEntity
8
0
100
AcDbSpline
62
9
6
CONTINUOUS
70
0
71
3
72
10
73
6
74
4
42
0.0000001000
43
0.0000001000
44
0.0000000001
12
0.2440557677
22
0.5451388630
32
0.0000000000
13
0.3712228466
23
0.4679552684
33
0.0000000000
40
0.0000000000
40
0.0000000000
40
0.0000000000
40
0.0000000000
40
0.2507045062
40
0.6297818463
40
1.0000000000
40
1.0000000000
40
1.0000000000
40
1.0000000000
10
-8.2411026338
20
21.9814554794
30
0.0000000000
10
-8.2207073402
20
22.0270117359
30
0.0000000000
10
-8.1659889591
20
22.1398918821
30
0.0000000000
10
-8.0656823883
20
22.3121206675
30
0.0000000000
10
-7.9788003570
20
22.4336056126
30
0.0000000000
10
-7.9329892113
20
22.4913541245
30
0.0000000000
11
-8.2411026338
21
21.9814554794
31
0.0000000000
11
-8.1758030711
21
22.1161833175
31
0.0000000000
11
-8.0617933503
21
22.3117101595
31
0.0000000000
11
-7.9329892113
21
22.4913541245
31
0.0000000000
0
SPLINE
5
386
100
AcDbEntity
8
0
100
AcDbSpline
62
9
6
CONTINUOUS
70
0
71
3
72
8
73
4
74
2
42
0.0000001000
43
0.0000001000
44
0.0000000001
12
0.1293500230
22
0.1630557636
32
0.0000000000
13
0.1448987874
23
0.1494209647
33
0.0000000000
40
0.0000000000
40
0.0000000000
40
0.0000000000
40
0.0000000000
40
1.0000000000
40
1.0000000000
40
1.0000000000
40
1.0000000000
10
-7.9329892113
20
22.4913541245
30
0.0000000000
10
-7.8898725370
20
22.5457060457
30
0.0000000000
10
-7.8442013646
20
22.5980420219
30
0.0000000000
10
-7.7959017688
20
22.6478490102
30
0.0000000000
11
-7.9329892113
21
22.4913541245
31
0.0000000000
11
-7.7959017688
21
22.6478490102
31
0.0000000000
0
SPLINE
5
387
100
AcDbEntity
8
0
100
AcDbSpline
62
9
6
CONTINUOUS
70
0
71
3
72
10
73
6
74
4
42
0.0000001000
43
0.0000001000
44
0.0000000001
12
0.3148355075
22
0.3246612763
32
0.0000000000
13
0.3919362889
23
0.2255609747
33
0.0000000000
40
0.0000000000
40
0.0000000000
40
0.0000000000
40
0.0000000000
40
0.4182616949
40
0.7859305933
40
1.0000000000
40
1.0000000000
40
1.0000000000
40
1.0000000000
10
-7.7959017688
20
22.6478490102
30
0.0000000000
10
-7.7520072245
20
22.6931134687
30
0.0000000000
10
-7.6654484945
20
22.7742424169
30
0.0000000000
10
-7.5452378156
20
22.8655329788
30
0.0000000000
10
-7.4708341108
20
22.9121145967
30
0.0000000000
10
-7.4428669212
20
22.9282098314
30
0.0000000000
11
-7.7959017688
21
22.6478490102
31
0.0000000000
11
-7.6576337365
21
22.7768080566
31
0.0000000000
11
-7.5249869734
21
22.8769485360
31
0.0000000000
11
-7.4428669212
21
22.9282098314
31
0.0000000000
0
SPLINE
5
388
100
AcDbEntity
8
0
100
AcDbSpline
62
9
6
CONTINUOUS
70
0
71
3
72
8
73
4
74
2
42
0.0000001000
43
0.0000001000
44
0.0000000001
12
0.0385315443
22
0.0221750650
32
0.0000000000
13
0.0392704138
23
0.0208042650
33
0.0000000000
40
0.0000000000
40
0.0000000000
40
0.0000000000
40
0.0000000000
40
1.0000000000
40
1.0000000000
40
1.0000000000
40
1.0000000000
10
-7.4428669212
20
22.9282098314
30
0.0000000000
10
-7.4300230731
20
22.9356015197
30
0.0000000000
10
-7.4170552234
20
22.9427726034
30
0.0000000000
10
-7.4039650855
20
22.9497073584
30
0.0000000000
11
-7.4428669212
21
22.9282098314
31
0.0000000000
11
-7.4039650855
21
22.9497073584
31
0.0000000000
0
SPLINE
5
389
100
AcDbEntity
8
0
100
AcDbSpline
62
9
6
CONTINUOUS
70
0
71
3
72
10
73
6
74
4
42
0.0000001000
43
0.0000001000
44
0.0000000001
12
-0.0073795612
22
-0.5126264466
32
0.0000000000
13
-0.4741040210
23
-0.2130766527
33
0.0000000000
40
0.0000000000
40
0.0000000000
40
0.0000000000
40
0.0000000000
40
0.4862828883
40
0.8868298685
40
1.0000000000
40
1.0000000000
40
1.0000000000
40
1.0000000000
10
7.3058442553
20
-21.0405070426
30
0.0000000000
10
7.3046480705
20
-21.1236008656
30
0.0000000000
10
7.2822663555
20
-21.2769045528
30
0.0000000000
10
7.1805738859
20
-21.4264610038
30
0.0000000000
10
7.1031428264
20
-21.4703906199
30
0.0000000000
10
7.0852580216
20
-21.4784285908
30
0.0000000000
11
7.3058442553
21
-21.0405070426
31
0.0000000000
11
7.2597161327
21
-21.2855097464
31
0.0000000000
11
7.1360359436
21
-21.4494388691
31
0.0000000000
11
7.0852580216
21
-21.4784285908
31
0.0000000000
0
SPLINE
5
38A
100
AcDbEntity
8
0
100
AcDbSpline
62
9
6
CONTINUOUS
70
0
71
3
72
11
73
7
74
5
42
0.0000001000
43
0.0000001000
44
0.0000000001
12
-1.0068615705
22
-0.5677813647
32
0.0000000000
13
-1.0344439916
23
0.5158212174
33
0.0000000000
40
0.0000000000
40
0.0000000000
40
0.0000000000
40
0.0000000000
40
0.2403894125
40
0.5051907545
40
0.7671872688
40
1.0000000000
40
1.0000000000
40
1.0000000000
40
1.0000000000
10
6.8121565198
20
-20.7134782885
30
0.0000000000
10
6.7314768993
20
-20.7589744981
30
0.0000000000
10
6.5464623495
20
-20.8273874692
30
0.0000000000
10
6.2518033101
20
-20.8680573495
30
0.0000000000
10
5.9578760641
20
-20.8495831520
30
0.0000000000
10
5.7722996812
20
-20.7945157770
30
0.0000000000
10
5.6920224375
20
-20.7544858615
30
0.0000000000
11
6.8121565198
21
-20.7134782885
31
0.0000000000
11
6.5533608629
21
-20.8146551838
31
0.0000000000
11
6.2503443505
21
-20.8579126766
31
0.0000000000
11
5.9482341455
21
-20.8368085835
31
0.0000000000
11
5.6920224375
21
-20.7544858615
31
0.0000000000
0
SPLINE
5
38B
100
AcDbEntity
8
0
100
AcDbSpline
62
9
6
CONTINUOUS
70
0
71
3
72
9
73
5
74
3
42
0.0000001000
43
0.0000001000
44
0.0000000001
12
0.0766153464
22
0.0215323744
32
0.0000000000
13
0.0721875085
23
0.0333382358
33
0.0000000000
40
0.0000000000
40
0.0000000000
40
0.0000000000
40
0.0000000000
40
0.2593682316
40
1.0000000000
40
1.0000000000
40
1.0000000000
40
1.0000000000
10
7.2313520806
20
-21.0682217972
30
0.0000000000
10
7.2379759429
20
-21.0663601925
30
0.0000000000
10
7.2633505291
20
-21.0585961362
30
0.0000000000
10
7.2880228013
20
-21.0487374948
30
0.0000000000
10
7.3058442553
20
-21.0405070426
30
0.0000000000
11
7.2313520806
21
-21.0682217972
31
0.0000000000
11
7.2510914200
21
-21.0621917867
31
0.0000000000
11
7.3058442553
21
-21.0405070426
31
0.0000000000
0
SPLINE
5
38C
100
AcDbEntity
8
0
100
AcDbSpline
62
9
6
CONTINUOUS
70
0
71
3
72
11
73
7
74
5
42
0.0000001000
43
0.0000001000
44
0.0000000001
12
-1.0641376588
22
-0.4275454507
32
0.0000000000
13
-1.0251216767
23
0.5141105107
33
0.0000000000
40
0.0000000000
40
0.0000000000
40
0.0000000000
40
0.0000000000
40
0.2328718370
40
0.4973491083
40
0.7632438455
40
1.0000000000
40
1.0000000000
40
1.0000000000
40
1.0000000000
10
6.8121565198
20
14.0983104263
30
0.0000000000
10
6.7295539560
20
14.0651226615
30
0.0000000000
10
6.5422158203
20
14.0216987924
30
0.0000000000
10
6.2494026990
20
14.0105395195
30
0.0000000000
10
5.9574126909
20
14.0491560801
30
0.0000000000
10
5.7729234595
20
14.1098093998
30
0.0000000000
10
5.6920221708
20
14.1503823423
30
0.0000000000
11
6.8121565198
21
14.0983104263
31
0.0000000000
11
6.5533607977
21
14.0323841362
31
0.0000000000
11
6.2503442047
21
14.0191275042
31
0.0000000000
11
5.9482339256
21
14.0605147936
31
0.0000000000
11
5.6920221708
21
14.1503823423
31
0.0000000000
0
SPLINE
5
38D
100
AcDbEntity
8
0
100
AcDbSpline
62
9
6
CONTINUOUS
70
0
71
3
72
8
73
4
74
2
42
0.0000001000
43
0.0000001000
44
0.0000000001
12
-0.1788987403
22
-3.2850804722
32
0.0000000000
13
-0.1467028019
23
-3.2868242087
33
0.0000000000
40
0.0000000000
40
0.0000000000
40
0.0000000000
40
0.0000000000
40
1.0000000000
40
1.0000000000
40
1.0000000000
40
1.0000000000
10
5.6920221429
20
14.1503823307
30
0.0000000000
10
5.6323892295
20
13.0553555066
30
0.0000000000
10
5.5780823288
20
11.9600067979
30
0.0000000000
10
5.5291813948
20
10.8643987283
30
0.0000000000
11
5.6920221429
21
14.1503823307
31
0.0000000000
11
5.5291813948
21
10.8643987283
31
0.0000000000
0
SPLINE
5
38E
100
AcDbEntity
8
0
100
AcDbSpline
62
9
6
CONTINUOUS
70
0
71
3
72
8
73
4
74
2
42
0.0000001000
43
0.0000001000
44
0.0000000001
12
-0.0043364828
22
-0.0971573570
32
0.0000000000
13
-0.0043081350
23
-0.0971587118
33
0.0000000000
40
0.0000000000
40
0.0000000000
40
0.0000000000
40
0.0000000000
40
1.0000000000
40
1.0000000000
40
1.0000000000
40
1.0000000000
10
5.5291813948
20
10.8643987283
30
0.0000000000
10
5.5277359006
20
10.8320129427
30
0.0000000000
10
5.5262951299
20
10.7996269304
30
0.0000000000
10
5.5248590849
20
10.7672406931
30
0.0000000000
11
5.5291813948
21
10.8643987283
31
0.0000000000
11
5.5248590849
21
10.7672406931
31
0.0000000000
0
SPLINE
5
38F
100
AcDbEntity
8
0
100
AcDbSpline
62
9
6
CONTINUOUS
70
0
71
3
72
10
73
6
74
4
42
0.0000001000
43
0.0000001000
44
0.0000000001
12
-0.9553210748
22
-21.5447668489
32
0.0000000000
13
0.5089868007
23
-21.5607300257
33
0.0000000000
40
0.0000000000
40
0.0000000000
40
0.0000000000
40
0.0000000000
40
0.3923511252
40
0.9322435197
40
1.0000000000
40
1.0000000000
40
1.0000000000
40
1.0000000000
10
5.5248590849
20
10.7672406931
30
0.0000000000
10
5.3999186520
20
7.9495361883
30
0.0000000000
10
5.1880482484
20
1.2504995388
30
0.0000000000
10
5.1856412515
20
-5.9393042758
30
0.0000000000
10
5.2781792185
20
-10.3066586882
30
0.0000000000
10
5.2896749365
20
-10.7936184146
30
0.0000000000
11
5.5248590849
21
10.7672406931
31
0.0000000000
11
5.2587109110
21
2.3100810891
31
0.0000000000
11
5.2587109099
21
-9.3326675424
31
0.0000000000
11
5.2896749365
21
-10.7936184146
31
0.0000000000
0
SPLINE
5
390
100
AcDbEntity
8
0
100
AcDbSpline
62
9
6
CONTINUOUS
70
0
71
3
72
8
73
4
74
2
42
0.0000001000
43
0.0000001000
44
0.0000000001
12
0.0037011822
22
-0.1567824339
32
0.0000000000
13
0.0037825640
23
-0.1567805828
33
0.0000000000
40
0.0000000000
40
0.0000000000
40
0.0000000000
40
0.0000000000
40
1.0000000000
40
1.0000000000
40
1.0000000000
40
1.0000000000
10
5.2896749365
20
-10.7936184146
30
0.0000000000
10
5.2909086639
20
-10.8458792259
30
0.0000000000
10
5.2921559497
20
-10.8981397333
30
0.0000000000
10
5.2934168044
20
-10.9503999276
30
0.0000000000
11
5.2896749365
21
-10.7936184146
31
0.0000000000
11
5.2934168044
21
-10.9503999276
31
0.0000000000
0
SPLINE
5
391
100
AcDbEntity
8
0
100
AcDbSpline
62
9
6
CONTINUOUS
70
0
71
3
72
8
73
4
74
2
42
0.0000001000
43
0.0000001000
44
0.0000000001
12
0.2366813863
22
-9.8100244766
32
0.0000000000
13
0.5630783880
23
-9.7958873015
33
0.0000000000
40
0.0000000000
40
0.0000000000
40
0.0000000000
40
0.0000000000
40
1.0000000000
40
1.0000000000
40
1.0000000000
40
1.0000000000
10
5.2934168044
20
-10.9503999276
30
0.0000000000
10
5.3723105998
20
-14.2204080864
30
0.0000000000
10
5.5043293469
20
-17.4891902660
30
0.0000000000
10
5.6920221429
20
-20.7544860331
30
0.0000000000
11
5.2934168044
21
-10.9503999276
31
0.0000000000
11
5.6920221429
21
-20.7544860331
31
0.0000000000
0
SPLINE
5
392
100
AcDbEntity
8
0
100
AcDbSpline
62
9
6
CONTINUOUS
70
0
71
3
72
8
73
4
74
2
42
0.0000001000
43
0.0000001000
44
0.0000000001
12
-0.1982410534
22
-3.6400970363
32
0.0000000000
13
-0.1585702813
23
-3.6422182894
33
0.0000000000
40
0.0000000000
40
0.0000000000
40
0.0000000000
40
0.0000000000
40
1.0000000000
40
1.0000000000
40
1.0000000000
40
1.0000000000
10
6.8121565198
20
14.0983104263
30
0.0000000000
10
6.7460761686
20
12.8849447476
30
0.0000000000
10
6.6865529176
20
11.6711827639
30
0.0000000000
10
6.6336961572
20
10.4571100007
30
0.0000000000
11
6.8121565198
21
14.0983104263
31
0.0000000000
11
6.6336961572
21
10.4571100007
31
0.0000000000
0
SPLINE
5
393
100
AcDbEntity
8
0
100
AcDbSpline
62
9
6
CONTINUOUS
70
0
71
3
72
8
73
4
74
2
42
0.0000001000
43
0.0000001000
44
0.0000000001
12
-0.0137966830
22
-0.3168975340
32
0.0000000000
13
-0.0134936679
23
-0.3169114809
33
0.0000000000
40
0.0000000000
40
0.0000000000
40
0.0000000000
40
0.0000000000
40
1.0000000000
40
1.0000000000
40
1.0000000000
40
1.0000000000
10
6.6336961572
20
10.4571100007
30
0.0000000000
10
6.6290972628
20
10.3514774894
30
0.0000000000
10
6.6245488350
20
10.2458426254
30
0.0000000000
10
6.6200509457
20
10.1402054651
30
0.0000000000
11
6.6336961572
21
10.4571100007
31
0.0000000000
11
6.6200509457
21
10.1402054651
31
0.0000000000
0
SPLINE
5
394
100
AcDbEntity
8
0
100
AcDbSpline
62
9
6
CONTINUOUS
70
0
71
3
72
10
73
6
74
4
42
0.0000001000
43
0.0000001000
44
0.0000000001
12
-0.9074120856
22
-21.3114261634
32
0.0000000000
13
0.5322635020
23
-21.3247999792
33
0.0000000000
40
0.0000000000
40
0.0000000000
40
0.0000000000
40
0.0000000000
40
0.3682164301
40
0.9126142399
40
1.0000000000
40
1.0000000000
40
1.0000000000
40
1.0000000000
10
6.6200509457
20
10.1402054651
30
0.0000000000
10
6.5086762661
20
7.5244663775
30
0.0000000000
10
6.3094373636
20
1.0379398079
30
0.0000000000
10
6.3070570710
20
-6.0734129534
30
0.0000000000
10
6.4052343954
20
-10.5646348963
30
0.0000000000
10
6.4207384790
20
-11.1857961811
30
0.0000000000
11
6.6200509457
21
10.1402054651
31
0.0000000000
11
6.3799814743
21
2.2896195819
31
0.0000000000
11
6.3799824418
21
-9.3221885421
31
0.0000000000
11
6.4207384790
21
-11.1857961811
31
0.0000000000
0
SPLINE
5
395
100
AcDbEntity
8
0
100
AcDbSpline
62
9
6
CONTINUOUS
70
0
71
3
72
8
73
4
74
2
42
0.0000001000
43
0.0000001000
44
0.0000000001
12
0.2379524839
22
-9.5334155062
32
0.0000000000
13
0.5472348622
23
-9.5198627980
33
0.0000000000
40
0.0000000000
40
0.0000000000
40
0.0000000000
40
0.0000000000
40
1.0000000000
40
1.0000000000
40
1.0000000000
40
1.0000000000
10
6.4207384790
20
-11.1857961811
30
0.0000000000
10
6.5000559736
20
-14.3636013498
30
0.0000000000
10
6.6297448991
20
-17.5401906892
30
0.0000000000
10
6.8121565198
20
-20.7134782885
30
0.0000000000
11
6.4207384790
21
-11.1857961811
31
0.0000000000
11
6.8121565198
21
-20.7134782885
31
0.0000000000
0
SPLINE
5
396
100
AcDbEntity
8
0
100
AcDbSpline
62
9
6
CONTINUOUS
70
0
71
3
72
11
73
7
74
5
42
0.0000001000
43
0.0000001000
44
0.0000000001
12
-0.0171007920
22
1.1714044393
32
0.0000000000
13
-1.0401915471
23
0.5389641388
33
0.0000000000
40
0.0000000000
40
0.0000000000
40
0.0000000000
40
0.0000000000
40
0.2465056357
40
0.5120768054
40
0.7710554147
40
1.0000000000
40
1.0000000000
40
1.0000000000
40
1.0000000000
10
7.3058442553
20
14.9020878849
30
0.0000000000
10
7.3044391081
20
14.9983404835
30
0.0000000000
10
7.2688521407
20
15.1981032567
30
0.0000000000
10
7.1472940575
20
15.4761709139
30
0.0000000000
10
6.9712377723
20
15.7148698856
30
0.0000000000
10
6.8196270611
20
15.8364713484
30
0.0000000000
10
6.7402449870
20
15.8776023222
30
0.0000000000
11
7.3058442553
21
14.9020878849
31
0.0000000000
11
7.2597161512
21
15.1871686325
31
0.0000000000
11
7.1360359862
21
15.4726534936
31
0.0000000000
11
6.9536257065
21
15.7150966151
31
0.0000000000
11
6.7402449870
21
15.8776023222
31
0.0000000000
0
SPLINE
5
397
100
AcDbEntity
8
0
100
AcDbSpline
62
9
6
CONTINUOUS
70
0
71
3
72
18
73
14
74
12
42
0.0000001000
43
0.0000001000
44
0.0000000001
12
-1.8693923319
22
-0.9592275435
32
0.0000000000
13
-0.1131929919
23
-2.0980782915
33
0.0000000000
40
0.0000000000
40
0.0000000000
40
0.0000000000
40
0.0000000000
40
0.0665144299
40
0.1449942886
40
0.2344289538
40
0.3330056776
40
0.4379500889
40
0.5456620358
40
0.6521508765
40
0.7536066350
40
0.8468578177
40
0.9295442229
40
1.0000000000
40
1.0000000000
40
1.0000000000
40
1.0000000000
10
6.7402449870
20
15.8776023222
30
0.0000000000
10
6.6987977986
20
15.8563348311
30
0.0000000000
10
6.6109868795
20
15.8049044520
30
0.0000000000
10
6.4784659421
20
15.7074902915
30
0.0000000000
10
6.3400247499
20
15.5818162279
30
0.0000000000
10
6.2025086381
20
15.4290857849
30
0.0000000000
10
6.0729305719
20
15.2533787613
30
0.0000000000
10
5.9577125618
20
15.0614570682
30
0.0000000000
10
5.8617706938
20
14.8619358122
30
0.0000000000
10
5.7878389532
20
14.6640599911
30
0.0000000000
10
5.7362391814
20
14.4764908278
30
0.0000000000
10
5.7050969927
20
14.3065472131
30
0.0000000000
10
5.6946805096
20
14.1996562429
30
0.0000000000
10
5.6920221429
20
14.1503823307
30
0.0000000000
11
6.7402449870
21
15.8776023222
31
0.0000000000
11
6.6194637300
21
15.8072925193
31
0.0000000000
11
6.4863384172
21
15.7099865274
31
0.0000000000
11
6.3469048689
21
15.5840107881
31
0.0000000000
11
6.2080316474
21
15.4303425003
31
0.0000000000
11
6.0769476337
21
15.2530347893
31
0.0000000000
11
5.9603624743
21
15.0590575445
31
0.0000000000
11
5.8634301875
21
14.8573974785
31
0.0000000000
11
5.7889675927
21
14.6576539177
31
0.0000000000
11
5.7372209192
21
14.4686778659
31
0.0000000000
11
5.7061572379
21
14.2977426615
31
0.0000000000
11
5.6920221429
21
14.1503823307
31
0.0000000000
0
SPLINE
5
398
100
AcDbEntity
8
0
100
AcDbSpline
62
9
6
CONTINUOUS
70
0
71
3
72
18
73
14
74
12
42
0.0000001000
43
0.0000001000
44
0.0000000001
12
-0.8765860662
22
-0.4416718955
32
0.0000000000
13
-0.0533809651
23
-0.9801161499
33
0.0000000000
40
0.0000000000
40
0.0000000000
40
0.0000000000
40
0.0000000000
40
0.0667654645
40
0.1454516628
40
0.2350251949
40
0.3336630502
40
0.4385948085
40
0.5462355241
40
0.6526150759
40
0.7539438650
40
0.8470678278
40
0.9296395459
40
1.0000000000
40
1.0000000000
40
1.0000000000
40
1.0000000000
10
7.3058442553
20
14.9020878849
30
0.0000000000
10
7.2863356967
20
14.8922584085
30
0.0000000000
10
7.2450054420
20
14.8684646810
30
0.0000000000
10
7.1826006953
20
14.8233040836
30
0.0000000000
10
7.1174059023
20
14.7649705974
30
0.0000000000
10
7.0526418304
20
14.6940084206
30
0.0000000000
10
6.9916094633
20
14.6123010723
30
0.0000000000
10
6.9373334561
20
14.5229854659
30
0.0000000000
10
6.8921322193
20
14.4300696361
30
0.0000000000
10
6.8572978847
20
14.3378650575
30
0.0000000000
10
6.8329857940
20
14.2504196778
30
0.0000000000
10
6.8183144034
20
14.1711613038
30
0.0000000000
10
6.8134084894
20
14.1212975655
30
0.0000000000
10
6.8121565198
20
14.0983104263
30
0.0000000000
11
7.3058442553
21
14.9020878849
31
0.0000000000
11
7.2489636048
21
14.8695392476
31
0.0000000000
11
7.1862736570
21
14.8244243204
31
0.0000000000
11
7.1206149766
21
14.7659493889
31
0.0000000000
11
7.0552184443
21
14.6945534918
31
0.0000000000
11
6.9934845070
21
14.6121068170
31
0.0000000000
11
6.9385714974
21
14.5218410279
31
0.0000000000
11
6.8929089395
21
14.4279356205
31
0.0000000000
11
6.8578279541
21
14.3348665644
31
0.0000000000
11
6.8334484303
21
14.2467701238
31
0.0000000000
11
6.8188144123
21
14.1670523816
31
0.0000000000
11
6.8121565198
21
14.0983104263
31
0.0000000000
0
SPLINE
5
399
100
AcDbEntity
8
0
100
AcDbSpline
62
9
6
CONTINUOUS
70
0
71
3
72
8
73
4
74
2
42
0.0000001000
43
0.0000001000
44
0.0000000001
12
-0.1997084068
22
0.1572999509
32
0.0000000000
13
-0.1922617773
23
0.1659732314
33
0.0000000000
40
0.0000000000
40
0.0000000000
40
0.0000000000
40
0.0000000000
40
1.0000000000
40
1.0000000000
40
1.0000000000
40
1.0000000000
10
-3.7603270718
20
-13.7876324680
30
0.0000000000
10
-3.8268965407
20
-13.7351991511
30
0.0000000000
10
-3.8922127962
20
-13.6812629280
30
0.0000000000
10
-3.9563000553
20
-13.6259385175
30
0.0000000000
11
-3.7603270718
21
-13.7876324680
31
0.0000000000
11
-3.9563000553
21
-13.6259385175
31
0.0000000000
0
ENDSEC
0
SECTION
2
OBJECTS
0
DICTIONARY
5
C
100
AcDbDictionary
280
0
281
1
3
ACAD_GROUP
350
D
3
ACAD_MLINESTYLE
350
17
3
ACAD_LAYOUT
350
1A
3
ACAD_PLOTSETTINGS
350
19
3
ACAD_PLOTSTYLENAME
350
E
0
DICTIONARY
5
D
102
{ACAD_REACTORS
330
C
102
}
100
AcDbDictionary
280
0
281
1
0
ACDBDICTIONARYWDFLT
5
E
102
{ACAD_REACTORS
330
C
102
}
100
AcDbDictionary
281
1
3
Normal
350
F
100
AcDbDictionaryWithDefault
340
F
0
DICTIONARY
5
17
102
{ACAD_REACTORS
330
C
102
}
100
AcDbDictionary
280
0
281
1
3
Standard
350
18
0
DICTIONARY
5
19
102
{ACAD_REACTORS
330
C
102
}
100
AcDbDictionary
281
1
0
DICTIONARY
5
1A
102
{ACAD_REACTORS
330
C
102
}
100
AcDbDictionary
281
1
3
Layout1
350
1E
3
Model
350
22
0
ACDBPLACEHOLDER
5
F
102
{ACAD_REACTORS
330
E
102
}
0
MLINESTYLE
5
18
102
{ACAD_REACTORS
330
17
102
}
100
AcDbMlineStyle
2
STANDARD
70
0
3

62
256
51
90.0
52
90.0
71
2
49
0.5
62
256
6
BYLAYER
49
-0.5
62
256
6
BYLAYER
0
LAYOUT
5
1E
102
{ACAD_REACTORS
330
1A
102
}
100
AcDbPlotSettings
1

2

4

6

40
0.0
41
0.0
42
0.0
43
0.0
44
0.0
45
0.0
46
0.0
47
0.0
48
0.0
49
0.0
140
0.0
141
0.0
142
1.0
143
1.0
70
0
72
0
73
0
74
0
7

75
0
147
1.0
148
0.0
149
0.0
100
AcDbLayout
1
Layout1
70
0
71
0
10
0.0
20
0.0
11
0.0
21
0.0
12
0.0
22
0.0
32
0.0
14
0.0
24
0.0
34
0.0
15
0.0
25
0.0
35
0.0
146
0.0
13
0.0
23
0.0
33
0.0
16
0.0
26
0.0
36
0.0
17
0.0
27
0.0
37
0.0
76
0
330
1B
331
0
345
0
346
0
0
LAYOUT
5
22
102
{ACAD_REACTORS
330
1A
102
}
100
AcDbPlotSettings
1

2

4

6

40
0.0
41
0.0
42
0.0
43
0.0
44
0.0
45
0.0
46
0.0
47
0.0
48
0.0
49
0.0
140
0.0
141
0.0
142
1.0
143
1.0
70
0
72
0
73
0
74
0
7

75
0
147
1.0
148
0.0
149
0.0
100
AcDbLayout
1
Model
70
0
71
0
10
0.0
20
0.0
11
0.0
21
0.0
12
0.0
22
0.0
32
0.0
14
0.0
24
0.0
34
0.0
15
0.0
25
0.0
35
0.0
146
0.0
13
0.0
23
0.0
33
0.0
16
0.0
26
0.0
36
0.0
17
0.0
27
0.0
37
0.0
76
0
330
1F
331
0
345
0
346
0
0
ENDSEC
0
EOF
