0
SECTION
2
HEADER
9
$ACADVER
1
AC1015
9
$DWGCODEPAGE
3
ANSI_1252
9
$EXTMAX
10
431.8000000000
20
558.8000000000
30
0.0000000000
9
$EXTMIN
10
0.0000000000
20
0.0000000000
30
0.0000000000
9
$LIMMIN
10
0.0000000000
20
0.0000000000
9
$LIMMAX
10
431.8000000000
20
558.8000000000
9
$VIEWCTR
10
215.9000000000
20
279.4000000000
9
$VIEWSIZE
40
558.8000000000
9
$CLAYER
8
0
9
$LTSCALE
40
36.4254814815
9
$CELTYPE
6
BYLAYER
9
$DIMSCALE
40
1
9
$DIMASZ
40
3.0000000000
9
$DIMEXO
40
4.1392592593
9
$DIMDLI
40
25.1666962963
9
$DIMEXE
40
11.9210666667
9
$DIMCEN
40
5.9605333333
9
$DIMLFAC
40
1.0000000000
9
$DIMBLK
1
_FILLED
9
$DIMTXT
40
3.0000000000
9
$DIMTOL
70
1
9
$DIMLIM
70
0
9
$DIMTFAC
40
1.0000000000
9
$DIMTP
40
0.0100000000
9
$DIMTM
40
0.0100000000
9
$PDMODE
70
3
9
$PDSIZE
40
3.0000000000
9
$HANDSEED
5
3BA
9
$MEASUREMENT
70
1
9
$INSUNITS
70
4
0
ENDSEC
0
SECTION
2
CLASSES
0
CLASS
1
ACDBDICTIONARYWDFLT
2
AcDbDictionaryWithDefault
3
AutoCAD 2000
90
0
280
0
281
0
0
CLASS
1
ACDBPLACEHOLDER
2
AcDbPlaceHolder
3
AutoCAD 2000
90
0
280
0
281
0
0
CLASS
1
LAYOUT
2
AcDbLayout
3
AutoCAD 2000
90
0
280
0
281
0
0
ENDSEC
0
SECTION
2
TABLES
0
TABLE
2
VPORT
5
8
100
AcDbSymbolTable
70
2
0
VPORT
5
1F4
100
AcDbSymbolTableRecord
100
AcDbViewportTableRecord
2
*ACTIVE
70
0
10
0.0
20
0.0
11
1.0
21
1.0
12
215.9000000000
22
279.4000000000
13
0.0
23
0.0
14
1.0
24
1.0
15
0.0
25
0.0
16
0.0
26
0.0
36
1.0
17
0.0
27
0.0
37
0.0
40
558.8000000000
41
0.7727272727
42
50.0
43
0.0
44
0.0
50
0.0
51
0.0
71
0
72
100
73
1
74
1
75
0
76
0
77
0
78
0
0
ENDTAB
0
TABLE
2
LTYPE
5
5
100
AcDbSymbolTable
70
6
0
LTYPE
5
14
100
AcDbSymbolTableRecord
100
AcDbLinetypeTableRecord
2
BYBLOCK
70
0
3

72
65
73
0
40
0.0
0
LTYPE
5
15
100
AcDbSymbolTableRecord
100
AcDbLinetypeTableRecord
2
BYLAYER
70
0
3

72
65
73
0
40
0.0
0
LTYPE
5
16
100
AcDbSymbolTableRecord
100
AcDbLinetypeTableRecord
2
CONTINUOUS
70
64
3
Solid line
72
65
73
0
40
0
0
LTYPE
5
1F5
100
AcDbSymbolTableRecord
100
AcDbLinetypeTableRecord
2
CENTER
70
64
3
____ _ ____ _ ____ _ ____ _ ____ _ ____ _ ____
72
65
73
4
40
0.6
49
0.375
74
0
49
-0.075
74
0
49
0.075
74
0
49
-0.075
74
0
0
LTYPE
5
1F6
100
AcDbSymbolTableRecord
100
AcDbLinetypeTableRecord
2
HIDDEN
70
64
3
- - - - - - - - - - - - - - - - - - - -
72
65
73
2
40
0.2
49
0.1
74
0
49
-0.1
74
0
0
LTYPE
5
1F7
100
AcDbSymbolTableRecord
100
AcDbLinetypeTableRecord
2
PHANTOM
70
64
3
_____ _ _ _____ _ _ _____ _ _ _____
72
65
73
6
40
0.8
49
0.45
74
0
49
-0.05
74
0
49
0.1
74
0
49
-0.05
74
0
49
0.1
74
0
49
-0.05
74
0
0
LTYPE
5
1F8
100
AcDbSymbolTableRecord
100
AcDbLinetypeTableRecord
2
DOT
70
64
3
. . . . . . . . . . . . . . . . . . . .
72
65
73
2
40
0.2
49
0.1
74
0
49
-0.1
74
0
0
LTYPE
5
1F9
100
AcDbSymbolTableRecord
100
AcDbLinetypeTableRecord
2
DASHED
70
64
3
- - - - - - - - - - - - - - - - - - - -
72
65
73
2
40
0.2
49
0.1
74
0
49
-0.1
74
0
0
ENDTAB
0
TABLE
2
LAYER
5
2
100
AcDbSymbolTable
70
36
0
LAYER
5
10
100
AcDbSymbolTableRecord
100
AcDbLayerTableRecord
2
0
70
0
62
7
6
CONTINUOUS
370
-3
390
F
0
LAYER
5
1FA
100
AcDbSymbolTableRecord
100
AcDbLayerTableRecord
2
DEFAULT_1
70
0
62
7
6
CENTER
370
-3
390
F
0
LAYER
5
1FB
100
AcDbSymbolTableRecord
100
AcDbLayerTableRecord
2
DEFAULT_2
70
0
62
9
6
HIDDEN
370
-3
390
F
0
LAYER
5
1FC
100
AcDbSymbolTableRecord
100
AcDbLayerTableRecord
2
DEFAULT_3
70
0
62
7
6
PHANTOM
370
-3
390
F
0
LAYER
5
1FD
100
AcDbSymbolTableRecord
100
AcDbLayerTableRecord
2
_BLACK_HOLE
70
0
62
7
6
CONTINUOUS
370
-3
390
F
0
LAYER
5
1FE
100
AcDbSymbolTableRecord
100
AcDbLayerTableRecord
2
ASSI
70
0
62
7
6
CONTINUOUS
370
-3
390
F
0
LAYER
5
1FF
100
AcDbSymbolTableRecord
100
AcDbLayerTableRecord
2
COORDINATE
70
0
62
7
6
CONTINUOUS
370
-3
390
F
0
LAYER
5
200
100
AcDbSymbolTableRecord
100
AcDbLayerTableRecord
2
COORD_ORIGINE
70
0
62
7
6
CONTINUOUS
370
-3
390
F
0
LAYER
5
201
100
AcDbSymbolTableRecord
100
AcDbLayerTableRecord
2
COPY_PUBLISH
70
0
62
7
6
CONTINUOUS
370
-3
390
F
0
LAYER
5
202
100
AcDbSymbolTableRecord
100
AcDbLayerTableRecord
2
COSMETIC
70
0
62
7
6
CONTINUOUS
370
-3
390
F
0
LAYER
5
203
100
AcDbSymbolTableRecord
100
AcDbLayerTableRecord
2
CURVE
70
0
62
7
6
CONTINUOUS
370
-3
390
F
0
LAYER
5
204
100
AcDbSymbolTableRecord
100
AcDbLayerTableRecord
2
DRAFT
70
0
62
7
6
CONTINUOUS
370
-3
390
F
0
LAYER
5
205
100
AcDbSymbolTableRecord
100
AcDbLayerTableRecord
2
IMPORT
70
0
62
7
6
CONTINUOUS
370
-3
390
F
0
LAYER
5
206
100
AcDbSymbolTableRecord
100
AcDbLayerTableRecord
2
IMPORT_IGES
70
0
62
7
6
CONTINUOUS
370
-3
390
F
0
LAYER
5
207
100
AcDbSymbolTableRecord
100
AcDbLayerTableRecord
2
INCISIONI_LASER
70
0
62
7
6
CONTINUOUS
370
-3
390
F
0
LAYER
5
208
100
AcDbSymbolTableRecord
100
AcDbLayerTableRecord
2
NOTE
70
0
62
7
6
CONTINUOUS
370
-3
390
F
0
LAYER
5
209
100
AcDbSymbolTableRecord
100
AcDbLayerTableRecord
2
PIANI
70
0
62
7
6
CONTINUOUS
370
-3
390
F
0
LAYER
5
20A
100
AcDbSymbolTableRecord
100
AcDbLayerTableRecord
2
PIANI_ORIGINE
70
0
62
7
6
CONTINUOUS
370
-3
390
F
0
LAYER
5
20B
100
AcDbSymbolTableRecord
100
AcDbLayerTableRecord
2
PUNTI
70
0
62
7
6
CONTINUOUS
370
-3
390
F
0
LAYER
5
20C
100
AcDbSymbolTableRecord
100
AcDbLayerTableRecord
2
RACCORDO
70
0
62
7
6
CONTINUOUS
370
-3
390
F
0
LAYER
5
20D
100
AcDbSymbolTableRecord
100
AcDbLayerTableRecord
2
SMUSSO
70
0
62
7
6
CONTINUOUS
370
-3
390
F
0
LAYER
5
20E
100
AcDbSymbolTableRecord
100
AcDbLayerTableRecord
2
SUPERFICI
70
0
62
7
6
CONTINUOUS
370
-3
390
F
0
LAYER
5
20F
100
AcDbSymbolTableRecord
100
AcDbLayerTableRecord
2
TRASH
70
0
62
7
6
CONTINUOUS
370
-3
390
F
0
LAYER
5
210
100
AcDbSymbolTableRecord
100
AcDbLayerTableRecord
2
XSEC_DATUMS
70
0
62
7
6
CONTINUOUS
370
-3
390
F
0
ENDTAB
0
TABLE
2
STYLE
5
3
100
AcDbSymbolTable
70
1
0
STYLE
5
11
100
AcDbSymbolTableRecord
100
AcDbTextStyleTableRecord
2
STANDARD
70
0
40
0.0
41
0.8000000000
50
0.0
71
0
42
0.2
3
txt
4

0
ENDTAB
0
TABLE
2
VIEW
5
6
100
AcDbSymbolTable
70
0
0
ENDTAB
0
TABLE
2
UCS
5
7
100
AcDbSymbolTable
70
0
0
ENDTAB
0
TABLE
2
APPID
5
9
100
AcDbSymbolTable
70
1
0
APPID
5
211
100
AcDbSymbolTableRecord
100
AcDbRegAppTableRecord
2
ACAD
70
0
0
ENDTAB
0
TABLE
2
BLOCK_RECORD
5
1
100
AcDbSymbolTable
70
0
0
BLOCK_RECORD
5
1F
100
AcDbSymbolTableRecord
100
AcDbBlockTableRecord
2
*MODEL_SPACE
0
BLOCK_RECORD
5
1B
100
AcDbSymbolTableRecord
100
AcDbBlockTableRecord
2
*PAPER_SPACE
0
ENDTAB
0
TABLE
2
DIMSTYLE
5
A
100
AcDbSymbolTable
70
1
100
AcDbDimStyleTable
71
0
0
DIMSTYLE
105
212
100
AcDbSymbolTableRecord
100
AcDbDimStyleTableRecord
2
STANDARD
70
0
3

4

40
1.0
41
3.0000000000
42
0.0625
43
0.38
44
0.18
45
0.0
46
0.0
47
0.0100000000
48
0.0100000000
140
3.0000000000
141
0.09
142
0.0
143
25.4
144
1.0000000000
145
0.0
146
1.0000000000
147
0.09
71
1
72
0
73
0
74
0
75
0
76
0
77
1
78
8
170
0
171
2
172
0
173
0
174
0
175
0
176
0
177
0
178
0
270
2
271
2
272
2
273
2
274
2
275
0
280
0
281
0
282
0
283
1
284
8
285
0
286
0
287
3
288
0
340
11
0
ENDTAB
0
ENDSEC
0
SECTION
2
BLOCKS
0
BLOCK
5
20
100
AcDbEntity
8
0
100
AcDbBlockBegin
2
*MODEL_SPACE
70
0
10
0.0
20
0.0
30
0.0
3
*MODEL_SPACE
1

0
ENDBLK
5
21
100
AcDbEntity
8
0
100
AcDbBlockEnd
0
BLOCK
5
1C
100
AcDbEntity
8
0
100
AcDbBlockBegin
2
*PAPER_SPACE
70
0
10
0.0
20
0.0
30
0.0
3
*PAPER_SPACE
1

0
ENDBLK
5
1D
100
AcDbEntity
8
0
100
AcDbBlockEnd
0
ENDSEC
0
SECTION
2
ENTITIES
0
LWPOLYLINE
5
213
100
AcDbEntity
8
0
100
AcDbPolyline
62
0
6
CONTINUOUS
90
9
70
0
10
-7.9927069917
20
22.4339162093
10
-8.1548696735
20
22.3259353394
10
-8.3083194008
20
22.1920796561
10
-8.4464380846
20
22.0382588168
10
-8.5693877287
20
21.8647944271
10
-8.6751691844
20
21.6731107934
10
-8.7577538332
20
21.4740317959
10
-8.8162289516
20
21.2725471969
10
-8.8510770990
20
21.0663895210
0
LWPOLYLINE
5
214
100
AcDbEntity
8
0
100
AcDbPolyline
62
0
6
CONTINUOUS
90
5
70
0
10
-7.9621171352
20
22.4509111383
10
-8.1023488803
20
22.3643591988
10
-8.2310033570
20
22.2637933255
10
-8.3514826786
20
22.1478399243
10
-8.4625848547
20
22.0177307289
0
LINE
5
215
100
AcDbEntity
8
0
100
AcDbLine
62
0
6
CONTINUOUS
10
-7.9626784058
20
22.4506086256
11
-7.9927069917
21
22.4339162093
0
LINE
5
216
100
AcDbEntity
8
0
100
AcDbLine
62
0
6
CONTINUOUS
10
-7.9626785542
20
22.4506089007
11
-4.0318376883
21
24.5713877972
0
LINE
5
217
100
AcDbEntity
8
0
100
AcDbLine
62
9
6
CONTINUOUS
10
-7.5925233731
20
22.4344138060
11
-3.6657575816
21
24.5529940372
0
LWPOLYLINE
5
218
100
AcDbEntity
8
0
100
AcDbPolyline
62
0
6
CONTINUOUS
90
6
70
0
10
6.0658188577
20
-22.0646994520
10
6.1967406397
20
-22.0952936046
10
6.3319984725
20
-22.1097195875
10
6.4700843194
20
-22.1075278716
10
6.6107496333
20
-22.0881854699
10
6.7529405974
20
-22.0509471121
0
LWPOLYLINE
5
219
100
AcDbEntity
8
0
100
AcDbPolyline
62
0
6
CONTINUOUS
90
7
70
0
10
-8.5616063401
20
21.8770875649
10
-8.6484582151
20
21.7265498265
10
-8.7224383351
20
21.5668881263
10
-8.7811418378
20
21.4030514918
10
-8.8239956143
20
21.2371892012
10
-8.8508582207
20
21.0684210169
10
-8.8583303441
20
20.9757145569
0
LWPOLYLINE
5
21A
100
AcDbEntity
8
0
100
AcDbPolyline
62
0
6
CONTINUOUS
90
6
70
0
10
5.9412561662
20
-22.0187736411
10
6.0728378998
20
-22.0667788051
10
6.2121901215
20
-22.0977982818
10
6.3569120582
20
-22.1105673155
10
6.5048497503
20
-22.1043492839
10
6.6546707234
20
-22.0786024420
0
LINE
5
21B
100
AcDbEntity
8
0
100
AcDbLine
62
0
6
CONTINUOUS
10
5.8919035883
20
-21.9955176486
11
5.9415632639
21
-22.0189109199
0
LINE
5
21C
100
AcDbEntity
8
0
100
AcDbLine
62
0
6
CONTINUOUS
10
5.8940665102
20
-21.9966053243
11
-8.2395242928
21
-14.9298099228
0
LINE
5
21D
100
AcDbEntity
8
0
100
AcDbLine
62
0
6
CONTINUOUS
10
-8.2696538111
20
-14.9128350839
11
-8.2381274719
21
-14.9305056195
0
LWPOLYLINE
5
21E
100
AcDbEntity
8
0
100
AcDbPolyline
62
0
6
CONTINUOUS
90
3
70
0
10
-8.4212407095
20
-14.8144071213
10
-8.2584742438
20
-14.9200941678
10
-8.2386614535
20
-14.9302401853
0
LINE
5
21F
100
AcDbEntity
8
0
100
AcDbLine
62
0
6
CONTINUOUS
10
1.1653194743
20
-16.3564869773
11
1.4401031025
21
-16.2959426056
0
LWPOLYLINE
5
220
100
AcDbEntity
8
0
100
AcDbPolyline
62
0
6
CONTINUOUS
90
3
70
0
10
1.0811614228
20
-16.3657263528
10
1.2404965048
20
-16.3447198962
10
1.3945078221
20
-16.3094654134
0
LINE
5
221
100
AcDbEntity
8
0
100
AcDbLine
62
0
6
CONTINUOUS
10
0.8742142679
20
-16.3719811918
11
1.1653194743
21
-16.3564869773
0
LWPOLYLINE
5
222
100
AcDbEntity
8
0
100
AcDbPolyline
62
0
6
CONTINUOUS
90
3
70
0
10
0.7489022598
20
-16.3651591108
10
0.9170785825
20
-16.3725251404
10
1.0811614228
20
-16.3657263528
0
LINE
5
223
100
AcDbEntity
8
0
100
AcDbLine
62
0
6
CONTINUOUS
10
0.5705836611
20
-16.3426602356
11
0.8742142679
21
-16.3719811918
0
LWPOLYLINE
5
224
100
AcDbEntity
8
0
100
AcDbPolyline
62
0
6
CONTINUOUS
90
3
70
0
10
0.4026841387
20
-16.3085184251
10
0.5772573967
20
-16.3437625245
10
0.7489022598
20
-16.3651591108
0
LINE
5
225
100
AcDbEntity
8
0
100
AcDbLine
62
0
6
CONTINUOUS
10
0.2578111500
20
-16.2694290648
11
0.5705836611
21
-16.3426602356
0
LINE
5
226
100
AcDbEntity
8
0
100
AcDbLine
62
0
6
CONTINUOUS
10
0.2256811382
20
-16.2595829739
11
0.4026841387
21
-16.3085184251
0
LINE
5
227
100
AcDbEntity
8
0
100
AcDbLine
62
0
6
CONTINUOUS
10
-0.0609231023
20
-16.1534631720
11
0.2578111500
21
-16.2694290648
0
LWPOLYLINE
5
228
100
AcDbEntity
8
0
100
AcDbPolyline
62
0
6
CONTINUOUS
90
3
70
0
10
-0.1332164462
20
-16.1216099657
10
0.0468180558
20
-16.1971644507
10
0.2256811382
20
-16.2595829739
0
LINE
5
229
100
AcDbEntity
8
0
100
AcDbLine
62
9
6
CONTINUOUS
10
5.5034638553
20
-21.2697795856
11
-8.6238071861
21
-14.2061440649
0
LINE
5
22A
100
AcDbEntity
8
0
100
AcDbLine
62
0
6
CONTINUOUS
10
-8.5608969474
20
-14.6824060081
11
-8.4212407095
21
-14.8144071213
0
LWPOLYLINE
5
22B
100
AcDbEntity
8
0
100
AcDbPolyline
62
0
6
CONTINUOUS
90
4
70
0
10
-8.5948692074
20
-14.6421388113
10
-8.5139592267
20
-14.7321813994
10
-8.4250044409
20
-14.8114276702
10
-8.4225707626
20
-14.8131499738
0
LINE
5
22C
100
AcDbEntity
8
0
100
AcDbLine
62
0
6
CONTINUOUS
10
-8.6789520285
20
-14.5221623493
11
-8.5608969474
21
-14.6824060081
0
LINE
5
22D
100
AcDbEntity
8
0
100
AcDbLine
62
0
6
CONTINUOUS
10
-0.2508425074
20
-16.0654735451
11
-0.0609231023
21
-16.1534631720
0
LINE
5
22E
100
AcDbEntity
8
0
100
AcDbLine
62
0
6
CONTINUOUS
10
-0.2508063496
20
-16.0654916652
11
-0.1332164462
21
-16.1216099657
0
LINE
5
22F
100
AcDbEntity
8
0
100
AcDbLine
62
9
6
CONTINUOUS
10
-0.1906199011
20
-16.2945793817
11
-3.1604683821
21
-14.8096551412
0
LINE
5
230
100
AcDbEntity
8
0
100
AcDbLine
62
9
6
CONTINUOUS
10
-0.1212645551
20
-16.1682427238
11
-3.0911130361
21
-14.6833184833
0
LINE
5
231
100
AcDbEntity
8
0
100
AcDbLine
62
0
6
CONTINUOUS
10
-3.2206417350
20
-14.5805835077
11
-0.2507932545
21
-16.0655077480
0
LINE
5
232
100
AcDbEntity
8
0
100
AcDbLine
62
9
6
CONTINUOUS
10
-3.2465149438
20
-14.5313989604
11
-0.2766664629
21
-16.0163232008
0
LINE
5
233
100
AcDbEntity
8
0
100
AcDbLine
62
0
6
CONTINUOUS
10
-3.3663306226
20
-14.5036422310
11
-3.2204628496
21
-14.5806663485
0
LINE
5
234
100
AcDbEntity
8
0
100
AcDbLine
62
0
6
CONTINUOUS
10
-3.5681641945
20
-14.3836451768
11
-3.3659172115
21
-14.5038605291
0
LINE
5
235
100
AcDbEntity
8
0
100
AcDbLine
62
0
6
CONTINUOUS
10
-3.7520109749
20
-14.2606807724
11
-3.3640761640
21
-14.5048946178
0
LINE
5
236
100
AcDbEntity
8
0
100
AcDbLine
62
0
6
CONTINUOUS
10
-3.7696372005
20
-14.2481980158
11
-3.5681641945
21
-14.3836451768
0
LINE
5
237
100
AcDbEntity
8
0
100
AcDbLine
62
0
6
CONTINUOUS
10
-3.9690695960
20
-14.0983317224
11
-3.7696372005
21
-14.2481980158
0
LINE
5
238
100
AcDbEntity
8
0
100
AcDbLine
62
0
6
CONTINUOUS
10
-4.1309451157
20
-13.9647840620
11
-3.7498601396
21
-14.2621956425
0
LINE
5
239
100
AcDbEntity
8
0
100
AcDbLine
62
0
6
CONTINUOUS
10
-4.1656370396
20
-13.9347350350
11
-3.9690695960
21
-14.0983317224
0
LWPOLYLINE
5
23A
100
AcDbEntity
8
0
100
AcDbPolyline
62
0
6
CONTINUOUS
90
3
70
0
10
-8.7281450372
20
-14.4326192660
10
-8.6666603750
20
-14.5419147096
10
-8.5948692074
20
-14.6421388113
0
LINE
5
23B
100
AcDbEntity
8
0
100
AcDbLine
62
0
6
CONTINUOUS
10
-8.7791222919
20
-14.3136487815
11
-8.7281450372
21
-14.4326192660
0
LINE
5
23C
100
AcDbEntity
8
ASSI
100
AcDbLine
62
9
6
CONTINUOUS
10
-1.9573600712
20
-13.3665934016
11
-1.7229902357
21
-13.4837783194
0
LINE
5
23D
100
AcDbEntity
8
INCISIONI_LASER
100
AcDbLine
62
9
6
CONTINUOUS
10
-1.9573600712
20
-13.3665934016
11
-1.7229902357
21
-13.4837783194
0
LINE
5
23E
100
AcDbEntity
8
0
100
AcDbLine
62
0
6
CONTINUOUS
10
-4.4973894530
20
-13.6205137468
11
-4.1289350735
21
-13.9665094321
0
LINE
5
23F
100
AcDbEntity
8
0
100
AcDbLine
62
0
6
CONTINUOUS
10
-4.8455213429
20
-13.2332766133
11
-4.4955519667
21
-13.6223940037
0
LINE
5
240
100
AcDbEntity
8
0
100
AcDbLine
62
0
6
CONTINUOUS
10
-5.1692874228
20
-12.8096799875
11
-4.8438812072
21
-13.2352549616
0
LINE
5
241
100
AcDbEntity
8
0
100
AcDbLine
62
0
6
CONTINUOUS
10
-5.4633280831
20
-12.3567974877
11
-5.1678576252
21
-12.8117076669
0
LWPOLYLINE
5
242
100
AcDbEntity
8
0
100
AcDbPolyline
62
0
6
CONTINUOUS
90
3
70
0
10
-8.8328107327
20
-14.1223184785
10
-8.7716374462
20
-14.3334363187
10
-8.6789520285
20
-14.5221623493
0
LWPOLYLINE
5
243
100
AcDbEntity
8
0
100
AcDbPolyline
62
0
6
CONTINUOUS
90
3
70
0
10
-8.8456520675
20
-14.0479129942
10
-8.8187043633
20
-14.1849928940
10
-8.7791222919
20
-14.3136487815
0
LINE
5
244
100
AcDbEntity
8
0
100
AcDbLine
62
0
6
CONTINUOUS
10
-8.8581546966
20
-13.9220050035
11
-8.8456520675
21
-14.0479129942
0
LINE
5
245
100
AcDbEntity
8
0
100
AcDbLine
62
0
6
CONTINUOUS
10
-8.8581672235
20
-13.9217857649
11
-8.8581156184
21
-13.9226832810
0
LWPOLYLINE
5
246
100
AcDbEntity
8
0
100
AcDbPolyline
62
0
6
CONTINUOUS
90
3
70
0
10
-9.1734215545
20
-6.6675197108
10
-9.0245792186
20
-10.5911952663
10
-8.8581672235
20
-13.9217857649
0
LWPOLYLINE
5
247
100
AcDbEntity
8
0
100
AcDbPolyline
62
0
6
CONTINUOUS
90
3
70
0
10
-9.1811886919
20
-6.4178551945
10
-9.0394792497
20
-10.2512921524
10
-8.8581672618
20
-13.9217850757
0
LINE
5
248
100
AcDbEntity
8
0
100
AcDbLine
62
0
6
CONTINUOUS
10
-9.2757038466
20
-2.5579384516
11
-9.1734215545
21
-6.6675197108
0
LINE
5
249
100
AcDbEntity
8
0
100
AcDbLine
62
0
6
CONTINUOUS
10
-9.3229976350
20
1.3274752279
11
-9.2727700381
21
-2.7160082525
0
LINE
5
24A
100
AcDbEntity
8
0
100
AcDbLine
62
0
6
CONTINUOUS
10
-9.3228944553
20
5.2664433971
11
-9.3225948933
21
1.2622772638
0
LINE
5
24B
100
AcDbEntity
8
0
100
AcDbLine
62
0
6
CONTINUOUS
10
-9.2736728368
20
9.2956711165
11
-9.3230690972
21
5.2375556847
0
LWPOLYLINE
5
24C
100
AcDbEntity
8
0
100
AcDbPolyline
62
0
6
CONTINUOUS
90
3
70
0
10
-9.0267338704
20
17.4255141878
10
-9.1749399706
20
13.3490603907
10
-9.2759220812
20
9.1715338659
0
LWPOLYLINE
5
24D
100
AcDbEntity
8
0
100
AcDbPolyline
62
0
6
CONTINUOUS
90
3
70
0
10
-8.8582974498
20
20.9763648804
10
-9.0400342308
20
17.1076572004
10
-9.1815654660
20
13.1285730484
0
LINE
5
24E
100
AcDbEntity
8
0
100
AcDbLine
62
0
6
CONTINUOUS
10
-8.8582974443
20
20.9763648801
11
-8.8583169513
21
20.9759853913
0
LINE
5
24F
100
AcDbEntity
8
0
100
AcDbLine
62
9
6
CONTINUOUS
10
10.6179717117
20
17.4111293906
11
6.5516866993
21
15.3623087698
0
LINE
5
250
100
AcDbEntity
8
0
100
AcDbLine
62
9
6
CONTINUOUS
10
11.1835709800
20
16.4356149533
11
7.1172859677
21
14.3867943325
0
LINE
5
251
100
AcDbEntity
8
ASSI
100
AcDbLine
62
9
6
CONTINUOUS
10
-1.8463183118
20
-10.0601950000
11
-2.0806881473
21
-9.9430100823
0
LINE
5
252
100
AcDbEntity
8
INCISIONI_LASER
100
AcDbLine
62
9
6
CONTINUOUS
10
-1.8463183118
20
-10.0601950000
11
-2.0806881473
21
-9.9430100823
0
LINE
5
253
100
AcDbEntity
8
0
100
AcDbLine
62
0
6
CONTINUOUS
10
-5.7231260008
20
-11.8814874116
11
-5.4621133659
21
-12.3588325582
0
LWPOLYLINE
5
254
100
AcDbEntity
8
0
100
AcDbPolyline
62
0
6
CONTINUOUS
90
11
70
0
10
-5.7988915324
20
-11.7246629797
10
-5.6738985104
20
-11.9784004599
10
-5.5386086725
20
-12.2275888249
10
-5.3936299293
20
-12.4711648276
10
-5.2395840944
20
-12.7080684673
10
-5.0771698429
20
-12.9372917618
10
-4.9071033177
20
-13.1578490188
10
-4.7301004181
20
-13.3687789839
10
-4.5469651609
20
-13.5691667639
10
-4.3585375134
20
-13.7581050102
10
-4.1656370396
20
-13.9347350350
0
LINE
5
255
100
AcDbEntity
8
0
100
AcDbLine
62
0
6
CONTINUOUS
10
-5.9445784114
20
-11.3909256701
11
-5.7221283967
21
-11.8834882769
0
LINE
5
256
100
AcDbEntity
8
0
100
AcDbLine
62
0
6
CONTINUOUS
10
-5.9130036500
20
-11.4674565725
11
-5.7988915324
21
-11.7246629797
0
LINE
5
257
100
AcDbEntity
8
0
100
AcDbLine
62
0
6
CONTINUOUS
10
-6.0157436699
20
-11.2078901418
11
-5.9130036500
21
-11.4674565725
0
LINE
5
258
100
AcDbEntity
8
0
100
AcDbLine
62
0
6
CONTINUOUS
10
-6.1240659269
20
-10.8925868375
11
-5.9437969221
21
-11.3928518896
0
LINE
5
259
100
AcDbEntity
8
0
100
AcDbLine
62
0
6
CONTINUOUS
10
-8.8581153779
20
-13.9226832673
11
-8.8328107327
21
-14.1223184785
0
LINE
5
25A
100
AcDbEntity
8
0
100
AcDbLine
62
0
6
CONTINUOUS
10
-3.6612474400
20
-6.9898702899
11
-3.4144592749
21
-7.1015557895
0
LINE
5
25B
100
AcDbEntity
8
0
100
AcDbLine
62
0
6
CONTINUOUS
10
-3.5617817832
20
-7.0320752125
11
-3.4143470426
21
-7.1016122486
0
LINE
5
25C
100
AcDbEntity
8
0
100
AcDbLine
62
0
6
CONTINUOUS
10
-5.5107493893
20
-7.2033315012
11
-5.4507039955
21
-7.2333541981
0
LINE
5
25D
100
AcDbEntity
8
0
100
AcDbLine
62
9
6
CONTINUOUS
10
-0.5333552909
20
-8.8990733241
11
-3.5032037719
21
-7.4141490837
0
LINE
5
25E
100
AcDbEntity
8
0
100
AcDbLine
62
9
6
CONTINUOUS
10
-0.4639092598
20
-8.7752144638
11
-3.4337577408
21
-7.2902902233
0
LINE
5
25F
100
AcDbEntity
8
0
100
AcDbLine
62
0
6
CONTINUOUS
10
-3.4143218541
20
-7.1016074027
11
-0.4444733813
21
-8.5865316392
0
LINE
5
260
100
AcDbEntity
8
0
100
AcDbLine
62
9
6
CONTINUOUS
10
-3.4402831844
20
-7.0499424556
11
-0.4704347035
21
-8.5348666961
0
LINE
5
261
100
AcDbEntity
8
0
100
AcDbLine
62
0
6
CONTINUOUS
10
-0.4442323854
20
-8.5866924378
11
-0.1162451050
21
-8.7712327885
0
LINE
5
262
100
AcDbEntity
8
0
100
AcDbLine
62
0
6
CONTINUOUS
10
-6.2583841036
20
-10.3944733754
11
-6.1234940807
21
-10.8944014343
0
LINE
5
263
100
AcDbEntity
8
0
100
AcDbLine
62
0
6
CONTINUOUS
10
-4.9620351165
20
-6.8294583142
11
-4.7489928628
21
-6.7985686499
0
LINE
5
264
100
AcDbEntity
8
0
100
AcDbLine
62
0
6
CONTINUOUS
10
-4.9239592531
20
-6.8219216640
11
-4.6295587837
21
-6.7925682227
0
LWPOLYLINE
5
265
100
AcDbEntity
8
0
100
AcDbPolyline
62
0
6
CONTINUOUS
90
6
70
0
10
-4.7489928628
20
-6.7985686499
10
-4.5258626204
20
-6.7934276409
10
-4.2941282347
20
-6.8142328460
10
-4.0551431730
20
-6.8610171684
10
-3.8104245832
20
-6.9337748598
10
-3.5617817832
20
-7.0320752125
0
LWPOLYLINE
5
266
100
AcDbEntity
8
0
100
AcDbPolyline
62
0
6
CONTINUOUS
90
4
70
0
10
-4.6295587837
20
-6.7925682227
10
-4.3187791882
20
-6.8108342386
10
-3.9947454686
20
-6.8766931571
10
-3.6612474400
20
-6.9898702899
0
LWPOLYLINE
5
267
100
AcDbEntity
8
0
100
AcDbPolyline
62
0
6
CONTINUOUS
90
8
70
0
10
-0.1162451050
20
-8.7712327885
10
0.2832488064
20
-9.0517161511
10
0.6757340000
20
-9.3901251208
10
1.0537793732
20
-9.7811381088
10
1.4092297143
20
-10.2169425512
10
1.7356802418
20
-10.6895164954
10
2.0279332203
20
-11.1912766818
10
2.2808806681
20
-11.7130184948
0
LINE
5
268
100
AcDbEntity
8
0
100
AcDbLine
62
0
6
CONTINUOUS
10
-5.1638387343
20
-6.8856166177
11
-4.9620351165
21
-6.8294583142
0
LINE
5
269
100
AcDbEntity
8
0
100
AcDbLine
62
0
6
CONTINUOUS
10
-5.1984644154
20
-6.8982155157
11
-4.9239592531
21
-6.8219216640
0
LWPOLYLINE
5
26A
100
AcDbEntity
8
0
100
AcDbPolyline
62
0
6
CONTINUOUS
90
15
70
0
10
-6.0921498511
20
-7.9439807177
10
-6.1732557711
20
-8.1216498229
10
-6.2416129577
20
-8.3117725514
10
-6.2969044830
20
-8.5134869539
10
-6.3388643257
20
-8.7258527957
10
-6.3672806327
20
-8.9480957335
10
-6.3820249818
20
-9.1792164118
10
-6.3830323914
20
-9.4178592050
10
-6.3703136687
20
-9.6629048618
10
-6.3439867188
20
-9.9134006811
10
-6.3042224654
20
-10.1681725668
10
-6.2512118093
20
-10.4260926975
10
-6.1852415780
20
-10.6860926415
10
-6.1066378326
20
-10.9470653314
10
-6.0157436699
20
-11.2078901418
0
LWPOLYLINE
5
26B
100
AcDbEntity
8
0
100
AcDbPolyline
62
0
6
CONTINUOUS
90
7
70
0
10
-6.0374769210
20
-7.8435517384
10
-6.1961783553
20
-8.1802268309
10
-6.3076318841
20
-8.5609022698
10
-6.3701918406
20
-8.9801994670
10
-6.3826818190
20
-9.4314429984
10
-6.3449343283
20
-9.9061161741
10
-6.2580093105
20
-10.3961462206
0
LINE
5
26C
100
AcDbEntity
8
0
100
AcDbLine
62
0
6
CONTINUOUS
10
2.2808806681
20
-11.7130184948
11
2.4903106476
21
-12.2454449227
0
LWPOLYLINE
5
26D
100
AcDbEntity
8
0
100
AcDbPolyline
62
0
6
CONTINUOUS
90
3
70
0
10
-5.8931286655
20
-7.6285331843
10
-5.9986604436
20
-7.7794001686
10
-6.0921498511
20
-7.9439807177
0
LINE
5
26E
100
AcDbEntity
8
0
100
AcDbLine
62
0
6
CONTINUOUS
10
-5.8340953553
20
-7.5562833913
11
-6.0374769210
21
-7.8435517384
0
LWPOLYLINE
5
26F
100
AcDbEntity
8
0
100
AcDbPolyline
62
0
6
CONTINUOUS
90
6
70
0
10
2.4903106476
20
-12.2454449227
10
2.6530962083
20
-12.7796378860
10
2.7667764728
20
-13.3067565712
10
2.8296151758
20
-13.8173042777
10
2.8409020906
20
-14.3029882895
10
2.8005629543
20
-14.7565450067
0
LINE
5
270
100
AcDbEntity
8
0
100
AcDbLine
62
0
6
CONTINUOUS
10
-5.7759527400
20
-7.4920572281
11
-5.8931286655
21
-7.6285331843
0
LINE
5
271
100
AcDbEntity
8
0
100
AcDbLine
62
0
6
CONTINUOUS
10
-5.5892794094
20
-7.3231718461
11
-5.8340953553
21
-7.5562833913
0
LINE
5
272
100
AcDbEntity
8
0
100
AcDbLine
62
0
6
CONTINUOUS
10
-5.6477186402
20
-7.3706380114
11
-5.7759527400
21
-7.4920572281
0
LINE
5
273
100
AcDbEntity
8
0
100
AcDbLine
62
0
6
CONTINUOUS
10
2.0972488417
20
-16.1377345210
11
2.0972488417
21
-15.9870310653
0
LINE
5
274
100
AcDbEntity
8
0
100
AcDbLine
62
0
6
CONTINUOUS
10
-5.5090909333
20
-7.2649277545
11
-5.6477186402
21
-7.3706380114
0
LINE
5
275
100
AcDbEntity
8
0
100
AcDbLine
62
0
6
CONTINUOUS
10
-5.3644615213
20
-7.1774561425
11
-5.5892794094
21
-7.3231718461
0
LINE
5
276
100
AcDbEntity
8
0
100
AcDbLine
62
0
6
CONTINUOUS
10
-5.3587678866
20
-7.1744292229
11
-5.5090909333
21
-7.2649277545
0
LINE
5
277
100
AcDbEntity
8
0
100
AcDbLine
62
0
6
CONTINUOUS
10
-5.3643697558
20
-7.1773930867
11
-4.8040113252
21
-6.8815522071
0
LINE
5
278
100
AcDbEntity
8
0
100
AcDbLine
62
0
6
CONTINUOUS
10
-5.3124066685
20
-6.9465243091
11
-5.3069438680
21
-6.9439543806
0
LINE
5
279
100
AcDbEntity
8
0
100
AcDbLine
62
0
6
CONTINUOUS
10
2.8067915140
20
-14.7137494766
11
2.7517126162
21
-15.0102539476
0
LINE
5
27A
100
AcDbEntity
8
0
100
AcDbLine
62
9
6
CONTINUOUS
10
-3.2395096692
20
-7.1890134952
11
-3.4337577408
21
-7.2902902233
0
LINE
5
27B
100
AcDbEntity
8
0
100
AcDbLine
62
0
6
CONTINUOUS
10
-5.3071203726
20
-6.9440395668
11
-5.1984644154
21
-6.8982155157
0
LINE
5
27C
100
AcDbEntity
8
0
100
AcDbLine
62
0
6
CONTINUOUS
10
-5.3060425335
20
-6.9435356819
11
-5.1638387343
21
-6.8856166177
0
LINE
5
27D
100
AcDbEntity
8
0
100
AcDbLine
62
0
6
CONTINUOUS
10
2.8005629543
20
-14.7565450067
11
2.7091644922
21
-15.1702489648
0
LINE
5
27E
100
AcDbEntity
8
0
100
AcDbLine
62
0
6
CONTINUOUS
10
2.7517126162
20
-15.0102539476
11
2.6720100722
21
-15.2854154096
0
LINE
5
27F
100
AcDbEntity
8
0
100
AcDbLine
62
9
6
CONTINUOUS
10
-0.2797866469
20
-8.6792169839
11
-0.4639092598
21
-8.7752144638
0
LINE
5
280
100
AcDbEntity
8
0
100
AcDbLine
62
0
6
CONTINUOUS
10
2.7091644922
20
-15.1702489648
11
2.5683728196
21
-15.5362368465
0
LINE
5
281
100
AcDbEntity
8
0
100
AcDbLine
62
0
6
CONTINUOUS
10
2.6720100722
20
-15.2854154096
11
2.5682950056
21
-15.5363943769
0
LINE
5
282
100
AcDbEntity
8
0
100
AcDbLine
62
0
6
CONTINUOUS
10
11.1835709800
20
-19.6778554243
11
11.1835709800
21
16.4356149533
0
LINE
5
283
100
AcDbEntity
8
0
100
AcDbLine
62
0
6
CONTINUOUS
10
2.5682950056
20
-15.5363943769
11
2.4416751734
21
-15.7608101518
0
LINE
5
284
100
AcDbEntity
8
0
100
AcDbLine
62
0
6
CONTINUOUS
10
2.5683728196
20
-15.5362368465
11
2.3809257880
21
-15.8480800318
0
LINE
5
285
100
AcDbEntity
8
0
100
AcDbLine
62
0
6
CONTINUOUS
10
2.4416751734
20
-15.7608101518
11
2.2933907107
21
-15.9567548394
0
LINE
5
286
100
AcDbEntity
8
0
100
AcDbLine
62
0
6
CONTINUOUS
10
2.3809257880
20
-15.8480800318
11
2.1504085888
21
-16.1005086184
0
LINE
5
287
100
AcDbEntity
8
0
100
AcDbLine
62
0
6
CONTINUOUS
10
2.2933907107
20
-15.9567548394
11
2.1245770184
21
-16.1228128849
0
LINE
5
288
100
AcDbEntity
8
0
100
AcDbLine
62
9
6
CONTINUOUS
10
-3.0539371560
20
-14.6639357973
11
-3.0911130361
21
-14.6833184833
0
LINE
5
289
100
AcDbEntity
8
0
100
AcDbLine
62
0
6
CONTINUOUS
10
2.1245770184
20
-16.1228128849
11
1.9364713613
21
-16.2580781668
0
LINE
5
28A
100
AcDbEntity
8
0
100
AcDbLine
62
0
6
CONTINUOUS
10
2.1504085888
20
-16.1005086184
11
1.8753737821
21
-16.2931058279
0
LINE
5
28B
100
AcDbEntity
8
0
100
AcDbLine
62
0
6
CONTINUOUS
10
1.9364713613
20
-16.2580781668
11
1.8613667774
21
-16.3005906316
0
LINE
5
28C
100
AcDbEntity
8
0
100
AcDbLine
62
0
6
CONTINUOUS
10
1.8619470245
20
-16.3002858198
11
1.8615062969
21
-16.3005183955
0
LINE
5
28D
100
AcDbEntity
8
0
100
AcDbLine
62
9
6
CONTINUOUS
10
-0.0779034373
20
-16.1456351909
11
-0.1212645551
21
-16.1682427238
0
LINE
5
28E
100
AcDbEntity
8
0
100
AcDbLine
62
0
6
CONTINUOUS
10
2.3548791430
20
-15.8783634324
11
2.2911913541
21
-15.9102073268
0
LINE
5
28F
100
AcDbEntity
8
0
100
AcDbLine
62
9
6
CONTINUOUS
10
5.5034638553
20
13.6350887783
11
-8.6238071861
21
20.6987242990
0
LINE
5
290
100
AcDbEntity
8
0
100
AcDbLine
62
0
6
CONTINUOUS
10
1.6408147911
20
-16.2176403302
11
2.2911913538
21
-15.9102073270
0
LINE
5
291
100
AcDbEntity
8
0
100
AcDbLine
62
0
6
CONTINUOUS
10
1.4401031025
20
-16.2959426056
11
1.6459298065
21
-16.2151932837
0
LWPOLYLINE
5
292
100
AcDbEntity
8
0
100
AcDbPolyline
62
0
6
CONTINUOUS
90
3
70
0
10
1.3945078221
20
-16.3094654134
10
1.5425190919
20
-16.2599814831
10
1.6401736593
20
-16.2179259479
0
LINE
5
293
100
AcDbEntity
8
0
100
AcDbLine
62
9
6
CONTINUOUS
10
6.5516866993
20
15.3623087698
11
-7.5925233731
21
22.4344138060
0
LINE
5
294
100
AcDbEntity
8
0
100
AcDbLine
62
0
6
CONTINUOUS
10
-3.6657575816
20
24.5529940372
11
10.6179717117
21
17.4111293906
0
LINE
5
295
100
AcDbEntity
8
0
100
AcDbLine
62
9
6
CONTINUOUS
10
7.1172859677
20
-21.5558005950
11
11.1835709800
21
-19.6778554243
0
LINE
5
296
100
AcDbEntity
8
0
100
AcDbLine
62
0
6
CONTINUOUS
10
6.8969822394
20
-21.9943507291
11
10.9672595680
21
-20.1145617744
0
LINE
5
297
100
AcDbEntity
8
0
100
AcDbLine
62
0
6
CONTINUOUS
10
6.7529405974
20
-22.0509471121
11
6.8954974073
21
-21.9950315232
0
LWPOLYLINE
5
298
100
AcDbEntity
8
0
100
AcDbPolyline
62
0
6
CONTINUOUS
90
3
70
0
10
6.6546707234
20
-22.0786024420
10
6.8048673445
20
-22.0327928786
10
6.8953357312
20
-21.9951050595
0
SPLINE
5
299
100
AcDbEntity
8
0
100
AcDbSpline
62
9
6
CONTINUOUS
70
0
71
3
72
9
73
5
74
3
42
0.0000001000
43
0.0000001000
44
0.0000000001
12
0.0027388049
22
-0.0570913148
32
0.0000000000
13
0.0517391824
23
-0.0271161704
33
0.0000000000
40
0.0000000000
40
0.0000000000
40
0.0000000000
40
0.0000000000
40
0.6474961356
40
1.0000000000
40
1.0000000000
40
1.0000000000
40
1.0000000000
10
-0.2766664629
20
-16.0163232008
30
0.0000000000
10
-0.2760753410
20
-16.0286453361
30
0.0000000000
10
-0.2720260009
20
-16.0486610106
30
0.0000000000
10
-0.2567693756
20
-16.0620837718
30
0.0000000000
10
-0.2506899550
20
-16.0652699567
30
0.0000000000
11
-0.2766664629
21
-16.0163232008
31
0.0000000000
11
-0.2661328086
21
-16.0518013928
31
0.0000000000
11
-0.2506899550
21
-16.0652699567
31
0.0000000000
0
SPLINE
5
29A
100
AcDbEntity
8
0
100
AcDbSpline
62
9
6
CONTINUOUS
70
0
71
3
72
8
73
4
74
2
42
0.0000001000
43
0.0000001000
44
0.0000000001
12
0.1878200947
22
-0.0794958125
32
0.0000000000
13
0.1928533264
23
-0.0665952472
33
0.0000000000
40
0.0000000000
40
0.0000000000
40
0.0000000000
40
0.0000000000
40
1.0000000000
40
1.0000000000
40
1.0000000000
40
1.0000000000
10
-0.0834573434
20
-16.1055392410
30
0.0000000000
10
-0.0208506451
20
-16.1320378452
30
0.0000000000
10
0.0426293028
20
-16.1565373294
30
0.0000000000
10
0.1069137450
20
-16.1787357451
30
0.0000000000
11
-0.0834573434
21
-16.1055392410
31
0.0000000000
11
0.1069137450
21
-16.1787357451
31
0.0000000000
0
SPLINE
5
29B
100
AcDbEntity
8
0
100
AcDbSpline
62
9
6
CONTINUOUS
70
0
71
3
72
9
73
5
74
3
42
0.0000001000
43
0.0000001000
44
0.0000000001
12
0.3648248377
22
-0.1259796794
32
0.0000000000
13
0.3799219847
23
-0.0698056381
33
0.0000000000
40
0.0000000000
40
0.0000000000
40
0.0000000000
40
0.0000000000
40
0.5079050151
40
1.0000000000
40
1.0000000000
40
1.0000000000
40
1.0000000000
10
0.1069137450
20
-16.1787357451
30
0.0000000000
10
0.1686791999
20
-16.2000643154
30
0.0000000000
10
0.2917497234
20
-16.2378751322
30
0.0000000000
10
0.4174628108
20
-16.2664131045
30
0.0000000000
10
0.4797820453
20
-16.2778634393
30
0.0000000000
11
0.1069137450
21
-16.1787357451
31
0.0000000000
11
0.2943771677
21
-16.2360808298
31
0.0000000000
11
0.4797820453
21
-16.2778634393
31
0.0000000000
0
SPLINE
5
29C
100
AcDbEntity
8
0
100
AcDbSpline
62
9
6
CONTINUOUS
70
0
71
3
72
9
73
5
74
3
42
0.0000001000
43
0.0000001000
44
0.0000000001
12
0.8506302026
22
-0.1562920454
32
0.0000000000
13
0.8266924543
23
0.2570350613
33
0.0000000000
40
0.0000000000
40
0.0000000000
40
0.0000000000
40
0.0000000000
40
0.4185586656
40
1.0000000000
40
1.0000000000
40
1.0000000000
40
1.0000000000
10
0.4797820453
20
-16.2778634393
30
0.0000000000
10
0.5984615928
20
-16.2996692360
30
0.0000000000
10
0.8859600145
20
-16.3292986327
30
0.0000000000
10
1.1756749731
20
-16.2915464858
30
0.0000000000
10
1.3358993610
20
-16.2417295495
30
0.0000000000
11
0.4797820453
21
-16.2778634393
31
0.0000000000
11
0.8395198224
21
-16.3126678535
31
0.0000000000
11
1.3358993610
21
-16.2417295495
31
0.0000000000
0
SPLINE
5
29D
100
AcDbEntity
8
0
100
AcDbSpline
62
9
6
CONTINUOUS
70
0
71
3
72
8
73
4
74
2
42
0.0000001000
43
0.0000001000
44
0.0000000001
12
0.2705715317
22
0.0841260494
32
0.0000000000
13
0.2495035915
23
0.1348988331
33
0.0000000000
40
0.0000000000
40
0.0000000000
40
0.0000000000
40
0.0000000000
40
1.0000000000
40
1.0000000000
40
1.0000000000
40
1.0000000000
10
1.3358993610
20
-16.2417295495
30
0.0000000000
10
1.4260898716
20
-16.2136875330
30
0.0000000000
10
1.5136733189
20
-16.1768158682
30
0.0000000000
10
1.5968411828
20
-16.1318495905
30
0.0000000000
11
1.3358993610
21
-16.2417295495
31
0.0000000000
11
1.5968411828
21
-16.1318495905
31
0.0000000000
0
SPLINE
5
29E
100
AcDbEntity
8
0
100
AcDbSpline
62
9
6
CONTINUOUS
70
0
71
3
72
8
73
4
74
2
42
0.0000001000
43
0.0000001000
44
0.0000000001
12
0.0336490352
22
0.0181929870
32
0.0000000000
13
0.0331538554
23
0.0190709405
33
0.0000000000
40
0.0000000000
40
0.0000000000
40
0.0000000000
40
0.0000000000
40
1.0000000000
40
1.0000000000
40
1.0000000000
40
1.0000000000
10
1.5968411828
20
-16.1318495905
30
0.0000000000
10
1.6080575278
20
-16.1257852615
30
0.0000000000
10
1.6191935611
20
-16.1195737054
30
0.0000000000
10
1.6302448462
20
-16.1132167252
30
0.0000000000
11
1.5968411828
21
-16.1318495905
31
0.0000000000
11
1.6302448462
21
-16.1132167252
31
0.0000000000
0
SPLINE
5
29F
100
AcDbEntity
8
0
100
AcDbSpline
62
9
6
CONTINUOUS
70
0
71
3
72
8
73
4
74
2
42
0.0000001000
43
0.0000001000
44
0.0000000001
12
0.0076941707
22
0.0070877183
32
0.0000000000
13
0.0076456852
23
0.0071407863
33
0.0000000000
40
0.0000000000
40
0.0000000000
40
0.0000000000
40
0.0000000000
40
1.0000000000
40
1.0000000000
40
1.0000000000
40
1.0000000000
10
1.8891623963
20
-15.9228287369
30
0.0000000000
10
1.8917271198
20
-15.9204661641
30
0.0000000000
10
1.8942837731
20
-15.9180947001
30
0.0000000000
10
1.8968323348
20
-15.9157144380
30
0.0000000000
11
1.8891623963
21
-15.9228287369
31
0.0000000000
11
1.8968323348
21
-15.9157144380
31
0.0000000000
0
SPLINE
5
2A0
100
AcDbEntity
8
0
100
AcDbSpline
62
9
6
CONTINUOUS
70
0
71
3
72
8
73
4
74
2
42
0.0000001000
43
0.0000001000
44
0.0000000001
12
0.0580438479
22
0.0542108004
32
0.0000000000
13
0.0552180613
23
0.0571310934
33
0.0000000000
40
0.0000000000
40
0.0000000000
40
0.0000000000
40
0.0000000000
40
1.0000000000
40
1.0000000000
40
1.0000000000
40
1.0000000000
10
1.8968323348
20
-15.9157144380
30
0.0000000000
10
1.9161802841
20
-15.8976441712
30
0.0000000000
10
1.9350618883
20
-15.8790668312
30
0.0000000000
10
1.9534679087
20
-15.8600231334
30
0.0000000000
11
1.8968323348
21
-15.9157144380
31
0.0000000000
11
1.9534679087
21
-15.8600231334
31
0.0000000000
0
SPLINE
5
2A1
100
AcDbEntity
8
0
100
AcDbSpline
62
9
6
CONTINUOUS
70
0
71
3
72
8
73
4
74
2
42
0.0000001000
43
0.0000001000
44
0.0000000001
12
0.0524089476
22
0.0542246578
32
0.0000000000
13
0.0498146959
23
0.0566409084
33
0.0000000000
40
0.0000000000
40
0.0000000000
40
0.0000000000
40
0.0000000000
40
1.0000000000
40
1.0000000000
40
1.0000000000
40
1.0000000000
10
1.9534679087
20
-15.8600231334
30
0.0000000000
10
1.9709375579
20
-15.8419482474
30
0.0000000000
10
1.9879787814
20
-15.8234532469
30
0.0000000000
10
2.0045836800
20
-15.8045729441
30
0.0000000000
11
1.9534679087
21
-15.8600231334
31
0.0000000000
11
2.0045836800
21
-15.8045729441
31
0.0000000000
0
SPLINE
5
2A2
100
AcDbEntity
8
0
100
AcDbSpline
62
9
6
CONTINUOUS
70
0
71
3
72
8
73
4
74
2
42
0.0000001000
43
0.0000001000
44
0.0000000001
12
0.0050065811
22
0.0069252588
32
0.0000000000
13
0.0049715948
23
0.0069491323
33
0.0000000000
40
0.0000000000
40
0.0000000000
40
0.0000000000
40
0.0000000000
40
1.0000000000
40
1.0000000000
40
1.0000000000
40
1.0000000000
10
2.1042979373
20
-15.6795403209
30
0.0000000000
10
2.1059667977
20
-15.6772319014
30
0.0000000000
10
2.1076298327
20
-15.6749194775
30
0.0000000000
10
2.1092870310
20
-15.6726031000
30
0.0000000000
11
2.1042979373
21
-15.6795403209
31
0.0000000000
11
2.1092870310
21
-15.6726031000
31
0.0000000000
0
SPLINE
5
2A3
100
AcDbEntity
8
0
100
AcDbSpline
62
9
6
CONTINUOUS
70
0
71
3
72
8
73
4
74
2
42
0.0000001000
43
0.0000001000
44
0.0000000001
12
0.2059022600
22
0.2878034342
32
0.0000000000
13
0.1492693805
23
0.3206831023
33
0.0000000000
40
0.0000000000
40
0.0000000000
40
0.0000000000
40
0.0000000000
40
1.0000000000
40
1.0000000000
40
1.0000000000
40
1.0000000000
10
2.1092870310
20
-15.6726031000
30
0.0000000000
10
2.1779211176
20
-15.5766686220
30
0.0000000000
10
2.2365435442
20
-15.4739527661
30
0.0000000000
10
2.2863000044
20
-15.3670583987
30
0.0000000000
11
2.1092870310
21
-15.6726031000
31
0.0000000000
11
2.2863000044
21
-15.3670583987
31
0.0000000000
0
SPLINE
5
2A4
100
AcDbEntity
8
0
100
AcDbSpline
62
9
6
CONTINUOUS
70
0
71
3
72
18
73
14
74
12
42
0.0000001000
43
0.0000001000
44
0.0000000001
12
3.2162924503
22
6.9097268143
32
0.0000000000
13
-6.7947851211
23
3.3983533908
33
0.0000000000
40
0.0000000000
40
0.0000000000
40
0.0000000000
40
0.0000000000
40
0.0243697937
40
0.1033250458
40
0.1910882570
40
0.2869385249
40
0.3892135825
40
0.4956436873
40
0.6036345102
40
0.7104630881
40
0.8136152416
40
0.9108466943
40
1.0000000000
40
1.0000000000
40
1.0000000000
40
1.0000000000
10
2.2863000044
20
-15.3670583987
30
0.0000000000
10
2.3124267989
20
-15.3109288597
30
0.0000000000
10
2.4128367062
20
-15.0680614252
30
0.0000000000
10
2.5227773997
20
-14.5931305703
30
0.0000000000
10
2.5483068907
20
-13.9254816498
30
0.0000000000
10
2.4634102455
20
-13.2040078277
30
0.0000000000
10
2.2715974482
20
-12.4548678635
30
0.0000000000
10
1.9798665400
20
-11.7058346460
30
0.0000000000
10
1.5987762101
20
-10.9850626898
30
0.0000000000
10
1.1421067553
20
-10.3196185087
30
0.0000000000
10
0.6261877271
20
-9.7344527570
30
0.0000000000
10
0.0706879894
20
-9.2523992441
30
0.0000000000
10
-0.3314294392
20
-9.0000648037
30
0.0000000000
10
-0.5333552909
20
-8.8990733241
30
0.0000000000
11
2.2863000044
21
-15.3670583987
31
0.0000000000
11
2.3575126041
21
-15.1955902880
31
0.0000000000
11
2.4998323500
21
-14.6128771420
31
0.0000000000
11
2.5309848863
21
-13.9468479602
31
0.0000000000
11
2.4498832930
21
-13.2231817507
31
0.0000000000
11
2.2596116578
21
-12.4698313234
31
0.0000000000
11
1.9672993355
21
-11.7159444127
31
0.0000000000
11
1.5838298858
21
-10.9906455199
31
0.0000000000
11
1.1236109935
21
-10.3221432514
31
0.0000000000
11
0.6035420317
21
-9.7359112039
31
0.0000000000
11
0.0430728221
21
-9.2547284765
31
0.0000000000
11
-0.5333552909
21
-8.8990733241
31
0.0000000000
0
SPLINE
5
2A5
100
AcDbEntity
8
0
100
AcDbSpline
62
9
6
CONTINUOUS
70
0
71
3
72
8
73
4
74
2
42
0.0000001000
43
0.0000001000
44
0.0000000001
12
-0.1905060611
22
0.0952232527
32
0.0000000000
13
-0.1966064821
23
0.0828600258
33
0.0000000000
40
0.0000000000
40
0.0000000000
40
0.0000000000
40
0.0000000000
40
1.0000000000
40
1.0000000000
40
1.0000000000
40
1.0000000000
10
-3.5032037719
20
-7.4141490837
30
0.0000000000
10
-3.5667057923
20
-7.3824079994
30
0.0000000000
10
-3.6312694949
20
-7.3525567637
30
0.0000000000
10
-3.6968049890
20
-7.3249367551
30
0.0000000000
11
-3.5032037719
21
-7.4141490837
31
0.0000000000
11
-3.6968049890
21
-7.3249367551
31
0.0000000000
0
SPLINE
5
2A6
100
AcDbEntity
8
0
100
AcDbSpline
62
9
6
CONTINUOUS
70
0
71
3
72
10
73
6
74
4
42
0.0000001000
43
0.0000001000
44
0.0000000001
12
-1.1986824737
22
0.5051860933
32
0.0000000000
13
-1.2777318896
23
-0.2564997449
33
0.0000000000
40
0.0000000000
40
0.0000000000
40
0.0000000000
40
0.0000000000
40
0.3085480725
40
0.7359137628
40
1.0000000000
40
1.0000000000
40
1.0000000000
40
1.0000000000
10
-3.6968049890
20
-7.3249367551
30
0.0000000000
10
-3.8200887112
20
-7.2729786900
30
0.0000000000
10
-4.1223333176
20
-7.1678866465
30
0.0000000000
10
-4.5549976282
20
-7.1036847348
30
0.0000000000
10
-4.8559548218
20
-7.1315861193
30
0.0000000000
10
-4.9684319575
20
-7.1541654702
30
0.0000000000
11
-3.6968049890
21
-7.3249367551
31
0.0000000000
11
-4.0763747210
21
-7.1950228898
31
0.0000000000
11
-4.6263268567
21
-7.1208189198
31
0.0000000000
11
-4.9684319575
21
-7.1541654702
31
0.0000000000
0
SPLINE
5
2A7
100
AcDbEntity
8
0
100
AcDbSpline
62
9
6
CONTINUOUS
70
0
71
3
72
8
73
4
74
2
42
0.0000001000
43
0.0000001000
44
0.0000000001
12
-0.1563416805
22
-0.0491682767
32
0.0000000000
13
-0.1502274511
23
-0.0658810687
33
0.0000000000
40
0.0000000000
40
0.0000000000
40
0.0000000000
40
0.0000000000
40
1.0000000000
40
1.0000000000
40
1.0000000000
40
1.0000000000
10
-5.1294380265
20
-7.1954018486
30
0.0000000000
10
-5.1815519200
20
-7.2117912742
30
0.0000000000
10
-5.2328075930
20
-7.2310343836
30
0.0000000000
10
-5.2828834100
20
-7.2529947399
30
0.0000000000
11
-5.1294380265
21
-7.1954018486
31
0.0000000000
11
-5.2828834100
21
-7.2529947399
31
0.0000000000
0
SPLINE
5
2A8
100
AcDbEntity
8
0
100
AcDbSpline
62
9
6
CONTINUOUS
70
0
71
3
72
8
73
4
74
2
42
0.0000001000
43
0.0000001000
44
0.0000000001
12
-0.0296057641
22
-0.0129833753
32
0.0000000000
13
-0.0293234412
23
-0.0136134328
33
0.0000000000
40
0.0000000000
40
0.0000000000
40
0.0000000000
40
0.0000000000
40
1.0000000000
40
1.0000000000
40
1.0000000000
40
1.0000000000
10
-5.2828834100
20
-7.2529947399
30
0.0000000000
10
-5.2927519980
20
-7.2573225316
30
0.0000000000
10
-5.3025747631
20
-7.2617558551
30
0.0000000000
10
-5.3123492435
20
-7.2662936661
30
0.0000000000
11
-5.2828834100
21
-7.2529947399
31
0.0000000000
11
-5.3123492435
21
-7.2662936661
31
0.0000000000
0
SPLINE
5
2A9
100
AcDbEntity
8
0
100
AcDbSpline
62
9
6
CONTINUOUS
70
0
71
3
72
9
73
5
74
3
42
0.0000001000
43
0.0000001000
44
0.0000000001
12
-0.2308673964
22
-0.2593595767
32
0.0000000000
13
-0.1760696700
23
-0.2985698091
33
0.0000000000
40
0.0000000000
40
0.0000000000
40
0.0000000000
40
0.0000000000
40
0.4928401294
40
1.0000000000
40
1.0000000000
40
1.0000000000
40
1.0000000000
10
-5.8110345851
20
-7.6395389831
30
0.0000000000
10
-5.8489614910
20
-7.6821465856
30
0.0000000000
10
-5.9215084971
20
-7.7725365717
30
0.0000000000
10
-5.9847073893
20
-7.8693860960
30
0.0000000000
10
-6.0144725463
20
-7.9198603046
30
0.0000000000
11
-5.8110345851
21
-7.6395389831
31
0.0000000000
11
-5.9181990663
21
-7.7728111767
31
0.0000000000
11
-6.0144725463
21
-7.9198603046
31
0.0000000000
0
SPLINE
5
2AA
100
AcDbEntity
8
0
100
AcDbSpline
62
9
6
CONTINUOUS
70
0
71
3
72
13
73
9
74
7
42
0.0000001000
43
0.0000001000
44
0.0000000001
12
-1.7364225944
22
-2.9445353219
32
0.0000000000
13
1.1984326256
23
-3.1937628246
33
0.0000000000
40
0.0000000000
40
0.0000000000
40
0.0000000000
40
0.0000000000
40
0.1080441477
40
0.2849004978
40
0.4807119435
40
0.6941667681
40
0.9218552608
40
1.0000000000
40
1.0000000000
40
1.0000000000
40
1.0000000000
10
-6.0144725463
20
-7.9198603046
30
0.0000000000
10
-6.0770093127
20
-8.0259069078
30
0.0000000000
10
-6.2152940900
20
-8.3213238937
30
0.0000000000
10
-6.3429949834
20
-8.8567708113
30
0.0000000000
10
-6.3700907368
20
-9.5256867895
30
0.0000000000
10
-6.2833877310
20
-10.2469546194
30
0.0000000000
10
-6.1327892669
20
-10.8192484878
30
0.0000000000
10
-6.0172005861
20
-11.1473078462
30
0.0000000000
10
-5.9859835178
20
-11.2304997673
30
0.0000000000
11
-6.0144725463
21
-7.9198603046
31
0.0000000000
11
-6.1728908543
21
-8.2531245714
31
0.0000000000
11
-6.3195434978
21
-8.8379566114
31
0.0000000000
11
-6.3521916441
21
-9.5047185950
31
0.0000000000
11
-6.2694310587
21
-10.2277078721
31
0.0000000000
11
-6.0745138373
21
-10.9790731526
31
0.0000000000
11
-5.9859835178
21
-11.2304997673
31
0.0000000000
0
SPLINE
5
2AB
100
AcDbEntity
8
0
100
AcDbSpline
62
9
6
CONTINUOUS
70
0
71
3
72
12
73
8
74
6
42
0.0000001000
43
0.0000001000
44
0.0000000001
12
1.2166429996
22
-3.2422925577
32
0.0000000000
13
2.6956502226
23
-2.1752646970
33
0.0000000000
40
0.0000000000
40
0.0000000000
40
0.0000000000
40
0.0000000000
40
0.1565582387
40
0.3937511423
40
0.6286174752
40
0.8555295673
40
1.0000000000
40
1.0000000000
40
1.0000000000
40
1.0000000000
10
-5.9859835178
20
-11.2304997673
30
0.0000000000
10
-5.9224916894
20
-11.3997023047
30
0.0000000000
10
-5.7453020478
20
-11.8186800959
30
0.0000000000
10
-5.3983666307
20
-12.4573610932
30
0.0000000000
10
-4.9335783268
20
-13.1185367573
30
0.0000000000
10
-4.4647352424
20
-13.6400269119
30
0.0000000000
10
-4.1444970103
20
-13.9257970673
30
0.0000000000
10
-4.0146830923
20
-14.0305508779
30
0.0000000000
11
-5.9859835178
21
-11.2304997673
31
0.0000000000
11
-5.7752449570
21
-11.7298877917
31
0.0000000000
11
-5.3836082071
21
-12.4513724406
31
0.0000000000
11
-4.9153411892
21
-13.1158193081
31
0.0000000000
11
-4.3886486930
21
-13.6983656540
31
0.0000000000
11
-4.0146830923
21
-14.0305508779
31
0.0000000000
0
SPLINE
5
2AC
100
AcDbEntity
8
0
100
AcDbSpline
62
9
6
CONTINUOUS
70
0
71
3
72
8
73
4
74
2
42
0.0000001000
43
0.0000001000
44
0.0000000001
12
0.1870254828
22
-0.1509208898
32
0.0000000000
13
0.1943550919
23
-0.1416101511
33
0.0000000000
40
0.0000000000
40
0.0000000000
40
0.0000000000
40
0.0000000000
40
1.0000000000
40
1.0000000000
40
1.0000000000
40
1.0000000000
10
-4.0146830923
20
-14.0305508779
30
0.0000000000
10
-3.9523412647
20
-14.0808578412
30
0.0000000000
10
-3.8887911697
20
-14.1296858169
30
0.0000000000
10
-3.8240061390
20
-14.1768892006
30
0.0000000000
11
-4.0146830923
21
-14.0305508779
31
0.0000000000
11
-3.8240061390
21
-14.1768892006
31
0.0000000000
0
SPLINE
5
2AD
100
AcDbEntity
8
0
100
AcDbSpline
62
9
6
CONTINUOUS
70
0
71
3
72
8
73
4
74
2
42
0.0000001000
43
0.0000001000
44
0.0000000001
12
0.0268883426
22
-0.0157788503
32
0.0000000000
13
0.0270090935
23
-0.0155628485
33
0.0000000000
40
0.0000000000
40
0.0000000000
40
0.0000000000
40
0.0000000000
40
1.0000000000
40
1.0000000000
40
1.0000000000
40
1.0000000000
10
-3.4673994605
20
-14.4113670734
30
0.0000000000
10
-3.4584366796
20
-14.4166266901
30
0.0000000000
10
-3.4494537508
20
-14.4218506122
30
0.0000000000
10
-3.4404507196
20
-14.4270382283
30
0.0000000000
11
-3.4673994605
21
-14.4113670734
31
0.0000000000
11
-3.4404507196
21
-14.4270382283
31
0.0000000000
0
SPLINE
5
2AE
100
AcDbEntity
8
0
100
AcDbSpline
62
9
6
CONTINUOUS
70
0
71
3
72
8
73
4
74
2
42
0.0000001000
43
0.0000001000
44
0.0000000001
12
0.1075472236
22
0.0508904246
32
0.0000000000
13
0.1031373818
23
0.0592726846
33
0.0000000000
40
0.0000000000
40
0.0000000000
40
0.0000000000
40
0.0000000000
40
1.0000000000
40
1.0000000000
40
1.0000000000
40
1.0000000000
10
1.6407215226
20
-16.2174432250
30
0.0000000000
10
1.6765705972
20
-16.2004797501
30
0.0000000000
10
1.7117480421
20
-16.1820934406
30
0.0000000000
10
1.7461271694
20
-16.1623358790
30
0.0000000000
11
1.6407215226
21
-16.2174432250
31
0.0000000000
11
1.7461271694
21
-16.1623358790
31
0.0000000000
0
SPLINE
5
2AF
100
AcDbEntity
8
0
100
AcDbSpline
62
9
6
CONTINUOUS
70
0
71
3
72
8
73
4
74
2
42
0.0000001000
43
0.0000001000
44
0.0000000001
12
0.1426567262
22
0.0819843105
32
0.0000000000
13
0.1324871080
23
0.0973153943
33
0.0000000000
40
0.0000000000
40
0.0000000000
40
0.0000000000
40
0.0000000000
40
1.0000000000
40
1.0000000000
40
1.0000000000
40
1.0000000000
10
1.7461271694
20
-16.1623358790
30
0.0000000000
10
1.7936794115
20
-16.1350077755
30
0.0000000000
10
1.8397043405
20
-16.1050562414
30
0.0000000000
10
1.8838667098
20
-16.0726177766
30
0.0000000000
11
1.7461271694
21
-16.1623358790
31
0.0000000000
11
1.8838667098
21
-16.0726177766
31
0.0000000000
0
SPLINE
5
2B0
100
AcDbEntity
8
0
100
AcDbSpline
62
9
6
CONTINUOUS
70
0
71
3
72
8
73
4
74
2
42
0.0000001000
43
0.0000001000
44
0.0000000001
12
0.1338661503
22
0.0983283385
32
0.0000000000
13
0.1222148867
23
0.1125011713
33
0.0000000000
40
0.0000000000
40
0.0000000000
40
0.0000000000
40
0.0000000000
40
1.0000000000
40
1.0000000000
40
1.0000000000
40
1.0000000000
10
1.8838667098
20
-16.0726177766
30
0.0000000000
10
1.9284887599
20
-16.0398416638
30
0.0000000000
10
1.9712092742
20
-16.0045265785
30
0.0000000000
10
2.0119475697
20
-15.9670261881
30
0.0000000000
11
1.8838667098
21
-16.0726177766
31
0.0000000000
11
2.0119475697
21
-15.9670261881
31
0.0000000000
0
SPLINE
5
2B1
100
AcDbEntity
8
0
100
AcDbSpline
62
9
6
CONTINUOUS
70
0
71
3
72
18
73
14
74
12
42
0.0000001000
43
0.0000001000
44
0.0000000001
12
3.3003767162
22
7.0712719578
32
0.0000000000
13
-6.9572275139
23
3.4791062491
33
0.0000000000
40
0.0000000000
40
0.0000000000
40
0.0000000000
40
0.0000000000
40
0.0244250158
40
0.1034083724
40
0.1911808100
40
0.2870240006
40
0.3892799537
40
0.4956848330
40
0.6036489259
40
0.7104531115
40
0.8135864757
40
0.9108070915
40
1.0000000000
40
1.0000000000
40
1.0000000000
40
1.0000000000
10
2.4189989620
20
-15.3982859833
30
0.0000000000
10
2.4458695465
20
-15.3407140068
30
0.0000000000
10
2.5490028762
20
-15.0919484131
30
0.0000000000
10
2.6620962200
20
-14.6055505210
30
0.0000000000
10
2.6888614027
20
-13.9219011310
30
0.0000000000
10
2.6025307866
20
-13.1831702932
30
0.0000000000
10
2.4066818787
20
-12.4161367390
30
0.0000000000
10
2.1084644512
20
-11.6492255490
30
0.0000000000
10
1.7186777635
20
-10.9112499253
30
0.0000000000
10
1.2514193091
20
-10.2299172944
30
0.0000000000
10
0.7234134930
20
-9.6307555901
30
0.0000000000
10
0.1546939257
20
-9.1371018149
30
0.0000000000
10
-0.2570641407
20
-8.8786516656
30
0.0000000000
10
-0.4639092598
20
-8.7752144638
30
0.0000000000
11
2.4189989620
21
-15.3982859833
31
0.0000000000
11
2.4922485819
21
-15.2223982213
31
0.0000000000
11
2.6385799489
21
-14.6256960857
31
0.0000000000
11
2.6710916457
21
-13.9437206699
31
0.0000000000
11
2.5886466438
21
-13.2027639211
31
0.0000000000
11
2.3943825966
21
-12.4314393138
31
0.0000000000
11
2.0955793212
21
-11.6595721215
31
0.0000000000
11
1.7033658859
21
-10.9169717361
31
0.0000000000
11
1.2324843339
21
-10.2325126440
31
0.0000000000
11
0.7002338688
21
-9.6322679729
31
0.0000000000
11
0.1265204032
21
-9.1395635203
31
0.0000000000
11
-0.4639092598
21
-8.7752144638
31
0.0000000000
0
SPLINE
5
2B2
100
AcDbEntity
8
0
100
AcDbSpline
62
9
6
CONTINUOUS
70
0
71
3
72
10
73
6
74
4
42
0.0000001000
43
0.0000001000
44
0.0000000001
12
-1.3855129132
22
0.5845721002
32
0.0000000000
13
-1.4374517333
23
-0.4520684663
33
0.0000000000
40
0.0000000000
40
0.0000000000
40
0.0000000000
40
0.0000000000
40
0.2744034588
40
0.6529734048
40
1.0000000000
40
1.0000000000
40
1.0000000000
40
1.0000000000
10
-3.6307720768
20
-7.1994532839
30
0.0000000000
10
-3.7575019220
20
-7.1459837485
30
0.0000000000
10
-4.0675299392
20
-7.0381408880
30
0.0000000000
10
-4.5677241690
20
-6.9639871330
30
0.0000000000
10
-4.9332197765
20
-7.0140711518
30
0.0000000000
10
-5.0994977701
20
-7.0663644120
30
0.0000000000
11
-3.6307720768
21
-7.1994532839
31
0.0000000000
11
-4.0210012746
21
-7.0658386100
31
0.0000000000
11
-4.5841978464
21
-6.9899277533
31
0.0000000000
11
-5.0994977701
21
-7.0663644120
31
0.0000000000
0
SPLINE
5
2B3
100
AcDbEntity
8
0
100
AcDbSpline
62
9
6
CONTINUOUS
70
0
71
3
72
8
73
4
74
2
42
0.0000001000
43
0.0000001000
44
0.0000000001
12
-0.1190504818
22
-0.0506058849
32
0.0000000000
13
-0.1144276794
23
-0.0603579604
33
0.0000000000
40
0.0000000000
40
0.0000000000
40
0.0000000000
40
0.0000000000
40
1.0000000000
40
1.0000000000
40
1.0000000000
40
1.0000000000
10
-5.2406268228
20
-7.1184218551
30
0.0000000000
10
-5.2803103167
20
-7.1352904834
30
0.0000000000
10
-5.3192983655
20
-7.1538163201
30
0.0000000000
10
-5.3574409253
20
-7.1739356402
30
0.0000000000
11
-5.2406268228
21
-7.1184218551
31
0.0000000000
11
-5.3574409253
21
-7.1739356402
31
0.0000000000
0
SPLINE
5
2B4
100
AcDbEntity
8
0
100
AcDbSpline
62
9
6
CONTINUOUS
70
0
71
3
72
8
73
4
74
2
42
0.0000001000
43
0.0000001000
44
0.0000000001
12
0.1472518016
22
0.0643123482
32
0.0000000000
13
0.1392659476
23
0.0801093135
33
0.0000000000
40
0.0000000000
40
0.0000000000
40
0.0000000000
40
0.0000000000
40
1.0000000000
40
1.0000000000
40
1.0000000000
40
1.0000000000
10
1.4868215672
20
-16.1854943748
30
0.0000000000
10
1.5359055010
20
-16.1640569254
30
0.0000000000
10
1.5838228636
20
-16.1399198297
30
0.0000000000
10
1.6302448462
20
-16.1132167252
30
0.0000000000
11
1.4868215672
21
-16.1854943748
31
0.0000000000
11
1.6302448462
21
-16.1132167252
31
0.0000000000
0
SPLINE
5
2B5
100
AcDbEntity
8
0
100
AcDbSpline
62
9
6
CONTINUOUS
70
0
71
3
72
8
73
4
74
2
42
0.0000001000
43
0.0000001000
44
0.0000000001
12
0.1389489618
22
0.0799269752
32
0.0000000000
13
0.1290377725
23
0.0948548399
33
0.0000000000
40
0.0000000000
40
0.0000000000
40
0.0000000000
40
0.0000000000
40
1.0000000000
40
1.0000000000
40
1.0000000000
40
1.0000000000
10
1.6302448462
20
-16.1132167252
30
0.0000000000
10
1.6765611668
20
-16.0865744002
30
0.0000000000
10
1.7213889069
20
-16.0573777341
30
0.0000000000
10
1.7644014977
20
-16.0257594541
30
0.0000000000
11
1.6302448462
21
-16.1132167252
31
0.0000000000
11
1.7644014977
21
-16.0257594541
31
0.0000000000
0
SPLINE
5
2B6
100
AcDbEntity
8
0
100
AcDbSpline
62
9
6
CONTINUOUS
70
0
71
3
72
8
73
4
74
2
42
0.0000001000
43
0.0000001000
44
0.0000000001
12
-0.1097444103
22
-0.1241001440
32
0.0000000000
13
-0.0972430979
23
-0.1339327877
33
0.0000000000
40
0.0000000000
40
0.0000000000
40
0.0000000000
40
0.0000000000
40
1.0000000000
40
1.0000000000
40
1.0000000000
40
1.0000000000
10
-5.8146609727
20
-7.6436263081
30
0.0000000000
10
-5.8512424428
20
-7.6849930228
30
0.0000000000
10
-5.8857847004
20
-7.7281669142
30
0.0000000000
10
-5.9181990663
20
-7.7728111767
30
0.0000000000
11
-5.8146609727
21
-7.6436263081
31
0.0000000000
11
-5.9181990663
21
-7.7728111767
31
0.0000000000
0
SPLINE
5
2B7
100
AcDbEntity
8
0
100
AcDbSpline
62
9
6
CONTINUOUS
70
0
71
3
72
8
73
4
74
2
42
0.0000001000
43
0.0000001000
44
0.0000000001
12
0.1010479097
22
0.1412414581
32
0.0000000000
13
0.0869867784
23
0.1501179701
33
0.0000000000
40
0.0000000000
40
0.0000000000
40
0.0000000000
40
0.0000000000
40
1.0000000000
40
1.0000000000
40
1.0000000000
40
1.0000000000
10
2.1092870310
20
-15.6726031000
30
0.0000000000
10
2.1429696675
20
-15.6255226140
30
0.0000000000
10
2.1742410746
20
-15.5768088866
30
0.0000000000
10
2.2032366675
20
-15.5267695632
30
0.0000000000
11
2.1092870310
21
-15.6726031000
31
0.0000000000
11
2.2032366675
21
-15.5267695632
31
0.0000000000
0
SPLINE
5
2B8
100
AcDbEntity
8
0
100
AcDbSpline
62
9
6
CONTINUOUS
70
0
71
3
72
8
73
4
74
2
42
0.0000001000
43
0.0000001000
44
0.0000000001
12
-0.0848381731
22
-0.0487637390
32
0.0000000000
13
-0.0814285060
23
-0.0541888873
33
0.0000000000
40
0.0000000000
40
0.0000000000
40
0.0000000000
40
0.0000000000
40
1.0000000000
40
1.0000000000
40
1.0000000000
40
1.0000000000
10
-5.4289035241
20
-7.3266920981
30
0.0000000000
10
-5.4571829151
20
-7.3429466777
30
0.0000000000
10
-5.4849281759
20
-7.3601199341
30
0.0000000000
10
-5.5120710112
20
-7.3781828965
30
0.0000000000
11
-5.4289035241
21
-7.3266920981
31
0.0000000000
11
-5.5120710112
21
-7.3781828965
31
0.0000000000
0
SPLINE
5
2B9
100
AcDbEntity
8
0
100
AcDbSpline
62
9
6
CONTINUOUS
70
0
71
3
72
8
73
4
74
2
42
0.0000001000
43
0.0000001000
44
0.0000000001
12
-0.0544268280
22
-0.0362198620
32
0.0000000000
13
-0.0527508132
23
-0.0385788129
33
0.0000000000
40
0.0000000000
40
0.0000000000
40
0.0000000000
40
0.0000000000
40
1.0000000000
40
1.0000000000
40
1.0000000000
40
1.0000000000
10
-5.5120710112
20
-7.3781828965
30
0.0000000000
10
-5.5302132872
20
-7.3902561839
30
0.0000000000
10
-5.5480864244
20
-7.4027269552
30
0.0000000000
10
-5.5656700288
20
-7.4155865595
30
0.0000000000
11
-5.5120710112
21
-7.3781828965
31
0.0000000000
11
-5.5656700288
21
-7.4155865595
31
0.0000000000
0
SPLINE
5
2BA
100
AcDbEntity
8
ASSI
100
AcDbSpline
62
9
6
CONTINUOUS
70
0
71
3
72
26
73
22
74
20
42
0.0000001000
43
0.0000001000
44
0.0000000001
12
-0.1429863672
22
3.5530848547
32
2.2164809325
13
-0.0953487140
23
3.0178574371
33
1.8524600151
40
0.0000000000
40
0.0000000000
40
0.0000000000
40
0.0000000000
40
0.2500000000
40
0.3750000000
40
0.5000000000
40
0.5625000000
40
0.6250000000
40
0.6562500000
40
0.6875000000
40
0.7187500000
40
0.7343750000
40
0.7421875000
40
0.7500000000
40
0.7578125000
40
0.7656250000
40
0.7812500000
40
0.8125000000
40
0.8437500000
40
0.8750000000
40
0.9375000000
40
1.0000000000
40
1.0000000000
40
1.0000000000
40
1.0000000000
10
-1.7229902357
20
-13.4837783194
30
-6.6246198034
10
-1.7349057663
20
-13.1876879148
30
-6.4399130590
10
-1.7536772729
20
-12.7440520379
30
-6.1621042973
10
-1.7751131055
20
-12.1505386156
30
-5.7946871957
10
-1.7895385284
20
-11.7801603575
30
-5.5641921650
10
-1.7995098113
20
-11.4829951670
30
-5.3811099166
10
-1.8059214520
20
-11.2973547259
30
-5.2665268330
10
-1.8110120151
20
-11.1488472920
30
-5.1749079501
10
-1.8148384325
20
-11.0373992778
30
-5.1061450429
10
-1.8180149424
20
-10.9447486788
30
-5.0489852769
10
-1.8202603423
20
-10.8794549971
30
-5.0086951878
10
-1.8215096342
20
-10.8428288049
30
-4.9861064878
10
-1.8225417435
20
-10.8134309295
30
-4.9679418393
10
-1.8232101883
20
-10.7914037377
30
-4.9544525806
10
-1.8242282983
20
-10.7594631716
30
-4.9348360740
10
-1.8259508889
20
-10.7047650469
30
-4.9012670208
10
-1.8284426318
20
-10.6259986091
30
-4.8529139798
10
-1.8314194970
20
-10.5317469507
30
-4.7950603716
10
-1.8353932723
20
-10.4059844035
30
-4.7178628107
10
-1.8403588950
20
-10.2488135723
30
-4.6213863817
10
-1.8443318797
20
-10.1230670474
30
-4.5441989841
10
-1.8463183113
20
-10.0601950175
30
-4.5056060671
11
-1.7229902357
21
-13.4837783194
31
-6.6246198034
11
-1.7587368275
21
-12.5955071057
31
-6.0704995703
11
-1.7753187110
21
-12.1506521418
31
-5.7945153273
11
-1.7919005945
21
-11.7057971779
31
-5.5185310843
11
-1.7995457291
21
-11.4830127276
31
-5.3810785809
11
-1.8071908637
21
-11.2602282773
31
-5.2436260776
11
-1.8110134309
21
-11.1488360522
31
-5.1748998259
11
-1.8148359982
21
-11.0374438271
31
-5.1061735743
11
-1.8186585655
21
-10.9260516019
31
-5.0374473226
11
-1.8205698491
21
-10.8703554893
31
-5.0030841968
11
-1.8215254910
21
-10.8425074331
31
-4.9859026338
11
-1.8224811328
21
-10.8146593768
31
-4.9687210709
11
-1.8232260446
21
-10.7910823656
31
-4.9542487271
11
-1.8239709564
21
-10.7675053543
31
-4.9397763832
11
-1.8254607801
21
-10.7203513319
31
-4.9108316955
11
-1.8284404274
21
-10.6260432870
31
-4.8529423200
11
-1.8314200747
21
-10.5317352420
31
-4.7950529445
11
-1.8343997220
21
-10.4374271971
31
-4.7371635690
11
-1.8403590167
21
-10.2488111073
31
-4.6213848181
11
-1.8463183113
21
-10.0601950175
31
-4.5056060671
0
SPLINE
5
2BB
100
AcDbEntity
8
ASSI
100
AcDbSpline
62
9
6
CONTINUOUS
70
0
71
3
72
26
73
22
74
20
42
0.0000001000
43
0.0000001000
44
0.0000000001
12
0.1135856464
22
-3.5693457648
32
-2.1919201451
13
0.1215543220
23
-3.0033636757
33
-1.8743516677
40
0.0000000000
40
0.0000000000
40
0.0000000000
40
0.0000000000
40
0.2500000000
40
0.3750000000
40
0.5000000000
40
0.5625000000
40
0.6250000000
40
0.6562500000
40
0.6875000000
40
0.7187500000
40
0.7343750000
40
0.7421875000
40
0.7500000000
40
0.7578125000
40
0.7656250000
40
0.7812500000
40
0.8125000000
40
0.8437500000
40
0.8750000000
40
0.9375000000
40
1.0000000000
40
1.0000000000
40
1.0000000000
40
1.0000000000
10
-2.0806881473
20
-9.9430100823
30
-4.7085762879
10
-2.0712226768
20
-10.2404555627
30
-4.8912363000
10
-2.0579228900
20
-10.6871177308
30
-5.1644740940
10
-2.0365961649
20
-11.2806914981
30
-5.5318000493
10
-2.0242949222
20
-11.6522445949
30
-5.7605205813
10
-2.0128852418
20
-11.9486142385
30
-5.9448044389
10
-2.0059329664
20
-12.1339556661
30
-6.0598391581
10
-2.0003342580
20
-12.2821820558
30
-6.1518825357
10
-1.9961386261
20
-12.3934258652
30
-6.2209538775
10
-1.9926463050
20
-12.4859017958
30
-6.2783774660
10
-1.9901917114
20
-12.5510797770
30
-6.3188423114
10
-1.9888049642
20
-12.5876299456
30
-6.3415458389
10
-1.9877201191
20
-12.6169986540
30
-6.3597545418
10
-1.9868064738
20
-12.6388902306
30
-6.3734486362
10
-1.9855285637
20
-12.6706871069
30
-6.3932821748
10
-1.9833200440
20
-12.7251164745
30
-6.4272571638
10
-1.9801504695
20
-12.8035080181
30
-6.4761764518
10
-1.9763532067
20
-12.8973059322
30
-6.5347154042
10
-1.9712880139
20
-13.0224648397
30
-6.6128247141
10
-1.9649572743
20
-13.1788806540
30
-6.7104415349
10
-1.9598924536
20
-13.3040233077
30
-6.7885410309
10
-1.9573600719
20
-13.3665933843
30
-6.8275900240
11
-2.0806881473
21
-9.9430100823
31
-4.7085762879
11
-2.0522917357
21
-10.8353465235
31
-5.2565563242
11
-2.0368017570
21
-11.2808053966
31
-5.5316284113
11
-2.0213117783
21
-11.7262642697
31
-5.8067004983
11
-2.0129209968
21
-11.9486363186
31
-5.9447759005
11
-2.0045302153
21
-12.1710083675
31
-6.0828513027
11
-2.0003348246
21
-12.2821943920
31
-6.1518890038
11
-1.9961394339
21
-12.3933804164
31
-6.2209267049
11
-1.9919440431
21
-12.5045664409
31
-6.2899644060
11
-1.9898463478
21
-12.5601594531
31
-6.3244832565
11
-1.9887975001
21
-12.5879559592
31
-6.3417426818
11
-1.9877486524
21
-12.6157524653
31
-6.3590021071
11
-1.9867990093
21
-12.6392162441
31
-6.3736454795
11
-1.9858493661
21
-12.6626800228
31
-6.3882888519
11
-1.9839500798
21
-12.7096075802
31
-6.4175755967
11
-1.9801515073
21
-12.8034626951
31
-6.4761490863
11
-1.9763529347
21
-12.8973178099
31
-6.5347225759
11
-1.9725543622
21
-12.9911729248
31
-6.5932960655
11
-1.9649572170
21
-13.1788831545
31
-6.7104430448
11
-1.9573600719
21
-13.3665933843
31
-6.8275900240
0
SPLINE
5
2BC
100
AcDbEntity
8
ASSI
100
AcDbSpline
62
9
6
CONTINUOUS
70
0
71
3
72
29
73
25
74
23
42
0.0000001000
43
0.0000001000
44
0.0000000001
12
-0.1060918369
22
2.6654551736
32
1.6614055632
13
-0.1370458724
23
4.1443087008
33
2.5509646867
40
0.0000000000
40
0.0000000000
40
0.0000000000
40
0.0000000000
40
0.1250000000
40
0.2500000000
40
0.3750000000
40
0.4375000000
40
0.5000000000
40
0.5625000000
40
0.5937500000
40
0.6250000000
40
0.6406250000
40
0.6562500000
40
0.6640625000
40
0.6679687500
40
0.6718750000
40
0.6796875000
40
0.6875000000
40
0.7031250000
40
0.7187500000
40
0.7500000000
40
0.7812500000
40
0.8125000000
40
0.8750000000
40
1.0000000000
40
1.0000000000
40
1.0000000000
40
1.0000000000
10
-1.8467986128
20
-13.2930881430
30
-6.6448788775
10
-1.8512191060
20
-13.1820275107
30
-6.5756536457
10
-1.8600518093
20
-12.9599017107
30
-6.4372101279
10
-1.8733505629
20
-12.6267402242
30
-6.2295031762
10
-1.8842879034
20
-12.3490262790
30
-6.0565356021
10
-1.8923922339
20
-12.1264930957
30
-5.9186979341
10
-1.8985569151
20
-11.9596490816
30
-5.8152521370
10
-1.9036750140
20
-11.8205770033
30
-5.7290489635
10
-1.9077722014
20
-11.7093763638
30
-5.6601162199
10
-1.9103357408
20
-11.6397511062
30
-5.6169579384
10
-1.9123791818
20
-11.5843363032
30
-5.5826046245
10
-1.9136734099
20
-11.5490509726
30
-5.5607381834
10
-1.9145451235
20
-11.5256560747
30
-5.5462245647
10
-1.9150968300
20
-11.5102460277
30
-5.5366905142
10
-1.9158503979
20
-11.4871452222
30
-5.5224831127
10
-1.9167232408
20
-11.4609025168
30
-5.5063240074
10
-1.9181584152
20
-11.4174425764
30
-5.4795752025
10
-1.9199391576
20
-11.3636215326
30
-5.4464453841
10
-1.9227957374
20
-11.2772262428
30
-5.3932665461
10
-1.9263639260
20
-11.1693287521
30
-5.3268517115
10
-1.9306468377
20
-11.0398104093
30
-5.2471287809
10
-1.9363570080
20
-10.8671337143
30
-5.1408403079
10
-1.9463499836
20
-10.5649427346
30
-4.9548313702
10
-1.9549153303
20
-10.3059242138
30
-4.7953965469
10
-1.9606255750
20
-10.1332446846
30
-4.6891063517
11
-1.8467986128
21
-13.2930881430
31
-6.6448788775
11
-1.8600600924
21
-12.9599062463
31
-6.4372031821
11
-1.8733215721
21
-12.6267243496
31
-6.2295274867
11
-1.8862601908
21
-12.2933628142
31
-6.0221208844
11
-1.8924066394
21
-12.1265024079
31
-5.9186866764
11
-1.8985530880
21
-11.9596420016
31
-5.8152524685
11
-1.9046995366
21
-11.7927815953
31
-5.7118182605
11
-1.9077727608
21
-11.7093513922
31
-5.6601011565
11
-1.9108459851
21
-11.6259211890
31
-5.6083840525
11
-1.9123825973
21
-11.5842060875
31
-5.5825255005
11
-1.9139192094
21
-11.5424909859
31
-5.5566669485
11
-1.9146875155
21
-11.5216334351
31
-5.5437376726
11
-1.9151220627
21
-11.5092846829
31
-5.5361063453
11
-1.9156573981
21
-11.4930959770
31
-5.5261416395
11
-1.9167280690
21
-11.4607185653
31
-5.5062122279
11
-1.9177987399
21
-11.4283411536
31
-5.4862828162
11
-1.9199400816
21
-11.3635863301
31
-5.4464239930
11
-1.9220814234
21
-11.2988315067
31
-5.4065651698
11
-1.9263641069
21
-11.1693218598
31
-5.3268475233
11
-1.9306467904
21
-11.0398122129
31
-5.2471298769
11
-1.9349294739
21
-10.9103025660
31
-5.1674122304
11
-1.9434948409
21
-10.6512832722
31
-5.0079769375
11
-1.9606255750
21
-10.1332446846
31
-4.6891063517
0
SPLINE
5
2BD
100
AcDbEntity
8
0
100
AcDbSpline
62
9
6
CONTINUOUS
70
0
71
3
72
9
73
5
74
3
42
0.0000001000
43
0.0000001000
44
0.0000000001
12
0.2867983489
22
0.1648219859
32
0.0000000000
13
0.2431707584
23
0.2238433949
33
0.0000000000
40
0.0000000000
40
0.0000000000
40
0.0000000000
40
0.0000000000
40
0.4974112532
40
1.0000000000
40
1.0000000000
40
1.0000000000
40
1.0000000000
10
1.7461271694
20
-16.1623358790
30
0.0000000000
10
1.7936794115
20
-16.1350077755
30
0.0000000000
10
1.8862083374
20
-16.0747929454
30
0.0000000000
10
1.9712092742
20
-16.0045265785
30
0.0000000000
10
2.0119475697
20
-15.9670261881
30
0.0000000000
11
1.7461271694
21
-16.1623358790
31
0.0000000000
11
1.8838667098
21
-16.0726177766
31
0.0000000000
11
2.0119475697
21
-15.9670261881
31
0.0000000000
0
SPLINE
5
2BE
100
AcDbEntity
8
0
100
AcDbSpline
62
9
6
CONTINUOUS
70
0
71
3
72
8
73
4
74
2
42
0.0000001000
43
0.0000001000
44
0.0000000001
12
0.1242148224
22
0.1143421509
32
0.0000000000
13
0.1116749520
23
0.1267726735
33
0.0000000000
40
0.0000000000
40
0.0000000000
40
0.0000000000
40
0.0000000000
40
1.0000000000
40
1.0000000000
40
1.0000000000
40
1.0000000000
10
2.0119475697
20
-15.9670261881
30
0.0000000000
10
2.0533525106
20
-15.9289121378
30
0.0000000000
10
2.0927098274
20
-15.8885406761
30
0.0000000000
10
2.1299348114
20
-15.8462831182
30
0.0000000000
11
2.0119475697
21
-15.9670261881
31
0.0000000000
11
2.1299348114
21
-15.8462831182
31
0.0000000000
0
SPLINE
5
2BF
100
AcDbEntity
8
0
100
AcDbSpline
62
9
6
CONTINUOUS
70
0
71
3
72
8
73
4
74
2
42
0.0000001000
43
0.0000001000
44
0.0000000001
12
0.1143788902
22
0.1298421665
32
0.0000000000
13
0.1006848044
23
0.1405165492
33
0.0000000000
40
0.0000000000
40
0.0000000000
40
0.0000000000
40
0.0000000000
40
1.0000000000
40
1.0000000000
40
1.0000000000
40
1.0000000000
10
2.1299348114
20
-15.8462831182
30
0.0000000000
10
2.1680611082
20
-15.8030023961
30
0.0000000000
10
2.2039505634
20
-15.7577431376
30
0.0000000000
10
2.2375121649
20
-15.7109042878
30
0.0000000000
11
2.1299348114
21
-15.8462831182
31
0.0000000000
11
2.2375121649
21
-15.7109042878
31
0.0000000000
0
SPLINE
5
2C0
100
AcDbEntity
8
0
100
AcDbSpline
62
9
6
CONTINUOUS
70
0
71
3
72
8
73
4
74
2
42
0.0000001000
43
0.0000001000
44
0.0000000001
12
0.2109927838
22
0.2944632812
32
0.0000000000
13
0.1531427414
23
0.3281182925
33
0.0000000000
40
0.0000000000
40
0.0000000000
40
0.0000000000
40
0.0000000000
40
1.0000000000
40
1.0000000000
40
1.0000000000
40
1.0000000000
10
2.2375121649
20
-15.7109042878
30
0.0000000000
10
2.3078430928
20
-15.6127498608
30
0.0000000000
10
2.3679513816
20
-15.5076587474
30
0.0000000000
10
2.4189989620
20
-15.3982859833
30
0.0000000000
11
2.2375121649
21
-15.7109042878
31
0.0000000000
11
2.4189989620
21
-15.3982859833
31
0.0000000000
0
SPLINE
5
2C1
100
AcDbEntity
8
0
100
AcDbSpline
62
9
6
CONTINUOUS
70
0
71
3
72
8
73
4
74
2
42
0.0000001000
43
0.0000001000
44
0.0000000001
12
0.0806117535
22
0.1727159294
32
0.0000000000
13
0.0660569536
23
0.1786723581
33
0.0000000000
40
0.0000000000
40
0.0000000000
40
0.0000000000
40
0.0000000000
40
1.0000000000
40
1.0000000000
40
1.0000000000
40
1.0000000000
10
2.4189989620
20
-15.3982859833
30
0.0000000000
10
2.4458695465
20
-15.3407140068
30
0.0000000000
10
2.4702295973
20
-15.2819556740
30
0.0000000000
10
2.4922485819
20
-15.2223982213
30
0.0000000000
11
2.4189989620
21
-15.3982859833
31
0.0000000000
11
2.4922485819
21
-15.2223982213
31
0.0000000000
0
SPLINE
5
2C2
100
AcDbEntity
8
0
100
AcDbSpline
62
9
6
CONTINUOUS
70
0
71
3
72
8
73
4
74
2
42
0.0000001000
43
0.0000001000
44
0.0000000001
12
0.2136088659
22
0.5777741429
32
0.0000000000
13
0.0852170052
23
0.6094892564
33
0.0000000000
40
0.0000000000
40
0.0000000000
40
0.0000000000
40
0.0000000000
40
1.0000000000
40
1.0000000000
40
1.0000000000
40
1.0000000000
10
2.4922485819
20
-15.2223982213
30
0.0000000000
10
2.5634515372
20
-15.0298068404
30
0.0000000000
10
2.6101742805
20
-14.8288591711
30
0.0000000000
10
2.6385799489
20
-14.6256960857
30
0.0000000000
11
2.4922485819
21
-15.2223982213
31
0.0000000000
11
2.6385799489
21
-14.6256960857
31
0.0000000000
0
SPLINE
5
2C3
100
AcDbEntity
8
0
100
AcDbSpline
62
9
6
CONTINUOUS
70
0
71
3
72
10
73
6
74
4
42
0.0000001000
43
0.0000001000
44
0.0000000001
12
0.3084335875
22
2.2059793979
32
0.0000000000
13
-0.6771287925
23
2.1196074761
33
0.0000000000
40
0.0000000000
40
0.0000000000
40
0.0000000000
40
0.0000000000
40
0.3070344984
40
0.6423010896
40
1.0000000000
40
1.0000000000
40
1.0000000000
40
1.0000000000
10
2.6385799489
20
-14.6256960857
30
0.0000000000
10
2.6701465328
20
-14.3999254931
30
0.0000000000
10
2.6888614027
20
-13.9219011310
30
0.0000000000
10
2.6025307866
20
-13.1831702932
30
0.0000000000
10
2.4751186737
20
-12.6841664087
30
0.0000000000
10
2.3943825966
20
-12.4314393138
30
0.0000000000
11
2.6385799489
21
-14.6256960857
31
0.0000000000
11
2.6710916457
21
-13.9437206699
31
0.0000000000
11
2.5886466438
21
-13.2027639211
31
0.0000000000
11
2.3943825966
21
-12.4314393138
31
0.0000000000
0
SPLINE
5
2C4
100
AcDbEntity
8
0
100
AcDbSpline
62
9
6
CONTINUOUS
70
0
71
3
72
8
73
4
74
2
42
0.0000001000
43
0.0000001000
44
0.0000000001
12
-0.0832135611
22
0.2604823310
32
0.0000000000
13
-0.0936137614
23
0.2569042222
33
0.0000000000
40
0.0000000000
40
0.0000000000
40
0.0000000000
40
0.0000000000
40
1.0000000000
40
1.0000000000
40
1.0000000000
40
1.0000000000
10
2.3943825966
20
-12.4314393138
30
0.0000000000
10
2.3666447429
20
-12.3446118701
30
0.0000000000
10
2.3371401711
20
-12.2583570840
30
0.0000000000
10
2.3059355839
20
-12.1727223432
30
0.0000000000
11
2.3943825966
21
-12.4314393138
31
0.0000000000
11
2.3059355839
21
-12.1727223432
31
0.0000000000
0
SPLINE
5
2C5
100
AcDbEntity
8
0
100
AcDbSpline
62
9
6
CONTINUOUS
70
0
71
3
72
13
73
9
74
7
42
0.0000001000
43
0.0000001000
44
0.0000000001
12
-1.3777845568
22
3.7810538151
32
0.0000000000
13
-3.3682588736
23
2.2108366888
33
0.0000000000
40
0.0000000000
40
0.0000000000
40
0.0000000000
40
0.0000000000
40
0.1378457381
40
0.3466521895
40
0.5532153383
40
0.7526789859
40
0.9407071649
40
1.0000000000
40
1.0000000000
40
1.0000000000
40
1.0000000000
10
2.3059355839
20
-12.1727223432
30
0.0000000000
10
2.2426283409
20
-11.9989882919
30
0.0000000000
10
2.0658279488
20
-11.5685026806
30
0.0000000000
10
1.7186777635
20
-10.9112499253
30
0.0000000000
10
1.2514193091
20
-10.2299172944
30
0.0000000000
10
0.7234134930
20
-9.6307555901
30
0.0000000000
10
0.2696673448
20
-9.2368997921
30
0.0000000000
10
-0.0029706568
20
-9.0468164242
30
0.0000000000
10
-0.0695418629
20
-9.0031208324
30
0.0000000000
11
2.3059355839
21
-12.1727223432
31
0.0000000000
11
2.0955793212
21
-11.6595721215
31
0.0000000000
11
1.7033658859
21
-10.9169717361
31
0.0000000000
11
1.2324843339
21
-10.2325126440
31
0.0000000000
11
0.7002338688
21
-9.6322679729
31
0.0000000000
11
0.1265204032
21
-9.1395635203
31
0.0000000000
11
-0.0695418629
21
-9.0031208324
31
0.0000000000
0
SPLINE
5
2C6
100
AcDbEntity
8
0
100
AcDbSpline
62
9
6
CONTINUOUS
70
0
71
3
72
8
73
4
74
2
42
0.0000001000
43
0.0000001000
44
0.0000000001
12
-0.1937012548
22
0.1271404179
32
0.0000000000
13
-0.2004565634
23
0.1158201127
33
0.0000000000
40
0.0000000000
40
0.0000000000
40
0.0000000000
40
0.0000000000
40
1.0000000000
40
1.0000000000
40
1.0000000000
40
1.0000000000
10
-0.0695418629
20
-9.0031208324
30
0.0000000000
10
-0.1341089478
20
-8.9607406932
30
0.0000000000
10
-0.1998132092
20
-8.9201244237
30
0.0000000000
10
-0.2666320637
20
-8.8815177195
30
0.0000000000
11
-0.0695418629
21
-9.0031208324
31
0.0000000000
11
-0.2666320637
21
-8.8815177195
31
0.0000000000
0
SPLINE
5
2C7
100
AcDbEntity
8
0
100
AcDbSpline
62
9
6
CONTINUOUS
70
0
71
3
72
8
73
4
74
2
42
0.0000001000
43
0.0000001000
44
0.0000000001
12
-0.1941606811
22
0.1121824678
32
0.0000000000
13
-0.2003731894
23
0.1002007788
33
0.0000000000
40
0.0000000000
40
0.0000000000
40
0.0000000000
40
0.0000000000
40
1.0000000000
40
1.0000000000
40
1.0000000000
40
1.0000000000
10
-0.2666320637
20
-8.8815177195
30
0.0000000000
10
-0.3313522907
20
-8.8441235635
30
0.0000000000
10
-0.3971181966
20
-8.8086147234
30
0.0000000000
10
-0.4639092598
20
-8.7752144638
30
0.0000000000
11
-0.2666320637
21
-8.8815177195
31
0.0000000000
11
-0.4639092598
21
-8.7752144638
31
0.0000000000
0
SPLINE
5
2C8
100
AcDbEntity
8
0
100
AcDbSpline
62
9
6
CONTINUOUS
70
0
71
3
72
8
73
4
74
2
42
0.0000001000
43
0.0000001000
44
0.0000000001
12
0.0394117428
22
-0.0196999256
32
0.0000000000
13
0.0396751907
23
-0.0192176397
33
0.0000000000
40
0.0000000000
40
0.0000000000
40
0.0000000000
40
0.0000000000
40
1.0000000000
40
1.0000000000
40
1.0000000000
40
1.0000000000
10
-0.2766664629
20
-16.0163232008
30
0.0000000000
10
-0.2635292153
20
-16.0228898427
30
0.0000000000
10
-0.2503477113
20
-16.0293776336
30
0.0000000000
10
-0.2371226478
20
-16.0357835135
30
0.0000000000
11
-0.2766664629
21
-16.0163232008
31
0.0000000000
11
-0.2371226478
21
-16.0357835135
31
0.0000000000
0
SPLINE
5
2C9
100
AcDbEntity
8
0
100
AcDbSpline
62
9
6
CONTINUOUS
70
0
71
3
72
8
73
4
74
2
42
0.0000001000
43
0.0000001000
44
0.0000000001
12
0.1517915553
22
-0.0735239170
32
0.0000000000
13
0.1555000348
23
-0.0658161824
33
0.0000000000
40
0.0000000000
40
0.0000000000
40
0.0000000000
40
0.0000000000
40
1.0000000000
40
1.0000000000
40
1.0000000000
40
1.0000000000
10
-0.2371226478
20
-16.0357835135
30
0.0000000000
10
-0.1865254627
20
-16.0602914858
30
0.0000000000
10
-0.1352906883
20
-16.0836005135
30
0.0000000000
10
-0.0834573434
20
-16.1055392410
30
0.0000000000
11
-0.2371226478
21
-16.0357835135
31
0.0000000000
11
-0.0834573434
21
-16.1055392410
31
0.0000000000
0
SPLINE
5
2CA
100
AcDbEntity
8
0
100
AcDbSpline
62
9
6
CONTINUOUS
70
0
71
3
72
8
73
4
74
2
42
0.0000001000
43
0.0000001000
44
0.0000000001
12
0.3682804549
22
-0.1558765799
32
0.0000000000
13
0.3868702236
23
-0.1029302282
33
0.0000000000
40
0.0000000000
40
0.0000000000
40
0.0000000000
40
0.0000000000
40
1.0000000000
40
1.0000000000
40
1.0000000000
40
1.0000000000
10
-0.0834573434
20
-16.1055392410
30
0.0000000000
10
0.0393028083
20
-16.1574981009
30
0.0000000000
10
0.1654204265
20
-16.2017707537
30
0.0000000000
10
0.2943771677
20
-16.2360808298
30
0.0000000000
11
-0.0834573434
21
-16.1055392410
31
0.0000000000
11
0.2943771677
21
-16.2360808298
31
0.0000000000
0
SPLINE
5
2CB
100
AcDbEntity
8
0
100
AcDbSpline
62
9
6
CONTINUOUS
70
0
71
3
72
8
73
4
74
2
42
0.0000001000
43
0.0000001000
44
0.0000000001
12
0.1836685898
22
-0.0488666450
32
0.0000000000
13
0.1869577033
23
-0.0343510044
33
0.0000000000
40
0.0000000000
40
0.0000000000
40
0.0000000000
40
0.0000000000
40
1.0000000000
40
1.0000000000
40
1.0000000000
40
1.0000000000
10
0.2943771677
20
-16.2360808298
30
0.0000000000
10
0.3556000310
20
-16.2523697114
30
0.0000000000
10
0.4174628108
20
-16.2664131045
30
0.0000000000
10
0.4797820453
20
-16.2778634393
30
0.0000000000
11
0.2943771677
21
-16.2360808298
31
0.0000000000
11
0.4797820453
21
-16.2778634393
31
0.0000000000
0
SPLINE
5
2CC
100
AcDbEntity
8
0
100
AcDbSpline
62
9
6
CONTINUOUS
70
0
71
3
72
8
73
4
74
2
42
0.0000001000
43
0.0000001000
44
0.0000000001
12
0.1814602202
22
-0.0333409146
32
0.0000000000
13
0.1835370038
23
-0.0177306929
33
0.0000000000
40
0.0000000000
40
0.0000000000
40
0.0000000000
40
0.0000000000
40
1.0000000000
40
1.0000000000
40
1.0000000000
40
1.0000000000
10
0.4797820453
20
-16.2778634393
30
0.0000000000
10
0.5402687853
20
-16.2889770775
30
0.0000000000
10
0.6011855306
20
-16.2976479129
30
0.0000000000
10
0.6623645319
20
-16.3035581439
30
0.0000000000
11
0.4797820453
21
-16.2778634393
31
0.0000000000
11
0.6623645319
21
-16.3035581439
31
0.0000000000
0
SPLINE
5
2CD
100
AcDbEntity
8
0
100
AcDbSpline
62
9
6
CONTINUOUS
70
0
71
3
72
9
73
5
74
3
42
0.0000001000
43
0.0000001000
44
0.0000000001
12
0.5141602316
22
-0.0496707311
32
0.0000000000
13
0.5076092878
23
0.0993845172
33
0.0000000000
40
0.0000000000
40
0.0000000000
40
0.0000000000
40
0.0000000000
40
0.3434268815
40
1.0000000000
40
1.0000000000
40
1.0000000000
40
1.0000000000
10
0.6623645319
20
-16.3035581439
30
0.0000000000
10
0.7212233468
20
-16.3092442320
30
0.0000000000
10
0.8933169117
20
-16.3183608816
30
0.0000000000
10
1.0662020769
20
-16.3034133043
30
0.0000000000
10
1.1772962812
20
-16.2816622368
30
0.0000000000
11
0.6623645319
21
-16.3035581439
31
0.0000000000
11
0.8395198224
21
-16.3126678535
31
0.0000000000
11
1.1772962812
21
-16.2816622368
31
0.0000000000
0
SPLINE
5
2CE
100
AcDbEntity
8
0
100
AcDbSpline
62
9
6
CONTINUOUS
70
0
71
3
72
8
73
4
74
2
42
0.0000001000
43
0.0000001000
44
0.0000000001
12
0.1605957302
22
0.0314429414
32
0.0000000000
13
0.1563017670
23
0.0485973158
33
0.0000000000
40
0.0000000000
40
0.0000000000
40
0.0000000000
40
0.0000000000
40
1.0000000000
40
1.0000000000
40
1.0000000000
40
1.0000000000
10
1.1772962812
20
-16.2816622368
30
0.0000000000
10
1.2308281913
20
-16.2711812563
30
0.0000000000
10
1.2837987721
20
-16.2579286547
30
0.0000000000
10
1.3358993610
20
-16.2417295495
30
0.0000000000
11
1.1772962812
21
-16.2816622368
31
0.0000000000
11
1.3358993610
21
-16.2417295495
31
0.0000000000
0
SPLINE
5
2CF
100
AcDbEntity
8
0
100
AcDbSpline
62
9
6
CONTINUOUS
70
0
71
3
72
8
73
4
74
2
42
0.0000001000
43
0.0000001000
44
0.0000000001
12
0.1537806993
22
0.0478134659
32
0.0000000000
13
0.1477316789
23
0.0645219350
33
0.0000000000
40
0.0000000000
40
0.0000000000
40
0.0000000000
40
0.0000000000
40
1.0000000000
40
1.0000000000
40
1.0000000000
40
1.0000000000
10
1.3358993610
20
-16.2417295495
30
0.0000000000
10
1.3871595941
20
-16.2257917275
30
0.0000000000
10
1.4375776742
20
-16.2070016865
30
0.0000000000
10
1.4868215672
20
-16.1854943748
30
0.0000000000
11
1.3358993610
21
-16.2417295495
31
0.0000000000
11
1.4868215672
21
-16.1854943748
31
0.0000000000
0
SPLINE
5
2D0
100
AcDbEntity
8
0
100
AcDbSpline
62
9
6
CONTINUOUS
70
0
71
3
72
8
73
4
74
2
42
0.0000001000
43
0.0000001000
44
0.0000000001
12
0.2941684406
22
0.1284783138
32
0.0000000000
13
0.2583699203
23
0.1899260732
33
0.0000000000
40
0.0000000000
40
0.0000000000
40
0.0000000000
40
0.0000000000
40
1.0000000000
40
1.0000000000
40
1.0000000000
40
1.0000000000
10
1.4868215672
20
-16.1854943748
30
0.0000000000
10
1.5848777140
20
-16.1426682702
30
0.0000000000
10
1.6782781910
20
-16.0890681452
30
0.0000000000
10
1.7644014977
20
-16.0257594541
30
0.0000000000
11
1.4868215672
21
-16.1854943748
31
0.0000000000
11
1.7644014977
21
-16.0257594541
31
0.0000000000
0
SPLINE
5
2D1
100
AcDbEntity
8
0
100
AcDbSpline
62
9
6
CONTINUOUS
70
0
71
3
72
8
73
4
74
2
42
0.0000001000
43
0.0000001000
44
0.0000000001
12
0.1304001401
22
0.0958563076
32
0.0000000000
13
0.1190434552
23
0.1096604822
33
0.0000000000
40
0.0000000000
40
0.0000000000
40
0.0000000000
40
0.0000000000
40
1.0000000000
40
1.0000000000
40
1.0000000000
40
1.0000000000
10
1.7644014977
20
-16.0257594541
30
0.0000000000
10
1.8078682111
20
-15.9938073516
30
0.0000000000
10
1.8494812445
20
-15.9593822309
30
0.0000000000
10
1.8891623963
20
-15.9228287369
30
0.0000000000
11
1.7644014977
21
-16.0257594541
31
0.0000000000
11
1.8891623963
21
-15.9228287369
31
0.0000000000
0
SPLINE
5
2D2
100
AcDbEntity
8
0
100
AcDbSpline
62
9
6
CONTINUOUS
70
0
71
3
72
8
73
4
74
2
42
0.0000001000
43
0.0000001000
44
0.0000000001
12
0.1215464470
22
0.1119661889
32
0.0000000000
13
0.1092128815
23
0.1241785522
33
0.0000000000
40
0.0000000000
40
0.0000000000
40
0.0000000000
40
0.0000000000
40
1.0000000000
40
1.0000000000
40
1.0000000000
40
1.0000000000
10
1.8891623963
20
-15.9228287369
30
0.0000000000
10
1.9296778786
20
-15.8855066739
30
0.0000000000
10
1.9681793862
20
-15.8459657948
30
0.0000000000
10
2.0045836800
20
-15.8045729441
30
0.0000000000
11
1.8891623963
21
-15.9228287369
31
0.0000000000
11
2.0045836800
21
-15.8045729441
31
0.0000000000
0
SPLINE
5
2D3
100
AcDbEntity
8
0
100
AcDbSpline
62
9
6
CONTINUOUS
70
0
71
3
72
8
73
4
74
2
42
0.0000001000
43
0.0000001000
44
0.0000000001
12
0.1113293875
22
0.1265850875
32
0.0000000000
13
0.0979891416
23
0.1369660123
33
0.0000000000
40
0.0000000000
40
0.0000000000
40
0.0000000000
40
0.0000000000
40
1.0000000000
40
1.0000000000
40
1.0000000000
40
1.0000000000
10
2.0045836800
20
-15.8045729441
30
0.0000000000
10
2.0416934758
20
-15.7623779149
30
0.0000000000
10
2.0766239838
20
-15.7182584375
30
0.0000000000
10
2.1092870310
20
-15.6726031000
30
0.0000000000
11
2.0045836800
21
-15.8045729441
31
0.0000000000
11
2.1092870310
21
-15.6726031000
31
0.0000000000
0
SPLINE
5
2D4
100
AcDbEntity
8
0
100
AcDbSpline
62
9
6
CONTINUOUS
70
0
71
3
72
8
73
4
74
2
42
0.0000001000
43
0.0000001000
44
0.0000000001
12
0.3140202012
22
0.4389271508
32
0.0000000000
13
0.1864949846
23
0.5058655069
33
0.0000000000
40
0.0000000000
40
0.0000000000
40
0.0000000000
40
0.0000000000
40
1.0000000000
40
1.0000000000
40
1.0000000000
40
1.0000000000
10
2.1092870310
20
-15.6726031000
30
0.0000000000
10
2.2139604314
20
-15.5262940498
30
0.0000000000
10
2.2953476092
20
-15.3642121237
30
0.0000000000
10
2.3575126041
20
-15.1955902880
30
0.0000000000
11
2.1092870310
21
-15.6726031000
31
0.0000000000
11
2.3575126041
21
-15.1955902880
31
0.0000000000
0
SPLINE
5
2D5
100
AcDbEntity
8
0
100
AcDbSpline
62
9
6
CONTINUOUS
70
0
71
3
72
17
73
13
74
11
42
0.0000001000
43
0.0000001000
44
0.0000000001
12
2.5706368073
22
6.9728228581
32
0.0000000000
13
-6.6291976094
23
3.3155362197
33
0.0000000000
40
0.0000000000
40
0.0000000000
40
0.0000000000
40
0.0000000000
40
0.0809274371
40
0.1708828429
40
0.2691273082
40
0.3739570448
40
0.4830456156
40
0.5937338889
40
0.7032308860
40
0.8089596271
40
0.9086197771
40
1.0000000000
40
1.0000000000
40
1.0000000000
40
1.0000000000
10
2.3575126041
20
-15.1955902880
30
0.0000000000
10
2.4268576203
20
-15.0074927270
30
0.0000000000
10
2.5227773997
20
-14.5931305703
30
0.0000000000
10
2.5483068907
20
-13.9254816498
30
0.0000000000
10
2.4634102455
20
-13.2040078277
30
0.0000000000
10
2.2715974482
20
-12.4548678635
30
0.0000000000
10
1.9798665400
20
-11.7058346460
30
0.0000000000
10
1.5987762101
20
-10.9850626898
30
0.0000000000
10
1.1421067553
20
-10.3196185087
30
0.0000000000
10
0.6261877271
20
-9.7344527570
30
0.0000000000
10
0.0706879894
20
-9.2523992441
30
0.0000000000
10
-0.3314294392
20
-9.0000648037
30
0.0000000000
10
-0.5333552909
20
-8.8990733241
30
0.0000000000
11
2.3575126041
21
-15.1955902880
31
0.0000000000
11
2.4998323500
21
-14.6128771420
31
0.0000000000
11
2.5309848863
21
-13.9468479602
31
0.0000000000
11
2.4498832930
21
-13.2231817507
31
0.0000000000
11
2.2596116578
21
-12.4698313234
31
0.0000000000
11
1.9672993355
21
-11.7159444127
31
0.0000000000
11
1.5838298858
21
-10.9906455199
31
0.0000000000
11
1.1236109935
21
-10.3221432514
31
0.0000000000
11
0.6035420317
21
-9.7359112039
31
0.0000000000
11
0.0430728221
21
-9.2547284765
31
0.0000000000
11
-0.5333552909
21
-8.8990733241
31
0.0000000000
0
SPLINE
5
2D6
100
AcDbEntity
8
0
100
AcDbSpline
62
9
6
CONTINUOUS
70
0
71
3
72
9
73
5
74
3
42
0.0000001000
43
0.0000001000
44
0.0000000001
12
0.0027396837
22
-0.0571096483
32
0.0000000000
13
0.0517668929
23
-0.0271007761
33
0.0000000000
40
0.0000000000
40
0.0000000000
40
0.0000000000
40
0.0000000000
40
0.6473127876
40
1.0000000000
40
1.0000000000
40
1.0000000000
40
1.0000000000
10
-3.2465149438
20
-14.5313989604
30
0.0000000000
10
-3.2459237997
20
-14.5437215622
30
0.0000000000
10
-3.2418729785
20
-14.5637438441
30
0.0000000000
10
-3.2266076345
20
-14.5771683688
30
0.0000000000
10
-3.2205217941
20
-14.5803544012
30
0.0000000000
11
-3.2465149438
21
-14.5313989604
31
0.0000000000
11
-3.2359804627
21
-14.5668783688
31
0.0000000000
11
-3.2205217941
21
-14.5803544012
31
0.0000000000
0
SPLINE
5
2D7
100
AcDbEntity
8
0
100
AcDbSpline
62
9
6
CONTINUOUS
70
0
71
3
72
10
73
6
74
4
42
0.0000001000
43
0.0000001000
44
0.0000000001
12
-0.0035871819
22
0.1475541843
32
0.0000000000
13
0.1308773356
23
0.0682365606
33
0.0000000000
40
0.0000000000
40
0.0000000000
40
0.0000000000
40
0.0000000000
40
0.3317229985
40
0.6843835811
40
1.0000000000
40
1.0000000000
40
1.0000000000
40
1.0000000000
10
-3.5032037719
20
-7.4141490837
30
0.0000000000
10
-3.5036004222
20
-7.3978333782
30
0.0000000000
10
-3.4966819810
20
-7.3639271577
30
0.0000000000
10
-3.4725609619
20
-7.3204649867
30
0.0000000000
10
-3.4475267517
20
-7.2974690835
30
0.0000000000
10
-3.4337577397
20
-7.2902902238
30
0.0000000000
11
-3.5032037719
21
-7.4141490837
31
0.0000000000
11
-3.4946406871
21
-7.3659421363
31
0.0000000000
11
-3.4691848178
21
-7.3205394815
31
0.0000000000
11
-3.4337577397
21
-7.2902902238
31
0.0000000000
0
SPLINE
5
2D8
100
AcDbEntity
8
0
100
AcDbSpline
62
9
6
CONTINUOUS
70
0
71
3
72
10
73
6
74
4
42
0.0000001000
43
0.0000001000
44
0.0000000001
12
-0.0035871791
22
0.1475541866
32
0.0000000000
13
0.1308773370
23
0.0682365629
33
0.0000000000
40
0.0000000000
40
0.0000000000
40
0.0000000000
40
0.0000000000
40
0.3317386883
40
0.6843963937
40
1.0000000000
40
1.0000000000
40
1.0000000000
40
1.0000000000
10
-0.5333552909
20
-8.8990733241
30
0.0000000000
10
-0.5337519596
20
-8.8827568467
30
0.0000000000
10
-0.5268330511
20
-8.8488499826
30
0.0000000000
10
-0.5027114990
20
-8.8053881155
30
0.0000000000
10
-0.4776777130
20
-8.7823930322
30
0.0000000000
10
-0.4639092598
20
-8.7752144638
30
0.0000000000
11
-0.5333552909
21
-8.8990733241
31
0.0000000000
11
-0.5247914026
21
-8.8508641668
31
0.0000000000
11
-0.4993351313
21
-8.8054622233
31
0.0000000000
11
-0.4639092598
21
-8.7752144638
31
0.0000000000
0
SPLINE
5
2D9
100
AcDbEntity
8
0
100
AcDbSpline
62
9
6
CONTINUOUS
70
0
71
3
72
8
73
4
74
2
42
0.0000001000
43
0.0000001000
44
0.0000000001
12
-0.0446821261
22
0.0223340789
32
0.0000000000
13
-0.0450290723
23
0.0216970894
33
0.0000000000
40
0.0000000000
40
0.0000000000
40
0.0000000000
40
0.0000000000
40
1.0000000000
40
1.0000000000
40
1.0000000000
40
1.0000000000
10
-3.5032037719
20
-7.4141490837
30
0.0000000000
10
-3.5180978140
20
-7.4067043907
30
0.0000000000
10
-3.5330502603
20
-7.3993636603
30
0.0000000000
10
-3.5480599511
20
-7.3921312972
30
0.0000000000
11
-3.5032037719
21
-7.4141490837
31
0.0000000000
11
-3.5480599511
21
-7.3921312972
31
0.0000000000
0
SPLINE
5
2DA
100
AcDbEntity
8
0
100
AcDbSpline
62
9
6
CONTINUOUS
70
0
71
3
72
8
73
4
74
2
42
0.0000001000
43
0.0000001000
44
0.0000000001
12
-0.1884826806
22
0.0794362403
32
0.0000000000
13
-0.1936039237
23
0.0662299979
33
0.0000000000
40
0.0000000000
40
0.0000000000
40
0.0000000000
40
0.0000000000
40
1.0000000000
40
1.0000000000
40
1.0000000000
40
1.0000000000
10
-3.6968049890
20
-7.3249367551
30
0.0000000000
10
-3.7596325492
20
-7.2984580083
30
0.0000000000
10
-3.8233532509
20
-7.2740299091
30
0.0000000000
10
-3.8878878921
20
-7.2519532431
30
0.0000000000
11
-3.6968049890
21
-7.3249367551
31
0.0000000000
11
-3.8878878921
21
-7.2519532431
31
0.0000000000
0
SPLINE
5
2DB
100
AcDbEntity
8
0
100
AcDbSpline
62
9
6
CONTINUOUS
70
0
71
3
72
10
73
6
74
4
42
0.0000001000
43
0.0000001000
44
0.0000000001
12
-0.8767544613
22
0.2999290769
32
0.0000000000
13
-0.9242007057
23
-0.0899294697
33
0.0000000000
40
0.0000000000
40
0.0000000000
40
0.0000000000
40
0.0000000000
40
0.2124841543
40
0.8126462030
40
1.0000000000
40
1.0000000000
40
1.0000000000
40
1.0000000000
10
-3.8878878921
20
-7.2519532431
30
0.0000000000
10
-3.9499867022
20
-7.2307098510
30
0.0000000000
10
-4.1903661210
20
-7.1577914389
30
0.0000000000
10
-4.4984593804
20
-7.1120742957
30
0.0000000000
10
-4.7422654750
20
-7.1236222101
30
0.0000000000
10
-4.7999829789
20
-7.1292384194
30
0.0000000000
11
-3.8878878921
21
-7.2519532431
31
0.0000000000
11
-4.0763747210
21
-7.1950228898
31
0.0000000000
11
-4.6263268567
21
-7.1208189198
31
0.0000000000
11
-4.7999829789
21
-7.1292384194
31
0.0000000000
0
SPLINE
5
2DC
100
AcDbEntity
8
0
100
AcDbSpline
62
9
6
CONTINUOUS
70
0
71
3
72
8
73
4
74
2
42
0.0000001000
43
0.0000001000
44
0.0000000001
12
-0.1696002327
22
-0.0165029727
32
0.0000000000
13
-0.1669671392
23
-0.0335180087
33
0.0000000000
40
0.0000000000
40
0.0000000000
40
0.0000000000
40
0.0000000000
40
1.0000000000
40
1.0000000000
40
1.0000000000
40
1.0000000000
10
-4.7999829789
20
-7.1292384194
30
0.0000000000
10
-4.8565163898
20
-7.1347394102
30
0.0000000000
10
-4.9127762444
20
-7.1429928006
30
0.0000000000
10
-4.9684319575
20
-7.1541654702
30
0.0000000000
11
-4.7999829789
21
-7.1292384194
31
0.0000000000
11
-4.9684319575
21
-7.1541654702
31
0.0000000000
0
SPLINE
5
2DD
100
AcDbEntity
8
0
100
AcDbSpline
62
9
6
CONTINUOUS
70
0
71
3
72
8
73
4
74
2
42
0.0000001000
43
0.0000001000
44
0.0000000001
12
-0.1630420979
22
-0.0327300718
32
0.0000000000
13
-0.1586622250
23
-0.0498980704
33
0.0000000000
40
0.0000000000
40
0.0000000000
40
0.0000000000
40
0.0000000000
40
1.0000000000
40
1.0000000000
40
1.0000000000
40
1.0000000000
10
-4.9684319575
20
-7.1541654702
30
0.0000000000
10
-5.0227793235
20
-7.1650754941
30
0.0000000000
10
-5.0765506182
20
-7.1787691585
30
0.0000000000
10
-5.1294380265
20
-7.1954018486
30
0.0000000000
11
-4.9684319575
21
-7.1541654702
31
0.0000000000
11
-5.1294380265
21
-7.1954018486
31
0.0000000000
0
SPLINE
5
2DE
100
AcDbEntity
8
0
100
AcDbSpline
62
9
6
CONTINUOUS
70
0
71
3
72
8
73
4
74
2
42
0.0000001000
43
0.0000001000
44
0.0000000001
12
-0.0506747261
22
-0.0159368183
32
0.0000000000
13
-0.0501008858
23
-0.0177217113
33
0.0000000000
40
0.0000000000
40
0.0000000000
40
0.0000000000
40
0.0000000000
40
1.0000000000
40
1.0000000000
40
1.0000000000
40
1.0000000000
10
-5.1294380265
20
-7.1954018486
30
0.0000000000
10
-5.1463296018
20
-7.2007141214
30
0.0000000000
10
-5.1631310134
20
-7.2063261993
30
0.0000000000
10
-5.1798313087
20
-7.2122334364
30
0.0000000000
11
-5.1294380265
21
-7.1954018486
31
0.0000000000
11
-5.1798313087
21
-7.2122334364
31
0.0000000000
0
SPLINE
5
2DF
100
AcDbEntity
8
0
100
AcDbSpline
62
9
6
CONTINUOUS
70
0
71
3
72
8
73
4
74
2
42
0.0000001000
43
0.0000001000
44
0.0000000001
12
-0.1498617630
22
-0.0657206991
32
0.0000000000
13
-0.1418591728
23
-0.0815385742
33
0.0000000000
40
0.0000000000
40
0.0000000000
40
0.0000000000
40
0.0000000000
40
1.0000000000
40
1.0000000000
40
1.0000000000
40
1.0000000000
10
-5.2828834100
20
-7.2529947399
30
0.0000000000
10
-5.3328373310
20
-7.2749016396
30
0.0000000000
10
-5.3816171331
20
-7.2995125733
30
0.0000000000
10
-5.4289035241
20
-7.3266920981
30
0.0000000000
11
-5.2828834100
21
-7.2529947399
31
0.0000000000
11
-5.4289035241
21
-7.3266920981
31
0.0000000000
0
SPLINE
5
2E0
100
AcDbEntity
8
0
100
AcDbSpline
62
9
6
CONTINUOUS
70
0
71
3
72
8
73
4
74
2
42
0.0000001000
43
0.0000001000
44
0.0000000001
12
-0.1415440232
22
-0.0813574308
32
0.0000000000
13
-0.1316718172
23
-0.0962969496
33
0.0000000000
40
0.0000000000
40
0.0000000000
40
0.0000000000
40
0.0000000000
40
1.0000000000
40
1.0000000000
40
1.0000000000
40
1.0000000000
10
-5.4289035241
20
-7.3266920981
30
0.0000000000
10
-5.4760848651
20
-7.3538112417
30
0.0000000000
10
-5.5217794230
20
-7.3834875763
30
0.0000000000
10
-5.5656700288
20
-7.4155865595
30
0.0000000000
11
-5.4289035241
21
-7.3266920981
31
0.0000000000
11
-5.5656700288
21
-7.4155865595
31
0.0000000000
0
SPLINE
5
2E1
100
AcDbEntity
8
0
100
AcDbSpline
62
9
6
CONTINUOUS
70
0
71
3
72
8
73
4
74
2
42
0.0000001000
43
0.0000001000
44
0.0000000001
12
-0.1329791617
22
-0.0972530638
32
0.0000000000
13
-0.1216772859
23
-0.1110833362
33
0.0000000000
40
0.0000000000
40
0.0000000000
40
0.0000000000
40
0.0000000000
40
1.0000000000
40
1.0000000000
40
1.0000000000
40
1.0000000000
10
-5.5656700288
20
-7.4155865595
30
0.0000000000
10
-5.6099964160
20
-7.4480042474
30
0.0000000000
10
-5.6524828510
20
-7.4828929308
30
0.0000000000
10
-5.6930419463
20
-7.5199207095
30
0.0000000000
11
-5.5656700288
21
-7.4155865595
31
0.0000000000
11
-5.6930419463
21
-7.5199207095
31
0.0000000000
0
SPLINE
5
2E2
100
AcDbEntity
8
0
100
AcDbSpline
62
9
6
CONTINUOUS
70
0
71
3
72
8
73
4
74
2
42
0.0000001000
43
0.0000001000
44
0.0000000001
12
-0.1281329012
22
-0.1169768871
32
0.0000000000
13
-0.1150031040
23
-0.1300467306
33
0.0000000000
40
0.0000000000
40
0.0000000000
40
0.0000000000
40
0.0000000000
40
1.0000000000
40
1.0000000000
40
1.0000000000
40
1.0000000000
10
-5.6930419463
20
-7.5199207095
30
0.0000000000
10
-5.7357529134
20
-7.5589130052
30
0.0000000000
10
-5.7763266047
20
-7.6002773979
30
0.0000000000
10
-5.8146609727
20
-7.6436263081
30
0.0000000000
11
-5.6930419463
21
-7.5199207095
31
0.0000000000
11
-5.8146609727
21
-7.6436263081
31
0.0000000000
0
SPLINE
5
2E3
100
AcDbEntity
8
0
100
AcDbSpline
62
9
6
CONTINUOUS
70
0
71
3
72
13
73
9
74
7
42
0.0000001000
43
0.0000001000
44
0.0000000001
12
-2.3176395047
22
-2.6208113500
32
0.0000000000
13
1.0895289450
23
-3.3107409410
33
0.0000000000
40
0.0000000000
40
0.0000000000
40
0.0000000000
40
0.0000000000
40
0.0473518035
40
0.2034404187
40
0.3765476887
40
0.5682082360
40
0.7771381498
40
1.0000000000
40
1.0000000000
40
1.0000000000
40
1.0000000000
10
-5.8146609727
20
-7.6436263081
30
0.0000000000
10
-5.8512424428
20
-7.6849930228
30
0.0000000000
10
-5.9996484342
20
-7.8704836250
30
0.0000000000
10
-6.2016330731
20
-8.2640435633
30
0.0000000000
10
-6.3429949834
20
-8.8567708113
30
0.0000000000
10
-6.3700907368
20
-9.5256867895
30
0.0000000000
10
-6.2833877310
20
-10.2469546194
30
0.0000000000
10
-6.1554519828
20
-10.7331272020
30
0.0000000000
10
-6.0745138373
20
-10.9790731526
30
0.0000000000
11
-5.8146609727
21
-7.6436263081
31
0.0000000000
11
-5.9181990663
21
-7.7728111767
31
0.0000000000
11
-6.1728908543
21
-8.2531245714
31
0.0000000000
11
-6.3195434978
21
-8.8379566114
31
0.0000000000
11
-6.3521916441
21
-9.5047185950
31
0.0000000000
11
-6.2694310587
21
-10.2277078721
31
0.0000000000
11
-6.0745138373
21
-10.9790731526
31
0.0000000000
0
SPLINE
5
2E4
100
AcDbEntity
8
0
100
AcDbSpline
62
9
6
CONTINUOUS
70
0
71
3
72
8
73
4
74
2
42
0.0000001000
43
0.0000001000
44
0.0000000001
12
0.0833360993
22
-0.2532325891
32
0.0000000000
13
0.0936512050
23
-0.2495757631
33
0.0000000000
40
0.0000000000
40
0.0000000000
40
0.0000000000
40
0.0000000000
40
1.0000000000
40
1.0000000000
40
1.0000000000
40
1.0000000000
10
-6.0745138373
20
-10.9790731526
30
0.0000000000
10
-6.0467351375
20
-11.0634840157
30
0.0000000000
10
-6.0172005861
20
-11.1473078462
30
0.0000000000
10
-5.9859835178
20
-11.2304997673
30
0.0000000000
11
-6.0745138373
21
-10.9790731526
31
0.0000000000
11
-5.9859835178
21
-11.2304997673
31
0.0000000000
0
SPLINE
5
2E5
100
AcDbEntity
8
0
100
AcDbSpline
62
9
6
CONTINUOUS
70
0
71
3
72
8
73
4
74
2
42
0.0000001000
43
0.0000001000
44
0.0000000001
12
0.0950661936
22
-0.2533466367
32
0.0000000000
13
0.1052385280
23
-0.2492989161
33
0.0000000000
40
0.0000000000
40
0.0000000000
40
0.0000000000
40
0.0000000000
40
1.0000000000
40
1.0000000000
40
1.0000000000
40
1.0000000000
10
-5.9859835178
20
-11.2304997673
30
0.0000000000
10
-5.9542947866
20
-11.3149486461
30
0.0000000000
10
-5.9208723116
20
-11.3987463760
30
0.0000000000
10
-5.8857928023
20
-11.4818460147
30
0.0000000000
11
-5.9859835178
21
-11.2304997673
31
0.0000000000
11
-5.8857928023
21
-11.4818460147
31
0.0000000000
0
SPLINE
5
2E6
100
AcDbEntity
8
0
100
AcDbSpline
62
9
6
CONTINUOUS
70
0
71
3
72
9
73
5
74
3
42
0.0000001000
43
0.0000001000
44
0.0000000001
12
0.2117982734
22
-0.5017276560
32
0.0000000000
13
0.2504250584
23
-0.4835765669
33
0.0000000000
40
0.0000000000
40
0.0000000000
40
0.0000000000
40
0.0000000000
40
0.4986742182
40
1.0000000000
40
1.0000000000
40
1.0000000000
40
1.0000000000
10
-5.8857928023
20
-11.4818460147
30
0.0000000000
10
-5.8505866895
20
-11.5652455636
30
0.0000000000
10
-5.7766403573
20
-11.7310780985
30
0.0000000000
10
-5.6962942363
20
-11.8938922826
30
0.0000000000
10
-5.6544460569
20
-11.9747020827
30
0.0000000000
11
-5.8857928023
21
-11.4818460147
31
0.0000000000
11
-5.7752449570
21
-11.7298877917
31
0.0000000000
11
-5.6544460569
21
-11.9747020827
31
0.0000000000
0
SPLINE
5
2E7
100
AcDbEntity
8
0
100
AcDbSpline
62
9
6
CONTINUOUS
70
0
71
3
72
8
73
4
74
2
42
0.0000001000
43
0.0000001000
44
0.0000000001
12
0.2521745052
22
-0.4869547890
32
0.0000000000
13
0.2891782771
23
-0.4659438166
33
0.0000000000
40
0.0000000000
40
0.0000000000
40
0.0000000000
40
0.0000000000
40
1.0000000000
40
1.0000000000
40
1.0000000000
40
1.0000000000
10
-5.6544460569
20
-11.9747020827
30
0.0000000000
10
-5.5703878885
20
-12.1370203457
30
0.0000000000
10
-5.4800009661
20
-12.2960578350
30
0.0000000000
10
-5.3836082071
20
-12.4513724406
30
0.0000000000
11
-5.6544460569
21
-11.9747020827
31
0.0000000000
11
-5.3836082071
21
-12.4513724406
31
0.0000000000
0
SPLINE
5
2E8
100
AcDbEntity
8
0
100
AcDbSpline
62
9
6
CONTINUOUS
70
0
71
3
72
10
73
6
74
4
42
0.0000001000
43
0.0000001000
44
0.0000000001
12
1.1070891933
22
-1.7838178206
32
0.0000000000
13
1.6342348682
23
-1.3187517377
33
0.0000000000
40
0.0000000000
40
0.0000000000
40
0.0000000000
40
0.0000000000
40
0.3874091141
40
0.7616978064
40
1.0000000000
40
1.0000000000
40
1.0000000000
40
1.0000000000
10
-5.3836082071
20
-12.4513724406
30
0.0000000000
10
-5.2406427258
20
-12.6817282011
30
0.0000000000
10
-4.9335783268
20
-13.1185367573
30
0.0000000000
10
-4.4647352424
20
-13.6400269119
30
0.0000000000
10
-4.1444970103
20
-13.9257970673
30
0.0000000000
10
-4.0146830923
20
-14.0305508779
30
0.0000000000
11
-5.3836082071
21
-12.4513724406
31
0.0000000000
11
-4.9153411892
21
-13.1158193081
31
0.0000000000
11
-4.3886486930
21
-13.6983656540
31
0.0000000000
11
-4.0146830923
21
-14.0305508779
31
0.0000000000
0
SPLINE
5
2E9
100
AcDbEntity
8
0
100
AcDbSpline
62
9
6
CONTINUOUS
70
0
71
3
72
8
73
4
74
2
42
0.0000001000
43
0.0000001000
44
0.0000000001
12
0.1876518673
22
-0.1367260770
32
0.0000000000
13
0.1945025658
23
-0.1268829554
33
0.0000000000
40
0.0000000000
40
0.0000000000
40
0.0000000000
40
0.0000000000
40
1.0000000000
40
1.0000000000
40
1.0000000000
40
1.0000000000
10
-3.8240061390
20
-14.1768892006
30
0.0000000000
10
-3.7614555166
20
-14.2224645596
30
0.0000000000
10
-3.6977536744
20
-14.2665254570
30
0.0000000000
10
-3.6329194858
20
-14.3088197755
30
0.0000000000
11
-3.8240061390
21
-14.1768892006
31
0.0000000000
11
-3.6329194858
21
-14.3088197755
31
0.0000000000
0
SPLINE
5
2EA
100
AcDbEntity
8
0
100
AcDbSpline
62
9
6
CONTINUOUS
70
0
71
3
72
8
73
4
74
2
42
0.0000001000
43
0.0000001000
44
0.0000000001
12
0.0472317020
22
-0.0308114081
32
0.0000000000
13
0.0476315245
23
-0.0301755477
33
0.0000000000
40
0.0000000000
40
0.0000000000
40
0.0000000000
40
0.0000000000
40
1.0000000000
40
1.0000000000
40
1.0000000000
40
1.0000000000
10
-3.6329194858
20
-14.3088197755
30
0.0000000000
10
-3.6171755851
20
-14.3190902449
30
0.0000000000
10
-3.6013649123
20
-14.3292565426
30
0.0000000000
10
-3.5854877374
20
-14.3393150585
30
0.0000000000
11
-3.6329194858
21
-14.3088197755
31
0.0000000000
11
-3.5854877374
21
-14.3393150585
31
0.0000000000
0
SPLINE
5
2EB
100
AcDbEntity
8
0
100
AcDbSpline
62
9
6
CONTINUOUS
70
0
71
3
72
8
73
4
74
2
42
0.0000001000
43
0.0000001000
44
0.0000000001
12
0.1432401203
22
-0.0907455540
32
0.0000000000
13
0.1468265654
23
-0.0846026023
33
0.0000000000
40
0.0000000000
40
0.0000000000
40
0.0000000000
40
0.0000000000
40
1.0000000000
40
1.0000000000
40
1.0000000000
40
1.0000000000
10
-3.5854877374
20
-14.3393150585
30
0.0000000000
10
-3.5377410307
20
-14.3695635765
30
0.0000000000
10
-3.4893929080
20
-14.3988373609
30
0.0000000000
10
-3.4404507196
20
-14.4270382283
30
0.0000000000
11
-3.5854877374
21
-14.3393150585
31
0.0000000000
11
-3.4404507196
21
-14.4270382283
31
0.0000000000
0
SPLINE
5
2EC
100
AcDbEntity
8
0
100
AcDbSpline
62
9
6
CONTINUOUS
70
0
71
3
72
8
73
4
74
2
42
0.0000001000
43
0.0000001000
44
0.0000000001
12
0.1909380220
22
-0.1100199647
32
0.0000000000
13
0.1969173655
23
-0.0984855751
33
0.0000000000
40
0.0000000000
40
0.0000000000
40
0.0000000000
40
0.0000000000
40
1.0000000000
40
1.0000000000
40
1.0000000000
40
1.0000000000
10
-3.4404507196
20
-14.4270382283
30
0.0000000000
10
-3.3768047123
20
-14.4637115499
30
0.0000000000
10
-3.3121540657
20
-14.4985704353
30
0.0000000000
10
-3.2465149438
20
-14.5313989604
30
0.0000000000
11
-3.4404507196
21
-14.4270382283
31
0.0000000000
11
-3.2465149438
21
-14.5313989604
31
0.0000000000
0
SPLINE
5
2ED
100
AcDbEntity
8
0
100
AcDbSpline
62
9
6
CONTINUOUS
70
0
71
3
72
8
73
4
74
2
42
0.0000001000
43
0.0000001000
44
0.0000000001
12
-0.0548366221
22
0.0274140009
32
0.0000000000
13
-0.0553467635
23
0.0264715514
33
0.0000000000
40
0.0000000000
40
0.0000000000
40
0.0000000000
40
0.0000000000
40
1.0000000000
40
1.0000000000
40
1.0000000000
40
1.0000000000
10
-3.4337577408
20
-7.2902902233
30
0.0000000000
10
-3.4520366148
20
-7.2811522230
30
0.0000000000
10
-3.4704015449
20
-7.2721674338
30
0.0000000000
10
-3.4888504661
20
-7.2633435833
30
0.0000000000
11
-3.4337577408
21
-7.2902902233
31
0.0000000000
11
-3.4888504661
21
-7.2633435833
31
0.0000000000
0
SPLINE
5
2EE
100
AcDbEntity
8
0
100
AcDbSpline
62
9
6
CONTINUOUS
70
0
71
3
72
8
73
4
74
2
42
0.0000001000
43
0.0000001000
44
0.0000000001
12
-0.1403353143
22
0.0671203382
32
0.0000000000
13
-0.1434742451
23
0.0605342902
33
0.0000000000
40
0.0000000000
40
0.0000000000
40
0.0000000000
40
0.0000000000
40
1.0000000000
40
1.0000000000
40
1.0000000000
40
1.0000000000
10
-3.4888504661
20
-7.2633435833
30
0.0000000000
10
-3.5356289042
20
-7.2409701373
30
0.0000000000
10
-3.5829473285
20
-7.2196313806
30
0.0000000000
10
-3.6307720768
20
-7.1994532839
30
0.0000000000
11
-3.4888504661
21
-7.2633435833
31
0.0000000000
11
-3.6307720768
21
-7.1994532839
31
0.0000000000
0
SPLINE
5
2EF
100
AcDbEntity
8
0
100
AcDbSpline
62
9
6
CONTINUOUS
70
0
71
3
72
8
73
4
74
2
42
0.0000001000
43
0.0000001000
44
0.0000000001
12
-0.1933518139
22
0.0815785077
32
0.0000000000
13
-0.1986219729
23
0.0680060652
33
0.0000000000
40
0.0000000000
40
0.0000000000
40
0.0000000000
40
0.0000000000
40
1.0000000000
40
1.0000000000
40
1.0000000000
40
1.0000000000
10
-3.6307720768
20
-7.1994532839
30
0.0000000000
10
-3.6952226814
20
-7.1722604480
30
0.0000000000
10
-3.7605928400
20
-7.1471755294
30
0.0000000000
10
-3.8268001643
20
-7.1245068410
30
0.0000000000
11
-3.6307720768
21
-7.1994532839
31
0.0000000000
11
-3.8268001643
21
-7.1245068410
31
0.0000000000
0
SPLINE
5
2F0
100
AcDbEntity
8
0
100
AcDbSpline
62
9
6
CONTINUOUS
70
0
71
3
72
8
73
4
74
2
42
0.0000001000
43
0.0000001000
44
0.0000000001
12
-0.3521549999
22
-0.0003841008
32
0.0000000000
13
-0.3453879258
23
-0.0693121844
33
0.0000000000
40
0.0000000000
40
0.0000000000
40
0.0000000000
40
0.0000000000
40
1.0000000000
40
1.0000000000
40
1.0000000000
40
1.0000000000
10
-4.5841978464
20
-6.9899277533
30
0.0000000000
10
-4.7015828463
20
-6.9900557869
30
0.0000000000
10
-4.8192333074
20
-7.0009718944
30
0.0000000000
10
-4.9343626160
20
-7.0240759559
30
0.0000000000
11
-4.5841978464
21
-6.9899277533
31
0.0000000000
11
-4.9343626160
21
-7.0240759559
31
0.0000000000
0
SPLINE
5
2F1
100
AcDbEntity
8
0
100
AcDbSpline
62
9
6
CONTINUOUS
70
0
71
3
72
8
73
4
74
2
42
0.0000001000
43
0.0000001000
44
0.0000000001
12
-0.1672244077
22
-0.0335584660
32
0.0000000000
13
-0.1627296331
23
-0.0511773258
33
0.0000000000
40
0.0000000000
40
0.0000000000
40
0.0000000000
40
0.0000000000
40
1.0000000000
40
1.0000000000
40
1.0000000000
40
1.0000000000
10
-4.9343626160
20
-7.0240759559
30
0.0000000000
10
-4.9901040852
20
-7.0352621112
30
0.0000000000
10
-5.0452545590
20
-7.0493053034
30
0.0000000000
10
-5.0994977701
20
-7.0663644120
30
0.0000000000
11
-4.9343626160
21
-7.0240759559
31
0.0000000000
11
-5.0994977701
21
-7.0663644120
31
0.0000000000
0
SPLINE
5
2F2
100
AcDbEntity
8
0
100
AcDbSpline
62
9
6
CONTINUOUS
70
0
71
3
72
8
73
4
74
2
42
0.0000001000
43
0.0000001000
44
0.0000000001
12
-0.1603817204
22
-0.0504389237
32
0.0000000000
13
-0.1541033769
23
-0.0675952485
33
0.0000000000
40
0.0000000000
40
0.0000000000
40
0.0000000000
40
0.0000000000
40
1.0000000000
40
1.0000000000
40
1.0000000000
40
1.0000000000
10
-5.0994977701
20
-7.0663644120
30
0.0000000000
10
-5.1529583435
20
-7.0831773865
30
0.0000000000
10
-5.2055376459
20
-7.1029198763
30
0.0000000000
10
-5.2569054382
20
-7.1254516258
30
0.0000000000
11
-5.0994977701
21
-7.0663644120
31
0.0000000000
11
-5.2569054382
21
-7.1254516258
31
0.0000000000
0
SPLINE
5
2F3
100
AcDbEntity
8
0
100
AcDbSpline
62
0
6
CONTINUOUS
70
0
71
3
72
8
73
4
74
2
42
0.0000001000
43
0.0000001000
44
0.0000000001
12
0.1924333861
22
0.1015557269
32
0.0000000000
13
0.2043295717
23
0.0748717477
33
0.0000000000
40
0.0000000000
40
0.0000000000
40
0.0000000000
40
0.0000000000
40
1.0000000000
40
1.0000000000
40
1.0000000000
40
1.0000000000
10
-4.8040559191
20
-6.8815795401
30
0.0000000000
10
-4.7399114571
20
-6.8477276312
30
0.0000000000
10
-4.6734605288
20
-6.8182199028
30
0.0000000000
10
-4.6053506716
20
-6.7932626536
30
0.0000000000
11
-4.8040559191
21
-6.8815795401
31
0.0000000000
11
-4.6053506716
21
-6.7932626536
31
0.0000000000
0
SPLINE
5
2F4
100
AcDbEntity
8
INCISIONI_LASER
100
AcDbSpline
62
9
6
CONTINUOUS
70
0
71
3
72
26
73
22
74
20
42
0.0000001000
43
0.0000001000
44
0.0000000001
12
-0.1429863672
22
3.5530848547
32
2.2164809325
13
-0.0953487140
23
3.0178574371
33
1.8524600151
40
0.0000000000
40
0.0000000000
40
0.0000000000
40
0.0000000000
40
0.2500000000
40
0.3750000000
40
0.5000000000
40
0.5625000000
40
0.6250000000
40
0.6562500000
40
0.6875000000
40
0.7187500000
40
0.7343750000
40
0.7421875000
40
0.7500000000
40
0.7578125000
40
0.7656250000
40
0.7812500000
40
0.8125000000
40
0.8437500000
40
0.8750000000
40
0.9375000000
40
1.0000000000
40
1.0000000000
40
1.0000000000
40
1.0000000000
10
-1.7229902357
20
-13.4837783194
30
-6.6246198034
10
-1.7349057663
20
-13.1876879148
30
-6.4399130590
10
-1.7536772729
20
-12.7440520379
30
-6.1621042973
10
-1.7751131055
20
-12.1505386156
30
-5.7946871957
10
-1.7895385284
20
-11.7801603575
30
-5.5641921650
10
-1.7995098113
20
-11.4829951670
30
-5.3811099166
10
-1.8059214520
20
-11.2973547259
30
-5.2665268330
10
-1.8110120151
20
-11.1488472920
30
-5.1749079501
10
-1.8148384325
20
-11.0373992778
30
-5.1061450429
10
-1.8180149424
20
-10.9447486788
30
-5.0489852769
10
-1.8202603423
20
-10.8794549971
30
-5.0086951878
10
-1.8215096342
20
-10.8428288049
30
-4.9861064878
10
-1.8225417435
20
-10.8134309295
30
-4.9679418393
10
-1.8232101883
20
-10.7914037377
30
-4.9544525806
10
-1.8242282983
20
-10.7594631716
30
-4.9348360740
10
-1.8259508889
20
-10.7047650469
30
-4.9012670208
10
-1.8284426318
20
-10.6259986091
30
-4.8529139798
10
-1.8314194970
20
-10.5317469507
30
-4.7950603716
10
-1.8353932723
20
-10.4059844035
30
-4.7178628107
10
-1.8403588950
20
-10.2488135723
30
-4.6213863817
10
-1.8443318797
20
-10.1230670474
30
-4.5441989841
10
-1.8463183113
20
-10.0601950175
30
-4.5056060671
11
-1.7229902357
21
-13.4837783194
31
-6.6246198034
11
-1.7587368275
21
-12.5955071057
31
-6.0704995703
11
-1.7753187110
21
-12.1506521418
31
-5.7945153273
11
-1.7919005945
21
-11.7057971779
31
-5.5185310843
11
-1.7995457291
21
-11.4830127276
31
-5.3810785809
11
-1.8071908637
21
-11.2602282773
31
-5.2436260776
11
-1.8110134309
21
-11.1488360522
31
-5.1748998259
11
-1.8148359982
21
-11.0374438271
31
-5.1061735743
11
-1.8186585655
21
-10.9260516019
31
-5.0374473226
11
-1.8205698491
21
-10.8703554893
31
-5.0030841968
11
-1.8215254910
21
-10.8425074331
31
-4.9859026338
11
-1.8224811328
21
-10.8146593768
31
-4.9687210709
11
-1.8232260446
21
-10.7910823656
31
-4.9542487271
11
-1.8239709564
21
-10.7675053543
31
-4.9397763832
11
-1.8254607801
21
-10.7203513319
31
-4.9108316955
11
-1.8284404274
21
-10.6260432870
31
-4.8529423200
11
-1.8314200747
21
-10.5317352420
31
-4.7950529445
11
-1.8343997220
21
-10.4374271971
31
-4.7371635690
11
-1.8403590167
21
-10.2488111073
31
-4.6213848181
11
-1.8463183113
21
-10.0601950175
31
-4.5056060671
0
SPLINE
5
2F5
100
AcDbEntity
8
INCISIONI_LASER
100
AcDbSpline
62
9
6
CONTINUOUS
70
0
71
3
72
26
73
22
74
20
42
0.0000001000
43
0.0000001000
44
0.0000000001
12
0.1135856464
22
-3.5693457648
32
-2.1919201451
13
0.1215543220
23
-3.0033636757
33
-1.8743516677
40
0.0000000000
40
0.0000000000
40
0.0000000000
40
0.0000000000
40
0.2500000000
40
0.3750000000
40
0.5000000000
40
0.5625000000
40
0.6250000000
40
0.6562500000
40
0.6875000000
40
0.7187500000
40
0.7343750000
40
0.7421875000
40
0.7500000000
40
0.7578125000
40
0.7656250000
40
0.7812500000
40
0.8125000000
40
0.8437500000
40
0.8750000000
40
0.9375000000
40
1.0000000000
40
1.0000000000
40
1.0000000000
40
1.0000000000
10
-2.0806881473
20
-9.9430100823
30
-4.7085762879
10
-2.0712226768
20
-10.2404555627
30
-4.8912363000
10
-2.0579228900
20
-10.6871177308
30
-5.1644740940
10
-2.0365961649
20
-11.2806914981
30
-5.5318000493
10
-2.0242949222
20
-11.6522445949
30
-5.7605205813
10
-2.0128852418
20
-11.9486142385
30
-5.9448044389
10
-2.0059329664
20
-12.1339556661
30
-6.0598391581
10
-2.0003342580
20
-12.2821820558
30
-6.1518825357
10
-1.9961386261
20
-12.3934258652
30
-6.2209538775
10
-1.9926463050
20
-12.4859017958
30
-6.2783774660
10
-1.9901917114
20
-12.5510797770
30
-6.3188423114
10
-1.9888049642
20
-12.5876299456
30
-6.3415458389
10
-1.9877201191
20
-12.6169986540
30
-6.3597545418
10
-1.9868064738
20
-12.6388902306
30
-6.3734486362
10
-1.9855285637
20
-12.6706871069
30
-6.3932821748
10
-1.9833200440
20
-12.7251164745
30
-6.4272571638
10
-1.9801504695
20
-12.8035080181
30
-6.4761764518
10
-1.9763532067
20
-12.8973059322
30
-6.5347154042
10
-1.9712880139
20
-13.0224648397
30
-6.6128247141
10
-1.9649572743
20
-13.1788806540
30
-6.7104415349
10
-1.9598924536
20
-13.3040233077
30
-6.7885410309
10
-1.9573600719
20
-13.3665933843
30
-6.8275900240
11
-2.0806881473
21
-9.9430100823
31
-4.7085762879
11
-2.0522917357
21
-10.8353465235
31
-5.2565563242
11
-2.0368017570
21
-11.2808053966
31
-5.5316284113
11
-2.0213117783
21
-11.7262642697
31
-5.8067004983
11
-2.0129209968
21
-11.9486363186
31
-5.9447759005
11
-2.0045302153
21
-12.1710083675
31
-6.0828513027
11
-2.0003348246
21
-12.2821943920
31
-6.1518890038
11
-1.9961394339
21
-12.3933804164
31
-6.2209267049
11
-1.9919440431
21
-12.5045664409
31
-6.2899644060
11
-1.9898463478
21
-12.5601594531
31
-6.3244832565
11
-1.9887975001
21
-12.5879559592
31
-6.3417426818
11
-1.9877486524
21
-12.6157524653
31
-6.3590021071
11
-1.9867990093
21
-12.6392162441
31
-6.3736454795
11
-1.9858493661
21
-12.6626800228
31
-6.3882888519
11
-1.9839500798
21
-12.7096075802
31
-6.4175755967
11
-1.9801515073
21
-12.8034626951
31
-6.4761490863
11
-1.9763529347
21
-12.8973178099
31
-6.5347225759
11
-1.9725543622
21
-12.9911729248
31
-6.5932960655
11
-1.9649572170
21
-13.1788831545
31
-6.7104430448
11
-1.9573600719
21
-13.3665933843
31
-6.8275900240
0
SPLINE
5
2F6
100
AcDbEntity
8
INCISIONI_LASER
100
AcDbSpline
62
9
6
CONTINUOUS
70
0
71
3
72
29
73
25
74
23
42
0.0000001000
43
0.0000001000
44
0.0000000001
12
-0.1060918369
22
2.6654551736
32
1.6614055632
13
-0.1370458724
23
4.1443087008
33
2.5509646867
40
0.0000000000
40
0.0000000000
40
0.0000000000
40
0.0000000000
40
0.1250000000
40
0.2500000000
40
0.3750000000
40
0.4375000000
40
0.5000000000
40
0.5625000000
40
0.5937500000
40
0.6250000000
40
0.6406250000
40
0.6562500000
40
0.6640625000
40
0.6679687500
40
0.6718750000
40
0.6796875000
40
0.6875000000
40
0.7031250000
40
0.7187500000
40
0.7500000000
40
0.7812500000
40
0.8125000000
40
0.8750000000
40
1.0000000000
40
1.0000000000
40
1.0000000000
40
1.0000000000
10
-1.8467986128
20
-13.2930881430
30
-6.6448788775
10
-1.8512191060
20
-13.1820275107
30
-6.5756536457
10
-1.8600518093
20
-12.9599017107
30
-6.4372101279
10
-1.8733505629
20
-12.6267402242
30
-6.2295031762
10
-1.8842879034
20
-12.3490262790
30
-6.0565356021
10
-1.8923922339
20
-12.1264930957
30
-5.9186979341
10
-1.8985569151
20
-11.9596490816
30
-5.8152521370
10
-1.9036750140
20
-11.8205770033
30
-5.7290489635
10
-1.9077722014
20
-11.7093763638
30
-5.6601162199
10
-1.9103357408
20
-11.6397511062
30
-5.6169579384
10
-1.9123791818
20
-11.5843363032
30
-5.5826046245
10
-1.9136734099
20
-11.5490509726
30
-5.5607381834
10
-1.9145451235
20
-11.5256560747
30
-5.5462245647
10
-1.9150968300
20
-11.5102460277
30
-5.5366905142
10
-1.9158503979
20
-11.4871452222
30
-5.5224831127
10
-1.9167232408
20
-11.4609025168
30
-5.5063240074
10
-1.9181584152
20
-11.4174425764
30
-5.4795752025
10
-1.9199391576
20
-11.3636215326
30
-5.4464453841
10
-1.9227957374
20
-11.2772262428
30
-5.3932665461
10
-1.9263639260
20
-11.1693287521
30
-5.3268517115
10
-1.9306468377
20
-11.0398104093
30
-5.2471287809
10
-1.9363570080
20
-10.8671337143
30
-5.1408403079
10
-1.9463499836
20
-10.5649427346
30
-4.9548313702
10
-1.9549153303
20
-10.3059242138
30
-4.7953965469
10
-1.9606255750
20
-10.1332446846
30
-4.6891063517
11
-1.8467986128
21
-13.2930881430
31
-6.6448788775
11
-1.8600600924
21
-12.9599062463
31
-6.4372031821
11
-1.8733215721
21
-12.6267243496
31
-6.2295274867
11
-1.8862601908
21
-12.2933628142
31
-6.0221208844
11
-1.8924066394
21
-12.1265024079
31
-5.9186866764
11
-1.8985530880
21
-11.9596420016
31
-5.8152524685
11
-1.9046995366
21
-11.7927815953
31
-5.7118182605
11
-1.9077727608
21
-11.7093513922
31
-5.6601011565
11
-1.9108459851
21
-11.6259211890
31
-5.6083840525
11
-1.9123825973
21
-11.5842060875
31
-5.5825255005
11
-1.9139192094
21
-11.5424909859
31
-5.5566669485
11
-1.9146875155
21
-11.5216334351
31
-5.5437376726
11
-1.9151220627
21
-11.5092846829
31
-5.5361063453
11
-1.9156573981
21
-11.4930959770
31
-5.5261416395
11
-1.9167280690
21
-11.4607185653
31
-5.5062122279
11
-1.9177987399
21
-11.4283411536
31
-5.4862828162
11
-1.9199400816
21
-11.3635863301
31
-5.4464239930
11
-1.9220814234
21
-11.2988315067
31
-5.4065651698
11
-1.9263641069
21
-11.1693218598
31
-5.3268475233
11
-1.9306467904
21
-11.0398122129
31
-5.2471298769
11
-1.9349294739
21
-10.9103025660
31
-5.1674122304
11
-1.9434948409
21
-10.6512832722
31
-5.0079769375
11
-1.9606255750
21
-10.1332446846
31
-4.6891063517
0
SPLINE
5
2F7
100
AcDbEntity
8
0
100
AcDbSpline
62
0
6
CONTINUOUS
70
0
71
3
72
8
73
4
74
2
42
0.0000001000
43
0.0000001000
44
0.0000000001
12
-0.1151517737
22
-0.0884235309
32
0.0000000000
13
-0.1075013267
23
-0.0975466301
33
0.0000000000
40
0.0000000000
40
0.0000000000
40
0.0000000000
40
0.0000000000
40
1.0000000000
40
1.0000000000
40
1.0000000000
40
1.0000000000
10
-5.2601190287
20
-6.9649941156
30
0.0000000000
10
-5.2985029533
20
-6.9944686259
30
0.0000000000
10
-5.3356737237
20
-7.0255331863
30
0.0000000000
10
-5.3715074992
20
-7.0580487297
30
0.0000000000
11
-5.2601190287
21
-6.9649941156
31
0.0000000000
11
-5.3715074992
21
-7.0580487297
31
0.0000000000
0
SPLINE
5
2F8
100
AcDbEntity
8
0
100
AcDbSpline
62
0
6
CONTINUOUS
70
0
71
3
72
8
73
4
74
2
42
0.0000001000
43
0.0000001000
44
0.0000000001
12
-0.0475191805
22
-0.0431188718
32
0.0000000000
13
-0.0459196509
23
-0.0447839142
33
0.0000000000
40
0.0000000000
40
0.0000000000
40
0.0000000000
40
0.0000000000
40
1.0000000000
40
1.0000000000
40
1.0000000000
40
1.0000000000
10
-5.3715074992
20
-7.0580487297
30
0.0000000000
10
-5.3873472260
20
-7.0724216869
30
0.0000000000
10
-5.4029257127
20
-7.0870781569
30
0.0000000000
10
-5.4182322630
20
-7.1020061283
30
0.0000000000
11
-5.3715074992
21
-7.0580487297
31
0.0000000000
11
-5.4182322630
21
-7.1020061283
31
0.0000000000
0
SPLINE
5
2F9
100
AcDbEntity
8
0
100
AcDbSpline
62
0
6
CONTINUOUS
70
0
71
3
72
8
73
4
74
2
42
0.0000001000
43
0.0000001000
44
0.0000000001
12
-0.0095722119
22
-0.0093354612
32
0.0000000000
13
-0.0095013346
23
-0.0094058258
33
0.0000000000
40
0.0000000000
40
0.0000000000
40
0.0000000000
40
0.0000000000
40
1.0000000000
40
1.0000000000
40
1.0000000000
40
1.0000000000
10
-5.4182322630
20
-7.1020061283
30
0.0000000000
10
-5.4214230003
20
-7.1051179487
30
0.0000000000
10
-5.4246019210
20
-7.1082415669
30
0.0000000000
10
-5.4277690325
20
-7.1113768421
30
0.0000000000
11
-5.4182322630
21
-7.1020061283
31
0.0000000000
11
-5.4277690325
21
-7.1113768421
31
0.0000000000
0
SPLINE
5
2FA
100
AcDbEntity
8
0
100
AcDbSpline
62
0
6
CONTINUOUS
70
0
71
3
72
8
73
4
74
2
42
0.0000001000
43
0.0000001000
44
0.0000000001
12
-0.0457746054
22
-0.0453144723
32
0.0000000000
13
-0.0441325756
23
-0.0468906725
33
0.0000000000
40
0.0000000000
40
0.0000000000
40
0.0000000000
40
0.0000000000
40
1.0000000000
40
1.0000000000
40
1.0000000000
40
1.0000000000
10
-5.4277690325
20
-7.1113768421
30
0.0000000000
10
-5.4430272343
20
-7.1264816662
30
0.0000000000
10
-5.4580113432
20
-7.1418570547
30
0.0000000000
10
-5.4727222018
20
-7.1574872789
30
0.0000000000
11
-5.4277690325
21
-7.1113768421
31
0.0000000000
11
-5.4727222018
21
-7.1574872789
31
0.0000000000
0
SPLINE
5
2FB
100
AcDbEntity
8
0
100
AcDbSpline
62
0
6
CONTINUOUS
70
0
71
3
72
8
73
4
74
2
42
0.0000001000
43
0.0000001000
44
0.0000000001
12
-0.0408118343
22
-0.0433623991
32
0.0000000000
13
-0.0394117757
23
-0.0446326542
33
0.0000000000
40
0.0000000000
40
0.0000000000
40
0.0000000000
40
0.0000000000
40
1.0000000000
40
1.0000000000
40
1.0000000000
40
1.0000000000
10
-5.4727222018
20
-7.1574872789
30
0.0000000000
10
-5.4863261465
20
-7.1719414119
30
0.0000000000
10
-5.4996964151
20
-7.1866134734
30
0.0000000000
10
-5.5128336737
20
-7.2014910248
30
0.0000000000
11
-5.4727222018
21
-7.1574872789
31
0.0000000000
11
-5.5128336737
21
-7.2014910248
31
0.0000000000
0
SPLINE
5
2FC
100
AcDbEntity
8
0
100
AcDbSpline
62
0
6
CONTINUOUS
70
0
71
3
72
8
73
4
74
2
42
0.0000001000
43
0.0000001000
44
0.0000000001
12
-0.0154638225
22
-0.0184965101
32
0.0000000000
13
-0.0152353232
23
-0.0186854752
33
0.0000000000
40
0.0000000000
40
0.0000000000
40
0.0000000000
40
0.0000000000
40
1.0000000000
40
1.0000000000
40
1.0000000000
40
1.0000000000
10
-5.5467401908
20
-7.2409555724
30
0.0000000000
10
-5.5518947983
20
-7.2471210757
30
0.0000000000
10
-5.5570113005
20
-7.2533184861
30
0.0000000000
10
-5.5620897416
20
-7.2595469778
30
0.0000000000
11
-5.5467401908
21
-7.2409555724
31
0.0000000000
11
-5.5620897416
21
-7.2595469778
31
0.0000000000
0
SPLINE
5
2FD
100
AcDbEntity
8
0
100
AcDbSpline
62
9
6
CONTINUOUS
70
0
71
3
72
8
73
4
74
2
42
0.0000001000
43
0.0000001000
44
0.0000000001
12
0.0426700386
22
-0.0213491025
32
0.0000000000
13
0.0424089418
23
-0.0218786539
33
0.0000000000
40
0.0000000000
40
0.0000000000
40
0.0000000000
40
0.0000000000
40
1.0000000000
40
1.0000000000
40
1.0000000000
40
1.0000000000
10
-0.4704347035
20
-8.5348666961
30
0.0000000000
10
-0.4562113572
20
-8.5419830637
30
0.0000000000
10
-0.4420314575
20
-8.5491885688
30
0.0000000000
10
-0.4278951435
20
-8.5564814535
30
0.0000000000
11
-0.4704347035
21
-8.5348666961
31
0.0000000000
11
-0.4278951435
21
-8.5564814535
31
0.0000000000
0
SPLINE
5
2FE
100
AcDbEntity
8
0
100
AcDbSpline
62
9
6
CONTINUOUS
70
0
71
3
72
8
73
4
74
2
42
0.0000001000
43
0.0000001000
44
0.0000000001
12
0.1825964663
22
-0.3989411401
32
0.0000000000
13
0.1592711885
23
-0.4088125944
33
0.0000000000
40
0.0000000000
40
0.0000000000
40
0.0000000000
40
0.0000000000
40
1.0000000000
40
1.0000000000
40
1.0000000000
40
1.0000000000
10
2.2514199400
20
-11.5987822899
30
0.0000000000
10
2.3122854287
20
-11.7317626699
30
0.0000000000
10
2.3693932987
20
-11.8664739814
30
0.0000000000
10
2.4224836949
20
-12.0027448462
30
0.0000000000
11
2.2514199400
21
-11.5987822899
31
0.0000000000
11
2.4224836949
21
-12.0027448462
31
0.0000000000
0
SPLINE
5
2FF
100
AcDbEntity
8
0
100
AcDbSpline
62
9
6
CONTINUOUS
70
0
71
3
72
8
73
4
74
2
42
0.0000001000
43
0.0000001000
44
0.0000000001
12
0.0207899603
22
-0.0533630575
32
0.0000000000
13
0.0203775146
23
-0.0535213493
33
0.0000000000
40
0.0000000000
40
0.0000000000
40
0.0000000000
40
0.0000000000
40
1.0000000000
40
1.0000000000
40
1.0000000000
40
1.0000000000
10
2.4224836949
20
-12.0027448462
30
0.0000000000
10
2.4294136816
20
-12.0205325320
30
0.0000000000
10
2.4362752164
20
-12.0383467904
30
0.0000000000
10
2.4430677213
20
-12.0561872401
30
0.0000000000
11
2.4224836949
21
-12.0027448462
31
0.0000000000
11
2.4430677213
21
-12.0561872401
31
0.0000000000
0
SPLINE
5
300
100
AcDbEntity
8
0
100
AcDbSpline
62
9
6
CONTINUOUS
70
0
71
3
72
8
73
4
74
2
42
0.0000001000
43
0.0000001000
44
0.0000000001
12
0.0370686618
22
-0.0973604893
32
0.0000000000
13
0.0356876591
23
-0.0978736274
33
0.0000000000
40
0.0000000000
40
0.0000000000
40
0.0000000000
40
0.0000000000
40
1.0000000000
40
1.0000000000
40
1.0000000000
40
1.0000000000
10
2.4430677213
20
-12.0561872401
30
0.0000000000
10
2.4554239419
20
-12.0886407366
30
0.0000000000
10
2.4675517349
20
-12.1211809032
30
0.0000000000
10
2.4794476212
20
-12.1538054457
30
0.0000000000
11
2.4430677213
21
-12.0561872401
31
0.0000000000
11
2.4794476212
21
-12.1538054457
31
0.0000000000
0
SPLINE
5
301
100
AcDbEntity
8
0
100
AcDbSpline
62
9
6
CONTINUOUS
70
0
71
3
72
8
73
4
74
2
42
0.0000001000
43
0.0000001000
44
0.0000000001
12
0.0465373932
22
-0.1276290905
32
0.0000000000
13
0.0441481543
23
-0.1284746964
33
0.0000000000
40
0.0000000000
40
0.0000000000
40
0.0000000000
40
0.0000000000
40
1.0000000000
40
1.0000000000
40
1.0000000000
40
1.0000000000
10
2.4794476212
20
-12.1538054457
30
0.0000000000
10
2.4949600856
20
-12.1963484759
30
0.0000000000
10
2.5100782007
20
-12.2390349842
30
0.0000000000
10
2.5247942522
20
-12.2818598830
30
0.0000000000
11
2.4794476212
21
-12.1538054457
31
0.0000000000
11
2.5247942522
21
-12.2818598830
31
0.0000000000
0
SPLINE
5
302
100
AcDbEntity
8
0
100
AcDbSpline
62
9
6
CONTINUOUS
70
0
71
3
72
11
73
7
74
5
42
0.0000001000
43
0.0000001000
44
0.0000000001
12
0.8503820859
22
-2.4746805833
32
0.0000000000
13
-0.4272386980
23
-2.5865168380
33
0.0000000000
40
0.0000000000
40
0.0000000000
40
0.0000000000
40
0.0000000000
40
0.1372994770
40
0.5304578648
40
0.8903969803
40
1.0000000000
40
1.0000000000
40
1.0000000000
40
1.0000000000
10
2.5247942522
20
-12.2818598830
30
0.0000000000
10
2.5637132574
20
-12.3951173330
30
0.0000000000
10
2.7032125139
20
-12.8364282256
30
0.0000000000
10
2.8633345716
20
-13.5990819266
30
0.0000000000
10
2.8870501453
20
-14.3553169247
30
0.0000000000
10
2.8371535455
20
-14.7630455035
30
0.0000000000
10
2.8215446617
20
-14.8575421889
30
0.0000000000
11
2.5247942522
21
-12.2818598830
31
0.0000000000
11
2.6329721766
21
-12.6244419334
31
0.0000000000
11
2.8380401612
21
-13.6316522526
31
0.0000000000
11
2.8570257640
21
-14.5724864289
31
0.0000000000
11
2.8215446617
21
-14.8575421889
31
0.0000000000
0
SPLINE
5
303
100
AcDbEntity
8
0
100
AcDbSpline
62
9
6
CONTINUOUS
70
0
71
3
72
8
73
4
74
2
42
0.0000001000
43
0.0000001000
44
0.0000000001
12
-0.0351040823
22
-0.1372853140
32
0.0000000000
13
-0.0418403908
23
-0.1354731720
33
0.0000000000
40
0.0000000000
40
0.0000000000
40
0.0000000000
40
0.0000000000
40
1.0000000000
40
1.0000000000
40
1.0000000000
40
1.0000000000
10
2.7651041240
20
-15.1276255752
30
0.0000000000
10
2.7534027632
20
-15.1733873465
30
0.0000000000
10
2.7406110813
20
-15.2188751116
30
0.0000000000
10
2.7266642844
20
-15.2640328356
30
0.0000000000
11
2.7651041240
21
-15.1276255752
31
0.0000000000
11
2.7266642844
21
-15.2640328356
31
0.0000000000
0
SPLINE
5
304
100
AcDbEntity
8
0
100
AcDbSpline
62
9
6
CONTINUOUS
70
0
71
3
72
8
73
4
74
2
42
0.0000001000
43
0.0000001000
44
0.0000000001
12
-0.0320055842
22
-0.1036294817
32
0.0000000000
13
-0.0361480160
23
-0.1023955162
33
0.0000000000
40
0.0000000000
40
0.0000000000
40
0.0000000000
40
0.0000000000
40
1.0000000000
40
1.0000000000
40
1.0000000000
40
1.0000000000
10
2.7266642844
20
-15.2640328356
30
0.0000000000
10
2.7159957564
20
-15.2985759961
30
0.0000000000
10
2.7046513239
20
-15.3329260363
30
0.0000000000
10
2.6926019852
20
-15.3670578751
30
0.0000000000
11
2.7266642844
21
-15.2640328356
31
0.0000000000
11
2.6926019852
21
-15.3670578751
31
0.0000000000
0
SPLINE
5
305
100
AcDbEntity
8
0
100
AcDbSpline
62
9
6
CONTINUOUS
70
0
71
3
72
8
73
4
74
2
42
0.0000001000
43
0.0000001000
44
0.0000000001
12
-0.0040704767
22
-0.0115303302
32
0.0000000000
13
-0.0041242305
23
-0.0115136219
33
0.0000000000
40
0.0000000000
40
0.0000000000
40
0.0000000000
40
0.0000000000
40
1.0000000000
40
1.0000000000
40
1.0000000000
40
1.0000000000
10
2.6926019852
20
-15.3670578751
30
0.0000000000
10
2.6912451597
20
-15.3709013185
30
0.0000000000
10
2.6898793959
20
-15.3747419951
30
0.0000000000
10
2.6885046524
20
-15.3785798690
30
0.0000000000
11
2.6926019852
21
-15.3670578751
31
0.0000000000
11
2.6885046524
21
-15.3785798690
31
0.0000000000
0
SPLINE
5
306
100
AcDbEntity
8
0
100
AcDbSpline
62
9
6
CONTINUOUS
70
0
71
3
72
8
73
4
74
2
42
0.0000001000
43
0.0000001000
44
0.0000000001
12
-0.0848692967
22
-0.2369297749
32
0.0000000000
13
-0.1087155715
23
-0.2272697431
33
0.0000000000
40
0.0000000000
40
0.0000000000
40
0.0000000000
40
0.0000000000
40
1.0000000000
40
1.0000000000
40
1.0000000000
40
1.0000000000
10
2.6885046524
20
-15.3785798690
30
0.0000000000
10
2.6602148868
20
-15.4575564607
30
0.0000000000
10
2.6281225647
20
-15.5353462459
30
0.0000000000
10
2.5918840409
20
-15.6111028269
30
0.0000000000
11
2.6885046524
21
-15.3785798690
31
0.0000000000
11
2.5918840409
21
-15.6111028269
31
0.0000000000
0
SPLINE
5
307
100
AcDbEntity
8
0
100
AcDbSpline
62
9
6
CONTINUOUS
70
0
71
3
72
8
73
4
74
2
42
0.0000001000
43
0.0000001000
44
0.0000000001
12
-0.0211157928
22
-0.0441425339
32
0.0000000000
13
-0.0220618440
23
-0.0436637104
33
0.0000000000
40
0.0000000000
40
0.0000000000
40
0.0000000000
40
0.0000000000
40
1.0000000000
40
1.0000000000
40
1.0000000000
40
1.0000000000
10
2.5918840409
20
-15.6111028269
30
0.0000000000
10
2.5848454433
20
-15.6258170049
30
0.0000000000
10
2.5776504295
20
-15.6404544798
30
0.0000000000
10
2.5702964815
20
-15.6550090500
30
0.0000000000
11
2.5918840409
21
-15.6111028269
31
0.0000000000
11
2.5702964815
21
-15.6550090500
31
0.0000000000
0
SPLINE
5
308
100
AcDbEntity
8
0
100
AcDbSpline
62
9
6
CONTINUOUS
70
0
71
3
72
8
73
4
74
2
42
0.0000001000
43
0.0000001000
44
0.0000000001
12
-0.0878075754
22
-0.1737844104
32
0.0000000000
13
-0.1033898230
23
-0.1647316370
33
0.0000000000
40
0.0000000000
40
0.0000000000
40
0.0000000000
40
0.0000000000
40
1.0000000000
40
1.0000000000
40
1.0000000000
40
1.0000000000
10
2.5702964815
20
-15.6550090500
30
0.0000000000
10
2.5410272897
20
-15.7129371868
30
0.0000000000
10
2.5092404342
20
-15.7695520348
30
0.0000000000
10
2.4747771599
20
-15.8244625805
30
0.0000000000
11
2.5702964815
21
-15.6550090500
31
0.0000000000
11
2.4747771599
21
-15.8244625805
31
0.0000000000
0
SPLINE
5
309
100
AcDbEntity
8
0
100
AcDbSpline
62
9
6
CONTINUOUS
70
0
71
3
72
8
73
4
74
2
42
0.0000001000
43
0.0000001000
44
0.0000000001
12
-0.0435544227
22
-0.0336952842
32
0.0000000000
13
-0.0446560411
23
-0.0321748795
33
0.0000000000
40
0.0000000000
40
0.0000000000
40
0.0000000000
40
0.0000000000
40
1.0000000000
40
1.0000000000
40
1.0000000000
40
1.0000000000
10
2.0628769999
20
-16.2834874756
30
0.0000000000
10
2.0483588590
20
-16.2947192370
30
0.0000000000
10
2.0336541437
20
-16.3057029277
30
0.0000000000
10
2.0187687967
20
-16.3164278875
30
0.0000000000
11
2.0628769999
21
-16.2834874756
31
0.0000000000
11
2.0187687967
21
-16.3164278875
31
0.0000000000
0
SPLINE
5
30A
100
AcDbEntity
8
0
100
AcDbSpline
62
9
6
CONTINUOUS
70
0
71
3
72
8
73
4
74
2
42
0.0000001000
43
0.0000001000
44
0.0000000001
12
-0.1188381355
22
-0.0538846954
32
0.0000000000
13
-0.1230242652
23
-0.0439183057
33
0.0000000000
40
0.0000000000
40
0.0000000000
40
0.0000000000
40
0.0000000000
40
1.0000000000
40
1.0000000000
40
1.0000000000
40
1.0000000000
10
1.7559942519
20
-16.4689967488
30
0.0000000000
10
1.7163815401
20
-16.4869583139
30
0.0000000000
10
1.6759909789
20
-16.5032447713
30
0.0000000000
10
1.6349828905
20
-16.5178842065
30
0.0000000000
11
1.7559942519
21
-16.4689967488
31
0.0000000000
11
1.6349828905
21
-16.5178842065
31
0.0000000000
0
SPLINE
5
30B
100
AcDbEntity
8
0
100
AcDbSpline
62
9
6
CONTINUOUS
70
0
71
3
72
10
73
6
74
4
42
0.0000001000
43
0.0000001000
44
0.0000000001
12
-1.3895133678
22
-0.2957382473
32
0.0000000000
13
-1.3033939578
23
0.5436145239
33
0.0000000000
40
0.0000000000
40
0.0000000000
40
0.0000000000
40
0.0000000000
40
0.1585786434
40
0.6583951995
40
1.0000000000
40
1.0000000000
40
1.0000000000
40
1.0000000000
10
1.4195737089
20
-16.5787666845
30
0.0000000000
10
1.3461246606
20
-16.5943992745
30
0.0000000000
10
1.0369541088
20
-16.6396188644
30
0.0000000000
10
0.5621880657
20
-16.5879234790
30
0.0000000000
10
0.1855945954
20
-16.4609720110
30
0.0000000000
10
0.0371793844
20
-16.3990715673
30
0.0000000000
11
1.4195737089
21
-16.5787666845
31
0.0000000000
11
1.1969952974
21
-16.6115843660
31
0.0000000000
11
0.4951494806
21
-16.5502976870
31
0.0000000000
11
0.0371793844
21
-16.3990715673
31
0.0000000000
0
SPLINE
5
30C
100
AcDbEntity
8
0
100
AcDbSpline
62
9
6
CONTINUOUS
70
0
71
3
72
9
73
5
74
3
42
0.0000001000
43
0.0000001000
44
0.0000000001
12
0.0242459641
22
-0.3798716375
32
0.0000000000
13
0.3404367378
23
-0.1706792996
33
0.0000000000
40
0.0000000000
40
0.0000000000
40
0.0000000000
40
0.0000000000
40
0.4304745147
40
1.0000000000
40
1.0000000000
40
1.0000000000
40
1.0000000000
10
-8.8581081629
20
-13.9220020315
30
0.0000000000
10
-8.8546290731
20
-13.9765103844
30
0.0000000000
10
-8.7978619509
20
-14.1013373631
30
0.0000000000
10
-8.6884362744
20
-14.1737419686
30
0.0000000000
10
-8.6238071416
20
-14.2061440389
30
0.0000000000
11
-8.8581081629
21
-13.9220020315
31
0.0000000000
11
-8.7959974068
21
-14.0742657493
31
0.0000000000
11
-8.6238071416
21
-14.2061440389
31
0.0000000000
0
SPLINE
5
30D
100
AcDbEntity
8
0
100
AcDbSpline
62
9
6
CONTINUOUS
70
0
71
3
72
8
73
4
74
2
42
0.0000001000
43
0.0000001000
44
0.0000000001
12
-0.1498649572
22
-0.0791007717
32
0.0000000000
13
-0.1579791690
23
-0.0617167009
33
0.0000000000
40
0.0000000000
40
0.0000000000
40
0.0000000000
40
0.0000000000
40
1.0000000000
40
1.0000000000
40
1.0000000000
40
1.0000000000
10
1.8615060806
20
-16.3005179856
30
0.0000000000
10
1.8115510948
20
-16.3268849095
30
0.0000000000
10
1.7600593865
20
-16.3503218557
30
0.0000000000
10
1.7073996635
20
-16.3708940894
30
0.0000000000
11
1.8615060806
21
-16.3005179856
31
0.0000000000
11
1.7073996635
21
-16.3708940894
31
0.0000000000
0
SPLINE
5
30E
100
AcDbEntity
8
0
100
AcDbSpline
62
9
6
CONTINUOUS
70
0
71
3
72
8
73
4
74
2
42
0.0000001000
43
0.0000001000
44
0.0000000001
12
-0.0436206853
22
-0.0170410112
32
0.0000000000
13
-0.0441316793
23
-0.0157347346
33
0.0000000000
40
0.0000000000
40
0.0000000000
40
0.0000000000
40
0.0000000000
40
1.0000000000
40
1.0000000000
40
1.0000000000
40
1.0000000000
10
1.7073996635
20
-16.3708940894
30
0.0000000000
10
1.6928594351
20
-16.3765744264
30
0.0000000000
10
1.6782301591
20
-16.3820363617
30
0.0000000000
10
1.6635195993
20
-16.3872812732
30
0.0000000000
11
1.7073996635
21
-16.3708940894
31
0.0000000000
11
1.6635195993
21
-16.3872812732
31
0.0000000000
0
SPLINE
5
30F
100
AcDbEntity
8
0
100
AcDbSpline
62
9
6
CONTINUOUS
70
0
71
3
72
10
73
6
74
4
42
0.0000001000
43
0.0000001000
44
0.0000000001
12
-1.6009864870
22
-0.3411249968
32
0.0000000000
13
-1.4527195532
23
0.7262306810
33
0.0000000000
40
0.0000000000
40
0.0000000000
40
0.0000000000
40
0.0000000000
40
0.1348907184
40
0.5590008127
40
1.0000000000
40
1.0000000000
40
1.0000000000
40
1.0000000000
10
1.4541606612
20
-16.4464350005
30
0.0000000000
10
1.3821745887
20
-16.4617731992
30
0.0000000000
10
1.0797056399
20
-16.5060088888
30
0.0000000000
10
0.5326935682
20
-16.4462722550
30
0.0000000000
10
0.0922848257
20
-16.2749984372
30
0.0000000000
10
-0.1212645551
20
-16.1682427238
30
0.0000000000
11
1.4541606612
21
-16.4464350005
31
0.0000000000
11
1.2360061272
21
-16.4786017178
31
0.0000000000
11
0.5498190225
21
-16.4185383794
31
0.0000000000
11
-0.1212645551
21
-16.1682427238
31
0.0000000000
0
SPLINE
5
310
100
AcDbEntity
8
0
100
AcDbSpline
62
9
6
CONTINUOUS
70
0
71
3
72
10
73
6
74
4
42
0.0000001000
43
0.0000001000
44
0.0000000001
12
-0.0264045932
22
-0.3740282278
32
0.0000000000
13
0.3389132583
23
-0.1689443759
33
0.0000000000
40
0.0000000000
40
0.0000000000
40
0.0000000000
40
0.0000000000
40
0.0320897254
40
0.4391496545
40
1.0000000000
40
1.0000000000
40
1.0000000000
40
1.0000000000
10
-8.8581243947
20
20.9759717977
30
0.0000000000
10
-8.8584068334
20
20.9719709767
30
0.0000000000
10
-8.8601094809
20
20.9171993972
30
0.0000000000
10
-8.7928121300
20
20.7945724193
30
0.0000000000
10
-8.6871670166
20
20.7303084871
30
0.0000000000
10
-8.6238071439
20
20.6987243166
30
0.0000000000
11
-8.8581243947
21
20.9759717977
31
0.0000000000
11
-8.8584887713
21
20.9639713059
31
0.0000000000
11
-8.7959974152
21
20.8230577801
31
0.0000000000
11
-8.6238071439
21
20.6987243166
31
0.0000000000
0
SPLINE
5
311
100
AcDbEntity
8
0
100
AcDbSpline
62
0
6
CONTINUOUS
70
0
71
3
72
8
73
4
74
2
42
0.0000001000
43
0.0000001000
44
0.0000000001
12
0.0367654782
22
0.0063123453
32
0.0000000000
13
0.0366419476
23
0.0070943049
33
0.0000000000
40
0.0000000000
40
0.0000000000
40
0.0000000000
40
0.0000000000
40
1.0000000000
40
1.0000000000
40
1.0000000000
40
1.0000000000
10
1.6275236855
20
-16.3260752361
30
0.0000000000
10
1.6397788449
20
-16.3239711209
30
0.0000000000
10
1.6520150076
20
-16.3217364196
30
0.0000000000
10
1.6642289901
20
-16.3193716513
30
0.0000000000
11
1.6275236855
21
-16.3260752361
31
0.0000000000
11
1.6642289901
21
-16.3193716513
31
0.0000000000
0
SPLINE
5
312
100
AcDbEntity
8
0
100
AcDbSpline
62
9
6
CONTINUOUS
70
0
71
3
72
13
73
9
74
7
42
0.0000001000
43
0.0000001000
44
0.0000000001
12
-0.6169966569
22
0.4521122190
32
0.0000000000
13
-0.0427161828
23
0.7617214815
33
0.0000000000
40
0.0000000000
40
0.0000000000
40
0.0000000000
40
0.0000000000
40
0.0423602160
40
0.2293759929
40
0.4224736885
40
0.6192367438
40
0.8142690741
40
1.0000000000
40
1.0000000000
40
1.0000000000
40
1.0000000000
10
-8.3200857133
20
-14.8805549408
30
0.0000000000
10
-8.3287977505
20
-14.8741710837
30
0.0000000000
10
-8.3749883890
20
-14.8382683834
30
0.0000000000
10
-8.4495148990
20
-14.7595477418
30
0.0000000000
10
-8.5258033788
20
-14.6331278806
30
0.0000000000
10
-8.5790130104
20
-14.4935373169
30
0.0000000000
10
-8.6110928771
20
-14.3498059518
30
0.0000000000
10
-8.6211626141
20
-14.2533024769
30
0.0000000000
10
-8.6238071861
20
-14.2061440649
30
0.0000000000
11
-8.3200857133
21
-14.8805549408
31
0.0000000000
11
-8.3456630062
21
-14.8606771619
31
0.0000000000
11
-8.4443786820
21
-14.7576618399
31
0.0000000000
11
-8.5213714738
21
-14.6320647363
31
0.0000000000
11
-8.5756697765
21
-14.4921149370
31
0.0000000000
11
-8.6087024181
21
-14.3470342074
31
0.0000000000
11
-8.6238071861
21
-14.2061440649
31
0.0000000000
0
SPLINE
5
313
100
AcDbEntity
8
0
100
AcDbSpline
62
9
6
CONTINUOUS
70
0
71
3
72
8
73
4
74
2
42
0.0000001000
43
0.0000001000
44
0.0000000001
12
-0.1515930246
22
0.0901658701
32
0.0000000000
13
-0.1479878249
23
0.0962409490
33
0.0000000000
40
0.0000000000
40
0.0000000000
40
0.0000000000
40
0.0000000000
40
1.0000000000
40
1.0000000000
40
1.0000000000
40
1.0000000000
10
-3.3495729475
20
-14.5418511807
30
0.0000000000
10
-3.4001039557
20
-14.5117958906
30
0.0000000000
10
-3.4500366078
20
-14.4806830287
30
0.0000000000
10
-3.4993658828
20
-14.4486027124
30
0.0000000000
11
-3.3495729475
21
-14.5418511807
31
0.0000000000
11
-3.4993658828
21
-14.4486027124
31
0.0000000000
0
SPLINE
5
314
100
AcDbEntity
8
0
100
AcDbSpline
62
9
6
CONTINUOUS
70
0
71
3
72
8
73
4
74
2
42
0.0000001000
43
0.0000001000
44
0.0000000001
12
-0.1091025422
22
0.0709526761
32
0.0000000000
13
-0.1071288109
23
0.0739993451
33
0.0000000000
40
0.0000000000
40
0.0000000000
40
0.0000000000
40
0.0000000000
40
1.0000000000
40
1.0000000000
40
1.0000000000
40
1.0000000000
10
-3.4993658828
20
-14.4486027124
30
0.0000000000
10
-3.5357333969
20
-14.4249518203
30
0.0000000000
10
-3.5717729617
20
-14.4007750948
30
0.0000000000
10
-3.6074825653
20
-14.3761086464
30
0.0000000000
11
-3.4993658828
21
-14.4486027124
31
0.0000000000
11
-3.6074825653
21
-14.3761086464
31
0.0000000000
0
SPLINE
5
315
100
AcDbEntity
8
0
100
AcDbSpline
62
9
6
CONTINUOUS
70
0
71
3
72
8
73
4
74
2
42
0.0000001000
43
0.0000001000
44
0.0000000001
12
-0.0275170049
22
0.0190074017
32
0.0000000000
13
-0.0273862844
23
0.0191994272
33
0.0000000000
40
0.0000000000
40
0.0000000000
40
0.0000000000
40
0.0000000000
40
1.0000000000
40
1.0000000000
40
1.0000000000
40
1.0000000000
10
-3.6074825653
20
-14.3761086464
30
0.0000000000
10
-3.6166549003
20
-14.3697728459
30
0.0000000000
10
-3.6258054656
20
-14.3634047351
30
0.0000000000
10
-3.6349342270
20
-14.3570049260
30
0.0000000000
11
-3.6074825653
21
-14.3761086464
31
0.0000000000
11
-3.6349342270
21
-14.3570049260
31
0.0000000000
0
SPLINE
5
316
100
AcDbEntity
8
0
100
AcDbSpline
62
9
6
CONTINUOUS
70
0
71
3
72
8
73
4
74
2
42
0.0000001000
43
0.0000001000
44
0.0000000001
12
-0.0503628655
22
0.0423971049
32
0.0000000000
13
-0.0498564811
23
0.0429742853
33
0.0000000000
40
0.0000000000
40
0.0000000000
40
0.0000000000
40
0.0000000000
40
1.0000000000
40
1.0000000000
40
1.0000000000
40
1.0000000000
10
-4.0024624381
20
-14.0737077922
30
0.0000000000
10
-4.0192500599
20
-14.0595754239
30
0.0000000000
10
-4.0359530688
20
-14.0453458254
30
0.0000000000
10
-4.0525718959
20
-14.0310210636
30
0.0000000000
11
-4.0024624381
21
-14.0737077922
31
0.0000000000
11
-4.0525718959
21
-14.0310210636
31
0.0000000000
0
SPLINE
5
317
100
AcDbEntity
8
0
100
AcDbSpline
62
9
6
CONTINUOUS
70
0
71
3
72
8
73
4
74
2
42
0.0000001000
43
0.0000001000
44
0.0000000001
12
0.1052507978
22
0.2156636355
32
0.0000000000
13
0.1287901607
23
0.2021323583
33
0.0000000000
40
0.0000000000
40
0.0000000000
40
0.0000000000
40
0.0000000000
40
1.0000000000
40
1.0000000000
40
1.0000000000
40
1.0000000000
10
-6.1302185170
20
-7.7873913127
30
0.0000000000
10
-6.0951349178
20
-7.7155034342
30
0.0000000000
10
-6.0562542672
20
-7.6455087815
30
0.0000000000
10
-6.0133242137
20
-7.5781313288
30
0.0000000000
11
-6.1302185170
21
-7.7873913127
31
0.0000000000
11
-6.0133242137
21
-7.5781313288
31
0.0000000000
0
SPLINE
5
318
100
AcDbEntity
8
0
100
AcDbSpline
62
9
6
CONTINUOUS
70
0
71
3
72
8
73
4
74
2
42
0.0000001000
43
0.0000001000
44
0.0000000001
12
0.0420845739
22
0.0660504974
32
0.0000000000
13
0.0447053041
23
0.0642979643
33
0.0000000000
40
0.0000000000
40
0.0000000000
40
0.0000000000
40
0.0000000000
40
1.0000000000
40
1.0000000000
40
1.0000000000
40
1.0000000000
10
-6.0133242137
20
-7.5781313288
30
0.0000000000
10
-5.9992960223
20
-7.5561144963
30
0.0000000000
10
-5.9848354451
20
-7.5343771224
30
0.0000000000
10
-5.9699336771
20
-7.5129444676
30
0.0000000000
11
-6.0133242137
21
-7.5781313288
31
0.0000000000
11
-5.9699336771
21
-7.5129444676
31
0.0000000000
0
SPLINE
5
319
100
AcDbEntity
8
0
100
AcDbSpline
62
9
6
CONTINUOUS
70
0
71
3
72
8
73
4
74
2
42
0.0000001000
43
0.0000001000
44
0.0000000001
12
0.0056150769
22
0.0080759547
32
0.0000000000
13
0.0056568902
23
0.0080469613
33
0.0000000000
40
0.0000000000
40
0.0000000000
40
0.0000000000
40
0.0000000000
40
1.0000000000
40
1.0000000000
40
1.0000000000
40
1.0000000000
10
-5.9699336771
20
-7.5129444676
30
0.0000000000
10
-5.9680619848
20
-7.5102524827
30
0.0000000000
10
-5.9661833324
20
-7.5075653050
30
0.0000000000
10
-5.9642977023
20
-7.5048829846
30
0.0000000000
11
-5.9699336771
21
-7.5129444676
31
0.0000000000
11
-5.9642977023
21
-7.5048829846
31
0.0000000000
0
SPLINE
5
31A
100
AcDbEntity
8
0
100
AcDbSpline
62
9
6
CONTINUOUS
70
0
71
3
72
8
73
4
74
2
42
0.0000001000
43
0.0000001000
44
0.0000000001
12
0.0819474777
22
0.1165707936
32
0.0000000000
13
0.0908922449
23
0.1099984321
33
0.0000000000
40
0.0000000000
40
0.0000000000
40
0.0000000000
40
0.0000000000
40
1.0000000000
40
1.0000000000
40
1.0000000000
40
1.0000000000
10
-5.9642977023
20
-7.5048829846
30
0.0000000000
10
-5.9369818764
20
-7.4660260534
30
0.0000000000
10
-5.9082017752
20
-7.4281884346
30
0.0000000000
10
-5.8779043602
20
-7.3915222906
30
0.0000000000
11
-5.9642977023
21
-7.5048829846
31
0.0000000000
11
-5.8779043602
21
-7.3915222906
31
0.0000000000
0
SPLINE
5
31B
100
AcDbEntity
8
0
100
AcDbSpline
62
9
6
CONTINUOUS
70
0
71
3
72
8
73
4
74
2
42
0.0000001000
43
0.0000001000
44
0.0000000001
12
0.1417045672
22
0.1714918608
32
0.0000000000
13
0.1626554577
23
0.1524023417
33
0.0000000000
40
0.0000000000
40
0.0000000000
40
0.0000000000
40
0.0000000000
40
1.0000000000
40
1.0000000000
40
1.0000000000
40
1.0000000000
10
-5.8779043602
20
-7.3915222906
30
0.0000000000
10
-5.8306695044
20
-7.3343583370
30
0.0000000000
10
-5.7797466613
20
-7.2800417735
30
0.0000000000
10
-5.7255281754
20
-7.2292409929
30
0.0000000000
11
-5.8779043602
21
-7.3915222906
31
0.0000000000
11
-5.7255281754
21
-7.2292409929
31
0.0000000000
0
SPLINE
5
31C
100
AcDbEntity
8
0
100
AcDbSpline
62
9
6
CONTINUOUS
70
0
71
3
72
8
73
4
74
2
42
0.0000001000
43
0.0000001000
44
0.0000000001
12
0.1034774020
22
0.0743130627
32
0.0000000000
13
0.1089775343
23
0.0657488150
33
0.0000000000
40
0.0000000000
40
0.0000000000
40
0.0000000000
40
0.0000000000
40
1.0000000000
40
1.0000000000
40
1.0000000000
40
1.0000000000
10
-5.5575455280
20
-7.0910372823
30
0.0000000000
10
-5.5230530606
20
-7.0662662614
30
0.0000000000
10
-5.4876071583
20
-7.0428600146
30
0.0000000000
10
-5.4512813135
20
-7.0209437429
30
0.0000000000
11
-5.5575455280
21
-7.0910372823
31
0.0000000000
11
-5.4512813135
21
-7.0209437429
31
0.0000000000
0
SPLINE
5
31D
100
AcDbEntity
8
0
100
AcDbSpline
62
9
6
CONTINUOUS
70
0
71
3
72
8
73
4
74
2
42
0.0000001000
43
0.0000001000
44
0.0000000001
12
0.0609206095
22
0.0321134191
32
0.0000000000
13
0.0623088928
23
0.0293498509
33
0.0000000000
40
0.0000000000
40
0.0000000000
40
0.0000000000
40
0.0000000000
40
1.0000000000
40
1.0000000000
40
1.0000000000
40
1.0000000000
10
-5.3740107054
20
-6.9773013800
30
0.0000000000
10
-5.3537038355
20
-6.9665969070
30
0.0000000000
10
-5.3331541909
20
-6.9563545284
30
0.0000000000
10
-5.3123845600
20
-6.9465712447
30
0.0000000000
11
-5.3740107054
21
-6.9773013800
31
0.0000000000
11
-5.3123845600
21
-6.9465712447
31
0.0000000000
0
SPLINE
5
31E
100
AcDbEntity
8
0
100
AcDbSpline
62
9
6
CONTINUOUS
70
0
71
3
72
9
73
5
74
3
42
0.0000001000
43
0.0000001000
44
0.0000000001
12
0.0013842112
22
-0.0595434742
32
0.0000000000
13
0.0537520112
23
-0.0283866195
33
0.0000000000
40
0.0000000000
40
0.0000000000
40
0.0000000000
40
0.0000000000
40
0.6411314756
40
1.0000000000
40
1.0000000000
40
1.0000000000
40
1.0000000000
10
-3.4402831844
20
-7.0499424556
30
0.0000000000
10
-3.4399873640
20
-7.0626675208
30
0.0000000000
10
-3.4363717796
20
-7.0836147224
30
0.0000000000
10
-3.4206503082
20
-7.0979758433
30
0.0000000000
10
-3.4142203399
20
-7.1013715314
30
0.0000000000
11
-3.4402831844
21
-7.0499424556
31
0.0000000000
11
-3.4303751145
21
-7.0868201357
31
0.0000000000
11
-3.4142203399
21
-7.1013715314
31
0.0000000000
0
SPLINE
5
31F
100
AcDbEntity
8
0
100
AcDbSpline
62
9
6
CONTINUOUS
70
0
71
3
72
15
73
11
74
9
42
0.0000001000
43
0.0000001000
44
0.0000000001
12
0.0848177091
22
1.5986302502
32
0.0000000000
13
1.1149654708
23
1.1497626672
33
0.0000000000
40
0.0000000000
40
0.0000000000
40
0.0000000000
40
0.0000000000
40
0.0905979484
40
0.1975885532
40
0.3188117803
40
0.4511897323
40
0.5905786979
40
0.7319623983
40
0.8700419061
40
1.0000000000
40
1.0000000000
40
1.0000000000
40
1.0000000000
10
-8.6238071861
20
20.6987242990
30
0.0000000000
10
-8.6212457493
20
20.7470018393
30
0.0000000000
10
-8.6112697069
20
20.8520955033
30
0.0000000000
10
-8.5814562962
20
21.0197828145
30
0.0000000000
10
-8.5317857116
20
21.2059332202
30
0.0000000000
10
-8.4602284435
20
21.4033460186
30
0.0000000000
10
-8.3668874184
20
21.6034099592
30
0.0000000000
10
-8.2542406760
20
21.7968271151
30
0.0000000000
10
-8.1269561055
20
21.9748059079
30
0.0000000000
10
-8.0327596522
20
22.0827484695
30
0.0000000000
10
-7.9844600564
20
22.1325554578
30
0.0000000000
11
-8.6238071861
21
20.6987242990
31
0.0000000000
11
-8.6103100547
21
20.8431312384
31
0.0000000000
11
-8.5805685489
21
21.0118082469
31
0.0000000000
11
-8.5307531287
21
21.1993692723
31
0.0000000000
11
-8.4586781197
21
21.3986573145
31
0.0000000000
11
-8.3643613588
21
21.6008897651
31
0.0000000000
11
-8.2503516380
21
21.7964166070
31
0.0000000000
11
-8.1215474990
21
21.9760605720
31
0.0000000000
11
-7.9844600564
21
22.1325554578
31
0.0000000000
0
SPLINE
5
320
100
AcDbEntity
8
0
100
AcDbSpline
62
9
6
CONTINUOUS
70
0
71
3
72
13
73
9
74
7
42
0.0000001000
43
0.0000001000
44
0.0000000001
12
0.0489720067
22
-0.8595734092
32
0.0000000000
13
0.7701565462
23
-0.3893217486
33
0.0000000000
40
0.0000000000
40
0.0000000000
40
0.0000000000
40
0.0000000000
40
0.1618345841
40
0.3330678211
40
0.5070245568
40
0.6788895884
40
0.8463809903
40
1.0000000000
40
1.0000000000
40
1.0000000000
40
1.0000000000
10
5.5034638553
20
-21.2697795856
30
0.0000000000
10
5.5061056434
20
-21.3161491540
30
0.0000000000
10
5.5161231850
20
-21.4114031944
30
0.0000000000
10
5.5479495223
20
-21.5537925161
30
0.0000000000
10
5.6009635472
20
-21.6930694881
30
0.0000000000
10
5.6773033280
20
-21.8201541335
30
0.0000000000
10
5.7749196284
20
-21.9242589095
30
0.0000000000
10
5.8524902789
20
-21.9755931104
30
0.0000000000
10
5.8919271743
20
-21.9955288509
30
0.0000000000
11
5.5034638553
21
-21.2697795856
31
0.0000000000
11
5.5184113806
21
-21.4083097799
31
0.0000000000
11
5.5511558185
21
-21.5520536208
31
0.0000000000
11
5.6052197523
21
-21.6917263173
31
0.0000000000
11
5.6822443956
21
-21.8180686164
31
0.0000000000
11
5.7814717297
21
-21.9227056506
31
0.0000000000
11
5.8919271743
21
-21.9955288509
31
0.0000000000
0
SPLINE
5
321
100
AcDbEntity
8
0
100
AcDbSpline
62
9
6
CONTINUOUS
70
0
71
3
72
18
73
14
74
12
42
0.0000001000
43
0.0000001000
44
0.0000000001
12
0.0415984817
22
-0.7236664353
32
0.0000000000
13
0.6580717977
23
0.3039161929
33
0.0000000000
40
0.0000000000
40
0.0000000000
40
0.0000000000
40
0.0000000000
40
0.0897504768
40
0.1847890856
40
0.2814622184
40
0.3771455650
40
0.4705961569
40
0.5619990379
40
0.6523693308
40
0.7424625758
40
0.8318728606
40
0.9187560350
40
1.0000000000
40
1.0000000000
40
1.0000000000
40
1.0000000000
10
6.6235982321
20
-21.2287718410
30
0.0000000000
10
6.6248427267
20
-21.2504216435
30
0.0000000000
10
6.6295645001
20
-21.2949119996
30
0.0000000000
10
6.6445588900
20
-21.3614358105
30
0.0000000000
10
6.6695352438
20
-21.4265506568
30
0.0000000000
10
6.7054968911
20
-21.4860183442
30
0.0000000000
10
6.7523892969
20
-21.5357727055
30
0.0000000000
10
6.8087028536
20
-21.5723868246
30
0.0000000000
10
6.8714172969
20
-21.5939574585
30
0.0000000000
10
6.9367696657
20
-21.6007290211
30
0.0000000000
10
7.0011985822
20
-21.5947497136
30
0.0000000000
10
7.0616500280
20
-21.5791411048
30
0.0000000000
10
7.0994645136
20
-21.5640310472
30
0.0000000000
10
7.1172859677
20
-21.5558005950
30
0.0000000000
11
6.6235982321
21
-21.2287718410
31
0.0000000000
11
6.6306377618
21
-21.2934464841
31
0.0000000000
11
6.6460563946
21
-21.3605886345
31
0.0000000000
11
6.6715121488
21
-21.4258760954
31
0.0000000000
11
6.7077783453
21
-21.4849960975
31
0.0000000000
11
6.7545011854
21
-21.5340420647
31
0.0000000000
11
6.8101123829
21
-21.5700564882
31
0.0000000000
11
6.8720006326
21
-21.5915243294
31
0.0000000000
11
6.9369216382
21
-21.5985966039
31
0.0000000000
11
7.0014863161
21
-21.5929625342
31
0.0000000000
11
7.0625331324
21
-21.5774853392
31
0.0000000000
11
7.1172859677
21
-21.5558005950
31
0.0000000000
0
SPLINE
5
322
100
AcDbEntity
8
0
100
AcDbSpline
62
9
6
CONTINUOUS
70
0
71
3
72
8
73
4
74
2
42
0.0000001000
43
0.0000001000
44
0.0000000001
12
-0.5444340449
22
0.3244371640
32
0.0000000000
13
-0.4983428382
23
0.3925187990
33
0.0000000000
40
0.0000000000
40
0.0000000000
40
0.0000000000
40
0.0000000000
40
1.0000000000
40
1.0000000000
40
1.0000000000
40
1.0000000000
10
-3.4273752971
20
-14.6633926704
30
0.0000000000
10
-3.6088533121
20
-14.5552469491
30
0.0000000000
10
-3.7827710801
20
-14.4337656201
30
0.0000000000
10
-3.9488853595
20
-14.3029260204
30
0.0000000000
11
-3.4273752971
21
-14.6633926704
31
0.0000000000
11
-3.9488853595
21
-14.3029260204
31
0.0000000000
0
SPLINE
5
323
100
AcDbEntity
8
0
100
AcDbSpline
62
9
6
CONTINUOUS
70
0
71
3
72
8
73
4
74
2
42
0.0000001000
43
0.0000001000
44
0.0000000001
12
-0.1997084068
22
0.1572999509
32
0.0000000000
13
-0.1922617773
23
0.1659732314
33
0.0000000000
40
0.0000000000
40
0.0000000000
40
0.0000000000
40
0.0000000000
40
1.0000000000
40
1.0000000000
40
1.0000000000
40
1.0000000000
10
-3.9488853595
20
-14.3029260204
30
0.0000000000
10
-4.0154548284
20
-14.2504927035
30
0.0000000000
10
-4.0807710839
20
-14.1965564804
30
0.0000000000
10
-4.1448583430
20
-14.1412320699
30
0.0000000000
11
-3.9488853595
21
-14.3029260204
31
0.0000000000
11
-4.1448583430
21
-14.1412320699
31
0.0000000000
0
SPLINE
5
324
100
AcDbEntity
8
0
100
AcDbSpline
62
9
6
CONTINUOUS
70
0
71
3
72
15
73
11
74
9
42
0.0000001000
43
0.0000001000
44
0.0000000001
12
-5.5850979415
22
4.8214302690
32
0.0000000000
13
3.9793811868
23
6.2378912846
33
0.0000000000
40
0.0000000000
40
0.0000000000
40
0.0000000000
40
0.0000000000
40
0.1058285735
40
0.2539275070
40
0.4045314209
40
0.5529524975
40
0.6922946772
40
0.8200383965
40
0.9323424349
40
1.0000000000
40
1.0000000000
40
1.0000000000
40
1.0000000000
10
-4.1448583430
20
-14.1412320699
30
0.0000000000
10
-4.3418793257
20
-13.9711503740
30
0.0000000000
10
-4.7867458628
20
-13.5315723256
30
0.0000000000
10
-5.3953814486
20
-12.7415193331
30
0.0000000000
10
-5.9365745464
20
-11.7816835427
30
0.0000000000
10
-6.3267384411
20
-10.7738178134
30
0.0000000000
10
-6.5435747100
20
-9.7717525003
30
0.0000000000
10
-6.5730129564
20
-8.8340163990
30
0.0000000000
10
-6.4253241458
20
-8.0845811400
30
0.0000000000
10
-6.2324712217
20
-7.6807182058
30
0.0000000000
10
-6.1427261411
20
-7.5400380272
30
0.0000000000
11
-4.1448583430
21
-14.1412320699
31
0.0000000000
11
-4.7017788823
21
-13.5949605266
31
0.0000000000
11
-5.3700130649
21
-12.7321898952
31
0.0000000000
11
-5.9149176842
21
-11.7654342797
31
0.0000000000
11
-6.3066341821
21
-10.7443295768
31
0.0000000000
11
-6.5173308479
21
-9.7394171896
31
0.0000000000
11
-6.5363078884
21
-8.7983105539
31
0.0000000000
11
-6.3624297376
21
-7.9892557289
31
0.0000000000
11
-6.1427261411
21
-7.5400380272
31
0.0000000000
0
SPLINE
5
325
100
AcDbEntity
8
0
100
AcDbSpline
62
9
6
CONTINUOUS
70
0
71
3
72
8
73
4
74
2
42
0.0000001000
43
0.0000001000
44
0.0000000001
12
0.1267937158
22
0.1987558813
32
0.0000000000
13
0.1504229935
23
0.1819430932
33
0.0000000000
40
0.0000000000
40
0.0000000000
40
0.0000000000
40
0.0000000000
40
1.0000000000
40
1.0000000000
40
1.0000000000
40
1.0000000000
10
-6.1427261411
20
-7.5400380272
30
0.0000000000
10
-6.1004615691
20
-7.4737860667
30
0.0000000000
10
-6.0543732173
20
-7.4100079678
30
0.0000000000
10
-6.0042322195
20
-7.3493602700
30
0.0000000000
11
-6.1427261411
21
-7.5400380272
31
0.0000000000
11
-6.0042322195
21
-7.3493602700
31
0.0000000000
0
SPLINE
5
326
100
AcDbEntity
8
0
100
AcDbSpline
62
9
6
CONTINUOUS
70
0
71
3
72
8
73
4
74
2
42
0.0000001000
43
0.0000001000
44
0.0000000001
12
0.0204461494
22
0.0116305888
32
0.0000000000
13
0.0206164716
23
0.0113220845
33
0.0000000000
40
0.0000000000
40
0.0000000000
40
0.0000000000
40
0.0000000000
40
1.0000000000
40
1.0000000000
40
1.0000000000
40
1.0000000000
10
-5.5324765950
20
-6.9495973192
30
0.0000000000
10
-5.5256612119
20
-6.9457204563
30
0.0000000000
10
-5.5188172210
20
-6.9418946330
30
0.0000000000
10
-5.5119450637
20
-6.9381206048
30
0.0000000000
11
-5.5324765950
21
-6.9495973192
31
0.0000000000
11
-5.5119450637
21
-6.9381206048
31
0.0000000000
0
SPLINE
5
327
100
AcDbEntity
8
0
100
AcDbSpline
62
9
6
CONTINUOUS
70
0
71
3
72
8
73
4
74
2
42
0.0000001000
43
0.0000001000
44
0.0000000001
12
0.0067679639
22
0.0037168076
32
0.0000000000
13
0.0067861295
23
0.0036832365
33
0.0000000000
40
0.0000000000
40
0.0000000000
40
0.0000000000
40
0.0000000000
40
1.0000000000
40
1.0000000000
40
1.0000000000
40
1.0000000000
10
-5.5119450637
20
-6.9381206048
30
0.0000000000
10
-5.5096890758
20
-6.9368816690
30
0.0000000000
10
-5.5074300524
20
-6.9356483149
30
0.0000000000
10
-5.5051680092
20
-6.9344205694
30
0.0000000000
11
-5.5119450637
21
-6.9381206048
31
0.0000000000
11
-5.5051680092
21
-6.9344205694
31
0.0000000000
0
SPLINE
5
328
100
AcDbEntity
8
0
100
AcDbSpline
62
9
6
CONTINUOUS
70
0
71
3
72
8
73
4
74
2
42
0.0000001000
43
0.0000001000
44
0.0000000001
12
0.0071048949
22
0.0037448107
32
0.0000000000
13
0.0071241470
23
0.0037079871
33
0.0000000000
40
0.0000000000
40
0.0000000000
40
0.0000000000
40
0.0000000000
40
1.0000000000
40
1.0000000000
40
1.0000000000
40
1.0000000000
10
-5.4884465427
20
-6.9254762601
30
0.0000000000
10
-5.4860782444
20
-6.9242279899
30
0.0000000000
10
-5.4837067202
20
-6.9229858592
30
0.0000000000
10
-5.4813320045
20
-6.9217498635
30
0.0000000000
11
-5.4884465427
21
-6.9254762601
31
0.0000000000
11
-5.4813320045
21
-6.9217498635
31
0.0000000000
0
SPLINE
5
329
100
AcDbEntity
8
0
100
AcDbSpline
62
9
6
CONTINUOUS
70
0
71
3
72
8
73
4
74
2
42
0.0000001000
43
0.0000001000
44
0.0000000001
12
0.1286649801
22
0.0669677484
32
0.0000000000
13
0.1343010310
23
0.0550405302
33
0.0000000000
40
0.0000000000
40
0.0000000000
40
0.0000000000
40
0.0000000000
40
1.0000000000
40
1.0000000000
40
1.0000000000
40
1.0000000000
10
-5.4813320045
20
-6.9217498635
30
0.0000000000
10
-5.4384436778
20
-6.8994272807
30
0.0000000000
10
-5.3945143795
20
-6.8791058090
30
0.0000000000
10
-5.3497473692
20
-6.8607589656
30
0.0000000000
11
-5.4813320045
21
-6.9217498635
31
0.0000000000
11
-5.3497473692
21
-6.8607589656
31
0.0000000000
0
SPLINE
5
32A
100
AcDbEntity
8
0
100
AcDbSpline
62
9
6
CONTINUOUS
70
0
71
3
72
8
73
4
74
2
42
0.0000001000
43
0.0000001000
44
0.0000000001
12
0.0067126176
22
0.0027510290
32
0.0000000000
13
0.0067250981
23
0.0027214410
33
0.0000000000
40
0.0000000000
40
0.0000000000
40
0.0000000000
40
0.0000000000
40
1.0000000000
40
1.0000000000
40
1.0000000000
40
1.0000000000
10
-5.3497473692
20
-6.8607589656
30
0.0000000000
10
-5.3475098299
20
-6.8598419559
30
0.0000000000
10
-5.3452701980
20
-6.8589298792
30
0.0000000000
10
-5.3430284986
20
-6.8580227322
30
0.0000000000
11
-5.3497473692
21
-6.8607589656
31
0.0000000000
11
-5.3430284986
21
-6.8580227322
31
0.0000000000
0
SPLINE
5
32B
100
AcDbEntity
8
0
100
AcDbSpline
62
9
6
CONTINUOUS
70
0
71
3
72
8
73
4
74
2
42
0.0000001000
43
0.0000001000
44
0.0000000001
12
0.0596645855
22
0.0215599832
32
0.0000000000
13
0.0604608668
23
0.0193202356
33
0.0000000000
40
0.0000000000
40
0.0000000000
40
0.0000000000
40
0.0000000000
40
1.0000000000
40
1.0000000000
40
1.0000000000
40
1.0000000000
10
-5.2845142058
20
-6.8356247788
30
0.0000000000
10
-5.2646260107
20
-6.8284381177
30
0.0000000000
10
-5.2445966295
20
-6.8216258518
30
0.0000000000
10
-5.2244430073
20
-6.8151857733
30
0.0000000000
11
-5.2845142058
21
-6.8356247788
31
0.0000000000
11
-5.2244430073
21
-6.8151857733
31
0.0000000000
0
SPLINE
5
32C
100
AcDbEntity
8
0
100
AcDbSpline
62
9
6
CONTINUOUS
70
0
71
3
72
9
73
5
74
3
42
0.0000001000
43
0.0000001000
44
0.0000000001
12
0.4521369566
22
0.0989210876
32
0.0000000000
13
0.4608999242
23
-0.0127815836
33
0.0000000000
40
0.0000000000
40
0.0000000000
40
0.0000000000
40
0.0000000000
40
0.4945837083
40
1.0000000000
40
1.0000000000
40
1.0000000000
40
1.0000000000
10
-5.0655062245
20
-6.7725679773
30
0.0000000000
10
-4.9909663670
20
-6.7562597246
30
0.0000000000
10
-4.8381450466
20
-6.7329089113
30
0.0000000000
10
-4.6843016542
20
-6.7285922116
30
0.0000000000
10
-4.6066528774
20
-6.7307455518
30
0.0000000000
11
-5.0655062245
21
-6.7725679773
31
0.0000000000
11
-4.8395504842
21
-6.7378178534
31
0.0000000000
11
-4.6066528774
21
-6.7307455518
31
0.0000000000
0
SPLINE
5
32D
100
AcDbEntity
8
0
100
AcDbSpline
62
9
6
CONTINUOUS
70
0
71
3
72
9
73
5
74
3
42
0.0000001000
43
0.0000001000
44
0.0000000001
12
0.9671568254
22
-0.0268209976
32
0.0000000000
13
0.8921610386
23
-0.3701668474
33
0.0000000000
40
0.0000000000
40
0.0000000000
40
0.0000000000
40
0.0000000000
40
0.4979214592
40
1.0000000000
40
1.0000000000
40
1.0000000000
40
1.0000000000
10
-4.6066528774
20
-6.7307455518
30
0.0000000000
10
-4.4461301648
20
-6.7351971352
30
0.0000000000
10
-4.1246559074
20
-6.7813457028
30
0.0000000000
10
-3.8180996236
20
-6.8834374943
30
0.0000000000
10
-3.6687879861
20
-6.9453884378
30
0.0000000000
11
-4.6066528774
21
-6.7307455518
31
0.0000000000
11
-4.1296908524
21
-6.7950236268
31
0.0000000000
11
-3.6687879861
21
-6.9453884378
31
0.0000000000
0
SPLINE
5
32E
100
AcDbEntity
8
ASSI
100
AcDbSpline
62
9
6
CONTINUOUS
70
0
71
3
72
21
73
17
74
15
42
0.0000001000
43
0.0000001000
44
0.0000000001
12
-4.8596260157
22
2.4298130079
32
-4.2085595825
13
4.7727027748
23
-2.3863513874
33
4.1332818477
40
0.0000000000
40
0.0000000000
40
0.0000000000
40
0.0000000000
40
0.0714285714
40
0.1428571429
40
0.2142857143
40
0.2857142857
40
0.3571428571
40
0.4285714286
40
0.5000000000
40
0.5714285714
40
0.6428571429
40
0.7142857143
40
0.7857142857
40
0.8571428571
40
0.9285714286
40
1.0000000000
40
1.0000000000
40
1.0000000000
40
1.0000000000
10
-1.8980960930
20
9.0243357226
30
6.2918050934
10
-2.0138014743
20
9.0821884132
30
6.1916012938
10
-2.2277912931
20
9.2222755789
30
6.0231784867
10
-2.5288178236
20
9.5072673379
30
5.8310702259
10
-2.8014762241
20
9.8650918316
30
5.7076442159
10
-3.0242362854
20
10.2698626703
30
5.6635036651
10
-3.1882458257
20
10.7051920320
30
5.6998659879
10
-3.2834942674
20
11.1471642783
30
5.8155000533
10
-3.3052051553
20
11.5739780993
30
6.0045492220
10
-3.2519796174
20
11.9632188684
30
6.2572883151
10
-3.1271548649
20
12.2945319480
30
6.5599794347
10
-2.9372466036
20
12.5519605905
30
6.8977311806
10
-2.6932640767
20
12.7226161553
30
7.2523145343
10
-2.4056153769
20
12.7986980342
30
7.6087261329
10
-2.0984755677
20
12.7773052993
30
7.9390585616
10
-1.8856873562
20
12.7031852105
30
8.1390308670
10
-1.7720515758
20
12.6463673203
30
8.2374423395
11
-1.8980960930
21
9.0243357226
31
6.2918050934
11
-2.2244649268
21
9.2347524140
31
6.0332661450
11
-2.5240898019
21
9.5194061271
31
5.8425172677
11
-2.7931598342
21
9.8729162225
31
5.7208584591
11
-3.0144445319
21
10.2749557575
31
5.6769208107
11
-3.1767856426
21
10.7062991794
31
5.7130779450
11
-3.2712380085
21
11.1446378741
31
5.8277359038
11
-3.2927157510
21
11.5677159239
31
6.0151642094
11
-3.2400464150
21
11.9535642534
31
6.2656136529
11
-3.1163076135
21
12.2822178751
31
6.5658228724
11
-2.9282342260
21
12.5374984109
31
6.9005364485
11
-2.6859863812
21
12.7068538743
31
7.2526192418
11
-2.4023668586
21
12.7824522652
31
7.6043796046
11
-2.0964684830
21
12.7623407329
31
7.9339962331
11
-1.7720515758
21
12.6463673203
31
8.2374423395
0
SPLINE
5
32F
100
AcDbEntity
8
ASSI
100
AcDbSpline
62
9
6
CONTINUOUS
70
0
71
3
72
21
73
17
74
15
42
0.0000001000
43
0.0000001000
44
0.0000000001
12
-5.5436702183
22
2.7718351092
32
-4.8009592393
13
5.4757482782
23
-2.7378741391
33
4.7421371136
40
0.0000000000
40
0.0000000000
40
0.0000000000
40
0.0000000000
40
0.0625000000
40
0.1250000000
40
0.1875000000
40
0.2500000000
40
0.3125000000
40
0.3750000000
40
0.5000000000
40
0.6250000000
40
0.6875000000
40
0.7500000000
40
0.8125000000
40
0.8750000000
40
0.9375000000
40
1.0000000000
40
1.0000000000
40
1.0000000000
40
1.0000000000
10
-1.9065484765
20
8.7321786007
30
6.1328880722
10
-2.0220416060
20
8.7899251655
30
6.0328680881
10
-2.2394050772
20
8.9272704695
30
5.8593185565
10
-2.5506362963
20
9.2025226092
30
5.6510462967
10
-2.8409346033
20
9.5467224777
30
5.5013537880
10
-3.0913263349
20
9.9398367298
30
5.4209899436
10
-3.2935957925
20
10.3684444022
30
5.4119824798
10
-3.4873296436
20
10.9638842506
30
5.4960176949
10
-3.5721294790
20
11.7043502118
30
5.7724660533
10
-3.4357528182
20
12.3385469797
30
6.2385494526
10
-3.2048970197
20
12.7230388886
30
6.6842358730
10
-2.9784830220
20
12.9378672470
30
7.0408246111
10
-2.7100931124
20
13.0703672261
30
7.4032304012
10
-2.4078927059
20
13.1171188950
30
7.7610663313
10
-2.0910903092
20
13.0774360107
30
8.0929796154
10
-1.8741863384
20
12.9973089582
30
8.2945415921
10
-1.7601082493
20
12.9402699137
30
8.3933361153
11
-1.9065484765
21
8.7321786007
31
6.1328880722
11
-2.2369360793
21
8.9388095001
31
5.8679938961
11
-2.5471474776
21
9.2140138974
31
5.6608095886
11
-2.8342835074
21
9.5548748749
31
5.5129085654
11
-3.0833059559
21
9.9457522998
31
5.4328826737
11
-3.2841009476
21
10.3714397712
31
5.4239881256
11
-3.4284050156
21
10.8147686985
31
5.4864358471
11
-3.5278941798
21
11.6830963732
31
5.8103930615
11
-3.3678926628
21
12.4244311648
31
6.3560393661
11
-3.1960183282
21
12.7107821264
31
6.6879565268
11
-2.9714870367
21
12.9241458505
31
7.0417941198
11
-2.7044580296
21
13.0560758411
31
7.4024687579
11
-2.4054590409
21
13.1027131361
31
7.7567458903
11
-2.0896647160
21
13.0640180616
31
8.0880512289
11
-1.7601082493
21
12.9402699137
31
8.3933361153
0
SPLINE
5
330
100
AcDbEntity
8
ASSI
100
AcDbSpline
62
9
6
CONTINUOUS
70
0
71
3
72
21
73
17
74
15
42
0.0000001000
43
0.0000001000
44
0.0000000001
12
4.8585275739
22
-2.4292637869
32
4.2076083040
13
-4.7737448196
23
2.3868724098
33
-4.1341842849
40
0.0000000000
40
0.0000000000
40
0.0000000000
40
0.0000000000
40
0.0714285714
40
0.1428571429
40
0.2142857143
40
0.2857142857
40
0.3571428571
40
0.4285714286
40
0.5000000000
40
0.5714285714
40
0.6428571429
40
0.7142857143
40
0.7857142857
40
0.8571428571
40
0.9285714286
40
1.0000000000
40
1.0000000000
40
1.0000000000
40
1.0000000000
10
-1.7720515758
20
12.6463673203
30
8.2374423395
10
-1.6563723479
20
12.5885277063
30
8.3376234896
10
-1.4427870100
20
12.4482929711
30
8.5063337265
10
-1.1432080276
20
12.1626652186
30
8.6996506616
10
-0.8726325209
20
11.8038525338
30
8.8248997944
10
-0.6521550301
20
11.3979735733
30
8.8710657827
10
-0.4901812512
20
10.9615905321
30
8.8365408268
10
-0.3963284108
20
10.5188603395
30
8.7221616859
10
-0.3750896008
20
10.0918111535
30
8.5335771831
10
-0.4277470705
20
9.7028208113
30
8.2803955779
10
-0.5510791366
20
9.3722252422
30
7.9764723971
10
-0.7388711989
20
9.1158042608
30
7.6369294442
10
-0.9805521391
20
8.9462469868
30
7.2803508945
10
-1.2661503004
20
8.8711492619
30
6.9221337175
10
-1.5719592555
20
8.8932033597
30
6.5905551607
10
-1.7844355020
20
8.9675054271
30
6.3902380525
10
-1.8980960930
20
9.0243357226
30
6.2918050934
11
-1.7720515758
21
12.6463673203
31
8.2374423395
11
-1.4462535141
21
12.4357470295
31
8.4963756565
11
-1.1480419402
21
12.1504677299
31
8.6883060279
11
-0.8809821902
21
11.7960081545
31
8.8117192703
11
-0.6619056487
21
11.3928895599
31
8.8576172920
11
-0.5015347409
21
10.9605326736
31
8.8232317960
11
-0.4084307492
21
10.5214738406
31
8.7097941256
11
-0.3874056474
21
10.0981542941
31
8.5228109994
11
-0.4395261699
21
9.7125532735
31
8.2719386486
11
-0.5618224693
21
9.3845876735
31
7.9705357684
11
-0.7478526785
21
9.1302815454
31
7.6340901781
11
-0.9878716759
21
8.9619902450
31
7.2800777900
11
-1.2695187660
21
8.8873412324
31
6.9265734875
11
-1.5741101580
21
8.9081031936
31
6.5957389765
11
-1.8980960930
21
9.0243357226
31
6.2918050934
0
SPLINE
5
331
100
AcDbEntity
8
ASSI
100
AcDbSpline
62
9
6
CONTINUOUS
70
0
71
3
72
21
73
17
74
15
42
0.0000001000
43
0.0000001000
44
0.0000000001
12
5.2649589200
22
-2.6324794600
32
4.5595881746
13
-5.1845622955
23
2.5922811478
33
-4.4899626554
40
0.0000000000
40
0.0000000000
40
0.0000000000
40
0.0000000000
40
0.0714285714
40
0.1428571429
40
0.2142857143
40
0.2857142857
40
0.3571428571
40
0.4285714286
40
0.5000000000
40
0.5714285714
40
0.6428571429
40
0.7142857143
40
0.7857142857
40
0.8571428571
40
0.9285714286
40
1.0000000000
40
1.0000000000
40
1.0000000000
40
1.0000000000
10
-1.7657283511
20
12.8027548073
30
8.3204312663
10
-1.6403721863
20
12.7400767250
30
8.4289928895
10
-1.4088788045
20
12.5881566672
30
8.6119215405
10
-1.0838976267
20
12.2785530153
30
8.8218949209
10
-0.7899564556
20
11.8890420648
30
8.9583172992
10
-0.5503334553
20
11.4481488084
30
9.0088461267
10
-0.3742996526
20
10.9742046998
30
8.9717000931
10
-0.2721758880
20
10.4932297228
30
8.8477752131
10
-0.2488994976
20
10.0291074552
30
8.6430908590
10
-0.3059123120
20
9.6063025065
30
8.3680951665
10
-0.4397753625
20
9.2468699459
30
8.0377645891
10
-0.6437495846
20
8.9681399336
30
7.6686377268
10
-0.9061905138
20
8.7839660127
30
7.2811636445
10
-1.2163360102
20
8.7024231050
30
6.8919471613
10
-1.5484410947
20
8.7264163775
30
6.5317346366
10
-1.7791846661
20
8.8071236019
30
6.3141675224
10
-1.9026266255
20
8.8688445816
30
6.2072636497
11
-1.7657283511
21
12.8027548073
31
8.3204312663
11
-1.4125886203
21
12.5745360730
31
8.6011849411
11
-1.0890709612
21
12.2652351322
31
8.8096364206
11
-0.7990094840
21
11.8804783472
31
8.9440017074
11
-0.5609316549
21
11.4426403330
31
8.9942336499
11
-0.3866179922
21
10.9730328884
31
8.9572369520
11
-0.2853171170
21
10.4960385077
31
8.8343153008
11
-0.2622810317
21
10.0359936750
31
8.6313723026
11
-0.3187206847
21
9.6168645712
31
8.3588726857
11
-0.4514605578
21
9.2603203706
31
8.0312985416
11
-0.6534940358
21
8.9838992822
31
7.6655798568
11
-0.9141412750
21
8.8010711815
31
7.2808732443
11
-1.2199959415
21
8.7200124684
31
6.8967811544
11
-1.5507761402
21
8.7425943048
31
6.5373782789
11
-1.9026266255
21
8.8688445816
31
6.2072636497
0
SPLINE
5
332
100
AcDbEntity
8
ASSI
100
AcDbSpline
62
9
6
CONTINUOUS
70
0
71
3
72
21
73
17
74
15
42
0.0000001000
43
0.0000001000
44
0.0000000001
12
-5.2662536023
22
2.6331268011
32
-4.5607094023
13
5.1832526714
23
-2.5916263357
33
4.4888284877
40
0.0000000000
40
0.0000000000
40
0.0000000000
40
0.0000000000
40
0.0714285714
40
0.1428571429
40
0.2142857143
40
0.2857142857
40
0.3571428571
40
0.4285714286
40
0.5000000000
40
0.5714285714
40
0.6428571429
40
0.7142857143
40
0.7857142857
40
0.8571428571
40
0.9285714286
40
1.0000000000
40
1.0000000000
40
1.0000000000
40
1.0000000000
10
-1.9026266255
20
8.8688445816
30
6.2072636497
10
-2.0280136161
20
8.9315380769
30
6.0986753306
10
-2.2599821659
20
9.0832849983
30
5.9160840176
10
-2.5866656522
20
9.3921407248
30
5.7075320261
10
-2.8830615696
20
9.7804864571
30
5.5732585276
10
-3.1253780448
20
10.2200715781
30
5.5251196063
10
-3.3038150988
20
10.6927719186
30
5.5644341613
10
-3.4075886149
20
11.1728514907
30
5.6898421335
10
-3.4314255906
20
11.6366934814
30
5.8950771557
10
-3.3737457232
20
12.0597924332
30
6.1695521021
10
-3.2381209916
20
12.4200748785
30
6.4984323921
10
-3.0316463772
20
12.6999960041
30
6.8654484624
10
-2.7664872181
20
12.8854654196
30
7.2505708048
10
-2.4539204447
20
12.9681674129
30
7.6376580457
10
-2.1202473783
20
12.9449522725
30
7.9963973255
10
-1.8891391290
20
12.8644601963
30
8.2135543975
10
-1.7657283511
20
12.8027548073
30
8.3204312663
11
-1.9026266255
21
8.8688445816
31
6.2072636497
11
-2.2564372762
21
9.0968242224
31
5.9269731806
11
-2.5816177241
21
9.4053890591
31
5.7199117749
11
-2.8740483292
21
9.7890263552
31
5.5876142905
11
-3.1147314746
21
10.2255907814
31
5.5396951857
11
-3.2913711758
21
10.6940017905
31
5.5787830642
11
-3.3942658582
21
11.1701452272
31
5.7031466418
11
-3.4178394501
21
11.6299029749
31
5.9066171430
11
-3.3607549125
21
12.0493230154
31
6.1786196594
11
-3.2263126778
21
12.4066813252
31
6.5047883555
11
-3.0218656197
21
12.6842540524
31
6.8684661744
11
-2.7585859491
21
12.8683375159
31
7.2508982879
11
-2.4504027292
21
12.9505145573
31
7.6329333855
11
-2.1180824937
21
12.9286984435
31
7.9908967136
11
-1.7657283511
21
12.8027548073
31
8.3204312663
0
SPLINE
5
333
100
AcDbEntity
8
ASSI
100
AcDbSpline
62
9
6
CONTINUOUS
70
0
71
3
72
21
73
17
74
15
42
0.0000001000
43
0.0000001000
44
0.0000000001
12
5.5422126058
22
-2.7711063029
32
4.7996969098
13
-5.4773287880
23
2.7386643940
33
-4.7435058752
40
0.0000000000
40
0.0000000000
40
0.0000000000
40
0.0000000000
40
0.0625000000
40
0.1250000000
40
0.1875000000
40
0.2500000000
40
0.3125000000
40
0.3750000000
40
0.5000000000
40
0.6250000000
40
0.6875000000
40
0.7500000000
40
0.8125000000
40
0.8750000000
40
0.9375000000
40
1.0000000000
40
1.0000000000
40
1.0000000000
40
1.0000000000
10
-1.7601082493
20
12.9402699137
30
8.3933361153
10
-1.6446454866
20
12.8825385324
30
8.4933298009
10
-1.4276967556
20
12.7450493117
30
8.6671612260
10
-1.1179868553
20
12.4691371515
30
8.8766884376
10
-0.8299599882
20
12.1238768651
30
9.0283493383
10
-0.5822195794
20
11.7294935154
30
9.1110494517
10
-0.3825680220
20
11.2995585354
30
9.1224048774
10
-0.1917787445
20
10.7025916414
30
9.0410161183
10
-0.1087207957
20
9.9611864842
30
8.7661550303
10
-0.2431892780
20
9.3279127679
30
8.2985339377
10
-0.4709650745
20
8.9448943383
30
7.8502569883
10
-0.6946862729
20
8.7313529432
30
7.4913717991
10
-0.9604345859
20
8.6001157987
30
7.1266694433
10
-1.2604226153
20
8.5544267377
30
6.7668742791
10
-1.5758366833
20
8.5948061823
30
6.4336369676
10
-1.7924374601
20
8.6751230925
30
6.2317111113
10
-1.9065484765
20
8.7321786007
30
6.1328880722
11
-1.7601082493
21
12.9402699137
31
8.3933361153
11
-1.4303156217
21
12.7334362568
31
8.6586245716
11
-1.1216006942
21
12.4575791305
31
8.8670440524
11
-0.8366743979
21
12.1156896879
31
9.0168558738
11
-0.5902343880
21
11.7235682437
31
9.0991586704
11
-0.3919946219
21
11.2965935037
31
9.1103387116
11
-0.2498379738
21
10.8521535956
31
9.0498216321
11
-0.1522260820
21
9.9828127724
31
8.7276030294
11
-0.3101499780
21
9.2424582058
31
8.1802830274
11
-0.4797799664
21
8.9571814095
31
7.8464774088
11
-0.7016907920
21
8.7450703183
31
7.4904022713
11
-0.9661412053
21
8.6143738127
31
7.1274873086
11
-1.2629936217
21
8.5687714887
31
6.7713005879
11
-1.5774178662
21
8.6081555024
31
6.4386950554
11
-1.9065484765
21
8.7321786007
31
6.1328880722
0
SPLINE
5
334
100
AcDbEntity
8
INCISIONI_LASER
100
AcDbSpline
62
9
6
CONTINUOUS
70
0
71
3
72
21
73
17
74
15
42
0.0000001000
43
0.0000001000
44
0.0000000001
12
-4.8596260157
22
2.4298130079
32
-4.2085595825
13
4.7727027748
23
-2.3863513874
33
4.1332818477
40
0.0000000000
40
0.0000000000
40
0.0000000000
40
0.0000000000
40
0.0714285714
40
0.1428571429
40
0.2142857143
40
0.2857142857
40
0.3571428571
40
0.4285714286
40
0.5000000000
40
0.5714285714
40
0.6428571429
40
0.7142857143
40
0.7857142857
40
0.8571428571
40
0.9285714286
40
1.0000000000
40
1.0000000000
40
1.0000000000
40
1.0000000000
10
-1.8980960930
20
9.0243357226
30
6.2918050934
10
-2.0138014743
20
9.0821884132
30
6.1916012938
10
-2.2277912931
20
9.2222755789
30
6.0231784867
10
-2.5288178236
20
9.5072673379
30
5.8310702259
10
-2.8014762241
20
9.8650918316
30
5.7076442159
10
-3.0242362854
20
10.2698626703
30
5.6635036651
10
-3.1882458257
20
10.7051920320
30
5.6998659879
10
-3.2834942674
20
11.1471642783
30
5.8155000533
10
-3.3052051553
20
11.5739780993
30
6.0045492220
10
-3.2519796174
20
11.9632188684
30
6.2572883151
10
-3.1271548649
20
12.2945319480
30
6.5599794347
10
-2.9372466036
20
12.5519605905
30
6.8977311806
10
-2.6932640767
20
12.7226161553
30
7.2523145343
10
-2.4056153769
20
12.7986980342
30
7.6087261329
10
-2.0984755677
20
12.7773052993
30
7.9390585616
10
-1.8856873562
20
12.7031852105
30
8.1390308670
10
-1.7720515758
20
12.6463673203
30
8.2374423395
11
-1.8980960930
21
9.0243357226
31
6.2918050934
11
-2.2244649268
21
9.2347524140
31
6.0332661450
11
-2.5240898019
21
9.5194061271
31
5.8425172677
11
-2.7931598342
21
9.8729162225
31
5.7208584591
11
-3.0144445319
21
10.2749557575
31
5.6769208107
11
-3.1767856426
21
10.7062991794
31
5.7130779450
11
-3.2712380085
21
11.1446378741
31
5.8277359038
11
-3.2927157510
21
11.5677159239
31
6.0151642094
11
-3.2400464150
21
11.9535642534
31
6.2656136529
11
-3.1163076135
21
12.2822178751
31
6.5658228724
11
-2.9282342260
21
12.5374984109
31
6.9005364485
11
-2.6859863812
21
12.7068538743
31
7.2526192418
11
-2.4023668586
21
12.7824522652
31
7.6043796046
11
-2.0964684830
21
12.7623407329
31
7.9339962331
11
-1.7720515758
21
12.6463673203
31
8.2374423395
0
SPLINE
5
335
100
AcDbEntity
8
INCISIONI_LASER
100
AcDbSpline
62
9
6
CONTINUOUS
70
0
71
3
72
21
73
17
74
15
42
0.0000001000
43
0.0000001000
44
0.0000000001
12
-5.5436702183
22
2.7718351092
32
-4.8009592393
13
5.4757482782
23
-2.7378741391
33
4.7421371136
40
0.0000000000
40
0.0000000000
40
0.0000000000
40
0.0000000000
40
0.0625000000
40
0.1250000000
40
0.1875000000
40
0.2500000000
40
0.3125000000
40
0.3750000000
40
0.5000000000
40
0.6250000000
40
0.6875000000
40
0.7500000000
40
0.8125000000
40
0.8750000000
40
0.9375000000
40
1.0000000000
40
1.0000000000
40
1.0000000000
40
1.0000000000
10
-1.9065484765
20
8.7321786007
30
6.1328880722
10
-2.0220416060
20
8.7899251655
30
6.0328680881
10
-2.2394050772
20
8.9272704695
30
5.8593185565
10
-2.5506362963
20
9.2025226092
30
5.6510462967
10
-2.8409346033
20
9.5467224777
30
5.5013537880
10
-3.0913263349
20
9.9398367298
30
5.4209899436
10
-3.2935957925
20
10.3684444022
30
5.4119824798
10
-3.4873296436
20
10.9638842506
30
5.4960176949
10
-3.5721294790
20
11.7043502118
30
5.7724660533
10
-3.4357528182
20
12.3385469797
30
6.2385494526
10
-3.2048970197
20
12.7230388886
30
6.6842358730
10
-2.9784830220
20
12.9378672470
30
7.0408246111
10
-2.7100931124
20
13.0703672261
30
7.4032304012
10
-2.4078927059
20
13.1171188950
30
7.7610663313
10
-2.0910903092
20
13.0774360107
30
8.0929796154
10
-1.8741863384
20
12.9973089582
30
8.2945415921
10
-1.7601082493
20
12.9402699137
30
8.3933361153
11
-1.9065484765
21
8.7321786007
31
6.1328880722
11
-2.2369360793
21
8.9388095001
31
5.8679938961
11
-2.5471474776
21
9.2140138974
31
5.6608095886
11
-2.8342835074
21
9.5548748749
31
5.5129085654
11
-3.0833059559
21
9.9457522998
31
5.4328826737
11
-3.2841009476
21
10.3714397712
31
5.4239881256
11
-3.4284050156
21
10.8147686985
31
5.4864358471
11
-3.5278941798
21
11.6830963732
31
5.8103930615
11
-3.3678926628
21
12.4244311648
31
6.3560393661
11
-3.1960183282
21
12.7107821264
31
6.6879565268
11
-2.9714870367
21
12.9241458505
31
7.0417941198
11
-2.7044580296
21
13.0560758411
31
7.4024687579
11
-2.4054590409
21
13.1027131361
31
7.7567458903
11
-2.0896647160
21
13.0640180616
31
8.0880512289
11
-1.7601082493
21
12.9402699137
31
8.3933361153
0
SPLINE
5
336
100
AcDbEntity
8
INCISIONI_LASER
100
AcDbSpline
62
9
6
CONTINUOUS
70
0
71
3
72
21
73
17
74
15
42
0.0000001000
43
0.0000001000
44
0.0000000001
12
4.8585275739
22
-2.4292637869
32
4.2076083040
13
-4.7737448196
23
2.3868724098
33
-4.1341842849
40
0.0000000000
40
0.0000000000
40
0.0000000000
40
0.0000000000
40
0.0714285714
40
0.1428571429
40
0.2142857143
40
0.2857142857
40
0.3571428571
40
0.4285714286
40
0.5000000000
40
0.5714285714
40
0.6428571429
40
0.7142857143
40
0.7857142857
40
0.8571428571
40
0.9285714286
40
1.0000000000
40
1.0000000000
40
1.0000000000
40
1.0000000000
10
-1.7720515758
20
12.6463673203
30
8.2374423395
10
-1.6563723479
20
12.5885277063
30
8.3376234896
10
-1.4427870100
20
12.4482929711
30
8.5063337265
10
-1.1432080276
20
12.1626652186
30
8.6996506616
10
-0.8726325209
20
11.8038525338
30
8.8248997944
10
-0.6521550301
20
11.3979735733
30
8.8710657827
10
-0.4901812512
20
10.9615905321
30
8.8365408268
10
-0.3963284108
20
10.5188603395
30
8.7221616859
10
-0.3750896008
20
10.0918111535
30
8.5335771831
10
-0.4277470705
20
9.7028208113
30
8.2803955779
10
-0.5510791366
20
9.3722252422
30
7.9764723971
10
-0.7388711989
20
9.1158042608
30
7.6369294442
10
-0.9805521391
20
8.9462469868
30
7.2803508945
10
-1.2661503004
20
8.8711492619
30
6.9221337175
10
-1.5719592555
20
8.8932033597
30
6.5905551607
10
-1.7844355020
20
8.9675054271
30
6.3902380525
10
-1.8980960930
20
9.0243357226
30
6.2918050934
11
-1.7720515758
21
12.6463673203
31
8.2374423395
11
-1.4462535141
21
12.4357470295
31
8.4963756565
11
-1.1480419402
21
12.1504677299
31
8.6883060279
11
-0.8809821902
21
11.7960081545
31
8.8117192703
11
-0.6619056487
21
11.3928895599
31
8.8576172920
11
-0.5015347409
21
10.9605326736
31
8.8232317960
11
-0.4084307492
21
10.5214738406
31
8.7097941256
11
-0.3874056474
21
10.0981542941
31
8.5228109994
11
-0.4395261699
21
9.7125532735
31
8.2719386486
11
-0.5618224693
21
9.3845876735
31
7.9705357684
11
-0.7478526785
21
9.1302815454
31
7.6340901781
11
-0.9878716759
21
8.9619902450
31
7.2800777900
11
-1.2695187660
21
8.8873412324
31
6.9265734875
11
-1.5741101580
21
8.9081031936
31
6.5957389765
11
-1.8980960930
21
9.0243357226
31
6.2918050934
0
SPLINE
5
337
100
AcDbEntity
8
INCISIONI_LASER
100
AcDbSpline
62
9
6
CONTINUOUS
70
0
71
3
72
21
73
17
74
15
42
0.0000001000
43
0.0000001000
44
0.0000000001
12
5.2649589200
22
-2.6324794600
32
4.5595881746
13
-5.1845622955
23
2.5922811478
33
-4.4899626554
40
0.0000000000
40
0.0000000000
40
0.0000000000
40
0.0000000000
40
0.0714285714
40
0.1428571429
40
0.2142857143
40
0.2857142857
40
0.3571428571
40
0.4285714286
40
0.5000000000
40
0.5714285714
40
0.6428571429
40
0.7142857143
40
0.7857142857
40
0.8571428571
40
0.9285714286
40
1.0000000000
40
1.0000000000
40
1.0000000000
40
1.0000000000
10
-1.7657283511
20
12.8027548073
30
8.3204312663
10
-1.6403721863
20
12.7400767250
30
8.4289928895
10
-1.4088788045
20
12.5881566672
30
8.6119215405
10
-1.0838976267
20
12.2785530153
30
8.8218949209
10
-0.7899564556
20
11.8890420648
30
8.9583172992
10
-0.5503334553
20
11.4481488084
30
9.0088461267
10
-0.3742996526
20
10.9742046998
30
8.9717000931
10
-0.2721758880
20
10.4932297228
30
8.8477752131
10
-0.2488994976
20
10.0291074552
30
8.6430908590
10
-0.3059123120
20
9.6063025065
30
8.3680951665
10
-0.4397753625
20
9.2468699459
30
8.0377645891
10
-0.6437495846
20
8.9681399336
30
7.6686377268
10
-0.9061905138
20
8.7839660127
30
7.2811636445
10
-1.2163360102
20
8.7024231050
30
6.8919471613
10
-1.5484410947
20
8.7264163775
30
6.5317346366
10
-1.7791846661
20
8.8071236019
30
6.3141675224
10
-1.9026266255
20
8.8688445816
30
6.2072636497
11
-1.7657283511
21
12.8027548073
31
8.3204312663
11
-1.4125886203
21
12.5745360730
31
8.6011849411
11
-1.0890709612
21
12.2652351322
31
8.8096364206
11
-0.7990094840
21
11.8804783472
31
8.9440017074
11
-0.5609316549
21
11.4426403330
31
8.9942336499
11
-0.3866179922
21
10.9730328884
31
8.9572369520
11
-0.2853171170
21
10.4960385077
31
8.8343153008
11
-0.2622810317
21
10.0359936750
31
8.6313723026
11
-0.3187206847
21
9.6168645712
31
8.3588726857
11
-0.4514605578
21
9.2603203706
31
8.0312985416
11
-0.6534940358
21
8.9838992822
31
7.6655798568
11
-0.9141412750
21
8.8010711815
31
7.2808732443
11
-1.2199959415
21
8.7200124684
31
6.8967811544
11
-1.5507761402
21
8.7425943048
31
6.5373782789
11
-1.9026266255
21
8.8688445816
31
6.2072636497
0
SPLINE
5
338
100
AcDbEntity
8
INCISIONI_LASER
100
AcDbSpline
62
9
6
CONTINUOUS
70
0
71
3
72
21
73
17
74
15
42
0.0000001000
43
0.0000001000
44
0.0000000001
12
-5.2662536023
22
2.6331268011
32
-4.5607094023
13
5.1832526714
23
-2.5916263357
33
4.4888284877
40
0.0000000000
40
0.0000000000
40
0.0000000000
40
0.0000000000
40
0.0714285714
40
0.1428571429
40
0.2142857143
40
0.2857142857
40
0.3571428571
40
0.4285714286
40
0.5000000000
40
0.5714285714
40
0.6428571429
40
0.7142857143
40
0.7857142857
40
0.8571428571
40
0.9285714286
40
1.0000000000
40
1.0000000000
40
1.0000000000
40
1.0000000000
10
-1.9026266255
20
8.8688445816
30
6.2072636497
10
-2.0280136161
20
8.9315380769
30
6.0986753306
10
-2.2599821659
20
9.0832849983
30
5.9160840176
10
-2.5866656522
20
9.3921407248
30
5.7075320261
10
-2.8830615696
20
9.7804864571
30
5.5732585276
10
-3.1253780448
20
10.2200715781
30
5.5251196063
10
-3.3038150988
20
10.6927719186
30
5.5644341613
10
-3.4075886149
20
11.1728514907
30
5.6898421335
10
-3.4314255906
20
11.6366934814
30
5.8950771557
10
-3.3737457232
20
12.0597924332
30
6.1695521021
10
-3.2381209916
20
12.4200748785
30
6.4984323921
10
-3.0316463772
20
12.6999960041
30
6.8654484624
10
-2.7664872181
20
12.8854654196
30
7.2505708048
10
-2.4539204447
20
12.9681674129
30
7.6376580457
10
-2.1202473783
20
12.9449522725
30
7.9963973255
10
-1.8891391290
20
12.8644601963
30
8.2135543975
10
-1.7657283511
20
12.8027548073
30
8.3204312663
11
-1.9026266255
21
8.8688445816
31
6.2072636497
11
-2.2564372762
21
9.0968242224
31
5.9269731806
11
-2.5816177241
21
9.4053890591
31
5.7199117749
11
-2.8740483292
21
9.7890263552
31
5.5876142905
11
-3.1147314746
21
10.2255907814
31
5.5396951857
11
-3.2913711758
21
10.6940017905
31
5.5787830642
11
-3.3942658582
21
11.1701452272
31
5.7031466418
11
-3.4178394501
21
11.6299029749
31
5.9066171430
11
-3.3607549125
21
12.0493230154
31
6.1786196594
11
-3.2263126778
21
12.4066813252
31
6.5047883555
11
-3.0218656197
21
12.6842540524
31
6.8684661744
11
-2.7585859491
21
12.8683375159
31
7.2508982879
11
-2.4504027292
21
12.9505145573
31
7.6329333855
11
-2.1180824937
21
12.9286984435
31
7.9908967136
11
-1.7657283511
21
12.8027548073
31
8.3204312663
0
SPLINE
5
339
100
AcDbEntity
8
INCISIONI_LASER
100
AcDbSpline
62
9
6
CONTINUOUS
70
0
71
3
72
21
73
17
74
15
42
0.0000001000
43
0.0000001000
44
0.0000000001
12
5.5422126058
22
-2.7711063029
32
4.7996969098
13
-5.4773287880
23
2.7386643940
33
-4.7435058752
40
0.0000000000
40
0.0000000000
40
0.0000000000
40
0.0000000000
40
0.0625000000
40
0.1250000000
40
0.1875000000
40
0.2500000000
40
0.3125000000
40
0.3750000000
40
0.5000000000
40
0.6250000000
40
0.6875000000
40
0.7500000000
40
0.8125000000
40
0.8750000000
40
0.9375000000
40
1.0000000000
40
1.0000000000
40
1.0000000000
40
1.0000000000
10
-1.7601082493
20
12.9402699137
30
8.3933361153
10
-1.6446454866
20
12.8825385324
30
8.4933298009
10
-1.4276967556
20
12.7450493117
30
8.6671612260
10
-1.1179868553
20
12.4691371515
30
8.8766884376
10
-0.8299599882
20
12.1238768651
30
9.0283493383
10
-0.5822195794
20
11.7294935154
30
9.1110494517
10
-0.3825680220
20
11.2995585354
30
9.1224048774
10
-0.1917787445
20
10.7025916414
30
9.0410161183
10
-0.1087207957
20
9.9611864842
30
8.7661550303
10
-0.2431892780
20
9.3279127679
30
8.2985339377
10
-0.4709650745
20
8.9448943383
30
7.8502569883
10
-0.6946862729
20
8.7313529432
30
7.4913717991
10
-0.9604345859
20
8.6001157987
30
7.1266694433
10
-1.2604226153
20
8.5544267377
30
6.7668742791
10
-1.5758366833
20
8.5948061823
30
6.4336369676
10
-1.7924374601
20
8.6751230925
30
6.2317111113
10
-1.9065484765
20
8.7321786007
30
6.1328880722
11
-1.7601082493
21
12.9402699137
31
8.3933361153
11
-1.4303156217
21
12.7334362568
31
8.6586245716
11
-1.1216006942
21
12.4575791305
31
8.8670440524
11
-0.8366743979
21
12.1156896879
31
9.0168558738
11
-0.5902343880
21
11.7235682437
31
9.0991586704
11
-0.3919946219
21
11.2965935037
31
9.1103387116
11
-0.2498379738
21
10.8521535956
31
9.0498216321
11
-0.1522260820
21
9.9828127724
31
8.7276030294
11
-0.3101499780
21
9.2424582058
31
8.1802830274
11
-0.4797799664
21
8.9571814095
31
7.8464774088
11
-0.7016907920
21
8.7450703183
31
7.4904022713
11
-0.9661412053
21
8.6143738127
31
7.1274873086
11
-1.2629936217
21
8.5687714887
31
6.7713005879
11
-1.5774178662
21
8.6081555024
31
6.4386950554
11
-1.9065484765
21
8.7321786007
31
6.1328880722
0
SPLINE
5
33A
100
AcDbEntity
8
0
100
AcDbSpline
62
0
6
CONTINUOUS
70
0
71
3
72
11
73
7
74
5
42
0.0000001000
43
0.0000001000
44
0.0000000001
12
0.3360387486
22
0.1811604904
32
0.0000000000
13
0.3399310086
23
-0.1699655043
33
0.0000000000
40
0.0000000000
40
0.0000000000
40
0.0000000000
40
0.0000000000
40
0.1476291523
40
0.4079854878
40
0.6894667517
40
1.0000000000
40
1.0000000000
40
1.0000000000
40
1.0000000000
10
-4.0317806929
20
24.5713806068
30
0.0000000000
10
-4.0152443210
20
24.5802954634
30
0.0000000000
10
-3.9672570040
20
24.6007093294
30
0.0000000000
10
-3.8794462266
20
24.6134354454
30
0.0000000000
10
-3.7713699200
20
24.5981824298
30
0.0000000000
10
-3.7009442083
20
24.5705873506
30
0.0000000000
10
-3.6657575816
20
24.5529940372
30
0.0000000000
11
-4.0317806929
21
24.5713806068
31
0.0000000000
11
-3.9799956731
21
24.5933820665
31
0.0000000000
11
-3.8822074506
21
24.6084976946
31
0.0000000000
11
-3.7761022213
21
24.5948589495
31
0.0000000000
11
-3.6657575816
21
24.5529940372
31
0.0000000000
0
SPLINE
5
33B
100
AcDbEntity
8
0
100
AcDbSpline
62
0
6
CONTINUOUS
70
0
71
3
72
8
73
4
74
2
42
0.0000001000
43
0.0000001000
44
0.0000000001
12
-0.1259062164
22
-0.0804904942
32
0.0000000000
13
-0.1185917279
23
-0.0910650264
33
0.0000000000
40
0.0000000000
40
0.0000000000
40
0.0000000000
40
0.0000000000
40
1.0000000000
40
1.0000000000
40
1.0000000000
40
1.0000000000
10
-5.1378024195
20
-6.8791404022
30
0.0000000000
10
-5.1797711583
20
-6.9059705669
30
0.0000000000
10
-5.2205884527
20
-6.9346391068
30
0.0000000000
10
-5.2601190287
20
-6.9649941156
30
0.0000000000
11
-5.1378024195
21
-6.8791404022
31
0.0000000000
11
-5.2601190287
21
-6.9649941156
31
0.0000000000
0
SPLINE
5
33C
100
AcDbEntity
8
0
100
AcDbSpline
62
0
6
CONTINUOUS
70
0
71
3
72
8
73
4
74
2
42
0.0000001000
43
0.0000001000
44
0.0000000001
12
-0.0216867033
22
-0.0166529340
32
0.0000000000
13
-0.0214260473
23
-0.0169885296
33
0.0000000000
40
0.0000000000
40
0.0000000000
40
0.0000000000
40
0.0000000000
40
1.0000000000
40
1.0000000000
40
1.0000000000
40
1.0000000000
10
-5.2601190287
20
-6.9649941156
30
0.0000000000
10
-5.2673479298
20
-6.9705450936
30
0.0000000000
10
-5.2745338019
20
-6.9761524686
30
0.0000000000
10
-5.2816758176
20
-6.9818153118
30
0.0000000000
11
-5.2601190287
21
-6.9649941156
31
0.0000000000
11
-5.2816758176
21
-6.9818153118
31
0.0000000000
0
SPLINE
5
33D
100
AcDbEntity
8
0
100
AcDbSpline
62
0
6
CONTINUOUS
70
0
71
3
72
8
73
4
74
2
42
0.0000001000
43
0.0000001000
44
0.0000000001
12
-0.1426308455
22
-0.1130907771
32
0.0000000000
13
-0.1302380136
23
-0.1270168200
33
0.0000000000
40
0.0000000000
40
0.0000000000
40
0.0000000000
40
0.0000000000
40
1.0000000000
40
1.0000000000
40
1.0000000000
40
1.0000000000
10
-5.2816758176
20
-6.9818153118
30
0.0000000000
10
-5.3292194328
20
-7.0195122375
30
0.0000000000
10
-5.3748195918
20
-7.0596671883
30
0.0000000000
10
-5.4182322630
20
-7.1020061283
30
0.0000000000
11
-5.2816758176
21
-6.9818153118
31
0.0000000000
11
-5.4182322630
21
-7.1020061283
31
0.0000000000
0
SPLINE
5
33E
100
AcDbEntity
8
0
100
AcDbSpline
62
0
6
CONTINUOUS
70
0
71
3
72
8
73
4
74
2
42
0.0000001000
43
0.0000001000
44
0.0000000001
12
-0.0983343660
22
-0.0959022495
32
0.0000000000
13
-0.0908766232
23
-0.1029150507
33
0.0000000000
40
0.0000000000
40
0.0000000000
40
0.0000000000
40
0.0000000000
40
1.0000000000
40
1.0000000000
40
1.0000000000
40
1.0000000000
10
-5.4182322630
20
-7.1020061283
30
0.0000000000
10
-5.4510103850
20
-7.1339735448
30
0.0000000000
10
-5.4825414659
20
-7.1671860079
30
0.0000000000
10
-5.5128336737
20
-7.2014910248
30
0.0000000000
11
-5.4182322630
21
-7.1020061283
31
0.0000000000
11
-5.5128336737
21
-7.2014910248
31
0.0000000000
0
SPLINE
5
33F
100
AcDbEntity
8
0
100
AcDbSpline
62
0
6
CONTINUOUS
70
0
71
3
72
8
73
4
74
2
42
0.0000001000
43
0.0000001000
44
0.0000000001
12
-0.0503977259
22
-0.0570739133
32
0.0000000000
13
-0.0481158031
23
-0.0590119837
33
0.0000000000
40
0.0000000000
40
0.0000000000
40
0.0000000000
40
0.0000000000
40
1.0000000000
40
1.0000000000
40
1.0000000000
40
1.0000000000
10
-5.5128336737
20
-7.2014910248
30
0.0000000000
10
-5.5296329156
20
-7.2205156625
30
0.0000000000
10
-5.5460511405
20
-7.2398763166
30
0.0000000000
10
-5.5620897416
20
-7.2595469778
30
0.0000000000
11
-5.5128336737
21
-7.2014910248
31
0.0000000000
11
-5.5620897416
21
-7.2595469778
31
0.0000000000
0
SPLINE
5
340
100
AcDbEntity
8
0
100
AcDbSpline
62
0
6
CONTINUOUS
70
0
71
3
72
8
73
4
74
2
42
0.0000001000
43
0.0000001000
44
0.0000000001
12
-0.0808180952
22
-0.0991199525
32
0.0000000000
13
-0.0744118135
23
-0.1039978499
33
0.0000000000
40
0.0000000000
40
0.0000000000
40
0.0000000000
40
0.0000000000
40
1.0000000000
40
1.0000000000
40
1.0000000000
40
1.0000000000
10
-5.5620897416
20
-7.2595469778
30
0.0000000000
10
-5.5890291066
20
-7.2925869620
30
0.0000000000
10
-5.6148974573
20
-7.3265015543
30
0.0000000000
10
-5.6397013951
20
-7.3611675043
30
0.0000000000
11
-5.5620897416
21
-7.2595469778
31
0.0000000000
11
-5.6397013951
21
-7.3611675043
31
0.0000000000
0
SPLINE
5
341
100
AcDbEntity
8
0
100
AcDbSpline
62
0
6
CONTINUOUS
70
0
71
3
72
8
73
4
74
2
42
0.0000001000
43
0.0000001000
44
0.0000000001
12
0.0659987892
22
0.0007886708
32
0.0000000000
13
0.0659395615
23
0.0029581050
33
0.0000000000
40
0.0000000000
40
0.0000000000
40
0.0000000000
40
0.0000000000
40
1.0000000000
40
1.0000000000
40
1.0000000000
40
1.0000000000
10
1.4723506927
20
-16.2850485454
30
0.0000000000
10
1.4943502891
20
-16.2847856551
30
0.0000000000
10
1.5163472496
20
-16.2841654344
30
0.0000000000
10
1.5383271034
20
-16.2831793994
30
0.0000000000
11
1.4723506927
21
-16.2850485454
31
0.0000000000
11
1.5383271034
21
-16.2831793994
31
0.0000000000
0
SPLINE
5
342
100
AcDbEntity
8
0
100
AcDbSpline
62
0
6
CONTINUOUS
70
0
71
3
72
8
73
4
74
2
42
0.0000001000
43
0.0000001000
44
0.0000000001
12
0.1072856241
22
0.0048129247
32
0.0000000000
13
0.1068269303
23
0.0107329054
33
0.0000000000
40
0.0000000000
40
0.0000000000
40
0.0000000000
40
0.0000000000
40
1.0000000000
40
1.0000000000
40
1.0000000000
40
1.0000000000
10
1.5383271034
20
-16.2831793994
30
0.0000000000
10
1.5740889781
20
-16.2815750912
30
0.0000000000
10
1.6098055676
20
-16.2790023899
30
0.0000000000
10
1.6454145443
20
-16.2754247548
30
0.0000000000
11
1.5383271034
21
-16.2831793994
31
0.0000000000
11
1.6454145443
21
-16.2754247548
31
0.0000000000
0
SPLINE
5
343
100
AcDbEntity
8
0
100
AcDbSpline
62
0
6
CONTINUOUS
70
0
71
3
72
8
73
4
74
2
42
0.0000001000
43
0.0000001000
44
0.0000000001
12
0.0684980264
22
0.0068819991
32
0.0000000000
13
0.0681832664
23
0.0093899379
33
0.0000000000
40
0.0000000000
40
0.0000000000
40
0.0000000000
40
0.0000000000
40
1.0000000000
40
1.0000000000
40
1.0000000000
40
1.0000000000
10
1.6454145443
20
-16.2754247548
30
0.0000000000
10
1.6682472198
20
-16.2731307551
30
0.0000000000
10
1.6910356509
20
-16.2704235822
30
0.0000000000
10
1.7137634064
20
-16.2672936029
30
0.0000000000
11
1.6454145443
21
-16.2754247548
31
0.0000000000
11
1.7137634064
21
-16.2672936029
31
0.0000000000
0
SPLINE
5
344
100
AcDbEntity
8
0
100
AcDbSpline
62
0
6
CONTINUOUS
70
0
71
3
72
8
73
4
74
2
42
0.0000001000
43
0.0000001000
44
0.0000000001
12
0.1710568625
22
0.0235572949
32
0.0000000000
13
0.1679871564
23
0.0399804390
33
0.0000000000
40
0.0000000000
40
0.0000000000
40
0.0000000000
40
0.0000000000
40
1.0000000000
40
1.0000000000
40
1.0000000000
40
1.0000000000
10
1.7137634064
20
-16.2672936029
30
0.0000000000
10
1.7707823605
20
-16.2594411713
30
0.0000000000
10
1.8274194235
20
-16.2489276044
30
0.0000000000
10
1.8834151424
20
-16.2356007914
30
0.0000000000
11
1.7137634064
21
-16.2672936029
31
0.0000000000
11
1.8834151424
21
-16.2356007914
31
0.0000000000
0
SPLINE
5
345
100
AcDbEntity
8
0
100
AcDbSpline
62
0
6
CONTINUOUS
70
0
71
3
72
8
73
4
74
2
42
0.0000001000
43
0.0000001000
44
0.0000000001
12
0.1281629439
22
0.0305023959
32
0.0000000000
13
0.1255201578
23
0.0402395440
33
0.0000000000
40
0.0000000000
40
0.0000000000
40
0.0000000000
40
0.0000000000
40
1.0000000000
40
1.0000000000
40
1.0000000000
40
1.0000000000
10
1.8834151424
20
-16.2356007914
30
0.0000000000
10
1.9261361236
20
-16.2254333261
30
0.0000000000
10
1.9684837998
20
-16.2136283638
30
0.0000000000
10
2.0103238524
20
-16.2002151824
30
0.0000000000
11
1.8834151424
21
-16.2356007914
31
0.0000000000
11
2.0103238524
21
-16.2002151824
31
0.0000000000
0
SPLINE
5
346
100
AcDbEntity
8
0
100
AcDbSpline
62
0
6
CONTINUOUS
70
0
71
3
72
12
73
8
74
6
42
0.0000001000
43
0.0000001000
44
0.0000000001
12
0.0000000000
22
-0.5133412236
32
0.0000000000
13
-0.4680310162
23
-0.2163953326
33
0.0000000000
40
0.0000000000
40
0.0000000000
40
0.0000000000
40
0.0000000000
40
0.2535655415
40
0.4840588656
40
0.6929500270
40
0.8859942861
40
1.0000000000
40
1.0000000000
40
1.0000000000
40
1.0000000000
10
11.1835709800
20
-19.6778554243
30
0.0000000000
10
11.1835709800
20
-19.7212439727
30
0.0000000000
10
11.1772677226
20
-19.8043115602
30
0.0000000000
10
11.1460107803
20
-19.9195528431
30
0.0000000000
10
11.0938829453
20
-20.0157466957
30
0.0000000000
10
11.0308431088
20
-20.0795129224
30
0.0000000000
10
10.9850670224
20
-20.1062931035
30
0.0000000000
10
10.9672809523
20
-20.1145165383
30
0.0000000000
11
11.1835709800
21
-19.6778554243
31
0.0000000000
11
11.1727055175
21
-19.8075667844
31
0.0000000000
11
11.1405241772
21
-19.9214280683
31
0.0000000000
11
11.0882603549
21
-20.0150618763
31
0.0000000000
11
11.0179211270
21
-20.0848667660
31
0.0000000000
11
10.9672809523
21
-20.1145165383
31
0.0000000000
0
SPLINE
5
347
100
AcDbEntity
8
0
100
AcDbSpline
62
0
6
CONTINUOUS
70
0
71
3
72
15
73
11
74
9
42
0.0000001000
43
0.0000001000
44
0.0000000001
12
1.0529012362
22
-0.5264506181
32
0.0000000000
13
0.0000000000
23
-1.1771793689
33
0.0000000000
40
0.0000000000
40
0.0000000000
40
0.0000000000
40
0.0000000000
40
0.1103204553
40
0.2298794297
40
0.3567631267
40
0.4883331237
40
0.6215375352
40
0.7531878619
40
0.8802255268
40
1.0000000000
40
1.0000000000
40
1.0000000000
40
1.0000000000
10
10.6179717117
20
17.4111293906
30
0.0000000000
10
10.6566905596
20
17.3917699666
30
0.0000000000
10
10.7334351472
20
17.3433211668
30
0.0000000000
10
10.8388299058
20
17.2504848760
30
0.0000000000
10
10.9358756539
20
17.1377300364
30
0.0000000000
10
11.0209413685
20
17.0092803593
30
0.0000000000
10
11.0908829457
20
16.8699258314
30
0.0000000000
10
11.1430803142
20
16.7248649686
30
0.0000000000
10
11.1755797022
20
16.5795592967
30
0.0000000000
10
11.1835709800
20
16.4826136329
30
0.0000000000
10
11.1835709800
20
16.4356149533
30
0.0000000000
11
10.6179717117
21
17.4111293906
31
0.0000000000
11
10.7283164002
21
17.3426496269
31
0.0000000000
11
10.8344217263
21
17.2501830323
31
0.0000000000
11
10.9322100265
21
17.1372790339
31
0.0000000000
11
11.0179213499
21
17.0082757636
31
0.0000000000
11
11.0882605041
21
16.8681316823
31
0.0000000000
11
11.1405242375
21
16.7222341916
31
0.0000000000
11
11.1727055272
21
16.5761917113
31
0.0000000000
11
11.1835709800
21
16.4356149533
31
0.0000000000
0
SPLINE
5
348
100
AcDbEntity
8
0
100
AcDbSpline
62
0
6
CONTINUOUS
70
0
71
3
72
8
73
4
74
2
42
0.0000001000
43
0.0000001000
44
0.0000000001
12
0.1867340201
22
-0.0091604726
32
0.0000000000
13
0.1865280091
23
0.0078775628
33
0.0000000000
40
0.0000000000
40
0.0000000000
40
0.0000000000
40
0.0000000000
40
1.0000000000
40
1.0000000000
40
1.0000000000
40
1.0000000000
10
1.2054723438
20
-16.3501010283
30
0.0000000000
10
1.2677170171
20
-16.3531545192
30
0.0000000000
10
1.3300523454
20
-16.3534913371
30
0.0000000000
10
1.3922283484
20
-16.3508654828
30
0.0000000000
11
1.2054723438
21
-16.3501010283
31
0.0000000000
11
1.3922283484
21
-16.3508654828
31
0.0000000000
0
SPLINE
5
349
100
AcDbEntity
8
0
100
AcDbSpline
62
0
6
CONTINUOUS
70
0
71
3
72
8
73
4
74
2
42
0.0000001000
43
0.0000001000
44
0.0000000001
12
0.2365742125
22
0.0099911441
32
0.0000000000
13
0.2335064555
23
0.0400912338
33
0.0000000000
40
0.0000000000
40
0.0000000000
40
0.0000000000
40
0.0000000000
40
1.0000000000
40
1.0000000000
40
1.0000000000
40
1.0000000000
10
1.3922283484
20
-16.3508654828
30
0.0000000000
10
1.4710864192
20
-16.3475351015
30
0.0000000000
10
1.5496882003
20
-16.3394389807
30
0.0000000000
10
1.6275236855
20
-16.3260752361
30
0.0000000000
11
1.3922283484
21
-16.3508654828
31
0.0000000000
11
1.6275236855
21
-16.3260752361
31
0.0000000000
0
SPLINE
5
34A
100
AcDbEntity
8
0
100
AcDbSpline
62
0
6
CONTINUOUS
70
0
71
3
72
8
73
4
74
2
42
0.0000001000
43
0.0000001000
44
0.0000000001
12
0.2275858562
22
0.0390747132
32
0.0000000000
13
0.2209529802
23
0.0687285123
33
0.0000000000
40
0.0000000000
40
0.0000000000
40
0.0000000000
40
0.0000000000
40
1.0000000000
40
1.0000000000
40
1.0000000000
40
1.0000000000
10
1.6275236855
20
-16.3260752361
30
0.0000000000
10
1.7033856375
20
-16.3130503317
30
0.0000000000
10
1.7785196602
20
-16.2950215401
30
0.0000000000
10
1.8521706536
20
-16.2721120360
30
0.0000000000
11
1.6275236855
21
-16.3260752361
31
0.0000000000
11
1.8521706536
21
-16.2721120360
31
0.0000000000
0
SPLINE
5
34B
100
AcDbEntity
8
0
100
AcDbSpline
62
0
6
CONTINUOUS
70
0
71
3
72
8
73
4
74
2
42
0.0000001000
43
0.0000001000
44
0.0000000001
12
0.1205485351
22
0.0374972154
32
0.0000000000
13
0.1175319971
23
0.0461540357
33
0.0000000000
40
0.0000000000
40
0.0000000000
40
0.0000000000
40
0.0000000000
40
1.0000000000
40
1.0000000000
40
1.0000000000
40
1.0000000000
10
1.8521706536
20
-16.2721120360
30
0.0000000000
10
1.8923534986
20
-16.2596129642
30
0.0000000000
10
1.9320949015
20
-16.2456610873
30
0.0000000000
10
1.9712722338
20
-16.2302764087
30
0.0000000000
11
1.8521706536
21
-16.2721120360
31
0.0000000000
11
1.9712722338
21
-16.2302764087
31
0.0000000000
0
SPLINE
5
34C
100
AcDbEntity
8
0
100
AcDbSpline
62
9
6
CONTINUOUS
70
0
71
3
72
8
73
4
74
2
42
0.0000001000
43
0.0000001000
44
0.0000000001
12
-0.1457357841
22
0.0728897343
32
0.0000000000
13
-0.1426952070
23
0.0788785038
33
0.0000000000
40
0.0000000000
40
0.0000000000
40
0.0000000000
40
0.0000000000
40
1.0000000000
40
1.0000000000
40
1.0000000000
40
1.0000000000
10
-3.0911130361
20
-14.6833184833
30
0.0000000000
10
-3.1396916308
20
-14.6590219052
30
0.0000000000
10
-3.1877654495
20
-14.6336915379
30
0.0000000000
10
-3.2353305185
20
-14.6073987033
30
0.0000000000
11
-3.0911130361
21
-14.6833184833
31
0.0000000000
11
-3.2353305185
21
-14.6073987033
31
0.0000000000
0
SPLINE
5
34D
100
AcDbEntity
8
0
100
AcDbSpline
62
9
6
CONTINUOUS
70
0
71
3
72
8
73
4
74
2
42
0.0000001000
43
0.0000001000
44
0.0000000001
12
-0.1152399570
22
0.0637018971
32
0.0000000000
13
-0.1132428080
23
0.0673555814
33
0.0000000000
40
0.0000000000
40
0.0000000000
40
0.0000000000
40
0.0000000000
40
1.0000000000
40
1.0000000000
40
1.0000000000
40
1.0000000000
10
-3.2353305185
20
-14.6073987033
30
0.0000000000
10
-3.2737438375
20
-14.5861647376
30
0.0000000000
10
-3.3118253449
20
-14.5643030411
30
0.0000000000
10
-3.3495729475
20
-14.5418511807
30
0.0000000000
11
-3.2353305185
21
-14.6073987033
31
0.0000000000
11
-3.3495729475
21
-14.5418511807
31
0.0000000000
0
SPLINE
5
34E
100
AcDbEntity
8
0
100
AcDbSpline
62
9
6
CONTINUOUS
70
0
71
3
72
8
73
4
74
2
42
0.0000001000
43
0.0000001000
44
0.0000000001
12
-0.2633534642
22
0.1566397551
32
0.0000000000
13
-0.2524394461
23
0.1743728277
33
0.0000000000
40
0.0000000000
40
0.0000000000
40
0.0000000000
40
0.0000000000
40
1.0000000000
40
1.0000000000
40
1.0000000000
40
1.0000000000
10
-3.3495729475
20
-14.5418511807
30
0.0000000000
10
-3.4373574356
20
-14.4896379290
30
0.0000000000
10
-3.5233360833
20
-14.4342329223
30
0.0000000000
10
-3.6074825653
20
-14.3761086464
30
0.0000000000
11
-3.3495729475
21
-14.5418511807
31
0.0000000000
11
-3.6074825653
21
-14.3761086464
31
0.0000000000
0
SPLINE
5
34F
100
AcDbEntity
8
0
100
AcDbSpline
62
9
6
CONTINUOUS
70
0
71
3
72
8
73
4
74
2
42
0.0000001000
43
0.0000001000
44
0.0000000001
12
-0.2615708635
22
0.1806803644
32
0.0000000000
13
-0.2496803337
23
0.1966207801
33
0.0000000000
40
0.0000000000
40
0.0000000000
40
0.0000000000
40
0.0000000000
40
1.0000000000
40
1.0000000000
40
1.0000000000
40
1.0000000000
10
-3.6074825653
20
-14.3761086464
30
0.0000000000
10
-3.6946728532
20
-14.3158818583
30
0.0000000000
10
-3.7798960293
20
-14.2527355162
30
0.0000000000
10
-3.8631228072
20
-14.1871952562
30
0.0000000000
11
-3.6074825653
21
-14.3761086464
31
0.0000000000
11
-3.8631228072
21
-14.1871952562
31
0.0000000000
0
SPLINE
5
350
100
AcDbEntity
8
0
100
AcDbSpline
62
9
6
CONTINUOUS
70
0
71
3
72
8
73
4
74
2
42
0.0000001000
43
0.0000001000
44
0.0000000001
12
-0.1412476050
22
0.1112310844
32
0.0000000000
13
-0.1374404171
23
0.1157018315
33
0.0000000000
40
0.0000000000
40
0.0000000000
40
0.0000000000
40
0.0000000000
40
1.0000000000
40
1.0000000000
40
1.0000000000
40
1.0000000000
10
-3.8631228072
20
-14.1871952562
30
0.0000000000
10
-3.9102053422
20
-14.1501182281
30
0.0000000000
10
-3.9566489657
20
-14.1122750694
30
0.0000000000
10
-4.0024624381
20
-14.0737077922
30
0.0000000000
11
-3.8631228072
21
-14.1871952562
31
0.0000000000
11
-4.0024624381
21
-14.0737077922
31
0.0000000000
0
SPLINE
5
351
100
AcDbEntity
8
0
100
AcDbSpline
62
9
6
CONTINUOUS
70
0
71
3
72
8
73
4
74
2
42
0.0000001000
43
0.0000001000
44
0.0000000001
12
-0.0397608415
22
0.1706597075
32
0.0000000000
13
-0.0347058362
23
0.1717478622
33
0.0000000000
40
0.0000000000
40
0.0000000000
40
0.0000000000
40
0.0000000000
40
1.0000000000
40
1.0000000000
40
1.0000000000
40
1.0000000000
10
-6.2695213114
20
-10.3375451871
30
0.0000000000
10
-6.2827749252
20
-10.2806586180
30
0.0000000000
10
-6.2952054259
20
-10.2235823467
30
0.0000000000
10
-6.3067740380
20
-10.1663330593
30
0.0000000000
11
-6.2695213114
21
-10.3375451871
31
0.0000000000
11
-6.3067740380
21
-10.1663330593
31
0.0000000000
0
SPLINE
5
352
100
AcDbEntity
8
0
100
AcDbSpline
62
9
6
CONTINUOUS
70
0
71
3
72
11
73
7
74
5
42
0.0000001000
43
0.0000001000
44
0.0000000001
12
-0.4800545300
22
2.3756332775
32
0.0000000000
13
1.0675231895
23
2.1874032010
33
0.0000000000
40
0.0000000000
40
0.0000000000
40
0.0000000000
40
0.0000000000
40
0.1837090347
40
0.5636209913
40
0.8975594750
40
1.0000000000
40
1.0000000000
40
1.0000000000
40
1.0000000000
10
-6.3067740380
20
-10.1663330593
30
0.0000000000
10
-6.3361708227
20
-10.0208579606
30
0.0000000000
10
-6.4092860457
20
-9.5711115087
30
0.0000000000
10
-6.4327629018
20
-8.8422536237
30
0.0000000000
10
-6.3044909559
20
-8.1889696363
30
0.0000000000
10
-6.1666710624
20
-7.8620842235
30
0.0000000000
10
-6.1302185170
20
-7.7873913127
30
0.0000000000
11
-6.3067740380
21
-10.1663330593
31
0.0000000000
11
-6.3776322742
21
-9.7268299992
31
0.0000000000
11
-6.3969048028
21
-8.8072941047
31
0.0000000000
11
-6.2275617601
21
-8.0167895354
31
0.0000000000
11
-6.1302185170
21
-7.7873913127
31
0.0000000000
0
SPLINE
5
353
100
AcDbEntity
8
0
100
AcDbSpline
62
9
6
CONTINUOUS
70
0
71
3
72
8
73
4
74
2
42
0.0000001000
43
0.0000001000
44
0.0000000001
12
0.2065410130
22
0.4232118584
32
0.0000000000
13
0.2999942940
23
0.3630551979
33
0.0000000000
40
0.0000000000
40
0.0000000000
40
0.0000000000
40
0.0000000000
40
1.0000000000
40
1.0000000000
40
1.0000000000
40
1.0000000000
10
-6.1302185170
20
-7.7873913127
30
0.0000000000
10
-6.0613715127
20
-7.6463206933
30
0.0000000000
10
-5.9779024582
20
-7.5125406899
30
0.0000000000
10
-5.8779043602
20
-7.3915222906
30
0.0000000000
11
-6.1302185170
21
-7.7873913127
31
0.0000000000
11
-5.8779043602
21
-7.3915222906
31
0.0000000000
0
SPLINE
5
354
100
AcDbEntity
8
0
100
AcDbSpline
62
9
6
CONTINUOUS
70
0
71
3
72
8
73
4
74
2
42
0.0000001000
43
0.0000001000
44
0.0000000001
12
0.0373031024
22
0.0371506285
32
0.0000000000
13
0.0384219662
23
0.0360000071
33
0.0000000000
40
0.0000000000
40
0.0000000000
40
0.0000000000
40
0.0000000000
40
1.0000000000
40
1.0000000000
40
1.0000000000
40
1.0000000000
10
-5.7633932953
20
-7.2658207156
30
0.0000000000
10
-5.7509589279
20
-7.2534371727
30
0.0000000000
10
-5.7383354975
20
-7.2412409953
30
0.0000000000
10
-5.7255281754
20
-7.2292409929
30
0.0000000000
11
-5.7633932953
21
-7.2658207156
31
0.0000000000
11
-5.7255281754
21
-7.2292409929
31
0.0000000000
0
SPLINE
5
355
100
AcDbEntity
8
0
100
AcDbSpline
62
9
6
CONTINUOUS
70
0
71
3
72
8
73
4
74
2
42
0.0000001000
43
0.0000001000
44
0.0000000001
12
0.0952051454
22
0.0892038134
32
0.0000000000
13
0.1017435809
23
0.0815747386
33
0.0000000000
40
0.0000000000
40
0.0000000000
40
0.0000000000
40
0.0000000000
40
1.0000000000
40
1.0000000000
40
1.0000000000
40
1.0000000000
10
-5.7255281754
20
-7.2292409929
30
0.0000000000
10
-5.6937931269
20
-7.1995063884
30
0.0000000000
10
-5.6609290011
20
-7.1709762807
30
0.0000000000
10
-5.6270144742
20
-7.1437847011
30
0.0000000000
11
-5.7255281754
21
-7.2292409929
31
0.0000000000
11
-5.6270144742
21
-7.1437847011
31
0.0000000000
0
SPLINE
5
356
100
AcDbEntity
8
0
100
AcDbSpline
62
9
6
CONTINUOUS
70
0
71
3
72
8
73
4
74
2
42
0.0000001000
43
0.0000001000
44
0.0000000001
12
0.0680815381
22
0.0545855927
32
0.0000000000
13
0.0708327816
23
0.0508690868
33
0.0000000000
40
0.0000000000
40
0.0000000000
40
0.0000000000
40
0.0000000000
40
1.0000000000
40
1.0000000000
40
1.0000000000
40
1.0000000000
10
-5.6270144742
20
-7.1437847011
30
0.0000000000
10
-5.6043206281
20
-7.1255895036
30
0.0000000000
10
-5.5811564552
20
-7.1079936445
30
0.0000000000
10
-5.5575455280
20
-7.0910372823
30
0.0000000000
11
-5.6270144742
21
-7.1437847011
31
0.0000000000
11
-5.5575455280
21
-7.0910372823
31
0.0000000000
0
SPLINE
5
357
100
AcDbEntity
8
0
100
AcDbSpline
62
9
6
CONTINUOUS
70
0
71
3
72
8
73
4
74
2
42
0.0000001000
43
0.0000001000
44
0.0000000001
12
0.1019981487
22
0.0643966201
32
0.0000000000
13
0.1066499680
23
0.0562189897
33
0.0000000000
40
0.0000000000
40
0.0000000000
40
0.0000000000
40
0.0000000000
40
1.0000000000
40
1.0000000000
40
1.0000000000
40
1.0000000000
10
-5.4783660265
20
-7.0376624436
30
0.0000000000
10
-5.4443666435
20
-7.0161969036
30
0.0000000000
10
-5.4095606947
20
-6.9960410432
30
0.0000000000
10
-5.3740107054
20
-6.9773013800
30
0.0000000000
11
-5.4783660265
21
-7.0376624436
31
0.0000000000
11
-5.3740107054
21
-6.9773013800
31
0.0000000000
0
SPLINE
5
358
100
AcDbEntity
8
0
100
AcDbSpline
62
9
6
CONTINUOUS
70
0
71
3
72
8
73
4
74
2
42
0.0000001000
43
0.0000001000
44
0.0000000001
12
0.0193240409
22
0.0094327606
32
0.0000000000
13
0.0194547987
23
0.0091639478
33
0.0000000000
40
0.0000000000
40
0.0000000000
40
0.0000000000
40
0.0000000000
40
1.0000000000
40
1.0000000000
40
1.0000000000
40
1.0000000000
10
-5.3317743266
20
-6.9558695533
30
0.0000000000
10
-5.3253329797
20
-6.9527252998
30
0.0000000000
10
-5.3188694929
20
-6.9496258940
30
0.0000000000
10
-5.3123845600
20
-6.9465712447
30
0.0000000000
11
-5.3317743266
21
-6.9558695533
31
0.0000000000
11
-5.3123845600
21
-6.9465712447
31
0.0000000000
0
SPLINE
5
359
100
AcDbEntity
8
0
100
AcDbSpline
62
9
6
CONTINUOUS
70
0
71
3
72
10
73
6
74
4
42
0.0000001000
43
0.0000001000
44
0.0000000001
12
-0.0257206450
22
-0.3737639936
32
0.0000000000
13
0.3386685021
23
-0.1688223678
33
0.0000000000
40
0.0000000000
40
0.0000000000
40
0.0000000000
40
0.0000000000
40
0.0313902155
40
0.4387443272
40
1.0000000000
40
1.0000000000
40
1.0000000000
40
1.0000000000
10
-8.8581432233
20
20.9757016801
30
0.0000000000
10
-8.8584123488
20
20.9717908360
30
0.0000000000
10
-8.8600608801
20
20.9171108385
30
0.0000000000
10
-8.7928121300
20
20.7945724193
30
0.0000000000
10
-8.6871670166
20
20.7303084871
30
0.0000000000
10
-8.6238071439
20
20.6987243166
30
0.0000000000
11
-8.8581432233
21
20.9757016801
31
0.0000000000
11
-8.8584887713
21
20.9639713059
31
0.0000000000
11
-8.7959974152
21
20.8230577801
31
0.0000000000
11
-8.6238071439
21
20.6987243166
31
0.0000000000
0
SPLINE
5
35A
100
AcDbEntity
8
0
100
AcDbSpline
62
9
6
CONTINUOUS
70
0
71
3
72
9
73
5
74
3
42
0.0000001000
43
0.0000001000
44
0.0000000001
12
0.3394723926
22
0.1783090698
32
0.0000000000
13
0.3420788848
23
-0.1650472056
33
0.0000000000
40
0.0000000000
40
0.0000000000
40
0.0000000000
40
0.0000000000
40
0.4050937236
40
1.0000000000
40
1.0000000000
40
1.0000000000
40
1.0000000000
10
-7.9623293166
20
22.4503562641
30
0.0000000000
10
-7.9164899381
20
22.4744335591
30
0.0000000000
10
-7.7868088118
20
22.5057138589
30
0.0000000000
10
-7.6603583317
20
22.4671430122
30
0.0000000000
10
-7.5925233731
20
22.4344138060
30
0.0000000000
11
-7.9623293166
21
22.4503562641
31
0.0000000000
11
-7.8119540695
21
22.4883138276
31
0.0000000000
11
-7.5925233731
21
22.4344138060
31
0.0000000000
0
SPLINE
5
35B
100
AcDbEntity
8
0
100
AcDbSpline
62
9
6
CONTINUOUS
70
0
71
3
72
8
73
4
74
2
42
0.0000001000
43
0.0000001000
44
0.0000000001
12
-0.1458188947
22
0.0729572059
32
0.0000000000
13
-0.1428429094
23
0.0788238962
33
0.0000000000
40
0.0000000000
40
0.0000000000
40
0.0000000000
40
0.0000000000
40
1.0000000000
40
1.0000000000
40
1.0000000000
40
1.0000000000
10
-3.1604683821
20
-14.8096551412
30
0.0000000000
10
-3.2090746804
20
-14.7853360725
30
0.0000000000
10
-3.2571870600
20
-14.7600052288
30
0.0000000000
10
-3.3048013631
20
-14.7337305967
30
0.0000000000
11
-3.1604683821
21
-14.8096551412
31
0.0000000000
11
-3.3048013631
21
-14.7337305967
31
0.0000000000
0
SPLINE
5
35C
100
AcDbEntity
8
0
100
AcDbSpline
62
9
6
CONTINUOUS
70
0
71
3
72
8
73
4
74
2
42
0.0000001000
43
0.0000001000
44
0.0000000001
12
-0.1236971533
22
0.0682588419
32
0.0000000000
13
-0.1214480146
23
0.0723728610
33
0.0000000000
40
0.0000000000
40
0.0000000000
40
0.0000000000
40
0.0000000000
40
1.0000000000
40
1.0000000000
40
1.0000000000
40
1.0000000000
10
-3.3048013631
20
-14.7337305967
30
0.0000000000
10
-3.3460337476
20
-14.7109776494
30
0.0000000000
10
-3.3868926256
20
-14.6875169574
30
0.0000000000
10
-3.4273752971
20
-14.6633926704
30
0.0000000000
11
-3.3048013631
21
-14.7337305967
31
0.0000000000
11
-3.4273752971
21
-14.6633926704
31
0.0000000000
0
SPLINE
5
35D
100
AcDbEntity
8
0
100
AcDbSpline
62
9
6
CONTINUOUS
70
0
71
3
72
8
73
4
74
2
42
0.0000001000
43
0.0000001000
44
0.0000000001
12
-0.1517539391
22
0.0904326577
32
0.0000000000
13
-0.1482138054
23
0.0963908622
33
0.0000000000
40
0.0000000000
40
0.0000000000
40
0.0000000000
40
0.0000000000
40
1.0000000000
40
1.0000000000
40
1.0000000000
40
1.0000000000
10
-3.4273752971
20
-14.6633926704
30
0.0000000000
10
-3.4779599435
20
-14.6332484512
30
0.0000000000
10
-3.5279572014
20
-14.6020681307
30
0.0000000000
10
-3.5773618032
20
-14.5699378433
30
0.0000000000
11
-3.4273752971
21
-14.6633926704
31
0.0000000000
11
-3.5773618032
21
-14.5699378433
31
0.0000000000
0
SPLINE
5
35E
100
AcDbEntity
8
0
100
AcDbSpline
62
9
6
CONTINUOUS
70
0
71
3
72
8
73
4
74
2
42
0.0000001000
43
0.0000001000
44
0.0000000001
12
-0.1137758519
22
0.0739941359
32
0.0000000000
13
-0.1116732551
23
0.0772360327
33
0.0000000000
40
0.0000000000
40
0.0000000000
40
0.0000000000
40
0.0000000000
40
1.0000000000
40
1.0000000000
40
1.0000000000
40
1.0000000000
10
-3.5773618032
20
-14.5699378433
30
0.0000000000
10
-3.6152870872
20
-14.5452731314
30
0.0000000000
10
-3.6528631298
20
-14.5200486214
30
0.0000000000
10
-3.6900875481
20
-14.4943032772
30
0.0000000000
11
-3.5773618032
21
-14.5699378433
31
0.0000000000
11
-3.6900875481
21
-14.4943032772
31
0.0000000000
0
SPLINE
5
35F
100
AcDbEntity
8
0
100
AcDbSpline
62
9
6
CONTINUOUS
70
0
71
3
72
8
73
4
74
2
42
0.0000001000
43
0.0000001000
44
0.0000000001
12
-0.0305772054
22
0.0211479645
32
0.0000000000
13
-0.0304188875
23
0.0213798519
33
0.0000000000
40
0.0000000000
40
0.0000000000
40
0.0000000000
40
0.0000000000
40
1.0000000000
40
1.0000000000
40
1.0000000000
40
1.0000000000
10
-3.6900875481
20
-14.4943032772
30
0.0000000000
10
-3.7002799499
20
-14.4872539557
30
0.0000000000
10
-3.7104459899
20
-14.4801655863
30
0.0000000000
10
-3.7205856191
20
-14.4730389690
30
0.0000000000
11
-3.6900875481
21
-14.4943032772
31
0.0000000000
11
-3.7205856191
21
-14.4730389690
31
0.0000000000
0
SPLINE
5
360
100
AcDbEntity
8
0
100
AcDbSpline
62
9
6
CONTINUOUS
70
0
71
3
72
8
73
4
74
2
42
0.0000001000
43
0.0000001000
44
0.0000000001
12
-0.2329691417
22
0.1637418773
32
0.0000000000
13
-0.2236083647
23
0.1761247078
33
0.0000000000
40
0.0000000000
40
0.0000000000
40
0.0000000000
40
0.0000000000
40
1.0000000000
40
1.0000000000
40
1.0000000000
40
1.0000000000
10
-3.7205856191
20
-14.4730389690
30
0.0000000000
10
-3.7982419996
20
-14.4184583433
30
0.0000000000
10
-3.8743492379
20
-14.3616342564
30
0.0000000000
10
-3.9488853595
20
-14.3029260204
30
0.0000000000
11
-3.7205856191
21
-14.4730389690
31
0.0000000000
11
-3.9488853595
21
-14.3029260204
31
0.0000000000
0
SPLINE
5
361
100
AcDbEntity
8
0
100
AcDbSpline
62
9
6
CONTINUOUS
70
0
71
3
72
10
73
6
74
4
42
0.0000001000
43
0.0000001000
44
0.0000000001
12
-1.6977843110
22
1.4656410242
32
0.0000000000
13
-1.1478482178
23
1.9257232387
33
0.0000000000
40
0.0000000000
40
0.0000000000
40
0.0000000000
40
0.0000000000
40
0.3481378313
40
0.8353298988
40
1.0000000000
40
1.0000000000
40
1.0000000000
40
1.0000000000
10
-4.1448583430
20
-14.1412320699
30
0.0000000000
10
-4.3418793257
20
-13.9711503740
30
0.0000000000
10
-4.7867458628
20
-13.5315723256
30
0.0000000000
10
-5.2441044144
20
-12.9378878602
30
0.0000000000
10
-5.5035708219
20
-12.5254271966
30
0.0000000000
10
-5.5665762493
20
-12.4197241831
30
0.0000000000
11
-4.1448583430
21
-14.1412320699
31
0.0000000000
11
-4.7017788823
21
-13.5949605266
31
0.0000000000
11
-5.3700130649
21
-12.7321898952
31
0.0000000000
11
-5.5665762493
21
-12.4197241831
31
0.0000000000
0
SPLINE
5
362
100
AcDbEntity
8
0
100
AcDbSpline
62
9
6
CONTINUOUS
70
0
71
3
72
8
73
4
74
2
42
0.0000001000
43
0.0000001000
44
0.0000000001
12
-0.1905211297
22
0.3196336948
32
0.0000000000
13
-0.1748182074
23
0.3284796613
33
0.0000000000
40
0.0000000000
40
0.0000000000
40
0.0000000000
40
0.0000000000
40
1.0000000000
40
1.0000000000
40
1.0000000000
40
1.0000000000
10
-5.5665762493
20
-12.4197241831
30
0.0000000000
10
-5.6300832925
20
-12.3131796181
30
0.0000000000
10
-5.6910100810
20
-12.2051016237
30
0.0000000000
10
-5.7492828168
20
-12.0956084033
30
0.0000000000
11
-5.5665762493
21
-12.4197241831
31
0.0000000000
11
-5.7492828168
21
-12.0956084033
31
0.0000000000
0
SPLINE
5
363
100
AcDbEntity
8
0
100
AcDbSpline
62
9
6
CONTINUOUS
70
0
71
3
72
8
73
4
74
2
42
0.0000001000
43
0.0000001000
44
0.0000000001
12
-0.1735545424
22
0.3261052618
32
0.0000000000
13
-0.1576429834
23
0.3341273267
33
0.0000000000
40
0.0000000000
40
0.0000000000
40
0.0000000000
40
0.0000000000
40
1.0000000000
40
1.0000000000
40
1.0000000000
40
1.0000000000
10
-5.7492828168
20
-12.0956084033
30
0.0000000000
10
-5.8071343309
20
-11.9869066494
30
0.0000000000
10
-5.8623700231
20
-11.8768100553
30
0.0000000000
10
-5.9149176842
20
-11.7654342797
30
0.0000000000
11
-5.7492828168
21
-12.0956084033
31
0.0000000000
11
-5.9149176842
21
-11.7654342797
31
0.0000000000
0
SPLINE
5
364
100
AcDbEntity
8
0
100
AcDbSpline
62
9
6
CONTINUOUS
70
0
71
3
72
8
73
4
74
2
42
0.0000001000
43
0.0000001000
44
0.0000000001
12
-0.0486827147
22
0.1031839474
32
0.0000000000
13
-0.0471290374
23
0.1039070164
33
0.0000000000
40
0.0000000000
40
0.0000000000
40
0.0000000000
40
0.0000000000
40
1.0000000000
40
1.0000000000
40
1.0000000000
40
1.0000000000
10
-5.9149176842
20
-11.7654342797
30
0.0000000000
10
-5.9311452558
20
-11.7310396305
30
0.0000000000
10
-5.9471164766
20
-11.6965229891
30
0.0000000000
10
-5.9628261558
20
-11.6618873170
30
0.0000000000
11
-5.9149176842
21
-11.7654342797
31
0.0000000000
11
-5.9628261558
21
-11.6618873170
31
0.0000000000
0
SPLINE
5
365
100
AcDbEntity
8
0
100
AcDbSpline
62
9
6
CONTINUOUS
70
0
71
3
72
8
73
4
74
2
42
0.0000001000
43
0.0000001000
44
0.0000000001
12
-0.1050067902
22
0.2315120968
32
0.0000000000
13
-0.0970443205
23
0.2349592433
33
0.0000000000
40
0.0000000000
40
0.0000000000
40
0.0000000000
40
0.0000000000
40
1.0000000000
40
1.0000000000
40
1.0000000000
40
1.0000000000
10
-5.9628261558
20
-11.6618873170
30
0.0000000000
10
-5.9978284192
20
-11.5847166180
30
0.0000000000
10
-6.0315323124
20
-11.5069550157
30
0.0000000000
10
-6.0638804192
20
-11.4286352679
30
0.0000000000
11
-5.9628261558
21
-11.6618873170
31
0.0000000000
11
-6.0638804192
21
-11.4286352679
31
0.0000000000
0
SPLINE
5
366
100
AcDbEntity
8
0
100
AcDbSpline
62
9
6
CONTINUOUS
70
0
71
3
72
8
73
4
74
2
42
0.0000001000
43
0.0000001000
44
0.0000000001
12
-0.0867368242
22
0.2100032074
32
0.0000000000
13
-0.0801153957
23
0.2126082956
33
0.0000000000
40
0.0000000000
40
0.0000000000
40
0.0000000000
40
0.0000000000
40
1.0000000000
40
1.0000000000
40
1.0000000000
40
1.0000000000
10
-6.0638804192
20
-11.4286352679
30
0.0000000000
10
-6.0927926939
20
-11.3586341987
30
0.0000000000
10
-6.1206218949
20
-11.2881872536
30
0.0000000000
10
-6.1473270268
20
-11.2173178217
30
0.0000000000
11
-6.0638804192
21
-11.4286352679
31
0.0000000000
11
-6.1473270268
21
-11.2173178217
31
0.0000000000
0
SPLINE
5
367
100
AcDbEntity
8
0
100
AcDbSpline
62
9
6
CONTINUOUS
70
0
71
3
72
12
73
8
74
6
42
0.0000001000
43
0.0000001000
44
0.0000000001
12
-1.2520341444
22
3.3226178724
32
0.0000000000
13
1.5646843259
23
3.2049675947
33
0.0000000000
40
0.0000000000
40
0.0000000000
40
0.0000000000
40
0.0000000000
40
0.1405873542
40
0.4300285416
40
0.6953774395
40
0.9286550751
40
1.0000000000
40
1.0000000000
40
1.0000000000
40
1.0000000000
10
-6.1473270268
20
-11.2173178217
30
0.0000000000
10
-6.2060004160
20
-11.0616118031
30
0.0000000000
10
-6.3688732753
20
-10.5791001308
30
0.0000000000
10
-6.5435747100
20
-9.7717525003
30
0.0000000000
10
-6.5730129564
20
-8.8340163990
30
0.0000000000
10
-6.4413122934
20
-8.1657117381
30
0.0000000000
10
-6.3002171518
20
-7.8314081588
30
0.0000000000
10
-6.2630063899
20
-7.7551887680
30
0.0000000000
11
-6.1473270268
21
-11.2173178217
31
0.0000000000
11
-6.3066341821
21
-10.7443295768
31
0.0000000000
11
-6.5173308479
21
-9.7394171896
31
0.0000000000
11
-6.5363078884
21
-8.7983105539
31
0.0000000000
11
-6.3624297376
21
-7.9892557289
31
0.0000000000
11
-6.2630063899
21
-7.7551887680
31
0.0000000000
0
SPLINE
5
368
100
AcDbEntity
8
0
100
AcDbSpline
62
9
6
CONTINUOUS
70
0
71
3
72
8
73
4
74
2
42
0.0000001000
43
0.0000001000
44
0.0000000001
12
0.2118242001
22
0.4338828516
32
0.0000000000
13
0.3076827522
23
0.3721555485
33
0.0000000000
40
0.0000000000
40
0.0000000000
40
0.0000000000
40
0.0000000000
40
1.0000000000
40
1.0000000000
40
1.0000000000
40
1.0000000000
10
-6.2630063899
20
-7.7551887680
30
0.0000000000
10
-6.1923983232
20
-7.6105611508
30
0.0000000000
10
-6.1067931369
20
-7.4734121195
30
0.0000000000
10
-6.0042322195
20
-7.3493602700
30
0.0000000000
11
-6.2630063899
21
-7.7551887680
31
0.0000000000
11
-6.0042322195
21
-7.3493602700
31
0.0000000000
0
SPLINE
5
369
100
AcDbEntity
8
0
100
AcDbSpline
62
9
6
CONTINUOUS
70
0
71
3
72
8
73
4
74
2
42
0.0000001000
43
0.0000001000
44
0.0000000001
12
0.1447735069
22
0.1751097957
32
0.0000000000
13
0.1661047091
23
0.1556711095
33
0.0000000000
40
0.0000000000
40
0.0000000000
40
0.0000000000
40
0.0000000000
40
1.0000000000
40
1.0000000000
40
1.0000000000
40
1.0000000000
10
-6.0042322195
20
-7.3493602700
30
0.0000000000
10
-5.9559743838
20
-7.2909903381
30
0.0000000000
10
-5.9039625988
20
-7.2355200840
30
0.0000000000
10
-5.8485943625
20
-7.1836297141
30
0.0000000000
11
-6.0042322195
21
-7.3493602700
31
0.0000000000
11
-5.8485943625
21
-7.1836297141
31
0.0000000000
0
SPLINE
5
36A
100
AcDbEntity
8
0
100
AcDbSpline
62
9
6
CONTINUOUS
70
0
71
3
72
8
73
4
74
2
42
0.0000001000
43
0.0000001000
44
0.0000000001
12
0.1248641269
22
0.1170209880
32
0.0000000000
13
0.1357375974
23
0.1040165981
33
0.0000000000
40
0.0000000000
40
0.0000000000
40
0.0000000000
40
0.0000000000
40
1.0000000000
40
1.0000000000
40
1.0000000000
40
1.0000000000
10
-5.8485943625
20
-7.1836297141
30
0.0000000000
10
-5.8069729869
20
-7.1446227181
30
0.0000000000
10
-5.7634549409
20
-7.1076386503
30
0.0000000000
10
-5.7182090751
20
-7.0729664510
30
0.0000000000
11
-5.8485943625
21
-7.1836297141
31
0.0000000000
11
-5.7182090751
21
-7.0729664510
31
0.0000000000
0
SPLINE
5
36B
100
AcDbEntity
8
0
100
AcDbSpline
62
9
6
CONTINUOUS
70
0
71
3
72
8
73
4
74
2
42
0.0000001000
43
0.0000001000
44
0.0000000001
12
0.0418438884
22
0.0320652421
32
0.0000000000
13
0.0428142241
23
0.0307216581
33
0.0000000000
40
0.0000000000
40
0.0000000000
40
0.0000000000
40
0.0000000000
40
1.0000000000
40
1.0000000000
40
1.0000000000
40
1.0000000000
10
-5.7182090751
20
-7.0729664510
30
0.0000000000
10
-5.7042611123
20
-7.0622780370
30
0.0000000000
10
-5.6901489537
20
-7.0518093213
30
0.0000000000
10
-5.6758775456
20
-7.0415687686
30
0.0000000000
11
-5.7182090751
21
-7.0729664510
31
0.0000000000
11
-5.6758775456
21
-7.0415687686
31
0.0000000000
0
SPLINE
5
36C
100
AcDbEntity
8
0
100
AcDbSpline
62
9
6
CONTINUOUS
70
0
71
3
72
8
73
4
74
2
42
0.0000001000
43
0.0000001000
44
0.0000000001
12
0.1639793320
22
0.1176645631
32
0.0000000000
13
0.1771618329
23
0.0961562737
33
0.0000000000
40
0.0000000000
40
0.0000000000
40
0.0000000000
40
0.0000000000
40
1.0000000000
40
1.0000000000
40
1.0000000000
40
1.0000000000
10
-5.6758775456
20
-7.0415687686
30
0.0000000000
10
-5.6212177683
20
-7.0023472476
30
0.0000000000
10
-5.5642219535
20
-6.9664726607
30
0.0000000000
10
-5.5051680092
20
-6.9344205694
30
0.0000000000
11
-5.6758775456
21
-7.0415687686
31
0.0000000000
11
-5.5051680092
21
-6.9344205694
31
0.0000000000
0
SPLINE
5
36D
100
AcDbEntity
8
0
100
AcDbSpline
62
9
6
CONTINUOUS
70
0
71
3
72
8
73
4
74
2
42
0.0000001000
43
0.0000001000
44
0.0000000001
12
0.0166670503
22
0.0090462004
32
0.0000000000
13
0.0167756513
23
0.0088420221
33
0.0000000000
40
0.0000000000
40
0.0000000000
40
0.0000000000
40
0.0000000000
40
1.0000000000
40
1.0000000000
40
1.0000000000
40
1.0000000000
10
-5.5051680092
20
-6.9344205694
30
0.0000000000
10
-5.4996123258
20
-6.9314051693
30
0.0000000000
10
-5.4940384265
20
-6.9284236009
30
0.0000000000
10
-5.4884465427
20
-6.9254762601
30
0.0000000000
11
-5.5051680092
21
-6.9344205694
31
0.0000000000
11
-5.4884465427
21
-6.9254762601
31
0.0000000000
0
SPLINE
5
36E
100
AcDbEntity
8
0
100
AcDbSpline
62
9
6
CONTINUOUS
70
0
71
3
72
8
73
4
74
2
42
0.0000001000
43
0.0000001000
44
0.0000000001
12
0.0186754084
22
0.0098433361
32
0.0000000000
13
0.0188072590
23
0.0095890678
33
0.0000000000
40
0.0000000000
40
0.0000000000
40
0.0000000000
40
0.0000000000
40
1.0000000000
40
1.0000000000
40
1.0000000000
40
1.0000000000
10
-5.4884465427
20
-6.9254762601
30
0.0000000000
10
-5.4822214066
20
-6.9221951481
30
0.0000000000
10
-5.4759739820
20
-6.9189564549
30
0.0000000000
10
-5.4697048957
20
-6.9157600990
30
0.0000000000
11
-5.4884465427
21
-6.9254762601
31
0.0000000000
11
-5.4697048957
21
-6.9157600990
31
0.0000000000
0
SPLINE
5
36F
100
AcDbEntity
8
0
100
AcDbSpline
62
9
6
CONTINUOUS
70
0
71
3
72
8
73
4
74
2
42
0.0000001000
43
0.0000001000
44
0.0000000001
12
0.0646730815
22
0.0265049394
32
0.0000000000
13
0.0657705474
23
0.0237663915
33
0.0000000000
40
0.0000000000
40
0.0000000000
40
0.0000000000
40
0.0000000000
40
1.0000000000
40
1.0000000000
40
1.0000000000
40
1.0000000000
10
-5.3497473692
20
-6.8607589656
30
0.0000000000
10
-5.3281896753
20
-6.8519239858
30
0.0000000000
10
-5.3064377216
20
-6.8435469093
30
0.0000000000
10
-5.2845142058
20
-6.8356247788
30
0.0000000000
11
-5.3497473692
21
-6.8607589656
31
0.0000000000
11
-5.2845142058
21
-6.8356247788
31
0.0000000000
0
SPLINE
5
370
100
AcDbEntity
8
0
100
AcDbSpline
62
9
6
CONTINUOUS
70
0
71
3
72
8
73
4
74
2
42
0.0000001000
43
0.0000001000
44
0.0000000001
12
0.2143278557
22
0.0774480360
32
0.0000000000
13
0.2229026445
23
0.0487679047
33
0.0000000000
40
0.0000000000
40
0.0000000000
40
0.0000000000
40
0.0000000000
40
1.0000000000
40
1.0000000000
40
1.0000000000
40
1.0000000000
10
-5.2845142058
20
-6.8356247788
30
0.0000000000
10
-5.2130715873
20
-6.8098087668
30
0.0000000000
10
-5.1398071060
20
-6.7888239456
30
0.0000000000
10
-5.0655062245
20
-6.7725679773
30
0.0000000000
11
-5.2845142058
21
-6.8356247788
31
0.0000000000
11
-5.0655062245
21
-6.7725679773
31
0.0000000000
0
SPLINE
5
371
100
AcDbEntity
8
0
100
AcDbSpline
62
9
6
CONTINUOUS
70
0
71
3
72
8
73
4
74
2
42
0.0000001000
43
0.0000001000
44
0.0000000001
12
0.2236195726
22
0.0489247583
32
0.0000000000
13
0.2274988424
23
0.0206788181
33
0.0000000000
40
0.0000000000
40
0.0000000000
40
0.0000000000
40
0.0000000000
40
1.0000000000
40
1.0000000000
40
1.0000000000
40
1.0000000000
10
-5.0655062245
20
-6.7725679773
30
0.0000000000
10
-4.9909663670
20
-6.7562597246
30
0.0000000000
10
-4.9153834316
20
-6.7447107928
30
0.0000000000
10
-4.8395504842
20
-6.7378178534
30
0.0000000000
11
-5.0655062245
21
-6.7725679773
31
0.0000000000
11
-4.8395504842
21
-6.7378178534
31
0.0000000000
0
SPLINE
5
372
100
AcDbEntity
8
0
100
AcDbSpline
62
9
6
CONTINUOUS
70
0
71
3
72
8
73
4
74
2
42
0.0000001000
43
0.0000001000
44
0.0000000001
12
0.2324816192
22
0.0211317344
32
0.0000000000
13
0.2329463305
23
-0.0064600206
33
0.0000000000
40
0.0000000000
40
0.0000000000
40
0.0000000000
40
0.0000000000
40
1.0000000000
40
1.0000000000
40
1.0000000000
40
1.0000000000
10
-4.8395504842
20
-6.7378178534
30
0.0000000000
10
-4.7620566111
20
-6.7307739419
30
0.0000000000
10
-4.6843016542
20
-6.7285922116
30
0.0000000000
10
-4.6066528774
20
-6.7307455518
30
0.0000000000
11
-4.8395504842
21
-6.7378178534
31
0.0000000000
11
-4.6066528774
21
-6.7307455518
31
0.0000000000
0
SPLINE
5
373
100
AcDbEntity
8
0
100
AcDbSpline
62
9
6
CONTINUOUS
70
0
71
3
72
8
73
4
74
2
42
0.0000001000
43
0.0000001000
44
0.0000000001
12
0.2328209884
22
-0.0761516964
32
0.0000000000
13
0.2261081361
23
-0.0938146056
33
0.0000000000
40
0.0000000000
40
0.0000000000
40
0.0000000000
40
0.0000000000
40
1.0000000000
40
1.0000000000
40
1.0000000000
40
1.0000000000
10
-3.8983067694
20
-6.8601860254
30
0.0000000000
10
-3.8206997733
20
-6.8855699242
30
0.0000000000
10
-3.7441573648
20
-6.9141169026
30
0.0000000000
10
-3.6687879861
20
-6.9453884378
30
0.0000000000
11
-3.8983067694
21
-6.8601860254
31
0.0000000000
11
-3.6687879861
21
-6.9453884378
31
0.0000000000
0
SPLINE
5
374
100
AcDbEntity
8
0
100
AcDbSpline
62
9
6
CONTINUOUS
70
0
71
3
72
8
73
4
74
2
42
0.0000001000
43
0.0000001000
44
0.0000000001
12
0.2323381420
22
-0.0963994995
32
0.0000000000
13
0.2245538063
23
-0.1122327572
33
0.0000000000
40
0.0000000000
40
0.0000000000
40
0.0000000000
40
0.0000000000
40
1.0000000000
40
1.0000000000
40
1.0000000000
40
1.0000000000
10
-3.6687879861
20
-6.9453884378
30
0.0000000000
10
-3.5913419388
20
-6.9775216043
30
0.0000000000
10
-3.5151344532
20
-7.0125315366
30
0.0000000000
10
-3.4402831844
20
-7.0499424556
30
0.0000000000
11
-3.6687879861
21
-6.9453884378
31
0.0000000000
11
-3.4402831844
21
-7.0499424556
31
0.0000000000
0
SPLINE
5
375
100
AcDbEntity
8
0
100
AcDbSpline
62
9
6
CONTINUOUS
70
0
71
3
72
8
73
4
74
2
42
0.0000001000
43
0.0000001000
44
0.0000000001
12
-0.0239154218
22
0.0119617432
32
0.0000000000
13
-0.0233118694
23
0.0131059609
33
0.0000000000
40
0.0000000000
40
0.0000000000
40
0.0000000000
40
0.0000000000
40
1.0000000000
40
1.0000000000
40
1.0000000000
40
1.0000000000
10
-8.2394411031
20
-14.9298491975
30
0.0000000000
10
-8.2474129104
20
-14.9258619497
30
0.0000000000
10
-8.2552879498
20
-14.9216802559
30
0.0000000000
10
-8.2630585730
20
-14.9173116023
30
0.0000000000
11
-8.2394411031
21
-14.9298491975
31
0.0000000000
11
-8.2630585730
21
-14.9173116023
31
0.0000000000
0
SPLINE
5
376
100
AcDbEntity
8
0
100
AcDbSpline
62
9
6
CONTINUOUS
70
0
71
3
72
8
73
4
74
2
42
0.0000001000
43
0.0000001000
44
0.0000000001
12
-0.0163734484
22
0.0092051723
32
0.0000000000
13
-0.0160564362
23
0.0097507735
33
0.0000000000
40
0.0000000000
40
0.0000000000
40
0.0000000000
40
0.0000000000
40
1.0000000000
40
1.0000000000
40
1.0000000000
40
1.0000000000
10
-8.2630585730
20
-14.9173116023
30
0.0000000000
10
-8.2685163891
20
-14.9142432116
30
0.0000000000
10
-8.2739226949
20
-14.9110825903
30
0.0000000000
10
-8.2792748403
20
-14.9078323325
30
0.0000000000
11
-8.2630585730
21
-14.9173116023
31
0.0000000000
11
-8.2792748403
21
-14.9078323325
31
0.0000000000
0
SPLINE
5
377
100
AcDbEntity
8
0
100
AcDbSpline
62
9
6
CONTINUOUS
70
0
71
3
72
8
73
4
74
2
42
0.0000001000
43
0.0000001000
44
0.0000000001
12
-0.0419682573
22
0.0254865379
32
0.0000000000
13
-0.0396061653
23
0.0290219259
33
0.0000000000
40
0.0000000000
40
0.0000000000
40
0.0000000000
40
0.0000000000
40
1.0000000000
40
1.0000000000
40
1.0000000000
40
1.0000000000
10
-8.2792748403
20
-14.9078323325
30
0.0000000000
10
-8.2932642594
20
-14.8993368199
30
0.0000000000
10
-8.3068836582
20
-14.8902289161
30
0.0000000000
10
-8.3200857133
20
-14.8805549408
30
0.0000000000
11
-8.2792748403
21
-14.9078323325
31
0.0000000000
11
-8.3200857133
21
-14.8805549408
31
0.0000000000
0
SPLINE
5
378
100
AcDbEntity
8
0
100
AcDbSpline
62
9
6
CONTINUOUS
70
0
71
3
72
9
73
5
74
3
42
0.0000001000
43
0.0000001000
44
0.0000000001
12
-0.0288495034
22
0.1417025983
32
0.0000000000
13
-0.0127412161
23
0.1440010775
33
0.0000000000
40
0.0000000000
40
0.0000000000
40
0.0000000000
40
0.0000000000
40
0.3396018041
40
1.0000000000
40
1.0000000000
40
1.0000000000
40
1.0000000000
10
-8.5998919569
20
-14.3953441281
30
0.0000000000
10
-8.6031577381
20
-14.3793033088
30
0.0000000000
10
-8.6117868304
20
-14.3318662749
30
0.0000000000
10
-8.6176739447
20
-14.2839983289
30
0.0000000000
10
-8.6204787034
20
-14.2522989783
30
0.0000000000
11
-8.5998919569
21
-14.3953441281
31
0.0000000000
11
-8.6087024181
21
-14.3470342074
31
0.0000000000
11
-8.6204787034
21
-14.2522989783
31
0.0000000000
0
SPLINE
5
379
100
AcDbEntity
8
0
100
AcDbSpline
62
9
6
CONTINUOUS
70
0
71
3
72
8
73
4
74
2
42
0.0000001000
43
0.0000001000
44
0.0000000001
12
-0.0040793444
22
0.0461047038
32
0.0000000000
13
-0.0025904709
23
0.0461936725
33
0.0000000000
40
0.0000000000
40
0.0000000000
40
0.0000000000
40
0.0000000000
40
1.0000000000
40
1.0000000000
40
1.0000000000
40
1.0000000000
10
-8.6204787034
20
-14.2522989783
30
0.0000000000
10
-8.6218384849
20
-14.2369307437
30
0.0000000000
10
-8.6229436958
20
-14.2215419557
30
0.0000000000
10
-8.6238071861
20
-14.2061440649
30
0.0000000000
11
-8.6204787034
21
-14.2522989783
31
0.0000000000
11
-8.6238071861
21
-14.2061440649
31
0.0000000000
0
SPLINE
5
37A
100
AcDbEntity
8
0
100
AcDbSpline
62
9
6
CONTINUOUS
70
0
71
3
72
8
73
4
74
2
42
0.0000001000
43
0.0000001000
44
0.0000000001
12
0.2282086711
22
-0.1177275703
32
0.0000000000
13
0.2205710193
23
-0.1320871849
33
0.0000000000
40
0.0000000000
40
0.0000000000
40
0.0000000000
40
0.0000000000
40
1.0000000000
40
1.0000000000
40
1.0000000000
40
1.0000000000
10
-0.4279506396
20
-8.5564528238
30
0.0000000000
10
-0.3518810825
20
-8.5956953472
30
0.0000000000
10
-0.2770736037
20
-8.6374681190
30
0.0000000000
10
-0.2035499306
20
-8.6814971806
30
0.0000000000
11
-0.4279506396
21
-8.5564528238
31
0.0000000000
11
-0.2035499306
21
-8.6814971806
31
0.0000000000
0
SPLINE
5
37B
100
AcDbEntity
8
0
100
AcDbSpline
62
9
6
CONTINUOUS
70
0
71
3
72
11
73
7
74
5
42
0.0000001000
43
0.0000001000
44
0.0000000001
12
3.3184395880
22
-1.9872209175
32
0.0000000000
13
1.6090504152
23
-3.5154919480
33
0.0000000000
40
0.0000000000
40
0.0000000000
40
0.0000000000
40
0.0000000000
40
0.1636795314
40
0.4306908744
40
0.7127928750
40
1.0000000000
40
1.0000000000
40
1.0000000000
40
1.0000000000
10
-0.2035499306
20
-8.6814971806
30
0.0000000000
10
-0.0224963850
20
-8.7899196435
30
0.0000000000
10
0.4334260985
20
-9.1112142180
30
0.0000000000
10
1.0950523370
20
-9.7528603367
30
0.0000000000
10
1.7443171962
20
-10.6170677706
30
0.0000000000
10
2.0973763587
20
-11.2622241782
30
0.0000000000
10
2.2514199400
20
-11.5987822899
30
0.0000000000
11
-0.2035499306
21
-8.6814971806
31
0.0000000000
11
0.3159312327
21
-9.0437200877
31
0.0000000000
11
1.0613251235
21
-9.7565648494
31
0.0000000000
11
1.7185219237
21
-10.6257545460
31
0.0000000000
11
2.2514199400
21
-11.5987822899
31
0.0000000000
0
SPLINE
5
37C
100
AcDbEntity
8
0
100
AcDbSpline
62
9
6
CONTINUOUS
70
0
71
3
72
8
73
4
74
2
42
0.0000001000
43
0.0000001000
44
0.0000000001
12
0.0262061615
22
-0.0654370648
32
0.0000000000
13
0.0255871877
23
-0.0656807170
33
0.0000000000
40
0.0000000000
40
0.0000000000
40
0.0000000000
40
0.0000000000
40
1.0000000000
40
1.0000000000
40
1.0000000000
40
1.0000000000
10
2.3966460126
20
-11.9373384076
30
0.0000000000
10
2.4053813997
20
-11.9591507625
30
0.0000000000
10
2.4140141634
20
-11.9810040815
30
0.0000000000
10
2.4225432260
20
-12.0028976538
30
0.0000000000
11
2.3966460126
21
-11.9373384076
31
0.0000000000
11
2.4225432260
21
-12.0028976538
31
0.0000000000
0
SPLINE
5
37D
100
AcDbEntity
8
0
100
AcDbSpline
62
9
6
CONTINUOUS
70
0
71
3
72
8
73
4
74
2
42
0.0000001000
43
0.0000001000
44
0.0000000001
12
0.0149457570
22
-0.0383648274
32
0.0000000000
13
0.0147328248
23
-0.0384468057
33
0.0000000000
40
0.0000000000
40
0.0000000000
40
0.0000000000
40
0.0000000000
40
1.0000000000
40
1.0000000000
40
1.0000000000
40
1.0000000000
10
2.4225432260
20
-12.0028976538
30
0.0000000000
10
2.4275251450
20
-12.0156859296
30
0.0000000000
10
2.4324716827
20
-12.0284879393
30
0.0000000000
10
2.4373826243
20
-12.0413035411
30
0.0000000000
11
2.4225432260
21
-12.0028976538
31
0.0000000000
11
2.4373826243
21
-12.0413035411
31
0.0000000000
0
SPLINE
5
37E
100
AcDbEntity
8
0
100
AcDbSpline
62
9
6
CONTINUOUS
70
0
71
3
72
8
73
4
74
2
42
0.0000001000
43
0.0000001000
44
0.0000000001
12
0.0915903853
22
-0.2390144314
32
0.0000000000
13
0.0831812718
23
-0.2420642223
33
0.0000000000
40
0.0000000000
40
0.0000000000
40
0.0000000000
40
0.0000000000
40
1.0000000000
40
1.0000000000
40
1.0000000000
40
1.0000000000
10
2.4373826243
20
-12.0413035411
30
0.0000000000
10
2.4679127527
20
-12.1209750183
30
0.0000000000
10
2.4970671616
20
-12.2011718089
30
0.0000000000
10
2.5247942522
20
-12.2818598830
30
0.0000000000
11
2.4373826243
21
-12.0413035411
31
0.0000000000
11
2.5247942522
21
-12.2818598830
31
0.0000000000
0
SPLINE
5
37F
100
AcDbEntity
8
0
100
AcDbSpline
62
9
6
CONTINUOUS
70
0
71
3
72
10
73
6
74
4
42
0.0000001000
43
0.0000001000
44
0.0000000001
12
0.7571776413
22
-2.2034481185
32
0.0000000000
13
-0.2004578283
23
-2.3246740026
33
0.0000000000
40
0.0000000000
40
0.0000000000
40
0.0000000000
40
0.0000000000
40
0.1542002950
40
0.5957543394
40
1.0000000000
40
1.0000000000
40
1.0000000000
40
1.0000000000
10
2.5247942522
20
-12.2818598830
30
0.0000000000
10
2.5637132574
20
-12.3951173330
30
0.0000000000
10
2.7032125139
20
-12.8364282256
30
0.0000000000
10
2.8633345716
20
-13.5990819266
30
0.0000000000
10
2.8840371664
20
-14.2592399696
30
0.0000000000
10
2.8570257640
20
-14.5724864289
30
0.0000000000
11
2.5247942522
21
-12.2818598830
31
0.0000000000
11
2.6329721766
21
-12.6244419334
31
0.0000000000
11
2.8380401612
21
-13.6316522526
31
0.0000000000
11
2.8570257640
21
-14.5724864289
31
0.0000000000
0
SPLINE
5
380
100
AcDbEntity
8
0
100
AcDbSpline
62
9
6
CONTINUOUS
70
0
71
3
72
8
73
4
74
2
42
0.0000001000
43
0.0000001000
44
0.0000000001
12
-0.0246752671
22
-0.2861547110
32
0.0000000000
13
-0.0468266514
23
-0.2834900560
33
0.0000000000
40
0.0000000000
40
0.0000000000
40
0.0000000000
40
0.0000000000
40
1.0000000000
40
1.0000000000
40
1.0000000000
40
1.0000000000
10
2.8570257640
20
-14.5724864289
30
0.0000000000
10
2.8488006749
20
-14.6678713325
30
0.0000000000
10
2.8371535455
20
-14.7630455035
30
0.0000000000
10
2.8215446617
20
-14.8575421889
30
0.0000000000
11
2.8570257640
21
-14.5724864289
31
0.0000000000
11
2.8215446617
21
-14.8575421889
31
0.0000000000
0
SPLINE
5
381
100
AcDbEntity
8
0
100
AcDbSpline
62
9
6
CONTINUOUS
70
0
71
3
72
8
73
4
74
2
42
0.0000001000
43
0.0000001000
44
0.0000000001
12
-0.0258130107
22
-0.1562727981
32
0.0000000000
13
-0.0333074353
23
-0.1548030281
33
0.0000000000
40
0.0000000000
40
0.0000000000
40
0.0000000000
40
0.0000000000
40
1.0000000000
40
1.0000000000
40
1.0000000000
40
1.0000000000
10
2.8215446617
20
-14.8575421889
30
0.0000000000
10
2.8129403248
20
-14.9096331216
30
0.0000000000
10
2.8031321205
20
-14.9615181851
30
0.0000000000
10
2.7920296421
20
-15.0131191945
30
0.0000000000
11
2.8215446617
21
-14.8575421889
31
0.0000000000
11
2.7920296421
21
-15.0131191945
31
0.0000000000
0
SPLINE
5
382
100
AcDbEntity
8
0
100
AcDbSpline
62
9
6
CONTINUOUS
70
0
71
3
72
8
73
4
74
2
42
0.0000001000
43
0.0000001000
44
0.0000000001
12
-0.0126573897
22
-0.0588277732
32
0.0000000000
13
-0.0137937331
23
-0.0585687745
33
0.0000000000
40
0.0000000000
40
0.0000000000
40
0.0000000000
40
0.0000000000
40
1.0000000000
40
1.0000000000
40
1.0000000000
40
1.0000000000
10
2.7920296421
20
-15.0131191945
30
0.0000000000
10
2.7878105122
20
-15.0327284522
30
0.0000000000
10
2.7834044725
20
-15.0522966889
30
0.0000000000
10
2.7788065614
20
-15.0718196137
30
0.0000000000
11
2.7920296421
21
-15.0131191945
31
0.0000000000
11
2.7788065614
21
-15.0718196137
31
0.0000000000
0
SPLINE
5
383
100
AcDbEntity
8
0
100
AcDbSpline
62
9
6
CONTINUOUS
70
0
71
3
72
8
73
4
74
2
42
0.0000001000
43
0.0000001000
44
0.0000000001
12
-0.0131731324
22
-0.0559336775
32
0.0000000000
13
-0.0142360640
23
-0.0556745082
33
0.0000000000
40
0.0000000000
40
0.0000000000
40
0.0000000000
40
0.0000000000
40
1.0000000000
40
1.0000000000
40
1.0000000000
40
1.0000000000
10
2.7788065614
20
-15.0718196137
30
0.0000000000
10
2.7744155173
20
-15.0904641729
30
0.0000000000
10
2.7698494787
20
-15.1090674058
30
0.0000000000
10
2.7651041240
20
-15.1276255752
30
0.0000000000
11
2.7788065614
21
-15.0718196137
31
0.0000000000
11
2.7651041240
21
-15.1276255752
31
0.0000000000
0
SPLINE
5
384
100
AcDbEntity
8
0
100
AcDbSpline
62
9
6
CONTINUOUS
70
0
71
3
72
8
73
4
74
2
42
0.0000001000
43
0.0000001000
44
0.0000000001
12
-0.0649805310
22
-0.2541263589
32
0.0000000000
13
-0.0886293830
23
-0.2474268150
33
0.0000000000
40
0.0000000000
40
0.0000000000
40
0.0000000000
40
0.0000000000
40
1.0000000000
40
1.0000000000
40
1.0000000000
40
1.0000000000
10
2.7651041240
20
-15.1276255752
30
0.0000000000
10
2.7434439470
20
-15.2123343615
30
0.0000000000
10
2.7180477800
20
-15.2961042640
30
0.0000000000
10
2.6885046524
20
-15.3785798690
30
0.0000000000
11
2.7651041240
21
-15.1276255752
31
0.0000000000
11
2.6885046524
21
-15.3785798690
31
0.0000000000
0
SPLINE
5
385
100
AcDbEntity
8
0
100
AcDbSpline
62
9
6
CONTINUOUS
70
0
71
3
72
8
73
4
74
2
42
0.0000001000
43
0.0000001000
44
0.0000000001
12
-0.1669613771
22
-0.4661063900
32
0.0000000000
13
-0.2631100226
23
-0.4192148075
33
0.0000000000
40
0.0000000000
40
0.0000000000
40
0.0000000000
40
0.0000000000
40
1.0000000000
40
1.0000000000
40
1.0000000000
40
1.0000000000
10
2.6885046524
20
-15.3785798690
30
0.0000000000
10
2.6328508600
20
-15.5339486657
30
0.0000000000
10
2.5624805008
20
-15.6847243113
30
0.0000000000
10
2.4747771599
20
-15.8244625805
30
0.0000000000
11
2.6885046524
21
-15.3785798690
31
0.0000000000
11
2.4747771599
21
-15.8244625805
31
0.0000000000
0
SPLINE
5
386
100
AcDbEntity
8
0
100
AcDbSpline
62
9
6
CONTINUOUS
70
0
71
3
72
8
73
4
74
2
42
0.0000001000
43
0.0000001000
44
0.0000000001
12
-0.0603314776
22
-0.0961265121
32
0.0000000000
13
-0.0658942271
23
-0.0924114166
33
0.0000000000
40
0.0000000000
40
0.0000000000
40
0.0000000000
40
0.0000000000
40
1.0000000000
40
1.0000000000
40
1.0000000000
40
1.0000000000
10
2.4747771599
20
-15.8244625805
30
0.0000000000
10
2.4546666674
20
-15.8565047512
30
0.0000000000
10
2.4336448223
20
-15.8879665866
30
0.0000000000
10
2.4116800799
20
-15.9187703921
30
0.0000000000
11
2.4747771599
21
-15.8244625805
31
0.0000000000
11
2.4116800799
21
-15.9187703921
31
0.0000000000
0
SPLINE
5
387
100
AcDbEntity
8
0
100
AcDbSpline
62
9
6
CONTINUOUS
70
0
71
3
72
8
73
4
74
2
42
0.0000001000
43
0.0000001000
44
0.0000000001
12
-0.0365516879
22
-0.0512608373
32
0.0000000000
13
-0.0383085873
23
-0.0500062208
33
0.0000000000
40
0.0000000000
40
0.0000000000
40
0.0000000000
40
0.0000000000
40
1.0000000000
40
1.0000000000
40
1.0000000000
40
1.0000000000
10
2.4116800799
20
-15.9187703921
30
0.0000000000
10
2.3994961840
20
-15.9358573379
30
0.0000000000
10
2.3870221635
20
-15.9527418113
30
0.0000000000
10
2.3742526344
20
-15.9694105516
30
0.0000000000
11
2.4116800799
21
-15.9187703921
31
0.0000000000
11
2.3742526344
21
-15.9694105516
31
0.0000000000
0
SPLINE
5
388
100
AcDbEntity
8
0
100
AcDbSpline
62
9
6
CONTINUOUS
70
0
71
3
72
8
73
4
74
2
42
0.0000001000
43
0.0000001000
44
0.0000000001
12
-0.0338717104
22
-0.0442145311
32
0.0000000000
13
-0.0352690032
23
-0.0431751029
33
0.0000000000
40
0.0000000000
40
0.0000000000
40
0.0000000000
40
0.0000000000
40
1.0000000000
40
1.0000000000
40
1.0000000000
40
1.0000000000
10
2.3742526344
20
-15.9694105516
30
0.0000000000
10
2.3629620642
20
-15.9841487286
30
0.0000000000
10
2.3514404728
20
-15.9987182508
30
0.0000000000
10
2.3396841384
20
-16.0131099518
30
0.0000000000
11
2.3742526344
21
-15.9694105516
31
0.0000000000
11
2.3396841384
21
-16.0131099518
31
0.0000000000
0
SPLINE
5
389
100
AcDbEntity
8
0
100
AcDbSpline
62
9
6
CONTINUOUS
70
0
71
3
72
8
73
4
74
2
42
0.0000001000
43
0.0000001000
44
0.0000000001
12
-0.1411375521
22
-0.1727757463
32
0.0000000000
13
-0.1625022198
23
-0.1535547734
33
0.0000000000
40
0.0000000000
40
0.0000000000
40
0.0000000000
40
0.0000000000
40
1.0000000000
40
1.0000000000
40
1.0000000000
40
1.0000000000
10
2.3396841384
20
-16.0131099518
30
0.0000000000
10
2.2926382877
20
-16.0707018672
30
0.0000000000
10
2.2418332726
20
-16.1254461611
30
0.0000000000
10
2.1876658660
20
-16.1766310856
30
0.0000000000
11
2.3396841384
21
-16.0131099518
31
0.0000000000
11
2.1876658660
21
-16.1766310856
31
0.0000000000
0
SPLINE
5
38A
100
AcDbEntity
8
0
100
AcDbSpline
62
9
6
CONTINUOUS
70
0
71
3
72
8
73
4
74
2
42
0.0000001000
43
0.0000001000
44
0.0000000001
12
-0.1595487591
22
-0.1507639317
32
0.0000000000
13
-0.1778698498
23
-0.1281560311
33
0.0000000000
40
0.0000000000
40
0.0000000000
40
0.0000000000
40
0.0000000000
40
1.0000000000
40
1.0000000000
40
1.0000000000
40
1.0000000000
10
2.1876658660
20
-16.1766310856
30
0.0000000000
10
2.1344829463
20
-16.2268857295
30
0.0000000000
10
2.0780587466
20
-16.2737092105
30
0.0000000000
10
2.0187687967
20
-16.3164278875
30
0.0000000000
11
2.1876658660
21
-16.1766310856
31
0.0000000000
11
2.0187687967
21
-16.3164278875
31
0.0000000000
0
SPLINE
5
38B
100
AcDbEntity
8
0
100
AcDbSpline
62
9
6
CONTINUOUS
70
0
71
3
72
8
73
4
74
2
42
0.0000001000
43
0.0000001000
44
0.0000000001
12
-0.1015328604
22
-0.0731548851
32
0.0000000000
13
-0.1069260250
23
-0.0647538603
33
0.0000000000
40
0.0000000000
40
0.0000000000
40
0.0000000000
40
0.0000000000
40
1.0000000000
40
1.0000000000
40
1.0000000000
40
1.0000000000
10
2.0187687967
20
-16.3164278875
30
0.0000000000
10
1.9849245099
20
-16.3408128492
30
0.0000000000
10
1.9501464381
20
-16.3638602887
30
0.0000000000
10
1.9145044297
20
-16.3854449088
30
0.0000000000
11
2.0187687967
21
-16.3164278875
31
0.0000000000
11
1.9145044297
21
-16.3854449088
31
0.0000000000
0
SPLINE
5
38C
100
AcDbEntity
8
0
100
AcDbSpline
62
9
6
CONTINUOUS
70
0
71
3
72
8
73
4
74
2
42
0.0000001000
43
0.0000001000
44
0.0000000001
12
-0.0779718769
22
-0.0472193745
32
0.0000000000
13
-0.0806470232
23
-0.0424064757
33
0.0000000000
40
0.0000000000
40
0.0000000000
40
0.0000000000
40
0.0000000000
40
1.0000000000
40
1.0000000000
40
1.0000000000
40
1.0000000000
10
1.9145044297
20
-16.3854449088
30
0.0000000000
10
1.8885138041
20
-16.4011847003
30
0.0000000000
10
1.8620637785
20
-16.4161466347
30
0.0000000000
10
1.8351814374
20
-16.4302821266
30
0.0000000000
11
1.9145044297
21
-16.3854449088
31
0.0000000000
11
1.8351814374
21
-16.4302821266
31
0.0000000000
0
SPLINE
5
38D
100
AcDbEntity
8
0
100
AcDbSpline
62
9
6
CONTINUOUS
70
0
71
3
72
8
73
4
74
2
42
0.0000001000
43
0.0000001000
44
0.0000000001
12
-0.0830372986
22
-0.0436633498
32
0.0000000000
13
-0.0856083398
23
-0.0384377409
33
0.0000000000
40
0.0000000000
40
0.0000000000
40
0.0000000000
40
0.0000000000
40
1.0000000000
40
1.0000000000
40
1.0000000000
40
1.0000000000
10
1.8351814374
20
-16.4302821266
30
0.0000000000
10
1.8075023379
20
-16.4448365766
30
0.0000000000
10
1.7793649166
20
-16.4585148686
30
0.0000000000
10
1.7508288033
20
-16.4713274489
30
0.0000000000
11
1.8351814374
21
-16.4302821266
31
0.0000000000
11
1.7508288033
21
-16.4713274489
31
0.0000000000
0
SPLINE
5
38E
100
AcDbEntity
8
0
100
AcDbSpline
62
9
6
CONTINUOUS
70
0
71
3
72
8
73
4
74
2
42
0.0000001000
43
0.0000001000
44
0.0000000001
12
-0.2107774158
22
-0.0752452125
32
0.0000000000
13
-0.2192346537
23
-0.0466609921
33
0.0000000000
40
0.0000000000
40
0.0000000000
40
0.0000000000
40
0.0000000000
40
1.0000000000
40
1.0000000000
40
1.0000000000
40
1.0000000000
10
1.6349828905
20
-16.5178842065
30
0.0000000000
10
1.5647237519
20
-16.5429659440
30
0.0000000000
10
1.4926519268
20
-16.5632130205
30
0.0000000000
10
1.4195737089
20
-16.5787666845
30
0.0000000000
11
1.6349828905
21
-16.5178842065
31
0.0000000000
11
1.4195737089
21
-16.5787666845
31
0.0000000000
0
SPLINE
5
38F
100
AcDbEntity
8
0
100
AcDbSpline
62
9
6
CONTINUOUS
70
0
71
3
72
8
73
4
74
2
42
0.0000001000
43
0.0000001000
44
0.0000000001
12
-0.2203471449
22
-0.0468977701
32
0.0000000000
13
-0.2239910475
23
-0.0188810027
33
0.0000000000
40
0.0000000000
40
0.0000000000
40
0.0000000000
40
0.0000000000
40
1.0000000000
40
1.0000000000
40
1.0000000000
40
1.0000000000
10
1.4195737089
20
-16.5787666845
30
0.0000000000
10
1.3461246606
20
-16.5943992745
30
0.0000000000
10
1.2716589799
20
-16.6052906984
30
0.0000000000
10
1.1969952974
20
-16.6115843660
30
0.0000000000
11
1.4195737089
21
-16.5787666845
31
0.0000000000
11
1.1969952974
21
-16.6115843660
31
0.0000000000
0
SPLINE
5
390
100
AcDbEntity
8
0
100
AcDbSpline
62
9
6
CONTINUOUS
70
0
71
3
72
9
73
5
74
3
42
0.0000001000
43
0.0000001000
44
0.0000000001
12
-0.9446934356
22
-0.0796315723
32
0.0000000000
13
-0.8972406355
23
0.2969917249
33
0.0000000000
40
0.0000000000
40
0.0000000000
40
0.0000000000
40
0.0000000000
40
0.7473184469
40
1.0000000000
40
1.0000000000
40
1.0000000000
40
1.0000000000
10
1.1969952974
20
-16.6115843660
30
0.0000000000
10
0.9616663537
20
-16.6314210803
30
0.0000000000
10
0.6441364847
20
-16.5968465163
30
0.0000000000
10
0.3410653496
20
-16.5095454124
30
0.0000000000
10
0.2654932972
20
-16.4845306356
30
0.0000000000
11
1.1969952974
21
-16.6115843660
31
0.0000000000
11
0.4951494806
21
-16.5502976870
31
0.0000000000
11
0.2654932972
21
-16.4845306356
31
0.0000000000
0
SPLINE
5
391
100
AcDbEntity
8
0
100
AcDbSpline
62
9
6
CONTINUOUS
70
0
71
3
72
8
73
4
74
2
42
0.0000001000
43
0.0000001000
44
0.0000000001
12
-0.1746496175
22
0.0578100112
32
0.0000000000
13
-0.1709420600
23
0.0677691861
33
0.0000000000
40
0.0000000000
40
0.0000000000
40
0.0000000000
40
0.0000000000
40
1.0000000000
40
1.0000000000
40
1.0000000000
40
1.0000000000
10
0.2654932972
20
-16.4845306356
30
0.0000000000
10
0.2072767580
20
-16.4652606319
30
0.0000000000
10
0.1496586542
20
-16.4442368028
30
0.0000000000
10
0.0926779675
20
-16.4216470741
30
0.0000000000
11
0.2654932972
21
-16.4845306356
31
0.0000000000
11
0.0926779675
21
-16.4216470741
31
0.0000000000
0
SPLINE
5
392
100
AcDbEntity
8
0
100
AcDbSpline
62
9
6
CONTINUOUS
70
0
71
3
72
8
73
4
74
2
42
0.0000001000
43
0.0000001000
44
0.0000000001
12
-0.0557029824
22
0.0220831888
32
0.0000000000
13
-0.0552928350
23
0.0230613223
33
0.0000000000
40
0.0000000000
40
0.0000000000
40
0.0000000000
40
0.0000000000
40
1.0000000000
40
1.0000000000
40
1.0000000000
40
1.0000000000
10
0.0926779675
20
-16.4216470741
30
0.0000000000
10
0.0741103067
20
-16.4142860112
30
0.0000000000
10
0.0556103294
20
-16.4067586748
30
0.0000000000
10
0.0371793844
20
-16.3990715673
30
0.0000000000
11
0.0926779675
21
-16.4216470741
31
0.0000000000
11
0.0371793844
21
-16.3990715673
31
0.0000000000
0
SPLINE
5
393
100
AcDbEntity
8
0
100
AcDbSpline
62
9
6
CONTINUOUS
70
0
71
3
72
8
73
4
74
2
42
0.0000001000
43
0.0000001000
44
0.0000000001
12
-0.2315295011
22
0.0965654312
32
0.0000000000
13
-0.2239700411
23
0.1119415349
33
0.0000000000
40
0.0000000000
40
0.0000000000
40
0.0000000000
40
0.0000000000
40
1.0000000000
40
1.0000000000
40
1.0000000000
40
1.0000000000
10
0.0371793844
20
-16.3990715673
30
0.0000000000
10
-0.0399971159
20
-16.3668830903
30
0.0000000000
10
-0.1159632208
20
-16.3318932266
30
0.0000000000
10
-0.1906199011
20
-16.2945793817
30
0.0000000000
11
0.0371793844
21
-16.3990715673
31
0.0000000000
11
-0.1906199011
21
-16.2945793817
31
0.0000000000
0
SPLINE
5
394
100
AcDbEntity
8
0
100
AcDbSpline
62
9
6
CONTINUOUS
70
0
71
3
72
8
73
4
74
2
42
0.0000001000
43
0.0000001000
44
0.0000000001
12
-0.1916512478
22
-0.1012404262
32
0.0000000000
13
-0.2044315052
23
-0.0728881276
33
0.0000000000
40
0.0000000000
40
0.0000000000
40
0.0000000000
40
0.0000000000
40
1.0000000000
40
1.0000000000
40
1.0000000000
40
1.0000000000
10
1.8619467488
20
-16.3002852980
30
0.0000000000
10
1.7980629996
20
-16.3340321067
30
0.0000000000
10
1.7316634344
20
-16.3629852307
30
0.0000000000
10
1.6635195993
20
-16.3872812732
30
0.0000000000
11
1.8619467488
21
-16.3002852980
31
0.0000000000
11
1.6635195993
21
-16.3872812732
31
0.0000000000
0
SPLINE
5
395
100
AcDbEntity
8
0
100
AcDbSpline
62
9
6
CONTINUOUS
70
0
71
3
72
8
73
4
74
2
42
0.0000001000
43
0.0000001000
44
0.0000000001
12
-0.2048801366
22
-0.0730480829
32
0.0000000000
13
-0.2130609203
23
-0.0453972637
33
0.0000000000
40
0.0000000000
40
0.0000000000
40
0.0000000000
40
0.0000000000
40
1.0000000000
40
1.0000000000
40
1.0000000000
40
1.0000000000
10
1.6635195993
20
-16.3872812732
30
0.0000000000
10
1.5952262204
20
-16.4116306342
30
0.0000000000
10
1.5251809680
20
-16.4313025793
30
0.0000000000
10
1.4541606612
20
-16.4464350005
30
0.0000000000
11
1.6635195993
21
-16.3872812732
31
0.0000000000
11
1.4541606612
21
-16.4464350005
31
0.0000000000
0
SPLINE
5
396
100
AcDbEntity
8
0
100
AcDbSpline
62
9
6
CONTINUOUS
70
0
71
3
72
8
73
4
74
2
42
0.0000001000
43
0.0000001000
44
0.0000000001
12
-0.2159582174
22
-0.0460145959
32
0.0000000000
13
-0.2195419079
23
-0.0184624328
33
0.0000000000
40
0.0000000000
40
0.0000000000
40
0.0000000000
40
0.0000000000
40
1.0000000000
40
1.0000000000
40
1.0000000000
40
1.0000000000
10
1.4541606612
20
-16.4464350005
30
0.0000000000
10
1.3821745887
20
-16.4617731992
30
0.0000000000
10
1.3091867632
20
-16.4724475735
30
0.0000000000
10
1.2360061272
20
-16.4786017178
30
0.0000000000
11
1.4541606612
21
-16.4464350005
31
0.0000000000
11
1.2360061272
21
-16.4786017178
31
0.0000000000
0
SPLINE
5
397
100
AcDbEntity
8
0
100
AcDbSpline
62
9
6
CONTINUOUS
70
0
71
3
72
8
73
4
74
2
42
0.0000001000
43
0.0000001000
44
0.0000000001
12
-0.6902620159
22
-0.0580477606
32
0.0000000000
13
-0.6723192744
23
0.1622330476
33
0.0000000000
40
0.0000000000
40
0.0000000000
40
0.0000000000
40
0.0000000000
40
1.0000000000
40
1.0000000000
40
1.0000000000
40
1.0000000000
10
1.2360061272
20
-16.4786017178
30
0.0000000000
10
1.0059187886
20
-16.4979509714
30
0.0000000000
10
0.7739254473
20
-16.4726160620
30
0.0000000000
10
0.5498190225
20
-16.4185383794
30
0.0000000000
11
1.2360061272
21
-16.4786017178
31
0.0000000000
11
0.5498190225
21
-16.4185383794
31
0.0000000000
0
SPLINE
5
398
100
AcDbEntity
8
0
100
AcDbSpline
62
9
6
CONTINUOUS
70
0
71
3
72
8
73
4
74
2
42
0.0000001000
43
0.0000001000
44
0.0000000001
12
-0.4175038777
22
0.1007451802
32
0.0000000000
13
-0.3977048946
23
0.1598175741
33
0.0000000000
40
0.0000000000
40
0.0000000000
40
0.0000000000
40
0.0000000000
40
1.0000000000
40
1.0000000000
40
1.0000000000
40
1.0000000000
10
0.5498190225
20
-16.4185383794
30
0.0000000000
10
0.4106510633
20
-16.3849566527
30
0.0000000000
10
0.2745245292
20
-16.3402908735
30
0.0000000000
10
0.1419562310
20
-16.2870183489
30
0.0000000000
11
0.5498190225
21
-16.4185383794
31
0.0000000000
11
0.1419562310
21
-16.2870183489
31
0.0000000000
0
SPLINE
5
399
100
AcDbEntity
8
0
100
AcDbSpline
62
9
6
CONTINUOUS
70
0
71
3
72
8
73
4
74
2
42
0.0000001000
43
0.0000001000
44
0.0000000001
12
-0.0439504352
22
0.0176614672
32
0.0000000000
13
-0.0436876131
23
0.0182820962
33
0.0000000000
40
0.0000000000
40
0.0000000000
40
0.0000000000
40
0.0000000000
40
1.0000000000
40
1.0000000000
40
1.0000000000
40
1.0000000000
10
0.1419562310
20
-16.2870183489
30
0.0000000000
10
0.1273060860
20
-16.2811311931
30
0.0000000000
10
0.1126993958
20
-16.2751389275
30
0.0000000000
10
0.0981368581
20
-16.2690448955
30
0.0000000000
11
0.1419562310
21
-16.2870183489
31
0.0000000000
11
0.0981368581
21
-16.2690448955
31
0.0000000000
0
SPLINE
5
39A
100
AcDbEntity
8
0
100
AcDbSpline
62
9
6
CONTINUOUS
70
0
71
3
72
8
73
4
74
2
42
0.0000001000
43
0.0000001000
44
0.0000000001
12
-0.2229435506
22
0.0932959057
32
0.0000000000
13
-0.2157665826
23
0.1078641173
33
0.0000000000
40
0.0000000000
40
0.0000000000
40
0.0000000000
40
0.0000000000
40
1.0000000000
40
1.0000000000
40
1.0000000000
40
1.0000000000
10
0.0981368581
20
-16.2690448955
30
0.0000000000
10
0.0238223413
20
-16.2379462603
30
0.0000000000
10
-0.0493423609
20
-16.2041974295
30
0.0000000000
10
-0.1212645551
20
-16.1682427238
30
0.0000000000
11
0.0981368581
21
-16.2690448955
31
0.0000000000
11
-0.1212645551
21
-16.1682427238
31
0.0000000000
0
SPLINE
5
39B
100
AcDbEntity
8
0
100
AcDbSpline
62
9
6
CONTINUOUS
70
0
71
3
72
10
73
6
74
4
42
0.0000001000
43
0.0000001000
44
0.0000000001
12
-0.0073504583
22
0.1498460573
32
0.0000000000
13
0.1330306824
23
0.0693592652
33
0.0000000000
40
0.0000000000
40
0.0000000000
40
0.0000000000
40
0.0000000000
40
0.3299451218
40
0.6833594529
40
1.0000000000
40
1.0000000000
40
1.0000000000
40
1.0000000000
10
-0.1906199011
20
-16.2945793817
30
0.0000000000
10
-0.1914283171
20
-16.2780990565
30
0.0000000000
10
-0.1848913041
20
-16.2435249955
30
0.0000000000
10
-0.1607372227
20
-16.1991416933
30
0.0000000000
10
-0.1353055244
20
-16.1755633757
30
0.0000000000
10
-0.1212645551
20
-16.1682427238
30
0.0000000000
11
-0.1906199011
21
-16.2945793817
31
0.0000000000
11
-0.1827918296
21
-16.2457018491
31
0.0000000000
11
-0.1572764885
21
-16.1992234844
31
0.0000000000
11
-0.1212645551
21
-16.1682427238
31
0.0000000000
0
SPLINE
5
39C
100
AcDbEntity
8
0
100
AcDbSpline
62
9
6
CONTINUOUS
70
0
71
3
72
9
73
5
74
3
42
0.0000001000
43
0.0000001000
44
0.0000000001
12
0.0013846794
22
-0.0595637513
32
0.0000000000
13
0.0537838341
23
-0.0283679622
33
0.0000000000
40
0.0000000000
40
0.0000000000
40
0.0000000000
40
0.0000000000
40
0.6410153343
40
1.0000000000
40
1.0000000000
40
1.0000000000
40
1.0000000000
10
-0.4704347035
20
-8.5348666961
30
0.0000000000
10
-0.4701388365
20
-8.5475937888
30
0.0000000000
10
-0.4665212830
20
-8.5685489623
30
0.0000000000
10
-0.4507892855
20
-8.5829107821
30
0.0000000000
10
-0.4443534283
20
-8.5863053366
30
0.0000000000
11
-0.4704347035
21
-8.5348666961
31
0.0000000000
11
-0.4605231889
21
-8.5717497505
31
0.0000000000
11
-0.4443534283
21
-8.5863053366
31
0.0000000000
0
SPLINE
5
39D
100
AcDbEntity
8
0
100
AcDbSpline
62
9
6
CONTINUOUS
70
0
71
3
72
10
73
6
74
4
42
0.0000001000
43
0.0000001000
44
0.0000000001
12
-0.0073504508
22
0.1498460657
32
0.0000000000
13
0.1330306835
23
0.0693592804
33
0.0000000000
40
0.0000000000
40
0.0000000000
40
0.0000000000
40
0.0000000000
40
0.3300116770
40
0.6834129449
40
1.0000000000
40
1.0000000000
40
1.0000000000
40
1.0000000000
10
-3.1604683821
20
-14.8096551412
30
0.0000000000
10
-3.1612769603
20
-14.7931714907
30
0.0000000000
10
-3.1547379121
20
-14.7585946546
30
0.0000000000
10
-3.1305815024
20
-14.7142126751
30
0.0000000000
10
-3.1051516228
20
-14.6906379044
30
0.0000000000
10
-3.0911130254
20
-14.6833184876
30
0.0000000000
11
-3.1604683821
21
-14.8096551412
31
0.0000000000
11
-3.1526369566
21
-14.7607680308
31
0.0000000000
11
-3.1271198778
21
-14.7142928528
31
0.0000000000
11
-3.0911130254
21
-14.6833184876
31
0.0000000000
0
SPLINE
5
39E
100
AcDbEntity
8
0
100
AcDbSpline
62
9
6
CONTINUOUS
70
0
71
3
72
8
73
4
74
2
42
0.0000001000
43
0.0000001000
44
0.0000000001
12
-0.0163470994
22
0.2941782769
32
0.0000000000
13
-0.0160554546
23
0.2941957657
33
0.0000000000
40
0.0000000000
40
0.0000000000
40
0.0000000000
40
0.0000000000
40
1.0000000000
40
1.0000000000
40
1.0000000000
40
1.0000000000
10
-8.6238071861
20
-14.2061440649
30
0.0000000000
10
-8.6292562193
20
-14.1080846392
30
0.0000000000
10
-8.6346566101
20
-14.0100222701
30
0.0000000000
10
-8.6400084283
20
-13.9119570148
30
0.0000000000
11
-8.6238071861
21
-14.2061440649
31
0.0000000000
11
-8.6400084283
21
-13.9119570148
31
0.0000000000
0
SPLINE
5
39F
100
AcDbEntity
8
0
100
AcDbSpline
62
9
6
CONTINUOUS
70
0
71
3
72
10
73
6
74
4
42
0.0000001000
43
0.0000001000
44
0.0000000001
12
-1.8868439343
22
34.5740129322
32
0.0000000000
13
1.8168923010
23
34.5775917656
33
0.0000000000
40
0.0000000000
40
0.0000000000
40
0.0000000000
40
0.0000000000
40
0.3213674105
40
0.6576172283
40
1.0000000000
40
1.0000000000
40
1.0000000000
40
1.0000000000
10
-8.6400084283
20
-13.9119570148
30
0.0000000000
10
-8.8421318113
20
-10.2083033462
30
0.0000000000
10
-9.1139660329
20
-2.6210572948
30
0.0000000000
10
-9.1101021432
20
8.9229371374
30
0.0000000000
10
-8.8311647268
20
16.7524670636
30
0.0000000000
10
-8.6238071861
20
20.6987242990
30
0.0000000000
11
-8.6400084283
21
-13.9119570148
31
0.0000000000
11
-9.0422899452
21
-2.7917398111
31
0.0000000000
11
-9.0422899460
21
8.8510088214
31
0.0000000000
11
-8.6238071861
21
20.6987242990
31
0.0000000000
0
SPLINE
5
3A0
100
AcDbEntity
8
0
100
AcDbSpline
62
9
6
CONTINUOUS
70
0
71
3
72
11
73
7
74
5
42
0.0000001000
43
0.0000001000
44
0.0000000001
12
0.0306914338
22
0.5784671042
32
0.0000000000
13
0.1886703985
23
0.5478886333
33
0.0000000000
40
0.0000000000
40
0.0000000000
40
0.0000000000
40
0.0000000000
40
0.2503731325
40
0.5460484028
40
0.8810564204
40
1.0000000000
40
1.0000000000
40
1.0000000000
40
1.0000000000
10
-8.6238071861
20
20.6987242990
30
0.0000000000
10
-8.6212457493
20
20.7470018393
30
0.0000000000
10
-8.6112697069
20
20.8520955033
30
0.0000000000
10
-8.5814562962
20
21.0197828145
30
0.0000000000
10
-8.5440917916
20
21.1598137351
30
0.0000000000
10
-8.5167476751
20
21.2431332878
30
0.0000000000
10
-8.5092672975
20
21.2648558995
30
0.0000000000
11
-8.6238071861
21
20.6987242990
31
0.0000000000
11
-8.6103100547
21
20.8431312384
31
0.0000000000
11
-8.5805685489
21
21.0118082469
31
0.0000000000
11
-8.5307531287
21
21.1993692723
31
0.0000000000
11
-8.5092672975
21
21.2648558995
31
0.0000000000
0
SPLINE
5
3A1
100
AcDbEntity
8
0
100
AcDbSpline
62
9
6
CONTINUOUS
70
0
71
3
72
8
73
4
74
2
42
0.0000001000
43
0.0000001000
44
0.0000000001
12
0.0230711383
22
0.0669973378
32
0.0000000000
13
0.0250467948
23
0.0662853535
33
0.0000000000
40
0.0000000000
40
0.0000000000
40
0.0000000000
40
0.0000000000
40
1.0000000000
40
1.0000000000
40
1.0000000000
40
1.0000000000
10
-8.5092672975
20
21.2648558995
30
0.0000000000
10
-8.5015769181
20
21.2871883454
30
0.0000000000
10
-8.4935528416
20
21.3094059793
30
0.0000000000
10
-8.4852039100
20
21.3315010971
30
0.0000000000
11
-8.5092672975
21
21.2648558995
31
0.0000000000
11
-8.4852039100
21
21.3315010971
31
0.0000000000
0
SPLINE
5
3A2
100
AcDbEntity
8
0
100
AcDbSpline
62
9
6
CONTINUOUS
70
0
71
3
72
9
73
5
74
3
42
0.0000001000
43
0.0000001000
44
0.0000000001
12
0.0514960081
22
0.1362821523
32
0.0000000000
13
0.0595298597
23
0.1329697730
33
0.0000000000
40
0.0000000000
40
0.0000000000
40
0.0000000000
40
0.0000000000
40
0.4956337275
40
1.0000000000
40
1.0000000000
40
1.0000000000
40
1.0000000000
10
-8.4852039100
20
21.3315010971
30
0.0000000000
10
-8.4766961905
20
21.3540164408
30
0.0000000000
10
-8.4588502524
20
21.3991871422
30
0.0000000000
10
-8.4396692059
20
21.4438067707
30
0.0000000000
10
-8.4296609214
20
21.4661619270
30
0.0000000000
11
-8.4852039100
21
21.3315010971
31
0.0000000000
11
-8.4586781197
21
21.3986573145
31
0.0000000000
11
-8.4296609214
21
21.4661619270
31
0.0000000000
0
SPLINE
5
3A3
100
AcDbEntity
8
0
100
AcDbSpline
62
9
6
CONTINUOUS
70
0
71
3
72
10
73
6
74
4
42
0.0000001000
43
0.0000001000
44
0.0000000001
12
0.2440557677
22
0.5451388630
32
0.0000000000
13
0.3712228466
23
0.4679552684
33
0.0000000000
40
0.0000000000
40
0.0000000000
40
0.0000000000
40
0.0000000000
40
0.2507045062
40
0.6297818463
40
1.0000000000
40
1.0000000000
40
1.0000000000
40
1.0000000000
10
-8.4296609214
20
21.4661619270
30
0.0000000000
10
-8.4092656279
20
21.5117181835
30
0.0000000000
10
-8.3545472467
20
21.6245983297
30
0.0000000000
10
-8.2542406760
20
21.7968271151
30
0.0000000000
10
-8.1673586446
20
21.9183120602
30
0.0000000000
10
-8.1215474990
20
21.9760605720
30
0.0000000000
11
-8.4296609214
21
21.4661619270
31
0.0000000000
11
-8.3643613588
21
21.6008897651
31
0.0000000000
11
-8.2503516380
21
21.7964166070
31
0.0000000000
11
-8.1215474990
21
21.9760605720
31
0.0000000000
0
SPLINE
5
3A4
100
AcDbEntity
8
0
100
AcDbSpline
62
9
6
CONTINUOUS
70
0
71
3
72
8
73
4
74
2
42
0.0000001000
43
0.0000001000
44
0.0000000001
12
0.1293500230
22
0.1630557636
32
0.0000000000
13
0.1448987874
23
0.1494209647
33
0.0000000000
40
0.0000000000
40
0.0000000000
40
0.0000000000
40
0.0000000000
40
1.0000000000
40
1.0000000000
40
1.0000000000
40
1.0000000000
10
-8.1215474990
20
21.9760605720
30
0.0000000000
10
-8.0784308247
20
22.0304124932
30
0.0000000000
10
-8.0327596522
20
22.0827484695
30
0.0000000000
10
-7.9844600564
20
22.1325554578
30
0.0000000000
11
-8.1215474990
21
21.9760605720
31
0.0000000000
11
-7.9844600564
21
22.1325554578
31
0.0000000000
0
SPLINE
5
3A5
100
AcDbEntity
8
0
100
AcDbSpline
62
9
6
CONTINUOUS
70
0
71
3
72
10
73
6
74
4
42
0.0000001000
43
0.0000001000
44
0.0000000001
12
0.3148355075
22
0.3246612763
32
0.0000000000
13
0.3919362889
23
0.2255609747
33
0.0000000000
40
0.0000000000
40
0.0000000000
40
0.0000000000
40
0.0000000000
40
0.4182616949
40
0.7859305933
40
1.0000000000
40
1.0000000000
40
1.0000000000
40
1.0000000000
10
-7.9844600564
20
22.1325554578
30
0.0000000000
10
-7.9405655121
20
22.1778199163
30
0.0000000000
10
-7.8540067821
20
22.2589488645
30
0.0000000000
10
-7.7337961032
20
22.3502394264
30
0.0000000000
10
-7.6593923985
20
22.3968210443
30
0.0000000000
10
-7.6314252089
20
22.4129162790
30
0.0000000000
11
-7.9844600564
21
22.1325554578
31
0.0000000000
11
-7.8461920242
21
22.2615145042
31
0.0000000000
11
-7.7135452610
21
22.3616549836
31
0.0000000000
11
-7.6314252089
21
22.4129162790
31
0.0000000000
0
SPLINE
5
3A6
100
AcDbEntity
8
0
100
AcDbSpline
62
9
6
CONTINUOUS
70
0
71
3
72
8
73
4
74
2
42
0.0000001000
43
0.0000001000
44
0.0000000001
12
0.0385315443
22
0.0221750650
32
0.0000000000
13
0.0392704138
23
0.0208042650
33
0.0000000000
40
0.0000000000
40
0.0000000000
40
0.0000000000
40
0.0000000000
40
1.0000000000
40
1.0000000000
40
1.0000000000
40
1.0000000000
10
-7.6314252089
20
22.4129162790
30
0.0000000000
10
-7.6185813608
20
22.4203079673
30
0.0000000000
10
-7.6056135111
20
22.4274790510
30
0.0000000000
10
-7.5925233731
20
22.4344138060
30
0.0000000000
11
-7.6314252089
21
22.4129162790
31
0.0000000000
11
-7.5925233731
21
22.4344138060
31
0.0000000000
0
SPLINE
5
3A7
100
AcDbEntity
8
0
100
AcDbSpline
62
9
6
CONTINUOUS
70
0
71
3
72
10
73
6
74
4
42
0.0000001000
43
0.0000001000
44
0.0000000001
12
-0.0073795612
22
-0.5126264466
32
0.0000000000
13
-0.4741040210
23
-0.2130766527
33
0.0000000000
40
0.0000000000
40
0.0000000000
40
0.0000000000
40
0.0000000000
40
0.4862828883
40
0.8868298685
40
1.0000000000
40
1.0000000000
40
1.0000000000
40
1.0000000000
10
7.1172859677
20
-21.5558005950
30
0.0000000000
10
7.1160897829
20
-21.6388944181
30
0.0000000000
10
7.0937080679
20
-21.7921981052
30
0.0000000000
10
6.9920155982
20
-21.9417545562
30
0.0000000000
10
6.9145845387
20
-21.9856841723
30
0.0000000000
10
6.8966997339
20
-21.9937221432
30
0.0000000000
11
7.1172859677
21
-21.5558005950
31
0.0000000000
11
7.0711578451
21
-21.8008032988
31
0.0000000000
11
6.9474776559
21
-21.9647324215
31
0.0000000000
11
6.8966997339
21
-21.9937221432
31
0.0000000000
0
SPLINE
5
3A8
100
AcDbEntity
8
0
100
AcDbSpline
62
9
6
CONTINUOUS
70
0
71
3
72
11
73
7
74
5
42
0.0000001000
43
0.0000001000
44
0.0000000001
12
-1.0068615705
22
-0.5677813647
32
0.0000000000
13
-1.0344439916
23
0.5158212174
33
0.0000000000
40
0.0000000000
40
0.0000000000
40
0.0000000000
40
0.0000000000
40
0.2403894125
40
0.5051907545
40
0.7671872688
40
1.0000000000
40
1.0000000000
40
1.0000000000
40
1.0000000000
10
6.6235982321
20
-21.2287718410
30
0.0000000000
10
6.5429186117
20
-21.2742680505
30
0.0000000000
10
6.3579040619
20
-21.3426810216
30
0.0000000000
10
6.0632450224
20
-21.3833509020
30
0.0000000000
10
5.7693177765
20
-21.3648767044
30
0.0000000000
10
5.5837413936
20
-21.3098093294
30
0.0000000000
10
5.5034641499
20
-21.2697794140
30
0.0000000000
11
6.6235982321
21
-21.2287718410
31
0.0000000000
11
6.3648025752
21
-21.3299487362
31
0.0000000000
11
6.0617860629
21
-21.3732062290
31
0.0000000000
11
5.7596758579
21
-21.3521021359
31
0.0000000000
11
5.5034641499
21
-21.2697794140
31
0.0000000000
0
SPLINE
5
3A9
100
AcDbEntity
8
0
100
AcDbSpline
62
9
6
CONTINUOUS
70
0
71
3
72
9
73
5
74
3
42
0.0000001000
43
0.0000001000
44
0.0000000001
12
0.0766153464
22
0.0215323744
32
0.0000000000
13
0.0721875085
23
0.0333382358
33
0.0000000000
40
0.0000000000
40
0.0000000000
40
0.0000000000
40
0.0000000000
40
0.2593682316
40
1.0000000000
40
1.0000000000
40
1.0000000000
40
1.0000000000
10
7.0427937929
20
-21.5835153496
30
0.0000000000
10
7.0494176552
20
-21.5816537450
30
0.0000000000
10
7.0747922414
20
-21.5738896886
30
0.0000000000
10
7.0994645136
20
-21.5640310472
30
0.0000000000
10
7.1172859677
20
-21.5558005950
30
0.0000000000
11
7.0427937929
21
-21.5835153496
31
0.0000000000
11
7.0625331324
21
-21.5774853392
31
0.0000000000
11
7.1172859677
21
-21.5558005950
31
0.0000000000
0
SPLINE
5
3AA
100
AcDbEntity
8
0
100
AcDbSpline
62
9
6
CONTINUOUS
70
0
71
3
72
11
73
7
74
5
42
0.0000001000
43
0.0000001000
44
0.0000000001
12
-1.0641376588
22
-0.4275454507
32
0.0000000000
13
-1.0251216767
23
0.5141105107
33
0.0000000000
40
0.0000000000
40
0.0000000000
40
0.0000000000
40
0.0000000000
40
0.2328718370
40
0.4973491083
40
0.7632438455
40
1.0000000000
40
1.0000000000
40
1.0000000000
40
1.0000000000
10
6.6235982321
20
13.5830168739
30
0.0000000000
10
6.5409956683
20
13.5498291091
30
0.0000000000
10
6.3536575327
20
13.5064052400
30
0.0000000000
10
6.0608444114
20
13.4952459670
30
0.0000000000
10
5.7688544032
20
13.5338625277
30
0.0000000000
10
5.5843651718
20
13.5945158474
30
0.0000000000
10
5.5034638831
20
13.6350887899
30
0.0000000000
11
6.6235982321
21
13.5830168739
31
0.0000000000
11
6.3648025100
21
13.5170905838
31
0.0000000000
11
6.0617859171
21
13.5038339518
31
0.0000000000
11
5.7596756379
21
13.5452212412
31
0.0000000000
11
5.5034638831
21
13.6350887899
31
0.0000000000
0
SPLINE
5
3AB
100
AcDbEntity
8
0
100
AcDbSpline
62
9
6
CONTINUOUS
70
0
71
3
72
8
73
4
74
2
42
0.0000001000
43
0.0000001000
44
0.0000000001
12
-0.1788987403
22
-3.2850804722
32
0.0000000000
13
-0.1467028019
23
-3.2868242087
33
0.0000000000
40
0.0000000000
40
0.0000000000
40
0.0000000000
40
0.0000000000
40
1.0000000000
40
1.0000000000
40
1.0000000000
40
1.0000000000
10
5.5034638553
20
13.6350887783
30
0.0000000000
10
5.4438309418
20
12.5400619542
30
0.0000000000
10
5.3895240411
20
11.4447132455
30
0.0000000000
10
5.3406231072
20
10.3491051759
30
0.0000000000
11
5.5034638553
21
13.6350887783
31
0.0000000000
11
5.3406231072
21
10.3491051759
31
0.0000000000
0
SPLINE
5
3AC
100
AcDbEntity
8
0
100
AcDbSpline
62
9
6
CONTINUOUS
70
0
71
3
72
8
73
4
74
2
42
0.0000001000
43
0.0000001000
44
0.0000000001
12
-0.0043364828
22
-0.0971573570
32
0.0000000000
13
-0.0043081350
23
-0.0971587118
33
0.0000000000
40
0.0000000000
40
0.0000000000
40
0.0000000000
40
0.0000000000
40
1.0000000000
40
1.0000000000
40
1.0000000000
40
1.0000000000
10
5.3406231072
20
10.3491051759
30
0.0000000000
10
5.3391776129
20
10.3167193903
30
0.0000000000
10
5.3377368422
20
10.2843333780
30
0.0000000000
10
5.3363007972
20
10.2519471407
30
0.0000000000
11
5.3406231072
21
10.3491051759
31
0.0000000000
11
5.3363007972
21
10.2519471407
31
0.0000000000
0
SPLINE
5
3AD
100
AcDbEntity
8
0
100
AcDbSpline
62
9
6
CONTINUOUS
70
0
71
3
72
10
73
6
74
4
42
0.0000001000
43
0.0000001000
44
0.0000000001
12
-0.9553210748
22
-21.5447668489
32
0.0000000000
13
0.5089868007
23
-21.5607300257
33
0.0000000000
40
0.0000000000
40
0.0000000000
40
0.0000000000
40
0.0000000000
40
0.3923511252
40
0.9322435197
40
1.0000000000
40
1.0000000000
40
1.0000000000
40
1.0000000000
10
5.3363007972
20
10.2519471407
30
0.0000000000
10
5.2113603644
20
7.4342426359
30
0.0000000000
10
4.9994899607
20
0.7352059864
30
0.0000000000
10
4.9970829639
20
-6.4545978283
30
0.0000000000
10
5.0896209308
20
-10.8219522406
30
0.0000000000
10
5.1011166489
20
-11.3089119670
30
0.0000000000
11
5.3363007972
21
10.2519471407
31
0.0000000000
11
5.0701526234
21
1.7947875367
31
0.0000000000
11
5.0701526223
21
-9.8479610948
31
0.0000000000
11
5.1011166489
21
-11.3089119670
31
0.0000000000
0
SPLINE
5
3AE
100
AcDbEntity
8
0
100
AcDbSpline
62
9
6
CONTINUOUS
70
0
71
3
72
8
73
4
74
2
42
0.0000001000
43
0.0000001000
44
0.0000000001
12
0.0037011822
22
-0.1567824339
32
0.0000000000
13
0.0037825640
23
-0.1567805828
33
0.0000000000
40
0.0000000000
40
0.0000000000
40
0.0000000000
40
0.0000000000
40
1.0000000000
40
1.0000000000
40
1.0000000000
40
1.0000000000
10
5.1011166489
20
-11.3089119670
30
0.0000000000
10
5.1023503762
20
-11.3611727783
30
0.0000000000
10
5.1035976621
20
-11.4134332857
30
0.0000000000
10
5.1048585167
20
-11.4656934800
30
0.0000000000
11
5.1011166489
21
-11.3089119670
31
0.0000000000
11
5.1048585167
21
-11.4656934800
31
0.0000000000
0
SPLINE
5
3AF
100
AcDbEntity
8
0
100
AcDbSpline
62
9
6
CONTINUOUS
70
0
71
3
72
8
73
4
74
2
42
0.0000001000
43
0.0000001000
44
0.0000000001
12
0.2366813863
22
-9.8100244766
32
0.0000000000
13
0.5630783880
23
-9.7958873015
33
0.0000000000
40
0.0000000000
40
0.0000000000
40
0.0000000000
40
0.0000000000
40
1.0000000000
40
1.0000000000
40
1.0000000000
40
1.0000000000
10
5.1048585167
20
-11.4656934800
30
0.0000000000
10
5.1837523122
20
-14.7357016389
30
0.0000000000
10
5.3157710592
20
-18.0044838184
30
0.0000000000
10
5.5034638553
20
-21.2697795856
30
0.0000000000
11
5.1048585167
21
-11.4656934800
31
0.0000000000
11
5.5034638553
21
-21.2697795856
31
0.0000000000
0
SPLINE
5
3B0
100
AcDbEntity
8
0
100
AcDbSpline
62
9
6
CONTINUOUS
70
0
71
3
72
8
73
4
74
2
42
0.0000001000
43
0.0000001000
44
0.0000000001
12
-0.1982410534
22
-3.6400970363
32
0.0000000000
13
-0.1585702813
23
-3.6422182894
33
0.0000000000
40
0.0000000000
40
0.0000000000
40
0.0000000000
40
0.0000000000
40
1.0000000000
40
1.0000000000
40
1.0000000000
40
1.0000000000
10
6.6235982321
20
13.5830168739
30
0.0000000000
10
6.5575178810
20
12.3696511952
30
0.0000000000
10
6.4979946300
20
11.1558892115
30
0.0000000000
10
6.4451378695
20
9.9418164483
30
0.0000000000
11
6.6235982321
21
13.5830168739
31
0.0000000000
11
6.4451378695
21
9.9418164483
31
0.0000000000
0
SPLINE
5
3B1
100
AcDbEntity
8
0
100
AcDbSpline
62
9
6
CONTINUOUS
70
0
71
3
72
8
73
4
74
2
42
0.0000001000
43
0.0000001000
44
0.0000000001
12
-0.0137966830
22
-0.3168975340
32
0.0000000000
13
-0.0134936679
23
-0.3169114809
33
0.0000000000
40
0.0000000000
40
0.0000000000
40
0.0000000000
40
0.0000000000
40
1.0000000000
40
1.0000000000
40
1.0000000000
40
1.0000000000
10
6.4451378695
20
9.9418164483
30
0.0000000000
10
6.4405389752
20
9.8361839370
30
0.0000000000
10
6.4359905473
20
9.7305490730
30
0.0000000000
10
6.4314926580
20
9.6249119127
30
0.0000000000
11
6.4451378695
21
9.9418164483
31
0.0000000000
11
6.4314926580
21
9.6249119127
31
0.0000000000
0
SPLINE
5
3B2
100
AcDbEntity
8
0
100
AcDbSpline
62
9
6
CONTINUOUS
70
0
71
3
72
10
73
6
74
4
42
0.0000001000
43
0.0000001000
44
0.0000000001
12
-0.9074120856
22
-21.3114261634
32
0.0000000000
13
0.5322635020
23
-21.3247999792
33
0.0000000000
40
0.0000000000
40
0.0000000000
40
0.0000000000
40
0.0000000000
40
0.3682164301
40
0.9126142399
40
1.0000000000
40
1.0000000000
40
1.0000000000
40
1.0000000000
10
6.4314926580
20
9.6249119127
30
0.0000000000
10
6.3201179784
20
7.0091728250
30
0.0000000000
10
6.1208790759
20
0.5226462555
30
0.0000000000
10
6.1184987834
20
-6.5887065058
30
0.0000000000
10
6.2166761078
20
-11.0799284487
30
0.0000000000
10
6.2321801913
20
-11.7010897335
30
0.0000000000
11
6.4314926580
21
9.6249119127
31
0.0000000000
11
6.1914231866
21
1.7743260295
31
0.0000000000
11
6.1914241542
21
-9.8374820945
31
0.0000000000
11
6.2321801913
21
-11.7010897335
31
0.0000000000
0
SPLINE
5
3B3
100
AcDbEntity
8
0
100
AcDbSpline
62
9
6
CONTINUOUS
70
0
71
3
72
8
73
4
74
2
42
0.0000001000
43
0.0000001000
44
0.0000000001
12
0.2379524839
22
-9.5334155062
32
0.0000000000
13
0.5472348622
23
-9.5198627980
33
0.0000000000
40
0.0000000000
40
0.0000000000
40
0.0000000000
40
0.0000000000
40
1.0000000000
40
1.0000000000
40
1.0000000000
40
1.0000000000
10
6.2321801913
20
-11.7010897335
30
0.0000000000
10
6.3114976860
20
-14.8788949023
30
0.0000000000
10
6.4411866114
20
-18.0554842416
30
0.0000000000
10
6.6235982321
20
-21.2287718410
30
0.0000000000
11
6.2321801913
21
-11.7010897335
31
0.0000000000
11
6.6235982321
21
-21.2287718410
31
0.0000000000
0
SPLINE
5
3B4
100
AcDbEntity
8
0
100
AcDbSpline
62
9
6
CONTINUOUS
70
0
71
3
72
11
73
7
74
5
42
0.0000001000
43
0.0000001000
44
0.0000000001
12
-0.0171007920
22
1.1714044393
32
0.0000000000
13
-1.0401915471
23
0.5389641388
33
0.0000000000
40
0.0000000000
40
0.0000000000
40
0.0000000000
40
0.0000000000
40
0.2465056357
40
0.5120768054
40
0.7710554147
40
1.0000000000
40
1.0000000000
40
1.0000000000
40
1.0000000000
10
7.1172859677
20
14.3867943325
30
0.0000000000
10
7.1158808205
20
14.4830469311
30
0.0000000000
10
7.0802938531
20
14.6828097043
30
0.0000000000
10
6.9587357698
20
14.9608773615
30
0.0000000000
10
6.7826794847
20
15.1995763332
30
0.0000000000
10
6.6310687735
20
15.3211777960
30
0.0000000000
10
6.5516866993
20
15.3623087698
30
0.0000000000
11
7.1172859677
21
14.3867943325
31
0.0000000000
11
7.0711578635
21
14.6718750801
31
0.0000000000
11
6.9474776986
21
14.9573599412
31
0.0000000000
11
6.7650674188
21
15.1998030627
31
0.0000000000
11
6.5516866993
21
15.3623087698
31
0.0000000000
0
SPLINE
5
3B5
100
AcDbEntity
8
0
100
AcDbSpline
62
9
6
CONTINUOUS
70
0
71
3
72
18
73
14
74
12
42
0.0000001000
43
0.0000001000
44
0.0000000001
12
-1.8693923319
22
-0.9592275435
32
0.0000000000
13
-0.1131929919
23
-2.0980782915
33
0.0000000000
40
0.0000000000
40
0.0000000000
40
0.0000000000
40
0.0000000000
40
0.0665144299
40
0.1449942886
40
0.2344289538
40
0.3330056776
40
0.4379500889
40
0.5456620358
40
0.6521508765
40
0.7536066350
40
0.8468578177
40
0.9295442229
40
1.0000000000
40
1.0000000000
40
1.0000000000
40
1.0000000000
10
6.5516866993
20
15.3623087698
30
0.0000000000
10
6.5102395110
20
15.3410412787
30
0.0000000000
10
6.4224285918
20
15.2896108996
30
0.0000000000
10
6.2899076544
20
15.1921967391
30
0.0000000000
10
6.1514664623
20
15.0665226755
30
0.0000000000
10
6.0139503505
20
14.9137922325
30
0.0000000000
10
5.8843722842
20
14.7380852089
30
0.0000000000
10
5.7691542741
20
14.5461635158
30
0.0000000000
10
5.6732124061
20
14.3466422597
30
0.0000000000
10
5.5992806656
20
14.1487664387
30
0.0000000000
10
5.5476808938
20
13.9611972754
30
0.0000000000
10
5.5165387050
20
13.7912536606
30
0.0000000000
10
5.5061222220
20
13.6843626904
30
0.0000000000
10
5.5034638553
20
13.6350887783
30
0.0000000000
11
6.5516866993
21
15.3623087698
31
0.0000000000
11
6.4309054424
21
15.2919989669
31
0.0000000000
11
6.2977801296
21
15.1946929750
31
0.0000000000
11
6.1583465813
21
15.0687172357
31
0.0000000000
11
6.0194733598
21
14.9150489479
31
0.0000000000
11
5.8883893460
21
14.7377412369
31
0.0000000000
11
5.7718041867
21
14.5437639921
31
0.0000000000
11
5.6748718999
21
14.3421039261
31
0.0000000000
11
5.6004093051
21
14.1423603652
31
0.0000000000
11
5.5486626315
21
13.9533843134
31
0.0000000000
11
5.5175989502
21
13.7824491091
31
0.0000000000
11
5.5034638553
21
13.6350887783
31
0.0000000000
0
SPLINE
5
3B6
100
AcDbEntity
8
0
100
AcDbSpline
62
9
6
CONTINUOUS
70
0
71
3
72
18
73
14
74
12
42
0.0000001000
43
0.0000001000
44
0.0000000001
12
-0.8765860662
22
-0.4416718955
32
0.0000000000
13
-0.0533809651
23
-0.9801161499
33
0.0000000000
40
0.0000000000
40
0.0000000000
40
0.0000000000
40
0.0000000000
40
0.0667654645
40
0.1454516628
40
0.2350251949
40
0.3336630502
40
0.4385948085
40
0.5462355241
40
0.6526150759
40
0.7539438650
40
0.8470678278
40
0.9296395459
40
1.0000000000
40
1.0000000000
40
1.0000000000
40
1.0000000000
10
7.1172859677
20
14.3867943325
30
0.0000000000
10
7.0977774090
20
14.3769648561
30
0.0000000000
10
7.0564471544
20
14.3531711286
30
0.0000000000
10
6.9940424076
20
14.3080105312
30
0.0000000000
10
6.9288476147
20
14.2496770450
30
0.0000000000
10
6.8640835428
20
14.1787148682
30
0.0000000000
10
6.8030511757
20
14.0970075199
30
0.0000000000
10
6.7487751685
20
14.0076919135
30
0.0000000000
10
6.7035739316
20
13.9147760837
30
0.0000000000
10
6.6687395971
20
13.8225715050
30
0.0000000000
10
6.6444275064
20
13.7351261254
30
0.0000000000
10
6.6297561157
20
13.6558677514
30
0.0000000000
10
6.6248502018
20
13.6060040130
30
0.0000000000
10
6.6235982321
20
13.5830168739
30
0.0000000000
11
7.1172859677
21
14.3867943325
31
0.0000000000
11
7.0604053171
21
14.3542456952
31
0.0000000000
11
6.9977153694
21
14.3091307679
31
0.0000000000
11
6.9320566889
21
14.2506558365
31
0.0000000000
11
6.8666601567
21
14.1792599394
31
0.0000000000
11
6.8049262194
21
14.0968132646
31
0.0000000000
11
6.7500132097
21
14.0065474755
31
0.0000000000
11
6.7043506518
21
13.9126420681
31
0.0000000000
11
6.6692696665
21
13.8195730120
31
0.0000000000
11
6.6448901427
21
13.7314765713
31
0.0000000000
11
6.6302561247
21
13.6517588291
31
0.0000000000
11
6.6235982321
21
13.5830168739
31
0.0000000000
0
SPLINE
5
3B7
100
AcDbEntity
8
0
100
AcDbSpline
62
9
6
CONTINUOUS
70
0
71
3
72
8
73
4
74
2
42
0.0000001000
43
0.0000001000
44
0.0000000001
12
-0.1997084068
22
0.1572999509
32
0.0000000000
13
-0.1922617773
23
0.1659732314
33
0.0000000000
40
0.0000000000
40
0.0000000000
40
0.0000000000
40
0.0000000000
40
1.0000000000
40
1.0000000000
40
1.0000000000
40
1.0000000000
10
-3.9488853595
20
-14.3029260204
30
0.0000000000
10
-4.0154548284
20
-14.2504927035
30
0.0000000000
10
-4.0807710839
20
-14.1965564804
30
0.0000000000
10
-4.1448583430
20
-14.1412320699
30
0.0000000000
11
-3.9488853595
21
-14.3029260204
31
0.0000000000
11
-4.1448583430
21
-14.1412320699
31
0.0000000000
0
SPLINE
5
3B8
100
AcDbEntity
8
0
100
AcDbSpline
62
9
6
CONTINUOUS
70
0
71
3
72
8
73
4
74
2
42
0.0000001000
43
0.0000001000
44
0.0000000001
12
-0.1997084068
22
0.1572999509
32
0.0000000000
13
-0.1922617773
23
0.1659732314
33
0.0000000000
40
0.0000000000
40
0.0000000000
40
0.0000000000
40
0.0000000000
40
1.0000000000
40
1.0000000000
40
1.0000000000
40
1.0000000000
10
-3.9488853595
20
-14.3029260204
30
0.0000000000
10
-4.0154548284
20
-14.2504927035
30
0.0000000000
10
-4.0807710839
20
-14.1965564804
30
0.0000000000
10
-4.1448583430
20
-14.1412320699
30
0.0000000000
11
-3.9488853595
21
-14.3029260204
31
0.0000000000
11
-4.1448583430
21
-14.1412320699
31
0.0000000000
0
SPLINE
5
3B9
100
AcDbEntity
8
0
100
AcDbSpline
62
9
6
CONTINUOUS
70
0
71
3
72
8
73
4
74
2
42
0.0000001000
43
0.0000001000
44
0.0000000001
12
-0.1997084068
22
0.1572999509
32
0.0000000000
13
-0.1922617773
23
0.1659732314
33
0.0000000000
40
0.0000000000
40
0.0000000000
40
0.0000000000
40
0.0000000000
40
1.0000000000
40
1.0000000000
40
1.0000000000
40
1.0000000000
10
-3.9488853595
20
-14.3029260204
30
0.0000000000
10
-4.0154548284
20
-14.2504927035
30
0.0000000000
10
-4.0807710839
20
-14.1965564804
30
0.0000000000
10
-4.1448583430
20
-14.1412320699
30
0.0000000000
11
-3.9488853595
21
-14.3029260204
31
0.0000000000
11
-4.1448583430
21
-14.1412320699
31
0.0000000000
0
ENDSEC
0
SECTION
2
OBJECTS
0
DICTIONARY
5
C
100
AcDbDictionary
280
0
281
1
3
ACAD_GROUP
350
D
3
ACAD_MLINESTYLE
350
17
3
ACAD_LAYOUT
350
1A
3
ACAD_PLOTSETTINGS
350
19
3
ACAD_PLOTSTYLENAME
350
E
0
DICTIONARY
5
D
102
{ACAD_REACTORS
330
C
102
}
100
AcDbDictionary
280
0
281
1
0
ACDBDICTIONARYWDFLT
5
E
102
{ACAD_REACTORS
330
C
102
}
100
AcDbDictionary
281
1
3
Normal
350
F
100
AcDbDictionaryWithDefault
340
F
0
DICTIONARY
5
17
102
{ACAD_REACTORS
330
C
102
}
100
AcDbDictionary
280
0
281
1
3
Standard
350
18
0
DICTIONARY
5
19
102
{ACAD_REACTORS
330
C
102
}
100
AcDbDictionary
281
1
0
DICTIONARY
5
1A
102
{ACAD_REACTORS
330
C
102
}
100
AcDbDictionary
281
1
3
Layout1
350
1E
3
Model
350
22
0
ACDBPLACEHOLDER
5
F
102
{ACAD_REACTORS
330
E
102
}
0
MLINESTYLE
5
18
102
{ACAD_REACTORS
330
17
102
}
100
AcDbMlineStyle
2
STANDARD
70
0
3

62
256
51
90.0
52
90.0
71
2
49
0.5
62
256
6
BYLAYER
49
-0.5
62
256
6
BYLAYER
0
LAYOUT
5
1E
102
{ACAD_REACTORS
330
1A
102
}
100
AcDbPlotSettings
1

2

4

6

40
0.0
41
0.0
42
0.0
43
0.0
44
0.0
45
0.0
46
0.0
47
0.0
48
0.0
49
0.0
140
0.0
141
0.0
142
1.0
143
1.0
70
0
72
0
73
0
74
0
7

75
0
147
1.0
148
0.0
149
0.0
100
AcDbLayout
1
Layout1
70
0
71
0
10
0.0
20
0.0
11
0.0
21
0.0
12
0.0
22
0.0
32
0.0
14
0.0
24
0.0
34
0.0
15
0.0
25
0.0
35
0.0
146
0.0
13
0.0
23
0.0
33
0.0
16
0.0
26
0.0
36
0.0
17
0.0
27
0.0
37
0.0
76
0
330
1B
331
0
345
0
346
0
0
LAYOUT
5
22
102
{ACAD_REACTORS
330
1A
102
}
100
AcDbPlotSettings
1

2

4

6

40
0.0
41
0.0
42
0.0
43
0.0
44
0.0
45
0.0
46
0.0
47
0.0
48
0.0
49
0.0
140
0.0
141
0.0
142
1.0
143
1.0
70
0
72
0
73
0
74
0
7

75
0
147
1.0
148
0.0
149
0.0
100
AcDbLayout
1
Model
70
0
71
0
10
0.0
20
0.0
11
0.0
21
0.0
12
0.0
22
0.0
32
0.0
14
0.0
24
0.0
34
0.0
15
0.0
25
0.0
35
0.0
146
0.0
13
0.0
23
0.0
33
0.0
16
0.0
26
0.0
36
0.0
17
0.0
27
0.0
37
0.0
76
0
330
1F
331
0
345
0
346
0
0
ENDSEC
0
EOF
