  0
SECTION
  2
HEADER
  9
$ACADVER
  1
AC1024
  9
$DWGCODEPAGE
  3
ANSI_1252
  9
$EXTMAX
 10
297.0
 20
210.0
 30
0.0
  9
$EXTMIN
 10
0.0
 20
0.0
 30
0.0
  9
$LIMMIN
 10
0.0
 20
0.0
  9
$LIMMAX
 10
297.0
 20
210.0
  9
$VIEWCTR
 10
148.5
 20
105.0
  9
$VIEWSIZE
 40
210.0
  9
$CLAYER
  8
0
  9
$LTSCALE
 40
16.335
  9
$CELTYPE
  6
BYLAYER
  9
$DIMSCALE
 40
1.0
  9
$DIMASZ
 40
3.0
  9
$DIMEXO
 40
0.5
  9
$DIMDLI
 40
11.286
  9
$DIMEXE
 40
1.5
  9
$DIMCEN
 40
2.673
  9
$DIMLFAC
 40
1.0
  9
$DIMBLK
  1
_FILLED
  9
$DIMALT
 70
0
  9
$DIMALTF
 40
0.0393700787
  9
$DIMTXT
 40
3.0
  9
$DIMTOL
 70
1
  9
$DIMLIM
 70
0
  9
$DIMTFAC
 40
1.0
  9
$DIMTP
 40
0.01
  9
$DIMTM
 40
0.01
  9
$DIMGAP
 40
0.625
  9
$DIMDSEP
 70
44
  9
$AUNITS
 70
0
  9
$PDMODE
 70
3
  9
$PDSIZE
 40
3.0
  9
$HANDSEED
  5
3E7
  9
$TILEMODE
 70
1
  9
$MEASUREMENT
 70
1
  9
$INSUNITS
 70
4
  0
ENDSEC
  0
SECTION
  2
CLASSES
  0
CLASS
  1
ACDBDICTIONARYWDFLT
  2
AcDbDictionaryWithDefault
  3
AutoCAD 2000
 90
0
 91
1
280
0
281
0
  0
CLASS
  1
ACDBPLACEHOLDER
  2
AcDbPlaceHolder
  3
AutoCAD 2000
 90
0
 91
1
280
0
281
0
  0
CLASS
  1
LAYOUT
  2
AcDbLayout
  3
AutoCAD 2000
 90
0
 91
0
280
0
281
0
  0
ENDSEC
  0
SECTION
  2
TABLES
  0
TABLE
  2
VPORT
  5
8
100
AcDbSymbolTable
 70
2
  0
VPORT
  5
1F4
100
AcDbSymbolTableRecord
100
AcDbViewportTableRecord
  2
*ACTIVE
 70
0
 10
0.0
 20
0.0
 11
1.0
 21
1.0
 12
148.5
 22
105.0
 13
0.0
 23
0.0
 14
1.0
 24
1.0
 15
0.0
 25
0.0
 16
0.0
 26
0.0
 36
1.0
 17
0.0
 27
0.0
 37
0.0
 40
210.0
 41
1.4142857143
 42
50.0
 43
0.0
 44
0.0
 50
0.0
 51
0.0
 71
0
 72
100
 73
1
 74
1
 75
0
 76
0
 77
0
 78
0
  0
ENDTAB
  0
TABLE
  2
LTYPE
  5
5
100
AcDbSymbolTable
 70
6
  0
LTYPE
  5
14
100
AcDbSymbolTableRecord
100
AcDbLinetypeTableRecord
  2
BYBLOCK
 70
0
  3

 72
65
 73
0
 40
0.0
  0
LTYPE
  5
15
100
AcDbSymbolTableRecord
100
AcDbLinetypeTableRecord
  2
BYLAYER
 70
0
  3

 72
65
 73
0
 40
0.0
  0
LTYPE
  5
16
100
AcDbSymbolTableRecord
100
AcDbLinetypeTableRecord
  2
CONTINUOUS
 70
64
  3
Solid line
 72
65
 73
0
 40
0.0
  0
LTYPE
  5
1F5
100
AcDbSymbolTableRecord
100
AcDbLinetypeTableRecord
  2
CENTER
 70
64
  3
____ _ ____ _ ____ _ ____ _ ____ _ ____ _ ____
 72
65
 73
4
 40
0.6
 49
0.375
 74
0
 49
-0.075
 74
0
 49
0.075
 74
0
 49
-0.075
 74
0
  0
LTYPE
  5
1F6
100
AcDbSymbolTableRecord
100
AcDbLinetypeTableRecord
  2
HIDDEN
 70
64
  3
- - - - - - - - - - - - - - - - - - - -
 72
65
 73
2
 40
0.2
 49
0.1
 74
0
 49
-0.1
 74
0
  0
LTYPE
  5
1F7
100
AcDbSymbolTableRecord
100
AcDbLinetypeTableRecord
  2
PHANTOM
 70
64
  3
_____ _ _ _____ _ _ _____ _ _ _____
 72
65
 73
6
 40
0.8
 49
0.45
 74
0
 49
-0.05
 74
0
 49
0.1
 74
0
 49
-0.05
 74
0
 49
0.1
 74
0
 49
-0.05
 74
0
  0
LTYPE
  5
1F8
100
AcDbSymbolTableRecord
100
AcDbLinetypeTableRecord
  2
DOT
 70
64
  3
. . . . . . . . . . . . . . . . . . . .
 72
65
 73
2
 40
0.2
 49
0.1
 74
0
 49
-0.1
 74
0
  0
LTYPE
  5
1F9
100
AcDbSymbolTableRecord
100
AcDbLinetypeTableRecord
  2
DASHED
 70
64
  3
- - - - - - - - - - - - - - - - - - - -
 72
65
 73
2
 40
0.2
 49
0.1
 74
0
 49
-0.1
 74
0
  0
ENDTAB
  0
TABLE
  2
LAYER
  5
2
100
AcDbSymbolTable
 70
36
  0
LAYER
  5
10
100
AcDbSymbolTableRecord
100
AcDbLayerTableRecord
  2
0
 70
0
 62
7
  6
CONTINUOUS
370
-3
390
F
  0
LAYER
  5
1FA
100
AcDbSymbolTableRecord
100
AcDbLayerTableRecord
  2
DEFAULT_1
 70
0
 62
7
  6
CENTER
370
-3
390
F
  0
LAYER
  5
1FB
100
AcDbSymbolTableRecord
100
AcDbLayerTableRecord
  2
DEFAULT_2
 70
0
 62
7
  6
HIDDEN
370
-3
390
F
  0
LAYER
  5
1FC
100
AcDbSymbolTableRecord
100
AcDbLayerTableRecord
  2
DEFAULT_3
 70
0
 62
7
  6
PHANTOM
370
-3
390
F
  0
LAYER
  5
1FD
100
AcDbSymbolTableRecord
100
AcDbLayerTableRecord
  2
ASSI
 70
0
 62
7
  6
CONTINUOUS
370
-3
390
F
  0
LAYER
  5
1FE
100
AcDbSymbolTableRecord
100
AcDbLayerTableRecord
  2
COORDINATE
 70
0
 62
7
  6
CONTINUOUS
370
-3
390
F
  0
LAYER
  5
1FF
100
AcDbSymbolTableRecord
100
AcDbLayerTableRecord
  2
COORD_ORIGINE
 70
0
 62
7
  6
CONTINUOUS
370
-3
390
F
  0
LAYER
  5
200
100
AcDbSymbolTableRecord
100
AcDbLayerTableRecord
  2
COPY_PUBLISH
 70
0
 62
7
  6
CONTINUOUS
370
-3
390
F
  0
LAYER
  5
201
100
AcDbSymbolTableRecord
100
AcDbLayerTableRecord
  2
COSMETICI
 70
0
 62
7
  6
CONTINUOUS
370
-3
390
F
  0
LAYER
  5
202
100
AcDbSymbolTableRecord
100
AcDbLayerTableRecord
  2
CURVE
 70
0
 62
7
  6
CONTINUOUS
370
-3
390
F
  0
LAYER
  5
203
100
AcDbSymbolTableRecord
100
AcDbLayerTableRecord
  2
DRAFT
 70
0
 62
7
  6
CONTINUOUS
370
-3
390
F
  0
LAYER
  5
204
100
AcDbSymbolTableRecord
100
AcDbLayerTableRecord
  2
IGES
 70
0
 62
7
  6
CONTINUOUS
370
-3
390
F
  0
LAYER
  5
205
100
AcDbSymbolTableRecord
100
AcDbLayerTableRecord
  2
IMPORT_IGES
 70
0
 62
7
  6
CONTINUOUS
370
-3
390
F
  0
LAYER
  5
206
100
AcDbSymbolTableRecord
100
AcDbLayerTableRecord
  2
INTF_1
 70
0
 62
7
  6
CONTINUOUS
370
-3
390
F
  0
LAYER
  5
207
100
AcDbSymbolTableRecord
100
AcDbLayerTableRecord
  2
INTF_5
 70
0
 62
7
  6
CONTINUOUS
370
-3
390
F
  0
LAYER
  5
208
100
AcDbSymbolTableRecord
100
AcDbLayerTableRecord
  2
NOTE
 70
0
 62
7
  6
CONTINUOUS
370
-3
390
F
  0
LAYER
  5
209
100
AcDbSymbolTableRecord
100
AcDbLayerTableRecord
  2
PIANI
 70
0
 62
7
  6
CONTINUOUS
370
-3
390
F
  0
LAYER
  5
20A
100
AcDbSymbolTableRecord
100
AcDbLayerTableRecord
  2
PIANI_ORIGINE
 70
0
 62
7
  6
CONTINUOUS
370
-3
390
F
  0
LAYER
  5
20B
100
AcDbSymbolTableRecord
100
AcDbLayerTableRecord
  2
PIANI_RIFERIMENTO
 70
0
 62
7
  6
CONTINUOUS
370
-3
390
F
  0
LAYER
  5
20C
100
AcDbSymbolTableRecord
100
AcDbLayerTableRecord
  2
PUNTI
 70
0
 62
7
  6
CONTINUOUS
370
-3
390
F
  0
LAYER
  5
20D
100
AcDbSymbolTableRecord
100
AcDbLayerTableRecord
  2
RACCORDO
 70
0
 62
7
  6
CONTINUOUS
370
-3
390
F
  0
LAYER
  5
20E
100
AcDbSymbolTableRecord
100
AcDbLayerTableRecord
  2
RGB____0____0____0__
 70
0
 62
7
  6
CONTINUOUS
370
-3
390
F
  0
LAYER
  5
20F
100
AcDbSymbolTableRecord
100
AcDbLayerTableRecord
  2
SIMBOLI
 70
0
 62
7
  6
CONTINUOUS
370
-3
390
F
  0
LAYER
  5
210
100
AcDbSymbolTableRecord
100
AcDbLayerTableRecord
  2
SMUSSO
 70
0
 62
7
  6
CONTINUOUS
370
-3
390
F
  0
LAYER
  5
211
100
AcDbSymbolTableRecord
100
AcDbLayerTableRecord
  2
SNAPLINE
 70
0
 62
7
  6
CONTINUOUS
370
-3
390
F
  0
LAYER
  5
212
100
AcDbSymbolTableRecord
100
AcDbLayerTableRecord
  2
SUPERFICI
 70
0
 62
7
  6
CONTINUOUS
370
-3
390
F
  0
LAYER
  5
213
100
AcDbSymbolTableRecord
100
AcDbLayerTableRecord
  2
TRASH
 70
0
 62
7
  6
CONTINUOUS
370
-3
390
F
  0
ENDTAB
  0
TABLE
  2
STYLE
  5
3
100
AcDbSymbolTable
 70
1
  0
STYLE
  5
11
100
AcDbSymbolTableRecord
100
AcDbTextStyleTableRecord
  2
STANDARD
 70
0
 40
0.0
 41
0.8
 50
0.0
 71
0
 42
0.2
  3
txt
  4

  0
STYLE
  5
214
100
AcDbSymbolTableRecord
100
AcDbTextStyleTableRecord
  2
TEXTSTYLE_1
 70
0
 40
0.0
 41
0.8
 50
0.0
 71
0
 42
0.2
  3
gdt
  4

  0
ENDTAB
  0
TABLE
  2
VIEW
  5
6
100
AcDbSymbolTable
 70
0
  0
ENDTAB
  0
TABLE
  2
UCS
  5
7
100
AcDbSymbolTable
 70
0
  0
ENDTAB
  0
TABLE
  2
APPID
  5
9
100
AcDbSymbolTable
 70
1
  0
APPID
  5
215
100
AcDbSymbolTableRecord
100
AcDbRegAppTableRecord
  2
ACAD
 70
0
  0
ENDTAB
  0
TABLE
  2
BLOCK_RECORD
  5
1
100
AcDbSymbolTable
 70
0
  0
BLOCK_RECORD
  5
216
100
AcDbSymbolTableRecord
100
AcDbBlockTableRecord
  2
*Model_Space
  0
BLOCK_RECORD
  5
217
100
AcDbSymbolTableRecord
100
AcDbBlockTableRecord
  2
*Paper_Space
  0
BLOCK_RECORD
  5
218
100
AcDbSymbolTableRecord
100
AcDbBlockTableRecord
  2
_FILLED
  0
ENDTAB
  0
TABLE
  2
DIMSTYLE
  5
A
100
AcDbSymbolTable
 70
1
100
AcDbDimStyleTable
 71
0
  0
DIMSTYLE
105
219
100
AcDbSymbolTableRecord
100
AcDbDimStyleTableRecord
  2
STANDARD
 70
0
  3

  4

 40
1.0
 41
3.0
 42
0.5
 43
0.38
 44
1.5
 45
0.0
 46
0.0
 47
0.01
 48
0.01
140
3.0
141
0.09
142
0.0
143
25.4
144
1.0
145
0.0
146
1.0
147
0.625
 71
1
 72
0
 73
0
 74
0
 75
0
 76
0
 77
1
 78
8
 79
2
170
0
171
1
172
0
173
0
174
0
175
0
176
0
177
0
178
0
270
2
179
2
271
2
272
2
273
2
274
2
275
0
280
0
281
0
282
0
283
1
284
8
285
0
286
0
287
3
288
0
340
11
278
44
341
218
342
218
343
218
344
218
  0
ENDTAB
  0
ENDSEC
  0
SECTION
  2
BLOCKS
  0
BLOCK
  5
20
100
AcDbEntity
  8
0
100
AcDbBlockBegin
  2
*Model_Space
 70
0
 10
0.0
 20
0.0
 30
0.0
  3
*Model_Space
  1

  0
ENDBLK
  5
21
100
AcDbEntity
  8
0
100
AcDbBlockEnd
  0
BLOCK
  5
1C
100
AcDbEntity
  8
0
100
AcDbBlockBegin
  2
*Paper_Space
 70
0
 10
0.0
 20
0.0
 30
0.0
  3
*Paper_Space
  1

  0
ENDBLK
  5
1D
100
AcDbEntity
  8
0
100
AcDbBlockEnd
  0
BLOCK
  5
21A
100
AcDbEntity
  8
0
100
AcDbBlockBegin
  2
_FILLED
 70
64
 10
0.0
 20
0.0
  3
_FILLED
  1

  0
SOLID
  5
21B
100
AcDbEntity
  8
0
  6
BYBLOCK
 62
0
100
AcDbTrace
 10
0.0
 20
0.0
 11
-1.0
 21
0.3166666667
 12
-1.0
 22
-0.3166666667
 13
-1.0
 23
-0.3166666667
  0
ENDBLK
  5
21C
100
AcDbEntity
  8
0
  6
BYBLOCK
 62
0
100
AcDbBlockEnd
  0
ENDSEC
  0
SECTION
  2
ENTITIES
  0
LWPOLYLINE
  5
21D
100
AcDbEntity
  8
0
100
AcDbPolyline
 62
7
  6
CONTINUOUS
 90
18
 70
0
 10
62.853162339
 20
91.2206557228
 10
62.7635127165
 20
91.1822577265
 10
62.6715142048
 20
91.1342662445
 10
62.5814096248
 20
91.0782334263
 10
62.4938236191
 20
91.0143932377
 10
62.4097734319
 20
90.943512377
 10
62.3292284233
 20
90.8656006023
 10
62.2524511551
 20
90.7808269504
 10
62.1806333069
 20
90.6905456011
 10
62.1138248898
 20
90.5948982289
 10
62.0522056349
 20
90.4940812113
 10
61.9968704316
 20
90.3899092315
 10
61.947877506
 20
90.28270014
 10
61.9053585799
 20
90.1726413311
 10
61.8700149621
 20
90.0616070518
 10
61.8419769961
 20
89.950377365
 10
61.8211309931
 20
89.8386862197
 10
61.8187573172
 20
89.8227523731
  0
LINE
  5
21E
100
AcDbEntity
  8
0
100
AcDbLine
 62
7
  6
CONTINUOUS
 10
62.853162339
 20
91.2206557228
 11
66.7749491904
 21
92.7256357556
  0
LINE
  5
21F
100
AcDbEntity
  8
0
100
AcDbLine
 62
250
  6
CONTINUOUS
 10
63.2038747276
 20
91.1941694238
 11
67.1181434331
 21
92.6962643738
  0
LWPOLYLINE
  5
220
100
AcDbEntity
  8
0
100
AcDbPolyline
 62
250
  6
CONTINUOUS
 90
7
 70
0
 10
62.8532181418
 20
91.2206771422
 10
62.9052341639
 20
91.2363865402
 10
62.9623821521
 20
91.2447373405
 10
63.0214738105
 20
91.244643868
 10
63.0818619066
 20
91.2361071466
 10
63.1428850082
 20
91.2192206792
 10
63.2038747276
 20
91.1941694238
  0
LWPOLYLINE
  5
221
100
AcDbEntity
  8
RACCORDO
100
AcDbPolyline
 62
250
  6
CONTINUOUS
 90
6
 70
0
 10
97.7957419173
 20
39.3334278226
 10
97.7708621352
 20
39.3287925542
 10
97.7453478361
 20
39.3255274534
 10
97.7195031673
 20
39.3236540245
 10
97.6935874638
 20
39.3231718688
 10
97.6677847645
 20
39.324092041
  0
LWPOLYLINE
  5
222
100
AcDbEntity
  8
0
100
AcDbPolyline
 62
250
  6
CONTINUOUS
 90
9
 70
0
 10
58.3044572693
 20
53.0102646903
 10
58.3059859308
 20
52.9780777001
 10
58.3155682345
 20
52.9394995358
 10
58.3335005393
 20
52.9012931234
 10
58.3595928488
 20
52.8638632672
 10
58.39356871
 20
52.827606544
 10
58.4350681419
 20
52.792907101
 10
58.4836514499
 20
52.7601325856
 10
58.5388038844
 20
52.7296302503
  0
LWPOLYLINE
  5
223
100
AcDbEntity
  8
0
100
AcDbPolyline
 62
7
  6
CONTINUOUS
 90
15
 70
0
 10
58.3044572693
 20
53.0102646903
 10
58.3032530254
 20
52.9741051118
 10
58.3053813987
 20
52.8519358622
 10
58.3170241751
 20
52.7335826134
 10
58.3379873358
 20
52.6195181613
 10
58.3680756487
 20
52.5100355692
 10
58.4070673964
 20
52.4055953744
 10
58.45462982
 20
52.3068707651
 10
58.5104093755
 20
52.2143407984
 10
58.5739821519
 20
52.1285640764
 10
58.6446966129
 20
52.0502655362
 10
58.7218484242
 20
51.9799803695
 10
58.804724924
 20
51.9181341669
 10
58.8924530906
 20
51.8651631505
 10
58.9222197708
 20
51.849728862
  0
LINE
  5
224
100
AcDbEntity
  8
0
100
AcDbLine
 62
7
  6
CONTINUOUS
 10
58.3044602514
 20
53.0103316529
 11
58.3044572693
 21
53.0102646903
  0
LWPOLYLINE
  5
225
100
AcDbEntity
  8
0
100
AcDbPolyline
 62
250
  6
CONTINUOUS
 90
13
 70
0
 10
58.5388038844
 20
52.7296302503
 10
58.6795190858
 20
55.610125916
 10
58.8444265759
 20
58.5001548654
 10
59.0334746751
 20
61.3993634904
 10
59.245426846
 20
64.2918786959
 10
59.4811446851
 20
67.1927672704
 10
59.744903087
 20
70.1485272437
 10
60.0378782113
 20
73.1591909243
 10
60.3611716482
 20
76.2248288763
 10
60.7213823802
 20
79.3928068405
 10
61.1229202505
 20
82.6793218946
 10
61.566632022
 20
86.0689402106
 10
62.0550967001
 20
89.5619061789
  0
LWPOLYLINE
  5
226
100
AcDbEntity
  8
0
100
AcDbPolyline
 62
250
  6
CONTINUOUS
 90
10
 70
0
 10
61.8187573172
 20
89.8227523731
 10
61.8179622801
 20
89.8155257265
 10
61.8197843222
 20
89.7842286472
 10
61.829985002
 20
89.7521306802
 10
61.8484562728
 20
89.7195719063
 10
61.8750024574
 20
89.6868972955
 10
61.9093423083
 20
89.6544530597
 10
61.9511119999
 20
89.6225829618
 10
61.9998689917
 20
89.5916246731
 10
62.0550967047
 20
89.5619062107
  0
LWPOLYLINE
  5
227
100
AcDbEntity
  8
0
100
AcDbPolyline
 62
7
  6
CONTINUOUS
 90
13
 70
0
 10
61.8187778385
 20
89.8228952424
 10
61.3910129428
 20
86.7756023489
 10
60.9772791025
 20
83.6507198766
 10
60.5899615347
 20
80.5340447041
 10
60.2291230966
 20
77.4260472471
 10
59.894810833
 20
74.3271313287
 10
59.5870627819
 20
71.2376566936
 10
59.3059188064
 20
68.1580005223
 10
59.0514159878
 20
65.088555067
 10
58.8235883105
 20
62.0297028992
 10
58.6224691802
 20
58.981836267
 10
58.4480867879
 20
55.945387233
 10
58.3044602514
 20
53.0103316529
  0
LWPOLYLINE
  5
228
100
AcDbEntity
  8
0
100
AcDbPolyline
 62
250
  6
CONTINUOUS
 90
22
 70
0
 10
62.0550967001
 20
89.5619061789
 10
62.0719919472
 20
89.6609960241
 10
62.0937335242
 20
89.7596481872
 10
62.1200034694
 20
89.857345872
 10
62.1503035486
 20
89.9531227011
 10
62.184421587
 20
90.0470356917
 10
62.222653587
 20
90.1401273866
 10
62.2651104
 20
90.23253348
 10
62.3113835125
 20
90.3232468882
 10
62.3611249691
 20
90.4115848122
 10
62.4137088064
 20
90.4965758754
 10
62.4692066781
 20
90.5784697525
 10
62.5284232272
 20
90.6582881489
 10
62.591449588
 20
90.7357705704
 10
62.6578779006
 20
90.8100443219
 10
62.727906921
 20
90.8809309209
 10
62.80156344
 20
90.9479693221
 10
62.8782969399
 20
91.0101690703
 10
62.9573789274
 20
91.066534838
 10
63.038260811
 20
91.1163546555
 10
63.1205971492
 20
91.1591016923
 10
63.2038747276
 20
91.1941694238
  0
LINE
  5
229
100
AcDbEntity
  8
RACCORDO
100
AcDbLine
 62
250
  6
CONTINUOUS
 10
99.2979029023
 20
39.0130679942
 11
98.7675728164
 21
39.1229029513
  0
LWPOLYLINE
  5
22A
100
AcDbEntity
  8
0
100
AcDbPolyline
 62
7
  6
CONTINUOUS
 90
10
 70
0
 10
89.0294737649
 20
36.7960992272
 10
89.1190128571
 20
36.7562155122
 10
89.2077691077
 20
36.7257789889
 10
89.299465154
 20
36.7029756128
 10
89.3937516278
 20
36.6880279223
 10
89.4899960886
 20
36.6811783748
 10
89.5875284112
 20
36.6826007318
 10
89.6860371714
 20
36.69242041
 10
89.7850141606
 20
36.7107280901
 10
89.8848643168
 20
36.7379020474
  0
LINE
  5
22B
100
AcDbEntity
  8
0
100
AcDbLine
 62
7
  6
CONTINUOUS
 10
89.0303235402
 20
36.7956659682
 11
58.9210734473
 21
51.8502910147
  0
LWPOLYLINE
  5
22C
100
AcDbEntity
  8
0
100
AcDbPolyline
 62
250
  6
CONTINUOUS
 90
14
 70
0
 10
58.9210734066
 20
51.850291035
 10
58.8703459849
 20
51.8791220928
 10
58.820507284
 20
51.9150556299
 10
58.7742058633
 20
51.9566825766
 10
58.7308919837
 20
52.00468248
 10
58.6908157612
 20
52.0593085483
 10
58.654540403
 20
52.1203849286
 10
58.6222654751
 20
52.1882829299
 10
58.5943810957
 20
52.2632633026
 10
58.5714980895
 20
52.344996201
 10
58.5541441463
 20
52.4328901265
 10
58.5426983953
 20
52.5264891554
 10
58.5374798008
 20
52.6255521644
 10
58.5388038844
 20
52.7296302503
  0
LWPOLYLINE
  5
22D
100
AcDbEntity
  8
RACCORDO
100
AcDbPolyline
 62
250
  6
CONTINUOUS
 90
13
 70
0
 10
82.2919848147
 20
87.2621311568
 10
82.2694240485
 20
87.2490803484
 10
82.2470761941
 20
87.2325739905
 10
82.2253238461
 20
87.21281732
 10
82.2045059004
 20
87.1900240192
 10
82.1850588524
 20
87.164571969
 10
82.1674703569
 20
87.1370530502
 10
82.1520772865
 20
87.1080108518
 10
82.139105132
 20
87.0778896283
 10
82.128781345
 20
87.0472212752
 10
82.1212821668
 20
87.0165398926
 10
82.1167326591
 20
86.9863716539
 10
82.1152081194
 20
86.9572364583
  0
LINE
  5
22E
100
AcDbEntity
  8
RACCORDO
100
AcDbLine
 62
7
  6
CONTINUOUS
 10
82.1801814158
 20
87.2692316037
 11
84.3015017594
 21
88.3298917754
  0
LINE
  5
22F
100
AcDbEntity
  8
RACCORDO
100
AcDbLine
 62
250
  6
CONTINUOUS
 10
82.2919848147
 20
87.2621311568
 11
84.4133051583
 21
88.3227913286
  0
LWPOLYLINE
  5
230
100
AcDbEntity
  8
RACCORDO
100
AcDbPolyline
 62
250
  6
CONTINUOUS
 90
7
 70
0
 10
84.3015017594
 20
88.3298917754
 10
84.3056903246
 20
88.3318584312
 10
84.3249168106
 20
88.3379791515
 10
84.3456556458
 20
88.3401355202
 10
84.3675519828
 20
88.3382906414
 10
84.3902311694
 20
88.3324760812
 10
84.4133051583
 20
88.3227913286
  0
LWPOLYLINE
  5
231
100
AcDbEntity
  8
RACCORDO
100
AcDbPolyline
 62
250
  6
CONTINUOUS
 90
7
 70
0
 10
82.1801814158
 20
87.2692316037
 10
82.1843699811
 20
87.2711982594
 10
82.2035964671
 20
87.2773189797
 10
82.2243353022
 20
87.2794753485
 10
82.2462316393
 20
87.2776304696
 10
82.2689108258
 20
87.2718159095
 10
82.2919848147
 20
87.2621311568
  0
LINE
  5
232
100
AcDbEntity
  8
RACCORDO
100
AcDbLine
 62
250
  6
CONTINUOUS
 10
99.2095145546
 20
39.3331505157
 11
98.6791844687
 21
39.4429854728
  0
LINE
  5
233
100
AcDbEntity
  8
RACCORDO
100
AcDbLine
 62
250
  6
CONTINUOUS
 10
98.662009094
 20
39.4482330199
 11
98.6791844687
 21
39.4429854728
  0
LINE
  5
234
100
AcDbEntity
  8
0
100
AcDbLine
 62
250
  6
CONTINUOUS
 10
88.6360186127
 20
37.6810228862
 11
58.5388038844
 21
52.7296302503
  0
LWPOLYLINE
  5
235
100
AcDbEntity
  8
RACCORDO
100
AcDbPolyline
 62
7
  6
CONTINUOUS
 90
7
 70
0
 10
82.4240879542
 20
85.8159484521
 10
82.4037603867
 20
85.8018082265
 10
82.3856581877
 20
85.789579115
 10
82.3698521329
 20
85.7793928904
 10
82.3560932137
 20
85.7711029764
 10
82.345022365
 20
85.7649874029
 10
82.3405061186
 20
85.7626824349
  0
LWPOLYLINE
  5
236
100
AcDbEntity
  8
RACCORDO
100
AcDbPolyline
 62
250
  6
CONTINUOUS
 90
13
 70
0
 10
83.635487699
 20
86.5903797147
 10
83.6129269327
 20
86.5773289062
 10
83.5905790784
 20
86.5608225484
 10
83.5688267304
 20
86.5410658779
 10
83.5480087847
 20
86.5182725771
 10
83.5285617366
 20
86.4928205269
 10
83.5109732411
 20
86.4653016081
 10
83.4955801708
 20
86.4362594097
 10
83.4826080163
 20
86.4061381862
 10
83.4722842292
 20
86.3754698331
 10
83.464785051
 20
86.3447884504
 10
83.4602355433
 20
86.3146202117
 10
83.4587110037
 20
86.2854850161
  0
LINE
  5
237
100
AcDbEntity
  8
RACCORDO
100
AcDbLine
 62
250
  6
CONTINUOUS
 10
85.2441508656
 20
85.5765495321
 11
85.2264779566
 21
85.5674553975
  0
LINE
  5
238
100
AcDbEntity
  8
RACCORDO
100
AcDbLine
 62
250
  6
CONTINUOUS
 10
83.635487699
 20
86.5903797147
 11
85.7568080425
 21
87.6510398865
  0
LINE
  5
239
100
AcDbEntity
  8
RACCORDO
100
AcDbLine
 62
250
  6
CONTINUOUS
 10
83.8122643943
 20
86.2854850161
 11
85.9335847378
 21
87.3461451879
  0
LWPOLYLINE
  5
23A
100
AcDbEntity
  8
RACCORDO
100
AcDbPolyline
 62
7
  6
CONTINUOUS
 90
8
 70
0
 10
82.6225540894
 20
85.9391689614
 10
82.6082723367
 20
85.9320401188
 10
82.5772235349
 20
85.9155000653
 10
82.5478740405
 20
85.8985711092
 10
82.5201620244
 20
85.8814514188
 10
82.4937524899
 20
85.8642054938
 10
82.4687552862
 20
85.8472185792
 10
82.4240879542
 20
85.8159484521
  0
LINE
  5
23B
100
AcDbEntity
  8
RACCORDO
100
AcDbLine
 62
7
  6
CONTINUOUS
 10
82.1060129314
 20
85.6463589611
 11
82.3406151237
 21
85.762723378
  0
LINE
  5
23C
100
AcDbEntity
  8
RACCORDO
100
AcDbLine
 62
250
  6
CONTINUOUS
 10
82.3291741591
 20
85.6318928913
 11
82.568964074
 21
85.7508277272
  0
LINE
  5
23D
100
AcDbEntity
  8
RACCORDO
100
AcDbLine
 62
7
  6
CONTINUOUS
 10
82.7490915959
 20
86.0009346811
 11
82.6228520182
 21
85.9393115633
  0
LINE
  5
23E
100
AcDbEntity
  8
RACCORDO
100
AcDbLine
 62
250
  6
CONTINUOUS
 10
82.7269709185
 20
85.9601770767
 11
82.745599595
 21
85.969143076
  0
LINE
  5
23F
100
AcDbEntity
  8
RACCORDO
100
AcDbLine
 62
250
  6
CONTINUOUS
 10
85.2264779566
 20
85.5674553975
 11
84.5193711755
 21
85.2290185365
  0
LINE
  5
240
100
AcDbEntity
  8
RACCORDO
100
AcDbLine
 62
250
  6
CONTINUOUS
 10
85.3654311699
 20
85.3223319471
 11
84.6583243887
 21
84.9838950861
  0
LWPOLYLINE
  5
241
100
AcDbEntity
  8
RACCORDO
100
AcDbPolyline
 62
250
  6
CONTINUOUS
 90
5
 70
0
 10
82.6228520182
 20
85.9393115633
 10
82.6298034617
 20
85.9425421591
 10
82.6604221582
 20
85.9532398215
 10
82.6929235387
 20
85.9591384957
 10
82.7269709185
 20
85.9601770767
  0
LWPOLYLINE
  5
242
100
AcDbEntity
  8
RACCORDO
100
AcDbPolyline
 62
250
  6
CONTINUOUS
 90
4
 70
0
 10
82.7672376608
 20
85.9678558732
 10
82.7650444152
 20
85.9668480029
 10
82.7530562907
 20
85.9626955803
 10
82.7403211728
 20
85.960464252
  0
LWPOLYLINE
  5
243
100
AcDbEntity
  8
RACCORDO
100
AcDbPolyline
 62
250
  6
CONTINUOUS
 90
8
 70
0
 10
82.3406151237
 20
85.762723378
 10
82.3563451013
 20
85.7696979846
 10
82.3882745135
 20
85.7793046622
 10
82.4221166231
 20
85.7838201762
 10
82.4575002389
 20
85.7831950956
 10
82.4940374251
 20
85.7774364392
 10
82.531327795
 20
85.7666074716
 10
82.5689626441
 20
85.750827018
  0
LWPOLYLINE
  5
244
100
AcDbEntity
  8
RACCORDO
100
AcDbPolyline
 62
250
  6
CONTINUOUS
 90
13
 70
0
 10
83.8122643943
 20
86.2854850161
 10
83.7882580818
 20
86.2749274061
 10
83.761556316
 20
86.2659304346
 10
83.732553073
 20
86.2586797082
 10
83.7016233658
 20
86.253326616
 10
83.66933403
 20
86.2500242359
 10
83.6364569045
 20
86.2488743031
 10
83.6036351732
 20
86.2498920985
 10
83.5713650026
 20
86.2530550293
 10
83.5402152785
 20
86.2583061043
 10
83.5107263829
 20
86.2655513738
 10
83.4834019402
 20
86.2746640875
 10
83.4587110037
 20
86.2854850161
  0
LWPOLYLINE
  5
245
100
AcDbEntity
  8
RACCORDO
100
AcDbPolyline
 62
250
  6
CONTINUOUS
 90
13
 70
0
 10
83.8122643943
 20
85.934171044
 10
83.7876780562
 20
85.9233902242
 10
83.760487699
 20
85.9143062162
 10
83.7311585571
 20
85.9070744501
 10
83.7001924603
 20
85.9018186634
 10
83.668119247
 20
85.898628784
 10
83.635487699
 20
85.8975593917
 10
83.6028561509
 20
85.898628784
 10
83.5707829377
 20
85.9018186634
 10
83.5398168409
 20
85.9070744501
 10
83.510487699
 20
85.9143062162
 10
83.4832973417
 20
85.9233902242
 10
83.4587110037
 20
85.934171044
  0
LWPOLYLINE
  5
246
100
AcDbEntity
  8
RACCORDO
100
AcDbPolyline
 62
250
  6
CONTINUOUS
 90
13
 70
0
 10
84.5193711755
 20
85.5377244346
 10
84.4947848374
 20
85.5269436147
 10
84.4675944802
 20
85.5178596068
 10
84.4382653383
 20
85.5106278407
 10
84.4072992414
 20
85.505372054
 10
84.3752260282
 20
85.5021821746
 10
84.3425944802
 20
85.5011127823
 10
84.3099629321
 20
85.5021821746
 10
84.2778897189
 20
85.505372054
 10
84.2469236221
 20
85.5106278407
 10
84.2175944802
 20
85.5178596068
 10
84.1904041229
 20
85.5269436147
 10
84.1658177849
 20
85.5377244346
  0
LWPOLYLINE
  5
247
100
AcDbEntity
  8
RACCORDO
100
AcDbPolyline
 62
250
  6
CONTINUOUS
 90
16
 70
0
 10
84.6583243887
 20
84.9838950861
 10
84.6221740946
 20
84.9685416829
 10
84.5839332687
 20
84.9553854488
 10
84.5436019111
 20
84.9444263839
 10
84.50070909
 20
84.9356128562
 10
84.4557257372
 20
84.9289964977
 10
84.4100646477
 20
84.924732204
 10
84.3637494799
 20
84.9228755106
 10
84.3167565755
 20
84.923370882
 10
84.2704277547
 20
84.926206607
 10
84.2247345848
 20
84.9314397984
 10
84.1797054985
 20
84.9390133435
 10
84.1367676136
 20
84.9487441936
 10
84.0963966362
 20
84.9605713323
 10
84.0581168602
 20
84.9745557759
 10
84.0219282856
 20
84.9906975245
  0
LWPOLYLINE
  5
248
100
AcDbEntity
  8
RACCORDO
100
AcDbPolyline
 62
250
  6
CONTINUOUS
 90
16
 70
0
 10
84.5193711755
 20
85.2290185365
 10
84.4997229353
 20
85.2209120677
 10
84.4783907213
 20
85.213890178
 10
84.4556271677
 20
85.2080277479
 10
84.4317095002
 20
85.2033940803
 10
84.4068989154
 20
85.2000248634
 10
84.381432977
 20
85.1979287686
 10
84.3556083877
 20
85.1971270314
 10
84.3296879076
 20
85.197626605
 10
84.3038568269
 20
85.1994136537
 10
84.2783766935
 20
85.2024830264
 10
84.2535465875
 20
85.2068135751
 10
84.2296094987
 20
85.2123656024
 10
84.2068286324
 20
85.2190927494
 10
84.1854803137
 20
85.226936195
 10
84.1658177849
 20
85.2358209749
  0
LINE
  5
249
100
AcDbEntity
  8
RACCORDO
100
AcDbLine
 62
250
  6
CONTINUOUS
 10
85.3471994463
 20
85.6264507562
 11
85.3654311699
 21
85.6337275603
  0
LINE
  5
24A
100
AcDbEntity
  8
RACCORDO
100
AcDbLine
 62
250
  6
CONTINUOUS
 10
99.8282329882
 20
47.791881615
 11
104.0268430709
 21
48.0880895378
  0
LINE
  5
24B
100
AcDbEntity
  8
RACCORDO
100
AcDbLine
 62
7
  6
CONTINUOUS
 10
103.5591728421
 20
48.7237130345
 11
99.8282329882
 21
48.5250615527
  0
LINE
  5
24C
100
AcDbEntity
  8
RACCORDO
100
AcDbLine
 62
7
  6
CONTINUOUS
 10
96.8880024645
 20
37.4658754003
 11
95.5444995803
 21
38.1376268424
  0
LINE
  5
24D
100
AcDbEntity
  8
RACCORDO
100
AcDbLine
 62
250
  6
CONTINUOUS
 10
96.8230291681
 20
37.6010938504
 11
95.4795262839
 21
38.2728452925
  0
LINE
  5
24E
100
AcDbEntity
  8
RACCORDO
100
AcDbLine
 62
250
  6
CONTINUOUS
 10
96.8230291681
 20
37.9524078224
 11
95.4795262839
 21
38.6241592646
  0
LINE
  5
24F
100
AcDbEntity
  8
RACCORDO
100
AcDbLine
 62
250
  6
CONTINUOUS
 10
96.9114175158
 20
38.1841019963
 11
95.5679146315
 21
38.8558534384
  0
LINE
  5
250
100
AcDbEntity
  8
RACCORDO
100
AcDbLine
 62
250
  6
CONTINUOUS
 10
96.8880024645
 20
37.4658754003
 11
96.8878408343
 21
37.4659564103
  0
LWPOLYLINE
  5
251
100
AcDbEntity
  8
0
100
AcDbPolyline
 62
7
  6
CONTINUOUS
 90
14
 70
0
 10
65.6991740591
 20
55.0348397002
 10
65.6685338946
 20
55.0653311225
 10
65.6387584631
 20
55.0971800133
 10
65.6099582019
 20
55.1302576772
 10
65.5820232011
 20
55.1646930242
 10
65.5549237458
 20
55.2005350207
 10
65.528691913
 20
55.2376351787
 10
65.5032963158
 20
55.2761422667
 10
65.4786121855
 20
55.3165511931
 10
65.454528147
 20
55.358878764
 10
65.4311566718
 20
55.4031086183
 10
65.4087090687
 20
55.4496860385
 10
65.3870810974
 20
55.4986071872
 10
65.366378713
 20
55.5498765967
  0
LWPOLYLINE
  5
252
100
AcDbEntity
  8
0
100
AcDbPolyline
 62
7
  6
CONTINUOUS
 90
19
 70
0
 10
65.3471290141
 20
55.6039523052
 10
65.3291608686
 20
55.6609337711
 10
65.3126481412
 20
55.7207226413
 10
65.2986361252
 20
55.7834805186
 10
65.2869579596
 20
55.8498146303
 10
65.2777847684
 20
55.9191194694
 10
65.2726688638
 20
55.989737553
 10
65.2716225463
 20
56.0617505547
 10
65.2746374311
 20
56.1350783736
 10
65.2832337523
 20
56.2078204396
 10
65.297744948
 20
56.2806597352
 10
65.317840822
 20
56.3529145717
 10
65.3440429941
 20
56.4206360975
 10
65.3766579046
 20
56.4834359206
 10
65.4153770135
 20
56.5417015769
 10
65.4597950693
 20
56.5926463391
 10
65.5104316633
 20
56.6360416471
 10
65.5667619206
 20
56.6721139348
 10
65.5985388452
 20
56.6876697366
  0
LWPOLYLINE
  5
253
100
AcDbEntity
  8
0
100
AcDbPolyline
 62
7
  6
CONTINUOUS
 90
15
 70
0
 10
66.6148164485
 20
55.9224639268
 10
66.632663986
 20
55.8654362817
 10
66.6490610249
 20
55.8056035327
 10
66.6629640589
 20
55.7428043455
 10
66.6745431235
 20
55.6764327525
 10
66.6836324465
 20
55.6070964396
 10
66.6886848509
 20
55.5364545707
 10
66.6896917306
 20
55.4644268839
 10
66.6866656094
 20
55.3910952274
 10
66.6780899575
 20
55.3183615105
 10
66.663634944
 20
55.24554424
 10
66.6436336447
 20
55.173326231
 10
66.6175607262
 20
55.1056545791
 10
66.5851071147
 20
55.042916258
 10
66.546579787
 20
54.9847234579
  0
LWPOLYLINE
  5
254
100
AcDbEntity
  8
RACCORDO
100
AcDbPolyline
 62
250
  6
CONTINUOUS
 90
7
 70
0
 10
85.2264779566
 20
85.8912778252
 10
85.2480395964
 20
85.9035709943
 10
85.2662076123
 20
85.9171661729
 10
85.2806711445
 20
85.9318307438
 10
85.2911827179
 20
85.9473137922
 10
85.2975624767
 20
85.9633503989
 10
85.2997012614
 20
85.9796661729
  0
LWPOLYLINE
  5
255
100
AcDbEntity
  8
RACCORDO
100
AcDbPolyline
 62
7
  6
CONTINUOUS
 90
13
 70
0
 10
87.7720740636
 20
85.1553419269
 10
87.7493524865
 20
85.1433259802
 10
87.7284130266
 20
85.1307081296
 10
87.7092556837
 20
85.1174883752
 10
87.6918133888
 20
85.1036046783
 10
87.676153211
 20
85.0891190777
 10
87.6624763578
 20
85.0742176893
 10
87.6508084213
 20
85.0588951482
 10
87.6411238095
 20
85.0431568194
 10
87.6335469536
 20
85.0272049147
 10
87.6281050514
 20
85.011036678
 10
87.6247709052
 20
84.9946548653
 10
87.62358528
 20
84.9775455317
  0
LINE
  5
256
100
AcDbEntity
  8
RACCORDO
100
AcDbLine
 62
7
  6
CONTINUOUS
 10
94.0653127215
 20
87.6635405374
 11
89.4691186438
 21
85.3654434985
  0
LINE
  5
257
100
AcDbEntity
  8
RACCORDO
100
AcDbLine
 62
7
  6
CONTINUOUS
 10
86.7697702805
 20
85.4875655852
 11
93.0347732651
 21
88.5950532518
  0
LINE
  5
258
100
AcDbEntity
  8
RACCORDO
100
AcDbLine
 62
7
  6
CONTINUOUS
 10
87.7720740636
 20
85.1553419269
 11
93.4594617764
 21
87.9664660099
  0
LWPOLYLINE
  5
259
100
AcDbEntity
  8
RACCORDO
100
AcDbPolyline
 62
7
  6
CONTINUOUS
 90
18
 70
0
 10
103.5591588259
 20
48.723758116
 10
103.596100679
 20
48.7224664799
 10
103.6331203439
 20
48.7151540811
 10
103.6712795394
 20
48.7016098793
 10
103.7103280214
 20
48.6820856383
 10
103.7484872169
 20
48.6574706446
 10
103.7855068818
 20
48.6277633786
 10
103.8216372601
 20
48.5929653598
 10
103.8558505111
 20
48.5539704342
 10
103.8883006951
 20
48.5103864179
 10
103.9188337517
 20
48.4626054948
 10
103.9459596591
 20
48.4126980614
 10
103.9694536636
 20
48.3607856575
 10
103.9895405188
 20
48.3067467433
 10
104.0054044633
 20
48.2522870965
 10
104.0167735765
 20
48.1979753096
 10
104.0239197791
 20
48.14324279
 10
104.0268430709
 20
48.0880895378
  0
LINE
  5
25A
100
AcDbEntity
  8
0
100
AcDbLine
 62
7
  6
CONTINUOUS
 10
65.997243102
 20
54.8404953367
 11
65.9260932602
 21
54.8715093066
  0
LWPOLYLINE
  5
25B
100
AcDbEntity
  8
RACCORDO
100
AcDbPolyline
 62
250
  6
CONTINUOUS
 90
3
 70
0
 10
99.2326110672
 20
39.3252216541
 10
99.2267741673
 20
39.3278682327
 10
99.2095145546
 20
39.3331505157
  0
LINE
  5
25C
100
AcDbEntity
  8
RACCORDO
100
AcDbLine
 62
250
  6
CONTINUOUS
 10
98.6557694175
 20
39.4510728488
 11
98.662009094
 21
39.4482330199
  0
LINE
  5
25D
100
AcDbEntity
  8
RACCORDO
100
AcDbLine
 62
250
  6
CONTINUOUS
 10
96.0982447174
 20
39.4960184813
 11
97.4417476016
 21
38.8242670392
  0
LINE
  5
25E
100
AcDbEntity
  8
RACCORDO
100
AcDbLine
 62
250
  6
CONTINUOUS
 10
96.186633065
 20
39.7277126552
 11
97.5301359493
 21
39.055961213
  0
LINE
  5
25F
100
AcDbEntity
  8
RACCORDO
100
AcDbLine
 62
7
  6
CONTINUOUS
 10
94.5272423605
 20
40.6744545825
 11
97.3161699096
 21
39.2799908079
  0
LINE
  5
260
100
AcDbEntity
  8
DRAFT
100
AcDbLine
 62
7
  6
CONTINUOUS
 10
94.5690729585
 20
41.1126194931
 11
97.6698848603
 21
39.5622135423
  0
LINE
  5
261
100
AcDbEntity
  8
RACCORDO
100
AcDbLine
 62
250
  6
CONTINUOUS
 10
98.6729120032
 20
39.4461217055
 11
98.6791844687
 21
39.4429854728
  0
LINE
  5
262
100
AcDbEntity
  8
DRAFT
100
AcDbLine
 62
7
  6
CONTINUOUS
 10
94.6172505509
 20
41.6172675615
 11
98.1375269546
 21
39.8571293596
  0
LINE
  5
263
100
AcDbEntity
  8
RACCORDO
100
AcDbLine
 62
250
  6
CONTINUOUS
 10
98.6640194258
 20
39.6058980801
 11
99.2095145546
 21
39.3331505157
  0
LINE
  5
264
100
AcDbEntity
  8
RACCORDO
100
AcDbLine
 62
7
  6
CONTINUOUS
 10
98.6640194258
 20
39.6095182297
 11
99.2329296058
 21
39.3250631396
  0
LWPOLYLINE
  5
265
100
AcDbEntity
  8
0
100
AcDbPolyline
 62
7
  6
CONTINUOUS
 90
7
 70
0
 10
65.9260932602
 20
54.8715093066
 10
65.8928275008
 20
54.8891448293
 10
65.859820268
 20
54.9086950263
 10
65.827071614
 20
54.930159919
 10
65.794480093
 20
54.9536129062
 10
65.7621473616
 20
54.9789806749
 10
65.7303781727
 20
55.0060431973
  0
LWPOLYLINE
  5
266
100
AcDbEntity
  8
0
100
AcDbPolyline
 62
7
  6
CONTINUOUS
 90
7
 70
0
 10
66.0375592131
 20
56.6555382665
 10
66.070818758
 20
56.6379016001
 10
66.1038094489
 20
56.6183466659
 10
66.1365313382
 20
56.5968734847
 10
66.169085877
 20
56.5734087786
 10
66.2013718247
 20
56.5480259094
 10
66.2330852422
 20
56.520944877
  0
LWPOLYLINE
  5
267
100
AcDbEntity
  8
0
100
AcDbPolyline
 62
7
  6
CONTINUOUS
 90
30
 70
0
 10
65.9260932602
 20
54.8715093066
 10
65.8638512057
 20
54.9063571621
 10
65.8033914335
 20
54.9470375211
 10
65.744714533
 20
54.9935506235
 10
65.6873733234
 20
55.0463938002
 10
65.6318173483
 20
55.1050706823
 10
65.5793926412
 20
55.1680911053
 10
65.5302581116
 20
55.2354329121
 10
65.4842588022
 20
55.3071198659
 10
65.4422697734
 20
55.3817306115
 10
65.4043179225
 20
55.4594021565
 10
65.3703810291
 20
55.5399993883
 10
65.3412596203
 20
55.6216924217
 10
65.3170707171
 20
55.704485568
 10
65.29770135
 20
55.7883761498
 10
65.2836054547
 20
55.8715231461
 10
65.2749047725
 20
55.9539651811
 10
65.2714800253
 20
56.035664615
 10
65.2734213934
 20
56.1146651291
 10
65.280857729
 20
56.1908498879
 10
65.2936601133
 20
56.2643356872
 10
65.3115296324
 20
56.3335156722
 10
65.3345684616
 20
56.3982996102
 10
65.3626721067
 20
56.4587767898
 10
65.395229509
 20
56.5136087779
 10
65.4323475209
 20
56.5626835142
 10
65.4739153026
 20
56.6061114509
 10
65.5189936041
 20
56.6428872621
 10
65.5676360803
 20
56.6728588313
 10
65.5985394485
 20
56.6876677229
  0
LINE
  5
268
100
AcDbEntity
  8
0
100
AcDbLine
 62
7
  6
CONTINUOUS
 10
66.0375592131
 20
56.6555382665
 11
66.0997963709
 21
56.6206741558
  0
LWPOLYLINE
  5
269
100
AcDbEntity
  8
RACCORDO
100
AcDbPolyline
 62
250
  6
CONTINUOUS
 90
8
 70
0
 10
95.5444995803
 20
38.1376268424
 10
95.5317885213
 20
38.145290938
 10
95.5163954509
 20
38.158940066
 10
95.5034232965
 20
38.176089135
 10
95.4930995094
 20
38.1964337011
 10
95.4856003312
 20
38.2196159055
 10
95.4810508235
 20
38.2452346365
 10
95.4795262839
 20
38.2728452925
  0
LWPOLYLINE
  5
26A
100
AcDbEntity
  8
RACCORDO
100
AcDbPolyline
 62
250
  6
CONTINUOUS
 90
8
 70
0
 10
96.8878408343
 20
37.4659564103
 10
96.8752914055
 20
37.4735394959
 10
96.8598983352
 20
37.4871886239
 10
96.8469261807
 20
37.5043376929
 10
96.8366023936
 20
37.5246822589
 10
96.8291032154
 20
37.5478644634
 10
96.8245537078
 20
37.5734831944
 10
96.8230291681
 20
37.6010938504
  0
LWPOLYLINE
  5
26B
100
AcDbEntity
  8
0
100
AcDbPolyline
 62
7
  6
CONTINUOUS
 90
28
 70
0
 10
66.0997963709
 20
56.6206741558
 10
66.1602149153
 20
56.579965264
 10
66.2188154356
 20
56.5334118263
 10
66.2760457731
 20
56.4805161904
 10
66.3314604481
 20
56.4217769519
 10
66.3837204249
 20
56.3586888609
 10
66.4326697322
 20
56.291276068
 10
66.4784682903
 20
56.2195160026
 10
66.5202507266
 20
56.1448332647
 10
66.557993942
 20
56.0670933717
 10
66.5917257082
 20
55.9864326813
 10
66.6206561041
 20
55.9046817132
 10
66.6446723831
 20
55.8218377087
 10
66.6638913419
 20
55.7379050596
 10
66.6778657737
 20
55.6547243717
 10
66.6864766565
 20
55.5722572011
 10
66.6898454796
 20
55.4905429954
 10
66.6878835794
 20
55.4115383048
 10
66.6804619666
 20
55.3353590742
 10
66.6677095709
 20
55.2618893473
 10
66.6499221696
 20
55.1927368398
 10
66.6269947301
 20
55.1279906076
 10
66.5990299703
 20
55.0675606703
 10
66.5666331477
 20
55.0127853202
 10
66.5296928067
 20
54.9637753793
 10
66.4883164145
 20
54.9204184174
 10
66.4434359552
 20
54.8837171754
 10
66.3949926288
 20
54.8538222774
  0
LWPOLYLINE
  5
26C
100
AcDbEntity
  8
0
100
AcDbPolyline
 62
7
  6
CONTINUOUS
 90
14
 70
0
 10
66.2642248078
 20
56.4921265605
 10
66.2947922494
 20
56.4616102429
 10
66.3244882235
 20
56.4297335372
 10
66.3532031821
 20
56.3966254417
 10
66.3810471999
 20
56.3621571688
 10
66.4080503899
 20
56.3262796615
 10
66.4341819802
 20
56.2891417929
 10
66.4594734324
 20
56.2505949659
 10
66.4840483516
 20
56.2101439748
 10
66.5080193305
 20
56.1677724445
 10
66.5312748723
 20
56.1234971893
 10
66.5536027561
 20
56.0768729103
 10
66.5751090263
 20
56.0279042072
 10
66.5956893527
 20
55.9765871682
  0
LWPOLYLINE
  5
26D
100
AcDbEntity
  8
RACCORDO
100
AcDbPolyline
 62
7
  6
CONTINUOUS
 90
9
 70
0
 10
82.7354872021
 20
85.9480179581
 10
82.7353582655
 20
85.9478877275
 10
82.7362445378
 20
85.9489984682
 10
82.7388415944
 20
85.9529432906
 10
82.7422461851
 20
85.9596800108
 10
82.7454655292
 20
85.9685519933
 10
82.7479515995
 20
85.9795128293
 10
82.7490775209
 20
85.9920545605
 10
82.7490972007
 20
85.9941095375
  0
LINE
  5
26E
100
AcDbEntity
  8
0
100
AcDbLine
 62
7
  6
CONTINUOUS
 10
95.0464689426
 20
85.9819119094
 11
91.6413253823
 21
84.2793401293
  0
LINE
  5
26F
100
AcDbEntity
  8
DRAFT
100
AcDbLine
 62
7
  6
CONTINUOUS
 10
90.7234866189
 20
84.738259511
 11
94.4188661121
 21
86.5069494302
  0
LINE
  5
270
100
AcDbEntity
  8
RACCORDO
100
AcDbLine
 62
7
  6
CONTINUOUS
 10
96.19897378
 20
87.0129529944
 11
91.0770400095
 21
84.5614828157
  0
LINE
  5
271
100
AcDbEntity
  8
0
100
AcDbLine
 62
7
  6
CONTINUOUS
 10
66.1361480656
 20
54.8069824465
 11
66.0672610331
 21
54.818986246
  0
LINE
  5
272
100
AcDbEntity
  8
0
100
AcDbLine
 62
7
  6
CONTINUOUS
 10
66.0672610331
 20
54.818986246
 11
65.997243102
 21
54.8404953367
  0
LINE
  5
273
100
AcDbEntity
  8
DRAFT
100
AcDbLine
 62
7
  6
CONTINUOUS
 10
94.7649202689
 20
43.1640704257
 11
98.1375269546
 21
41.4777670828
  0
LINE
  5
274
100
AcDbEntity
  8
RACCORDO
100
AcDbLine
 62
250
  6
CONTINUOUS
 10
99.2318651647
 20
39.3196077285
 11
99.2095145546
 21
39.3331505157
  0
LINE
  5
275
100
AcDbEntity
  8
RACCORDO
100
AcDbLine
 62
250
  6
CONTINUOUS
 10
85.4032546519
 20
86.3546661729
 11
85.3768762194
 21
86.3207563219
  0
LWPOLYLINE
  5
276
100
AcDbEntity
  8
RACCORDO
100
AcDbPolyline
 62
7
  6
CONTINUOUS
 90
13
 70
0
 10
85.4189969947
 20
86.2835665273
 10
85.4016496223
 20
86.2613439753
 10
85.3849175468
 20
86.2372187164
 10
85.3690988179
 20
86.2114848179
 10
85.3544240204
 20
86.1843980238
 10
85.3411841159
 20
86.1564109876
 10
85.3296792102
 20
86.1281873779
 10
85.3200220698
 20
86.1001580801
 10
85.312271214
 20
86.0727410748
 10
85.306483971
 20
86.0466040131
 10
85.3025776093
 20
86.0222126932
 10
85.3003821876
 20
85.9998090397
 10
85.2997012614
 20
85.9796661729
  0
LINE
  5
277
100
AcDbEntity
  8
RACCORDO
100
AcDbLine
 62
250
  6
CONTINUOUS
 10
85.4032546519
 20
86.3546661729
 11
85.9335847378
 21
86.9948312158
  0
LINE
  5
278
100
AcDbEntity
  8
RACCORDO
100
AcDbLine
 62
7
  6
CONTINUOUS
 10
85.4189969947
 20
86.2835665273
 11
85.9493270806
 21
86.9237315703
  0
LINE
  5
279
100
AcDbEntity
  8
RACCORDO
100
AcDbLine
 62
7
  6
CONTINUOUS
 10
93.9986629689
 20
82.0420474743
 11
99.6209111349
 21
84.8857413307
  0
LINE
  5
27A
100
AcDbEntity
  8
RACCORDO
100
AcDbLine
 62
7
  6
CONTINUOUS
 10
99.0150601898
 20
85.1886668032
 11
94.4188661121
 21
82.8905697644
  0
LINE
  5
27B
100
AcDbEntity
  8
RACCORDO
100
AcDbLine
 62
7
  6
CONTINUOUS
 10
99.9710039948
 20
84.666388126
 11
100.4416144671
 21
84.8916326508
  0
LWPOLYLINE
  5
27C
100
AcDbEntity
  8
RACCORDO
100
AcDbPolyline
 62
7
  6
CONTINUOUS
 90
12
 70
0
 10
99.0150601898
 20
85.1886668032
 10
99.038346323
 20
85.1993498744
 10
99.061337938
 20
85.208072276
 10
99.0840350346
 20
85.214834008
 10
99.106532013
 20
85.2196471987
 10
99.1287344731
 20
85.2224997198
 10
99.1503592148
 20
85.2233551865
 10
99.1713988377
 20
85.2221880167
 10
99.1918607421
 20
85.2190237925
 10
99.2114839294
 20
85.2139028745
 10
99.2302576557
 20
85.206800198
 10
99.2386691905
 20
85.2028665953
  0
LWPOLYLINE
  5
27D
100
AcDbEntity
  8
RACCORDO
100
AcDbPolyline
 62
7
  6
CONTINUOUS
 90
12
 70
0
 10
100.4416144671
 20
84.8916326508
 10
100.4876292385
 20
84.9117798829
 10
100.5330237909
 20
84.9280812685
 10
100.5777981243
 20
84.9405368077
 10
100.6221340306
 20
84.9491663938
 10
100.6658497178
 20
84.9539501335
 10
100.7083998098
 20
84.9548283471
 10
100.7497697045
 20
84.9517521076
 10
100.7899740039
 20
84.9447703422
 10
100.8285111382
 20
84.9339701518
 10
100.865360222
 20
84.9193037008
 10
100.8765082205
 20
84.9139855432
  0
LINE
  5
27E
100
AcDbEntity
  8
0
100
AcDbLine
 62
7
  6
CONTINUOUS
 10
66.2047754917
 20
54.8045129489
 11
66.1361480656
 21
54.8069824465
  0
LWPOLYLINE
  5
27F
100
AcDbEntity
  8
RACCORDO
100
AcDbPolyline
 62
250
  6
CONTINUOUS
 90
5
 70
0
 10
85.3768762194
 20
86.3207563219
 10
85.3524258839
 20
86.2855410661
 10
85.3299036454
 20
86.2490204054
 10
85.3091853274
 20
86.2109226394
 10
85.2903951064
 20
86.1715194685
  0
LINE
  5
280
100
AcDbEntity
  8
RACCORDO
100
AcDbLine
 62
7
  6
CONTINUOUS
 10
95.5444995803
 20
80.5870725214
 11
97.6658199238
 21
81.6477326932
  0
LINE
  5
281
100
AcDbEntity
  8
RACCORDO
100
AcDbLine
 62
250
  6
CONTINUOUS
 10
95.6563029791
 20
80.5799720746
 11
97.7776233227
 21
81.6406322464
  0
LINE
  5
282
100
AcDbEntity
  8
RACCORDO
100
AcDbLine
 62
250
  6
CONTINUOUS
 10
95.5444995803
 20
80.5870725214
 11
95.5446840824
 21
80.5871645191
  0
LINE
  5
283
100
AcDbEntity
  8
RACCORDO
100
AcDbLine
 62
7
  6
CONTINUOUS
 10
99.9724281816
 20
83.7301683954
 11
93.9986629689
 21
80.8371266416
  0
LWPOLYLINE
  5
284
100
AcDbEntity
  8
RACCORDO
100
AcDbPolyline
 62
250
  6
CONTINUOUS
 90
7
 70
0
 10
97.6658199238
 20
81.6477326932
 10
97.6706973604
 20
81.649999021
 10
97.6901444084
 20
81.6560040231
 10
97.7109623541
 20
81.6579793782
 10
97.7327147021
 20
81.6559837007
 10
97.7550625565
 20
81.6501422042
 10
97.7776233227
 20
81.6406322464
  0
LWPOLYLINE
  5
285
100
AcDbEntity
  8
RACCORDO
100
AcDbPolyline
 62
250
  6
CONTINUOUS
 90
7
 70
0
 10
95.5446840824
 20
80.5871645191
 10
95.5493770168
 20
80.5893388492
 10
95.5688240648
 20
80.5953438513
 10
95.5896420105
 20
80.5973192064
 10
95.6113943586
 20
80.5953235289
 10
95.6337422129
 20
80.5894820324
 10
95.6563029791
 20
80.5799720746
  0
LINE
  5
286
100
AcDbEntity
  8
RACCORDO
100
AcDbLine
 62
7
  6
CONTINUOUS
 10
98.9064615829
 20
81.1392152625
 11
103.6058149819
 21
83.3095323934
  0
LWPOLYLINE
  5
287
100
AcDbEntity
  8
RACCORDO
100
AcDbPolyline
 62
250
  6
CONTINUOUS
 90
13
 70
0
 10
97.1765825587
 20
79.2520119618
 10
97.1519962207
 20
79.2412311419
 10
97.1248058634
 20
79.232147134
 10
97.0954767215
 20
79.2249153679
 10
97.0645106247
 20
79.2196595812
 10
97.0324374115
 20
79.2164697018
 10
96.9998058634
 20
79.2154003095
 10
96.9671743153
 20
79.2164697018
 10
96.9351011021
 20
79.2196595812
 10
96.9041350053
 20
79.2249153679
 10
96.8748058634
 20
79.232147134
 10
96.8476155062
 20
79.2412311419
 10
96.8230291681
 20
79.2520119618
  0
LWPOLYLINE
  5
288
100
AcDbEntity
  8
RACCORDO
100
AcDbPolyline
 62
250
  6
CONTINUOUS
 90
13
 70
0
 10
97.1765825587
 20
79.6033259339
 10
97.1518916221
 20
79.5925050053
 10
97.1245671795
 20
79.5833922916
 10
97.0950782839
 20
79.576147022
 10
97.0639285598
 20
79.5708959471
 10
97.0316583892
 20
79.5677330162
 10
96.9988366578
 20
79.5667152209
 10
96.9659595324
 20
79.5678651537
 10
96.9336701965
 20
79.5711675338
 10
96.9027404894
 20
79.5765206259
 10
96.8737372463
 20
79.5837713524
 10
96.8470354806
 20
79.5927683239
 10
96.8230291681
 20
79.6033259339
  0
LINE
  5
289
100
AcDbEntity
  8
0
100
AcDbLine
 62
250
  6
CONTINUOUS
 10
97.4528950528
 20
77.5288885639
 11
93.3267259646
 21
76.1327438053
  0
LINE
  5
28A
100
AcDbEntity
  8
DRAFT
100
AcDbLine
 62
7
  6
CONTINUOUS
 10
97.6698848603
 20
77.5024573311
 11
98.1375269546
 21
77.6591382348
  0
LWPOLYLINE
  5
28B
100
AcDbEntity
  8
RACCORDO
100
AcDbPolyline
 62
250
  6
CONTINUOUS
 90
12
 70
0
 10
99.0087619252
 20
78.1682097587
 10
99.0494869467
 20
78.1799010454
 10
99.0609581256
 20
78.1832602564
 10
99.0730107636
 20
78.186857293
 10
99.0856219056
 20
78.190700123
 10
99.0987964666
 20
78.1949274742
 10
99.1125195707
 20
78.1995195476
 10
99.1268060939
 20
78.2044961422
 10
99.1417055787
 20
78.2100553828
 10
99.1572345395
 20
78.2162633111
 10
99.1733764619
 20
78.2230538854
 10
99.1901313461
 20
78.2304271057
  0
LINE
  5
28C
100
AcDbEntity
  8
0
100
AcDbLine
 62
7
  6
CONTINUOUS
 10
66.2722761584
 20
54.8115504273
 11
66.2047754917
 21
54.8045129489
  0
LWPOLYLINE
  5
28D
100
AcDbEntity
  8
RACCORDO
100
AcDbPolyline
 62
250
  6
CONTINUOUS
 90
3
 70
0
 10
82.5807496218
 20
85.7896908861
 10
82.5835182338
 20
85.7991105753
 10
82.5865961738
 20
85.8089275207
  0
LWPOLYLINE
  5
28E
100
AcDbEntity
  8
RACCORDO
100
AcDbPolyline
 62
250
  6
CONTINUOUS
 90
18
 70
0
 10
82.5865961738
 20
85.8089275207
 10
82.5900837933
 20
85.8191449398
 10
82.5940532632
 20
85.8295563547
 10
82.5985746519
 20
85.8399946198
 10
82.6037307093
 20
85.8504026758
 10
82.6095781045
 20
85.860727808
 10
82.6161378045
 20
85.8709019193
 10
82.6234214966
 20
85.8808755195
 10
82.6314347728
 20
85.8906168522
 10
82.640132104
 20
85.9000450468
 10
82.6494455675
 20
85.909078427
 10
82.6593312013
 20
85.9176954884
 10
82.669718574
 20
85.9258791508
 10
82.6805498374
 20
85.9336231879
 10
82.6917890665
 20
85.9409423401
 10
82.7033447864
 20
85.9478223387
 10
82.7150997041
 20
85.9542360496
 10
82.7269687578
 20
85.96017929
  0
LWPOLYLINE
  5
28F
100
AcDbEntity
  8
RACCORDO
100
AcDbPolyline
 62
250
  6
CONTINUOUS
 90
5
 70
0
 10
82.5689656531
 20
85.750839889
 10
82.571260605
 20
85.7574429548
 10
82.5735235932
 20
85.7646048899
 10
82.5758114306
 20
85.7723387809
 10
82.5807496218
 20
85.7896908861
  0
LWPOLYLINE
  5
290
100
AcDbEntity
  8
RACCORDO
100
AcDbPolyline
 62
250
  6
CONTINUOUS
 90
3
 70
0
 10
85.2903951064
 20
86.1715194685
 10
85.273905512
 20
86.1316259943
 10
85.2597499138
 20
86.0912295156
  0
LWPOLYLINE
  5
291
100
AcDbEntity
  8
RACCORDO
100
AcDbPolyline
 62
250
  6
CONTINUOUS
 90
12
 70
0
 10
83.8122643943
 20
85.934171044
 10
83.7993194599
 20
85.9048910217
 10
83.7835733389
 20
85.8775367316
 10
83.765275069
 20
85.8525864896
 10
83.7447041578
 20
85.8304675051
 10
83.7222118524
 20
85.8115986815
 10
83.6982284808
 20
85.7963572129
 10
83.6731850116
 20
85.7850119381
 10
83.6474944136
 20
85.7777451169
 10
83.6215987592
 20
85.7746815032
 10
83.5959429312
 20
85.775873118
 10
83.5847869464
 20
85.7777545027
  0
LWPOLYLINE
  5
292
100
AcDbEntity
  8
RACCORDO
100
AcDbPolyline
 62
250
  6
CONTINUOUS
 90
12
 70
0
 10
84.3425944802
 20
85.824336087
 10
84.3295451366
 20
85.7948501033
 10
84.3136943726
 20
85.7673809821
 10
84.2953133992
 20
85.7423987276
 10
84.27471672
 20
85.7203307933
 10
84.2522567497
 20
85.7015547674
 10
84.2283177849
 20
85.6863919132
 10
84.2033094277
 20
85.6751016711
 10
84.1776595781
 20
85.6678772204
 10
84.1518071121
 20
85.6648421734
 10
84.1261943726
 20
85.6660484606
 10
84.1151170323
 20
85.6679195456
  0
LWPOLYLINE
  5
293
100
AcDbEntity
  8
0
100
AcDbPolyline
 62
7
  6
CONTINUOUS
 90
4
 70
0
 10
66.546579787
 20
54.9847234579
 10
66.5023730813
 20
54.9338593145
 10
66.4519618385
 20
54.890550244
 10
66.3958659327
 20
54.8545676946
  0
LWPOLYLINE
  5
294
100
AcDbEntity
  8
RACCORDO
100
AcDbPolyline
 62
250
  6
CONTINUOUS
 90
13
 70
0
 10
95.6563029791
 20
80.5799720746
 10
95.6332289902
 20
80.5665828383
 10
95.6105498037
 20
80.5497182119
 10
95.5886534666
 20
80.5296667537
 10
95.5679146315
 20
80.5067715499
 10
95.5486881455
 20
80.4814243436
 10
95.5313029791
 20
80.4540588326
 10
95.5160565975
 20
80.4251432484
 10
95.5032098702
 20
80.3951723447
 10
95.4929826085
 20
80.3646589319
 10
95.4855498037
 20
80.334125103
 10
95.481038633
 20
80.3040933002
 10
95.4795262839
 20
80.275077376
  0
LWPOLYLINE
  5
295
100
AcDbEntity
  8
RACCORDO
100
AcDbPolyline
 62
250
  6
CONTINUOUS
 90
13
 70
0
 10
96.9998058634
 20
79.9082206325
 10
96.9767318745
 20
79.8948313962
 10
96.9540526879
 20
79.8779667698
 10
96.9321563509
 20
79.8579153116
 10
96.9114175158
 20
79.8350201077
 10
96.8921910298
 20
79.8096729015
 10
96.8748058634
 20
79.7823073905
 10
96.8595594817
 20
79.7533918063
 10
96.8467127545
 20
79.7234209026
 10
96.8364854928
 20
79.6929074898
 10
96.8290526879
 20
79.6623736608
 10
96.8245415172
 20
79.6323418581
 10
96.8230291681
 20
79.6033259339
  0
LWPOLYLINE
  5
296
100
AcDbEntity
  8
RACCORDO
100
AcDbPolyline
 62
250
  6
CONTINUOUS
 90
13
 70
0
 10
96.0427435658
 20
78.9802898844
 10
96.0614254107
 20
78.9907465139
 10
96.0798236445
 20
79.004071074
 10
96.0976164442
 20
79.0200304907
 10
96.1144925772
 20
79.0383456011
 10
96.1301568451
 20
79.058696036
 10
96.1443352476
 20
79.0807258244
 10
96.1567797752
 20
79.10404962
 10
96.1672727476
 20
79.1282594415
 10
96.175630621
 20
79.1529318094
 10
96.1817071989
 20
79.177635153
 10
96.1853961897
 20
79.20193736
 10
96.186633065
 20
79.2254133348
  0
LWPOLYLINE
  5
297
100
AcDbEntity
  8
RACCORDO
100
AcDbPolyline
 62
250
  6
CONTINUOUS
 90
16
 70
0
 10
96.0427435658
 20
79.2916854976
 10
96.0104320046
 20
79.2742434456
 10
95.9826129859
 20
79.2557375374
 10
95.9592865097
 20
79.2361677731
 10
95.9403467712
 20
79.215298503
 10
95.9258995751
 20
79.1933653767
 10
95.9162623363
 20
79.1710753432
 10
95.9115524938
 20
79.1484459485
 10
95.9116526086
 20
79.1254596466
 10
95.9165277773
 20
79.1027707482
 10
95.9262864232
 20
79.0803714887
 10
95.9408201231
 20
79.0582696326
 10
95.9597687045
 20
79.0371427838
 10
95.9830121101
 20
79.0172168101
 10
96.0106703972
 20
78.9982658436
 10
96.0427435658
 20
78.9802898844
  0
LINE
  5
298
100
AcDbEntity
  8
RACCORDO
100
AcDbLine
 62
7
  6
CONTINUOUS
 10
98.838984387
 20
79.6686061475
 11
104.7171522936
 21
82.8400125883
  0
LINE
  5
299
100
AcDbEntity
  8
DRAFT
100
AcDbLine
 62
7
  6
CONTINUOUS
 10
99.0744893033
 20
79.3352060738
 11
104.7606205259
 21
82.2792866984
  0
LWPOLYLINE
  5
29A
100
AcDbEntity
  8
RACCORDO
100
AcDbPolyline
 62
250
  6
CONTINUOUS
 90
8
 70
0
 10
98.5907961211
 20
78.8852963153
 10
98.608523263
 20
78.8944212863
 10
98.6240124359
 20
78.904415997
 10
98.6371143953
 20
78.9151523244
 10
98.647705883
 20
78.926485619
 10
98.6557019917
 20
78.938288296
 10
98.66104723
 20
78.9504529639
 10
98.663702182
 20
78.9628293453
  0
LINE
  5
29B
100
AcDbEntity
  8
RACCORDO
100
AcDbLine
 62
250
  6
CONTINUOUS
 10
96.9998058634
 20
79.9082206325
 11
99.121126207
 21
80.9688808043
  0
LINE
  5
29C
100
AcDbEntity
  8
RACCORDO
100
AcDbLine
 62
250
  6
CONTINUOUS
 10
97.1765825587
 20
79.6033259339
 11
99.2979029023
 21
80.6639861057
  0
LWPOLYLINE
  5
29D
100
AcDbEntity
  8
RACCORDO
100
AcDbPolyline
 62
250
  6
CONTINUOUS
 90
24
 70
0
 10
98.6850066513
 20
78.6716206471
 10
98.6947041129
 20
78.6763088779
 10
98.704310561
 20
78.6812810197
 10
98.7138213384
 20
78.6865227413
 10
98.7232137739
 20
78.6920032372
 10
98.7324365527
 20
78.6977065423
 10
98.7414207931
 20
78.7036328188
 10
98.7501044283
 20
78.7097630826
 10
98.7584709365
 20
78.7160801562
 10
98.7665137787
 20
78.722584725
 10
98.7741806667
 20
78.7292795636
 10
98.7814462359
 20
78.7361359245
 10
98.7883348422
 20
78.7431064581
 10
98.7947719754
 20
78.7502016169
 10
98.8007327962
 20
78.7573890299
 10
98.8063084776
 20
78.7645653092
 10
98.811441617
 20
78.7717206586
 10
98.81609653
 20
78.7788691558
 10
98.8204113334
 20
78.7859584805
 10
98.8243884022
 20
78.7930234232
 10
98.8280256871
 20
78.8000637175
 10
98.8314469123
 20
78.8069819502
 10
98.8346368433
 20
78.8137799537
 10
98.840478797
 20
78.8270733132
  0
LWPOLYLINE
  5
29E
100
AcDbEntity
  8
RACCORDO
100
AcDbPolyline
 62
250
  6
CONTINUOUS
 90
10
 70
0
 10
97.9056309969
 20
77.63720625
 10
97.9226285335
 20
77.6453781268
 10
97.9396016278
 20
77.6539896279
 10
97.9565502797
 20
77.6630407532
 10
97.9736133111
 20
77.6726695326
 10
97.9906519001
 20
77.6827379362
 10
98.0072495814
 20
77.6928318747
 10
98.0234223998
 20
77.7029897871
 10
98.0391543105
 20
77.7131732345
 10
98.0677122485
 20
77.7318808913
  0
LINE
  5
29F
100
AcDbEntity
  8
RACCORDO
100
AcDbLine
 62
250
  6
CONTINUOUS
 10
96.1081304144
 20
79.3229810817
 11
96.0427435658
 21
79.2916854976
  0
LINE
  5
2A0
100
AcDbEntity
  8
RACCORDO
100
AcDbLine
 62
250
  6
CONTINUOUS
 10
97.8836893399
 20
78.5468594543
 11
98.5907961211
 21
78.8852963153
  0
LINE
  5
2A1
100
AcDbEntity
  8
RACCORDO
100
AcDbLine
 62
250
  6
CONTINUOUS
 10
97.9743950805
 20
78.3364649957
 11
98.6850064455
 21
78.6716197495
  0
LINE
  5
2A2
100
AcDbEntity
  8
RACCORDO
100
AcDbLine
 62
250
  6
CONTINUOUS
 10
98.8489730263
 20
78.8462933092
 11
99.4745180375
 21
79.1351917067
  0
LINE
  5
2A3
100
AcDbEntity
  8
RACCORDO
100
AcDbLine
 62
250
  6
CONTINUOUS
 10
99.1901313461
 20
78.2304271057
 11
99.8282329882
 21
78.5251236596
  0
LINE
  5
2A4
100
AcDbEntity
  8
RACCORDO
100
AcDbLine
 62
250
  6
CONTINUOUS
 10
97.6698848603
 20
77.528326969
 11
97.9056309969
 21
77.63720625
  0
LINE
  5
2A5
100
AcDbEntity
  8
RACCORDO
100
AcDbLine
 62
250
  6
CONTINUOUS
 10
97.3161699096
 20
78.1383950161
 11
97.564534678
 21
78.2530606209
  0
LWPOLYLINE
  5
2A6
100
AcDbEntity
  8
RACCORDO
100
AcDbPolyline
 62
250
  6
CONTINUOUS
 90
14
 70
0
 10
98.1950067185
 20
77.8074530719
 10
98.9201570541
 20
78.1369979114
 10
98.9262652613
 20
78.1396414392
 10
98.9325546011
 20
78.1422651646
 10
98.9390021943
 20
78.1448645509
 10
98.94563092
 20
78.1474441347
 10
98.9525094161
 20
78.1500175257
 10
98.9596407774
 20
78.1525828237
 10
98.967021909
 20
78.1551419289
 10
98.9747121643
 20
78.1577141511
 10
98.9827060568
 20
78.1602932004
 10
98.9910090731
 20
78.1628853666
 10
98.9996970262
 20
78.1655288297
 10
99.0087619252
 20
78.1682097587
  0
LWPOLYLINE
  5
2A7
100
AcDbEntity
  8
RACCORDO
100
AcDbPolyline
 62
250
  6
CONTINUOUS
 90
13
 70
0
 10
97.8836893399
 20
78.8555653524
 10
97.8591030018
 20
78.8447845325
 10
97.8319126446
 20
78.8357005246
 10
97.8025835027
 20
78.8284687585
 10
97.7716174059
 20
78.8232129718
 10
97.7395441926
 20
78.8200230924
 10
97.7069126446
 20
78.8189537001
 10
97.6742810965
 20
78.8200230924
 10
97.6422078833
 20
78.8232129718
 10
97.6112417865
 20
78.8284687585
 10
97.5819126446
 20
78.8357005246
 10
97.5547222873
 20
78.8447845325
 10
97.5301359493
 20
78.8555653524
  0
LWPOLYLINE
  5
2A8
100
AcDbEntity
  8
RACCORDO
100
AcDbPolyline
 62
250
  6
CONTINUOUS
 90
4
 70
0
 10
98.7297493343
 20
78.9515684781
 10
98.7115175216
 20
78.9442916456
 10
98.6936320749
 20
78.9400549689
 10
98.6763922657
 20
78.9389293388
  0
LWPOLYLINE
  5
2A9
100
AcDbEntity
  8
0
100
AcDbPolyline
 62
250
  6
CONTINUOUS
 90
22
 70
0
 10
93.3267259646
 20
76.1327438053
 10
93.2461134745
 20
76.1008264495
 10
93.1661665163
 20
76.0618960654
 10
93.0873234363
 20
76.0164087191
 10
93.0103516642
 20
75.9651015597
 10
92.9352589769
 20
75.9082627775
 10
92.861349462
 20
75.845441833
 10
92.7885261598
 20
75.7764281333
 10
92.7176984434
 20
75.7019518213
 10
92.649683268
 20
75.6228627189
 10
92.5845154961
 20
75.5392238423
 10
92.5228253228
 20
75.4518791449
 10
92.4660423272
 20
75.3631900961
 10
92.4148832372
 20
75.2750691272
 10
92.3685357877
 20
75.1869439222
 10
92.3260810386
 20
75.097470797
 10
92.2879525517
 20
75.0078381938
 10
92.2538875742
 20
74.9176926244
 10
92.2226659384
 20
74.823142452
 10
92.1945966822
 20
74.7231493306
 10
92.1708975287
 20
74.6196546115
 10
92.1523114283
 20
74.5132988148
  0
LWPOLYLINE
  5
2AA
100
AcDbEntity
  8
0
100
AcDbPolyline
 62
250
  6
CONTINUOUS
 90
22
 70
0
 10
93.8134825931
 20
75.1244739797
 10
93.7750221247
 20
75.1094720573
 10
93.7372717282
 20
75.0916304882
 10
93.7002314035
 20
75.0709492723
 10
93.6638857389
 20
75.0473763282
 10
93.6282501462
 20
75.0209637374
 10
93.5933708608
 20
74.9918677444
 10
93.5590231854
 20
74.9598909978
 10
93.5254318174
 20
74.9252308491
 10
93.4933170845
 20
74.8886355969
 10
93.4626453544
 20
74.8498196483
 10
93.4334502595
 20
74.8090685962
 10
93.4065530236
 20
74.7679875183
 10
93.3823524153
 20
74.727154862
 10
93.3604496661
 20
74.6859921799
 10
93.3404696948
 20
74.6443692079
 10
93.3223479175
 20
74.6027074721
 10
93.3061489181
 20
74.5605854465
 10
93.291691367
 20
74.5166082892
 10
93.278914821
 20
74.4703110529
 10
93.2678797233
 20
74.4221586849
 10
93.2585860738
 20
74.3721511853
  0
LINE
  5
2AB
100
AcDbEntity
  8
0
100
AcDbLine
 62
250
  6
CONTINUOUS
 10
97.9497185367
 20
76.5240249942
 11
93.8134825931
 21
75.1244739797
  0
LWPOLYLINE
  5
2AC
100
AcDbEntity
  8
0
100
AcDbPolyline
 62
7
  6
CONTINUOUS
 90
7
 70
0
 10
66.3080151607
 20
54.8193303898
 10
66.2886801615
 20
54.814541595
 10
66.2318304876
 20
54.8058513201
 10
66.1725684354
 20
54.8043608621
 10
66.1122310245
 20
54.8101717065
 10
66.0512630557
 20
54.8233173268
 10
65.9892173342
 20
54.8437632749
  0
LINE
  5
2AD
100
AcDbEntity
  8
0
100
AcDbLine
 62
7
  6
CONTINUOUS
 10
66.3079763245
 20
54.819442817
 11
66.2722761584
 21
54.8115504273
  0
LINE
  5
2AE
100
AcDbEntity
  8
DRAFT
100
AcDbLine
 62
7
  6
CONTINUOUS
 10
104.0268430709
 20
46.4463135477
 11
104.7606205259
 21
46.0794248202
  0
LINE
  5
2AF
100
AcDbEntity
  8
DRAFT
100
AcDbLine
 62
7
  6
CONTINUOUS
 10
99.8282329882
 20
49.2494645604
 11
101.1376056056
 21
48.5947782517
  0
LWPOLYLINE
  5
2B0
100
AcDbEntity
  8
RACCORDO
100
AcDbPolyline
 62
250
  6
CONTINUOUS
 90
6
 70
0
 10
85.2597499138
 20
86.0912295156
 10
85.2478949424
 20
86.0503427336
 10
85.2386130188
 20
86.009818853
 10
85.2319949502
 20
85.9699422756
 10
85.2279499294
 20
85.9304285997
 10
85.2264779566
 20
85.8912778252
  0
LWPOLYLINE
  5
2B1
100
AcDbEntity
  8
RACCORDO
100
AcDbPolyline
 62
250
  6
CONTINUOUS
 90
7
 70
0
 10
98.5907961211
 20
79.209118743
 10
98.6123577609
 20
79.221411912
 10
98.6305257767
 20
79.2350070907
 10
98.6449893089
 20
79.2496716616
 10
98.6555008823
 20
79.26515471
 10
98.6618806411
 20
79.2811913166
 10
98.6640194258
 20
79.2975070907
  0
LWPOLYLINE
  5
2B2
100
AcDbEntity
  8
RACCORDO
100
AcDbPolyline
 62
250
  6
CONTINUOUS
 90
13
 70
0
 10
97.3862464501
 20
78.3085384423
 10
97.4049285427
 20
78.3189952314
 10
97.4233269645
 20
78.3323199861
 10
97.4411198857
 20
78.348279602
 10
97.457996071
 20
78.3665948865
 10
97.4736603282
 20
78.3869454482
 10
97.4878386704
 20
78.4089753042
 10
97.5002830988
 20
78.4322990935
 10
97.5107759505
 20
78.4565088315
 10
97.5191337047
 20
78.4811810556
 10
97.5252101809
 20
78.5058842075
 10
97.5288991003
 20
78.5301861801
 10
97.5301359493
 20
78.5536618927
  0
LWPOLYLINE
  5
2B3
100
AcDbEntity
  8
RACCORDO
100
AcDbPolyline
 62
250
  6
CONTINUOUS
 90
13
 70
0
 10
82.8223149006
 20
85.907572417
 10
82.8210780161
 20
85.8840963529
 10
82.8173890008
 20
85.8597940649
 10
82.8113123873
 20
85.8350906537
 10
82.8029544714
 20
85.8104182331
 10
82.7924614549
 20
85.7862083785
 10
82.7800168904
 20
85.7628845776
 10
82.7658384644
 20
85.7408548106
 10
82.7501741905
 20
85.7205044187
 10
82.7332980749
 20
85.7021893701
 10
82.7155053191
 20
85.6862300257
 10
82.6971071544
 20
85.672905537
 10
82.6784254014
 20
85.6624489666
  0
LWPOLYLINE
  5
2B4
100
AcDbEntity
  8
RACCORDO
100
AcDbPolyline
 62
7
  6
CONTINUOUS
 90
8
 70
0
 10
96.1002090785
 20
79.2662524596
 10
96.0998419941
 20
79.2658973306
 10
96.1000368433
 20
79.2661650967
 10
96.102171375
 20
79.2691674086
 10
96.105378264
 20
79.274928306
 10
96.1086922378
 20
79.2829781831
 10
96.111536194
 20
79.2933730979
 10
96.1132046951
 20
79.3056277854
  0
LWPOLYLINE
  5
2B5
100
AcDbEntity
  8
RACCORDO
100
AcDbPolyline
 62
250
  6
CONTINUOUS
 90
14
 70
0
 10
98.0677122485
 20
77.7318808913
 10
98.0925622756
 20
77.7483389066
 10
98.1037314109
 20
77.7556139989
 10
98.1140985188
 20
77.7622986876
 10
98.123925591
 20
77.76851137
 10
98.1332422949
 20
77.7742552325
 10
98.1420189633
 20
77.7795270887
 10
98.1504285861
 20
77.7844357777
 10
98.1584739239
 20
77.7889815051
 10
98.1661522162
 20
77.7931640653
 10
98.1736281709
 20
77.7970916799
 10
98.1809566909
 20
77.8008004228
 10
98.1880828734
 20
77.8042542202
 10
98.1950067185
 20
77.8074530719
  0
LWPOLYLINE
  5
2B6
100
AcDbEntity
  8
RACCORDO
100
AcDbPolyline
 62
250
  6
CONTINUOUS
 90
13
 70
0
 10
97.1765825587
 20
37.9524078224
 10
97.1635332151
 20
37.9718691608
 10
97.1476824511
 20
37.9925098594
 10
97.1293014778
 20
38.0139767502
 10
97.1087047985
 20
38.0359025287
 10
97.0862448283
 20
38.0579120388
 10
97.0623058634
 20
38.0796286916
 10
97.0372975062
 20
38.1006809092
 10
97.0116476566
 20
38.1207084823
 10
96.9857951906
 20
38.1393687335
 10
96.9601824511
 20
38.1563423809
 10
96.9352476792
 20
38.1713390006
 10
96.9114175158
 20
38.1841019963
  0
LWPOLYLINE
  5
2B7
100
AcDbEntity
  8
RACCORDO
100
AcDbPolyline
 62
250
  6
CONTINUOUS
 90
13
 70
0
 10
97.7069126446
 20
38.5925728654
 10
97.693863301
 20
38.6120342038
 10
97.678012537
 20
38.6326749024
 10
97.6596315636
 20
38.6541417932
 10
97.6390348844
 20
38.6760675717
 10
97.6165749142
 20
38.6980770817
 10
97.5926359493
 20
38.7197937345
 10
97.5676275921
 20
38.7408459521
 10
97.5419777425
 20
38.7608735252
 10
97.5161252765
 20
38.7795337765
 10
97.490512537
 20
38.7965074239
 10
97.4655777651
 20
38.8115040436
 10
97.4417476016
 20
38.8242670392
  0
LINE
  5
2B8
100
AcDbEntity
  8
RACCORDO
100
AcDbLine
 62
250
  6
CONTINUOUS
 10
82.7494249774
 20
85.9877580702
 11
82.7490915959
 21
85.9939676199
  0
LINE
  5
2B9
100
AcDbEntity
  8
RACCORDO
100
AcDbLine
 62
7
  6
CONTINUOUS
 10
81.9754592085
 20
85.3755397949
 11
81.9754592085
 21
85.349670157
  0
LINE
  5
2BA
100
AcDbEntity
  8
RACCORDO
100
AcDbLine
 62
7
  6
CONTINUOUS
 10
82.0419848147
 20
86.6943108338
 11
82.0419848147
 21
87.0456248059
  0
LINE
  5
2BB
100
AcDbEntity
  8
RACCORDO
100
AcDbLine
 62
250
  6
CONTINUOUS
 10
82.1152081194
 20
86.6059224862
 11
82.1152081194
 21
86.9572364583
  0
LINE
  5
2BC
100
AcDbEntity
  8
DRAFT
100
AcDbLine
 62
7
  6
CONTINUOUS
 10
82.4270559296
 20
85.1238717964
 11
82.4270559296
 21
85.0418081255
  0
LINE
  5
2BD
100
AcDbEntity
  8
RACCORDO
100
AcDbLine
 62
7
  6
CONTINUOUS
 10
82.7490915959
 20
85.9939681467
 11
82.7490915959
 21
86.186248946
  0
LINE
  5
2BE
100
AcDbEntity
  8
RACCORDO
100
AcDbLine
 62
250
  6
CONTINUOUS
 10
82.8223149006
 20
85.907572417
 11
82.8223149006
 21
86.1496372937
  0
LINE
  5
2BF
100
AcDbEntity
  8
RACCORDO
100
AcDbLine
 62
250
  6
CONTINUOUS
 10
83.4587110037
 20
86.2854850161
 11
83.4587110037
 21
85.934171044
  0
LINE
  5
2C0
100
AcDbEntity
  8
RACCORDO
100
AcDbLine
 62
250
  6
CONTINUOUS
 10
83.8122643943
 20
86.2854850161
 11
83.8122643943
 21
85.934171044
  0
LINE
  5
2C1
100
AcDbEntity
  8
RACCORDO
100
AcDbLine
 62
250
  6
CONTINUOUS
 10
84.1658177849
 20
85.5377244346
 11
84.1658177849
 21
85.2358209749
  0
LWPOLYLINE
  5
2C2
100
AcDbEntity
  8
RACCORDO
100
AcDbPolyline
 62
250
  6
CONTINUOUS
 90
13
 70
0
 10
84.1658177849
 20
85.2358209749
 10
84.1645809094
 20
85.2123450001
 10
84.1608919187
 20
85.1880427931
 10
84.1548153407
 20
85.1633394495
 10
84.1464574674
 20
85.1386670817
 10
84.135964495
 20
85.1144572601
 10
84.1235199674
 20
85.0911334645
 10
84.1093415649
 20
85.0691036761
 10
84.093677297
 20
85.0487532412
 10
84.076801164
 20
85.0304381308
 10
84.0590083643
 20
85.0144787141
 10
84.0406101305
 20
85.001154154
 10
84.0219282856
 20
84.9906975245
  0
LWPOLYLINE
  5
2C3
100
AcDbEntity
  8
RACCORDO
100
AcDbPolyline
 62
250
  6
CONTINUOUS
 90
8
 70
0
 10
85.2997012614
 20
85.6510344515
 10
85.299362308
 20
85.6447861207
 10
85.2966659778
 20
85.632420254
 10
85.2912896295
 20
85.6202793644
 10
85.2832788999
 20
85.6085102201
 10
85.2726891793
 20
85.597212579
 10
85.2596045269
 20
85.5865106984
 10
85.2441508656
 20
85.5765495321
  0
LWPOLYLINE
  5
2C4
100
AcDbEntity
  8
RACCORDO
100
AcDbPolyline
 62
250
  6
CONTINUOUS
 90
7
 70
0
 10
86.0068080425
 20
87.0832195635
 10
86.0046692579
 20
87.0669037894
 10
85.9982894991
 20
87.0508671828
 10
85.9877779257
 20
87.0353841344
 10
85.9733143935
 20
87.0207195635
 10
85.9551463776
 20
87.0071243848
 10
85.9335847378
 20
86.9948312158
  0
LWPOLYLINE
  5
2C5
100
AcDbEntity
  8
RACCORDO
100
AcDbPolyline
 62
250
  6
CONTINUOUS
 90
7
 70
0
 10
86.0068080425
 20
87.4345335356
 10
86.0045062982
 20
87.4176103701
 10
85.997901538
 20
87.4014657021
 10
85.9871953538
 20
87.3860008486
 10
85.9726939008
 20
87.371499227
 10
85.9546999578
 20
87.3581483442
 10
85.9335847378
 20
87.3461451879
  0
LWPOLYLINE
  5
2C6
100
AcDbEntity
  8
0
100
AcDbPolyline
 62
7
  6
CONTINUOUS
 90
8
 70
0
 10
65.5985394485
 20
56.6876677229
 10
65.6197844001
 20
56.6961763982
 10
65.6743303995
 20
56.7122877982
 10
65.7313506818
 20
56.721043345
 10
65.7907645883
 20
56.7225911023
 10
65.85122786
 20
56.7168254501
 10
65.9122915385
 20
56.7037108338
 10
65.9744021894
 20
56.6832818524
  0
LWPOLYLINE
  5
2C7
100
AcDbEntity
  8
0
100
AcDbPolyline
 62
7
  6
CONTINUOUS
 90
8
 70
0
 10
65.5985388452
 20
56.6876697366
 10
65.6268105848
 20
56.6987576447
 10
65.6907870887
 20
56.7152994931
 10
65.7584752062
 20
56.7224100432
 10
65.8272597994
 20
56.7199989522
 10
65.896267602
 20
56.7080354852
 10
65.9663677437
 20
56.6865487246
 10
66.0375592131
 20
56.6555382665
  0
LINE
  5
2C8
100
AcDbEntity
  8
DRAFT
100
AcDbLine
 62
7
  6
CONTINUOUS
 10
96.181623158
 20
58.0036740816
 11
96.3748759835
 21
57.9070476689
  0
LWPOLYLINE
  5
2C9
100
AcDbEntity
  8
RACCORDO
100
AcDbPolyline
 62
250
  6
CONTINUOUS
 90
8
 70
0
 10
84.1658177849
 20
85.5377244346
 10
84.1646224841
 20
85.5622616375
 10
84.1610527462
 20
85.5852717159
 10
84.1551568457
 20
85.6064434982
 10
84.1470145145
 20
85.6254906723
 10
84.1367358638
 20
85.6421556578
 10
84.1244598947
 20
85.6562130893
 10
84.1103526185
 20
85.6674728644
  0
LWPOLYLINE
  5
2CA
100
AcDbEntity
  8
RACCORDO
100
AcDbPolyline
 62
250
  6
CONTINUOUS
 90
13
 70
0
 10
84.5193711755
 20
85.5377244346
 10
84.5179086904
 20
85.5753320622
 10
84.513877411
 20
85.6107449636
 10
84.5072773372
 20
85.6439631388
 10
84.4980223391
 20
85.675180038
 10
84.4861985466
 20
85.704202211
 10
84.4720643496
 20
85.730449307
 10
84.4555822844
 20
85.7538818934
 10
84.4367898147
 20
85.7745394028
 10
84.4160577214
 20
85.7919597821
 10
84.3935095979
 20
85.8059890138
 10
84.3690218509
 20
85.8167811154
 10
84.3425944802
 20
85.824336087
  0
LWPOLYLINE
  5
2CB
100
AcDbEntity
  8
RACCORDO
100
AcDbPolyline
 62
250
  6
CONTINUOUS
 90
13
 70
0
 10
84.5193711755
 20
85.2290185365
 10
84.5202589133
 20
85.2056479817
 10
84.5235512518
 20
85.181467438
 10
84.52919185
 20
85.1568906483
 10
84.5370841892
 20
85.1323381284
 10
84.5470932201
 20
85.1082299871
 10
84.5590476696
 20
85.0849787366
 10
84.5727429824
 20
85.0629822102
 10
84.5879448206
 20
85.0426167653
 10
84.6043930638
 20
85.0242308565
 10
84.6218062711
 20
85.0081390581
 10
84.639886498
 20
84.9946166842
 10
84.6583243887
 20
84.9838950861
  0
LWPOLYLINE
  5
2CC
100
AcDbEntity
  8
RACCORDO
100
AcDbPolyline
 62
250
  6
CONTINUOUS
 90
13
 70
0
 10
85.2264779566
 20
85.5674553975
 10
85.2273656786
 20
85.5440850228
 10
85.2306579701
 20
85.5199046424
 10
85.236298499
 20
85.4953279892
 10
85.2441907542
 20
85.4707755768
 10
85.2541996973
 20
85.4466675035
 10
85.2661540722
 20
85.4234162653
 10
85.2798493365
 20
85.4014196973
 10
85.2950511602
 20
85.3810541669
 10
85.3114994361
 20
85.3626681339
 10
85.3289127295
 20
85.3465761884
 10
85.3469930941
 20
85.3330536681
 10
85.3654311699
 20
85.3223319471
  0
LWPOLYLINE
  5
2CD
100
AcDbEntity
  8
RACCORDO
100
AcDbPolyline
 62
7
  6
CONTINUOUS
 90
6
 70
0
 10
85.2996956891
 20
85.6511910336
 10
85.2997406774
 20
85.6481628832
 10
85.3010037395
 20
85.6356428916
 10
85.3035584225
 20
85.6249613723
 10
85.306684857
 20
85.6166451333
 10
85.3089552881
 20
85.6121027469
  0
LINE
  5
2CE
100
AcDbEntity
  8
RACCORDO
100
AcDbLine
 62
250
  6
CONTINUOUS
 10
84.5193711755
 20
85.5377244346
 11
84.5193711755
 21
85.2290185365
  0
LINE
  5
2CF
100
AcDbEntity
  8
RACCORDO
100
AcDbLine
 62
250
  6
CONTINUOUS
 10
85.2264779566
 20
85.5674553975
 11
85.2264779566
 21
85.8912778252
  0
LINE
  5
2D0
100
AcDbEntity
  8
RACCORDO
100
AcDbLine
 62
7
  6
CONTINUOUS
 10
85.2997012614
 20
85.6510344515
 11
85.2997012614
 21
85.9796661729
  0
LINE
  5
2D1
100
AcDbEntity
  8
RACCORDO
100
AcDbLine
 62
250
  6
CONTINUOUS
 10
85.9335847378
 20
87.3461451879
 11
85.9335847378
 21
86.9948312158
  0
LINE
  5
2D2
100
AcDbEntity
  8
RACCORDO
100
AcDbLine
 62
7
  6
CONTINUOUS
 10
86.0068080425
 20
87.4345335356
 11
86.0068080425
 21
87.0832195635
  0
LINE
  5
2D3
100
AcDbEntity
  8
RACCORDO
100
AcDbLine
 62
250
  6
CONTINUOUS
 10
98.7675728164
 20
79.6725070907
 11
98.7411943839
 21
79.6385972397
  0
LWPOLYLINE
  5
2D4
100
AcDbEntity
  8
RACCORDO
100
AcDbPolyline
 62
7
  6
CONTINUOUS
 90
13
 70
0
 10
98.7833151592
 20
79.6014074451
 10
98.7659677867
 20
79.5791848931
 10
98.7492357113
 20
79.5550596342
 10
98.7334169824
 20
79.5293257356
 10
98.7187421848
 20
79.5022389416
 10
98.7055022803
 20
79.4742519054
 10
98.6939973747
 20
79.4460282957
 10
98.6843402343
 20
79.4179989979
 10
98.6765893784
 20
79.3905819926
 10
98.6708021354
 20
79.3644449309
 10
98.6668957737
 20
79.3400536109
 10
98.664700352
 20
79.3176499575
 10
98.6640194258
 20
79.2975070907
  0
LINE
  5
2D5
100
AcDbEntity
  8
RACCORDO
100
AcDbLine
 62
250
  6
CONTINUOUS
 10
98.7675728164
 20
79.6725070907
 11
99.2979029023
 21
80.3126721336
  0
LINE
  5
2D6
100
AcDbEntity
  8
RACCORDO
100
AcDbLine
 62
7
  6
CONTINUOUS
 10
98.7833151592
 20
79.6014074451
 11
99.3136452451
 21
80.2415724881
  0
LINE
  5
2D7
100
AcDbEntity
  8
RACCORDO
100
AcDbLine
 62
7
  6
CONTINUOUS
 10
99.8282329882
 20
76.8427857489
 11
103.941160716
 21
80.7559547052
  0
LINE
  5
2D8
100
AcDbEntity
  8
RACCORDO
100
AcDbLine
 62
250
  6
CONTINUOUS
 10
104.0268430709
 20
81.0043994358
 11
99.8282329882
 21
77.0280706982
  0
LWPOLYLINE
  5
2D9
100
AcDbEntity
  8
0
100
AcDbPolyline
 62
7
  6
CONTINUOUS
 90
3
 70
0
 10
66.3949926288
 20
54.8538222774
 10
66.3360439433
 20
54.8280110054
 10
66.3079763245
 20
54.819442817
  0
LINE
  5
2DA
100
AcDbEntity
  8
0
100
AcDbLine
 62
7
  6
CONTINUOUS
 10
66.3430405551
 20
54.8305812031
 11
66.3080151607
 21
54.8193303898
  0
LWPOLYLINE
  5
2DB
100
AcDbEntity
  8
RACCORDO
100
AcDbPolyline
 62
250
  6
CONTINUOUS
 90
5
 70
0
 10
99.2989557542
 20
39.2312403655
 10
99.2861520873
 20
39.2577543192
 10
99.2705158354
 20
39.281583886
 10
99.2523160183
 20
39.3023200938
 10
99.2318651647
 20
39.3196077285
  0
LWPOLYLINE
  5
2DC
100
AcDbEntity
  8
RACCORDO
100
AcDbPolyline
 62
250
  6
CONTINUOUS
 90
7
 70
0
 10
82.0419848147
 20
86.6943108338
 10
82.0441235994
 20
86.6779950598
 10
82.0505033582
 20
86.6619584532
 10
82.0610149316
 20
86.6464754048
 10
82.0754784638
 20
86.6318108338
 10
82.0936464797
 20
86.6182156552
 10
82.1152081194
 20
86.6059224862
  0
LWPOLYLINE
  5
2DD
100
AcDbEntity
  8
RACCORDO
100
AcDbPolyline
 62
250
  6
CONTINUOUS
 90
7
 70
0
 10
82.0419848147
 20
87.0456248059
 10
82.0440222841
 20
87.029698543
 10
82.0503481457
 20
87.0135634577
 10
82.0608502957
 20
86.9979885956
 10
82.0753408349
 20
86.9832441479
 10
82.0935662622
 20
86.9695819265
 10
82.1152081194
 20
86.9572364583
  0
LWPOLYLINE
  5
2DE
100
AcDbEntity
  8
RACCORDO
100
AcDbPolyline
 62
7
  6
CONTINUOUS
 90
13
 70
0
 10
87.62358528
 20
84.9775455317
 10
87.624582146
 20
84.9618819101
 10
87.627727533
 20
84.9454907675
 10
87.6329831013
 20
84.9293071276
 10
87.6403760797
 20
84.9133336677
 10
87.6498792394
 20
84.8975677105
 10
87.6613704803
 20
84.8822118224
 10
87.6748754559
 20
84.867271295
 10
87.6903685128
 20
84.8527408367
 10
87.7076505906
 20
84.8388071402
 10
87.7266553359
 20
84.8255324362
 10
87.7474491021
 20
84.8128544939
 10
87.7700318893
 20
84.8007733134
  0
LINE
  5
2DF
100
AcDbEntity
  8
RACCORDO
100
AcDbLine
 62
7
  6
CONTINUOUS
 10
87.6235852799
 20
83.7780172085
 11
87.6235852799
 21
84.9775500087
  0
LINE
  5
2E0
100
AcDbEntity
  8
RACCORDO
100
AcDbLine
 62
250
  6
CONTINUOUS
 10
87.7700318893
 20
83.6034542777
 11
87.7700318893
 21
84.8007733134
  0
LWPOLYLINE
  5
2E1
100
AcDbEntity
  8
0
100
AcDbPolyline
 62
250
  6
CONTINUOUS
 90
14
 70
0
 10
88.6360186127
 20
37.6810228862
 10
88.6348131648
 20
37.5825278739
 10
88.6395978407
 20
37.4881790177
 10
88.6501537942
 20
37.3983886348
 10
88.6661487215
 20
37.3139070836
 10
88.6873496212
 20
37.2346111635
 10
88.7138784947
 20
37.1597192294
 10
88.7458808825
 20
37.0891992536
 10
88.7830712054
 20
37.0239998999
 10
88.8250161948
 20
36.9648670916
 10
88.8716824469
 20
36.9118186214
 10
88.922596043
 20
36.8653623369
 10
88.9762879382
 20
36.8264205259
 10
89.0295300814
 20
36.7960634552
  0
LWPOLYLINE
  5
2E2
100
AcDbEntity
  8
RACCORDO
100
AcDbPolyline
 62
250
  6
CONTINUOUS
 90
5
 70
0
 10
98.7411943839
 20
79.6385972397
 10
98.7167440484
 20
79.6033819839
 10
98.6942218099
 20
79.5668613232
 10
98.6735034918
 20
79.5287635572
 10
98.6547132708
 20
79.4893603863
  0
LWPOLYLINE
  5
2E3
100
AcDbEntity
  8
0
100
AcDbPolyline
 62
250
  6
CONTINUOUS
 90
16
 70
0
 10
93.2585860738
 20
74.3721511853
 10
93.1970680075
 20
74.3593602433
 10
93.130365966
 20
74.349755015
 10
93.0591866704
 20
74.3434372696
 10
92.9842842794
 20
74.340473945
 10
92.9064523985
 20
74.3408964381
 10
92.8265156716
 20
74.3447002727
 10
92.7453210443
 20
74.3518451464
 10
92.6637287894
 20
74.3622553579
 10
92.5826033931
 20
74.375820609
 10
92.5028043948
 20
74.3923971732
 10
92.4251772808
 20
74.4118094186
 10
92.3505445257
 20
74.4338516686
 10
92.2796968783
 20
74.4582903812
 10
92.2133849833
 20
74.4848666234
 10
92.1523114283
 20
74.5132988148
  0
LWPOLYLINE
  5
2E4
100
AcDbEntity
  8
0
100
AcDbPolyline
 62
250
  6
CONTINUOUS
 90
22
 70
0
 10
89.751670039
 20
37.6380946592
 10
89.751355527
 20
37.591820677
 10
89.753646172
 20
37.5478094294
 10
89.758541974
 20
37.5060609163
 10
89.7660811161
 20
37.4665774065
 10
89.7762254151
 20
37.4293566312
 10
89.7888603224
 20
37.394391784
 10
89.8040755462
 20
37.3614619792
 10
89.8217813782
 20
37.3307881026
 10
89.8415941442
 20
37.3030260047
 10
89.8637408401
 20
37.2782584256
 10
89.88799447
 20
37.2564026251
 10
89.9132903724
 20
37.2378662337
 10
89.939279251
 20
37.2229378645
 10
89.9663104022
 20
37.2113289043
 10
89.9943670523
 20
37.2025811447
 10
90.0230761122
 20
37.1964150469
 10
90.0528106712
 20
37.1931101495
 10
90.084673224
 20
37.1930468602
 10
90.1190312689
 20
37.1963519813
 10
90.1555173078
 20
37.2028987104
 10
90.1941313405
 20
37.2126870475
  0
LWPOLYLINE
  5
2E5
100
AcDbEntity
  8
0
100
AcDbPolyline
 62
250
  6
CONTINUOUS
 90
13
 70
0
 10
92.1523114283
 20
74.5132988148
 10
91.7254390736
 20
71.5315820032
 10
91.3240242533
 20
68.5580200477
 10
90.9480729836
 20
65.5929514489
 10
90.5993793168
 20
62.6525164655
 10
90.2758891674
 20
59.7211601831
 10
89.9730153854
 20
56.7520606106
 10
89.6919098305
 20
53.7459994169
 10
89.4338288431
 20
50.7037301199
 10
89.1967971301
 20
47.5792880409
 10
88.9824425985
 20
44.3585152141
 10
88.7946125475
 20
41.05855836
 10
88.6360186127
 20
37.6810228862
  0
LWPOLYLINE
  5
2E6
100
AcDbEntity
  8
RACCORDO
100
AcDbPolyline
 62
250
  6
CONTINUOUS
 90
12
 70
0
 10
97.1765825587
 20
79.2520119618
 10
97.1636376243
 20
79.2227319395
 10
97.1478915033
 20
79.1953776494
 10
97.1295932335
 20
79.1704274074
 10
97.1090223222
 20
79.1483084228
 10
97.0865300168
 20
79.1294395993
 10
97.0625466452
 20
79.1141981307
 10
97.0375031761
 20
79.1028528559
 10
97.011812578
 20
79.0955860347
 10
96.9859169236
 20
79.092522421
 10
96.9602610956
 20
79.0937140358
 10
96.9491051108
 20
79.0955954205
  0
LWPOLYLINE
  5
2E7
100
AcDbEntity
  8
RACCORDO
100
AcDbPolyline
 62
250
  6
CONTINUOUS
 90
12
 70
0
 10
97.7069126446
 20
79.1421770048
 10
97.693863301
 20
79.1126910211
 10
97.678012537
 20
79.0852218999
 10
97.6596315636
 20
79.0602396454
 10
97.6390348844
 20
79.038171711
 10
97.6165749142
 20
79.0193956852
 10
97.5926359493
 20
79.004232831
 10
97.5676275921
 20
78.9929425889
 10
97.5419777425
 20
78.9857181382
 10
97.5161252765
 20
78.9826830912
 10
97.490512537
 20
78.9838893784
 10
97.4794351967
 20
78.9857604634
  0
LINE
  5
2E8
100
AcDbEntity
  8
RACCORDO
100
AcDbLine
 62
250
  6
CONTINUOUS
 10
99.3087063301
 20
39.2024980681
 11
99.2989557542
 21
39.2312403655
  0
LINE
  5
2E9
100
AcDbEntity
  8
RACCORDO
100
AcDbLine
 62
7
  6
CONTINUOUS
 10
95.3307363874
 20
49.0908508436
 11
95.8529238658
 21
44.2236566336
  0
LINE
  5
2EA
100
AcDbEntity
  8
RACCORDO
100
AcDbLine
 62
250
  6
CONTINUOUS
 10
93.2895257418
 20
82.0410263872
 11
93.2895257418
 21
80.8437073515
  0
LWPOLYLINE
  5
2EB
100
AcDbEntity
  8
0
100
AcDbPolyline
 62
250
  6
CONTINUOUS
 90
16
 70
0
 10
93.8134825931
 20
75.1244739797
 10
93.8171457656
 20
75.2013462052
 10
93.8147361171
 20
75.2805297662
 10
93.8062799988
 20
75.3611573969
 10
93.7918699878
 20
75.4423460087
 10
93.7716638752
 20
75.5232063514
 10
93.7458829417
 20
75.6028527535
 10
93.7148095278
 20
75.6804128463
 10
93.6787839495
 20
75.7550370922
 10
93.638200781
 20
75.8259080836
 10
93.5935045075
 20
75.8922495457
 10
93.5451846743
 20
75.9533348014
 10
93.493770546
 20
76.0084947167
 10
93.4398252703
 20
76.0571250828
 10
93.3839397046
 20
76.0986932244
 10
93.3267259711
 20
76.1327438075
  0
LWPOLYLINE
  5
2EC
100
AcDbEntity
  8
0
100
AcDbPolyline
 62
250
  6
CONTINUOUS
 90
13
 70
0
 10
93.2585860738
 20
74.3721511853
 10
92.8328370265
 20
71.3978313174
 10
92.4324863499
 20
68.432315541
 10
92.0575340441
 20
65.4756038561
 10
91.7091008485
 20
62.5428903988
 10
91.3860660236
 20
59.618981033
 10
91.0850673514
 20
56.6582933508
 10
90.804370761
 20
53.6601725915
 10
90.5457103232
 20
50.6252735158
 10
90.3109260327
 20
47.5099779973
 10
90.1006312209
 20
44.2997466607
 10
89.9142125564
 20
41.0091188813
 10
89.751670039
 20
37.6380946592
  0
LWPOLYLINE
  5
2ED
100
AcDbEntity
  8
RACCORDO
100
AcDbPolyline
 62
250
  6
CONTINUOUS
 90
6
 70
0
 10
98.6240680783
 20
79.4090704334
 10
98.6122131068
 20
79.3681836513
 10
98.6029311832
 20
79.3276597708
 10
98.5963131146
 20
79.2877831934
 10
98.5922680939
 20
79.2482695175
 10
98.5907961211
 20
79.209118743
  0
LWPOLYLINE
  5
2EE
100
AcDbEntity
  8
RACCORDO
100
AcDbPolyline
 62
250
  6
CONTINUOUS
 90
3
 70
0
 10
98.6547132708
 20
79.4893603863
 10
98.6382236764
 20
79.4494669121
 10
98.6240680783
 20
79.4090704334
  0
LINE
  5
2EF
100
AcDbEntity
  8
RACCORDO
100
AcDbLine
 62
250
  6
CONTINUOUS
 10
98.840478797
 20
78.8270733132
 11
98.8489734853
 21
78.8462923356
  0
LWPOLYLINE
  5
2F0
100
AcDbEntity
  8
RACCORDO
100
AcDbPolyline
 62
250
  6
CONTINUOUS
 90
19
 70
0
 10
97.6562094234
 20
78.2615617786
 10
97.6754186397
 20
78.2636529158
 10
97.6955972342
 20
78.2660253264
 10
97.7160573647
 20
78.2686395787
 10
97.7364472227
 20
78.2714824148
 10
97.7568506005
 20
78.2745988259
 10
97.7771556533
 20
78.2780040855
 10
97.7970913876
 20
78.281681548
 10
97.8164888163
 20
78.2856117823
 10
97.8353556573
 20
78.2898013134
 10
97.8535823524
 20
78.2942242774
 10
97.8710861336
 20
78.2988570475
 10
97.8879692
 20
78.3037252997
 10
97.9041714082
 20
78.3088037684
 10
97.9196160418
 20
78.3140443441
 10
97.9343826405
 20
78.3194545989
 10
97.948468476
 20
78.3250208104
 10
97.9618091042
 20
78.3306993971
 10
97.9743956128
 20
78.3364643024
  0
LINE
  5
2F1
100
AcDbEntity
  8
RACCORDO
100
AcDbLine
 62
250
  6
CONTINUOUS
 10
97.6210639145
 20
78.2580424176
 11
97.6562094234
 21
78.2615617786
  0
LWPOLYLINE
  5
2F2
100
AcDbEntity
  8
RACCORDO
100
AcDbPolyline
 62
250
  6
CONTINUOUS
 90
4
 70
0
 10
97.5645907394
 20
78.2530562571
 10
97.5772602459
 20
78.2540782612
 10
97.5908034464
 20
78.2552413939
 10
97.6210639145
 20
78.2580424176
  0
LWPOLYLINE
  5
2F3
100
AcDbEntity
  8
RACCORDO
100
AcDbPolyline
 62
250
  6
CONTINUOUS
 90
7
 70
0
 10
95.4063029791
 20
38.7125476122
 10
95.4084417638
 20
38.6962318382
 10
95.4148215226
 20
38.6801952316
 10
95.425333096
 20
38.6647121832
 10
95.4397966282
 20
38.6500476122
 10
95.4579646441
 20
38.6364524336
 10
95.4795262839
 20
38.6241592646
  0
LWPOLYLINE
  5
2F4
100
AcDbEntity
  8
RACCORDO
100
AcDbPolyline
 62
250
  6
CONTINUOUS
 90
7
 70
0
 10
96.1134097603
 20
39.8161010028
 10
96.115548545
 20
39.7997852288
 10
96.1219283038
 20
39.7837486222
 10
96.1324398772
 20
39.7682655738
 10
96.1469034094
 20
39.7536010028
 10
96.1650714253
 20
39.7400058242
 10
96.186633065
 20
39.7277126552
  0
LWPOLYLINE
  5
2F5
100
AcDbEntity
  8
RACCORDO
100
AcDbPolyline
 62
250
  6
CONTINUOUS
 90
7
 70
0
 10
95.4063031375
 20
38.3610929476
 10
95.4083404485
 20
38.3453073772
 10
95.4146663101
 20
38.329172292
 10
95.4251684601
 20
38.3135974299
 10
95.4396589993
 20
38.2988529821
 10
95.4578844266
 20
38.2851907608
 10
95.4795262839
 20
38.2728452925
  0
LINE
  5
2F6
100
AcDbEntity
  8
DRAFT
100
AcDbLine
 62
7
  6
CONTINUOUS
 10
96.3748759835
 20
57.9070476689
 11
98.1375269546
 21
41.4777670828
  0
LWPOLYLINE
  5
2F7
100
AcDbEntity
  8
RACCORDO
100
AcDbPolyline
 62
7
  6
CONTINUOUS
 90
15
 70
0
 10
94.4188661121
 20
87.4073045308
 10
94.4180822791
 20
87.4354321865
 10
94.4158178027
 20
87.4624588108
 10
94.4120726828
 20
87.4883844036
 10
94.4068182836
 20
87.5133102629
 10
94.400083241
 20
87.5371350908
 10
94.3919534627
 20
87.5595549931
 10
94.3824110825
 20
87.5805519732
 10
94.3714739668
 20
87.6001440278
 10
94.3592816221
 20
87.6180812535
 10
94.3458179693
 20
87.6343424522
 10
94.3310990876
 20
87.6489488219
 10
94.3153127215
 20
87.6617140533
 10
94.2984451967
 20
87.6726145619
 10
94.2889217222
 20
87.6777403295
  0
LINE
  5
2F8
100
AcDbEntity
  8
RACCORDO
100
AcDbLine
 62
250
  6
CONTINUOUS
 10
95.4063029791
 20
38.3612336401
 11
95.4063031375
 21
38.3610929476
  0
LINE
  5
2F9
100
AcDbEntity
  8
RACCORDO
100
AcDbLine
 62
250
  6
CONTINUOUS
 10
93.9986629689
 20
82.0420474743
 11
93.9986629689
 21
80.8371266416
  0
LINE
  5
2FA
100
AcDbEntity
  8
RACCORDO
100
AcDbLine
 62
7
  6
CONTINUOUS
 10
94.4188661121
 20
87.4073045308
 11
94.4188661121
 21
86.5069494302
  0
LINE
  5
2FB
100
AcDbEntity
  8
RACCORDO
100
AcDbLine
 62
7
  6
CONTINUOUS
 10
95.4063029791
 20
38.3612336401
 11
95.4063029791
 21
38.7125476122
  0
LINE
  5
2FC
100
AcDbEntity
  8
RACCORDO
100
AcDbLine
 62
7
  6
CONTINUOUS
 10
95.4063029791
 20
80.0121517516
 11
95.4063029791
 21
80.3634657237
  0
LINE
  5
2FD
100
AcDbEntity
  8
RACCORDO
100
AcDbLine
 62
250
  6
CONTINUOUS
 10
95.4795262839
 20
38.2728452925
 11
95.4795262839
 21
38.6241592646
  0
LINE
  5
2FE
100
AcDbEntity
  8
RACCORDO
100
AcDbLine
 62
250
  6
CONTINUOUS
 10
95.4795262839
 20
79.923763404
 11
95.4795262839
 21
80.275077376
  0
LINE
  5
2FF
100
AcDbEntity
  8
RACCORDO
100
AcDbLine
 62
7
  6
CONTINUOUS
 10
96.1134097603
 20
39.8161010028
 11
96.1134097603
 21
39.8813708825
  0
LINE
  5
300
100
AcDbEntity
  8
RACCORDO
100
AcDbLine
 62
7
  6
CONTINUOUS
 10
96.1134097603
 20
79.3118097628
 11
96.1134097603
 21
79.5040898638
  0
LINE
  5
301
100
AcDbEntity
  8
RACCORDO
100
AcDbLine
 62
250
  6
CONTINUOUS
 10
96.186633065
 20
39.7277126552
 11
96.186633065
 21
39.8447592302
  0
LINE
  5
302
100
AcDbEntity
  8
RACCORDO
100
AcDbLine
 62
250
  6
CONTINUOUS
 10
96.186633065
 20
79.2254133348
 11
96.186633065
 21
79.4674782115
  0
LINE
  5
303
100
AcDbEntity
  8
RACCORDO
100
AcDbLine
 62
7
  6
CONTINUOUS
 10
96.1132046951
 20
79.3056277854
 11
96.1134141746
 21
79.3119830813
  0
LWPOLYLINE
  5
304
100
AcDbEntity
  8
0
100
AcDbPolyline
 62
250
  6
CONTINUOUS
 90
11
 70
0
 10
90.1941313405
 20
37.2126870475
 10
90.1833848363
 20
37.138622577
 10
90.1667231762
 20
37.0685225407
 10
90.1443288557
 20
37.0031547462
 10
90.1164471599
 20
36.9432351685
 10
90.0833834782
 20
36.8894201084
 10
90.0454999597
 20
36.8422990041
 10
90.0032115438
 20
36.8023879746
 10
89.9569814163
 20
36.770124166
 10
89.9073159369
 20
36.7458609649
 10
89.8852042601
 20
36.7380096759
  0
LWPOLYLINE
  5
305
100
AcDbEntity
  8
RACCORDO
100
AcDbPolyline
 62
250
  6
CONTINUOUS
 90
4
 70
0
 10
96.0970509824
 20
79.2779020736
 10
96.1137848366
 20
79.2796970234
 10
96.1293453923
 20
79.2846813484
 10
96.1315558253
 20
79.2856967911
  0
LINE
  5
306
100
AcDbEntity
  8
0
100
AcDbLine
 62
250
  6
CONTINUOUS
 10
92.1523114283
 20
74.5132988148
 11
62.0550967001
 21
89.5619061789
  0
LWPOLYLINE
  5
307
100
AcDbEntity
  8
RACCORDO
100
AcDbPolyline
 62
250
  6
CONTINUOUS
 90
7
 70
0
 10
85.9335847378
 20
86.9948312158
 10
85.9435483713
 20
86.9770054774
 10
85.9503743332
 20
86.9609372287
 10
85.9539253919
 20
86.9469116511
 10
85.9541177709
 20
86.9351743116
 10
85.9509217716
 20
86.9259536411
 10
85.9493443508
 20
86.9237524466
  0
LWPOLYLINE
  5
308
100
AcDbEntity
  8
RACCORDO
100
AcDbPolyline
 62
250
  6
CONTINUOUS
 90
7
 70
0
 10
85.4032546519
 20
86.3546661729
 10
85.4132792973
 20
86.3367171836
 10
85.4201077199
 20
86.3205876557
 10
85.4236230835
 20
86.3065535698
 10
85.4237652394
 20
86.294855053
 10
85.4205317552
 20
86.2856922701
 10
85.4189969947
 20
86.2835665273
  0
LWPOLYLINE
  5
309
100
AcDbEntity
  8
RACCORDO
100
AcDbPolyline
 62
250
  6
CONTINUOUS
 90
3
 70
0
 10
99.3184359353
 20
39.1402851349
 10
99.315239936
 20
39.1719981109
 10
99.3087063301
 20
39.2024980681
  0
LWPOLYLINE
  5
30A
100
AcDbEntity
  8
RACCORDO
100
AcDbPolyline
 62
250
  6
CONTINUOUS
 90
8
 70
0
 10
96.1134097603
 20
79.3118091947
 10
96.1137651338
 20
79.3053979304
 10
96.1164907271
 20
79.2929392052
 10
96.1218874967
 20
79.2806100806
 10
96.1299056523
 20
79.2685569391
 10
96.1404914907
 20
79.2568805877
 10
96.1535631637
 20
79.2457053081
 10
96.1689934569
 20
79.235174412
  0
LWPOLYLINE
  5
30B
100
AcDbEntity
  8
RACCORDO
100
AcDbPolyline
 62
250
  6
CONTINUOUS
 90
8
 70
0
 10
97.5301359493
 20
78.8555653524
 10
97.5289406485
 20
78.8801025552
 10
97.5253709106
 20
78.9031126337
 10
97.5194750101
 20
78.924284416
 10
97.511332679
 20
78.9433315901
 10
97.5010540283
 20
78.9599965756
 10
97.4887780591
 20
78.9740540071
 10
97.4746707829
 20
78.9853137821
  0
LWPOLYLINE
  5
30C
100
AcDbEntity
  8
RACCORDO
100
AcDbPolyline
 62
250
  6
CONTINUOUS
 90
13
 70
0
 10
98.5907961211
 20
39.4095146036
 10
98.5922586061
 20
39.3719069761
 10
98.5962898856
 20
39.3364940747
 10
98.6028899593
 20
39.3032758995
 10
98.6121449574
 20
39.2720590003
 10
98.6239687499
 20
39.2430368273
 10
98.6381029469
 20
39.2167897313
 10
98.6545850121
 20
39.1933571449
 10
98.6733774818
 20
39.1726996355
 10
98.6941095752
 20
39.1552792561
 10
98.7166576986
 20
39.1412500245
 10
98.7411454457
 20
39.1304579229
 10
98.7675728164
 20
39.1229029513
  0
LWPOLYLINE
  5
30D
100
AcDbEntity
  8
RACCORDO
100
AcDbPolyline
 62
250
  6
CONTINUOUS
 90
13
 70
0
 10
97.8836893399
 20
78.8555653524
 10
97.8822268548
 20
78.89317298
 10
97.8781955754
 20
78.9285858814
 10
97.8715955016
 20
78.9618040565
 10
97.8623405035
 20
78.9930209558
 10
97.8505167111
 20
79.0220431288
 10
97.8363825141
 20
79.0482902248
 10
97.8199004489
 20
79.0717228112
 10
97.8011079792
 20
79.0923803206
 10
97.7803758858
 20
79.1098006999
 10
97.7578277624
 20
79.1238299316
 10
97.7333400153
 20
79.1346220332
 10
97.7069126446
 20
79.1421770048
  0
LWPOLYLINE
  5
30E
100
AcDbEntity
  8
RACCORDO
100
AcDbPolyline
 62
7
  6
CONTINUOUS
 90
6
 70
0
 10
98.6640194258
 20
39.4979029513
 10
98.6644927699
 20
39.4820853012
 10
98.6657658069
 20
39.4684656554
 10
98.6675867258
 20
39.4571932314
 10
98.6696765637
 20
39.4483217402
 10
98.6713353974
 20
39.4429684938
  0
LWPOLYLINE
  5
30F
100
AcDbEntity
  8
RACCORDO
100
AcDbPolyline
 62
7
  6
CONTINUOUS
 90
15
 70
0
 10
96.8937398462
 20
86.4944425236
 10
96.8922079647
 20
86.5500742714
 10
96.8877787815
 20
86.603559581
 10
96.8804522965
 20
86.6548984525
 10
96.8701737179
 20
86.704287344
 10
96.8569978376
 20
86.7515297973
 10
96.8410890317
 20
86.7960364381
 10
96.822413063
 20
86.837772993
 10
96.8010041687
 20
86.8767737353
 10
96.777129436
 20
86.9125521103
 10
96.7507579737
 20
86.9450677493
 10
96.721920673
 20
86.974361021
 10
96.6909772943
 20
87.0000664763
 10
96.6579014536
 20
87.0221391685
 10
96.6338675334
 20
87.0353058868
  0
LINE
  5
310
100
AcDbEntity
  8
RACCORDO
100
AcDbLine
 62
250
  6
CONTINUOUS
 10
96.8230291681
 20
79.6033259339
 11
96.8230291681
 21
79.2520119618
  0
LINE
  5
311
100
AcDbEntity
  8
RACCORDO
100
AcDbLine
 62
250
  6
CONTINUOUS
 10
96.8230291681
 20
37.9524078224
 11
96.8230291681
 21
37.6010938504
  0
LINE
  5
312
100
AcDbEntity
  8
RACCORDO
100
AcDbLine
 62
7
  6
CONTINUOUS
 10
96.8937398462
 20
86.4944425236
 11
96.8937398462
 21
86.2993295786
  0
LINE
  5
313
100
AcDbEntity
  8
RACCORDO
100
AcDbLine
 62
250
  6
CONTINUOUS
 10
97.1765825587
 20
79.6033259339
 11
97.1765825587
 21
79.2520119618
  0
LINE
  5
314
100
AcDbEntity
  8
RACCORDO
100
AcDbLine
 62
250
  6
CONTINUOUS
 10
97.1765825587
 20
37.9524078224
 11
97.1765825587
 21
37.6010938504
  0
LINE
  5
315
100
AcDbEntity
  8
RACCORDO
100
AcDbLine
 62
250
  6
CONTINUOUS
 10
97.5301359493
 20
78.8555653524
 11
97.5301359493
 21
78.5536618927
  0
LINE
  5
316
100
AcDbEntity
  8
RACCORDO
100
AcDbLine
 62
250
  6
CONTINUOUS
 10
97.5301359493
 20
39.2660514979
 11
97.5301359493
 21
39.055961213
  0
LINE
  5
317
100
AcDbEntity
  8
RACCORDO
100
AcDbLine
 62
7
  6
CONTINUOUS
 10
97.6698848603
 20
77.528326969
 11
97.6698848603
 21
77.5024573311
  0
LINE
  5
318
100
AcDbEntity
  8
RACCORDO
100
AcDbLine
 62
7
  6
CONTINUOUS
 10
97.6698848603
 20
39.5363439044
 11
97.6698848603
 21
39.5622135423
  0
LINE
  5
319
100
AcDbEntity
  8
RACCORDO
100
AcDbLine
 62
250
  6
CONTINUOUS
 10
97.8836893399
 20
78.8555653524
 11
97.8836893399
 21
78.5468594543
  0
LINE
  5
31A
100
AcDbEntity
  8
RACCORDO
100
AcDbLine
 62
250
  6
CONTINUOUS
 10
97.8836893399
 20
39.3646671111
 11
97.8836893399
 21
39.055961213
  0
LINE
  5
31B
100
AcDbEntity
  8
DRAFT
100
AcDbLine
 62
7
  6
CONTINUOUS
 10
98.1375269546
 20
77.6591382348
 11
98.1375269546
 21
76.0385005117
  0
LINE
  5
31C
100
AcDbEntity
  8
DRAFT
100
AcDbLine
 62
7
  6
CONTINUOUS
 10
98.1375269546
 20
41.4777670828
 11
98.1375269546
 21
39.8571293596
  0
LINE
  5
31D
100
AcDbEntity
  8
RACCORDO
100
AcDbLine
 62
250
  6
CONTINUOUS
 10
98.5907961211
 20
39.4095146036
 11
98.5907961211
 21
39.7333370314
  0
LINE
  5
31E
100
AcDbEntity
  8
RACCORDO
100
AcDbLine
 62
250
  6
CONTINUOUS
 10
98.5907961211
 20
78.8852963153
 11
98.5907961211
 21
79.209118743
  0
LINE
  5
31F
100
AcDbEntity
  8
RACCORDO
100
AcDbLine
 62
7
  6
CONTINUOUS
 10
98.6640194258
 20
39.4979029513
 11
98.6640194258
 21
39.7999582107
  0
LINE
  5
320
100
AcDbEntity
  8
RACCORDO
100
AcDbLine
 62
7
  6
CONTINUOUS
 10
98.6640194258
 20
78.9688747123
 11
98.6640194258
 21
79.2975070907
  0
LWPOLYLINE
  5
321
100
AcDbEntity
  8
RACCORDO
100
AcDbPolyline
 62
250
  6
CONTINUOUS
 90
10
 70
0
 10
98.1949352269
 20
39.7642855241
 10
98.1940064441
 20
39.7216348772
 10
98.1894892679
 20
39.6812889789
 10
98.1814304921
 20
39.6436657762
 10
98.1699135984
 20
39.6091550111
 10
98.1550578911
 20
39.5781141838
 10
98.1370172621
 20
39.5508648492
 10
98.1159785957
 20
39.5276892855
 10
98.0921598335
 20
39.5088275706
 10
98.0753020519
 20
39.4989749622
  0
LWPOLYLINE
  5
322
100
AcDbEntity
  8
RACCORDO
100
AcDbPolyline
 62
250
  6
CONTINUOUS
 90
10
 70
0
 10
97.9056310002
 20
39.6551220211
 10
97.904388431
 20
39.6111686821
 10
97.8993535215
 20
39.5696675619
 10
97.8905815109
 20
39.5310734173
 10
97.8781686294
 20
39.4958091713
 10
97.862250911
 20
39.464261206
 10
97.8430026994
 20
39.4367751321
 10
97.8206349506
 20
39.4136521196
 10
97.7953928141
 20
39.3951455345
 10
97.7833178846
 20
39.3884546946
  0
LWPOLYLINE
  5
323
100
AcDbEntity
  8
RACCORDO
100
AcDbPolyline
 62
250
  6
CONTINUOUS
 90
10
 70
0
 10
95.4795262839
 20
38.6241592646
 10
95.4806852492
 20
38.649489896
 10
95.4841708612
 20
38.6757847068
 10
95.4899725506
 20
38.7027055375
 10
95.4980631192
 20
38.7299430701
 10
95.5083584341
 20
38.7570811092
 10
95.5206817661
 20
38.7836086365
 10
95.5348387022
 20
38.8091197781
 10
95.5506550189
 20
38.8333115427
 10
95.5679146315
 20
38.8558534384
  0
LWPOLYLINE
  5
324
100
AcDbEntity
  8
RACCORDO
100
AcDbPolyline
 62
250
  6
CONTINUOUS
 90
10
 70
0
 10
96.8230291681
 20
37.9524078224
 10
96.8242366945
 20
37.978274214
 10
96.8278427847
 20
38.0049947994
 10
96.833798185
 20
38.0322045347
 10
96.8420373577
 20
38.0595779191
 10
96.8524392482
 20
38.0866938856
 10
96.8647933599
 20
38.1130484095
 10
96.8788772102
 20
38.1382539485
 10
96.8944952932
 20
38.1620360423
 10
96.9114175158
 20
38.1841019963
  0
LINE
  5
325
100
AcDbEntity
  8
RACCORDO
100
AcDbLine
 62
250
  6
CONTINUOUS
 10
98.663702182
 20
78.9628293453
 11
98.6640194258
 21
78.9688747123
  0
LWPOLYLINE
  5
326
100
AcDbEntity
  8
RACCORDO
100
AcDbPolyline
 62
250
  6
CONTINUOUS
 90
8
 70
0
 10
97.1765825587
 20
37.6010938504
 10
97.1750702096
 20
37.5735902754
 10
97.1705590389
 20
37.5480696433
 10
97.163126234
 20
37.5249686192
 10
97.1528989723
 20
37.5046824681
 10
97.1400522451
 20
37.4875582916
 10
97.1248058634
 20
37.4738890891
 10
97.1116092623
 20
37.4658754003
  0
LINE
  5
327
100
AcDbEntity
  8
0
100
AcDbLine
 62
7
  6
CONTINUOUS
 10
94.3217399816
 20
38.5218692545
 11
97.9497185367
 21
76.5240249942
  0
LINE
  5
328
100
AcDbEntity
  8
DRAFT
100
AcDbLine
 62
7
  6
CONTINUOUS
 10
98.1375269546
 20
76.0385005117
 11
96.3748759835
 21
57.9070476689
  0
LWPOLYLINE
  5
329
100
AcDbEntity
  8
RACCORDO
100
AcDbPolyline
 62
250
  6
CONTINUOUS
 90
7
 70
0
 10
99.371126207
 20
80.7523744533
 10
99.3690887376
 20
80.7364481904
 10
99.362762876
 20
80.7203131052
 10
99.352260726
 20
80.7047382431
 10
99.3377701868
 20
80.6899937953
 10
99.3195447595
 20
80.676331574
 10
99.2979029023
 20
80.6639861057
  0
LWPOLYLINE
  5
32A
100
AcDbEntity
  8
RACCORDO
100
AcDbPolyline
 62
250
  6
CONTINUOUS
 90
7
 70
0
 10
99.371126206
 20
80.4010493771
 10
99.3689347238
 20
80.3845457985
 10
99.3624825701
 20
80.3684755693
 10
99.3519085459
 20
80.352999291
 10
99.3374328229
 20
80.338387824
 10
99.3193208197
 20
80.3248717428
 10
99.2979029023
 20
80.3126721336
  0
LWPOLYLINE
  5
32B
100
AcDbEntity
  8
RACCORDO
100
AcDbPolyline
 62
250
  6
CONTINUOUS
 90
4
 70
0
 10
98.6763922657
 20
78.9389293388
 10
98.6600865625
 20
78.9409335903
 10
98.6449878035
 20
78.9460341868
 10
98.6427747582
 20
78.9470958121
  0
LINE
  5
32C
100
AcDbEntity
  8
RACCORDO
100
AcDbLine
 62
7
  6
CONTINUOUS
 10
96.9491051108
 20
79.0955954205
 11
97.4794351967
 21
78.9857604634
  0
LINE
  5
32D
100
AcDbEntity
  8
0
100
AcDbLine
 62
250
  6
CONTINUOUS
 10
93.3267259646
 20
76.1327438053
 11
63.2038747276
 21
91.1941694238
  0
LWPOLYLINE
  5
32E
100
AcDbEntity
  8
RACCORDO
100
AcDbPolyline
 62
250
  6
CONTINUOUS
 90
7
 70
0
 10
95.4063029791
 20
80.3634657237
 10
95.4086047234
 20
80.3465425582
 10
95.4152094837
 20
80.3303978903
 10
95.4259156679
 20
80.3149330367
 10
95.4404171209
 20
80.3004314152
 10
95.4584110639
 20
80.2870805323
 10
95.4795262839
 20
80.275077376
  0
LWPOLYLINE
  5
32F
100
AcDbEntity
  8
RACCORDO
100
AcDbPolyline
 62
250
  6
CONTINUOUS
 90
7
 70
0
 10
95.4063029791
 20
80.0121517516
 10
95.4084417638
 20
79.9958359776
 10
95.4148215226
 20
79.979799371
 10
95.425333096
 20
79.9643163226
 10
95.4397966282
 20
79.9496517516
 10
95.4579646441
 20
79.936056573
 10
95.4795262839
 20
79.923763404
  0
LWPOLYLINE
  5
330
100
AcDbEntity
  8
RACCORDO
100
AcDbPolyline
 62
7
  6
CONTINUOUS
 90
6
 70
0
 10
98.6640148998
 20
78.9689705028
 10
98.6641553462
 20
78.9637601578
 10
98.6655961374
 20
78.9519438493
 10
98.6681614355
 20
78.9418939014
 10
98.6712147309
 20
78.9340297346
 10
98.6734037177
 20
78.9297214701
  0
LINE
  5
331
100
AcDbEntity
  8
RACCORDO
100
AcDbLine
 62
250
  6
CONTINUOUS
 10
99.2979029023
 20
80.6639861057
 11
99.2979029023
 21
80.3126721336
  0
LINE
  5
332
100
AcDbEntity
  8
RACCORDO
100
AcDbLine
 62
250
  6
CONTINUOUS
 10
99.2979029023
 20
39.0130679942
 11
99.2979029023
 21
38.6617540221
  0
LINE
  5
333
100
AcDbEntity
  8
RACCORDO
100
AcDbLine
 62
7
  6
CONTINUOUS
 10
99.371126207
 20
80.7523744533
 11
99.371126207
 21
80.4010604813
  0
LINE
  5
334
100
AcDbEntity
  8
RACCORDO
100
AcDbLine
 62
7
  6
CONTINUOUS
 10
99.371126207
 20
39.1014563419
 11
99.371126207
 21
38.7501423698
  0
LINE
  5
335
100
AcDbEntity
  8
RACCORDO
100
AcDbLine
 62
7
  6
CONTINUOUS
 10
99.8282329882
 20
40.6238397729
 11
99.8282329882
 21
78.5251236596
  0
LINE
  5
336
100
AcDbEntity
  8
RACCORDO
100
AcDbLine
 62
7
  6
CONTINUOUS
 10
99.9724281816
 20
84.630523496
 11
99.9724281816
 21
83.7301683954
  0
LINE
  5
337
100
AcDbEntity
  8
RACCORDO
100
AcDbLine
 62
250
  6
CONTINUOUS
 10
99.371126207
 20
38.7501423698
 11
99.3711260486
 21
38.7500016772
  0
LWPOLYLINE
  5
338
100
AcDbEntity
  8
RACCORDO
100
AcDbPolyline
 62
250
  6
CONTINUOUS
 90
10
 70
0
 10
98.9142382125
 20
40.1319907978
 10
98.913236119
 20
40.0884351344
 10
98.9084900594
 20
40.0472947375
 10
98.9000513584
 20
40.0090143939
 10
98.8880112607
 20
39.9740079682
 10
98.8724999435
 20
39.9426539283
 10
98.8536851103
 20
39.9152912542
 10
98.8317701772
 20
39.892215773
 10
98.806992074
 20
39.8736769606
 10
98.7945282146
 20
39.8666388198
  0
LWPOLYLINE
  5
339
100
AcDbEntity
  8
RACCORDO
100
AcDbPolyline
 62
250
  6
CONTINUOUS
 90
10
 70
0
 10
99.190131346
 20
40.3023287337
 10
99.1888840379
 20
40.2583671412
 10
99.1838435276
 20
40.2168584512
 10
99.1750650609
 20
40.1782576159
 10
99.1626448529
 20
40.1429877165
 10
99.1467190339
 20
40.1114353256
 10
99.1274621571
 20
40.0839462702
 10
99.1050852854
 20
40.0608218417
 10
99.0798336782
 20
40.0423154932
 10
99.0677848693
 20
40.035640624
  0
LWPOLYLINE
  5
33A
100
AcDbEntity
  8
RACCORDO
100
AcDbPolyline
 62
250
  6
CONTINUOUS
 90
8
 70
0
 10
99.2979029023
 20
38.6617540221
 10
99.2963783626
 20
38.6341433662
 10
99.2918288549
 20
38.6085246352
 10
99.2843296767
 20
38.5853424307
 10
99.2740058897
 20
38.5649978647
 10
99.2610337352
 20
38.5478487956
 10
99.2456406648
 20
38.5341996677
 10
99.2329296058
 20
38.526535572
  0
LINE
  5
33B
100
AcDbEntity
  8
0
100
AcDbLine
 62
7
  6
CONTINUOUS
 10
96.8937398462
 20
86.2993295786
 11
95.0464689426
 21
85.9819119094
  0
LINE
  5
33C
100
AcDbEntity
  8
RACCORDO
100
AcDbLine
 62
250
  6
CONTINUOUS
 10
97.1765825587
 20
79.2520119618
 11
97.7069126446
 21
79.1421770048
  0
LWPOLYLINE
  5
33D
100
AcDbEntity
  8
RACCORDO
100
AcDbPolyline
 62
250
  6
CONTINUOUS
 90
4
 70
0
 10
96.0427435658
 20
79.2916854976
 10
96.0612238411
 20
79.283948038
 10
96.0794301515
 20
79.2793272078
 10
96.0970509824
 20
79.2779020736
  0
LWPOLYLINE
  5
33E
100
AcDbEntity
  8
RACCORDO
100
AcDbPolyline
 62
250
  6
CONTINUOUS
 90
16
 70
0
 10
97.5301359493
 20
78.5536618927
 10
97.549742988
 20
78.5447996465
 10
97.5710288491
 20
78.5369724655
 10
97.5937426616
 20
78.5302550023
 10
97.6176051334
 20
78.5247071987
 10
97.6423603698
 20
78.5203736441
 10
97.6677847645
 20
78.5172921865
 10
97.6935874638
 20
78.5154867655
 10
97.7195031673
 20
78.5149664803
 10
97.7453478361
 20
78.5157480034
 10
97.7708621352
 20
78.5178281406
 10
97.7957419173
 20
78.5211889804
 10
97.8197338952
 20
78.5258220296
 10
97.8425700649
 20
78.5316912519
 10
97.8639739616
 20
78.5387286009
 10
97.8836893399
 20
78.5468594543
  0
LWPOLYLINE
  5
33F
100
AcDbEntity
  8
RACCORDO
100
AcDbPolyline
 62
250
  6
CONTINUOUS
 90
7
 70
0
 10
97.3862464501
 20
78.3085384423
 10
97.4128308271
 20
78.2963332192
 10
97.4406673352
 20
78.285311564
 10
97.4697559743
 20
78.2754734765
 10
97.5000967445
 20
78.2668189569
 10
97.5316896457
 20
78.259348005
 10
97.564534678
 20
78.2530606209
  0
LINE
  5
340
100
AcDbEntity
  8
DRAFT
100
AcDbLine
 62
7
  6
CONTINUOUS
 10
97.9140347719
 20
76.150246603
 11
98.1375269546
 21
76.0385005117
  0
LINE
  5
341
100
AcDbEntity
  8
0
100
AcDbLine
 62
7
  6
CONTINUOUS
 10
97.4528950528
 20
77.5288885639
 11
67.1181434331
 21
92.6962643738
  0
LINE
  5
342
100
AcDbEntity
  8
DRAFT
100
AcDbLine
 62
7
  6
CONTINUOUS
 10
81.9754592085
 20
85.349670157
 11
97.6698848603
 21
77.5024573311
  0
LINE
  5
343
100
AcDbEntity
  8
RACCORDO
100
AcDbLine
 62
7
  6
CONTINUOUS
 10
97.3161699096
 20
78.1383950161
 11
82.3291741591
 21
85.6318928913
  0
LINE
  5
344
100
AcDbEntity
  8
RACCORDO
100
AcDbLine
 62
250
  6
CONTINUOUS
 10
84.0219282856
 20
84.9906975245
 11
82.6784254014
 21
85.6624489666
  0
LINE
  5
345
100
AcDbEntity
  8
RACCORDO
100
AcDbLine
 62
250
  6
CONTINUOUS
 10
96.0427435658
 20
78.9802898844
 11
97.3862464501
 21
78.3085384423
  0
LINE
  5
346
100
AcDbEntity
  8
RACCORDO
100
AcDbLine
 62
250
  6
CONTINUOUS
 10
84.1658177849
 20
85.2358209749
 11
82.8223149006
 21
85.907572417
  0
LINE
  5
347
100
AcDbEntity
  8
RACCORDO
100
AcDbLine
 62
250
  6
CONTINUOUS
 10
96.186633065
 20
79.2254133348
 11
97.5301359493
 21
78.5536618927
  0
LINE
  5
348
100
AcDbEntity
  8
RACCORDO
100
AcDbLine
 62
7
  6
CONTINUOUS
 10
93.2895257418
 20
80.8437073515
 11
87.7700318893
 21
83.6034542777
  0
LWPOLYLINE
  5
349
100
AcDbEntity
  8
RACCORDO
100
AcDbPolyline
 62
250
  6
CONTINUOUS
 90
7
 70
0
 10
82.6784254014
 20
85.6624489666
 10
82.6540616727
 20
85.6757169309
 10
82.6321460137
 20
85.6895696269
 10
82.6126784244
 20
85.7040070546
 10
82.5956589046
 20
85.7190292138
 10
82.5810874545
 20
85.7346361047
 10
82.568964074
 20
85.7508277272
  0
LWPOLYLINE
  5
34A
100
AcDbEntity
  8
RACCORDO
100
AcDbPolyline
 62
250
  6
CONTINUOUS
 90
8
 70
0
 10
82.8223149006
 20
85.907572417
 10
82.8046304463
 20
85.9173611286
 10
82.7891686706
 20
85.9279227301
 10
82.7760795022
 20
85.9391306005
 10
82.7654883579
 20
85.9508426898
 10
82.7574801809
 20
85.9629312827
 10
82.7521110416
 20
85.9752865465
 10
82.7494249774
 20
85.9877580702
  0
LWPOLYLINE
  5
34B
100
AcDbEntity
  8
RACCORDO
100
AcDbPolyline
 62
250
  6
CONTINUOUS
 90
9
 70
0
 10
82.1801814158
 20
86.4707040361
 10
82.1705205378
 20
86.4762743911
 10
82.1563636016
 20
86.4876285965
 10
82.1440402697
 20
86.5018327919
 10
82.1337449548
 20
86.518675516
 10
82.1256543862
 20
86.53782248
 10
82.1198526968
 20
86.5589416213
 10
82.1163670847
 20
86.58175082
 10
82.1152081194
 20
86.6059224862
  0
LWPOLYLINE
  5
34C
100
AcDbEntity
  8
RACCORDO
100
AcDbPolyline
 62
250
  6
CONTINUOUS
 90
9
 70
0
 10
83.5236843001
 20
85.7989525939
 10
83.5140234221
 20
85.8045229489
 10
83.4998664859
 20
85.8158771544
 10
83.4875431539
 20
85.8300813497
 10
83.477247839
 20
85.8469240739
 10
83.4691572704
 20
85.8660710378
 10
83.463355581
 20
85.8871901791
 10
83.459869969
 20
85.9099993779
 10
83.4587110037
 20
85.934171044
  0
LWPOLYLINE
  5
34D
100
AcDbEntity
  8
RACCORDO
100
AcDbPolyline
 62
7
  6
CONTINUOUS
 90
8
 70
0
 10
104.0268430709
 20
81.0043994358
 10
104.0239197791
 20
80.9521694754
 10
104.0167735765
 20
80.9045831583
 10
104.0054044633
 20
80.8616404846
 10
103.9895405188
 20
80.8230447823
 10
103.9694536636
 20
80.7890927234
 10
103.9459596591
 20
80.760674324
 10
103.9411548439
 20
80.7559637366
  0
LWPOLYLINE
  5
34E
100
AcDbEntity
  8
RACCORDO
100
AcDbPolyline
 62
250
  6
CONTINUOUS
 90
3
 70
0
 10
98.5928774372
 20
39.7636020356
 10
98.5913039457
 20
39.750804078
 10
98.5907961211
 20
39.7333370314
  0
LWPOLYLINE
  5
34F
100
AcDbEntity
  8
RACCORDO
100
AcDbPolyline
 62
250
  6
CONTINUOUS
 90
7
 70
0
 10
99.3711260486
 20
38.7500016772
 10
99.3690887376
 20
38.7342161069
 10
99.362762876
 20
38.7180810216
 10
99.352260726
 20
38.7025061595
 10
99.3377701868
 20
38.6877617118
 10
99.3195447595
 20
38.6740994904
 10
99.2979029023
 20
38.6617540221
  0
LINE
  5
350
100
AcDbEntity
  8
RACCORDO
100
AcDbLine
 62
250
  6
CONTINUOUS
 10
98.6618806411
 20
39.4815871773
 11
98.6640194258
 21
39.4979029513
  0
LWPOLYLINE
  5
351
100
AcDbEntity
  8
RACCORDO
100
AcDbPolyline
 62
250
  6
CONTINUOUS
 90
7
 70
0
 10
99.371126207
 20
39.1014563419
 10
99.3689874223
 20
39.0851405678
 10
99.3626076635
 20
39.0691039612
 10
99.3520960901
 20
39.0536209128
 10
99.3376325579
 20
39.0389563419
 10
99.319464542
 20
39.0253611632
 10
99.2979029023
 20
39.0130679942
  0
LINE
  5
352
100
AcDbEntity
  8
RACCORDO
100
AcDbLine
 62
250
  6
CONTINUOUS
 10
82.7403211728
 20
85.960464252
 11
82.7269709185
 21
85.9601770767
  0
LWPOLYLINE
  5
353
100
AcDbEntity
  8
RACCORDO
100
AcDbPolyline
 62
250
  6
CONTINUOUS
 90
4
 70
0
 10
85.295768612
 20
85.6230926241
 10
85.3120742988
 20
85.6210884159
 10
85.3293140661
 20
85.6222140748
 10
85.3471994463
 20
85.6264507562
  0
LINE
  5
354
100
AcDbEntity
  8
RACCORDO
100
AcDbLine
 62
7
  6
CONTINUOUS
 10
83.5847869464
 20
85.7777545027
 11
84.1151170323
 21
85.6679195456
  0
LINE
  5
355
100
AcDbEntity
  8
RACCORDO
100
AcDbLine
 62
250
  6
CONTINUOUS
 10
83.8122643943
 20
85.934171044
 11
84.3425944802
 21
85.824336087
  0
LWPOLYLINE
  5
356
100
AcDbEntity
  8
RACCORDO
100
AcDbPolyline
 62
7
  6
CONTINUOUS
 90
25
 70
0
 10
93.2895257418
 20
82.0410263872
 10
93.3136881029
 20
82.0297349936
 10
93.3390439874
 20
82.0193381104
 10
93.3655933954
 20
82.0098357378
 10
93.3934607884
 20
82.0011946989
 10
93.4225217049
 20
81.9934481705
 10
93.4524027598
 20
81.9866956827
 10
93.4831145359
 20
81.9809500622
 10
93.5146464504
 20
81.9761984824
 10
93.5465933701
 20
81.9725019931
 10
93.5789606501
 20
81.969874209
 10
93.6117429352
 20
81.9683015155
 10
93.644519027
 20
81.9678041191
 10
93.6772888456
 20
81.9683958951
 10
93.710052471
 20
81.9700629682
 10
93.7423889443
 20
81.9727839193
 10
93.7742927539
 20
81.9765723472
 10
93.8057694114
 20
81.9814146532
 10
93.8364144937
 20
81.9872486214
 10
93.8662172703
 20
81.994087048
 10
93.8951884717
 20
82.0019171369
 10
93.9229558654
 20
82.0106382844
 10
93.9493953742
 20
82.0202169558
 10
93.9746310753
 20
82.0306866858
 10
93.9986629689
 20
82.0420474743
  0
LWPOLYLINE
  5
357
100
AcDbEntity
  8
RACCORDO
100
AcDbPolyline
 62
250
  6
CONTINUOUS
 90
3
 70
0
 10
85.2784565938
 20
85.6292548943
 10
85.2806698468
 20
85.6281931735
 10
85.295768612
 20
85.6230926241
  0
LINE
  5
358
100
AcDbEntity
  8
RACCORDO
100
AcDbLine
 62
7
  6
CONTINUOUS
 10
96.8880024645
 20
79.1167935117
 11
95.5444995803
 21
79.7885449539
  0
LINE
  5
359
100
AcDbEntity
  8
RACCORDO
100
AcDbLine
 62
7
  6
CONTINUOUS
 10
83.5236843001
 20
85.7989525939
 11
82.1801814158
 21
86.4707040361
  0
LINE
  5
35A
100
AcDbEntity
  8
RACCORDO
100
AcDbLine
 62
250
  6
CONTINUOUS
 10
83.7571547172
 20
85.7420559685
 11
84.1658177849
 21
85.5377244346
  0
LINE
  5
35B
100
AcDbEntity
  8
RACCORDO
100
AcDbLine
 62
250
  6
CONTINUOUS
 10
97.1214728816
 20
79.0598968863
 11
97.5301359493
 21
78.8555653524
  0
LINE
  5
35C
100
AcDbEntity
  8
RACCORDO
100
AcDbLine
 62
250
  6
CONTINUOUS
 10
96.8230291681
 20
79.2520119618
 11
95.4795262839
 21
79.923763404
  0
LINE
  5
35D
100
AcDbEntity
  8
RACCORDO
100
AcDbLine
 62
250
  6
CONTINUOUS
 10
83.4587110037
 20
85.934171044
 11
82.1152081194
 21
86.6059224862
  0
LINE
  5
35E
100
AcDbEntity
  8
RACCORDO
100
AcDbLine
 62
250
  6
CONTINUOUS
 10
82.1152081194
 20
86.9572364583
 11
83.4587110037
 21
86.2854850161
  0
LINE
  5
35F
100
AcDbEntity
  8
RACCORDO
100
AcDbLine
 62
250
  6
CONTINUOUS
 10
95.4795262839
 20
80.275077376
 11
96.8230291681
 21
79.6033259339
  0
LINE
  5
360
100
AcDbEntity
  8
RACCORDO
100
AcDbLine
 62
250
  6
CONTINUOUS
 10
98.7297493343
 20
78.9515684781
 11
98.6702009768
 21
78.9813426568
  0
LINE
  5
361
100
AcDbEntity
  8
RACCORDO
100
AcDbLine
 62
250
  6
CONTINUOUS
 10
85.3058646106
 20
85.6635108399
 11
85.3654311699
 21
85.6337275603
  0
LINE
  5
362
100
AcDbEntity
  8
RACCORDO
100
AcDbLine
 62
250
  6
CONTINUOUS
 10
82.2919848147
 20
87.2621311568
 11
83.635487699
 21
86.5903797147
  0
LINE
  5
363
100
AcDbEntity
  8
RACCORDO
100
AcDbLine
 62
250
  6
CONTINUOUS
 10
95.6563029791
 20
80.5799720746
 11
96.9998058634
 21
79.9082206325
  0
LINE
  5
364
100
AcDbEntity
  8
RACCORDO
100
AcDbLine
 62
7
  6
CONTINUOUS
 10
93.2895257418
 20
82.0410263872
 11
87.7700318893
 21
84.8007733134
  0
LINE
  5
365
100
AcDbEntity
  8
RACCORDO
100
AcDbLine
 62
7
  6
CONTINUOUS
 10
85.3590453329
 20
86.192928059
 11
86.7697702805
 21
85.4875655852
  0
LINE
  5
366
100
AcDbEntity
  8
RACCORDO
100
AcDbLine
 62
7
  6
CONTINUOUS
 10
98.7233634973
 20
79.5107689768
 11
99.4745180375
 21
79.1351917067
  0
LINE
  5
367
100
AcDbEntity
  8
0
100
AcDbLine
 62
7
  6
CONTINUOUS
 10
94.4188661121
 20
82.8905697644
 11
89.4691186438
 21
85.3654434985
  0
LINE
  5
368
100
AcDbEntity
  8
RACCORDO
100
AcDbLine
 62
250
  6
CONTINUOUS
 10
96.1689934569
 20
79.235174412
 11
96.186633065
 21
79.2254133348
  0
LWPOLYLINE
  5
369
100
AcDbEntity
  8
RACCORDO
100
AcDbPolyline
 62
250
  6
CONTINUOUS
 90
16
 70
0
 10
85.3654311699
 20
85.6337275603
 10
85.3976293608
 20
85.6156759261
 10
85.4253730062
 20
85.5966486587
 10
85.4486621059
 20
85.576645758
 10
85.4676109655
 20
85.555433234
 10
85.4821052795
 20
85.5332450768
 10
85.4918021313
 20
85.5107832565
 10
85.4965854244
 20
85.4880629262
 10
85.4965712553
 20
85.4650689329
 10
85.491764996
 20
85.4424577868
 10
85.4820526267
 20
85.4202191313
 10
85.4675481672
 20
85.3983633231
 10
85.4485990487
 20
85.3775779426
 10
85.4253210815
 20
85.3580921831
 10
85.3975984552
 20
85.3396768513
 10
85.3654311699
 20
85.3223319471
  0
LWPOLYLINE
  5
36A
100
AcDbEntity
  8
RACCORDO
100
AcDbPolyline
 62
250
  6
CONTINUOUS
 90
9
 70
0
 10
95.5444995803
 20
79.7885449539
 10
95.5348387022
 20
79.7941153089
 10
95.5206817661
 20
79.8054695143
 10
95.5083584341
 20
79.8196737096
 10
95.4980631192
 20
79.8365164338
 10
95.4899725506
 20
79.8556633977
 10
95.4841708612
 20
79.8767825391
 10
95.4806852492
 20
79.8995917378
 10
95.4795262839
 20
79.923763404
  0
LWPOLYLINE
  5
36B
100
AcDbEntity
  8
RACCORDO
100
AcDbPolyline
 62
250
  6
CONTINUOUS
 90
9
 70
0
 10
96.8880024645
 20
79.1167935117
 10
96.8783415865
 20
79.1223638667
 10
96.8641846503
 20
79.1337180721
 10
96.8518613184
 20
79.1479222675
 10
96.8415660035
 20
79.1647649917
 10
96.8334754348
 20
79.1839119556
 10
96.8276737454
 20
79.2050310969
 10
96.8241881334
 20
79.2278402957
 10
96.8230291681
 20
79.2520119618
  0
LWPOLYLINE
  5
36C
100
AcDbEntity
  8
RACCORDO
100
AcDbPolyline
 62
250
  6
CONTINUOUS
 90
13
 70
0
 10
96.9998058634
 20
79.9082206325
 10
97.0223666296
 20
79.895169824
 10
97.044714484
 20
79.8786634662
 10
97.066466832
 20
79.8589067957
 10
97.0872847777
 20
79.8361134949
 10
97.1067318258
 20
79.8106614447
 10
97.1243203213
 20
79.7831425258
 10
97.1397133916
 20
79.7541003275
 10
97.1526855461
 20
79.723979104
 10
97.1630093332
 20
79.6933107509
 10
97.1705085114
 20
79.6626293682
 10
97.175058019
 20
79.6324611295
 10
97.1765825587
 20
79.6033259339
  0
LWPOLYLINE
  5
36D
100
AcDbEntity
  8
RACCORDO
100
AcDbPolyline
 62
250
  6
CONTINUOUS
 90
13
 70
0
 10
83.635487699
 20
86.5903797147
 10
83.6585616879
 20
86.5769904784
 10
83.6812408745
 20
86.560125852
 10
83.7031372115
 20
86.5400743938
 10
83.7238760466
 20
86.5171791899
 10
83.7431025326
 20
86.4918319837
 10
83.760487699
 20
86.4644664727
 10
83.7757340807
 20
86.4355508885
 10
83.7885808079
 20
86.4055799848
 10
83.7988080696
 20
86.375066572
 10
83.8062408745
 20
86.344532743
 10
83.8107520451
 20
86.3145009403
 10
83.8122643943
 20
86.2854850161
  0
LWPOLYLINE
  5
36E
100
AcDbEntity
  8
RACCORDO
100
AcDbPolyline
 62
250
  6
CONTINUOUS
 90
13
 70
0
 10
85.7568080425
 20
87.6510398865
 10
85.7798820314
 20
87.6376506502
 10
85.802561218
 20
87.6207860238
 10
85.8244575551
 20
87.6007345656
 10
85.8451963902
 20
87.5778393617
 10
85.8644228762
 20
87.5524921554
 10
85.8818080425
 20
87.5251266445
 10
85.8970544242
 20
87.4962110603
 10
85.9099011515
 20
87.4662401566
 10
85.9201284131
 20
87.4357267438
 10
85.927561218
 20
87.4051929148
 10
85.9320723887
 20
87.3751611121
 10
85.9335847378
 20
87.3461451879
  0
LWPOLYLINE
  5
36F
100
AcDbEntity
  8
RACCORDO
100
AcDbPolyline
 62
250
  6
CONTINUOUS
 90
16
 70
0
 10
97.5645313744
 20
78.2530590931
 10
97.6008308461
 20
78.2318738546
 10
97.6366573109
 20
78.2061410721
 10
97.6716182394
 20
78.176144468
 10
97.705328698
 20
78.1422153509
 10
97.737421942
 20
78.1047261277
 10
97.7675527459
 20
78.0640848641
 10
97.7953927479
 20
78.0207354296
 10
97.8206348809
 20
77.9751539643
 10
97.8430026274
 20
77.9278399194
 10
97.8622508392
 20
77.8793116968
 10
97.878168561
 20
77.8301010178
 10
97.8905814501
 20
77.7807471246
 10
97.8993534733
 20
77.7317908009
 10
97.9043884017
 20
77.6837684473
 10
97.9056309969
 20
77.63720625
  0
LWPOLYLINE
  5
370
100
AcDbEntity
  8
RACCORDO
100
AcDbPolyline
 62
250
  6
CONTINUOUS
 90
16
 70
0
 10
98.8489729247
 20
78.8462932623
 10
98.8852520778
 20
78.8251160201
 10
98.9210659561
 20
78.7993918036
 10
98.9560220249
 20
78.7694025609
 10
98.9897371516
 20
78.7354769871
 10
99.0218418047
 20
78.6979869206
 10
99.0519841044
 20
78.6573432684
 10
99.0798336789
 20
78.6139915021
 10
99.1050852857
 20
78.5684067753
 10
99.1274621571
 20
78.5210887159
 10
99.1467190337
 20
78.4725559496
 10
99.1626448526
 20
78.4233404161
 10
99.1750650605
 20
78.3739815382
 10
99.1838435273
 20
78.3250203101
 10
99.1888840377
 20
78.2769933675
 10
99.1901313461
 20
78.2304271057
  0
LWPOLYLINE
  5
371
100
AcDbEntity
  8
RACCORDO
100
AcDbPolyline
 62
250
  6
CONTINUOUS
 90
13
 70
0
 10
98.6850064455
 20
78.6716197495
 10
98.6714207606
 20
78.6850976349
 10
98.6584919956
 20
78.6999746513
 10
98.6463598469
 20
78.7160900496
 10
98.6351554047
 20
78.7332696973
 10
98.6249997317
 20
78.7513279679
 10
98.6160025562
 20
78.7700697482
 10
98.6082610932
 20
78.7892925347
 10
98.6018589926
 20
78.80878862
 10
98.5968654308
 20
78.8283473454
 10
98.5933343647
 20
78.8477573761
 10
98.5913039483
 20
78.8668089845
 10
98.5907961211
 20
78.8852963153
  0
LWPOLYLINE
  5
372
100
AcDbEntity
  8
RACCORDO
100
AcDbPolyline
 62
250
  6
CONTINUOUS
 90
13
 70
0
 10
98.6850066513
 20
78.6716206471
 10
98.7182982901
 20
78.6375975568
 10
98.7499529151
 20
78.6000777008
 10
98.7796282948
 20
78.559466714
 10
98.8070035971
 20
78.5162036512
 10
98.8317828583
 20
78.4707562401
 10
98.8536981831
 20
78.423615825
 10
98.8725126408
 20
78.3752920545
 10
98.8880228275
 20
78.3263073717
 10
98.9000610649
 20
78.2771913663
 10
98.9084972133
 20
78.2284750487
 10
98.9132400788
 20
78.1806851095
 10
98.9142383993
 20
78.134338225
  0
LWPOLYLINE
  5
373
100
AcDbEntity
  8
RACCORDO
100
AcDbPolyline
 62
250
  6
CONTINUOUS
 90
13
 70
0
 10
97.9743950805
 20
78.3364649957
 10
97.9612466997
 20
78.3499977218
 10
97.9487569441
 20
78.364837575
 10
97.9370553682
 20
78.3808315995
 10
97.9262629333
 20
78.3978156782
 10
97.9164924576
 20
78.4156135874
 10
97.9078468852
 20
78.4340384284
 10
97.9004161071
 20
78.4528983969
 10
97.8942765927
 20
78.4719991326
 10
97.8894919192
 20
78.4911428397
 10
97.8861116341
 20
78.510131277
 10
97.8841707414
 20
78.5287678115
 10
97.8836893399
 20
78.5468594543
  0
LWPOLYLINE
  5
374
100
AcDbEntity
  8
RACCORDO
100
AcDbPolyline
 62
250
  6
CONTINUOUS
 90
13
 70
0
 10
97.9743950805
 20
78.3364649957
 10
98.0066187679
 20
78.3022908811
 10
98.037195228
 20
78.2648532867
 10
98.0658077163
 20
78.2245400319
 10
98.0921598336
 20
78.1817687254
 10
98.1159785957
 20
78.1369824391
 10
98.137017262
 20
78.0906451182
 10
98.1550578911
 20
78.0432367752
 10
98.1699135983
 20
77.9952485176
 10
98.1814304921
 20
77.94717746
 10
98.1894892679
 20
77.899521575
 10
98.194006444
 20
77.8527745341
 10
98.1949352268
 20
77.8074205944
  0
LWPOLYLINE
  5
375
100
AcDbEntity
  8
RACCORDO
100
AcDbPolyline
 62
250
  6
CONTINUOUS
 90
7
 70
0
 10
98.8489730263
 20
78.8462933092
 10
98.8374337081
 20
78.8658160559
 10
98.8225618711
 20
78.8845480485
 10
98.8043575152
 20
78.9024892871
 10
98.7828206404
 20
78.9196397715
 10
98.7579512468
 20
78.9359995018
 10
98.7297493343
 20
78.9515684781
  0
LINE
  5
376
100
AcDbEntity
  8
RACCORDO
100
AcDbLine
 62
7
  6
CONTINUOUS
 10
104.0268430709
 20
81.8993622993
 11
104.0268430709
 21
81.0043994358
  0
LINE
  5
377
100
AcDbEntity
  8
RACCORDO
100
AcDbLine
 62
7
  6
CONTINUOUS
 10
104.0268430709
 20
48.0880895378
 11
104.0268430709
 21
46.4463135477
  0
LINE
  5
378
100
AcDbEntity
  8
RACCORDO
100
AcDbLine
 62
7
  6
CONTINUOUS
 10
104.7606205259
 20
82.5610021838
 11
104.7606205259
 21
82.2792866984
  0
LINE
  5
379
100
AcDbEntity
  8
RACCORDO
100
AcDbLine
 62
7
  6
CONTINUOUS
 10
104.7606205259
 20
46.0794248202
 11
104.7606205259
 21
45.7977093348
  0
LWPOLYLINE
  5
37A
100
AcDbEntity
  8
RACCORDO
100
AcDbPolyline
 62
250
  6
CONTINUOUS
 90
13
 70
0
 10
98.7675728164
 20
39.1229029513
 10
98.7775974617
 20
39.1539012841
 10
98.7844258843
 20
39.185881576
 10
98.7879412479
 20
39.2182966353
 10
98.7880834038
 20
39.2505918314
 10
98.7848499196
 20
39.2822145844
 10
98.7782961211
 20
39.3126238204
 10
98.7685341456
 20
39.3412992288
 10
98.7557310232
 20
39.3677501655
 10
98.7401058189
 20
39.3915240477
 10
98.7219258843
 20
39.4122140975
 10
98.7015022831
 20
39.4294663025
 10
98.6791844687
 20
39.4429854728
  0
LWPOLYLINE
  5
37B
100
AcDbEntity
  8
RACCORDO
100
AcDbPolyline
 62
250
  6
CONTINUOUS
 90
7
 70
0
 10
85.8684269393
 20
87.6582323309
 10
85.8637340049
 20
87.660406661
 10
85.8442869569
 20
87.6664116632
 10
85.8234690112
 20
87.6683870183
 10
85.8017166631
 20
87.6663913408
 10
85.7793688088
 20
87.6605498443
 10
85.7568080425
 20
87.6510398865
  0
LWPOLYLINE
  5
37C
100
AcDbEntity
  8
RACCORDO
100
AcDbPolyline
 62
250
  6
CONTINUOUS
 90
7
 70
0
 10
84.5251085572
 20
88.3298917754
 10
84.5202311206
 20
88.3321581032
 10
84.5007840726
 20
88.3381631053
 10
84.4799661269
 20
88.3401384604
 10
84.4582137789
 20
88.3381427829
 10
84.4358659245
 20
88.3323012864
 10
84.4133051583
 20
88.3227913286
  0
LWPOLYLINE
  5
37D
100
AcDbEntity
  8
RACCORDO
100
AcDbPolyline
 62
250
  6
CONTINUOUS
 90
7
 70
0
 10
99.2329296058
 20
80.9759812511
 10
99.2287410406
 20
80.9779479069
 10
99.2095145546
 20
80.9840686272
 10
99.1887757195
 20
80.9862249959
 10
99.1668793824
 20
80.984380117
 10
99.1442001959
 20
80.9785655569
 10
99.121126207
 20
80.9688808043
  0
LWPOLYLINE
  5
37E
100
AcDbEntity
  8
RACCORDO
100
AcDbPolyline
 62
250
  6
CONTINUOUS
 90
7
 70
0
 10
97.8894267216
 20
81.6477326932
 10
97.8852381564
 20
81.649699349
 10
97.8660116704
 20
81.6558200693
 10
97.8452728352
 20
81.657976438
 10
97.8233764982
 20
81.6561315591
 10
97.8006973116
 20
81.650316999
 10
97.7776233227
 20
81.6406322464
  0
LINE
  5
37F
100
AcDbEntity
  8
RACCORDO
100
AcDbLine
 62
250
  6
CONTINUOUS
 10
85.8686114414
 20
87.6581403333
 11
85.8684269393
 21
87.6582323309
  0
LINE
  5
380
100
AcDbEntity
  8
RACCORDO
100
AcDbLine
 62
250
  6
CONTINUOUS
 10
84.4133051583
 20
88.3227913286
 11
85.7568080425
 21
87.6510398865
  0
LINE
  5
381
100
AcDbEntity
  8
RACCORDO
100
AcDbLine
 62
250
  6
CONTINUOUS
 10
97.7776233227
 20
81.6406322464
 11
99.121126207
 21
80.9688808043
  0
LINE
  5
382
100
AcDbEntity
  8
RACCORDO
100
AcDbLine
 62
7
  6
CONTINUOUS
 10
84.5251085572
 20
88.3298917754
 11
85.8686114414
 21
87.6581403333
  0
LINE
  5
383
100
AcDbEntity
  8
RACCORDO
100
AcDbLine
 62
7
  6
CONTINUOUS
 10
97.8894267216
 20
81.6477326932
 11
99.2329296058
 21
80.9759812511
  0
LWPOLYLINE
  5
384
100
AcDbEntity
  8
RACCORDO
100
AcDbPolyline
 62
250
  6
CONTINUOUS
 90
13
 70
0
 10
99.121126207
 20
80.9688808043
 10
99.1436869732
 20
80.9558299958
 10
99.1660348276
 20
80.939323638
 10
99.1877871756
 20
80.9195669674
 10
99.2086051213
 20
80.8967736667
 10
99.2280521693
 20
80.8713216165
 10
99.2456406648
 20
80.8438026976
 10
99.2610337352
 20
80.8147604993
 10
99.2740058897
 20
80.7846392758
 10
99.2843296767
 20
80.7539709227
 10
99.2918288549
 20
80.72328954
 10
99.2963783626
 20
80.6931213013
 10
99.2979029023
 20
80.6639861057
  0
LWPOLYLINE
  5
385
100
AcDbEntity
  8
RACCORDO
100
AcDbPolyline
 62
250
  6
CONTINUOUS
 90
7
 70
0
 10
98.7675728164
 20
79.6725070907
 10
98.7775974617
 20
79.6545581014
 10
98.7844258843
 20
79.6384285735
 10
98.7879412479
 20
79.6243944876
 10
98.7880834038
 20
79.6126959708
 10
98.7848499196
 20
79.6035331879
 10
98.7833151592
 20
79.6014074451
  0
LWPOLYLINE
  5
386
100
AcDbEntity
  8
RACCORDO
100
AcDbPolyline
 62
250
  6
CONTINUOUS
 90
7
 70
0
 10
99.2979029023
 20
80.3126721336
 10
99.3079275476
 20
80.2947231444
 10
99.3147559702
 20
80.2785936164
 10
99.3182713338
 20
80.2645595305
 10
99.3184134897
 20
80.2528610137
 10
99.3151800055
 20
80.2436982309
 10
99.3136452451
 20
80.2415724881
  0
LWPOLYLINE
  5
387
100
AcDbEntity
  8
RACCORDO
100
AcDbPolyline
 62
250
  6
CONTINUOUS
 90
5
 70
0
 10
99.2979029023
 20
39.0130679942
 10
99.3078665358
 20
39.043838667
 10
99.3146924976
 20
39.0756530367
 10
99.3182435563
 20
39.1079768842
 10
99.3184359353
 20
39.1402851349
  0
LWPOLYLINE
  5
388
100
AcDbEntity
  8
RACCORDO
100
AcDbPolyline
 62
250
  6
CONTINUOUS
 90
7
 70
0
 10
98.6569783629
 20
39.7963599684
 10
98.6557019917
 20
39.7931722553
 10
98.6477058831
 20
39.7800951497
 10
98.6371143953
 20
39.7674364661
 10
98.6240124359
 20
39.7553366239
 10
98.608523263
 20
39.7439274381
 10
98.5907961211
 20
39.7333370314
  0
LWPOLYLINE
  5
389
100
AcDbEntity
  8
RACCORDO
100
AcDbPolyline
 62
250
  6
CONTINUOUS
 90
6
 70
0
 10
97.8943289547
 20
39.4270908768
 10
97.8942740686
 20
39.4269790144
 10
97.8894905051
 20
39.4130918276
 10
97.8861110201
 20
39.3979712279
 10
97.8841706017
 20
39.3817737582
 10
97.8836893399
 20
39.3646671111
  0
LWPOLYLINE
  5
38A
100
AcDbEntity
  8
RACCORDO
100
AcDbPolyline
 62
250
  6
CONTINUOUS
 90
10
 70
0
 10
96.0982447174
 20
39.4960184813
 10
96.1154200922
 20
39.5184414033
 10
96.1311678987
 20
39.5424990591
 10
96.1452751748
 20
39.5678661103
 10
96.157551144
 20
39.594199511
 10
96.1678297947
 20
39.6211431472
 10
96.1759721258
 20
39.6483326524
 10
96.1818680263
 20
39.6754003352
 10
96.1854377643
 20
39.7019801516
 10
96.186633065
 20
39.7277126552
  0
LWPOLYLINE
  5
38B
100
AcDbEntity
  8
RACCORDO
100
AcDbPolyline
 62
7
  6
CONTINUOUS
 90
13
 70
0
 10
95.9941140269
 20
39.5122006484
 10
96.0114613994
 20
39.5344232004
 10
96.0281934749
 20
39.5585484593
 10
96.0440122038
 20
39.5842823578
 10
96.0586870013
 20
39.6113691519
 10
96.0719269058
 20
39.639356188
 10
96.0834318115
 20
39.6675797978
 10
96.0930889519
 20
39.6956090956
 10
96.1008398077
 20
39.7230261009
 10
96.1066270507
 20
39.7491631625
 10
96.1105334124
 20
39.7735544825
 10
96.1127288341
 20
39.7959581359
 10
96.1134097603
 20
39.8161010028
  0
LINE
  5
38C
100
AcDbEntity
  8
DRAFT
100
AcDbLine
 62
7
  6
CONTINUOUS
 10
99.8282329882
 20
44.3100452175
 11
104.0268430709
 21
46.4463135477
  0
LINE
  5
38D
100
AcDbEntity
  8
RACCORDO
100
AcDbLine
 62
250
  6
CONTINUOUS
 10
94.8205594291
 20
43.7468765253
 11
95.8529238658
 21
44.2236566336
  0
LINE
  5
38E
100
AcDbEntity
  8
RACCORDO
100
AcDbLine
 62
7
  6
CONTINUOUS
 10
94.7995361665
 20
43.5266631786
 11
95.7525763372
 21
43.9668087121
  0
LWPOLYLINE
  5
38F
100
AcDbEntity
  8
RACCORDO
100
AcDbPolyline
 62
7
  6
CONTINUOUS
 90
12
 70
0
 10
94.2889217222
 20
87.6777403295
 10
94.2805101874
 20
87.6816739321
 10
94.2617364611
 20
87.6887766087
 10
94.2421132738
 20
87.6938975266
 10
94.2216513694
 20
87.6970617509
 10
94.2006117465
 20
87.6982289206
 10
94.1789870048
 20
87.697373454
 10
94.1567845447
 20
87.6945209329
 10
94.1342875663
 20
87.6897077421
 10
94.1115904697
 20
87.6829460102
 10
94.0885988547
 20
87.6742236086
 10
94.0653127215
 20
87.6635405374
  0
LWPOLYLINE
  5
390
100
AcDbEntity
  8
RACCORDO
100
AcDbPolyline
 62
7
  6
CONTINUOUS
 90
12
 70
0
 10
96.6338675334
 20
87.0353058868
 10
96.6227195348
 20
87.0406240444
 10
96.5858704511
 20
87.0552904954
 10
96.5473333167
 20
87.0660906857
 10
96.5071290174
 20
87.0730724512
 10
96.4657591227
 20
87.0761486906
 10
96.4232090307
 20
87.075270477
 10
96.3794933435
 20
87.0704867374
 10
96.3351574371
 20
87.0618571513
 10
96.2903831038
 20
87.0494016121
 10
96.2449885514
 20
87.0331002264
 10
96.19897378
 20
87.0129529944
  0
LINE
  5
391
100
AcDbEntity
  8
0
100
AcDbLine
 62
7
  6
CONTINUOUS
 10
95.0464689426
 20
85.9819119094
 11
97.8240096724
 21
84.5931415445
  0
LINE
  5
392
100
AcDbEntity
  8
RACCORDO
100
AcDbLine
 62
250
  6
CONTINUOUS
 10
93.4594617764
 20
87.9664660099
 11
94.0653127215
 21
87.6635405374
  0
LINE
  5
393
100
AcDbEntity
  8
RACCORDO
100
AcDbLine
 62
250
  6
CONTINUOUS
 10
99.0150601898
 20
85.1886668032
 11
99.6209111349
 21
84.8857413307
  0
LINE
  5
394
100
AcDbEntity
  8
0
100
AcDbLine
 62
7
  6
CONTINUOUS
 10
100.0673735619
 20
84.7125127208
 11
99.9497801425
 21
84.7713094305
  0
LINE
  5
395
100
AcDbEntity
  8
0
100
AcDbLine
 62
7
  6
CONTINUOUS
 10
99.0706851579
 20
85.2108569227
 11
96.8937398462
 21
86.2993295786
  0
LINE
  5
396
100
AcDbEntity
  8
RACCORDO
100
AcDbLine
 62
7
  6
CONTINUOUS
 10
93.6843564711
 20
87.9800229551
 11
94.2889195192
 21
87.677741431
  0
LINE
  5
397
100
AcDbEntity
  8
RACCORDO
100
AcDbLine
 62
7
  6
CONTINUOUS
 10
99.2386669875
 20
85.2028676968
 11
99.8432300357
 21
84.9005861728
  0
LINE
  5
398
100
AcDbEntity
  8
RACCORDO
100
AcDbLine
 62
250
  6
CONTINUOUS
 10
93.0347732651
 20
88.5950532518
 11
96.19897378
 21
87.0129529944
  0
LINE
  5
399
100
AcDbEntity
  8
RACCORDO
100
AcDbLine
 62
250
  6
CONTINUOUS
 10
100.4416144671
 20
84.8916326508
 11
103.6058149819
 21
83.3095323934
  0
LINE
  5
39A
100
AcDbEntity
  8
RACCORDO
100
AcDbLine
 62
7
  6
CONTINUOUS
 10
93.3103696178
 20
88.6970548454
 11
96.6338466605
 21
87.035316324
  0
LINE
  5
39B
100
AcDbEntity
  8
RACCORDO
100
AcDbLine
 62
7
  6
CONTINUOUS
 10
100.8764873477
 20
84.9139959805
 11
104.1999643904
 21
83.2522574591
  0
LWPOLYLINE
  5
39C
100
AcDbEntity
  8
RACCORDO
100
AcDbPolyline
 62
250
  6
CONTINUOUS
 90
10
 70
0
 10
97.4417476016
 20
38.8242670392
 10
97.4589229764
 20
38.8466899611
 10
97.4746707829
 20
38.8707476169
 10
97.4887780591
 20
38.8961146681
 10
97.5010540283
 20
38.9224480689
 10
97.511332679
 20
38.9493917051
 10
97.5194750101
 20
38.9765812103
 10
97.5253709106
 20
39.003648893
 10
97.5289406485
 20
39.0302287094
 10
97.5301359493
 20
39.055961213
  0
LWPOLYLINE
  5
39D
100
AcDbEntity
  8
RACCORDO
100
AcDbPolyline
 62
250
  6
CONTINUOUS
 90
13
 70
0
 10
97.7069126446
 20
38.5925728654
 10
97.7332910771
 20
38.6264827164
 10
97.7577414126
 20
38.6616979722
 10
97.7802636511
 20
38.6982186329
 10
97.8009819691
 20
38.7363163989
 10
97.8197721902
 20
38.7757195698
 10
97.8362617845
 20
38.815613044
 10
97.8504173827
 20
38.8560095227
 10
97.8622723542
 20
38.8968963047
 10
97.8715542778
 20
38.9374201852
 10
97.8781723464
 20
38.9772967627
 10
97.8822173671
 20
39.0168104386
 10
97.8836893399
 20
39.055961213
  0
LINE
  5
39E
100
AcDbEntity
  8
RACCORDO
100
AcDbLine
 62
7
  6
CONTINUOUS
 10
95.4637839411
 20
38.8720356054
 11
95.9941140269
 21
39.5122006484
  0
LINE
  5
39F
100
AcDbEntity
  8
RACCORDO
100
AcDbLine
 62
250
  6
CONTINUOUS
 10
95.5679146315
 20
38.8558534384
 11
96.0982447174
 21
39.4960184813
  0
LINE
  5
3A0
100
AcDbEntity
  8
RACCORDO
100
AcDbLine
 62
250
  6
CONTINUOUS
 10
97.4417476016
 20
38.8242670392
 11
96.9114175158
 21
38.1841019963
  0
LINE
  5
3A1
100
AcDbEntity
  8
RACCORDO
100
AcDbLine
 62
250
  6
CONTINUOUS
 10
97.7069126446
 20
38.5925728654
 11
97.1765825587
 21
37.9524078224
  0
LWPOLYLINE
  5
3A2
100
AcDbEntity
  8
RACCORDO
100
AcDbPolyline
 62
250
  6
CONTINUOUS
 90
8
 70
0
 10
95.4637839411
 20
38.8720356054
 10
95.468722856
 20
38.8763301203
 10
95.4784734319
 20
38.8800289485
 10
95.4912770988
 20
38.8808523041
 10
95.5069133507
 20
38.8787862166
 10
95.5251131678
 20
38.8738665963
 10
95.5455640215
 20
38.866178236
 10
95.5679146315
 20
38.8558534384
  0
LWPOLYLINE
  5
3A3
100
AcDbEntity
  8
RACCORDO
100
AcDbPolyline
 62
250
  6
CONTINUOUS
 90
8
 70
0
 10
95.9941140269
 20
39.5122006484
 10
95.999133065
 20
39.5165451766
 10
96.0088950405
 20
39.5202122279
 10
96.0216981629
 20
39.521013315
 10
96.0373233672
 20
39.5189347311
 10
96.0555033018
 20
39.5140120415
 10
96.075926903
 20
39.5063294746
 10
96.0982447174
 20
39.4960184813
  0
LINE
  5
3A4
100
AcDbEntity
  8
DRAFT
100
AcDbLine
 62
7
  6
CONTINUOUS
 10
99.8282329882
 20
43.5256064128
 11
104.7606205259
 21
46.0794248202
  0
LINE
  5
3A5
100
AcDbEntity
  8
RACCORDO
100
AcDbLine
 62
7
  6
CONTINUOUS
 10
99.8282329882
 20
42.9110965587
 11
103.6058149819
 21
44.8144525366
  0
LINE
  5
3A6
100
AcDbEntity
  8
RACCORDO
100
AcDbLine
 62
7
  6
CONTINUOUS
 10
99.8282329882
 20
43.048746241
 11
104.7171522936
 21
45.4736862581
  0
LWPOLYLINE
  5
3A7
100
AcDbEntity
  8
0
100
AcDbPolyline
 62
250
  6
CONTINUOUS
 90
16
 70
0
 10
89.7516700389
 20
37.638094656
 10
89.6891886766
 20
37.6152039589
 10
89.6215335381
 20
37.5956058502
 10
89.5494213936
 20
37.5795079933
 10
89.4736162402
 20
37.567080968
 10
89.3949212169
 20
37.5584564645
 10
89.314170096
 20
37.5537258866
 10
89.2322184301
 20
37.5529393805
 10
89.1499345117
 20
37.5561053047
 10
89.0681901823
 20
37.5631901377
 10
88.987851545
 20
37.5741188354
 10
88.9097698259
 20
37.5887756256
 10
88.8347723764
 20
37.6070052258
 10
88.7636538466
 20
37.6286144975
 10
88.6971677696
 20
37.6533744974
 10
88.6360186131
 20
37.681022895
  0
LWPOLYLINE
  5
3A8
100
AcDbEntity
  8
RACCORDO
100
AcDbPolyline
 62
7
  6
CONTINUOUS
 90
7
 70
0
 10
97.8965674427
 20
39.427775604
 10
97.923555308
 20
39.4363884408
 10
97.9522337025
 20
39.4461805633
 10
97.9820068624
 20
39.4572221916
 10
98.0123438268
 20
39.4695373771
 10
98.0430097686
 20
39.4831995378
 10
98.0752521006
 20
39.498947378
  0
LINE
  5
3A9
100
AcDbEntity
  8
0
100
AcDbLine
 62
250
  6
CONTINUOUS
 10
90.1941313405
 20
37.2126870475
 11
94.3217399816
 21
38.5218692545
  0
LINE
  5
3AA
100
AcDbEntity
  8
0
100
AcDbLine
 62
7
  6
CONTINUOUS
 10
89.8852042601
 20
36.7380096759
 11
94.0102381121
 21
38.0463752192
  0
LWPOLYLINE
  5
3AB
100
AcDbEntity
  8
RACCORDO
100
AcDbPolyline
 62
250
  6
CONTINUOUS
 90
17
 70
0
 10
98.0290255229
 20
39.7049278
 10
98.0568354165
 20
39.7136116658
 10
98.0696419546
 20
39.7175431617
 10
98.0817250311
 20
39.7211850428
 10
98.0931953911
 20
39.724701459
 10
98.1040431128
 20
39.7281145229
 10
98.1142781179
 20
39.7314021218
 10
98.1240409164
 20
39.7346620669
 10
98.1333402375
 20
39.7379131058
 10
98.142167352
 20
39.741136491
 10
98.1506365824
 20
39.7443737904
 10
98.1587548664
 20
39.7476333373
 10
98.1665152664
 20
39.7509067986
 10
98.174011292
 20
39.7542107428
 10
98.1812741131
 20
39.7575506927
 10
98.1882725598
 20
39.7609211255
 10
98.1950066322
 20
39.7643220411
  0
LINE
  5
3AC
100
AcDbEntity
  8
RACCORDO
100
AcDbLine
 62
250
  6
CONTINUOUS
 10
99.0153806046
 20
40.1938631386
 11
99.0500152646
 21
40.2173755997
  0
LWPOLYLINE
  5
3AD
100
AcDbEntity
  8
RACCORDO
100
AcDbPolyline
 62
250
  6
CONTINUOUS
 90
9
 70
0
 10
99.0500152646
 20
40.2173755997
 10
99.0762163469
 20
40.2349577274
 10
99.0903107323
 20
40.2441600166
 10
99.1050684093
 20
40.2536061395
 10
99.1205054412
 20
40.2632817124
 10
99.1367203941
 20
40.2730094835
 10
99.1537461236
 20
40.2827303688
 10
99.1715497743
 20
40.2925034522
 10
99.190131346
 20
40.3023287337
  0
LWPOLYLINE
  5
3AE
100
AcDbEntity
  8
RACCORDO
100
AcDbPolyline
 62
7
  6
CONTINUOUS
 90
5
 70
0
 10
98.9840186077
 20
39.9838655908
 10
99.0092563239
 20
40.0007170079
 10
99.0323918177
 20
40.0154989221
 10
99.0519648023
 20
40.0271376718
 10
99.0677256803
 20
40.0356108946
  0
LINE
  5
3AF
100
AcDbEntity
  8
DRAFT
100
AcDbLine
 62
7
  6
CONTINUOUS
 10
98.1375269546
 20
39.8571293596
 11
97.6698848603
 21
39.5622135423
  0
LWPOLYLINE
  5
3B0
100
AcDbEntity
  8
RACCORDO
100
AcDbPolyline
 62
250
  6
CONTINUOUS
 90
6
 70
0
 10
98.5907961211
 20
39.4095146036
 10
98.6123577609
 20
39.4218077727
 10
98.6305257767
 20
39.4354029513
 10
98.6449893089
 20
39.4500675222
 10
98.6555008823
 20
39.4655505706
 10
98.6618806411
 20
39.4815871773
  0
LWPOLYLINE
  5
3B1
100
AcDbEntity
  8
RACCORDO
100
AcDbPolyline
 62
7
  6
CONTINUOUS
 90
6
 70
0
 10
98.8006996513
 20
39.8698188912
 10
98.8349774098
 20
39.888389706
 10
98.8673744646
 20
39.9073358736
 10
98.8986050331
 20
39.9267954851
 10
98.928740542
 20
39.9464863507
 10
98.9840186077
 20
39.9838655908
  0
LINE
  5
3B2
100
AcDbEntity
  8
RACCORDO
100
AcDbLine
 62
250
  6
CONTINUOUS
 10
98.5907961211
 20
39.7333370314
 11
97.8836893399
 21
39.3646671111
  0
LWPOLYLINE
  5
3B3
100
AcDbEntity
  8
RACCORDO
100
AcDbPolyline
 62
250
  6
CONTINUOUS
 90
12
 70
0
 10
98.9142309534
 20
40.1319869035
 10
98.9211013765
 20
40.1355398241
 10
98.9282107398
 20
40.139353802
 10
98.9355590434
 20
40.143428837
 10
98.9431198379
 20
40.1477453206
 10
98.9509195726
 20
40.1523228615
 10
98.9590375955
 20
40.1572202857
 10
98.967471018
 20
40.1624415315
 10
98.9762227288
 20
40.1679826606
 10
98.9853807414
 20
40.1738906847
 10
98.9949381687
 20
40.1801724613
 10
99.0153806046
 20
40.1938631386
  0
LINE
  5
3B4
100
AcDbEntity
  8
RACCORDO
100
AcDbLine
 62
250
  6
CONTINUOUS
 10
98.1950066322
 20
39.7643220411
 11
98.9142309534
 21
40.1319869035
  0
LINE
  5
3B5
100
AcDbEntity
  8
RACCORDO
100
AcDbLine
 62
7
  6
CONTINUOUS
 10
98.0753020519
 20
39.4989749622
 11
98.8006996513
 21
39.8698188912
  0
LINE
  5
3B6
100
AcDbEntity
  8
RACCORDO
100
AcDbLine
 62
250
  6
CONTINUOUS
 10
97.6698848603
 20
39.5363439044
 11
97.9056310002
 21
39.6551220211
  0
LINE
  5
3B7
100
AcDbEntity
  8
RACCORDO
100
AcDbLine
 62
250
  6
CONTINUOUS
 10
99.190131346
 20
40.3023287337
 11
99.8282329882
 21
40.6238397729
  0
LINE
  5
3B8
100
AcDbEntity
  8
RACCORDO
100
AcDbLine
 62
7
  6
CONTINUOUS
 10
97.5403848141
 20
39.2660514979
 11
97.7833178846
 21
39.3884546946
  0
LINE
  5
3B9
100
AcDbEntity
  8
RACCORDO
100
AcDbLine
 62
7
  6
CONTINUOUS
 10
99.0677848693
 20
40.035640624
 11
99.698732942
 21
40.3535473665
  0
LINE
  5
3BA
100
AcDbEntity
  8
RACCORDO
100
AcDbLine
 62
250
  6
CONTINUOUS
 10
97.1765825587
 20
37.6010938504
 11
99.2979029023
 21
38.6617540221
  0
LINE
  5
3BB
100
AcDbEntity
  8
RACCORDO
100
AcDbLine
 62
7
  6
CONTINUOUS
 10
97.1116092623
 20
37.4658754003
 11
99.2329296058
 21
38.526535572
  0
LWPOLYLINE
  5
3BC
100
AcDbEntity
  8
RACCORDO
100
AcDbPolyline
 62
250
  6
CONTINUOUS
 90
5
 70
0
 10
97.8836893399
 20
39.3646671111
 10
97.8639739617
 20
39.3550708221
 10
97.8425700649
 20
39.3466189979
 10
97.8197338952
 20
39.3393862609
 10
97.7957419173
 20
39.3334278226
  0
LWPOLYLINE
  5
3BD
100
AcDbEntity
  8
RACCORDO
100
AcDbPolyline
 62
7
  6
CONTINUOUS
 90
7
 70
0
 10
97.7829792621
 20
39.3882764579
 10
97.7902732056
 20
39.3918220348
 10
97.8021769607
 20
39.3970272178
 10
97.8149871691
 20
39.4019659382
 10
97.8303671281
 20
39.4072870701
 10
97.8493595484
 20
39.4133414051
 10
97.8965674427
 20
39.427775604
  0
LWPOLYLINE
  5
3BE
100
AcDbEntity
  8
RACCORDO
100
AcDbPolyline
 62
250
  6
CONTINUOUS
 90
8
 70
0
 10
97.9056310002
 20
39.6551220211
 10
97.9259890445
 20
39.6647924938
 10
97.9454260902
 20
39.6735809987
 10
97.9639421374
 20
39.6814875357
 10
97.9814950391
 20
39.6883933556
 10
97.9981269422
 20
39.6944172077
 10
98.0139642874
 20
39.69991534
 10
98.0290255229
 20
39.7049278
  0
LWPOLYLINE
  5
3BF
100
AcDbEntity
  8
RACCORDO
100
AcDbPolyline
 62
250
  6
CONTINUOUS
 90
13
 70
0
 10
97.1765825587
 20
37.6010938504
 10
97.1525762462
 20
37.5905362404
 10
97.1258744805
 20
37.5815392689
 10
97.0968712374
 20
37.5742885424
 10
97.0659415303
 20
37.5689354503
 10
97.0336521944
 20
37.5656330702
 10
97.000775069
 20
37.5644831374
 10
96.9679533376
 20
37.5655009327
 10
96.935683167
 20
37.5686638635
 10
96.9045334429
 20
37.5739149385
 10
96.8750445473
 20
37.5811602081
 10
96.8477201047
 20
37.5902729217
 10
96.8230291681
 20
37.6010938504
  0
LWPOLYLINE
  5
3C0
100
AcDbEntity
  8
RACCORDO
100
AcDbPolyline
 62
250
  6
CONTINUOUS
 90
13
 70
0
 10
97.1765825587
 20
37.9524078224
 10
97.1521833403
 20
37.9416988637
 10
97.125151178
 20
37.9326428621
 10
97.0959282438
 20
37.9254050006
 10
97.0649756874
 20
37.9201179885
 10
97.032835229
 20
37.9168919117
 10
97.0001269746
 20
37.9157962732
 10
96.9674370588
 20
37.9168483378
 10
96.9353029951
 20
37.9200284385
 10
96.9042776395
 20
37.9252817138
 10
96.8748938061
 20
37.9325176197
 10
96.8476552404
 20
37.9416117611
 10
96.8230291681
 20
37.9524078224
  0
LWPOLYLINE
  5
3C1
100
AcDbEntity
  8
RACCORDO
100
AcDbPolyline
 62
250
  6
CONTINUOUS
 90
13
 70
0
 10
97.8836893399
 20
39.055961213
 10
97.8591030018
 20
39.0451803932
 10
97.8319126446
 20
39.0360963852
 10
97.8025835027
 20
39.0288646191
 10
97.7716174059
 20
39.0236088324
 10
97.7395441926
 20
39.020418953
 10
97.7069126446
 20
39.0193495607
 10
97.6742810965
 20
39.020418953
 10
97.6422078833
 20
39.0236088324
 10
97.6112417865
 20
39.0288646191
 10
97.5819126446
 20
39.0360963852
 10
97.5547222873
 20
39.0451803932
 10
97.5301359493
 20
39.055961213
  0
ARC
  5
3C2
100
AcDbEntity
  8
RACCORDO
100
AcDbCircle
 62
7
  6
CONTINUOUS
 10
99.121126207
 20
39.1014563419
 40
0.25
100
AcDbArc
 50
0.0
 51
63.5164922203
  0
ARC
  5
3C3
100
AcDbEntity
  8
RACCORDO
100
AcDbCircle
 62
7
  6
CONTINUOUS
 10
99.121126207
 20
38.7501423698
 40
0.25
100
AcDbArc
 50
296.5178013085
 51
359.9677556247
  0
ARC
  5
3C4
100
AcDbEntity
  8
RACCORDO
100
AcDbCircle
 62
7
  6
CONTINUOUS
 10
95.6563029791
 20
38.7125476122
 40
0.25
100
AcDbArc
 50
140.366937223
 51
180.0
  0
ARC
  5
3C5
100
AcDbEntity
  8
RACCORDO
100
AcDbCircle
 62
7
  6
CONTINUOUS
 10
95.6563029791
 20
38.3612336401
 40
0.25
100
AcDbArc
 50
180.0322443753
 51
243.4821986915
  0
ARC
  5
3C6
100
AcDbEntity
  8
RACCORDO
100
AcDbCircle
 62
7
  6
CONTINUOUS
 10
96.9998058634
 20
37.689482198
 40
0.25
100
AcDbArc
 50
243.3935135911
 51
296.5650511771
  0
ARC
  5
3C7
100
AcDbEntity
  8
RACCORDO
100
AcDbCircle
 62
7
  6
CONTINUOUS
 10
95.6563029791
 20
80.3634657237
 40
0.25
100
AcDbArc
 50
116.5178013085
 51
179.9677556247
  0
ARC
  5
3C8
100
AcDbEntity
  8
RACCORDO
100
AcDbCircle
 62
7
  6
CONTINUOUS
 10
97.7776233227
 20
81.4241258955
 40
0.25
100
AcDbArc
 50
63.4349488229
 51
116.6064864089
  0
ARC
  5
3C9
100
AcDbEntity
  8
RACCORDO
100
AcDbCircle
 62
7
  6
CONTINUOUS
 10
99.121126207
 20
80.4010604813
 40
0.25
100
AcDbArc
 50
320.3607277622
 51
359.9974551036
  0
ARC
  5
3CA
100
AcDbEntity
  8
RACCORDO
100
AcDbCircle
 62
7
  6
CONTINUOUS
 10
99.121126207
 20
80.7523744533
 40
0.25
100
AcDbArc
 50
0.0049403466
 51
63.4349488229
  0
ARC
  5
3CB
100
AcDbEntity
  8
RACCORDO
100
AcDbCircle
 62
7
  6
CONTINUOUS
 10
96.9998058634
 20
79.3404003095
 40
0.25
100
AcDbArc
 50
243.4349488229
 51
258.2990804918
  0
ARC
  5
3CC
100
AcDbEntity
  8
RACCORDO
100
AcDbCircle
 62
7
  6
CONTINUOUS
 10
95.6563029791
 20
80.0121517516
 40
0.25
100
AcDbArc
 50
180.0
 51
243.5164922203
  0
ARC
  5
3CD
100
AcDbEntity
  8
RACCORDO
100
AcDbCircle
 62
7
  6
CONTINUOUS
 10
82.2919848147
 20
86.6943108338
 40
0.25
100
AcDbArc
 50
180.0
 51
243.5164922203
  0
ARC
  5
3CE
100
AcDbEntity
  8
RACCORDO
100
AcDbCircle
 62
7
  6
CONTINUOUS
 10
83.635487699
 20
86.0225593917
 40
0.25
100
AcDbArc
 50
243.4349488229
 51
258.2990804918
  0
ARC
  5
3CF
100
AcDbEntity
  8
RACCORDO
100
AcDbCircle
 62
7
  6
CONTINUOUS
 10
82.2919848147
 20
87.0456248059
 40
0.25
100
AcDbArc
 50
116.5650511771
 51
179.9950596534
  0
ARC
  5
3D0
100
AcDbEntity
  8
RACCORDO
100
AcDbCircle
 62
7
  6
CONTINUOUS
 10
84.4133051583
 20
88.1062849777
 40
0.25
100
AcDbArc
 50
63.3935135911
 51
116.5650511771
  0
ARC
  5
3D1
100
AcDbEntity
  8
RACCORDO
100
AcDbCircle
 62
7
  6
CONTINUOUS
 10
85.7568080425
 20
87.0832195635
 40
0.25
100
AcDbArc
 50
320.366937223
 51
360.0
  0
ARC
  5
3D2
100
AcDbEntity
  8
RACCORDO
100
AcDbCircle
 62
7
  6
CONTINUOUS
 10
85.7568080425
 20
87.4345335356
 40
0.25
100
AcDbArc
 50
0.0322443753
 51
63.4821986915
  0
ELLIPSE
  5
3D3
100
AcDbEntity
  8
RACCORDO
100
AcDbEllipse
 62
7
  6
CONTINUOUS
 10
99.4746257415
 20
40.8005114864
 30
0.0
 11
-0.2235807756
 21
0.4472283268
 31
0.0
 40
0.6125552124
 41
-3.1396695482
 42
-2.255296188
  0
ELLIPSE
  5
3D4
100
AcDbEntity
  8
RACCORDO
100
AcDbEllipse
 62
7
  6
CONTINUOUS
 10
99.4746257415
 20
78.7020591929
 30
0.0
 11
-0.2237009107
 21
0.4473351135
 31
0.0
 40
0.6121897086
 41
-2.2557347926
 42
-0.6846338794
  0
ELLIPSE
  5
3D5
100
AcDbEntity
  8
RACCORDO
100
AcDbEllipse
 62
7
  6
CONTINUOUS
 10
92.3154334648
 20
88.0764889331
 30
0.0
 11
0.9987332359
 21
0.6172510855
 31
0.0
 40
0.0815198604
 41
0.0503393611
 42
0.7176053907
  0
ELLIPSE
  5
3D6
100
AcDbEntity
  8
RACCORDO
100
AcDbEllipse
 62
7
  6
CONTINUOUS
 10
104.0658563395
 20
82.2012774958
 30
0.0
 11
0.4349639225
 21
0.9005141702
 31
0.0
 40
0.6016116119
 41
-0.8943064336
 42
-0.538697204
  0
ELLIPSE
  5
3D7
100
AcDbEntity
  8
RACCORDO
100
AcDbEllipse
 62
7
  6
CONTINUOUS
 10
104.3004733524
 20
45.3206761403
 30
0.0
 11
0.9987332359
 21
0.6172510855
 31
0.0
 40
0.0815198604
 41
-2.3890806779
 42
-1.1913468732
  0
ELLIPSE
  5
3D8
100
AcDbEntity
  8
RACCORDO
100
AcDbEllipse
 62
7
  6
CONTINUOUS
 10
104.0658563395
 20
45.4379846468
 30
0.0
 11
0.4349639225
 21
0.9005141702
 31
0.0
 40
0.6016116119
 41
-1.2499156631
 42
-0.8943064336
  0
ELLIPSE
  5
3D9
100
AcDbEntity
  8
RACCORDO
100
AcDbEllipse
 62
7
  6
CONTINUOUS
 10
93.4594617764
 20
87.5334533081
 30
0.0
 11
0.2256808774
 21
0.4461742732
 31
0.0
 40
0.6158912572
 41
0.0028576325
 42
0.6875768343
  0
ELLIPSE
  5
3DA
100
AcDbEntity
  8
RACCORDO
100
AcDbEllipse
 62
7
  6
CONTINUOUS
 10
99.6209111349
 20
84.4527286288
 30
0.0
 11
0.2215594226
 21
0.4482351134
 31
0.0
 40
0.6088373611
 41
5.3943220613
 42
6.9651183881
  0
ELLIPSE
  5
3DB
100
AcDbEntity
  8
RACCORDO
100
AcDbEllipse
 62
7
  6
CONTINUOUS
 10
104.3004733524
 20
82.0839689893
 30
0.0
 11
-0.7417913999
 21
1.2002436976
 31
0.0
 40
0.5587454355
 41
5.0176587298
 42
6.2153925345
  0
ELLIPSE
  5
3DC
100
AcDbEntity
  8
RACCORDO
100
AcDbEllipse
 62
7
  6
CONTINUOUS
 10
97.3162776136
 20
39.7130156178
 30
0.0
 11
-0.2235807756
 21
0.4472283268
 31
0.0
 40
0.6125552124
 41
2.4567882058
 42
4.0278891191
  0
ELLIPSE
  5
3DD
100
AcDbEntity
  8
RACCORDO
100
AcDbEllipse
 62
7
  6
CONTINUOUS
 10
97.3162776136
 20
77.7052625022
 30
0.0
 11
-0.2237009107
 21
0.4473351135
 31
0.0
 40
0.6121897086
 41
4.0274505145
 42
5.5985514278
  0
ELLIPSE
  5
3DE
100
AcDbEntity
  8
RACCORDO
100
AcDbEllipse
 62
7
  6
CONTINUOUS
 10
95.499303135
 20
44.4005859394
 30
0.0
 11
-0.2713091605
 21
0.4239062184
 31
0.0
 40
0.5451249042
 41
-3.2164266161
 42
-2.3115524019
  0
ELLIPSE
  5
3DF
100
AcDbEntity
  8
RACCORDO
100
AcDbEllipse
 62
7
  6
CONTINUOUS
 10
88.1235852799
 20
83.7726727082
 30
0.0
 11
0.4999881828
 21
-0.0070264249
 31
0.0
 40
0.4892375088
 41
-3.1347174182
 42
-2.3493192548
  0
ELLIPSE
  5
3E0
100
AcDbEntity
  8
RACCORDO
100
AcDbEllipse
 62
7
  6
CONTINUOUS
 10
82.3290664552
 20
85.1988680814
 30
0.0
 11
-0.2235807756
 21
0.4472283268
 31
0.0
 40
0.6125552124
 41
-0.6848044477
 42
0.8862964655
  0
ELLIPSE
  5
3E1
100
AcDbEntity
  8
RACCORDO
100
AcDbEllipse
 62
7
  6
CONTINUOUS
 10
93.6430791324
 20
81.012925782
 30
0.0
 11
0.4999881828
 21
-0.0070264249
 31
0.0
 40
0.4892375088
 41
-2.3493192548
 42
-0.7727633415
  0
ELLIPSE
  5
3E2
100
AcDbEntity
  8
0
100
AcDbEllipse
 62
7
  6
CONTINUOUS
 10
93.7558763927
 20
38.8049738878
 30
0.0
 11
-0.2644233925
 21
0.7552424602
 31
0.0
 40
0.6686724391
 41
-3.1614146944
 42
-2.1743836683
  0
ELLIPSE
  5
3E3
100
AcDbEntity
  8
0
100
AcDbEllipse
 62
7
  6
CONTINUOUS
 10
97.3838234503
 20
76.8067996986
 30
0.0
 11
-0.2642183034
 21
0.7551332906
 31
0.0
 40
0.6689579723
 41
-2.1739422316
 42
-0.6033743388
  0
ELLIPSE
  5
3E4
100
AcDbEntity
  8
0
100
AcDbEllipse
 62
7
  6
CONTINUOUS
 10
67.0493303628
 20
91.9740462423
 30
0.0
 11
-0.2644233925
 21
0.7552424602
 31
0.0
 40
0.6686724391
 41
-0.6033589075
 42
0.0198221538
  0
ENDSEC
  0
SECTION
  2
OBJECTS
  0
DICTIONARY
  5
C
100
AcDbDictionary
280
0
281
1
  3
ACAD_GROUP
350
D
  3
ACAD_MLINESTYLE
350
17
  3
ACAD_LAYOUT
350
1A
  3
ACAD_PLOTSETTINGS
350
19
  3
ACAD_PLOTSTYLENAME
350
E
  0
DICTIONARY
  5
D
102
{ACAD_REACTORS
330
C
102
}
100
AcDbDictionary
280
0
281
1
  0
ACDBDICTIONARYWDFLT
  5
E
102
{ACAD_REACTORS
330
C
102
}
100
AcDbDictionary
281
1
  3
Normal
350
F
100
AcDbDictionaryWithDefault
340
F
  0
DICTIONARY
  5
17
102
{ACAD_REACTORS
330
C
102
}
100
AcDbDictionary
280
0
281
1
  3
Standard
350
18
  0
DICTIONARY
  5
19
102
{ACAD_REACTORS
330
C
102
}
100
AcDbDictionary
281
1
  0
DICTIONARY
  5
1A
102
{ACAD_REACTORS
330
C
102
}
100
AcDbDictionary
281
1
  3
Model
350
3E5
  3
Layout1
350
3E6
  0
ACDBPLACEHOLDER
  5
F
102
{ACAD_REACTORS
330
E
102
}
  0
MLINESTYLE
  5
18
102
{ACAD_REACTORS
330
17
102
}
100
AcDbMlineStyle
  2
STANDARD
 70
0
  3

 62
256
 51
90.0
 52
90.0
 71
2
 49
0.5
 62
256
  6
BYLAYER
 49
-0.5
 62
256
  6
BYLAYER
  0
LAYOUT
  5
3E5
102
{ACAD_REACTORS
330
1A
102
}
100
AcDbPlotSettings
  1

  2
none_device
  4
ISO_A4_(297.00_x_210.00_MM)
  6

 40
0.0
 41
0.0
 42
0.0
 43
0.0
 44
297.0
 45
210.0
 46
0.0
 47
0.0
 48
0.0
 49
0.0
140
0.0
141
0.0
142
1.0
143
1.0
 70
1024
 72
1
 73
0
 74
0
  7

 75
0
147
1.0
148
0.0
149
0.0
100
AcDbLayout
  1
Model
 70
0
 71
0
 10
0.0
 20
0.0
 11
297.0
 21
210.0
 12
0.0
 22
0.0
 32
0.0
 14
0.0
 24
0.0
 34
0.0
 15
0.0
 25
0.0
 35
0.0
146
0.0
 13
0.0
 23
0.0
 33
0.0
 16
1.0
 26
0.0
 36
0.0
 17
0.0
 27
1.0
 37
0.0
 76
0
330
216
345
0
346
0
  0
LAYOUT
  5
3E6
102
{ACAD_REACTORS
330
1A
102
}
100
AcDbPlotSettings
  1

  2
none_device
  4
ISO_A4_(297.00_x_210.00_MM)
  6

 40
0.0
 41
0.0
 42
0.0
 43
0.0
 44
297.0
 45
210.0
 46
0.0
 47
0.0
 48
0.0
 49
0.0
140
0.0
141
0.0
142
1.0
143
1.0
 70
0
 72
1
 73
0
 74
0
  7

 75
0
147
1.0
148
0.0
149
0.0
100
AcDbLayout
  1
Layout1
 70
0
 71
1
 10
0.0
 20
0.0
 11
297.0
 21
210.0
 12
0.0
 22
0.0
 32
0.0
 14
0.0
 24
0.0
 34
0.0
 15
0.0
 25
0.0
 35
0.0
146
0.0
 13
0.0
 23
0.0
 33
0.0
 16
1.0
 26
0.0
 36
0.0
 17
0.0
 27
1.0
 37
0.0
 76
0
330
217
345
0
346
0
  0
ENDSEC
  0
EOF
