  0
SECTION
  2
HEADER
  9
$ACADVER
  1
AC1015
  9
$DWGCODEPAGE
  3
ANSI_1252
  9
$EXTMAX
 10
297.0
 20
210.0
 30
0.0
  9
$EXTMIN
 10
0.0
 20
0.0
 30
0.0
  9
$LIMMIN
 10
0.0
 20
0.0
  9
$LIMMAX
 10
297.0
 20
210.0
  9
$VIEWCTR
 10
148.5
 20
105.0
  9
$VIEWSIZE
 40
210.0
  9
$CLAYER
  8
0
  9
$LTSCALE
 40
16.335
  9
$CELTYPE
  6
BYLAYER
  9
$DIMSCALE
 40
1.0
  9
$DIMASZ
 40
3.0
  9
$DIMEXO
 40
1.85625
  9
$DIMDLI
 40
11.286
  9
$DIMEXE
 40
5.346
  9
$DIMCEN
 40
2.673
  9
$DIMLFAC
 40
1.0
  9
$DIMBLK
  1
_FILLED
  9
$DIMTXT
 40
3.0
  9
$DIMTOL
 70
1
  9
$DIMLIM
 70
0
  9
$DIMTFAC
 40
1.0
  9
$DIMTP
 40
0.01
  9
$DIMTM
 40
0.01
  9
$PDMODE
 70
3
  9
$PDSIZE
 40
3.0
  9
$HANDSEED
  5
419
  9
$TILEMODE
 70
1
  9
$MEASUREMENT
 70
1
  9
$INSUNITS
 70
4
  0
ENDSEC
  0
SECTION
  2
CLASSES
  0
CLASS
  1
ACDBDICTIONARYWDFLT
  2
AcDbDictionaryWithDefault
  3
AutoCAD 2000
 90
0
280
0
281
0
  0
CLASS
  1
ACDBPLACEHOLDER
  2
AcDbPlaceHolder
  3
AutoCAD 2000
 90
0
280
0
281
0
  0
CLASS
  1
LAYOUT
  2
AcDbLayout
  3
AutoCAD 2000
 90
0
280
0
281
0
  0
ENDSEC
  0
SECTION
  2
TABLES
  0
TABLE
  2
VPORT
  5
8
100
AcDbSymbolTable
 70
2
  0
VPORT
  5
1F4
100
AcDbSymbolTableRecord
100
AcDbViewportTableRecord
  2
*ACTIVE
 70
0
 10
0.0
 20
0.0
 11
1.0
 21
1.0
 12
148.5
 22
105.0
 13
0.0
 23
0.0
 14
1.0
 24
1.0
 15
0.0
 25
0.0
 16
0.0
 26
0.0
 36
1.0
 17
0.0
 27
0.0
 37
0.0
 40
210.0
 41
1.4142857143
 42
50.0
 43
0.0
 44
0.0
 50
0.0
 51
0.0
 71
0
 72
100
 73
1
 74
1
 75
0
 76
0
 77
0
 78
0
  0
ENDTAB
  0
TABLE
  2
LTYPE
  5
5
100
AcDbSymbolTable
 70
6
  0
LTYPE
  5
14
100
AcDbSymbolTableRecord
100
AcDbLinetypeTableRecord
  2
BYBLOCK
 70
0
  3

 72
65
 73
0
 40
0.0
  0
LTYPE
  5
15
100
AcDbSymbolTableRecord
100
AcDbLinetypeTableRecord
  2
BYLAYER
 70
0
  3

 72
65
 73
0
 40
0.0
  0
LTYPE
  5
16
100
AcDbSymbolTableRecord
100
AcDbLinetypeTableRecord
  2
CONTINUOUS
 70
64
  3
Solid line
 72
65
 73
0
 40
0.0
  0
LTYPE
  5
1F5
100
AcDbSymbolTableRecord
100
AcDbLinetypeTableRecord
  2
CENTER
 70
64
  3
____ _ ____ _ ____ _ ____ _ ____ _ ____ _ ____
 72
65
 73
4
 40
0.6
 49
0.375
 74
0
 49
-0.075
 74
0
 49
0.075
 74
0
 49
-0.075
 74
0
  0
LTYPE
  5
1F6
100
AcDbSymbolTableRecord
100
AcDbLinetypeTableRecord
  2
HIDDEN
 70
64
  3
- - - - - - - - - - - - - - - - - - - -
 72
65
 73
2
 40
0.2
 49
0.1
 74
0
 49
-0.1
 74
0
  0
LTYPE
  5
1F7
100
AcDbSymbolTableRecord
100
AcDbLinetypeTableRecord
  2
PHANTOM
 70
64
  3
_____ _ _ _____ _ _ _____ _ _ _____
 72
65
 73
6
 40
0.8
 49
0.45
 74
0
 49
-0.05
 74
0
 49
0.1
 74
0
 49
-0.05
 74
0
 49
0.1
 74
0
 49
-0.05
 74
0
  0
LTYPE
  5
1F8
100
AcDbSymbolTableRecord
100
AcDbLinetypeTableRecord
  2
DOT
 70
64
  3
. . . . . . . . . . . . . . . . . . . .
 72
65
 73
2
 40
0.2
 49
0.1
 74
0
 49
-0.1
 74
0
  0
LTYPE
  5
1F9
100
AcDbSymbolTableRecord
100
AcDbLinetypeTableRecord
  2
DASHED
 70
64
  3
- - - - - - - - - - - - - - - - - - - -
 72
65
 73
2
 40
0.2
 49
0.1
 74
0
 49
-0.1
 74
0
  0
ENDTAB
  0
TABLE
  2
LAYER
  5
2
100
AcDbSymbolTable
 70
36
  0
LAYER
  5
10
100
AcDbSymbolTableRecord
100
AcDbLayerTableRecord
  2
0
 70
0
 62
7
  6
CONTINUOUS
370
-3
390
F
  0
LAYER
  5
1FA
100
AcDbSymbolTableRecord
100
AcDbLayerTableRecord
  2
DEFAULT_1
 70
0
 62
7
  6
CENTER
370
-3
390
F
  0
LAYER
  5
1FB
100
AcDbSymbolTableRecord
100
AcDbLayerTableRecord
  2
DEFAULT_2
 70
0
 62
7
  6
HIDDEN
370
-3
390
F
  0
LAYER
  5
1FC
100
AcDbSymbolTableRecord
100
AcDbLayerTableRecord
  2
DEFAULT_3
 70
0
 62
7
  6
PHANTOM
370
-3
390
F
  0
LAYER
  5
1FD
100
AcDbSymbolTableRecord
100
AcDbLayerTableRecord
  2
ASSI
 70
0
 62
7
  6
CONTINUOUS
370
-3
390
F
  0
LAYER
  5
1FE
100
AcDbSymbolTableRecord
100
AcDbLayerTableRecord
  2
COORDINATE
 70
0
 62
7
  6
CONTINUOUS
370
-3
390
F
  0
LAYER
  5
1FF
100
AcDbSymbolTableRecord
100
AcDbLayerTableRecord
  2
COORD_ORIGINE
 70
0
 62
7
  6
CONTINUOUS
370
-3
390
F
  0
LAYER
  5
200
100
AcDbSymbolTableRecord
100
AcDbLayerTableRecord
  2
COPY_PUBLISH
 70
0
 62
7
  6
CONTINUOUS
370
-3
390
F
  0
LAYER
  5
201
100
AcDbSymbolTableRecord
100
AcDbLayerTableRecord
  2
COSMETIC
 70
0
 62
7
  6
CONTINUOUS
370
-3
390
F
  0
LAYER
  5
202
100
AcDbSymbolTableRecord
100
AcDbLayerTableRecord
  2
COSMETICI
 70
0
 62
7
  6
CONTINUOUS
370
-3
390
F
  0
LAYER
  5
203
100
AcDbSymbolTableRecord
100
AcDbLayerTableRecord
  2
CURVE
 70
0
 62
7
  6
CONTINUOUS
370
-3
390
F
  0
LAYER
  5
204
100
AcDbSymbolTableRecord
100
AcDbLayerTableRecord
  2
DRAFT
 70
0
 62
7
  6
CONTINUOUS
370
-3
390
F
  0
LAYER
  5
205
100
AcDbSymbolTableRecord
100
AcDbLayerTableRecord
  2
IMPORT_IGES
 70
0
 62
7
  6
CONTINUOUS
370
-3
390
F
  0
LAYER
  5
206
100
AcDbSymbolTableRecord
100
AcDbLayerTableRecord
  2
NOTE
 70
0
 62
7
  6
CONTINUOUS
370
-3
390
F
  0
LAYER
  5
207
100
AcDbSymbolTableRecord
100
AcDbLayerTableRecord
  2
PIANI
 70
0
 62
7
  6
CONTINUOUS
370
-3
390
F
  0
LAYER
  5
208
100
AcDbSymbolTableRecord
100
AcDbLayerTableRecord
  2
PIANI_ORIGINE
 70
0
 62
7
  6
CONTINUOUS
370
-3
390
F
  0
LAYER
  5
209
100
AcDbSymbolTableRecord
100
AcDbLayerTableRecord
  2
PIANI_RIFERIMENTO
 70
0
 62
7
  6
CONTINUOUS
370
-3
390
F
  0
LAYER
  5
20A
100
AcDbSymbolTableRecord
100
AcDbLayerTableRecord
  2
PUNTI
 70
0
 62
7
  6
CONTINUOUS
370
-3
390
F
  0
LAYER
  5
20B
100
AcDbSymbolTableRecord
100
AcDbLayerTableRecord
  2
RACCORDO
 70
0
 62
7
  6
CONTINUOUS
370
-3
390
F
  0
LAYER
  5
20C
100
AcDbSymbolTableRecord
100
AcDbLayerTableRecord
  2
SMUSSO
 70
0
 62
7
  6
CONTINUOUS
370
-3
390
F
  0
LAYER
  5
20D
100
AcDbSymbolTableRecord
100
AcDbLayerTableRecord
  2
SNAPLINE
 70
0
 62
7
  6
CONTINUOUS
370
-3
390
F
  0
LAYER
  5
20E
100
AcDbSymbolTableRecord
100
AcDbLayerTableRecord
  2
SUPERFICI
 70
0
 62
7
  6
CONTINUOUS
370
-3
390
F
  0
LAYER
  5
20F
100
AcDbSymbolTableRecord
100
AcDbLayerTableRecord
  2
TRASH
 70
0
 62
7
  6
CONTINUOUS
370
-3
390
F
  0
ENDTAB
  0
TABLE
  2
STYLE
  5
3
100
AcDbSymbolTable
 70
1
  0
STYLE
  5
11
100
AcDbSymbolTableRecord
100
AcDbTextStyleTableRecord
  2
STANDARD
 70
0
 40
0.0
 41
0.8
 50
0.0
 71
0
 42
0.2
  3
txt
  4

  0
STYLE
  5
210
100
AcDbSymbolTableRecord
100
AcDbTextStyleTableRecord
  2
TEXTSTYLE_1
 70
0
 40
0.0
 41
0.8
 50
0.0
 71
0
 42
0.2
  3
gdt
  4

  0
ENDTAB
  0
TABLE
  2
VIEW
  5
6
100
AcDbSymbolTable
 70
0
  0
ENDTAB
  0
TABLE
  2
UCS
  5
7
100
AcDbSymbolTable
 70
0
  0
ENDTAB
  0
TABLE
  2
APPID
  5
9
100
AcDbSymbolTable
 70
1
  0
APPID
  5
211
100
AcDbSymbolTableRecord
100
AcDbRegAppTableRecord
  2
ACAD
 70
0
  0
ENDTAB
  0
TABLE
  2
BLOCK_RECORD
  5
1
100
AcDbSymbolTable
 70
0
  0
BLOCK_RECORD
  5
212
100
AcDbSymbolTableRecord
100
AcDbBlockTableRecord
  2
*Model_Space
  0
BLOCK_RECORD
  5
213
100
AcDbSymbolTableRecord
100
AcDbBlockTableRecord
  2
*Paper_Space
  0
ENDTAB
  0
TABLE
  2
DIMSTYLE
  5
A
100
AcDbSymbolTable
 70
1
100
AcDbDimStyleTable
 71
0
  0
DIMSTYLE
105
214
100
AcDbSymbolTableRecord
100
AcDbDimStyleTableRecord
  2
STANDARD
 70
0
  3

  4

 40
1.0
 41
3.0
 42
0.0625
 43
0.38
 44
0.18
 45
0.0
 46
0.0
 47
0.01
 48
0.01
140
3.0
141
0.09
142
0.0
143
25.4
144
1.0
145
0.0
146
1.0
147
0.09
 71
1.0
 72
0.0
 73
0
 74
0
 75
0
 76
0
 77
1
 78
8
170
0
171
2
172
0
173
0
174
0
175
0
176
0
177
0
178
0
270
2
271
2
272
2
273
2
274
2
275
0
280
0
281
0
282
0
283
1
284
8
285
0
286
0
287
3
288
0
340
11
  0
ENDTAB
  0
ENDSEC
  0
SECTION
  2
BLOCKS
  0
BLOCK
  5
20
100
AcDbEntity
  8
0
100
AcDbBlockBegin
  2
*Model_Space
 70
0
 10
0.0
 20
0.0
 30
0.0
  3
*Model_Space
  1

  0
ENDBLK
  5
21
100
AcDbEntity
  8
0
100
AcDbBlockEnd
  0
BLOCK
  5
1C
100
AcDbEntity
  8
0
100
AcDbBlockBegin
  2
*Paper_Space
 70
0
 10
0.0
 20
0.0
 30
0.0
  3
*Paper_Space
  1

  0
ENDBLK
  5
1D
100
AcDbEntity
  8
0
100
AcDbBlockEnd
  0
ENDSEC
  0
SECTION
  2
ENTITIES
  0
LWPOLYLINE
  5
215
100
AcDbEntity
  8
ASSI
100
AcDbPolyline
 62
7
  6
CONTINUOUS
 90
19
 70
0
 10
-21.9538017731
 20
24.796019421
 10
-21.9696216349
 20
24.7856045363
 10
-22.0523201238
 20
24.7262145963
 10
-22.1313072863
 20
24.6611582077
 10
-22.2066625309
 20
24.5905593263
 10
-22.2782121059
 20
24.5147510263
 10
-22.3455040082
 20
24.4344204735
 10
-22.4085550014
 20
24.3496822808
 10
-22.467270683
 20
24.2607234035
 10
-22.5210748798
 20
24.1685057047
 10
-22.5698814228
 20
24.0731978696
 10
-22.6135714159
 20
23.9749676499
 10
-22.6516580436
 20
23.8748862712
 10
-22.6840226886
 20
23.7731377033
 10
-22.7105249924
 20
23.6698376701
 10
-22.730820967
 20
23.5659199629
 10
-22.7447147945
 20
23.4617433168
 10
-22.7520567298
 20
23.3572184395
 10
-22.752998206
 20
23.2708929459
  0
LWPOLYLINE
  5
216
100
AcDbEntity
  8
RACCORDO
100
AcDbPolyline
 62
7
  6
CONTINUOUS
 90
16
 70
0
 10
-21.9537019757
 20
24.796084069
 10
-21.9671874622
 20
24.7872261311
 10
-22.0666351748
 20
24.7150542372
 10
-22.1606883232
 20
24.6346830229
 10
-22.2495391272
 20
24.5462348849
 10
-22.3328371078
 20
24.4502814743
 10
-22.4096315898
 20
24.3481447816
 10
-22.4799149332
 20
24.2400722047
 10
-22.5434522661
 20
24.1264008519
 10
-22.5991771933
 20
24.0089640487
 10
-22.6469830694
 20
23.8881176134
 10
-22.6865833632
 20
23.7641397521
 10
-22.7172391013
 20
23.6388766448
 10
-22.7386894121
 20
23.5130251727
 10
-22.750685674
 20
23.3863069738
 10
-22.7529982872
 20
23.2708977395
  0
LINE
  5
217
100
AcDbEntity
  8
ASSI
100
AcDbLine
 62
7
  6
CONTINUOUS
 10
-17.9847116724
 20
27.371529655
 11
-21.9539175701
 21
24.7959628947
  0
LINE
  5
218
100
AcDbEntity
  8
RACCORDO
100
AcDbLine
 62
7
  6
CONTINUOUS
 10
-17.9846730582
 20
27.3715547113
 11
-21.9539175702
 21
24.7959628946
  0
LINE
  5
219
100
AcDbEntity
  8
ASSI
100
AcDbLine
 62
253
  6
CONTINUOUS
 10
-17.6122847229
 20
27.3573574935
 11
-21.5775822396
 21
24.7843268315
  0
LINE
  5
21A
100
AcDbEntity
  8
RACCORDO
100
AcDbLine
 62
253
  6
CONTINUOUS
 10
-17.6122847229
 20
27.3573574935
 11
-21.5775822396
 21
24.7843268315
  0
LWPOLYLINE
  5
21B
100
AcDbEntity
  8
ASSI
100
AcDbPolyline
 62
7
  6
CONTINUOUS
 90
13
 70
0
 10
-22.7530113435
 20
23.2708900019
 10
-22.6918414484
 20
20.4189666387
 10
-22.602628
 20
17.5125232196
 10
-22.486546317
 20
14.6212929625
 10
-22.3436089439
 20
11.7456921813
 10
-22.1738349238
 20
8.8860838657
 10
-21.9772440472
 20
6.0428104271
 10
-21.7538581048
 20
3.2162286341
 10
-21.5037043239
 20
0.4066917946
 10
-21.2268096931
 20
-2.3854624774
 10
-20.923204795
 20
-5.1598786407
 10
-20.5929337104
 20
-7.9161600268
 10
-20.2440748606
 20
-10.5946608631
  0
LWPOLYLINE
  5
21C
100
AcDbEntity
  8
RACCORDO
100
AcDbPolyline
 62
7
  6
CONTINUOUS
 90
13
 70
0
 10
-22.7530113437
 20
23.2708900178
 10
-22.6922680785
 20
20.4353890698
 10
-22.6030962156
 20
17.5257541028
 10
-22.4869984505
 20
14.6313630786
 10
-22.3439873538
 20
11.7526337972
 10
-22.1740820133
 20
8.8899304948
 10
-21.9773022782
 20
6.0435965847
 10
-21.7536700071
 20
3.2139899797
 10
-21.503212513
 20
0.4014651314
 10
-21.2259568618
 20
-2.3936393403
 10
-20.9219337547
 20
-5.1709667059
 10
-20.5911874409
 20
-7.9301189212
 10
-20.2440748581
 20
-10.5946608818
  0
LWPOLYLINE
  5
21D
100
AcDbEntity
  8
RACCORDO
100
AcDbPolyline
 62
7
  6
CONTINUOUS
 90
7
 70
0
 10
-20.1095219797
 20
-11.021533324
 10
-20.0571912877
 20
-11.1105175709
 10
-19.9981736779
 20
-11.1929200745
 10
-19.9330299145
 20
-11.2683669012
 10
-19.862007931
 20
-11.3368731079
 10
-19.7856526895
 20
-11.3981010903
 10
-19.7048529188
 20
-11.4515428138
  0
LWPOLYLINE
  5
21E
100
AcDbEntity
  8
RACCORDO
100
AcDbPolyline
 62
7
  6
CONTINUOUS
 90
5
 70
0
 10
-20.2423665276
 20
-10.6067493957
 10
-20.2214409924
 20
-10.7187382122
 10
-20.1920107303
 20
-10.825558019
 10
-20.1545636889
 20
-10.9265483979
 10
-20.1095219797
 20
-11.021533324
  0
LWPOLYLINE
  5
21F
100
AcDbEntity
  8
ASSI
100
AcDbPolyline
 62
7
  6
CONTINUOUS
 90
12
 70
0
 10
-20.2439940246
 20
-10.5951475054
 10
-20.2392179104
 20
-10.6274434263
 10
-20.2170646714
 20
-10.7371202437
 10
-20.1867297659
 20
-10.8415740853
 10
-20.1487311012
 20
-10.9401513949
 10
-20.1035071552
 20
-11.0327406946
 10
-20.0513273087
 20
-11.1194435599
 10
-19.9927812741
 20
-11.1997150413
 10
-19.9284170877
 20
-11.2732111548
 10
-19.8584026469
 20
-11.3400312403
 10
-19.7832176229
 20
-11.3998713893
 10
-19.7042242487
 20
-11.4518870189
  0
LINE
  5
220
100
AcDbEntity
  8
RACCORDO
100
AcDbLine
 62
7
  6
CONTINUOUS
 10
-20.2439918641
 20
-10.5951632387
 11
-20.2423665276
 21
-10.6067493957
  0
LINE
  5
221
100
AcDbEntity
  8
ASSI
100
AcDbLine
 62
7
  6
CONTINUOUS
 10
-20.2439940246
 20
-10.5951475054
 11
-20.2440606609
 21
-10.5946589344
  0
LINE
  5
222
100
AcDbEntity
  8
RACCORDO
100
AcDbLine
 62
7
  6
CONTINUOUS
 10
0.6010794151
 20
22.9734954377
 11
2.7223997587
 21
24.0341556095
  0
LINE
  5
223
100
AcDbEntity
  8
RACCORDO
100
AcDbLine
 62
253
  6
CONTINUOUS
 10
0.712882814
 20
22.9663949909
 11
2.8342031576
 21
24.0270551627
  0
LINE
  5
224
100
AcDbEntity
  8
RACCORDO
100
AcDbLine
 62
253
  6
CONTINUOUS
 10
2.0563856983
 20
22.2946435488
 11
4.1777060418
 21
23.3553037206
  0
LINE
  5
225
100
AcDbEntity
  8
RACCORDO
100
AcDbLine
 62
7
  6
CONTINUOUS
 10
0.5269150313
 20
21.3506248291
 11
0.7615413401
 21
21.4670012079
  0
LINE
  5
226
100
AcDbEntity
  8
RACCORDO
100
AcDbLine
 62
7
  6
CONTINUOUS
 10
1.1699895952
 20
21.7051985152
 11
1.0437500175
 21
21.6435753974
  0
LINE
  5
227
100
AcDbEntity
  8
RACCORDO
100
AcDbLine
 62
253
  6
CONTINUOUS
 10
1.1478689179
 20
21.6644409108
 11
1.1663483847
 21
21.6733350954
  0
LINE
  5
228
100
AcDbEntity
  8
RACCORDO
100
AcDbLine
 62
253
  6
CONTINUOUS
 10
17.7188009016
 20
-25.2826681717
 11
17.1884708157
 21
-25.1728332146
  0
LINE
  5
229
100
AcDbEntity
  8
RACCORDO
100
AcDbLine
 62
253
  6
CONTINUOUS
 10
17.6304125539
 20
-24.9625856502
 11
17.100082468
 21
-24.8527506932
  0
LWPOLYLINE
  5
22A
100
AcDbEntity
  8
RACCORDO
100
AcDbPolyline
 62
7
  6
CONTINUOUS
 90
13
 70
0
 10
10.4039370203
 20
-26.5092453327
 10
10.4787932887
 20
-26.543201623
 10
10.5650173666
 20
-26.5741653423
 10
10.6535908155
 20
-26.5977194124
 10
10.7445908238
 20
-26.613857424
 10
10.8374565677
 20
-26.6223667782
 10
10.9315122988
 20
-26.6230900742
 10
11.0267943049
 20
-26.6159101144
 10
11.122808097
 20
-26.6006868911
 10
11.218927609
 20
-26.5773406326
 10
11.3151698818
 20
-26.5456186711
 10
11.4112494077
 20
-26.5053067169
 10
11.5100030514
 20
-26.454402586
  0
LWPOLYLINE
  5
22B
100
AcDbEntity
  8
ASSI
100
AcDbPolyline
 62
7
  6
CONTINUOUS
 90
15
 70
0
 10
10.4038807395
 20
-26.5092170872
 10
10.4231522677
 20
-26.5186301683
 10
10.5037868316
 20
-26.5530367744
 10
10.5868607791
 20
-26.5807234912
 10
10.6720070541
 20
-26.601627644
 10
10.7593350544
 20
-26.6157359849
 10
10.8483619689
 20
-26.6228535752
 10
10.9384949874
 20
-26.6228326994
 10
11.0297885357
 20
-26.615556525
 10
11.1218068934
 20
-26.6008871371
 10
11.2139980817
 20
-26.5787381409
 10
11.3063933343
 20
-26.5488654061
 10
11.3987431241
 20
-26.511056399
 10
11.4904002748
 20
-26.4653021487
 10
11.510034124
 20
-26.4543850249
  0
LINE
  5
22C
100
AcDbEntity
  8
ASSI
100
AcDbLine
 62
7
  6
CONTINUOUS
 10
10.4045312704
 20
-26.5095442294
 11
-19.635705395
 21
-11.4894258967
  0
LINE
  5
22D
100
AcDbEntity
  8
RACCORDO
100
AcDbLine
 62
7
  6
CONTINUOUS
 10
10.4045338028
 20
-26.5095454956
 11
-19.6357079273
 21
-11.4894246305
  0
LINE
  5
22E
100
AcDbEntity
  8
ASSI
100
AcDbLine
 62
7
  6
CONTINUOUS
 10
-19.7037234723
 20
-11.4522167707
 11
-19.6352449828
 21
-11.4896548653
  0
LINE
  5
22F
100
AcDbEntity
  8
RACCORDO
100
AcDbLine
 62
7
  6
CONTINUOUS
 10
-19.7048529188
 20
-11.4515428138
 11
-19.6352285836
 21
-11.4896630512
  0
LWPOLYLINE
  5
230
100
AcDbEntity
  8
RACCORDO
100
AcDbPolyline
 62
7
  6
CONTINUOUS
 90
11
 70
0
 10
0.9513932139
 20
21.5922159948
 10
0.9231645092
 20
21.5741227839
 10
0.8964074021
 20
21.556132355
 10
0.8711811446
 20
21.5386216272
 10
0.8472733025
 20
21.5218179022
 10
0.8250889992
 20
21.5063726546
 10
0.8054430183
 20
21.4931117355
 10
0.7884315669
 20
21.482214881
 10
0.7741929389
 20
21.4737593686
 10
0.7633074483
 20
21.4678949937
 10
0.7615507914
 20
21.4670139742
  0
LWPOLYLINE
  5
231
100
AcDbEntity
  8
RACCORDO
100
AcDbPolyline
 62
7
  6
CONTINUOUS
 90
4
 70
0
 10
1.0437000264
 20
21.6435530528
 10
1.0112980089
 20
21.626957302
 10
0.9807716744
 20
21.6099097767
 10
0.9513932139
 20
21.5922159948
  0
LINE
  5
232
100
AcDbEntity
  8
RACCORDO
100
AcDbLine
 62
253
  6
CONTINUOUS
 10
2.2331623936
 20
21.9897488502
 11
4.3544827371
 21
23.050409022
  0
LINE
  5
233
100
AcDbEntity
  8
RACCORDO
100
AcDbLine
 62
253
  6
CONTINUOUS
 10
0.7500721584
 20
21.3361567254
 11
0.9898387944
 21
21.455121567
  0
LINE
  5
234
100
AcDbEntity
  8
RACCORDO
100
AcDbLine
 62
7
  6
CONTINUOUS
 10
5.1906682798
 20
21.1918294193
 11
11.4556712644
 21
24.2993170859
  0
LINE
  5
235
100
AcDbEntity
  8
RACCORDO
100
AcDbLine
 62
253
  6
CONTINUOUS
 10
2.9402691748
 20
20.9332823706
 11
3.6473759559
 21
21.2717192316
  0
LINE
  5
236
100
AcDbEntity
  8
RACCORDO
100
AcDbLine
 62
253
  6
CONTINUOUS
 10
3.079222388
 20
20.6881589202
 11
3.7863291692
 21
21.0265957812
  0
LINE
  5
237
100
AcDbEntity
  8
RACCORDO
100
AcDbLine
 62
7
  6
CONTINUOUS
 10
21.9800708414
 20
-15.5720231314
 11
18.2491309874
 21
-15.7706746132
  0
LINE
  5
238
100
AcDbEntity
  8
ASSI
100
AcDbLine
 62
253
  6
CONTINUOUS
 10
10.024833437
 20
-25.8913113532
 11
-20.010203962
 21
-10.8737926537
  0
LINE
  5
239
100
AcDbEntity
  8
RACCORDO
100
AcDbLine
 62
253
  6
CONTINUOUS
 10
10.024833437
 20
-25.8913113532
 11
-20.010203962
 21
-10.8737926537
  0
LINE
  5
23A
100
AcDbEntity
  8
RACCORDO
100
AcDbLine
 62
7
  6
CONTINUOUS
 10
15.3089004638
 20
-26.8298607657
 11
13.9653975796
 21
-26.1581093235
  0
LINE
  5
23B
100
AcDbEntity
  8
RACCORDO
100
AcDbLine
 62
253
  6
CONTINUOUS
 10
15.2439271674
 20
-26.6946423156
 11
13.9004242831
 21
-26.0228908734
  0
LINE
  5
23C
100
AcDbEntity
  8
RACCORDO
100
AcDbLine
 62
253
  6
CONTINUOUS
 10
13.9004242831
 20
-25.6715769013
 11
15.2439271674
 21
-26.3433283435
  0
LINE
  5
23D
100
AcDbEntity
  8
RACCORDO
100
AcDbLine
 62
253
  6
CONTINUOUS
 10
13.9888126308
 20
-25.4398827275
 11
15.3323155151
 21
-26.1116341696
  0
LINE
  5
23E
100
AcDbEntity
  8
RACCORDO
100
AcDbLine
 62
253
  6
CONTINUOUS
 10
15.3089258238
 20
-26.8298734409
 11
15.3087388336
 21
-26.8297797557
  0
LINE
  5
23F
100
AcDbEntity
  8
RACCORDO
100
AcDbLine
 62
7
  6
CONTINUOUS
 10
12.4862107208
 20
23.3678043715
 11
7.8900166431
 21
21.0697073326
  0
LINE
  5
240
100
AcDbEntity
  8
RACCORDO
100
AcDbLine
 62
7
  6
CONTINUOUS
 10
11.8803597757
 20
23.670729844
 11
6.1929720629
 21
20.859605761
  0
LINE
  5
241
100
AcDbEntity
  8
DRAFT
100
AcDbLine
 62
7
  6
CONTINUOUS
 10
12.8397641114
 20
22.2112132642
 11
9.1443846182
 21
20.4425233451
  0
LINE
  5
242
100
AcDbEntity
  8
RACCORDO
100
AcDbLine
 62
7
  6
CONTINUOUS
 10
14.6198717793
 20
22.7172168285
 11
9.4979380087
 21
20.2657466498
  0
LINE
  5
243
100
AcDbEntity
  8
RACCORDO
100
AcDbLine
 62
253
  6
CONTINUOUS
 10
15.8626456009
 20
-25.4714691267
 11
14.5191427167
 21
-24.7997176846
  0
LINE
  5
244
100
AcDbEntity
  8
RACCORDO
100
AcDbLine
 62
253
  6
CONTINUOUS
 10
15.9510339486
 20
-25.2397749529
 11
14.7295345941
 21
-24.6290252756
  0
LINE
  5
245
100
AcDbEntity
  8
RACCORDO
100
AcDbLine
 62
7
  6
CONTINUOUS
 10
14.8392339722
 20
-24.5668283897
 11
15.7370679089
 21
-25.015745358
  0
LINE
  5
246
100
AcDbEntity
  8
DRAFT
100
AcDbLine
 62
7
  6
CONTINUOUS
 10
16.0907828596
 20
-24.7335226237
 11
15.2694969979
 21
-24.3228796928
  0
LINE
  5
247
100
AcDbEntity
  8
RACCORDO
100
AcDbLine
 62
253
  6
CONTINUOUS
 10
17.100082468
 20
-24.8527506932
 11
17.0908042954
 21
-24.8481116069
  0
LINE
  5
248
100
AcDbEntity
  8
DRAFT
100
AcDbLine
 62
7
  6
CONTINUOUS
 10
16.5584249539
 20
-24.4386068063
 11
15.728901998
 21
-24.0238453283
  0
LINE
  5
249
100
AcDbEntity
  8
RACCORDO
100
AcDbLine
 62
253
  6
CONTINUOUS
 10
17.0849174251
 20
-24.6898380858
 11
17.6304125539
 21
-24.9625856502
  0
LINE
  5
24A
100
AcDbEntity
  8
RACCORDO
100
AcDbLine
 62
7
  6
CONTINUOUS
 10
17.0849174251
 20
-24.6862179363
 11
17.6538276051
 21
-24.9706730263
  0
LINE
  5
24B
100
AcDbEntity
  8
CURVE
100
AcDbLine
 62
253
  6
CONTINUOUS
 10
-16.2424066517
 20
-7.6855439975
 11
-15.6615689248
 21
-7.975962861
  0
LINE
  5
24C
100
AcDbEntity
  8
CURVE
100
AcDbLine
 62
253
  6
CONTINUOUS
 10
-13.8028882566
 20
-8.905303195
 11
-13.3382181139
 21
-9.1376382664
  0
LINE
  5
24D
100
AcDbEntity
  8
CURVE
100
AcDbLine
 62
253
  6
CONTINUOUS
 10
-11.1310348871
 20
-10.2412298798
 11
-11.595704836
 21
-10.0088949053
  0
LINE
  5
24E
100
AcDbEntity
  8
CURVE
100
AcDbLine
 62
253
  6
CONTINUOUS
 10
-12.2927101471
 20
-9.6603922498
 11
-12.7573804838
 21
-9.4280570814
  0
LINE
  5
24F
100
AcDbEntity
  8
CURVE
100
AcDbLine
 62
253
  6
CONTINUOUS
 10
-14.156354659
 20
-7.7201279711
 11
-14.0658875632
 21
-8.5221152469
  0
LINE
  5
250
100
AcDbEntity
  8
CURVE
100
AcDbLine
 62
253
  6
CONTINUOUS
 10
-13.4144017644
 20
-8.4697978926
 11
-13.4593493476
 21
-8.068630629
  0
LINE
  5
251
100
AcDbEntity
  8
CURVE
100
AcDbLine
 62
253
  6
CONTINUOUS
 10
-14.6448281767
 20
-7.6021927543
 11
-14.6746026128
 21
-7.3346322165
  0
LINE
  5
252
100
AcDbEntity
  8
0
100
AcDbLine
 62
7
  6
CONTINUOUS
 10
10.0622233816
 20
19.9836039633
 11
13.4673669419
 21
21.6861757435
  0
LINE
  5
253
100
AcDbEntity
  8
CURVE
100
AcDbLine
 62
253
  6
CONTINUOUS
 10
-14.1114070756
 20
-8.121295237
 11
-13.4144017644
 21
-8.4697978926
  0
LINE
  5
254
100
AcDbEntity
  8
CURVE
100
AcDbLine
 62
253
  6
CONTINUOUS
 10
-11.2818134925
 20
-8.9045845535
 11
-11.7464834414
 21
-8.672249579
  0
LINE
  5
255
100
AcDbEntity
  8
CURVE
100
AcDbLine
 62
253
  6
CONTINUOUS
 10
-12.4434887526
 20
-8.3237469234
 11
-12.9081590892
 21
-8.0914117551
  0
LINE
  5
256
100
AcDbEntity
  8
CURVE
100
AcDbLine
 62
253
  6
CONTINUOUS
 10
-13.7213316937
 20
-7.6848254529
 11
-13.9536668621
 21
-7.5686578687
  0
LINE
  5
257
100
AcDbEntity
  8
CURVE
100
AcDbLine
 62
253
  6
CONTINUOUS
 10
-14.7668396604
 20
-7.1620714695
 11
-15.2315098032
 21
-6.9297363981
  0
LINE
  5
258
100
AcDbEntity
  8
CURVE
100
AcDbLine
 62
253
  6
CONTINUOUS
 10
-15.8123475302
 20
-6.6393175346
 11
-16.3931852572
 21
-6.3488986712
  0
LINE
  5
259
100
AcDbEntity
  8
DRAFT
100
AcDbLine
 62
7
  6
CONTINUOUS
 10
16.5584249539
 20
-22.8179690831
 11
15.6925446573
 21
-22.3850289348
  0
LINE
  5
25A
100
AcDbEntity
  8
CURVE
100
AcDbLine
 62
253
  6
CONTINUOUS
 10
-12.2376166953
 20
-9.1842808604
 11
-12.191906512
 21
-9.5849851094
  0
LINE
  5
25B
100
AcDbEntity
  8
CURVE
100
AcDbLine
 62
253
  6
CONTINUOUS
 10
-11.0759414352
 20
-9.7651184904
 11
-11.0302312519
 21
-10.1658227394
  0
LINE
  5
25C
100
AcDbEntity
  8
CURVE
100
AcDbLine
 62
253
  6
CONTINUOUS
 10
-13.0095346497
 20
-8.1671661969
 11
-12.9647776901
 21
-8.5684491323
  0
LINE
  5
25D
100
AcDbEntity
  8
CURVE
100
AcDbLine
 62
253
  6
CONTINUOUS
 10
-11.8478590019
 20
-8.7480040208
 11
-11.8031020422
 21
-9.1492869562
  0
LINE
  5
25E
100
AcDbEntity
  8
RACCORDO
100
AcDbLine
 62
253
  6
CONTINUOUS
 10
3.8241526512
 20
22.058930007
 11
4.3544827371
 21
22.6990950499
  0
LINE
  5
25F
100
AcDbEntity
  8
RACCORDO
100
AcDbLine
 62
7
  6
CONTINUOUS
 10
3.839894994
 20
21.9878303614
 11
4.3702250799
 21
22.6279954044
  0
LINE
  5
260
100
AcDbEntity
  8
RACCORDO
100
AcDbLine
 62
7
  6
CONTINUOUS
 10
18.0418091342
 20
20.5900051648
 11
12.4195609682
 21
17.7463113084
  0
LINE
  5
261
100
AcDbEntity
  8
RACCORDO
100
AcDbLine
 62
7
  6
CONTINUOUS
 10
17.4359581891
 20
20.8929306373
 11
12.8397641114
 21
18.5948335985
  0
LINE
  5
262
100
AcDbEntity
  8
RACCORDO
100
AcDbLine
 62
7
  6
CONTINUOUS
 10
18.3933261809
 20
19.4344322295
 11
12.4195609682
 21
16.5413904757
  0
LINE
  5
263
100
AcDbEntity
  8
RACCORDO
100
AcDbLine
 62
7
  6
CONTINUOUS
 10
18.3919019941
 20
20.3706519601
 11
18.8625124664
 21
20.5958964849
  0
LINE
  5
264
100
AcDbEntity
  8
RACCORDO
100
AcDbLine
 62
7
  6
CONTINUOUS
 10
13.9653975796
 20
16.2913363555
 11
16.0867179231
 21
17.3519965273
  0
LINE
  5
265
100
AcDbEntity
  8
RACCORDO
100
AcDbLine
 62
253
  6
CONTINUOUS
 10
14.0772009784
 20
16.2842359087
 11
16.198521322
 21
17.3448960805
  0
LINE
  5
266
100
AcDbEntity
  8
RACCORDO
100
AcDbLine
 62
253
  6
CONTINUOUS
 10
15.4207038627
 20
15.6124844666
 11
17.5420242063
 21
16.6731446384
  0
LINE
  5
267
100
AcDbEntity
  8
RACCORDO
100
AcDbLine
 62
253
  6
CONTINUOUS
 10
13.9654229396
 20
16.2913490307
 11
13.9655820817
 21
16.2914283531
  0
LINE
  5
268
100
AcDbEntity
  8
RACCORDO
100
AcDbLine
 62
253
  6
CONTINUOUS
 10
14.5335686622
 20
15.0294179786
 11
14.4636415651
 21
14.9959493317
  0
LINE
  5
269
100
AcDbEntity
  8
RACCORDO
100
AcDbLine
 62
7
  6
CONTINUOUS
 10
17.3273595822
 20
16.8434790966
 11
22.0267129812
 21
19.0137962275
  0
LINE
  5
26A
100
AcDbEntity
  8
DRAFT
100
AcDbLine
 62
7
  6
CONTINUOUS
 10
16.5584249539
 20
13.3634020689
 11
16.0907828596
 21
13.2067211651
  0
LINE
  5
26B
100
AcDbEntity
  8
RACCORDO
100
AcDbLine
 62
7
  6
CONTINUOUS
 10
17.2598823863
 20
15.3728699816
 11
23.1380502929
 21
18.5442764223
  0
LINE
  5
26C
100
AcDbEntity
  8
DRAFT
100
AcDbLine
 62
7
  6
CONTINUOUS
 10
17.4953873026
 20
15.0394699079
 11
23.1815185252
 21
17.9835505325
  0
LINE
  5
26D
100
AcDbEntity
  8
RACCORDO
100
AcDbLine
 62
253
  6
CONTINUOUS
 10
15.597480558
 20
15.307589768
 11
17.7188009016
 21
16.3682499398
  0
LINE
  5
26E
100
AcDbEntity
  8
RACCORDO
100
AcDbLine
 62
253
  6
CONTINUOUS
 10
16.3045873392
 20
14.2511232884
 11
17.0116941204
 21
14.5895601493
  0
LINE
  5
26F
100
AcDbEntity
  8
RACCORDO
100
AcDbLine
 62
253
  6
CONTINUOUS
 10
16.3952930798
 20
14.0407288298
 11
17.1059044448
 21
14.3758835836
  0
LINE
  5
270
100
AcDbEntity
  8
RACCORDO
100
AcDbLine
 62
253
  6
CONTINUOUS
 10
17.2698710256
 20
14.5505571433
 11
17.8954160368
 21
14.8394555408
  0
LINE
  5
271
100
AcDbEntity
  8
RACCORDO
100
AcDbLine
 62
253
  6
CONTINUOUS
 10
17.6110293454
 20
13.9346909398
 11
18.2491309874
 21
14.2293874937
  0
LINE
  5
272
100
AcDbEntity
  8
RACCORDO
100
AcDbLine
 62
253
  6
CONTINUOUS
 10
16.0907828596
 20
13.232590803
 11
16.3265289962
 21
13.341470084
  0
LINE
  5
273
100
AcDbEntity
  8
RACCORDO
100
AcDbLine
 62
253
  6
CONTINUOUS
 10
15.7370679089
 20
13.8426588502
 11
15.9854326773
 21
13.957324455
  0
LINE
  5
274
100
AcDbEntity
  8
DRAFT
100
AcDbLine
 62
7
  6
CONTINUOUS
 10
22.4477410702
 20
-17.8494226182
 11
23.1815185252
 21
-18.2163113457
  0
LINE
  5
275
100
AcDbEntity
  8
DRAFT
100
AcDbLine
 62
7
  6
CONTINUOUS
 10
18.2491309874
 20
-15.0462716055
 11
19.5585036049
 21
-15.7009579142
  0
LINE
  5
276
100
AcDbEntity
  8
ASSI
100
AcDbLine
 62
253
  6
CONTINUOUS
 10
8.4743934131
 20
9.7583390051
 11
12.581347147
 21
12.2605415585
  0
LINE
  5
277
100
AcDbEntity
  8
RACCORDO
100
AcDbLine
 62
253
  6
CONTINUOUS
 10
8.4743934131
 20
9.7583390051
 11
12.581347147
 21
12.2605415585
  0
LINE
  5
278
100
AcDbEntity
  8
ASSI
100
AcDbLine
 62
253
  6
CONTINUOUS
 10
9.0892879057
 20
8.810108169
 11
13.1962416396
 21
11.3123107223
  0
LINE
  5
279
100
AcDbEntity
  8
RACCORDO
100
AcDbLine
 62
253
  6
CONTINUOUS
 10
9.0892879057
 20
8.810108169
 11
13.1962416396
 21
11.3123107223
  0
LINE
  5
27A
100
AcDbEntity
  8
RACCORDO
100
AcDbLine
 62
253
  6
CONTINUOUS
 10
13.2064770592
 20
11.1741438386
 11
13.9645790848
 21
11.5561178168
  0
LINE
  5
27B
100
AcDbEntity
  8
RACCORDO
100
AcDbLine
 62
253
  6
CONTINUOUS
 10
13.2627380836
 20
10.4146820126
 11
14.2738218651
 21
10.9241222743
  0
LINE
  5
27C
100
AcDbEntity
  8
DRAFT
100
AcDbLine
 62
7
  6
CONTINUOUS
 10
0.7162798673
 20
18.1930751984
 11
0.8479539289
 21
19.5979998583
  0
LINE
  5
27D
100
AcDbEntity
  8
RACCORDO
100
AcDbLine
 62
7
  6
CONTINUOUS
 10
0.3963572078
 20
21.0798036289
 11
0.3963572078
 21
21.053933991
  0
LINE
  5
27E
100
AcDbEntity
  8
RACCORDO
100
AcDbLine
 62
7
  6
CONTINUOUS
 10
0.462882814
 20
22.3985746679
 11
0.462882814
 21
22.74988864
  0
LINE
  5
27F
100
AcDbEntity
  8
RACCORDO
100
AcDbLine
 62
253
  6
CONTINUOUS
 10
0.5361061187
 20
22.3101863203
 11
0.5361061187
 21
22.6615002923
  0
LINE
  5
280
100
AcDbEntity
  8
DRAFT
100
AcDbLine
 62
7
  6
CONTINUOUS
 10
0.8479539289
 20
19.5979998583
 11
0.8479539289
 21
20.8281356305
  0
LINE
  5
281
100
AcDbEntity
  8
RACCORDO
100
AcDbLine
 62
7
  6
CONTINUOUS
 10
1.1699895952
 20
21.6981744559
 11
1.1699895952
 21
21.8905127801
  0
LINE
  5
282
100
AcDbEntity
  8
RACCORDO
100
AcDbLine
 62
253
  6
CONTINUOUS
 10
1.2432128999
 20
21.6118362511
 11
1.2432128999
 21
21.8539011278
  0
LINE
  5
283
100
AcDbEntity
  8
RACCORDO
100
AcDbLine
 62
253
  6
CONTINUOUS
 10
1.879609003
 20
21.9897488502
 11
1.879609003
 21
21.6384348781
  0
LINE
  5
284
100
AcDbEntity
  8
RACCORDO
100
AcDbLine
 62
253
  6
CONTINUOUS
 10
2.2331623936
 20
21.9897488502
 11
2.2331623936
 21
21.6384348781
  0
LINE
  5
285
100
AcDbEntity
  8
RACCORDO
100
AcDbLine
 62
253
  6
CONTINUOUS
 10
2.5867157842
 20
21.2419882687
 11
2.5867157842
 21
20.940084809
  0
LWPOLYLINE
  5
286
100
AcDbEntity
  8
RACCORDO
100
AcDbPolyline
 62
7
  6
CONTINUOUS
 90
6
 70
0
 10
1.1699940094
 20
21.6984059982
 10
1.1697845344
 20
21.6920507668
 10
1.1681160602
 20
21.6797961656
 10
1.1652721467
 20
21.6694013136
 10
1.1619582167
 20
21.6613514648
 10
1.1596038144
 20
21.6569708706
  0
LINE
  5
287
100
AcDbEntity
  8
DRAFT
100
AcDbLine
 62
7
  6
CONTINUOUS
 10
14.7957739828
 20
-6.388688497
 11
14.4964467131
 21
-6.2390248622
  0
LINE
  5
288
100
AcDbEntity
  8
RACCORDO
100
AcDbLine
 62
7
  6
CONTINUOUS
 10
3.7207324265
 20
21.3502330736
 11
3.7205947348
 21
21.3553933904
  0
LINE
  5
289
100
AcDbEntity
  8
RACCORDO
100
AcDbLine
 62
253
  6
CONTINUOUS
 10
2.9402691748
 20
21.2419882687
 11
2.9402691748
 21
20.9332823706
  0
LINE
  5
28A
100
AcDbEntity
  8
RACCORDO
100
AcDbLine
 62
253
  6
CONTINUOUS
 10
3.6473759559
 20
21.2717192316
 11
3.6473759559
 21
21.5955416593
  0
LINE
  5
28B
100
AcDbEntity
  8
RACCORDO
100
AcDbLine
 62
7
  6
CONTINUOUS
 10
3.7205992599
 20
21.3553071724
 11
3.7205992606
 21
21.683930007
  0
LINE
  5
28C
100
AcDbEntity
  8
RACCORDO
100
AcDbLine
 62
253
  6
CONTINUOUS
 10
4.3544827371
 20
23.050409022
 11
4.3544827371
 21
22.6990950499
  0
LINE
  5
28D
100
AcDbEntity
  8
RACCORDO
100
AcDbLine
 62
7
  6
CONTINUOUS
 10
4.4277060418
 20
23.1387973696
 11
4.4277060418
 21
22.7874833976
  0
LINE
  5
28E
100
AcDbEntity
  8
RACCORDO
100
AcDbLine
 62
253
  6
CONTINUOUS
 10
17.1884708157
 20
15.3767709247
 11
17.7188009016
 21
16.0169359677
  0
LINE
  5
28F
100
AcDbEntity
  8
RACCORDO
100
AcDbLine
 62
7
  6
CONTINUOUS
 10
17.2042131585
 20
15.3056712792
 11
17.7345432444
 21
15.9458363222
  0
LINE
  5
290
100
AcDbEntity
  8
RACCORDO
100
AcDbLine
 62
7
  6
CONTINUOUS
 10
18.2491309874
 20
12.547049583
 11
22.3620587153
 21
16.4602185393
  0
LINE
  5
291
100
AcDbEntity
  8
RACCORDO
100
AcDbLine
 62
7
  6
CONTINUOUS
 10
6.0444832792
 20
19.4822794351
 11
6.0444832792
 21
20.6818138428
  0
LINE
  5
292
100
AcDbEntity
  8
RACCORDO
100
AcDbLine
 62
253
  6
CONTINUOUS
 10
6.1909298886
 20
19.3077181118
 11
6.1909298886
 21
20.5050371475
  0
LINE
  5
293
100
AcDbEntity
  8
RACCORDO
100
AcDbLine
 62
253
  6
CONTINUOUS
 10
11.7104237411
 20
17.7452902212
 11
11.7104237411
 21
16.5479711856
  0
LINE
  5
294
100
AcDbEntity
  8
ASSI
100
AcDbLine
 62
253
  6
CONTINUOUS
 10
-22.5187050338
 20
22.9882072907
 11
7.5163323652
 21
7.9706885912
  0
LINE
  5
295
100
AcDbEntity
  8
RACCORDO
100
AcDbLine
 62
253
  6
CONTINUOUS
 10
-22.5187050338
 20
22.9882072907
 11
7.5163323652
 21
7.9706885912
  0
LINE
  5
296
100
AcDbEntity
  8
DRAFT
100
AcDbLine
 62
7
  6
CONTINUOUS
 10
16.5584249539
 20
-22.8179690831
 11
14.7957739828
 21
-6.388688497
  0
LINE
  5
297
100
AcDbEntity
  8
ASSI
100
AcDbLine
 62
7
  6
CONTINUOUS
 10
13.1962416396
 20
11.3123107223
 11
15.7908130015
 21
-23.7115432828
  0
LINE
  5
298
100
AcDbEntity
  8
RACCORDO
100
AcDbLine
 62
7
  6
CONTINUOUS
 10
13.1962416396
 20
11.3123107223
 11
15.7908130015
 21
-23.7115432828
  0
LINE
  5
299
100
AcDbEntity
  8
RACCORDO
100
AcDbLine
 62
253
  6
CONTINUOUS
 10
13.8272009784
 20
-25.934502538
 11
13.8272011368
 21
-25.9346432183
  0
LINE
  5
29A
100
AcDbEntity
  8
RACCORDO
100
AcDbLine
 62
253
  6
CONTINUOUS
 10
12.4195609682
 20
17.7463113084
 11
12.4195609682
 21
16.5413904757
  0
LINE
  5
29B
100
AcDbEntity
  8
RACCORDO
100
AcDbLine
 62
7
  6
CONTINUOUS
 10
12.8397641114
 20
22.2112132642
 11
12.8397641114
 21
23.1115683649
  0
LINE
  5
29C
100
AcDbEntity
  8
RACCORDO
100
AcDbLine
 62
7
  6
CONTINUOUS
 10
13.8272009784
 20
-25.9345025258
 11
13.8272009784
 21
-25.5831885537
  0
LINE
  5
29D
100
AcDbEntity
  8
RACCORDO
100
AcDbLine
 62
7
  6
CONTINUOUS
 10
13.8272009784
 20
15.7164155857
 11
13.8272009784
 21
16.0677295578
  0
LINE
  5
29E
100
AcDbEntity
  8
RACCORDO
100
AcDbLine
 62
253
  6
CONTINUOUS
 10
13.9004242831
 20
-26.0228908734
 11
13.9004242831
 21
-25.6715769013
  0
LINE
  5
29F
100
AcDbEntity
  8
RACCORDO
100
AcDbLine
 62
253
  6
CONTINUOUS
 10
13.9004242831
 20
15.628027238
 11
13.9004242831
 21
15.9793412101
  0
LINE
  5
2A0
100
AcDbEntity
  8
RACCORDO
100
AcDbLine
 62
7
  6
CONTINUOUS
 10
14.5343077596
 20
15.0160153736
 11
14.5343077596
 21
15.2083536979
  0
LINE
  5
2A1
100
AcDbEntity
  8
RACCORDO
100
AcDbLine
 62
253
  6
CONTINUOUS
 10
14.6075310643
 20
14.9296771689
 11
14.6075310643
 21
15.1717420456
  0
LWPOLYLINE
  5
2A2
100
AcDbEntity
  8
RACCORDO
100
AcDbPolyline
 62
7
  6
CONTINUOUS
 90
6
 70
0
 10
14.5343121739
 20
15.016246916
 10
14.5341026988
 20
15.0098916846
 10
14.5324342246
 20
14.9976370834
 10
14.5295903111
 20
14.9872422314
 10
14.5262763811
 20
14.9791923826
 10
14.5239219788
 20
14.9748117884
  0
LINE
  5
2A3
100
AcDbEntity
  8
RACCORDO
100
AcDbLine
 62
7
  6
CONTINUOUS
 10
13.6785837232
 20
4.8012241646
 11
14.2738218651
 21
10.9241222743
  0
LINE
  5
2A4
100
AcDbEntity
  8
ASSI
100
AcDbLine
 62
253
  6
CONTINUOUS
 10
-21.5775822396
 20
24.7843268315
 11
8.4743934131
 21
9.7583390051
  0
LINE
  5
2A5
100
AcDbEntity
  8
RACCORDO
100
AcDbLine
 62
253
  6
CONTINUOUS
 10
-21.5775822396
 20
24.7843268315
 11
8.4743934131
 21
9.7583390051
  0
LWPOLYLINE
  5
2A6
100
AcDbEntity
  8
RACCORDO
100
AcDbPolyline
 62
7
  6
CONTINUOUS
 90
5
 70
0
 10
3.7307626748
 20
21.3148090377
 10
3.7277750577
 20
21.3204951593
 10
3.7247239942
 20
21.3283701525
 10
3.7221654208
 20
21.3384222015
 10
3.7207324265
 20
21.3502330736
  0
LINE
  5
2A7
100
AcDbEntity
  8
RACCORDO
100
AcDbLine
 62
253
  6
CONTINUOUS
 10
15.2439271674
 20
15.307589768
 11
15.2439271674
 21
14.9562757959
  0
LINE
  5
2A8
100
AcDbEntity
  8
RACCORDO
100
AcDbLine
 62
253
  6
CONTINUOUS
 10
15.2439271674
 20
-26.3433283435
 11
15.2439271674
 21
-26.6946423156
  0
LINE
  5
2A9
100
AcDbEntity
  8
RACCORDO
100
AcDbLine
 62
7
  6
CONTINUOUS
 10
15.3146378455
 20
22.0035934127
 11
15.3146378455
 21
22.1987063577
  0
LINE
  5
2AA
100
AcDbEntity
  8
RACCORDO
100
AcDbLine
 62
253
  6
CONTINUOUS
 10
15.597480558
 20
15.307589768
 11
15.597480558
 21
14.9562757959
  0
LINE
  5
2AB
100
AcDbEntity
  8
RACCORDO
100
AcDbLine
 62
253
  6
CONTINUOUS
 10
15.597480558
 20
-26.3433283435
 11
15.597480558
 21
-26.6946423156
  0
LINE
  5
2AC
100
AcDbEntity
  8
RACCORDO
100
AcDbLine
 62
253
  6
CONTINUOUS
 10
15.9510339486
 20
14.5598291865
 11
15.9510339486
 21
14.2579257267
  0
LINE
  5
2AD
100
AcDbEntity
  8
RACCORDO
100
AcDbLine
 62
253
  6
CONTINUOUS
 10
15.9510339486
 20
-25.0296825516
 11
15.9510339486
 21
-25.2397749529
  0
LINE
  5
2AE
100
AcDbEntity
  8
RACCORDO
100
AcDbLine
 62
7
  6
CONTINUOUS
 10
16.0907828596
 20
13.232590803
 11
16.0907828596
 21
13.2067211651
  0
LINE
  5
2AF
100
AcDbEntity
  8
RACCORDO
100
AcDbLine
 62
7
  6
CONTINUOUS
 10
16.0907828596
 20
-24.7593922616
 11
16.0907828596
 21
-24.7335226237
  0
LINE
  5
2B0
100
AcDbEntity
  8
RACCORDO
100
AcDbLine
 62
253
  6
CONTINUOUS
 10
16.3045873392
 20
14.5598291865
 11
16.3045873392
 21
14.2511232884
  0
LINE
  5
2B1
100
AcDbEntity
  8
RACCORDO
100
AcDbLine
 62
253
  6
CONTINUOUS
 10
16.3045873392
 20
-24.9310690548
 11
16.3045873392
 21
-25.2397749529
  0
LINE
  5
2B2
100
AcDbEntity
  8
DRAFT
100
AcDbLine
 62
7
  6
CONTINUOUS
 10
16.5584249539
 20
-24.4386068063
 11
16.5584249539
 21
-22.8179690831
  0
LINE
  5
2B3
100
AcDbEntity
  8
DRAFT
100
AcDbLine
 62
7
  6
CONTINUOUS
 10
16.5584249539
 20
11.7427643457
 11
16.5584249539
 21
13.3634020689
  0
LINE
  5
2B4
100
AcDbEntity
  8
RACCORDO
100
AcDbLine
 62
253
  6
CONTINUOUS
 10
17.0116941204
 20
-24.8862215623
 11
17.0116941204
 21
-24.5623991345
  0
LINE
  5
2B5
100
AcDbEntity
  8
RACCORDO
100
AcDbLine
 62
253
  6
CONTINUOUS
 10
17.0116941204
 20
14.5895601493
 11
17.0116941204
 21
14.9133825771
  0
LINE
  5
2B6
100
AcDbEntity
  8
DRAFT
100
AcDbLine
 62
7
  6
CONTINUOUS
 10
14.7957739828
 20
-6.388688497
 11
16.5584249539
 21
11.7427643457
  0
LINE
  5
2B7
100
AcDbEntity
  8
RACCORDO
100
AcDbLine
 62
7
  6
CONTINUOUS
 10
13.9645790848
 20
11.5561178168
 11
12.6945594467
 21
12.1911276359
  0
LINE
  5
2B8
100
AcDbEntity
  8
ASSI
100
AcDbLine
 62
7
  6
CONTINUOUS
 10
-17.6122847229
 20
27.3573574935
 11
12.581347147
 21
12.2605415585
  0
LINE
  5
2B9
100
AcDbEntity
  8
RACCORDO
100
AcDbLine
 62
7
  6
CONTINUOUS
 10
-17.6122847229
 20
27.3573574935
 11
12.581347147
 21
12.2605415585
  0
LINE
  5
2BA
100
AcDbEntity
  8
RACCORDO
100
AcDbLine
 62
7
  6
CONTINUOUS
 10
17.0850533424
 20
14.6680240483
 11
17.0849128991
 21
14.6732343384
  0
LINE
  5
2BB
100
AcDbEntity
  8
RACCORDO
100
AcDbLine
 62
7
  6
CONTINUOUS
 10
17.0849174251
 20
-24.7978332146
 11
17.0849174251
 21
-24.4957779554
  0
LINE
  5
2BC
100
AcDbEntity
  8
RACCORDO
100
AcDbLine
 62
7
  6
CONTINUOUS
 10
17.0849174243
 20
14.6731480902
 11
17.0849174251
 21
15.0017709247
  0
LINE
  5
2BD
100
AcDbEntity
  8
RACCORDO
100
AcDbLine
 62
253
  6
CONTINUOUS
 10
17.7188009016
 20
16.3682499398
 11
17.7188009016
 21
16.0169359677
  0
LINE
  5
2BE
100
AcDbEntity
  8
RACCORDO
100
AcDbLine
 62
253
  6
CONTINUOUS
 10
17.7188009016
 20
-25.2826681717
 11
17.7188009016
 21
-25.6339821438
  0
LINE
  5
2BF
100
AcDbEntity
  8
RACCORDO
100
AcDbLine
 62
7
  6
CONTINUOUS
 10
17.7920242063
 20
16.4566382874
 11
17.7920242063
 21
16.1053243153
  0
LINE
  5
2C0
100
AcDbEntity
  8
RACCORDO
100
AcDbLine
 62
7
  6
CONTINUOUS
 10
17.7920242063
 20
-25.194279824
 11
17.7920242063
 21
-25.5455937961
  0
LINE
  5
2C1
100
AcDbEntity
  8
RACCORDO
100
AcDbLine
 62
7
  6
CONTINUOUS
 10
18.2491309874
 20
-23.671896393
 11
18.2491309874
 21
14.2293874937
  0
LINE
  5
2C2
100
AcDbEntity
  8
RACCORDO
100
AcDbLine
 62
7
  6
CONTINUOUS
 10
18.3933261809
 20
19.4344322295
 11
18.3933261809
 21
20.3347873301
  0
LINE
  5
2C3
100
AcDbEntity
  8
0
100
AcDbLine
 62
7
  6
CONTINUOUS
 10
13.4673669419
 20
21.6861757435
 11
15.3146378455
 21
22.0035934127
  0
LINE
  5
2C4
100
AcDbEntity
  8
RACCORDO
100
AcDbLine
 62
7
  6
CONTINUOUS
 10
15.3700031101
 20
14.7998592545
 11
15.900333196
 21
14.6900242975
  0
LINE
  5
2C5
100
AcDbEntity
  8
RACCORDO
100
AcDbLine
 62
253
  6
CONTINUOUS
 10
15.597480558
 20
14.9562757959
 11
16.1278106439
 21
14.8464408389
  0
LINE
  5
2C6
100
AcDbEntity
  8
DRAFT
100
AcDbLine
 62
7
  6
CONTINUOUS
 10
16.5584249539
 20
11.7427643457
 11
0.8479539289
 21
19.5979998583
  0
LINE
  5
2C7
100
AcDbEntity
  8
DRAFT
100
AcDbLine
 62
7
  6
CONTINUOUS
 10
16.0907828596
 20
13.2067211651
 11
0.3963572078
 21
21.053933991
  0
LINE
  5
2C8
100
AcDbEntity
  8
RACCORDO
100
AcDbLine
 62
7
  6
CONTINUOUS
 10
15.7370679089
 20
13.8426588502
 11
0.7500721584
 21
21.3361567254
  0
LWPOLYLINE
  5
2C9
100
AcDbEntity
  8
RACCORDO
100
AcDbPolyline
 62
7
  6
CONTINUOUS
 90
4
 70
0
 10
3.7326161795
 20
21.3119090865
 10
3.7329560918
 20
21.3115572946
 10
3.7327657919
 20
21.311826084
 10
3.7307626748
 20
21.3148090377
  0
LINE
  5
2CA
100
AcDbEntity
  8
RACCORDO
100
AcDbLine
 62
7
  6
CONTINUOUS
 10
2.0056849457
 20
21.4820183368
 11
2.5360150316
 21
21.3721833797
  0
LINE
  5
2CB
100
AcDbEntity
  8
RACCORDO
100
AcDbLine
 62
253
  6
CONTINUOUS
 10
2.2331623936
 20
21.6384348781
 11
2.7634924795
 21
21.5285999211
  0
LINE
  5
2CC
100
AcDbEntity
  8
RACCORDO
100
AcDbLine
 62
253
  6
CONTINUOUS
 10
1.0993234007
 20
21.3667128007
 11
2.4428262849
 21
20.6949613586
  0
LINE
  5
2CD
100
AcDbEntity
  8
RACCORDO
100
AcDbLine
 62
253
  6
CONTINUOUS
 10
14.4636415651
 20
14.6845537185
 11
15.8071444494
 21
14.0128022763
  0
LINE
  5
2CE
100
AcDbEntity
  8
RACCORDO
100
AcDbLine
 62
253
  6
CONTINUOUS
 10
1.2432128999
 20
21.6118362511
 11
2.5867157842
 21
20.940084809
  0
LINE
  5
2CF
100
AcDbEntity
  8
RACCORDO
100
AcDbLine
 62
253
  6
CONTINUOUS
 10
14.6075310643
 20
14.9296771689
 11
15.9510339486
 21
14.2579257267
  0
LINE
  5
2D0
100
AcDbEntity
  8
RACCORDO
100
AcDbLine
 62
7
  6
CONTINUOUS
 10
6.1909298886
 20
19.3077181118
 11
11.7104237411
 21
16.5479711856
  0
LINE
  5
2D1
100
AcDbEntity
  8
RACCORDO
100
AcDbLine
 62
7
  6
CONTINUOUS
 10
0.6010794151
 20
22.1749678702
 11
1.9445822994
 21
21.503216428
  0
LINE
  5
2D2
100
AcDbEntity
  8
RACCORDO
100
AcDbLine
 62
7
  6
CONTINUOUS
 10
13.9653975796
 20
15.4928087879
 11
15.3089004638
 21
14.8210573458
  0
LINE
  5
2D3
100
AcDbEntity
  8
RACCORDO
100
AcDbLine
 62
253
  6
CONTINUOUS
 10
15.9510339486
 20
14.5598291865
 11
15.5423708809
 21
14.7641607204
  0
LINE
  5
2D4
100
AcDbEntity
  8
RACCORDO
100
AcDbLine
 62
253
  6
CONTINUOUS
 10
2.5867157842
 20
21.2419882687
 11
2.1780527165
 21
21.4463198026
  0
LINE
  5
2D5
100
AcDbEntity
  8
RACCORDO
100
AcDbLine
 62
253
  6
CONTINUOUS
 10
0.5361061187
 20
22.3101863203
 11
1.879609003
 21
21.6384348781
  0
LINE
  5
2D6
100
AcDbEntity
  8
RACCORDO
100
AcDbLine
 62
253
  6
CONTINUOUS
 10
13.9004242831
 20
15.628027238
 11
15.2439271674
 21
14.9562757959
  0
LINE
  5
2D7
100
AcDbEntity
  8
RACCORDO
100
AcDbLine
 62
253
  6
CONTINUOUS
 10
0.5361061187
 20
22.6615002923
 11
1.879609003
 21
21.9897488502
  0
LINE
  5
2D8
100
AcDbEntity
  8
RACCORDO
100
AcDbLine
 62
253
  6
CONTINUOUS
 10
13.9004242831
 20
15.9793412101
 11
15.2439271674
 21
15.307589768
  0
LINE
  5
2D9
100
AcDbEntity
  8
RACCORDO
100
AcDbLine
 62
253
  6
CONTINUOUS
 10
17.1506473336
 20
14.6558323121
 11
17.0910989755
 21
14.6856064912
  0
LINE
  5
2DA
100
AcDbEntity
  8
RACCORDO
100
AcDbLine
 62
253
  6
CONTINUOUS
 10
3.7863291692
 20
21.3379913943
 11
3.7267808232
 21
21.3677655673
  0
LINE
  5
2DB
100
AcDbEntity
  8
RACCORDO
100
AcDbLine
 62
253
  6
CONTINUOUS
 10
0.712882814
 20
22.9663949909
 11
2.0563856983
 21
22.2946435488
  0
LINE
  5
2DC
100
AcDbEntity
  8
RACCORDO
100
AcDbLine
 62
253
  6
CONTINUOUS
 10
14.0772009784
 20
16.2842359087
 11
15.4207038627
 21
15.6124844666
  0
LINE
  5
2DD
100
AcDbEntity
  8
RACCORDO
100
AcDbLine
 62
7
  6
CONTINUOUS
 10
6.1909298886
 20
20.5050371475
 11
11.7104237411
 21
17.7452902212
  0
LINE
  5
2DE
100
AcDbEntity
  8
RACCORDO
100
AcDbLine
 62
7
  6
CONTINUOUS
 10
3.7799475345
 20
21.8971897919
 11
5.1906682798
 21
21.1918294193
  0
LINE
  5
2DF
100
AcDbEntity
  8
RACCORDO
100
AcDbLine
 62
7
  6
CONTINUOUS
 10
17.1442656989
 20
15.2150307097
 11
17.8954160368
 21
14.8394555408
  0
LINE
  5
2E0
100
AcDbEntity
  8
RACCORDO
100
AcDbLine
 62
7
  6
CONTINUOUS
 10
22.4477410702
 20
17.6036261333
 11
22.4477410702
 21
16.7086632699
  0
LINE
  5
2E1
100
AcDbEntity
  8
RACCORDO
100
AcDbLine
 62
7
  6
CONTINUOUS
 10
22.4477410702
 20
-16.2076466282
 11
22.4477410702
 21
-17.8494226182
  0
LINE
  5
2E2
100
AcDbEntity
  8
RACCORDO
100
AcDbLine
 62
7
  6
CONTINUOUS
 10
23.1815185252
 20
18.2652660179
 11
23.1815185252
 21
17.9835505325
  0
LINE
  5
2E3
100
AcDbEntity
  8
RACCORDO
100
AcDbLine
 62
7
  6
CONTINUOUS
 10
23.1815185252
 20
-18.2163113457
 11
23.1815185252
 21
-18.4980268311
  0
LINE
  5
2E4
100
AcDbEntity
  8
0
100
AcDbLine
 62
7
  6
CONTINUOUS
 10
7.8900166431
 20
21.0697073326
 11
12.8397641114
 21
18.5948335985
  0
LINE
  5
2E5
100
AcDbEntity
  8
RACCORDO
100
AcDbLine
 62
253
  6
CONTINUOUS
 10
2.8342031576
 20
24.0270551627
 11
4.1777060418
 21
23.3553037206
  0
LINE
  5
2E6
100
AcDbEntity
  8
RACCORDO
100
AcDbLine
 62
253
  6
CONTINUOUS
 10
16.198521322
 20
17.3448960805
 11
17.5420242063
 21
16.6731446384
  0
LINE
  5
2E7
100
AcDbEntity
  8
RACCORDO
100
AcDbLine
 62
7
  6
CONTINUOUS
 10
2.9460065565
 20
24.0341556095
 11
4.2895094407
 21
23.3624041674
  0
LINE
  5
2E8
100
AcDbEntity
  8
RACCORDO
100
AcDbLine
 62
7
  6
CONTINUOUS
 10
16.3103247209
 20
17.3519965273
 11
17.6538276051
 21
16.6802450852
  0
LWPOLYLINE
  5
2E9
100
AcDbEntity
  8
RACCORDO
100
AcDbPolyline
 62
7
  6
CONTINUOUS
 90
4
 70
0
 10
17.0969253318
 20
14.6297591077
 10
17.0972694992
 20
14.6294032617
 10
17.0970915261
 20
14.6296571083
 10
17.0950967526
 20
14.6326236793
  0
LWPOLYLINE
  5
2EA
100
AcDbEntity
  8
RACCORDO
100
AcDbPolyline
 62
7
  6
CONTINUOUS
 90
5
 70
0
 10
17.0950967526
 20
14.6326236793
 10
17.0921126168
 20
14.6382938159
 10
17.0890593705
 20
14.6461579338
 10
17.0864941113
 20
14.6562078162
 10
17.0850533424
 20
14.6680240483
  0
LINE
  5
2EB
100
AcDbEntity
  8
DRAFT
100
AcDbLine
 62
7
  6
CONTINUOUS
 10
18.2491309874
 20
-19.9856909484
 11
22.4477410702
 21
-17.8494226182
  0
LINE
  5
2EC
100
AcDbEntity
  8
0
100
AcDbLine
 62
7
  6
CONTINUOUS
 10
16.2449076717
 20
20.2974053786
 11
13.4673669419
 21
21.6861757435
  0
LINE
  5
2ED
100
AcDbEntity
  8
RACCORDO
100
AcDbLine
 62
253
  6
CONTINUOUS
 10
18.0418091342
 20
20.5900051648
 11
17.4359581891
 21
20.8929306373
  0
LINE
  5
2EE
100
AcDbEntity
  8
RACCORDO
100
AcDbLine
 62
253
  6
CONTINUOUS
 10
12.4862107208
 20
23.3678043715
 11
11.8803597757
 21
23.670729844
  0
LINE
  5
2EF
100
AcDbEntity
  8
0
100
AcDbLine
 62
7
  6
CONTINUOUS
 10
15.3146378455
 20
22.0035934127
 11
17.4915831572
 21
20.9151207568
  0
LINE
  5
2F0
100
AcDbEntity
  8
0
100
AcDbLine
 62
7
  6
CONTINUOUS
 10
18.3706781417
 20
20.4755732645
 11
18.4882715611
 21
20.4167765548
  0
LINE
  5
2F1
100
AcDbEntity
  8
RACCORDO
100
AcDbLine
 62
7
  6
CONTINUOUS
 10
18.2641342452
 20
20.6048469018
 11
17.6595649868
 21
20.9071315309
  0
LINE
  5
2F2
100
AcDbEntity
  8
RACCORDO
100
AcDbLine
 62
7
  6
CONTINUOUS
 10
12.7098175185
 20
23.3820052651
 11
12.1052482602
 21
23.6842898942
  0
LINE
  5
2F3
100
AcDbEntity
  8
RACCORDO
100
AcDbLine
 62
7
  6
CONTINUOUS
 10
13.8846819404
 20
-25.4237005605
 11
14.3778064828
 21
-24.8284465814
  0
LINE
  5
2F4
100
AcDbEntity
  8
RACCORDO
100
AcDbLine
 62
253
  6
CONTINUOUS
 10
13.9888126308
 20
-25.4398827275
 11
14.5191427167
 21
-24.7997176846
  0
LINE
  5
2F5
100
AcDbEntity
  8
RACCORDO
100
AcDbLine
 62
253
  6
CONTINUOUS
 10
15.8626456009
 20
-25.4714691267
 11
15.3323155151
 21
-26.1116341696
  0
LINE
  5
2F6
100
AcDbEntity
  8
RACCORDO
100
AcDbLine
 62
253
  6
CONTINUOUS
 10
16.1278106439
 20
-25.7031633005
 11
15.597480558
 21
-26.3433283435
  0
LINE
  5
2F7
100
AcDbEntity
  8
ASSI
100
AcDbLine
 62
253
  6
CONTINUOUS
 10
15.7908130015
 20
-23.7115432828
 11
11.6715131147
 21
-26.0470863793
  0
LINE
  5
2F8
100
AcDbEntity
  8
RACCORDO
100
AcDbLine
 62
253
  6
CONTINUOUS
 10
15.7908130015
 20
-23.7115432828
 11
11.6715131147
 21
-26.0470863793
  0
LINE
  5
2F9
100
AcDbEntity
  8
ASSI
100
AcDbLine
 62
7
  6
CONTINUOUS
 10
15.6336817502
 20
-24.1163957738
 11
11.5103216908
 21
-26.4542408896
  0
LINE
  5
2FA
100
AcDbEntity
  8
RACCORDO
100
AcDbLine
 62
7
  6
CONTINUOUS
 10
15.6336748896
 20
-24.1163996637
 11
11.5103216907
 21
-26.4542408897
  0
LINE
  5
2FB
100
AcDbEntity
  8
DRAFT
100
AcDbLine
 62
7
  6
CONTINUOUS
 10
18.2491309874
 20
-20.7701297531
 11
23.1815185252
 21
-18.2163113457
  0
LINE
  5
2FC
100
AcDbEntity
  8
RACCORDO
100
AcDbLine
 62
7
  6
CONTINUOUS
 10
18.2491309874
 20
-21.3846396072
 11
22.0267129812
 21
-19.4812836294
  0
LINE
  5
2FD
100
AcDbEntity
  8
RACCORDO
100
AcDbLine
 62
7
  6
CONTINUOUS
 10
18.2491309874
 20
-21.2469899249
 11
23.1380502929
 21
-18.8220499078
  0
LWPOLYLINE
  5
2FE
100
AcDbEntity
  8
RACCORDO
100
AcDbPolyline
 62
7
  6
CONTINUOUS
 90
7
 70
0
 10
16.3210698472
 20
-24.8668341723
 10
16.3473215596
 20
-24.8583934151
 10
16.3756787946
 20
-24.848649076
 10
16.4046751725
 20
-24.8378317613
 10
16.4344033404
 20
-24.8257019474
 10
16.4673511519
 20
-24.8109232567
 10
16.4962901647
 20
-24.796718252
  0
LINE
  5
2FF
100
AcDbEntity
  8
RACCORDO
100
AcDbLine
 62
253
  6
CONTINUOUS
 10
11.4556712644
 20
24.2993170859
 11
14.6198717793
 21
22.7172168285
  0
LINE
  5
300
100
AcDbEntity
  8
RACCORDO
100
AcDbLine
 62
253
  6
CONTINUOUS
 10
18.8625124664
 20
20.5958964849
 11
22.0267129812
 21
19.0137962275
  0
LINE
  5
301
100
AcDbEntity
  8
RACCORDO
100
AcDbLine
 62
7
  6
CONTINUOUS
 10
11.7298374014
 20
24.4020337873
 11
15.0547446598
 21
22.7395801581
  0
LINE
  5
302
100
AcDbEntity
  8
RACCORDO
100
AcDbLine
 62
7
  6
CONTINUOUS
 10
19.297385347
 20
20.6182598145
 11
22.6222926053
 21
18.9558061853
  0
LWPOLYLINE
  5
303
100
AcDbEntity
  8
RACCORDO
100
AcDbPolyline
 62
7
  6
CONTINUOUS
 90
5
 70
0
 10
17.4049758306
 20
-24.311832868
 10
17.4302744726
 20
-24.2949417332
 10
17.4533818095
 20
-24.2801727786
 10
17.4728741535
 20
-24.268590057
 10
17.4885816416
 20
-24.2601555478
  0
LINE
  5
304
100
AcDbEntity
  8
DRAFT
100
AcDbLine
 62
7
  6
CONTINUOUS
 10
16.0907828596
 20
-24.7335226237
 11
16.5584249539
 21
-24.4386068063
  0
LWPOLYLINE
  5
305
100
AcDbEntity
  8
RACCORDO
100
AcDbPolyline
 62
7
  6
CONTINUOUS
 90
6
 70
0
 10
17.2212461369
 20
-24.4260982153
 10
17.2555707261
 20
-24.4075215638
 10
17.2880248057
 20
-24.3885477153
 10
17.3193417949
 20
-24.3690477406
 10
17.3495888376
 20
-24.3492812852
 10
17.4049758306
 20
-24.311832868
  0
LINE
  5
306
100
AcDbEntity
  8
RACCORDO
100
AcDbLine
 62
253
  6
CONTINUOUS
 10
16.3045873392
 20
-24.9310690548
 11
17.0116941204
 21
-24.5623991345
  0
LINE
  5
307
100
AcDbEntity
  8
RACCORDO
100
AcDbLine
 62
7
  6
CONTINUOUS
 10
16.4962000512
 20
-24.7967612038
 11
17.2212461369
 21
-24.4260982153
  0
LINE
  5
308
100
AcDbEntity
  8
RACCORDO
100
AcDbLine
 62
253
  6
CONTINUOUS
 10
16.0907828596
 20
-24.7593922616
 11
16.3265351773
 21
-24.6406138756
  0
LINE
  5
309
100
AcDbEntity
  8
RACCORDO
100
AcDbLine
 62
253
  6
CONTINUOUS
 10
17.6110192701
 20
-23.993417074
 11
18.2491309874
 21
-23.671896393
  0
LINE
  5
30A
100
AcDbEntity
  8
RACCORDO
100
AcDbLine
 62
7
  6
CONTINUOUS
 10
17.4886633796
 20
-24.2601053616
 11
18.1196351418
 21
-23.9421866831
  0
LWPOLYLINE
  5
30B
100
AcDbEntity
  8
RACCORDO
100
AcDbPolyline
 62
7
  6
CONTINUOUS
 90
7
 70
0
 10
15.9612870139
 20
-25.0296825516
 10
16.2059752252
 20
-24.9063992441
 10
16.220717584
 20
-24.8996835057
 10
16.2371931323
 20
-24.8932937115
 10
16.2548243569
 20
-24.8872762433
 10
16.2740491977
 20
-24.8812207357
 10
16.3210698472
 20
-24.8668341723
  0
LINE
  5
30C
100
AcDbEntity
  8
RACCORDO
100
AcDbLine
 62
253
  6
CONTINUOUS
 10
15.597480558
 20
-26.6946423156
 11
17.7188009016
 21
-25.6339821438
  0
LINE
  5
30D
100
AcDbEntity
  8
RACCORDO
100
AcDbLine
 62
7
  6
CONTINUOUS
 10
15.5325072616
 20
-26.8298607657
 11
17.6538276051
 21
-25.7692005939
  0
ARC
  5
30E
100
AcDbEntity
  8
ASSI
100
AcDbCircle
 62
253
  6
CONTINUOUS
 10
-19.3882438455
 20
-10.9945717674
 40
0.5532789177
100
AcDbArc
 50
242.8853976559
 51
243.4324365328
  0
ARC
  5
30F
100
AcDbEntity
  8
RACCORDO
100
AcDbCircle
 62
253
  6
CONTINUOUS
 10
16.1764920136
 20
-24.6924126972
 40
0.2708602397
100
AcDbArc
 50
293.6002453933
 51
298.2240318782
  0
ARC
  5
310
100
AcDbEntity
  8
RACCORDO
100
AcDbCircle
 62
253
  6
CONTINUOUS
 10
17.4841023373
 20
-25.1605498921
 40
0.2545625773
100
AcDbArc
 50
15.3325754149
 51
22.1675191901
  0
ARC
  5
311
100
AcDbEntity
  8
RACCORDO
100
AcDbCircle
 62
7
  6
CONTINUOUS
 10
17.3379929708
 20
-24.7981182515
 40
0.2530757062
100
AcDbArc
 50
179.9354682628
 51
183.4670878419
  0
ARC
  5
312
100
AcDbEntity
  8
RACCORDO
100
AcDbCircle
 62
7
  6
CONTINUOUS
 10
14.0776591129
 20
-25.5833299369
 40
0.2504581744
100
AcDbArc
 50
140.4088461827
 51
179.9676566387
  0
ARC
  5
313
100
AcDbEntity
  8
RACCORDO
100
AcDbCircle
 62
7
  6
CONTINUOUS
 10
17.5416286306
 20
-25.1943610615
 40
0.2503955888
100
AcDbArc
 50
0.0185888359
 51
31.1756305543
  0
ARC
  5
314
100
AcDbEntity
  8
RACCORDO
100
AcDbCircle
 62
7
  6
CONTINUOUS
 10
17.5418678004
 20
-25.5454585327
 40
0.2501909427
100
AcDbArc
 50
296.5832348851
 51
335.1106974808
  0
ARC
  5
315
100
AcDbEntity
  8
RACCORDO
100
AcDbCircle
 62
7
  6
CONTINUOUS
 10
15.4207130575
 20
-26.6062936908
 40
0.2499603589
100
AcDbArc
 50
243.3875827835
 51
296.5672380434
  0
ARC
  5
316
100
AcDbEntity
  8
RACCORDO
100
AcDbCircle
 62
7
  6
CONTINUOUS
 10
14.0770203617
 20
-25.9346226816
 40
0.2497797854
100
AcDbArc
 50
203.1280930178
 51
243.5069905752
  0
ARC
  5
317
100
AcDbEntity
  8
RACCORDO
100
AcDbCircle
 62
253
  6
CONTINUOUS
 10
17.5579694589
 20
-25.1070332632
 40
0.1615955287
100
AcDbArc
 50
54.7743887864
 51
63.3654056722
  0
ARC
  5
318
100
AcDbEntity
  8
RACCORDO
100
AcDbCircle
 62
253
  6
CONTINUOUS
 10
17.6109646318
 20
-25.0565516242
 40
0.0959574173
100
AcDbArc
 50
63.6881410672
 51
78.3067213547
  0
ARC
  5
319
100
AcDbEntity
  8
RACCORDO
100
AcDbCircle
 62
253
  6
CONTINUOUS
 10
17.1190888209
 20
-24.7599243467
 40
0.0947403703
100
AcDbArc
 50
243.4068675936
 51
258.3067403991
  0
ARC
  5
31A
100
AcDbEntity
  8
RACCORDO
100
AcDbCircle
 62
253
  6
CONTINUOUS
 10
17.808583495
 20
14.8688088817
 40
0.8017355635
100
AcDbArc
 50
144.2116629304
 51
156.1226671814
  0
ARC
  5
31B
100
AcDbEntity
  8
RACCORDO
100
AcDbCircle
 62
253
  6
CONTINUOUS
 10
4.4442653306
 20
21.5509679639
 40
0.8017355635
100
AcDbArc
 50
144.2116629304
 51
156.1226671814
  0
ARC
  5
31C
100
AcDbEntity
  8
RACCORDO
100
AcDbCircle
 62
253
  6
CONTINUOUS
 10
17.8020113041
 20
14.8703476818
 40
0.7951039714
100
AcDbArc
 50
156.0323613519
 51
162.2282308085
  0
ARC
  5
31D
100
AcDbEntity
  8
RACCORDO
100
AcDbCircle
 62
253
  6
CONTINUOUS
 10
4.4376931397
 20
21.552506764
 40
0.7951039714
100
AcDbArc
 50
156.0323613519
 51
162.2282308085
  0
ARC
  5
31E
100
AcDbEntity
  8
RACCORDO
100
AcDbCircle
 62
253
  6
CONTINUOUS
 10
17.7615152556
 20
14.9024560295
 40
0.7438780477
100
AcDbArc
 50
140.3850856483
 51
144.1938577794
  0
ARC
  5
31F
100
AcDbEntity
  8
RACCORDO
100
AcDbCircle
 62
253
  6
CONTINUOUS
 10
4.3971970911
 20
21.5846151117
 40
0.7438780477
100
AcDbArc
 50
140.3850856483
 51
144.1938577794
  0
ARC
  5
320
100
AcDbEntity
  8
RACCORDO
100
AcDbCircle
 62
7
  6
CONTINUOUS
 10
0.7151193031
 20
22.3992369263
 40
0.2523005544
100
AcDbArc
 50
187.0477626106
 51
205.783027557
  0
ARC
  5
321
100
AcDbEntity
  8
RACCORDO
100
AcDbCircle
 62
7
  6
CONTINUOUS
 10
15.4210542534
 20
15.0456735545
 40
0.2510595334
100
AcDbArc
 50
243.4644878161
 51
258.2674958925
  0
ARC
  5
322
100
AcDbEntity
  8
RACCORDO
100
AcDbCircle
 62
7
  6
CONTINUOUS
 10
17.5415660718
 20
16.1054656985
 40
0.2504581744
100
AcDbArc
 50
320.4088461827
 51
359.9676566387
  0
ARC
  5
323
100
AcDbEntity
  8
RACCORDO
100
AcDbCircle
 62
7
  6
CONTINUOUS
 10
4.1774234668
 20
22.7876021976
 40
0.2502934088
100
AcDbArc
 50
320.3810517606
 51
359.9702670056
  0
ARC
  5
324
100
AcDbEntity
  8
RACCORDO
100
AcDbCircle
 62
7
  6
CONTINUOUS
 10
2.8341874394
 20
23.8103757341
 40
0.2501618428
100
AcDbArc
 50
63.4494567892
 51
116.6055136859
  0
ARC
  5
325
100
AcDbEntity
  8
RACCORDO
100
AcDbCircle
 62
7
  6
CONTINUOUS
 10
16.1985370402
 20
17.1282166519
 40
0.2501618428
100
AcDbArc
 50
63.3944863141
 51
116.5505432108
  0
ARC
  5
326
100
AcDbEntity
  8
RACCORDO
100
AcDbCircle
 62
7
  6
CONTINUOUS
 10
4.1776696323
 20
23.1387758557
 40
0.2500364105
100
AcDbArc
 50
0.004929906
 51
63.425592354
  0
ARC
  5
327
100
AcDbEntity
  8
RACCORDO
100
AcDbCircle
 62
7
  6
CONTINUOUS
 10
17.5419877967
 20
16.4566167735
 40
0.2500364105
100
AcDbArc
 50
0.004929906
 51
63.425592354
  0
ARC
  5
328
100
AcDbEntity
  8
RACCORDO
100
AcDbCircle
 62
7
  6
CONTINUOUS
 10
0.7129031802
 20
22.7498797072
 40
0.2500170981
100
AcDbArc
 50
116.5683102187
 51
179.9930719068
  0
ARC
  5
329
100
AcDbEntity
  8
RACCORDO
100
AcDbCircle
 62
7
  6
CONTINUOUS
 10
2.0563856983
 20
21.7268232258
 40
0.25
100
AcDbArc
 50
244.0406531095
 51
258.6758098606
  0
ARC
  5
32A
100
AcDbEntity
  8
RACCORDO
100
AcDbCircle
 62
7
  6
CONTINUOUS
 10
0.7128526934
 20
22.3985436117
 40
0.2499582854
100
AcDbArc
 50
205.8659142582
 51
243.4654847494
  0
ARC
  5
32B
100
AcDbEntity
  8
RACCORDO
100
AcDbCircle
 62
7
  6
CONTINUOUS
 10
14.077017518
 20
16.0678446114
 40
0.2497830833
100
AcDbArc
 50
116.4919035483
 51
179.9941727574
  0
ARC
  5
32C
100
AcDbEntity
  8
RACCORDO
100
AcDbCircle
 62
7
  6
CONTINUOUS
 10
0.7123745034
 20
22.3985687591
 40
0.2494947253
100
AcDbArc
 50
179.9936401235
 51
186.972819303
  0
ARC
  5
32D
100
AcDbEntity
  8
RACCORDO
100
AcDbCircle
 62
253
  6
CONTINUOUS
 10
1.3462551138
 20
21.8185904069
 40
0.231008612
100
AcDbArc
 50
238.5084859941
 51
243.5092350169
  0
ARC
  5
32E
100
AcDbEntity
  8
RACCORDO
100
AcDbCircle
 62
253
  6
CONTINUOUS
 10
14.7105732782
 20
15.1364313247
 40
0.231008612
100
AcDbArc
 50
238.5084859942
 51
243.5092350168
  0
ARC
  5
32F
100
AcDbEntity
  8
RACCORDO
100
AcDbCircle
 62
253
  6
CONTINUOUS
 10
2.9038973916
 20
23.9498407644
 40
0.0942397596
100
AcDbArc
 50
63.4611905189
 51
67.3721313168
  0
ARC
  5
330
100
AcDbEntity
  8
RACCORDO
100
AcDbCircle
 62
253
  6
CONTINUOUS
 10
16.128827088
 20
17.2676816822
 40
0.0942397596
100
AcDbArc
 50
112.627868683
 51
116.5388094812
  0
ARC
  5
331
100
AcDbEntity
  8
RACCORDO
100
AcDbCircle
 62
253
  6
CONTINUOUS
 10
3.6623842164
 20
21.3553004172
 40
0.0582038063
100
AcDbArc
 50
354.0335822805
 51
0.006247795
  0
ARC
  5
332
100
AcDbEntity
  8
RACCORDO
100
AcDbCircle
 62
253
  6
CONTINUOUS
 10
17.0267023808
 20
14.673141335
 40
0.0582038063
100
AcDbArc
 50
354.0335822806
 51
0.006247795
  0
SPLINE
  5
333
100
AcDbEntity
  8
RACCORDO
100
AcDbSpline
 62
7
  6
CONTINUOUS
 70
0
 71
3
 72
13
 73
9
 74
7
 42
0.0000001
 43
0.0000001
 44
0.0000000001
 12
0.8552249532
 22
0.0451503374
 32
0.0
 13
0.0
 23
-0.8564159466
 33
0.0
 40
0.0
 40
0.0
 40
0.0
 40
0.0
 40
0.0955392951
 40
0.2047937591
 40
0.3279175556
 40
0.4616202286
 40
0.7394271949
 40
1.0
 40
1.0
 40
1.0
 40
1.0
 10
21.9800758035
 20
-15.5720390364
 30
0.0
 10
22.0073116665
 20
-15.5706011593
 30
0.0
 10
22.0665191778
 20
-15.5795123276
 30
0.0
 10
22.1514015168
 20
-15.6212960091
 30
0.0
 10
22.2328032661
 20
-15.6880278501
 30
0.0
 10
22.3313788741
 20
-15.8054281225
 30
0.0
 10
22.4186200653
 20
-15.9793643301
 30
0.0
 10
22.4477410702
 20
-16.133260393
 30
0.0
 10
22.4477410702
 20
-16.2076466282
 30
0.0
 11
21.9800758035
 21
-15.5720390364
 31
0.0
 11
22.0612055194
 21
-15.5826553794
 31
0.0
 11
22.1459368879
 21
-15.622347045
 31
0.0
 11
22.2282091249
 21
-15.6883013138
 31
0.0
 11
22.3024382657
 21
-15.7754876251
 31
0.0
 11
22.410003129
 21
-15.9877019632
 31
0.0
 11
22.4477410702
 21
-16.2076466282
 31
0.0
  0
SPLINE
  5
334
100
AcDbEntity
  8
RACCORDO
100
AcDbSpline
 62
7
  6
CONTINUOUS
 70
0
 71
3
 72
10
 73
6
 74
4
 42
0.0000001
 43
0.0000001
 44
0.0000000001
 12
0.0
 22
0.3313531792
 32
0.0
 13
0.2113874143
 23
0.2551671813
 33
0.0
 40
0.0
 40
0.0
 40
0.0
 40
0.0
 40
0.2142195424
 40
0.4699558193
 40
1.0
 40
1.0
 40
1.0
 40
1.0
 10
3.7205992606
 20
21.683930007
 30
0.0
 10
3.7205992606
 20
21.7075907824
 30
0.0
 10
3.7268498072
 20
21.7595445181
 30
0.0
 10
3.7585333173
 20
21.8655975801
 30
0.0
 10
3.8025467711
 20
21.9427470682
 30
0.0
 10
3.839894994
 20
21.9878303614
 30
0.0
 11
3.7205992606
 21
21.683930007
 31
0.0
 11
3.7280926988
 21
21.7545156928
 31
0.0
 11
3.7518671906
 21
21.8358512722
 31
0.0
 11
3.839894994
 21
21.9878303614
 31
0.0
  0
SPLINE
  5
335
100
AcDbEntity
  8
RACCORDO
100
AcDbSpline
 62
7
  6
CONTINUOUS
 70
0
 71
3
 72
10
 73
6
 74
4
 42
0.0000001
 43
0.0000001
 44
0.0000000001
 12
0.0
 22
0.3313531792
 32
0.0
 13
0.2113874143
 23
0.2551671813
 33
0.0
 40
0.0
 40
0.0
 40
0.0
 40
0.0
 40
0.2142195424
 40
0.4699558193
 40
1.0
 40
1.0
 40
1.0
 40
1.0
 10
17.0849174251
 20
15.0017709247
 30
0.0
 10
17.0849174251
 20
15.0254317002
 30
0.0
 10
17.0911679716
 20
15.0773854359
 30
0.0
 10
17.1228514817
 20
15.1834384979
 30
0.0
 10
17.1668649355
 20
15.260587986
 30
0.0
 10
17.2042131585
 20
15.3056712792
 30
0.0
 11
17.0849174251
 21
15.0017709247
 31
0.0
 11
17.0924108632
 21
15.0723566106
 31
0.0
 11
17.1161853551
 21
15.15369219
 31
0.0
 11
17.2042131585
 21
15.3056712792
 31
0.0
  0
SPLINE
  5
336
100
AcDbEntity
  8
RACCORDO
100
AcDbSpline
 62
7
  6
CONTINUOUS
 70
0
 71
3
 72
9
 73
5
 74
3
 42
0.0000001
 43
0.0000001
 44
0.0000000001
 12
0.0
 22
-0.2736084325
 32
0.0
 13
0.2447409844
 23
-0.1223250787
 33
0.0
 40
0.0
 40
0.0
 40
0.0
 40
0.0
 40
0.499800677
 40
1.0
 40
1.0
 40
1.0
 40
1.0
 10
13.8272009784
 20
15.7164155857
 30
0.0
 10
13.8272009784
 20
15.6708323591
 30
0.0
 10
13.8531501072
 20
15.5777352009
 30
0.0
 10
13.9249232843
 20
15.5130735629
 30
0.0
 10
13.9657297092
 20
15.4926779223
 30
0.0
 11
13.8272009784
 21
15.7164155857
 31
0.0
 11
13.8645866428
 21
15.5848755271
 31
0.0
 11
13.9657297092
 21
15.4926779223
 31
0.0
  0
SPLINE
  5
337
100
AcDbEntity
  8
RACCORDO
100
AcDbSpline
 62
7
  6
CONTINUOUS
 70
0
 71
3
 72
8
 73
4
 74
2
 42
0.0000001
 43
0.0000001
 44
0.0000000001
 12
-0.0393289976
 22
0.0920770058
 32
0.0
 13
0.0000109886
 23
0.1001246469
 33
0.0
 40
0.0
 40
0.0
 40
0.0
 40
0.0
 40
1.0
 40
1.0
 40
1.0
 40
1.0
 10
13.8473156229
 20
-26.032733202
 30
0.0
 10
13.8342059571
 20
-26.0020408668
 30
0.0
 10
13.8272307731
 20
-25.9680178658
 30
0.0
 10
13.8272344359
 20
-25.9346429835
 30
0.0
 11
13.8473156229
 21
-26.032733202
 31
0.0
 11
13.8272344359
 21
-25.9346429835
 31
0.0
  0
SPLINE
  5
338
100
AcDbEntity
  8
RACCORDO
100
AcDbSpline
 62
7
  6
CONTINUOUS
 70
0
 71
3
 72
8
 73
4
 74
2
 42
0.0000001
 43
0.0000001
 44
0.0000000001
 12
0.0453095441
 22
0.0976716848
 32
0.0
 13
0.0000561267
 23
0.1076694463
 33
0.0
 40
0.0
 40
0.0
 40
0.0
 40
0.0
 40
1.0
 40
1.0
 40
1.0
 40
1.0
 10
17.768821661
 20
-25.6507555079
 30
0.0
 10
17.7839248424
 20
-25.6181982796
 30
0.0
 10
17.7920022275
 20
-25.5815049104
 30
0.0
 10
17.7920209364
 20
-25.5456150949
 30
0.0
 11
17.768821661
 21
-25.6507555079
 31
0.0
 11
17.7920209364
 21
-25.5456150949
 31
0.0
  0
SPLINE
  5
339
100
AcDbEntity
  8
RACCORDO
100
AcDbSpline
 62
7
  6
CONTINUOUS
 70
0
 71
3
 72
14
 73
10
 74
8
 42
0.0000001
 43
0.0000001
 44
0.0000000001
 12
0.0365458261
 22
-0.0298401421
 32
0.0
 13
-0.0028726914
 23
0.0470933024
 33
0.0
 40
0.0
 40
0.0
 40
0.0
 40
0.0
 40
0.012818703
 40
0.056653067
 40
0.1338755598
 40
0.2438151093
 40
0.3858889478
 40
0.5598677188
 40
1.0
 40
1.0
 40
1.0
 40
1.0
 10
17.0949568782
 20
-24.8593724784
 30
0.0
 10
17.0951130349
 20
-24.8594999824
 30
0.0
 10
17.0940956085
 20
-24.8578744975
 30
0.0
 10
17.0939159007
 20
-24.8568105576
 30
0.0
 10
17.0922108851
 20
-24.8528935571
 30
0.0
 10
17.0908052299
 20
-24.8482002114
 30
0.0
 10
17.0890494532
 20
-24.841618383
 30
0.0
 10
17.0868070975
 20
-24.8299850852
 30
0.0
 10
17.0858019234
 20
-24.8203321435
 30
0.0
 10
17.0853804686
 20
-24.8134230493
 30
0.0
 11
17.0949568782
 21
-24.8593724784
 31
0.0
 11
17.0947008109
 21
-24.858824565
 31
0.0
 11
17.0938648698
 21
-24.8569328953
 31
0.0
 11
17.092551518
 21
-24.8535344206
 31
0.0
 11
17.0909495155
 21
-24.8486009662
 31
0.0
 11
17.0892547989
 21
-24.8421155728
 31
0.0
 11
17.0876618195
 21
-24.8340631631
 31
0.0
 11
17.0853804686
 21
-24.8134230493
 31
0.0
  0
SPLINE
  5
33A
100
AcDbEntity
  8
RACCORDO
100
AcDbSpline
 62
7
  6
CONTINUOUS
 70
0
 71
3
 72
9
 73
5
 74
3
 42
0.0000001
 43
0.0000001
 44
0.0000000001
 12
-0.0727918694
 22
0.1201834818
 32
0.0
 13
-0.1256842271
 23
0.0628187919
 33
0.0
 40
0.0
 40
0.0
 40
0.0
 40
0.0
 40
0.4995799822
 40
1.0
 40
1.0
 40
1.0
 40
1.0
 10
17.7558632187
 20
-25.0647404915
 30
0.0
 10
17.7437414318
 20
-25.0447267376
 30
0.0
 10
17.7136638193
 20
-25.0078994932
 30
0.0
 10
17.6744604432
 20
-24.9810207543
 30
0.0
 10
17.6534954755
 20
-24.9705421607
 30
0.0
 11
17.7558632187
 21
-25.0647404915
 31
0.0
 11
17.711411476
 21
-25.010413379
 31
0.0
 11
17.6534954755
 21
-24.9705421607
 31
0.0
  0
SPLINE
  5
33B
100
AcDbEntity
  8
RACCORDO
100
AcDbSpline
 62
7
  6
CONTINUOUS
 70
0
 71
3
 72
11
 73
7
 74
5
 42
0.0000001
 43
0.0000001
 44
0.0000000001
 12
0.4059943767
 22
0.1943178401
 32
0.0
 13
0.4025879436
 23
-0.2012804126
 33
0.0
 40
0.0
 40
0.0
 40
0.0
 40
0.0
 40
0.2781998925
 40
0.5340397174
 40
0.7720061744
 40
1.0
 40
1.0
 40
1.0
 40
1.0
 10
18.8625124664
 20
20.5958964849
 30
0.0
 10
18.9001616637
 20
20.613916219
 30
0.0
 10
18.9753999623
 20
20.6428798773
 30
0.0
 10
19.0903831644
 20
20.6627909403
 30
0.0
 10
19.1995514799
 20
20.6562017788
 30
0.0
 10
19.266767128
 20
20.6335643299
 30
0.0
 10
19.2973629831
 20
20.6182674328
 30
0.0
 11
18.8625124664
 21
20.5958964849
 31
0.0
 11
18.9797176105
 21
20.6399704009
 31
0.0
 11
19.0933505993
 21
20.6586232572
 31
0.0
 11
19.2002099716
 21
20.6513159587
 31
0.0
 11
19.2973629831
 21
20.6182674328
 31
0.0
  0
SPLINE
  5
33C
100
AcDbEntity
  8
RACCORDO
100
AcDbSpline
 62
7
  6
CONTINUOUS
 70
0
 71
3
 72
11
 73
7
 74
5
 42
0.0000001
 43
0.0000001
 44
0.0000000001
 12
0.0
 22
0.6297433202
 32
0.0
 13
-0.563267137
 23
0.2816145976
 33
0.0
 40
0.0
 40
0.0
 40
0.0
 40
0.0
 40
0.2897555999
 40
0.5495832416
 40
0.7828477353
 40
1.0
 40
1.0
 40
1.0
 40
1.0
 10
15.3146378455
 20
22.1987063577
 30
0.0
 10
15.3146378455
 20
22.2595302422
 30
0.0
 10
15.304824899
 20
22.3753353209
 30
0.0
 10
15.255318677
 20
22.5337145952
 30
0.0
 10
15.1726523489
 20
22.6605160755
 30
0.0
 10
15.0954938742
 20
22.7192033605
 30
0.0
 10
15.054722296
 20
22.7395877764
 30
0.0
 11
15.3146378455
 21
22.1987063577
 31
0.0
 11
15.2973574341
 21
22.3803579245
 31
0.0
 11
15.246361592
 21
22.5358329181
 31
0.0
 11
15.1641432631
 21
22.6575654262
 31
0.0
 11
15.054722296
 21
22.7395877764
 31
0.0
  0
SPLINE
  5
33D
100
AcDbEntity
  8
RACCORDO
100
AcDbSpline
 62
7
  6
CONTINUOUS
 70
0
 71
3
 72
9
 73
5
 74
3
 42
0.0000001
 43
0.0000001
 44
0.0000000001
 12
0.0
 22
-0.2680487896
 32
0.0
 13
-0.1943432235
 23
-0.1846100352
 33
0.0
 40
0.0
 40
0.0
 40
0.0
 40
0.0
 40
0.5433964617
 40
1.0
 40
1.0
 40
1.0
 40
1.0
 10
22.4477410702
 20
16.7086632699
 30
0.0
 10
22.4477410702
 20
16.6601110153
 30
0.0
 10
22.4370704342
 20
16.569975525
 30
0.0
 10
22.3916353169
 20
16.4883205163
 30
0.0
 10
22.3620560491
 20
16.4602226512
 30
0.0
 11
22.4477410702
 21
16.7086632699
 31
0.0
 11
22.4258790524
 21
16.5646565165
 31
0.0
 11
22.3620560491
 21
16.4602226512
 31
0.0
  0
SPLINE
  5
33E
100
AcDbEntity
  8
RACCORDO
100
AcDbSpline
 62
7
  6
CONTINUOUS
 70
0
 71
3
 72
11
 73
7
 74
5
 42
0.0000001
 43
0.0000001
 44
0.0000000001
 12
0.0
 22
0.3148625572
 32
0.0
 13
-0.2816217243
 23
0.1408106329
 33
0.0
 40
0.0
 40
0.0
 40
0.0
 40
0.0
 40
0.2897543213
 40
0.5495826678
 40
0.7828479026
 40
1.0
 40
1.0
 40
1.0
 40
1.0
 10
12.8397641114
 20
23.1115683649
 30
0.0
 10
12.8397641114
 20
23.1419792937
 30
0.0
 10
12.8348579207
 20
23.199880052
 30
0.0
 10
12.8101066078
 20
23.2790677519
 30
0.0
 10
12.7687760679
 20
23.342467454
 30
0.0
 10
12.730199445
 20
23.3718123702
 30
0.0
 10
12.7098145289
 20
23.3820048117
 30
0.0
 11
12.8397641114
 21
23.1115683649
 31
0.0
 11
12.8311245228
 21
23.2023911531
 31
0.0
 11
12.8056283234
 21
23.280126959
 31
0.0
 11
12.7645217719
 21
23.3409926971
 31
0.0
 11
12.7098145289
 21
23.3820048117
 31
0.0
  0
SPLINE
  5
33F
100
AcDbEntity
  8
RACCORDO
100
AcDbSpline
 62
7
  6
CONTINUOUS
 70
0
 71
3
 72
10
 73
6
 74
4
 42
0.0000001
 43
0.0000001
 44
0.0000000001
 12
0.2068623626
 22
0.1034311813
 32
0.0
 13
0.2068624299
 23
-0.1034310466
 33
0.0
 40
0.0
 40
0.0
 40
0.0
 40
0.0
 40
0.5340990186
 40
0.7722795496
 40
1.0
 40
1.0
 40
1.0
 40
1.0
 10
17.4359581891
 20
20.8929306373
 30
0.0
 10
17.4727865174
 20
20.9113448015
 30
0.0
 10
17.531533934
 20
20.9304057608
 30
0.0
 10
17.6092453392
 20
20.9264911846
 30
0.0
 10
17.6438597287
 20
20.914982199
 30
0.0
 10
17.6595619972
 20
20.9071310775
 30
0.0
 11
17.4359581891
 21
20.8929306373
 31
0.0
 11
17.554650739
 21
20.9271467657
 31
0.0
 11
17.6096422838
 21
20.9239189997
 31
0.0
 11
17.6595619972
 21
20.9071310775
 31
0.0
  0
SPLINE
  5
340
100
AcDbEntity
  8
RACCORDO
100
AcDbSpline
 62
7
  6
CONTINUOUS
 70
0
 71
3
 72
11
 73
7
 74
5
 42
0.0000001
 43
0.0000001
 44
0.0000000001
 12
-0.2177611583
 22
-0.1076335336
 32
0.0
 13
-0.0000045624
 23
-0.2429092415
 33
0.0
 40
0.0
 40
0.0
 40
0.0
 40
0.0
 40
0.3029527246
 40
0.5660238642
 40
0.7938220146
 40
1.0
 40
1.0
 40
1.0
 40
1.0
 10
6.1929720629
 20
20.859605761
 30
0.0
 10
6.1709816175
 20
20.8487364703
 30
0.0
 10
6.1312305837
 20
20.8253971108
 30
0.0
 10
6.0829409291
 20
20.7821452925
 30
0.0
 10
6.0519244511
 20
20.7339227585
 30
0.0
 10
6.044483599
 20
20.6985124727
 30
0.0
 10
6.0444832854
 20
20.6818182933
 30
0.0
 11
6.1929720629
 21
20.859605761
 31
0.0
 11
6.129953427
 21
20.8216038918
 31
0.0
 11
6.0830982233
 21
20.7781515268
 31
0.0
 11
6.0542328938
 21
20.730942684
 31
0.0
 11
6.0444832854
 21
20.6818182933
 31
0.0
  0
SPLINE
  5
341
100
AcDbEntity
  8
RACCORDO
100
AcDbSpline
 62
253
  6
CONTINUOUS
 70
0
 71
3
 72
11
 73
7
 74
5
 42
0.0000001
 43
0.0000001
 44
0.0000000001
 12
-0.0000219006
 22
-0.1203048987
 32
0.0
 13
-0.1076039744
 23
-0.0538019872
 33
0.0
 40
0.0
 40
0.0
 40
0.0
 40
0.0
 40
0.2064881634
 40
0.4345389747
 40
0.6981240661
 40
1.0
 40
1.0
 40
1.0
 40
1.0
 10
4.4277060431
 20
22.7874722933
 30
0.0
 10
4.4277045357
 20
22.7791917808
 30
0.0
 10
4.4240295816
 20
22.7616382981
 30
0.0
 10
4.4087607228
 20
22.7376463473
 30
0.0
 10
4.3848996172
 20
22.7161798429
 30
0.0
 10
4.3653104205
 20
22.7045088916
 30
0.0
 10
4.3544827371
 20
22.6990950499
 30
0.0
 11
4.4277060431
 21
22.7874722933
 31
0.0
 11
4.4228957326
 21
22.7631009388
 31
0.0
 11
4.4086705813
 21
22.73964121
 31
0.0
 11
4.3854892039
 21
22.7180036382
 31
0.0
 11
4.3544827371
 21
22.6990950499
 31
0.0
  0
SPLINE
  5
342
100
AcDbEntity
  8
RACCORDO
100
AcDbSpline
 62
253
  6
CONTINUOUS
 70
0
 71
3
 72
9
 73
5
 74
3
 42
0.0000001
 43
0.0000001
 44
0.0000000001
 12
0.1030200108
 22
0.0514057739
 32
0.0
 13
0.102978352
 23
-0.051489176
 33
0.0
 40
0.0
 40
0.0
 40
0.0
 40
0.0
 40
0.46393649
 40
1.0
 40
1.0
 40
1.0
 40
1.0
 10
2.7224280149
 20
24.0341624879
 30
0.0
 10
2.7383595956
 20
24.0421121594
 30
0.0
 10
2.778311107
 20
24.0487493453
 30
0.0
 10
2.8158021786
 20
24.0362556522
 30
0.0
 10
2.8342031576
 20
24.0270551627
 30
0.0
 11
2.7224280149
 21
24.0341624879
 31
0.0
 11
2.7748999457
 21
24.0441529506
 31
0.0
 11
2.8342031576
 21
24.0270551627
 31
0.0
  0
SPLINE
  5
343
100
AcDbEntity
  8
RACCORDO
100
AcDbSpline
 62
253
  6
CONTINUOUS
 70
0
 71
3
 72
9
 73
5
 74
3
 42
0.0000001
 43
0.0000001
 44
0.0000000001
 12
-0.1030214681
 22
0.0514580411
 32
0.0
 13
-0.1030003995
 23
-0.0515001998
 33
0.0
 40
0.0
 40
0.0
 40
0.0
 40
0.0
 40
0.4639122062
 40
1.0
 40
1.0
 40
1.0
 40
1.0
 10
4.2895054252
 20
23.3624003035
 30
0.0
 10
4.273574453
 20
23.3703576413
 30
0.0
 10
4.2336123833
 20
23.3769949451
 30
0.0
 10
4.1961117942
 20
23.3645065967
 30
0.0
 10
4.1777060418
 20
23.3553037206
 30
0.0
 11
4.2895054252
 21
23.3624003035
 31
0.0
 11
4.2370264156
 21
23.3723997755
 31
0.0
 11
4.1777060418
 21
23.3553037206
 31
0.0
  0
SPLINE
  5
344
100
AcDbEntity
  8
RACCORDO
100
AcDbSpline
 62
253
  6
CONTINUOUS
 70
0
 71
3
 72
9
 73
5
 74
3
 42
0.0000001
 43
0.0000001
 44
0.0000000001
 12
-0.1005381304
 22
0.0419104889
 32
0.0
 13
-0.0974244518
 23
-0.0487122259
 33
0.0
 40
0.0
 40
0.0
 40
0.0
 40
0.0
 40
0.4649319752
 40
1.0
 40
1.0
 40
1.0
 40
1.0
 10
2.9401556045
 20
24.0368262476
 30
0.0
 10
2.924574474
 20
24.0433214231
 30
0.0
 10
2.8868091169
 20
24.0477202261
 30
0.0
 10
2.8515793939
 20
24.0357432809
 30
0.0
 10
2.8342031576
 20
24.0270551627
 30
0.0
 11
2.9401556045
 21
24.0368262476
 31
0.0
 11
2.8900059369
 21
24.0438719012
 31
0.0
 11
2.8342031576
 21
24.0270551627
 31
0.0
  0
SPLINE
  5
345
100
AcDbEntity
  8
RACCORDO
100
AcDbSpline
 62
253
  6
CONTINUOUS
 70
0
 71
3
 72
11
 73
7
 74
5
 42
0.0000001
 43
0.0000001
 44
0.0000000001
 12
-0.0
 22
-0.1203158962
 32
0.0
 13
-0.107613809
 23
-0.0538069045
 33
0.0
 40
0.0
 40
0.0
 40
0.0
 40
0.0
 40
0.2064758915
 40
0.434520967
 40
0.6981193998
 40
1.0
 40
1.0
 40
1.0
 40
1.0
 10
4.4277060418
 20
23.1387973696
 30
0.0
 10
4.4277060418
 20
23.1305165923
 30
0.0
 10
4.4240350165
 20
23.1129611988
 30
0.0
 10
4.408765689
 20
23.0889661286
 30
0.0
 10
4.3849026211
 20
23.067496896
 30
0.0
 10
4.3653115776
 20
23.0558234422
 30
0.0
 10
4.3544827371
 20
23.050409022
 30
0.0
 11
4.4277060418
 21
23.1387973696
 31
0.0
 11
4.4229002043
 21
23.1144243234
 31
0.0
 11
4.408675925
 21
23.0909619406
 31
0.0
 11
4.3854919657
 21
23.0693205349
 31
0.0
 11
4.3544827371
 21
23.050409022
 31
0.0
  0
SPLINE
  5
346
100
AcDbEntity
  8
RACCORDO
100
AcDbSpline
 62
253
  6
CONTINUOUS
 70
0
 71
3
 72
9
 73
5
 74
3
 42
0.0000001
 43
0.0000001
 44
0.0000000001
 12
0.1030234046
 22
0.0514586954
 32
0.0
 13
0.1030022105
 23
-0.0515011053
 33
0.0
 40
0.0
 40
0.0
 40
0.0
 40
0.0
 40
0.4639008303
 40
1.0
 40
1.0
 40
1.0
 40
1.0
 10
0.6010818881
 20
22.9734904899
 30
0.0
 10
0.6170127691
 20
22.9814477338
 30
0.0
 10
0.6569749327
 20
22.9880881784
 30
0.0
 10
0.6944763475
 20
22.9755982242
 30
0.0
 10
0.712882814
 20
22.9663949909
 30
0.0
 11
0.6010818881
 21
22.9734904899
 31
0.0
 11
0.6535601679
 21
22.9834918113
 31
0.0
 11
0.712882814
 21
22.9663949909
 31
0.0
  0
SPLINE
  5
347
100
AcDbEntity
  8
RACCORDO
100
AcDbSpline
 62
253
  6
CONTINUOUS
 70
0
 71
3
 72
11
 73
7
 74
5
 42
0.0000001
 43
0.0000001
 44
0.0000000001
 12
-0.0000009308
 22
-0.1203159072
 32
0.0
 13
0.1076138189
 23
-0.0538069095
 33
0.0
 40
0.0
 40
0.0
 40
0.0
 40
0.0
 40
0.2064798395
 40
0.4345314102
 40
0.6981346754
 40
1.0
 40
1.0
 40
1.0
 40
1.0
 10
0.4628827936
 20
22.7498886278
 30
0.0
 10
0.4628827295
 20
22.7416076914
 30
0.0
 10
0.466553079
 20
22.724051624
 30
0.0
 10
0.4818242543
 20
22.7000567596
 30
0.0
 10
0.5056874498
 20
22.6785882267
 30
0.0
 10
0.5252778253
 20
22.6669144391
 30
0.0
 10
0.5361061187
 20
22.6615002923
 30
0.0
 11
0.4628827936
 21
22.7498886278
 31
0.0
 11
0.4676883116
 21
22.7255150321
 31
0.0
 11
0.4819138105
 21
22.7020524718
 31
0.0
 11
0.5050986242
 21
22.6804111252
 31
0.0
 11
0.5361061187
 21
22.6615002923
 31
0.0
  0
SPLINE
  5
348
100
AcDbEntity
  8
RACCORDO
100
AcDbSpline
 62
253
  6
CONTINUOUS
 70
0
 71
3
 72
11
 73
7
 74
5
 42
0.0000001
 43
0.0000001
 44
0.0000000001
 12
-0.0000003376
 22
-0.1203159038
 32
0.0
 13
0.1076138159
 23
-0.0538069079
 33
0.0
 40
0.0
 40
0.0
 40
0.0
 40
0.0
 40
0.2064767537
 40
0.4345238264
 40
0.698124287
 40
1.0
 40
1.0
 40
1.0
 40
1.0
 10
0.4628828118
 20
22.398574667
 30
0.0
 10
0.4628827885
 20
22.3902938546
 30
0.0
 10
0.4665535427
 20
22.3727382533
 30
0.0
 10
0.4818234965
 20
22.3487432581
 30
0.0
 10
0.5056866233
 20
22.3272742548
 30
0.0
 10
0.5252774529
 20
22.3156006532
 30
0.0
 10
0.5361061187
 20
22.3101863203
 30
0.0
 11
0.4628828118
 21
22.398574667
 31
0.0
 11
0.467688502
 21
22.3742014844
 31
0.0
 11
0.4819131741
 21
22.3507390566
 31
0.0
 11
0.5050974559
 21
22.329097636
 31
0.0
 11
0.5361061187
 21
22.3101863203
 31
0.0
  0
SPLINE
  5
349
100
AcDbEntity
  8
RACCORDO
100
AcDbSpline
 62
253
  6
CONTINUOUS
 70
0
 71
3
 72
9
 73
5
 74
3
 42
0.0000001
 43
0.0000001
 44
0.0000000001
 12
0.000018338
 22
-0.0977596867
 32
0.0
 13
0.0832907687
 23
-0.0511820725
 33
0.0
 40
0.0
 40
0.0
 40
0.0
 40
0.0
 40
0.43756309
 40
1.0
 40
1.0
 40
1.0
 40
1.0
 10
1.1700008336
 20
21.6982229755
 30
0.0
 10
1.1700035082
 20
21.6839642987
 30
0.0
 10
1.1834651456
 20
21.6515361935
 30
0.0
 10
1.2099673519
 20
21.6312008735
 30
0.0
 10
1.2255826194
 20
21.6216053113
 30
0.0
 11
1.1700008336
 21
21.6982229755
 31
0.0
 11
1.1842809059
 21
21.6579009171
 31
0.0
 11
1.2255826194
 21
21.6216053113
 31
0.0
  0
SPLINE
  5
34A
100
AcDbEntity
  8
RACCORDO
100
AcDbSpline
 62
253
  6
CONTINUOUS
 70
0
 71
3
 72
9
 73
5
 74
3
 42
0.0000001
 43
0.0000001
 44
0.0000000001
 12
0.0521414017
 22
-0.0307159736
 32
0.0
 13
0.0277387884
 23
-0.0537843511
 33
0.0
 40
0.0
 40
0.0
 40
0.0
 40
0.0
 40
0.2410446835
 40
1.0
 40
1.0
 40
1.0
 40
1.0
 10
2.5274186471
 20
21.3740912435
 30
0.0
 10
2.5316081164
 20
21.3716232695
 30
0.0
 10
2.5482205077
 20
21.3600688283
 30
0.0
 10
2.5609000045
 20
21.3433667111
 30
0.0
 10
2.5679175048
 20
21.3297600714
 30
0.0
 11
2.5274186471
 21
21.3740912435
 31
0.0
 11
2.5393882624
 21
21.3657539032
 31
0.0
 11
2.5679175048
 21
21.3297600714
 31
0.0
  0
SPLINE
  5
34B
100
AcDbEntity
  8
RACCORDO
100
AcDbSpline
 62
253
  6
CONTINUOUS
 70
0
 71
3
 72
9
 73
5
 74
3
 42
0.0000001
 43
0.0000001
 44
0.0000000001
 12
0.0413719933
 22
-0.0802185656
 32
0.0
 13
-0.0
 23
-0.0902588505
 33
0.0
 40
0.0
 40
0.0
 40
0.0
 40
0.0
 40
0.2295706774
 40
1.0
 40
1.0
 40
1.0
 40
1.0
 10
2.5679175048
 20
21.3297600714
 30
0.0
 10
2.571083437
 20
21.3236214612
 30
0.0
 10
2.5828112733
 20
21.2958143562
 30
0.0
 10
2.5867157842
 20
21.2651676237
 30
0.0
 10
2.5867157842
 20
21.2419882687
 30
0.0
 11
2.5679175048
 21
21.3297600714
 31
0.0
 11
2.5760558613
 21
21.3107044133
 31
0.0
 11
2.5867157842
 21
21.2419882687
 31
0.0
  0
SPLINE
  5
34C
100
AcDbEntity
  8
RACCORDO
100
AcDbSpline
 62
253
  6
CONTINUOUS
 70
0
 71
3
 72
9
 73
5
 74
3
 42
0.0000001
 43
0.0000001
 44
0.0000000001
 12
-0.1030214681
 22
0.0514580411
 32
0.0
 13
-0.1030003995
 23
-0.0515001998
 33
0.0
 40
0.0
 40
0.0
 40
0.0
 40
0.0
 40
0.4639122062
 40
1.0
 40
1.0
 40
1.0
 40
1.0
 10
17.6538235896
 20
16.6802412213
 30
0.0
 10
17.6378926175
 20
16.6881985591
 30
0.0
 10
17.5979305477
 20
16.6948358629
 30
0.0
 10
17.5604299586
 20
16.6823475145
 30
0.0
 10
17.5420242063
 20
16.6731446384
 30
0.0
 11
17.6538235896
 21
16.6802412213
 31
0.0
 11
17.60134458
 21
16.6902406933
 31
0.0
 11
17.5420242063
 21
16.6731446384
 31
0.0
  0
SPLINE
  5
34D
100
AcDbEntity
  8
RACCORDO
100
AcDbSpline
 62
253
  6
CONTINUOUS
 70
0
 71
3
 72
9
 73
5
 74
3
 42
0.0000001
 43
0.0000001
 44
0.0000000001
 12
-0.1030200108
 22
0.0514057739
 32
0.0
 13
-0.102978352
 23
-0.051489176
 33
0.0
 40
0.0
 40
0.0
 40
0.0
 40
0.0
 40
0.46393649
 40
1.0
 40
1.0
 40
1.0
 40
1.0
 10
16.3102964647
 20
17.3520034057
 30
0.0
 10
16.294364884
 20
17.3599530771
 30
0.0
 10
16.2544133726
 20
17.3665902631
 30
0.0
 10
16.2169223009
 20
17.35409657
 30
0.0
 10
16.198521322
 20
17.3448960805
 30
0.0
 11
16.3102964647
 21
17.3520034057
 31
0.0
 11
16.2578245339
 21
17.3619938683
 31
0.0
 11
16.198521322
 21
17.3448960805
 31
0.0
  0
SPLINE
  5
34E
100
AcDbEntity
  8
RACCORDO
100
AcDbSpline
 62
253
  6
CONTINUOUS
 70
0
 71
3
 72
11
 73
7
 74
5
 42
0.0000001
 43
0.0000001
 44
0.0000000001
 12
0.1282325543
 22
0.3361386034
 32
0.0
 13
-0.321785952
 23
0.160892976
 33
0.0
 40
0.0
 40
0.0
 40
0.0
 40
0.0
 40
0.271130505
 40
0.5346867854
 40
0.7783356466
 40
1.0
 40
1.0
 40
1.0
 40
1.0
 10
17.1884708157
 20
-25.1728332146
 30
0.0
 10
17.2000600681
 20
-25.1424540715
 30
0.0
 10
17.2137242912
 20
-25.0786080143
 30
0.0
 10
17.2048640124
 20
-24.984173363
 30
0.0
 10
17.1675969482
 20
-24.9029483228
 30
0.0
 10
17.1238586263
 20
-24.8646387723
 30
0.0
 10
17.100082468
 20
-24.8527506932
 30
0.0
 11
17.1884708157
 21
-25.1728332146
 31
0.0
 11
17.2088392472
 21
-25.0774395306
 31
0.0
 11
17.1991941204
 21
-24.9831123455
 31
0.0
 11
17.1610038182
 21
-24.9042121182
 31
0.0
 11
17.100082468
 21
-24.8527506932
 31
0.0
  0
SPLINE
  5
34F
100
AcDbEntity
  8
RACCORDO
100
AcDbSpline
 62
253
  6
CONTINUOUS
 70
0
 71
3
 72
11
 73
7
 74
5
 42
0.0000001
 43
0.0000001
 44
0.0000000001
 12
0.0
 22
-0.1203158962
 32
0.0
 13
-0.107613809
 23
-0.0538069045
 33
0.0
 40
0.0
 40
0.0
 40
0.0
 40
0.0
 40
0.2064758915
 40
0.434520967
 40
0.6981193998
 40
1.0
 40
1.0
 40
1.0
 40
1.0
 10
17.7920242063
 20
16.4566382874
 30
0.0
 10
17.7920242063
 20
16.4483575101
 30
0.0
 10
17.788353181
 20
16.4308021165
 30
0.0
 10
17.7730838534
 20
16.4068070464
 30
0.0
 10
17.7492207855
 20
16.3853378137
 30
0.0
 10
17.729629742
 20
16.37366436
 30
0.0
 10
17.7188009016
 20
16.3682499398
 30
0.0
 11
17.7920242063
 21
16.4566382874
 31
0.0
 11
17.7872183687
 21
16.4322652412
 31
0.0
 11
17.7729940894
 21
16.4088028584
 31
0.0
 11
17.7498101302
 21
16.3871614527
 31
0.0
 11
17.7188009016
 21
16.3682499398
 31
0.0
  0
SPLINE
  5
350
100
AcDbEntity
  8
RACCORDO
100
AcDbSpline
 62
253
  6
CONTINUOUS
 70
0
 71
3
 72
11
 73
7
 74
5
 42
0.0000001
 43
0.0000001
 44
0.0000000001
 12
0.0
 22
-0.1203158962
 32
0.0
 13
-0.107613809
 23
-0.0538069045
 33
0.0
 40
0.0
 40
0.0
 40
0.0
 40
0.0
 40
0.2064758915
 40
0.434520967
 40
0.6981193998
 40
1.0
 40
1.0
 40
1.0
 40
1.0
 10
17.7920242063
 20
16.1053243153
 30
0.0
 10
17.7920242063
 20
16.097043538
 30
0.0
 10
17.788353181
 20
16.0794881445
 30
0.0
 10
17.7730838534
 20
16.0554930743
 30
0.0
 10
17.7492207855
 20
16.0340238417
 30
0.0
 10
17.729629742
 20
16.0223503879
 30
0.0
 10
17.7188009016
 20
16.0169359677
 30
0.0
 11
17.7920242063
 21
16.1053243153
 31
0.0
 11
17.7872183687
 21
16.0809512691
 31
0.0
 11
17.7729940894
 21
16.0574888863
 31
0.0
 11
17.7498101302
 21
16.0358474806
 31
0.0
 11
17.7188009016
 21
16.0169359677
 31
0.0
  0
SPLINE
  5
351
100
AcDbEntity
  8
RACCORDO
100
AcDbSpline
 62
253
  6
CONTINUOUS
 70
0
 71
3
 72
8
 73
4
 74
2
 42
0.0000001
 43
0.0000001
 44
0.0000000001
 12
0.0459306667
 22
0.120398991
 32
0.0
 13
-0.0060601394
 23
0.1287199203
 33
0.0
 40
0.0
 40
0.0
 40
0.0
 40
0.0
 40
1.0
 40
1.0
 40
1.0
 40
1.0
 10
17.7188009016
 20
-25.2826681717
 30
0.0
 10
17.7341111238
 20
-25.2425351747
 30
0.0
 10
17.741351097
 20
-25.1983582399
 30
0.0
 10
17.7393310505
 20
-25.1554515998
 30
0.0
 11
17.7188009016
 21
-25.2826681717
 31
0.0
 11
17.7393310505
 21
-25.1554515998
 31
0.0
  0
SPLINE
  5
352
100
AcDbEntity
  8
RACCORDO
100
AcDbSpline
 62
253
  6
CONTINUOUS
 70
0
 71
3
 72
9
 73
5
 74
3
 42
0.0000001
 43
0.0000001
 44
0.0000000001
 12
-0.0029646583
 22
0.0629705942
 32
0.0
 13
-0.0167103605
 23
0.0607852678
 33
0.0
 40
0.0
 40
0.0
 40
0.0
 40
0.0
 40
0.2541760267
 40
1.0
 40
1.0
 40
1.0
 40
1.0
 10
17.7393310505
 20
-25.1554515998
 30
0.0
 10
17.7390798688
 20
-25.1501163947
 30
0.0
 10
17.7375367862
 20
-25.1291577607
 30
0.0
 10
17.7337586585
 20
-25.1083498011
 30
0.0
 10
17.7296043294
 20
-25.0932380978
 30
0.0
 11
17.7393310505
 21
-25.1554515998
 31
0.0
 11
17.7381510435
 21
-25.1394717644
 31
0.0
 11
17.7296043294
 21
-25.0932380978
 31
0.0
  0
SPLINE
  5
353
100
AcDbEntity
  8
RACCORDO
100
AcDbSpline
 62
253
  6
CONTINUOUS
 70
0
 71
3
 72
9
 73
5
 74
3
 42
0.0000001
 43
0.0000001
 44
0.0000000001
 12
-0.0430761083
 22
0.1054895695
 32
0.0
 13
-0.093146532
 23
0.0656302061
 33
0.0
 40
0.0
 40
0.0
 40
0.0
 40
0.0
 40
0.5160521127
 40
1.0
 40
1.0
 40
1.0
 40
1.0
 10
17.7198488283
 20
-25.0644993961
 30
0.0
 10
17.7124389894
 20
-25.0463533577
 30
0.0
 10
17.693794268
 20
-25.0126948876
 30
0.0
 10
17.6662033819
 20
-24.9856151519
 30
0.0
 10
17.6511773595
 20
-24.975027952
 30
0.0
 11
17.7198488283
 21
-25.0644993961
 31
0.0
 11
17.6908132425
 21
-25.0133662898
 31
0.0
 11
17.6511773595
 21
-24.975027952
 31
0.0
  0
SPLINE
  5
354
100
AcDbEntity
  8
RACCORDO
100
AcDbSpline
 62
253
  6
CONTINUOUS
 70
0
 71
3
 72
11
 73
7
 74
5
 42
0.0000001
 43
0.0000001
 44
0.0000000001
 12
0.0
 22
-0.3637747172
 32
0.0
 13
0.3562153171
 23
-0.0737746077
 33
0.0
 40
0.0
 40
0.0
 40
0.0
 40
0.0
 40
0.2934021086
 40
0.5509410244
 40
0.78010513
 40
1.0
 40
1.0
 40
1.0
 40
1.0
 10
17.0116941204
 20
-24.8862215623
 30
0.0
 10
17.0116941204
 20
-24.9217989853
 30
0.0
 10
17.0183171214
 20
-24.988980518
 30
0.0
 10
17.0526253523
 20
-25.0787044272
 30
0.0
 10
17.1106028624
 20
-25.1448178963
 30
0.0
 10
17.162360842
 20
-25.167425662
 30
0.0
 10
17.1884708157
 20
-25.1728332146
 30
0.0
 11
17.0116941204
 21
-24.8862215623
 31
0.0
 11
17.0237416526
 21
-24.9922717119
 31
0.0
 11
17.0590616634
 21
-25.0790449269
 31
0.0
 11
17.1152468985
 21
-25.1406305892
 31
0.0
 11
17.1884708157
 21
-25.1728332146
 31
0.0
  0
SPLINE
  5
355
100
AcDbEntity
  8
RACCORDO
100
AcDbSpline
 62
253
  6
CONTINUOUS
 70
0
 71
3
 72
11
 73
7
 74
5
 42
0.0000001
 43
0.0000001
 44
0.0000000001
 12
0.0
 22
0.3637747172
 32
0.0
 13
-0.3562153171
 23
0.0737746077
 33
0.0
 40
0.0
 40
0.0
 40
0.0
 40
0.0
 40
0.2934021086
 40
0.5509410244
 40
0.78010513
 40
1.0
 40
1.0
 40
1.0
 40
1.0
 10
16.3045873392
 20
14.5598291865
 30
0.0
 10
16.3045873392
 20
14.5954066095
 30
0.0
 10
16.2979643382
 20
14.6625881422
 30
0.0
 10
16.2636561073
 20
14.7523120514
 30
0.0
 10
16.2056785971
 20
14.8184255205
 30
0.0
 10
16.1539206175
 20
14.8410332863
 30
0.0
 10
16.1278106439
 20
14.8464408389
 30
0.0
 11
16.3045873392
 21
14.5598291865
 31
0.0
 11
16.2925398069
 21
14.6658793361
 31
0.0
 11
16.2572197962
 21
14.7526525511
 31
0.0
 11
16.2010345611
 21
14.8142382135
 31
0.0
 11
16.1278106439
 21
14.8464408389
 31
0.0
  0
SPLINE
  5
356
100
AcDbEntity
  8
RACCORDO
100
AcDbSpline
 62
253
  6
CONTINUOUS
 70
0
 71
3
 72
11
 73
7
 74
5
 42
0.0000001
 43
0.0000001
 44
0.0000000001
 12
-0.1063646839
 22
-0.2788159098
 32
0.0
 13
-0.2922163674
 23
0.0605091078
 33
0.0
 40
0.0
 40
0.0
 40
0.0
 40
0.0
 40
0.2770958208
 40
0.5368340029
 40
0.7754612626
 40
1.0
 40
1.0
 40
1.0
 40
1.0
 10
16.1278106439
 20
14.8464408389
 30
0.0
 10
16.1179862408
 20
14.8206879311
 30
0.0
 10
16.0922249789
 20
14.7729916566
 30
0.0
 10
16.0366266325
 20
14.7177319415
 30
0.0
 10
15.9699872067
 20
14.6864905111
 30
0.0
 10
15.9222113772
 20
14.6855286562
 30
0.0
 10
15.9003400791
 20
14.6900575358
 30
0.0
 11
16.1278106439
 21
14.8464408389
 31
0.0
 11
16.0880008832
 21
14.7739648886
 31
0.0
 11
16.0323398691
 21
14.7200238797
 31
0.0
 11
15.967340094
 21
14.6909395075
 31
0.0
 11
15.9003400791
 21
14.6900575358
 31
0.0
  0
SPLINE
  5
357
100
AcDbEntity
  8
RACCORDO
100
AcDbSpline
 62
253
  6
CONTINUOUS
 70
0
 71
3
 72
11
 73
7
 74
5
 42
0.0000001
 43
0.0000001
 44
0.0000000001
 12
-0.1063646839
 22
-0.2788159098
 32
0.0
 13
-0.2922163674
 23
0.0605091078
 33
0.0
 40
0.0
 40
0.0
 40
0.0
 40
0.0
 40
0.2770958208
 40
0.5368340029
 40
0.7754612626
 40
1.0
 40
1.0
 40
1.0
 40
1.0
 10
15.597480558
 20
14.9562757959
 30
0.0
 10
15.5876561549
 20
14.9305228881
 30
0.0
 10
15.561894893
 20
14.8828266136
 30
0.0
 10
15.5062965466
 20
14.8275668986
 30
0.0
 10
15.4396571208
 20
14.7963254682
 30
0.0
 10
15.3918812913
 20
14.7953636133
 30
0.0
 10
15.3700099932
 20
14.7998924929
 30
0.0
 11
15.597480558
 21
14.9562757959
 31
0.0
 11
15.5576707973
 21
14.8837998457
 31
0.0
 11
15.5020097832
 21
14.8298588368
 31
0.0
 11
15.4370100081
 21
14.8007744645
 31
0.0
 11
15.3700099932
 21
14.7998924929
 31
0.0
  0
SPLINE
  5
358
100
AcDbEntity
  8
RACCORDO
100
AcDbSpline
 62
253
  6
CONTINUOUS
 70
0
 71
3
 72
11
 73
7
 74
5
 42
0.0000001
 43
0.0000001
 44
0.0000000001
 12
0.0
 22
-0.1574168885
 32
0.0
 13
0.1407597042
 23
-0.0704754033
 33
0.0
 40
0.0
 40
0.0
 40
0.0
 40
0.0
 40
0.2893557828
 40
0.5494994154
 40
0.7826671555
 40
1.0
 40
1.0
 40
1.0
 40
1.0
 10
15.2439271674
 20
14.9562757959
 30
0.0
 10
15.2439271674
 20
14.9410926336
 30
0.0
 10
15.2464127754
 20
14.9121549406
 30
0.0
 10
15.2587243627
 20
14.8725591377
 30
0.0
 10
15.2793949793
 20
14.84082963
 30
0.0
 10
15.2987057261
 20
14.8261870789
 30
0.0
 10
15.3089029618
 20
14.821081539
 30
0.0
 11
15.2439271674
 21
14.9562757959
 31
0.0
 11
15.2482524988
 21
14.9109321384
 31
0.0
 11
15.2609810559
 21
14.8720095443
 31
0.0
 11
15.2815183165
 21
14.84158843
 31
0.0
 11
15.3089029618
 21
14.821081539
 31
0.0
  0
SPLINE
  5
359
100
AcDbEntity
  8
RACCORDO
100
AcDbSpline
 62
253
  6
CONTINUOUS
 70
0
 71
3
 72
11
 73
7
 74
5
 42
0.0000001
 43
0.0000001
 44
0.0000000001
 12
0.0
 22
-0.1574253087
 32
0.0
 13
0.1407691098
 23
-0.0704754252
 33
0.0
 40
0.0
 40
0.0
 40
0.0
 40
0.0
 40
0.2893385886
 40
0.5494402709
 40
0.7826225719
 40
1.0
 40
1.0
 40
1.0
 40
1.0
 10
13.9004242831
 20
15.628027238
 30
0.0
 10
13.9004242831
 20
15.6128441658
 30
0.0
 10
13.902907125
 20
15.5839075634
 30
0.0
 10
13.9152214306
 20
15.5443130223
 30
0.0
 10
13.9358916855
 20
15.5125793713
 30
0.0
 10
13.9552083784
 20
15.4979369096
 30
0.0
 10
13.9654083874
 20
15.4928303207
 30
0.0
 11
13.9004242831
 21
15.628027238
 31
0.0
 11
13.9047481669
 21
15.5826837141
 31
0.0
 11
13.9174760977
 21
15.5437655587
 31
0.0
 11
13.9380151796
 21
15.5133405394
 31
0.0
 11
13.9654083874
 21
15.4928303207
 31
0.0
  0
SPLINE
  5
35A
100
AcDbEntity
  8
RACCORDO
100
AcDbSpline
 62
253
  6
CONTINUOUS
 70
0
 71
3
 72
9
 73
5
 74
3
 42
0.0000001
 43
0.0000001
 44
0.0000000001
 12
0.1005381304
 22
0.0419104889
 32
0.0
 13
0.0974244518
 23
-0.0487122259
 33
0.0
 40
0.0
 40
0.0
 40
0.0
 40
0.0
 40
0.4649319752
 40
1.0
 40
1.0
 40
1.0
 40
1.0
 10
16.0925688751
 20
17.3546671654
 30
0.0
 10
16.1081500056
 20
17.3611623408
 30
0.0
 10
16.1459153627
 20
17.3655611439
 30
0.0
 10
16.1811450857
 20
17.3535841987
 30
0.0
 10
16.198521322
 20
17.3448960805
 30
0.0
 11
16.0925688751
 21
17.3546671654
 31
0.0
 11
16.1427185427
 21
17.3617128189
 31
0.0
 11
16.198521322
 21
17.3448960805
 31
0.0
  0
SPLINE
  5
35B
100
AcDbEntity
  8
RACCORDO
100
AcDbSpline
 62
253
  6
CONTINUOUS
 70
0
 71
3
 72
9
 73
5
 74
3
 42
0.0000001
 43
0.0000001
 44
0.0000000001
 12
0.1029630562
 22
0.0511342226
 32
0.0
 13
0.1028245094
 23
-0.0514122547
 33
0.0
 40
0.0
 40
0.0
 40
0.0
 40
0.0
 40
0.4639602036
 40
1.0
 40
1.0
 40
1.0
 40
1.0
 10
13.9655850139
 20
16.2914224739
 30
0.0
 10
13.9815086007
 20
16.2993305554
 30
0.0
 10
14.0214005929
 20
16.3059019079
 30
0.0
 10
14.0588283021
 20
16.2934222469
 30
0.0
 10
14.0772009784
 20
16.2842359087
 30
0.0
 11
13.9655850139
 21
16.2914224739
 31
0.0
 11
14.0179947351
 21
16.301327344
 31
0.0
 11
14.0772009784
 21
16.2842359087
 31
0.0
  0
SPLINE
  5
35C
100
AcDbEntity
  8
RACCORDO
100
AcDbSpline
 62
253
  6
CONTINUOUS
 70
0
 71
3
 72
11
 73
7
 74
5
 42
0.0000001
 43
0.0000001
 44
0.0000000001
 12
0.0000009308
 22
-0.1203157153
 32
0.0
 13
0.1076136473
 23
-0.0538068236
 33
0.0
 40
0.0
 40
0.0
 40
0.0
 40
0.0
 40
0.2065137508
 40
0.4345667416
 40
0.6981210498
 40
1.0
 40
1.0
 40
1.0
 40
1.0
 10
13.827200958
 20
16.06772957
 30
0.0
 10
13.8272010221
 20
16.0594472868
 30
0.0
 10
13.8308768832
 20
16.0418909955
 30
0.0
 10
13.8461429977
 20
16.0178949335
 30
0.0
 10
13.8700044916
 20
15.9964252615
 30
0.0
 10
13.8895955182
 20
15.9847555926
 30
0.0
 10
13.9004242831
 20
15.9793412101
 30
0.0
 11
13.827200958
 21
16.06772957
 31
0.0
 11
13.8320106106
 21
16.0433526715
 31
0.0
 11
13.8462346236
 21
16.0198890617
 31
0.0
 11
13.8694141563
 21
15.998250764
 31
0.0
 11
13.9004242831
 21
15.9793412101
 31
0.0
  0
SPLINE
  5
35D
100
AcDbEntity
  8
RACCORDO
100
AcDbSpline
 62
253
  6
CONTINUOUS
 70
0
 71
3
 72
11
 73
7
 74
5
 42
0.0000001
 43
0.0000001
 44
0.0000000001
 12
0.0
 22
-0.1203158962
 32
0.0
 13
0.107613809
 23
-0.0538069045
 33
0.0
 40
0.0
 40
0.0
 40
0.0
 40
0.0
 40
0.2064758915
 40
0.434520967
 40
0.6981193998
 40
1.0
 40
1.0
 40
1.0
 40
1.0
 10
13.8272009784
 20
15.7164155857
 30
0.0
 10
13.8272009784
 20
15.7081348084
 30
0.0
 10
13.8308720037
 20
15.6905794148
 30
0.0
 10
13.8461413313
 20
15.6665843446
 30
0.0
 10
13.8700043992
 20
15.645115112
 30
0.0
 10
13.8895954427
 20
15.6334416583
 30
0.0
 10
13.9004242831
 20
15.628027238
 30
0.0
 11
13.8272009784
 21
15.7164155857
 31
0.0
 11
13.832006816
 21
15.6920425395
 31
0.0
 11
13.8462310953
 21
15.6685801566
 31
0.0
 11
13.8694150545
 21
15.646938751
 31
0.0
 11
13.9004242831
 21
15.628027238
 31
0.0
  0
SPLINE
  5
35E
100
AcDbEntity
  8
RACCORDO
100
AcDbSpline
 62
253
  6
CONTINUOUS
 70
0
 71
3
 72
9
 73
5
 74
3
 42
0.0000001
 43
0.0000001
 44
0.0000000001
 12
0.0521414017
 22
-0.0307159736
 32
0.0
 13
0.0277387884
 23
-0.0537843511
 33
0.0
 40
0.0
 40
0.0
 40
0.0
 40
0.0
 40
0.2410446835
 40
1.0
 40
1.0
 40
1.0
 40
1.0
 10
15.8917368116
 20
14.6919321613
 30
0.0
 10
15.8959262808
 20
14.6894641873
 30
0.0
 10
15.9125386721
 20
14.6779097461
 30
0.0
 10
15.9252181689
 20
14.6612076289
 30
0.0
 10
15.9322356692
 20
14.6476009892
 30
0.0
 11
15.8917368116
 21
14.6919321613
 31
0.0
 11
15.9037064269
 21
14.683594821
 31
0.0
 11
15.9322356692
 21
14.6476009892
 31
0.0
  0
SPLINE
  5
35F
100
AcDbEntity
  8
RACCORDO
100
AcDbSpline
 62
253
  6
CONTINUOUS
 70
0
 71
3
 72
9
 73
5
 74
3
 42
0.0000001
 43
0.0000001
 44
0.0000000001
 12
0.0413719933
 22
-0.0802185656
 32
0.0
 13
0.0
 23
-0.0902588505
 33
0.0
 40
0.0
 40
0.0
 40
0.0
 40
0.0
 40
0.2295706774
 40
1.0
 40
1.0
 40
1.0
 40
1.0
 10
15.9322356692
 20
14.6476009892
 30
0.0
 10
15.9354016014
 20
14.641462379
 30
0.0
 10
15.9471294377
 20
14.613655274
 30
0.0
 10
15.9510339486
 20
14.5830085415
 30
0.0
 10
15.9510339486
 20
14.5598291865
 30
0.0
 11
15.9322356692
 21
14.6476009892
 31
0.0
 11
15.9403740257
 21
14.6285453311
 31
0.0
 11
15.9510339486
 21
14.5598291865
 31
0.0
  0
SPLINE
  5
360
100
AcDbEntity
  8
RACCORDO
100
AcDbSpline
 62
253
  6
CONTINUOUS
 70
0
 71
3
 72
9
 73
5
 74
3
 42
0.0000001
 43
0.0000001
 44
0.0000000001
 12
0.000018338
 22
-0.0977596867
 32
0.0
 13
0.0832907687
 23
-0.0511820725
 33
0.0
 40
0.0
 40
0.0
 40
0.0
 40
0.0
 40
0.43756309
 40
1.0
 40
1.0
 40
1.0
 40
1.0
 10
14.534318998
 20
15.0160638933
 30
0.0
 10
14.5343216727
 20
15.0018052164
 30
0.0
 10
14.54778331
 20
14.9693771112
 30
0.0
 10
14.5742855163
 20
14.9490417913
 30
0.0
 10
14.5899007839
 20
14.9394462291
 30
0.0
 11
14.534318998
 21
15.0160638933
 31
0.0
 11
14.5485990703
 21
14.9757418349
 31
0.0
 11
14.5899007839
 21
14.9394462291
 31
0.0
  0
SPLINE
  5
361
100
AcDbEntity
  8
RACCORDO
100
AcDbSpline
 62
253
  6
CONTINUOUS
 70
0
 71
3
 72
9
 73
5
 74
3
 42
0.0000001
 43
0.0000001
 44
0.0000000001
 12
0.0918363946
 22
0.0459181973
 32
0.0
 13
0.0261734454
 23
0.0992842131
 33
0.0
 40
0.0
 40
0.0
 40
0.0
 40
0.0
 40
0.2979219667
 40
1.0
 40
1.0
 40
1.0
 40
1.0
 10
17.0116941204
 20
-24.8862215623
 30
0.0
 10
17.0208141468
 20
-24.8816615491
 30
0.0
 10
17.0501466599
 20
-24.8648008081
 30
0.0
 10
17.076646333
 20
-24.837383613
 30
0.0
 10
17.0827716
 20
-24.8141485247
 30
0.0
 11
17.0116941204
 21
-24.8862215623
 31
0.0
 11
17.038040311
 21
-24.8706782144
 31
0.0
 11
17.0827716
 21
-24.8141485247
 31
0.0
  0
SPLINE
  5
362
100
AcDbEntity
  8
RACCORDO
100
AcDbSpline
 62
253
  6
CONTINUOUS
 70
0
 71
3
 72
8
 73
4
 74
2
 42
0.0000001
 43
0.0000001
 44
0.0000000001
 12
0.0041947927
 22
0.0159121846
 32
0.0
 13
0.0
 23
0.0164558168
 33
0.0
 40
0.0
 40
0.0
 40
0.0
 40
0.0
 40
1.0
 40
1.0
 40
1.0
 40
1.0
 10
17.0827716
 20
-24.8141485247
 30
0.0
 10
17.0841698643
 20
-24.8088444631
 30
0.0
 10
17.0849174251
 20
-24.8033184869
 30
0.0
 10
17.0849174251
 20
-24.7978332146
 30
0.0
 11
17.0827716
 21
-24.8141485247
 31
0.0
 11
17.0849174251
 21
-24.7978332146
 31
0.0
  0
SPLINE
  5
363
100
AcDbEntity
  8
RACCORDO
100
AcDbSpline
 62
253
  6
CONTINUOUS
 70
0
 71
3
 72
9
 73
5
 74
3
 42
0.0000001
 43
0.0000001
 44
0.0000000001
 12
-0.0618068848
 22
-0.193173312
 32
0.0
 13
0.0
 23
-0.2028201654
 33
0.0
 40
0.0
 40
0.0
 40
0.0
 40
0.0
 40
0.2612978907
 40
1.0
 40
1.0
 40
1.0
 40
1.0
 10
17.0448497742
 20
15.1130341932
 30
0.0
 10
17.039466438
 20
15.0962089336
 30
0.0
 10
17.0210867072
 20
15.0311604223
 30
0.0
 10
17.0116941204
 20
14.9633238051
 30
0.0
 10
17.0116941204
 20
14.9133825771
 30
0.0
 11
17.0448497742
 21
15.1130341932
 31
0.0
 11
17.0304748797
 21
15.0620244936
 31
0.0
 11
17.0116941204
 21
14.9133825771
 31
0.0
  0
SPLINE
  5
364
100
AcDbEntity
  8
RACCORDO
100
AcDbSpline
 62
253
  6
CONTINUOUS
 70
0
 71
3
 72
11
 73
7
 74
5
 42
0.0000001
 43
0.0000001
 44
0.0000000001
 12
0.107613809
 22
0.0538069045
 32
0.0
 13
0.0
 23
0.1203158962
 33
0.0
 40
0.0
 40
0.0
 40
0.0
 40
0.0
 40
0.3018806002
 40
0.565479033
 40
0.7935241085
 40
1.0
 40
1.0
 40
1.0
 40
1.0
 10
17.0116941204
 20
14.9133825771
 30
0.0
 10
17.0225229608
 20
14.9187969973
 30
0.0
 10
17.0421140043
 20
14.9304704511
 30
0.0
 10
17.0659770722
 20
14.9519396837
 30
0.0
 10
17.0812463998
 20
14.9759347539
 30
0.0
 10
17.0849174251
 20
14.9934901474
 30
0.0
 10
17.0849174251
 20
15.0017709247
 30
0.0
 11
17.0116941204
 21
14.9133825771
 31
0.0
 11
17.042703349
 21
14.93229409
 31
0.0
 11
17.0658873082
 21
14.9539354957
 31
0.0
 11
17.0801115876
 21
14.9773978785
 31
0.0
 11
17.0849174251
 21
15.0017709247
 31
0.0
  0
SPLINE
  5
365
100
AcDbEntity
  8
RACCORDO
100
AcDbSpline
 62
253
  6
CONTINUOUS
 70
0
 71
3
 72
10
 73
6
 74
4
 42
0.0000001
 43
0.0000001
 44
0.0000000001
 12
0.0397153903
 22
-0.0643913703
 32
0.0
 13
-0.0481240378
 23
-0.0583749757
 33
0.0
 40
0.0
 40
0.0
 40
0.0
 40
0.0
 40
0.3492103718
 40
0.6297772923
 40
1.0
 40
1.0
 40
1.0
 40
1.0
 10
17.7188009016
 20
16.0169359677
 30
0.0
 10
17.7234239103
 20
16.0094405896
 30
0.0
 10
17.7311004448
 20
15.9953048802
 30
0.0
 10
17.740109998
 20
15.972383492
 30
0.0
 10
17.740495244
 20
15.9530645416
 30
0.0
 10
17.7345563735
 20
15.9458606277
 30
0.0
 11
17.7188009016
 21
16.0169359677
 31
0.0
 11
17.7313214473
 21
15.9936720028
 31
0.0
 11
17.7382840704
 21
15.9736203701
 31
0.0
 11
17.7345563735
 21
15.9458606277
 31
0.0
  0
SPLINE
  5
366
100
AcDbEntity
  8
RACCORDO
100
AcDbSpline
 62
253
  6
CONTINUOUS
 70
0
 71
3
 72
10
 73
6
 74
4
 42
0.0000001
 43
0.0000001
 44
0.0000000001
 12
0.0397280143
 22
-0.0644118378
 32
0.0
 13
-0.0482235685
 23
-0.0583239866
 33
0.0
 40
0.0
 40
0.0
 40
0.0
 40
0.0
 40
0.3492690482
 40
0.6298549571
 40
1.0
 40
1.0
 40
1.0
 40
1.0
 10
17.1884708157
 20
15.3767709247
 30
0.0
 10
17.1930960709
 20
15.3692719043
 30
0.0
 10
17.2007748804
 20
15.3551289929
 30
0.0
 10
17.20978596
 20
15.3322010608
 30
0.0
 10
17.2101591596
 20
15.3128706242
 30
0.0
 10
17.2042092547
 20
15.3056745127
 30
0.0
 11
17.1884708157
 21
15.3767709247
 31
0.0
 11
17.2009962677
 21
15.353495021
 31
0.0
 11
17.2079581189
 21
15.3334344573
 31
0.0
 11
17.2042092547
 21
15.3056745127
 31
0.0
  0
SPLINE
  5
367
100
AcDbEntity
  8
RACCORDO
100
AcDbSpline
 62
253
  6
CONTINUOUS
 70
0
 71
3
 72
9
 73
5
 74
3
 42
0.0000001
 43
0.0000001
 44
0.0000000001
 12
0.0959985305
 22
0.0468453926
 32
0.0
 13
0.1067318567
 23
-0.0043034213
 33
0.0
 40
0.0
 40
0.0
 40
0.0
 40
0.0
 40
0.245316102
 40
1.0
 40
1.0
 40
1.0
 40
1.0
 10
1.0437492411
 20
21.6435769882
 30
0.0
 10
1.0515992362
 20
21.6474076312
 30
0.0
 10
1.0846096843
 20
21.6609321445
 30
0.0
 10
1.1210193133
 20
21.6655234851
 30
0.0
 10
1.1478689179
 20
21.6644409108
 30
0.0
 11
1.0437492411
 21
21.6435769882
 31
0.0
 11
1.0679997878
 21
21.6535055947
 31
0.0
 11
1.1478689179
 21
21.6644409108
 31
0.0
  0
SPLINE
  5
368
100
AcDbEntity
  8
RACCORDO
100
AcDbSpline
 62
253
  6
CONTINUOUS
 70
0
 71
3
 72
11
 73
7
 74
5
 42
0.0000001
 43
0.0000001
 44
0.0000000001
 12
0.3283037813
 22
-0.1641518906
 32
0.0
 13
0.0
 23
-0.3670547861
 33
0.0
 40
0.0
 40
0.0
 40
0.0
 40
0.0
 40
0.2296876225
 40
0.4882493672
 40
0.7532523129
 40
1.0
 40
1.0
 40
1.0
 40
1.0
 10
17.5420242063
 20
16.6731446384
 30
0.0
 10
17.5671599779
 20
16.6605767525
 30
0.0
 10
17.6151910258
 20
16.6229992962
 30
0.0
 10
17.6706520181
 20
16.5483961404
 30
0.0
 10
17.70838384
 20
16.4611611467
 30
0.0
 10
17.7188009016
 20
16.3984399129
 30
0.0
 10
17.7188009016
 20
16.3682499398
 30
0.0
 11
17.5420242063
 21
16.6731446384
 31
0.0
 11
17.6096767788
 21
16.6228360071
 31
0.0
 11
17.6670306768
 21
16.5472202609
 31
0.0
 11
17.7053496329
 21
16.4578154113
 31
0.0
 11
17.7188009016
 21
16.3682499398
 31
0.0
  0
SPLINE
  5
369
100
AcDbEntity
  8
RACCORDO
100
AcDbSpline
 62
253
  6
CONTINUOUS
 70
0
 71
3
 72
11
 73
7
 74
5
 42
0.0000001
 43
0.0000001
 44
0.0000000001
 12
0.3283037813
 22
-0.1641518906
 32
0.0
 13
0.0
 23
-0.3670547861
 33
0.0
 40
0.0
 40
0.0
 40
0.0
 40
0.0
 40
0.2296876225
 40
0.4882493672
 40
0.7532523129
 40
1.0
 40
1.0
 40
1.0
 40
1.0
 10
15.4207038627
 20
15.6124844666
 30
0.0
 10
15.4458396344
 20
15.5999165808
 30
0.0
 10
15.4938706822
 20
15.5623391244
 30
0.0
 10
15.5493316745
 20
15.4877359686
 30
0.0
 10
15.5870634965
 20
15.400500975
 30
0.0
 10
15.597480558
 20
15.3377797412
 30
0.0
 10
15.597480558
 20
15.307589768
 30
0.0
 11
15.4207038627
 21
15.6124844666
 31
0.0
 11
15.4883564352
 21
15.5621758354
 31
0.0
 11
15.5457103332
 21
15.4865600891
 31
0.0
 11
15.5840292894
 21
15.3971552395
 31
0.0
 11
15.597480558
 21
15.307589768
 31
0.0
  0
SPLINE
  5
36A
100
AcDbEntity
  8
RACCORDO
100
AcDbSpline
 62
253
  6
CONTINUOUS
 70
0
 71
3
 72
11
 73
7
 74
5
 42
0.0000001
 43
0.0000001
 44
0.0000000001
 12
-0.3283037813
 22
-0.1641518906
 32
0.0
 13
0.0
 23
-0.3670547861
 33
0.0
 40
0.0
 40
0.0
 40
0.0
 40
0.0
 40
0.2296876225
 40
0.4882493672
 40
0.7532523129
 40
1.0
 40
1.0
 40
1.0
 40
1.0
 10
15.4207038627
 20
15.6124844666
 30
0.0
 10
15.395568091
 20
15.5999165808
 30
0.0
 10
15.3475370432
 20
15.5623391244
 30
0.0
 10
15.2920760509
 20
15.4877359686
 30
0.0
 10
15.2543442289
 20
15.400500975
 30
0.0
 10
15.2439271674
 20
15.3377797412
 30
0.0
 10
15.2439271674
 20
15.307589768
 30
0.0
 11
15.4207038627
 21
15.6124844666
 31
0.0
 11
15.3530512902
 21
15.5621758354
 31
0.0
 11
15.2956973922
 21
15.4865600891
 31
0.0
 11
15.257378436
 21
15.3971552395
 31
0.0
 11
15.2439271674
 21
15.307589768
 31
0.0
  0
SPLINE
  5
36B
100
AcDbEntity
  8
RACCORDO
100
AcDbSpline
 62
253
  6
CONTINUOUS
 70
0
 71
3
 72
11
 73
7
 74
5
 42
0.0000001
 43
0.0000001
 44
0.0000000001
 12
-0.3283037267
 22
-0.1641518634
 32
0.0
 13
0.0
 23
-0.3670547251
 33
0.0
 40
0.0
 40
0.0
 40
0.0
 40
0.0
 40
0.2296755894
 40
0.4882147766
 40
0.7532068921
 40
1.0
 40
1.0
 40
1.0
 40
1.0
 10
14.0772009784
 20
16.2842359087
 30
0.0
 10
14.0520665278
 20
16.2716686834
 30
0.0
 10
14.0040384538
 20
16.2340946474
 30
0.0
 10
13.9485792086
 20
16.159497183
 30
0.0
 10
13.9108445594
 20
16.0722621135
 30
0.0
 10
13.9004242831
 20
16.0095367356
 30
0.0
 10
13.9004242831
 20
15.9793412101
 30
0.0
 11
14.0772009784
 21
16.2842359087
 31
0.0
 11
14.0095514659
 21
16.2339305878
 31
0.0
 11
13.9522009784
 21
16.1583226667
 31
0.0
 11
13.9138806078
 21
16.068922766
 31
0.0
 11
13.9004242831
 21
15.9793412101
 31
0.0
  0
SPLINE
  5
36C
100
AcDbEntity
  8
RACCORDO
100
AcDbSpline
 62
253
  6
CONTINUOUS
 70
0
 71
3
 72
11
 73
7
 74
5
 42
0.0000001
 43
0.0000001
 44
0.0000000001
 12
-0.3249549506
 22
-0.1624774753
 32
0.0
 13
-0.3249549506
 23
0.1624774753
 33
0.0
 40
0.0
 40
0.0
 40
0.0
 40
0.0
 40
0.2353555477
 40
0.4999881527
 40
0.764625342
 40
1.0
 40
1.0
 40
1.0
 40
1.0
 10
15.597480558
 20
14.9562757959
 30
0.0
 10
15.5719872412
 20
14.9435291375
 30
0.0
 10
15.5133963411
 20
14.9253447151
 30
0.0
 10
15.4207076595
 20
14.9166578373
 30
0.0
 10
15.328016646
 20
14.9253437688
 30
0.0
 10
15.2694225542
 20
14.9435281025
 30
0.0
 10
15.2439271674
 20
14.9562757959
 30
0.0
 11
15.597480558
 21
14.9562757959
 31
0.0
 11
15.5163799723
 21
14.9291801595
 31
0.0
 11
15.4207082126
 21
14.9196641424
 31
0.0
 11
15.3250346544
 21
14.9291789058
 31
0.0
 11
15.2439271674
 21
14.9562757959
 31
0.0
  0
SPLINE
  5
36D
100
AcDbEntity
  8
RACCORDO
100
AcDbSpline
 62
253
  6
CONTINUOUS
 70
0
 71
3
 72
11
 73
7
 74
5
 42
0.0000001
 43
0.0000001
 44
0.0000000001
 12
-0.324954929
 22
-0.1624774645
 32
0.0
 13
-0.324954929
 23
0.1624774645
 33
0.0
 40
0.0
 40
0.0
 40
0.0
 40
0.0
 40
0.2353701082
 40
0.5
 40
0.7646298918
 40
1.0
 40
1.0
 40
1.0
 40
1.0
 10
15.597480558
 20
15.307589768
 30
0.0
 10
15.5719856657
 20
15.2948423219
 30
0.0
 10
15.5133930677
 20
15.2766581961
 30
0.0
 10
15.4207038627
 20
15.2679718775
 30
0.0
 10
15.3280146577
 20
15.2766581961
 30
0.0
 10
15.2694220597
 20
15.2948423219
 30
0.0
 10
15.2439271674
 20
15.307589768
 30
0.0
 11
15.597480558
 21
15.307589768
 31
0.0
 11
15.5163747208
 21
15.2804931741
 31
0.0
 11
15.4207038627
 21
15.2709781156
 31
0.0
 11
15.3250330046
 21
15.2804931741
 31
0.0
 11
15.2439271674
 21
15.307589768
 31
0.0
  0
SPLINE
  5
36E
100
AcDbEntity
  8
RACCORDO
100
AcDbSpline
 62
253
  6
CONTINUOUS
 70
0
 71
3
 72
11
 73
7
 74
5
 42
0.0000001
 43
0.0000001
 44
0.0000000001
 12
-0.324954929
 22
-0.1624774645
 32
0.0
 13
-0.324954929
 23
0.1624774645
 33
0.0
 40
0.0
 40
0.0
 40
0.0
 40
0.0
 40
0.2353701082
 40
0.5
 40
0.7646298918
 40
1.0
 40
1.0
 40
1.0
 40
1.0
 10
16.3045873392
 20
14.5598291865
 30
0.0
 10
16.2790924469
 20
14.5470817404
 30
0.0
 10
16.2204998489
 20
14.5288976146
 30
0.0
 10
16.1278106439
 20
14.520211296
 30
0.0
 10
16.0351214388
 20
14.5288976146
 30
0.0
 10
15.9765288409
 20
14.5470817404
 30
0.0
 10
15.9510339486
 20
14.5598291865
 30
0.0
 11
16.3045873392
 21
14.5598291865
 31
0.0
 11
16.223481502
 21
14.5327325926
 31
0.0
 11
16.1278106439
 21
14.5232175342
 31
0.0
 11
16.0321397858
 21
14.5327325926
 31
0.0
 11
15.9510339486
 21
14.5598291865
 31
0.0
  0
SPLINE
  5
36F
100
AcDbEntity
  8
RACCORDO
100
AcDbSpline
 62
253
  6
CONTINUOUS
 70
0
 71
3
 72
11
 73
7
 74
5
 42
0.0000001
 43
0.0000001
 44
0.0000000001
 12
-0.324954929
 22
-0.1624774645
 32
0.0
 13
-0.324954929
 23
0.1624774645
 33
0.0
 40
0.0
 40
0.0
 40
0.0
 40
0.0
 40
0.2353701082
 40
0.5
 40
0.7646298918
 40
1.0
 40
1.0
 40
1.0
 40
1.0
 10
2.9402691748
 20
21.2419882687
 30
0.0
 10
2.9147742825
 20
21.2292408226
 30
0.0
 10
2.8561816845
 20
21.2110566968
 30
0.0
 10
2.7634924795
 20
21.2023703782
 30
0.0
 10
2.6708032744
 20
21.2110566968
 30
0.0
 10
2.6122106764
 20
21.2292408226
 30
0.0
 10
2.5867157842
 20
21.2419882687
 30
0.0
 11
2.9402691748
 21
21.2419882687
 31
0.0
 11
2.8591633376
 21
21.2148916748
 31
0.0
 11
2.7634924795
 21
21.2053766164
 31
0.0
 11
2.6678216214
 21
21.2148916748
 31
0.0
 11
2.5867157842
 21
21.2419882687
 31
0.0
  0
SPLINE
  5
370
100
AcDbEntity
  8
RACCORDO
100
AcDbSpline
 62
253
  6
CONTINUOUS
 70
0
 71
3
 72
11
 73
7
 74
5
 42
0.0000001
 43
0.0000001
 44
0.0000000001
 12
0.0
 22
0.3637747172
 32
0.0
 13
-0.3562153171
 23
0.0737746077
 33
0.0
 40
0.0
 40
0.0
 40
0.0
 40
0.0
 40
0.2934021086
 40
0.5509410244
 40
0.78010513
 40
1.0
 40
1.0
 40
1.0
 40
1.0
 10
2.9402691748
 20
21.2419882687
 30
0.0
 10
2.9402691748
 20
21.2775656918
 30
0.0
 10
2.9336461738
 20
21.3447472244
 30
0.0
 10
2.8993379428
 20
21.4344711336
 30
0.0
 10
2.8413604327
 20
21.5005846028
 30
0.0
 10
2.7896024531
 20
21.5231923685
 30
0.0
 10
2.7634924795
 20
21.5285999211
 30
0.0
 11
2.9402691748
 21
21.2419882687
 31
0.0
 11
2.9282216425
 21
21.3480384183
 31
0.0
 11
2.8929016318
 21
21.4348116334
 31
0.0
 11
2.8367163966
 21
21.4963972957
 31
0.0
 11
2.7634924795
 21
21.5285999211
 31
0.0
  0
SPLINE
  5
371
100
AcDbEntity
  8
RACCORDO
100
AcDbSpline
 62
253
  6
CONTINUOUS
 70
0
 71
3
 72
11
 73
7
 74
5
 42
0.0000001
 43
0.0000001
 44
0.0000000001
 12
0.0
 22
-0.1574222712
 32
0.0
 13
-0.1408317318
 23
-0.0703434061
 33
0.0
 40
0.0
 40
0.0
 40
0.0
 40
0.0
 40
0.2892516425
 40
0.5496863449
 40
0.7829702418
 40
1.0
 40
1.0
 40
1.0
 40
1.0
 10
17.7188009016
 20
-25.6339821438
 30
0.0
 10
17.7188009016
 20
-25.6491603606
 30
0.0
 10
17.7163010217
 20
-25.678104985
 30
0.0
 10
17.7039999697
 20
-25.7177289153
 30
0.0
 10
17.6832873977
 20
-25.7494305836
 30
0.0
 10
17.6640133578
 20
-25.7641067753
 30
0.0
 10
17.6538251322
 20
-25.7691956461
 30
0.0
 11
17.7188009016
 21
-25.6339821438
 31
0.0
 11
17.7144708839
 21
-25.67931045
 31
0.0
 11
17.7017282588
 21
-25.7182781256
 31
0.0
 11
17.6811629473
 21
-25.7487038726
 31
0.0
 11
17.6538251322
 21
-25.7691956461
 31
0.0
  0
SPLINE
  5
372
100
AcDbEntity
  8
RACCORDO
100
AcDbSpline
 62
7
  6
CONTINUOUS
 70
0
 71
3
 72
11
 73
7
 74
5
 42
0.0000001
 43
0.0000001
 44
0.0000000001
 12
-0.00000452
 22
-0.24065108
 32
0.0
 13
0.2152448696
 23
-0.1076224348
 33
0.0
 40
0.0
 40
0.0
 40
0.0
 40
0.0
 40
0.2065677123
 40
0.4345128221
 40
0.6974273522
 40
1.0
 40
1.0
 40
1.0
 40
1.0
 10
6.0444832854
 20
20.6818182933
 30
0.0
 10
6.0444829742
 20
20.6652480456
 30
0.0
 10
6.0518004349
 20
20.6301247129
 30
0.0
 10
6.0823581252
 20
20.5822129929
 30
0.0
 10
6.1299833
 20
20.5391723597
 30
0.0
 10
6.1692208186
 20
20.5158916825
 30
0.0
 10
6.1909298886
 20
20.5050371475
 30
0.0
 11
6.0444832854
 21
20.6818182933
 31
0.0
 11
6.054089365
 21
20.6330445175
 31
0.0
 11
6.0825417557
 21
20.5861450668
 31
0.0
 11
6.1287473491
 21
20.5429221531
 31
0.0
 11
6.1909298886
 21
20.5050371475
 31
0.0
  0
SPLINE
  5
373
100
AcDbEntity
  8
RACCORDO
100
AcDbSpline
 62
253
  6
CONTINUOUS
 70
0
 71
3
 72
11
 73
7
 74
5
 42
0.0000001
 43
0.0000001
 44
0.0000000001
 12
-0.3283038305
 22
-0.1641519152
 32
0.0
 13
0.0
 23
-0.3670548411
 33
0.0
 40
0.0
 40
0.0
 40
0.0
 40
0.0
 40
0.2296322548
 40
0.488180216
 40
0.7531943267
 40
1.0
 40
1.0
 40
1.0
 40
1.0
 10
2.0563856983
 20
22.2946435488
 30
0.0
 10
2.031255982
 20
22.2820786907
 30
0.0
 10
1.9832298534
 20
22.2445097988
 30
0.0
 10
1.9277692621
 20
22.1699147683
 30
0.0
 10
1.890030741
 20
22.0826755375
 30
0.0
 10
1.879609003
 20
22.0199459226
 30
0.0
 10
1.879609003
 20
21.9897488502
 30
0.0
 11
2.0563856983
 21
22.2946435488
 31
0.0
 11
1.9887472544
 21
22.2443499546
 31
0.0
 11
1.9313921487
 21
22.1687414567
 31
0.0
 11
1.8930667813
 21
22.0793348806
 31
0.0
 11
1.879609003
 21
21.9897488502
 31
0.0
  0
SPLINE
  5
374
100
AcDbEntity
  8
RACCORDO
100
AcDbSpline
 62
253
  6
CONTINUOUS
 70
0
 71
3
 72
11
 73
7
 74
5
 42
0.0000001
 43
0.0000001
 44
0.0000000001
 12
-0.3283038305
 22
-0.1641519152
 32
0.0
 13
0.0
 23
-0.3670548411
 33
0.0
 40
0.0
 40
0.0
 40
0.0
 40
0.0
 40
0.2296322548
 40
0.488180216
 40
0.7531943267
 40
1.0
 40
1.0
 40
1.0
 40
1.0
 10
0.712882814
 20
22.9663949909
 30
0.0
 10
0.6877530977
 20
22.9538301328
 30
0.0
 10
0.6397269691
 20
22.9162612409
 30
0.0
 10
0.5842663779
 20
22.8416662105
 30
0.0
 10
0.5465278568
 20
22.7544269796
 30
0.0
 10
0.5361061187
 20
22.6916973647
 30
0.0
 10
0.5361061187
 20
22.6615002923
 30
0.0
 11
0.712882814
 21
22.9663949909
 31
0.0
 11
0.6452443701
 21
22.9161013967
 31
0.0
 11
0.5878892645
 21
22.8404928989
 31
0.0
 11
0.549563897
 21
22.7510863227
 31
0.0
 11
0.5361061187
 21
22.6615002923
 31
0.0
  0
SPLINE
  5
375
100
AcDbEntity
  8
RACCORDO
100
AcDbSpline
 62
253
  6
CONTINUOUS
 70
0
 71
3
 72
11
 73
7
 74
5
 42
0.0000001
 43
0.0000001
 44
0.0000000001
 12
-0.324954929
 22
-0.1624774645
 32
0.0
 13
-0.324954929
 23
0.1624774645
 33
0.0
 40
0.0
 40
0.0
 40
0.0
 40
0.0
 40
0.2353701082
 40
0.5
 40
0.7646298918
 40
1.0
 40
1.0
 40
1.0
 40
1.0
 10
2.2331623936
 20
21.6384348781
 30
0.0
 10
2.2076675013
 20
21.625687432
 30
0.0
 10
2.1490749033
 20
21.6075033062
 30
0.0
 10
2.0563856983
 20
21.5988169876
 30
0.0
 10
1.9636964932
 20
21.6075033062
 30
0.0
 10
1.9051038952
 20
21.625687432
 30
0.0
 10
1.879609003
 20
21.6384348781
 30
0.0
 11
2.2331623936
 21
21.6384348781
 31
0.0
 11
2.1520565564
 21
21.6113382842
 31
0.0
 11
2.0563856983
 21
21.6018232258
 31
0.0
 11
1.9607148402
 21
21.6113382842
 31
0.0
 11
1.879609003
 21
21.6384348781
 31
0.0
  0
SPLINE
  5
376
100
AcDbEntity
  8
RACCORDO
100
AcDbSpline
 62
253
  6
CONTINUOUS
 70
0
 71
3
 72
11
 73
7
 74
5
 42
0.0000001
 43
0.0000001
 44
0.0000000001
 12
-0.3249549857
 22
-0.1624774928
 32
0.0
 13
-0.3249549857
 23
0.1624774928
 33
0.0
 40
0.0
 40
0.0
 40
0.0
 40
0.0
 40
0.2353253496
 40
0.499964792
 40
0.764617449
 40
1.0
 40
1.0
 40
1.0
 40
1.0
 10
2.2331623936
 20
21.9897488502
 30
0.0
 10
2.207672345
 20
21.9770038259
 30
0.0
 10
2.1490847925
 20
21.958818864
 30
0.0
 10
2.0563970294
 20
21.9501306924
 30
0.0
 10
1.9637022625
 20
21.9588159508
 30
0.0
 10
1.9051052475
 20
21.977000728
 30
0.0
 10
1.879609003
 20
21.9897488502
 30
0.0
 11
2.2331623936
 21
21.9897488502
 31
0.0
 11
2.1520726811
 21
21.9626552626
 31
0.0
 11
2.0563986192
 21
21.9531371878
 31
0.0
 11
1.9607193538
 21
21.9626514531
 31
0.0
 11
1.879609003
 21
21.9897488502
 31
0.0
  0
SPLINE
  5
377
100
AcDbEntity
  8
RACCORDO
100
AcDbSpline
 62
253
  6
CONTINUOUS
 70
0
 71
3
 72
11
 73
7
 74
5
 42
0.0000001
 43
0.0000001
 44
0.0000000001
 12
-0.1063646839
 22
-0.2788159098
 32
0.0
 13
-0.2922163674
 23
0.0605091078
 33
0.0
 40
0.0
 40
0.0
 40
0.0
 40
0.0
 40
0.2770958208
 40
0.5368340029
 40
0.7754612626
 40
1.0
 40
1.0
 40
1.0
 40
1.0
 10
2.7634924795
 20
21.5285999211
 30
0.0
 10
2.7536680763
 20
21.5028470133
 30
0.0
 10
2.7279068145
 20
21.4551507388
 30
0.0
 10
2.6723084681
 20
21.3998910237
 30
0.0
 10
2.6056690423
 20
21.3686495933
 30
0.0
 10
2.5578932128
 20
21.3676877385
 30
0.0
 10
2.5360219147
 20
21.372216618
 30
0.0
 11
2.7634924795
 21
21.5285999211
 31
0.0
 11
2.7236827187
 21
21.4561239709
 31
0.0
 11
2.6680217047
 21
21.4021829619
 31
0.0
 11
2.6030219295
 21
21.3730985897
 31
0.0
 11
2.5360219147
 21
21.372216618
 31
0.0
  0
SPLINE
  5
378
100
AcDbEntity
  8
RACCORDO
100
AcDbSpline
 62
253
  6
CONTINUOUS
 70
0
 71
3
 72
11
 73
7
 74
5
 42
0.0000001
 43
0.0000001
 44
0.0000000001
 12
0.0
 22
-0.1574222712
 32
0.0
 13
-0.1408317318
 23
-0.0703434061
 33
0.0
 40
0.0
 40
0.0
 40
0.0
 40
0.0
 40
0.2892516425
 40
0.5496863449
 40
0.7829702418
 40
1.0
 40
1.0
 40
1.0
 40
1.0
 10
15.597480558
 20
-26.6946423156
 30
0.0
 10
15.597480558
 20
-26.7098205324
 30
0.0
 10
15.5949806782
 20
-26.7387651568
 30
0.0
 10
15.5826796261
 20
-26.7783890871
 30
0.0
 10
15.5619670541
 20
-26.8100907553
 30
0.0
 10
15.5426930142
 20
-26.8247669471
 30
0.0
 10
15.5325047886
 20
-26.8298558179
 30
0.0
 11
15.597480558
 21
-26.6946423156
 31
0.0
 11
15.5931505404
 21
-26.7399706218
 31
0.0
 11
15.5804079153
 21
-26.7789382974
 31
0.0
 11
15.5598426037
 21
-26.8093640443
 31
0.0
 11
15.5325047886
 21
-26.8298558179
 31
0.0
  0
SPLINE
  5
379
100
AcDbEntity
  8
RACCORDO
100
AcDbSpline
 62
253
  6
CONTINUOUS
 70
0
 71
3
 72
11
 73
7
 74
5
 42
0.0000001
 43
0.0000001
 44
0.0000000001
 12
-0.1059307198
 22
-0.2776783507
 32
0.0
 13
-0.2915002733
 23
0.0579152356
 33
0.0
 40
0.0
 40
0.0
 40
0.0
 40
0.0
 40
0.2769633699
 40
0.5367118852
 40
0.7754445235
 40
1.0
 40
1.0
 40
1.0
 40
1.0
 10
2.2331623936
 20
21.6384348781
 30
0.0
 10
2.2233827505
 20
21.6127993009
 30
0.0
 10
2.197764321
 20
21.5653000039
 30
0.0
 10
2.1425178815
 20
21.5101621227
 30
0.0
 10
2.0762937704
 20
21.478770353
 30
0.0
 10
2.0287278608
 20
21.4774699512
 30
0.0
 10
2.0069085332
 20
21.4818050123
 30
0.0
 11
2.2331623936
 21
21.6384348781
 31
0.0
 11
2.1935821051
 21
21.5662627303
 31
0.0
 11
2.1382666774
 21
21.5124153955
 31
0.0
 11
2.0736323798
 21
21.4831505934
 31
0.0
 11
2.0069085332
 21
21.4818050123
 31
0.0
  0
SPLINE
  5
37A
100
AcDbEntity
  8
RACCORDO
100
AcDbSpline
 62
253
  6
CONTINUOUS
 70
0
 71
3
 72
11
 73
7
 74
5
 42
0.0000001
 43
0.0000001
 44
0.0000000001
 12
0.0
 22
-0.1574253087
 32
0.0
 13
0.1407691098
 23
-0.0704754252
 33
0.0
 40
0.0
 40
0.0
 40
0.0
 40
0.0
 40
0.2893385886
 40
0.5494402709
 40
0.7826225719
 40
1.0
 40
1.0
 40
1.0
 40
1.0
 10
1.879609003
 20
21.6384348781
 30
0.0
 10
1.879609003
 20
21.6232518059
 30
0.0
 10
1.8820918448
 20
21.5943152034
 30
0.0
 10
1.8944061504
 20
21.5547206624
 30
0.0
 10
1.9150764054
 20
21.5229870114
 30
0.0
 10
1.9343930982
 20
21.5083445496
 30
0.0
 10
1.9445931072
 20
21.5032379607
 30
0.0
 11
1.879609003
 21
21.6384348781
 31
0.0
 11
1.8839328868
 21
21.5930913542
 31
0.0
 11
1.8966608175
 21
21.5541731988
 31
0.0
 11
1.9171998994
 21
21.5237481795
 31
0.0
 11
1.9445931072
 21
21.5032379607
 31
0.0
  0
SPLINE
  5
37B
100
AcDbEntity
  8
RACCORDO
100
AcDbSpline
 62
253
  6
CONTINUOUS
 70
0
 71
3
 72
11
 73
7
 74
5
 42
0.0000001
 43
0.0000001
 44
0.0000000001
 12
-0.0
 22
-0.157526034
 32
0.0
 13
0.1409395254
 23
-0.0703598007
 33
0.0
 40
0.0
 40
0.0
 40
0.0
 40
0.0
 40
0.2893786307
 40
0.5495163242
 40
0.7826658298
 40
1.0
 40
1.0
 40
1.0
 40
1.0
 10
0.5361061187
 20
22.3101863203
 30
0.0
 10
0.5361061187
 20
22.2949914309
 30
0.0
 10
0.5385953408
 20
22.2660325683
 30
0.0
 10
0.5509265956
 20
22.2264119501
 30
0.0
 10
0.5716309125
 20
22.1946726903
 30
0.0
 10
0.5909704724
 20
22.1800398225
 30
0.0
 10
0.6011807973
 20
22.1749426262
 30
0.0
 11
0.5361061187
 21
22.3101863203
 31
0.0
 11
0.5404384522
 21
22.2648079901
 31
0.0
 11
0.5531873504
 21
22.2258631611
 31
0.0
 11
0.5737563246
 21
22.1954362254
 31
0.0
 11
0.6011807973
 21
22.1749426262
 31
0.0
  0
SPLINE
  5
37C
100
AcDbEntity
  8
RACCORDO
100
AcDbSpline
 62
253
  6
CONTINUOUS
 70
0
 71
3
 72
11
 73
7
 74
5
 42
0.0000001
 43
0.0000001
 44
0.0000000001
 12
0.3283037813
 22
-0.1641518906
 32
0.0
 13
0.0
 23
-0.3670547861
 33
0.0
 40
0.0
 40
0.0
 40
0.0
 40
0.0
 40
0.2296876225
 40
0.4882493672
 40
0.7532523129
 40
1.0
 40
1.0
 40
1.0
 40
1.0
 10
4.1777060418
 20
23.3553037206
 30
0.0
 10
4.2028418135
 20
23.3427358347
 30
0.0
 10
4.2508728614
 20
23.3051583784
 30
0.0
 10
4.3063338536
 20
23.2305552226
 30
0.0
 10
4.3440656756
 20
23.143320229
 30
0.0
 10
4.3544827371
 20
23.0805989952
 30
0.0
 10
4.3544827371
 20
23.050409022
 30
0.0
 11
4.1777060418
 21
23.3553037206
 31
0.0
 11
4.2453586143
 21
23.3049950894
 31
0.0
 11
4.3027125123
 21
23.2293793431
 31
0.0
 11
4.3410314685
 21
23.1399744935
 31
0.0
 11
4.3544827371
 21
23.050409022
 31
0.0
  0
SPLINE
  5
37D
100
AcDbEntity
  8
RACCORDO
100
AcDbSpline
 62
253
  6
CONTINUOUS
 70
0
 71
3
 72
11
 73
7
 74
5
 42
0.0000001
 43
0.0000001
 44
0.0000000001
 12
0.3283037267
 22
-0.1641518634
 32
0.0
 13
0.0
 23
-0.3670547251
 33
0.0
 40
0.0
 40
0.0
 40
0.0
 40
0.0
 40
0.2296755894
 40
0.4882147766
 40
0.7532068921
 40
1.0
 40
1.0
 40
1.0
 40
1.0
 10
2.0563856983
 20
22.2946435488
 30
0.0
 10
2.0815201489
 20
22.2820763235
 30
0.0
 10
2.129548223
 20
22.2445022875
 30
0.0
 10
2.1850074681
 20
22.1699048231
 30
0.0
 10
2.2227421174
 20
22.0826697536
 30
0.0
 10
2.2331623936
 20
22.0199443757
 30
0.0
 10
2.2331623936
 20
21.9897488502
 30
0.0
 11
2.0563856983
 21
22.2946435488
 31
0.0
 11
2.1240352108
 21
22.2443382279
 31
0.0
 11
2.1813856983
 21
22.1687303068
 31
0.0
 11
2.2197060689
 21
22.0793304061
 31
0.0
 11
2.2331623936
 21
21.9897488502
 31
0.0
  0
SPLINE
  5
37E
100
AcDbEntity
  8
RACCORDO
100
AcDbSpline
 62
253
  6
CONTINUOUS
 70
0
 71
3
 72
9
 73
5
 74
3
 42
0.0000001
 43
0.0000001
 44
0.0000000001
 12
0.0562304403
 22
-0.0145838584
 32
0.0
 13
0.0519580703
 23
-0.0259790352
 33
0.0
 40
0.0
 40
0.0
 40
0.0
 40
0.0
 40
0.219436663
 40
1.0
 40
1.0
 40
1.0
 40
1.0
 10
14.4651598295
 20
-24.7784272199
 30
0.0
 10
14.4692728362
 20
-24.7794939643
 30
0.0
 10
14.4878246407
 20
-24.7850920276
 30
0.0
 10
14.5056238618
 20
-24.7929582571
 30
0.0
 10
14.5191427167
 20
-24.7997176846
 30
0.0
 11
14.4651598295
 21
-24.7784272199
 31
0.0
 11
14.4773784897
 21
-24.7820600227
 31
0.0
 11
14.5191427167
 21
-24.7997176846
 31
0.0
  0
SPLINE
  5
37F
100
AcDbEntity
  8
RACCORDO
100
AcDbSpline
 62
253
  6
CONTINUOUS
 70
0
 71
3
 72
10
 73
6
 74
4
 42
0.0000001
 43
0.0000001
 44
0.0000000001
 12
0.0696285401
 22
0.0842572943
 32
0.0
 13
0.0977647186
 23
-0.0488823593
 33
0.0
 40
0.0
 40
0.0
 40
0.0
 40
0.0
 40
0.348660957
 40
0.6375246301
 40
1.0
 40
1.0
 40
1.0
 40
1.0
 10
13.8846836028
 20
-25.4237069453
 30
0.0
 10
13.892775854
 20
-25.4139145356
 30
0.0
 10
13.9215442974
 20
-25.413910088
 30
0.0
 10
13.9548217023
 20
-25.424290102
 30
0.0
 10
13.9770001966
 20
-25.4339765104
 30
0.0
 10
13.9888126308
 20
-25.4398827275
 30
0.0
 11
13.8846836028
 21
-25.4237069453
 31
0.0
 11
13.9219834972
 21
-25.4158902828
 31
0.0
 11
13.9524711509
 21
-25.4241014141
 31
0.0
 11
13.9888126308
 21
-25.4398827275
 31
0.0
  0
SPLINE
  5
380
100
AcDbEntity
  8
RACCORDO
100
AcDbSpline
 62
253
  6
CONTINUOUS
 70
0
 71
3
 72
11
 73
7
 74
5
 42
0.0000001
 43
0.0000001
 44
0.0000000001
 12
0.0
 22
-0.1203158962
 32
0.0
 13
0.107613809
 23
-0.0538069045
 33
0.0
 40
0.0
 40
0.0
 40
0.0
 40
0.0
 40
0.2064758915
 40
0.434520967
 40
0.6981193998
 40
1.0
 40
1.0
 40
1.0
 40
1.0
 10
13.8272009784
 20
-25.5831885537
 30
0.0
 10
13.8272009784
 20
-25.591469331
 30
0.0
 10
13.8308720037
 20
-25.6090247246
 30
0.0
 10
13.8461413313
 20
-25.6330197947
 30
0.0
 10
13.8700043992
 20
-25.6544890274
 30
0.0
 10
13.8895954427
 20
-25.6661624811
 30
0.0
 10
13.9004242831
 20
-25.6715769013
 30
0.0
 11
13.8272009784
 21
-25.5831885537
 31
0.0
 11
13.832006816
 21
-25.6075615999
 31
0.0
 11
13.8462310953
 21
-25.6310239827
 31
0.0
 11
13.8694150545
 21
-25.6526653884
 31
0.0
 11
13.9004242831
 21
-25.6715769013
 31
0.0
  0
SPLINE
  5
381
100
AcDbEntity
  8
RACCORDO
100
AcDbSpline
 62
253
  6
CONTINUOUS
 70
0
 71
3
 72
11
 73
7
 74
5
 42
0.0000001
 43
0.0000001
 44
0.0000000001
 12
0.0002718853
 22
-0.1201769408
 32
0.0
 13
0.1074897987
 23
-0.0537448994
 33
0.0
 40
0.0
 40
0.0
 40
0.0
 40
0.0
 40
0.2064813555
 40
0.434578121
 40
0.6981915953
 40
1.0
 40
1.0
 40
1.0
 40
1.0
 10
13.8272011166
 20
-25.9346432183
 30
0.0
 10
13.8272198297
 20
-25.9429146509
 30
0.0
 10
13.8309201575
 20
-25.9604431226
 30
0.0
 10
13.846199383
 20
-25.9843940232
 30
0.0
 10
13.8700435764
 20
-26.0058266066
 30
0.0
 10
13.8896105083
 20
-26.017483986
 30
0.0
 10
13.9004242831
 20
-26.0228908734
 30
0.0
 11
13.8272011166
 21
-25.9346432183
 31
0.0
 11
13.8320477051
 21
-25.9589796745
 31
0.0
 11
13.8462860453
 21
-25.9824038009
 31
0.0
 11
13.8694559639
 21
-26.0040093312
 31
0.0
 11
13.9004242831
 21
-26.0228908734
 31
0.0
  0
SPLINE
  5
382
100
AcDbEntity
  8
RACCORDO
100
AcDbSpline
 62
253
  6
CONTINUOUS
 70
0
 71
3
 72
11
 73
7
 74
5
 42
0.0000001
 43
0.0000001
 44
0.0000000001
 12
-0.1408846323
 22
0.0702997747
 32
0.0
 13
0.0
 23
0.1574501125
 33
0.0
 40
0.0
 40
0.0
 40
0.0
 40
0.0
 40
0.2170350907
 40
0.4503173148
 40
0.7107563689
 40
1.0
 40
1.0
 40
1.0
 40
1.0
 10
13.9654258357
 20
-26.1581162019
 30
0.0
 10
13.9552335328
 20
-26.1530303626
 30
0.0
 10
13.9359514508
 20
-26.1383563272
 30
0.0
 10
13.915230173
 20
-26.1066513224
 30
0.0
 10
13.9029260877
 20
-26.0670207621
 30
0.0
 10
13.9004242831
 20
-26.0380713542
 30
0.0
 10
13.9004242831
 20
-26.0228908734
 30
0.0
 11
13.9654258357
 21
-26.1581162019
 31
0.0
 11
13.9380765292
 21
-26.1376282872
 31
0.0
 11
13.9175032289
 21
-26.107200419
 31
0.0
 11
13.9047562565
 21
-26.0682258155
 31
0.0
 11
13.9004242831
 21
-26.0228908734
 31
0.0
  0
SPLINE
  5
383
100
AcDbEntity
  8
RACCORDO
100
AcDbSpline
 62
253
  6
CONTINUOUS
 70
0
 71
3
 72
11
 73
7
 74
5
 42
0.0000001
 43
0.0000001
 44
0.0000000001
 12
-0.1405432827
 22
0.070520634
 32
0.0
 13
0.0
 23
0.1572436776
 33
0.0
 40
0.0
 40
0.0
 40
0.0
 40
0.0
 40
0.2170330954
 40
0.4503508394
 40
0.7108004038
 40
1.0
 40
1.0
 40
1.0
 40
1.0
 10
15.3087416869
 20
-26.8297740566
 30
0.0
 10
15.2985741724
 20
-26.8246722861
 30
0.0
 10
15.2793467522
 20
-26.8099799165
 30
0.0
 10
15.2586888941
 20
-26.7782934696
 30
0.0
 10
15.2464221397
 20
-26.7387098579
 30
0.0
 10
15.2439271674
 20
-26.7098005849
 30
0.0
 10
15.2439271674
 20
-26.6946423156
 30
0.0
 11
15.3087416869
 21
-26.8297740566
 31
0.0
 11
15.2814677684
 21
-26.8092608633
 31
0.0
 11
15.2609542893
 21
-26.7788439692
 31
0.0
 11
15.2482458854
 21
-26.739911586
 31
0.0
 11
15.2439271674
 21
-26.6946423156
 31
0.0
  0
SPLINE
  5
384
100
AcDbEntity
  8
RACCORDO
100
AcDbSpline
 62
253
  6
CONTINUOUS
 70
0
 71
3
 72
9
 73
5
 74
3
 42
0.0000001
 43
0.0000001
 44
0.0000000001
 12
-0.0618068848
 22
-0.193173312
 32
0.0
 13
0.0
 23
-0.2028201654
 33
0.0
 40
0.0
 40
0.0
 40
0.0
 40
0.0
 40
0.2612978907
 40
1.0
 40
1.0
 40
1.0
 40
1.0
 10
3.6805316097
 20
21.7951932754
 30
0.0
 10
3.6751482735
 20
21.7783680158
 30
0.0
 10
3.6567685428
 20
21.7133195045
 30
0.0
 10
3.6473759559
 20
21.6454828873
 30
0.0
 10
3.6473759559
 20
21.5955416593
 30
0.0
 11
3.6805316097
 21
21.7951932754
 31
0.0
 11
3.6661567153
 21
21.7441835758
 31
0.0
 11
3.6473759559
 21
21.5955416593
 31
0.0
  0
SPLINE
  5
385
100
AcDbEntity
  8
RACCORDO
100
AcDbSpline
 62
253
  6
CONTINUOUS
 70
0
 71
3
 72
11
 73
7
 74
5
 42
0.0000001
 43
0.0000001
 44
0.0000000001
 12
0.107613809
 22
0.0538069045
 32
0.0
 13
0.0
 23
0.1203158962
 33
0.0
 40
0.0
 40
0.0
 40
0.0
 40
0.0
 40
0.3018806002
 40
0.565479033
 40
0.7935241085
 40
1.0
 40
1.0
 40
1.0
 40
1.0
 10
3.6473759559
 20
21.5955416593
 30
0.0
 10
3.6582047964
 20
21.6009560795
 30
0.0
 10
3.6777958399
 20
21.6126295333
 30
0.0
 10
3.7016589078
 20
21.6340987659
 30
0.0
 10
3.7169282354
 20
21.6580938361
 30
0.0
 10
3.7205992606
 20
21.6756492297
 30
0.0
 10
3.7205992606
 20
21.683930007
 30
0.0
 11
3.6473759559
 21
21.5955416593
 31
0.0
 11
3.6783851845
 21
21.6144531722
 31
0.0
 11
3.7015691438
 21
21.6360945779
 31
0.0
 11
3.7157934231
 21
21.6595569608
 31
0.0
 11
3.7205992606
 21
21.683930007
 31
0.0
  0
SPLINE
  5
386
100
AcDbEntity
  8
RACCORDO
100
AcDbSpline
 62
253
  6
CONTINUOUS
 70
0
 71
3
 72
10
 73
6
 74
4
 42
0.0000001
 43
0.0000001
 44
0.0000000001
 12
0.0397280143
 22
-0.0644118378
 32
0.0
 13
-0.0482235685
 23
-0.0583239866
 33
0.0
 40
0.0
 40
0.0
 40
0.0
 40
0.0
 40
0.3492690482
 40
0.6298549571
 40
1.0
 40
1.0
 40
1.0
 40
1.0
 10
4.3544827371
 20
22.6990950499
 30
0.0
 10
4.3591079924
 20
22.6915960295
 30
0.0
 10
4.3667868018
 20
22.6774531181
 30
0.0
 10
4.3757978814
 20
22.6545251859
 30
0.0
 10
4.3761710811
 20
22.6351947494
 30
0.0
 10
4.3702211761
 20
22.6279986379
 30
0.0
 11
4.3544827371
 21
22.6990950499
 31
0.0
 11
4.3670081891
 21
22.6758191462
 31
0.0
 11
4.3739700404
 21
22.6557585825
 31
0.0
 11
4.3702211761
 21
22.6279986379
 31
0.0
  0
SPLINE
  5
387
100
AcDbEntity
  8
RACCORDO
100
AcDbSpline
 62
253
  6
CONTINUOUS
 70
0
 71
3
 72
10
 73
6
 74
4
 42
0.0000001
 43
0.0000001
 44
0.0000000001
 12
0.0397280143
 22
-0.0644118378
 32
0.0
 13
-0.0482235685
 23
-0.0583239866
 33
0.0
 40
0.0
 40
0.0
 40
0.0
 40
0.0
 40
0.3492690482
 40
0.6298549571
 40
1.0
 40
1.0
 40
1.0
 40
1.0
 10
3.8241526512
 20
22.058930007
 30
0.0
 10
3.8287779065
 20
22.0514309865
 30
0.0
 10
3.8364567159
 20
22.0372880751
 30
0.0
 10
3.8454677955
 20
22.014360143
 30
0.0
 10
3.8458409952
 20
21.9950297064
 30
0.0
 10
3.8398910902
 20
21.9878335949
 30
0.0
 11
3.8241526512
 21
22.058930007
 31
0.0
 11
3.8366781032
 21
22.0356541032
 31
0.0
 11
3.8436399545
 21
22.0155935395
 31
0.0
 11
3.8398910902
 21
21.9878335949
 31
0.0
  0
SPLINE
  5
388
100
AcDbEntity
  8
RACCORDO
100
AcDbSpline
 62
253
  6
CONTINUOUS
 70
0
 71
3
 72
11
 73
7
 74
5
 42
0.0000001
 43
0.0000001
 44
0.0000000001
 12
-0.0000428024
 22
-0.120294451
 32
0.0
 13
-0.1075946347
 23
-0.0537973174
 33
0.0
 40
0.0
 40
0.0
 40
0.0
 40
0.0
 40
0.2065139657
 40
0.4345738457
 40
0.6981297526
 40
1.0
 40
1.0
 40
1.0
 40
1.0
 10
17.7920242228
 20
-25.5456153525
 30
0.0
 10
17.7920212763
 20
-25.5538961805
 30
0.0
 10
17.7883408127
 20
-25.5714482394
 30
0.0
 10
17.7730734632
 20
-25.5954375639
 30
0.0
 10
17.7492148736
 20
-25.616901717
 30
0.0
 10
17.7296274412
 20
-25.6285688739
 30
0.0
 10
17.7188009016
 20
-25.6339821438
 30
0.0
 11
17.7920242228
 21
-25.5456153525
 31
0.0
 11
17.7872082646
 21
-25.5699865577
 31
0.0
 11
17.772982282
 21
-25.5934442732
 31
0.0
 11
17.7498050241
 21
-25.6150770797
 31
0.0
 11
17.7188009016
 21
-25.6339821438
 31
0.0
  0
SPLINE
  5
389
100
AcDbEntity
  8
RACCORDO
100
AcDbSpline
 62
253
  6
CONTINUOUS
 70
0
 71
3
 72
9
 73
5
 74
3
 42
0.0000001
 43
0.0000001
 44
0.0000000001
 12
-0.0564143035
 22
-0.0270011266
 32
0.0
 13
-0.0621381577
 23
0.0071051982
 33
0.0
 40
0.0
 40
0.0
 40
0.0
 40
0.0
 40
0.2713526231
 40
1.0
 40
1.0
 40
1.0
 40
1.0
 10
3.7863291692
 20
21.3379913943
 30
0.0
 10
3.7812264461
 20
21.3355491188
 30
0.0
 10
3.761995216
 20
21.3275896567
 30
0.0
 10
3.7404992849
 20
21.3241511158
 30
0.0
 10
3.7254070163
 20
21.3258768438
 30
0.0
 11
3.7863291692
 21
21.3379913943
 31
0.0
 11
3.7706228016
 21
21.3315623626
 31
0.0
 11
3.7254070163
 21
21.3258768438
 31
0.0
  0
SPLINE
  5
38A
100
AcDbEntity
  8
RACCORDO
100
AcDbSpline
 62
253
  6
CONTINUOUS
 70
0
 71
3
 72
8
 73
4
 74
2
 42
0.0000001
 43
0.0000001
 44
0.0000000001
 12
-0.0269734927
 22
0.0030842886
 32
0.0
 13
-0.0242873509
 23
0.012132878
 33
0.0
 40
0.0
 40
0.0
 40
0.0
 40
0.0
 40
1.0
 40
1.0
 40
1.0
 40
1.0
 10
3.7254070163
 20
21.3258768438
 30
0.0
 10
3.7164158521
 20
21.32690494
 30
0.0
 10
3.7074524689
 20
21.3294786215
 30
0.0
 10
3.6993566852
 20
21.3335229142
 30
0.0
 11
3.7254070163
 21
21.3258768438
 31
0.0
 11
3.6993566852
 21
21.3335229142
 31
0.0
  0
SPLINE
  5
38B
100
AcDbEntity
  8
RACCORDO
100
AcDbSpline
 62
253
  6
CONTINUOUS
 70
0
 71
3
 72
11
 73
7
 74
5
 42
0.0000001
 43
0.0000001
 44
0.0000000001
 12
0.0
 22
-0.1203158962
 32
0.0
 13
-0.107613809
 23
-0.0538069045
 33
0.0
 40
0.0
 40
0.0
 40
0.0
 40
0.0
 40
0.2064758915
 40
0.434520967
 40
0.6981193998
 40
1.0
 40
1.0
 40
1.0
 40
1.0
 10
17.7920242063
 20
-25.194279824
 30
0.0
 10
17.7920242063
 20
-25.2025606013
 30
0.0
 10
17.788353181
 20
-25.2201159949
 30
0.0
 10
17.7730838534
 20
-25.2441110651
 30
0.0
 10
17.7492207855
 20
-25.2655802977
 30
0.0
 10
17.729629742
 20
-25.2772537515
 30
0.0
 10
17.7188009016
 20
-25.2826681717
 30
0.0
 11
17.7920242063
 21
-25.194279824
 31
0.0
 11
17.7872183687
 21
-25.2186528702
 31
0.0
 11
17.7729940894
 21
-25.2421152531
 31
0.0
 11
17.7498101302
 21
-25.2637566588
 31
0.0
 11
17.7188009016
 21
-25.2826681717
 31
0.0
  0
SPLINE
  5
38C
100
AcDbEntity
  8
RACCORDO
100
AcDbSpline
 62
253
  6
CONTINUOUS
 70
0
 71
3
 72
15
 73
11
 74
9
 42
0.0000001
 43
0.0000001
 44
0.0000000001
 12
0.3860288314
 22
0.1845698783
 32
0.0
 13
-0.3827055692
 23
0.1913654774
 33
0.0
 40
0.0
 40
0.0
 40
0.0
 40
0.0
 40
0.1514155391
 40
0.2826460431
 40
0.3956500446
 40
0.4978214288
 40
0.6004154458
 40
0.7145216826
 40
0.8471605453
 40
1.0
 40
1.0
 40
1.0
 40
1.0
 10
3.7863291692
 20
21.0265957812
 30
0.0
 10
3.8058127571
 20
21.0359113637
 30
0.0
 10
3.8410293614
 20
21.0560066123
 30
0.0
 10
3.8839399677
 20
21.0933842834
 30
0.0
 10
3.9115309281
 20
21.1353989838
 30
0.0
 10
3.9212340552
 20
21.1809433559
 30
0.0
 10
3.9114772854
 20
21.2266206943
 30
0.0
 10
3.8839112804
 20
21.269114167
 30
0.0
 10
3.8410521325
 20
21.3073716809
 30
0.0
 10
3.8058266727
 20
21.3282419959
 30
0.0
 10
3.7863291692
 20
21.3379913943
 30
0.0
 11
3.7863291692
 21
21.0265957812
 31
0.0
 11
3.8422351383
 21
21.059337728
 31
0.0
 11
3.883885522
 21
21.0969970131
 31
0.0
 11
3.9094789879
 21
21.1380207073
 31
0.0
 11
3.9181045785
 21
21.1808787832
 31
0.0
 11
3.9094829688
 21
21.2239221049
 31
0.0
 11
3.8838776866
 21
21.2654933667
 31
0.0
 11
3.8422246881
 21
21.3040425847
 31
0.0
 11
3.7863291692
 21
21.3379913943
 31
0.0
  0
SPLINE
  5
38D
100
AcDbEntity
  8
RACCORDO
100
AcDbSpline
 62
253
  6
CONTINUOUS
 70
0
 71
3
 72
11
 73
7
 74
5
 42
0.0000001
 43
0.0000001
 44
0.0000000001
 12
-0.262790765
 22
0.1313953819
 32
0.0
 13
0.0041573225
 23
0.2937795929
 33
0.0
 40
0.0
 40
0.0
 40
0.0
 40
0.0
 40
0.2292208772
 40
0.4872317535
 40
0.7522441527
 40
1.0
 40
1.0
 40
1.0
 40
1.0
 10
3.7863291692
 20
21.0265957812
 30
0.0
 10
3.766250126
 20
21.0366353027
 30
0.0
 10
3.7279442576
 20
21.066782906
 30
0.0
 10
3.684078084
 20
21.1267944163
 30
0.0
 10
3.6546685748
 20
21.1970306785
 30
0.0
 10
3.6470326223
 20
21.2474573609
 30
0.0
 10
3.6473759559
 20
21.2717192316
 30
0.0
 11
3.7863291692
 21
21.0265957812
 31
0.0
 11
3.7323974361
 21
21.066931967
 31
0.0
 11
3.6870520723
 21
21.1276800979
 31
0.0
 11
3.6571964985
 21
21.1995918224
 31
0.0
 11
3.6473759559
 21
21.2717192316
 31
0.0
  0
SPLINE
  5
38E
100
AcDbEntity
  8
RACCORDO
100
AcDbSpline
 62
253
  6
CONTINUOUS
 70
0
 71
3
 72
10
 73
6
 74
4
 42
0.0000001
 43
0.0000001
 44
0.0000000001
 12
0.1000264795
 22
0.0461621917
 32
0.0
 13
0.0114502833
 23
0.1095679495
 33
0.0
 40
0.0
 40
0.0
 40
0.0
 40
0.0
 40
0.3046286573
 40
0.5704755089
 40
1.0
 40
1.0
 40
1.0
 40
1.0
 10
3.6473759559
 20
21.2717192316
 30
0.0
 10
3.6575329333
 20
21.2764066737
 30
0.0
 10
3.6760269386
 20
21.286585465
 30
0.0
 10
3.7046357307
 20
21.309499977
 30
0.0
 10
3.7186333397
 20
21.3335630189
 30
0.0
 10
3.7202727321
 20
21.3492503915
 30
0.0
 11
3.6473759559
 21
21.2717192316
 31
0.0
 11
3.6766644558
 21
21.2881024701
 31
0.0
 11
3.6990913316
 21
21.3069375132
 31
0.0
 11
3.7202727321
 21
21.3492503915
 31
0.0
  0
SPLINE
  5
38F
100
AcDbEntity
  8
RACCORDO
100
AcDbSpline
 62
253
  6
CONTINUOUS
 70
0
 71
3
 72
11
 73
7
 74
5
 42
0.0000001
 43
0.0000001
 44
0.0000000001
 12
-0.2627907646
 22
0.1313953824
 32
0.0
 13
0.0041573218
 23
0.2937795929
 33
0.0
 40
0.0
 40
0.0
 40
0.0
 40
0.0
 40
0.2292208809
 40
0.4872317594
 40
0.752244156
 40
1.0
 40
1.0
 40
1.0
 40
1.0
 10
3.079222388
 20
20.6881589202
 30
0.0
 10
3.0591433445
 20
20.698198442
 30
0.0
 10
3.0208374758
 20
20.7283460458
 30
0.0
 10
2.9769713023
 20
20.7883575565
 30
0.0
 10
2.9475617935
 20
20.8585938185
 30
0.0
 10
2.9399258412
 20
20.9090205003
 30
0.0
 10
2.9402691748
 20
20.9332823706
 30
0.0
 11
3.079222388
 21
20.6881589202
 31
0.0
 11
3.0252906542
 21
20.728495107
 31
0.0
 11
2.9799452904
 21
20.7892432385
 31
0.0
 11
2.9500897171
 21
20.8611549624
 31
0.0
 11
2.9402691748
 21
20.9332823706
 31
0.0
  0
SPLINE
  5
390
100
AcDbEntity
  8
RACCORDO
100
AcDbSpline
 62
253
  6
CONTINUOUS
 70
0
 71
3
 72
11
 73
7
 74
5
 42
0.0000001
 43
0.0000001
 44
0.0000000001
 12
0.5843324218
 22
-0.2920747136
 32
0.0
 13
0.5891333018
 23
0.2822657793
 33
0.0
 40
0.0
 40
0.0
 40
0.0
 40
0.0
 40
0.2359339744
 40
0.5010327342
 40
0.7655841254
 40
1.0
 40
1.0
 40
1.0
 40
1.0
 10
2.4428262849
 20
20.6949613586
 30
0.0
 10
2.4887809085
 20
20.6719912426
 30
0.0
 10
2.5941732724
 20
20.6388766887
 30
0.0
 10
2.7608621557
 20
20.6217957373
 30
0.0
 10
2.9275397257
 20
20.6352518341
 30
0.0
 10
3.0331883219
 20
20.6661030604
 30
0.0
 10
3.079222388
 20
20.6881589202
 30
0.0
 11
2.4428262849
 21
20.6949613586
 31
0.0
 11
2.5888580897
 21
20.6456684088
 31
0.0
 11
2.761036768
 21
20.6270806532
 31
0.0
 11
2.9332144194
 21
20.6419849144
 31
0.0
 11
3.079222388
 21
20.6881589202
 31
0.0
  0
SPLINE
  5
391
100
AcDbEntity
  8
RACCORDO
100
AcDbSpline
 62
253
  6
CONTINUOUS
 70
0
 71
3
 72
11
 73
7
 74
5
 42
0.0000001
 43
0.0000001
 44
0.0000000001
 12
0.2673132834
 22
0.1279420285
 32
0.0
 13
0.000000009
 23
0.2963537652
 33
0.0
 40
0.0
 40
0.0
 40
0.0
 40
0.0
 40
0.2286190611
 40
0.4870721424
 40
0.7526205645
 40
1.0
 40
1.0
 40
1.0
 40
1.0
 10
2.4428262849
 20
20.6949613586
 30
0.0
 10
2.4631972556
 20
20.704711354
 30
0.0
 10
2.5022630391
 20
20.7345673754
 30
0.0
 10
2.5474004091
 20
20.7944708233
 30
0.0
 10
2.5781906955
 20
20.864891125
 30
0.0
 10
2.5867157834
 20
20.9156475332
 30
0.0
 10
2.5867157842
 20
20.940084809
 30
0.0
 11
2.4428262849
 21
20.6949613586
 31
0.0
 11
2.4976991681
 21
20.7347019725
 31
0.0
 11
2.5444179722
 21
20.7953973124
 31
0.0
 11
2.5757133411
 21
20.8676032924
 31
0.0
 11
2.5867157842
 21
20.940084809
 31
0.0
  0
SPLINE
  5
392
100
AcDbEntity
  8
RACCORDO
100
AcDbSpline
 62
253
  6
CONTINUOUS
 70
0
 71
3
 72
11
 73
7
 74
5
 42
0.0000001
 43
0.0000001
 44
0.0000000001
 12
0.3243712491
 22
-0.1621680348
 32
0.0
 13
0.3292300846
 23
0.1520615998
 33
0.0
 40
0.0
 40
0.0
 40
0.0
 40
0.0
 40
0.2363471691
 40
0.5018768777
 40
0.7663880892
 40
1.0
 40
1.0
 40
1.0
 40
1.0
 10
2.5867157842
 20
20.940084809
 30
0.0
 10
2.6122705263
 20
20.9273088236
 30
0.0
 10
2.6707958154
 20
20.908733035
 30
0.0
 10
2.7633431119
 20
20.898607107
 30
0.0
 10
2.855874745
 20
20.905122864
 30
0.0
 10
2.9146318184
 20
20.921441237
 30
0.0
 10
2.9402691748
 20
20.9332823706
 30
0.0
 11
2.5867157842
 21
20.940084809
 31
0.0
 11
2.6678540931
 21
20.9124621614
 31
0.0
 11
2.7635209102
 21
20.9014861544
 31
0.0
 11
2.8591675323
 21
20.9087894738
 31
0.0
 11
2.9402691748
 21
20.9332823706
 31
0.0
  0
SPLINE
  5
393
100
AcDbEntity
  8
RACCORDO
100
AcDbSpline
 62
253
  6
CONTINUOUS
 70
0
 71
3
 72
11
 73
7
 74
5
 42
0.0000001
 43
0.0000001
 44
0.0000000001
 12
0.267313289
 22
0.1279420203
 32
0.0
 13
-0.0000000003
 23
0.2963537667
 33
0.0
 40
0.0
 40
0.0
 40
0.0
 40
0.0
 40
0.2286190318
 40
0.4870720935
 40
0.7526205358
 40
1.0
 40
1.0
 40
1.0
 40
1.0
 10
1.0993234007
 20
21.3667128007
 30
0.0
 10
1.1196943691
 20
21.3764627943
 30
0.0
 10
1.1587601508
 20
21.4063188103
 30
0.0
 10
1.2038975214
 20
21.4662222549
 30
0.0
 10
1.2346878109
 20
21.5366425588
 30
0.0
 10
1.2432128999
 20
21.5873989724
 30
0.0
 10
1.2432128999
 20
21.6118362511
 30
0.0
 11
1.0993234007
 21
21.3667128007
 31
0.0
 11
1.1541962791
 21
21.406453407
 31
0.0
 11
1.2009150824
 21
21.4671487407
 31
0.0
 11
1.2322104558
 21
21.5393547257
 31
0.0
 11
1.2432128999
 21
21.6118362511
 31
0.0
  0
SPLINE
  5
394
100
AcDbEntity
  8
RACCORDO
100
AcDbSpline
 62
253
  6
CONTINUOUS
 70
0
 71
3
 72
8
 73
4
 74
2
 42
0.0000001
 43
0.0000001
 44
0.0000000001
 12
0.0156792675
 22
-0.000791969
 32
0.0
 13
0.0155782856
 23
0.0019451638
 33
0.0
 40
0.0
 40
0.0
 40
0.0
 40
0.0
 40
1.0
 40
1.0
 40
1.0
 40
1.0
 10
1.1478689179
 20
21.6644409108
 30
0.0
 10
1.1530953404
 20
21.6641769212
 30
0.0
 10
1.1583656385
 20
21.6643464018
 30
0.0
 10
1.1635584004
 20
21.6649947898
 30
0.0
 11
1.1478689179
 21
21.6644409108
 31
0.0
 11
1.1635584004
 21
21.6649947898
 31
0.0
  0
SPLINE
  5
395
100
AcDbEntity
  8
RACCORDO
100
AcDbSpline
 62
253
  6
CONTINUOUS
 70
0
 71
3
 72
8
 73
4
 74
2
 42
0.0000001
 43
0.0000001
 44
0.0000000001
 12
0.0253921028
 22
0.0031705542
 32
0.0
 13
0.0230832389
 23
0.0110442465
 33
0.0
 40
0.0
 40
0.0
 40
0.0
 40
0.0
 40
1.0
 40
1.0
 40
1.0
 40
1.0
 10
1.1635584004
 20
21.6649947898
 30
0.0
 10
1.1720224347
 20
21.6660516412
 30
0.0
 10
1.1804415206
 20
21.6684377102
 30
0.0
 10
1.1881359336
 20
21.6721191257
 30
0.0
 11
1.1635584004
 21
21.6649947898
 31
0.0
 11
1.1881359336
 21
21.6721191257
 31
0.0
  0
SPLINE
  5
396
100
AcDbEntity
  8
RACCORDO
100
AcDbSpline
 62
253
  6
CONTINUOUS
 70
0
 71
3
 72
9
 73
5
 74
3
 42
0.0000001
 43
0.0000001
 44
0.0000000001
 12
0.0784028949
 22
-0.1179873957
 32
0.0
 13
0.1266981488
 23
-0.0633689085
 33
0.0
 40
0.0
 40
0.0
 40
0.0
 40
0.0
 40
0.2185316941
 40
1.0
 40
1.0
 40
1.0
 40
1.0
 10
0.9898387944
 20
21.455121567
 30
0.0
 10
0.9955499669
 20
21.4465269052
 30
0.0
 10
1.0254398271
 20
21.4096738875
 30
0.0
 10
1.0663198714
 20
21.3832197319
 30
0.0
 10
1.0993234007
 20
21.3667128007
 30
0.0
 11
0.9898387944
 21
21.455121567
 31
0.0
 11
1.0091385788
 21
21.4309164095
 31
0.0
 11
1.0993234007
 21
21.3667128007
 31
0.0
  0
SPLINE
  5
397
100
AcDbEntity
  8
RACCORDO
100
AcDbSpline
 62
253
  6
CONTINUOUS
 70
0
 71
3
 72
9
 73
5
 74
3
 42
0.0000001
 43
0.0000001
 44
0.0000000001
 12
0.0812967028
 22
0.0437701768
 32
0.0
 13
0.038222943
 23
0.0840475395
 33
0.0
 40
0.0
 40
0.0
 40
0.0
 40
0.0
 40
0.2871604962
 40
1.0
 40
1.0
 40
1.0
 40
1.0
 10
17.0116941204
 20
-24.5623991345
 30
0.0
 10
17.0194758542
 20
-24.558209446
 30
0.0
 10
17.0456311278
 20
-24.5423045111
 30
0.0
 10
17.0690328311
 20
-24.5193800053
 30
0.0
 10
17.0781151057
 20
-24.4994092032
 30
0.0
 11
17.0116941204
 21
-24.5623991345
 31
0.0
 11
17.0342703143
 21
-24.5484960661
 31
0.0
 11
17.0781151057
 21
-24.4994092032
 31
0.0
  0
SPLINE
  5
398
100
AcDbEntity
  8
RACCORDO
100
AcDbSpline
 62
253
  6
CONTINUOUS
 70
0
 71
3
 72
9
 73
5
 74
3
 42
0.0000001
 43
0.0000001
 44
0.0000000001
 12
-0.0004368348
 22
0.0304323504
 32
0.0
 13
0.0045336488
 23
0.0300959267
 33
0.0
 40
0.0
 40
0.0
 40
0.0
 40
0.0
 40
0.257568287
 40
1.0
 40
1.0
 40
1.0
 40
1.0
 10
17.0116941204
 20
-24.5623991345
 30
0.0
 10
17.0116566154
 20
-24.5597863317
 30
0.0
 10
17.011702865
 20
-24.5496411572
 30
0.0
 10
17.012529031
 20
-24.5394934168
 30
0.0
 10
17.0136510059
 20
-24.53204536
 30
0.0
 11
17.0116941204
 21
-24.5623991345
 31
0.0
 11
17.0117321811
 21
-24.5545600111
 31
0.0
 11
17.0136510059
 21
-24.53204536
 31
0.0
  0
SPLINE
  5
399
100
AcDbEntity
  8
RACCORDO
100
AcDbSpline
 62
253
  6
CONTINUOUS
 70
0
 71
3
 72
9
 73
5
 74
3
 42
0.0000001
 43
0.0000001
 44
0.0000000001
 12
-0.0009125278
 22
0.0635717876
 32
0.0
 13
0.0243936007
 23
0.0587124955
 33
0.0
 40
0.0
 40
0.0
 40
0.0
 40
0.0
 40
0.2692555591
 40
1.0
 40
1.0
 40
1.0
 40
1.0
 10
16.3045873392
 20
-24.9310690548
 30
0.0
 10
16.3045054381
 20
-24.925363369
 30
0.0
 10
16.3050703465
 20
-24.9041969356
 30
0.0
 10
16.3092874723
 20
-24.8829223064
 30
0.0
 10
16.3152293017
 20
-24.8686210299
 30
0.0
 11
16.3045873392
 21
-24.9310690548
 31
0.0
 11
16.305074428
 21
-24.9139571653
 31
0.0
 11
16.3152293017
 21
-24.8686210299
 31
0.0
  0
SPLINE
  5
39A
100
AcDbEntity
  8
RACCORDO
100
AcDbSpline
 62
253
  6
CONTINUOUS
 70
0
 71
3
 72
9
 73
5
 74
3
 42
0.0000001
 43
0.0000001
 44
0.0000000001
 12
0.1992318979
 22
-0.0123680175
 32
0.0
 13
0.1828185238
 23
0.0801480152
 33
0.0
 40
0.0
 40
0.0
 40
0.0
 40
0.0
 40
0.518907027
 40
1.0
 40
1.0
 40
1.0
 40
1.0
 10
16.0890729907
 20
-24.9716680311
 30
0.0
 10
16.1235339346
 20
-24.9738073148
 30
0.0
 10
16.1905153386
 20
-24.970777257
 30
0.0
 10
16.2556141425
 20
-24.9534713437
 30
0.0
 10
16.2849317115
 20
-24.9406184614
 30
0.0
 11
16.0890729907
 21
-24.9716680311
 31
0.0
 11
16.1925412597
 21
-24.9668186971
 31
0.0
 11
16.2849317115
 21
-24.9406184614
 31
0.0
  0
SPLINE
  5
39B
100
AcDbEntity
  8
RACCORDO
100
AcDbSpline
 62
253
  6
CONTINUOUS
 70
0
 71
3
 72
9
 73
5
 74
3
 42
0.0000001
 43
0.0000001
 44
0.0000000001
 12
-0.1688342853
 22
0.1612772804
 32
0.0
 13
0.0033037564
 23
0.2334619075
 33
0.0
 40
0.0
 40
0.0
 40
0.0
 40
0.0
 40
0.5059024405
 40
1.0
 40
1.0
 40
1.0
 40
1.0
 10
16.3952930798
 20
14.0407288298
 30
0.0
 10
16.3668218542
 20
14.0679256864
 30
0.0
 10
16.3227853673
 20
14.1346220002
 30
0.0
 10
16.3040432132
 20
14.2126723021
 30
0.0
 10
16.3045873392
 20
14.2511232884
 30
0.0
 11
16.3952930798
 21
14.0407288298
 31
0.0
 11
16.3287392845
 21
14.1383152511
 31
0.0
 11
16.3045873392
 21
14.2511232884
 31
0.0
  0
SPLINE
  5
39C
100
AcDbEntity
  8
RACCORDO
100
AcDbSpline
 62
253
  6
CONTINUOUS
 70
0
 71
3
 72
9
 73
5
 74
3
 42
0.0000001
 43
0.0000001
 44
0.0000000001
 12
0.1673638995
 22
-0.0836557432
 32
0.0
 13
0.1844285446
 23
-0.0315447325
 33
0.0
 40
0.0
 40
0.0
 40
0.0
 40
0.0
 40
0.2305413761
 40
1.0
 40
1.0
 40
1.0
 40
1.0
 10
15.8071444494
 20
14.0128022763
 30
0.0
 10
15.8200058839
 20
14.006373573
 30
0.0
 10
15.8771145059
 20
13.9811408282
 30
0.0
 10
15.9381292993
 20
13.9654152438
 30
0.0
 10
15.9854326773
 20
13.957324455
 30
0.0
 11
15.8071444494
 21
14.0128022763
 31
0.0
 11
15.8465452949
 21
13.9952444887
 31
0.0
 11
15.9854326773
 21
13.957324455
 31
0.0
  0
SPLINE
  5
39D
100
AcDbEntity
  8
RACCORDO
100
AcDbSpline
 62
253
  6
CONTINUOUS
 70
0
 71
3
 72
11
 73
7
 74
5
 42
0.0000001
 43
0.0000001
 44
0.0000000001
 12
0.2673132834
 22
0.1279420285
 32
0.0
 13
0.000000009
 23
0.2963537652
 33
0.0
 40
0.0
 40
0.0
 40
0.0
 40
0.0
 40
0.2286190611
 40
0.4870721424
 40
0.7526205645
 40
1.0
 40
1.0
 40
1.0
 40
1.0
 10
15.8071444494
 20
14.0128022763
 30
0.0
 10
15.82751542
 20
14.0225522718
 30
0.0
 10
15.8665812036
 20
14.0524082932
 30
0.0
 10
15.9117185735
 20
14.1123117411
 30
0.0
 10
15.9425088599
 20
14.1827320428
 30
0.0
 10
15.9510339479
 20
14.233488451
 30
0.0
 10
15.9510339486
 20
14.2579257267
 30
0.0
 11
15.8071444494
 21
14.0128022763
 31
0.0
 11
15.8620173325
 21
14.0525428903
 31
0.0
 11
15.9087361366
 21
14.1132382302
 31
0.0
 11
15.9400315056
 21
14.1854442102
 31
0.0
 11
15.9510339486
 21
14.2579257267
 31
0.0
  0
SPLINE
  5
39E
100
AcDbEntity
  8
RACCORDO
100
AcDbSpline
 62
253
  6
CONTINUOUS
 70
0
 71
3
 72
11
 73
7
 74
5
 42
0.0000001
 43
0.0000001
 44
0.0000000001
 12
0.3243712491
 22
-0.1621680348
 32
0.0
 13
0.3292300846
 23
0.1520615998
 33
0.0
 40
0.0
 40
0.0
 40
0.0
 40
0.0
 40
0.2363471691
 40
0.5018768777
 40
0.7663880892
 40
1.0
 40
1.0
 40
1.0
 40
1.0
 10
15.9510339486
 20
14.2579257267
 30
0.0
 10
15.9765886907
 20
14.2451497414
 30
0.0
 10
16.0351139798
 20
14.2265739528
 30
0.0
 10
16.1276612763
 20
14.2164480248
 30
0.0
 10
16.2201929095
 20
14.2229637818
 30
0.0
 10
16.2789499828
 20
14.2392821548
 30
0.0
 10
16.3045873392
 20
14.2511232884
 30
0.0
 11
15.9510339486
 21
14.2579257267
 31
0.0
 11
16.0321722575
 21
14.2303030792
 31
0.0
 11
16.1278390746
 21
14.2193270722
 31
0.0
 11
16.2234856968
 21
14.2266303916
 31
0.0
 11
16.3045873392
 21
14.2511232884
 31
0.0
  0
SPLINE
  5
39F
100
AcDbEntity
  8
RACCORDO
100
AcDbSpline
 62
253
  6
CONTINUOUS
 70
0
 71
3
 72
11
 73
7
 74
5
 42
0.0000001
 43
0.0000001
 44
0.0000000001
 12
0.267313289
 22
0.1279420203
 32
0.0
 13
-0.0000000003
 23
0.2963537667
 33
0.0
 40
0.0
 40
0.0
 40
0.0
 40
0.0
 40
0.2286190318
 40
0.4870720935
 40
0.7526205358
 40
1.0
 40
1.0
 40
1.0
 40
1.0
 10
14.4636415651
 20
14.6845537185
 30
0.0
 10
14.4840125336
 20
14.6943037121
 30
0.0
 10
14.5230783152
 20
14.7241597281
 30
0.0
 10
14.5682156858
 20
14.7840631727
 30
0.0
 10
14.5990059754
 20
14.8544834766
 30
0.0
 10
14.6075310644
 20
14.9052398902
 30
0.0
 10
14.6075310643
 20
14.9296771689
 30
0.0
 11
14.4636415651
 21
14.6845537185
 31
0.0
 11
14.5185144435
 21
14.7242943248
 31
0.0
 11
14.5652332469
 21
14.7849896585
 31
0.0
 11
14.5965286203
 21
14.8571956435
 31
0.0
 11
14.6075310643
 21
14.9296771689
 31
0.0
  0
SPLINE
  5
3A0
100
AcDbEntity
  8
RACCORDO
100
AcDbSpline
 62
253
  6
CONTINUOUS
 70
0
 71
3
 72
15
 73
11
 74
9
 42
0.0000001
 43
0.0000001
 44
0.0000000001
 12
-0.385973033
 22
-0.1846858223
 32
0.0
 13
0.3826864049
 23
-0.1914031106
 33
0.0
 40
0.0
 40
0.0
 40
0.0
 40
0.0
 40
0.1514215024
 40
0.2826422058
 40
0.3956485339
 40
0.4978215362
 40
0.6004151778
 40
0.7145220656
 40
0.8471579877
 40
1.0
 40
1.0
 40
1.0
 40
1.0
 10
14.4636415651
 20
14.9959493317
 30
0.0
 10
14.4441600263
 20
14.9866275301
 30
0.0
 10
14.4089443281
 20
14.9665342746
 30
0.0
 10
14.3660285732
 20
14.9291618906
 30
0.0
 10
14.3384399775
 20
14.8871463338
 30
0.0
 10
14.3287364576
 20
14.8416017628
 30
0.0
 10
14.3384934976
 20
14.795924278
 30
0.0
 10
14.3660582006
 20
14.7534303908
 30
0.0
 10
14.4089193023
 20
14.7151746207
 30
0.0
 10
14.4441447117
 20
14.6943051973
 30
0.0
 10
14.4636415651
 20
14.6845537185
 30
0.0
 11
14.4636415651
 21
14.9959493317
 31
0.0
 11
14.4077355265
 21
14.963202547
 31
0.0
 11
14.3660851814
 21
14.9255495325
 31
0.0
 11
14.340491609
 21
14.8845247723
 31
0.0
 11
14.3318660331
 21
14.8416660193
 31
0.0
 11
14.3404875709
 21
14.7986228792
 31
0.0
 11
14.3660925858
 21
14.7570511669
 31
0.0
 11
14.4077457194
 21
14.7185040074
 31
0.0
 11
14.4636415651
 21
14.6845537185
 31
0.0
  0
SPLINE
  5
3A1
100
AcDbEntity
  8
RACCORDO
100
AcDbSpline
 62
253
  6
CONTINUOUS
 70
0
 71
3
 72
9
 73
5
 74
3
 42
0.0000001
 43
0.0000001
 44
0.0000000001
 12
0.0592552807
 22
-0.0296276402
 32
0.0
 13
0.0657206195
 23
0.0083537735
 33
0.0
 40
0.0
 40
0.0
 40
0.0
 40
0.0
 40
0.2718090839
 40
1.0
 40
1.0
 40
1.0
 40
1.0
 10
14.4636415651
 20
14.9959493317
 30
0.0
 10
14.469010273
 20
14.9932649778
 30
0.0
 10
14.4892497253
 20
14.9845330686
 30
0.0
 10
14.5121173978
 20
14.9808228819
 30
0.0
 10
14.5280697838
 20
14.9828505959
 30
0.0
 11
14.4636415651
 21
14.9959493317
 31
0.0
 11
14.4802069803
 21
14.988889159
 31
0.0
 11
14.5280697838
 21
14.9828505959
 31
0.0
  0
SPLINE
  5
3A2
100
AcDbEntity
  8
RACCORDO
100
AcDbSpline
 62
253
  6
CONTINUOUS
 70
0
 71
3
 72
8
 73
4
 74
2
 42
0.0000001
 43
0.0000001
 44
0.0000000001
 12
0.0251959546
 22
0.0032026676
 32
0.0
 13
0.0229137509
 23
0.0109568804
 33
0.0
 40
0.0
 40
0.0
 40
0.0
 40
0.0
 40
1.0
 40
1.0
 40
1.0
 40
1.0
 10
14.5280697838
 20
14.9828505959
 30
0.0
 10
14.5364684353
 20
14.9839181518
 30
0.0
 10
14.5448137747
 20
14.9863127791
 30
0.0
 10
14.5524516916
 20
14.9899650726
 30
0.0
 11
14.5280697838
 21
14.9828505959
 31
0.0
 11
14.5524516916
 21
14.9899650726
 31
0.0
  0
SPLINE
  5
3A3
100
AcDbEntity
  8
RACCORDO
100
AcDbSpline
 62
253
  6
CONTINUOUS
 70
0
 71
3
 72
10
 73
6
 74
4
 42
0.0000001
 43
0.0000001
 44
0.0000000001
 12
0.2110954049
 22
0.1048616986
 32
0.0
 13
0.2122381852
 23
-0.102529013
 33
0.0
 40
0.0
 40
0.0
 40
0.0
 40
0.0
 40
0.229603066
 40
0.4688204106
 40
1.0
 40
1.0
 40
1.0
 40
1.0
 10
0.761558438
 20
21.4669987119
 30
0.0
 10
0.7777144888
 20
21.4750242344
 30
0.0
 10
0.8131593255
 20
21.4868787928
 30
0.0
 10
0.8922719985
 20
21.4916623649
 30
0.0
 10
0.9522768569
 20
21.4732837358
 30
0.0
 10
0.9898557209
 20
21.4551299628
 30
0.0
 11
0.761558438
 21
21.4669987119
 31
0.0
 11
0.8128269522
 21
21.4843302534
 31
0.0
 11
0.869083134
 21
21.4881383967
 31
0.0
 11
0.9898557209
 21
21.4551299628
 31
0.0
  0
SPLINE
  5
3A4
100
AcDbEntity
  8
RACCORDO
100
AcDbSpline
 62
253
  6
CONTINUOUS
 70
0
 71
3
 72
9
 73
5
 74
3
 42
0.0000001
 43
0.0000001
 44
0.0000000001
 12
-0.0564159012
 22
-0.0270018913
 32
0.0
 13
-0.0621397632
 23
0.0071067483
 33
0.0
 40
0.0
 40
0.0
 40
0.0
 40
0.0
 40
0.2713533432
 40
1.0
 40
1.0
 40
1.0
 40
1.0
 10
17.1506473336
 20
14.6558323121
 30
0.0
 10
17.1455444525
 20
14.653389961
 30
0.0
 10
17.1263126696
 20
14.6454303031
 30
0.0
 10
17.1048160231
 20
14.6419918647
 30
0.0
 10
17.0897233795
 20
14.6437179676
 30
0.0
 11
17.1506473336
 21
14.6558323121
 31
0.0
 11
17.1349404674
 21
14.6494031108
 31
0.0
 11
17.0897233795
 21
14.6437179676
 31
0.0
  0
SPLINE
  5
3A5
100
AcDbEntity
  8
RACCORDO
100
AcDbSpline
 62
253
  6
CONTINUOUS
 70
0
 71
3
 72
8
 73
4
 74
2
 42
0.0000001
 43
0.0000001
 44
0.0000000001
 12
-0.026971651
 22
0.0030846712
 32
0.0
 13
-0.0242857529
 23
0.0121320797
 33
0.0
 40
0.0
 40
0.0
 40
0.0
 40
0.0
 40
1.0
 40
1.0
 40
1.0
 40
1.0
 10
17.0897233795
 20
14.6437179676
 30
0.0
 10
17.0807328292
 20
14.6447461913
 30
0.0
 10
17.0717701006
 20
14.6473198054
 30
0.0
 10
17.0636748497
 20
14.6513638319
 30
0.0
 11
17.0897233795
 21
14.6437179676
 31
0.0
 11
17.0636748497
 21
14.6513638319
 31
0.0
  0
SPLINE
  5
3A6
100
AcDbEntity
  8
RACCORDO
100
AcDbSpline
 62
253
  6
CONTINUOUS
 70
0
 71
3
 72
9
 73
5
 74
3
 42
0.0000001
 43
0.0000001
 44
0.0000000001
 12
-0.1754576869
 22
0.1610663313
 32
0.0
 13
0.0033701286
 23
0.2381520632
 33
0.0
 40
0.0
 40
0.0
 40
0.0
 40
0.0
 40
0.5047721275
 40
1.0
 40
1.0
 40
1.0
 40
1.0
 10
17.1059044448
 20
14.3758835836
 30
0.0
 10
17.0763823948
 20
14.4029841818
 30
0.0
 10
17.0306625154
 20
14.4706455761
 30
0.0
 10
17.0111377932
 20
14.5502469695
 30
0.0
 10
17.0116941204
 20
14.5895601493
 30
0.0
 11
17.1059044448
 21
14.3758835836
 31
0.0
 11
17.0369005457
 21
14.4743336046
 31
0.0
 11
17.0116941204
 21
14.5895601493
 31
0.0
  0
SPLINE
  5
3A7
100
AcDbEntity
  8
RACCORDO
100
AcDbSpline
 62
253
  6
CONTINUOUS
 70
0
 71
3
 72
10
 73
6
 74
4
 42
0.0000001
 43
0.0000001
 44
0.0000000001
 12
0.1000264795
 22
0.0461621917
 32
0.0
 13
0.0114502833
 23
0.1095679495
 33
0.0
 40
0.0
 40
0.0
 40
0.0
 40
0.0
 40
0.3046286573
 40
0.5704755089
 40
1.0
 40
1.0
 40
1.0
 40
1.0
 10
17.0116941204
 20
14.5895601493
 30
0.0
 10
17.0218510978
 20
14.5942475915
 30
0.0
 10
17.0403451031
 20
14.6044263828
 30
0.0
 10
17.0689538951
 20
14.6273408948
 30
0.0
 10
17.0829515041
 20
14.6514039367
 30
0.0
 10
17.0845908965
 20
14.6670913093
 30
0.0
 11
17.0116941204
 21
14.5895601493
 31
0.0
 11
17.0409826203
 21
14.6059433879
 31
0.0
 11
17.0634094961
 21
14.624778431
 31
0.0
 11
17.0845908965
 21
14.6670913093
 31
0.0
  0
SPLINE
  5
3A8
100
AcDbEntity
  8
RACCORDO
100
AcDbSpline
 62
253
  6
CONTINUOUS
 70
0
 71
3
 72
9
 73
5
 74
3
 42
0.0000001
 43
0.0000001
 44
0.0000000001
 12
-0.070988012
 22
0.1445658652
 32
0.0
 13
-0.1440497109
 23
0.072029633
 33
0.0
 40
0.0
 40
0.0
 40
0.0
 40
0.0
 40
0.4483272618
 40
1.0
 40
1.0
 40
1.0
 40
1.0
 10
17.2698710256
 20
14.5505571433
 30
0.0
 10
17.2592624052
 20
14.5721614161
 30
0.0
 10
17.223189963
 20
14.6140901437
 30
0.0
 10
17.1771367664
 20
14.6425867172
 30
0.0
 10
17.1506473336
 20
14.6558323121
 30
0.0
 11
17.2698710256
 21
14.5505571433
 31
0.0
 11
17.2249117817
 21
14.6070571722
 31
0.0
 11
17.1506473336
 21
14.6558323121
 31
0.0
  0
SPLINE
  5
3A9
100
AcDbEntity
  8
RACCORDO
100
AcDbSpline
 62
253
  6
CONTINUOUS
 70
0
 71
3
 72
9
 73
5
 74
3
 42
0.0000001
 43
0.0000001
 44
0.0000000001
 12
0.0185549612
 22
0.0502320817
 32
0.0
 13
0.0155225426
 23
0.0512503589
 33
0.0
 40
0.0
 40
0.0
 40
0.0
 40
0.0
 40
0.2435459674
 40
1.0
 40
1.0
 40
1.0
 40
1.0
 10
0.989816194
 20
21.4551573629
 30
0.0
 10
0.9913225227
 20
21.4592353033
 30
0.0
 10
0.9970149752
 20
21.4761627928
 30
0.0
 10
1.0014163641
 20
21.4934769294
 30
0.0
 10
1.005330394
 20
21.5063997763
 30
0.0
 11
0.989816194
 21
21.4551573629
 31
0.0
 11
0.9940186914
 21
21.4675034807
 31
0.0
 11
1.005330394
 21
21.5063997763
 31
0.0
  0
SPLINE
  5
3AA
100
AcDbEntity
  8
RACCORDO
100
AcDbSpline
 62
253
  6
CONTINUOUS
 70
0
 71
3
 72
10
 73
6
 74
4
 42
0.0000001
 43
0.0000001
 44
0.0000000001
 12
0.063468689
 22
0.209552853
 32
0.0
 13
0.1973729766
 23
0.0947870287
 33
0.0
 40
0.0
 40
0.0
 40
0.0
 40
0.0
 40
0.2194931185
 40
0.4521466587
 40
1.0
 40
1.0
 40
1.0
 40
1.0
 10
1.005330394
 20
21.5063997763
 30
0.0
 10
1.0099740409
 20
21.5217315794
 30
0.0
 10
1.0215073604
 20
21.5528826859
 30
0.0
 10
1.0625242547
 20
21.6141351555
 30
0.0
 10
1.1118238662
 20
21.6471337089
 30
0.0
 10
1.1478676812
 20
21.6644435057
 30
0.0
 11
1.005330394
 21
21.5063997763
 31
0.0
 11
1.0228241814
 21
21.5511615477
 31
0.0
 11
1.051131597
 21
21.5935125467
 31
0.0
 11
1.1478676812
 21
21.6644435057
 31
0.0
  0
SPLINE
  5
3AB
100
AcDbEntity
  8
RACCORDO
100
AcDbSpline
 62
253
  6
CONTINUOUS
 70
0
 71
3
 72
9
 73
5
 74
3
 42
0.0000001
 43
0.0000001
 44
0.0000000001
 12
0.0
 22
-0.2514099855
 32
0.0
 13
-0.1603874962
 23
-0.1936048343
 33
0.0
 40
0.0
 40
0.0
 40
0.0
 40
0.0
 40
0.4868861085
 40
1.0
 40
1.0
 40
1.0
 40
1.0
 10
15.9510339486
 20
-25.2397749529
 30
0.0
 10
15.9510339486
 20
-25.2805776294
 30
0.0
 10
15.9325642938
 20
-25.3644169896
 30
0.0
 10
15.8900779517
 20
-25.4383553501
 30
0.0
 10
15.8626456009
 20
-25.4714691267
 30
0.0
 11
15.9510339486
 21
-25.2397749529
 31
0.0
 11
15.9273553621
 21
-25.359870957
 31
0.0
 11
15.8626456009
 21
-25.4714691267
 31
0.0
  0
SPLINE
  5
3AC
100
AcDbEntity
  8
RACCORDO
100
AcDbSpline
 62
253
  6
CONTINUOUS
 70
0
 71
3
 72
9
 73
5
 74
3
 42
0.0000001
 43
0.0000001
 44
0.0000000001
 12
-0.0413738825
 22
-0.0858258105
 32
0.0
 13
-0.0607826897
 23
-0.0733711969
 33
0.0
 40
0.0
 40
0.0
 40
0.0
 40
0.0
 40
0.253580275
 40
1.0
 40
1.0
 40
1.0
 40
1.0
 10
14.5703247492
 20
-24.7195059519
 30
0.0
 10
14.566827549
 20
-24.7267605295
 30
0.0
 10
14.5521797602
 20
-24.7549442654
 30
0.0
 10
14.5342658495
 20
-24.7814624484
 30
0.0
 10
14.5191427167
 20
-24.7997176846
 30
0.0
 11
14.5703247492
 21
-24.7195059519
 31
0.0
 11
14.5591887471
 21
-24.7409471085
 31
0.0
 11
14.5191427167
 21
-24.7997176846
 31
0.0
  0
SPLINE
  5
3AD
100
AcDbEntity
  8
RACCORDO
100
AcDbSpline
 62
7
  6
CONTINUOUS
 70
0
 71
3
 72
10
 73
6
 74
4
 42
0.0000001
 43
0.0000001
 44
0.0000000001
 12
-0.2068624299
 22
0.1034310466
 32
0.0
 13
-0.2068623626
 23
-0.1034311813
 33
0.0
 40
0.0
 40
0.0
 40
0.0
 40
0.0
 40
0.2277204504
 40
0.4659009814
 40
1.0
 40
1.0
 40
1.0
 40
1.0
 10
12.7098145289
 20
23.3820048117
 30
0.0
 10
12.6941122603
 20
23.3898559332
 30
0.0
 10
12.6594978709
 20
23.4013649187
 30
0.0
 10
12.5817864657
 20
23.405279495
 30
0.0
 10
12.5230390491
 20
23.3862185356
 30
0.0
 10
12.4862107208
 20
23.3678043715
 30
0.0
 11
12.7098145289
 21
23.3820048117
 31
0.0
 11
12.6598948155
 21
23.3987927339
 31
0.0
 11
12.6049032707
 21
23.4020204999
 31
0.0
 11
12.4862107208
 21
23.3678043715
 31
0.0
  0
SPLINE
  5
3AE
100
AcDbEntity
  8
RACCORDO
100
AcDbSpline
 62
253
  6
CONTINUOUS
 70
0
 71
3
 72
9
 73
5
 74
3
 42
0.0000001
 43
0.0000001
 44
0.0000000001
 12
0.3207728743
 22
0.3872071118
 32
0.0
 13
0.0
 23
0.5028166508
 33
0.0
 40
0.0
 40
0.0
 40
0.0
 40
0.0
 40
0.5131129059
 40
1.0
 40
1.0
 40
1.0
 40
1.0
 10
16.1278106439
 20
-25.7031633005
 30
0.0
 10
16.1826748778
 20
-25.6369363117
 30
0.0
 10
16.267629217
 20
-25.4890522451
 30
0.0
 10
16.3045873392
 20
-25.3213799322
 30
0.0
 10
16.3045873392
 20
-25.2397749529
 30
0.0
 11
16.1278106439
 21
-25.7031633005
 31
0.0
 11
16.2572205365
 21
-25.4799639199
 31
0.0
 11
16.3045873392
 21
-25.2397749529
 31
0.0
  0
SPLINE
  5
3AF
100
AcDbEntity
  8
RACCORDO
100
AcDbSpline
 62
7
  6
CONTINUOUS
 70
0
 71
3
 72
11
 73
7
 74
5
 42
0.0000001
 43
0.0000001
 44
0.0000000001
 12
-0.4025879436
 22
0.2012804126
 32
0.0
 13
-0.4059943767
 23
-0.1943178401
 33
0.0
 40
0.0
 40
0.0
 40
0.0
 40
0.0
 40
0.2279938256
 40
0.4659602826
 40
0.7218001075
 40
1.0
 40
1.0
 40
1.0
 40
1.0
 10
15.054722296
 20
22.7395877764
 30
0.0
 10
15.0241264409
 20
22.7548846735
 30
0.0
 10
14.9569107928
 20
22.7775221224
 30
0.0
 10
14.8477424773
 20
22.7841112838
 30
0.0
 10
14.7327592751
 20
22.7642002208
 30
0.0
 10
14.6575209766
 20
22.7352365626
 30
0.0
 10
14.6198717793
 20
22.7172168285
 30
0.0
 11
15.054722296
 21
22.7395877764
 31
0.0
 11
14.9575692845
 21
22.7726363023
 31
0.0
 11
14.8507099122
 21
22.7799436008
 31
0.0
 11
14.7370769234
 21
22.7612907444
 31
0.0
 11
14.6198717793
 21
22.7172168285
 31
0.0
  0
SPLINE
  5
3B0
100
AcDbEntity
  8
RACCORDO
100
AcDbSpline
 62
253
  6
CONTINUOUS
 70
0
 71
3
 72
11
 73
7
 74
5
 42
0.0000001
 43
0.0000001
 44
0.0000000001
 12
-0.324954929
 22
-0.1624774645
 32
0.0
 13
-0.324954929
 23
0.1624774645
 33
0.0
 40
0.0
 40
0.0
 40
0.0
 40
0.0
 40
0.2353701082
 40
0.5
 40
0.7646298918
 40
1.0
 40
1.0
 40
1.0
 40
1.0
 10
16.3045873392
 20
-25.2397749529
 30
0.0
 10
16.2790924469
 20
-25.252522399
 30
0.0
 10
16.2204998489
 20
-25.2707065248
 30
0.0
 10
16.1278106439
 20
-25.2793928434
 30
0.0
 10
16.0351214388
 20
-25.2707065248
 30
0.0
 10
15.9765288409
 20
-25.252522399
 30
0.0
 10
15.9510339486
 20
-25.2397749529
 30
0.0
 11
16.3045873392
 21
-25.2397749529
 31
0.0
 11
16.223481502
 21
-25.2668715468
 31
0.0
 11
16.1278106439
 21
-25.2763866052
 31
0.0
 11
16.0321397858
 21
-25.2668715468
 31
0.0
 11
15.9510339486
 21
-25.2397749529
 31
0.0
  0
SPLINE
  5
3B1
100
AcDbEntity
  8
RACCORDO
100
AcDbSpline
 62
253
  6
CONTINUOUS
 70
0
 71
3
 72
10
 73
6
 74
4
 42
0.0000001
 43
0.0000001
 44
0.0000000001
 12
0.4185825973
 22
0.032454263
 32
0.0
 13
0.3791952386
 23
0.1802099915
 33
0.0
 40
0.0
 40
0.0
 40
0.0
 40
0.0
 40
0.2647647673
 40
0.5267054518
 40
1.0
 40
1.0
 40
1.0
 40
1.0
 10
15.9854887387
 20
13.9573200912
 30
0.0
 10
16.0224307133
 20
13.9601843397
 30
0.0
 10
16.0958754212
 20
13.967129639
 30
0.0
 10
16.2343623255
 20
13.9858637902
 30
0.0
 10
16.3354699324
 20
14.0122973343
 30
0.0
 10
16.3952936121
 20
14.0407281365
 30
0.0
 11
15.9854887387
 21
13.9573200912
 31
0.0
 11
16.0961421392
 21
13.9679052531
 31
0.0
 11
16.2050021041
 21
13.9835110892
 31
0.0
 11
16.3952936121
 21
14.0407281365
 31
0.0
  0
SPLINE
  5
3B2
100
AcDbEntity
  8
RACCORDO
100
AcDbSpline
 62
253
  6
CONTINUOUS
 70
0
 71
3
 72
9
 73
5
 74
3
 42
0.0000001
 43
0.0000001
 44
0.0000000001
 12
0.3048477605
 22
0.1407144761
 32
0.0
 13
0.3056706765
 23
0.1389178115
 33
0.0
 40
0.0
 40
0.0
 40
0.0
 40
0.0
 40
0.4977161132
 40
1.0
 40
1.0
 40
1.0
 40
1.0
 10
16.3265289962
 20
13.341470084
 30
0.0
 10
16.3771048771
 20
13.3648153714
 30
0.0
 10
16.4726907431
 20
13.4235533799
 30
0.0
 10
16.5647268993
 20
13.4884581799
 30
0.0
 10
16.6159047178
 20
13.511716906
 30
0.0
 11
16.3265289962
 21
13.341470084
 31
0.0
 11
16.4713747897
 21
13.4248127238
 31
0.0
 11
16.6159047178
 21
13.511716906
 31
0.0
  0
SPLINE
  5
3B3
100
AcDbEntity
  8
RACCORDO
100
AcDbSpline
 62
253
  6
CONTINUOUS
 70
0
 71
3
 72
11
 73
7
 74
5
 42
0.0000001
 43
0.0000001
 44
0.0000000001
 12
0.6512395105
 22
-0.3368434973
 32
0.0
 13
-0.0106227556
 23
-0.7331190891
 33
0.0
 40
0.0
 40
0.0
 40
0.0
 40
0.0
 40
0.2280517953
 40
0.485946771
 40
0.7515354279
 40
1.0
 40
1.0
 40
1.0
 40
1.0
 10
15.9854293737
 20
13.9573229271
 30
0.0
 10
16.0349348202
 20
13.9317170057
 30
0.0
 10
16.12915547
 20
13.8552900435
 30
0.0
 10
16.2366357097
 20
13.7043921097
 30
0.0
 10
16.3087262387
 20
13.5283341976
 30
0.0
 10
16.327408789
 20
13.4021881243
 30
0.0
 10
16.3265289962
 20
13.3414700841
 30
0.0
 11
15.9854293737
 21
13.9573229271
 31
0.0
 11
16.1179241594
 21
13.8553268303
 31
0.0
 11
16.2292302511
 21
13.7024704744
 31
0.0
 11
16.3024979345
 21
13.5220513625
 31
0.0
 11
16.3265289962
 21
13.3414700841
 31
0.0
  0
LINE
  5
3B4
100
AcDbEntity
  8
RACCORDO
100
AcDbLine
 62
253
  6
CONTINUOUS
 10
16.6159047178
 20
13.511716906
 11
17.3351279788
 21
13.8385984152
  0
SPLINE
  5
3B5
100
AcDbEntity
  8
RACCORDO
100
AcDbSpline
 62
253
  6
CONTINUOUS
 70
0
 71
3
 72
11
 73
7
 74
5
 42
0.0000001
 43
0.0000001
 44
0.0000000001
 12
0.4181618484
 22
-0.4116118851
 32
0.0
 13
-0.0114922088
 23
-0.5866443595
 33
0.0
 40
0.0
 40
0.0
 40
0.0
 40
0.0
 40
0.2462879081
 40
0.504747665
 40
0.7607052784
 40
1.0
 40
1.0
 40
1.0
 40
1.0
 10
16.3952930798
 20
14.0407288298
 30
0.0
 10
16.4296224821
 20
14.0069371531
 30
0.0
 10
16.4920090165
 20
13.9293436203
 30
0.0
 10
16.5619848956
 20
13.7971413649
 30
0.0
 10
16.6063609841
 20
13.6557211788
 30
0.0
 10
16.6167499011
 20
13.5584780613
 30
0.0
 10
16.6158332261
 20
13.5116844284
 30
0.0
 11
16.3952930798
 21
14.0407288298
 31
0.0
 11
16.4867057156
 21
13.928803866
 31
0.0
 11
16.5579152613
 21
13.7949089523
 31
0.0
 11
16.6023284914
 21
13.6514412941
 31
0.0
 11
16.6158332261
 21
13.5116844284
 31
0.0
  0
SPLINE
  5
3B6
100
AcDbEntity
  8
RACCORDO
100
AcDbSpline
 62
253
  6
CONTINUOUS
 70
0
 71
3
 72
11
 73
7
 74
5
 42
0.0000001
 43
0.0000001
 44
0.0000000001
 12
0.222658772
 22
0.1055330666
 32
0.0
 13
0.1026419384
 23
0.2240062262
 33
0.0
 40
0.0
 40
0.0
 40
0.0
 40
0.0
 40
0.3088744716
 40
0.5674675809
 40
0.7883368477
 40
1.0
 40
1.0
 40
1.0
 40
1.0
 10
17.1059046506
 20
14.3758844812
 30
0.0
 10
17.1288291875
 20
14.3867499712
 30
0.0
 10
17.169617018
 20
14.4099178663
 30
0.0
 10
17.2183485789
 20
14.4535522869
 30
0.0
 10
17.249602087
 20
14.5016367
 30
0.0
 10
17.2626296459
 20
14.5347515483
 30
0.0
 10
17.2698714846
 20
14.5505561696
 30
0.0
 11
17.1059046506
 21
14.3758844812
 31
0.0
 11
17.1715395723
 21
14.4144123469
 31
0.0
 11
17.2183660781
 21
14.4576241286
 31
0.0
 11
17.2483151273
 21
14.5030651598
 31
0.0
 11
17.2698714846
 21
14.5505561696
 31
0.0
  0
SPLINE
  5
3B7
100
AcDbEntity
  8
RACCORDO
100
AcDbSpline
 62
253
  6
CONTINUOUS
 70
0
 71
3
 72
11
 73
7
 74
5
 42
0.0000001
 43
0.0000001
 44
0.0000000001
 12
0.2661857721
 22
0.1209887232
 32
0.0
 13
0.2654433732
 23
0.1226089394
 33
0.0
 40
0.0
 40
0.0
 40
0.0
 40
0.0
 40
0.2529471725
 40
0.4975323023
 40
0.7443094627
 40
1.0
 40
1.0
 40
1.0
 40
1.0
 10
17.3351279788
 20
13.8385984152
 30
0.0
 10
17.3575716249
 20
13.848799667
 30
0.0
 10
17.4032472995
 20
13.8655210272
 30
0.0
 10
17.4732207088
 20
13.8846177333
 30
0.0
 10
17.5428693091
 20
13.9059680486
 30
0.0
 10
17.5884055591
 20
13.9242409579
 30
0.0
 10
17.6110293454
 20
13.9346909398
 30
0.0
 11
17.3351279788
 21
13.8385984152
 31
0.0
 11
17.4042987569
 21
13.8647794878
 31
0.0
 11
17.4729196684
 21
13.8849172918
 31
0.0
 11
17.5417224666
 21
13.9066570856
 31
0.0
 11
17.6110293454
 21
13.9346909398
 31
0.0
  0
SPLINE
  5
3B8
100
AcDbEntity
  8
RACCORDO
100
AcDbSpline
 62
253
  6
CONTINUOUS
 70
0
 71
3
 72
11
 73
7
 74
5
 42
0.0000001
 43
0.0000001
 44
0.0000000001
 12
0.434907209
 22
-0.4113304504
 32
0.0
 13
-0.011598659
 23
-0.5985002014
 33
0.0
 40
0.0
 40
0.0
 40
0.0
 40
0.0
 40
0.2451288525
 40
0.5036123513
 40
0.7601874968
 40
1.0
 40
1.0
 40
1.0
 40
1.0
 10
17.1059046506
 20
14.3758844812
 30
0.0
 10
17.1414407523
 20
14.3422748274
 30
0.0
 10
17.2061669927
 20
14.2642123119
 30
0.0
 10
17.2788669472
 20
14.1301201119
 30
0.0
 10
17.3251444952
 20
13.9858856847
 30
0.0
 10
17.3360635664
 20
13.8864446696
 30
0.0
 10
17.3351363986
 20
13.8386020591
 30
0.0
 11
17.1059046506
 21
14.3758844812
 31
0.0
 11
17.2005263905
 21
14.2637304064
 31
0.0
 11
17.2745962708
 21
14.1278794518
 31
0.0
 11
17.320959094
 21
13.9814550576
 31
0.0
 11
17.3351363986
 21
13.8386020591
 31
0.0
  0
SPLINE
  5
3B9
100
AcDbEntity
  8
RACCORDO
100
AcDbSpline
 62
253
  6
CONTINUOUS
 70
0
 71
3
 72
11
 73
7
 74
5
 42
0.0000001
 43
0.0000001
 44
0.0000000001
 12
0.6512282866
 22
-0.3369341594
 32
0.0
 13
-0.0105536137
 23
-0.7331517785
 33
0.0
 40
0.0
 40
0.0
 40
0.0
 40
0.0
 40
0.2280358042
 40
0.4859386048
 40
0.751534838
 40
1.0
 40
1.0
 40
1.0
 40
1.0
 10
17.269870924
 20
14.5505570964
 30
0.0
 10
17.319372046
 20
14.5249460791
 30
0.0
 10
17.4135896623
 20
14.448515086
 30
0.0
 10
17.5210959171
 20
14.2976268135
 30
0.0
 10
17.5932061026
 20
14.1215630913
 30
0.0
 10
17.6119034138
 20
13.9954118316
 30
0.0
 10
17.6110293454
 20
13.9346909398
 30
0.0
 11
17.269870924
 21
14.5505570964
 31
0.0
 11
17.4023585308
 21
14.4485590491
 31
0.0
 11
17.5136886068
 21
14.2957029528
 31
0.0
 11
17.5869791641
 21
14.1152780519
 31
0.0
 11
17.6110293454
 21
13.9346909398
 31
0.0
  0
SPLINE
  5
3BA
100
AcDbEntity
  8
RACCORDO
100
AcDbSpline
 62
253
  6
CONTINUOUS
 70
0
 71
3
 72
11
 73
7
 74
5
 42
0.0000001
 43
0.0000001
 44
0.0000000001
 12
0.2764622226
 22
0.1392845167
 32
0.0
 13
0.2755993419
 23
0.1409841831
 33
0.0
 40
0.0
 40
0.0
 40
0.0
 40
0.0
 40
0.2563866308
 40
0.5026664298
 40
0.7462301632
 40
1.0
 40
1.0
 40
1.0
 40
1.0
 10
16.3265351773
 20
-24.6406138756
 30
0.0
 10
16.3501622499
 20
-24.6287103129
 30
0.0
 10
16.3977794858
 20
-24.6078524235
 30
0.0
 10
16.4709508089
 20
-24.5836862158
 30
0.0
 10
16.5446953388
 20
-24.5625407081
 30
0.0
 10
16.5925454304
 20
-24.5433636307
 30
0.0
 10
16.6158583637
 20
-24.5314377863
 30
0.0
 11
16.3265351773
 21
-24.6406138756
 31
0.0
 11
16.3991717559
 21
-24.6086243817
 31
0.0
 11
16.471355305
 21
-24.5840871381
 31
0.0
 11
16.5433304451
 21
-24.5616233565
 31
0.0
 11
16.6158583637
 21
-24.5314377863
 31
0.0
  0
SPLINE
  5
3BB
100
AcDbEntity
  8
RACCORDO
100
AcDbSpline
 62
253
  6
CONTINUOUS
 70
0
 71
3
 72
11
 73
7
 74
5
 42
0.0000001
 43
0.0000001
 44
0.0000000001
 12
-0.1865148908
 22
0.3024003869
 32
0.0
 13
-0.3177845792
 23
0.1588922896
 33
0.0
 40
0.0
 40
0.0
 40
0.0
 40
0.0
 40
0.218477527
 40
0.4824886594
 40
0.7557089095
 40
1.0
 40
1.0
 40
1.0
 40
1.0
 10
15.597480558
 20
-26.3433283435
 30
0.0
 10
15.583897454
 20
-26.3213057806
 30
0.0
 10
15.5478223827
 20
-26.276522368
 30
0.0
 10
15.4834972789
 20
-26.2141287029
 30
0.0
 10
15.4105054343
 20
-26.1569603814
 30
0.0
 10
15.3581928289
 20
-26.1245728265
 30
0.0
 10
15.3323155151
 20
-26.1116341696
 30
0.0
 11
15.597480558
 21
-26.3433283435
 31
0.0
 11
15.550202937
 21
-26.2817631546
 31
0.0
 11
15.4832071257
 21
-26.2161103246
 31
0.0
 11
15.4066945754
 21
-26.1563684215
 31
0.0
 11
15.3323155151
 21
-26.1116341696
 31
0.0
  0
SPLINE
  5
3BC
100
AcDbEntity
  8
RACCORDO
100
AcDbSpline
 62
253
  6
CONTINUOUS
 70
0
 71
3
 72
11
 73
7
 74
5
 42
0.0000001
 43
0.0000001
 44
0.0000000001
 12
0.0044915447
 22
-0.3080984702
 32
0.0
 13
-0.2750771889
 23
-0.1388430101
 33
0.0
 40
0.0
 40
0.0
 40
0.0
 40
0.0
 40
0.2924682406
 40
0.5533914059
 40
0.7853904162
 40
1.0
 40
1.0
 40
1.0
 40
1.0
 10
16.3265351773
 20
-24.6406138756
 30
0.0
 10
16.3269730553
 20
-24.6706502147
 30
0.0
 10
16.3230566983
 20
-24.7277585541
 30
0.0
 10
16.3002965472
 20
-24.8059602505
 30
0.0
 10
16.2610832281
 20
-24.8685054263
 30
0.0
 10
16.2238597464
 20
-24.8973544032
 30
0.0
 10
16.2041816794
 20
-24.90728675
 30
0.0
 11
16.3265351773
 21
-24.6406138756
 31
0.0
 11
16.3194480011
 21
-24.730453358
 31
0.0
 11
16.2958060765
 21
-24.8072972874
 31
0.0
 11
16.2567541316
 21
-24.8671739367
 31
0.0
 11
16.2041816794
 21
-24.90728675
 31
0.0
  0
LINE
  5
3BD
100
AcDbEntity
  8
RACCORDO
100
AcDbLine
 62
253
  6
CONTINUOUS
 10
16.6158583637
 20
-24.5314377863
 11
17.3351717284
 21
-24.1637274045
  0
SPLINE
  5
3BE
100
AcDbEntity
  8
RACCORDO
100
AcDbSpline
 62
253
  6
CONTINUOUS
 70
0
 71
3
 72
11
 73
7
 74
5
 42
0.0000001
 43
0.0000001
 44
0.0000000001
 12
0.0060992045
 22
-0.3054570354
 32
0.0
 13
-0.2719152663
 23
-0.1392956879
 33
0.0
 40
0.0
 40
0.0
 40
0.0
 40
0.0
 40
0.2928262984
 40
0.5538059176
 40
0.7856647474
 40
1.0
 40
1.0
 40
1.0
 40
1.0
 10
16.6158332261
 20
-24.5314506419
 30
0.0
 10
16.6164285619
 20
-24.5612659262
 30
0.0
 10
16.6128819667
 20
-24.6179519082
 30
0.0
 10
16.5907953478
 20
-24.6956558054
 30
0.0
 10
16.552378278
 20
-24.7579038517
 30
0.0
 10
16.5157167968
 20
-24.7867653652
 30
0.0
 10
16.4962897877
 20
-24.7967173573
 30
0.0
 11
16.6158332261
 21
-24.5314506419
 31
0.0
 11
16.6093169159
 21
-24.6206766927
 31
0.0
 11
16.5863540921
 21
-24.6970325154
 31
0.0
 11
16.5480720751
 21
-24.7566342913
 31
0.0
 11
16.4962897877
 21
-24.7967173573
 31
0.0
  0
SPLINE
  5
3BF
100
AcDbEntity
  8
RACCORDO
100
AcDbSpline
 62
253
  6
CONTINUOUS
 70
0
 71
3
 72
9
 73
5
 74
3
 42
0.0000001
 43
0.0000001
 44
0.0000000001
 12
0.2887050728
 22
0.1474957329
 32
0.0
 13
0.2895411384
 23
0.1458476585
 33
0.0
 40
0.0
 40
0.0
 40
0.0
 40
0.0
 40
0.502134389
 40
1.0
 40
1.0
 40
1.0
 40
1.0
 10
17.3351717284
 20
-24.1637274045
 30
0.0
 10
17.3834946435
 20
-24.1390398446
 30
0.0
 10
17.4718725271
 20
-24.0761781907
 30
0.0
 10
17.5629684115
 20
-24.0176212519
 30
0.0
 10
17.6110192701
 20
-23.993417074
 30
0.0
 11
17.3351717284
 21
-24.1637274045
 31
0.0
 11
17.4729351065
 21
-24.0769952346
 31
0.0
 11
17.6110192701
 21
-23.993417074
 31
0.0
  0
SPLINE
  5
3C0
100
AcDbEntity
  8
RACCORDO
100
AcDbSpline
 62
253
  6
CONTINUOUS
 70
0
 71
3
 72
11
 73
7
 74
5
 42
0.0000001
 43
0.0000001
 44
0.0000000001
 12
0.0059662917
 22
-0.3056769567
 32
0.0
 13
-0.2721641128
 23
-0.1392863748
 33
0.0
 40
0.0
 40
0.0
 40
0.0
 40
0.0
 40
0.2927815281
 40
0.5537809513
 40
0.7856560945
 40
1.0
 40
1.0
 40
1.0
 40
1.0
 10
17.3352118134
 20
-24.1637059279
 30
0.0
 10
17.3357940868
 20
-24.1935381167
 30
0.0
 10
17.3322143175
 20
-24.2502600859
 30
0.0
 10
17.3100741027
 20
-24.3280071596
 30
0.0
 10
17.2715911218
 20
-24.3902833646
 30
0.0
 10
17.2348817891
 20
-24.4191397505
 30
0.0
 10
17.2154362161
 20
-24.429091479
 30
0.0
 11
17.3352118134
 21
-24.1637059279
 31
0.0
 11
17.3286473533
 21
-24.2529785141
 31
0.0
 11
17.3056275344
 21
-24.3293827159
 31
0.0
 11
17.2672810927
 21
-24.3890088937
 31
0.0
 11
17.2154362161
 21
-24.429091479
 31
0.0
  0
SPLINE
  5
3C1
100
AcDbEntity
  8
RACCORDO
100
AcDbSpline
 62
253
  6
CONTINUOUS
 70
0
 71
3
 72
11
 73
7
 74
5
 42
0.0000001
 43
0.0000001
 44
0.0000000001
 12
0.0044874441
 22
-0.308107001
 32
0.0
 13
-0.2750847167
 23
-0.1388468936
 33
0.0
 40
0.0
 40
0.0
 40
0.0
 40
0.0
 40
0.2924658029
 40
0.5533881067
 40
0.7853880747
 40
1.0
 40
1.0
 40
1.0
 40
1.0
 10
17.6110192701
 20
-23.993417074
 30
0.0
 10
17.6114567447
 20
-24.0234539945
 30
0.0
 10
17.6075394883
 20
-24.0805635107
 30
0.0
 10
17.5847776132
 20
-24.1587667859
 30
0.0
 10
17.5455622765
 20
-24.221313349
 30
0.0
 10
17.5083374001
 20
-24.2501631085
 30
0.0
 10
17.4886585799
 20
-24.2600958415
 30
0.0
 11
17.6110192701
 21
-23.993417074
 31
0.0
 11
17.603930691
 21
-24.0832581772
 31
0.0
 11
17.5802871017
 21
-24.1601036289
 31
0.0
 11
17.541233226
 21
-24.2199817174
 31
0.0
 11
17.4886585799
 21
-24.2600958415
 31
0.0
  0
SPLINE
  5
3C2
100
AcDbEntity
  8
RACCORDO
100
AcDbSpline
 62
253
  6
CONTINUOUS
 70
0
 71
3
 72
11
 73
7
 74
5
 42
0.0000001
 43
0.0000001
 44
0.0000000001
 12
-0.1865148844
 22
0.3024003765
 32
0.0
 13
-0.3177845683
 23
0.1588922841
 33
0.0
 40
0.0
 40
0.0
 40
0.0
 40
0.0
 40
0.2184918121
 40
0.482500807
 40
0.7557136777
 40
1.0
 40
1.0
 40
1.0
 40
1.0
 10
16.1278106439
 20
-25.7031633005
 30
0.0
 10
16.1142266522
 20
-25.6811392984
 30
0.0
 10
16.0781502381
 20
-25.6363550629
 30
0.0
 10
16.0138245487
 20
-25.5739612454
 30
0.0
 10
15.9408338446
 20
-25.516794207
 30
0.0
 10
15.8885224088
 20
-25.4844075306
 30
0.0
 10
15.8626456009
 20
-25.4714691267
 30
0.0
 11
16.1278106439
 21
-25.7031633005
 31
0.0
 11
16.0805295629
 21
-25.6415943727
 31
0.0
 11
16.0135339486
 21
-25.5759424314
 31
0.0
 11
15.9370232758
 21
-25.5162023894
 31
0.0
 11
15.8626456009
 21
-25.4714691267
 31
0.0
  0
SPLINE
  5
3C3
100
AcDbEntity
  8
RACCORDO
100
AcDbSpline
 62
253
  6
CONTINUOUS
 70
0
 71
3
 72
9
 73
5
 74
3
 42
0.0000001
 43
0.0000001
 44
0.0000000001
 12
-0.1603874072
 22
-0.1936047269
 32
0.0
 13
0.0
 23
-0.251409846
 33
0.0
 40
0.0
 40
0.0
 40
0.0
 40
0.0
 40
0.5131459117
 40
1.0
 40
1.0
 40
1.0
 40
1.0
 10
15.3323155151
 20
-26.1116341696
 30
0.0
 10
15.3048814676
 20
-26.1447499943
 30
0.0
 10
15.2623965324
 20
-26.2186893634
 30
0.0
 10
15.2439271674
 20
-26.302528373
 30
0.0
 10
15.2439271674
 20
-26.3433283435
 30
0.0
 11
15.3323155151
 21
-26.1116341696
 31
0.0
 11
15.2676032754
 21
-26.223240125
 31
0.0
 11
15.2439271674
 21
-26.3433283435
 31
0.0
  0
LINE
  5
3C4
100
AcDbEntity
  8
RACCORDO
100
AcDbLine
 62
253
  6
CONTINUOUS
 10
18.2491309874
 20
-16.503854551
 11
22.4477410702
 21
-16.2076466282
  0
SPLINE
  5
3C5
100
AcDbEntity
  8
RACCORDO
100
AcDbSpline
 62
253
  6
CONTINUOUS
 70
0
 71
3
 72
9
 73
5
 74
3
 42
0.0000001
 43
0.0000001
 44
0.0000000001
 12
-0.1603874072
 22
-0.1936047269
 32
0.0
 13
0.0
 23
-0.251409846
 33
0.0
 40
0.0
 40
0.0
 40
0.0
 40
0.0
 40
0.5131459117
 40
1.0
 40
1.0
 40
1.0
 40
1.0
 10
13.9888126308
 20
-25.4398827275
 30
0.0
 10
13.9613785834
 20
-25.4729985522
 30
0.0
 10
13.9188936481
 20
-25.5469379213
 30
0.0
 10
13.9004242831
 20
-25.6307769309
 30
0.0
 10
13.9004242831
 20
-25.6715769013
 30
0.0
 11
13.9888126308
 21
-25.4398827275
 31
0.0
 11
13.9241003911
 21
-25.5514886829
 31
0.0
 11
13.9004242831
 21
-25.6715769013
 31
0.0
  0
SPLINE
  5
3C6
100
AcDbEntity
  8
RACCORDO
100
AcDbSpline
 62
253
  6
CONTINUOUS
 70
0
 71
3
 72
11
 73
7
 74
5
 42
0.0000001
 43
0.0000001
 44
0.0000000001
 12
-0.3249549857
 22
-0.1624774928
 32
0.0
 13
-0.3249549857
 23
0.1624774928
 33
0.0
 40
0.0
 40
0.0
 40
0.0
 40
0.0
 40
0.2353253496
 40
0.499964792
 40
0.764617449
 40
1.0
 40
1.0
 40
1.0
 40
1.0
 10
15.597480558
 20
-26.6946423156
 30
0.0
 10
15.5719905095
 20
-26.7073873398
 30
0.0
 10
15.5134029569
 20
-26.7255723017
 30
0.0
 10
15.4207151939
 20
-26.7342604733
 30
0.0
 10
15.3280204269
 20
-26.725575215
 30
0.0
 10
15.2694234119
 20
-26.7073904378
 30
0.0
 10
15.2439271674
 20
-26.6946423156
 30
0.0
 11
15.597480558
 21
-26.6946423156
 31
0.0
 11
15.5163908455
 21
-26.7217359032
 31
0.0
 11
15.4207167837
 21
-26.7312539779
 31
0.0
 11
15.3250375182
 21
-26.7217397126
 31
0.0
 11
15.2439271674
 21
-26.6946423156
 31
0.0
  0
SPLINE
  5
3C7
100
AcDbEntity
  8
RACCORDO
100
AcDbSpline
 62
253
  6
CONTINUOUS
 70
0
 71
3
 72
11
 73
7
 74
5
 42
0.0000001
 43
0.0000001
 44
0.0000000001
 12
-0.324954929
 22
-0.1624774645
 32
0.0
 13
-0.324954929
 23
0.1624774645
 33
0.0
 40
0.0
 40
0.0
 40
0.0
 40
0.0
 40
0.2353701082
 40
0.5
 40
0.7646298918
 40
1.0
 40
1.0
 40
1.0
 40
1.0
 10
15.597480558
 20
-26.3433283435
 30
0.0
 10
15.5719856657
 20
-26.3560757896
 30
0.0
 10
15.5133930677
 20
-26.3742599154
 30
0.0
 10
15.4207038627
 20
-26.382946234
 30
0.0
 10
15.3280146577
 20
-26.3742599154
 30
0.0
 10
15.2694220597
 20
-26.3560757896
 30
0.0
 10
15.2439271674
 20
-26.3433283435
 30
0.0
 11
15.597480558
 21
-26.3433283435
 31
0.0
 11
15.5163747208
 21
-26.3704249374
 31
0.0
 11
15.4207038627
 21
-26.3799399958
 31
0.0
 11
15.3250330046
 21
-26.3704249374
 31
0.0
 11
15.2439271674
 21
-26.3433283435
 31
0.0
  0
LINE
  5
3C8
100
AcDbEntity
  8
RACCORDO
100
AcDbLine
 62
253
  6
CONTINUOUS
 10
18.2491309874
 20
12.7323345323
 11
22.2785330419
 21
16.5484133938
  0
LINE
  5
3C9
100
AcDbEntity
  8
RACCORDO
100
AcDbLine
 62
253
  6
CONTINUOUS
 10
22.2785330419
 20
16.5484133938
 11
22.4477410702
 21
16.7086632699
  0
SPLINE
  5
3CA
100
AcDbEntity
  8
RACCORDO
100
AcDbSpline
 62
7
  6
CONTINUOUS
 70
0
 71
3
 72
11
 73
7
 74
5
 42
0.0000001
 43
0.0000001
 44
0.0000000001
 12
0.6519240444
 22
-0.3259620222
 32
0.0
 13
0.6504099419
 23
0.3289728061
 33
0.0
 40
0.0
 40
0.0
 40
0.0
 40
0.0
 40
0.2355685165
 40
0.5004196096
 40
0.7650446261
 40
1.0
 40
1.0
 40
1.0
 40
1.0
 10
11.7104237411
 20
17.7452902212
 30
0.0
 10
11.7616146677
 20
17.7196947579
 30
0.0
 10
11.8792920406
 20
17.6832484597
 30
0.0
 10
12.0653707127
 20
17.6660143031
 30
0.0
 10
12.2512502027
 20
17.6837533548
 30
0.0
 10
12.3686218645
 20
17.7205466655
 30
0.0
 10
12.4195609682
 20
17.7463113084
 30
0.0
 11
11.7104237411
 21
17.7452902212
 31
0.0
 11
11.8733007591
 21
17.6909595167
 31
0.0
 11
12.0654170263
 21
17.6720679532
 31
0.0
 11
12.257312493
 21
17.6915124555
 31
0.0
 11
12.4195609682
 21
17.7463113084
 31
0.0
  0
SPLINE
  5
3CB
100
AcDbEntity
  8
ASSI
100
AcDbSpline
 62
253
  6
CONTINUOUS
 70
0
 71
3
 72
11
 73
7
 74
5
 42
0.0000001
 43
0.0000001
 44
0.0000000001
 12
1.0356806744
 22
-0.5384887715
 32
0.0
 13
0.1045301147
 23
-1.1626169065
 33
0.0
 40
0.0
 40
0.0
 40
0.0
 40
0.0
 40
0.2314542436
 40
0.493099817
 40
0.758484409
 40
1.0
 40
1.0
 40
1.0
 40
1.0
 10
8.4743934131
 20
9.7583390051
 30
0.0
 10
8.5542976421
 20
9.7167938347
 30
0.0
 10
8.7082456858
 20
9.5970468959
 30
0.0
 10
8.8942783753
 20
9.3654590435
 30
0.0
 10
9.0311884187
 20
9.0973932866
 30
0.0
 10
9.0808726882
 20
8.9037048721
 30
0.0
 10
9.0892879057
 20
8.810108169
 30
0.0
 11
8.4743934131
 21
9.7583390051
 31
0.0
 11
8.691547828
 21
9.5975903095
 31
0.0
 11
8.8846418353
 21
9.3609546307
 31
0.0
 11
9.0243077602
 21
9.0844401014
 31
0.0
 11
9.0892879057
 21
8.810108169
 31
0.0
  0
SPLINE
  5
3CC
100
AcDbEntity
  8
ASSI
100
AcDbSpline
 62
253
  6
CONTINUOUS
 70
0
 71
3
 72
11
 73
7
 74
5
 42
0.0000001
 43
0.0000001
 44
0.0000000001
 12
-1.7702369096
 22
-1.129830671
 32
0.0
 13
0.034183386
 23
-2.0997827405
 33
0.0
 40
0.0
 40
0.0
 40
0.0
 40
0.0
 40
0.2357305236
 40
0.4951549065
 40
0.7572020018
 40
1.0
 40
1.0
 40
1.0
 40
1.0
 10
-21.5775822396
 20
24.7843268315
 30
0.0
 10
-21.7166818641
 20
24.6955483062
 30
0.0
 10
-21.9770963144
 20
24.4584958468
 30
0.0
 10
-22.2744639892
 20
24.0148426232
 30
0.0
 10
-22.4711765565
 20
23.5129884028
 30
0.0
 10
-22.5214715864
 20
23.1581483061
 30
0.0
 10
-22.5187050338
 20
22.9882072907
 30
0.0
 11
-21.5775822396
 21
24.7843268315
 31
0.0
 11
-21.9496860258
 21
24.4578122665
 31
0.0
 11
-22.2559679893
 21
24.0072503418
 31
0.0
 11
-22.4546723724
 21
23.4940612627
 31
0.0
 11
-22.5187050338
 21
22.9882072907
 31
0.0
  0
SPLINE
  5
3CD
100
AcDbEntity
  8
ASSI
100
AcDbSpline
 62
253
  6
CONTINUOUS
 70
0
 71
3
 72
11
 73
7
 74
5
 42
0.0000001
 43
0.0000001
 44
0.0000000001
 12
-0.3535932087
 22
0.1699875154
 32
0.0
 13
-0.3291999518
 23
-0.2134275154
 33
0.0
 40
0.0
 40
0.0
 40
0.0
 40
0.0
 40
0.2891453278
 40
0.5481033755
 40
0.7814971181
 40
1.0
 40
1.0
 40
1.0
 40
1.0
 10
-21.5775822396
 20
24.7843268315
 30
0.0
 10
-21.611662181
 20
24.8007105301
 30
0.0
 10
-21.6789119047
 20
24.8268078387
 30
0.0
 10
-21.7805712652
 20
24.8438652514
 30
0.0
 10
-21.8743613998
 20
24.83534495
 30
0.0
 10
-21.929831636
 20
24.8115749186
 30
0.0
 10
-21.9538086821
 20
24.7960300762
 30
0.0
 11
-21.5775822396
 21
24.7843268315
 31
0.0
 11
-21.6837425972
 21
24.8243117081
 31
0.0
 11
-21.784149686
 21
24.8398178937
 31
0.0
 11
-21.8752183013
 21
24.8302706928
 31
0.0
 11
-21.9538086821
 21
24.7960300762
 31
0.0
  0
SPLINE
  5
3CE
100
AcDbEntity
  8
ASSI
100
AcDbSpline
 62
253
  6
CONTINUOUS
 70
0
 71
3
 72
9
 73
5
 74
3
 42
0.0000001
 43
0.0000001
 44
0.0000000001
 12
0.5744014435
 22
-33.9646083902
 32
0.0
 13
4.5595899234
 23
-33.6620661851
 33
0.0
 40
0.0
 40
0.0
 40
0.0
 40
0.0
 40
0.5077589352
 40
1.0
 40
1.0
 40
1.0
 40
1.0
 10
-22.5187050338
 20
22.9882072907
 30
0.0
 10
-22.4214858787
 20
17.2395961606
 30
0.0
 10
-21.9215439959
 20
5.9207393324
 30
0.0
 10
-20.758343095
 20
-5.3505088862
 30
0.0
 10
-20.010203962
 20
-10.8737926537
 30
0.0
 11
-22.5187050338
 21
22.9882072907
 31
0.0
 11
-21.7427850954
 21
5.7573691898
 31
0.0
 11
-20.010203962
 21
-10.8737926537
 31
0.0
  0
SPLINE
  5
3CF
100
AcDbEntity
  8
ASSI
100
AcDbSpline
 62
253
  6
CONTINUOUS
 70
0
 71
3
 72
11
 73
7
 74
5
 42
0.0000001
 43
0.0000001
 44
0.0000000001
 12
-0.3441064428
 22
0.1715621411
 32
0.0
 13
-0.0065028344
 23
0.384448339
 33
0.0
 40
0.0
 40
0.0
 40
0.0
 40
0.0
 40
0.3000077971
 40
0.5621505641
 40
0.7910989897
 40
1.0
 40
1.0
 40
1.0
 40
1.0
 10
-22.5187050072
 20
22.9882073047
 30
0.0
 10
-22.5531165458
 20
23.0053639647
 30
0.0
 10
-22.6154433978
 20
23.0423481973
 30
0.0
 10
-22.6912441527
 20
23.1110011383
 30
0.0
 10
-22.7402431657
 20
23.187782962
 30
0.0
 10
-22.7525549586
 20
23.2441195135
 30
0.0
 10
-22.7530077748
 20
23.2708900623
 30
0.0
 11
-22.5187050072
 21
22.9882073047
 31
0.0
 11
-22.6172311309
 21
23.0482002018
 31
0.0
 11
-22.6908120477
 21
23.1170873109
 31
0.0
 11
-22.736632715
 21
23.1922537898
 31
0.0
 11
-22.7530077748
 21
23.2708900623
 31
0.0
  0
SPLINE
  5
3D0
100
AcDbEntity
  8
ASSI
100
AcDbSpline
 62
253
  6
CONTINUOUS
 70
0
 71
3
 72
11
 73
7
 74
5
 42
0.0000001
 43
0.0000001
 44
0.0000000001
 12
0.1002045886
 22
-0.7362170714
 32
0.0
 13
0.6613465103
 23
-0.3386404127
 33
0.0
 40
0.0
 40
0.0
 40
0.0
 40
0.0
 40
0.282402153
 40
0.5396278035
 40
0.7759749828
 40
1.0
 40
1.0
 40
1.0
 40
1.0
 10
-20.010203962
 20
-10.8737926537
 30
0.0
 10
-20.0007712981
 20
-10.943095749
 30
0.0
 10
-19.9721270543
 20
-11.0745165549
 30
0.0
 10
-19.8938534805
 20
-11.2517304425
 30
0.0
 10
-19.7838117283
 20
-11.3938245833
 30
0.0
 10
-19.6897988122
 20
-11.4617555182
 30
0.0
 10
-19.6404127577
 20
-11.487043493
 30
0.0
 11
-20.010203962
 21
-10.8737926537
 31
0.0
 11
-19.9637278518
 21
-11.0784069707
 31
0.0
 11
-19.8847128486
 21
-11.2524284332
 31
0.0
 11
-19.7757505792
 21
-11.3901422523
 31
0.0
 11
-19.6404127577
 21
-11.487043493
 31
0.0
  0
SPLINE
  5
3D1
100
AcDbEntity
  8
ASSI
100
AcDbSpline
 62
253
  6
CONTINUOUS
 70
0
 71
3
 72
11
 73
7
 74
5
 42
0.0000001
 43
0.0000001
 44
0.0000000001
 12
-0.3375846165
 22
0.1692138812
 32
0.0
 13
-0.0513203221
 23
0.3741162058
 33
0.0
 40
0.0
 40
0.0
 40
0.0
 40
0.0
 40
0.2836888937
 40
0.5410839695
 40
0.7767400229
 40
1.0
 40
1.0
 40
1.0
 40
1.0
 10
-20.010188927
 20
-10.8737822502
 30
0.0
 10
-20.0421119291
 20
-10.857780884
 30
0.0
 10
-20.1007770991
 20
-10.8223393695
 30
0.0
 10
-20.173270876
 20
-10.7555562614
 30
0.0
 10
-20.2233058732
 20
-10.6793063495
 30
0.0
 10
-20.240173611
 20
-10.6229890733
 30
0.0
 10
-20.243992869
 20
-10.5951473481
 30
0.0
 11
-20.010188927
 21
-10.8737822502
 31
0.0
 11
-20.1013833577
 21
-10.8175712915
 31
0.0
 11
-20.17214476
 21
-10.7509366659
 31
0.0
 11
-20.2201668607
 21
-10.6760179661
 31
0.0
 11
-20.243992869
 21
-10.5951473481
 31
0.0
  0
SPLINE
  5
3D2
100
AcDbEntity
  8
ASSI
100
AcDbSpline
 62
253
  6
CONTINUOUS
 70
0
 71
3
 72
11
 73
7
 74
5
 42
0.0000001
 43
0.0000001
 44
0.0000000001
 12
-0.672647898
 22
0.3375460593
 32
0.0
 13
-0.1021708227
 23
0.7456230012
 33
0.0
 40
0.0
 40
0.0
 40
0.0
 40
0.0
 40
0.225516376
 40
0.4622706852
 40
0.718920585
 40
1.0
 40
1.0
 40
1.0
 40
1.0
 10
10.4038057775
 20
-26.5091805419
 30
0.0
 10
10.3532414054
 20
-26.4838064872
 30
0.0
 10
10.2569666302
 20
-26.4156577903
 30
0.0
 10
10.1439561127
 20
-26.2724736649
 30
0.0
 10
10.0636777704
 20
-26.0937763798
 30
0.0
 10
10.0344061421
 20
-25.9611711122
 30
0.0
 10
10.024833437
 20
-25.8913113532
 30
0.0
 11
10.4038057775
 21
-26.5091805419
 31
0.0
 11
10.2649256903
 21
-26.4116218069
 31
0.0
 11
10.1531660219
 21
-26.2728502231
 31
0.0
 11
10.0722389978
 21
-26.0974688568
 31
0.0
 11
10.024833437
 21
-25.8913113532
 31
0.0
  0
SPLINE
  5
3D3
100
AcDbEntity
  8
ASSI
100
AcDbSpline
 62
253
  6
CONTINUOUS
 70
0
 71
3
 72
11
 73
7
 74
5
 42
0.0000001
 43
0.0000001
 44
0.0000000001
 12
0.3997668317
 22
0.2267221312
 32
0.0
 13
-0.0268526439
 23
0.458797755
 33
0.0
 40
0.0
 40
0.0
 40
0.0
 40
0.0
 40
0.2122942962
 40
0.4431582821
 40
0.7044898879
 40
1.0
 40
1.0
 40
1.0
 40
1.0
 10
11.5103211631
 20
-26.4542399502
 30
0.0
 10
11.5386105692
 20
-26.4381960118
 30
0.0
 10
11.5914148914
 20
-26.3926255847
 30
0.0
 10
11.6444465691
 20
-26.2966889448
 30
0.0
 10
11.6723804612
 20
-26.1781377477
 30
0.0
 10
11.6741581907
 20
-26.0922795046
 30
0.0
 10
11.6715131147
 20
-26.0470863793
 30
0.0
 11
11.5103211631
 21
-26.4542399502
 31
0.0
 11
11.5847398851
 21
-26.3911436752
 31
0.0
 11
11.637841706
 21
-26.2992870005
 31
0.0
 11
11.667210658
 21
-26.1828296071
 31
0.0
 11
11.6715131147
 21
-26.0470863793
 31
0.0
  0
SPLINE
  5
3D4
100
AcDbEntity
  8
ASSI
100
AcDbSpline
 62
253
  6
CONTINUOUS
 70
0
 71
3
 72
15
 73
11
 74
9
 42
0.0000001
 43
0.0000001
 44
0.0000000001
 12
-0.6281901287
 22
-0.3559276693
 32
0.0
 13
-0.0985033639
 23
0.7152652871
 33
0.0
 40
0.0
 40
0.0
 40
0.0
 40
0.0
 40
0.1419880111
 40
0.2717623242
 40
0.3910770699
 40
0.504080286
 40
0.6163847127
 40
0.7337987453
 40
0.8609201907
 40
1.0
 40
1.0
 40
1.0
 40
1.0
 10
11.6715131147
 20
-26.0470863793
 30
0.0
 10
11.6417812924
 20
-26.0639321999
 30
0.0
 10
11.5820964325
 20
-26.0916992906
 30
0.0
 10
11.4898362273
 20
-26.1137723729
 30
0.0
 10
11.4016781485
 20
-26.1130658986
 30
0.0
 10
11.321051835
 20
-26.088892534
 30
0.0
 10
11.251797571
 20
-26.041810935
 30
0.0
 10
11.1969301171
 20
-25.9743487243
 30
0.0
 10
11.1581360878
 20
-25.8896927001
 30
0.0
 10
11.1440542277
 20
-25.8267311882
 30
0.0
 10
11.139487618
 20
-25.7935715349
 30
0.0
 11
11.6715131147
 21
-26.0470863793
 31
0.0
 11
11.5782054572
 21
-26.0895545724
 31
0.0
 11
11.486857841
 21
-26.1104146801
 31
0.0
 11
11.4007244292
 21
-26.1088748201
 31
0.0
 11
11.3226954388
 21
-26.0850330704
 31
0.0
 11
11.2554825689
 21
-26.0396755292
 31
0.0
 11
11.2013899227
 21
-25.9744010522
 31
0.0
 11
11.1622731161
 21
-25.8913701537
 31
0.0
 11
11.139487618
 21
-25.7935715349
 31
0.0
  0
SPLINE
  5
3D5
100
AcDbEntity
  8
ASSI
100
AcDbSpline
 62
253
  6
CONTINUOUS
 70
0
 71
3
 72
9
 73
5
 74
3
 42
0.0000001
 43
0.0000001
 44
0.0000000001
 12
-4.6239212963
 22
33.654275054
 32
0.0
 13
-0.5089219034
 23
33.9666288592
 33
0.0
 40
0.0
 40
0.0
 40
0.0
 40
0.0
 40
0.4925281361
 40
1.0
 40
1.0
 40
1.0
 40
1.0
 10
10.024833437
 20
-25.8913113532
 30
0.0
 10
9.2656963246
 20
-20.3660855655
 30
0.0
 10
8.0914842949
 20
-9.095144795
 30
0.0
 10
7.6024202142
 20
2.2249857717
 30
0.0
 10
7.5163323652
 20
7.9706885912
 30
0.0
 11
10.024833437
 21
-25.8913113532
 31
0.0
 11
8.2752373059
 21
-9.2516420108
 31
0.0
 11
7.5163323652
 21
7.9706885912
 31
0.0
  0
SPLINE
  5
3D6
100
AcDbEntity
  8
ASSI
100
AcDbSpline
 62
253
  6
CONTINUOUS
 70
0
 71
3
 72
9
 73
5
 74
3
 42
0.0000001
 43
0.0000001
 44
0.0000000001
 12
-4.6116704687
 22
33.5645206983
 32
0.0
 13
-0.5074828142
 23
33.8760537166
 33
0.0
 40
0.0
 40
0.0
 40
0.0
 40
0.0
 40
0.4925285239
 40
1.0
 40
1.0
 40
1.0
 40
1.0
 10
11.139487618
 20
-25.7935715349
 30
0.0
 10
10.3823612019
 20
-20.2830769236
 30
0.0
 10
9.2112643016
 20
-9.0421925666
 30
0.0
 10
8.7235202334
 20
2.247752748
 30
0.0
 10
8.6376758824
 20
7.978129743
 30
0.0
 11
11.139487618
 21
-25.7935715349
 31
0.0
 11
9.3945346471
 21
-9.1982631446
 31
0.0
 11
8.6376758824
 21
7.978129743
 31
0.0
  0
SPLINE
  5
3D7
100
AcDbEntity
  8
ASSI
100
AcDbSpline
 62
253
  6
CONTINUOUS
 70
0
 71
3
 72
11
 73
7
 74
5
 42
0.0000001
 43
0.0000001
 44
0.0000000001
 12
1.038590314
 22
-0.5179968077
 32
0.0
 13
0.9637653578
 23
0.6466427671
 33
0.0
 40
0.0
 40
0.0
 40
0.0
 40
0.0
 40
0.2304190065
 40
0.4898047461
 40
0.7547387993
 40
1.0
 40
1.0
 40
1.0
 40
1.0
 10
10.024833461
 20
-25.8913113366
 30
0.0
 10
10.1046037771
 20
-25.9310967732
 30
0.0
 10
10.2905071023
 20
-25.9830374276
 30
0.0
 10
10.5846687725
 20
-25.9891231095
 30
0.0
 10
10.8787732425
 20
-25.9300340095
 30
0.0
 10
11.0606962017
 20
-25.8464369954
 30
0.0
 10
11.139487618
 20
-25.7935715349
 30
0.0
 11
10.024833461
 21
-25.8913113366
 31
0.0
 11
10.2806193177
 21
-25.9693450104
 31
0.0
 11
10.5815322036
 21
-25.9781911284
 31
0.0
 11
10.8827713756
 21
-25.9165445753
 31
0.0
 11
11.139487618
 21
-25.7935715349
 31
0.0
  0
SPLINE
  5
3D8
100
AcDbEntity
  8
ASSI
100
AcDbSpline
 62
253
  6
CONTINUOUS
 70
0
 71
3
 72
11
 73
7
 74
5
 42
0.0000001
 43
0.0000001
 44
0.0000000001
 12
-0.0323050279
 22
2.1023524887
 32
0.0
 13
1.7872218417
 23
1.1075954542
 33
0.0
 40
0.0
 40
0.0
 40
0.0
 40
0.0
 40
0.2422239788
 40
0.5037752721
 40
0.7632803421
 40
1.0
 40
1.0
 40
1.0
 40
1.0
 10
7.5163323652
 20
7.9706885912
 30
0.0
 10
7.5137240144
 20
8.1404353194
 30
0.0
 10
7.5652323599
 20
8.4949499157
 30
0.0
 10
7.7658918715
 20
8.9953363472
 30
0.0
 10
8.0688417407
 20
9.4366304083
 30
0.0
 10
8.3333698987
 20
9.6709424661
 30
0.0
 10
8.4743934131
 20
9.7583390051
 30
0.0
 11
7.5163323652
 21
7.9706885912
 31
0.0
 11
7.581966
 21
8.4757420766
 31
0.0
 11
7.7844029268
 21
8.9870648837
 31
0.0
 11
8.0960403621
 21
9.4349490726
 31
0.0
 11
8.4743934131
 21
9.7583390051
 31
0.0
  0
SPLINE
  5
3D9
100
AcDbEntity
  8
ASSI
100
AcDbSpline
 62
253
  6
CONTINUOUS
 70
0
 71
3
 72
11
 73
7
 74
5
 42
0.0000001
 43
0.0000001
 44
0.0000000001
 12
-0.0144357967
 22
0.9818238823
 32
0.0
 13
0.8384091872
 23
0.5111326276
 33
0.0
 40
0.0
 40
0.0
 40
0.0
 40
0.0
 40
0.2419105201
 40
0.5031724966
 40
0.7627119008
 40
1.0
 40
1.0
 40
1.0
 40
1.0
 10
8.6376758824
 20
7.978129743
 30
0.0
 10
8.6365118254
 20
8.0573009183
 30
0.0
 10
8.66085778
 20
8.2226636075
 30
0.0
 10
8.755569869
 20
8.4557821686
 30
0.0
 10
8.8984279051
 20
8.6610870158
 30
0.0
 10
9.0229730649
 20
8.7696796057
 30
0.0
 10
9.0892879057
 20
8.810108169
 30
0.0
 11
8.6376758824
 21
7.978129743
 31
0.0
 11
8.6687364678
 21
8.2136294464
 31
0.0
 11
8.764206772
 21
8.4517443176
 31
0.0
 11
8.9110591182
 21
8.6600293869
 31
0.0
 11
9.0892879057
 21
8.810108169
 31
0.0
  0
SPLINE
  5
3DA
100
AcDbEntity
  8
ASSI
100
AcDbSpline
 62
253
  6
CONTINUOUS
 70
0
 71
3
 72
11
 73
7
 74
5
 42
0.0000001
 43
0.0000001
 44
0.0000000001
 12
1.0307079731
 22
-0.5168254689
 32
0.0
 13
1.0287476332
 23
0.52071662
 33
0.0
 40
0.0
 40
0.0
 40
0.0
 40
0.0
 40
0.2343057769
 40
0.4977064263
 40
0.7623419883
 40
1.0
 40
1.0
 40
1.0
 40
1.0
 10
7.516347581
 20
7.9706965546
 30
0.0
 10
7.5968478585
 20
7.9303314903
 30
0.0
 10
7.7820884162
 20
7.8730436419
 30
0.0
 10
8.0755761463
 20
7.8471590531
 30
0.0
 10
8.3699766092
 20
7.8772085482
 30
0.0
 10
8.5561791767
 20
7.9368789175
 30
0.0
 10
8.6376758824
 20
7.978129743
 30
0.0
 11
7.516347581
 21
7.9706965546
 31
0.0
 11
7.7726708016
 21
7.8853437315
 31
0.0
 11
8.0750358947
 21
7.8568187447
 31
0.0
 11
8.3784273867
 21
7.8893586311
 31
0.0
 11
8.6376758824
 21
7.978129743
 31
0.0
  0
SPLINE
  5
3DB
100
AcDbEntity
  8
CURVE
100
AcDbSpline
 62
253
  6
CONTINUOUS
 70
0
 71
3
 72
29
 73
25
 74
23
 42
0.0000001
 43
0.0000001
 44
0.0000000001
 12
0.1905824406
 22
-1.703425626
 32
0.0
 13
0.1109747586
 23
-0.9698649255
 33
0.0
 40
0.0
 40
0.0
 40
0.0
 40
0.0
 40
0.125
 40
0.1875
 40
0.25
 40
0.3125
 40
0.375
 40
0.40625
 40
0.4375
 40
0.46875
 40
0.484375
 40
0.4921875
 40
0.5
 40
0.5078125
 40
0.515625
 40
0.53125
 40
0.5625
 40
0.59375
 40
0.625
 40
0.6875
 40
0.75
 40
0.8125
 40
0.875
 40
1.0
 40
1.0
 40
1.0
 40
1.0
 10
-15.2315098032
 20
-6.9297363981
 30
0.0
 10
-15.2235688682
 20
-7.0007124659
 30
0.0
 10
-15.2116574515
 20
-7.1071766977
 30
0.0
 10
-15.1957756192
 20
-7.2491284861
 30
0.0
 10
-15.1838641036
 20
-7.3555936289
 30
0.0
 10
-15.1719531248
 20
-7.4620538259
 30
0.0
 10
-15.1620256377
 20
-7.5507860585
 30
0.0
 10
-15.1540873911
 20
-7.6217373532
 30
0.0
 10
-15.1481234798
 20
-7.6750450573
 30
0.0
 10
-15.1431860821
 20
-7.7191684051
 30
0.0
 10
-15.1396660681
 20
-7.7506429735
 30
0.0
 10
-15.1377543054
 20
-7.7677099772
 30
0.0
 10
-15.1360397006
 20
-7.7830975575
 30
0.0
 10
-15.1353983898
 20
-7.7885950596
 30
0.0
 10
-15.1341689317
 20
-7.7993748325
 30
0.0
 10
-15.1321918092
 20
-7.8166321231
 30
0.0
 10
-15.1292761549
 20
-7.8421257168
 30
0.0
 10
-15.1258164037
 20
-7.8723583424
 30
0.0
 10
-15.121189767
 20
-7.912794154
 30
0.0
 10
-15.11541115
 20
-7.9632958043
 30
0.0
 10
-15.1084748038
 20
-8.0239162668
 30
0.0
 10
-15.1015389944
 20
-8.0845317834
 30
0.0
 10
-15.0922910602
 20
-8.1653542076
 30
0.0
 10
-15.0853551519
 20
-8.2259706353
 30
0.0
 10
-15.0807312036
 20
-8.2663816739
 30
0.0
 11
-15.2315098032
 21
-6.9297363981
 31
0.0
 11
-15.2076869982
 21
-7.1426646014
 31
0.0
 11
-15.1957755956
 21
-7.249128703
 31
0.0
 11
-15.1838641931
 21
-7.3555928046
 31
0.0
 11
-15.1719527905
 21
-7.4620569062
 31
0.0
 11
-15.160041388
 21
-7.5685210079
 31
0.0
 11
-15.1540856867
 21
-7.6217530587
 31
0.0
 11
-15.1481299855
 21
-7.6749851095
 31
0.0
 11
-15.1421742842
 21
-7.7282171603
 31
0.0
 11
-15.1391964336
 21
-7.7548331857
 31
0.0
 11
-15.1377075083
 21
-7.7681411984
 31
0.0
 11
-15.1362185829
 21
-7.7814492111
 31
0.0
 11
-15.1353515926
 21
-7.7890262809
 31
0.0
 11
-15.1344846023
 21
-7.7966033506
 31
0.0
 11
-15.1327506217
 21
-7.81175749
 31
0.0
 11
-15.1292826605
 21
-7.842065769
 31
0.0
 11
-15.1258146993
 21
-7.8723740479
 31
0.0
 11
-15.1223467381
 21
-7.9026823268
 31
0.0
 11
-15.1154108157
 21
-7.9632988847
 31
0.0
 11
-15.1084748933
 21
-8.0239154425
 31
0.0
 11
-15.1015389709
 21
-8.0845320003
 31
0.0
 11
-15.0946030485
 21
-8.1451485582
 31
0.0
 11
-15.0807312036
 21
-8.2663816739
 31
0.0
  0
SPLINE
  5
3DC
100
AcDbEntity
  8
CURVE
100
AcDbSpline
 62
253
  6
CONTINUOUS
 70
0
 71
3
 72
19
 73
15
 74
13
 42
0.0000001
 43
0.0000001
 44
0.0000000001
 12
0.1905824406
 22
-1.703425626
 32
0.0
 13
0.2143187588
 23
-1.8592467876
 33
0.0
 40
0.0
 40
0.0
 40
0.0
 40
0.0
 40
0.125
 40
0.25
 40
0.375
 40
0.4375
 40
0.46875
 40
0.5
 40
0.53125
 40
0.5625
 40
0.625
 40
0.75
 40
0.875
 40
1.0
 40
1.0
 40
1.0
 40
1.0
 10
-16.3931852572
 20
-6.3488986712
 30
0.0
 10
-16.3852443221
 20
-6.4198747389
 30
0.0
 10
-16.3693602196
 20
-6.5618415303
 30
0.0
 10
-16.3455474609
 20
-6.7747037821
 30
0.0
 10
-16.325664426
 20
-6.9523454697
 30
0.0
 10
-16.3118224868
 20
-7.0761945195
 30
0.0
 10
-16.3037939248
 20
-7.14774583
 30
0.0
 10
-16.2981073836
 20
-7.199210933
 30
0.0
 10
-16.2911407623
 20
-7.2590793429
 30
0.0
 10
-16.282298441
 20
-7.3359727163
 30
0.0
 10
-16.2666163344
 20
-7.4719018633
 30
0.0
 10
-16.2443221611
 20
-7.6653718855
 30
0.0
 10
-16.2175222698
 20
-7.8978436854
 30
0.0
 10
-16.1996646058
 20
-8.0527662618
 30
0.0
 10
-16.1907346575
 20
-8.130234878
 30
0.0
 11
-16.3931852572
 21
-6.3488986712
 31
0.0
 11
-16.3693624521
 21
-6.5618268744
 31
0.0
 11
-16.345539647
 21
-6.7747550777
 31
0.0
 11
-16.3217168419
 21
-6.9876832809
 31
0.0
 11
-16.3098054394
 21
-7.0941473825
 31
0.0
 11
-16.3038497381
 21
-7.1473794333
 31
0.0
 11
-16.2978940369
 21
-7.2006114842
 31
0.0
 11
-16.2911965757
 21
-7.2587129463
 31
0.0
 11
-16.2844991144
 21
-7.3168144084
 31
0.0
 11
-16.271104192
 21
-7.4330173326
 31
0.0
 11
-16.2443143472
 21
-7.6654231811
 31
0.0
 11
-16.2175245023
 21
-7.8978290295
 31
0.0
 11
-16.1907346575
 21
-8.130234878
 31
0.0
  0
SPLINE
  5
3DD
100
AcDbEntity
  8
CURVE
100
AcDbSpline
 62
253
  6
CONTINUOUS
 70
0
 71
3
 72
33
 73
29
 74
27
 42
0.0000001
 43
0.0000001
 44
0.0000000001
 12
-0.1927005767
 22
1.7020280158
 32
0.0
 13
-0.0485450622
 23
0.4366043692
 33
0.0
 40
0.0
 40
0.0
 40
0.0
 40
0.0
 40
0.125
 40
0.1875
 40
0.25
 40
0.3125
 40
0.375
 40
0.40625
 40
0.4375
 40
0.453125
 40
0.46875
 40
0.484375
 40
0.4921875
 40
0.49609375
 40
0.5
 40
0.50390625
 40
0.5078125
 40
0.515625
 40
0.53125
 40
0.546875
 40
0.5625
 40
0.59375
 40
0.625
 40
0.6875
 40
0.75
 40
0.8125
 40
0.875
 40
1.0
 40
1.0
 40
1.0
 40
1.0
 10
-15.5607652424
 20
-7.9005557341
 30
0.0
 10
-15.5687944331
 20
-7.8296379001
 30
0.0
 10
-15.5808382215
 20
-7.7232611276
 30
0.0
 10
-15.5968965964
 20
-7.5814255169
 30
0.0
 10
-15.608940402
 20
-7.4750485941
 30
0.0
 10
-15.6209841147
 20
-7.3686724875
 30
0.0
 10
-15.6310208314
 20
-7.2800231901
 30
0.0
 10
-15.6390495564
 20
-7.2091094447
 30
0.0
 10
-15.6440689859
 20
-7.1647753935
 30
0.0
 10
-15.6480811482
 20
-7.1293378343
 30
0.0
 10
-15.651099528
 20
-7.1026783958
 30
0.0
 10
-15.6535853931
 20
-7.0807207264
 30
0.0
 10
-15.6553832961
 20
-7.0648430015
 30
0.0
 10
-15.6563204234
 20
-7.0565622107
 30
0.0
 10
-15.6572774929
 20
-7.0481199921
 30
0.0
 10
-15.6572627892
 20
-7.0482081779
 30
0.0
 10
-15.6575821496
 20
-7.0453502584
 30
0.0
 10
-15.6579831001
 20
-7.0417352402
 30
0.0
 10
-15.6586384542
 20
-7.0358461338
 30
0.0
 10
-15.6593895375
 20
-7.0290894412
 30
0.0
 10
-15.660403326
 20
-7.0199721591
 30
0.0
 10
-15.661666335
 20
-7.0086126586
 30
0.0
 10
-15.6636895117
 20
-6.9904167213
 30
0.0
 10
-15.666217672
 20
-6.9676789153
 30
0.0
 10
-15.6692518118
 20
-6.9403904978
 30
0.0
 10
-15.6722858586
 20
-6.9131028966
 30
0.0
 10
-15.6763312869
 20
-6.8767191419
 30
0.0
 10
-15.6793653509
 20
-6.8494313903
 30
0.0
 10
-15.6813880618
 20
-6.8312395416
 30
0.0
 11
-15.5607652424
 21
-7.9005557341
 31
0.0
 11
-15.5848528144
 21
-7.6878022321
 31
0.0
 11
-15.5968966005
 21
-7.5814254811
 31
0.0
 11
-15.6089403865
 21
-7.4750487301
 31
0.0
 11
-15.6209841726
 21
-7.3686719791
 31
0.0
 11
-15.6330279586
 21
-7.2622952282
 31
0.0
 11
-15.6390498517
 21
-7.2091068527
 31
0.0
 11
-15.6450717447
 21
-7.1559184772
 31
0.0
 11
-15.6480826912
 21
-7.1293242894
 31
0.0
 11
-15.6510936377
 21
-7.1027301017
 31
0.0
 11
-15.6541045842
 21
-7.0761359139
 31
0.0
 11
-15.6556100575
 21
-7.0628388201
 31
0.0
 11
-15.6563627941
 21
-7.0561902731
 31
0.0
 11
-15.6571155307
 21
-7.0495417262
 31
0.0
 11
-15.6573051599
 21
-7.0478362404
 31
0.0
 11
-15.657494789
 21
-7.0461307545
 31
0.0
 11
-15.6578740473
 21
-7.0427197829
 31
0.0
 11
-15.6586325639
 21
-7.0358978396
 31
0.0
 11
-15.6593910805
 21
-7.0290758964
 31
0.0
 11
-15.6601495971
 21
-7.0222539531
 31
0.0
 11
-15.6616666303
 21
-7.0086100666
 31
0.0
 11
-15.6631836635
 21
-6.99496618
 31
0.0
 11
-15.6662177299
 21
-6.967678407
 31
0.0
 11
-15.6692517963
 21
-6.9403906339
 31
0.0
 11
-15.6722858626
 21
-6.9131028608
 31
0.0
 11
-15.675319929
 21
-6.8858150877
 31
0.0
 11
-15.6813880618
 21
-6.8312395416
 31
0.0
  0
SPLINE
  5
3DE
100
AcDbEntity
  8
RACCORDO
100
AcDbSpline
 62
253
  6
CONTINUOUS
 70
0
 71
3
 72
15
 73
11
 74
9
 42
0.0000001
 43
0.0000001
 44
0.0000000001
 12
-0.6281900661
 22
-0.3559276339
 32
0.0
 13
-0.0985033541
 23
0.7152652158
 33
0.0
 40
0.0
 40
0.0
 40
0.0
 40
0.0
 40
0.1419899561
 40
0.271764719
 40
0.3910771179
 40
0.5040798363
 40
0.6163838131
 40
0.7337956854
 40
0.8609180374
 40
1.0
 40
1.0
 40
1.0
 40
1.0
 10
11.6715131147
 20
-26.0470863793
 30
0.0
 10
11.6417808881
 20
-26.063932429
 30
0.0
 10
11.582095166
 20
-26.0916988435
 30
0.0
 10
11.4898351996
 20
-26.1137731513
 30
0.0
 10
11.4016777154
 20
-26.1130654372
 30
0.0
 10
11.3210520834
 20
-26.0888927686
 30
0.0
 10
11.2517986607
 20
-26.0418113912
 30
0.0
 10
11.1969303247
 20
-25.9743504124
 30
0.0
 10
11.1581373598
 20
-25.8896936077
 30
0.0
 10
11.144054298
 20
-25.8267316983
 30
0.0
 10
11.139487618
 20
-25.7935715349
 30
0.0
 11
11.6715131147
 21
-26.0470863793
 31
0.0
 11
11.578203964
 21
-26.089554657
 31
0.0
 11
11.4868561118
 21
-26.1104151478
 31
0.0
 11
11.4007244129
 21
-26.1088747472
 31
0.0
 11
11.3226957398
 21
-26.0850332164
 31
0.0
 11
11.2554831086
 21
-26.0396759169
 31
0.0
 11
11.2013908895
 21
-25.9744031226
 31
0.0
 11
11.1622740662
 21
-25.8913715184
 31
0.0
 11
11.139487618
 21
-25.7935715349
 31
0.0
  0
SPLINE
  5
3DF
100
AcDbEntity
  8
RACCORDO
100
AcDbSpline
 62
253
  6
CONTINUOUS
 70
0
 71
3
 72
9
 73
5
 74
3
 42
0.0000001
 43
0.0000001
 44
0.0000000001
 12
-4.6239213015
 22
33.6542750923
 32
0.0
 13
-0.508921904
 23
33.9666288979
 33
0.0
 40
0.0
 40
0.0
 40
0.0
 40
0.0
 40
0.492528127
 40
1.0
 40
1.0
 40
1.0
 40
1.0
 10
10.024833437
 20
-25.8913113532
 30
0.0
 10
9.2656963377
 20
-20.3660856608
 30
0.0
 10
8.0914830337
 20
-9.0951449929
 30
0.0
 10
7.6024202158
 20
2.2249856626
 30
0.0
 10
7.5163323652
 20
7.9706885912
 30
0.0
 11
10.024833437
 21
-25.8913113532
 31
0.0
 11
8.2752366943
 21
-9.2516423654
 31
0.0
 11
7.5163323652
 21
7.9706885912
 31
0.0
  0
SPLINE
  5
3E0
100
AcDbEntity
  8
RACCORDO
100
AcDbSpline
 62
253
  6
CONTINUOUS
 70
0
 71
3
 72
9
 73
5
 74
3
 42
0.0000001
 43
0.0000001
 44
0.0000000001
 12
-4.6116704761
 22
33.5645207525
 32
0.0
 13
-0.507482815
 23
33.8760537714
 33
0.0
 40
0.0
 40
0.0
 40
0.0
 40
0.0
 40
0.4925285108
 40
1.0
 40
1.0
 40
1.0
 40
1.0
 10
11.139487618
 20
-25.7935715349
 30
0.0
 10
10.3823612207
 20
-20.2830770611
 30
0.0
 10
9.2112625124
 20
-9.0421928496
 30
0.0
 10
8.7235202357
 20
2.247752591
 30
0.0
 10
8.6376758824
 20
7.978129743
 30
0.0
 11
11.139487618
 21
-25.7935715349
 31
0.0
 11
9.3945337799
 21
-9.1982636542
 31
0.0
 11
8.6376758824
 21
7.978129743
 31
0.0
  0
SPLINE
  5
3E1
100
AcDbEntity
  8
RACCORDO
100
AcDbSpline
 62
253
  6
CONTINUOUS
 70
0
 71
3
 72
11
 73
7
 74
5
 42
0.0000001
 43
0.0000001
 44
0.0000000001
 12
1.0385878419
 22
-0.517995578
 32
0.0
 13
0.9637630651
 23
0.6466412286
 33
0.0
 40
0.0
 40
0.0
 40
0.0
 40
0.0
 40
0.2304400983
 40
0.4898062219
 40
0.7547163385
 40
1.0
 40
1.0
 40
1.0
 40
1.0
 10
10.024833461
 20
-25.8913113366
 30
0.0
 10
10.1046108892
 20
-25.9311003206
 30
0.0
 10
10.2905144125
 20
-25.9830529334
 30
0.0
 10
10.5846655907
 20
-25.9890850755
 30
0.0
 10
10.8787692093
 20
-25.9300506948
 30
0.0
 10
11.0606891735
 20
-25.846441711
 30
0.0
 10
11.139487618
 20
-25.7935715349
 30
0.0
 11
10.024833461
 21
-25.8913113366
 31
0.0
 11
10.2806421294
 21
-25.9693519462
 31
0.0
 11
10.5815322824
 21
-25.9781721887
 31
0.0
 11
10.8827484667
 21
-25.9165555238
 31
0.0
 11
11.139487618
 21
-25.7935715349
 31
0.0
  0
SPLINE
  5
3E2
100
AcDbEntity
  8
RACCORDO
100
AcDbSpline
 62
253
  6
CONTINUOUS
 70
0
 71
3
 72
11
 73
7
 74
5
 42
0.0000001
 43
0.0000001
 44
0.0000000001
 12
-0.0323050303
 22
2.102352644
 32
0.0
 13
1.7872219737
 23
1.107595536
 33
0.0
 40
0.0
 40
0.0
 40
0.0
 40
0.0
 40
0.2422402324
 40
0.5037755981
 40
0.7632648341
 40
1.0
 40
1.0
 40
1.0
 40
1.0
 10
7.5163323652
 20
7.9706885912
 30
0.0
 10
7.5137238392
 20
8.1404467223
 30
0.0
 10
7.5652336315
 20
8.4949621121
 30
0.0
 10
7.7658947879
 20
8.9953356034
 30
0.0
 10
8.0688347147
 20
9.436621311
 30
0.0
 10
8.3333606495
 20
9.6709367341
 30
0.0
 10
8.4743934131
 20
9.7583390051
 30
0.0
 11
7.5163323652
 21
7.9706885912
 31
0.0
 11
7.581973553
 21
8.4757755953
 31
0.0
 11
7.7844031597
 21
8.9870653257
 31
0.0
 11
8.0960185633
 21
9.4349243343
 31
0.0
 11
8.4743934131
 21
9.7583390051
 31
0.0
  0
SPLINE
  5
3E3
100
AcDbEntity
  8
RACCORDO
100
AcDbSpline
 62
253
  6
CONTINUOUS
 70
0
 71
3
 72
11
 73
7
 74
5
 42
0.0000001
 43
0.0000001
 44
0.0000000001
 12
-0.0144357981
 22
0.981823977
 32
0.0
 13
0.838409268
 23
0.5111326769
 33
0.0
 40
0.0
 40
0.0
 40
0.0
 40
0.0
 40
0.2419135916
 40
0.5031730388
 40
0.76270964
 40
1.0
 40
1.0
 40
1.0
 40
1.0
 10
8.6376758824
 20
7.978129743
 30
0.0
 10
8.6365118105
 20
8.0573019312
 30
0.0
 10
8.660857738
 20
8.2226649104
 30
0.0
 10
8.7555704282
 20
8.4557823791
 30
0.0
 10
8.8984272403
 20
8.661086795
 30
0.0
 10
9.0229724267
 20
8.7696792167
 30
0.0
 10
9.0892879057
 20
8.810108169
 30
0.0
 11
8.6376758824
 21
7.978129743
 31
0.0
 11
8.66873706
 21
8.2136324336
 31
0.0
 11
8.7642070271
 21
8.4517447907
 31
0.0
 11
8.9110574669
 21
8.6600278666
 31
0.0
 11
9.0892879057
 21
8.810108169
 31
0.0
  0
SPLINE
  5
3E4
100
AcDbEntity
  8
RACCORDO
100
AcDbSpline
 62
253
  6
CONTINUOUS
 70
0
 71
3
 72
11
 73
7
 74
5
 42
0.0000001
 43
0.0000001
 44
0.0000000001
 12
1.0307061374
 22
-0.5168245052
 32
0.0
 13
1.0287457836
 23
0.5207156841
 33
0.0
 40
0.0
 40
0.0
 40
0.0
 40
0.0
 40
0.2343270946
 40
0.4977067599
 40
0.7623203682
 40
1.0
 40
1.0
 40
1.0
 40
1.0
 10
7.516347581
 20
7.9706965546
 30
0.0
 10
7.5968550392
 20
7.9303278931
 30
0.0
 10
7.7820947513
 20
7.8730296761
 30
0.0
 10
8.0755759572
 20
7.8471923129
 30
0.0
 10
8.3699705733
 20
7.8771944633
 30
0.0
 10
8.5561719093
 20
7.936875239
 30
0.0
 10
8.6376758824
 20
7.978129743
 30
0.0
 11
7.516347581
 21
7.9706965546
 31
0.0
 11
7.7726936687
 21
7.8853361406
 31
0.0
 11
8.0750361741
 21
7.856835153
 31
0.0
 11
8.3784042621
 21
7.8893507339
 31
0.0
 11
8.6376758824
 21
7.978129743
 31
0.0
  0
SPLINE
  5
3E5
100
AcDbEntity
  8
RACCORDO
100
AcDbSpline
 62
253
  6
CONTINUOUS
 70
0
 71
3
 72
11
 73
7
 74
5
 42
0.0000001
 43
0.0000001
 44
0.0000000001
 12
1.0356784495
 22
-0.5384876393
 32
0.0
 13
0.1045298901
 23
-1.1626144204
 33
0.0
 40
0.0
 40
0.0
 40
0.0
 40
0.0
 40
0.231475769
 40
0.4931008298
 40
0.7584619347
 40
1.0
 40
1.0
 40
1.0
 40
1.0
 10
8.4743934131
 20
9.7583390051
 30
0.0
 10
8.5543049016
 20
9.7167900583
 30
0.0
 10
8.7082621005
 20
9.5970500912
 30
0.0
 10
8.8942474105
 20
9.3654388525
 30
0.0
 10
9.0311983101
 20
9.0974067674
 30
0.0
 10
9.0808719232
 20
8.9037133816
 30
0.0
 10
9.0892879057
 20
8.810108169
 30
0.0
 11
8.4743934131
 21
9.7583390051
 31
0.0
 11
8.691567543
 21
9.5975756819
 31
0.0
 11
8.8846271681
 21
9.3609436962
 31
0.0
 11
9.0243018261
 21
9.0844650364
 31
0.0
 11
9.0892879057
 21
8.810108169
 31
0.0
  0
SPLINE
  5
3E6
100
AcDbEntity
  8
RACCORDO
100
AcDbSpline
 62
253
  6
CONTINUOUS
 70
0
 71
3
 72
11
 73
7
 74
5
 42
0.0000001
 43
0.0000001
 44
0.0000000001
 12
-1.7702371877
 22
-1.1298308485
 32
0.0
 13
0.0341833914
 23
-2.0997830704
 33
0.0
 40
0.0
 40
0.0
 40
0.0
 40
0.0
 40
0.2357463194
 40
0.4951547554
 40
0.7571859063
 40
1.0
 40
1.0
 40
1.0
 40
1.0
 10
-21.5775822396
 20
24.7843268315
 30
0.0
 10
-21.7166912067
 20
24.6955423434
 30
0.0
 10
-21.9771056455
 20
24.4584887654
 30
0.0
 10
-22.274460926
 20
24.0148414515
 30
0.0
 10
-22.4711735368
 20
23.5130001786
 30
0.0
 10
-22.5214717702
 20
23.1581595985
 30
0.0
 10
-22.5187050338
 20
22.9882072907
 30
0.0
 11
-21.5775822396
 21
24.7843268315
 31
0.0
 11
-21.9497091242
 21
24.457788178
 31
0.0
 11
-22.2559677543
 21
24.0072507827
 31
0.0
 11
-22.4546639547
 21
23.4940943491
 31
0.0
 11
-22.5187050338
 21
22.9882072907
 31
0.0
  0
SPLINE
  5
3E7
100
AcDbEntity
  8
RACCORDO
100
AcDbSpline
 62
253
  6
CONTINUOUS
 70
0
 71
3
 72
11
 73
7
 74
5
 42
0.0000001
 43
0.0000001
 44
0.0000000001
 12
-0.3534808958
 22
0.1699335111
 32
0.0
 13
-0.3291365379
 23
-0.213296229
 33
0.0
 40
0.0
 40
0.0
 40
0.0
 40
0.0
 40
0.2888824832
 40
0.5481345259
 40
0.7815429169
 40
1.0
 40
1.0
 40
1.0
 40
1.0
 10
-21.5775822396
 20
24.7843268315
 30
0.0
 10
-21.6116203859
 20
24.8006904363
 30
0.0
 10
-21.6788675856
 20
24.8267302743
 30
0.0
 10
-21.7804796127
 20
24.8438773457
 30
0.0
 10
-21.8742876777
 20
24.8353851501
 30
0.0
 10
-21.9297244969
 20
24.8116005816
 30
0.0
 10
-21.9536918996
 20
24.7960685576
 30
0.0
 11
-21.5775822396
 21
24.7843268315
 31
0.0
 11
-21.683618883
 21
24.824245461
 31
0.0
 11
-21.7840991146
 21
24.8398219659
 31
0.0
 11
-21.8751469308
 21
24.8303002581
 31
0.0
 11
-21.9536918996
 21
24.7960685576
 31
0.0
  0
SPLINE
  5
3E8
100
AcDbEntity
  8
RACCORDO
100
AcDbSpline
 62
253
  6
CONTINUOUS
 70
0
 71
3
 72
9
 73
5
 74
3
 42
0.0000001
 43
0.0000001
 44
0.0000000001
 12
0.5744014441
 22
-33.964608426
 32
0.0
 13
4.5595899282
 23
-33.6620662205
 33
0.0
 40
0.0
 40
0.0
 40
0.0
 40
0.0
 40
0.5077589448
 40
1.0
 40
1.0
 40
1.0
 40
1.0
 10
-22.5187050338
 20
22.9882072907
 30
0.0
 10
-22.4214858768
 20
17.2395960462
 30
0.0
 10
-21.9215451994
 20
5.9207391331
 30
0.0
 10
-20.7583430812
 20
-5.3505089877
 30
0.0
 10
-20.010203962
 20
-10.8737926537
 30
0.0
 11
-22.5187050338
 21
22.9882072907
 31
0.0
 11
-21.742785677
 21
5.7573688202
 31
0.0
 11
-20.010203962
 21
-10.8737926537
 31
0.0
  0
SPLINE
  5
3E9
100
AcDbEntity
  8
RACCORDO
100
AcDbSpline
 62
253
  6
CONTINUOUS
 70
0
 71
3
 72
11
 73
7
 74
5
 42
0.0000001
 43
0.0000001
 44
0.0000000001
 12
-0.3440998348
 22
0.1715588477
 32
0.0
 13
-0.0065031401
 23
0.3844409496
 33
0.0
 40
0.0
 40
0.0
 40
0.0
 40
0.0
 40
0.2997635563
 40
0.5621954664
 40
0.7911283648
 40
1.0
 40
1.0
 40
1.0
 40
1.0
 10
-22.5187050072
 20
22.9882073047
 30
0.0
 10
-22.5530878706
 20
23.0053496681
 30
0.0
 10
-22.6153914484
 20
23.0423758144
 30
0.0
 10
-22.6912381926
 20
23.1109724728
 30
0.0
 10
-22.7402735964
 20
23.1877836754
 30
0.0
 10
-22.752522998
 20
23.2441243496
 30
0.0
 10
-22.7529757718
 20
23.2708906196
 30
0.0
 11
-22.5187050072
 21
22.9882073047
 31
0.0
 11
-22.6171390384
 21
23.048166614
 31
0.0
 11
-22.6908273634
 21
23.1170988216
 31
0.0
 11
-22.7366448204
 21
23.1922582858
 31
0.0
 11
-22.7529757718
 21
23.2708906196
 31
0.0
  0
SPLINE
  5
3EA
100
AcDbEntity
  8
RACCORDO
100
AcDbSpline
 62
253
  6
CONTINUOUS
 70
0
 71
3
 72
11
 73
7
 74
5
 42
0.0000001
 43
0.0000001
 44
0.0000000001
 12
0.100909485
 22
-0.7413960435
 32
0.0
 13
0.6692048834
 23
-0.3346873787
 33
0.0
 40
0.0
 40
0.0
 40
0.0
 40
0.0
 40
0.2824672503
 40
0.5397668305
 40
0.7759454582
 40
1.0
 40
1.0
 40
1.0
 40
1.0
 10
-20.010203962
 20
-10.8737926537
 30
0.0
 10
-20.0007027538
 20
-10.9435993543
 30
0.0
 10
-19.9717291372
 20
-11.0759631023
 30
0.0
 10
-19.8925122297
 20
-11.2542789564
 30
0.0
 10
-19.7809103597
 20
-11.3968011333
 30
0.0
 10
-19.6856781241
 20
-11.4644325474
 30
0.0
 10
-19.6356986596
 20
-11.4894286232
 30
0.0
 11
-20.010203962
 21
-10.8737926537
 31
0.0
 11
-19.9632218595
 21
-11.0798555511
 31
0.0
 11
-19.8831860382
 21
-11.2549501324
 31
0.0
 11
-19.7727966239
 21
-11.3929459602
 31
0.0
 11
-19.6356986596
 21
-11.4894286232
 31
0.0
  0
SPLINE
  5
3EB
100
AcDbEntity
  8
RACCORDO
100
AcDbSpline
 62
253
  6
CONTINUOUS
 70
0
 71
3
 72
11
 73
7
 74
5
 42
0.0000001
 43
0.0000001
 44
0.0000000001
 12
-0.3375650846
 22
0.1692040785
 32
0.0
 13
-0.0511674944
 23
0.3741150813
 33
0.0
 40
0.0
 40
0.0
 40
0.0
 40
0.0
 40
0.2834314836
 40
0.5411097047
 40
0.7767962261
 40
1.0
 40
1.0
 40
1.0
 40
1.0
 10
-20.010188927
 20
-10.8737822502
 30
0.0
 10
-20.0420811179
 20
-10.8577963292
 30
0.0
 10
-20.1007141888
 20
-10.8223114024
 30
0.0
 10
-20.1732663566
 20
-10.7555937461
 30
0.0
 10
-20.223320559
 20
-10.6793137114
 30
0.0
 10
-20.2401591941
 20
-10.6229943726
 30
0.0
 10
-20.2439661201
 20
-10.5951597399
 30
0.0
 11
-20.010188927
 21
-10.8737822502
 31
0.0
 11
-20.1012840865
 21
-10.8176072957
 31
0.0
 11
-20.172151415
 21
-10.7509374249
 31
0.0
 11
-20.2201787273
 21
-10.6760145177
 31
0.0
 11
-20.2439661201
 21
-10.5951597399
 31
0.0
  0
SPLINE
  5
3EC
100
AcDbEntity
  8
RACCORDO
100
AcDbSpline
 62
253
  6
CONTINUOUS
 70
0
 71
3
 72
11
 73
7
 74
5
 42
0.0000001
 43
0.0000001
 44
0.0000000001
 12
-0.672713021
 22
0.3375383241
 32
0.0
 13
-0.1021782537
 23
0.7456772314
 33
0.0
 40
0.0
 40
0.0
 40
0.0
 40
0.0
 40
0.225527351
 40
0.4622387737
 40
0.7190107563
 40
1.0
 40
1.0
 40
1.0
 40
1.0
 10
10.4038620488
 20
-26.5092083537
 30
0.0
 10
10.3532903203
 20
-26.4838336456
 30
0.0
 10
10.2570204013
 20
-26.4156819717
 30
0.0
 10
10.1439463667
 20
-26.272499079
 30
0.0
 10
10.0637196473
 20
-26.0937632244
 30
0.0
 10
10.0344037671
 20
-25.9611537803
 30
0.0
 10
10.024833437
 20
-25.8913113532
 30
0.0
 11
10.4038620488
 21
-26.5092083537
 31
0.0
 11
10.2649620969
 21
-26.4116420523
 31
0.0
 11
10.1531955993
 21
-26.2729007757
 31
0.0
 11
10.0722449889
 21
-26.0974136271
 31
0.0
 11
10.024833437
 21
-25.8913113532
 31
0.0
  0
SPLINE
  5
3ED
100
AcDbEntity
  8
RACCORDO
100
AcDbSpline
 62
253
  6
CONTINUOUS
 70
0
 71
3
 72
11
 73
7
 74
5
 42
0.0000001
 43
0.0000001
 44
0.0000000001
 12
0.3996416531
 22
0.2269211985
 32
0.0
 13
-0.0268520231
 23
0.4587871511
 33
0.0
 40
0.0
 40
0.0
 40
0.0
 40
0.0
 40
0.2122971105
 40
0.4431082361
 40
0.7046938756
 40
1.0
 40
1.0
 40
1.0
 40
1.0
 10
11.5103087449
 20
-26.4542178878
 30
0.0
 10
11.5385896676
 20
-26.4381596495
 30
0.0
 10
11.5914183281
 20
-26.392643159
 30
0.0
 10
11.6444713989
 20
-26.2966677386
 30
0.0
 10
11.6723291461
 20
-26.1781064978
 30
0.0
 10
11.6741563037
 20
-26.0922472644
 30
0.0
 10
11.6715131147
 20
-26.0470863793
 30
0.0
 11
11.5103087449
 21
-26.4542178878
 31
0.0
 11
11.5847419832
 21
-26.3911402254
 31
0.0
 11
11.637835533
 21
-26.2993096622
 31
0.0
 11
11.6671942318
 21
-26.1827321504
 31
0.0
 11
11.6715131147
 21
-26.0470863793
 31
0.0
  0
ELLIPSE
  5
3EE
100
AcDbEntity
  8
RACCORDO
100
AcDbEllipse
 62
7
  6
CONTINUOUS
 10
17.8955237408
 20
14.4063230269
 30
0.0
 11
-0.2237009107
 21
0.4473351135
 31
0.0
 40
0.6121897086
 41
-2.2557347926
 42
-0.6846338794
  0
ELLIPSE
  5
3EF
100
AcDbEntity
  8
RACCORDO
100
AcDbEllipse
 62
7
  6
CONTINUOUS
 10
17.8955237408
 20
-23.4952246796
 30
0.0
 11
-0.2235807756
 21
0.4472283268
 31
0.0
 40
0.6125552124
 41
-3.139671321
 42
-2.255296188
  0
ELLIPSE
  5
3F0
100
AcDbEntity
  8
RACCORDO
100
AcDbEllipse
 62
7
  6
CONTINUOUS
 10
22.7213713517
 20
-18.9750600256
 30
0.0
 11
0.9987332359
 21
0.6172510855
 31
0.0
 40
0.0815198604
 41
-2.3890806779
 42
-1.1913468732
  0
ELLIPSE
  5
3F1
100
AcDbEntity
  8
RACCORDO
100
AcDbEllipse
 62
7
  6
CONTINUOUS
 10
22.4867543388
 20
-18.8577515191
 30
0.0
 11
0.4349639225
 21
0.9005141702
 31
0.0
 40
0.6016116119
 41
-1.2499156631
 42
-0.8943064336
  0
ELLIPSE
  5
3F2
100
AcDbEntity
  8
RACCORDO
100
AcDbEllipse
 62
7
  6
CONTINUOUS
 10
22.4867543388
 20
17.9055413299
 30
0.0
 11
0.4349639225
 21
0.9005141702
 31
0.0
 40
0.6016116119
 41
-0.8943064336
 42
-0.538697204
  0
ELLIPSE
  5
3F3
100
AcDbEntity
  8
RACCORDO
100
AcDbEllipse
 62
7
  6
CONTINUOUS
 10
10.7363314641
 20
23.7807527672
 30
0.0
 11
0.9987332359
 21
0.6172510855
 31
0.0
 40
0.0815198604
 41
0.0505521044
 42
0.7176053907
  0
ELLIPSE
  5
3F4
100
AcDbEntity
  8
RACCORDO
100
AcDbEllipse
 62
7
  6
CONTINUOUS
 10
11.8803597757
 20
23.2377171421
 30
0.0
 11
0.2256808774
 21
0.4461742732
 31
0.0
 40
0.6158912572
 41
0.0028657685
 42
0.6875768343
  0
ELLIPSE
  5
3F5
100
AcDbEntity
  8
RACCORDO
100
AcDbEllipse
 62
7
  6
CONTINUOUS
 10
15.7371756129
 20
-24.5827205481
 30
0.0
 11
-0.2235807756
 21
0.4472283268
 31
0.0
 40
0.6125552124
 41
2.4567882058
 42
4.0278891191
  0
ELLIPSE
  5
3F6
100
AcDbEntity
  8
RACCORDO
100
AcDbEllipse
 62
7
  6
CONTINUOUS
 10
0.7499644544
 20
20.9031319155
 30
0.0
 11
-0.2235807756
 21
0.4472283268
 31
0.0
 40
0.6125552124
 41
-0.6848044477
 42
0.8862964655
  0
ELLIPSE
  5
3F7
100
AcDbEntity
  8
RACCORDO
100
AcDbEllipse
 62
7
  6
CONTINUOUS
 10
18.0418091342
 20
20.1569924629
 30
0.0
 11
0.2215594226
 21
0.4482351134
 31
0.0
 40
0.6088373611
 41
5.3943220613
 42
6.9651183881
  0
ELLIPSE
  5
3F8
100
AcDbEntity
  8
RACCORDO
100
AcDbEllipse
 62
7
  6
CONTINUOUS
 10
15.7371756129
 20
13.4095263363
 30
0.0
 11
-0.2237009107
 21
0.4473351135
 31
0.0
 40
0.6121897086
 41
4.0274505145
 42
5.5985514278
  0
ELLIPSE
  5
3F9
100
AcDbEntity
  8
RACCORDO
100
AcDbEllipse
 62
7
  6
CONTINUOUS
 10
22.7213713517
 20
17.7882328234
 30
0.0
 11
-0.7417913999
 21
1.2002436976
 31
0.0
 40
0.5587454355
 41
5.0176587298
 42
6.2153925345
  0
ELLIPSE
  5
3FA
100
AcDbEntity
  8
RACCORDO
100
AcDbEllipse
 62
7
  6
CONTINUOUS
 10
12.0639771317
 20
16.7171896161
 30
0.0
 11
0.4999881828
 21
-0.0070264249
 31
0.0
 40
0.4892375088
 41
-2.3493192548
 42
-0.7727633415
  0
ELLIPSE
  5
3FB
100
AcDbEntity
  8
RACCORDO
100
AcDbEllipse
 62
7
  6
CONTINUOUS
 10
6.5444832792
 20
19.4769365423
 30
0.0
 11
0.4999881828
 21
-0.0070264249
 31
0.0
 40
0.4892375088
 41
-3.1347355197
 42
-2.3493192548
  0
ELLIPSE
  5
3FC
100
AcDbEntity
  8
RACCORDO
100
AcDbEllipse
 62
7
  6
CONTINUOUS
 10
13.9202011343
 20
11.1007871937
 30
0.0
 11
-0.1602838466
 21
0.4765765748
 31
0.0
 40
0.66789399
 41
-2.1618296722
 42
-0.5913379319
  0
ELLIPSE
  5
3FD
100
AcDbEntity
  8
ASSI
100
AcDbEllipse
 62
7
  6
CONTINUOUS
 10
-17.562802153
 20
26.6916373852
 30
0.0
 11
-0.4153309839
 21
0.6840241944
 31
0.0
 40
0.5662927327
 41
-0.7329949024
 42
0.0168042148
  0
ELLIPSE
  5
3FE
100
AcDbEntity
  8
ASSI
100
AcDbEllipse
 62
7
  6
CONTINUOUS
 10
15.2250263875
 20
-23.4284547424
 30
0.0
 11
-0.4153309839
 21
0.6840241944
 31
0.0
 40
0.5662927327
 41
-3.1587112472
 42
-2.3040958157
  0
ELLIPSE
  5
3FF
100
AcDbEntity
  8
ASSI
100
AcDbEllipse
 62
7
  6
CONTINUOUS
 10
12.6304850642
 20
11.5949937766
 30
0.0
 11
-0.4151689233
 21
0.6838390384
 31
0.0
 40
0.5666359228
 41
-2.3037293964
 42
-0.7332376561
  0
ELLIPSE
  5
400
100
AcDbEntity
  8
CURVE
100
AcDbEllipse
 62
253
  6
CONTINUOUS
 10
144.4743529377
 20
156.6173336252
 30
0.0
 11
1302.4298641349
 21
-875.5442868385
 31
0.0
 40
0.1432890204
 41
-1.5943931126
 42
-1.594027699
  0
ELLIPSE
  5
401
100
AcDbEntity
  8
CURVE
100
AcDbEllipse
 62
253
  6
CONTINUOUS
 10
185.1203489384
 20
136.2943356249
 30
0.0
 11
-353.3286856244
 21
396.3795687062
 31
0.0
 40
0.4595076409
 41
1.5284801396
 42
1.5288455475
  0
ELLIPSE
  5
402
100
AcDbEntity
  8
CURVE
100
AcDbEllipse
 62
253
  6
CONTINUOUS
 10
207.1593392963
 20
125.2748404459
 30
0.0
 11
286.4919002897
 21
192.0494111066
 31
0.0
 40
0.046076938
 41
2.4089848912
 42
2.4095329556
  0
ELLIPSE
  5
403
100
AcDbEntity
  8
CURVE
100
AcDbEllipse
 62
253
  6
CONTINUOUS
 10
190.6433591965
 20
133.5328304959
 30
0.0
 11
-236.0707474271
 21
352.1617482341
 31
0.0
 40
0.582738667
 41
-4.6985224989
 42
-4.6979744345
  0
ELLIPSE
  5
404
100
AcDbEntity
  8
CURVE
100
AcDbEllipse
 62
253
  6
CONTINUOUS
 10
187.8553360949
 20
134.9268420467
 30
0.0
 11
-236.0708281996
 21
352.161771751
 31
0.0
 40
0.5827385761
 41
-4.6935895379
 42
-4.6930413579
  0
ELLIPSE
  5
405
100
AcDbEntity
  8
CURVE
100
AcDbEllipse
 62
253
  6
CONTINUOUS
 10
208.7856867501
 20
124.461666719
 30
0.0
 11
286.4919460042
 21
192.0493888657
 31
0.0
 40
0.0460768006
 41
2.4139178522
 42
2.4144660322
  0
ELLIPSE
  5
406
100
AcDbEntity
  8
CURVE
100
AcDbEllipse
 62
253
  6
CONTINUOUS
 10
207.6240114901
 20
125.0425043491
 30
0.0
 11
286.4919460042
 21
192.0493888657
 31
0.0
 40
0.0460768006
 41
2.4139178522
 42
2.4144660322
  0
ELLIPSE
  5
407
100
AcDbEntity
  8
CURVE
100
AcDbEllipse
 62
253
  6
CONTINUOUS
 10
184.30717614
 20
136.7009220241
 30
0.0
 11
-353.3286856244
 21
396.3795687062
 31
0.0
 40
0.4595076409
 41
1.5292109611
 42
1.5295763804
  0
ELLIPSE
  5
408
100
AcDbEntity
  8
CURVE
100
AcDbEllipse
 62
253
  6
CONTINUOUS
 10
143.3126320664
 20
157.1981940609
 30
0.0
 11
1302.430919324
 21
-875.5448235478
 31
0.0
 40
0.1432889067
 41
-1.594393076
 42
-1.5940276624
  0
ELLIPSE
  5
409
100
AcDbEntity
  8
CURVE
100
AcDbEllipse
 62
253
  6
CONTINUOUS
 10
183.9586732906
 20
136.8751734488
 30
0.0
 11
-353.3286856244
 21
396.3795687062
 31
0.0
 40
0.4595076409
 41
1.5284801396
 42
1.5288455475
  0
ELLIPSE
  5
40A
100
AcDbEntity
  8
CURVE
100
AcDbEllipse
 62
253
  6
CONTINUOUS
 10
205.9976636485
 20
125.8556782699
 30
0.0
 11
286.4919002897
 21
192.0494111066
 31
0.0
 40
0.046076938
 41
2.4089848912
 42
2.4095329556
  0
ELLIPSE
  5
40B
100
AcDbEntity
  8
CURVE
100
AcDbEllipse
 62
253
  6
CONTINUOUS
 10
189.4816839364
 20
134.1136681259
 30
0.0
 11
-236.0707474271
 21
352.1617482341
 31
0.0
 40
0.582738667
 41
-4.6985224989
 42
-4.6979744345
  0
ELLIPSE
  5
40C
100
AcDbEntity
  8
CURVE
100
AcDbEllipse
 62
253
  6
CONTINUOUS
 10
186.8098202678
 20
135.4495999602
 30
0.0
 11
-236.071043593
 21
352.1618344627
 31
0.0
 40
0.5827383336
 41
-4.6941378917
 42
-4.6930415452
  0
ELLIPSE
  5
40D
100
AcDbEntity
  8
CURVE
100
AcDbEllipse
 62
253
  6
CONTINUOUS
 10
204.952166503
 20
126.3784268426
 30
0.0
 11
286.492083148
 21
192.0493221431
 31
0.0
 40
0.0460763884
 41
2.4089846102
 42
2.4100807508
  0
ELLIPSE
  5
40E
100
AcDbEntity
  8
CURVE
100
AcDbEllipse
 62
253
  6
CONTINUOUS
 10
188.2038374528
 20
134.7525913677
 30
0.0
 11
-236.0708551238
 21
352.16177959
 31
0.0
 40
0.5827385457
 41
-4.6985225926
 42
-4.697426452
  0
ELLIPSE
  5
40F
100
AcDbEntity
  8
CURVE
100
AcDbEllipse
 62
253
  6
CONTINUOUS
 10
189.9884319235
 20
133.8602941324
 30
0.0
 11
-136.370089695
 21
332.1796060191
 31
0.0
 40
0.6840517395
 41
-4.5651047288
 42
-4.5645566643
  0
ELLIPSE
  5
410
100
AcDbEntity
  8
CURVE
100
AcDbEllipse
 62
253
  6
CONTINUOUS
 10
186.1128216164
 20
135.7980992859
 30
0.0
 11
-236.0708551238
 21
352.16177959
 31
0.0
 40
0.5827385457
 41
-4.6985225926
 42
-4.6979745281
  0
ELLIPSE
  5
411
100
AcDbEntity
  8
CURVE
100
AcDbEllipse
 62
253
  6
CONTINUOUS
 10
189.0170117427
 20
134.3460042228
 30
0.0
 11
-236.0708281996
 21
352.161771751
 31
0.0
 40
0.5827385761
 41
-4.6935895379
 42
-4.6930413579
  0
ELLIPSE
  5
412
100
AcDbEntity
  8
CURVE
100
AcDbEllipse
 62
253
  6
CONTINUOUS
 10
204.2551567396
 20
126.7269317243
 30
0.0
 11
286.492006957
 21
192.0493592112
 31
0.0
 40
0.0460766174
 41
2.4139177585
 42
2.4144659385
  0
ELLIPSE
  5
413
100
AcDbEntity
  8
CURVE
100
AcDbEllipse
 62
253
  6
CONTINUOUS
 10
185.4688514001
 20
136.1200843941
 30
0.0
 11
-353.3286856244
 21
396.3795687062
 31
0.0
 40
0.4595076409
 41
1.5292109611
 42
1.5295763804
  0
ELLIPSE
  5
414
100
AcDbEntity
  8
RACCORDO
100
AcDbEllipse
 62
7
  6
CONTINUOUS
 10
-17.562802153
 20
26.6916373852
 30
0.0
 11
-0.4153309839
 21
0.6840241944
 31
0.0
 40
0.5662927327
 41
-0.7329949024
 42
0.0170575248
  0
ELLIPSE
  5
415
100
AcDbEntity
  8
RACCORDO
100
AcDbEllipse
 62
7
  6
CONTINUOUS
 10
15.2250263875
 20
-23.4284547424
 30
0.0
 11
-0.4153309839
 21
0.6840241944
 31
0.0
 40
0.5662927327
 41
-3.1584458945
 42
-2.3040958157
  0
ELLIPSE
  5
416
100
AcDbEntity
  8
RACCORDO
100
AcDbEllipse
 62
7
  6
CONTINUOUS
 10
12.6304850642
 20
11.5949937766
 30
0.0
 11
-0.4151689233
 21
0.6838390384
 31
0.0
 40
0.5666359228
 41
-2.3037293964
 42
-0.7332376561
  0
ENDSEC
  0
SECTION
  2
OBJECTS
  0
DICTIONARY
  5
C
100
AcDbDictionary
280
0
281
1
  3
ACAD_GROUP
350
D
  3
ACAD_MLINESTYLE
350
17
  3
ACAD_LAYOUT
350
1A
  3
ACAD_PLOTSETTINGS
350
19
  3
ACAD_PLOTSTYLENAME
350
E
  0
DICTIONARY
  5
D
102
{ACAD_REACTORS
330
C
102
}
100
AcDbDictionary
280
0
281
1
  0
ACDBDICTIONARYWDFLT
  5
E
102
{ACAD_REACTORS
330
C
102
}
100
AcDbDictionary
281
1
  3
Normal
350
F
100
AcDbDictionaryWithDefault
340
F
  0
DICTIONARY
  5
17
102
{ACAD_REACTORS
330
C
102
}
100
AcDbDictionary
280
0
281
1
  3
Standard
350
18
  0
DICTIONARY
  5
19
102
{ACAD_REACTORS
330
C
102
}
100
AcDbDictionary
281
1
  0
DICTIONARY
  5
1A
102
{ACAD_REACTORS
330
C
102
}
100
AcDbDictionary
281
1
  3
Model
350
417
  3
Layout1
350
418
  0
ACDBPLACEHOLDER
  5
F
102
{ACAD_REACTORS
330
E
102
}
  0
MLINESTYLE
  5
18
102
{ACAD_REACTORS
330
17
102
}
100
AcDbMlineStyle
  2
STANDARD
 70
0
  3

 62
256
 51
90.0
 52
90.0
 71
2
 49
0.5
 62
256
  6
BYLAYER
 49
-0.5
 62
256
  6
BYLAYER
  0
LAYOUT
  5
417
102
{ACAD_REACTORS
330
1A
102
}
100
AcDbPlotSettings
  1

  2
none_device
  4
ISO_A4_(297.00_x_210.00_MM)
  6

 40
0.0
 41
0.0
 42
0.0
 43
0.0
 44
297.0
 45
210.0
 46
0.0
 47
0.0
 48
0.0
 49
0.0
140
0.0
141
0.0
142
1.0
143
1.0
 70
1024
 72
1
 73
0
 74
0
  7

 75
0
147
1.0
148
0.0
149
0.0
100
AcDbLayout
  1
Model
 70
0
 71
0
 10
0.0
 20
0.0
 11
297.0
 21
210.0
 12
0.0
 22
0.0
 32
0.0
 14
0.0
 24
0.0
 34
0.0
 15
0.0
 25
0.0
 35
0.0
146
0.0
 13
0.0
 23
0.0
 33
0.0
 16
1.0
 26
0.0
 36
0.0
 17
0.0
 27
1.0
 37
0.0
 76
0
330
212
345
0
346
0
  0
LAYOUT
  5
418
102
{ACAD_REACTORS
330
1A
102
}
100
AcDbPlotSettings
  1

  2
none_device
  4
ISO_A4_(297.00_x_210.00_MM)
  6

 40
0.0
 41
0.0
 42
0.0
 43
0.0
 44
297.0
 45
210.0
 46
0.0
 47
0.0
 48
0.0
 49
0.0
140
0.0
141
0.0
142
1.0
143
1.0
 70
0
 72
1
 73
0
 74
0
  7

 75
0
147
1.0
148
0.0
149
0.0
100
AcDbLayout
  1
Layout1
 70
0
 71
1
 10
0.0
 20
0.0
 11
297.0
 21
210.0
 12
0.0
 22
0.0
 32
0.0
 14
0.0
 24
0.0
 34
0.0
 15
0.0
 25
0.0
 35
0.0
146
0.0
 13
0.0
 23
0.0
 33
0.0
 16
1.0
 26
0.0
 36
0.0
 17
0.0
 27
1.0
 37
0.0
 76
0
330
213
345
0
346
0
  0
ENDSEC
  0
EOF
