0
SECTION
2
HEADER
9
$ACADVER
1
AC1014
9
$HANDSEED
5
       3DD
9
$EXTMAX
10
297.0000000000
20
210.0000000000
9
$EXTMIN
10
0.0000000000
20
0.0000000000
9
$LIMMIN
10
0.0000000000
20
0.0000000000
9
$LIMMAX
10
297.0000000000
20
210.0000000000
9
$VIEWCTR
10
148.5000000000
20
105.0000000000
9
$VIEWSIZE
40
210.0000000000
9
$CLAYER
8
0
9
$LTSCALE
40
16.3350000000
9
$CELTYPE
6
BYLAYER
9
$DIMSCALE
40
1
9
$DIMASZ
40
3.0000000000
9
$DIMEXO
40
1.8562500000
9
$DIMDLI
40
11.2860000000
9
$DIMEXE
40
5.3460000000
9
$DIMCEN
40
2.6730000000
9
$DIMLFAC
40
1.0000000000
9
$DIMTXT
40
3.0000000000
9
$DIMTOL
70
1
9
$DIMLIM
70
0
9
$DIMTFAC
40
1.0000000000
9
$DIMTP
40
0.0100000000
9
$DIMTM
40
0.0100000000
9
$MEASUREMENT
70
1
0
ENDSEC
0
SECTION
2
CLASSES
0
ENDSEC
0
SECTION
2
TABLES
0
TABLE
2
VPORT
5
8
100
AcDbSymbolTable
70
2
0
VPORT
5
1F4
100
AcDbSymbolTableRecord
100
AcDbViewportTableRecord
2
*ACTIVE
70
0
10
0.0
20
0.0
11
1.0
21
1.0
12
148.5000000000
22
105.0000000000
13
0.0
23
0.0
14
1.0
24
1.0
15
0.0
25
0.0
16
0.0
26
0.0
36
1.0
17
0.0
27
0.0
37
0.0
40
210.0000000000
41
1.4142857143
42
50.0
43
0.0
44
0.0
50
0.0
51
0.0
71
0
72
100
73
1
74
1
75
0
76
0
77
0
78
0
0
ENDTAB
0
TABLE
2
LTYPE
5
5
100
AcDbSymbolTable
70
6
0
LTYPE
5
14
100
AcDbSymbolTableRecord
100
AcDbLinetypeTableRecord
2
BYBLOCK
70
0
3

72
65
73
0
40
0.0
0
LTYPE
5
15
100
AcDbSymbolTableRecord
100
AcDbLinetypeTableRecord
2
BYLAYER
70
0
3

72
65
73
0
40
0.0
0
LTYPE
5
16
100
AcDbSymbolTableRecord
100
AcDbLinetypeTableRecord
2
CONTINUOUS
70
64
3
Solid line
72
65
73
0
40
0
0
LTYPE
5
1F5
100
AcDbSymbolTableRecord
100
AcDbLinetypeTableRecord
2
CENTER
70
64
3
____ _ ____ _ ____ _ ____ _ ____ _ ____ _ ____
72
65
73
4
40
0.6
49
0.375
74
0
49
-0.075
74
0
49
0.075
74
0
49
-0.075
74
0
0
LTYPE
5
1F6
100
AcDbSymbolTableRecord
100
AcDbLinetypeTableRecord
2
HIDDEN
70
64
3
- - - - - - - - - - - - - - - - - - - -
72
65
73
2
40
0.2
49
0.1
74
0
49
-0.1
74
0
0
LTYPE
5
1F7
100
AcDbSymbolTableRecord
100
AcDbLinetypeTableRecord
2
PHANTOM
70
64
3
_____ _ _ _____ _ _ _____ _ _ _____
72
65
73
6
40
0.8
49
0.45
74
0
49
-0.05
74
0
49
0.1
74
0
49
-0.05
74
0
49
0.1
74
0
49
-0.05
74
0
0
LTYPE
5
1F8
100
AcDbSymbolTableRecord
100
AcDbLinetypeTableRecord
2
DOT
70
64
3
. . . . . . . . . . . . . . . . . . . .
72
65
73
2
40
0.2
49
0.1
74
0
49
-0.1
74
0
0
LTYPE
5
1F9
100
AcDbSymbolTableRecord
100
AcDbLinetypeTableRecord
2
DASHED
70
64
3
- - - - - - - - - - - - - - - - - - - -
72
65
73
2
40
0.2
49
0.1
74
0
49
-0.1
74
0
0
ENDTAB
0
TABLE
2
LAYER
5
2
100
AcDbSymbolTable
70
36
0
LAYER
5
10
100
AcDbSymbolTableRecord
100
AcDbLayerTableRecord
2
0
70
0
62
7
6
CONTINUOUS
0
LAYER
5
1FA
100
AcDbSymbolTableRecord
100
AcDbLayerTableRecord
2
DEFAULT_1
70
0
62
7
6
CENTER
0
LAYER
5
1FB
100
AcDbSymbolTableRecord
100
AcDbLayerTableRecord
2
DEFAULT_2
70
0
62
8
6
HIDDEN
0
LAYER
5
1FC
100
AcDbSymbolTableRecord
100
AcDbLayerTableRecord
2
DEFAULT_3
70
0
62
7
6
PHANTOM
0
LAYER
5
1FD
100
AcDbSymbolTableRecord
100
AcDbLayerTableRecord
2
ASSI
70
0
62
7
6
CONTINUOUS
0
LAYER
5
1FE
100
AcDbSymbolTableRecord
100
AcDbLayerTableRecord
2
COORDINATE
70
0
62
7
6
CONTINUOUS
0
LAYER
5
1FF
100
AcDbSymbolTableRecord
100
AcDbLayerTableRecord
2
COORD_ORIGINE
70
0
62
7
6
CONTINUOUS
0
LAYER
5
200
100
AcDbSymbolTableRecord
100
AcDbLayerTableRecord
2
COSMETICI
70
0
62
7
6
CONTINUOUS
0
LAYER
5
201
100
AcDbSymbolTableRecord
100
AcDbLayerTableRecord
2
CURVE
70
0
62
7
6
CONTINUOUS
0
LAYER
5
202
100
AcDbSymbolTableRecord
100
AcDbLayerTableRecord
2
DRAFT
70
0
62
7
6
CONTINUOUS
0
LAYER
5
203
100
AcDbSymbolTableRecord
100
AcDbLayerTableRecord
2
NOTE
70
0
62
7
6
CONTINUOUS
0
LAYER
5
204
100
AcDbSymbolTableRecord
100
AcDbLayerTableRecord
2
PIANI
70
0
62
7
6
CONTINUOUS
0
LAYER
5
205
100
AcDbSymbolTableRecord
100
AcDbLayerTableRecord
2
PIANI_ORIGINE
70
0
62
7
6
CONTINUOUS
0
LAYER
5
206
100
AcDbSymbolTableRecord
100
AcDbLayerTableRecord
2
PIANI_RIFERIMENTO
70
0
62
7
6
CONTINUOUS
0
LAYER
5
207
100
AcDbSymbolTableRecord
100
AcDbLayerTableRecord
2
PUNTI
70
0
62
7
6
CONTINUOUS
0
LAYER
5
208
100
AcDbSymbolTableRecord
100
AcDbLayerTableRecord
2
RACCORDO
70
0
62
7
6
CONTINUOUS
0
LAYER
5
209
100
AcDbSymbolTableRecord
100
AcDbLayerTableRecord
2
SMUSSO
70
0
62
7
6
CONTINUOUS
0
LAYER
5
20A
100
AcDbSymbolTableRecord
100
AcDbLayerTableRecord
2
SUPERFICI
70
0
62
7
6
CONTINUOUS
0
LAYER
5
20B
100
AcDbSymbolTableRecord
100
AcDbLayerTableRecord
2
TRASH
70
0
62
7
6
CONTINUOUS
0
ENDTAB
0
TABLE
2
STYLE
5
3
100
AcDbSymbolTable
70
1
0
STYLE
5
11
100
AcDbSymbolTableRecord
100
AcDbTextStyleTableRecord
2
STANDARD
70
0
40
0.0
41
0.8000000000
50
0.0
71
0
42
0.2
3
txt
4

0
ENDTAB
0
TABLE
2
VIEW
5
6
100
AcDbSymbolTable
70
0
0
ENDTAB
0
TABLE
2
UCS
5
7
100
AcDbSymbolTable
70
0
0
ENDTAB
0
TABLE
2
APPID
5
9
100
AcDbSymbolTable
70
1
0
APPID
5
20C
100
AcDbSymbolTableRecord
100
AcDbRegAppTableRecord
2
ACAD
70
0
0
ENDTAB
0
TABLE
2
DIMSTYLE
5
A
100
AcDbSymbolTable
70
1
0
DIMSTYLE
105
20D
100
AcDbSymbolTableRecord
100
AcDbDimStyleTableRecord
2
STANDARD
70
0
3

4

5

6

7

40
1.0
41
3.0000000000
42
0.0625
43
0.38
44
0.18
45
0.0
46
0.0
47
0.0100000000
48
0.0100000000
140
3.0000000000
141
0.09
142
0.0
143
25.4
144
1.0000000000
145
0.0
146
1.0000000000
147
0.09
71
1
72
0
73
0
74
0
75
0
76
0
77
1
78
8
170
0
171
2
172
0
173
0
174
0
175
0
176
0
177
0
178
0
270
2
271
2
272
2
273
2
274
2
340
11
275
0
280
0
281
0
282
0
283
1
284
8
285
0
286
0
287
3
288
0
0
ENDTAB
0
TABLE
2
BLOCK_RECORD
5
1
100
AcDbSymbolTable
70
0
0
BLOCK_RECORD
5
1B
100
AcDbSymbolTableRecord
100
AcDbBlockTableRecord
2
*MODEL_SPACE
0
BLOCK_RECORD
5
1C
100
AcDbSymbolTableRecord
100
AcDbBlockTableRecord
2
*PAPER_SPACE
0
ENDTAB
0
ENDSEC
0
SECTION
2
BLOCKS
0
BLOCK
5
1E
100
AcDbEntity
8
0
100
AcDbBlockBegin
2
*MODEL_SPACE
70
0
10
0.0
20
0.0
30
0.0
3
*MODEL_SPACE
1

0
ENDBLK
5
1F
100
AcDbEntity
8
0
100
AcDbBlockEnd
0
BLOCK
5
20
100
AcDbEntity
8
0
100
AcDbBlockBegin
2
*PAPER_SPACE
70
0
10
0.0
20
0.0
30
0.0
3
*PAPER_SPACE
1

0
ENDBLK
5
21
100
AcDbEntity
8
0
100
AcDbBlockEnd
0
ENDSEC
0
SECTION
2
ENTITIES
0
LINE
5
20E
100
AcDbEntity
8
0
100
AcDbLine
62
7
6
CONTINUOUS
10
-14.7035466609
20
27.9617336291
11
-18.6726241587
21
26.4263483213
0
LINE
5
20F
100
AcDbEntity
8
0
100
AcDbLine
62
9
6
CONTINUOUS
10
-14.3595698048
20
27.9327417386
11
-18.3248673214
21
26.3988186668
0
LINE
5
210
100
AcDbEntity
8
0
100
AcDbLine
62
7
6
CONTINUOUS
10
-23.2108067139
20
-11.6894809809
11
-23.2107981799
21
-11.6892859712
0
LINE
5
211
100
AcDbEntity
8
0
100
AcDbLine
62
7
6
CONTINUOUS
10
-19.7050991313
20
25.0331776811
11
-19.7050865461
21
25.0332649183
0
LINE
5
212
100
AcDbEntity
8
0
100
AcDbLine
62
9
6
CONTINUOUS
10
17.7496297895
20
-25.7151747035
11
17.2192997036
21
-25.6053397464
0
LINE
5
213
100
AcDbEntity
8
0
100
AcDbLine
62
7
6
CONTINUOUS
10
7.4509030124
20
-27.8716917475
11
-22.5922084192
21
-12.8501360318
0
LINE
5
214
100
AcDbEntity
8
0
100
AcDbLine
62
7
6
CONTINUOUS
10
0.6319083031
20
22.5409889059
11
2.7532286466
21
23.6016490777
0
LINE
5
215
100
AcDbEntity
8
0
100
AcDbLine
62
9
6
CONTINUOUS
10
0.7437117020
20
22.5338884591
11
2.8650320455
21
23.5945486309
0
LINE
5
216
100
AcDbEntity
8
0
100
AcDbLine
62
9
6
CONTINUOUS
10
17.6612414418
20
-25.3950921820
11
17.1309113560
21
-25.2852572250
0
LINE
5
217
100
AcDbEntity
8
0
100
AcDbLine
62
9
6
CONTINUOUS
10
7.0585884416
20
-26.9871023131
11
-22.9764489575
21
-11.9695836136
0
LINE
5
218
100
AcDbEntity
8
0
100
AcDbLine
62
9
6
CONTINUOUS
10
2.0872145862
20
21.8621370170
11
4.2085349298
21
22.9227971888
0
LINE
5
219
100
AcDbEntity
8
0
100
AcDbLine
62
9
6
CONTINUOUS
10
2.2639912815
20
21.5572423184
11
4.3853116251
21
22.6179024902
0
LINE
5
21A
100
AcDbEntity
8
0
100
AcDbLine
62
9
6
CONTINUOUS
10
0.7809010464
20
20.9036501936
11
1.0206676824
21
21.0226150352
0
LINE
5
21B
100
AcDbEntity
8
0
100
AcDbLine
62
7
6
CONTINUOUS
10
0.5577439193
20
20.9181182973
11
0.7923702280
21
21.0344946761
0
LINE
5
21C
100
AcDbEntity
8
0
100
AcDbLine
62
7
6
CONTINUOUS
10
1.0745297256
20
21.2110448536
11
1.0745789054
21
21.2110688656
0
LINE
5
21D
100
AcDbEntity
8
0
100
AcDbLine
62
9
6
CONTINUOUS
10
1.1786978058
20
21.2319343791
11
1.1971894246
21
21.2408344123
0
LINE
5
21E
100
AcDbEntity
8
0
100
AcDbLine
62
9
6
CONTINUOUS
10
2.9710980627
20
20.5007758388
11
3.6782048439
21
20.8392126998
0
LINE
5
21F
100
AcDbEntity
8
0
100
AcDbLine
62
9
6
CONTINUOUS
10
3.1100512759
20
20.2556523884
11
3.8171580571
21
20.5940892494
0
LINE
5
220
100
AcDbEntity
8
0
100
AcDbLine
62
7
6
CONTINUOUS
10
15.3397293518
20
-27.2623672974
11
13.9962264675
21
-26.5906158553
0
LINE
5
221
100
AcDbEntity
8
0
100
AcDbLine
62
9
6
CONTINUOUS
10
15.2747560553
20
-27.1271488473
11
13.9312531711
21
-26.4553974052
0
LINE
5
222
100
AcDbEntity
8
0
100
AcDbLine
62
9
6
CONTINUOUS
10
13.9312531711
20
-26.1040834331
11
15.2747560553
21
-26.7758348753
0
LINE
5
223
100
AcDbEntity
8
0
100
AcDbLine
62
9
6
CONTINUOUS
10
14.0196415187
20
-25.8723892593
11
15.3631444030
21
-26.5441407014
0
LINE
5
224
100
AcDbEntity
8
0
100
AcDbLine
62
9
6
CONTINUOUS
10
15.3397547117
20
-27.2623799726
11
15.3395677216
21
-27.2622862874
0
LINE
5
225
100
AcDbEntity
8
0
100
AcDbLine
62
7
6
CONTINUOUS
10
12.5170396087
20
22.9352978397
11
7.9208455310
21
20.6372008008
0
LINE
5
226
100
AcDbEntity
8
0
100
AcDbLine
62
7
6
CONTINUOUS
10
5.2214971677
20
20.7593228875
11
11.4865001524
21
23.8668105541
0
LINE
5
227
100
AcDbEntity
8
0
100
AcDbLine
62
7
6
CONTINUOUS
10
11.9111886636
20
23.2382233122
11
6.2238009508
21
20.4270992292
0
LINE
5
228
100
AcDbEntity
8
0
100
AcDbLine
62
9
6
CONTINUOUS
10
15.8934744889
20
-25.9039756585
11
14.5499716046
21
-25.2322242164
0
LINE
5
229
100
AcDbEntity
8
0
100
AcDbLine
62
9
6
CONTINUOUS
10
15.9818628365
20
-25.6722814847
11
14.6383599523
21
-25.0005300425
0
LINE
5
22A
100
AcDbEntity
8
0
100
AcDbLine
62
7
6
CONTINUOUS
10
12.9082585696
20
-24.0184327762
11
15.7678967968
21
-25.4482518898
0
LINE
5
22B
100
AcDbEntity
8
0
100
AcDbLine
62
7
6
CONTINUOUS
10
16.1216117475
20
-25.1660291555
11
12.9500891676
21
-23.5802678655
0
LINE
5
22C
100
AcDbEntity
8
0
100
AcDbLine
62
9
6
CONTINUOUS
10
17.1309113560
20
-25.2852572250
11
17.1216331834
21
-25.2806181387
0
LINE
5
22D
100
AcDbEntity
8
0
100
AcDbLine
62
7
6
CONTINUOUS
10
16.5892538419
20
-24.8711133381
11
12.9982667600
21
-23.0756197971
0
LINE
5
22E
100
AcDbEntity
8
0
100
AcDbLine
62
9
6
CONTINUOUS
10
17.1157463130
20
-25.1223446176
11
17.6612414418
21
-25.3950921820
0
LINE
5
22F
100
AcDbEntity
8
0
100
AcDbLine
62
7
6
CONTINUOUS
10
17.1157463130
20
-25.1187244681
11
17.6846564931
21
-25.4031795581
0
LINE
5
230
100
AcDbEntity
8
0
100
AcDbLine
62
7
6
CONTINUOUS
10
10.0930522695
20
19.5510974316
11
13.4981958298
21
21.2536692117
0
LINE
5
231
100
AcDbEntity
8
0
100
AcDbLine
62
7
6
CONTINUOUS
10
12.8705929993
20
21.7787067325
11
9.1752135061
21
20.0100168133
0
LINE
5
232
100
AcDbEntity
8
0
100
AcDbLine
62
7
6
CONTINUOUS
10
14.6507006672
20
22.2847102967
11
9.5287668967
21
19.8332401180
0
LINE
5
233
100
AcDbEntity
8
0
100
AcDbLine
62
7
6
CONTINUOUS
10
16.5892538419
20
-23.2504756149
11
13.1459364780
21
-21.5288169329
0
LINE
5
234
100
AcDbEntity
8
0
100
AcDbLine
62
9
6
CONTINUOUS
10
3.8549815392
20
21.6264234752
11
4.3853116251
21
22.2665885181
0
LINE
5
235
100
AcDbEntity
8
0
100
AcDbLine
62
7
6
CONTINUOUS
10
3.8707238820
20
21.5553238296
11
4.4010539679
21
22.1954888726
0
LINE
5
236
100
AcDbEntity
8
0
100
AcDbLine
62
7
6
CONTINUOUS
10
18.0726380221
20
20.1574986330
11
12.4503898561
21
17.3138047766
0
LINE
5
237
100
AcDbEntity
8
0
100
AcDbLine
62
7
6
CONTINUOUS
10
17.4667870770
20
20.4604241055
11
12.8705929993
21
18.1623270667
0
LINE
5
238
100
AcDbEntity
8
0
100
AcDbLine
62
7
6
CONTINUOUS
10
18.4227308821
20
19.9381454283
11
18.8933413543
21
20.1633899531
0
LINE
5
239
100
AcDbEntity
8
0
100
AcDbLine
62
7
6
CONTINUOUS
10
13.9962264675
20
15.8588298237
11
16.1175468111
21
16.9194899955
0
LINE
5
23A
100
AcDbEntity
8
0
100
AcDbLine
62
9
6
CONTINUOUS
10
14.1080298664
20
15.8517293769
11
16.2293502099
21
16.9123895487
0
LINE
5
23B
100
AcDbEntity
8
0
100
AcDbLine
62
9
6
CONTINUOUS
10
13.9962518275
20
15.8588424989
11
13.9964109696
21
15.8589218213
0
LINE
5
23C
100
AcDbEntity
8
0
100
AcDbLine
62
7
6
CONTINUOUS
10
18.4241550689
20
19.0019256977
11
12.4503898561
21
16.1088839439
0
LINE
5
23D
100
AcDbEntity
8
0
100
AcDbLine
62
7
6
CONTINUOUS
10
17.3581884702
20
16.4109725648
11
22.0575418692
21
18.5812896957
0
LINE
5
23E
100
AcDbEntity
8
0
100
AcDbLine
62
7
6
CONTINUOUS
10
16.5892538419
20
12.9308955371
11
16.1216117475
21
12.7742146334
0
LINE
5
23F
100
AcDbEntity
8
0
100
AcDbLine
62
7
6
CONTINUOUS
10
17.2907112742
20
14.9403634498
11
23.1688791809
21
18.1117698906
0
LINE
5
240
100
AcDbEntity
8
0
100
AcDbLine
62
7
6
CONTINUOUS
10
17.5262161906
20
14.6069633761
11
23.2123474131
21
17.5510440007
0
LINE
5
241
100
AcDbEntity
8
0
100
AcDbLine
62
9
6
CONTINUOUS
10
15.4515327506
20
15.1799779348
11
17.5728530942
21
16.2406381066
0
LINE
5
242
100
AcDbEntity
8
0
100
AcDbLine
62
9
6
CONTINUOUS
10
15.6283094459
20
14.8750832362
11
17.7496297895
21
15.9357434080
0
LINE
5
243
100
AcDbEntity
8
0
100
AcDbLine
62
9
6
CONTINUOUS
10
14.5643975501
20
14.5969114468
11
14.4944704530
21
14.5634427999
0
LINE
5
244
100
AcDbEntity
8
0
100
AcDbLine
62
9
6
CONTINUOUS
10
16.3354162271
20
13.8186167566
11
17.0425230083
21
14.1570536176
0
LINE
5
245
100
AcDbEntity
8
0
100
AcDbLine
62
9
6
CONTINUOUS
10
16.4261219678
20
13.6082222980
11
17.1367333327
21
13.9433770518
0
LINE
5
246
100
AcDbEntity
8
0
100
AcDbLine
62
9
6
CONTINUOUS
10
17.3006999135
20
14.1180506115
11
17.9262449247
21
14.4069490090
0
LINE
5
247
100
AcDbEntity
8
0
100
AcDbLine
62
9
6
CONTINUOUS
10
17.6418582333
20
13.5021844080
11
18.2799598754
21
13.7968809619
0
LINE
5
248
100
AcDbEntity
8
0
100
AcDbLine
62
9
6
CONTINUOUS
10
16.1216117475
20
12.8000842712
11
16.3573578842
21
12.9089635523
0
LINE
5
249
100
AcDbEntity
8
0
100
AcDbLine
62
9
6
CONTINUOUS
10
15.7678967968
20
13.4101523184
11
16.0162615652
21
13.5248179232
0
LINE
5
24A
100
AcDbEntity
8
0
100
AcDbLine
62
9
6
CONTINUOUS
10
11.7271083313
20
11.3728308404
11
15.8340620652
21
12.8359258037
0
LINE
5
24B
100
AcDbEntity
8
0
100
AcDbLine
62
9
6
CONTINUOUS
10
12.2237783881
20
10.3680151885
11
16.3307321220
21
11.8311101518
0
LINE
5
24C
100
AcDbEntity
8
0
100
AcDbLine
62
7
6
CONTINUOUS
10
22.4785699581
20
-18.2819291500
11
23.2123474131
21
-18.6488178775
0
LINE
5
24D
100
AcDbEntity
8
0
100
AcDbLine
62
7
6
CONTINUOUS
10
18.2799598754
20
-15.4787781373
11
19.5893324928
21
-16.1334644460
0
LINE
5
24E
100
AcDbEntity
8
0
100
AcDbLine
62
7
6
CONTINUOUS
10
0.4271860957
20
20.6472970971
11
0.4271860957
21
20.6214274593
0
LINE
5
24F
100
AcDbEntity
8
0
100
AcDbLine
62
7
6
CONTINUOUS
10
0.4937117020
20
21.9660681361
11
0.4937117020
21
22.3173821082
0
LINE
5
250
100
AcDbEntity
8
0
100
AcDbLine
62
9
6
CONTINUOUS
10
0.5669350067
20
21.8776797885
11
0.5669350067
21
22.2289937605
0
LINE
5
251
100
AcDbEntity
8
0
100
AcDbLine
62
7
6
CONTINUOUS
10
0.8787828169
20
20.3135654278
11
0.8787828169
21
20.3956290987
0
LINE
5
252
100
AcDbEntity
8
0
100
AcDbLine
62
7
6
CONTINUOUS
10
1.2008184831
20
21.2656679241
11
1.2008184831
21
21.4580062483
0
LINE
5
253
100
AcDbEntity
8
0
100
AcDbLine
62
9
6
CONTINUOUS
10
1.2740417878
20
21.1793297193
11
1.2740417878
21
21.4213945960
0
LINE
5
254
100
AcDbEntity
8
0
100
AcDbLine
62
9
6
CONTINUOUS
10
1.9104378909
20
21.5572423184
11
1.9104378909
21
21.2059283463
0
LINE
5
255
100
AcDbEntity
8
0
100
AcDbLine
62
9
6
CONTINUOUS
10
2.2639912815
20
21.5572423184
11
2.2639912815
21
21.2059283463
0
LINE
5
256
100
AcDbEntity
8
0
100
AcDbLine
62
9
6
CONTINUOUS
10
2.6175446721
20
20.8094817369
11
2.6175446721
21
20.5075782772
0
LINE
5
257
100
AcDbEntity
8
0
100
AcDbLine
62
7
6
CONTINUOUS
10
14.8266028708
20
-6.8211950288
11
14.5626393671
21
-6.6892132770
0
LINE
5
258
100
AcDbEntity
8
0
100
AcDbLine
62
9
6
CONTINUOUS
10
2.9710980627
20
20.8094817369
11
2.9710980627
21
20.5007758388
0
LINE
5
259
100
AcDbEntity
8
0
100
AcDbLine
62
9
6
CONTINUOUS
10
3.6782048439
20
20.8392126998
11
3.6782048439
21
21.1630351275
0
LINE
5
25A
100
AcDbEntity
8
0
100
AcDbLine
62
7
6
CONTINUOUS
10
3.7514281478
20
20.9228006407
11
3.7514281486
21
21.2514234752
0
LINE
5
25B
100
AcDbEntity
8
0
100
AcDbLine
62
9
6
CONTINUOUS
10
4.3853116251
20
22.6179024902
11
4.3853116251
21
22.2665885181
0
LINE
5
25C
100
AcDbEntity
8
0
100
AcDbLine
62
7
6
CONTINUOUS
10
4.4585349298
20
22.7062908378
11
4.4585349298
21
22.3549768658
0
LINE
5
25D
100
AcDbEntity
8
0
100
AcDbLine
62
9
6
CONTINUOUS
10
17.2192997036
20
14.9442643930
11
17.7496297895
21
15.5844294359
0
LINE
5
25E
100
AcDbEntity
8
0
100
AcDbLine
62
7
6
CONTINUOUS
10
17.2350420464
20
14.8731647474
11
17.7653721323
21
15.5133297904
0
LINE
5
25F
100
AcDbEntity
8
0
100
AcDbLine
62
7
6
CONTINUOUS
10
6.0753121671
20
19.0497729033
11
6.0753121671
21
20.2493073110
0
LINE
5
260
100
AcDbEntity
8
0
100
AcDbLine
62
9
6
CONTINUOUS
10
6.2217587766
20
18.8752115800
11
6.2217587766
21
20.0725306157
0
LINE
5
261
100
AcDbEntity
8
0
100
AcDbLine
62
7
6
CONTINUOUS
10
13.7432608924
20
-15.2719951030
11
14.3046507530
21
-20.5045860642
0
LINE
5
262
100
AcDbEntity
8
0
100
AcDbLine
62
9
6
CONTINUOUS
10
11.7412526290
20
17.3127836894
11
11.7412526290
21
16.1154646538
0
LINE
5
263
100
AcDbEntity
8
0
100
AcDbLine
62
7
6
CONTINUOUS
10
16.5892538419
20
-23.2504756149
11
14.8266028708
21
-6.8211950288
0
LINE
5
264
100
AcDbEntity
8
0
100
AcDbLine
62
9
6
CONTINUOUS
10
13.8580298664
20
-26.3670090698
11
13.8580300247
21
-26.3671497501
0
LINE
5
265
100
AcDbEntity
8
0
100
AcDbLine
62
9
6
CONTINUOUS
10
12.4503898561
20
17.3138047766
11
12.4503898561
21
16.1088839439
0
LINE
5
266
100
AcDbEntity
8
0
100
AcDbLine
62
7
6
CONTINUOUS
10
12.8705929993
20
21.7787067325
11
12.8705929993
21
22.6790618331
0
LINE
5
267
100
AcDbEntity
8
0
100
AcDbLine
62
7
6
CONTINUOUS
10
13.8580298664
20
-26.3670090576
11
13.8580298664
21
-26.0156950855
0
LINE
5
268
100
AcDbEntity
8
0
100
AcDbLine
62
7
6
CONTINUOUS
10
13.8580298664
20
15.2839090539
11
13.8580298664
21
15.6352230260
0
LINE
5
269
100
AcDbEntity
8
0
100
AcDbLine
62
9
6
CONTINUOUS
10
13.9312531711
20
-26.4553974052
11
13.9312531711
21
-26.1040834331
0
LINE
5
26A
100
AcDbEntity
8
0
100
AcDbLine
62
9
6
CONTINUOUS
10
13.9312531711
20
15.1955207063
11
13.9312531711
21
15.5468346783
0
LINE
5
26B
100
AcDbEntity
8
0
100
AcDbLine
62
7
6
CONTINUOUS
10
14.5651366476
20
-24.9121416949
11
14.5651366476
21
-24.8468718152
0
LINE
5
26C
100
AcDbEntity
8
0
100
AcDbLine
62
7
6
CONTINUOUS
10
14.5651366476
20
14.5835088419
11
14.5651366476
21
14.7758471661
0
LINE
5
26D
100
AcDbEntity
8
0
100
AcDbLine
62
9
6
CONTINUOUS
10
14.6383599523
20
-25.0005300425
11
14.6383599523
21
-24.8834834675
0
LINE
5
26E
100
AcDbEntity
8
0
100
AcDbLine
62
9
6
CONTINUOUS
10
14.6383599523
20
14.4971706371
11
14.6383599523
21
14.7392355138
0
LINE
5
26F
100
AcDbEntity
8
0
100
AcDbLine
62
9
6
CONTINUOUS
10
-19.4688272115
20
24.7718650586
11
10.5662101876
21
9.7543463591
0
LINE
5
270
100
AcDbEntity
8
0
100
AcDbLine
62
9
6
CONTINUOUS
10
15.2747560553
20
14.8750832362
11
15.2747560553
21
14.5237692641
0
LINE
5
271
100
AcDbEntity
8
0
100
AcDbLine
62
9
6
CONTINUOUS
10
15.2747560553
20
-26.7758348753
11
15.2747560553
21
-27.1271488473
0
LINE
5
272
100
AcDbEntity
8
0
100
AcDbLine
62
7
6
CONTINUOUS
10
15.3454667335
20
21.5710868809
11
15.3454667335
21
21.7661998259
0
LINE
5
273
100
AcDbEntity
8
0
100
AcDbLine
62
9
6
CONTINUOUS
10
15.6283094459
20
14.8750832362
11
15.6283094459
21
14.5237692641
0
LINE
5
274
100
AcDbEntity
8
0
100
AcDbLine
62
9
6
CONTINUOUS
10
15.6283094459
20
-26.7758348753
11
15.6283094459
21
-27.1271488473
0
LINE
5
275
100
AcDbEntity
8
0
100
AcDbLine
62
9
6
CONTINUOUS
10
15.9818628365
20
14.1273226547
11
15.9818628365
21
13.8254191950
0
LINE
5
276
100
AcDbEntity
8
0
100
AcDbLine
62
9
6
CONTINUOUS
10
15.9818628365
20
-25.4621890834
11
15.9818628365
21
-25.6722814847
0
LINE
5
277
100
AcDbEntity
8
0
100
AcDbLine
62
7
6
CONTINUOUS
10
16.1216117475
20
12.8000842712
11
16.1216117475
21
12.7742146334
0
LINE
5
278
100
AcDbEntity
8
0
100
AcDbLine
62
7
6
CONTINUOUS
10
16.1216117475
20
-25.1918987933
11
16.1216117475
21
-25.1660291555
0
LINE
5
279
100
AcDbEntity
8
0
100
AcDbLine
62
9
6
CONTINUOUS
10
16.3354162271
20
14.1273226547
11
16.3354162271
21
13.8186167566
0
LINE
5
27A
100
AcDbEntity
8
0
100
AcDbLine
62
9
6
CONTINUOUS
10
16.3354162271
20
-25.3635755866
11
16.3354162271
21
-25.6722814847
0
LINE
5
27B
100
AcDbEntity
8
0
100
AcDbLine
62
7
6
CONTINUOUS
10
16.5892538419
20
-24.8711133381
11
16.5892538419
21
-23.2504756149
0
LINE
5
27C
100
AcDbEntity
8
0
100
AcDbLine
62
7
6
CONTINUOUS
10
16.5892538419
20
11.3102578140
11
16.5892538419
21
12.9308955371
0
LINE
5
27D
100
AcDbEntity
8
0
100
AcDbLine
62
9
6
CONTINUOUS
10
17.0425230083
20
-25.3187280941
11
17.0425230083
21
-24.9949056663
0
LINE
5
27E
100
AcDbEntity
8
0
100
AcDbLine
62
9
6
CONTINUOUS
10
17.0425230083
20
14.1570536176
11
17.0425230083
21
14.4808760453
0
LINE
5
27F
100
AcDbEntity
8
0
100
AcDbLine
62
7
6
CONTINUOUS
10
17.1157463130
20
-25.2303397464
11
17.1157463130
21
-24.9282844872
0
LINE
5
280
100
AcDbEntity
8
0
100
AcDbLine
62
7
6
CONTINUOUS
10
17.1157463122
20
14.2406415584
11
17.1157463130
21
14.5692643930
0
LINE
5
281
100
AcDbEntity
8
0
100
AcDbLine
62
7
6
CONTINUOUS
10
16.3307321220
20
11.8311101518
11
12.7027588145
21
-26.1709906204
0
LINE
5
282
100
AcDbEntity
8
0
100
AcDbLine
62
7
6
CONTINUOUS
10
14.8266028708
20
-6.8211950288
11
16.5892538419
21
11.3102578140
0
LINE
5
283
100
AcDbEntity
8
0
100
AcDbLine
62
7
6
CONTINUOUS
10
15.4008319981
20
14.3673527228
11
15.9311620839
21
14.2575177657
0
LINE
5
284
100
AcDbEntity
8
0
100
AcDbLine
62
9
6
CONTINUOUS
10
-18.3248673214
20
26.3988186668
11
11.7271083313
21
11.3728308404
0
LINE
5
285
100
AcDbEntity
8
0
100
AcDbLine
62
9
6
CONTINUOUS
10
17.7496297895
20
15.9357434080
11
17.7496297895
21
15.5844294359
0
LINE
5
286
100
AcDbEntity
8
0
100
AcDbLine
62
9
6
CONTINUOUS
10
17.7496297895
20
-25.7151747035
11
17.7496297895
21
-26.0664886756
0
LINE
5
287
100
AcDbEntity
8
0
100
AcDbLine
62
7
6
CONTINUOUS
10
17.8228530942
20
16.0241317556
11
17.8228530942
21
15.6728177836
0
LINE
5
288
100
AcDbEntity
8
0
100
AcDbLine
62
7
6
CONTINUOUS
10
17.8228530942
20
-25.6267863558
11
17.8228530942
21
-25.9781003279
0
LINE
5
289
100
AcDbEntity
8
0
100
AcDbLine
62
7
6
CONTINUOUS
10
18.2799598754
20
-24.1044029248
11
18.2799598754
21
13.7968809619
0
LINE
5
28A
100
AcDbEntity
8
0
100
AcDbLine
62
7
6
CONTINUOUS
10
18.4241550689
20
19.0019256977
11
18.4241550689
21
19.9022807983
0
LINE
5
28B
100
AcDbEntity
8
0
100
AcDbLine
62
7
6
CONTINUOUS
10
13.4981958298
20
21.2536692117
11
15.3454667335
21
21.5710868809
0
LINE
5
28C
100
AcDbEntity
8
0
100
AcDbLine
62
9
6
CONTINUOUS
10
15.6283094459
20
14.5237692641
11
16.1586395318
21
14.4139343071
0
LINE
5
28D
100
AcDbEntity
8
0
100
AcDbLine
62
7
6
CONTINUOUS
10
16.5892538419
20
11.3102578140
11
16.2950509810
21
11.4573592444
0
LINE
5
28E
100
AcDbEntity
8
0
100
AcDbLine
62
7
6
CONTINUOUS
10
-14.3595698048
20
27.9327417386
11
15.8340620652
21
12.8359258037
0
LINE
5
28F
100
AcDbEntity
8
0
100
AcDbLine
62
7
6
CONTINUOUS
10
16.1216117475
20
12.7742146334
11
0.4271860957
21
20.6214274593
0
LINE
5
290
100
AcDbEntity
8
0
100
AcDbLine
62
7
6
CONTINUOUS
10
15.7678967968
20
13.4101523184
11
0.7809010464
21
20.9036501936
0
LINE
5
291
100
AcDbEntity
8
0
100
AcDbLine
62
9
6
CONTINUOUS
10
1.1301522886
20
20.9342062689
11
2.4736551729
21
20.2624548268
0
LINE
5
292
100
AcDbEntity
8
0
100
AcDbLine
62
9
6
CONTINUOUS
10
14.4944704530
20
14.2520471867
11
15.8379733373
21
13.5802957446
0
LINE
5
293
100
AcDbEntity
8
0
100
AcDbLine
62
9
6
CONTINUOUS
10
1.2740417878
20
21.1793297193
11
2.6175446721
21
20.5075782772
0
LINE
5
294
100
AcDbEntity
8
0
100
AcDbLine
62
9
6
CONTINUOUS
10
14.6383599523
20
14.4971706371
11
15.9818628365
21
13.8254191950
0
LINE
5
295
100
AcDbEntity
8
0
100
AcDbLine
62
7
6
CONTINUOUS
10
6.2217587766
20
18.8752115800
11
11.7412526290
21
16.1154646538
0
LINE
5
296
100
AcDbEntity
8
0
100
AcDbLine
62
7
6
CONTINUOUS
10
2.0365138336
20
21.0495118050
11
2.5668439195
21
20.9396768479
0
LINE
5
297
100
AcDbEntity
8
0
100
AcDbLine
62
9
6
CONTINUOUS
10
2.2639912815
20
21.2059283463
11
2.7943213674
21
21.0960933893
0
LINE
5
298
100
AcDbEntity
8
0
100
AcDbLine
62
7
6
CONTINUOUS
10
0.6319083031
20
21.7424613384
11
1.9754111873
21
21.0707098962
0
LINE
5
299
100
AcDbEntity
8
0
100
AcDbLine
62
7
6
CONTINUOUS
10
13.9962264675
20
15.0603022561
11
15.3397293518
21
14.3885508140
0
LINE
5
29A
100
AcDbEntity
8
0
100
AcDbLine
62
9
6
CONTINUOUS
10
15.9818628365
20
14.1273226547
11
15.5731997688
21
14.3316541886
0
LINE
5
29B
100
AcDbEntity
8
0
100
AcDbLine
62
9
6
CONTINUOUS
10
2.6175446721
20
20.8094817369
11
2.2088816044
21
21.0138132708
0
LINE
5
29C
100
AcDbEntity
8
0
100
AcDbLine
62
9
6
CONTINUOUS
10
0.5669350067
20
21.8776797885
11
1.9104378909
21
21.2059283463
0
LINE
5
29D
100
AcDbEntity
8
0
100
AcDbLine
62
9
6
CONTINUOUS
10
13.9312531711
20
15.1955207063
11
15.2747560553
21
14.5237692641
0
LINE
5
29E
100
AcDbEntity
8
0
100
AcDbLine
62
9
6
CONTINUOUS
10
0.5669350067
20
22.2289937605
11
1.9104378909
21
21.5572423184
0
LINE
5
29F
100
AcDbEntity
8
0
100
AcDbLine
62
9
6
CONTINUOUS
10
13.9312531711
20
15.5468346783
11
15.2747560553
21
14.8750832362
0
LINE
5
2A0
100
AcDbEntity
8
0
100
AcDbLine
62
9
6
CONTINUOUS
10
17.1814762216
20
14.2233257803
11
17.1136856270
21
14.2572210776
0
LINE
5
2A1
100
AcDbEntity
8
0
100
AcDbLine
62
9
6
CONTINUOUS
10
3.8171580571
20
20.9054848626
11
3.7493674626
21
20.9393801598
0
LINE
5
2A2
100
AcDbEntity
8
0
100
AcDbLine
62
9
6
CONTINUOUS
10
0.7437117020
20
22.5338884591
11
2.0872145862
21
21.8621370170
0
LINE
5
2A3
100
AcDbEntity
8
0
100
AcDbLine
62
9
6
CONTINUOUS
10
14.1080298664
20
15.8517293769
11
15.4515327506
21
15.1799779348
0
LINE
5
2A4
100
AcDbEntity
8
0
100
AcDbLine
62
7
6
CONTINUOUS
10
6.2217587766
20
20.0725306157
11
11.7412526290
21
17.3127836894
0
LINE
5
2A5
100
AcDbEntity
8
0
100
AcDbLine
62
7
6
CONTINUOUS
10
3.8107764224
20
21.4646832602
11
5.2214971677
21
20.7593228875
0
LINE
5
2A6
100
AcDbEntity
8
0
100
AcDbLine
62
7
6
CONTINUOUS
10
17.1750945869
20
14.7825241779
11
17.9262449247
21
14.4069490090
0
LINE
5
2A7
100
AcDbEntity
8
0
100
AcDbLine
62
7
6
CONTINUOUS
10
7.9208455310
20
20.6372008008
11
12.8705929993
21
18.1623270667
0
LINE
5
2A8
100
AcDbEntity
8
0
100
AcDbLine
62
7
6
CONTINUOUS
10
22.4785699581
20
17.1711196016
11
22.4785699581
21
16.2761567381
0
LINE
5
2A9
100
AcDbEntity
8
0
100
AcDbLine
62
7
6
CONTINUOUS
10
22.4785699581
20
-16.6401531599
11
22.4785699581
21
-18.2819291500
0
LINE
5
2AA
100
AcDbEntity
8
0
100
AcDbLine
62
7
6
CONTINUOUS
10
23.2123474131
20
17.8327594861
11
23.2123474131
21
17.5510440007
0
LINE
5
2AB
100
AcDbEntity
8
0
100
AcDbLine
62
7
6
CONTINUOUS
10
23.2123474131
20
-18.6488178775
11
23.2123474131
21
-18.9305333629
0
LINE
5
2AC
100
AcDbEntity
8
0
100
AcDbLine
62
9
6
CONTINUOUS
10
2.8650320455
20
23.5945486309
11
4.2085349298
21
22.9227971888
0
LINE
5
2AD
100
AcDbEntity
8
0
100
AcDbLine
62
9
6
CONTINUOUS
10
16.2293502099
20
16.9123895487
11
17.5728530942
21
16.2406381066
0
LINE
5
2AE
100
AcDbEntity
8
0
100
AcDbLine
62
7
6
CONTINUOUS
10
2.9768354444
20
23.6016490777
11
4.3203383286
21
22.9298976356
0
LINE
5
2AF
100
AcDbEntity
8
0
100
AcDbLine
62
7
6
CONTINUOUS
10
16.3411536088
20
16.9194899955
11
17.6846564931
21
16.2477385534
0
LINE
5
2B0
100
AcDbEntity
8
0
100
AcDbLine
62
7
6
CONTINUOUS
10
18.2799598754
20
-20.4181974802
11
22.4785699581
21
-18.2819291500
0
LINE
5
2B1
100
AcDbEntity
8
0
100
AcDbLine
62
9
6
CONTINUOUS
10
13.1947832221
20
-21.0171596697
11
14.3046507530
21
-20.5045860642
0
LINE
5
2B2
100
AcDbEntity
8
0
100
AcDbLine
62
7
6
CONTINUOUS
10
13.1737599595
20
-21.2373730163
11
14.2041069467
21
-20.7615246331
0
LINE
5
2B3
100
AcDbEntity
8
0
100
AcDbLine
62
7
6
CONTINUOUS
10
16.2757365596
20
19.8648988468
11
13.4981958298
21
21.2536692117
0
LINE
5
2B4
100
AcDbEntity
8
0
100
AcDbLine
62
9
6
CONTINUOUS
10
18.0726380221
20
20.1574986330
11
17.4667870770
21
20.4604241055
0
LINE
5
2B5
100
AcDbEntity
8
0
100
AcDbLine
62
9
6
CONTINUOUS
10
12.5170396087
20
22.9352978397
11
11.9111886636
21
23.2382233122
0
LINE
5
2B6
100
AcDbEntity
8
0
100
AcDbLine
62
7
6
CONTINUOUS
10
15.3454667335
20
21.5710868809
11
17.5224120451
21
20.4826142250
0
LINE
5
2B7
100
AcDbEntity
8
0
100
AcDbLine
62
7
6
CONTINUOUS
10
18.4015070297
20
20.0430667328
11
18.5191004491
21
19.9842700231
0
LINE
5
2B8
100
AcDbEntity
8
0
100
AcDbLine
62
7
6
CONTINUOUS
10
18.2949631331
20
20.1723403700
11
17.6903938748
21
20.4746249991
0
LINE
5
2B9
100
AcDbEntity
8
0
100
AcDbLine
62
7
6
CONTINUOUS
10
12.7406464065
20
22.9494987333
11
12.1360771481
21
23.2517833625
0
LINE
5
2BA
100
AcDbEntity
8
0
100
AcDbLine
62
9
6
CONTINUOUS
10
11.4865001524
20
23.8668105541
11
14.6507006672
21
22.2847102967
0
LINE
5
2BB
100
AcDbEntity
8
0
100
AcDbLine
62
9
6
CONTINUOUS
10
18.8933413543
20
20.1633899531
11
22.0575418692
21
18.5812896957
0
LINE
5
2BC
100
AcDbEntity
8
0
100
AcDbLine
62
7
6
CONTINUOUS
10
11.7606662894
20
23.9695272555
11
15.0855735478
21
22.3070736263
0
LINE
5
2BD
100
AcDbEntity
8
0
100
AcDbLine
62
7
6
CONTINUOUS
10
19.3282142349
20
20.1857532827
11
22.6531214933
21
18.5232996536
0
LINE
5
2BE
100
AcDbEntity
8
0
100
AcDbLine
62
7
6
CONTINUOUS
10
13.9155108283
20
-25.8562070923
11
14.4458409142
21
-25.2160420494
0
LINE
5
2BF
100
AcDbEntity
8
0
100
AcDbLine
62
9
6
CONTINUOUS
10
14.0196415187
20
-25.8723892593
11
14.5499716046
21
-25.2322242164
0
LINE
5
2C0
100
AcDbEntity
8
0
100
AcDbLine
62
9
6
CONTINUOUS
10
15.8934744889
20
-25.9039756585
11
15.3631444030
21
-26.5441407014
0
LINE
5
2C1
100
AcDbEntity
8
0
100
AcDbLine
62
9
6
CONTINUOUS
10
16.1586395318
20
-26.1356698323
11
15.6283094459
21
-26.7758348753
0
LINE
5
2C2
100
AcDbEntity
8
0
100
AcDbLine
62
7
6
CONTINUOUS
10
18.2799598754
20
-21.2026362849
11
23.2123474131
21
-18.6488178775
0
LINE
5
2C3
100
AcDbEntity
8
0
100
AcDbLine
62
7
6
CONTINUOUS
10
18.2799598754
20
-21.8171461390
11
22.0575418692
21
-19.9137901611
0
LINE
5
2C4
100
AcDbEntity
8
0
100
AcDbLine
62
7
6
CONTINUOUS
10
18.2799598754
20
-21.6794964567
11
23.1688791809
21
-19.2545564396
0
LINE
5
2C5
100
AcDbEntity
8
0
100
AcDbLine
62
9
6
CONTINUOUS
10
12.7027588145
20
-26.1709906204
11
8.6130686308
21
-27.4532542714
0
LINE
5
2C6
100
AcDbEntity
8
0
100
AcDbLine
62
7
6
CONTINUOUS
10
12.3901161302
20
-26.6469267174
11
8.2966084511
21
-27.9303872893
0
LINE
5
2C7
100
AcDbEntity
8
0
100
AcDbLine
62
7
6
CONTINUOUS
10
16.1216117475
20
-25.1660291555
11
16.5892538419
21
-24.8711133381
0
LINE
5
2C8
100
AcDbEntity
8
0
100
AcDbLine
62
9
6
CONTINUOUS
10
16.3354162271
20
-25.3635755866
11
17.0425230083
21
-24.9949056663
0
LINE
5
2C9
100
AcDbEntity
8
0
100
AcDbLine
62
7
6
CONTINUOUS
10
16.5270289391
20
-25.2292677356
11
16.5269393071
21
-25.2293135504
0
LINE
5
2CA
100
AcDbEntity
8
0
100
AcDbLine
62
7
6
CONTINUOUS
10
17.2462644659
20
-24.8615967624
11
17.2461831863
21
-24.8616383140
0
LINE
5
2CB
100
AcDbEntity
8
0
100
AcDbLine
62
9
6
CONTINUOUS
10
16.1216117475
20
-25.1918987933
11
16.3573640652
21
-25.0731204074
0
LINE
5
2CC
100
AcDbEntity
8
0
100
AcDbLine
62
9
6
CONTINUOUS
10
17.6418481580
20
-24.4259236058
11
18.2799598754
21
-24.1044029248
0
LINE
5
2CD
100
AcDbEntity
8
0
100
AcDbLine
62
7
6
CONTINUOUS
10
15.9921159018
20
-25.4621890834
11
16.2350154394
21
-25.3398027824
0
LINE
5
2CE
100
AcDbEntity
8
0
100
AcDbLine
62
7
6
CONTINUOUS
10
17.5194922675
20
-24.6926118934
11
18.1504640297
21
-24.3746932148
0
LINE
5
2CF
100
AcDbEntity
8
0
100
AcDbLine
62
9
6
CONTINUOUS
10
15.6283094459
20
-27.1271488473
11
17.7496297895
21
-26.0664886756
0
LINE
5
2D0
100
AcDbEntity
8
0
100
AcDbLine
62
7
6
CONTINUOUS
10
15.5633361495
20
-27.2623672974
11
17.6846564931
21
-26.2017071257
0
ARC
5
2D1
100
AcDbEntity
8
0
100
AcDbCircle
62
7
6
CONTINUOUS
10
2.0872145862
20
21.2943166940
40
0.2500000000
100
AcDbArc
50
244.0406531095
51
258.6758098606
0
SPLINE
5
2D2
100
AcDbEntity
8
0
100
AcDbSpline
62
7
6
CONTINUOUS
70
0
71
3
72
13
73
9
74
7
42
0.0000001000
43
0.0000001000
44
0.0000000001
12
0.8615074353
22
0.0438230607
32
0.0000000000
13
0.0000000000
23
-0.8561859219
33
0.0000000000
40
0.0000000000
40
0.0000000000
40
0.0000000000
40
0.0000000000
40
0.0862520800
40
0.2369017016
40
0.4110788636
40
0.6067881616
40
0.8065943203
40
1.0000000000
40
1.0000000000
40
1.0000000000
40
1.0000000000
10
22.0108869673
20
-16.0045092364
30
0.0000000000
10
22.0356559033
20
-16.0032492930
30
0.0000000000
10
22.1047762747
20
-16.0124459751
30
0.0000000000
10
22.2097943097
20
-16.0695423020
30
0.0000000000
10
22.3161808483
20
-16.1753493433
30
0.0000000000
10
22.4034222731
20
-16.3140672297
30
0.0000000000
10
22.4625428538
20
-16.4725182984
30
0.0000000000
10
22.4785699581
20
-16.5849560866
30
0.0000000000
10
22.4785699581
20
-16.6401531599
30
0.0000000000
11
22.0108869673
21
-16.0045092364
31
0.0000000000
11
22.0848472311
21
-16.0130886166
31
0.0000000000
11
22.2002141041
21
-16.0707720531
31
0.0000000000
11
22.3075773983
21
-16.1742722635
31
0.0000000000
11
22.3976865463
21
-16.3155446363
31
0.0000000000
11
22.4571313505
21
-16.4759556012
31
0.0000000000
11
22.4785699581
21
-16.6401531599
31
0.0000000000
0
SPLINE
5
2D3
100
AcDbEntity
8
0
100
AcDbSpline
62
7
6
CONTINUOUS
70
0
71
3
72
9
73
5
74
3
42
0.0000001000
43
0.0000001000
44
0.0000000001
12
-3.7309398540
22
-0.1986514818
32
0.0000000000
13
-3.7309398540
23
-0.1986514818
33
0.0000000000
40
0.0000000000
40
0.0000000000
40
0.0000000000
40
0.0000000000
40
0.9391137222
40
1.0000000000
40
1.0000000000
40
1.0000000000
40
1.0000000000
10
22.0108997294
20
-16.0045296632
30
0.0000000000
10
20.8429741249
20
-16.0667151073
30
0.0000000000
10
19.5993275069
20
-16.1329322680
30
0.0000000000
10
18.3556808889
20
-16.1991494286
30
0.0000000000
10
18.2799598754
20
-16.2031811450
30
0.0000000000
11
22.0108997294
21
-16.0045296632
31
0.0000000000
11
18.5071229158
21
-16.1910859957
31
0.0000000000
11
18.2799598754
21
-16.2031811450
31
0.0000000000
0
SPLINE
5
2D4
100
AcDbEntity
8
0
100
AcDbSpline
62
7
6
CONTINUOUS
70
0
71
3
72
9
73
5
74
3
42
0.0000001000
43
0.0000001000
44
0.0000000001
12
4.1129277279
22
3.9131689562
32
0.0000000000
13
4.1129277279
23
3.9131689562
33
0.0000000000
40
0.0000000000
40
0.0000000000
40
0.0000000000
40
0.0000000000
40
0.1490541810
40
1.0000000000
40
1.0000000000
40
1.0000000000
40
1.0000000000
10
18.2799598754
20
12.1145430512
30
0.0000000000
10
18.4843095667
20
12.3089677825
30
0.0000000000
10
19.8552854760
20
13.6133574346
30
0.0000000000
10
21.2262613853
20
14.9177470867
30
0.0000000000
10
22.3928876032
20
16.0277120075
30
0.0000000000
11
18.2799598754
21
12.1145430512
31
0.0000000000
11
18.8930089493
21
12.6978172450
31
0.0000000000
11
22.3928876032
21
16.0277120075
31
0.0000000000
0
SPLINE
5
2D5
100
AcDbEntity
8
0
100
AcDbSpline
62
7
6
CONTINUOUS
70
0
71
3
72
12
73
8
74
6
42
0.0000001000
43
0.0000001000
44
0.0000000001
12
0.2861826270
22
0.1464636216
32
0.0000000000
13
0.2870816075
23
0.1454489004
33
0.0000000000
40
0.0000000000
40
0.0000000000
40
0.0000000000
40
0.0000000000
40
0.0203303484
40
0.3735358531
40
0.6940905807
40
0.9446455716
40
1.0000000000
40
1.0000000000
40
1.0000000000
40
1.0000000000
10
17.2462660984
20
-24.8615999523
30
0.0000000000
10
17.2482054959
20
-24.8606074001
30
0.0000000000
10
17.2837821386
20
-24.8422631741
30
0.0000000000
10
17.3479358457
20
-24.8045263419
30
0.0000000000
10
17.4294600414
20
-24.7482976769
30
0.0000000000
10
17.4853083657
20
-24.7112326844
30
0.0000000000
10
17.5140597191
20
-24.6952397742
30
0.0000000000
10
17.5193567985
20
-24.6925560273
30
0.0000000000
11
17.2462660984
21
-24.8615999523
31
0.0000000000
11
17.2520750249
21
-24.8586047471
31
0.0000000000
11
17.3501706829
21
-24.8015542724
31
0.0000000000
11
17.4358047186
21
-24.7443393998
31
0.0000000000
11
17.5037030414
21
-24.7010965888
31
0.0000000000
11
17.5193567985
21
-24.6925560273
31
0.0000000000
0
SPLINE
5
2D6
100
AcDbEntity
8
0
100
AcDbSpline
62
7
6
CONTINUOUS
70
0
71
3
72
9
73
5
74
3
42
0.0000001000
43
0.0000001000
44
0.0000000001
12
0.4021693182
22
0.2057133077
32
0.0000000000
13
0.4022264492
23
0.2056015786
33
0.0000000000
40
0.0000000000
40
0.0000000000
40
0.0000000000
40
0.0000000000
40
0.5325168765
40
1.0000000000
40
1.0000000000
40
1.0000000000
40
1.0000000000
10
16.5270289391
20
-25.2292677355
30
0.0000000000
10
16.5984162555
20
-25.1927524662
30
0.0000000000
10
16.7324778064
20
-25.1241913562
30
0.0000000000
10
16.8665488732
20
-25.0556488569
30
0.0000000000
10
16.9292268988
20
-25.0236104342
30
0.0000000000
11
16.5270289391
21
-25.2292677355
31
0.0000000000
11
16.7411990306
21
-25.1197378474
31
0.0000000000
11
16.9292268988
21
-25.0236104342
31
0.0000000000
0
SPLINE
5
2D7
100
AcDbEntity
8
0
100
AcDbSpline
62
7
6
CONTINUOUS
70
0
71
3
72
9
73
5
74
3
42
0.0000001000
43
0.0000001000
44
0.0000000001
12
0.3169389929
22
0.1620061470
32
0.0000000000
13
0.3169739738
23
0.1619376941
33
0.0000000000
40
0.0000000000
40
0.0000000000
40
0.0000000000
40
0.0000000000
40
0.2974193357
40
1.0000000000
40
1.0000000000
40
1.0000000000
40
1.0000000000
10
16.9292268988
20
-25.0236104342
30
0.0000000000
10
16.9606481604
20
-25.0075491806
30
0.0000000000
10
17.0662962359
20
-24.9535505445
30
0.0000000000
10
17.1719501554
20
-24.8995633428
30
0.0000000000
10
17.2461834171
20
-24.8616385786
30
0.0000000000
11
16.9292268988
21
-25.0236104342
31
0.0000000000
11
17.0234922382
21
-24.9754297151
31
0.0000000000
11
17.2461834171
21
-24.8616385786
31
0.0000000000
0
SPLINE
5
2D8
100
AcDbEntity
8
0
100
AcDbSpline
62
7
6
CONTINUOUS
70
0
71
3
72
12
73
8
74
6
42
0.0000001000
43
0.0000001000
44
0.0000000001
12
0.2802987925
22
0.1421531871
32
0.0000000000
13
0.2799418859
23
0.1430429263
33
0.0000000000
40
0.0000000000
40
0.0000000000
40
0.0000000000
40
0.0000000000
40
0.1192881673
40
0.3244077828
40
0.5847733026
40
0.9145103583
40
1.0000000000
40
1.0000000000
40
1.0000000000
40
1.0000000000
10
16.2335263759
20
-25.3406070321
30
0.0000000000
10
16.2446718190
20
-25.3349546344
30
0.0000000000
10
16.2761732075
20
-25.3218316618
30
0.0000000000
10
16.3350345328
20
-25.3049285765
30
0.0000000000
10
16.4144170159
20
-25.2796510735
30
0.0000000000
10
16.4799517960
20
-25.2526681259
30
0.0000000000
10
16.5189657327
20
-25.2333973768
30
0.0000000000
10
16.5269431099
20
-25.2293211472
30
0.0000000000
11
16.2335263759
21
-25.3406070321
31
0.0000000000
11
16.2679944245
21
-25.3258102032
31
0.0000000000
11
16.3293984284
21
-25.3062650410
31
0.0000000000
11
16.4071679997
21
-25.2809195635
31
0.0000000000
11
16.5028472330
21
-25.2412186692
31
0.0000000000
11
16.5269431099
21
-25.2293211472
31
0.0000000000
0
SPLINE
5
2D9
100
AcDbEntity
8
0
100
AcDbSpline
62
7
6
CONTINUOUS
70
0
71
3
72
8
73
4
74
2
42
0.0000001000
43
0.0000001000
44
0.0000000001
12
-0.0100097934
22
-0.0048867857
32
0.0000000000
13
-0.0100098304
23
-0.0048867099
33
0.0000000000
40
0.0000000000
40
0.0000000000
40
0.0000000000
40
0.0000000000
40
1.0000000000
40
1.0000000000
40
1.0000000000
40
1.0000000000
10
1.2008186319
20
21.2726916788
30
0.0000000000
10
1.1974820341
20
21.2710627503
30
0.0000000000
10
1.1941454301
20
21.2694338343
30
0.0000000000
10
1.1908088200
20
21.2678049310
30
0.0000000000
11
1.2008186319
21
21.2726916788
31
0.0000000000
11
1.1908088200
21
21.2678049310
31
0.0000000000
0
SPLINE
5
2DA
100
AcDbEntity
8
0
100
AcDbSpline
62
7
6
CONTINUOUS
70
0
71
3
72
8
73
4
74
2
42
0.0000001000
43
0.0000001000
44
0.0000000001
12
-0.0170085547
22
-0.0083034246
32
0.0000000000
13
-0.0170086616
23
-0.0083032055
33
0.0000000000
40
0.0000000000
40
0.0000000000
40
0.0000000000
40
0.0000000000
40
1.0000000000
40
1.0000000000
40
1.0000000000
40
1.0000000000
10
1.1908088200
20
21.2678049310
30
0.0000000000
10
1.1851393017
20
21.2650371229
30
0.0000000000
10
1.1794697657
20
21.2622693512
30
0.0000000000
10
1.1738002119
20
21.2595016160
30
0.0000000000
11
1.1908088200
21
21.2678049310
31
0.0000000000
11
1.1738002119
21
21.2595016160
31
0.0000000000
0
SPLINE
5
2DB
100
AcDbEntity
8
0
100
AcDbSpline
62
7
6
CONTINUOUS
70
0
71
3
72
8
73
4
74
2
42
0.0000001000
43
0.0000001000
44
0.0000000001
12
-0.0992194839
22
-0.0484364841
32
0.0000000000
13
-0.0992231313
23
-0.0484290116
33
0.0000000000
40
0.0000000000
40
0.0000000000
40
0.0000000000
40
0.0000000000
40
1.0000000000
40
1.0000000000
40
1.0000000000
40
1.0000000000
10
1.1738002119
20
21.2595016160
30
0.0000000000
10
1.1407270505
20
21.2433561213
30
0.0000000000
10
1.1076532826
20
21.2272118694
30
0.0000000000
10
1.0745789054
20
21.2110688655
30
0.0000000000
11
1.1738002119
21
21.2595016160
31
0.0000000000
11
1.0745789054
21
21.2110688655
31
0.0000000000
0
SPLINE
5
2DC
100
AcDbEntity
8
0
100
AcDbSpline
62
7
6
CONTINUOUS
70
0
71
3
72
8
73
4
74
2
42
0.0000001000
43
0.0000001000
44
0.0000000001
12
-0.0949546266
22
-0.0464162610
32
0.0000000000
13
-0.0896625395
23
-0.0558808975
33
0.0000000000
40
0.0000000000
40
0.0000000000
40
0.0000000000
40
0.0000000000
40
1.0000000000
40
1.0000000000
40
1.0000000000
40
1.0000000000
10
1.0745288452
20
21.2110466625
30
0.0000000000
10
1.0428773030
20
21.1955745755
30
0.0000000000
10
1.0121096150
20
21.1783364288
30
0.0000000000
10
0.9822221018
20
21.1597094630
30
0.0000000000
11
1.0745288452
21
21.2110466625
31
0.0000000000
11
0.9822221018
21
21.1597094630
31
0.0000000000
0
SPLINE
5
2DD
100
AcDbEntity
8
0
100
AcDbSpline
62
7
6
CONTINUOUS
70
0
71
3
72
11
73
7
74
5
42
0.0000001000
43
0.0000001000
44
0.0000000001
12
-0.1931195356
22
-0.1203589931
32
0.0000000000
13
-0.2048467002
23
-0.0985579995
33
0.0000000000
40
0.0000000000
40
0.0000000000
40
0.0000000000
40
0.0000000000
40
0.4240505379
40
0.7755048330
40
0.9913553496
40
1.0000000000
40
1.0000000000
40
1.0000000000
40
1.0000000000
10
0.9822221018
20
21.1597094630
30
0.0000000000
10
0.9549246209
20
21.1426966977
30
0.0000000000
10
0.9063456723
20
21.1094649675
30
0.0000000000
10
0.8451514953
20
21.0659618557
30
0.0000000000
10
0.8082528077
20
21.0422589768
30
0.0000000000
10
0.7929599176
20
21.0348123053
30
0.0000000000
10
0.7923696415
20
21.0345283055
30
0.0000000000
11
0.9822221018
21
21.1597094630
31
0.0000000000
11
0.9020100326
21
21.1061150954
31
0.0000000000
11
0.8362719062
21
21.0606052037
31
0.0000000000
11
0.7941363363
21
21.0353884619
31
0.0000000000
11
0.7923696415
21
21.0345283055
31
0.0000000000
0
SPLINE
5
2DE
100
AcDbEntity
8
0
100
AcDbSpline
62
7
6
CONTINUOUS
70
0
71
3
72
12
73
8
74
6
42
0.0000001000
43
0.0000001000
44
0.0000000001
12
-0.2841899184
22
-0.1409957503
32
0.0000000000
13
0.0000000000
23
-0.3158193894
33
0.0000000000
40
0.0000000000
40
0.0000000000
40
0.0000000000
40
0.0000000000
40
0.0994284458
40
0.2956523921
40
0.5079778249
40
0.7422601447
40
1.0000000000
40
1.0000000000
40
1.0000000000
40
1.0000000000
10
0.5577534129
20
20.9180986923
30
0.0000000000
10
0.5483345589
20
20.9134256962
30
0.0000000000
10
0.5214760454
20
20.8972118842
30
0.0000000000
10
0.4832891471
20
20.8585896028
30
0.0000000000
10
0.4506841627
20
20.7984394861
30
0.0000000000
10
0.4311300898
20
20.7263761332
30
0.0000000000
10
0.4271860957
20
20.6744301784
30
0.0000000000
10
0.4271860957
20
20.6472970971
30
0.0000000000
11
0.5577534129
21
20.9180986923
31
0.0000000000
11
0.5307934153
21
20.9018116544
31
0.0000000000
11
0.4868041890
21
20.8581608432
31
0.0000000000
11
0.4541153846
21
20.7996115928
31
0.0000000000
11
0.4339841176
21
20.7284119772
31
0.0000000000
11
0.4271860957
21
20.6472970971
31
0.0000000000
0
SPLINE
5
2DF
100
AcDbEntity
8
0
100
AcDbSpline
62
7
6
CONTINUOUS
70
0
71
3
72
9
73
5
74
3
42
0.0000001000
43
0.0000001000
44
0.0000000001
12
0.0038728900
22
-0.0034362326
32
0.0000000000
13
0.0014837930
23
-0.0005560489
33
0.0000000000
40
0.0000000000
40
0.0000000000
40
0.0000000000
40
0.0000000000
40
0.9246804017
40
1.0000000000
40
1.0000000000
40
1.0000000000
40
1.0000000000
10
17.1250919300
20
14.1994542004
30
0.0000000000
10
17.1262856585
20
14.1983950614
30
0.0000000000
10
17.1273709943
20
14.1974761061
30
0.0000000000
10
17.1279060233
20
14.1972404320
30
0.0000000000
10
17.1279432762
20
14.1972264715
30
0.0000000000
11
17.1250919300
21
14.1994542004
31
0.0000000000
11
17.1278223050
21
14.1972798101
31
0.0000000000
11
17.1279432762
21
14.1972264715
31
0.0000000000
0
SPLINE
5
2E0
100
AcDbEntity
8
0
100
AcDbSpline
62
7
6
CONTINUOUS
70
0
71
3
72
10
73
6
74
4
42
0.0000001000
43
0.0000001000
44
0.0000000001
12
0.0361071717
22
-0.0320361903
32
0.0000000000
13
0.0007286194
23
0.0384186034
33
0.0000000000
40
0.0000000000
40
0.0000000000
40
0.0000000000
40
0.0000000000
40
0.0991821094
40
0.5232654770
40
1.0000000000
40
1.0000000000
40
1.0000000000
40
1.0000000000
10
17.1250919300
20
14.1994542004
30
0.0000000000
10
17.1262856585
20
14.1983950614
30
0.0000000000
10
17.1315803970
20
14.1939119991
30
0.0000000000
10
17.1166700401
20
14.2164214604
30
0.0000000000
10
17.1144426372
20
14.2288541002
30
0.0000000000
10
17.1145584232
20
14.2349592584
30
0.0000000000
11
17.1250919300
21
14.1994542004
31
0.0000000000
11
17.1278223050
21
14.1972798101
31
0.0000000000
11
17.1199382548
21
14.2134977825
31
0.0000000000
11
17.1145584232
21
14.2349592584
31
0.0000000000
0
SPLINE
5
2E1
100
AcDbEntity
8
0
100
AcDbSpline
62
7
6
CONTINUOUS
70
0
71
3
72
8
73
4
74
2
42
0.0000001000
43
0.0000001000
44
0.0000000001
12
0.0001128612
22
0.0059509408
32
0.0000000000
13
0.0007431701
23
0.0058276410
33
0.0000000000
40
0.0000000000
40
0.0000000000
40
0.0000000000
40
0.0000000000
40
1.0000000000
40
1.0000000000
40
1.0000000000
40
1.0000000000
10
17.1145584232
20
14.2349592584
30
0.0000000000
10
17.1145960436
20
14.2369429053
30
0.0000000000
10
17.1147703312
20
14.2388764605
30
0.0000000000
10
17.1150180546
20
14.2408190075
30
0.0000000000
11
17.1145584232
21
14.2349592584
31
0.0000000000
11
17.1150180546
21
14.2408190075
31
0.0000000000
0
SPLINE
5
2E2
100
AcDbEntity
8
0
100
AcDbSpline
62
7
6
CONTINUOUS
70
0
71
3
72
9
73
5
74
3
42
0.0000001000
43
0.0000001000
44
0.0000000001
12
0.0044481710
22
-0.0334116510
32
0.0000000000
13
-0.0237930890
23
-0.0409209499
33
0.0000000000
40
0.0000000000
40
0.0000000000
40
0.0000000000
40
0.0000000000
40
0.7570100233
40
1.0000000000
40
1.0000000000
40
1.0000000000
40
1.0000000000
10
14.5658248759
20
14.5838325240
30
0.0000000000
10
14.5669473126
20
14.5754015391
30
0.0000000000
10
14.5668269169
20
14.5646813902
30
0.0000000000
10
14.5558025722
20
14.5467157834
30
0.0000000000
10
14.5538754114
20
14.5434013232
30
0.0000000000
11
14.5658248759
21
14.5838325240
31
0.0000000000
11
14.5605163685
21
14.5550189064
31
0.0000000000
11
14.5538754114
21
14.5434013232
31
0.0000000000
0
SPLINE
5
2E3
100
AcDbEntity
8
0
100
AcDbSpline
62
7
6
CONTINUOUS
70
0
71
3
72
9
73
5
74
3
42
0.0000001000
43
0.0000001000
44
0.0000000001
12
0.0044481710
22
-0.0334116510
32
0.0000000000
13
-0.0237930890
23
-0.0409209499
33
0.0000000000
40
0.0000000000
40
0.0000000000
40
0.0000000000
40
0.0000000000
40
0.7570100233
40
1.0000000000
40
1.0000000000
40
1.0000000000
40
1.0000000000
10
1.2015067115
20
21.2659916063
30
0.0000000000
10
1.2026291482
20
21.2575606214
30
0.0000000000
10
1.2025087525
20
21.2468404725
30
0.0000000000
10
1.1914844077
20
21.2288748656
30
0.0000000000
10
1.1895572470
20
21.2255604054
30
0.0000000000
11
1.2015067115
21
21.2659916063
31
0.0000000000
11
1.1961982041
21
21.2371779886
31
0.0000000000
11
1.1895572470
21
21.2255604054
31
0.0000000000
0
SPLINE
5
2E4
100
AcDbEntity
8
0
100
AcDbSpline
62
7
6
CONTINUOUS
70
0
71
3
72
9
73
5
74
3
42
0.0000001000
43
0.0000001000
44
0.0000000001
12
0.0039107938
22
-0.0034707570
32
0.0000000000
13
0.0014760814
23
-0.0005345179
33
0.0000000000
40
0.0000000000
40
0.0000000000
40
0.0000000000
40
0.0000000000
40
0.9160834873
40
1.0000000000
40
1.0000000000
40
1.0000000000
40
1.0000000000
10
3.7607624221
20
20.8816282482
30
0.0000000000
10
3.7619566266
20
20.8805684138
30
0.0000000000
10
3.7630547254
20
20.8796374338
30
0.0000000000
10
3.7635924791
20
20.8794023186
30
0.0000000000
10
3.7636337683
20
20.8793873670
30
0.0000000000
11
3.7607624221
21
20.8816282482
31
0.0000000000
11
3.7634982803
21
20.8794466790
31
0.0000000000
11
3.7636337683
21
20.8793873670
31
0.0000000000
0
SPLINE
5
2E5
100
AcDbEntity
8
0
100
AcDbSpline
62
7
6
CONTINUOUS
70
0
71
3
72
10
73
6
74
4
42
0.0000001000
43
0.0000001000
44
0.0000000001
12
0.0361637486
22
-0.0320946567
32
0.0000000000
13
0.0007434712
23
0.0384129300
33
0.0000000000
40
0.0000000000
40
0.0000000000
40
0.0000000000
40
0.0000000000
40
0.0990664335
40
0.5234969175
40
1.0000000000
40
1.0000000000
40
1.0000000000
40
1.0000000000
10
3.7607624221
20
20.8816282482
30
0.0000000000
10
3.7619566266
20
20.8805684138
30
0.0000000000
10
3.7672723705
20
20.8760616684
30
0.0000000000
10
3.7523432539
20
20.8986026049
30
0.0000000000
10
3.7501185320
20
20.9110383299
30
0.0000000000
10
3.7502366208
20
20.9171396231
30
0.0000000000
11
3.7607624221
21
20.8816282482
31
0.0000000000
11
3.7634982803
21
20.8794466790
31
0.0000000000
11
3.7556119758
21
20.8956817244
31
0.0000000000
11
3.7502366208
21
20.9171396231
31
0.0000000000
0
SPLINE
5
2E6
100
AcDbEntity
8
0
100
AcDbSpline
62
7
6
CONTINUOUS
70
0
71
3
72
8
73
4
74
2
42
0.0000001000
43
0.0000001000
44
0.0000000001
12
0.0001147804
22
0.0059303605
32
0.0000000000
13
0.0007419665
23
0.0058067120
33
0.0000000000
40
0.0000000000
40
0.0000000000
40
0.0000000000
40
0.0000000000
40
1.0000000000
40
1.0000000000
40
1.0000000000
40
1.0000000000
10
3.7502366208
20
20.9171396231
30
0.0000000000
10
3.7502748810
20
20.9191164099
30
0.0000000000
10
3.7504490536
20
20.9210432348
30
0.0000000000
10
3.7506963757
20
20.9229788055
30
0.0000000000
11
3.7502366208
21
20.9171396231
31
0.0000000000
11
3.7506963757
21
20.9229788055
31
0.0000000000
0
SPLINE
5
2E7
100
AcDbEntity
8
0
100
AcDbSpline
62
7
6
CONTINUOUS
70
0
71
3
72
9
73
5
74
3
42
0.0000001000
43
0.0000001000
44
0.0000000001
12
0.1096361328
22
0.1323425194
32
0.0000000000
13
-0.0000205804
23
0.1729517834
33
0.0000000000
40
0.0000000000
40
0.0000000000
40
0.0000000000
40
0.0000000000
40
0.5650888977
40
1.0000000000
40
1.0000000000
40
1.0000000000
40
1.0000000000
10
4.4010539679
20
22.1954888726
30
0.0000000000
10
4.4217053550
20
22.2204173020
30
0.0000000000
10
4.4498473475
20
22.2723118935
30
0.0000000000
10
4.4585485704
20
22.3298928792
30
0.0000000000
10
4.4585455869
20
22.3549657628
30
0.0000000000
11
4.4010539679
21
22.1954888726
31
0.0000000000
11
4.4473028773
21
22.2808832275
31
0.0000000000
11
4.4585455869
21
22.3549657628
31
0.0000000000
0
SPLINE
5
2E8
100
AcDbEntity
8
0
100
AcDbSpline
62
7
6
CONTINUOUS
70
0
71
3
72
11
73
7
74
5
42
0.0000001000
43
0.0000001000
44
0.0000000001
12
0.0000000000
22
0.3319188356
32
0.0000000000
13
0.2117482760
23
0.2556027798
33
0.0000000000
40
0.0000000000
40
0.0000000000
40
0.0000000000
40
0.0000000000
40
0.2021870167
40
0.4569144805
40
0.7347910379
40
1.0000000000
40
1.0000000000
40
1.0000000000
40
1.0000000000
10
3.7514281486
20
21.2514234752
30
0.0000000000
10
3.7514281486
20
21.2737933682
30
0.0000000000
10
3.7572045282
20
21.3243633783
30
0.0000000000
10
3.7799504149
20
21.4027676270
30
0.0000000000
10
3.8178598459
20
21.4828866944
30
0.0000000000
10
3.8520047018
20
21.5327277803
30
0.0000000000
10
3.8707238820
20
21.5553238296
30
0.0000000000
11
3.7514281486
21
21.2514234752
31
0.0000000000
11
3.7581787856
21
21.3181927640
31
0.0000000000
11
3.7812514271
21
21.3995325458
31
0.0000000000
11
3.8206449672
21
21.4829290463
31
0.0000000000
11
3.8707238820
21
21.5553238296
31
0.0000000000
0
SPLINE
5
2E9
100
AcDbEntity
8
0
100
AcDbSpline
62
7
6
CONTINUOUS
70
0
71
3
72
9
73
5
74
3
42
0.0000001000
43
0.0000001000
44
0.0000000001
12
-0.1400536293
22
0.0700268147
32
0.0000000000
13
-0.1553150236
23
-0.0260733144
33
0.0000000000
40
0.0000000000
40
0.0000000000
40
0.0000000000
40
0.0000000000
40
0.5938161293
40
1.0000000000
40
1.0000000000
40
1.0000000000
40
1.0000000000
10
2.9768354444
20
23.6016490777
30
0.0000000000
10
2.9491134097
20
23.6155100951
30
0.0000000000
10
2.8975318229
20
23.6302046436
30
0.0000000000
10
2.8446275908
20
23.6281075321
30
0.0000000000
10
2.8235987716
20
23.6245773455
30
0.0000000000
11
2.9768354444
21
23.6016490777
31
0.0000000000
11
2.8873870653
21
23.6270407802
31
0.0000000000
11
2.8235987716
21
23.6245773455
31
0.0000000000
0
SPLINE
5
2EA
100
AcDbEntity
8
0
100
AcDbSpline
62
7
6
CONTINUOUS
70
0
71
3
72
9
73
5
74
3
42
0.0000001000
43
0.0000001000
44
0.0000000001
12
-0.0630105568
22
-0.0105778180
32
0.0000000000
13
-0.0582779541
23
-0.0261788478
33
0.0000000000
40
0.0000000000
40
0.0000000000
40
0.0000000000
40
0.0000000000
40
0.4988901599
40
1.0000000000
40
1.0000000000
40
1.0000000000
40
1.0000000000
10
2.8235987716
20
23.6245773455
30
0.0000000000
10
2.8131203227
20
23.6228182890
30
0.0000000000
10
2.7923457546
20
23.6179593487
30
0.0000000000
10
2.7723672562
20
23.6104742101
30
0.0000000000
10
2.7626327041
20
23.6061013840
30
0.0000000000
11
2.8235987716
21
23.6245773455
31
0.0000000000
11
2.7925900024
21
23.6173164959
31
0.0000000000
11
2.7626327041
21
23.6061013840
31
0.0000000000
0
SPLINE
5
2EB
100
AcDbEntity
8
0
100
AcDbSpline
62
7
6
CONTINUOUS
70
0
71
3
72
8
73
4
74
2
42
0.0000001000
43
0.0000001000
44
0.0000000001
12
-0.0096558732
22
-0.0043374830
32
0.0000000000
13
-0.0094659185
23
-0.0047413722
33
0.0000000000
40
0.0000000000
40
0.0000000000
40
0.0000000000
40
0.0000000000
40
1.0000000000
40
1.0000000000
40
1.0000000000
40
1.0000000000
10
2.7626327041
20
23.6061013840
30
0.0000000000
10
2.7594140797
20
23.6046555563
30
0.0000000000
10
2.7562257233
20
23.6031417357
30
0.0000000000
10
2.7530704172
20
23.6015612783
30
0.0000000000
11
2.7626327041
21
23.6061013840
31
0.0000000000
11
2.7530704172
21
23.6015612783
31
0.0000000000
0
SPLINE
5
2EC
100
AcDbEntity
8
0
100
AcDbSpline
62
7
6
CONTINUOUS
70
0
71
3
72
10
73
6
74
4
42
0.0000001000
43
0.0000001000
44
0.0000000001
12
0.0000000000
22
0.2750055205
32
0.0000000000
13
-0.2476939254
23
0.1239493391
33
0.0000000000
40
0.0000000000
40
0.0000000000
40
0.0000000000
40
0.0000000000
40
0.3515965847
40
0.7088437165
40
1.0000000000
40
1.0000000000
40
1.0000000000
40
1.0000000000
10
4.4585349298
20
22.7062908378
30
0.0000000000
10
4.4585349298
20
22.7385211718
30
0.0000000000
10
4.4456596720
20
22.8041934638
30
0.0000000000
10
4.3935178187
20
22.8824291455
30
0.0000000000
10
4.3443940147
20
22.9178609041
30
0.0000000000
10
4.3203548004
20
22.9298904470
30
0.0000000000
11
4.4585349298
21
22.7062908378
31
0.0000000000
11
4.4398366301
21
22.8011566558
31
0.0000000000
11
4.3854227187
21
22.8829563697
31
0.0000000000
11
4.3203548004
21
22.9298904470
31
0.0000000000
0
SPLINE
5
2ED
100
AcDbEntity
8
0
100
AcDbSpline
62
7
6
CONTINUOUS
70
0
71
3
72
10
73
6
74
4
42
0.0000001000
43
0.0000001000
44
0.0000000001
12
-0.2458560429
22
-0.1229280215
32
0.0000000000
13
-0.0001441149
23
-0.2769550268
33
0.0000000000
40
0.0000000000
40
0.0000000000
40
0.0000000000
40
0.0000000000
40
0.3616445120
40
0.7319445178
40
1.0000000000
40
1.0000000000
40
1.0000000000
40
1.0000000000
10
0.6319083031
20
22.5409889059
30
0.0000000000
10
0.6022708069
20
22.5261701578
30
0.0000000000
10
0.5477293209
20
22.4836046976
30
0.0000000000
10
0.5025110221
20
22.4010221791
30
0.0000000000
10
0.4937281562
20
22.3421501004
30
0.0000000000
10
0.4937152793
20
22.3174036627
30
0.0000000000
11
0.6319083031
21
22.5409889059
31
0.0000000000
11
0.5536092998
21
22.4797430539
31
0.0000000000
11
0.5046454104
21
22.3905073996
31
0.0000000000
11
0.4937152793
21
22.3174036627
31
0.0000000000
0
SPLINE
5
2EE
100
AcDbEntity
8
0
100
AcDbSpline
62
7
6
CONTINUOUS
70
0
71
3
72
10
73
6
74
4
42
0.0000001000
43
0.0000001000
44
0.0000000001
12
-0.1461493039
22
0.0730282089
32
0.0000000000
13
-0.0715030460
23
0.1475972387
33
0.0000000000
40
0.0000000000
40
0.0000000000
40
0.0000000000
40
0.0000000000
40
0.4778366044
40
0.9841797995
40
1.0000000000
40
1.0000000000
40
1.0000000000
40
1.0000000000
10
0.6320160289
20
21.7424079777
30
0.0000000000
10
0.6087375332
20
21.7540398281
30
0.0000000000
10
0.5642513561
20
21.7857537739
30
0.0000000000
10
0.5317210301
20
21.8305858671
30
0.0000000000
10
0.5191416369
20
21.8562102309
30
0.0000000000
10
0.5187645727
20
21.8569885702
30
0.0000000000
11
0.6320160289
21
21.7424079777
31
0.0000000000
11
0.5684795249
21
21.7877603008
31
0.0000000000
11
0.5199079282
21
21.8546595599
31
0.0000000000
11
0.5187645727
21
21.8569885702
31
0.0000000000
0
SPLINE
5
2EF
100
AcDbEntity
8
0
100
AcDbSpline
62
7
6
CONTINUOUS
70
0
71
3
72
8
73
4
74
2
42
0.0000001000
43
0.0000001000
44
0.0000000001
12
-0.0359581859
22
0.0742252148
32
0.0000000000
13
-0.0100196395
23
0.0818812557
33
0.0000000000
40
0.0000000000
40
0.0000000000
40
0.0000000000
40
0.0000000000
40
1.0000000000
40
1.0000000000
40
1.0000000000
40
1.0000000000
10
0.5187645727
20
21.8569885702
30
0.0000000000
10
0.5067785108
20
21.8817303085
30
0.0000000000
10
0.4988938453
20
21.9084801967
30
0.0000000000
10
0.4955539654
20
21.9357739486
30
0.0000000000
11
0.5187645727
21
21.8569885702
31
0.0000000000
11
0.4955539654
21
21.9357739486
31
0.0000000000
0
SPLINE
5
2F0
100
AcDbEntity
8
0
100
AcDbSpline
62
7
6
CONTINUOUS
70
0
71
3
72
8
73
4
74
2
42
0.0000001000
43
0.0000001000
44
0.0000000001
12
-0.0036914839
22
0.0301670869
32
0.0000000000
13
0.0000040988
23
0.0303936639
33
0.0000000000
40
0.0000000000
40
0.0000000000
40
0.0000000000
40
0.0000000000
40
1.0000000000
40
1.0000000000
40
1.0000000000
40
1.0000000000
10
0.4955539654
20
21.9357739486
30
0.0000000000
10
0.4943234708
20
21.9458296442
30
0.0000000000
10
0.4937098711
20
21.9559591622
30
0.0000000000
10
0.4937112373
20
21.9660903834
30
0.0000000000
11
0.4955539654
21
21.9357739486
31
0.0000000000
11
0.4937112373
21
21.9660903834
31
0.0000000000
0
SPLINE
5
2F1
100
AcDbEntity
8
0
100
AcDbSpline
62
7
6
CONTINUOUS
70
0
71
3
72
10
73
6
74
4
42
0.0000001000
43
0.0000001000
44
0.0000000001
12
0.0000000000
22
0.2750055205
32
0.0000000000
13
-0.2476939254
23
0.1239493391
33
0.0000000000
40
0.0000000000
40
0.0000000000
40
0.0000000000
40
0.0000000000
40
0.3515965847
40
0.7088437165
40
1.0000000000
40
1.0000000000
40
1.0000000000
40
1.0000000000
10
17.8228530942
20
16.0241317556
30
0.0000000000
10
17.8228530942
20
16.0563620896
30
0.0000000000
10
17.8099778364
20
16.1220343816
30
0.0000000000
10
17.7578359831
20
16.2002700632
30
0.0000000000
10
17.7087121791
20
16.2357018218
30
0.0000000000
10
17.6846729649
20
16.2477313648
30
0.0000000000
11
17.8228530942
21
16.0241317556
31
0.0000000000
11
17.8041547945
21
16.1189975736
31
0.0000000000
11
17.7497408831
21
16.2007972875
31
0.0000000000
11
17.6846729649
21
16.2477313648
31
0.0000000000
0
SPLINE
5
2F2
100
AcDbEntity
8
0
100
AcDbSpline
62
7
6
CONTINUOUS
70
0
71
3
72
9
73
5
74
3
42
0.0000001000
43
0.0000001000
44
0.0000000001
12
0.0000000000
22
-0.1352131738
32
0.0000000000
13
-0.0705245311
23
-0.1164326772
33
0.0000000000
40
0.0000000000
40
0.0000000000
40
0.0000000000
40
0.0000000000
40
0.7481290239
40
1.0000000000
40
1.0000000000
40
1.0000000000
40
1.0000000000
10
17.8228530942
20
15.6728177836
30
0.0000000000
10
17.8228530942
20
15.6390988170
30
0.0000000000
10
17.8134614896
20
15.5934924546
30
0.0000000000
10
17.7926115918
20
15.5530546074
30
0.0000000000
10
17.7866905643
20
15.5432792701
30
0.0000000000
11
17.8228530942
21
15.6728177836
31
0.0000000000
11
17.8023876575
21
15.5737527329
31
0.0000000000
11
17.7866905643
21
15.5432792701
31
0.0000000000
0
SPLINE
5
2F3
100
AcDbEntity
8
0
100
AcDbSpline
62
7
6
CONTINUOUS
70
0
71
3
72
8
73
4
74
2
42
0.0000001000
43
0.0000001000
44
0.0000000001
12
-0.0190510318
22
-0.0314523556
32
0.0000000000
13
-0.0234596839
23
-0.0283210839
33
0.0000000000
40
0.0000000000
40
0.0000000000
40
0.0000000000
40
0.0000000000
40
1.0000000000
40
1.0000000000
40
1.0000000000
40
1.0000000000
10
17.7866905643
20
15.5432792701
30
0.0000000000
10
17.7803402203
20
15.5327951516
30
0.0000000000
10
17.7732197198
20
15.5227823943
30
0.0000000000
10
17.7653998252
20
15.5133420331
30
0.0000000000
11
17.7866905643
21
15.5432792701
31
0.0000000000
11
17.7653998252
21
15.5133420331
31
0.0000000000
0
SPLINE
5
2F4
100
AcDbEntity
8
0
100
AcDbSpline
62
7
6
CONTINUOUS
70
0
71
3
72
11
73
7
74
5
42
0.0000001000
43
0.0000001000
44
0.0000000001
12
0.0000000000
22
0.3319188356
32
0.0000000000
13
0.2117482760
23
0.2556027798
33
0.0000000000
40
0.0000000000
40
0.0000000000
40
0.0000000000
40
0.0000000000
40
0.2021870167
40
0.4569144805
40
0.7347910379
40
1.0000000000
40
1.0000000000
40
1.0000000000
40
1.0000000000
10
17.1157463130
20
14.5692643930
30
0.0000000000
10
17.1157463130
20
14.5916342860
30
0.0000000000
10
17.1215226926
20
14.6422042961
30
0.0000000000
10
17.1442685793
20
14.7206085447
30
0.0000000000
10
17.1821780103
20
14.8007276122
30
0.0000000000
10
17.2163228662
20
14.8505686981
30
0.0000000000
10
17.2350420464
20
14.8731647474
30
0.0000000000
11
17.1157463130
21
14.5692643930
31
0.0000000000
11
17.1224969500
21
14.6360336818
31
0.0000000000
11
17.1455695916
21
14.7173734636
31
0.0000000000
11
17.1849631316
21
14.8007699641
31
0.0000000000
11
17.2350420464
21
14.8731647474
31
0.0000000000
0
SPLINE
5
2F5
100
AcDbEntity
8
0
100
AcDbSpline
62
7
6
CONTINUOUS
70
0
71
3
72
9
73
5
74
3
42
0.0000001000
43
0.0000001000
44
0.0000000001
12
0.1400536293
22
0.0700268147
32
0.0000000000
13
0.1553150236
23
-0.0260733144
33
0.0000000000
40
0.0000000000
40
0.0000000000
40
0.0000000000
40
0.0000000000
40
0.5938161293
40
1.0000000000
40
1.0000000000
40
1.0000000000
40
1.0000000000
10
16.1175468111
20
16.9194899955
30
0.0000000000
10
16.1452688458
20
16.9333510129
30
0.0000000000
10
16.1968504326
20
16.9480455614
30
0.0000000000
10
16.2497546647
20
16.9459484499
30
0.0000000000
10
16.2707834838
20
16.9424182633
30
0.0000000000
11
16.1175468111
21
16.9194899955
31
0.0000000000
11
16.2069951902
21
16.9448816979
31
0.0000000000
11
16.2707834838
21
16.9424182633
31
0.0000000000
0
SPLINE
5
2F6
100
AcDbEntity
8
0
100
AcDbSpline
62
7
6
CONTINUOUS
70
0
71
3
72
9
73
5
74
3
42
0.0000001000
43
0.0000001000
44
0.0000000001
12
0.0630105568
22
-0.0105778180
32
0.0000000000
13
0.0582779541
23
-0.0261788478
33
0.0000000000
40
0.0000000000
40
0.0000000000
40
0.0000000000
40
0.0000000000
40
0.4988901599
40
1.0000000000
40
1.0000000000
40
1.0000000000
40
1.0000000000
10
16.2707834838
20
16.9424182633
30
0.0000000000
10
16.2812619327
20
16.9406592068
30
0.0000000000
10
16.3020365008
20
16.9358002665
30
0.0000000000
10
16.3220149993
20
16.9283151279
30
0.0000000000
10
16.3317495514
20
16.9239423018
30
0.0000000000
11
16.2707834838
21
16.9424182633
31
0.0000000000
11
16.3017922531
21
16.9351574136
31
0.0000000000
11
16.3317495514
21
16.9239423018
31
0.0000000000
0
SPLINE
5
2F7
100
AcDbEntity
8
0
100
AcDbSpline
62
7
6
CONTINUOUS
70
0
71
3
72
8
73
4
74
2
42
0.0000001000
43
0.0000001000
44
0.0000000001
12
0.0096558732
22
-0.0043374830
32
0.0000000000
13
0.0094659185
23
-0.0047413722
33
0.0000000000
40
0.0000000000
40
0.0000000000
40
0.0000000000
40
0.0000000000
40
1.0000000000
40
1.0000000000
40
1.0000000000
40
1.0000000000
10
16.3317495514
20
16.9239423018
30
0.0000000000
10
16.3349681758
20
16.9224964741
30
0.0000000000
10
16.3381565321
20
16.9209826535
30
0.0000000000
10
16.3413118383
20
16.9194021961
30
0.0000000000
11
16.3317495514
21
16.9239423018
31
0.0000000000
11
16.3413118383
21
16.9194021961
31
0.0000000000
0
SPLINE
5
2F8
100
AcDbEntity
8
0
100
AcDbSpline
62
7
6
CONTINUOUS
70
0
71
3
72
11
73
7
74
5
42
0.0000001000
43
0.0000001000
44
0.0000000001
12
-0.2478698196
22
-0.1236689549
32
0.0000000000
13
0.0000285908
23
-0.2773419852
33
0.0000000000
40
0.0000000000
40
0.0000000000
40
0.0000000000
40
0.0000000000
40
0.1634047876
40
0.5168852676
40
0.8757634146
40
1.0000000000
40
1.0000000000
40
1.0000000000
40
1.0000000000
10
13.9964250789
20
15.8588935421
30
0.0000000000
10
13.9829240405
20
15.8521575090
30
0.0000000000
10
13.9420571399
20
15.8269981824
30
0.0000000000
10
13.8871813427
20
15.7657210365
30
0.0000000000
10
13.8611011061
20
15.6915342151
30
0.0000000000
10
13.8580617423
20
15.6468490623
30
0.0000000000
10
13.8580629263
20
15.6353637219
30
0.0000000000
11
13.9964250789
21
15.8588935421
31
0.0000000000
11
13.9579325964
21
15.8351500365
31
0.0000000000
11
13.8930422876
21
15.7628174655
31
0.0000000000
11
13.8604199065
21
15.6697093680
31
0.0000000000
11
13.8580629263
21
15.6353637219
31
0.0000000000
0
SPLINE
5
2F9
100
AcDbEntity
8
0
100
AcDbSpline
62
7
6
CONTINUOUS
70
0
71
3
72
9
73
5
74
3
42
0.0000001000
43
0.0000001000
44
0.0000000001
12
0.0000000000
22
-0.1352131738
32
0.0000000000
13
0.0705245311
23
-0.1164326772
33
0.0000000000
40
0.0000000000
40
0.0000000000
40
0.0000000000
40
0.0000000000
40
0.7481290239
40
1.0000000000
40
1.0000000000
40
1.0000000000
40
1.0000000000
10
13.8580298664
20
15.2839090539
30
0.0000000000
10
13.8580298664
20
15.2501900873
30
0.0000000000
10
13.8674214710
20
15.2045837249
30
0.0000000000
10
13.8882713688
20
15.1641458778
30
0.0000000000
10
13.8941923963
20
15.1543705404
30
0.0000000000
11
13.8580298664
21
15.2839090539
31
0.0000000000
11
13.8784953031
21
15.1848440032
31
0.0000000000
11
13.8941923963
21
15.1543705404
31
0.0000000000
0
SPLINE
5
2FA
100
AcDbEntity
8
0
100
AcDbSpline
62
7
6
CONTINUOUS
70
0
71
3
72
9
73
5
74
3
42
0.0000001000
43
0.0000001000
44
0.0000000001
12
0.0729565200
22
-0.1204477762
32
0.0000000000
13
0.1258781919
23
-0.0629100841
33
0.0000000000
40
0.0000000000
40
0.0000000000
40
0.0000000000
40
0.0000000000
40
0.4867712243
40
1.0000000000
40
1.0000000000
40
1.0000000000
40
1.0000000000
10
13.8941923963
20
15.1543705404
30
0.0000000000
10
13.9060301078
20
15.1348270366
30
0.0000000000
10
13.9358468267
20
15.0980426616
30
0.0000000000
10
13.9750236470
20
15.0709329978
30
0.0000000000
10
13.9965584172
20
15.0601705760
30
0.0000000000
11
13.8941923963
21
15.1543705404
31
0.0000000000
11
13.9372757900
21
15.1013082724
31
0.0000000000
11
13.9965584172
21
15.0601705760
31
0.0000000000
0
SPLINE
5
2FB
100
AcDbEntity
8
0
100
AcDbSpline
62
7
6
CONTINUOUS
70
0
71
3
72
10
73
6
74
4
42
0.0000001000
43
0.0000001000
44
0.0000000001
12
-0.0634937321
22
0.0131499825
32
0.0000000000
13
-0.0580078158
23
0.0290053825
33
0.0000000000
40
0.0000000000
40
0.0000000000
40
0.0000000000
40
0.0000000000
40
0.3607052022
40
0.7224982312
40
1.0000000000
40
1.0000000000
40
1.0000000000
40
1.0000000000
10
15.4008319981
20
14.3673527228
30
0.0000000000
10
15.3931978249
20
14.3689338118
30
0.0000000000
10
15.3780448841
20
14.3728192302
30
0.0000000000
10
15.3576756654
20
14.3801335057
30
0.0000000000
10
15.3450874453
20
14.3858716795
30
0.0000000000
10
15.3397216882
20
14.3885546945
30
0.0000000000
11
15.4008319981
21
14.3673527228
31
0.0000000000
11
15.3781764250
21
14.3731621108
31
0.0000000000
11
15.3560976249
21
14.3810902260
31
0.0000000000
11
15.3397216882
21
14.3885546945
31
0.0000000000
0
SPLINE
5
2FC
100
AcDbEntity
8
0
100
AcDbSpline
62
7
6
CONTINUOUS
70
0
71
3
72
10
73
6
74
4
42
0.0000001000
43
0.0000001000
44
0.0000000001
12
0.0000000000
22
-0.2130598362
32
0.0000000000
13
-0.0963494466
23
-0.1903142461
33
0.0000000000
40
0.0000000000
40
0.0000000000
40
0.0000000000
40
0.0000000000
40
0.3149804315
40
0.7118118789
40
1.0000000000
40
1.0000000000
40
1.0000000000
40
1.0000000000
10
14.5651366476
20
-24.9121416949
30
0.0000000000
10
14.5651366476
20
-24.9345115879
30
0.0000000000
10
14.5593602680
20
-24.9850815980
30
0.0000000000
10
14.5394897718
20
-25.0535744795
30
0.0000000000
10
14.5198659383
20
-25.0982138364
30
0.0000000000
10
14.5106103496
20
-25.1164959381
30
0.0000000000
11
14.5651366476
21
-24.9121416949
31
0.0000000000
11
14.5583860106
21
-24.9789109838
31
0.0000000000
11
14.5353133690
21
-25.0602507655
31
0.0000000000
11
14.5106103496
21
-25.1164959381
31
0.0000000000
0
SPLINE
5
2FD
100
AcDbEntity
8
0
100
AcDbSpline
62
7
6
CONTINUOUS
70
0
71
3
72
9
73
5
74
3
42
0.0000001000
43
0.0000001000
44
0.0000000001
12
-0.0409397021
22
-0.0808661473
32
0.0000000000
13
-0.0537115744
23
-0.0729782518
33
0.0000000000
40
0.0000000000
40
0.0000000000
40
0.0000000000
40
0.0000000000
40
0.3405592449
40
1.0000000000
40
1.0000000000
40
1.0000000000
40
1.0000000000
10
14.5106103496
20
-25.1164959381
30
0.0000000000
10
14.5059628849
20
-25.1256758427
30
0.0000000000
10
14.4915761025
20
-25.1522627570
30
0.0000000000
10
14.4750859300
20
-25.1776648560
30
0.0000000000
10
14.4632793963
20
-25.1937064672
30
0.0000000000
11
14.5106103496
21
-25.1164959381
31
0.0000000000
11
14.4959198290
21
-25.1436472660
31
0.0000000000
11
14.4632793963
21
-25.1937064672
31
0.0000000000
0
SPLINE
5
2FE
100
AcDbEntity
8
0
100
AcDbSpline
62
7
6
CONTINUOUS
70
0
71
3
72
8
73
4
74
2
42
0.0000001000
43
0.0000001000
44
0.0000000001
12
-0.0168069003
22
-0.0228356405
32
0.0000000000
13
-0.0180719397
23
-0.0218147610
33
0.0000000000
40
0.0000000000
40
0.0000000000
40
0.0000000000
40
0.0000000000
40
1.0000000000
40
1.0000000000
40
1.0000000000
40
1.0000000000
10
14.4632793963
20
-25.1937064672
30
0.0000000000
10
14.4576770962
20
-25.2013183474
30
0.0000000000
10
14.4518648941
20
-25.2087704624
30
0.0000000000
10
14.4458409142
20
-25.2160420494
30
0.0000000000
11
14.4632793963
21
-25.1937064672
31
0.0000000000
11
14.4458409142
21
-25.2160420494
31
0.0000000000
0
SPLINE
5
2FF
100
AcDbEntity
8
0
100
AcDbSpline
62
7
6
CONTINUOUS
70
0
71
3
72
9
73
5
74
3
42
0.0000001000
43
0.0000001000
44
0.0000000001
12
0.0000000000
22
0.1717387689
32
0.0000000000
13
0.1103044927
23
0.1331621858
33
0.0000000000
40
0.0000000000
40
0.0000000000
40
0.0000000000
40
0.0000000000
40
0.5890160992
40
1.0000000000
40
1.0000000000
40
1.0000000000
40
1.0000000000
10
13.8580298664
20
-26.0156950855
30
0.0000000000
10
13.8580298664
20
-25.9819761189
30
0.0000000000
10
13.8699584571
20
-25.9240499545
30
0.0000000000
10
13.9003720119
20
-25.8744618398
30
0.0000000000
10
13.9154831354
20
-25.8562193350
30
0.0000000000
11
13.8580298664
21
-26.0156950855
31
0.0000000000
11
13.8784953031
21
-25.9166300348
31
0.0000000000
11
13.9154831354
21
-25.8562193350
31
0.0000000000
0
SPLINE
5
300
100
AcDbEntity
8
0
100
AcDbSpline
62
7
6
CONTINUOUS
70
0
71
3
72
10
73
6
74
4
42
0.0000001000
43
0.0000001000
44
0.0000000001
12
-0.1576570116
22
0.0786593459
32
0.0000000000
13
-0.0691008541
23
0.1617814930
33
0.0000000000
40
0.0000000000
40
0.0000000000
40
0.0000000000
40
0.0000000000
40
0.2569065264
40
0.8126518238
40
1.0000000000
40
1.0000000000
40
1.0000000000
40
1.0000000000
10
13.9964250789
20
-26.5906795737
30
0.0000000000
10
13.9829240405
20
-26.5839435406
30
0.0000000000
10
13.9420571399
20
-26.5587842140
30
0.0000000000
10
13.9022020601
20
-26.5142799759
30
0.0000000000
10
13.8824599089
20
-26.4753427349
30
0.0000000000
10
13.8781446026
20
-26.4652395790
30
0.0000000000
11
13.9964250789
21
-26.5906795737
31
0.0000000000
11
13.9579325964
21
-26.5669360681
31
0.0000000000
11
13.8930422876
21
-26.4946034970
31
0.0000000000
11
13.8781446026
21
-26.4652395790
31
0.0000000000
0
SPLINE
5
301
100
AcDbEntity
8
0
100
AcDbSpline
62
7
6
CONTINUOUS
70
0
71
3
72
9
73
5
74
3
42
0.0000001000
43
0.0000001000
44
0.0000000001
12
-0.0395401512
22
0.0925728745
32
0.0000000000
13
0.0000104057
23
0.1009392725
33
0.0000000000
40
0.0000000000
40
0.0000000000
40
0.0000000000
40
0.0000000000
40
0.6586460315
40
1.0000000000
40
1.0000000000
40
1.0000000000
40
1.0000000000
10
13.8781446026
20
-26.4652395790
30
0.0000000000
10
13.8694636147
20
-26.4449153269
30
0.0000000000
10
13.8603514337
20
-26.4122984581
30
0.0000000000
10
13.8580617423
20
-26.3786350939
30
0.0000000000
10
13.8580629263
20
-26.3671497535
30
0.0000000000
11
13.8781446026
21
-26.4652395790
31
0.0000000000
11
13.8604199065
21
-26.4014953995
31
0.0000000000
11
13.8580629263
21
-26.3671497535
31
0.0000000000
0
SPLINE
5
302
100
AcDbEntity
8
0
100
AcDbSpline
62
7
6
CONTINUOUS
70
0
71
3
72
10
73
6
74
4
42
0.0000001000
43
0.0000001000
44
0.0000000001
12
-0.2062868698
22
-0.1031434349
32
0.0000000000
13
-0.2074210704
23
0.1038948826
33
0.0000000000
40
0.0000000000
40
0.0000000000
40
0.0000000000
40
0.0000000000
40
0.4031575259
40
0.8163394535
40
1.0000000000
40
1.0000000000
40
1.0000000000
40
1.0000000000
10
15.5633361495
20
-27.2623672974
30
0.0000000000
10
15.5356141148
20
-27.2762283148
30
0.0000000000
10
15.4735925524
20
-27.2938970008
30
0.0000000000
10
15.3952749003
20
-27.2858023123
30
0.0000000000
10
15.3522694780
20
-27.2686399617
30
0.0000000000
10
15.3395711223
20
-27.2622794981
30
0.0000000000
11
15.5633361495
21
-27.2623672974
31
0.0000000000
11
15.4738877704
21
-27.2877589999
31
0.0000000000
11
15.3790907075
21
-27.2780347156
31
0.0000000000
11
15.3395711223
21
-27.2622794981
31
0.0000000000
0
SPLINE
5
303
100
AcDbEntity
8
0
100
AcDbSpline
62
7
6
CONTINUOUS
70
0
71
3
72
9
73
5
74
3
42
0.0000001000
43
0.0000001000
44
0.0000000001
12
0.1494408289
22
0.0747204145
32
0.0000000000
13
0.0707825410
23
0.1525675417
33
0.0000000000
40
0.0000000000
40
0.0000000000
40
0.0000000000
40
0.0000000000
40
0.5949678497
40
1.0000000000
40
1.0000000000
40
1.0000000000
40
1.0000000000
10
17.6846564931
20
-26.2017071257
30
0.0000000000
10
17.7142939893
20
-26.1868883776
30
0.0000000000
10
17.7595876251
20
-26.1515401573
30
0.0000000000
10
17.7900925512
20
-26.1038609817
30
0.0000000000
10
17.7996489528
20
-26.0832627285
30
0.0000000000
11
17.6846564931
21
-26.2017071257
31
0.0000000000
11
17.7629554963
21
-26.1404612737
31
0.0000000000
11
17.7996489528
21
-26.0832627285
31
0.0000000000
0
SPLINE
5
304
100
AcDbEntity
8
0
100
AcDbSpline
62
7
6
CONTINUOUS
70
0
71
3
72
9
73
5
74
3
42
0.0000001000
43
0.0000001000
44
0.0000000001
12
0.0456669966
22
0.0984324852
32
0.0000000000
13
0.0000565163
23
0.1086110305
33
0.0000000000
40
0.0000000000
40
0.0000000000
40
0.0000000000
40
0.0000000000
40
0.3164661736
40
1.0000000000
40
1.0000000000
40
1.0000000000
40
1.0000000000
10
17.7996489528
20
-26.0832627285
30
0.0000000000
10
17.8044663060
20
-26.0728792112
30
0.0000000000
10
17.8174410574
20
-26.0390352344
30
0.0000000000
10
17.8228366399
20
-26.0028683201
30
0.0000000000
10
17.8228495168
20
-25.9781218824
30
0.0000000000
11
17.7996489528
21
-26.0832627285
31
0.0000000000
11
17.8119193857
21
-26.0512256194
31
0.0000000000
11
17.8228495168
21
-25.9781218824
31
0.0000000000
0
SPLINE
5
305
100
AcDbEntity
8
0
100
AcDbSpline
62
7
6
CONTINUOUS
70
0
71
3
72
9
73
5
74
3
42
0.0000001000
43
0.0000001000
44
0.0000000001
12
0.0147932104
22
-0.0026057286
32
0.0000000000
13
0.0015155392
23
0.0354833033
33
0.0000000000
40
0.0000000000
40
0.0000000000
40
0.0000000000
40
0.0000000000
40
0.4453791175
40
1.0000000000
40
1.0000000000
40
1.0000000000
40
1.0000000000
10
17.1259981419
20
-25.2907810578
30
0.0000000000
10
17.1281943376
20
-25.2911679035
30
0.0000000000
10
17.1155719508
20
-25.2653335553
30
0.0000000000
10
17.1145376639
20
-25.2524518600
30
0.0000000000
10
17.1148178471
20
-25.2458919330
30
0.0000000000
11
17.1259981419
21
-25.2907810578
31
0.0000000000
11
17.1192494878
21
-25.2707250665
31
0.0000000000
11
17.1148178471
21
-25.2458919330
31
0.0000000000
0
SPLINE
5
306
100
AcDbEntity
8
0
100
AcDbSpline
62
7
6
CONTINUOUS
70
0
71
3
72
8
73
4
74
2
42
0.0000001000
43
0.0000001000
44
0.0000000001
12
0.0006430694
22
0.0150561770
32
0.0000000000
13
0.0000000000
23
0.0175706069
33
0.0000000000
40
0.0000000000
40
0.0000000000
40
0.0000000000
40
0.0000000000
40
1.0000000000
40
1.0000000000
40
1.0000000000
40
1.0000000000
10
17.1148178471
20
-25.2458919330
30
0.0000000000
10
17.1150322035
20
-25.2408732074
30
0.0000000000
10
17.1157463130
20
-25.2361966154
30
0.0000000000
10
17.1157463130
20
-25.2303397464
30
0.0000000000
11
17.1148178471
21
-25.2458919330
31
0.0000000000
11
17.1157463130
21
-25.2303397464
31
0.0000000000
0
SPLINE
5
307
100
AcDbEntity
8
0
100
AcDbSpline
62
7
6
CONTINUOUS
70
0
71
3
72
9
73
5
74
3
42
0.0000001000
43
0.0000001000
44
0.0000000001
12
0.0000000000
22
0.1352131738
32
0.0000000000
13
-0.0705245311
23
0.1164326772
33
0.0000000000
40
0.0000000000
40
0.0000000000
40
0.0000000000
40
0.0000000000
40
0.7481290239
40
1.0000000000
40
1.0000000000
40
1.0000000000
40
1.0000000000
10
17.8228530942
20
-25.6267863558
30
0.0000000000
10
17.8228530942
20
-25.5930673892
30
0.0000000000
10
17.8134614896
20
-25.5474610269
30
0.0000000000
10
17.7926115918
20
-25.5070231797
30
0.0000000000
10
17.7866905643
20
-25.4972478424
30
0.0000000000
11
17.8228530942
21
-25.6267863558
31
0.0000000000
11
17.8023876575
21
-25.5277213052
31
0.0000000000
11
17.7866905643
21
-25.4972478424
31
0.0000000000
0
SPLINE
5
308
100
AcDbEntity
8
0
100
AcDbSpline
62
7
6
CONTINUOUS
70
0
71
3
72
9
73
5
74
3
42
0.0000001000
43
0.0000001000
44
0.0000000001
12
-0.0729565200
22
0.1204477762
32
0.0000000000
13
-0.1258781919
23
0.0629100841
33
0.0000000000
40
0.0000000000
40
0.0000000000
40
0.0000000000
40
0.0000000000
40
0.4867712243
40
1.0000000000
40
1.0000000000
40
1.0000000000
40
1.0000000000
10
17.7866905643
20
-25.4972478424
30
0.0000000000
10
17.7748528527
20
-25.4777043385
30
0.0000000000
10
17.7450361339
20
-25.4409199635
30
0.0000000000
10
17.7058593135
20
-25.4138102998
30
0.0000000000
10
17.6843245434
20
-25.4030478779
30
0.0000000000
11
17.7866905643
21
-25.4972478424
31
0.0000000000
11
17.7436071705
21
-25.4441855743
31
0.0000000000
11
17.6843245434
21
-25.4030478779
31
0.0000000000
0
SPLINE
5
309
100
AcDbEntity
8
0
100
AcDbSpline
62
7
6
CONTINUOUS
70
0
71
3
72
15
73
11
74
9
42
0.0000001000
43
0.0000001000
44
0.0000000001
12
0.6584562976
22
-0.3292281488
32
0.0000000000
13
0.0000000000
23
-0.7361765208
33
0.0000000000
40
0.0000000000
40
0.0000000000
40
0.0000000000
40
0.0000000000
40
0.1103210880
40
0.2298825222
40
0.3567663160
40
0.4883345280
40
0.6215367244
40
0.7531861065
40
0.8802252688
40
1.0000000000
40
1.0000000000
40
1.0000000000
40
1.0000000000
10
17.9262449247
20
14.4069490090
30
0.0000000000
10
17.9504587964
20
14.3948420732
30
0.0000000000
10
17.9984519742
20
14.3645402389
30
0.0000000000
10
18.0643590956
20
14.3064773316
30
0.0000000000
10
18.1250449253
20
14.2359599436
30
0.0000000000
10
18.1782405393
20
14.1556308327
30
0.0000000000
10
18.2219813417
20
14.0684843732
30
0.0000000000
10
18.2546289357
20
13.9777694342
30
0.0000000000
10
18.2749594559
20
13.8869003771
30
0.0000000000
10
18.2799598754
20
13.8262727435
30
0.0000000000
10
18.2799598754
20
13.7968809619
30
0.0000000000
11
17.9262449247
21
14.4069490090
31
0.0000000000
11
17.9952501959
21
14.3641205387
31
0.0000000000
11
18.0616029305
21
14.3062885461
31
0.0000000000
11
18.1227532909
21
14.2356779916
31
0.0000000000
11
18.1763525557
21
14.1550028389
31
0.0000000000
11
18.2203417821
21
14.0673628012
31
0.0000000000
11
18.2530305865
21
13.9761247465
31
0.0000000000
11
18.2731618534
21
13.8847938639
31
0.0000000000
11
18.2799598754
21
13.7968809619
31
0.0000000000
0
SPLINE
5
30A
100
AcDbEntity
8
0
100
AcDbSpline
62
7
6
CONTINUOUS
70
0
71
3
72
11
73
7
74
5
42
0.0000001000
43
0.0000001000
44
0.0000000001
12
0.2078681995
22
-0.1039340997
32
0.0000000000
13
0.2084814306
23
0.1050502880
33
0.0000000000
40
0.0000000000
40
0.0000000000
40
0.0000000000
40
0.0000000000
40
0.3175658015
40
0.6054166106
40
0.8716679417
40
1.0000000000
40
1.0000000000
40
1.0000000000
40
1.0000000000
10
15.7678967968
20
-25.4482518898
30
0.0000000000
10
15.7899007406
20
-25.4592538617
30
0.0000000000
10
15.8339423387
20
-25.4765081373
30
0.0000000000
10
15.9015288917
20
-25.4860375556
30
0.0000000000
10
15.9546762585
20
-25.4783273325
30
0.0000000000
10
15.9831831177
20
-25.4666656744
30
0.0000000000
10
15.9921014014
20
-25.4621719011
30
0.0000000000
11
15.7678967968
21
-25.4482518898
31
0.0000000000
11
15.8369020680
21
-25.4744286906
31
0.0000000000
11
15.9032548026
21
-25.4829494326
31
0.0000000000
11
15.9644051630
21
-25.4734892385
31
0.0000000000
11
15.9921014014
21
-25.4621719011
31
0.0000000000
0
SPLINE
5
30B
100
AcDbEntity
8
0
100
AcDbSpline
62
7
6
CONTINUOUS
70
0
71
3
72
12
73
8
74
6
42
0.0000001000
43
0.0000001000
44
0.0000000001
12
0.0000000000
22
-0.3146429610
32
0.0000000000
13
-0.2822554466
23
-0.1422237887
33
0.0000000000
40
0.0000000000
40
0.0000000000
40
0.0000000000
40
0.0000000000
40
0.2587034113
40
0.4938614812
40
0.7069806019
40
0.9039381619
40
1.0000000000
40
1.0000000000
40
1.0000000000
40
1.0000000000
10
18.2799598754
20
-24.1044029248
30
0.0000000000
10
18.2799598754
20
-24.1315359939
30
0.0000000000
10
18.2760158856
20
-24.1834819138
30
0.0000000000
10
18.2564618404
20
-24.2555452168
30
0.0000000000
10
18.2238569093
20
-24.3156953053
30
0.0000000000
10
18.1859500441
20
-24.3540344253
30
0.0000000000
10
18.1594875259
20
-24.3701219375
30
0.0000000000
10
18.1504495335
20
-24.3746760304
30
0.0000000000
11
18.2799598754
21
-24.1044029248
31
0.0000000000
11
18.2731618598
21
-24.1855177689
31
0.0000000000
11
18.2530306260
21
-24.2567173234
31
0.0000000000
11
18.2203418798
21
-24.3152665406
31
0.0000000000
11
18.1763527017
21
-24.3589173763
31
0.0000000000
11
18.1504495335
21
-24.3746760304
31
0.0000000000
0
SPLINE
5
30C
100
AcDbEntity
8
0
100
AcDbSpline
62
7
6
CONTINUOUS
70
0
71
3
72
12
73
8
74
6
42
0.0000001000
43
0.0000001000
44
0.0000000001
12
1.1544904648
22
0.5816965273
32
0.0000000000
13
1.0770214968
23
0.7150131317
33
0.0000000000
40
0.0000000000
40
0.0000000000
40
0.0000000000
40
0.0000000000
40
0.1511514706
40
0.3378938807
40
0.5476765024
40
0.7716890904
40
1.0000000000
40
1.0000000000
40
1.0000000000
40
1.0000000000
10
22.0575418692
20
-19.9137901611
30
0.0000000000
10
22.1157095130
20
-19.8844820660
30
0.0000000000
10
22.2444380354
20
-19.8163797864
30
0.0000000000
10
22.4501681010
20
-19.7007025654
30
0.0000000000
10
22.6804129523
20
-19.5646827644
30
0.0000000000
10
22.9231786325
20
-19.4147555313
30
0.0000000000
10
23.0869139283
20
-19.3089715391
30
0.0000000000
10
23.1688791809
20
-19.2545564396
30
0.0000000000
11
22.0575418692
21
-19.9137901611
31
0.0000000000
11
22.2305183397
21
-19.8228996019
31
0.0000000000
11
22.4411086311
21
-19.7048669910
31
0.0000000000
11
22.6746882762
21
-19.5670671017
31
0.0000000000
11
22.9210845696
21
-19.4149047532
31
0.0000000000
11
23.1688791809
21
-19.2545564396
31
0.0000000000
0
SPLINE
5
30D
100
AcDbEntity
8
0
100
AcDbSpline
62
7
6
CONTINUOUS
70
0
71
3
72
10
73
6
74
4
42
0.0000001000
43
0.0000001000
44
0.0000000001
12
0.0819023456
22
0.3172903359
32
0.0000000000
13
0.0000000000
23
0.3276906338
33
0.0000000000
40
0.0000000000
40
0.0000000000
40
0.0000000000
40
0.0000000000
40
0.3452993644
40
0.6794170504
40
1.0000000000
40
1.0000000000
40
1.0000000000
40
1.0000000000
10
23.1688791809
20
-19.2545564396
30
0.0000000000
10
23.1783061235
20
-19.2180363891
30
0.0000000000
10
23.1941705758
20
-19.1454465324
30
0.0000000000
10
23.2088768337
20
-19.0370978652
30
0.0000000000
10
23.2123474131
20
-18.9655507062
30
0.0000000000
10
23.2123474131
20
-18.9305333629
30
0.0000000000
11
23.1688791809
21
-19.2545564396
31
0.0000000000
11
23.1929147526
21
-19.1439873513
31
0.0000000000
11
23.2074721682
21
-19.0354722069
31
0.0000000000
11
23.2123474131
21
-18.9305333629
31
0.0000000000
0
SPLINE
5
30E
100
AcDbEntity
8
0
100
AcDbSpline
62
7
6
CONTINUOUS
70
0
71
3
72
10
73
6
74
4
42
0.0000001000
43
0.0000001000
44
0.0000000001
12
0.0000000000
22
0.2835639754
32
0.0000000000
13
-0.0942236552
23
0.2674517357
33
0.0000000000
40
0.0000000000
40
0.0000000000
40
0.0000000000
40
0.0000000000
40
0.3526868308
40
0.6861836209
40
1.0000000000
40
1.0000000000
40
1.0000000000
40
1.0000000000
10
23.2123474131
20
17.8327594861
30
0.0000000000
10
23.2123474131
20
17.8660959127
30
0.0000000000
10
23.2093505218
20
17.9310146593
30
0.0000000000
10
23.1950834961
20
18.0246282765
30
0.0000000000
10
23.1787354896
20
18.0837929788
30
0.0000000000
10
23.1688791809
20
18.1117698906
30
0.0000000000
11
23.2123474131
21
17.8327594861
31
0.0000000000
11
23.2074721682
21
17.9326498661
31
0.0000000000
11
23.1929147526
21
18.0260903655
31
0.0000000000
11
23.1688791809
21
18.1117698906
31
0.0000000000
0
SPLINE
5
30F
100
AcDbEntity
8
0
100
AcDbSpline
62
7
6
CONTINUOUS
70
0
71
3
72
10
73
6
74
4
42
0.0000001000
43
0.0000001000
44
0.0000000001
12
-0.4421372264
22
0.4961865928
32
0.0000000000
13
-0.5958626307
23
0.2980118706
33
0.0000000000
40
0.0000000000
40
0.0000000000
40
0.0000000000
40
0.0000000000
40
0.5158607784
40
0.9608207693
40
1.0000000000
40
1.0000000000
40
1.0000000000
40
1.0000000000
10
23.1688791809
20
18.1117698906
30
0.0000000000
10
23.0928520963
20
18.1970909579
30
0.0000000000
10
22.9391544912
20
18.3459505173
30
0.0000000000
10
22.7548965554
20
18.4711477338
30
0.0000000000
10
22.6592499436
20
18.5202392218
30
0.0000000000
10
22.6514681305
20
18.5241311804
30
0.0000000000
11
23.1688791809
21
18.1117698906
31
0.0000000000
11
22.9210845696
21
18.3487003650
31
0.0000000000
11
22.6746882762
21
18.5122182579
31
0.0000000000
11
22.6514681305
21
18.5241311804
31
0.0000000000
0
SPLINE
5
310
100
AcDbEntity
8
0
100
AcDbSpline
62
7
6
CONTINUOUS
70
0
71
3
72
11
73
7
74
5
42
0.0000001000
43
0.0000001000
44
0.0000000001
12
0.4056879499
22
0.1941711775
32
0.0000000000
13
0.4039890973
23
-0.2021280081
33
0.0000000000
40
0.0000000000
40
0.0000000000
40
0.0000000000
40
0.0000000000
40
0.3217225417
40
0.6138360054
40
0.8848886384
40
1.0000000000
40
1.0000000000
40
1.0000000000
40
1.0000000000
10
18.8933413543
20
20.1633899531
30
0.0000000000
10
18.9368476738
20
20.1842130347
30
0.0000000000
10
19.0238636798
20
20.2165256806
30
0.0000000000
10
19.1569863691
20
20.2327207749
30
0.0000000000
10
19.2589008314
20
20.2159449935
30
0.0000000000
10
19.3126741388
20
20.1934836740
30
0.0000000000
10
19.3281753838
20
20.1857279305
30
0.0000000000
11
18.8933413543
21
20.1633899531
31
0.0000000000
11
19.0295250115
21
20.2122941100
31
0.0000000000
11
19.1601266971
21
20.2265856493
31
0.0000000000
11
19.2802380255
21
20.2057274541
31
0.0000000000
11
19.3281753838
21
20.1857279305
31
0.0000000000
0
SPLINE
5
311
100
AcDbEntity
8
0
100
AcDbSpline
62
7
6
CONTINUOUS
70
0
71
3
72
12
73
8
74
6
42
0.0000001000
43
0.0000001000
44
0.0000000001
12
0.0000000000
22
0.6302091156
32
0.0000000000
13
-0.5660728359
23
0.2832234225
33
0.0000000000
40
0.0000000000
40
0.0000000000
40
0.0000000000
40
0.0000000000
40
0.2554789576
40
0.4879801843
40
0.6988883657
40
0.8937515308
40
1.0000000000
40
1.0000000000
40
1.0000000000
40
1.0000000000
10
15.3454667335
20
21.7661998259
30
0.0000000000
10
15.3454667335
20
21.8198682152
30
0.0000000000
10
15.3377447140
20
21.9226655808
30
0.0000000000
10
15.2995043141
20
22.0654497311
30
0.0000000000
10
15.2357489849
20
22.1850255683
30
0.0000000000
10
15.1598968879
20
22.2635641759
30
0.0000000000
10
15.1055828208
20
22.2970175891
30
0.0000000000
10
15.0855346967
20
22.3070482741
30
0.0000000000
11
15.3454667335
21
21.7661998259
31
0.0000000000
11
15.3321791838
21
21.9266557548
31
0.0000000000
11
15.2928159189
21
22.0677937404
31
0.0000000000
11
15.2288563232
21
22.1843094126
31
0.0000000000
11
15.1427041816
21
22.2718237786
31
0.0000000000
11
15.0855346967
21
22.3070482741
31
0.0000000000
0
SPLINE
5
312
100
AcDbEntity
8
0
100
AcDbSpline
62
7
6
CONTINUOUS
70
0
71
3
72
10
73
6
74
4
42
0.0000001000
43
0.0000001000
44
0.0000000001
12
0.2633977027
22
0.1306472023
32
0.0000000000
13
0.1439998940
23
-0.1186054518
33
0.0000000000
40
0.0000000000
40
0.0000000000
40
0.0000000000
40
0.0000000000
40
0.5022705884
40
0.8547960901
40
1.0000000000
40
1.0000000000
40
1.0000000000
40
1.0000000000
10
11.4865001524
20
23.8668105541
30
0.0000000000
10
11.5305991254
20
23.8886839699
30
0.0000000000
10
11.6129074477
20
23.9264689691
30
0.0000000000
10
11.6853910719
20
23.9578650408
30
0.0000000000
10
11.7555997495
20
23.9751198510
30
0.0000000000
10
11.7625695320
20
23.9693791926
30
0.0000000000
11
11.4865001524
21
23.8668105541
31
0.0000000000
11
11.6203004315
21
23.9293083697
31
0.0000000000
11
11.7175402819
21
23.9651908297
31
0.0000000000
11
11.7625695320
21
23.9693791926
31
0.0000000000
0
SPLINE
5
313
100
AcDbEntity
8
0
100
AcDbSpline
62
7
6
CONTINUOUS
70
0
71
3
72
10
73
6
74
4
42
0.0000001000
43
0.0000001000
44
0.0000000001
12
0.0000000000
22
-0.2681866143
32
0.0000000000
13
-0.1982920754
23
-0.1849303063
33
0.0000000000
40
0.0000000000
40
0.0000000000
40
0.0000000000
40
0.0000000000
40
0.5382808969
40
0.9751629158
40
1.0000000000
40
1.0000000000
40
1.0000000000
40
1.0000000000
10
22.4785699581
20
16.2761567381
30
0.0000000000
10
22.4785699581
20
16.2280368276
30
0.0000000000
10
22.4678743950
20
16.1400369295
30
0.0000000000
10
22.4244928917
20
16.0582473897
30
0.0000000000
10
22.3944872471
20
16.0292908438
30
0.0000000000
10
22.3928455814
20
16.0277598006
30
0.0000000000
11
22.4785699581
21
16.2761567381
31
0.0000000000
11
22.4571313505
21
16.1333977869
31
0.0000000000
11
22.3976865463
21
16.0324316263
31
0.0000000000
11
22.3928455814
21
16.0277598006
31
0.0000000000
0
SPLINE
5
314
100
AcDbEntity
8
0
100
AcDbSpline
62
7
6
CONTINUOUS
70
0
71
3
72
11
73
7
74
5
42
0.0000001000
43
0.0000001000
44
0.0000000001
12
0.2088226041
22
0.1032154446
32
0.0000000000
13
0.2092700250
23
-0.1046487878
33
0.0000000000
40
0.0000000000
40
0.0000000000
40
0.0000000000
40
0.0000000000
40
0.3179929582
40
0.6065837780
40
0.8737184910
40
1.0000000000
40
1.0000000000
40
1.0000000000
40
1.0000000000
10
11.9111886636
20
23.2382233122
30
0.0000000000
10
11.9333233695
20
23.2491639071
30
0.0000000000
10
11.9776279776
20
23.2662894019
30
0.0000000000
10
12.0455569930
20
23.2756119962
30
0.0000000000
10
12.0987669440
20
23.2677856556
30
0.0000000000
10
12.1272625322
20
23.2561673453
30
0.0000000000
10
12.1360715104
20
23.2517622763
30
0.0000000000
11
11.9111886636
21
23.2382233122
31
0.0000000000
11
11.9805602482
21
23.2641917476
31
0.0000000000
11
12.0472659986
21
23.2725220677
31
0.0000000000
11
12.1087425746
21
23.2628940882
31
0.0000000000
11
12.1360715104
21
23.2517622763
31
0.0000000000
0
SPLINE
5
315
100
AcDbEntity
8
0
100
AcDbSpline
62
7
6
CONTINUOUS
70
0
71
3
72
12
73
8
74
6
42
0.0000001000
43
0.0000001000
44
0.0000000001
12
0.0000000000
22
0.3150795073
32
0.0000000000
13
-0.2830792673
23
0.1415607165
33
0.0000000000
40
0.0000000000
40
0.0000000000
40
0.0000000000
40
0.0000000000
40
0.2582331548
40
0.4929665756
40
0.7057006450
40
0.9022993158
40
1.0000000000
40
1.0000000000
40
1.0000000000
40
1.0000000000
10
12.8705929993
20
22.6790618331
30
0.0000000000
10
12.8705929993
20
22.7061831581
30
0.0000000000
10
12.8666518374
20
22.7581068308
30
0.0000000000
10
12.8471099984
20
22.8301404126
30
0.0000000000
10
12.8145225487
20
22.8902668788
30
0.0000000000
10
12.7764969227
20
22.9287283880
30
0.0000000000
10
12.7498534359
20
22.9448701003
30
0.0000000000
10
12.7406344232
20
22.9494802932
30
0.0000000000
11
12.8705929993
21
22.6790618331
31
0.0000000000
11
12.8637995700
21
22.7601417059
31
0.0000000000
11
12.8436803499
21
22.8313122954
31
0.0000000000
11
12.8110085093
21
22.8898385558
31
0.0000000000
11
12.7670396087
21
22.9334713556
31
0.0000000000
11
12.7406344232
21
22.9494802932
31
0.0000000000
0
SPLINE
5
316
100
AcDbEntity
8
0
100
AcDbSpline
62
7
6
CONTINUOUS
70
0
71
3
72
11
73
7
74
5
42
0.0000001000
43
0.0000001000
44
0.0000000001
12
0.2072674228
22
0.1036337114
32
0.0000000000
13
0.2081967564
23
-0.1041138840
33
0.0000000000
40
0.0000000000
40
0.0000000000
40
0.0000000000
40
0.0000000000
40
0.3183488335
40
0.6069120174
40
0.8738205244
40
1.0000000000
40
1.0000000000
40
1.0000000000
40
1.0000000000
10
17.4667870770
20
20.4604241055
30
0.0000000000
10
17.4887815244
20
20.4714213292
30
0.0000000000
10
17.5328036677
20
20.4886693077
30
0.0000000000
10
17.6003605265
20
20.4981991310
30
0.0000000000
10
17.6532941393
20
20.4905237651
30
0.0000000000
10
17.6816251724
20
20.4789855708
30
0.0000000000
10
17.6903818915
20
20.4746065591
30
0.0000000000
11
17.4667870770
21
20.4604241055
31
0.0000000000
11
17.5357619218
21
20.4865913103
31
0.0000000000
11
17.6020861021
21
20.4951124887
31
0.0000000000
11
17.6632108166
21
20.4856601768
31
0.0000000000
11
17.6903818915
21
20.4746065591
31
0.0000000000
0
SPLINE
5
317
100
AcDbEntity
8
0
100
AcDbSpline
62
7
6
CONTINUOUS
70
0
71
3
72
12
73
8
74
6
42
0.0000001000
43
0.0000001000
44
0.0000000001
12
0.0000000000
22
0.3143566812
32
0.0000000000
13
-0.2824444458
23
0.1412456436
33
0.0000000000
40
0.0000000000
40
0.0000000000
40
0.0000000000
40
0.0000000000
40
0.2587566289
40
0.4937538350
40
0.7064249753
40
0.9026204442
40
1.0000000000
40
1.0000000000
40
1.0000000000
40
1.0000000000
10
18.4241550689
20
19.9022807983
30
0.0000000000
10
18.4241550689
20
19.9293947567
30
0.0000000000
10
18.4202414111
20
19.9812806376
30
0.0000000000
10
18.4008242837
20
20.0532455546
30
0.0000000000
10
18.3684412084
20
20.1132777207
30
0.0000000000
10
18.3306250334
20
20.1516606656
30
0.0000000000
10
18.3041128683
20
20.1677397741
30
0.0000000000
10
18.2949447634
20
20.1723245867
30
0.0000000000
11
18.4241550689
21
19.9022807983
31
0.0000000000
11
18.4174006537
21
19.9833417539
31
0.0000000000
11
18.3973970037
21
20.0544548014
31
0.0000000000
11
18.3649129544
21
20.1128870121
31
0.0000000000
11
18.3211969886
21
20.1563929191
31
0.0000000000
11
18.2949447634
21
20.1723245867
31
0.0000000000
0
SPLINE
5
318
100
AcDbEntity
8
0
100
AcDbSpline
62
7
6
CONTINUOUS
70
0
71
3
72
12
73
8
74
6
42
0.0000001000
43
0.0000001000
44
0.0000000001
12
-0.2177675582
22
-0.1076366969
32
0.0000000000
13
0.0000675890
23
-0.2440074563
33
0.0000000000
40
0.0000000000
40
0.0000000000
40
0.0000000000
40
0.0000000000
40
0.3019225804
40
0.5642486083
40
0.7914899606
40
0.9970676985
40
1.0000000000
40
1.0000000000
40
1.0000000000
40
1.0000000000
10
6.2238009508
20
20.4270992292
30
0.0000000000
10
6.2018846364
20
20.4162665795
30
0.0000000000
10
6.1622535942
20
20.3930054522
30
0.0000000000
10
6.1140601776
20
20.3499537209
30
0.0000000000
10
6.0830055700
20
20.3019036599
30
0.0000000000
10
6.0753581809
20
20.2665095204
30
0.0000000000
10
6.0753122335
20
20.2495502627
30
0.0000000000
10
6.0753122996
20
20.2493117616
30
0.0000000000
11
6.2238009508
21
20.4270992292
31
0.0000000000
11
6.1609825710
21
20.3892456775
31
0.0000000000
11
6.1142032450
21
20.3459749916
31
0.0000000000
11
6.0852738408
21
20.2989622170
31
0.0000000000
11
6.0753142404
21
20.2500272583
31
0.0000000000
11
6.0753122996
21
20.2493117616
31
0.0000000000
0
SPLINE
5
319
100
AcDbEntity
8
0
100
AcDbSpline
62
9
6
CONTINUOUS
70
0
71
3
72
9
73
5
74
3
42
0.0000001000
43
0.0000001000
44
0.0000000001
12
0.0000000000
22
-0.1183504396
32
0.0000000000
13
-0.1065872076
23
-0.0532936038
33
0.0000000000
40
0.0000000000
40
0.0000000000
40
0.0000000000
40
0.0000000000
40
0.4320096608
40
1.0000000000
40
1.0000000000
40
1.0000000000
40
1.0000000000
10
4.4585349298
20
22.7062908378
30
0.0000000000
10
4.4585349298
20
22.6892479934
30
0.0000000000
10
4.4399298035
20
22.6497978469
30
0.0000000000
10
4.4054917931
20
22.6279925742
30
0.0000000000
10
4.3853116251
20
22.6179024902
30
0.0000000000
11
4.4585349298
21
22.7062908378
31
0.0000000000
11
4.4395048129
21
22.6584554088
31
0.0000000000
11
4.3853116251
21
22.6179024902
31
0.0000000000
0
SPLINE
5
31A
100
AcDbEntity
8
0
100
AcDbSpline
62
9
6
CONTINUOUS
70
0
71
3
72
9
73
5
74
3
42
0.0000001000
43
0.0000001000
44
0.0000000001
12
0.0000577645
22
-0.1183379837
32
0.0000000000
13
-0.1065828831
23
-0.0532914415
33
0.0000000000
40
0.0000000000
40
0.0000000000
40
0.0000000000
40
0.0000000000
40
0.4343815064
40
1.0000000000
40
1.0000000000
40
1.0000000000
40
1.0000000000
10
4.4585348564
20
22.3549657615
30
0.0000000000
10
4.4585432204
20
22.3378311510
30
0.0000000000
10
4.4398212349
20
22.2984147987
30
0.0000000000
10
4.4054067083
20
22.2766360597
30
0.0000000000
10
4.3853116251
20
22.2665885181
30
0.0000000000
11
4.4585348564
21
22.3549657615
31
0.0000000000
11
4.4393172687
21
22.3069156756
31
0.0000000000
11
4.3853116251
21
22.2665885181
31
0.0000000000
0
SPLINE
5
31B
100
AcDbEntity
8
0
100
AcDbSpline
62
9
6
CONTINUOUS
70
0
71
3
72
9
73
5
74
3
42
0.0000001000
43
0.0000001000
44
0.0000000001
12
0.1043460885
22
0.0506505174
32
0.0000000000
13
0.1025770087
23
-0.0512885044
33
0.0000000000
40
0.0000000000
40
0.0000000000
40
0.0000000000
40
0.0000000000
40
0.3993864599
40
1.0000000000
40
1.0000000000
40
1.0000000000
40
1.0000000000
10
2.7533248639
20
23.6015157785
30
0.0000000000
10
2.7672163355
20
23.6082588221
30
0.0000000000
10
2.8064613597
20
23.6169840732
30
0.0000000000
10
2.8444956654
20
23.6048168210
30
0.0000000000
10
2.8650320455
20
23.5945486309
30
0.0000000000
11
2.7533248639
21
23.6015157785
31
0.0000000000
11
2.7983710769
21
23.6118957627
31
0.0000000000
11
2.8650320455
21
23.5945486309
31
0.0000000000
0
SPLINE
5
31C
100
AcDbEntity
8
0
100
AcDbSpline
62
9
6
CONTINUOUS
70
0
71
3
72
9
73
5
74
3
42
0.0000001000
43
0.0000001000
44
0.0000000001
12
0.1043731838
22
0.0507387174
32
0.0000000000
13
0.1025947039
23
-0.0512973520
33
0.0000000000
40
0.0000000000
40
0.0000000000
40
0.0000000000
40
0.0000000000
40
0.3911521382
40
1.0000000000
40
1.0000000000
40
1.0000000000
40
1.0000000000
10
0.6319821358
20
22.5408370267
30
0.0000000000
10
0.6455907338
20
22.5474525460
30
0.0000000000
10
0.6847351238
20
22.5564017907
30
0.0000000000
10
0.7228901799
20
22.5442992202
30
0.0000000000
10
0.7437117020
20
22.5338884591
30
0.0000000000
11
0.6319821358
21
22.5408370267
31
0.0000000000
11
0.6760621894
21
22.5512326507
31
0.0000000000
11
0.7437117020
21
22.5338884591
31
0.0000000000
0
SPLINE
5
31D
100
AcDbEntity
8
0
100
AcDbSpline
62
9
6
CONTINUOUS
70
0
71
3
72
9
73
5
74
3
42
0.0000001000
43
0.0000001000
44
0.0000000001
12
-0.1044096115
22
0.0507430838
32
0.0000000000
13
-0.1025784558
23
-0.0512892279
33
0.0000000000
40
0.0000000000
40
0.0000000000
40
0.0000000000
40
0.0000000000
40
0.3886826481
40
1.0000000000
40
1.0000000000
40
1.0000000000
40
1.0000000000
10
4.3202574128
20
22.9297354071
30
0.0000000000
10
4.3067300114
20
22.9363097259
30
0.0000000000
10
4.2676170459
20
22.9453407987
30
0.0000000000
10
4.2294375931
20
22.9332485205
30
0.0000000000
10
4.2085349298
20
22.9227971888
30
0.0000000000
11
4.3202574128
21
22.9297354071
31
0.0000000000
11
4.2764659790
21
22.9401389751
31
0.0000000000
11
4.2085349298
21
22.9227971888
31
0.0000000000
0
SPLINE
5
31E
100
AcDbEntity
8
0
100
AcDbSpline
62
9
6
CONTINUOUS
70
0
71
3
72
8
73
4
74
2
42
0.0000001000
43
0.0000001000
44
0.0000000001
12
-0.0057724119
22
0.0028061305
32
0.0000000000
13
-0.0059609395
23
0.0024315908
33
0.0000000000
40
0.0000000000
40
0.0000000000
40
0.0000000000
40
0.0000000000
40
1.0000000000
40
1.0000000000
40
1.0000000000
40
1.0000000000
10
2.9767616117
20
23.6014971985
30
0.0000000000
10
2.9748374743
20
23.6024325753
30
0.0000000000
10
2.9728792952
20
23.6033056786
30
0.0000000000
10
2.9708923154
20
23.6041162089
30
0.0000000000
11
2.9767616117
21
23.6014971985
31
0.0000000000
11
2.9708923154
21
23.6041162089
31
0.0000000000
0
SPLINE
5
31F
100
AcDbEntity
8
0
100
AcDbSpline
62
9
6
CONTINUOUS
70
0
71
3
72
9
73
5
74
3
42
0.0000001000
43
0.0000001000
44
0.0000000001
12
-0.1018210834
22
0.0415349312
32
0.0000000000
13
-0.0969206517
23
-0.0484603259
33
0.0000000000
40
0.0000000000
40
0.0000000000
40
0.0000000000
40
0.0000000000
40
0.3555081913
40
1.0000000000
40
1.0000000000
40
1.0000000000
40
1.0000000000
10
2.9708923154
20
23.6041162089
30
0.0000000000
10
2.9588262390
20
23.6090382116
30
0.0000000000
10
2.9218984389
20
23.6163926236
30
0.0000000000
10
2.8858535676
20
23.6049593919
30
0.0000000000
10
2.8650320455
20
23.5945486309
30
0.0000000000
11
2.9708923154
21
23.6041162089
31
0.0000000000
11
2.9326815580
21
23.6118928225
31
0.0000000000
11
2.8650320455
21
23.5945486309
31
0.0000000000
0
SPLINE
5
320
100
AcDbEntity
8
0
100
AcDbSpline
62
9
6
CONTINUOUS
70
0
71
3
72
9
73
5
74
3
42
0.0000001000
43
0.0000001000
44
0.0000000001
12
0.0002465096
22
-0.1182964284
32
0.0000000000
13
0.1065580600
23
-0.0532790300
33
0.0000000000
40
0.0000000000
40
0.0000000000
40
0.0000000000
40
0.0000000000
40
0.4297457606
40
1.0000000000
40
1.0000000000
40
1.0000000000
40
1.0000000000
10
0.4937124317
20
22.3173820975
30
0.0000000000
10
0.4937477438
20
22.3004363013
30
0.0000000000
10
0.5122201275
20
22.2609228817
30
0.0000000000
10
0.5466799448
20
22.2391212915
30
0.0000000000
10
0.5669350067
20
22.2289937605
30
0.0000000000
11
0.4937124317
21
22.3173820975
31
0.0000000000
11
0.5125771829
21
22.2697458979
31
0.0000000000
11
0.5669350067
21
22.2289937605
31
0.0000000000
0
SPLINE
5
321
100
AcDbEntity
8
0
100
AcDbSpline
62
9
6
CONTINUOUS
70
0
71
3
72
9
73
5
74
3
42
0.0000001000
43
0.0000001000
44
0.0000000001
12
0.0000819624
22
-0.1183323093
32
0.0000000000
13
0.1065777391
23
-0.0532888696
33
0.0000000000
40
0.0000000000
40
0.0000000000
40
0.0000000000
40
0.0000000000
40
0.4312039500
40
1.0000000000
40
1.0000000000
40
1.0000000000
40
1.0000000000
10
0.4937117819
20
21.9660681353
30
0.0000000000
10
0.4937235627
20
21.9490596822
30
0.0000000000
10
0.5122824057
20
21.9095881871
30
0.0000000000
10
0.5467280076
20
21.8877832880
30
0.0000000000
10
0.5669350067
20
21.8776797885
30
0.0000000000
11
0.4937117819
21
21.9660681353
31
0.0000000000
11
0.5126827894
21
21.9183040242
31
0.0000000000
11
0.5669350067
21
21.8776797885
31
0.0000000000
0
SPLINE
5
322
100
AcDbEntity
8
0
100
AcDbSpline
62
9
6
CONTINUOUS
70
0
71
3
72
10
73
6
74
4
42
0.0000001000
43
0.0000001000
44
0.0000000001
12
0.0000820386
22
-0.0997299692
32
0.0000000000
13
0.0836144133
23
-0.0511958990
33
0.0000000000
40
0.0000000000
40
0.0000000000
40
0.0000000000
40
0.0000000000
40
0.1925998704
40
0.6351840661
40
1.0000000000
40
1.0000000000
40
1.0000000000
40
1.0000000000
10
1.2010755935
20
21.2657162469
30
0.0000000000
10
1.2010808604
20
21.2593135871
30
0.0000000000
10
1.2042099246
20
21.2381769521
30
0.0000000000
10
1.2249068262
20
21.2110659897
30
0.0000000000
10
1.2462229041
20
21.1952980035
30
0.0000000000
10
1.2563908609
20
21.1890723103
30
0.0000000000
11
1.2010755935
21
21.2657162469
31
0.0000000000
11
1.2038994499
21
21.2468555897
31
0.0000000000
11
1.2279002135
21
21.2107969722
31
0.0000000000
11
1.2563908609
21
21.1890723103
31
0.0000000000
0
SPLINE
5
323
100
AcDbEntity
8
0
100
AcDbSpline
62
9
6
CONTINUOUS
70
0
71
3
72
8
73
4
74
2
42
0.0000001000
43
0.0000001000
44
0.0000000001
12
0.0172110689
22
-0.0105380892
32
0.0000000000
13
0.0180182640
23
-0.0090101087
33
0.0000000000
40
0.0000000000
40
0.0000000000
40
0.0000000000
40
0.0000000000
40
1.0000000000
40
1.0000000000
40
1.0000000000
40
1.0000000000
10
1.2563908609
20
21.1890723103
30
0.0000000000
10
1.2621278839
20
21.1855596139
30
0.0000000000
10
1.2680356998
20
21.1823330889
30
0.0000000000
10
1.2740417878
20
21.1793297193
30
0.0000000000
11
1.2563908609
21
21.1890723103
31
0.0000000000
11
1.2740417878
21
21.1793297193
31
0.0000000000
0
SPLINE
5
324
100
AcDbEntity
8
0
100
AcDbSpline
62
9
6
CONTINUOUS
70
0
71
3
72
11
73
7
74
5
42
0.0000001000
43
0.0000001000
44
0.0000000001
12
0.1282325543
22
0.3361386034
32
0.0000000000
13
-0.3217859520
23
0.1608929760
33
0.0000000000
40
0.0000000000
40
0.0000000000
40
0.0000000000
40
0.0000000000
40
0.2711305050
40
0.5346867854
40
0.7783356466
40
1.0000000000
40
1.0000000000
40
1.0000000000
40
1.0000000000
10
17.2192997036
20
-25.6053397464
30
0.0000000000
10
17.2308889560
20
-25.5749606033
30
0.0000000000
10
17.2445531791
20
-25.5111145461
30
0.0000000000
10
17.2356929003
20
-25.4166798947
30
0.0000000000
10
17.1984258362
20
-25.3354548546
30
0.0000000000
10
17.1546875143
20
-25.2971453041
30
0.0000000000
10
17.1309113560
20
-25.2852572250
30
0.0000000000
11
17.2192997036
21
-25.6053397464
31
0.0000000000
11
17.2396681352
21
-25.5099460624
31
0.0000000000
11
17.2300230083
21
-25.4156188773
31
0.0000000000
11
17.1918327061
21
-25.3367186500
31
0.0000000000
11
17.1309113560
21
-25.2852572250
31
0.0000000000
0
SPLINE
5
325
100
AcDbEntity
8
0
100
AcDbSpline
62
9
6
CONTINUOUS
70
0
71
3
72
9
73
5
74
3
42
0.0000001000
43
0.0000001000
44
0.0000000001
12
0.0527894128
22
-0.0310283960
32
0.0000000000
13
0.0277993620
23
-0.0541616686
33
0.0000000000
40
0.0000000000
40
0.0000000000
40
0.0000000000
40
0.0000000000
40
0.3689529772
40
1.0000000000
40
1.0000000000
40
1.0000000000
40
1.0000000000
10
2.5581900690
20
20.9414761798
30
0.0000000000
10
2.5646823393
20
20.9376601735
30
0.0000000000
10
2.5811362407
20
20.9253319746
30
0.0000000000
10
2.5929107434
20
20.9086495071
30
0.0000000000
10
2.5987583116
20
20.8972566538
30
0.0000000000
11
2.5581900690
21
20.9414761798
31
0.0000000000
11
2.5761867819
21
20.9279703916
31
0.0000000000
11
2.5987583116
21
20.8972566538
31
0.0000000000
0
SPLINE
5
326
100
AcDbEntity
8
0
100
AcDbSpline
62
9
6
CONTINUOUS
70
0
71
3
72
9
73
5
74
3
42
0.0000001000
43
0.0000001000
44
0.0000000001
12
0.0415793299
22
-0.0810092651
32
0.0000000000
13
0.0000000000
23
-0.0900310712
33
0.0000000000
40
0.0000000000
40
0.0000000000
40
0.0000000000
40
0.0000000000
40
0.2275877162
40
1.0000000000
40
1.0000000000
40
1.0000000000
40
1.0000000000
10
2.5987583116
20
20.8972566538
30
0.0000000000
10
2.6019126265
20
20.8911110826
30
0.0000000000
10
2.6137488791
20
20.8630015144
30
0.0000000000
10
2.6175446721
20
20.8326621054
30
0.0000000000
10
2.6175446721
20
20.8094817369
30
0.0000000000
11
2.5987583116
21
20.8972566538
31
0.0000000000
11
2.6068837329
21
20.8782008005
31
0.0000000000
11
2.6175446721
21
20.8094817369
31
0.0000000000
0
SPLINE
5
327
100
AcDbEntity
8
0
100
AcDbSpline
62
9
6
CONTINUOUS
70
0
71
3
72
9
73
5
74
3
42
0.0000001000
43
0.0000001000
44
0.0000000001
12
-0.1044096115
22
0.0507430838
32
0.0000000000
13
-0.1025784558
23
-0.0512892279
33
0.0000000000
40
0.0000000000
40
0.0000000000
40
0.0000000000
40
0.0000000000
40
0.3886826481
40
1.0000000000
40
1.0000000000
40
1.0000000000
40
1.0000000000
10
17.6845755772
20
16.2475763249
30
0.0000000000
10
17.6710481758
20
16.2541506437
30
0.0000000000
10
17.6319352103
20
16.2631817165
30
0.0000000000
10
17.5937557575
20
16.2510894382
30
0.0000000000
10
17.5728530942
20
16.2406381066
30
0.0000000000
11
17.6845755772
21
16.2475763249
31
0.0000000000
11
17.6407841435
21
16.2579798929
31
0.0000000000
11
17.5728530942
21
16.2406381066
31
0.0000000000
0
SPLINE
5
328
100
AcDbEntity
8
0
100
AcDbSpline
62
9
6
CONTINUOUS
70
0
71
3
72
9
73
5
74
3
42
0.0000001000
43
0.0000001000
44
0.0000000001
12
-0.1043460885
22
0.0506505174
32
0.0000000000
13
-0.1025770087
23
-0.0512885044
33
0.0000000000
40
0.0000000000
40
0.0000000000
40
0.0000000000
40
0.0000000000
40
0.3993864599
40
1.0000000000
40
1.0000000000
40
1.0000000000
40
1.0000000000
10
16.3410573916
20
16.9193566963
30
0.0000000000
10
16.3271659199
20
16.9260997399
30
0.0000000000
10
16.2879208958
20
16.9348249909
30
0.0000000000
10
16.2498865901
20
16.9226577388
30
0.0000000000
10
16.2293502099
20
16.9123895487
30
0.0000000000
11
16.3410573916
21
16.9193566963
31
0.0000000000
11
16.2960111786
21
16.9297366805
31
0.0000000000
11
16.2293502099
21
16.9123895487
31
0.0000000000
0
SPLINE
5
329
100
AcDbEntity
8
0
100
AcDbSpline
62
9
6
CONTINUOUS
70
0
71
3
72
9
73
5
74
3
42
0.0000001000
43
0.0000001000
44
0.0000000001
12
0.0460603439
22
0.1207389166
32
0.0000000000
13
-0.0060515878
23
0.1296703380
33
0.0000000000
40
0.0000000000
40
0.0000000000
40
0.0000000000
40
0.0000000000
40
0.7511171255
40
1.0000000000
40
1.0000000000
40
1.0000000000
40
1.0000000000
10
17.7496297895
20
-25.7151747035
30
0.0000000000
10
17.7611620272
20
-25.6849450142
30
0.0000000000
10
17.7703711858
20
-25.6420700538
30
0.0000000000
10
17.7706719739
20
-25.5987148066
30
0.0000000000
10
17.7701699284
20
-25.5879572312
30
0.0000000000
11
17.7496297895
21
-25.7151747035
31
0.0000000000
11
17.7699704435
21
-25.6202658135
31
0.0000000000
11
17.7701699284
21
-25.5879572312
31
0.0000000000
0
SPLINE
5
32A
100
AcDbEntity
8
0
100
AcDbSpline
62
9
6
CONTINUOUS
70
0
71
3
72
8
73
4
74
2
42
0.0000001000
43
0.0000001000
44
0.0000000001
12
-0.0029427066
22
0.0630548167
32
0.0000000000
13
-0.0167179085
23
0.0609038365
33
0.0000000000
40
0.0000000000
40
0.0000000000
40
0.0000000000
40
0.0000000000
40
1.0000000000
40
1.0000000000
40
1.0000000000
40
1.0000000000
10
17.7701699284
20
-25.5879572312
30
0.0000000000
10
17.7691890262
20
-25.5669389589
30
0.0000000000
10
17.7660058535
20
-25.5460459084
30
0.0000000000
10
17.7604332173
20
-25.5257446296
30
0.0000000000
11
17.7701699284
21
-25.5879572312
31
0.0000000000
11
17.7604332173
21
-25.5257446296
31
0.0000000000
0
SPLINE
5
32B
100
AcDbEntity
8
0
100
AcDbSpline
62
9
6
CONTINUOUS
70
0
71
3
72
8
73
4
74
2
42
0.0000001000
43
0.0000001000
44
0.0000000001
12
-0.0080339391
22
0.0292678784
32
0.0000000000
13
-0.0114452415
23
0.0281349514
33
0.0000000000
40
0.0000000000
40
0.0000000000
40
0.0000000000
40
0.0000000000
40
1.0000000000
40
1.0000000000
40
1.0000000000
40
1.0000000000
10
17.7604332173
20
-25.5257446296
30
0.0000000000
10
17.7577552376
20
-25.5159886701
30
0.0000000000
10
17.7545254429
20
-25.5063693725
30
0.0000000000
10
17.7507103623
20
-25.4969910554
30
0.0000000000
11
17.7604332173
21
-25.5257446296
31
0.0000000000
11
17.7507103623
21
-25.4969910554
31
0.0000000000
0
SPLINE
5
32C
100
AcDbEntity
8
0
100
AcDbSpline
62
9
6
CONTINUOUS
70
0
71
3
72
9
73
5
74
3
42
0.0000001000
43
0.0000001000
44
0.0000000001
12
-0.0429532888
22
0.1055887452
32
0.0000000000
13
-0.0931448198
23
0.0658386869
33
0.0000000000
40
0.0000000000
40
0.0000000000
40
0.0000000000
40
0.0000000000
40
0.5084807211
40
1.0000000000
40
1.0000000000
40
1.0000000000
40
1.0000000000
10
17.7507103623
20
-25.4969910554
30
0.0000000000
10
17.7434300559
20
-25.4790944416
30
0.0000000000
10
17.7249206397
20
-25.4456240283
30
0.0000000000
10
17.6972681312
20
-25.4183515400
30
0.0000000000
10
17.6820073063
20
-25.4075645453
30
0.0000000000
11
17.7507103623
21
-25.4969910554
31
0.0000000000
11
17.7222427226
21
-25.4466588117
31
0.0000000000
11
17.6820073063
21
-25.4075645453
31
0.0000000000
0
SPLINE
5
32D
100
AcDbEntity
8
0
100
AcDbSpline
62
9
6
CONTINUOUS
70
0
71
3
72
8
73
4
74
2
42
0.0000001000
43
0.0000001000
44
0.0000000001
12
-0.0198670688
22
0.0140428821
32
0.0000000000
13
-0.0216205496
23
0.0108102748
33
0.0000000000
40
0.0000000000
40
0.0000000000
40
0.0000000000
40
0.0000000000
40
1.0000000000
40
1.0000000000
40
1.0000000000
40
1.0000000000
10
17.6820073063
20
-25.4075645453
30
0.0000000000
10
17.6753849500
20
-25.4028835846
30
0.0000000000
10
17.6684482917
20
-25.3986956069
30
0.0000000000
10
17.6612414418
20
-25.3950921820
30
0.0000000000
11
17.6820073063
21
-25.4075645453
31
0.0000000000
11
17.6612414418
21
-25.3950921820
31
0.0000000000
0
SPLINE
5
32E
100
AcDbEntity
8
0
100
AcDbSpline
62
9
6
CONTINUOUS
70
0
71
3
72
9
73
5
74
3
42
0.0000001000
43
0.0000001000
44
0.0000000001
12
0.0000000000
22
-0.1183504396
32
0.0000000000
13
-0.1065872076
23
-0.0532936038
33
0.0000000000
40
0.0000000000
40
0.0000000000
40
0.0000000000
40
0.0000000000
40
0.4320096608
40
1.0000000000
40
1.0000000000
40
1.0000000000
40
1.0000000000
10
17.8228530942
20
15.6728177836
30
0.0000000000
10
17.8228530942
20
15.6557749391
30
0.0000000000
10
17.8042479680
20
15.6163247926
30
0.0000000000
10
17.7698099576
20
15.5945195199
30
0.0000000000
10
17.7496297895
20
15.5844294359
30
0.0000000000
11
17.8228530942
21
15.6728177836
31
0.0000000000
11
17.8038229773
21
15.6249823545
31
0.0000000000
11
17.7496297895
21
15.5844294359
31
0.0000000000
0
SPLINE
5
32F
100
AcDbEntity
8
0
100
AcDbSpline
62
9
6
CONTINUOUS
70
0
71
3
72
9
73
5
74
3
42
0.0000001000
43
0.0000001000
44
0.0000000001
12
0.0000000000
22
-0.1183504396
32
0.0000000000
13
-0.1065872076
23
-0.0532936038
33
0.0000000000
40
0.0000000000
40
0.0000000000
40
0.0000000000
40
0.0000000000
40
0.4320096608
40
1.0000000000
40
1.0000000000
40
1.0000000000
40
1.0000000000
10
17.8228530942
20
16.0241317556
30
0.0000000000
10
17.8228530942
20
16.0070889112
30
0.0000000000
10
17.8042479680
20
15.9676387647
30
0.0000000000
10
17.7698099576
20
15.9458334920
30
0.0000000000
10
17.7496297895
20
15.9357434080
30
0.0000000000
11
17.8228530942
21
16.0241317556
31
0.0000000000
11
17.8038229773
21
15.9762963266
31
0.0000000000
11
17.7496297895
21
15.9357434080
31
0.0000000000
0
SPLINE
5
330
100
AcDbEntity
8
0
100
AcDbSpline
62
9
6
CONTINUOUS
70
0
71
3
72
11
73
7
74
5
42
0.0000001000
43
0.0000001000
44
0.0000000001
12
0.0000000000
22
-0.3637757396
32
0.0000000000
13
0.3562163182
23
-0.0737748151
33
0.0000000000
40
0.0000000000
40
0.0000000000
40
0.0000000000
40
0.0000000000
40
0.2944003400
40
0.5512517510
40
0.7796839657
40
1.0000000000
40
1.0000000000
40
1.0000000000
40
1.0000000000
10
17.0425230083
20
-25.3187280941
30
0.0000000000
10
17.0425230083
20
-25.3544266612
30
0.0000000000
10
17.0491710837
20
-25.4216524322
30
0.0000000000
10
17.0835382604
20
-25.5112932603
30
0.0000000000
10
17.1414198167
20
-25.5773028646
30
0.0000000000
10
17.1931396481
20
-25.5999218215
30
0.0000000000
10
17.2192997036
20
-25.6053397464
30
0.0000000000
11
17.0425230083
21
-25.3187280941
31
0.0000000000
11
17.0546580704
21
-25.4251340598
31
0.0000000000
11
17.0899505637
21
-25.5116487077
31
0.0000000000
11
17.1459486971
21
-25.5730449855
31
0.0000000000
11
17.2192997036
21
-25.6053397464
31
0.0000000000
0
SPLINE
5
331
100
AcDbEntity
8
0
100
AcDbSpline
62
9
6
CONTINUOUS
70
0
71
3
72
8
73
4
74
2
42
0.0000001000
43
0.0000001000
44
0.0000000001
12
-0.0088373777
22
0.0018302808
32
0.0000000000
13
-0.0086739698
23
0.0027210715
33
0.0000000000
40
0.0000000000
40
0.0000000000
40
0.0000000000
40
0.0000000000
40
1.0000000000
40
1.0000000000
40
1.0000000000
40
1.0000000000
10
17.1309113560
20
-25.2852572250
30
0.0000000000
10
17.1279655634
20
-25.2846471313
30
0.0000000000
10
17.1250397769
20
-25.2838838822
30
0.0000000000
10
17.1221484536
20
-25.2829768584
30
0.0000000000
11
17.1309113560
21
-25.2852572250
31
0.0000000000
11
17.1221484536
21
-25.2829768584
31
0.0000000000
0
SPLINE
5
332
100
AcDbEntity
8
0
100
AcDbSpline
62
9
6
CONTINUOUS
70
0
71
3
72
8
73
4
74
2
42
0.0000001000
43
0.0000001000
44
0.0000000001
12
-0.0084837533
22
0.0026613995
32
0.0000000000
13
-0.0082453634
23
0.0034602963
33
0.0000000000
40
0.0000000000
40
0.0000000000
40
0.0000000000
40
0.0000000000
40
1.0000000000
40
1.0000000000
40
1.0000000000
40
1.0000000000
10
17.1221484536
20
-25.2829768584
30
0.0000000000
10
17.1193205358
20
-25.2820897252
30
0.0000000000
10
17.1165255863
20
-25.2810650540
30
0.0000000000
10
17.1137771319
20
-25.2799116219
30
0.0000000000
11
17.1221484536
21
-25.2829768584
31
0.0000000000
11
17.1137771319
21
-25.2799116219
31
0.0000000000
0
SPLINE
5
333
100
AcDbEntity
8
0
100
AcDbSpline
62
9
6
CONTINUOUS
70
0
71
3
72
8
73
4
74
2
42
0.0000001000
43
0.0000001000
44
0.0000000001
12
-0.0063048832
22
0.0026459433
32
0.0000000000
13
-0.0061236254
23
0.0030858911
33
0.0000000000
40
0.0000000000
40
0.0000000000
40
0.0000000000
40
0.0000000000
40
1.0000000000
40
1.0000000000
40
1.0000000000
40
1.0000000000
10
17.1137771319
20
-25.2799116219
30
0.0000000000
10
17.1116755042
20
-25.2790296408
30
0.0000000000
10
17.1096010622
20
-25.2780723730
30
0.0000000000
10
17.1075598537
20
-25.2770437426
30
0.0000000000
11
17.1137771319
21
-25.2799116219
31
0.0000000000
11
17.1075598537
21
-25.2770437426
31
0.0000000000
0
SPLINE
5
334
100
AcDbEntity
8
0
100
AcDbSpline
62
9
6
CONTINUOUS
70
0
71
3
72
11
73
7
74
5
42
0.0000001000
43
0.0000001000
44
0.0000000001
12
0.0000000000
22
0.3637757396
32
0.0000000000
13
-0.3562163182
23
0.0737748151
33
0.0000000000
40
0.0000000000
40
0.0000000000
40
0.0000000000
40
0.0000000000
40
0.2944003400
40
0.5512517510
40
0.7796839657
40
1.0000000000
40
1.0000000000
40
1.0000000000
40
1.0000000000
10
16.3354162271
20
14.1273226547
30
0.0000000000
10
16.3354162271
20
14.1630212219
30
0.0000000000
10
16.3287681517
20
14.2302469929
30
0.0000000000
10
16.2944009751
20
14.3198878210
30
0.0000000000
10
16.2365194187
20
14.3858974252
30
0.0000000000
10
16.1847995874
20
14.4085163822
30
0.0000000000
10
16.1586395318
20
14.4139343071
30
0.0000000000
11
16.3354162271
21
14.1273226547
31
0.0000000000
11
16.3232811650
21
14.2337286204
31
0.0000000000
11
16.2879886717
21
14.3202432684
31
0.0000000000
11
16.2319905383
21
14.3816395461
31
0.0000000000
11
16.1586395318
21
14.4139343071
31
0.0000000000
0
SPLINE
5
335
100
AcDbEntity
8
0
100
AcDbSpline
62
9
6
CONTINUOUS
70
0
71
3
72
11
73
7
74
5
42
0.0000001000
43
0.0000001000
44
0.0000000001
12
-0.1061592977
22
-0.2782775268
32
0.0000000000
13
-0.2954793229
23
0.0611227618
33
0.0000000000
40
0.0000000000
40
0.0000000000
40
0.0000000000
40
0.0000000000
40
0.3176223393
40
0.6108082489
40
0.8776890968
40
1.0000000000
40
1.0000000000
40
1.0000000000
40
1.0000000000
10
16.1586395318
20
14.4139343071
30
0.0000000000
10
16.1474000103
20
14.3844719207
30
0.0000000000
10
16.1170294399
20
14.3305813290
30
0.0000000000
10
16.0497099450
20
14.2721238758
30
0.0000000000
10
15.9825677933
20
14.2516542783
30
0.0000000000
10
15.9432298442
20
14.2551271903
30
0.0000000000
10
15.9311830632
20
14.2576191837
30
0.0000000000
11
16.1586395318
21
14.4139343071
31
0.0000000000
11
16.1113584509
21
14.3319969477
31
0.0000000000
11
16.0443628365
21
14.2759901332
31
0.0000000000
11
15.9678521637
21
14.2544403935
31
0.0000000000
11
15.9311830632
21
14.2576191837
31
0.0000000000
0
SPLINE
5
336
100
AcDbEntity
8
0
100
AcDbSpline
62
9
6
CONTINUOUS
70
0
71
3
72
11
73
7
74
5
42
0.0000001000
43
0.0000001000
44
0.0000000001
12
-0.1061592977
22
-0.2782775268
32
0.0000000000
13
-0.2954793229
23
0.0611227618
33
0.0000000000
40
0.0000000000
40
0.0000000000
40
0.0000000000
40
0.0000000000
40
0.3176223393
40
0.6108082489
40
0.8776890968
40
1.0000000000
40
1.0000000000
40
1.0000000000
40
1.0000000000
10
15.6283094459
20
14.5237692641
30
0.0000000000
10
15.6170699244
20
14.4943068778
30
0.0000000000
10
15.5866993540
20
14.4404162861
30
0.0000000000
10
15.5193798591
20
14.3819588328
30
0.0000000000
10
15.4522377074
20
14.3614892353
30
0.0000000000
10
15.4128997583
20
14.3649621473
30
0.0000000000
10
15.4008529773
20
14.3674541407
30
0.0000000000
11
15.6283094459
21
14.5237692641
31
0.0000000000
11
15.5810283650
21
14.4418319048
31
0.0000000000
11
15.5140327506
21
14.3858250903
31
0.0000000000
11
15.4375220778
21
14.3642753505
31
0.0000000000
11
15.4008529773
21
14.3674541407
31
0.0000000000
0
SPLINE
5
337
100
AcDbEntity
8
0
100
AcDbSpline
62
9
6
CONTINUOUS
70
0
71
3
72
10
73
6
74
4
42
0.0000001000
43
0.0000001000
44
0.0000000001
12
0.0000000000
22
-0.1565859256
32
0.0000000000
13
0.1420458097
23
-0.0715474661
33
0.0000000000
40
0.0000000000
40
0.0000000000
40
0.0000000000
40
0.0000000000
40
0.4461619557
40
0.8210307692
40
1.0000000000
40
1.0000000000
40
1.0000000000
40
1.0000000000
10
15.2747560553
20
14.5237692641
30
0.0000000000
10
15.2747560553
20
14.5004817032
30
0.0000000000
10
15.2801915288
20
14.4571499766
30
0.0000000000
10
15.3068634830
20
14.4099583793
30
0.0000000000
10
15.3313088709
20
14.3929443146
30
0.0000000000
10
15.3397828140
20
14.3886760496
30
0.0000000000
11
15.2747560553
21
14.5237692641
31
0.0000000000
11
15.2855250722
21
14.4547415688
31
0.0000000000
11
15.3165202471
21
14.4048928689
31
0.0000000000
11
15.3397828140
21
14.3886760496
31
0.0000000000
0
SPLINE
5
338
100
AcDbEntity
8
0
100
AcDbSpline
62
9
6
CONTINUOUS
70
0
71
3
72
10
73
6
74
4
42
0.0000001000
43
0.0000001000
44
0.0000000001
12
0.0000000000
22
-0.1565856039
32
0.0000000000
13
0.1420669092
23
-0.0716176355
33
0.0000000000
40
0.0000000000
40
0.0000000000
40
0.0000000000
40
0.0000000000
40
0.4399929087
40
0.8157800551
40
1.0000000000
40
1.0000000000
40
1.0000000000
40
1.0000000000
10
13.9312531711
20
15.1955207063
30
0.0000000000
10
13.9312531711
20
15.1725551878
30
0.0000000000
10
13.9365908468
20
15.1295341359
30
0.0000000000
10
13.9628905967
20
15.0821603067
30
0.0000000000
10
13.9875674335
20
15.0648285632
30
0.0000000000
10
13.9962912862
20
15.0604307642
30
0.0000000000
11
13.9312531711
21
15.1955207063
31
0.0000000000
11
13.9416994378
21
15.1274207000
31
0.0000000000
11
13.9724086533
21
15.0772268166
31
0.0000000000
11
13.9962912862
21
15.0604307642
31
0.0000000000
0
SPLINE
5
339
100
AcDbEntity
8
0
100
AcDbSpline
62
9
6
CONTINUOUS
70
0
71
3
72
8
73
4
74
2
42
0.0000001000
43
0.0000001000
44
0.0000000001
12
0.0057724119
22
0.0028061305
32
0.0000000000
13
0.0059609395
23
0.0024315908
33
0.0000000000
40
0.0000000000
40
0.0000000000
40
0.0000000000
40
0.0000000000
40
1.0000000000
40
1.0000000000
40
1.0000000000
40
1.0000000000
10
16.1176206438
20
16.9193381163
30
0.0000000000
10
16.1195447811
20
16.9202734931
30
0.0000000000
10
16.1215029602
20
16.9211465964
30
0.0000000000
10
16.1234899401
20
16.9219571267
30
0.0000000000
11
16.1176206438
21
16.9193381163
31
0.0000000000
11
16.1234899401
21
16.9219571267
31
0.0000000000
0
SPLINE
5
33A
100
AcDbEntity
8
0
100
AcDbSpline
62
9
6
CONTINUOUS
70
0
71
3
72
9
73
5
74
3
42
0.0000001000
43
0.0000001000
44
0.0000000001
12
0.1018210834
22
0.0415349312
32
0.0000000000
13
0.0969206517
23
-0.0484603259
33
0.0000000000
40
0.0000000000
40
0.0000000000
40
0.0000000000
40
0.0000000000
40
0.3555081913
40
1.0000000000
40
1.0000000000
40
1.0000000000
40
1.0000000000
10
16.1234899401
20
16.9219571267
30
0.0000000000
10
16.1355560165
20
16.9268791294
30
0.0000000000
10
16.1724838166
20
16.9342335414
30
0.0000000000
10
16.2085286879
20
16.9228003097
30
0.0000000000
10
16.2293502099
20
16.9123895487
30
0.0000000000
11
16.1234899401
21
16.9219571267
31
0.0000000000
11
16.1617006974
21
16.9297337403
31
0.0000000000
11
16.2293502099
21
16.9123895487
31
0.0000000000
0
SPLINE
5
33B
100
AcDbEntity
8
0
100
AcDbSpline
62
9
6
CONTINUOUS
70
0
71
3
72
9
73
5
74
3
42
0.0000001000
43
0.0000001000
44
0.0000000001
12
0.1042886375
22
0.0503857346
32
0.0000000000
13
0.1024200382
23
-0.0512100191
33
0.0000000000
40
0.0000000000
40
0.0000000000
40
0.0000000000
40
0.0000000000
40
0.3984659506
40
1.0000000000
40
1.0000000000
40
1.0000000000
40
1.0000000000
10
13.9964824408
20
15.8587738900
30
0.0000000000
10
14.0103342645
20
15.8654662232
30
0.0000000000
10
14.0495173833
20
15.8741462000
30
0.0000000000
10
14.0874934863
20
15.8619975670
30
0.0000000000
10
14.1080298664
20
15.8517293769
30
0.0000000000
11
13.9964824408
21
15.8587738900
31
0.0000000000
11
14.0413688978
21
15.8690765087
31
0.0000000000
11
14.1080298664
21
15.8517293769
31
0.0000000000
0
SPLINE
5
33C
100
AcDbEntity
8
0
100
AcDbSpline
62
9
6
CONTINUOUS
70
0
71
3
72
9
73
5
74
3
42
0.0000001000
43
0.0000001000
44
0.0000000001
12
-0.0002466153
22
-0.1183471546
32
0.0000000000
13
0.1066037527
23
-0.0533018764
33
0.0000000000
40
0.0000000000
40
0.0000000000
40
0.0000000000
40
0.0000000000
40
0.4395135603
40
1.0000000000
40
1.0000000000
40
1.0000000000
40
1.0000000000
10
13.8580305961
20
15.6352230367
30
0.0000000000
10
13.8579944658
20
15.6178846436
30
0.0000000000
10
13.8769597913
20
15.5785223990
30
0.0000000000
10
13.9113365185
20
15.5567930046
30
0.0000000000
10
13.9312531711
20
15.5468346783
30
0.0000000000
11
13.8580305961
21
15.6352230367
31
0.0000000000
11
13.8776425552
21
15.5866903390
31
0.0000000000
11
13.9312531711
21
15.5468346783
31
0.0000000000
0
SPLINE
5
33D
100
AcDbEntity
8
0
100
AcDbSpline
62
9
6
CONTINUOUS
70
0
71
3
72
9
73
5
74
3
42
0.0000001000
43
0.0000001000
44
0.0000000001
12
0.0000000000
22
-0.1183504396
32
0.0000000000
13
0.1065872076
23
-0.0532936038
33
0.0000000000
40
0.0000000000
40
0.0000000000
40
0.0000000000
40
0.0000000000
40
0.4320096608
40
1.0000000000
40
1.0000000000
40
1.0000000000
40
1.0000000000
10
13.8580298664
20
15.2839090539
30
0.0000000000
10
13.8580298664
20
15.2668662095
30
0.0000000000
10
13.8766349926
20
15.2274160629
30
0.0000000000
10
13.9110730030
20
15.2056107903
30
0.0000000000
10
13.9312531711
20
15.1955207063
30
0.0000000000
11
13.8580298664
21
15.2839090539
31
0.0000000000
11
13.8770599833
21
15.2360736249
31
0.0000000000
11
13.9312531711
21
15.1955207063
31
0.0000000000
0
SPLINE
5
33E
100
AcDbEntity
8
0
100
AcDbSpline
62
9
6
CONTINUOUS
70
0
71
3
72
9
73
5
74
3
42
0.0000001000
43
0.0000001000
44
0.0000000001
12
0.0527894128
22
-0.0310283960
32
0.0000000000
13
0.0277993620
23
-0.0541616686
33
0.0000000000
40
0.0000000000
40
0.0000000000
40
0.0000000000
40
0.0000000000
40
0.3689529772
40
1.0000000000
40
1.0000000000
40
1.0000000000
40
1.0000000000
10
15.9225082334
20
14.2593170976
30
0.0000000000
10
15.9290005038
20
14.2555010913
30
0.0000000000
10
15.9454544051
20
14.2431728924
30
0.0000000000
10
15.9572289078
20
14.2264904248
30
0.0000000000
10
15.9630764760
20
14.2150975716
30
0.0000000000
11
15.9225082334
21
14.2593170976
31
0.0000000000
11
15.9405049463
21
14.2458113094
31
0.0000000000
11
15.9630764760
21
14.2150975716
31
0.0000000000
0
SPLINE
5
33F
100
AcDbEntity
8
0
100
AcDbSpline
62
9
6
CONTINUOUS
70
0
71
3
72
9
73
5
74
3
42
0.0000001000
43
0.0000001000
44
0.0000000001
12
0.0415793299
22
-0.0810092651
32
0.0000000000
13
0.0000000000
23
-0.0900310712
33
0.0000000000
40
0.0000000000
40
0.0000000000
40
0.0000000000
40
0.0000000000
40
0.2275877162
40
1.0000000000
40
1.0000000000
40
1.0000000000
40
1.0000000000
10
15.9630764760
20
14.2150975716
30
0.0000000000
10
15.9662307909
20
14.2089520004
30
0.0000000000
10
15.9780670435
20
14.1808424321
30
0.0000000000
10
15.9818628365
20
14.1505030231
30
0.0000000000
10
15.9818628365
20
14.1273226547
30
0.0000000000
11
15.9630764760
21
14.2150975716
31
0.0000000000
11
15.9712018973
21
14.1960417183
31
0.0000000000
11
15.9818628365
21
14.1273226547
31
0.0000000000
0
SPLINE
5
340
100
AcDbEntity
8
0
100
AcDbSpline
62
9
6
CONTINUOUS
70
0
71
3
72
10
73
6
74
4
42
0.0000001000
43
0.0000001000
44
0.0000000001
12
0.0000820386
22
-0.0997299692
32
0.0000000000
13
0.0836144133
23
-0.0511958990
33
0.0000000000
40
0.0000000000
40
0.0000000000
40
0.0000000000
40
0.0000000000
40
0.1925998704
40
0.6351840661
40
1.0000000000
40
1.0000000000
40
1.0000000000
40
1.0000000000
10
14.5653937579
20
14.5835571646
30
0.0000000000
10
14.5653990248
20
14.5771545049
30
0.0000000000
10
14.5685280890
20
14.5560178699
30
0.0000000000
10
14.5892249907
20
14.5289069075
30
0.0000000000
10
14.6105410685
20
14.5131389213
30
0.0000000000
10
14.6207090253
20
14.5069132281
30
0.0000000000
11
14.5653937579
21
14.5835571646
31
0.0000000000
11
14.5682176143
21
14.5646965075
31
0.0000000000
11
14.5922183779
21
14.5286378900
31
0.0000000000
11
14.6207090253
21
14.5069132281
31
0.0000000000
0
SPLINE
5
341
100
AcDbEntity
8
0
100
AcDbSpline
62
9
6
CONTINUOUS
70
0
71
3
72
8
73
4
74
2
42
0.0000001000
43
0.0000001000
44
0.0000000001
12
0.0172110689
22
-0.0105380892
32
0.0000000000
13
0.0180182640
23
-0.0090101087
33
0.0000000000
40
0.0000000000
40
0.0000000000
40
0.0000000000
40
0.0000000000
40
1.0000000000
40
1.0000000000
40
1.0000000000
40
1.0000000000
10
14.6207090253
20
14.5069132281
30
0.0000000000
10
14.6264460483
20
14.5034005317
30
0.0000000000
10
14.6323538643
20
14.5001740067
30
0.0000000000
10
14.6383599523
20
14.4971706371
30
0.0000000000
11
14.6207090253
21
14.5069132281
31
0.0000000000
11
14.6383599523
21
14.4971706371
31
0.0000000000
0
SPLINE
5
342
100
AcDbEntity
8
0
100
AcDbSpline
62
9
6
CONTINUOUS
70
0
71
3
72
9
73
5
74
3
42
0.0000001000
43
0.0000001000
44
0.0000000001
12
0.0918376097
22
0.0459188049
32
0.0000000000
13
0.0276889280
23
0.0999513608
33
0.0000000000
40
0.0000000000
40
0.0000000000
40
0.0000000000
40
0.0000000000
40
0.6592125426
40
1.0000000000
40
1.0000000000
40
1.0000000000
40
1.0000000000
10
17.0425230083
20
-25.3187280941
30
0.0000000000
10
17.0627031764
20
-25.3086380100
30
0.0000000000
10
17.0923756355
20
-25.2898501633
30
0.0000000000
10
17.1102939505
20
-25.2579629730
30
0.0000000000
10
17.1134392970
20
-25.2466089163
30
0.0000000000
11
17.0425230083
21
-25.3187280941
31
0.0000000000
11
17.0967161961
21
-25.2781751755
31
0.0000000000
11
17.1134392970
21
-25.2466089163
31
0.0000000000
0
SPLINE
5
343
100
AcDbEntity
8
0
100
AcDbSpline
62
9
6
CONTINUOUS
70
0
71
3
72
8
73
4
74
2
42
0.0000001000
43
0.0000001000
44
0.0000000001
12
0.0044469859
22
0.0160527085
32
0.0000000000
13
0.0000000000
23
0.0163774006
33
0.0000000000
40
0.0000000000
40
0.0000000000
40
0.0000000000
40
0.0000000000
40
1.0000000000
40
1.0000000000
40
1.0000000000
40
1.0000000000
10
17.1134392970
20
-25.2466089163
30
0.0000000000
10
17.1149216256
20
-25.2412580135
30
0.0000000000
10
17.1157463130
20
-25.2357988800
30
0.0000000000
10
17.1157463130
20
-25.2303397464
30
0.0000000000
11
17.1134392970
21
-25.2466089163
31
0.0000000000
11
17.1157463130
21
-25.2303397464
31
0.0000000000
0
SPLINE
5
344
100
AcDbEntity
8
0
100
AcDbSpline
62
9
6
CONTINUOUS
70
0
71
3
72
8
73
4
74
2
42
0.0000001000
43
0.0000001000
44
0.0000000001
12
-0.0315625383
22
-0.0380993540
32
0.0000000000
13
-0.0289979005
23
-0.0401531648
33
0.0000000000
40
0.0000000000
40
0.0000000000
40
0.0000000000
40
0.0000000000
40
1.0000000000
40
1.0000000000
40
1.0000000000
40
1.0000000000
10
17.2192997036
20
14.9442643930
30
0.0000000000
10
17.2087788575
20
14.9315646083
30
0.0000000000
10
17.1986832769
20
14.9184999415
30
0.0000000000
10
17.1890173101
20
14.9051155532
30
0.0000000000
11
17.2192997036
21
14.9442643930
31
0.0000000000
11
17.1890173101
21
14.9051155532
31
0.0000000000
0
SPLINE
5
345
100
AcDbEntity
8
0
100
AcDbSpline
62
9
6
CONTINUOUS
70
0
71
3
72
9
73
5
74
3
42
0.0000001000
43
0.0000001000
44
0.0000000001
12
-0.0975244535
22
-0.1350413437
32
0.0000000000
13
-0.0675662299
23
-0.1522213257
33
0.0000000000
40
0.0000000000
40
0.0000000000
40
0.0000000000
40
0.0000000000
40
0.4769583011
40
1.0000000000
40
1.0000000000
40
1.0000000000
40
1.0000000000
10
17.1890173101
20
14.9051155532
30
0.0000000000
10
17.1735122775
20
14.8836458566
30
0.0000000000
10
17.1433218013
20
14.8369072460
30
0.0000000000
10
17.1180694992
20
14.7873716982
30
0.0000000000
10
17.1062895140
20
14.7608323312
30
0.0000000000
11
17.1890173101
21
14.9051155532
31
0.0000000000
11
17.1458364624
21
14.8384248469
31
0.0000000000
11
17.1062895140
21
14.7608323312
31
0.0000000000
0
SPLINE
5
346
100
AcDbEntity
8
0
100
AcDbSpline
62
9
6
CONTINUOUS
70
0
71
3
72
9
73
5
74
3
42
0.0000001000
43
0.0000001000
44
0.0000000001
12
-0.0348810751
22
-0.0785842794
32
0.0000000000
13
-0.0262176585
23
-0.0818898164
33
0.0000000000
40
0.0000000000
40
0.0000000000
40
0.0000000000
40
0.0000000000
40
0.5023428387
40
1.0000000000
40
1.0000000000
40
1.0000000000
40
1.0000000000
10
17.1062895140
20
14.7608323312
30
0.0000000000
10
17.1004487612
20
14.7476735812
30
0.0000000000
10
17.0895205843
20
14.7211704081
30
0.0000000000
10
17.0800208129
20
14.6941184725
30
0.0000000000
10
17.0756716777
20
14.6805341213
30
0.0000000000
11
17.1062895140
21
14.7608323312
31
0.0000000000
11
17.0898298341
21
14.7209077435
31
0.0000000000
11
17.0756716777
21
14.6805341213
31
0.0000000000
0
SPLINE
5
347
100
AcDbEntity
8
0
100
AcDbSpline
62
9
6
CONTINUOUS
70
0
71
3
72
9
73
5
74
3
42
0.0000001000
43
0.0000001000
44
0.0000000001
12
-0.0619250986
22
-0.1934205897
32
0.0000000000
13
0.0000000000
23
-0.2028915163
33
0.0000000000
40
0.0000000000
40
0.0000000000
40
0.0000000000
40
0.0000000000
40
0.4137313025
40
1.0000000000
40
1.0000000000
40
1.0000000000
40
1.0000000000
10
17.0756716777
20
14.6805341213
30
0.0000000000
10
17.0671315605
20
14.6538594038
30
0.0000000000
10
17.0500173248
20
14.5882510875
30
0.0000000000
10
17.0425230083
20
14.5205256936
30
0.0000000000
10
17.0425230083
20
14.4808760453
30
0.0000000000
11
17.0756716777
21
14.6805341213
31
0.0000000000
11
17.0546168466
21
14.5992085877
31
0.0000000000
11
17.0425230083
21
14.4808760453
31
0.0000000000
0
SPLINE
5
348
100
AcDbEntity
8
0
100
AcDbSpline
62
9
6
CONTINUOUS
70
0
71
3
72
9
73
5
74
3
42
0.0000001000
43
0.0000001000
44
0.0000000001
12
0.1065872076
22
0.0532936038
32
0.0000000000
13
0.0000000000
23
0.1183504396
33
0.0000000000
40
0.0000000000
40
0.0000000000
40
0.0000000000
40
0.0000000000
40
0.5679903392
40
1.0000000000
40
1.0000000000
40
1.0000000000
40
1.0000000000
10
17.0425230083
20
14.4808760453
30
0.0000000000
10
17.0627031764
20
14.4909661293
30
0.0000000000
10
17.0971411868
20
14.5127714020
30
0.0000000000
10
17.1157463130
20
14.5522215485
30
0.0000000000
10
17.1157463130
20
14.5692643930
30
0.0000000000
11
17.0425230083
21
14.4808760453
31
0.0000000000
11
17.0967161961
21
14.5214289639
31
0.0000000000
11
17.1157463130
21
14.5692643930
31
0.0000000000
0
SPLINE
5
349
100
AcDbEntity
8
0
100
AcDbSpline
62
9
6
CONTINUOUS
70
0
71
3
72
9
73
5
74
3
42
0.0000001000
43
0.0000001000
44
0.0000000001
12
0.0390589135
22
-0.0633270110
32
0.0000000000
13
-0.0388406053
23
-0.0616439661
33
0.0000000000
40
0.0000000000
40
0.0000000000
40
0.0000000000
40
0.0000000000
40
0.6996685086
40
1.0000000000
40
1.0000000000
40
1.0000000000
40
1.0000000000
10
17.7496297895
20
15.5844294359
30
0.0000000000
10
17.7587392201
20
15.5696601308
30
0.0000000000
10
17.7741676732
20
15.5485657042
30
0.0000000000
10
17.7684365351
20
15.5200519101
30
0.0000000000
10
17.7645481828
20
15.5138807020
30
0.0000000000
11
17.7496297895
21
15.5844294359
31
0.0000000000
11
17.7699704435
21
15.5365098711
31
0.0000000000
11
17.7645481828
21
15.5138807020
31
0.0000000000
0
SPLINE
5
34A
100
AcDbEntity
8
0
100
AcDbSpline
62
9
6
CONTINUOUS
70
0
71
3
72
9
73
5
74
3
42
0.0000001000
43
0.0000001000
44
0.0000000001
12
0.0390754420
22
-0.0633538090
32
0.0000000000
13
-0.0390171369
23
-0.0616959367
33
0.0000000000
40
0.0000000000
40
0.0000000000
40
0.0000000000
40
0.0000000000
40
0.7019059025
40
1.0000000000
40
1.0000000000
40
1.0000000000
40
1.0000000000
10
17.2192997036
20
14.9442643930
30
0.0000000000
10
17.2284421314
20
14.9294415888
30
0.0000000000
10
17.2439375887
20
14.9082938206
30
0.0000000000
10
17.2380664891
20
14.8798342647
30
0.0000000000
10
17.2341895630
20
14.8737038666
30
0.0000000000
11
17.2192997036
21
14.9442643930
31
0.0000000000
11
17.2396681352
21
14.8961517899
31
0.0000000000
11
17.2341895630
21
14.8737038666
31
0.0000000000
0
SPLINE
5
34B
100
AcDbEntity
8
0
100
AcDbSpline
62
9
6
CONTINUOUS
70
0
71
3
72
9
73
5
74
3
42
0.0000001000
43
0.0000001000
44
0.0000000001
12
0.0962299386
22
0.0472325042
32
0.0000000000
13
0.1062737778
23
-0.0042849516
33
0.0000000000
40
0.0000000000
40
0.0000000000
40
0.0000000000
40
0.0000000000
40
0.0715056991
40
1.0000000000
40
1.0000000000
40
1.0000000000
40
1.0000000000
10
1.0745836848
20
21.2110591283
30
0.0000000000
10
1.0768773478
20
21.2121849260
30
0.0000000000
10
1.1092646988
20
21.2272978550
30
0.0000000000
10
1.1458062735
20
21.2332605634
30
0.0000000000
10
1.1786978058
20
21.2319343790
30
0.0000000000
11
1.0745836848
21
21.2110591283
31
0.0000000000
11
1.0815303490
21
21.2142994614
31
0.0000000000
11
1.1786978058
21
21.2319343790
31
0.0000000000
0
SPLINE
5
34C
100
AcDbEntity
8
0
100
AcDbSpline
62
9
6
CONTINUOUS
70
0
71
3
72
11
73
7
74
5
42
0.0000001000
43
0.0000001000
44
0.0000000001
12
0.3283038806
22
-0.1641519403
32
0.0000000000
13
0.0000000000
23
-0.3670548971
33
0.0000000000
40
0.0000000000
40
0.0000000000
40
0.0000000000
40
0.0000000000
40
0.2307526336
40
0.4908242915
40
0.7571794809
40
1.0000000000
40
1.0000000000
40
1.0000000000
40
1.0000000000
10
17.5728530942
20
16.2406381066
30
0.0000000000
10
17.5981054226
20
16.2280119424
30
0.0000000000
10
17.6463648057
20
16.1901889298
30
0.0000000000
10
17.7019825928
20
16.1150935347
30
0.0000000000
10
17.7394221138
20
16.0278546981
30
0.0000000000
10
17.7496297895
20
15.9654528949
30
0.0000000000
10
17.7496297895
20
15.9357434080
30
0.0000000000
11
17.5728530942
21
16.2406381066
31
0.0000000000
11
17.6407841435
21
16.1900488436
31
0.0000000000
11
17.6983367576
21
16.1138883676
31
0.0000000000
11
17.7365794368
21
16.0239112638
31
0.0000000000
11
17.7496297895
21
15.9357434080
31
0.0000000000
0
SPLINE
5
34D
100
AcDbEntity
8
0
100
AcDbSpline
62
9
6
CONTINUOUS
70
0
71
3
72
11
73
7
74
5
42
0.0000001000
43
0.0000001000
44
0.0000000001
12
0.3283038806
22
-0.1641519403
32
0.0000000000
13
0.0000000000
23
-0.3670548971
33
0.0000000000
40
0.0000000000
40
0.0000000000
40
0.0000000000
40
0.0000000000
40
0.2307526336
40
0.4908242915
40
0.7571794809
40
1.0000000000
40
1.0000000000
40
1.0000000000
40
1.0000000000
10
15.4515327506
20
15.1799779348
30
0.0000000000
10
15.4767850790
20
15.1673517706
30
0.0000000000
10
15.5250444621
20
15.1295287580
30
0.0000000000
10
15.5806622492
20
15.0544333629
30
0.0000000000
10
15.6181017702
20
14.9671945263
30
0.0000000000
10
15.6283094459
20
14.9047927231
30
0.0000000000
10
15.6283094459
20
14.8750832362
30
0.0000000000
11
15.4515327506
21
15.1799779348
31
0.0000000000
11
15.5194637999
21
15.1293886718
31
0.0000000000
11
15.5770164141
21
15.0532281958
31
0.0000000000
11
15.6152590932
21
14.9632510920
31
0.0000000000
11
15.6283094459
21
14.8750832362
31
0.0000000000
0
SPLINE
5
34E
100
AcDbEntity
8
0
100
AcDbSpline
62
9
6
CONTINUOUS
70
0
71
3
72
11
73
7
74
5
42
0.0000001000
43
0.0000001000
44
0.0000000001
12
-0.3283038806
22
-0.1641519403
32
0.0000000000
13
0.0000000000
23
-0.3670548971
33
0.0000000000
40
0.0000000000
40
0.0000000000
40
0.0000000000
40
0.0000000000
40
0.2307526336
40
0.4908242915
40
0.7571794809
40
1.0000000000
40
1.0000000000
40
1.0000000000
40
1.0000000000
10
15.4515327506
20
15.1799779348
30
0.0000000000
10
15.4262804223
20
15.1673517706
30
0.0000000000
10
15.3780210392
20
15.1295287580
30
0.0000000000
10
15.3224032521
20
15.0544333629
30
0.0000000000
10
15.2849637310
20
14.9671945263
30
0.0000000000
10
15.2747560553
20
14.9047927231
30
0.0000000000
10
15.2747560553
20
14.8750832362
30
0.0000000000
11
15.4515327506
21
15.1799779348
31
0.0000000000
11
15.3836017014
21
15.1293886718
31
0.0000000000
11
15.3260490872
21
15.0532281958
31
0.0000000000
11
15.2878064080
21
14.9632510920
31
0.0000000000
11
15.2747560553
21
14.8750832362
31
0.0000000000
0
SPLINE
5
34F
100
AcDbEntity
8
0
100
AcDbSpline
62
9
6
CONTINUOUS
70
0
71
3
72
11
73
7
74
5
42
0.0000001000
43
0.0000001000
44
0.0000000001
12
-0.3283037267
22
-0.1641518634
32
0.0000000000
13
0.0000000000
23
-0.3670547251
33
0.0000000000
40
0.0000000000
40
0.0000000000
40
0.0000000000
40
0.0000000000
40
0.2296755894
40
0.4882147766
40
0.7532068921
40
1.0000000000
40
1.0000000000
40
1.0000000000
40
1.0000000000
10
14.1080298664
20
15.8517293769
30
0.0000000000
10
14.0828954157
20
15.8391621516
30
0.0000000000
10
14.0348673417
20
15.8015881156
30
0.0000000000
10
13.9794080965
20
15.7269906512
30
0.0000000000
10
13.9416734473
20
15.6397555818
30
0.0000000000
10
13.9312531711
20
15.5770302038
30
0.0000000000
10
13.9312531711
20
15.5468346783
30
0.0000000000
11
14.1080298664
21
15.8517293769
31
0.0000000000
11
14.0403803539
21
15.8014240560
31
0.0000000000
11
13.9830298664
21
15.7258161349
31
0.0000000000
11
13.9447094958
21
15.6364162342
31
0.0000000000
11
13.9312531711
21
15.5468346783
31
0.0000000000
0
SPLINE
5
350
100
AcDbEntity
8
0
100
AcDbSpline
62
9
6
CONTINUOUS
70
0
71
3
72
11
73
7
74
5
42
0.0000001000
43
0.0000001000
44
0.0000000001
12
-0.3249553250
22
-0.1624776625
32
0.0000000000
13
-0.3249553250
23
0.1624776625
33
0.0000000000
40
0.0000000000
40
0.0000000000
40
0.0000000000
40
0.0000000000
40
0.2341093284
40
0.4991216953
40
0.7642320678
40
1.0000000000
40
1.0000000000
40
1.0000000000
40
1.0000000000
10
15.6283094459
20
14.5237692641
30
0.0000000000
10
15.6029510883
20
14.5110900853
30
0.0000000000
10
15.5444827582
20
14.4928943197
30
0.0000000000
10
15.4518429785
20
14.4841420673
30
0.0000000000
10
15.3589963808
20
14.4927981097
30
0.0000000000
10
15.3002940704
20
14.5110002566
30
0.0000000000
10
15.2747560553
20
14.5237692641
30
0.0000000000
11
15.6283094459
21
14.5237692641
31
0.0000000000
11
15.5476551311
21
14.4967664423
31
0.0000000000
11
15.4518538618
21
14.4871577149
31
0.0000000000
11
15.3560045267
21
14.4966431555
31
0.0000000000
11
15.2747560553
21
14.5237692641
31
0.0000000000
0
SPLINE
5
351
100
AcDbEntity
8
0
100
AcDbSpline
62
9
6
CONTINUOUS
70
0
71
3
72
11
73
7
74
5
42
0.0000001000
43
0.0000001000
44
0.0000000001
12
-0.3249549290
22
-0.1624774645
32
0.0000000000
13
-0.3249549290
23
0.1624774645
33
0.0000000000
40
0.0000000000
40
0.0000000000
40
0.0000000000
40
0.0000000000
40
0.2353701082
40
0.5000000000
40
0.7646298918
40
1.0000000000
40
1.0000000000
40
1.0000000000
40
1.0000000000
10
15.6283094459
20
14.8750832362
30
0.0000000000
10
15.6028145537
20
14.8623357901
30
0.0000000000
10
15.5442219557
20
14.8441516643
30
0.0000000000
10
15.4515327506
20
14.8354653457
30
0.0000000000
10
15.3588435456
20
14.8441516643
30
0.0000000000
10
15.3002509476
20
14.8623357901
30
0.0000000000
10
15.2747560553
20
14.8750832362
30
0.0000000000
11
15.6283094459
21
14.8750832362
31
0.0000000000
11
15.5472036087
21
14.8479866423
31
0.0000000000
11
15.4515327506
21
14.8384715839
31
0.0000000000
11
15.3558618925
21
14.8479866423
31
0.0000000000
11
15.2747560553
21
14.8750832362
31
0.0000000000
0
SPLINE
5
352
100
AcDbEntity
8
0
100
AcDbSpline
62
9
6
CONTINUOUS
70
0
71
3
72
11
73
7
74
5
42
0.0000001000
43
0.0000001000
44
0.0000000001
12
-0.3249549290
22
-0.1624774645
32
0.0000000000
13
-0.3249549290
23
0.1624774645
33
0.0000000000
40
0.0000000000
40
0.0000000000
40
0.0000000000
40
0.0000000000
40
0.2353701082
40
0.5000000000
40
0.7646298918
40
1.0000000000
40
1.0000000000
40
1.0000000000
40
1.0000000000
10
16.3354162271
20
14.1273226547
30
0.0000000000
10
16.3099213349
20
14.1145752086
30
0.0000000000
10
16.2513287369
20
14.0963910828
30
0.0000000000
10
16.1586395318
20
14.0877047642
30
0.0000000000
10
16.0659503268
20
14.0963910828
30
0.0000000000
10
16.0073577288
20
14.1145752086
30
0.0000000000
10
15.9818628365
20
14.1273226547
30
0.0000000000
11
16.3354162271
21
14.1273226547
31
0.0000000000
11
16.2543103899
21
14.1002260608
31
0.0000000000
11
16.1586395318
21
14.0907110024
31
0.0000000000
11
16.0629686737
21
14.1002260608
31
0.0000000000
11
15.9818628365
21
14.1273226547
31
0.0000000000
0
SPLINE
5
353
100
AcDbEntity
8
0
100
AcDbSpline
62
9
6
CONTINUOUS
70
0
71
3
72
11
73
7
74
5
42
0.0000001000
43
0.0000001000
44
0.0000000001
12
-0.3249549290
22
-0.1624774645
32
0.0000000000
13
-0.3249549290
23
0.1624774645
33
0.0000000000
40
0.0000000000
40
0.0000000000
40
0.0000000000
40
0.0000000000
40
0.2353701082
40
0.5000000000
40
0.7646298918
40
1.0000000000
40
1.0000000000
40
1.0000000000
40
1.0000000000
10
2.9710980627
20
20.8094817369
30
0.0000000000
10
2.9456031704
20
20.7967342908
30
0.0000000000
10
2.8870105724
20
20.7785501650
30
0.0000000000
10
2.7943213674
20
20.7698638464
30
0.0000000000
10
2.7016321624
20
20.7785501650
30
0.0000000000
10
2.6430395644
20
20.7967342908
30
0.0000000000
10
2.6175446721
20
20.8094817369
30
0.0000000000
11
2.9710980627
21
20.8094817369
31
0.0000000000
11
2.8899922255
21
20.7823851430
31
0.0000000000
11
2.7943213674
21
20.7728700846
31
0.0000000000
11
2.6986505093
21
20.7823851430
31
0.0000000000
11
2.6175446721
21
20.8094817369
31
0.0000000000
0
SPLINE
5
354
100
AcDbEntity
8
0
100
AcDbSpline
62
9
6
CONTINUOUS
70
0
71
3
72
11
73
7
74
5
42
0.0000001000
43
0.0000001000
44
0.0000000001
12
0.0000000000
22
0.3637757396
32
0.0000000000
13
-0.3562163182
23
0.0737748151
33
0.0000000000
40
0.0000000000
40
0.0000000000
40
0.0000000000
40
0.0000000000
40
0.2944003400
40
0.5512517510
40
0.7796839657
40
1.0000000000
40
1.0000000000
40
1.0000000000
40
1.0000000000
10
2.9710980627
20
20.8094817369
30
0.0000000000
10
2.9710980627
20
20.8451803041
30
0.0000000000
10
2.9644499873
20
20.9124060751
30
0.0000000000
10
2.9300828106
20
21.0020469032
30
0.0000000000
10
2.8722012543
20
21.0680565074
30
0.0000000000
10
2.8204814229
20
21.0906754644
30
0.0000000000
10
2.7943213674
20
21.0960933893
30
0.0000000000
11
2.9710980627
21
20.8094817369
31
0.0000000000
11
2.9589630006
21
20.9158877026
31
0.0000000000
11
2.9236705073
21
21.0024023506
31
0.0000000000
11
2.8676723739
21
21.0637986283
31
0.0000000000
11
2.7943213674
21
21.0960933893
31
0.0000000000
0
SPLINE
5
355
100
AcDbEntity
8
0
100
AcDbSpline
62
9
6
CONTINUOUS
70
0
71
3
72
10
73
6
74
4
42
0.0000001000
43
0.0000001000
44
0.0000000001
12
0.0000000000
22
-0.1564808595
32
0.0000000000
13
-0.1423869558
23
-0.0692182728
33
0.0000000000
40
0.0000000000
40
0.0000000000
40
0.0000000000
40
0.0000000000
40
0.4940245815
40
0.9020990723
40
1.0000000000
40
1.0000000000
40
1.0000000000
40
1.0000000000
10
17.7496297895
20
-26.0664886756
30
0.0000000000
10
17.7496297895
20
-26.0922571393
30
0.0000000000
10
17.7432758729
20
-26.1400139347
30
0.0000000000
10
17.7122180149
20
-26.1857452336
30
0.0000000000
10
17.6892292654
20
-26.1992964021
30
0.0000000000
10
17.6845826603
20
-26.2015552464
30
0.0000000000
11
17.7496297895
21
-26.0664886756
31
0.0000000000
11
17.7361734648
21
-26.1426139067
31
0.0000000000
11
17.6978530942
21
-26.1936934368
31
0.0000000000
11
17.6845826603
21
-26.2015552464
31
0.0000000000
0
SPLINE
5
356
100
AcDbEntity
8
0
100
AcDbSpline
62
7
6
CONTINUOUS
70
0
71
3
72
11
73
7
74
5
42
0.0000001000
43
0.0000001000
44
0.0000000001
12
0.0000669568
22
-0.2417248529
32
0.0000000000
13
0.2152385224
23
-0.1076192612
33
0.0000000000
40
0.0000000000
40
0.0000000000
40
0.0000000000
40
0.0000000000
40
0.2042181767
40
0.4327266543
40
0.6963913004
40
1.0000000000
40
1.0000000000
40
1.0000000000
40
1.0000000000
10
6.0753122996
20
20.2493117616
30
0.0000000000
10
6.0753168575
20
20.2328568920
30
0.0000000000
10
6.0825101818
20
20.1979790357
30
0.0000000000
10
6.1128991590
20
20.1499973568
30
0.0000000000
10
6.1606192908
20
20.1067900453
30
0.0000000000
10
6.1999760139
20
20.0834219970
30
0.0000000000
10
6.2217587766
20
20.0725306157
30
0.0000000000
11
6.0753122996
21
20.2493117616
31
0.0000000000
11
6.0847099885
21
20.2010644298
31
0.0000000000
11
6.1130973676
21
20.1539691247
31
0.0000000000
11
6.1593774778
21
20.1105644425
31
0.0000000000
11
6.2217587766
21
20.0725306157
31
0.0000000000
0
SPLINE
5
357
100
AcDbEntity
8
0
100
AcDbSpline
62
9
6
CONTINUOUS
70
0
71
3
72
11
73
7
74
5
42
0.0000001000
43
0.0000001000
44
0.0000000001
12
-0.3283063189
22
-0.1641531595
32
0.0000000000
13
0.0000000000
23
-0.3670576233
33
0.0000000000
40
0.0000000000
40
0.0000000000
40
0.0000000000
40
0.0000000000
40
0.2259015102
40
0.4856075256
40
0.7520750422
40
1.0000000000
40
1.0000000000
40
1.0000000000
40
1.0000000000
10
2.0872145862
20
21.8621370170
30
0.0000000000
10
2.0624929551
20
21.8497762015
30
0.0000000000
10
2.0146362801
20
21.8125695263
30
0.0000000000
10
1.9590255197
20
21.7382256311
30
0.0000000000
10
1.9209577732
20
21.6506225694
30
0.0000000000
10
1.9104378909
20
21.5875765670
30
0.0000000000
10
1.9104378909
20
21.5572423184
30
0.0000000000
11
2.0872145862
21
21.8621370170
31
0.0000000000
11
2.0205536176
21
21.8128231802
31
0.0000000000
11
1.9627001284
21
21.7370589104
31
0.0000000000
11
1.9240111164
21
21.6472271354
31
0.0000000000
11
1.9104378909
21
21.5572423184
31
0.0000000000
0
SPLINE
5
358
100
AcDbEntity
8
0
100
AcDbSpline
62
9
6
CONTINUOUS
70
0
71
3
72
11
73
7
74
5
42
0.0000001000
43
0.0000001000
44
0.0000000001
12
-0.3283063189
22
-0.1641531595
32
0.0000000000
13
0.0000000000
23
-0.3670576233
33
0.0000000000
40
0.0000000000
40
0.0000000000
40
0.0000000000
40
0.0000000000
40
0.2259015102
40
0.4856075256
40
0.7520750422
40
1.0000000000
40
1.0000000000
40
1.0000000000
40
1.0000000000
10
0.7437117020
20
22.5338884591
30
0.0000000000
10
0.7189900709
20
22.5215276436
30
0.0000000000
10
0.6711333958
20
22.4843209684
30
0.0000000000
10
0.6155226354
20
22.4099770732
30
0.0000000000
10
0.5774548889
20
22.3223740116
30
0.0000000000
10
0.5669350067
20
22.2593280091
30
0.0000000000
10
0.5669350067
20
22.2289937605
30
0.0000000000
11
0.7437117020
21
22.5338884591
31
0.0000000000
11
0.6770507333
21
22.4845746223
31
0.0000000000
11
0.6191972441
21
22.4088103525
31
0.0000000000
11
0.5805082322
21
22.3189785775
31
0.0000000000
11
0.5669350067
21
22.2289937605
31
0.0000000000
0
SPLINE
5
359
100
AcDbEntity
8
0
100
AcDbSpline
62
9
6
CONTINUOUS
70
0
71
3
72
11
73
7
74
5
42
0.0000001000
43
0.0000001000
44
0.0000000001
12
-0.3249549290
22
-0.1624774645
32
0.0000000000
13
-0.3249549290
23
0.1624774645
33
0.0000000000
40
0.0000000000
40
0.0000000000
40
0.0000000000
40
0.0000000000
40
0.2353701082
40
0.5000000000
40
0.7646298918
40
1.0000000000
40
1.0000000000
40
1.0000000000
40
1.0000000000
10
2.2639912815
20
21.2059283463
30
0.0000000000
10
2.2384963892
20
21.1931809002
30
0.0000000000
10
2.1799037913
20
21.1749967744
30
0.0000000000
10
2.0872145862
20
21.1663104558
30
0.0000000000
10
1.9945253812
20
21.1749967744
30
0.0000000000
10
1.9359327832
20
21.1931809002
30
0.0000000000
10
1.9104378909
20
21.2059283463
30
0.0000000000
11
2.2639912815
21
21.2059283463
31
0.0000000000
11
2.1828854443
21
21.1788317524
31
0.0000000000
11
2.0872145862
21
21.1693166940
31
0.0000000000
11
1.9915437281
21
21.1788317524
31
0.0000000000
11
1.9104378909
21
21.2059283463
31
0.0000000000
0
SPLINE
5
35A
100
AcDbEntity
8
0
100
AcDbSpline
62
9
6
CONTINUOUS
70
0
71
3
72
11
73
7
74
5
42
0.0000001000
43
0.0000001000
44
0.0000000001
12
-0.3249561016
22
-0.1624780508
32
0.0000000000
13
-0.3249561016
23
0.1624780508
33
0.0000000000
40
0.0000000000
40
0.0000000000
40
0.0000000000
40
0.0000000000
40
0.2314751089
40
0.4973489063
40
0.7635187405
40
1.0000000000
40
1.0000000000
40
1.0000000000
40
1.0000000000
10
2.2639912815
20
21.5572423184
30
0.0000000000
10
2.2389181985
20
21.5447057769
30
0.0000000000
10
2.1807020550
20
21.5264837962
30
0.0000000000
10
2.0881509245
20
21.5175948927
30
0.0000000000
10
1.9949755123
20
21.5261931629
30
0.0000000000
10
1.9360532336
20
21.5444346471
30
0.0000000000
10
1.9104378909
20
21.5572423184
30
0.0000000000
11
2.2639912815
21
21.5572423184
31
0.0000000000
11
2.1842799602
21
21.5304370105
31
0.0000000000
11
2.0881837918
21
21.5206316054
31
0.0000000000
11
1.9919421657
21
21.5300634065
31
0.0000000000
11
1.9104378909
21
21.5572423184
31
0.0000000000
0
SPLINE
5
35B
100
AcDbEntity
8
0
100
AcDbSpline
62
9
6
CONTINUOUS
70
0
71
3
72
11
73
7
74
5
42
0.0000001000
43
0.0000001000
44
0.0000000001
12
-0.1061592977
22
-0.2782775268
32
0.0000000000
13
-0.2954793229
23
0.0611227618
33
0.0000000000
40
0.0000000000
40
0.0000000000
40
0.0000000000
40
0.0000000000
40
0.3176223393
40
0.6108082489
40
0.8776890968
40
1.0000000000
40
1.0000000000
40
1.0000000000
40
1.0000000000
10
2.7943213674
20
21.0960933893
30
0.0000000000
10
2.7830818459
20
21.0666310029
30
0.0000000000
10
2.7527112755
20
21.0127404113
30
0.0000000000
10
2.6853917806
20
20.9542829580
30
0.0000000000
10
2.6182496289
20
20.9338133605
30
0.0000000000
10
2.5789116798
20
20.9372862725
30
0.0000000000
10
2.5668648988
20
20.9397782659
30
0.0000000000
11
2.7943213674
21
21.0960933893
31
0.0000000000
11
2.7470402864
21
21.0141560299
31
0.0000000000
11
2.6800446721
21
20.9581492155
31
0.0000000000
11
2.6035339993
21
20.9365994757
31
0.0000000000
11
2.5668648988
21
20.9397782659
31
0.0000000000
0
SPLINE
5
35C
100
AcDbEntity
8
0
100
AcDbSpline
62
9
6
CONTINUOUS
70
0
71
3
72
10
73
6
74
4
42
0.0000001000
43
0.0000001000
44
0.0000000001
12
0.0000000000
22
-0.1564808595
32
0.0000000000
13
-0.1423869558
23
-0.0692182728
33
0.0000000000
40
0.0000000000
40
0.0000000000
40
0.0000000000
40
0.0000000000
40
0.4940245815
40
0.9020990723
40
1.0000000000
40
1.0000000000
40
1.0000000000
40
1.0000000000
10
15.6283094459
20
-27.1271488473
30
0.0000000000
10
15.6283094459
20
-27.1529173110
30
0.0000000000
10
15.6219555293
20
-27.2006741065
30
0.0000000000
10
15.5908976714
20
-27.2464054053
30
0.0000000000
10
15.5679089218
20
-27.2599565738
30
0.0000000000
10
15.5632623168
20
-27.2622154182
30
0.0000000000
11
15.6283094459
21
-27.1271488473
31
0.0000000000
11
15.6148531212
21
-27.2032740785
31
0.0000000000
11
15.5765327506
21
-27.2543536086
31
0.0000000000
11
15.5632623168
21
-27.2622154182
31
0.0000000000
0
SPLINE
5
35D
100
AcDbEntity
8
0
100
AcDbSpline
62
9
6
CONTINUOUS
70
0
71
3
72
11
73
7
74
5
42
0.0000001000
43
0.0000001000
44
0.0000000001
12
-0.1057221029
22
-0.2771314992
32
0.0000000000
13
-0.2947811286
23
0.0585649842
33
0.0000000000
40
0.0000000000
40
0.0000000000
40
0.0000000000
40
0.0000000000
40
0.3174140699
40
0.6124256554
40
0.8809117771
40
1.0000000000
40
1.0000000000
40
1.0000000000
40
1.0000000000
10
2.2639912815
20
21.2059283463
30
0.0000000000
10
2.2528053872
20
21.1766065340
30
0.0000000000
10
2.2225248526
20
21.1227886874
30
0.0000000000
10
2.1553272199
20
21.0642457993
30
0.0000000000
10
2.0884598973
20
21.0437714941
30
0.0000000000
10
2.0494526540
20
21.0470425874
30
0.0000000000
10
2.0377510005
20
21.0493673874
30
0.0000000000
11
2.2639912815
21
21.2059283463
31
0.0000000000
11
2.2170019563
21
21.1243437919
31
0.0000000000
11
2.1499553680
21
21.0681145152
31
0.0000000000
11
2.0733256464
21
21.0464388055
31
0.0000000000
11
2.0377510005
21
21.0493673874
31
0.0000000000
0
SPLINE
5
35E
100
AcDbEntity
8
0
100
AcDbSpline
62
9
6
CONTINUOUS
70
0
71
3
72
10
73
6
74
4
42
0.0000001000
43
0.0000001000
44
0.0000000001
12
-0.0000000000
22
-0.1565856039
32
0.0000000000
13
0.1420669092
23
-0.0716176355
33
0.0000000000
40
0.0000000000
40
0.0000000000
40
0.0000000000
40
0.0000000000
40
0.4399929087
40
0.8157800551
40
1.0000000000
40
1.0000000000
40
1.0000000000
40
1.0000000000
10
1.9104378909
20
21.2059283463
30
0.0000000000
10
1.9104378909
20
21.1829628279
30
0.0000000000
10
1.9157755666
20
21.1399417760
30
0.0000000000
10
1.9420753165
20
21.0925679468
30
0.0000000000
10
1.9667521533
20
21.0752362033
30
0.0000000000
10
1.9754760061
20
21.0708384043
30
0.0000000000
11
1.9104378909
21
21.2059283463
31
0.0000000000
11
1.9208841576
21
21.1378283401
31
0.0000000000
11
1.9515933731
21
21.0876344566
31
0.0000000000
11
1.9754760061
21
21.0708384043
31
0.0000000000
0
SPLINE
5
35F
100
AcDbEntity
8
0
100
AcDbSpline
62
9
6
CONTINUOUS
70
0
71
3
72
10
73
6
74
4
42
0.0000001000
43
0.0000001000
44
0.0000000001
12
-0.0000000000
22
-0.1566946312
32
0.0000000000
13
0.1422190834
23
-0.0714370359
33
0.0000000000
40
0.0000000000
40
0.0000000000
40
0.0000000000
40
0.0000000000
40
0.4458524345
40
0.8204611858
40
1.0000000000
40
1.0000000000
40
1.0000000000
40
1.0000000000
10
0.5669350067
20
21.8776797885
30
0.0000000000
10
0.5669350067
20
21.8543922275
30
0.0000000000
10
0.5723704802
20
21.8110605009
30
0.0000000000
10
0.5990609506
20
21.7638361422
30
0.0000000000
10
0.6235491209
20
21.7468121998
30
0.0000000000
10
0.6320604028
20
21.7425369596
30
0.0000000000
11
0.5669350067
21
21.8776797885
31
0.0000000000
11
0.5777040236
21
21.8086520931
31
0.0000000000
11
0.6086991985
21
21.7588033932
31
0.0000000000
11
0.6320604028
21
21.7425369596
31
0.0000000000
0
SPLINE
5
360
100
AcDbEntity
8
0
100
AcDbSpline
62
9
6
CONTINUOUS
70
0
71
3
72
11
73
7
74
5
42
0.0000001000
43
0.0000001000
44
0.0000000001
12
0.3283038806
22
-0.1641519403
32
0.0000000000
13
0.0000000000
23
-0.3670548971
33
0.0000000000
40
0.0000000000
40
0.0000000000
40
0.0000000000
40
0.0000000000
40
0.2307526336
40
0.4908242915
40
0.7571794809
40
1.0000000000
40
1.0000000000
40
1.0000000000
40
1.0000000000
10
4.2085349298
20
22.9227971888
30
0.0000000000
10
4.2337872581
20
22.9101710246
30
0.0000000000
10
4.2820466413
20
22.8723480120
30
0.0000000000
10
4.3376644283
20
22.7972526169
30
0.0000000000
10
4.3751039494
20
22.7100137803
30
0.0000000000
10
4.3853116251
20
22.6476119771
30
0.0000000000
10
4.3853116251
20
22.6179024902
30
0.0000000000
11
4.2085349298
21
22.9227971888
31
0.0000000000
11
4.2764659790
21
22.8722079258
31
0.0000000000
11
4.3340185932
21
22.7960474498
31
0.0000000000
11
4.3722612724
21
22.7060703460
31
0.0000000000
11
4.3853116251
21
22.6179024902
31
0.0000000000
0
SPLINE
5
361
100
AcDbEntity
8
0
100
AcDbSpline
62
9
6
CONTINUOUS
70
0
71
3
72
11
73
7
74
5
42
0.0000001000
43
0.0000001000
44
0.0000000001
12
0.3283037267
22
-0.1641518634
32
0.0000000000
13
0.0000000000
23
-0.3670547251
33
0.0000000000
40
0.0000000000
40
0.0000000000
40
0.0000000000
40
0.0000000000
40
0.2296755894
40
0.4882147766
40
0.7532068921
40
1.0000000000
40
1.0000000000
40
1.0000000000
40
1.0000000000
10
2.0872145862
20
21.8621370170
30
0.0000000000
10
2.1123490369
20
21.8495697917
30
0.0000000000
10
2.1603771109
20
21.8119957557
30
0.0000000000
10
2.2158363561
20
21.7373982913
30
0.0000000000
10
2.2535710053
20
21.6501632218
30
0.0000000000
10
2.2639912815
20
21.5874378439
30
0.0000000000
10
2.2639912815
20
21.5572423184
30
0.0000000000
11
2.0872145862
21
21.8621370170
31
0.0000000000
11
2.1548640987
21
21.8118316961
31
0.0000000000
11
2.2122145862
21
21.7362237750
31
0.0000000000
11
2.2505349568
21
21.6468238743
31
0.0000000000
11
2.2639912815
21
21.5572423184
31
0.0000000000
0
SPLINE
5
362
100
AcDbEntity
8
0
100
AcDbSpline
62
9
6
CONTINUOUS
70
0
71
3
72
9
73
5
74
3
42
0.0000001000
43
0.0000001000
44
0.0000000001
12
0.0000000000
22
-0.1183504396
32
0.0000000000
13
0.1065872076
23
-0.0532936038
33
0.0000000000
40
0.0000000000
40
0.0000000000
40
0.0000000000
40
0.0000000000
40
0.4320096608
40
1.0000000000
40
1.0000000000
40
1.0000000000
40
1.0000000000
10
14.5651366476
20
-24.9121416949
30
0.0000000000
10
14.5651366476
20
-24.9291845393
30
0.0000000000
10
14.5837417738
20
-24.9686346858
30
0.0000000000
10
14.6181797842
20
-24.9904399585
30
0.0000000000
10
14.6383599523
20
-25.0005300425
30
0.0000000000
11
14.5651366476
21
-24.9121416949
31
0.0000000000
11
14.5841667644
21
-24.9599771239
31
0.0000000000
11
14.6383599523
21
-25.0005300425
31
0.0000000000
0
SPLINE
5
363
100
AcDbEntity
8
0
100
AcDbSpline
62
7
6
CONTINUOUS
70
0
71
3
72
12
73
8
74
6
42
0.0000001000
43
0.0000001000
44
0.0000000001
12
0.2822554548
22
0.1422237785
32
0.0000000000
13
0.0000000000
23
0.3146429650
33
0.0000000000
40
0.0000000000
40
0.0000000000
40
0.0000000000
40
0.0000000000
40
0.0960612823
40
0.2930188939
40
0.5061381941
40
0.7412964765
40
1.0000000000
40
1.0000000000
40
1.0000000000
40
1.0000000000
10
15.9921014014
20
-25.4621719011
30
0.0000000000
10
16.0011393417
20
-25.4576178350
30
0.0000000000
10
16.0276018215
20
-25.4415303641
30
0.0000000000
10
16.0655086960
20
-25.4031912990
30
0.0000000000
10
16.0981136805
20
-25.3430411823
30
0.0000000000
10
16.1176677534
20
-25.2709778294
30
0.0000000000
10
16.1216117475
20
-25.2190318746
30
0.0000000000
10
16.1216117475
20
-25.1918987933
30
0.0000000000
11
15.9921014014
21
-25.4621719011
31
0.0000000000
11
16.0180044278
21
-25.4464133506
31
0.0000000000
11
16.0619936542
21
-25.4027625394
31
0.0000000000
11
16.0946824586
21
-25.3442132890
31
0.0000000000
11
16.1148137256
21
-25.2730136735
31
0.0000000000
11
16.1216117475
21
-25.1918987933
31
0.0000000000
0
SPLINE
5
364
100
AcDbEntity
8
0
100
AcDbSpline
62
9
6
CONTINUOUS
70
0
71
3
72
10
73
6
74
4
42
0.0000001000
43
0.0000001000
44
0.0000000001
12
0.0577373133
22
0.0912972583
32
0.0000000000
13
0.0985199949
23
-0.0492599974
33
0.0000000000
40
0.0000000000
40
0.0000000000
40
0.0000000000
40
0.0000000000
40
0.0616876350
40
0.4090815214
40
1.0000000000
40
1.0000000000
40
1.0000000000
40
1.0000000000
10
14.4466933975
20
-25.2165811685
30
0.0000000000
10
14.4478806236
20
-25.2147038645
30
0.0000000000
10
14.4570763094
20
-25.2037179390
30
0.0000000000
10
14.5016997167
20
-25.2098562567
30
0.0000000000
10
14.5305658428
20
-25.2225213354
30
0.0000000000
10
14.5499716046
20
-25.2322242164
30
0.0000000000
11
14.4466933975
21
-25.2165811685
31
0.0000000000
11
14.4508599523
21
-25.2116975211
31
0.0000000000
11
14.4890502544
21
-25.2093079666
31
0.0000000000
11
14.5499716046
21
-25.2322242164
31
0.0000000000
0
SPLINE
5
365
100
AcDbEntity
8
0
100
AcDbSpline
62
9
6
CONTINUOUS
70
0
71
3
72
10
73
6
74
4
42
0.0000001000
43
0.0000001000
44
0.0000000001
12
0.0575678310
22
0.0911909990
32
0.0000000000
13
0.0985241476
23
-0.0492620738
33
0.0000000000
40
0.0000000000
40
0.0000000000
40
0.0000000000
40
0.0000000000
40
0.0609551840
40
0.4083744189
40
1.0000000000
40
1.0000000000
40
1.0000000000
40
1.0000000000
10
13.9163466137
20
-25.8567392372
30
0.0000000000
10
13.9175162996
20
-25.8548863825
30
0.0000000000
10
13.9266637242
20
-25.8439220230
30
0.0000000000
10
13.9713420744
20
-25.8499737916
30
0.0000000000
10
14.0002117167
20
-25.8626743583
30
0.0000000000
10
14.0196415187
20
-25.8723892593
30
0.0000000000
11
13.9163466137
21
-25.8567392372
31
0.0000000000
11
13.9204497433
21
-25.8519125774
31
0.0000000000
11
13.9586402379
21
-25.8494564811
31
0.0000000000
11
14.0196415187
21
-25.8723892593
31
0.0000000000
0
SPLINE
5
366
100
AcDbEntity
8
0
100
AcDbSpline
62
9
6
CONTINUOUS
70
0
71
3
72
9
73
5
74
3
42
0.0000001000
43
0.0000001000
44
0.0000000001
12
0.0000000000
22
-0.1183504396
32
0.0000000000
13
0.1065872076
23
-0.0532936038
33
0.0000000000
40
0.0000000000
40
0.0000000000
40
0.0000000000
40
0.0000000000
40
0.4320096608
40
1.0000000000
40
1.0000000000
40
1.0000000000
40
1.0000000000
10
13.8580298664
20
-26.0156950855
30
0.0000000000
10
13.8580298664
20
-26.0327379299
30
0.0000000000
10
13.8766349926
20
-26.0721880764
30
0.0000000000
10
13.9110730030
20
-26.0939933491
30
0.0000000000
10
13.9312531711
20
-26.1040834331
30
0.0000000000
11
13.8580298664
21
-26.0156950855
31
0.0000000000
11
13.8770599833
21
-26.0635305145
31
0.0000000000
11
13.9312531711
21
-26.1040834331
31
0.0000000000
0
SPLINE
5
367
100
AcDbEntity
8
0
100
AcDbSpline
62
9
6
CONTINUOUS
70
0
71
3
72
9
73
5
74
3
42
0.0000001000
43
0.0000001000
44
0.0000000001
12
0.0005509234
22
-0.1181569234
32
0.0000000000
13
0.1064313428
23
-0.0532156714
33
0.0000000000
40
0.0000000000
40
0.0000000000
40
0.0000000000
40
0.0000000000
40
0.4290668158
40
1.0000000000
40
1.0000000000
40
1.0000000000
40
1.0000000000
10
13.8580310707
20
-26.3671497452
30
0.0000000000
10
13.8581098650
20
-26.3840488169
30
0.0000000000
10
13.8765792710
20
-26.4234942102
30
0.0000000000
10
13.9109981093
20
-26.4452698743
30
0.0000000000
10
13.9312531711
20
-26.4553974052
30
0.0000000000
11
13.8580310707
21
-26.3671497452
31
0.0000000000
11
13.8768953473
21
-26.4146452678
31
0.0000000000
11
13.9312531711
21
-26.4553974052
31
0.0000000000
0
SPLINE
5
368
100
AcDbEntity
8
0
100
AcDbSpline
62
9
6
CONTINUOUS
70
0
71
3
72
10
73
6
74
4
42
0.0000001000
43
0.0000001000
44
0.0000000001
12
-0.1423874165
22
0.0691161156
32
0.0000000000
13
-0.0000000000
23
0.1564950024
33
0.0000000000
40
0.0000000000
40
0.0000000000
40
0.0000000000
40
0.0000000000
40
0.0943102269
40
0.5040879606
40
1.0000000000
40
1.0000000000
40
1.0000000000
40
1.0000000000
10
13.9963226848
20
-26.5904825561
30
0.0000000000
10
13.9918464882
20
-26.5883097706
30
0.0000000000
10
13.9689104386
20
-26.5748879807
30
0.0000000000
10
13.9376452378
20
-26.5292294065
30
0.0000000000
10
13.9312531711
20
-26.4812666571
30
0.0000000000
10
13.9312531711
20
-26.4553974052
30
0.0000000000
11
13.9963226848
21
-26.5904825561
31
0.0000000000
11
13.9835154085
21
-26.5829517597
31
0.0000000000
11
13.9448263966
21
-26.5318089967
31
0.0000000000
11
13.9312531711
21
-26.4553974052
31
0.0000000000
0
SPLINE
5
369
100
AcDbEntity
8
0
100
AcDbSpline
62
9
6
CONTINUOUS
70
0
71
3
72
10
73
6
74
4
42
0.0000001000
43
0.0000001000
44
0.0000000001
12
-0.1420346928
22
0.0693255849
32
0.0000000000
13
-0.0000000000
23
0.1562885568
33
0.0000000000
40
0.0000000000
40
0.0000000000
40
0.0000000000
40
0.0000000000
40
0.0931138777
40
0.5034328975
40
1.0000000000
40
1.0000000000
40
1.0000000000
40
1.0000000000
10
15.3396378427
20
-27.2621426228
30
0.0000000000
10
15.3352293757
20
-27.2599908982
30
0.0000000000
10
15.3123720783
20
-27.2465791908
30
0.0000000000
10
15.2811481220
20
-27.2009808486
30
0.0000000000
10
15.2747560553
20
-27.1530180993
30
0.0000000000
10
15.2747560553
20
-27.1271488473
30
0.0000000000
11
15.3396378427
21
-27.2621426228
31
0.0000000000
11
15.3270182928
21
-27.2547032018
31
0.0000000000
11
15.2883292809
21
-27.2035604388
31
0.0000000000
11
15.2747560553
21
-27.1271488473
31
0.0000000000
0
SPLINE
5
36A
100
AcDbEntity
8
0
100
AcDbSpline
62
9
6
CONTINUOUS
70
0
71
3
72
8
73
4
74
2
42
0.0000001000
43
0.0000001000
44
0.0000000001
12
-0.0315625383
22
-0.0380993540
32
0.0000000000
13
-0.0289979005
23
-0.0401531648
33
0.0000000000
40
0.0000000000
40
0.0000000000
40
0.0000000000
40
0.0000000000
40
1.0000000000
40
1.0000000000
40
1.0000000000
40
1.0000000000
10
3.8549815392
20
21.6264234752
30
0.0000000000
10
3.8444606931
20
21.6137236905
30
0.0000000000
10
3.8343651125
20
21.6006590237
30
0.0000000000
10
3.8246991457
20
21.5872746354
30
0.0000000000
11
3.8549815392
21
21.6264234752
31
0.0000000000
11
3.8246991457
21
21.5872746354
31
0.0000000000
0
SPLINE
5
36B
100
AcDbEntity
8
0
100
AcDbSpline
62
9
6
CONTINUOUS
70
0
71
3
72
9
73
5
74
3
42
0.0000001000
43
0.0000001000
44
0.0000000001
12
-0.0975244535
22
-0.1350413437
32
0.0000000000
13
-0.0675662299
23
-0.1522213257
33
0.0000000000
40
0.0000000000
40
0.0000000000
40
0.0000000000
40
0.0000000000
40
0.4769583011
40
1.0000000000
40
1.0000000000
40
1.0000000000
40
1.0000000000
10
3.8246991457
20
21.5872746354
30
0.0000000000
10
3.8091941131
20
21.5658049388
30
0.0000000000
10
3.7790036369
20
21.5190663282
30
0.0000000000
10
3.7537513348
20
21.4695307804
30
0.0000000000
10
3.7419713496
20
21.4429914134
30
0.0000000000
11
3.8246991457
21
21.5872746354
31
0.0000000000
11
3.7815182980
21
21.5205839291
31
0.0000000000
11
3.7419713496
21
21.4429914134
31
0.0000000000
0
SPLINE
5
36C
100
AcDbEntity
8
0
100
AcDbSpline
62
9
6
CONTINUOUS
70
0
71
3
72
9
73
5
74
3
42
0.0000001000
43
0.0000001000
44
0.0000000001
12
-0.0348810751
22
-0.0785842794
32
0.0000000000
13
-0.0262176585
23
-0.0818898164
33
0.0000000000
40
0.0000000000
40
0.0000000000
40
0.0000000000
40
0.0000000000
40
0.5023428387
40
1.0000000000
40
1.0000000000
40
1.0000000000
40
1.0000000000
10
3.7419713496
20
21.4429914134
30
0.0000000000
10
3.7361305968
20
21.4298326635
30
0.0000000000
10
3.7252024198
20
21.4033294904
30
0.0000000000
10
3.7157026485
20
21.3762775547
30
0.0000000000
10
3.7113535133
20
21.3626932035
30
0.0000000000
11
3.7419713496
21
21.4429914134
31
0.0000000000
11
3.7255116697
21
21.4030668257
31
0.0000000000
11
3.7113535133
21
21.3626932035
31
0.0000000000
0
SPLINE
5
36D
100
AcDbEntity
8
0
100
AcDbSpline
62
9
6
CONTINUOUS
70
0
71
3
72
9
73
5
74
3
42
0.0000001000
43
0.0000001000
44
0.0000000001
12
-0.0619250986
22
-0.1934205897
32
0.0000000000
13
0.0000000000
23
-0.2028915163
33
0.0000000000
40
0.0000000000
40
0.0000000000
40
0.0000000000
40
0.0000000000
40
0.4137313025
40
1.0000000000
40
1.0000000000
40
1.0000000000
40
1.0000000000
10
3.7113535133
20
21.3626932035
30
0.0000000000
10
3.7028133961
20
21.3360184860
30
0.0000000000
10
3.6856991604
20
21.2704101697
30
0.0000000000
10
3.6782048439
20
21.2026847759
30
0.0000000000
10
3.6782048439
20
21.1630351275
30
0.0000000000
11
3.7113535133
21
21.3626932035
31
0.0000000000
11
3.6902986821
21
21.2813676699
31
0.0000000000
11
3.6782048439
21
21.1630351275
31
0.0000000000
0
SPLINE
5
36E
100
AcDbEntity
8
0
100
AcDbSpline
62
9
6
CONTINUOUS
70
0
71
3
72
9
73
5
74
3
42
0.0000001000
43
0.0000001000
44
0.0000000001
12
0.1065872076
22
0.0532936038
32
0.0000000000
13
0.0000000000
23
0.1183504396
33
0.0000000000
40
0.0000000000
40
0.0000000000
40
0.0000000000
40
0.0000000000
40
0.5679903392
40
1.0000000000
40
1.0000000000
40
1.0000000000
40
1.0000000000
10
3.6782048439
20
21.1630351275
30
0.0000000000
10
3.6983850120
20
21.1731252116
30
0.0000000000
10
3.7328230224
20
21.1949304842
30
0.0000000000
10
3.7514281486
20
21.2343806307
30
0.0000000000
10
3.7514281486
20
21.2514234752
30
0.0000000000
11
3.6782048439
21
21.1630351275
31
0.0000000000
11
3.7323980317
21
21.2035880461
31
0.0000000000
11
3.7514281486
21
21.2514234752
31
0.0000000000
0
SPLINE
5
36F
100
AcDbEntity
8
0
100
AcDbSpline
62
9
6
CONTINUOUS
70
0
71
3
72
9
73
5
74
3
42
0.0000001000
43
0.0000001000
44
0.0000000001
12
0.0390754420
22
-0.0633538090
32
0.0000000000
13
-0.0390171369
23
-0.0616959367
33
0.0000000000
40
0.0000000000
40
0.0000000000
40
0.0000000000
40
0.0000000000
40
0.7019059025
40
1.0000000000
40
1.0000000000
40
1.0000000000
40
1.0000000000
10
4.3853116251
20
22.2665885181
30
0.0000000000
10
4.3944540529
20
22.2517657140
30
0.0000000000
10
4.4099495101
20
22.2306179458
30
0.0000000000
10
4.4040784106
20
22.2021583899
30
0.0000000000
10
4.4002014845
20
22.1960279917
30
0.0000000000
11
4.3853116251
21
22.2665885181
31
0.0000000000
11
4.4056800566
21
22.2184759150
31
0.0000000000
11
4.4002014845
21
22.1960279917
31
0.0000000000
0
SPLINE
5
370
100
AcDbEntity
8
0
100
AcDbSpline
62
9
6
CONTINUOUS
70
0
71
3
72
9
73
5
74
3
42
0.0000001000
43
0.0000001000
44
0.0000000001
12
0.0390754420
22
-0.0633538090
32
0.0000000000
13
-0.0390171369
23
-0.0616959367
33
0.0000000000
40
0.0000000000
40
0.0000000000
40
0.0000000000
40
0.0000000000
40
0.7019059025
40
1.0000000000
40
1.0000000000
40
1.0000000000
40
1.0000000000
10
3.8549815392
20
21.6264234752
30
0.0000000000
10
3.8641239670
20
21.6116006710
30
0.0000000000
10
3.8796194242
20
21.5904529028
30
0.0000000000
10
3.8737483247
20
21.5619933470
30
0.0000000000
10
3.8698713986
20
21.5558629488
30
0.0000000000
11
3.8549815392
21
21.6264234752
31
0.0000000000
11
3.8753499707
21
21.5783108721
31
0.0000000000
11
3.8698713986
21
21.5558629488
31
0.0000000000
0
SPLINE
5
371
100
AcDbEntity
8
0
100
AcDbSpline
62
9
6
CONTINUOUS
70
0
71
3
72
9
73
5
74
3
42
0.0000001000
43
0.0000001000
44
0.0000000001
12
0.0001997394
22
-0.1183253753
32
0.0000000000
13
-0.1065843247
23
-0.0532921624
33
0.0000000000
40
0.0000000000
40
0.0000000000
40
0.0000000000
40
0.0000000000
40
0.4394113958
40
1.0000000000
40
1.0000000000
40
1.0000000000
40
1.0000000000
10
17.8228524052
20
-25.9781218854
30
0.0000000000
10
17.8228816611
20
-25.9954530582
30
0.0000000000
10
17.8039168536
20
-26.0348049142
30
0.0000000000
10
17.7695464421
20
-26.0565303493
30
0.0000000000
10
17.7496297895
20
-26.0664886756
30
0.0000000000
11
17.8228524052
21
-25.9781218854
31
0.0000000000
11
17.8032404054
21
-26.0266330149
31
0.0000000000
11
17.7496297895
21
-26.0664886756
31
0.0000000000
0
SPLINE
5
372
100
AcDbEntity
8
0
100
AcDbSpline
62
9
6
CONTINUOUS
70
0
71
3
72
9
73
5
74
3
42
0.0000001000
43
0.0000001000
44
0.0000000001
12
0.0000000000
22
-0.1183504396
32
0.0000000000
13
-0.1065872076
23
-0.0532936038
33
0.0000000000
40
0.0000000000
40
0.0000000000
40
0.0000000000
40
0.0000000000
40
0.4320096608
40
1.0000000000
40
1.0000000000
40
1.0000000000
40
1.0000000000
10
17.8228530942
20
-25.6267863558
30
0.0000000000
10
17.8228530942
20
-25.6438292003
30
0.0000000000
10
17.8042479680
20
-25.6832793468
30
0.0000000000
10
17.7698099576
20
-25.7050846194
30
0.0000000000
10
17.7496297895
20
-25.7151747035
30
0.0000000000
11
17.8228530942
21
-25.6267863558
31
0.0000000000
11
17.8038229773
21
-25.6746217849
31
0.0000000000
11
17.7496297895
21
-25.7151747035
31
0.0000000000
0
SPLINE
5
373
100
AcDbEntity
8
0
100
AcDbSpline
62
9
6
CONTINUOUS
70
0
71
3
72
9
73
5
74
3
42
0.0000001000
43
0.0000001000
44
0.0000000001
12
-0.0561279091
22
-0.0268640520
32
0.0000000000
13
-0.0628226465
23
0.0079085056
33
0.0000000000
40
0.0000000000
40
0.0000000000
40
0.0000000000
40
0.0000000000
40
0.8812072469
40
1.0000000000
40
1.0000000000
40
1.0000000000
40
1.0000000000
10
3.8171580571
20
20.9054848626
30
0.0000000000
10
3.8006712837
20
20.8975939301
30
0.0000000000
10
3.7798349289
20
20.8914294583
30
0.0000000000
10
3.7588079798
20
20.8931412791
30
0.0000000000
10
3.7563203547
20
20.8934544369
30
0.0000000000
11
3.8171580571
21
20.9054848626
31
0.0000000000
11
3.7638009885
21
20.8928457233
31
0.0000000000
11
3.7563203547
21
20.8934544369
31
0.0000000000
0
SPLINE
5
374
100
AcDbEntity
8
0
100
AcDbSpline
62
9
6
CONTINUOUS
70
0
71
3
72
8
73
4
74
2
42
0.0000001000
43
0.0000001000
44
0.0000000001
12
-0.0270952894
22
0.0034109236
32
0.0000000000
13
-0.0244325406
23
0.0119028532
33
0.0000000000
40
0.0000000000
40
0.0000000000
40
0.0000000000
40
0.0000000000
40
1.0000000000
40
1.0000000000
40
1.0000000000
40
1.0000000000
10
3.7563203547
20
20.8934544369
30
0.0000000000
10
3.7472885916
20
20.8945914114
30
0.0000000000
10
3.7383916011
20
20.8971758259
30
0.0000000000
10
3.7302474209
20
20.9011434437
30
0.0000000000
11
3.7563203547
21
20.8934544369
31
0.0000000000
11
3.7302474209
21
20.9011434437
31
0.0000000000
0
SPLINE
5
375
100
AcDbEntity
8
0
100
AcDbSpline
62
9
6
CONTINUOUS
70
0
71
3
72
8
73
4
74
2
42
0.0000001000
43
0.0000001000
44
0.0000000001
12
-0.0220391038
22
0.0110117566
32
0.0000000000
13
-0.0237468160
23
0.0049181266
33
0.0000000000
40
0.0000000000
40
0.0000000000
40
0.0000000000
40
0.0000000000
40
1.0000000000
40
1.0000000000
40
1.0000000000
40
1.0000000000
10
17.6842741639
20
-25.4031487148
30
0.0000000000
10
17.6769277960
20
-25.3994781293
30
0.0000000000
10
17.6691570472
20
-25.3967315575
30
0.0000000000
10
17.6612414418
20
-25.3950921820
30
0.0000000000
11
17.6842741639
21
-25.4031487148
31
0.0000000000
11
17.6612414418
21
-25.3950921820
31
0.0000000000
0
SPLINE
5
376
100
AcDbEntity
8
0
100
AcDbSpline
62
9
6
CONTINUOUS
70
0
71
3
72
12
73
8
74
6
42
0.0000001000
43
0.0000001000
44
0.0000000001
12
0.3840982882
22
0.1836468381
32
0.0000000000
13
-0.3807916457
23
0.1904084522
33
0.0000000000
40
0.0000000000
40
0.0000000000
40
0.0000000000
40
0.0000000000
40
0.2354379521
40
0.4187084188
40
0.5791455464
40
0.7637466818
40
1.0000000000
40
1.0000000000
40
1.0000000000
40
1.0000000000
10
3.8171580571
20
20.5940892494
30
0.0000000000
10
3.8473018286
20
20.6085017279
30
0.0000000000
10
3.8985886207
20
20.6398890697
30
0.0000000000
10
3.9504385708
20
20.7087082684
30
0.0000000000
10
3.9499266583
20
20.7892074961
30
0.0000000000
10
3.8981198322
20
20.8581313755
30
0.0000000000
10
3.8471458204
20
20.8904899863
30
0.0000000000
10
3.8171580571
20
20.9054848626
30
0.0000000000
11
3.8171580571
21
20.5940892494
31
0.0000000000
11
3.9006151179
21
20.6496069713
31
0.0000000000
11
3.9436391515
21
20.7146994154
31
0.0000000000
11
3.9433736774
21
20.7830039879
31
0.0000000000
11
3.9001324197
21
20.8486318461
31
0.0000000000
11
3.8171580571
21
20.9054848626
31
0.0000000000
0
SPLINE
5
377
100
AcDbEntity
8
0
100
AcDbSpline
62
9
6
CONTINUOUS
70
0
71
3
72
11
73
7
74
5
42
0.0000001000
43
0.0000001000
44
0.0000000001
12
-0.2627907652
22
0.1313953820
32
0.0000000000
13
0.0041573225
23
0.2937795931
33
0.0000000000
40
0.0000000000
40
0.0000000000
40
0.0000000000
40
0.0000000000
40
0.2292205508
40
0.4872313220
40
0.7522438706
40
1.0000000000
40
1.0000000000
40
1.0000000000
40
1.0000000000
10
3.8171580571
20
20.5940892494
30
0.0000000000
10
3.7970790425
20
20.6041287566
30
0.0000000000
10
3.7587732019
20
20.6342763215
30
0.0000000000
10
3.7149070222
20
20.6942877935
30
0.0000000000
10
3.6854974778
20
20.7645240764
30
0.0000000000
10
3.6778615098
20
20.8149508015
30
0.0000000000
10
3.6782048439
20
20.8392126998
30
0.0000000000
11
3.8171580571
21
20.5940892494
31
0.0000000000
11
3.7632263920
21
20.6344253661
31
0.0000000000
11
3.7178810234
21
20.6951734548
31
0.0000000000
11
3.6880254086
21
20.7670852099
31
0.0000000000
11
3.6782048439
21
20.8392126998
31
0.0000000000
0
SPLINE
5
378
100
AcDbEntity
8
0
100
AcDbSpline
62
9
6
CONTINUOUS
70
0
71
3
72
10
73
6
74
4
42
0.0000001000
43
0.0000001000
44
0.0000000001
12
0.1001153703
22
0.0462032148
32
0.0000000000
13
0.0103735708
23
0.1116498312
33
0.0000000000
40
0.0000000000
40
0.0000000000
40
0.0000000000
40
0.0000000000
40
0.4997785051
40
0.8865712819
40
1.0000000000
40
1.0000000000
40
1.0000000000
40
1.0000000000
10
3.6782048439
20
20.8392126998
30
0.0000000000
10
3.6948833472
20
20.8469098243
30
0.0000000000
10
3.7232532473
20
20.8636653366
30
0.0000000000
10
3.7469271915
20
20.8941642027
30
0.0000000000
10
3.7505024649
20
20.9125443867
30
0.0000000000
10
3.7508946852
20
20.9167658192
30
0.0000000000
11
3.6782048439
21
20.8392126998
31
0.0000000000
11
3.7245231181
21
20.8690687089
31
0.0000000000
11
3.7484559528
21
20.9043693484
31
0.0000000000
11
3.7508946852
21
20.9167658192
31
0.0000000000
0
SPLINE
5
379
100
AcDbEntity
8
0
100
AcDbSpline
62
9
6
CONTINUOUS
70
0
71
3
72
8
73
4
74
2
42
0.0000001000
43
0.0000001000
44
0.0000000001
12
0.0005583841
22
0.0060098386
32
0.0000000000
13
-0.0000049751
23
0.0060479429
33
0.0000000000
40
0.0000000000
40
0.0000000000
40
0.0000000000
40
0.0000000000
40
1.0000000000
40
1.0000000000
40
1.0000000000
40
1.0000000000
10
3.7508946852
20
20.9167658192
30
0.0000000000
10
3.7510808132
20
20.9187690987
30
0.0000000000
10
3.7511726966
20
20.9207844482
30
0.0000000000
10
3.7511710382
20
20.9228004292
30
0.0000000000
11
3.7508946852
21
20.9167658192
31
0.0000000000
11
3.7511710382
21
20.9228004292
31
0.0000000000
0
SPLINE
5
37A
100
AcDbEntity
8
0
100
AcDbSpline
62
9
6
CONTINUOUS
70
0
71
3
72
11
73
7
74
5
42
0.0000001000
43
0.0000001000
44
0.0000000001
12
-0.2627907646
22
0.1313953824
32
0.0000000000
13
0.0041573218
23
0.2937795929
33
0.0000000000
40
0.0000000000
40
0.0000000000
40
0.0000000000
40
0.0000000000
40
0.2292208809
40
0.4872317594
40
0.7522441560
40
1.0000000000
40
1.0000000000
40
1.0000000000
40
1.0000000000
10
3.1100512759
20
20.2556523884
30
0.0000000000
10
3.0899722324
20
20.2656919102
30
0.0000000000
10
3.0516663638
20
20.2958395141
30
0.0000000000
10
3.0078001902
20
20.3558510247
30
0.0000000000
10
2.9783906815
20
20.4260872867
30
0.0000000000
10
2.9707547291
20
20.4765139685
30
0.0000000000
10
2.9710980627
20
20.5007758388
30
0.0000000000
11
3.1100512759
21
20.2556523884
31
0.0000000000
11
3.0561195421
21
20.2959885752
31
0.0000000000
11
3.0107741783
21
20.3567367067
31
0.0000000000
11
2.9809186050
21
20.4286484306
31
0.0000000000
11
2.9710980627
21
20.5007758388
31
0.0000000000
0
SPLINE
5
37B
100
AcDbEntity
8
0
100
AcDbSpline
62
9
6
CONTINUOUS
70
0
71
3
72
12
73
8
74
6
42
0.0000001000
43
0.0000001000
44
0.0000000001
12
0.5847731312
22
-0.2922949993
32
0.0000000000
13
0.5895776321
23
0.2824786670
33
0.0000000000
40
0.0000000000
40
0.0000000000
40
0.0000000000
40
0.0000000000
40
0.1862834693
40
0.3929044251
40
0.6064354564
40
0.8135431007
40
1.0000000000
40
1.0000000000
40
1.0000000000
40
1.0000000000
10
2.4736551729
20
20.2624548268
30
0.0000000000
10
2.5099663621
20
20.2443049179
30
0.0000000000
10
2.5915285764
20
20.2158937251
30
0.0000000000
10
2.7223989279
20
20.1944768422
30
0.0000000000
10
2.8596348233
20
20.1928751840
30
0.0000000000
10
2.9911056922
20
20.2113151980
30
0.0000000000
10
3.0734076702
20
20.2380956896
30
0.0000000000
10
3.1100512759
20
20.2556523884
30
0.0000000000
11
2.4736551729
21
20.2624548268
31
0.0000000000
11
2.5880322848
21
20.2206317333
31
0.0000000000
11
2.7212109061
21
20.1980499304
31
0.0000000000
11
2.8607985251
21
20.1964279960
31
0.0000000000
11
2.9947671394
21
20.2160482032
31
0.0000000000
11
3.1100512759
21
20.2556523884
31
0.0000000000
0
SPLINE
5
37C
100
AcDbEntity
8
0
100
AcDbSpline
62
9
6
CONTINUOUS
70
0
71
3
72
11
73
7
74
5
42
0.0000001000
43
0.0000001000
44
0.0000000001
12
0.2673132820
22
0.1279420278
32
0.0000000000
13
0.0000000090
23
0.2963537636
33
0.0000000000
40
0.0000000000
40
0.0000000000
40
0.0000000000
40
0.0000000000
40
0.2286216525
40
0.4870756638
40
0.7526229308
40
1.0000000000
40
1.0000000000
40
1.0000000000
40
1.0000000000
10
2.4736551729
20
20.2624548268
30
0.0000000000
10
2.4940263743
20
20.2722049327
30
0.0000000000
10
2.5330923921
20
20.3020612655
30
0.0000000000
10
2.5782297229
20
20.3619650327
30
0.0000000000
10
2.6090197196
20
20.4323851767
30
0.0000000000
10
2.6175446714
20
20.4831412353
30
0.0000000000
10
2.6175446721
20
20.5075782772
30
0.0000000000
11
2.4736551729
21
20.2624548268
31
0.0000000000
11
2.5285286085
21
20.3021959865
31
0.0000000000
11
2.5752473932
21
20.3628916887
31
0.0000000000
11
2.6065424275
21
20.4350974402
31
0.0000000000
11
2.6175446721
21
20.5075782772
31
0.0000000000
0
SPLINE
5
37D
100
AcDbEntity
8
0
100
AcDbSpline
62
9
6
CONTINUOUS
70
0
71
3
72
12
73
8
74
6
42
0.0000001000
43
0.0000001000
44
0.0000000001
12
0.3246083006
22
-0.1622865476
32
0.0000000000
13
0.3294706869
23
0.1521727268
33
0.0000000000
40
0.0000000000
40
0.0000000000
40
0.0000000000
40
0.0000000000
40
0.1867565899
40
0.3938800539
40
0.6076446816
40
0.8144839336
40
1.0000000000
40
1.0000000000
40
1.0000000000
40
1.0000000000
10
2.6175446721
20
20.5075782772
30
0.0000000000
10
2.6377522519
20
20.4974755831
30
0.0000000000
10
2.6830918353
20
20.4815652555
30
0.0000000000
10
2.7558100916
20
20.4692583982
30
0.0000000000
10
2.8320288911
20
20.4677266895
30
0.0000000000
10
2.9049924948
20
20.4771524963
30
0.0000000000
10
2.9507240274
20
20.4913656769
30
0.0000000000
10
2.9710980627
20
20.5007758388
30
0.0000000000
11
2.6175446721
21
20.5075782772
31
0.0000000000
11
2.6811513844
21
20.4841713868
31
0.0000000000
11
2.7551934873
21
20.4712085710
31
0.0000000000
11
2.8327565589
21
20.4696643879
31
0.0000000000
11
2.9071426180
21
20.4797384141
31
0.0000000000
11
2.9710980627
21
20.5007758388
31
0.0000000000
0
SPLINE
5
37E
100
AcDbEntity
8
0
100
AcDbSpline
62
9
6
CONTINUOUS
70
0
71
3
72
11
73
7
74
5
42
0.0000001000
43
0.0000001000
44
0.0000000001
12
0.2673132890
22
0.1279420203
32
0.0000000000
13
-0.0000000003
23
0.2963537667
33
0.0000000000
40
0.0000000000
40
0.0000000000
40
0.0000000000
40
0.0000000000
40
0.2286190319
40
0.4870720935
40
0.7526205358
40
1.0000000000
40
1.0000000000
40
1.0000000000
40
1.0000000000
10
1.1301522886
20
20.9342062689
30
0.0000000000
10
1.1505232571
20
20.9439562625
30
0.0000000000
10
1.1895890387
20
20.9738122785
30
0.0000000000
10
1.2347264093
20
21.0337157231
30
0.0000000000
10
1.2655166989
20
21.1041360270
30
0.0000000000
10
1.2740417879
20
21.1548924406
30
0.0000000000
10
1.2740417878
20
21.1793297193
30
0.0000000000
11
1.1301522886
21
20.9342062689
31
0.0000000000
11
1.1850251670
21
20.9739468752
31
0.0000000000
11
1.2317439704
21
21.0346422089
31
0.0000000000
11
1.2630393438
21
21.1068481939
31
0.0000000000
11
1.2740417878
21
21.1793297193
31
0.0000000000
0
SPLINE
5
37F
100
AcDbEntity
8
0
100
AcDbSpline
62
9
6
CONTINUOUS
70
0
71
3
72
8
73
4
74
2
42
0.0000001000
43
0.0000001000
44
0.0000000001
12
0.0155710270
22
-0.0007865017
32
0.0000000000
13
0.0156414974
23
0.0019620117
33
0.0000000000
40
0.0000000000
40
0.0000000000
40
0.0000000000
40
0.0000000000
40
1.0000000000
40
1.0000000000
40
1.0000000000
40
1.0000000000
10
1.1786978058
20
21.2319343791
30
0.0000000000
10
1.1838881481
20
21.2316722118
30
0.0000000000
10
1.1891523180
20
21.2318536908
30
0.0000000000
10
1.1943661504
20
21.2325076947
30
0.0000000000
11
1.1786978058
21
21.2319343791
31
0.0000000000
11
1.1943661504
21
21.2325076947
31
0.0000000000
0
SPLINE
5
380
100
AcDbEntity
8
0
100
AcDbSpline
62
9
6
CONTINUOUS
70
0
71
3
72
9
73
5
74
3
42
0.0000001000
43
0.0000001000
44
0.0000000001
12
0.0255399172
22
0.0032036330
32
0.0000000000
13
0.0231211394
23
0.0111249319
33
0.0000000000
40
0.0000000000
40
0.0000000000
40
0.0000000000
40
0.0000000000
40
0.9059528066
40
1.0000000000
40
1.0000000000
40
1.0000000000
40
1.0000000000
10
1.1943661504
20
21.2325076947
30
0.0000000000
10
1.2020788037
20
21.2334751414
30
0.0000000000
10
1.2104705249
20
21.2356843528
30
0.0000000000
10
1.2182383425
20
21.2392672761
30
0.0000000000
10
1.2189631686
20
21.2396160323
30
0.0000000000
11
1.1943661504
21
21.2325076947
31
0.0000000000
11
1.2167717413
21
21.2386054987
31
0.0000000000
11
1.2189631686
21
21.2396160323
31
0.0000000000
0
SPLINE
5
381
100
AcDbEntity
8
0
100
AcDbSpline
62
9
6
CONTINUOUS
70
0
71
3
72
9
73
5
74
3
42
0.0000001000
43
0.0000001000
44
0.0000000001
12
0.0785196590
22
-0.1181631123
32
0.0000000000
13
0.1268868382
23
-0.0634632828
33
0.0000000000
40
0.0000000000
40
0.0000000000
40
0.0000000000
40
0.0000000000
40
0.4517116874
40
1.0000000000
40
1.0000000000
40
1.0000000000
40
1.0000000000
10
1.0206676824
20
21.0226150352
30
0.0000000000
10
1.0324904316
20
21.0048231489
30
0.0000000000
10
1.0662364767
20
20.9704843000
30
0.0000000000
10
1.1069620985
20
20.9458049943
30
0.0000000000
10
1.1301522886
20
20.9342062689
30
0.0000000000
11
1.0206676824
21
21.0226150352
31
0.0000000000
11
1.0644015344
21
20.9757715967
31
0.0000000000
11
1.1301522886
21
20.9342062689
31
0.0000000000
0
SPLINE
5
382
100
AcDbEntity
8
0
100
AcDbSpline
62
9
6
CONTINUOUS
70
0
71
3
72
9
73
5
74
3
42
0.0000001000
43
0.0000001000
44
0.0000000001
12
0.0813792530
22
0.0438146219
32
0.0000000000
13
0.0383036431
23
0.0845808474
33
0.0000000000
40
0.0000000000
40
0.0000000000
40
0.0000000000
40
0.0000000000
40
0.6206529377
40
1.0000000000
40
1.0000000000
40
1.0000000000
40
1.0000000000
10
17.0425230083
20
-24.9949056663
30
0.0000000000
10
17.0593590991
20
-24.9858411084
30
0.0000000000
10
17.0851141275
20
-24.9681969143
30
0.0000000000
10
17.1041332566
20
-24.9427117339
30
0.0000000000
10
17.1089767148
20
-24.9320165686
30
0.0000000000
11
17.0425230083
21
-24.9949056663
31
0.0000000000
11
17.0887342309
21
-24.9609188397
31
0.0000000000
11
17.1089767148
21
-24.9320165686
31
0.0000000000
0
SPLINE
5
383
100
AcDbEntity
8
0
100
AcDbSpline
62
9
6
CONTINUOUS
70
0
71
3
72
8
73
4
74
2
42
0.0000001000
43
0.0000001000
44
0.0000000001
12
-0.0004349333
22
0.0302998856
32
0.0000000000
13
0.0045324860
23
0.0300820827
33
0.0000000000
40
0.0000000000
40
0.0000000000
40
0.0000000000
40
0.0000000000
40
1.0000000000
40
1.0000000000
40
1.0000000000
40
1.0000000000
10
17.0425230083
20
-24.9949056663
30
0.0000000000
10
17.0423780305
20
-24.9848057044
30
0.0000000000
10
17.0429396345
20
-24.9746455768
30
0.0000000000
10
17.0444504631
20
-24.9646182159
30
0.0000000000
11
17.0425230083
21
-24.9949056663
31
0.0000000000
11
17.0444504631
21
-24.9646182159
31
0.0000000000
0
SPLINE
5
384
100
AcDbEntity
8
0
100
AcDbSpline
62
9
6
CONTINUOUS
70
0
71
3
72
9
73
5
74
3
42
0.0000001000
43
0.0000001000
44
0.0000000001
12
-0.0009114009
22
0.0634932827
32
0.0000000000
13
0.0244520393
23
0.0591369195
33
0.0000000000
40
0.0000000000
40
0.0000000000
40
0.0000000000
40
0.0000000000
40
0.7680514183
40
1.0000000000
40
1.0000000000
40
1.0000000000
40
1.0000000000
10
16.3354162271
20
-25.3635755866
30
0.0000000000
10
16.3351828929
20
-25.3473202179
30
0.0000000000
10
16.3372671065
20
-25.3259564372
30
0.0000000000
10
16.3441537693
20
-25.3056902141
30
0.0000000000
10
16.3460443079
20
-25.3011179726
30
0.0000000000
11
16.3354162271
21
-25.3635755866
31
0.0000000000
11
16.3412174384
21
-25.3151507063
31
0.0000000000
11
16.3460443079
21
-25.3011179726
31
0.0000000000
0
SPLINE
5
385
100
AcDbEntity
8
0
100
AcDbSpline
62
9
6
CONTINUOUS
70
0
71
3
72
8
73
4
74
2
42
0.0000001000
43
0.0000001000
44
0.0000000001
12
0.0107290464
22
-0.0009142968
32
0.0000000000
13
0.0107478560
23
-0.0006668940
33
0.0000000000
40
0.0000000000
40
0.0000000000
40
0.0000000000
40
0.0000000000
40
1.0000000000
40
1.0000000000
40
1.0000000000
40
1.0000000000
10
16.1091628871
20
-25.4033846063
30
0.0000000000
10
16.1127392359
20
-25.4036893719
30
0.0000000000
10
16.1163192599
20
-25.4039522649
30
0.0000000000
10
16.1199018786
20
-25.4041745629
30
0.0000000000
11
16.1091628871
21
-25.4033846063
31
0.0000000000
11
16.1199018786
21
-25.4041745629
31
0.0000000000
0
SPLINE
5
386
100
AcDbEntity
8
0
100
AcDbSpline
62
9
6
CONTINUOUS
70
0
71
3
72
10
73
6
74
4
42
0.0000001000
43
0.0000001000
44
0.0000000001
12
0.1995985634
22
-0.0123848963
32
0.0000000000
13
0.1831368882
23
0.0804826860
33
0.0000000000
40
0.0000000000
40
0.0000000000
40
0.0000000000
40
0.0000000000
40
0.3883877775
40
0.7662151033
40
1.0000000000
40
1.0000000000
40
1.0000000000
40
1.0000000000
10
16.1199018786
20
-25.4041745629
30
0.0000000000
10
16.1457424261
20
-25.4057779436
30
0.0000000000
10
16.1969871974
20
-25.4047747254
30
0.0000000000
10
16.2627731904
20
-25.3928642282
30
0.0000000000
10
16.3014968873
20
-25.3794149214
30
0.0000000000
10
16.3157684335
20
-25.3731430426
30
0.0000000000
11
16.1199018786
21
-25.4041745629
31
0.0000000000
11
16.1974780286
21
-25.4026738399
31
0.0000000000
11
16.2716722194
21
-25.3887960202
31
0.0000000000
11
16.3157684335
21
-25.3731430426
31
0.0000000000
0
SPLINE
5
387
100
AcDbEntity
8
0
100
AcDbSpline
62
9
6
CONTINUOUS
70
0
71
3
72
8
73
4
74
2
42
0.0000001000
43
0.0000001000
44
0.0000000001
12
0.0200276045
22
0.0088014786
32
0.0000000000
13
0.0192363089
23
0.0103569999
33
0.0000000000
40
0.0000000000
40
0.0000000000
40
0.0000000000
40
0.0000000000
40
1.0000000000
40
1.0000000000
40
1.0000000000
40
1.0000000000
10
16.3157684335
20
-25.3731430426
30
0.0000000000
10
16.3224443017
20
-25.3702092164
30
0.0000000000
10
16.3290041241
20
-25.3670279198
30
0.0000000000
10
16.3354162271
20
-25.3635755866
30
0.0000000000
11
16.3157684335
21
-25.3731430426
31
0.0000000000
11
16.3354162271
21
-25.3635755866
31
0.0000000000
0
SPLINE
5
388
100
AcDbEntity
8
0
100
AcDbSpline
62
9
6
CONTINUOUS
70
0
71
3
72
11
73
7
74
5
42
0.0000001000
43
0.0000001000
44
0.0000000001
12
-0.1697017593
22
0.1621059263
32
0.0000000000
13
0.0033207311
23
0.2346614396
33
0.0000000000
40
0.0000000000
40
0.0000000000
40
0.0000000000
40
0.0000000000
40
0.2470902447
40
0.5057212682
40
0.7613057128
40
1.0000000000
40
1.0000000000
40
1.0000000000
40
1.0000000000
10
16.4261219678
20
13.6082222980
30
0.0000000000
10
16.4121447514
20
13.6215738957
30
0.0000000000
10
16.3866762621
20
13.6522902268
30
0.0000000000
10
16.3579518037
20
13.7048339346
30
0.0000000000
10
16.3395973700
20
13.7611479962
30
0.0000000000
10
16.3351520139
20
13.7999459749
30
0.0000000000
10
16.3354162271
20
13.8186167566
30
0.0000000000
11
16.4261219678
21
13.6082222980
31
0.0000000000
11
16.3887822555
21
13.6525889018
31
0.0000000000
11
16.3595737725
21
13.7057957307
31
0.0000000000
11
16.3412188065
21
13.7629001420
31
0.0000000000
11
16.3354162271
21
13.8186167566
31
0.0000000000
0
SPLINE
5
389
100
AcDbEntity
8
0
100
AcDbSpline
62
9
6
CONTINUOUS
70
0
71
3
72
9
73
5
74
3
42
0.0000001000
43
0.0000001000
44
0.0000000001
12
0.1674561314
22
-0.0837018447
32
0.0000000000
13
0.1845301806
23
-0.0315621164
33
0.0000000000
40
0.0000000000
40
0.0000000000
40
0.0000000000
40
0.0000000000
40
0.4797674019
40
1.0000000000
40
1.0000000000
40
1.0000000000
40
1.0000000000
10
15.8379733373
20
13.5802957446
30
0.0000000000
10
15.8647533350
20
13.5669099390
30
0.0000000000
10
15.9232919942
20
13.5443723091
30
0.0000000000
10
15.9842620268
20
13.5302911372
30
0.0000000000
10
16.0162615652
20
13.5248179232
30
0.0000000000
11
15.8379733373
21
13.5802957446
31
0.0000000000
11
15.9214828615
21
13.5472307788
31
0.0000000000
11
16.0162615652
21
13.5248179232
31
0.0000000000
0
SPLINE
5
38A
100
AcDbEntity
8
0
100
AcDbSpline
62
9
6
CONTINUOUS
70
0
71
3
72
11
73
7
74
5
42
0.0000001000
43
0.0000001000
44
0.0000000001
12
0.2673132820
22
0.1279420278
32
0.0000000000
13
0.0000000090
23
0.2963537636
33
0.0000000000
40
0.0000000000
40
0.0000000000
40
0.0000000000
40
0.0000000000
40
0.2286216525
40
0.4870756638
40
0.7526229308
40
1.0000000000
40
1.0000000000
40
1.0000000000
40
1.0000000000
10
15.8379733373
20
13.5802957446
30
0.0000000000
10
15.8583445387
20
13.5900458505
30
0.0000000000
10
15.8974105565
20
13.6199021833
30
0.0000000000
10
15.9425478873
20
13.6798059504
30
0.0000000000
10
15.9733378840
20
13.7502260944
30
0.0000000000
10
15.9818628358
20
13.8009821531
30
0.0000000000
10
15.9818628365
20
13.8254191950
30
0.0000000000
11
15.8379733373
21
13.5802957446
31
0.0000000000
11
15.8928467730
21
13.6200369043
31
0.0000000000
11
15.9395655576
21
13.6807326065
31
0.0000000000
11
15.9708605919
21
13.7529383579
31
0.0000000000
11
15.9818628365
21
13.8254191950
31
0.0000000000
0
SPLINE
5
38B
100
AcDbEntity
8
0
100
AcDbSpline
62
9
6
CONTINUOUS
70
0
71
3
72
12
73
8
74
6
42
0.0000001000
43
0.0000001000
44
0.0000000001
12
0.3246083006
22
-0.1622865476
32
0.0000000000
13
0.3294706869
23
0.1521727268
33
0.0000000000
40
0.0000000000
40
0.0000000000
40
0.0000000000
40
0.0000000000
40
0.1867565899
40
0.3938800539
40
0.6076446816
40
0.8144839336
40
1.0000000000
40
1.0000000000
40
1.0000000000
40
1.0000000000
10
15.9818628365
20
13.8254191950
30
0.0000000000
10
16.0020704163
20
13.8153165009
30
0.0000000000
10
16.0474099998
20
13.7994061733
30
0.0000000000
10
16.1201282560
20
13.7870993160
30
0.0000000000
10
16.1963470555
20
13.7855676073
30
0.0000000000
10
16.2693106592
20
13.7949934141
30
0.0000000000
10
16.3150421918
20
13.8092065947
30
0.0000000000
10
16.3354162271
20
13.8186167566
30
0.0000000000
11
15.9818628365
21
13.8254191950
31
0.0000000000
11
16.0454695488
21
13.8020123046
31
0.0000000000
11
16.1195116517
21
13.7890494888
31
0.0000000000
11
16.1970747233
21
13.7875053057
31
0.0000000000
11
16.2714607824
21
13.7975793319
31
0.0000000000
11
16.3354162271
21
13.8186167566
31
0.0000000000
0
SPLINE
5
38C
100
AcDbEntity
8
0
100
AcDbSpline
62
9
6
CONTINUOUS
70
0
71
3
72
11
73
7
74
5
42
0.0000001000
43
0.0000001000
44
0.0000000001
12
0.2673132890
22
0.1279420203
32
0.0000000000
13
-0.0000000003
23
0.2963537667
33
0.0000000000
40
0.0000000000
40
0.0000000000
40
0.0000000000
40
0.0000000000
40
0.2286190319
40
0.4870720935
40
0.7526205358
40
1.0000000000
40
1.0000000000
40
1.0000000000
40
1.0000000000
10
14.4944704530
20
14.2520471867
30
0.0000000000
10
14.5148414215
20
14.2617971803
30
0.0000000000
10
14.5539072032
20
14.2916531963
30
0.0000000000
10
14.5990445737
20
14.3515566409
30
0.0000000000
10
14.6298348633
20
14.4219769448
30
0.0000000000
10
14.6383599523
20
14.4727333584
30
0.0000000000
10
14.6383599523
20
14.4971706371
30
0.0000000000
11
14.4944704530
21
14.2520471867
31
0.0000000000
11
14.5493433315
21
14.2917877930
31
0.0000000000
11
14.5960621348
21
14.3524831267
31
0.0000000000
11
14.6273575082
21
14.4246891117
31
0.0000000000
11
14.6383599523
21
14.4971706371
31
0.0000000000
0
SPLINE
5
38D
100
AcDbEntity
8
0
100
AcDbSpline
62
9
6
CONTINUOUS
70
0
71
3
72
12
73
8
74
6
42
0.0000001000
43
0.0000001000
44
0.0000000001
12
-0.3840433493
22
-0.1837624800
32
0.0000000000
13
0.3807731528
23
-0.1904461850
33
0.0000000000
40
0.0000000000
40
0.0000000000
40
0.0000000000
40
0.0000000000
40
0.2354377598
40
0.4187082346
40
0.5791452876
40
0.7637460582
40
1.0000000000
40
1.0000000000
40
1.0000000000
40
1.0000000000
10
14.4944704530
20
14.5634427999
30
0.0000000000
10
14.4643310178
20
14.5490212577
30
0.0000000000
10
14.4130383914
20
14.5176462174
30
0.0000000000
10
14.3611900453
20
14.4488230763
30
0.0000000000
10
14.3617017859
20
14.3683250667
30
0.0000000000
10
14.4135075625
20
14.2993990960
30
0.0000000000
10
14.4644840670
20
14.2670450740
30
0.0000000000
10
14.4944704530
20
14.2520471867
30
0.0000000000
11
14.4944704530
21
14.5634427999
31
0.0000000000
11
14.4110133969
21
14.5079250754
31
0.0000000000
11
14.3679892235
21
14.4428326455
31
0.0000000000
11
14.3682546645
21
14.3745280505
31
0.0000000000
11
14.4114955918
21
14.3089000861
31
0.0000000000
11
14.4944704530
21
14.2520471867
31
0.0000000000
0
SPLINE
5
38E
100
AcDbEntity
8
0
100
AcDbSpline
62
9
6
CONTINUOUS
70
0
71
3
72
9
73
5
74
3
42
0.0000001000
43
0.0000001000
44
0.0000000001
12
0.0589823002
22
-0.0294911500
32
0.0000000000
13
0.0665174310
23
0.0091502590
33
0.0000000000
40
0.0000000000
40
0.0000000000
40
0.0000000000
40
0.0000000000
40
0.8496463487
40
1.0000000000
40
1.0000000000
40
1.0000000000
40
1.0000000000
10
14.4944704530
20
14.5634427999
30
0.0000000000
10
14.5111751517
20
14.5550904506
30
0.0000000000
10
14.5331629596
20
14.5482262498
30
0.0000000000
10
14.5554818339
20
14.5499965149
30
0.0000000000
10
14.5588155468
20
14.5504551065
30
0.0000000000
11
14.4944704530
21
14.5634427999
31
0.0000000000
11
14.5487778696
21
14.5496593759
31
0.0000000000
11
14.5588155468
21
14.5504551065
31
0.0000000000
0
SPLINE
5
38F
100
AcDbEntity
8
0
100
AcDbSpline
62
9
6
CONTINUOUS
70
0
71
3
72
8
73
4
74
2
42
0.0000001000
43
0.0000001000
44
0.0000000001
12
0.0253056365
22
0.0034810895
32
0.0000000000
13
0.0230266531
23
0.0107384240
33
0.0000000000
40
0.0000000000
40
0.0000000000
40
0.0000000000
40
0.0000000000
40
1.0000000000
40
1.0000000000
40
1.0000000000
40
1.0000000000
10
14.5588155468
20
14.5504551065
30
0.0000000000
10
14.5672507590
20
14.5516154697
30
0.0000000000
10
14.5755450479
20
14.5540077995
30
0.0000000000
10
14.5832205990
20
14.5575872741
30
0.0000000000
11
14.5588155468
21
14.5504551065
31
0.0000000000
11
14.5832205990
21
14.5575872741
31
0.0000000000
0
SPLINE
5
390
100
AcDbEntity
8
0
100
AcDbSpline
62
9
6
CONTINUOUS
70
0
71
3
72
9
73
5
74
3
42
0.0000001000
43
0.0000001000
44
0.0000000001
12
-0.0561286495
22
-0.0268644063
32
0.0000000000
13
-0.0628234178
23
0.0079092258
33
0.0000000000
40
0.0000000000
40
0.0000000000
40
0.0000000000
40
0.0000000000
40
0.8811956232
40
1.0000000000
40
1.0000000000
40
1.0000000000
40
1.0000000000
10
17.1814762216
20
14.2233257803
30
0.0000000000
10
17.1649894481
20
14.2154348479
30
0.0000000000
10
17.1441528185
20
14.2092702948
30
0.0000000000
10
17.1231255895
20
14.2109822421
30
0.0000000000
10
17.1206376905
20
14.2112954590
30
0.0000000000
11
17.1814762216
21
14.2233257803
31
0.0000000000
11
17.1281191529
21
14.2106866411
31
0.0000000000
11
17.1206376905
21
14.2112954590
31
0.0000000000
0
SPLINE
5
391
100
AcDbEntity
8
0
100
AcDbSpline
62
9
6
CONTINUOUS
70
0
71
3
72
8
73
4
74
2
42
0.0000001000
43
0.0000001000
44
0.0000000001
12
-0.0270944359
22
0.0034110849
32
0.0000000000
13
-0.0244317933
23
0.0119024892
33
0.0000000000
40
0.0000000000
40
0.0000000000
40
0.0000000000
40
0.0000000000
40
1.0000000000
40
1.0000000000
40
1.0000000000
40
1.0000000000
10
17.1206376905
20
14.2112954590
30
0.0000000000
10
17.1116062118
20
14.2124324873
30
0.0000000000
10
17.1027095164
20
14.2150168650
30
0.0000000000
10
17.0945655853
20
14.2189843614
30
0.0000000000
11
17.1206376905
21
14.2112954590
31
0.0000000000
11
17.0945655853
21
14.2189843614
31
0.0000000000
0
SPLINE
5
392
100
AcDbEntity
8
0
100
AcDbSpline
62
9
6
CONTINUOUS
70
0
71
3
72
11
73
7
74
5
42
0.0000001000
43
0.0000001000
44
0.0000000001
12
-0.1764019917
22
0.1619331825
32
0.0000000000
13
0.0033882665
23
0.2394337861
33
0.0000000000
40
0.0000000000
40
0.0000000000
40
0.0000000000
40
0.0000000000
40
0.2460417753
40
0.5046693856
40
0.7608284907
40
1.0000000000
40
1.0000000000
40
1.0000000000
40
1.0000000000
10
17.1367333327
20
13.9433770518
30
0.0000000000
10
17.1222659130
20
13.9566578277
30
0.0000000000
10
17.0958518666
20
13.9875597949
30
0.0000000000
10
17.0660276152
20
14.0408588860
30
0.0000000000
10
17.0469092446
20
14.0982911459
30
0.0000000000
10
17.0422528827
20
14.1379650376
30
0.0000000000
10
17.0425230083
20
14.1570536176
30
0.0000000000
11
17.1367333327
21
13.9433770518
31
0.0000000000
11
17.0980867341
21
13.9878473519
31
0.0000000000
11
17.0677294435
21
14.0418270505
31
0.0000000000
11
17.0485923181
21
14.1001046477
31
0.0000000000
11
17.0425230083
21
14.1570536176
31
0.0000000000
0
SPLINE
5
393
100
AcDbEntity
8
0
100
AcDbSpline
62
9
6
CONTINUOUS
70
0
71
3
72
10
73
6
74
4
42
0.0000001000
43
0.0000001000
44
0.0000000001
12
0.1001153703
22
0.0462032148
32
0.0000000000
13
0.0103735708
23
0.1116498312
33
0.0000000000
40
0.0000000000
40
0.0000000000
40
0.0000000000
40
0.0000000000
40
0.4997785051
40
0.8865712819
40
1.0000000000
40
1.0000000000
40
1.0000000000
40
1.0000000000
10
17.0425230083
20
14.1570536176
30
0.0000000000
10
17.0592015117
20
14.1647507421
30
0.0000000000
10
17.0875714117
20
14.1815062544
30
0.0000000000
10
17.1112453559
20
14.2120051205
30
0.0000000000
10
17.1148206294
20
14.2303853045
30
0.0000000000
10
17.1152128496
20
14.2346067369
30
0.0000000000
11
17.0425230083
21
14.1570536176
31
0.0000000000
11
17.0888412825
21
14.1869096267
31
0.0000000000
11
17.1127741172
21
14.2222102662
31
0.0000000000
11
17.1152128496
21
14.2346067369
31
0.0000000000
0
SPLINE
5
394
100
AcDbEntity
8
0
100
AcDbSpline
62
9
6
CONTINUOUS
70
0
71
3
72
8
73
4
74
2
42
0.0000001000
43
0.0000001000
44
0.0000000001
12
0.0005583841
22
0.0060098386
32
0.0000000000
13
-0.0000049751
23
0.0060479429
33
0.0000000000
40
0.0000000000
40
0.0000000000
40
0.0000000000
40
0.0000000000
40
1.0000000000
40
1.0000000000
40
1.0000000000
40
1.0000000000
10
17.1152128496
20
14.2346067369
30
0.0000000000
10
17.1153989777
20
14.2366100165
30
0.0000000000
10
17.1154908610
20
14.2386253660
30
0.0000000000
10
17.1154892026
20
14.2406413469
30
0.0000000000
11
17.1152128496
21
14.2346067369
31
0.0000000000
11
17.1154892026
21
14.2406413469
31
0.0000000000
0
SPLINE
5
395
100
AcDbEntity
8
0
100
AcDbSpline
62
9
6
CONTINUOUS
70
0
71
3
72
9
73
5
74
3
42
0.0000001000
43
0.0000001000
44
0.0000000001
12
-0.0709890445
22
0.1445679680
32
0.0000000000
13
-0.1440518062
23
0.0720306807
33
0.0000000000
40
0.0000000000
40
0.0000000000
40
0.0000000000
40
0.0000000000
40
0.4455148880
40
1.0000000000
40
1.0000000000
40
1.0000000000
40
1.0000000000
10
17.3006999135
20
14.1180506115
30
0.0000000000
10
17.2901576881
20
14.1395196722
30
0.0000000000
10
17.2541573982
20
14.1814885509
30
0.0000000000
10
17.2081010822
20
14.2100124670
30
0.0000000000
10
17.1814762216
20
14.2233257803
30
0.0000000000
11
17.3006999135
21
14.1180506115
31
0.0000000000
11
17.2560844024
21
14.1742465893
31
0.0000000000
11
17.1814762216
21
14.2233257803
31
0.0000000000
0
SPLINE
5
396
100
AcDbEntity
8
0
100
AcDbSpline
62
7
6
CONTINUOUS
70
0
71
3
72
11
73
7
74
5
42
0.0000001000
43
0.0000001000
44
0.0000000001
12
-0.2068159736
22
0.1034079868
32
0.0000000000
13
-0.2080697585
23
-0.1032300930
33
0.0000000000
40
0.0000000000
40
0.0000000000
40
0.0000000000
40
0.0000000000
40
0.3191814938
40
0.6084968130
40
0.8761027616
40
1.0000000000
40
1.0000000000
40
1.0000000000
40
1.0000000000
10
0.7809010464
20
20.9036501936
30
0.0000000000
10
0.7588971026
20
20.9146521655
30
0.0000000000
10
0.7148555045
20
20.9319064411
30
0.0000000000
10
0.6472689515
20
20.9414358594
30
0.0000000000
10
0.5945158076
20
20.9337828272
30
0.0000000000
10
0.5663465024
20
20.9223620001
30
0.0000000000
10
0.5577534129
20
20.9180986923
30
0.0000000000
11
0.7809010464
21
20.9036501936
31
0.0000000000
11
0.7118957752
21
20.9298269944
31
0.0000000000
11
0.6455430406
21
20.9383477364
31
0.0000000000
11
0.5843926802
21
20.9288875423
31
0.0000000000
11
0.5577534129
21
20.9180986923
31
0.0000000000
0
SPLINE
5
397
100
AcDbEntity
8
0
100
AcDbSpline
62
9
6
CONTINUOUS
70
0
71
3
72
9
73
5
74
3
42
0.0000001000
43
0.0000001000
44
0.0000000001
12
0.0185538321
22
0.0502290249
32
0.0000000000
13
0.0155300819
23
0.0512562232
33
0.0000000000
40
0.0000000000
40
0.0000000000
40
0.0000000000
40
0.0000000000
40
0.4695685080
40
1.0000000000
40
1.0000000000
40
1.0000000000
40
1.0000000000
10
1.0206450819
20
21.0226508312
30
0.0000000000
10
1.0235491804
20
21.0305128206
30
0.0000000000
10
1.0287931520
20
21.0475950512
30
0.0000000000
10
1.0334134005
20
21.0648306062
30
0.0000000000
10
1.0361592820
20
21.0738932445
30
0.0000000000
11
1.0206450819
21
21.0226508312
31
0.0000000000
11
1.0283364606
21
21.0465891829
31
0.0000000000
11
1.0361592820
21
21.0738932445
31
0.0000000000
0
SPLINE
5
398
100
AcDbEntity
8
0
100
AcDbSpline
62
9
6
CONTINUOUS
70
0
71
3
72
13
73
9
74
7
42
0.0000001000
43
0.0000001000
44
0.0000000001
12
0.0637534893
22
0.2104150579
32
0.0000000000
13
0.1981503340
23
0.0951603493
33
0.0000000000
40
0.0000000000
40
0.0000000000
40
0.0000000000
40
0.0000000000
40
0.1431644207
40
0.2984241124
40
0.4644169605
40
0.6392831726
40
0.8194324110
40
1.0000000000
40
1.0000000000
40
1.0000000000
40
1.0000000000
10
1.0361592820
20
21.0738932445
30
0.0000000000
10
1.0392016924
20
21.0839345611
30
0.0000000000
10
1.0462988576
20
21.1046617305
30
0.0000000000
10
1.0617777896
20
21.1351284855
30
0.0000000000
10
1.0835507657
20
21.1644699430
30
0.0000000000
10
1.1113315271
20
21.1908980108
30
0.0000000000
10
1.1434739211
20
21.2136024112
30
0.0000000000
10
1.1667700597
20
21.2262093490
30
0.0000000000
10
1.1786965691
20
21.2319369739
30
0.0000000000
11
1.0361592820
21
21.0738932445
31
0.0000000000
11
1.0466669493
21
21.1035570035
31
0.0000000000
11
1.0622121981
21
21.1339396218
31
0.0000000000
11
1.0839239916
21
21.1632647468
31
0.0000000000
11
1.1116262848
21
21.1899122993
31
0.0000000000
11
1.1438598934
21
21.2129150959
31
0.0000000000
11
1.1786965691
21
21.2319369739
31
0.0000000000
0
SPLINE
5
399
100
AcDbEntity
8
0
100
AcDbSpline
62
9
6
CONTINUOUS
70
0
71
3
72
10
73
6
74
4
42
0.0000001000
43
0.0000001000
44
0.0000000001
12
0.2117668242
22
0.1062534796
32
0.0000000000
13
0.2117502958
23
-0.1022933210
33
0.0000000000
40
0.0000000000
40
0.0000000000
40
0.0000000000
40
0.0000000000
40
0.0724530030
40
0.5063568397
40
1.0000000000
40
1.0000000000
40
1.0000000000
40
1.0000000000
10
0.7924109195
20
21.0344452769
30
0.0000000000
10
0.7975253003
20
21.0370114048
30
0.0000000000
10
0.8340099109
20
21.0533784305
30
0.0000000000
10
0.9149456941
20
21.0623366904
30
0.0000000000
10
0.9858415805
20
21.0394555638
30
0.0000000000
10
1.0206846089
20
21.0226234310
30
0.0000000000
11
0.7924109195
21
21.0344452769
31
0.0000000000
11
0.8080583228
21
21.0414529920
31
0.0000000000
11
0.9091968252
21
21.0549760193
31
0.0000000000
11
1.0206846089
21
21.0226234310
31
0.0000000000
0
SPLINE
5
39A
100
AcDbEntity
8
0
100
AcDbSpline
62
9
6
CONTINUOUS
70
0
71
3
72
10
73
6
74
4
42
0.0000001000
43
0.0000001000
44
0.0000000001
12
0.0000000000
22
-0.2520873581
32
0.0000000000
13
-0.1608196274
23
-0.1941264628
33
0.0000000000
40
0.0000000000
40
0.0000000000
40
0.0000000000
40
0.0000000000
40
0.3177180317
40
0.6593574453
40
1.0000000000
40
1.0000000000
40
1.0000000000
40
1.0000000000
10
15.9818628365
20
-25.6722814847
30
0.0000000000
10
15.9818628365
20
-25.6989790511
30
0.0000000000
10
15.9736587777
20
-25.7544882115
30
0.0000000000
10
15.9432241048
20
-25.8333654658
30
0.0000000000
10
15.9117351584
20
-25.8819330804
30
0.0000000000
10
15.8934744889
20
-25.9039756585
30
0.0000000000
11
15.9818628365
21
-25.6722814847
31
0.0000000000
11
15.9712018973
21
-25.7516614874
31
0.0000000000
11
15.9405049463
21
-25.8321280296
31
0.0000000000
11
15.8934744889
21
-25.9039756585
31
0.0000000000
0
SPLINE
5
39B
100
AcDbEntity
8
0
100
AcDbSpline
62
7
6
CONTINUOUS
70
0
71
3
72
11
73
7
74
5
42
0.0000001000
43
0.0000001000
44
0.0000000001
12
-0.2071258395
22
0.1035800949
32
0.0000000000
13
-0.2057117522
23
-0.1040475676
33
0.0000000000
40
0.0000000000
40
0.0000000000
40
0.0000000000
40
0.0000000000
40
0.1260855173
40
0.3927613430
40
0.6812935057
40
1.0000000000
40
1.0000000000
40
1.0000000000
40
1.0000000000
10
18.2949447634
20
20.1723245867
30
0.0000000000
10
18.2862395739
20
20.1766779034
30
0.0000000000
10
18.2580723473
20
20.1881360901
30
0.0000000000
10
18.2054143991
20
20.1956597736
30
0.0000000000
10
18.1382307739
20
20.1859221542
30
0.0000000000
10
18.0944919126
20
20.1685521781
30
0.0000000000
10
18.0726380221
20
20.1574986330
30
0.0000000000
11
18.2949447634
21
20.1723245867
31
0.0000000000
11
18.2679292394
21
20.1833007479
31
0.0000000000
11
18.2071567900
21
20.1925766581
31
0.0000000000
11
18.1412150614
21
20.1838643338
31
0.0000000000
11
18.0726380221
21
20.1574986330
31
0.0000000000
0
SPLINE
5
39C
100
AcDbEntity
8
0
100
AcDbSpline
62
9
6
CONTINUOUS
70
0
71
3
72
10
73
6
74
4
42
0.0000001000
43
0.0000001000
44
0.0000000001
12
0.0000000000
22
-0.2520873581
32
0.0000000000
13
-0.1608196274
23
-0.1941264628
33
0.0000000000
40
0.0000000000
40
0.0000000000
40
0.0000000000
40
0.0000000000
40
0.3177180317
40
0.6593574453
40
1.0000000000
40
1.0000000000
40
1.0000000000
40
1.0000000000
10
14.6383599523
20
-25.0005300425
30
0.0000000000
10
14.6383599523
20
-25.0272276089
30
0.0000000000
10
14.6301558934
20
-25.0827367693
30
0.0000000000
10
14.5997212205
20
-25.1616140237
30
0.0000000000
10
14.5682322742
20
-25.2101816383
30
0.0000000000
10
14.5499716046
20
-25.2322242164
30
0.0000000000
11
14.6383599523
21
-25.0005300425
31
0.0000000000
11
14.6276990131
21
-25.0799100453
31
0.0000000000
11
14.5970020621
21
-25.1603765874
31
0.0000000000
11
14.5499716046
21
-25.2322242164
31
0.0000000000
0
SPLINE
5
39D
100
AcDbEntity
8
0
100
AcDbSpline
62
7
6
CONTINUOUS
70
0
71
3
72
11
73
7
74
5
42
0.0000001000
43
0.0000001000
44
0.0000000001
12
-0.2081967564
22
0.1041138840
32
0.0000000000
13
-0.2072674228
23
-0.1036337114
33
0.0000000000
40
0.0000000000
40
0.0000000000
40
0.0000000000
40
0.0000000000
40
0.1261794756
40
0.3930879826
40
0.6816511665
40
1.0000000000
40
1.0000000000
40
1.0000000000
40
1.0000000000
10
12.7406344232
20
22.9494802932
30
0.0000000000
10
12.7318777041
20
22.9538593050
30
0.0000000000
10
12.7035466710
20
22.9653974993
30
0.0000000000
10
12.6506130582
20
22.9730728652
30
0.0000000000
10
12.5830561994
20
22.9635430418
30
0.0000000000
10
12.5390340561
20
22.9462950634
30
0.0000000000
10
12.5170396087
20
22.9352978397
30
0.0000000000
11
12.7406344232
21
22.9494802932
31
0.0000000000
11
12.7134633483
21
22.9605339110
31
0.0000000000
11
12.6523386337
21
22.9699862229
31
0.0000000000
11
12.5860144535
21
22.9614650444
31
0.0000000000
11
12.5170396087
21
22.9352978397
31
0.0000000000
0
SPLINE
5
39E
100
AcDbEntity
8
0
100
AcDbSpline
62
9
6
CONTINUOUS
70
0
71
3
72
11
73
7
74
5
42
0.0000001000
43
0.0000001000
44
0.0000000001
12
0.3219471227
22
0.3886245550
32
0.0000000000
13
0.0000000000
23
0.5046573041
33
0.0000000000
40
0.0000000000
40
0.0000000000
40
0.0000000000
40
0.0000000000
40
0.2552951313
40
0.5132537277
40
0.7642975857
40
1.0000000000
40
1.0000000000
40
1.0000000000
40
1.0000000000
10
16.1586395318
20
-26.1356698323
30
0.0000000000
10
16.1860367095
20
-26.1025985134
30
0.0000000000
10
16.2353191387
20
-26.0311363111
30
0.0000000000
10
16.2908873356
20
-25.9146276205
30
0.0000000000
10
16.3263428839
20
-25.7939260346
30
0.0000000000
10
16.3354162271
20
-25.7119311330
30
0.0000000000
10
16.3354162271
20
-25.6722814847
30
0.0000000000
11
16.1586395318
21
-26.1356698323
31
0.0000000000
11
16.2321027730
21
-26.0298302863
31
0.0000000000
11
16.2881094013
21
-25.9123131829
31
0.0000000000
11
16.3233223888
21
-25.7906140271
31
0.0000000000
11
16.3354162271
21
-25.6722814847
31
0.0000000000
0
SPLINE
5
39F
100
AcDbEntity
8
0
100
AcDbSpline
62
7
6
CONTINUOUS
70
0
71
3
72
11
73
7
74
5
42
0.0000001000
43
0.0000001000
44
0.0000000001
12
-0.4039890973
22
0.2021280081
32
0.0000000000
13
-0.4056879499
23
-0.1941711775
33
0.0000000000
40
0.0000000000
40
0.0000000000
40
0.0000000000
40
0.0000000000
40
0.1151113616
40
0.3861639946
40
0.6782774583
40
1.0000000000
40
1.0000000000
40
1.0000000000
40
1.0000000000
10
15.0855346967
20
22.3070482741
30
0.0000000000
10
15.0700334517
20
22.3148040175
30
0.0000000000
10
15.0162601443
20
22.3372653370
30
0.0000000000
10
14.9143456820
20
22.3540411185
30
0.0000000000
10
14.7812229927
20
22.3378460241
30
0.0000000000
10
14.6942069867
20
22.3055333783
30
0.0000000000
10
14.6507006672
20
22.2847102967
30
0.0000000000
11
15.0855346967
21
22.3070482741
31
0.0000000000
11
15.0375973383
21
22.3270477977
31
0.0000000000
11
14.9174860100
21
22.3479059929
31
0.0000000000
11
14.7868843244
21
22.3336144536
31
0.0000000000
11
14.6507006672
21
22.2847102967
31
0.0000000000
0
SPLINE
5
3A0
100
AcDbEntity
8
0
100
AcDbSpline
62
9
6
CONTINUOUS
70
0
71
3
72
11
73
7
74
5
42
0.0000001000
43
0.0000001000
44
0.0000000001
12
-0.3249549290
22
-0.1624774645
32
0.0000000000
13
-0.3249549290
23
0.1624774645
33
0.0000000000
40
0.0000000000
40
0.0000000000
40
0.0000000000
40
0.0000000000
40
0.2353701082
40
0.5000000000
40
0.7646298918
40
1.0000000000
40
1.0000000000
40
1.0000000000
40
1.0000000000
10
16.3354162271
20
-25.6722814847
30
0.0000000000
10
16.3099213349
20
-25.6850289308
30
0.0000000000
10
16.2513287369
20
-25.7032130566
30
0.0000000000
10
16.1586395318
20
-25.7118993752
30
0.0000000000
10
16.0659503268
20
-25.7032130566
30
0.0000000000
10
16.0073577288
20
-25.6850289308
30
0.0000000000
10
15.9818628365
20
-25.6722814847
30
0.0000000000
11
16.3354162271
21
-25.6722814847
31
0.0000000000
11
16.2543103899
21
-25.6993780786
31
0.0000000000
11
16.1586395318
21
-25.7088931370
31
0.0000000000
11
16.0629686737
21
-25.6993780786
31
0.0000000000
11
15.9818628365
21
-25.6722814847
31
0.0000000000
0
SPLINE
5
3A1
100
AcDbEntity
8
0
100
AcDbSpline
62
7
6
CONTINUOUS
70
0
71
3
72
8
73
4
74
2
42
0.0000001000
43
0.0000001000
44
0.0000000001
12
0.0000000000
22
0.0881753022
32
0.0000000000
13
-0.0131141893
23
0.0872985335
33
0.0000000000
40
0.0000000000
40
0.0000000000
40
0.0000000000
40
0.0000000000
40
1.0000000000
40
1.0000000000
40
1.0000000000
40
1.0000000000
10
16.1216117475
20
12.8000842712
30
0.0000000000
10
16.1216117475
20
12.8294760387
30
0.0000000000
10
16.1191851283
20
12.8588976198
30
0.0000000000
10
16.1148137319
20
12.8879971310
30
0.0000000000
11
16.1216117475
21
12.8000842712
31
0.0000000000
11
16.1148137319
21
12.8879971310
31
0.0000000000
0
SPLINE
5
3A2
100
AcDbEntity
8
0
100
AcDbSpline
62
7
6
CONTINUOUS
70
0
71
3
72
14
73
10
74
8
42
0.0000001000
43
0.0000001000
44
0.0000000001
12
-0.0963763143
22
0.6415578358
32
0.0000000000
13
-0.5795899097
23
0.2897949548
33
0.0000000000
40
0.0000000000
40
0.0000000000
40
0.0000000000
40
0.0000000000
40
0.1443255764
40
0.2938886878
40
0.4452160060
40
0.5946871408
40
0.7388365246
40
0.8746671579
40
1.0000000000
40
1.0000000000
40
1.0000000000
40
1.0000000000
10
16.1148137319
20
12.8879971310
30
0.0000000000
10
16.1101772095
20
12.9188615325
30
0.0000000000
10
16.0962808445
20
12.9809726036
30
0.0000000000
10
16.0636333011
20
13.0716874723
30
0.0000000000
10
16.0198925421
20
13.1588339161
30
0.0000000000
10
15.9666969343
20
13.2391630763
30
0.0000000000
10
15.9060110686
20
13.3096805445
30
0.0000000000
10
15.8401038952
20
13.3677435157
30
0.0000000000
10
15.7921106804
20
13.3980453766
30
0.0000000000
10
15.7678967968
20
13.4101523184
30
0.0000000000
11
16.1148137319
21
12.8879971310
31
0.0000000000
11
16.0946824981
21
12.9793279193
31
0.0000000000
11
16.0619937519
21
13.0705658827
31
0.0000000000
11
16.0180045738
21
13.1582058965
31
0.0000000000
11
15.9644053092
21
13.2388811082
31
0.0000000000
11
15.9032548979
21
13.3094917594
31
0.0000000000
11
15.8369020999
21
13.3673238243
31
0.0000000000
11
15.7678967968
21
13.4101523184
31
0.0000000000
0
SPLINE
5
3A3
100
AcDbEntity
8
0
100
AcDbSpline
62
9
6
CONTINUOUS
70
0
71
3
72
15
73
11
74
9
42
0.0000001000
43
0.0000001000
44
0.0000000001
12
0.4191263951
22
0.0324964256
32
0.0000000000
13
0.3796878666
23
0.1804441097
33
0.0000000000
40
0.0000000000
40
0.0000000000
40
0.0000000000
40
0.0000000000
40
0.0972506257
40
0.2188815956
40
0.3622385441
40
0.5092748885
40
0.6505352241
40
0.7799996987
40
0.8965747227
40
1.0000000000
40
1.0000000000
40
1.0000000000
40
1.0000000000
10
16.0163176266
20
13.5248135594
30
0.0000000000
10
16.0299043947
20
13.5258669920
30
0.0000000000
10
16.0604587951
20
13.5285577739
30
0.0000000000
10
16.1109810107
20
13.5334698660
30
0.0000000000
10
16.1683397220
20
13.5401185273
30
0.0000000000
10
16.2281672538
20
13.5491438562
30
0.0000000000
10
16.2855942399
20
13.5606460805
30
0.0000000000
10
16.3381340068
20
13.5743980206
30
0.0000000000
10
16.3845846919
20
13.5900225294
30
0.0000000000
10
16.4130327257
20
13.6020007773
30
0.0000000000
10
16.4261225000
20
13.6082216047
30
0.0000000000
11
16.0163176266
21
13.5248135594
31
0.0000000000
11
16.0570502320
21
13.5283128069
31
0.0000000000
11
16.1079363106
21
13.5333190809
31
0.0000000000
11
16.1677842519
21
13.5403968810
31
0.0000000000
11
16.2288825405
21
13.5497613878
31
0.0000000000
11
16.2870825445
21
13.5615586157
31
0.0000000000
11
16.3396960873
21
13.5754826020
31
0.0000000000
11
16.3861095278
21
13.5912119012
31
0.0000000000
11
16.4261225000
21
13.6082216047
31
0.0000000000
0
SPLINE
5
3A4
100
AcDbEntity
8
0
100
AcDbSpline
62
9
6
CONTINUOUS
70
0
71
3
72
15
73
11
74
9
42
0.0000001000
43
0.0000001000
44
0.0000000001
12
0.3051400739
22
0.1408494049
32
0.0000000000
13
0.3059637791
23
0.1390510175
33
0.0000000000
40
0.0000000000
40
0.0000000000
40
0.0000000000
40
0.0000000000
40
0.1698949813
40
0.3448663033
40
0.5101348635
40
0.6477196907
40
0.7586774472
40
0.8506772069
40
0.9293108834
40
1.0000000000
40
1.0000000000
40
1.0000000000
40
1.0000000000
10
16.3573578842
20
12.9089635523
30
0.0000000000
10
16.3746384732
20
12.9169400879
30
0.0000000000
10
16.4090701783
20
12.9345502046
30
0.0000000000
10
16.4582581115
20
12.9636901107
30
0.0000000000
10
16.5031772692
20
12.9928155282
30
0.0000000000
10
16.5417476170
20
13.0185306680
30
0.0000000000
10
16.5737556911
20
13.0392942243
30
0.0000000000
10
16.6007562177
20
13.0556210675
30
0.0000000000
10
16.6244678964
20
13.0686256859
30
0.0000000000
10
16.6395241693
20
13.0759339097
30
0.0000000000
10
16.6467336057
20
13.0792103742
30
0.0000000000
11
16.3573578842
21
12.9089635523
31
0.0000000000
11
16.4082771669
21
12.9347980555
31
0.0000000000
11
16.4589764686
21
12.9645891770
31
0.0000000000
11
16.5057076007
21
12.9946101130
31
0.0000000000
11
16.5442891629
21
13.0200962089
31
0.0000000000
11
16.5756524782
21
13.0402686723
31
0.0000000000
11
16.6021554733
21
13.0561930800
31
0.0000000000
11
16.6253550582
21
13.0688489822
31
0.0000000000
11
16.6467336057
21
13.0792103742
31
0.0000000000
0
SPLINE
5
3A5
100
AcDbEntity
8
0
100
AcDbSpline
62
9
6
CONTINUOUS
70
0
71
3
72
12
73
8
74
6
42
0.0000001000
43
0.0000001000
44
0.0000000001
12
0.6519776465
22
-0.3372252867
32
0.0000000000
13
-0.0106347958
23
-0.7339500301
33
0.0000000000
40
0.0000000000
40
0.0000000000
40
0.0000000000
40
0.0000000000
40
0.1796205348
40
0.3805877404
40
0.5927615964
40
0.8033755722
40
1.0000000000
40
1.0000000000
40
1.0000000000
40
1.0000000000
10
16.0162582616
20
13.5248163954
30
0.0000000000
10
16.0552944528
20
13.5046255332
30
0.0000000000
10
16.1310383102
20
13.4481308658
30
0.0000000000
10
16.2249213132
20
13.3363823400
30
0.0000000000
10
16.2990409561
20
13.2018639354
30
0.0000000000
10
16.3464855019
20
13.0570529650
30
0.0000000000
10
16.3580549044
20
12.9570677205
30
0.0000000000
10
16.3573578842
20
12.9089635523
30
0.0000000000
11
16.0162582616
21
13.5248163954
31
0.0000000000
11
16.1233451266
21
13.4479017703
31
0.0000000000
11
16.2192796331
21
13.3358421664
31
0.0000000000
11
16.2947295147
21
13.1995972217
31
0.0000000000
11
16.3423083373
21
13.0525044269
31
0.0000000000
11
16.3573578842
21
12.9089635523
31
0.0000000000
0
SPLINE
5
3A6
100
AcDbEntity
8
0
100
AcDbSpline
62
9
6
CONTINUOUS
70
0
71
3
72
10
73
6
74
4
42
0.0000001000
43
0.0000001000
44
0.0000000001
12
0.7193080063
22
0.3266950023
32
0.0000000000
13
0.7191392953
23
0.3270662112
33
0.0000000000
40
0.0000000000
40
0.0000000000
40
0.0000000000
40
0.0000000000
40
0.3332759543
40
0.6666786861
40
1.0000000000
40
1.0000000000
40
1.0000000000
40
1.0000000000
10
16.6467336057
20
13.0792103742
30
0.0000000000
10
16.7266429598
20
13.1155035705
30
0.0000000000
10
16.8864857293
20
13.1881177201
30
0.0000000000
10
17.1262267336
20
13.2970784143
30
0.0000000000
10
17.2860553818
20
13.3697525036
30
0.0000000000
10
17.3659568667
20
13.4060918834
30
0.0000000000
11
16.6467336057
21
13.0792103742
31
0.0000000000
11
16.8864521964
21
13.1881108146
31
0.0000000000
11
17.1262431410
21
13.2970941309
31
0.0000000000
11
17.3659568667
21
13.4060918834
31
0.0000000000
0
SPLINE
5
3A7
100
AcDbEntity
8
0
100
AcDbSpline
62
9
6
CONTINUOUS
70
0
71
3
72
11
73
7
74
5
42
0.0000001000
43
0.0000001000
44
0.0000000001
12
0.4181618484
22
-0.4116118851
32
0.0000000000
13
-0.0114922088
23
-0.5866443595
33
0.0000000000
40
0.0000000000
40
0.0000000000
40
0.0000000000
40
0.0000000000
40
0.2462879081
40
0.5047476650
40
0.7607052784
40
1.0000000000
40
1.0000000000
40
1.0000000000
40
1.0000000000
10
16.4261219678
20
13.6082222980
30
0.0000000000
10
16.4604513701
20
13.5744306213
30
0.0000000000
10
16.5228379044
20
13.4968370885
30
0.0000000000
10
16.5928137835
20
13.3646348331
30
0.0000000000
10
16.6371898720
20
13.2232146470
30
0.0000000000
10
16.6475787890
20
13.1259715295
30
0.0000000000
10
16.6466621140
20
13.0791778967
30
0.0000000000
11
16.4261219678
21
13.6082222980
31
0.0000000000
11
16.5175346036
21
13.4962973342
31
0.0000000000
11
16.5887441493
21
13.3624024205
31
0.0000000000
11
16.6331573793
21
13.2189347623
31
0.0000000000
11
16.6466621140
21
13.0791778967
31
0.0000000000
0
SPLINE
5
3A8
100
AcDbEntity
8
0
100
AcDbSpline
62
9
6
CONTINUOUS
70
0
71
3
72
16
73
12
74
10
42
0.0000001000
43
0.0000001000
44
0.0000000001
12
0.2229396392
22
0.1056661886
32
0.0000000000
13
0.1027714135
23
0.2242887931
33
0.0000000000
40
0.0000000000
40
0.0000000000
40
0.0000000000
40
0.0000000000
40
0.1314889959
40
0.2631107463
40
0.3905692854
40
0.5119854326
40
0.6254437700
40
0.7293027819
40
0.8255434478
40
0.9148297522
40
1.0000000000
40
1.0000000000
40
1.0000000000
40
1.0000000000
10
17.1367335386
20
13.9433779494
30
0.0000000000
10
17.1465049083
20
13.9480092631
30
0.0000000000
10
17.1657618343
20
13.9579219208
30
0.0000000000
10
17.1931355001
20
13.9747948667
30
0.0000000000
10
17.2182121782
20
13.9935963762
30
0.0000000000
10
17.2400394801
20
14.0139819870
30
0.0000000000
10
17.2579780191
20
14.0353823480
30
0.0000000000
10
17.2721959085
20
14.0569591466
30
0.0000000000
10
17.2831536201
20
14.0781201717
30
0.0000000000
10
17.2920852715
20
14.0985140282
30
0.0000000000
10
17.2977826836
20
14.1116820605
30
0.0000000000
10
17.3007003725
20
14.1180496378
30
0.0000000000
11
17.1367335386
21
13.9433779494
31
0.0000000000
11
17.1655482256
21
13.9582800436
31
0.0000000000
11
17.1931476803
21
13.9753901211
31
0.0000000000
11
17.2182406659
21
13.9943420273
31
0.0000000000
11
17.2400617295
21
14.0148637604
31
0.0000000000
11
17.2580353648
21
14.0363226115
31
0.0000000000
11
17.2721382206
21
14.0577157828
31
0.0000000000
11
17.2831737995
21
14.0787392525
31
0.0000000000
11
17.2922056842
21
14.0988306155
31
0.0000000000
11
17.3007003725
21
14.1180496378
31
0.0000000000
0
SPLINE
5
3A9
100
AcDbEntity
8
0
100
AcDbSpline
62
9
6
CONTINUOUS
70
0
71
3
72
16
73
12
74
10
42
0.0000001000
43
0.0000001000
44
0.0000000001
12
0.2662460246
22
0.1210161096
32
0.0000000000
13
0.2655034577
23
0.1226366926
33
0.0000000000
40
0.0000000000
40
0.0000000000
40
0.0000000000
40
0.0000000000
40
0.0682733994
40
0.1414728877
40
0.2218225972
40
0.3113344231
40
0.4126436001
40
0.5294019061
40
0.6647930563
40
0.8203631201
40
1.0000000000
40
1.0000000000
40
1.0000000000
40
1.0000000000
10
17.3659568667
20
13.4060918834
30
0.0000000000
10
17.3720160404
20
13.4088459438
30
0.0000000000
10
17.3846749377
20
13.4143289251
30
0.0000000000
10
17.4048421463
20
13.4221480960
30
0.0000000000
10
17.4272483191
20
13.4298715312
30
0.0000000000
10
17.4524977786
20
13.4377108926
30
0.0000000000
10
17.4813176845
20
13.4459896258
30
0.0000000000
10
17.5144596672
20
13.4554182356
30
0.0000000000
10
17.5524816564
20
13.4670209427
30
0.0000000000
10
17.5957958738
20
13.4821913885
30
0.0000000000
10
17.6259601624
20
13.4948410504
30
0.0000000000
10
17.6418582333
20
13.5021844080
30
0.0000000000
11
17.3659568667
21
13.4060918834
31
0.0000000000
11
17.3842814884
21
13.4140224669
31
0.0000000000
11
17.4042363033
21
13.4217748280
31
0.0000000000
11
17.4264390516
21
13.4294714534
31
0.0000000000
11
17.4514239135
21
13.4372861320
31
0.0000000000
11
17.4798732075
21
13.4455624821
31
0.0000000000
11
17.5126850129
21
13.4550175587
31
0.0000000000
11
17.5505233538
21
13.4666847765
31
0.0000000000
11
17.5934324660
21
13.4818126851
31
0.0000000000
11
17.6418582333
21
13.5021844080
31
0.0000000000
0
SPLINE
5
3AA
100
AcDbEntity
8
0
100
AcDbSpline
62
9
6
CONTINUOUS
70
0
71
3
72
11
73
7
74
5
42
0.0000001000
43
0.0000001000
44
0.0000000001
12
0.4349072090
22
-0.4113304504
32
0.0000000000
13
-0.0115986590
23
-0.5985002013
33
0.0000000000
40
0.0000000000
40
0.0000000000
40
0.0000000000
40
0.0000000000
40
0.2451285677
40
0.5036119767
40
0.7601872546
40
1.0000000000
40
1.0000000000
40
1.0000000000
40
1.0000000000
10
17.1367335386
20
13.9433779494
30
0.0000000000
10
17.1722695990
20
13.9097683347
30
0.0000000000
10
17.2369958005
20
13.8317058875
30
0.0000000000
10
17.3096957642
20
13.6976137479
30
0.0000000000
10
17.3559733633
20
13.5533792767
30
0.0000000000
10
17.3668924552
20
13.4539381861
30
0.0000000000
10
17.3659652865
20
13.4060955273
30
0.0000000000
11
17.1367335386
21
13.9433779494
31
0.0000000000
11
17.2313551820
21
13.8312240163
31
0.0000000000
11
17.3054250703
21
13.6953731273
31
0.0000000000
11
17.3517879521
21
13.5489486686
31
0.0000000000
11
17.3659652865
21
13.4060955273
31
0.0000000000
0
SPLINE
5
3AB
100
AcDbEntity
8
0
100
AcDbSpline
62
9
6
CONTINUOUS
70
0
71
3
72
12
73
8
74
6
42
0.0000001000
43
0.0000001000
44
0.0000000001
12
0.6519661659
22
-0.3373159253
32
0.0000000000
13
-0.0105655716
23
-0.7339824819
33
0.0000000000
40
0.0000000000
40
0.0000000000
40
0.0000000000
40
0.0000000000
40
0.1795520416
40
0.3805347453
40
0.5927295553
40
0.8033632481
40
1.0000000000
40
1.0000000000
40
1.0000000000
40
1.0000000000
10
17.3006998119
20
14.1180505646
30
0.0000000000
10
17.3397204306
20
14.0978619769
30
0.0000000000
10
17.4154529482
20
14.0413715047
30
0.0000000000
10
17.5093553276
20
13.9296419219
30
0.0000000000
10
17.5835005248
20
13.7951135804
30
0.0000000000
10
17.6309691713
20
13.6502901035
30
0.0000000000
10
17.6425507599
20
13.5502937184
30
0.0000000000
10
17.6418582333
20
13.5021844080
30
0.0000000000
11
17.3006998119
21
14.1180505646
31
0.0000000000
11
17.4077489121
21
14.0411598632
31
0.0000000000
11
17.5037109916
21
13.9291005707
31
0.0000000000
11
17.5791890443
21
13.7928460182
31
0.0000000000
11
17.6267919477
21
13.6457388405
31
0.0000000000
11
17.6418582333
21
13.5021844080
31
0.0000000000
0
SPLINE
5
3AC
100
AcDbEntity
8
0
100
AcDbSpline
62
9
6
CONTINUOUS
70
0
71
3
72
15
73
11
74
9
42
0.0000001000
43
0.0000001000
44
0.0000000001
12
0.2765445311
22
0.1393259845
32
0.0000000000
13
0.2756813935
23
0.1410261570
33
0.0000000000
40
0.0000000000
40
0.0000000000
40
0.0000000000
40
0.0000000000
40
0.1870059473
40
0.3617553290
40
0.5138485870
40
0.6412214855
40
0.7483969144
40
0.8411926550
40
0.9239408893
40
1.0000000000
40
1.0000000000
40
1.0000000000
40
1.0000000000
10
16.3573640652
20
-25.0731204074
30
0.0000000000
10
16.3746025559
20
-25.0644354781
30
0.0000000000
10
16.4086169162
20
-25.0489240081
30
0.0000000000
10
16.4583472644
20
-25.0303911147
30
0.0000000000
10
16.5030420246
20
-25.0162049733
30
0.0000000000
10
16.5412718003
20
-25.0047553795
30
0.0000000000
10
16.5734955495
20
-24.9945767234
30
0.0000000000
10
16.6009514508
20
-24.9846581065
30
0.0000000000
10
16.6249254073
20
-24.9746428571
30
0.0000000000
10
16.6396978911
20
-24.9675197595
30
0.0000000000
10
16.6466872517
20
-24.9639443181
30
0.0000000000
11
16.3573640652
21
-25.0731204074
31
0.0000000000
11
16.4100356100
21
-25.0490569417
31
0.0000000000
11
16.4606912615
21
-25.0300256885
31
0.0000000000
11
16.5055139576
21
-25.0155669326
31
0.0000000000
11
16.5432386611
21
-25.0040547808
31
0.0000000000
11
16.5748348966
21
-24.9939005032
31
0.0000000000
11
16.6018374922
21
-24.9840739385
31
0.0000000000
11
16.6254651881
21
-24.9741589397
31
0.0000000000
11
16.6466872517
21
-24.9639443181
31
0.0000000000
0
SPLINE
5
3AD
100
AcDbEntity
8
0
100
AcDbSpline
62
9
6
CONTINUOUS
70
0
71
3
72
11
73
7
74
5
42
0.0000001000
43
0.0000001000
44
0.0000000001
12
-0.1865150811
22
0.3024006954
32
0.0000000000
13
-0.3177849034
23
0.1588924517
33
0.0000000000
40
0.0000000000
40
0.0000000000
40
0.0000000000
40
0.0000000000
40
0.2172659026
40
0.4816028008
40
0.7552980278
40
1.0000000000
40
1.0000000000
40
1.0000000000
40
1.0000000000
10
15.6283094459
20
-26.7758348753
30
0.0000000000
10
15.6148016568
20
-26.7539344219
30
0.0000000000
10
15.5788203877
20
-26.7092150001
30
0.0000000000
10
15.5145539302
20
-26.6468273182
30
0.0000000000
10
15.4414637998
20
-26.5895514936
30
0.0000000000
10
15.3890652672
20
-26.5571011335
30
0.0000000000
10
15.3631444030
20
-26.5441407014
30
0.0000000000
11
15.6283094459
21
-26.7758348753
31
0.0000000000
11
15.5813201207
21
-26.7145909749
31
0.0000000000
11
15.5142735325
21
-26.6488244720
31
0.0000000000
11
15.4376438108
21
-26.5889582676
31
0.0000000000
11
15.3631444030
21
-26.5441407014
31
0.0000000000
0
SPLINE
5
3AE
100
AcDbEntity
8
0
100
AcDbSpline
62
9
6
CONTINUOUS
70
0
71
3
72
10
73
6
74
4
42
0.0000001000
43
0.0000001000
44
0.0000000001
12
0.0044754092
22
-0.3069916472
32
0.0000000000
13
-0.2754857969
23
-0.1409940928
33
0.0000000000
40
0.0000000000
40
0.0000000000
40
0.0000000000
40
0.0000000000
40
0.4070828405
40
0.7511740722
40
1.0000000000
40
1.0000000000
40
1.0000000000
40
1.0000000000
10
16.3573640652
20
-25.0731204074
30
0.0000000000
10
16.3579713526
20
-25.1147774180
30
0.0000000000
10
16.3503841840
20
-25.1923781454
30
0.0000000000
10
16.3064985978
20
-25.2880115691
30
0.0000000000
10
16.2578243181
20
-25.3280295669
30
0.0000000000
10
16.2349749818
20
-25.3397238956
30
0.0000000000
11
16.3573640652
21
-25.0731204074
31
0.0000000000
11
16.3422945990
21
-25.1971929231
31
0.0000000000
11
16.2946882637
21
-25.2915028763
31
0.0000000000
11
16.2349749818
21
-25.3397238956
31
0.0000000000
0
SPLINE
5
3AF
100
AcDbEntity
8
0
100
AcDbSpline
62
9
6
CONTINUOUS
70
0
71
3
72
10
73
6
74
4
42
0.0000001000
43
0.0000001000
44
0.0000000001
12
0.7192221616
22
0.3678887543
32
0.0000000000
13
0.7194037252
23
0.3675335815
33
0.0000000000
40
0.0000000000
40
0.0000000000
40
0.0000000000
40
0.0000000000
40
0.3333528341
40
0.6667136362
40
1.0000000000
40
1.0000000000
40
1.0000000000
40
1.0000000000
10
16.6466872517
20
-24.9639443181
30
0.0000000000
10
16.7266055003
20
-24.9230653985
30
0.0000000000
10
16.8864507294
20
-24.8413199175
30
0.0000000000
10
17.1262219465
20
-24.7187499693
30
0.0000000000
10
17.2860781325
20
-24.6370652466
30
0.0000000000
10
17.3660006164
20
-24.5962339363
30
0.0000000000
11
16.6466872517
21
-24.9639443181
31
0.0000000000
11
16.8864521967
21
-24.8413275006
31
0.0000000000
11
17.1262431413
21
-24.7187473933
31
0.0000000000
11
17.3660006164
21
-24.5962339363
31
0.0000000000
0
SPLINE
5
3B0
100
AcDbEntity
8
0
100
AcDbSpline
62
9
6
CONTINUOUS
70
0
71
3
72
10
73
6
74
4
42
0.0000001000
43
0.0000001000
44
0.0000000001
12
0.0060821676
22
-0.3046038044
32
0.0000000000
13
-0.2728718649
23
-0.1410313809
33
0.0000000000
40
0.0000000000
40
0.0000000000
40
0.0000000000
40
0.0000000000
40
0.3983837583
40
0.7360706914
40
1.0000000000
40
1.0000000000
40
1.0000000000
40
1.0000000000
10
16.6466621140
20
-24.9639571736
30
0.0000000000
10
16.6474697929
20
-25.0044069098
30
0.0000000000
10
16.6407219758
20
-25.0798648496
30
0.0000000000
10
16.5990518274
20
-25.1753751446
30
0.0000000000
10
16.5510208854
20
-25.2168325365
30
0.0000000000
10
16.5270145912
20
-25.2292399748
30
0.0000000000
11
16.6466621140
21
-24.9639571736
31
0.0000000000
11
16.6331573791
21
-25.0845769217
31
0.0000000000
11
16.5887441491
21
-25.1773778486
31
0.0000000000
11
16.5270145912
21
-25.2292399748
31
0.0000000000
0
SPLINE
5
3B1
100
AcDbEntity
8
0
100
AcDbSpline
62
9
6
CONTINUOUS
70
0
71
3
72
15
73
11
74
9
42
0.0000001000
43
0.0000001000
44
0.0000000001
12
0.2888898958
22
0.1475901566
32
0.0000000000
13
0.2897264966
23
0.1459410271
33
0.0000000000
40
0.0000000000
40
0.0000000000
40
0.0000000000
40
0.0000000000
40
0.0723147506
40
0.1540582560
40
0.2481995915
40
0.3578136713
40
0.4862746641
40
0.6359843930
40
0.8080614977
40
1.0000000000
40
1.0000000000
40
1.0000000000
40
1.0000000000
10
17.3660006164
20
-24.5962339363
30
0.0000000000
10
17.3729642833
20
-24.5926762878
30
0.0000000000
10
17.3876484469
20
-24.5847976980
30
0.0000000000
10
17.4107894123
20
-24.5711907865
30
0.0000000000
10
17.4368761139
20
-24.5546716243
30
0.0000000000
10
17.4667382143
20
-24.5346976529
30
0.0000000000
10
17.5013655622
20
-24.5110479069
30
0.0000000000
10
17.5418007843
20
-24.4839225204
30
0.0000000000
10
17.5888513800
20
-24.4543651250
30
0.0000000000
10
17.6233116014
20
-24.4352608399
30
0.0000000000
10
17.6418481580
20
-24.4259236058
30
0.0000000000
11
17.3660006164
21
-24.5962339363
31
0.0000000000
11
17.3866791227
21
-24.5851548998
31
0.0000000000
11
17.4095627208
21
-24.5717550415
31
0.0000000000
11
17.4353977484
21
-24.5554684692
31
0.0000000000
11
17.4650142239
21
-24.5357872183
31
0.0000000000
11
17.4994984843
21
-24.5123877771
31
0.0000000000
11
17.5399160596
21
-24.4854588130
31
0.0000000000
11
17.5872828577
21
-24.4559189193
31
0.0000000000
11
17.6418481580
21
-24.4259236058
31
0.0000000000
0
SPLINE
5
3B2
100
AcDbEntity
8
0
100
AcDbSpline
62
9
6
CONTINUOUS
70
0
71
3
72
10
73
6
74
4
42
0.0000001000
43
0.0000001000
44
0.0000000001
12
0.0059457481
22
-0.3046244240
32
0.0000000000
13
-0.2729100050
23
-0.1415608566
33
0.0000000000
40
0.0000000000
40
0.0000000000
40
0.0000000000
40
0.0000000000
40
0.4063351482
40
0.7495864993
40
1.0000000000
40
1.0000000000
40
1.0000000000
40
1.0000000000
10
17.3660407014
20
-24.5962124597
30
0.0000000000
10
17.3668460235
20
-24.6374723299
30
0.0000000000
10
17.3597926501
20
-24.7143420884
30
0.0000000000
10
17.3169481378
20
-24.8095667302
30
0.0000000000
10
17.2690114192
20
-24.8497165782
30
0.0000000000
10
17.2462313026
20
-24.8615328281
30
0.0000000000
11
17.3660407014
21
-24.5962124597
31
0.0000000000
11
17.3518345033
21
-24.7191978767
31
0.0000000000
11
17.3054482202
21
-24.8129307185
31
0.0000000000
11
17.2462313026
21
-24.8615328281
31
0.0000000000
0
SPLINE
5
3B3
100
AcDbEntity
8
0
100
AcDbSpline
62
9
6
CONTINUOUS
70
0
71
3
72
10
73
6
74
4
42
0.0000001000
43
0.0000001000
44
0.0000000001
12
0.0044713289
22
-0.3070005328
32
0.0000000000
13
-0.2754927929
23
-0.1409964623
33
0.0000000000
40
0.0000000000
40
0.0000000000
40
0.0000000000
40
0.0000000000
40
0.4070488826
40
0.7511225562
40
1.0000000000
40
1.0000000000
40
1.0000000000
40
1.0000000000
10
17.6418481580
20
-24.4259236058
30
0.0000000000
10
17.6424548411
20
-24.4675783471
30
0.0000000000
10
17.6348673782
20
-24.5451757821
30
0.0000000000
10
17.5909834198
20
-24.6408123608
30
0.0000000000
10
17.5423066080
20
-24.6808361916
30
0.0000000000
10
17.5194519607
20
-24.6925331379
30
0.0000000000
11
17.6418481580
21
-24.4259236058
31
0.0000000000
11
17.6267792212
21
-24.5499893020
31
0.0000000000
11
17.5791772486
21
-24.6442988202
31
0.0000000000
11
17.5194519607
21
-24.6925331379
31
0.0000000000
0
SPLINE
5
3B4
100
AcDbEntity
8
0
100
AcDbSpline
62
9
6
CONTINUOUS
70
0
71
3
72
11
73
7
74
5
42
0.0000001000
43
0.0000001000
44
0.0000000001
12
-0.1865148844
22
0.3024003765
32
0.0000000000
13
-0.3177845683
23
0.1588922841
33
0.0000000000
40
0.0000000000
40
0.0000000000
40
0.0000000000
40
0.0000000000
40
0.2184918121
40
0.4825008070
40
0.7557136777
40
1.0000000000
40
1.0000000000
40
1.0000000000
40
1.0000000000
10
16.1586395318
20
-26.1356698323
30
0.0000000000
10
16.1450555401
20
-26.1136458302
30
0.0000000000
10
16.1089791260
20
-26.0688615947
30
0.0000000000
10
16.0446534367
20
-26.0064677772
30
0.0000000000
10
15.9716627326
20
-25.9493007388
30
0.0000000000
10
15.9193512967
20
-25.9169140624
30
0.0000000000
10
15.8934744889
20
-25.9039756585
30
0.0000000000
11
16.1586395318
21
-26.1356698323
31
0.0000000000
11
16.1113584509
21
-26.0741009045
31
0.0000000000
11
16.0443628365
21
-26.0084489632
31
0.0000000000
11
15.9678521637
21
-25.9487089212
31
0.0000000000
11
15.8934744889
21
-25.9039756585
31
0.0000000000
0
SPLINE
5
3B5
100
AcDbEntity
8
0
100
AcDbSpline
62
9
6
CONTINUOUS
70
0
71
3
72
10
73
6
74
4
42
0.0000001000
43
0.0000001000
44
0.0000000001
12
-0.1608200954
22
-0.1941270278
32
0.0000000000
13
0.0000000000
23
-0.2520880918
33
0.0000000000
40
0.0000000000
40
0.0000000000
40
0.0000000000
40
0.0000000000
40
0.3423995913
40
0.6856738510
40
1.0000000000
40
1.0000000000
40
1.0000000000
40
1.0000000000
10
15.3631444030
20
-26.5441407014
30
0.0000000000
10
15.3447894913
20
-26.5662970398
30
0.0000000000
10
15.3131698334
20
-26.6151279552
30
0.0000000000
10
15.2828543107
20
-26.6940630994
30
0.0000000000
10
15.2747560553
20
-26.7494222489
30
0.0000000000
10
15.2747560553
20
-26.7758348753
30
0.0000000000
11
15.3631444030
21
-26.5441407014
31
0.0000000000
11
15.3159115375
21
-26.6163855034
31
0.0000000000
11
15.2852023221
21
-26.6972886023
31
0.0000000000
11
15.2747560553
21
-26.7758348753
31
0.0000000000
0
SPLINE
5
3B6
100
AcDbEntity
8
0
100
AcDbSpline
62
9
6
CONTINUOUS
70
0
71
3
72
9
73
5
74
3
42
0.0000001000
43
0.0000001000
44
0.0000000001
12
4.1986100827
22
0.2962079228
32
0.0000000000
13
4.1986100827
23
0.2962079228
33
0.0000000000
40
0.0000000000
40
0.0000000000
40
0.0000000000
40
0.0000000000
40
0.1652761986
40
1.0000000000
40
1.0000000000
40
1.0000000000
40
1.0000000000
10
18.2799598754
20
-16.9363610827
30
0.0000000000
10
18.5112699800
20
-16.9200423763
30
0.0000000000
10
19.9108066742
20
-16.8213064020
30
0.0000000000
10
21.3103433684
20
-16.7225704277
30
0.0000000000
10
22.4785699581
20
-16.6401531599
30
0.0000000000
11
18.2799598754
21
-16.9363610827
31
0.0000000000
11
18.9738901891
21
-16.8874049633
31
0.0000000000
11
22.4785699581
21
-16.6401531599
31
0.0000000000
0
SPLINE
5
3B7
100
AcDbEntity
8
0
100
AcDbSpline
62
9
6
CONTINUOUS
70
0
71
3
72
10
73
6
74
4
42
0.0000001000
43
0.0000001000
44
0.0000000001
12
-0.1608200954
22
-0.1941270278
32
0.0000000000
13
-0.0000000000
23
-0.2520880918
33
0.0000000000
40
0.0000000000
40
0.0000000000
40
0.0000000000
40
0.0000000000
40
0.3423995913
40
0.6856738510
40
1.0000000000
40
1.0000000000
40
1.0000000000
40
1.0000000000
10
14.0196415187
20
-25.8723892593
30
0.0000000000
10
14.0012866071
20
-25.8945455976
30
0.0000000000
10
13.9696669491
20
-25.9433765131
30
0.0000000000
10
13.9393514265
20
-26.0223116572
30
0.0000000000
10
13.9312531711
20
-26.0776708068
30
0.0000000000
10
13.9312531711
20
-26.1040834331
30
0.0000000000
11
14.0196415187
21
-25.8723892593
31
0.0000000000
11
13.9724086533
21
-25.9446340612
31
0.0000000000
11
13.9416994378
21
-26.0255371602
31
0.0000000000
11
13.9312531711
21
-26.1040834331
31
0.0000000000
0
SPLINE
5
3B8
100
AcDbEntity
8
0
100
AcDbSpline
62
7
6
CONTINUOUS
70
0
71
3
72
10
73
6
74
4
42
0.0000001000
43
0.0000001000
44
0.0000000001
12
-0.5509876298
22
0.2755683034
32
0.0000000000
13
-0.5579181128
23
-0.2576650733
33
0.0000000000
40
0.0000000000
40
0.0000000000
40
0.0000000000
40
0.0000000000
40
0.3656536120
40
0.7099974045
40
1.0000000000
40
1.0000000000
40
1.0000000000
40
1.0000000000
10
22.6514681305
20
18.5241311804
30
0.0000000000
10
22.5843112582
20
18.5577186956
30
0.0000000000
10
22.4479013860
20
18.6112520453
30
0.0000000000
10
22.2414440218
20
18.6364579569
30
0.0000000000
10
22.1114744361
20
18.6061975424
30
0.0000000000
10
22.0575418692
20
18.5812896957
30
0.0000000000
11
22.6514681305
21
18.5241311804
31
0.0000000000
11
22.4411086311
21
18.6034066551
31
0.0000000000
11
22.2305183397
21
18.6241994156
31
0.0000000000
11
22.0575418692
21
18.5812896957
31
0.0000000000
0
SPLINE
5
3B9
100
AcDbEntity
8
0
100
AcDbSpline
62
9
6
CONTINUOUS
70
0
71
3
72
11
73
7
74
5
42
0.0000001000
43
0.0000001000
44
0.0000000001
12
-0.3249561016
22
-0.1624780508
32
0.0000000000
13
-0.3249561016
23
0.1624780508
33
0.0000000000
40
0.0000000000
40
0.0000000000
40
0.0000000000
40
0.0000000000
40
0.2314751089
40
0.4973489063
40
0.7635187405
40
1.0000000000
40
1.0000000000
40
1.0000000000
40
1.0000000000
10
15.6283094459
20
-27.1271488473
30
0.0000000000
10
15.6032363629
20
-27.1396853888
30
0.0000000000
10
15.5450202194
20
-27.1579073696
30
0.0000000000
10
15.4524690890
20
-27.1667962731
30
0.0000000000
10
15.3592936768
20
-27.1581980029
30
0.0000000000
10
15.3003713981
20
-27.1399565187
30
0.0000000000
10
15.2747560553
20
-27.1271488473
30
0.0000000000
11
15.6283094459
21
-27.1271488473
31
0.0000000000
11
15.5485981246
21
-27.1539541553
31
0.0000000000
11
15.4525019562
21
-27.1637595603
31
0.0000000000
11
15.3562603301
21
-27.1543277592
31
0.0000000000
11
15.2747560553
21
-27.1271488473
31
0.0000000000
0
SPLINE
5
3BA
100
AcDbEntity
8
0
100
AcDbSpline
62
9
6
CONTINUOUS
70
0
71
3
72
11
73
7
74
5
42
0.0000001000
43
0.0000001000
44
0.0000000001
12
-0.3249549290
22
-0.1624774645
32
0.0000000000
13
-0.3249549290
23
0.1624774645
33
0.0000000000
40
0.0000000000
40
0.0000000000
40
0.0000000000
40
0.0000000000
40
0.2353701082
40
0.5000000000
40
0.7646298918
40
1.0000000000
40
1.0000000000
40
1.0000000000
40
1.0000000000
10
15.6283094459
20
-26.7758348753
30
0.0000000000
10
15.6028145537
20
-26.7885823214
30
0.0000000000
10
15.5442219557
20
-26.8067664472
30
0.0000000000
10
15.4515327506
20
-26.8154527658
30
0.0000000000
10
15.3588435456
20
-26.8067664472
30
0.0000000000
10
15.3002509476
20
-26.7885823214
30
0.0000000000
10
15.2747560553
20
-26.7758348753
30
0.0000000000
11
15.6283094459
21
-26.7758348753
31
0.0000000000
11
15.5472036087
21
-26.8029314692
31
0.0000000000
11
15.4515327506
21
-26.8124465276
31
0.0000000000
11
15.3558618925
21
-26.8029314692
31
0.0000000000
11
15.2747560553
21
-26.7758348753
31
0.0000000000
0
SPLINE
5
3BB
100
AcDbEntity
8
0
100
AcDbSpline
62
9
6
CONTINUOUS
70
0
71
3
72
9
73
5
74
3
42
0.0000001000
43
0.0000001000
44
0.0000000001
12
4.0294020544
22
3.8160788615
32
0.0000000000
13
4.0294020544
23
3.8160788615
33
0.0000000000
40
0.0000000000
40
0.0000000000
40
0.0000000000
40
0.0000000000
40
0.1722166973
40
1.0000000000
40
1.0000000000
40
1.0000000000
40
1.0000000000
10
18.2799598754
20
12.2998280005
30
0.0000000000
10
18.5112699800
20
12.5188921665
30
0.0000000000
10
19.8544039981
20
13.7909184537
30
0.0000000000
10
21.1975380163
20
15.0629447408
30
0.0000000000
10
22.3093619298
20
16.1159068620
30
0.0000000000
11
18.2799598754
21
12.2998280005
31
0.0000000000
11
18.9738901891
21
12.9570204985
31
0.0000000000
11
22.3093619298
21
16.1159068620
31
0.0000000000
0
SPLINE
5
3BC
100
AcDbEntity
8
0
100
AcDbSpline
62
9
6
CONTINUOUS
70
0
71
3
72
8
73
4
74
2
42
0.0000001000
43
0.0000001000
44
0.0000000001
12
0.1692080283
22
0.1602498761
32
0.0000000000
13
0.1692080283
23
0.1602498761
33
0.0000000000
40
0.0000000000
40
0.0000000000
40
0.0000000000
40
0.0000000000
40
1.0000000000
40
1.0000000000
40
1.0000000000
40
1.0000000000
10
22.3093619298
20
16.1159068620
30
0.0000000000
10
22.3657646059
20
16.1693234874
30
0.0000000000
10
22.4221672820
20
16.2227401127
30
0.0000000000
10
22.4785699581
20
16.2761567381
30
0.0000000000
11
22.3093619298
21
16.1159068620
31
0.0000000000
11
22.4785699581
21
16.2761567381
31
0.0000000000
0
SPLINE
5
3BD
100
AcDbEntity
8
0
100
AcDbSpline
62
7
6
CONTINUOUS
70
0
71
3
72
15
73
11
74
9
42
0.0000001000
43
0.0000001000
44
0.0000000001
12
-0.6563339422
22
-0.3178567338
32
0.0000000000
13
-0.6522620007
23
0.3261310003
33
0.0000000000
40
0.0000000000
40
0.0000000000
40
0.0000000000
40
0.0000000000
40
0.1116241460
40
0.2340492219
40
0.3642315565
40
0.4985371605
40
0.6330449557
40
0.7638178300
40
0.8871770791
40
1.0000000000
40
1.0000000000
40
1.0000000000
40
1.0000000000
10
12.4503898561
20
16.1088839439
30
0.0000000000
10
12.4259689508
20
16.0970571150
30
0.0000000000
10
12.3726940206
20
16.0764542986
30
0.0000000000
10
12.2866120266
20
16.0550118244
30
0.0000000000
10
12.1932685942
20
16.0421773028
30
0.0000000000
10
12.0962021775
20
16.0384560832
30
0.0000000000
10
11.9990789102
20
16.0439895166
30
0.0000000000
10
11.9055696430
20
16.0585698355
30
0.0000000000
10
11.8192238033
20
16.0816268841
30
0.0000000000
10
11.7657826637
20
16.1031996365
30
0.0000000000
10
11.7412526290
20
16.1154646538
30
0.0000000000
11
12.4503898561
21
16.1088839439
31
0.0000000000
11
12.3746885552
21
16.0789573088
31
0.0000000000
11
12.2881538602
21
16.0569932819
31
0.0000000000
11
12.1941335787
21
16.0438419888
31
0.0000000000
11
12.0962659446
21
16.0400130224
31
0.0000000000
11
11.9983384072
21
16.0456554379
31
0.0000000000
11
11.9041427264
21
16.0605516588
31
0.0000000000
11
11.8173265581
21
16.0841255954
31
0.0000000000
11
11.7412526290
21
16.1154646538
31
0.0000000000
0
SPLINE
5
3BE
100
AcDbEntity
8
0
100
AcDbSpline
62
7
6
CONTINUOUS
70
0
71
3
72
15
73
11
74
9
42
0.0000001000
43
0.0000001000
44
0.0000000001
12
0.6530083801
22
-0.3265041900
32
0.0000000000
13
0.6514917591
23
0.3295199817
33
0.0000000000
40
0.0000000000
40
0.0000000000
40
0.0000000000
40
0.0000000000
40
0.1126087417
40
0.2356635914
40
0.3661332835
40
0.5004165574
40
0.6346426413
40
0.7649447023
40
0.8877336614
40
1.0000000000
40
1.0000000000
40
1.0000000000
40
1.0000000000
10
11.7412526290
20
17.3127836894
30
0.0000000000
10
11.7657641130
20
17.3005279475
30
0.0000000000
10
11.8191956291
20
17.2790665478
30
0.0000000000
10
11.9055633484
20
17.2564416833
30
0.0000000000
10
11.9990917461
20
17.2425616477
30
0.0000000000
10
12.0962342285
20
17.2379694198
30
0.0000000000
10
12.1933226014
20
17.2428372715
30
0.0000000000
10
12.2866912048
20
17.2569824020
30
0.0000000000
10
12.3728001748
20
17.2798516619
30
0.0000000000
10
12.4260096580
20
17.3014734426
30
0.0000000000
10
12.4503898561
20
17.3138047766
30
0.0000000000
11
11.7412526290
21
17.3127836894
31
0.0000000000
11
11.8173202826
21
17.2815930401
31
0.0000000000
11
11.9041296471
21
17.2584529850
31
0.0000000000
11
11.9983202574
21
17.2442592954
31
0.0000000000
11
12.0962459142
21
17.2395614214
31
0.0000000000
11
12.1941158316
21
17.2445412216
31
0.0000000000
11
12.2881413809
21
17.2590059237
31
0.0000000000
11
12.3746827527
21
17.2823955866
31
0.0000000000
11
12.4503898561
21
17.3138047766
31
0.0000000000
0
SPLINE
5
3BF
100
AcDbEntity
8
0
100
AcDbSpline
62
7
6
CONTINUOUS
70
0
71
3
72
11
73
7
74
5
42
0.0000001000
43
0.0000001000
44
0.0000000001
12
-0.2135511355
22
0.1067755677
32
0.0000000000
13
-0.0000387367
23
0.2398394103
33
0.0000000000
40
0.0000000000
40
0.0000000000
40
0.0000000000
40
0.0000000000
40
0.3057112858
40
0.5702352185
40
0.7980365643
40
1.0000000000
40
1.0000000000
40
1.0000000000
40
1.0000000000
10
6.2217587766
20
18.8752115800
30
0.0000000000
10
6.1999971125
20
18.8860924121
30
0.0000000000
10
6.1607149522
20
18.9093268840
30
0.0000000000
10
6.1130222539
20
18.9520548210
30
0.0000000000
10
6.0825903540
20
18.9992725521
30
0.0000000000
10
6.0753148167
20
19.0336326750
30
0.0000000000
10
6.0753122089
20
19.0497789387
30
0.0000000000
11
6.2217587766
21
18.8752115800
31
0.0000000000
11
6.1593732210
21
18.9131022811
31
0.0000000000
11
6.1130918192
21
18.9560772190
31
0.0000000000
11
6.0847062875
21
19.0024717613
31
0.0000000000
11
6.0753122089
21
19.0497789387
31
0.0000000000
0
SPLINE
5
3C0
100
AcDbEntity
8
0
100
AcDbSpline
62
7
6
CONTINUOUS
70
0
71
3
72
12
73
8
74
6
42
0.0000001000
43
0.0000001000
44
0.0000000001
12
0.0313238515
22
-0.2919627047
32
0.0000000000
13
-0.2680364497
23
-0.1240211512
33
0.0000000000
40
0.0000000000
40
0.0000000000
40
0.0000000000
40
0.0000000000
40
0.2613584604
40
0.4933668909
40
0.6987859377
40
0.8862491261
40
1.0000000000
40
1.0000000000
40
1.0000000000
40
1.0000000000
10
14.3046507530
20
-20.5045860642
30
0.0000000000
10
14.3073796709
20
-20.5300217051
30
0.0000000000
10
14.3090349006
20
-20.5785572074
30
0.0000000000
10
14.2981828728
20
-20.6466126725
30
0.0000000000
10
14.2736688897
20
-20.7035426884
30
0.0000000000
10
14.2400159553
20
-20.7413512828
30
0.0000000000
10
14.2144443628
20
-20.7567081877
30
0.0000000000
10
14.2042812360
20
-20.7614106925
30
0.0000000000
11
14.3046507530
21
-20.5045860642
31
0.0000000000
11
14.3065187075
21
-20.5813081612
31
0.0000000000
11
14.2948535992
21
-20.6484285834
31
0.0000000000
11
14.2700436068
21
-20.7034088705
31
0.0000000000
11
14.2329647080
21
-20.7440937165
31
0.0000000000
11
14.2042812360
21
-20.7614106925
31
0.0000000000
0
SPLINE
5
3C1
100
AcDbEntity
8
0
100
AcDbSpline
62
7
6
CONTINUOUS
70
0
71
3
72
12
73
8
74
6
42
0.0000001000
43
0.0000001000
44
0.0000000001
12
-0.0615123252
22
-1.3911694152
32
0.0000000000
13
1.2494727809
23
-0.6223245363
33
0.0000000000
40
0.0000000000
40
0.0000000000
40
0.0000000000
40
0.0000000000
40
0.1981296126
40
0.4460146154
40
0.6808079301
40
0.9071084374
40
1.0000000000
40
1.0000000000
40
1.0000000000
40
1.0000000000
10
-23.2108195255
20
-11.6894804144
30
0.0000000000
10
-23.2148819965
20
-11.7813577001
30
0.0000000000
10
-23.2062759949
20
-11.9893729630
30
0.0000000000
10
-23.1233629751
20
-12.2974135208
30
0.0000000000
10
-22.9514006112
20
-12.5826340503
30
0.0000000000
10
-22.7583850378
20
-12.7571647237
30
0.0000000000
10
-22.6294035538
20
-12.8315401974
30
0.0000000000
10
-22.5907150608
20
-12.8508097636
30
0.0000000000
11
-23.2108195255
21
-11.6894804144
31
0.0000000000
11
-23.1982154527
21
-11.9649422634
31
0.0000000000
11
-23.1063949322
21
-12.2969507416
31
0.0000000000
11
-22.9366837689
21
-12.5756189230
31
0.0000000000
11
-22.7029710949
21
-12.7860329072
31
0.0000000000
11
-22.5907150608
21
-12.8508097636
31
0.0000000000
0
SPLINE
5
3C2
100
AcDbEntity
8
0
100
AcDbSpline
62
7
6
CONTINUOUS
70
0
71
3
72
11
73
7
74
5
42
0.0000001000
43
0.0000001000
44
0.0000000001
12
-5.2836738151
22
-36.5235198577
32
0.0000000000
13
-1.6358080307
23
-36.8674479545
33
0.0000000000
40
0.0000000000
40
0.0000000000
40
0.0000000000
40
0.0000000000
40
0.2530298942
40
0.5057698498
40
0.7555433277
40
1.0000000000
40
1.0000000000
40
1.0000000000
40
1.0000000000
10
-19.7050865500
20
25.0332649188
30
0.0000000000
10
-20.1507290255
20
21.9527507969
30
0.0000000000
10
-20.9692925697
20
15.7845406655
30
0.0000000000
10
-21.9685863055
20
6.5433905781
30
0.0000000000
10
-22.7287002279
20
-2.6147032781
30
0.0000000000
10
-23.0775156609
20
-8.6851208892
30
0.0000000000
10
-23.2108103902
20
-11.6892854371
30
0.0000000000
11
-19.7050865500
21
25.0332649188
31
0.0000000000
11
-20.9323128667
21
15.7765176236
31
0.0000000000
11
-21.9337369169
21
6.5033966968
31
0.0000000000
11
-22.6947493653
21
-2.6826977289
31
0.0000000000
11
-23.2108103902
21
-11.6892854371
31
0.0000000000
0
SPLINE
5
3C3
100
AcDbEntity
8
0
100
AcDbSpline
62
7
6
CONTINUOUS
70
0
71
3
72
13
73
9
74
7
42
0.0000001000
43
0.0000001000
44
0.0000000001
12
-1.6901843826
22
-0.6547603542
32
0.0000000000
13
-0.2591172546
23
-1.7917694238
33
0.0000000000
40
0.0000000000
40
0.0000000000
40
0.0000000000
40
0.0000000000
40
0.1078561390
40
0.2868702525
40
0.4743367722
40
0.6674221553
40
0.8607315093
40
1.0000000000
40
1.0000000000
40
1.0000000000
40
1.0000000000
10
-18.6728117150
20
26.4262448099
30
0.0000000000
10
-18.7335773022
20
26.4027048353
30
0.0000000000
10
-18.8906728437
20
26.3276299558
30
0.0000000000
10
-19.1229219960
20
26.1573003969
30
0.0000000000
10
-19.3507144627
20
25.9056465125
30
0.0000000000
10
-19.5330372057
20
25.6094523096
30
0.0000000000
10
-19.6498066663
20
25.3131697416
30
0.0000000000
10
-19.6930723378
20
25.1163570047
30
0.0000000000
10
-19.7051012941
20
25.0331779969
30
0.0000000000
11
-18.6728117150
21
26.4262448099
31
0.0000000000
11
-18.8493538507
21
26.3423030784
31
0.0000000000
11
-19.1115658003
21
26.1524097187
31
0.0000000000
11
-19.3401733282
21
25.9020403795
31
0.0000000000
11
-19.5237443435
21
25.6049854490
31
0.0000000000
11
-19.6514689104
21
25.2795481447
31
0.0000000000
11
-19.7051012941
21
25.0331779969
31
0.0000000000
0
SPLINE
5
3C4
100
AcDbEntity
8
0
100
AcDbSpline
62
7
6
CONTINUOUS
70
0
71
3
72
11
73
7
74
5
42
0.0000001000
43
0.0000001000
44
0.0000000001
12
0.3316655202
22
0.1284668450
32
0.0000000000
13
0.3170596130
23
-0.1585298065
33
0.0000000000
40
0.0000000000
40
0.0000000000
40
0.0000000000
40
0.0000000000
40
0.0538060228
40
0.3519059774
40
0.6641251165
40
1.0000000000
40
1.0000000000
40
1.0000000000
40
1.0000000000
10
-14.7034452882
20
27.9617647880
30
0.0000000000
10
-14.6974967540
20
27.9640688847
30
0.0000000000
10
-14.6581912433
20
27.9780939290
30
0.0000000000
10
-14.5796613627
20
27.9911974608
30
0.0000000000
10
-14.4673547142
20
27.9780006330
30
0.0000000000
10
-14.3950672583
20
27.9504904654
30
0.0000000000
10
-14.3595698048
20
27.9327417386
30
0.0000000000
11
-14.7034452882
21
27.9617647880
31
0.0000000000
11
-14.6854233127
21
27.9681921535
31
0.0000000000
11
-14.5812657465
21
27.9860153335
31
0.0000000000
11
-14.4712386083
21
27.9740437591
31
0.0000000000
11
-14.3595698048
21
27.9327417386
31
0.0000000000
0
SPLINE
5
3C5
100
AcDbEntity
8
0
100
AcDbSpline
62
7
6
CONTINUOUS
70
0
71
3
72
11
73
7
74
5
42
0.0000001000
43
0.0000001000
44
0.0000000001
12
0.7774915262
22
-0.3894602021
32
0.0000000000
13
0.8290134933
23
0.2592345118
33
0.0000000000
40
0.0000000000
40
0.0000000000
40
0.0000000000
40
0.0000000000
40
0.1068483821
40
0.4337386093
40
0.7719618731
40
1.0000000000
40
1.0000000000
40
1.0000000000
40
1.0000000000
10
7.4505334483
20
-27.8714594684
30
0.0000000000
10
7.4782246855
20
-27.8853305326
30
0.0000000000
10
7.5930831627
20
-27.9368086448
30
0.0000000000
10
7.8117928685
20
-27.9914259513
30
0.0000000000
10
8.0724980945
20
-27.9870547110
30
0.0000000000
10
8.2330002230
20
-27.9502508959
30
0.0000000000
10
8.2960157844
20
-27.9305457784
30
0.0000000000
11
7.4505334483
21
-27.8714594684
31
0.0000000000
11
7.5353009145
21
-27.9094313875
31
0.0000000000
11
7.8099599896
21
-27.9784709122
31
0.0000000000
11
8.1029530099
21
-27.9743741217
31
0.0000000000
11
8.2960157844
21
-27.9305457784
31
0.0000000000
0
SPLINE
5
3C6
100
AcDbEntity
8
0
100
AcDbSpline
62
7
6
CONTINUOUS
70
0
71
3
72
13
73
9
74
7
42
0.0000001000
43
0.0000001000
44
0.0000000001
12
-0.0572193381
22
-0.5993580627
32
0.0000000000
13
-0.5763944636
23
-0.1806317573
33
0.0000000000
40
0.0000000000
40
0.0000000000
40
0.0000000000
40
0.0000000000
40
0.2285281800
40
0.4404572605
40
0.6359987366
40
0.8182331489
40
0.9931595325
40
1.0000000000
40
1.0000000000
40
1.0000000000
40
1.0000000000
10
12.7027588145
20
-26.1709906204
30
0.0000000000
10
12.6984000708
20
-26.2166473562
30
0.0000000000
10
12.6832181285
20
-26.3042303465
30
0.0000000000
10
12.6387663583
20
-26.4247283057
30
0.0000000000
10
12.5746117679
20
-26.5254528914
30
0.0000000000
10
12.4925749138
20
-26.6021131592
30
0.0000000000
10
12.4263215050
20
-26.6353551640
30
0.0000000000
10
12.3914626563
20
-26.6465042929
30
0.0000000000
10
12.3901483871
20
-26.6469161615
30
0.0000000000
11
12.7027588145
21
-26.1709906204
31
0.0000000000
11
12.6784457167
21
-26.3064184564
31
0.0000000000
11
12.6333333877
21
-26.4257765949
31
0.0000000000
11
12.5691521659
21
-26.5244763874
31
0.0000000000
11
12.4883673526
21
-26.5987216030
31
0.0000000000
11
12.3940838427
21
-26.6456574189
31
0.0000000000
11
12.3901483871
21
-26.6469161615
31
0.0000000000
0
SPLINE
5
3C7
100
AcDbEntity
8
0
100
AcDbSpline
62
7
6
CONTINUOUS
70
0
71
3
72
9
73
5
74
3
42
0.0000001000
43
0.0000001000
44
0.0000000001
12
0.1558418443
22
-0.0779209222
32
0.0000000000
13
0.1315980651
23
-0.1145009960
33
0.0000000000
40
0.0000000000
40
0.0000000000
40
0.0000000000
40
0.0000000000
40
0.7406258212
40
1.0000000000
40
1.0000000000
40
1.0000000000
40
1.0000000000
10
15.8340620652
20
12.8359258037
30
0.0000000000
10
15.8725355631
20
12.8166890547
30
0.0000000000
10
15.9217350386
20
12.7850113926
30
0.0000000000
10
15.9666871753
20
12.7480772508
30
0.0000000000
10
15.9780648887
20
12.7381777169
30
0.0000000000
11
15.8340620652
21
12.8359258037
31
0.0000000000
11
15.9430825887
21
12.7668831467
31
0.0000000000
11
15.9780648887
21
12.7381777169
31
0.0000000000
0
SPLINE
5
3C8
100
AcDbEntity
8
0
100
AcDbSpline
62
7
6
CONTINUOUS
70
0
71
3
72
14
73
10
74
8
42
0.0000001000
43
0.0000001000
44
0.0000000001
12
0.7601258624
22
-0.6613711857
32
0.0000000000
13
-0.0956448159
23
-1.0018552022
33
0.0000000000
40
0.0000000000
40
0.0000000000
40
0.0000000000
40
0.0000000000
40
0.0931443261
40
0.2395943269
40
0.3920631465
40
0.5475651764
40
0.7028318075
40
0.8546159478
40
1.0000000000
40
1.0000000000
40
1.0000000000
40
1.0000000000
10
15.9780648887
20
12.7381777169
30
0.0000000000
10
16.0016653591
20
12.7176433924
30
0.0000000000
10
16.0592547991
20
12.6612840472
30
0.0000000000
10
16.1407577360
20
12.5574347806
30
0.0000000000
10
16.2173536618
20
12.4250904846
30
0.0000000000
10
16.2769124700
20
12.2810755612
30
0.0000000000
10
16.3172111825
20
12.1307568796
30
0.0000000000
10
16.3367443491
20
11.9797936727
30
0.0000000000
10
16.3353671990
20
11.8796614081
30
0.0000000000
10
16.3307321220
20
11.8311101518
30
0.0000000000
11
15.9780648887
21
12.7381777169
31
0.0000000000
11
16.0452659992
21
12.6727493741
31
0.0000000000
11
16.1366849442
21
12.5571378111
31
0.0000000000
11
16.2138240717
21
12.4244905708
31
0.0000000000
11
16.2737176405
21
12.2799061635
31
0.0000000000
11
16.3140639845
21
12.1289426995
31
0.0000000000
11
16.3333142982
21
11.9774033786
31
0.0000000000
11
16.3307321220
21
11.8311101518
31
0.0000000000
0
SPLINE
5
3C9
100
AcDbEntity
8
0
100
AcDbSpline
62
9
6
CONTINUOUS
70
0
71
3
72
11
73
7
74
5
42
0.0000001000
43
0.0000001000
44
0.0000000001
12
-0.9144611392
22
0.4609340848
32
0.0000000000
13
0.0435635520
23
1.0171971229
33
0.0000000000
40
0.0000000000
40
0.0000000000
40
0.0000000000
40
0.0000000000
40
0.1798843526
40
0.4217709662
40
0.6938543084
40
1.0000000000
40
1.0000000000
40
1.0000000000
40
1.0000000000
10
7.4504202103
20
-27.8713557026
30
0.0000000000
10
7.3955877936
20
-27.8437174261
30
0.0000000000
10
7.2771634691
20
-27.7581088322
30
0.0000000000
10
7.1429046943
20
-27.5587880724
30
0.0000000000
10
7.0636146899
20
-27.2886244692
30
0.0000000000
10
7.0541428436
20
-27.0909058186
30
0.0000000000
10
7.0585884416
20
-26.9871023131
30
0.0000000000
11
7.4504202103
21
-27.8713557026
31
0.0000000000
11
7.3012686601
21
-27.7642267913
31
0.0000000000
11
7.1597689309
21
-27.5626637015
31
0.0000000000
11
7.0771886050
21
-27.2982428181
31
0.0000000000
11
7.0585884416
21
-26.9871023131
31
0.0000000000
0
SPLINE
5
3CA
100
AcDbEntity
8
0
100
AcDbSpline
62
9
6
CONTINUOUS
70
0
71
3
72
11
73
7
74
5
42
0.0000001000
43
0.0000001000
44
0.0000000001
12
0.5791545650
22
0.1797288435
32
0.0000000000
13
0.0651404933
23
0.5988775896
33
0.0000000000
40
0.0000000000
40
0.0000000000
40
0.0000000000
40
0.0000000000
40
0.0413208253
40
0.3247167438
40
0.6408842523
40
1.0000000000
40
1.0000000000
40
1.0000000000
40
1.0000000000
10
8.2965938162
20
-27.9303399349
30
0.0000000000
10
8.3045708645
20
-27.9278644201
30
0.0000000000
10
8.3665247180
20
-27.9061711260
30
0.0000000000
10
8.4748072729
20
-27.8282706722
30
0.0000000000
10
8.5746987385
20
-27.6590338959
30
0.0000000000
10
8.6052709718
20
-27.5249430626
30
0.0000000000
10
8.6130686308
20
-27.4532542714
30
0.0000000000
11
8.2965938162
21
-27.9303399349
31
0.0000000000
11
8.3202235423
21
-27.9220555380
31
0.0000000000
11
8.4605953156
21
-27.8248894233
31
0.0000000000
11
8.5615012012
21
-27.6633532399
31
0.0000000000
11
8.6130686308
21
-27.4532542714
31
0.0000000000
0
SPLINE
5
3CB
100
AcDbEntity
8
0
100
AcDbSpline
62
9
6
CONTINUOUS
70
0
71
3
72
13
73
9
74
7
42
0.0000001000
43
0.0000001000
44
0.0000000001
12
-0.6978865498
22
-0.2185389104
32
0.0000000000
13
0.0308130877
23
0.7306541215
33
0.0000000000
40
0.0000000000
40
0.0000000000
40
0.0000000000
40
0.0000000000
40
0.1656836564
40
0.3171911292
40
0.4654884906
40
0.6239766459
40
0.8016431576
40
1.0000000000
40
1.0000000000
40
1.0000000000
40
1.0000000000
10
8.6130686308
20
-27.4532542714
30
0.0000000000
10
8.5745258323
20
-27.4653237133
30
0.0000000000
10
8.4969952307
20
-27.4791707375
30
0.0000000000
10
8.3825108430
20
-27.4588403066
30
0.0000000000
10
8.2868604022
20
-27.3952776427
30
0.0000000000
10
8.2191678329
20
-27.2955581358
30
0.0000000000
10
8.1817238150
20
-27.1691555291
30
0.0000000000
10
8.1772036365
20
-27.0768006928
30
0.0000000000
10
8.1792409654
20
-27.0284906114
30
0.0000000000
11
8.6130686308
21
-27.4532542714
31
0.0000000000
11
8.4933989677
21
-27.4722316364
31
0.0000000000
11
8.3845721778
21
-27.4514249942
31
0.0000000000
11
8.2939322032
21
-27.3918776886
31
0.0000000000
11
8.2270541345
21
-27.2972160907
31
0.0000000000
11
8.1880447245
21
-27.1732822754
31
0.0000000000
11
8.1792409654
21
-27.0284906114
31
0.0000000000
0
SPLINE
5
3CC
100
AcDbEntity
8
0
100
AcDbSpline
62
9
6
CONTINUOUS
70
0
71
3
72
11
73
7
74
5
42
0.0000001000
43
0.0000001000
44
0.0000000001
12
1.5655228890
22
36.8906248438
32
0.0000000000
13
5.3565420164
23
36.5332248906
33
0.0000000000
40
0.0000000000
40
0.0000000000
40
0.0000000000
40
0.0000000000
40
0.2456468227
40
0.4942756109
40
0.7457688452
40
1.0000000000
40
1.0000000000
40
1.0000000000
40
1.0000000000
10
7.0585884416
20
-26.9871023131
30
0.0000000000
10
7.1867770161
20
-23.9664140524
30
0.0000000000
10
7.5273820452
20
-17.8915841253
30
0.0000000000
10
8.2827351290
20
-8.7428377499
30
0.0000000000
10
9.2848162265
20
0.4884403163
30
0.0000000000
10
10.1122769001
20
6.6583850422
30
0.0000000000
10
10.5662101876
20
9.7543463591
30
0.0000000000
11
7.0585884416
21
-26.9871023131
31
0.0000000000
11
7.5648516115
21
-17.9310211234
31
0.0000000000
11
8.3188361463
21
-8.7817094944
31
0.0000000000
11
9.3196733433
21
0.4502917029
31
0.0000000000
11
10.5662101876
21
9.7543463591
31
0.0000000000
0
SPLINE
5
3CD
100
AcDbEntity
8
0
100
AcDbSpline
62
9
6
CONTINUOUS
70
0
71
3
72
11
73
7
74
5
42
0.0000001000
43
0.0000001000
44
0.0000000001
12
1.5612590336
22
36.7922551525
32
0.0000000000
13
5.3423463572
23
36.4357915294
33
0.0000000000
40
0.0000000000
40
0.0000000000
40
0.0000000000
40
0.0000000000
40
0.2456464007
40
0.4942759179
40
0.7457697714
40
1.0000000000
40
1.0000000000
40
1.0000000000
40
1.0000000000
10
8.1792409654
20
-27.0284906114
30
0.0000000000
10
8.3070801862
20
-24.0158622602
30
0.0000000000
10
8.6467645639
20
-17.9572270892
30
0.0000000000
10
9.4000985928
20
-8.8328650755
30
0.0000000000
10
10.3995140349
20
0.3738012425
30
0.0000000000
10
11.2247804082
20
6.5272876608
30
0.0000000000
10
11.6775090534
20
9.6149808644
30
0.0000000000
11
8.1792409654
21
-27.0284906114
31
0.0000000000
11
8.6841355085
21
-17.9965731218
31
0.0000000000
11
9.4361055278
21
-8.8716320177
31
0.0000000000
11
10.4342825983
21
0.3357728759
31
0.0000000000
11
11.6775090534
21
9.6149808644
31
0.0000000000
0
SPLINE
5
3CE
100
AcDbEntity
8
0
100
AcDbSpline
62
9
6
CONTINUOUS
70
0
71
3
72
12
73
8
74
6
42
0.0000001000
43
0.0000001000
44
0.0000000001
12
1.0277849140
22
-0.5123381320
32
0.0000000000
13
1.0597600208
23
0.4424261398
33
0.0000000000
40
0.0000000000
40
0.0000000000
40
0.0000000000
40
0.0000000000
40
0.1858283133
40
0.3939327078
40
0.6094748107
40
0.8163737158
40
1.0000000000
40
1.0000000000
40
1.0000000000
40
1.0000000000
10
7.0585884652
20
-26.9871023028
30
0.0000000000
10
7.1222523109
20
-27.0188379465
30
0.0000000000
10
7.2654009081
20
-27.0698118768
30
0.0000000000
10
7.4956775558
20
-27.1115600443
30
0.0000000000
10
7.7377618490
20
-27.1205483374
30
0.0000000000
10
7.9691895697
20
-27.0959544496
30
0.0000000000
10
8.1143743671
20
-27.0555709674
30
0.0000000000
10
8.1792409654
20
-27.0284906114
30
0.0000000000
11
7.0585884652
21
-26.9871023028
31
0.0000000000
11
7.2585723669
21
-27.0615909999
31
0.0000000000
11
7.4934909984
21
-27.1055054765
31
0.0000000000
11
7.7408518108
21
-27.1146410886
31
0.0000000000
11
7.9769709646
21
-27.0881231365
31
0.0000000000
11
8.1792409654
21
-27.0284906114
31
0.0000000000
0
SPLINE
5
3CF
100
AcDbEntity
8
0
100
AcDbSpline
62
9
6
CONTINUOUS
70
0
71
3
72
13
73
9
74
7
42
0.0000001000
43
0.0000001000
44
0.0000000001
12
0.3001062108
22
2.0524883170
32
0.0000000000
13
1.9489639381
23
0.7101489966
33
0.0000000000
40
0.0000000000
40
0.0000000000
40
0.0000000000
40
0.0000000000
40
0.1710460531
40
0.3487413962
40
0.5264899595
40
0.6977350604
40
0.8568248360
40
1.0000000000
40
1.0000000000
40
1.0000000000
40
1.0000000000
10
10.5662101876
20
9.7543463591
30
0.0000000000
10
10.5833208485
20
9.8713697010
30
0.0000000000
10
10.6399300722
20
10.1071291746
30
0.0000000000
10
10.7795837380
20
10.4447318228
30
0.0000000000
10
10.9683686677
20
10.7578080008
30
0.0000000000
10
11.1954209517
20
11.0279956423
30
0.0000000000
10
11.4475158211
20
11.2396067794
30
0.0000000000
10
11.6340939208
20
11.3389389407
30
0.0000000000
10
11.7271083313
20
11.3728308404
30
0.0000000000
11
10.5662101876
21
9.7543463591
31
0.0000000000
11
10.6474857605
21
10.0997148820
31
0.0000000000
11
10.7878474747
21
10.4405393942
31
0.0000000000
11
10.9787065094
21
10.7560025180
31
0.0000000000
11
11.2084444625
21
11.0269245843
31
0.0000000000
11
11.4630951792
21
11.2368156635
31
0.0000000000
11
11.7271083313
21
11.3728308404
31
0.0000000000
0
SPLINE
5
3D0
100
AcDbEntity
8
0
100
AcDbSpline
62
9
6
CONTINUOUS
70
0
71
3
72
13
73
9
74
7
42
0.0000001000
43
0.0000001000
44
0.0000000001
12
0.1408713574
22
0.9591710811
32
0.0000000000
13
0.9131280144
23
0.3256549268
33
0.0000000000
40
0.0000000000
40
0.0000000000
40
0.0000000000
40
0.0000000000
40
0.1700688215
40
0.3477687952
40
0.5257155755
40
0.6973056234
40
0.8568821509
40
1.0000000000
40
1.0000000000
40
1.0000000000
40
1.0000000000
10
11.6775090534
20
9.6149808644
30
0.0000000000
10
11.6854949953
20
9.6693558961
30
0.0000000000
10
11.7119896031
20
9.7792152902
30
0.0000000000
10
11.7776113644
20
9.9365999242
30
0.0000000000
10
11.8666080364
20
10.0826829474
30
0.0000000000
10
11.9737409284
20
10.2085532478
30
0.0000000000
10
12.0925191234
20
10.3067248462
30
0.0000000000
10
12.1802167490
20
10.3524795109
30
0.0000000000
10
12.2237783881
20
10.3680151885
30
0.0000000000
11
11.6775090534
21
9.6149808644
31
0.0000000000
11
11.7154534717
21
9.7754302186
31
0.0000000000
11
11.7814849880
21
9.9345461176
31
0.0000000000
11
11.8714525498
21
10.0817411068
31
0.0000000000
11
11.9798257921
21
10.2079452851
31
0.0000000000
11
12.0999460388
21
10.3054347411
31
0.0000000000
11
12.2237783881
21
10.3680151885
31
0.0000000000
0
SPLINE
5
3D1
100
AcDbEntity
8
0
100
AcDbSpline
62
9
6
CONTINUOUS
70
0
71
3
72
12
73
8
74
6
42
0.0000001000
43
0.0000001000
44
0.0000000001
12
1.0170347552
22
-0.5101940497
32
0.0000000000
13
1.1035925083
23
0.2770220882
33
0.0000000000
40
0.0000000000
40
0.0000000000
40
0.0000000000
40
0.0000000000
40
0.1887944433
40
0.4003069144
40
0.6175748590
40
0.8228170148
40
1.0000000000
40
1.0000000000
40
1.0000000000
40
1.0000000000
10
10.5662246129
20
9.7543501673
30
0.0000000000
10
10.6302281164
20
9.7222429001
30
0.0000000000
10
10.7725808947
20
9.6673502427
30
0.0000000000
10
11.0005629243
20
9.6116876589
30
0.0000000000
10
11.2397204443
20
9.5814931505
30
0.0000000000
10
11.4676141622
20
9.5795468615
30
0.0000000000
10
11.6123297817
20
9.5986196642
30
0.0000000000
10
11.6775090534
20
9.6149808644
30
0.0000000000
11
10.5662246129
21
9.7543501673
31
0.0000000000
11
10.7657084561
21
9.6746499674
31
0.0000000000
11
10.9992781324
21
9.6166414648
31
0.0000000000
11
11.2445706707
21
9.5858786403
31
0.0000000000
11
11.4781007026
21
9.5853068585
31
0.0000000000
11
11.6775090534
21
9.6149808644
31
0.0000000000
0
SPLINE
5
3D2
100
AcDbEntity
8
0
100
AcDbSpline
62
9
6
CONTINUOUS
70
0
71
3
72
12
73
8
74
6
42
0.0000001000
43
0.0000001000
44
0.0000000001
12
1.0452541738
22
-0.5387131599
32
0.0000000000
13
-0.0961498263
23
-1.1719741325
33
0.0000000000
40
0.0000000000
40
0.0000000000
40
0.0000000000
40
0.0000000000
40
0.1779590051
40
0.3765675391
40
0.5874343441
40
0.7991210036
40
1.0000000000
40
1.0000000000
40
1.0000000000
40
1.0000000000
10
11.7271083313
20
11.3728308404
30
0.0000000000
10
11.7891124622
20
11.3408745544
30
0.0000000000
10
11.9086014256
20
11.2499728446
30
0.0000000000
10
12.0522548543
20
11.0677743448
30
0.0000000000
10
12.1602336800
20
10.8475673055
30
0.0000000000
10
12.2225686378
20
10.6097180754
30
0.0000000000
10
12.2302165483
20
10.4464901843
30
0.0000000000
10
12.2237783881
20
10.3680151885
30
0.0000000000
11
11.7271083313
21
11.3728308404
31
0.0000000000
11
11.8959293832
21
11.2491744590
31
0.0000000000
11
12.0424455542
21
11.0673042162
31
0.0000000000
11
12.1523203390
21
10.8450159929
31
0.0000000000
11
12.2148025648
21
10.6040605411
31
0.0000000000
11
12.2237783881
21
10.3680151885
31
0.0000000000
0
SPLINE
5
3D3
100
AcDbEntity
8
0
100
AcDbSpline
62
9
6
CONTINUOUS
70
0
71
3
72
13
73
9
74
7
42
0.0000001000
43
0.0000001000
44
0.0000000001
12
-1.9349519167
22
-0.7326828685
32
0.0000000000
13
-0.2974868586
23
-2.0475264772
33
0.0000000000
40
0.0000000000
40
0.0000000000
40
0.0000000000
40
0.0000000000
40
0.1422054771
40
0.3008482675
40
0.4721001511
40
0.6501914257
40
0.8284150698
40
1.0000000000
40
1.0000000000
40
1.0000000000
40
1.0000000000
10
-18.3248673214
20
26.3988186668
30
0.0000000000
10
-18.4165875749
20
26.3640881611
30
0.0000000000
10
-18.6004759049
20
26.2629821402
30
0.0000000000
10
-18.8484931747
20
26.0494354367
30
0.0000000000
10
-19.0720153509
20
25.7776228306
30
0.0000000000
10
-19.2580157882
20
25.4633169816
30
0.0000000000
10
-19.3957862570
20
25.1249465160
30
0.0000000000
10
-19.4518124575
20
24.8889732879
30
0.0000000000
10
-19.4688272115
20
24.7718650586
30
0.0000000000
11
-18.3248673214
21
26.3988186668
31
0.0000000000
11
-18.5846559379
21
26.2606912221
31
0.0000000000
11
-18.8353590276
21
26.0488263294
31
0.0000000000
11
-19.0616642110
21
25.7761878782
31
0.0000000000
11
-19.2498169584
21
25.4593716108
31
0.0000000000
11
-19.3883644263
21
25.1176399754
31
0.0000000000
11
-19.4688272115
21
24.7718650586
31
0.0000000000
0
SPLINE
5
3D4
100
AcDbEntity
8
0
100
AcDbSpline
62
9
6
CONTINUOUS
70
0
71
3
72
9
73
5
74
3
42
0.0000001000
43
0.0000001000
44
0.0000000001
12
-0.3207089170
22
0.1555872591
32
0.0000000000
13
-0.3343774325
23
-0.1293441320
33
0.0000000000
40
0.0000000000
40
0.0000000000
40
0.0000000000
40
0.0000000000
40
0.5267386757
40
1.0000000000
40
1.0000000000
40
1.0000000000
40
1.0000000000
10
-18.3248673214
20
26.3988186668
30
0.0000000000
10
-18.3811772515
20
26.4261366090
30
0.0000000000
10
-18.4977856770
20
26.4623456442
30
0.0000000000
10
-18.6198749383
20
26.4467530433
30
0.0000000000
10
-18.6726242405
20
26.4263485183
30
0.0000000000
11
-18.3248673214
21
26.3988186668
31
0.0000000000
11
-18.5055422646
21
26.4499094554
31
0.0000000000
11
-18.6726242405
21
26.4263485183
31
0.0000000000
0
SPLINE
5
3D5
100
AcDbEntity
8
0
100
AcDbSpline
62
9
6
CONTINUOUS
70
0
71
3
72
11
73
7
74
5
42
0.0000001000
43
0.0000001000
44
0.0000000001
12
-5.2864871989
22
-36.5422943240
32
0.0000000000
13
-1.6365522725
23
-36.8864191543
33
0.0000000000
40
0.0000000000
40
0.0000000000
40
0.0000000000
40
0.0000000000
40
0.2543645142
40
0.5059102828
40
0.7544986929
40
1.0000000000
40
1.0000000000
40
1.0000000000
40
1.0000000000
10
-19.4688272115
20
24.7718650586
30
0.0000000000
10
-19.9170587942
20
21.6735107439
30
0.0000000000
10
-20.7359122757
20
15.5003577820
30
0.0000000000
10
-21.7337049927
20
6.2671696114
30
0.0000000000
10
-22.4932877476
20
-2.8792268441
30
0.0000000000
10
-22.8425237168
20
-8.9510289084
30
0.0000000000
10
-22.9764489575
20
-11.9695836136
30
0.0000000000
11
-19.4688272115
21
24.7718650586
31
0.0000000000
11
-20.7026040097
21
15.4614303794
31
0.0000000000
11
-21.6991862250
21
6.2273016912
31
0.0000000000
11
-22.4574257415
21
-2.9198824469
31
0.0000000000
11
-22.9764489575
21
-11.9695836136
31
0.0000000000
0
SPLINE
5
3D6
100
AcDbEntity
8
0
100
AcDbSpline
62
9
6
CONTINUOUS
70
0
71
3
72
10
73
6
74
4
42
0.0000001000
43
0.0000001000
44
0.0000000001
12
-0.3301834453
22
0.1645477380
32
0.0000000000
13
0.0406700637
23
0.3708582828
33
0.0000000000
40
0.0000000000
40
0.0000000000
40
0.0000000000
40
0.0000000000
40
0.4704244457
40
0.8127037908
40
1.0000000000
40
1.0000000000
40
1.0000000000
40
1.0000000000
10
-19.4688271860
20
24.7718650654
30
0.0000000000
10
-19.5206026407
20
24.7976674915
30
0.0000000000
10
-19.6058281870
20
24.8495308891
30
0.0000000000
10
-19.6957763894
20
24.9404760047
30
0.0000000000
10
-19.7066945579
20
25.0099207415
30
0.0000000000
10
-19.7041554416
20
25.0330741917
30
0.0000000000
11
-19.4688271860
21
24.7718650654
31
0.0000000000
11
-19.6152040387
21
24.8650958713
31
0.0000000000
11
-19.6943790371
21
24.9634614739
31
0.0000000000
11
-19.7041554416
21
25.0330741917
31
0.0000000000
0
SPLINE
5
3D7
100
AcDbEntity
8
0
100
AcDbSpline
62
9
6
CONTINUOUS
70
0
71
3
72
11
73
7
74
5
42
0.0000001000
43
0.0000001000
44
0.0000000001
12
-0.0441877676
22
-1.0102121836
32
0.0000000000
13
0.9086533797
23
-0.4570840782
33
0.0000000000
40
0.0000000000
40
0.0000000000
40
0.0000000000
40
0.0000000000
40
0.3078021438
40
0.5803686060
40
0.8212892778
40
1.0000000000
40
1.0000000000
40
1.0000000000
40
1.0000000000
10
-22.9764489575
20
-11.9695836136
30
0.0000000000
10
-22.9809826540
20
-12.0732321055
30
0.0000000000
10
-22.9720543802
20
-12.2702985961
30
0.0000000000
10
-22.8947673924
20
-12.5393838659
30
0.0000000000
10
-22.7631565174
20
-12.7378475909
30
0.0000000000
10
-22.6462781337
20
-12.8228406287
30
0.0000000000
10
-22.5921494331
20
-12.8500692373
30
0.0000000000
11
-22.9764489575
21
-11.9695836136
31
0.0000000000
11
-22.9586615818
21
-12.2803177247
31
0.0000000000
11
-22.8778955023
21
-12.5438314849
31
0.0000000000
11
-22.7391020603
21
-12.7440414311
31
0.0000000000
11
-22.5921494331
21
-12.8500692373
31
0.0000000000
0
SPLINE
5
3D8
100
AcDbEntity
8
0
100
AcDbSpline
62
9
6
CONTINUOUS
70
0
71
3
72
10
73
6
74
4
42
0.0000001000
43
0.0000001000
44
0.0000000001
12
-0.3412649271
22
0.1711483760
32
0.0000000000
13
0.0135144936
23
0.3885667648
33
0.0000000000
40
0.0000000000
40
0.0000000000
40
0.0000000000
40
0.0000000000
40
0.4609675985
40
0.8191981664
40
1.0000000000
40
1.0000000000
40
1.0000000000
40
1.0000000000
10
-22.9764342882
20
-11.9695772497
30
0.0000000000
10
-23.0288716461
20
-11.9432792978
30
0.0000000000
10
-23.1178198396
20
-11.8873543952
30
0.0000000000
10
-23.2007156229
20
-11.7835985961
30
0.0000000000
10
-23.2108027919
20
-11.7129273064
30
0.0000000000
10
-23.2099883102
20
-11.6895094453
30
0.0000000000
11
-22.9764342882
21
-11.9695772497
31
0.0000000000
11
-23.1223128846
21
-11.8711355706
31
0.0000000000
11
-23.2001436326
21
-11.7586775867
31
0.0000000000
11
-23.2099883102
21
-11.6895094453
31
0.0000000000
0
ENDSEC
0
SECTION
2
OBJECTS
0
DICTIONARY
5
3D9
100
AcDbDictionary
3
ACAD_GROUP
350
3DA
3
ACAD_MLINESTYLE
350
3DB
0
DICTIONARY
5
3DA
102
{ACAD_REACTORS
330
3D9
102
}
100
AcDbDictionary
0
DICTIONARY
5
3DB
102
{ACAD_REACTORS
330
3D9
102
}
100
AcDbDictionary
3
STANDARD
350
3DC
0
MLINESTYLE
5
3DC
102
{ACAD_REACTORS
330
3DB
102
}
100
AcDbMlineStyle
2
STANDARD
70
0
3

62
256
51
90.0
52
90.0
71
2
49
0.5
62
256
6
BYLAYER
49
-0.5
62
256
6
BYLAYER
0
ENDSEC
0
EOF
