0
SECTION
2
HEADER
9
$ACADVER
1
AC1015
9
$DWGCODEPAGE
3
ANSI_1252
9
$EXTMAX
10
431.8000000000
20
558.8000000000
30
0.0000000000
9
$EXTMIN
10
0.0000000000
20
0.0000000000
30
0.0000000000
9
$LIMMIN
10
0.0000000000
20
0.0000000000
9
$LIMMAX
10
431.8000000000
20
558.8000000000
9
$VIEWCTR
10
215.9000000000
20
279.4000000000
9
$VIEWSIZE
40
558.8000000000
9
$CLAYER
8
0
9
$LTSCALE
40
36.4254814815
9
$CELTYPE
6
BYLAYER
9
$DIMSCALE
40
1
9
$DIMASZ
40
3.0000000000
9
$DIMEXO
40
4.1392592593
9
$DIMDLI
40
25.1666962963
9
$DIMEXE
40
11.9210666667
9
$DIMCEN
40
5.9605333333
9
$DIMLFAC
40
1.0000000000
9
$DIMBLK
1
_FILLED
9
$DIMTXT
40
3.0000000000
9
$DIMTOL
70
1
9
$DIMLIM
70
0
9
$DIMTFAC
40
1.0000000000
9
$DIMTP
40
0.0100000000
9
$DIMTM
40
0.0100000000
9
$PDMODE
70
3
9
$PDSIZE
40
3.0000000000
9
$HANDSEED
5
3ED
9
$MEASUREMENT
70
1
9
$INSUNITS
70
4
0
ENDSEC
0
SECTION
2
CLASSES
0
CLASS
1
ACDBDICTIONARYWDFLT
2
AcDbDictionaryWithDefault
3
AutoCAD 2000
90
0
280
0
281
0
0
CLASS
1
ACDBPLACEHOLDER
2
AcDbPlaceHolder
3
AutoCAD 2000
90
0
280
0
281
0
0
CLASS
1
LAYOUT
2
AcDbLayout
3
AutoCAD 2000
90
0
280
0
281
0
0
ENDSEC
0
SECTION
2
TABLES
0
TABLE
2
VPORT
5
8
100
AcDbSymbolTable
70
2
0
VPORT
5
1F4
100
AcDbSymbolTableRecord
100
AcDbViewportTableRecord
2
*ACTIVE
70
0
10
0.0
20
0.0
11
1.0
21
1.0
12
215.9000000000
22
279.4000000000
13
0.0
23
0.0
14
1.0
24
1.0
15
0.0
25
0.0
16
0.0
26
0.0
36
1.0
17
0.0
27
0.0
37
0.0
40
558.8000000000
41
0.7727272727
42
50.0
43
0.0
44
0.0
50
0.0
51
0.0
71
0
72
100
73
1
74
1
75
0
76
0
77
0
78
0
0
ENDTAB
0
TABLE
2
LTYPE
5
5
100
AcDbSymbolTable
70
6
0
LTYPE
5
14
100
AcDbSymbolTableRecord
100
AcDbLinetypeTableRecord
2
BYBLOCK
70
0
3

72
65
73
0
40
0.0
0
LTYPE
5
15
100
AcDbSymbolTableRecord
100
AcDbLinetypeTableRecord
2
BYLAYER
70
0
3

72
65
73
0
40
0.0
0
LTYPE
5
16
100
AcDbSymbolTableRecord
100
AcDbLinetypeTableRecord
2
CONTINUOUS
70
64
3
Solid line
72
65
73
0
40
0
0
LTYPE
5
1F5
100
AcDbSymbolTableRecord
100
AcDbLinetypeTableRecord
2
CENTER
70
64
3
____ _ ____ _ ____ _ ____ _ ____ _ ____ _ ____
72
65
73
4
40
0.6
49
0.375
74
0
49
-0.075
74
0
49
0.075
74
0
49
-0.075
74
0
0
LTYPE
5
1F6
100
AcDbSymbolTableRecord
100
AcDbLinetypeTableRecord
2
HIDDEN
70
64
3
- - - - - - - - - - - - - - - - - - - -
72
65
73
2
40
0.2
49
0.1
74
0
49
-0.1
74
0
0
LTYPE
5
1F7
100
AcDbSymbolTableRecord
100
AcDbLinetypeTableRecord
2
PHANTOM
70
64
3
_____ _ _ _____ _ _ _____ _ _ _____
72
65
73
6
40
0.8
49
0.45
74
0
49
-0.05
74
0
49
0.1
74
0
49
-0.05
74
0
49
0.1
74
0
49
-0.05
74
0
0
LTYPE
5
1F8
100
AcDbSymbolTableRecord
100
AcDbLinetypeTableRecord
2
DOT
70
64
3
. . . . . . . . . . . . . . . . . . . .
72
65
73
2
40
0.2
49
0.1
74
0
49
-0.1
74
0
0
LTYPE
5
1F9
100
AcDbSymbolTableRecord
100
AcDbLinetypeTableRecord
2
DASHED
70
64
3
- - - - - - - - - - - - - - - - - - - -
72
65
73
2
40
0.2
49
0.1
74
0
49
-0.1
74
0
0
ENDTAB
0
TABLE
2
LAYER
5
2
100
AcDbSymbolTable
70
36
0
LAYER
5
10
100
AcDbSymbolTableRecord
100
AcDbLayerTableRecord
2
0
70
0
62
7
6
CONTINUOUS
370
-3
390
F
0
LAYER
5
1FA
100
AcDbSymbolTableRecord
100
AcDbLayerTableRecord
2
DEFAULT_1
70
0
62
7
6
CENTER
370
-3
390
F
0
LAYER
5
1FB
100
AcDbSymbolTableRecord
100
AcDbLayerTableRecord
2
DEFAULT_2
70
0
62
9
6
HIDDEN
370
-3
390
F
0
LAYER
5
1FC
100
AcDbSymbolTableRecord
100
AcDbLayerTableRecord
2
DEFAULT_3
70
0
62
7
6
PHANTOM
370
-3
390
F
0
LAYER
5
1FD
100
AcDbSymbolTableRecord
100
AcDbLayerTableRecord
2
_BLACK_HOLE
70
0
62
7
6
CONTINUOUS
370
-3
390
F
0
LAYER
5
1FE
100
AcDbSymbolTableRecord
100
AcDbLayerTableRecord
2
ASSI
70
0
62
7
6
CONTINUOUS
370
-3
390
F
0
LAYER
5
1FF
100
AcDbSymbolTableRecord
100
AcDbLayerTableRecord
2
COORDINATE
70
0
62
7
6
CONTINUOUS
370
-3
390
F
0
LAYER
5
200
100
AcDbSymbolTableRecord
100
AcDbLayerTableRecord
2
COORD_ORIGINE
70
0
62
7
6
CONTINUOUS
370
-3
390
F
0
LAYER
5
201
100
AcDbSymbolTableRecord
100
AcDbLayerTableRecord
2
COSMETICI
70
0
62
7
6
CONTINUOUS
370
-3
390
F
0
LAYER
5
202
100
AcDbSymbolTableRecord
100
AcDbLayerTableRecord
2
CURVE
70
0
62
7
6
CONTINUOUS
370
-3
390
F
0
LAYER
5
203
100
AcDbSymbolTableRecord
100
AcDbLayerTableRecord
2
DRAFT
70
0
62
7
6
CONTINUOUS
370
-3
390
F
0
LAYER
5
204
100
AcDbSymbolTableRecord
100
AcDbLayerTableRecord
2
NOTE
70
0
62
7
6
CONTINUOUS
370
-3
390
F
0
LAYER
5
205
100
AcDbSymbolTableRecord
100
AcDbLayerTableRecord
2
PIANI
70
0
62
7
6
CONTINUOUS
370
-3
390
F
0
LAYER
5
206
100
AcDbSymbolTableRecord
100
AcDbLayerTableRecord
2
PIANI_ORIGINE
70
0
62
7
6
CONTINUOUS
370
-3
390
F
0
LAYER
5
207
100
AcDbSymbolTableRecord
100
AcDbLayerTableRecord
2
PIANI_RIFERIMENTO
70
0
62
7
6
CONTINUOUS
370
-3
390
F
0
LAYER
5
208
100
AcDbSymbolTableRecord
100
AcDbLayerTableRecord
2
PUNTI
70
0
62
7
6
CONTINUOUS
370
-3
390
F
0
LAYER
5
209
100
AcDbSymbolTableRecord
100
AcDbLayerTableRecord
2
RACCORDO
70
0
62
7
6
CONTINUOUS
370
-3
390
F
0
LAYER
5
20A
100
AcDbSymbolTableRecord
100
AcDbLayerTableRecord
2
SMUSSO
70
0
62
7
6
CONTINUOUS
370
-3
390
F
0
LAYER
5
20B
100
AcDbSymbolTableRecord
100
AcDbLayerTableRecord
2
SUPERFICI
70
0
62
7
6
CONTINUOUS
370
-3
390
F
0
LAYER
5
20C
100
AcDbSymbolTableRecord
100
AcDbLayerTableRecord
2
TRASH
70
0
62
7
6
CONTINUOUS
370
-3
390
F
0
ENDTAB
0
TABLE
2
STYLE
5
3
100
AcDbSymbolTable
70
1
0
STYLE
5
11
100
AcDbSymbolTableRecord
100
AcDbTextStyleTableRecord
2
STANDARD
70
0
40
0.0
41
0.8000000000
50
0.0
71
0
42
0.2
3
txt
4

0
ENDTAB
0
TABLE
2
VIEW
5
6
100
AcDbSymbolTable
70
0
0
ENDTAB
0
TABLE
2
UCS
5
7
100
AcDbSymbolTable
70
0
0
ENDTAB
0
TABLE
2
APPID
5
9
100
AcDbSymbolTable
70
1
0
APPID
5
20D
100
AcDbSymbolTableRecord
100
AcDbRegAppTableRecord
2
ACAD
70
0
0
ENDTAB
0
TABLE
2
BLOCK_RECORD
5
1
100
AcDbSymbolTable
70
0
0
BLOCK_RECORD
5
1F
100
AcDbSymbolTableRecord
100
AcDbBlockTableRecord
2
*MODEL_SPACE
0
BLOCK_RECORD
5
1B
100
AcDbSymbolTableRecord
100
AcDbBlockTableRecord
2
*PAPER_SPACE
0
ENDTAB
0
TABLE
2
DIMSTYLE
5
A
100
AcDbSymbolTable
70
1
100
AcDbDimStyleTable
71
0
0
DIMSTYLE
105
20E
100
AcDbSymbolTableRecord
100
AcDbDimStyleTableRecord
2
STANDARD
70
0
3

4

40
1.0
41
3.0000000000
42
0.0625
43
0.38
44
0.18
45
0.0
46
0.0
47
0.0100000000
48
0.0100000000
140
3.0000000000
141
0.09
142
0.0
143
25.4
144
1.0000000000
145
0.0
146
1.0000000000
147
0.09
71
1
72
0
73
0
74
0
75
0
76
0
77
1
78
8
170
0
171
2
172
0
173
0
174
0
175
0
176
0
177
0
178
0
270
2
271
2
272
2
273
2
274
2
275
0
280
0
281
0
282
0
283
1
284
8
285
0
286
0
287
3
288
0
340
11
0
ENDTAB
0
ENDSEC
0
SECTION
2
BLOCKS
0
BLOCK
5
20
100
AcDbEntity
8
0
100
AcDbBlockBegin
2
*MODEL_SPACE
70
0
10
0.0
20
0.0
30
0.0
3
*MODEL_SPACE
1

0
ENDBLK
5
21
100
AcDbEntity
8
0
100
AcDbBlockEnd
0
BLOCK
5
1C
100
AcDbEntity
8
0
100
AcDbBlockBegin
2
*PAPER_SPACE
70
0
10
0.0
20
0.0
30
0.0
3
*PAPER_SPACE
1

0
ENDBLK
5
1D
100
AcDbEntity
8
0
100
AcDbBlockEnd
0
ENDSEC
0
SECTION
2
ENTITIES
0
LWPOLYLINE
5
20F
100
AcDbEntity
8
0
100
AcDbPolyline
62
0
6
CONTINUOUS
90
18
70
0
10
-19.7517260684
20
26.3941598694
10
-19.8366490971
20
26.3567793521
10
-19.9289179663
20
26.3077813214
10
-20.0188692254
20
26.2509688231
10
-20.1059795902
20
26.1866271180
10
-20.1893798380
20
26.1155120749
10
-20.2690990477
20
26.0376802331
10
-20.3449186785
20
25.9533041916
10
-20.4158073183
20
25.8636246822
10
-20.4816984852
20
25.7687952332
10
-20.5424097319
20
25.6690087388
10
-20.5969887602
20
25.5659123391
10
-20.6453358057
20
25.4597671388
10
-20.6873280093
20
25.3507438827
10
-20.7223046246
20
25.2405161299
10
-20.7500864275
20
25.1297803392
10
-20.7707400978
20
25.0183135933
10
-20.7742514683
20
24.9941272474
0
LINE
5
210
100
AcDbEntity
8
0
100
AcDbLine
62
0
6
CONTINUOUS
10
-15.8387977541
20
27.9507878511
11
-19.7515619895
21
26.3942435539
0
LINE
5
211
100
AcDbEntity
8
0
100
AcDbLine
62
9
6
CONTINUOUS
10
-15.4926609919
20
27.9226785886
11
-19.4016335535
21
26.3676426645
0
LWPOLYLINE
5
212
100
AcDbEntity
8
0
100
AcDbPolyline
62
0
6
CONTINUOUS
90
15
70
0
10
-23.9988148213
20
-11.2816600348
10
-23.9996658954
20
-11.3118591751
10
-23.9970385890
20
-11.4354960574
10
-23.9846712917
20
-11.5548910100
10
-23.9628574077
20
-11.6694977749
10
-23.9318982062
20
-11.7791369427
10
-23.8920195363
20
-11.8835669435
10
-23.8435746180
20
-11.9821290255
10
-23.7869775650
20
-12.0743142477
10
-23.7226341622
20
-12.1596883838
10
-23.6511924804
20
-12.2375526391
10
-23.5733698824
20
-12.3073193642
10
-23.4898754427
20
-12.3686063139
10
-23.4015950862
20
-12.4210170169
10
-23.3783315754
20
-12.4329722434
0
LINE
5
213
100
AcDbEntity
8
0
100
AcDbLine
62
0
6
CONTINUOUS
10
-23.9988148213
20
-11.2816600348
11
-23.9988069931
21
-11.2814506711
0
LWPOLYLINE
5
214
100
AcDbEntity
8
0
100
AcDbPolyline
62
0
6
CONTINUOUS
90
13
70
0
10
-20.7742501479
20
24.9942207674
10
-21.1753940404
20
21.9985811641
10
-21.5632307723
20
18.9187473725
10
-21.9250142857
20
15.8471431434
10
-22.2606900061
20
12.7842020886
10
-22.5702172998
20
9.7303052972
10
-22.8535594122
20
6.6858134335
10
-23.1106791840
20
3.6511014706
10
-23.3415446989
20
0.6265423940
10
-23.5461262475
20
-2.3875059368
10
-23.7243945022
20
-5.3906668238
10
-23.8763253609
20
-8.3825180462
10
-23.9988191429
20
-11.2814502169
0
LINE
5
215
100
AcDbEntity
8
0
100
AcDbLine
62
9
6
CONTINUOUS
10
16.6935918504
20
-25.4854579124
11
16.1632617645
21
-25.3756229554
0
LWPOLYLINE
5
216
100
AcDbEntity
8
0
100
AcDbPolyline
62
0
6
CONTINUOUS
90
10
70
0
10
6.5235158356
20
-27.3838970627
10
6.6114233161
20
-27.4230889705
10
6.7009843464
20
-27.4538139875
10
6.7934087871
20
-27.4766851102
10
6.8885409683
20
-27.4915472278
10
6.9857321391
20
-27.4981285187
10
7.0842642155
20
-27.4962265330
10
7.1840113608
20
-27.4856491743
10
7.2845228022
20
-27.4662247391
10
7.3808214782
20
-27.4392498556
0
LINE
5
217
100
AcDbEntity
8
0
100
AcDbLine
62
0
6
CONTINUOUS
10
6.5239579236
20
-27.3841407624
11
-23.3797480342
21
-12.4322877835
0
LINE
5
218
100
AcDbEntity
8
0
100
AcDbLine
62
0
6
CONTINUOUS
10
-0.4241296361
20
22.7707056970
11
1.6971907075
21
23.8313658688
0
LINE
5
219
100
AcDbEntity
8
0
100
AcDbLine
62
9
6
CONTINUOUS
10
-0.3123262372
20
22.7636052502
11
1.8089941064
21
23.8242654220
0
LINE
5
21A
100
AcDbEntity
8
0
100
AcDbLine
62
9
6
CONTINUOUS
10
16.6052035027
20
-25.1653753909
11
16.0748734168
21
-25.0555404339
0
LINE
5
21B
100
AcDbEntity
8
0
100
AcDbLine
62
9
6
CONTINUOUS
10
6.1312740985
20
-26.5102533475
11
-23.7644781634
21
-11.5623772166
0
LWPOLYLINE
5
21C
100
AcDbEntity
8
0
100
AcDbPolyline
62
0
6
CONTINUOUS
90
11
70
0
10
-0.0738158373
20
21.3894262541
10
-0.1020445420
20
21.3713330432
10
-0.1288016491
20
21.3533426143
10
-0.1540279066
20
21.3358318865
10
-0.1779357487
20
21.3190281615
10
-0.2001200520
20
21.3035829139
10
-0.2197660329
20
21.2903219948
10
-0.2367774843
20
21.2794251403
10
-0.2510161123
20
21.2709696279
10
-0.2619016029
20
21.2651052529
10
-0.2636582598
20
21.2642242335
0
LWPOLYLINE
5
21D
100
AcDbEntity
8
0
100
AcDbPolyline
62
0
6
CONTINUOUS
90
4
70
0
10
0.0184909752
20
21.4407633121
10
-0.0139110423
20
21.4241675612
10
-0.0444373768
20
21.4071200360
10
-0.0738158373
20
21.3894262541
0
LINE
5
21E
100
AcDbEntity
8
0
100
AcDbLine
62
9
6
CONTINUOUS
10
1.0311766471
20
22.0918538081
11
3.1524969906
21
23.1525139799
0
LINE
5
21F
100
AcDbEntity
8
0
100
AcDbLine
62
9
6
CONTINUOUS
10
1.2079533424
20
21.7869591095
11
3.3292736859
21
22.8476192813
0
LINE
5
220
100
AcDbEntity
8
0
100
AcDbLine
62
9
6
CONTINUOUS
10
-0.2751368928
20
21.1333669847
11
-0.0353702568
21
21.2523318263
0
LINE
5
221
100
AcDbEntity
8
0
100
AcDbLine
62
0
6
CONTINUOUS
10
-0.4982940199
20
21.1478350884
11
-0.2636677111
21
21.2642114672
0
LINE
5
222
100
AcDbEntity
8
0
100
AcDbLine
62
0
6
CONTINUOUS
10
0.1447805440
20
21.5024087745
11
0.0185409663
21
21.4407856567
0
LINE
5
223
100
AcDbEntity
8
0
100
AcDbLine
62
9
6
CONTINUOUS
10
0.1226598667
20
21.4616511701
11
0.1411393335
21
21.4705453546
0
LINE
5
224
100
AcDbEntity
8
0
100
AcDbLine
62
9
6
CONTINUOUS
10
1.9150601236
20
20.7304926299
11
2.6221669047
21
21.0689294908
0
LINE
5
225
100
AcDbEntity
8
0
100
AcDbLine
62
9
6
CONTINUOUS
10
2.0540133368
20
20.4853691795
11
2.7611201180
21
20.8238060404
0
LINE
5
226
100
AcDbEntity
8
0
100
AcDbLine
62
0
6
CONTINUOUS
10
20.9548617902
20
-15.7748128721
11
17.2239219362
21
-15.9734643539
0
LINE
5
227
100
AcDbEntity
8
0
100
AcDbLine
62
0
6
CONTINUOUS
10
14.2836914126
20
-27.0326505064
11
12.9401885284
21
-26.3608990642
0
LINE
5
228
100
AcDbEntity
8
0
100
AcDbLine
62
9
6
CONTINUOUS
10
14.2187181162
20
-26.8974320563
11
12.8752152320
21
-26.2256806141
0
LINE
5
229
100
AcDbEntity
8
0
100
AcDbLine
62
9
6
CONTINUOUS
10
12.8752152320
20
-25.8743666421
11
14.2187181162
21
-26.5461180842
0
LINE
5
22A
100
AcDbEntity
8
0
100
AcDbLine
62
9
6
CONTINUOUS
10
12.9636035796
20
-25.6426724682
11
14.3071064639
21
-26.3144239104
0
LINE
5
22B
100
AcDbEntity
8
0
100
AcDbLine
62
9
6
CONTINUOUS
10
14.2837167726
20
-27.0326631816
11
14.2835297824
21
-27.0325694964
0
LINE
5
22C
100
AcDbEntity
8
0
100
AcDbLine
62
0
6
CONTINUOUS
10
11.4610016696
20
23.1650146308
11
6.8648075919
21
20.8669175919
0
LINE
5
22D
100
AcDbEntity
8
0
100
AcDbLine
62
0
6
CONTINUOUS
10
4.1654592286
20
20.9890396786
11
10.4304622132
21
24.0965273452
0
LINE
5
22E
100
AcDbEntity
8
0
100
AcDbLine
62
0
6
CONTINUOUS
10
10.8551507245
20
23.4679401033
11
5.1677630117
21
20.6568160203
0
LINE
5
22F
100
AcDbEntity
8
0
100
AcDbLine
62
0
6
CONTINUOUS
10
11.8145550602
20
22.0084235235
11
8.1191755670
21
20.2397336044
0
LINE
5
230
100
AcDbEntity
8
0
100
AcDbLine
62
9
6
CONTINUOUS
10
14.8374365497
20
-25.6742588674
11
13.4939336655
21
-25.0025074253
0
LINE
5
231
100
AcDbEntity
8
0
100
AcDbLine
62
9
6
CONTINUOUS
10
14.9258248974
20
-25.4425646936
11
13.5823220131
21
-24.7708132515
0
LINE
5
232
100
AcDbEntity
8
0
100
AcDbLine
62
0
6
CONTINUOUS
10
11.8876388675
20
-23.8064251036
11
14.7118588577
21
-25.2185350987
0
LINE
5
233
100
AcDbEntity
8
0
100
AcDbLine
62
0
6
CONTINUOUS
10
15.0655738084
20
-24.9363123644
11
11.9267113600
21
-23.3668811402
0
LINE
5
234
100
AcDbEntity
8
0
100
AcDbLine
62
9
6
CONTINUOUS
10
16.0748734168
20
-25.0555404339
11
16.0655952442
21
-25.0509013476
0
LINE
5
235
100
AcDbEntity
8
0
100
AcDbLine
62
0
6
CONTINUOUS
10
15.5332159027
20
-24.6413965470
11
11.9717123570
21
-22.8606447741
0
LINE
5
236
100
AcDbEntity
8
0
100
AcDbLine
62
9
6
CONTINUOUS
10
16.0597083739
20
-24.8926278265
11
16.6052035027
21
-25.1653753909
0
LINE
5
237
100
AcDbEntity
8
0
100
AcDbLine
62
0
6
CONTINUOUS
10
16.0597083739
20
-24.8890076770
11
16.6286185539
21
-25.1734627670
0
LINE
5
238
100
AcDbEntity
8
0
100
AcDbLine
62
0
6
CONTINUOUS
10
-16.3850533436
20
-7.6256301122
11
-16.3085946901
21
-7.6684625152
0
LWPOLYLINE
5
239
100
AcDbEntity
8
0
100
AcDbPolyline
62
0
6
CONTINUOUS
90
30
70
0
10
-16.3085946901
20
-7.6684625152
10
-16.2374256263
20
-7.7167443290
10
-16.1676112236
20
-7.7724018090
10
-16.0997178722
20
-7.8349450219
10
-16.0342130178
20
-7.9039441802
10
-15.9716317855
20
-7.9788683809
10
-15.9124646969
20
-8.0590861695
10
-15.8570807922
20
-8.1440880110
10
-15.8059357293
20
-8.2332324513
10
-15.7594210041
20
-8.3258154443
10
-15.7178056235
20
-8.4212716186
10
-15.6814381686
20
-8.5188673622
10
-15.6506069188
20
-8.6178576743
10
-15.6254858497
20
-8.7176534672
10
-15.6063035835
20
-8.8174667221
10
-15.5932473325
20
-8.9165032451
10
-15.5863983857
20
-9.0141314610
10
-15.5858393840
20
-9.1095513934
10
-15.5916208021
20
-9.2019243350
10
-15.6036929126
20
-9.2905244362
10
-15.6219502818
20
-9.3745992514
10
-15.6462398163
20
-9.4533321502
10
-15.6762705726
20
-9.5259448865
10
-15.7116478255
20
-9.5917747826
10
-15.7520242750
20
-9.6503437537
10
-15.7970617307
20
-9.7013276503
10
-15.8462419811
20
-9.7443615962
10
-15.8992909148
20
-9.7793136103
10
-15.9563822166
20
-9.8062494266
10
-15.9665023178
20
-9.8100254788
0
LINE
5
23A
100
AcDbEntity
8
0
100
AcDbLine
62
0
6
CONTINUOUS
10
9.0370143304
20
19.7808142226
11
12.4421578907
21
21.4833860028
0
LINE
5
23B
100
AcDbEntity
8
0
100
AcDbLine
62
0
6
CONTINUOUS
10
13.5946627281
20
22.5144270878
11
8.4727289576
21
20.0629569091
0
LWPOLYLINE
5
23C
100
AcDbEntity
8
0
100
AcDbPolyline
62
0
6
CONTINUOUS
90
3
70
0
10
-16.5095492496
20
-7.5755429271
10
-16.4474971858
20
-7.5974643314
10
-16.3851378087
20
-7.6255804667
0
LINE
5
23D
100
AcDbEntity
8
0
100
AcDbLine
62
0
6
CONTINUOUS
10
15.5332159027
20
-23.0207588238
11
12.1096454543
21
-21.3089735996
0
LINE
5
23E
100
AcDbEntity
8
0
100
AcDbLine
62
9
6
CONTINUOUS
10
2.7989436000
20
21.8561402662
11
3.3292736859
21
22.4963053092
0
LINE
5
23F
100
AcDbEntity
8
0
100
AcDbLine
62
0
6
CONTINUOUS
10
2.8146859428
20
21.7850406207
11
3.3450160287
21
22.4252056636
0
LINE
5
240
100
AcDbEntity
8
0
100
AcDbLine
62
0
6
CONTINUOUS
10
17.0166000830
20
20.3872154240
11
11.3943519170
21
17.5435215676
0
LINE
5
241
100
AcDbEntity
8
0
100
AcDbLine
62
0
6
CONTINUOUS
10
16.4107491379
20
20.6901408966
11
11.8145550602
21
18.3920438577
0
LINE
5
242
100
AcDbEntity
8
0
100
AcDbLine
62
0
6
CONTINUOUS
10
17.3666929429
20
20.1678622193
11
17.8373034152
21
20.3931067442
0
LINE
5
243
100
AcDbEntity
8
0
100
AcDbLine
62
0
6
CONTINUOUS
10
12.9401885284
20
16.0885466148
11
15.0615088719
21
17.1492067866
0
LINE
5
244
100
AcDbEntity
8
0
100
AcDbLine
62
9
6
CONTINUOUS
10
13.0519919272
20
16.0814461680
11
15.1733122708
21
17.1421063398
0
LINE
5
245
100
AcDbEntity
8
0
100
AcDbLine
62
9
6
CONTINUOUS
10
12.9402138884
20
16.0885592900
11
12.9403730305
21
16.0886386124
0
LINE
5
246
100
AcDbEntity
8
0
100
AcDbLine
62
0
6
CONTINUOUS
10
17.3681171297
20
19.2316424888
11
11.3943519170
21
16.3386007349
0
LINE
5
247
100
AcDbEntity
8
0
100
AcDbLine
62
9
6
CONTINUOUS
10
13.5083596110
20
14.8266282379
11
13.4384325139
21
14.7931595909
0
LINE
5
248
100
AcDbEntity
8
0
100
AcDbLine
62
0
6
CONTINUOUS
10
16.3021505310
20
16.6406893559
11
21.0015039300
21
18.8110064868
0
LINE
5
249
100
AcDbEntity
8
0
100
AcDbLine
62
0
6
CONTINUOUS
10
15.5332159027
20
13.1606123282
11
15.0655738084
21
13.0039314244
0
LINE
5
24A
100
AcDbEntity
8
0
100
AcDbLine
62
0
6
CONTINUOUS
10
16.2346733351
20
15.1700802409
11
22.1128412417
21
18.3414866816
0
LINE
5
24B
100
AcDbEntity
8
0
100
AcDbLine
62
0
6
CONTINUOUS
10
16.4701782514
20
14.8366801672
11
22.1563094740
21
17.7807607917
0
LINE
5
24C
100
AcDbEntity
8
0
100
AcDbLine
62
9
6
CONTINUOUS
10
14.3954948115
20
15.4096947259
11
16.5168151551
21
16.4703548977
0
LINE
5
24D
100
AcDbEntity
8
0
100
AcDbLine
62
9
6
CONTINUOUS
10
14.5722715068
20
15.1048000273
11
16.6935918504
21
16.1654601991
0
LINE
5
24E
100
AcDbEntity
8
0
100
AcDbLine
62
9
6
CONTINUOUS
10
15.2793782880
20
14.0483335477
11
15.9864850692
21
14.3867704086
0
LINE
5
24F
100
AcDbEntity
8
0
100
AcDbLine
62
9
6
CONTINUOUS
10
15.3700840286
20
13.8379390891
11
16.0806953936
21
14.1730938428
0
LINE
5
250
100
AcDbEntity
8
0
100
AcDbLine
62
9
6
CONTINUOUS
10
16.2446619744
20
14.3477674026
11
16.8702069856
21
14.6366658001
0
LINE
5
251
100
AcDbEntity
8
0
100
AcDbLine
62
9
6
CONTINUOUS
10
16.5858202942
20
13.7319011991
11
17.2239219362
21
14.0265977530
0
LINE
5
252
100
AcDbEntity
8
0
100
AcDbLine
62
9
6
CONTINUOUS
10
15.0655738084
20
13.0298010623
11
15.3013199450
21
13.1386803433
0
LINE
5
253
100
AcDbEntity
8
0
100
AcDbLine
62
9
6
CONTINUOUS
10
14.7118588577
20
13.6398691094
11
14.9602236261
21
13.7545347143
0
LINE
5
254
100
AcDbEntity
8
0
100
AcDbLine
62
9
6
CONTINUOUS
10
10.5110577394
20
11.4112970180
11
14.5595495217
21
12.8965733317
0
LINE
5
255
100
AcDbEntity
8
0
100
AcDbLine
62
9
6
CONTINUOUS
10
11.0126293528
20
10.4082216240
11
15.0611211352
21
11.8934979377
0
LINE
5
256
100
AcDbEntity
8
0
100
AcDbLine
62
0
6
CONTINUOUS
10
21.4225320190
20
-18.0522123590
11
22.1563094740
21
-18.4191010865
0
LINE
5
257
100
AcDbEntity
8
0
100
AcDbLine
62
0
6
CONTINUOUS
10
17.2239219362
20
-15.2490613462
11
18.5332945537
21
-15.9037476549
0
LINE
5
258
100
AcDbEntity
8
0
100
AcDbLine
62
0
6
CONTINUOUS
10
-0.6288518434
20
20.8770138882
11
-0.6288518434
21
20.8511442503
0
LINE
5
259
100
AcDbEntity
8
0
100
AcDbLine
62
0
6
CONTINUOUS
10
-0.5623262372
20
22.1957849272
11
-0.5623262372
21
22.5470988993
0
LINE
5
25A
100
AcDbEntity
8
0
100
AcDbLine
62
9
6
CONTINUOUS
10
-0.4891029325
20
22.1073965795
11
-0.4891029325
21
22.4587105516
0
LINE
5
25B
100
AcDbEntity
8
0
100
AcDbLine
62
0
6
CONTINUOUS
10
-0.1772551223
20
20.2649756537
11
-0.1772551223
21
20.6253458897
0
LINE
5
25C
100
AcDbEntity
8
0
100
AcDbLine
62
0
6
CONTINUOUS
10
0.1447805440
20
21.4953847151
11
0.1447805440
21
21.6877230394
0
LINE
5
25D
100
AcDbEntity
8
0
100
AcDbLine
62
9
6
CONTINUOUS
10
0.2180038487
20
21.4090465104
11
0.2180038487
21
21.6511113871
0
LINE
5
25E
100
AcDbEntity
8
0
100
AcDbLine
62
9
6
CONTINUOUS
10
0.8543999518
20
21.7869591095
11
0.8543999518
21
21.4356451374
0
LINE
5
25F
100
AcDbEntity
8
0
100
AcDbLine
62
9
6
CONTINUOUS
10
1.2079533424
20
21.7869591095
11
1.2079533424
21
21.4356451374
0
LINE
5
260
100
AcDbEntity
8
0
100
AcDbLine
62
9
6
CONTINUOUS
10
1.5615067330
20
21.0391985280
11
1.5615067330
21
20.7372950682
0
LWPOLYLINE
5
261
100
AcDbEntity
8
0
100
AcDbPolyline
62
0
6
CONTINUOUS
90
6
70
0
10
0.1447849582
20
21.4956162575
10
0.1445754832
20
21.4892610261
10
0.1429070090
20
21.4770064249
10
0.1400630955
20
21.4666115729
10
0.1367491655
20
21.4585617241
10
0.1343947632
20
21.4541811299
0
LINE
5
262
100
AcDbEntity
8
0
100
AcDbLine
62
0
6
CONTINUOUS
10
-16.8464859350
20
-7.7951582223
11
-16.3852620516
21
-7.6252432169
0
LINE
5
263
100
AcDbEntity
8
0
100
AcDbLine
62
0
6
CONTINUOUS
10
-16.8448860028
20
-7.5755169081
11
-16.8446383556
21
-7.5754277143
0
LINE
5
264
100
AcDbEntity
8
0
100
AcDbLine
62
0
6
CONTINUOUS
10
13.7705649316
20
-6.5914782377
11
13.4329378673
21
-6.4226647056
0
LINE
5
265
100
AcDbEntity
8
0
100
AcDbLine
62
0
6
CONTINUOUS
10
2.6955233753
20
21.1474433329
11
2.6953856836
21
21.1526036497
0
LINE
5
266
100
AcDbEntity
8
0
100
AcDbLine
62
9
6
CONTINUOUS
10
1.9150601236
20
21.0391985280
11
1.9150601236
21
20.7304926299
0
LINE
5
267
100
AcDbEntity
8
0
100
AcDbLine
62
9
6
CONTINUOUS
10
2.6221669047
20
21.0689294908
11
2.6221669047
21
21.3927519186
0
LINE
5
268
100
AcDbEntity
8
0
100
AcDbLine
62
0
6
CONTINUOUS
10
2.6953902087
20
21.1525174317
11
2.6953902095
21
21.4811402662
0
LINE
5
269
100
AcDbEntity
8
0
100
AcDbLine
62
9
6
CONTINUOUS
10
3.3292736859
20
22.8476192813
11
3.3292736859
21
22.4963053092
0
LINE
5
26A
100
AcDbEntity
8
0
100
AcDbLine
62
0
6
CONTINUOUS
10
3.4024969906
20
22.9360076289
11
3.4024969906
21
22.5846936568
0
LINE
5
26B
100
AcDbEntity
8
0
100
AcDbLine
62
9
6
CONTINUOUS
10
16.1632617645
20
15.1739811840
11
16.6935918504
21
15.8141462270
0
LINE
5
26C
100
AcDbEntity
8
0
100
AcDbLine
62
0
6
CONTINUOUS
10
16.1790041073
20
15.1028815385
11
16.7093341932
21
15.7430465814
0
LINE
5
26D
100
AcDbEntity
8
0
100
AcDbLine
62
0
6
CONTINUOUS
10
17.2239219362
20
12.3442598423
11
21.3368496641
21
16.2574287986
0
LINE
5
26E
100
AcDbEntity
8
0
100
AcDbLine
62
0
6
CONTINUOUS
10
-15.9660505909
20
-9.8098895957
11
-15.9664826969
21
-9.8100451243
0
LINE
5
26F
100
AcDbEntity
8
0
100
AcDbLine
62
0
6
CONTINUOUS
10
-16.1724111616
20
-9.6652092977
11
-15.6590085715
21
-9.4842063061
0
LWPOLYLINE
5
270
100
AcDbEntity
8
0
100
AcDbPolyline
62
0
6
CONTINUOUS
90
7
70
0
10
-16.8446222246
20
-7.5754486580
10
-16.8016649989
20
-7.5623744115
10
-16.7468010314
20
-7.5520927534
10
-16.6898840804
20
-7.5482605397
10
-16.6311081502
20
-7.5508877480
10
-16.5708932732
20
-7.5599814248
10
-16.5095492496
20
-7.5755429271
0
LINE
5
271
100
AcDbEntity
8
0
100
AcDbLine
62
0
6
CONTINUOUS
10
5.0192742280
20
19.2794896944
11
5.0192742280
21
20.4790241020
0
LINE
5
272
100
AcDbEntity
8
0
100
AcDbLine
62
9
6
CONTINUOUS
10
5.1657208374
20
19.1049283711
11
5.1657208374
21
20.3022474067
0
LINE
5
273
100
AcDbEntity
8
0
100
AcDbLine
62
0
6
CONTINUOUS
10
12.6760061289
20
-14.9377287683
11
13.2486128139
21
-20.2748692731
0
LINE
5
274
100
AcDbEntity
8
0
100
AcDbLine
62
9
6
CONTINUOUS
10
10.6852146899
20
17.5425004805
11
10.6852146899
21
16.3451814449
0
LINE
5
275
100
AcDbEntity
8
0
100
AcDbLine
62
9
6
CONTINUOUS
10
11.3943519170
20
17.5435215676
11
11.3943519170
21
16.3386007349
0
LINE
5
276
100
AcDbEntity
8
0
100
AcDbLine
62
0
6
CONTINUOUS
10
15.5332159027
20
-23.0207588238
11
13.7705649316
21
-6.5914782377
0
LINE
5
277
100
AcDbEntity
8
0
100
AcDbLine
62
9
6
CONTINUOUS
10
12.8019919272
20
-26.1372922787
11
12.8019920856
21
-26.1374329590
0
LINE
5
278
100
AcDbEntity
8
0
100
AcDbLine
62
0
6
CONTINUOUS
10
11.8145550602
20
22.0084235235
11
11.8145550602
21
22.9087786242
0
LINE
5
279
100
AcDbEntity
8
0
100
AcDbLine
62
0
6
CONTINUOUS
10
12.8019919272
20
-26.1372922665
11
12.8019919272
21
-25.7859782944
0
LINE
5
27A
100
AcDbEntity
8
0
100
AcDbLine
62
0
6
CONTINUOUS
10
12.8019919272
20
15.5136258450
11
12.8019919272
21
15.8649398171
0
LINE
5
27B
100
AcDbEntity
8
0
100
AcDbLine
62
9
6
CONTINUOUS
10
12.8752152320
20
-26.2256806141
11
12.8752152320
21
-25.8743666421
0
LINE
5
27C
100
AcDbEntity
8
0
100
AcDbLine
62
9
6
CONTINUOUS
10
12.8752152320
20
15.4252374973
11
12.8752152320
21
15.7765514694
0
LINE
5
27D
100
AcDbEntity
8
0
100
AcDbLine
62
0
6
CONTINUOUS
10
13.5090987084
20
-24.6824249038
11
13.5090987084
21
-24.6171550241
0
LINE
5
27E
100
AcDbEntity
8
0
100
AcDbLine
62
0
6
CONTINUOUS
10
13.5090987084
20
14.8132256329
11
13.5090987084
21
15.0055639572
0
LINE
5
27F
100
AcDbEntity
8
0
100
AcDbLine
62
9
6
CONTINUOUS
10
13.5823220131
20
-24.7708132515
11
13.5823220131
21
-24.6537666764
0
LINE
5
280
100
AcDbEntity
8
0
100
AcDbLine
62
9
6
CONTINUOUS
10
13.5823220131
20
14.7268874282
11
13.5823220131
21
14.9689523048
0
LWPOLYLINE
5
281
100
AcDbEntity
8
0
100
AcDbPolyline
62
0
6
CONTINUOUS
90
6
70
0
10
13.5091031227
20
14.8134571753
10
13.5088936476
20
14.8071019439
10
13.5072251734
20
14.7948473427
10
13.5043812599
20
14.7844524907
10
13.5010673299
20
14.7764026419
10
13.4987129276
20
14.7720220477
0
LINE
5
282
100
AcDbEntity
8
0
100
AcDbLine
62
9
6
CONTINUOUS
10
-20.5382198893
20
24.7312467528
11
9.3575323726
21
9.7833706219
0
LWPOLYLINE
5
283
100
AcDbEntity
8
0
100
AcDbPolyline
62
0
6
CONTINUOUS
90
5
70
0
10
2.7055536236
20
21.1120192969
10
2.7025660065
20
21.1177054186
10
2.6995149430
20
21.1255804118
10
2.6969563696
20
21.1356324608
10
2.6955233753
20
21.1474433329
0
LINE
5
284
100
AcDbEntity
8
0
100
AcDbLine
62
9
6
CONTINUOUS
10
14.2187181162
20
15.1048000273
11
14.2187181162
21
14.7534860552
0
LINE
5
285
100
AcDbEntity
8
0
100
AcDbLine
62
9
6
CONTINUOUS
10
14.2187181162
20
-26.5461180842
11
14.2187181162
21
-26.8974320563
0
LINE
5
286
100
AcDbEntity
8
0
100
AcDbLine
62
0
6
CONTINUOUS
10
14.2894287943
20
21.8008036719
11
14.2894287943
21
21.9959166170
0
LINE
5
287
100
AcDbEntity
8
0
100
AcDbLine
62
9
6
CONTINUOUS
10
14.5722715068
20
15.1048000273
11
14.5722715068
21
14.7534860552
0
LINE
5
288
100
AcDbEntity
8
0
100
AcDbLine
62
9
6
CONTINUOUS
10
14.5722715068
20
-26.5461180842
11
14.5722715068
21
-26.8974320563
0
LINE
5
289
100
AcDbEntity
8
0
100
AcDbLine
62
9
6
CONTINUOUS
10
14.9258248974
20
14.3570394458
11
14.9258248974
21
14.0551359860
0
LINE
5
28A
100
AcDbEntity
8
0
100
AcDbLine
62
9
6
CONTINUOUS
10
14.9258248974
20
-25.2324722923
11
14.9258248974
21
-25.4425646936
0
LINE
5
28B
100
AcDbEntity
8
0
100
AcDbLine
62
0
6
CONTINUOUS
10
15.0655738084
20
-24.9621820023
11
15.0655738084
21
-24.9363123644
0
LINE
5
28C
100
AcDbEntity
8
0
100
AcDbLine
62
0
6
CONTINUOUS
10
15.0655738084
20
13.0298010623
11
15.0655738084
21
13.0039314244
0
LINE
5
28D
100
AcDbEntity
8
0
100
AcDbLine
62
9
6
CONTINUOUS
10
15.2793782880
20
14.3570394458
11
15.2793782880
21
14.0483335477
0
LINE
5
28E
100
AcDbEntity
8
0
100
AcDbLine
62
9
6
CONTINUOUS
10
15.2793782880
20
-25.1338587955
11
15.2793782880
21
-25.4425646936
0
LINE
5
28F
100
AcDbEntity
8
0
100
AcDbLine
62
0
6
CONTINUOUS
10
15.5332159027
20
-24.6413965470
11
15.5332159027
21
-23.0207588238
0
LINE
5
290
100
AcDbEntity
8
0
100
AcDbLine
62
0
6
CONTINUOUS
10
15.5332159027
20
11.5399746050
11
15.5332159027
21
13.1606123282
0
LINE
5
291
100
AcDbEntity
8
0
100
AcDbLine
62
9
6
CONTINUOUS
10
15.9864850692
20
-25.0890113030
11
15.9864850692
21
-24.7651888752
0
LINE
5
292
100
AcDbEntity
8
0
100
AcDbLine
62
9
6
CONTINUOUS
10
15.9864850692
20
14.3867704086
11
15.9864850692
21
14.7105928364
0
LINE
5
293
100
AcDbEntity
8
0
100
AcDbLine
62
0
6
CONTINUOUS
10
16.0597083739
20
-25.0006229554
11
16.0597083739
21
-24.6985676961
0
LINE
5
294
100
AcDbEntity
8
0
100
AcDbLine
62
0
6
CONTINUOUS
10
16.0597083731
20
14.4703583495
11
16.0597083739
21
14.7989811840
0
LINE
5
295
100
AcDbEntity
8
0
100
AcDbLine
62
0
6
CONTINUOUS
10
15.0611211352
20
11.8934979377
11
11.7231517323
21
-25.6568145417
0
LINE
5
296
100
AcDbEntity
8
0
100
AcDbLine
62
0
6
CONTINUOUS
10
13.7705649316
20
-6.5914782377
11
15.5332159027
21
11.5399746050
0
LINE
5
297
100
AcDbEntity
8
0
100
AcDbLine
62
0
6
CONTINUOUS
10
14.3447940589
20
14.5970695138
11
14.8751241448
21
14.4872345568
0
LINE
5
298
100
AcDbEntity
8
0
100
AcDbLine
62
9
6
CONTINUOUS
10
-19.4016335535
20
26.3676426645
11
10.5110577394
21
11.4112970180
0
LWPOLYLINE
5
299
100
AcDbEntity
8
0
100
AcDbPolyline
62
0
6
CONTINUOUS
90
4
70
0
10
2.7074071283
20
21.1091193457
10
2.7077470406
20
21.1087675539
10
2.7075567407
20
21.1090363433
10
2.7055536236
20
21.1120192969
0
LINE
5
29A
100
AcDbEntity
8
0
100
AcDbLine
62
0
6
CONTINUOUS
10
16.0598442912
20
14.4652343076
11
16.0597038479
21
14.4704445976
0
LINE
5
29B
100
AcDbEntity
8
0
100
AcDbLine
62
9
6
CONTINUOUS
10
16.6935918504
20
16.1654601991
11
16.6935918504
21
15.8141462270
0
LINE
5
29C
100
AcDbEntity
8
0
100
AcDbLine
62
9
6
CONTINUOUS
10
16.6935918504
20
-25.4854579124
11
16.6935918504
21
-25.8367718845
0
LINE
5
29D
100
AcDbEntity
8
0
100
AcDbLine
62
0
6
CONTINUOUS
10
16.7668151551
20
16.2538485467
11
16.7668151551
21
15.9025345746
0
LINE
5
29E
100
AcDbEntity
8
0
100
AcDbLine
62
0
6
CONTINUOUS
10
16.7668151551
20
-25.3970695648
11
16.7668151551
21
-25.7483835368
0
LINE
5
29F
100
AcDbEntity
8
0
100
AcDbLine
62
0
6
CONTINUOUS
10
17.2239219362
20
-23.8746861337
11
17.2239219362
21
14.0265977530
0
LINE
5
2A0
100
AcDbEntity
8
0
100
AcDbLine
62
0
6
CONTINUOUS
10
17.3681171297
20
19.2316424888
11
17.3681171297
21
20.1319975894
0
LINE
5
2A1
100
AcDbEntity
8
0
100
AcDbLine
62
0
6
CONTINUOUS
10
12.4421578907
20
21.4833860028
11
14.2894287943
21
21.8008036719
0
LINE
5
2A2
100
AcDbEntity
8
0
100
AcDbLine
62
9
6
CONTINUOUS
10
14.5722715068
20
14.7534860552
11
15.1026015927
21
14.6436510981
0
LINE
5
2A3
100
AcDbEntity
8
0
100
AcDbLine
62
0
6
CONTINUOUS
10
15.5332159027
20
11.5399746050
11
15.0511227122
21
11.7810212003
0
LINE
5
2A4
100
AcDbEntity
8
0
100
AcDbLine
62
0
6
CONTINUOUS
10
-15.4926609919
20
27.9226785886
11
14.5595495217
21
12.8965733317
0
LINE
5
2A5
100
AcDbEntity
8
0
100
AcDbLine
62
0
6
CONTINUOUS
10
15.0655738084
20
13.0039314244
11
-0.6288518434
21
20.8511442503
0
LINE
5
2A6
100
AcDbEntity
8
0
100
AcDbLine
62
0
6
CONTINUOUS
10
14.7118588577
20
13.6398691094
11
-0.2751368928
21
21.1333669847
0
LINE
5
2A7
100
AcDbEntity
8
0
100
AcDbLine
62
9
6
CONTINUOUS
10
0.0741143495
20
21.1639230600
11
1.4176172337
21
20.4921716178
0
LINE
5
2A8
100
AcDbEntity
8
0
100
AcDbLine
62
9
6
CONTINUOUS
10
13.4384325139
20
14.4817639778
11
14.7819353982
21
13.8100125356
0
LINE
5
2A9
100
AcDbEntity
8
0
100
AcDbLine
62
9
6
CONTINUOUS
10
0.2180038487
20
21.4090465104
11
1.5615067330
21
20.7372950682
0
LINE
5
2AA
100
AcDbEntity
8
0
100
AcDbLine
62
9
6
CONTINUOUS
10
13.5823220131
20
14.7268874282
11
14.9258248974
21
14.0551359860
0
LINE
5
2AB
100
AcDbEntity
8
0
100
AcDbLine
62
0
6
CONTINUOUS
10
0.9804758945
20
21.2792285960
11
1.5108059804
21
21.1693936390
0
LINE
5
2AC
100
AcDbEntity
8
0
100
AcDbLine
62
9
6
CONTINUOUS
10
1.2079533424
20
21.4356451374
11
1.7382834283
21
21.3258101804
0
LINE
5
2AD
100
AcDbEntity
8
0
100
AcDbLine
62
0
6
CONTINUOUS
10
5.1657208374
20
19.1049283711
11
10.6852146899
21
16.3451814449
0
LINE
5
2AE
100
AcDbEntity
8
0
100
AcDbLine
62
0
6
CONTINUOUS
10
-0.4241296361
20
21.9721781294
11
0.9193732482
21
21.3004266873
0
LINE
5
2AF
100
AcDbEntity
8
0
100
AcDbLine
62
0
6
CONTINUOUS
10
12.9401885284
20
15.2900190472
11
14.2836914126
21
14.6182676051
0
LINE
5
2B0
100
AcDbEntity
8
0
100
AcDbLine
62
9
6
CONTINUOUS
10
14.9258248974
20
14.3570394458
11
14.5171618297
21
14.5613709796
0
LINE
5
2B1
100
AcDbEntity
8
0
100
AcDbLine
62
9
6
CONTINUOUS
10
1.5615067330
20
21.0391985280
11
1.1528436653
21
21.2435300619
0
LINE
5
2B2
100
AcDbEntity
8
0
100
AcDbLine
62
9
6
CONTINUOUS
10
-0.4891029325
20
22.1073965795
11
0.8543999518
21
21.4356451374
0
LINE
5
2B3
100
AcDbEntity
8
0
100
AcDbLine
62
9
6
CONTINUOUS
10
12.8752152320
20
15.4252374973
11
14.2187181162
21
14.7534860552
0
LINE
5
2B4
100
AcDbEntity
8
0
100
AcDbLine
62
9
6
CONTINUOUS
10
-0.4891029325
20
22.4587105516
11
0.8543999518
21
21.7869591095
0
LINE
5
2B5
100
AcDbEntity
8
0
100
AcDbLine
62
9
6
CONTINUOUS
10
12.8752152320
20
15.7765514694
11
14.2187181162
21
15.1048000273
0
LINE
5
2B6
100
AcDbEntity
8
0
100
AcDbLine
62
9
6
CONTINUOUS
10
16.1254382824
20
14.4530425714
11
16.0658899243
21
14.4828167505
0
LINE
5
2B7
100
AcDbEntity
8
0
100
AcDbLine
62
9
6
CONTINUOUS
10
2.7611201180
20
21.1352016536
11
2.7015717720
21
21.1649758266
0
LINE
5
2B8
100
AcDbEntity
8
0
100
AcDbLine
62
9
6
CONTINUOUS
10
-0.3123262372
20
22.7636052502
11
1.0311766471
21
22.0918538081
0
LINE
5
2B9
100
AcDbEntity
8
0
100
AcDbLine
62
9
6
CONTINUOUS
10
13.0519919272
20
16.0814461680
11
14.3954948115
21
15.4096947259
0
LINE
5
2BA
100
AcDbEntity
8
0
100
AcDbLine
62
0
6
CONTINUOUS
10
5.1657208374
20
20.3022474067
11
10.6852146899
21
17.5425004805
0
LINE
5
2BB
100
AcDbEntity
8
0
100
AcDbLine
62
0
6
CONTINUOUS
10
2.7547384833
20
21.6944000512
11
4.1654592286
21
20.9890396786
0
LINE
5
2BC
100
AcDbEntity
8
0
100
AcDbLine
62
0
6
CONTINUOUS
10
16.1190566477
20
15.0122409690
11
16.8702069856
21
14.6366658001
0
LINE
5
2BD
100
AcDbEntity
8
0
100
AcDbLine
62
0
6
CONTINUOUS
10
6.8648075919
20
20.8669175919
11
11.8145550602
21
18.3920438577
0
LWPOLYLINE
5
2BE
100
AcDbEntity
8
0
100
AcDbPolyline
62
0
6
CONTINUOUS
90
5
70
0
10
16.0698877014
20
14.4298339386
10
16.0669035656
20
14.4355040752
10
16.0638503193
20
14.4433681931
10
16.0612850601
20
14.4534180755
10
16.0598442912
20
14.4652343076
0
LINE
5
2BF
100
AcDbEntity
8
0
100
AcDbLine
62
0
6
CONTINUOUS
10
21.4225320190
20
17.4008363926
11
21.4225320190
21
16.5058735292
0
LINE
5
2C0
100
AcDbEntity
8
0
100
AcDbLine
62
0
6
CONTINUOUS
10
21.4225320190
20
-16.4104363689
11
21.4225320190
21
-18.0522123590
0
LINE
5
2C1
100
AcDbEntity
8
0
100
AcDbLine
62
0
6
CONTINUOUS
10
22.1563094740
20
18.0624762771
11
22.1563094740
21
17.7807607917
0
LINE
5
2C2
100
AcDbEntity
8
0
100
AcDbLine
62
0
6
CONTINUOUS
10
22.1563094740
20
-18.4191010865
11
22.1563094740
21
-18.7008165719
0
LINE
5
2C3
100
AcDbEntity
8
0
100
AcDbLine
62
9
6
CONTINUOUS
10
1.8089941064
20
23.8242654220
11
3.1524969906
21
23.1525139799
0
LINE
5
2C4
100
AcDbEntity
8
0
100
AcDbLine
62
9
6
CONTINUOUS
10
15.1733122708
20
17.1421063398
11
16.5168151551
21
16.4703548977
0
LINE
5
2C5
100
AcDbEntity
8
0
100
AcDbLine
62
0
6
CONTINUOUS
10
1.9207975053
20
23.8313658688
11
3.2643003895
21
23.1596144267
0
LINE
5
2C6
100
AcDbEntity
8
0
100
AcDbLine
62
0
6
CONTINUOUS
10
15.2851156697
20
17.1492067866
11
16.6286185539
21
16.4774553445
0
LWPOLYLINE
5
2C7
100
AcDbEntity
8
0
100
AcDbPolyline
62
0
6
CONTINUOUS
90
4
70
0
10
16.0717162806
20
14.4269693670
10
16.0720604480
20
14.4266135210
10
16.0718824749
20
14.4268673675
10
16.0698877014
20
14.4298339386
0
LINE
5
2C8
100
AcDbEntity
8
0
100
AcDbLine
62
0
6
CONTINUOUS
10
17.2239219362
20
-20.1884806891
11
21.4225320190
21
-18.0522123590
0
LINE
5
2C9
100
AcDbEntity
8
0
100
AcDbLine
62
9
6
CONTINUOUS
10
12.1567449729
20
-20.7791300253
11
13.2486128139
21
-20.2748692731
0
LINE
5
2CA
100
AcDbEntity
8
0
100
AcDbLine
62
0
6
CONTINUOUS
10
12.1372314739
20
-20.9986461131
11
13.1480690076
21
-20.5318078421
0
LINE
5
2CB
100
AcDbEntity
8
0
100
AcDbLine
62
0
6
CONTINUOUS
10
15.2196986205
20
20.0946156379
11
12.4421578907
21
21.4833860028
0
LINE
5
2CC
100
AcDbEntity
8
0
100
AcDbLine
62
9
6
CONTINUOUS
10
17.0166000830
20
20.3872154240
11
16.4107491379
21
20.6901408966
0
LINE
5
2CD
100
AcDbEntity
8
0
100
AcDbLine
62
9
6
CONTINUOUS
10
11.4610016696
20
23.1650146308
11
10.8551507245
21
23.4679401033
0
LINE
5
2CE
100
AcDbEntity
8
0
100
AcDbLine
62
0
6
CONTINUOUS
10
14.2894287943
20
21.8008036719
11
16.4663741060
21
20.7123310161
0
LINE
5
2CF
100
AcDbEntity
8
0
100
AcDbLine
62
0
6
CONTINUOUS
10
17.3454690905
20
20.2727835238
11
17.4630625100
21
20.2139868141
0
LINE
5
2D0
100
AcDbEntity
8
0
100
AcDbLine
62
0
6
CONTINUOUS
10
17.2389251940
20
20.4020571610
11
16.6343559356
21
20.7043417902
0
LINE
5
2D1
100
AcDbEntity
8
0
100
AcDbLine
62
0
6
CONTINUOUS
10
11.6846084673
20
23.1792155244
11
11.0800392090
21
23.4815001535
0
LINE
5
2D2
100
AcDbEntity
8
0
100
AcDbLine
62
9
6
CONTINUOUS
10
10.4304622132
20
24.0965273452
11
13.5946627281
21
22.5144270878
0
LINE
5
2D3
100
AcDbEntity
8
0
100
AcDbLine
62
9
6
CONTINUOUS
10
17.8373034152
20
20.3931067442
11
21.0015039300
21
18.8110064868
0
LINE
5
2D4
100
AcDbEntity
8
0
100
AcDbLine
62
0
6
CONTINUOUS
10
10.7046283503
20
24.1992440466
11
14.0295356086
21
22.5367904174
0
LINE
5
2D5
100
AcDbEntity
8
0
100
AcDbLine
62
0
6
CONTINUOUS
10
18.2721762958
20
20.4154700738
11
21.5970835541
21
18.7530164446
0
LINE
5
2D6
100
AcDbEntity
8
0
100
AcDbLine
62
0
6
CONTINUOUS
10
12.8594728892
20
-25.6264903012
11
13.3898029750
21
-24.9863252583
0
LINE
5
2D7
100
AcDbEntity
8
0
100
AcDbLine
62
9
6
CONTINUOUS
10
12.9636035796
20
-25.6426724682
11
13.4939336655
21
-25.0025074253
0
LINE
5
2D8
100
AcDbEntity
8
0
100
AcDbLine
62
9
6
CONTINUOUS
10
14.8374365497
20
-25.6742588674
11
14.3071064639
21
-26.3144239104
0
LINE
5
2D9
100
AcDbEntity
8
0
100
AcDbLine
62
9
6
CONTINUOUS
10
15.1026015927
20
-25.9059530412
11
14.5722715068
21
-26.5461180842
0
LINE
5
2DA
100
AcDbEntity
8
0
100
AcDbLine
62
0
6
CONTINUOUS
10
17.2239219362
20
-20.9729194938
11
22.1563094740
21
-18.4191010865
0
LINE
5
2DB
100
AcDbEntity
8
0
100
AcDbLine
62
0
6
CONTINUOUS
10
17.2239219362
20
-21.5874293479
11
21.0015039300
21
-19.6840733701
0
LINE
5
2DC
100
AcDbEntity
8
0
100
AcDbLine
62
0
6
CONTINUOUS
10
17.2239219362
20
-21.4497796656
11
22.1128412417
21
-19.0248396485
0
LINE
5
2DD
100
AcDbEntity
8
0
100
AcDbLine
62
9
6
CONTINUOUS
10
11.7231517323
20
-25.6568145417
11
7.6904539741
21
-26.9644168053
0
LINE
5
2DE
100
AcDbEntity
8
0
100
AcDbLine
62
0
6
CONTINUOUS
10
7.3808269612
20
-27.4392667993
11
11.4179630511
21
-26.1302259827
0
LWPOLYLINE
5
2DF
100
AcDbEntity
8
0
100
AcDbPolyline
62
0
6
CONTINUOUS
90
7
70
0
10
15.2958607960
20
-25.0696239130
10
15.3221125084
20
-25.0611831558
10
15.3504697434
20
-25.0514388167
10
15.3794661214
20
-25.0406215020
10
15.4091942892
20
-25.0284916881
10
15.4421421007
20
-25.0137129974
10
15.4710811135
20
-24.9995079927
0
LWPOLYLINE
5
2E0
100
AcDbEntity
8
0
100
AcDbPolyline
62
0
6
CONTINUOUS
90
5
70
0
10
16.3797667795
20
-24.5146226087
10
16.4050654214
20
-24.4977314739
10
16.4281727583
20
-24.4829625193
10
16.4476651023
20
-24.4713797977
10
16.4633725904
20
-24.4629452885
0
LINE
5
2E1
100
AcDbEntity
8
0
100
AcDbLine
62
0
6
CONTINUOUS
10
15.0655738084
20
-24.9363123644
11
15.5332159027
21
-24.6413965470
0
LWPOLYLINE
5
2E2
100
AcDbEntity
8
0
100
AcDbPolyline
62
0
6
CONTINUOUS
90
6
70
0
10
16.1960370857
20
-24.6288879561
10
16.2303616749
20
-24.6103113045
10
16.2628157545
20
-24.5913374561
10
16.2941327437
20
-24.5718374813
10
16.3243797864
20
-24.5520710259
10
16.3797667795
20
-24.5146226087
0
LINE
5
2E3
100
AcDbEntity
8
0
100
AcDbLine
62
9
6
CONTINUOUS
10
15.2793782880
20
-25.1338587955
11
15.9864850692
21
-24.7651888752
0
LINE
5
2E4
100
AcDbEntity
8
0
100
AcDbLine
62
0
6
CONTINUOUS
10
15.4709910000
20
-24.9995509445
11
15.8731889597
21
-24.7938936432
0
LINE
5
2E5
100
AcDbEntity
8
0
100
AcDbLine
62
0
6
CONTINUOUS
10
15.8731889597
20
-24.7938936432
11
16.1960370857
21
-24.6288879561
0
LINE
5
2E6
100
AcDbEntity
8
0
100
AcDbLine
62
9
6
CONTINUOUS
10
15.0655738084
20
-24.9621820023
11
15.3013261261
21
-24.8434036163
0
LINE
5
2E7
100
AcDbEntity
8
0
100
AcDbLine
62
9
6
CONTINUOUS
10
16.5858102189
20
-24.1962068148
11
17.2239219362
21
-23.8746861337
0
LINE
5
2E8
100
AcDbEntity
8
0
100
AcDbLine
62
0
6
CONTINUOUS
10
16.4634543284
20
-24.4628951023
11
17.0944260906
21
-24.1449764238
0
LWPOLYLINE
5
2E9
100
AcDbEntity
8
0
100
AcDbPolyline
62
0
6
CONTINUOUS
90
7
70
0
10
14.9360779627
20
-25.2324722923
10
15.1807661740
20
-25.1091889848
10
15.1955085328
20
-25.1024732464
10
15.2119840811
20
-25.0960834522
10
15.2296153057
20
-25.0900659840
10
15.2488401465
20
-25.0840104764
10
15.2958607960
20
-25.0696239130
0
LINE
5
2EA
100
AcDbEntity
8
0
100
AcDbLine
62
9
6
CONTINUOUS
10
14.5722715068
20
-26.8974320563
11
16.6935918504
21
-25.8367718845
0
LINE
5
2EB
100
AcDbEntity
8
0
100
AcDbLine
62
0
6
CONTINUOUS
10
14.5072982104
20
-27.0326505064
11
16.6286185539
21
-25.9719903346
0
ARC
5
2EC
100
AcDbEntity
8
0
100
AcDbCircle
62
0
6
CONTINUOUS
10
1.0311766471
20
21.5240334851
40
0.2500000000
100
AcDbArc
50
244.0406531095
51
258.6758098606
0
SPLINE
5
2ED
100
AcDbEntity
8
0
100
AcDbSpline
62
0
6
CONTINUOUS
70
0
71
3
72
20
73
16
74
14
42
0.0000001000
43
0.0000001000
44
0.0000000001
12
-1.7945804918
22
-0.6326895204
32
0.0000000000
13
0.1684856100
23
1.8953700806
33
0.0000000000
40
0.0000000000
40
0.0000000000
40
0.0000000000
40
0.0000000000
40
0.0596589080
40
0.1216513856
40
0.1870593081
40
0.2571719419
40
0.3317569612
40
0.4103667480
40
0.4924392687
40
0.5769134936
40
0.6628296652
40
0.7491750071
40
0.8348095840
40
0.9187041768
40
1.0000000000
40
1.0000000000
40
1.0000000000
40
1.0000000000
10
-16.1724111601
20
-9.6652092971
30
0.0000000000
10
-16.2080987310
20
-9.6777911524
30
0.0000000000
10
-16.2841114729
20
-9.6950774597
30
0.0000000000
10
-16.4036878628
20
-9.6946512180
30
0.0000000000
10
-16.5268835720
20
-9.6674328775
30
0.0000000000
10
-16.6496602155
20
-9.6136938669
30
0.0000000000
10
-16.7681782916
20
-9.5349936654
30
0.0000000000
10
-16.8788154535
20
-9.4340839735
30
0.0000000000
10
-16.9786152437
20
-9.3142631904
30
0.0000000000
10
-17.0651801762
20
-9.1790845001
30
0.0000000000
10
-17.1365130800
20
-9.0322972237
30
0.0000000000
10
-17.1909884385
20
-8.8776864655
30
0.0000000000
10
-17.2272781873
20
-8.7191234805
30
0.0000000000
10
-17.2443729016
20
-8.5605858413
30
0.0000000000
10
-17.2424561493
20
-8.4554625479
30
0.0000000000
10
-17.2378904239
20
-8.4041006576
30
0.0000000000
11
-16.1724111601
21
-9.6652092971
31
0.0000000000
11
-16.2830747399
21
-9.6905218291
31
0.0000000000
11
-16.4010367412
21
-9.6905708030
31
0.0000000000
11
-16.5227059822
21
-9.6643571827
31
0.0000000000
11
-16.6452252135
21
-9.6115540224
31
0.0000000000
11
-16.7638460657
21
-9.5336347252
31
0.0000000000
11
-16.8747574686
21
-9.4332679839
31
0.0000000000
11
-16.9750408364
21
-9.3135487709
31
0.0000000000
11
-17.0619620665
21
-9.1783361412
31
0.0000000000
11
-17.1335392809
21
-9.0313529110
31
0.0000000000
11
-17.1881298546
21
-8.8763854240
31
0.0000000000
11
-17.2243381343
21
-8.7175099555
31
0.0000000000
11
-17.2411517846
21
-8.5587595408
31
0.0000000000
11
-17.2378904239
21
-8.4041006576
31
0.0000000000
0
SPLINE
5
2EE
100
AcDbEntity
8
0
100
AcDbSpline
62
0
6
CONTINUOUS
70
0
71
3
72
13
73
9
74
7
42
0.0000001000
43
0.0000001000
44
0.0000000001
12
0.0675678458
22
0.7601009571
32
0.0000000000
13
0.7160527823
23
0.2637940411
33
0.0000000000
40
0.0000000000
40
0.0000000000
40
0.0000000000
40
0.0000000000
40
0.1915700395
40
0.3729974288
40
0.5433714342
40
0.7030139078
40
0.8539058728
40
1.0000000000
40
1.0000000000
40
1.0000000000
40
1.0000000000
10
-17.2378904239
20
-8.4041006576
30
0.0000000000
10
-17.2335757656
20
-8.3555631341
30
0.0000000000
10
-17.2188523104
20
-8.2614470591
30
0.0000000000
10
-17.1768344208
20
-8.1291617833
30
0.0000000000
10
-17.1165063975
20
-8.0130858953
30
0.0000000000
10
-17.0398439796
20
-7.9166816094
30
0.0000000000
10
-16.9495061341
20
-7.8422986485
30
0.0000000000
10
-16.8813563024
20
-7.8080044752
30
0.0000000000
10
-16.8464859336
20
-7.7951582218
30
0.0000000000
11
-17.2378904239
21
-8.4041006576
31
0.0000000000
11
-17.2147274288
21
-8.2597606327
31
0.0000000000
11
-17.1721783542
21
-8.1280141912
31
0.0000000000
11
-17.1115942500
21
-8.0129806652
31
0.0000000000
11
-17.0352954924
21
-7.9180105904
31
0.0000000000
11
-16.9461316659
21
-7.8451526977
31
0.0000000000
11
-16.8464859336
21
-7.7951582218
31
0.0000000000
0
SPLINE
5
2EF
100
AcDbEntity
8
0
100
AcDbSpline
62
9
6
CONTINUOUS
70
0
71
3
72
25
73
21
74
19
42
0.0000001000
43
0.0000001000
44
0.0000000001
12
0.2109607523
22
2.3731919660
32
0.0000000000
13
-0.2109607523
23
-2.3731919660
33
0.0000000000
40
0.0000000000
40
0.0000000000
40
0.0000000000
40
0.0000000000
40
0.0611347666
40
0.1248524579
40
0.1905000434
40
0.2566785734
40
0.3220250530
40
0.3858026670
40
0.4469953400
40
0.5048189323
40
0.5591008978
40
0.6095778268
40
0.6567067128
40
0.7015438624
40
0.7455455514
40
0.7904042542
40
0.8375620141
40
0.8880852118
40
0.9421721600
40
1.0000000000
40
1.0000000000
40
1.0000000000
40
1.0000000000
10
-15.9376635891
20
-9.0734703775
30
0.0000000000
10
-15.9333645770
20
-9.0251088652
30
0.0000000000
10
-15.9317235749
20
-8.9256103569
30
0.0000000000
10
-15.9485374248
20
-8.7748980100
30
0.0000000000
10
-15.9841287025
20
-8.6233588643
30
0.0000000000
10
-16.0374500474
20
-8.4757564086
30
0.0000000000
10
-16.1067968089
20
-8.3366196450
30
0.0000000000
10
-16.1900747638
20
-8.2100270258
30
0.0000000000
10
-16.2849431497
20
-8.0995706939
30
0.0000000000
10
-16.3887614599
20
-8.0084414187
30
0.0000000000
10
-16.4986444623
20
-7.9394366316
30
0.0000000000
10
-16.6115932450
20
-7.8948672160
30
0.0000000000
10
-16.7242398136
20
-7.8765627042
30
0.0000000000
10
-16.8330287455
20
-7.8856758154
30
0.0000000000
10
-16.9340294302
20
-7.9223271357
30
0.0000000000
10
-17.0233875392
20
-7.9851075580
30
0.0000000000
10
-17.0981859113
20
-8.0713966987
30
0.0000000000
10
-17.1563484818
20
-8.1778766845
30
0.0000000000
10
-17.1966260379
20
-8.3010672964
30
0.0000000000
10
-17.2105707415
20
-8.3892380454
30
0.0000000000
10
-17.2146372097
20
-8.4349835672
30
0.0000000000
11
-15.9376635891
21
-9.0734703775
31
0.0000000000
11
-15.9347930891
21
-8.9278420264
31
0.0000000000
11
-15.9513093028
21
-8.7769325546
31
0.0000000000
11
-15.9869225898
21
-8.6246323206
31
0.0000000000
11
-16.0404935707
21
-8.4763382472
31
0.0000000000
11
-16.1100822350
21
-8.3370644706
31
0.0000000000
11
-16.1938558169
21
-8.2102898318
31
0.0000000000
11
-16.2892112505
21
-8.1000019912
31
0.0000000000
11
-16.3931733361
21
-8.0096040022
31
0.0000000000
11
-16.5031223742
21
-7.9415060730
31
0.0000000000
11
-16.6153147036
21
-7.8981902023
31
0.0000000000
11
-16.7262765242
21
-7.8809905367
31
0.0000000000
11
-16.8326864194
21
-7.8904186327
31
0.0000000000
11
-16.9312361643
21
-7.9261758943
31
0.0000000000
11
-17.0189860289
21
-7.9871913847
31
0.0000000000
11
-17.0931979394
21
-8.0715501454
31
0.0000000000
11
-17.1516818330
21
-8.1767620501
31
0.0000000000
11
-17.1924740087
21
-8.2990001387
31
0.0000000000
11
-17.2146372097
21
-8.4349835672
31
0.0000000000
0
SPLINE
5
2F0
100
AcDbEntity
8
0
100
AcDbSpline
62
9
6
CONTINUOUS
70
0
71
3
72
20
73
16
74
14
42
0.0000001000
43
0.0000001000
44
0.0000000001
12
0.1682074556
22
1.8922409874
32
0.0000000000
13
-1.7879209030
23
-0.6585825820
33
0.0000000000
40
0.0000000000
40
0.0000000000
40
0.0000000000
40
0.0000000000
40
0.0843979534
40
0.1723615611
40
0.2629895692
40
0.3543505192
40
0.4445628033
40
0.5326092304
40
0.6170870844
40
0.6969138476
40
0.7718513133
40
0.8415358421
40
0.9065983231
40
0.9684970116
40
1.0000000000
40
1.0000000000
40
1.0000000000
40
1.0000000000
10
-15.8037374634
20
-9.0805444615
30
0.0000000000
10
-15.7990053418
20
-9.0273107060
30
0.0000000000
10
-15.7971998780
20
-8.9177882028
30
0.0000000000
10
-15.8157059615
20
-8.7518920512
30
0.0000000000
10
-15.8548839300
20
-8.5850861806
30
0.0000000000
10
-15.9135768017
20
-8.4226132736
30
0.0000000000
10
-15.9899101193
20
-8.2694591098
30
0.0000000000
10
-16.0815779527
20
-8.1301128083
30
0.0000000000
10
-16.1860039619
20
-8.0085284902
30
0.0000000000
10
-16.3002815229
20
-7.9082183242
30
0.0000000000
10
-16.4212347843
20
-7.8322616172
30
0.0000000000
10
-16.5455626773
20
-7.7832020238
30
0.0000000000
10
-16.6695579086
20
-7.7630534149
30
0.0000000000
10
-16.7706514781
20
-7.7715218811
30
0.0000000000
10
-16.8277045349
20
-7.7882599547
30
0.0000000000
10
-16.8464794854
20
-7.7951757279
30
0.0000000000
11
-15.8037374634
21
-9.0805444615
31
0.0000000000
11
-15.8005781455
21
-8.9202445861
31
0.0000000000
11
-15.8187575390
21
-8.7541317136
31
0.0000000000
11
-15.8579590593
21
-8.5864878630
31
0.0000000000
11
-15.9169270383
21
-8.4232537528
31
0.0000000000
11
-15.9935265092
21
-8.2699487388
31
0.0000000000
11
-16.0857399428
21
-8.1304020940
31
0.0000000000
11
-16.1907020498
21
-8.0090032350
31
0.0000000000
11
-16.3051378812
21
-7.9094980361
31
0.0000000000
11
-16.4261638243
21
-7.8345395436
31
0.0000000000
11
-16.5496590564
21
-7.7868597876
31
0.0000000000
11
-16.6717998103
21
-7.7679273291
31
0.0000000000
11
-16.7889300534
21
-7.7783052588
31
0.0000000000
11
-16.8464794854
21
-7.7951757279
31
0.0000000000
0
SPLINE
5
2F1
100
AcDbEntity
8
0
100
AcDbSpline
62
9
6
CONTINUOUS
70
0
71
3
72
25
73
21
74
19
42
0.0000001000
43
0.0000001000
44
0.0000000001
12
-0.2109607530
22
-2.3731919734
32
0.0000000000
13
0.2109607530
23
2.3731919734
33
0.0000000000
40
0.0000000000
40
0.0000000000
40
0.0000000000
40
0.0000000000
40
0.0611347574
40
0.1248524607
40
0.1905000432
40
0.2566785730
40
0.3220250527
40
0.3858026668
40
0.4469953403
40
0.5048189325
40
0.5591008985
40
0.6095778276
40
0.6567067134
40
0.7015438626
40
0.7455455511
40
0.7904042516
40
0.8375620144
40
0.8880851998
40
0.9421721700
40
1.0000000000
40
1.0000000000
40
1.0000000000
40
1.0000000000
10
-17.2146372097
20
-8.4349835672
30
0.0000000000
10
-17.2189362212
20
-8.4833450723
30
0.0000000000
10
-17.2205770886
20
-8.5828435786
30
0.0000000000
10
-17.2037635115
20
-8.7335559546
30
0.0000000000
10
-17.1681720629
20
-8.8850950772
30
0.0000000000
10
-17.1148507829
20
-9.0326975463
30
0.0000000000
10
-17.0455039948
20
-9.1718343017
30
0.0000000000
10
-16.9622260439
20
-9.2984269225
30
0.0000000000
10
-16.8673576524
20
-9.4088832514
30
0.0000000000
10
-16.7635393420
20
-9.5000125276
30
0.0000000000
10
-16.6536563373
20
-9.5690173130
30
0.0000000000
10
-16.5407075542
20
-9.6135867287
30
0.0000000000
10
-16.4280609855
20
-9.6318912404
30
0.0000000000
10
-16.3192720545
20
-9.6227781293
30
0.0000000000
10
-16.2182713700
20
-9.5861268111
30
0.0000000000
10
-16.1289132678
20
-9.5233463835
30
0.0000000000
10
-16.0541148783
20
-9.4370572624
30
0.0000000000
10
-15.9959523759
20
-9.3305772348
30
0.0000000000
10
-15.9556746739
20
-9.2073866701
30
0.0000000000
10
-15.9417300566
20
-9.1192158915
30
0.0000000000
10
-15.9376635891
20
-9.0734703775
30
0.0000000000
11
-17.2146372097
21
-8.4349835672
31
0.0000000000
11
-17.2175076530
21
-8.5806118978
31
0.0000000000
11
-17.2009915564
21
-8.7315214118
31
0.0000000000
11
-17.1653782157
21
-8.8838216265
31
0.0000000000
11
-17.1118072447
21
-9.0321157034
31
0.0000000000
11
-17.0422185737
21
-9.1713894777
31
0.0000000000
11
-16.9584449893
21
-9.2981641155
31
0.0000000000
11
-16.8630895522
21
-9.4084519549
31
0.0000000000
11
-16.7591274656
21
-9.4988499435
31
0.0000000000
11
-16.6491784254
21
-9.5669478720
31
0.0000000000
11
-16.5369860953
21
-9.6102637424
31
0.0000000000
11
-16.4260242747
21
-9.6274634080
31
0.0000000000
11
-16.3196143803
21
-9.6180353123
31
0.0000000000
11
-16.2210646361
21
-9.5822780510
31
0.0000000000
11
-16.1333147763
21
-9.5212625622
31
0.0000000000
11
-16.0591028583
21
-9.4369037989
31
0.0000000000
11
-16.0006190005
21
-9.3316919071
31
0.0000000000
11
-15.9598267448
21
-9.2094537897
31
0.0000000000
11
-15.9376635891
21
-9.0734703775
31
0.0000000000
0
SPLINE
5
2F2
100
AcDbEntity
8
0
100
AcDbSpline
62
9
6
CONTINUOUS
70
0
71
3
72
13
73
9
74
7
42
0.0000001000
43
0.0000001000
44
0.0000000001
12
0.6895710188
22
0.2431777028
32
0.0000000000
13
0.0645507662
23
0.7261604731
33
0.0000000000
40
0.0000000000
40
0.0000000000
40
0.0000000000
40
0.0000000000
40
0.0846285927
40
0.2460027462
40
0.4156475408
40
0.5973989530
40
0.7919710495
40
1.0000000000
40
1.0000000000
40
1.0000000000
40
1.0000000000
10
-16.1724163426
20
-9.6651914705
30
0.0000000000
10
-16.1529638676
20
-9.6583315416
30
0.0000000000
10
-16.0978077254
20
-9.6344454996
30
0.0000000000
10
-16.0142546452
20
-9.5757436532
30
0.0000000000
10
-15.9319209058
20
-9.4807611173
30
0.0000000000
10
-15.8678980285
20
-9.3635539798
30
0.0000000000
10
-15.8235638068
20
-9.2279520541
30
0.0000000000
10
-15.8082136062
20
-9.1308985952
30
0.0000000000
10
-15.8037374634
20
-9.0805444615
30
0.0000000000
11
-16.1724163426
21
-9.6651914705
31
0.0000000000
11
-16.1156899592
21
-9.6406123643
31
0.0000000000
11
-16.0190996491
21
-9.5734498573
31
0.0000000000
11
-15.9374112306
21
-9.4805922529
31
0.0000000000
11
-15.8730351603
21
-9.3647809026
31
0.0000000000
11
-15.8281337502
21
-9.2302274362
31
0.0000000000
11
-15.8037374634
21
-9.0805444615
31
0.0000000000
0
SPLINE
5
2F3
100
AcDbEntity
8
0
100
AcDbSpline
62
0
6
CONTINUOUS
70
0
71
3
72
13
73
9
74
7
42
0.0000001000
43
0.0000001000
44
0.0000000001
12
0.8615074353
22
0.0438230607
32
0.0000000000
13
0.0000000000
23
-0.8561859219
33
0.0000000000
40
0.0000000000
40
0.0000000000
40
0.0000000000
40
0.0000000000
40
0.0862520800
40
0.2369017016
40
0.4110788636
40
0.6067881616
40
0.8065943203
40
1.0000000000
40
1.0000000000
40
1.0000000000
40
1.0000000000
10
20.9548490281
20
-15.7747924453
30
0.0000000000
10
20.9796179642
20
-15.7735325019
30
0.0000000000
10
21.0487383356
20
-15.7827291840
30
0.0000000000
10
21.1537563706
20
-15.8398255109
30
0.0000000000
10
21.2601429091
20
-15.9456325523
30
0.0000000000
10
21.3473843339
20
-16.0843504386
30
0.0000000000
10
21.4065049146
20
-16.2428015073
30
0.0000000000
10
21.4225320190
20
-16.3552392955
30
0.0000000000
10
21.4225320190
20
-16.4104363689
30
0.0000000000
11
20.9548490281
21
-15.7747924453
31
0.0000000000
11
21.0288092920
21
-15.7833718255
31
0.0000000000
11
21.1441761650
21
-15.8410552620
31
0.0000000000
11
21.2515394592
21
-15.9445554725
31
0.0000000000
11
21.3416486072
21
-16.0858278453
31
0.0000000000
11
21.4010934114
21
-16.2462388101
31
0.0000000000
11
21.4225320190
21
-16.4104363689
31
0.0000000000
0
SPLINE
5
2F4
100
AcDbEntity
8
0
100
AcDbSpline
62
0
6
CONTINUOUS
70
0
71
3
72
12
73
8
74
6
42
0.0000001000
43
0.0000001000
44
0.0000000001
12
-0.2841899184
22
-0.1409957503
32
0.0000000000
13
0.0000000000
23
-0.3158193894
33
0.0000000000
40
0.0000000000
40
0.0000000000
40
0.0000000000
40
0.0000000000
40
0.0994284458
40
0.2956523921
40
0.5079778249
40
0.7422601447
40
1.0000000000
40
1.0000000000
40
1.0000000000
40
1.0000000000
10
-0.4982845262
20
21.1478154834
30
0.0000000000
10
-0.5077033802
20
21.1431424873
30
0.0000000000
10
-0.5345618937
20
21.1269286753
30
0.0000000000
10
-0.5727487920
20
21.0883063938
30
0.0000000000
10
-0.6053537765
20
21.0281562772
30
0.0000000000
10
-0.6249078493
20
20.9560929243
30
0.0000000000
10
-0.6288518434
20
20.9041469695
30
0.0000000000
10
-0.6288518434
20
20.8770138882
30
0.0000000000
11
-0.4982845262
21
21.1478154834
31
0.0000000000
11
-0.5252445238
21
21.1315284455
31
0.0000000000
11
-0.5692337501
21
21.0878776343
31
0.0000000000
11
-0.6019225545
21
21.0293283839
31
0.0000000000
11
-0.6220538215
21
20.9581287683
31
0.0000000000
11
-0.6288518434
21
20.8770138882
31
0.0000000000
0
SPLINE
5
2F5
100
AcDbEntity
8
0
100
AcDbSpline
62
0
6
CONTINUOUS
70
0
71
3
72
9
73
5
74
3
42
0.0000001000
43
0.0000001000
44
0.0000000001
12
0.1096361328
22
0.1323425194
32
0.0000000000
13
-0.0000205804
23
0.1729517834
33
0.0000000000
40
0.0000000000
40
0.0000000000
40
0.0000000000
40
0.0000000000
40
0.5650888977
40
1.0000000000
40
1.0000000000
40
1.0000000000
40
1.0000000000
10
3.3450160287
20
22.4252056636
30
0.0000000000
10
3.3656674159
20
22.4501340931
30
0.0000000000
10
3.3938094083
20
22.5020286846
30
0.0000000000
10
3.4025106313
20
22.5596096703
30
0.0000000000
10
3.4025076478
20
22.5846825539
30
0.0000000000
11
3.3450160287
21
22.4252056636
31
0.0000000000
11
3.3912649382
21
22.5106000186
31
0.0000000000
11
3.4025076478
21
22.5846825539
31
0.0000000000
0
SPLINE
5
2F6
100
AcDbEntity
8
0
100
AcDbSpline
62
0
6
CONTINUOUS
70
0
71
3
72
11
73
7
74
5
42
0.0000001000
43
0.0000001000
44
0.0000000001
12
0.0000000000
22
0.3319188356
32
0.0000000000
13
0.2117482760
23
0.2556027798
33
0.0000000000
40
0.0000000000
40
0.0000000000
40
0.0000000000
40
0.0000000000
40
0.2021870167
40
0.4569144805
40
0.7347910379
40
1.0000000000
40
1.0000000000
40
1.0000000000
40
1.0000000000
10
2.6953902095
20
21.4811402662
30
0.0000000000
10
2.6953902095
20
21.5035101593
30
0.0000000000
10
2.7011665891
20
21.5540801694
30
0.0000000000
10
2.7239124757
20
21.6324844180
30
0.0000000000
10
2.7618219068
20
21.7126034855
30
0.0000000000
10
2.7959667627
20
21.7624445714
30
0.0000000000
10
2.8146859428
20
21.7850406207
30
0.0000000000
11
2.6953902095
21
21.4811402662
31
0.0000000000
11
2.7021408465
21
21.5479095551
31
0.0000000000
11
2.7252134880
21
21.6292493369
31
0.0000000000
11
2.7646070281
21
21.7126458374
31
0.0000000000
11
2.8146859428
21
21.7850406207
31
0.0000000000
0
SPLINE
5
2F7
100
AcDbEntity
8
0
100
AcDbSpline
62
0
6
CONTINUOUS
70
0
71
3
72
9
73
5
74
3
42
0.0000001000
43
0.0000001000
44
0.0000000001
12
-0.1400536293
22
0.0700268147
32
0.0000000000
13
-0.1553150236
23
-0.0260733144
33
0.0000000000
40
0.0000000000
40
0.0000000000
40
0.0000000000
40
0.0000000000
40
0.5938161293
40
1.0000000000
40
1.0000000000
40
1.0000000000
40
1.0000000000
10
1.9207975053
20
23.8313658688
30
0.0000000000
10
1.8930754706
20
23.8452268861
30
0.0000000000
10
1.8414938838
20
23.8599214347
30
0.0000000000
10
1.7885896517
20
23.8578243231
30
0.0000000000
10
1.7675608325
20
23.8542941366
30
0.0000000000
11
1.9207975053
21
23.8313658688
31
0.0000000000
11
1.8313491261
21
23.8567575712
31
0.0000000000
11
1.7675608325
21
23.8542941366
31
0.0000000000
0
SPLINE
5
2F8
100
AcDbEntity
8
0
100
AcDbSpline
62
0
6
CONTINUOUS
70
0
71
3
72
9
73
5
74
3
42
0.0000001000
43
0.0000001000
44
0.0000000001
12
-0.0630105568
22
-0.0105778180
32
0.0000000000
13
-0.0582779541
23
-0.0261788478
33
0.0000000000
40
0.0000000000
40
0.0000000000
40
0.0000000000
40
0.0000000000
40
0.4988901599
40
1.0000000000
40
1.0000000000
40
1.0000000000
40
1.0000000000
10
1.7675608325
20
23.8542941366
30
0.0000000000
10
1.7570823836
20
23.8525350801
30
0.0000000000
10
1.7363078155
20
23.8476761398
30
0.0000000000
10
1.7163293170
20
23.8401910011
30
0.0000000000
10
1.7065947649
20
23.8358181751
30
0.0000000000
11
1.7675608325
21
23.8542941366
31
0.0000000000
11
1.7365520633
21
23.8470332869
31
0.0000000000
11
1.7065947649
21
23.8358181751
31
0.0000000000
0
SPLINE
5
2F9
100
AcDbEntity
8
0
100
AcDbSpline
62
0
6
CONTINUOUS
70
0
71
3
72
8
73
4
74
2
42
0.0000001000
43
0.0000001000
44
0.0000000001
12
-0.0096558732
22
-0.0043374830
32
0.0000000000
13
-0.0094659185
23
-0.0047413722
33
0.0000000000
40
0.0000000000
40
0.0000000000
40
0.0000000000
40
0.0000000000
40
1.0000000000
40
1.0000000000
40
1.0000000000
40
1.0000000000
10
1.7065947649
20
23.8358181751
30
0.0000000000
10
1.7033761405
20
23.8343723474
30
0.0000000000
10
1.7001877842
20
23.8328585268
30
0.0000000000
10
1.6970324780
20
23.8312780694
30
0.0000000000
11
1.7065947649
21
23.8358181751
31
0.0000000000
11
1.6970324780
21
23.8312780694
31
0.0000000000
0
SPLINE
5
2FA
100
AcDbEntity
8
0
100
AcDbSpline
62
0
6
CONTINUOUS
70
0
71
3
72
10
73
6
74
4
42
0.0000001000
43
0.0000001000
44
0.0000000001
12
0.0000000000
22
0.2750055205
32
0.0000000000
13
-0.2476939254
23
0.1239493391
33
0.0000000000
40
0.0000000000
40
0.0000000000
40
0.0000000000
40
0.0000000000
40
0.3515965847
40
0.7088437165
40
1.0000000000
40
1.0000000000
40
1.0000000000
40
1.0000000000
10
3.4024969906
20
22.9360076289
30
0.0000000000
10
3.4024969906
20
22.9682379629
30
0.0000000000
10
3.3896217329
20
23.0339102548
30
0.0000000000
10
3.3374798795
20
23.1121459365
30
0.0000000000
10
3.2883560756
20
23.1475776951
30
0.0000000000
10
3.2643168613
20
23.1596072381
30
0.0000000000
11
3.4024969906
21
22.9360076289
31
0.0000000000
11
3.3837986910
21
23.0308734469
31
0.0000000000
11
3.3293847795
21
23.1126731608
31
0.0000000000
11
3.2643168613
21
23.1596072381
31
0.0000000000
0
SPLINE
5
2FB
100
AcDbEntity
8
0
100
AcDbSpline
62
0
6
CONTINUOUS
70
0
71
3
72
10
73
6
74
4
42
0.0000001000
43
0.0000001000
44
0.0000000001
12
-0.2458560429
22
-0.1229280215
32
0.0000000000
13
-0.0001441149
23
-0.2769550268
33
0.0000000000
40
0.0000000000
40
0.0000000000
40
0.0000000000
40
0.0000000000
40
0.3616445120
40
0.7319445178
40
1.0000000000
40
1.0000000000
40
1.0000000000
40
1.0000000000
10
-0.4241296361
20
22.7707056970
30
0.0000000000
10
-0.4537671323
20
22.7558869489
30
0.0000000000
10
-0.5083086182
20
22.7133214887
30
0.0000000000
10
-0.5535269170
20
22.6307389702
30
0.0000000000
10
-0.5623097829
20
22.5718668915
30
0.0000000000
10
-0.5623226598
20
22.5471204537
30
0.0000000000
11
-0.4241296361
21
22.7707056970
31
0.0000000000
11
-0.5024286393
21
22.7094598450
31
0.0000000000
11
-0.5513925287
21
22.6202241907
31
0.0000000000
11
-0.5623226598
21
22.5471204537
31
0.0000000000
0
SPLINE
5
2FC
100
AcDbEntity
8
0
100
AcDbSpline
62
0
6
CONTINUOUS
70
0
71
3
72
10
73
6
74
4
42
0.0000001000
43
0.0000001000
44
0.0000000001
12
-0.1461493039
22
0.0730282089
32
0.0000000000
13
-0.0715030460
23
0.1475972387
33
0.0000000000
40
0.0000000000
40
0.0000000000
40
0.0000000000
40
0.0000000000
40
0.4778366044
40
0.9841797995
40
1.0000000000
40
1.0000000000
40
1.0000000000
40
1.0000000000
10
-0.4240219102
20
21.9721247687
30
0.0000000000
10
-0.4473004059
20
21.9837566192
30
0.0000000000
10
-0.4917865830
20
22.0154705650
30
0.0000000000
10
-0.5243169090
20
22.0603026582
30
0.0000000000
10
-0.5368963022
20
22.0859270220
30
0.0000000000
10
-0.5372733664
20
22.0867053613
30
0.0000000000
11
-0.4240219102
21
21.9721247687
31
0.0000000000
11
-0.4875584142
21
22.0174770919
31
0.0000000000
11
-0.5361300110
21
22.0843763510
31
0.0000000000
11
-0.5372733664
21
22.0867053613
31
0.0000000000
0
SPLINE
5
2FD
100
AcDbEntity
8
0
100
AcDbSpline
62
0
6
CONTINUOUS
70
0
71
3
72
8
73
4
74
2
42
0.0000001000
43
0.0000001000
44
0.0000000001
12
-0.0359581859
22
0.0742252148
32
0.0000000000
13
-0.0100196395
23
0.0818812557
33
0.0000000000
40
0.0000000000
40
0.0000000000
40
0.0000000000
40
0.0000000000
40
1.0000000000
40
1.0000000000
40
1.0000000000
40
1.0000000000
10
-0.5372733664
20
22.0867053613
30
0.0000000000
10
-0.5492594284
20
22.1114470996
30
0.0000000000
10
-0.5571440939
20
22.1381969877
30
0.0000000000
10
-0.5604839737
20
22.1654907396
30
0.0000000000
11
-0.5372733664
21
22.0867053613
31
0.0000000000
11
-0.5604839737
21
22.1654907396
31
0.0000000000
0
SPLINE
5
2FE
100
AcDbEntity
8
0
100
AcDbSpline
62
0
6
CONTINUOUS
70
0
71
3
72
8
73
4
74
2
42
0.0000001000
43
0.0000001000
44
0.0000000001
12
-0.0036914839
22
0.0301670869
32
0.0000000000
13
0.0000040988
23
0.0303936639
33
0.0000000000
40
0.0000000000
40
0.0000000000
40
0.0000000000
40
0.0000000000
40
1.0000000000
40
1.0000000000
40
1.0000000000
40
1.0000000000
10
-0.5604839737
20
22.1654907396
30
0.0000000000
10
-0.5617144683
20
22.1755464353
30
0.0000000000
10
-0.5623280681
20
22.1856759532
30
0.0000000000
10
-0.5623267018
20
22.1958071745
30
0.0000000000
11
-0.5604839737
21
22.1654907396
31
0.0000000000
11
-0.5623267018
21
22.1958071745
31
0.0000000000
0
SPLINE
5
2FF
100
AcDbEntity
8
0
100
AcDbSpline
62
0
6
CONTINUOUS
70
0
71
3
72
10
73
6
74
4
42
0.0000001000
43
0.0000001000
44
0.0000000001
12
0.0000000000
22
0.2750055205
32
0.0000000000
13
-0.2476939254
23
0.1239493391
33
0.0000000000
40
0.0000000000
40
0.0000000000
40
0.0000000000
40
0.0000000000
40
0.3515965847
40
0.7088437165
40
1.0000000000
40
1.0000000000
40
1.0000000000
40
1.0000000000
10
16.7668151551
20
16.2538485467
30
0.0000000000
10
16.7668151551
20
16.2860788806
30
0.0000000000
10
16.7539398973
20
16.3517511726
30
0.0000000000
10
16.7017980440
20
16.4299868543
30
0.0000000000
10
16.6526742400
20
16.4654186129
30
0.0000000000
10
16.6286350257
20
16.4774481559
30
0.0000000000
11
16.7668151551
21
16.2538485467
31
0.0000000000
11
16.7481168554
21
16.3487143647
31
0.0000000000
11
16.6937029440
21
16.4305140785
31
0.0000000000
11
16.6286350257
21
16.4774481559
31
0.0000000000
0
SPLINE
5
300
100
AcDbEntity
8
0
100
AcDbSpline
62
0
6
CONTINUOUS
70
0
71
3
72
9
73
5
74
3
42
0.0000001000
43
0.0000001000
44
0.0000000001
12
0.0000000000
22
-0.1352131738
32
0.0000000000
13
-0.0705245311
23
-0.1164326772
33
0.0000000000
40
0.0000000000
40
0.0000000000
40
0.0000000000
40
0.0000000000
40
0.7481290239
40
1.0000000000
40
1.0000000000
40
1.0000000000
40
1.0000000000
10
16.7668151551
20
15.9025345746
30
0.0000000000
10
16.7668151551
20
15.8688156080
30
0.0000000000
10
16.7574235505
20
15.8232092456
30
0.0000000000
10
16.7365736526
20
15.7827713985
30
0.0000000000
10
16.7306526251
20
15.7729960612
30
0.0000000000
11
16.7668151551
21
15.9025345746
31
0.0000000000
11
16.7463497183
21
15.8034695239
31
0.0000000000
11
16.7306526251
21
15.7729960612
31
0.0000000000
0
SPLINE
5
301
100
AcDbEntity
8
0
100
AcDbSpline
62
0
6
CONTINUOUS
70
0
71
3
72
8
73
4
74
2
42
0.0000001000
43
0.0000001000
44
0.0000000001
12
-0.0190510318
22
-0.0314523556
32
0.0000000000
13
-0.0234596839
23
-0.0283210839
33
0.0000000000
40
0.0000000000
40
0.0000000000
40
0.0000000000
40
0.0000000000
40
1.0000000000
40
1.0000000000
40
1.0000000000
40
1.0000000000
10
16.7306526251
20
15.7729960612
30
0.0000000000
10
16.7243022812
20
15.7625119426
30
0.0000000000
10
16.7171817807
20
15.7524991854
30
0.0000000000
10
16.7093618860
20
15.7430588241
30
0.0000000000
11
16.7306526251
21
15.7729960612
31
0.0000000000
11
16.7093618860
21
15.7430588241
31
0.0000000000
0
SPLINE
5
302
100
AcDbEntity
8
0
100
AcDbSpline
62
0
6
CONTINUOUS
70
0
71
3
72
11
73
7
74
5
42
0.0000001000
43
0.0000001000
44
0.0000000001
12
0.0000000000
22
0.3319188356
32
0.0000000000
13
0.2117482760
23
0.2556027798
33
0.0000000000
40
0.0000000000
40
0.0000000000
40
0.0000000000
40
0.0000000000
40
0.2021870167
40
0.4569144805
40
0.7347910379
40
1.0000000000
40
1.0000000000
40
1.0000000000
40
1.0000000000
10
16.0597083739
20
14.7989811840
30
0.0000000000
10
16.0597083739
20
14.8213510771
30
0.0000000000
10
16.0654847535
20
14.8719210872
30
0.0000000000
10
16.0882306402
20
14.9503253358
30
0.0000000000
10
16.1261400712
20
15.0304444033
30
0.0000000000
10
16.1602849271
20
15.0802854892
30
0.0000000000
10
16.1790041073
20
15.1028815385
30
0.0000000000
11
16.0597083739
21
14.7989811840
31
0.0000000000
11
16.0664590109
21
14.8657504729
31
0.0000000000
11
16.0895316524
21
14.9470902547
31
0.0000000000
11
16.1289251925
21
15.0304867552
31
0.0000000000
11
16.1790041073
21
15.1028815385
31
0.0000000000
0
SPLINE
5
303
100
AcDbEntity
8
0
100
AcDbSpline
62
0
6
CONTINUOUS
70
0
71
3
72
9
73
5
74
3
42
0.0000001000
43
0.0000001000
44
0.0000000001
12
0.1400536293
22
0.0700268147
32
0.0000000000
13
0.1553150236
23
-0.0260733144
33
0.0000000000
40
0.0000000000
40
0.0000000000
40
0.0000000000
40
0.0000000000
40
0.5938161293
40
1.0000000000
40
1.0000000000
40
1.0000000000
40
1.0000000000
10
15.0615088719
20
17.1492067866
30
0.0000000000
10
15.0892309066
20
17.1630678039
30
0.0000000000
10
15.1408124934
20
17.1777623525
30
0.0000000000
10
15.1937167255
20
17.1756652409
30
0.0000000000
10
15.2147455447
20
17.1721350543
30
0.0000000000
11
15.0615088719
21
17.1492067866
31
0.0000000000
11
15.1509572511
21
17.1745984890
31
0.0000000000
11
15.2147455447
21
17.1721350543
31
0.0000000000
0
SPLINE
5
304
100
AcDbEntity
8
0
100
AcDbSpline
62
0
6
CONTINUOUS
70
0
71
3
72
9
73
5
74
3
42
0.0000001000
43
0.0000001000
44
0.0000000001
12
0.0630105568
22
-0.0105778180
32
0.0000000000
13
0.0582779541
23
-0.0261788478
33
0.0000000000
40
0.0000000000
40
0.0000000000
40
0.0000000000
40
0.0000000000
40
0.4988901599
40
1.0000000000
40
1.0000000000
40
1.0000000000
40
1.0000000000
10
15.2147455447
20
17.1721350543
30
0.0000000000
10
15.2252239936
20
17.1703759979
30
0.0000000000
10
15.2459985617
20
17.1655170576
30
0.0000000000
10
15.2659770602
20
17.1580319189
30
0.0000000000
10
15.2757116123
20
17.1536590928
30
0.0000000000
11
15.2147455447
21
17.1721350543
31
0.0000000000
11
15.2457543139
21
17.1648742047
31
0.0000000000
11
15.2757116123
21
17.1536590928
31
0.0000000000
0
SPLINE
5
305
100
AcDbEntity
8
0
100
AcDbSpline
62
0
6
CONTINUOUS
70
0
71
3
72
8
73
4
74
2
42
0.0000001000
43
0.0000001000
44
0.0000000001
12
0.0096558732
22
-0.0043374830
32
0.0000000000
13
0.0094659185
23
-0.0047413722
33
0.0000000000
40
0.0000000000
40
0.0000000000
40
0.0000000000
40
0.0000000000
40
1.0000000000
40
1.0000000000
40
1.0000000000
40
1.0000000000
10
15.2757116123
20
17.1536590928
30
0.0000000000
10
15.2789302367
20
17.1522132652
30
0.0000000000
10
15.2821185930
20
17.1506994446
30
0.0000000000
10
15.2852738991
20
17.1491189872
30
0.0000000000
11
15.2757116123
21
17.1536590928
31
0.0000000000
11
15.2852738991
21
17.1491189872
31
0.0000000000
0
SPLINE
5
306
100
AcDbEntity
8
0
100
AcDbSpline
62
0
6
CONTINUOUS
70
0
71
3
72
11
73
7
74
5
42
0.0000001000
43
0.0000001000
44
0.0000000001
12
-0.2478698196
22
-0.1236689549
32
0.0000000000
13
0.0000285908
23
-0.2773419852
33
0.0000000000
40
0.0000000000
40
0.0000000000
40
0.0000000000
40
0.0000000000
40
0.1634047876
40
0.5168852676
40
0.8757634146
40
1.0000000000
40
1.0000000000
40
1.0000000000
40
1.0000000000
10
12.9403871398
20
16.0886103332
30
0.0000000000
10
12.9268861014
20
16.0818743001
30
0.0000000000
10
12.8860192007
20
16.0567149735
30
0.0000000000
10
12.8311434036
20
15.9954378276
30
0.0000000000
10
12.8050631669
20
15.9212510061
30
0.0000000000
10
12.8020238031
20
15.8765658534
30
0.0000000000
10
12.8020249871
20
15.8650805130
30
0.0000000000
11
12.9403871398
21
16.0886103332
31
0.0000000000
11
12.9018946573
21
16.0648668276
31
0.0000000000
11
12.8370043485
21
15.9925342565
31
0.0000000000
11
12.8043819674
21
15.8994261590
31
0.0000000000
11
12.8020249871
21
15.8650805130
31
0.0000000000
0
SPLINE
5
307
100
AcDbEntity
8
0
100
AcDbSpline
62
0
6
CONTINUOUS
70
0
71
3
72
9
73
5
74
3
42
0.0000001000
43
0.0000001000
44
0.0000000001
12
0.0000000000
22
-0.1352131738
32
0.0000000000
13
0.0705245311
23
-0.1164326772
33
0.0000000000
40
0.0000000000
40
0.0000000000
40
0.0000000000
40
0.0000000000
40
0.7481290239
40
1.0000000000
40
1.0000000000
40
1.0000000000
40
1.0000000000
10
12.8019919272
20
15.5136258450
30
0.0000000000
10
12.8019919272
20
15.4799068784
30
0.0000000000
10
12.8113835318
20
15.4343005160
30
0.0000000000
10
12.8322334297
20
15.3938626688
30
0.0000000000
10
12.8381544572
20
15.3840873315
30
0.0000000000
11
12.8019919272
21
15.5136258450
31
0.0000000000
11
12.8224573640
21
15.4145607943
31
0.0000000000
11
12.8381544572
21
15.3840873315
31
0.0000000000
0
SPLINE
5
308
100
AcDbEntity
8
0
100
AcDbSpline
62
0
6
CONTINUOUS
70
0
71
3
72
9
73
5
74
3
42
0.0000001000
43
0.0000001000
44
0.0000000001
12
0.0729565200
22
-0.1204477762
32
0.0000000000
13
0.1258781919
23
-0.0629100841
33
0.0000000000
40
0.0000000000
40
0.0000000000
40
0.0000000000
40
0.0000000000
40
0.4867712243
40
1.0000000000
40
1.0000000000
40
1.0000000000
40
1.0000000000
10
12.8381544572
20
15.3840873315
30
0.0000000000
10
12.8499921687
20
15.3645438277
30
0.0000000000
10
12.8798088876
20
15.3277594526
30
0.0000000000
10
12.9189857079
20
15.3006497889
30
0.0000000000
10
12.9405204780
20
15.2898873671
30
0.0000000000
11
12.8381544572
21
15.3840873315
31
0.0000000000
11
12.8812378509
21
15.3310250634
31
0.0000000000
11
12.9405204780
21
15.2898873671
31
0.0000000000
0
SPLINE
5
309
100
AcDbEntity
8
0
100
AcDbSpline
62
0
6
CONTINUOUS
70
0
71
3
72
10
73
6
74
4
42
0.0000001000
43
0.0000001000
44
0.0000000001
12
-0.0634937321
22
0.0131499825
32
0.0000000000
13
-0.0580078158
23
0.0290053825
33
0.0000000000
40
0.0000000000
40
0.0000000000
40
0.0000000000
40
0.0000000000
40
0.3607052022
40
0.7224982312
40
1.0000000000
40
1.0000000000
40
1.0000000000
40
1.0000000000
10
14.3447940589
20
14.5970695138
30
0.0000000000
10
14.3371598858
20
14.5986506029
30
0.0000000000
10
14.3220069449
20
14.6025360213
30
0.0000000000
10
14.3016377263
20
14.6098502968
30
0.0000000000
10
14.2890495062
20
14.6155884706
30
0.0000000000
10
14.2836837490
20
14.6182714856
30
0.0000000000
11
14.3447940589
21
14.5970695138
31
0.0000000000
11
14.3221384859
21
14.6028789019
31
0.0000000000
11
14.3000596858
21
14.6108070170
31
0.0000000000
11
14.2836837490
21
14.6182714856
31
0.0000000000
0
SPLINE
5
30A
100
AcDbEntity
8
0
100
AcDbSpline
62
0
6
CONTINUOUS
70
0
71
3
72
10
73
6
74
4
42
0.0000001000
43
0.0000001000
44
0.0000000001
12
0.0000000000
22
-0.2130598362
32
0.0000000000
13
-0.0963494466
23
-0.1903142461
33
0.0000000000
40
0.0000000000
40
0.0000000000
40
0.0000000000
40
0.0000000000
40
0.3149804315
40
0.7118118789
40
1.0000000000
40
1.0000000000
40
1.0000000000
40
1.0000000000
10
13.5090987084
20
-24.6824249038
30
0.0000000000
10
13.5090987084
20
-24.7047947969
30
0.0000000000
10
13.5033223288
20
-24.7553648069
30
0.0000000000
10
13.4834518327
20
-24.8238576884
30
0.0000000000
10
13.4638279991
20
-24.8684970453
30
0.0000000000
10
13.4545724105
20
-24.8867791470
30
0.0000000000
11
13.5090987084
21
-24.6824249038
31
0.0000000000
11
13.5023480714
21
-24.7491941927
31
0.0000000000
11
13.4792754299
21
-24.8305339744
31
0.0000000000
11
13.4545724105
21
-24.8867791470
31
0.0000000000
0
SPLINE
5
30B
100
AcDbEntity
8
0
100
AcDbSpline
62
0
6
CONTINUOUS
70
0
71
3
72
9
73
5
74
3
42
0.0000001000
43
0.0000001000
44
0.0000000001
12
-0.0409397021
22
-0.0808661473
32
0.0000000000
13
-0.0537115744
23
-0.0729782518
33
0.0000000000
40
0.0000000000
40
0.0000000000
40
0.0000000000
40
0.0000000000
40
0.3405592449
40
1.0000000000
40
1.0000000000
40
1.0000000000
40
1.0000000000
10
13.4545724105
20
-24.8867791470
30
0.0000000000
10
13.4499249458
20
-24.8959590517
30
0.0000000000
10
13.4355381634
20
-24.9225459659
30
0.0000000000
10
13.4190479909
20
-24.9479480649
30
0.0000000000
10
13.4072414572
20
-24.9639896761
30
0.0000000000
11
13.4545724105
21
-24.8867791470
31
0.0000000000
11
13.4398818898
21
-24.9139304750
31
0.0000000000
11
13.4072414572
21
-24.9639896761
31
0.0000000000
0
SPLINE
5
30C
100
AcDbEntity
8
0
100
AcDbSpline
62
0
6
CONTINUOUS
70
0
71
3
72
8
73
4
74
2
42
0.0000001000
43
0.0000001000
44
0.0000000001
12
-0.0168069003
22
-0.0228356405
32
0.0000000000
13
-0.0180719397
23
-0.0218147610
33
0.0000000000
40
0.0000000000
40
0.0000000000
40
0.0000000000
40
0.0000000000
40
1.0000000000
40
1.0000000000
40
1.0000000000
40
1.0000000000
10
13.4072414572
20
-24.9639896761
30
0.0000000000
10
13.4016391570
20
-24.9716015563
30
0.0000000000
10
13.3958269549
20
-24.9790536713
30
0.0000000000
10
13.3898029750
20
-24.9863252583
30
0.0000000000
11
13.4072414572
21
-24.9639896761
31
0.0000000000
11
13.3898029750
21
-24.9863252583
31
0.0000000000
0
SPLINE
5
30D
100
AcDbEntity
8
0
100
AcDbSpline
62
0
6
CONTINUOUS
70
0
71
3
72
9
73
5
74
3
42
0.0000001000
43
0.0000001000
44
0.0000000001
12
0.0000000000
22
0.1717387689
32
0.0000000000
13
0.1103044927
23
0.1331621858
33
0.0000000000
40
0.0000000000
40
0.0000000000
40
0.0000000000
40
0.0000000000
40
0.5890160992
40
1.0000000000
40
1.0000000000
40
1.0000000000
40
1.0000000000
10
12.8019919272
20
-25.7859782944
30
0.0000000000
10
12.8019919272
20
-25.7522593278
30
0.0000000000
10
12.8139205180
20
-25.6943331635
30
0.0000000000
10
12.8443340727
20
-25.6447450488
30
0.0000000000
10
12.8594451963
20
-25.6265025439
30
0.0000000000
11
12.8019919272
21
-25.7859782944
31
0.0000000000
11
12.8224573640
21
-25.6869132437
31
0.0000000000
11
12.8594451963
21
-25.6265025439
31
0.0000000000
0
SPLINE
5
30E
100
AcDbEntity
8
0
100
AcDbSpline
62
0
6
CONTINUOUS
70
0
71
3
72
10
73
6
74
4
42
0.0000001000
43
0.0000001000
44
0.0000000001
12
-0.1576570116
22
0.0786593459
32
0.0000000000
13
-0.0691008541
23
0.1617814930
33
0.0000000000
40
0.0000000000
40
0.0000000000
40
0.0000000000
40
0.0000000000
40
0.2569065264
40
0.8126518238
40
1.0000000000
40
1.0000000000
40
1.0000000000
40
1.0000000000
10
12.9403871398
20
-26.3609627827
30
0.0000000000
10
12.9268861014
20
-26.3542267495
30
0.0000000000
10
12.8860192007
20
-26.3290674229
30
0.0000000000
10
12.8461641209
20
-26.2845631848
30
0.0000000000
10
12.8264219698
20
-26.2456259439
30
0.0000000000
10
12.8221066634
20
-26.2355227880
30
0.0000000000
11
12.9403871398
21
-26.3609627827
31
0.0000000000
11
12.9018946573
21
-26.3372192770
31
0.0000000000
11
12.8370043485
21
-26.2648867060
31
0.0000000000
11
12.8221066634
21
-26.2355227880
31
0.0000000000
0
SPLINE
5
30F
100
AcDbEntity
8
0
100
AcDbSpline
62
0
6
CONTINUOUS
70
0
71
3
72
9
73
5
74
3
42
0.0000001000
43
0.0000001000
44
0.0000000001
12
-0.0395401512
22
0.0925728745
32
0.0000000000
13
0.0000104057
23
0.1009392725
33
0.0000000000
40
0.0000000000
40
0.0000000000
40
0.0000000000
40
0.0000000000
40
0.6586460315
40
1.0000000000
40
1.0000000000
40
1.0000000000
40
1.0000000000
10
12.8221066634
20
-26.2355227880
30
0.0000000000
10
12.8134256755
20
-26.2151985358
30
0.0000000000
10
12.8043134946
20
-26.1825816670
30
0.0000000000
10
12.8020238031
20
-26.1489183028
30
0.0000000000
10
12.8020249871
20
-26.1374329624
30
0.0000000000
11
12.8221066634
21
-26.2355227880
31
0.0000000000
11
12.8043819674
21
-26.1717786085
31
0.0000000000
11
12.8020249871
21
-26.1374329624
31
0.0000000000
0
SPLINE
5
310
100
AcDbEntity
8
0
100
AcDbSpline
62
0
6
CONTINUOUS
70
0
71
3
72
10
73
6
74
4
42
0.0000001000
43
0.0000001000
44
0.0000000001
12
-0.2062868698
22
-0.1031434349
32
0.0000000000
13
-0.2074210704
23
0.1038948826
33
0.0000000000
40
0.0000000000
40
0.0000000000
40
0.0000000000
40
0.0000000000
40
0.4031575259
40
0.8163394535
40
1.0000000000
40
1.0000000000
40
1.0000000000
40
1.0000000000
10
14.5072982104
20
-27.0326505064
30
0.0000000000
10
14.4795761757
20
-27.0465115237
30
0.0000000000
10
14.4175546132
20
-27.0641802097
30
0.0000000000
10
14.3392369611
20
-27.0560855212
30
0.0000000000
10
14.2962315389
20
-27.0389231706
30
0.0000000000
10
14.2835331832
20
-27.0325627070
30
0.0000000000
11
14.5072982104
21
-27.0326505064
31
0.0000000000
11
14.4178498312
21
-27.0580422088
31
0.0000000000
11
14.3230527684
21
-27.0483179245
31
0.0000000000
11
14.2835331832
21
-27.0325627070
31
0.0000000000
0
SPLINE
5
311
100
AcDbEntity
8
0
100
AcDbSpline
62
0
6
CONTINUOUS
70
0
71
3
72
9
73
5
74
3
42
0.0000001000
43
0.0000001000
44
0.0000000001
12
0.1494408289
22
0.0747204145
32
0.0000000000
13
0.0707825410
23
0.1525675417
33
0.0000000000
40
0.0000000000
40
0.0000000000
40
0.0000000000
40
0.0000000000
40
0.5949678497
40
1.0000000000
40
1.0000000000
40
1.0000000000
40
1.0000000000
10
16.6286185539
20
-25.9719903346
30
0.0000000000
10
16.6582560502
20
-25.9571715865
30
0.0000000000
10
16.7035496860
20
-25.9218233663
30
0.0000000000
10
16.7340546120
20
-25.8741441906
30
0.0000000000
10
16.7436110136
20
-25.8535459374
30
0.0000000000
11
16.6286185539
21
-25.9719903346
31
0.0000000000
11
16.7069175572
21
-25.9107444826
31
0.0000000000
11
16.7436110136
21
-25.8535459374
31
0.0000000000
0
SPLINE
5
312
100
AcDbEntity
8
0
100
AcDbSpline
62
0
6
CONTINUOUS
70
0
71
3
72
9
73
5
74
3
42
0.0000001000
43
0.0000001000
44
0.0000000001
12
0.0456669966
22
0.0984324852
32
0.0000000000
13
0.0000565163
23
0.1086110305
33
0.0000000000
40
0.0000000000
40
0.0000000000
40
0.0000000000
40
0.0000000000
40
0.3164661736
40
1.0000000000
40
1.0000000000
40
1.0000000000
40
1.0000000000
10
16.7436110136
20
-25.8535459374
30
0.0000000000
10
16.7484283669
20
-25.8431624201
30
0.0000000000
10
16.7614031183
20
-25.8093184433
30
0.0000000000
10
16.7667987008
20
-25.7731515291
30
0.0000000000
10
16.7668115777
20
-25.7484050913
30
0.0000000000
11
16.7436110136
21
-25.8535459374
31
0.0000000000
11
16.7558814466
21
-25.8215088283
31
0.0000000000
11
16.7668115777
21
-25.7484050913
31
0.0000000000
0
SPLINE
5
313
100
AcDbEntity
8
0
100
AcDbSpline
62
0
6
CONTINUOUS
70
0
71
3
72
9
73
5
74
3
42
0.0000001000
43
0.0000001000
44
0.0000000001
12
0.0101847553
22
0.0075845885
32
0.0000000000
13
-0.0003966253
23
0.0378652387
33
0.0000000000
40
0.0000000000
40
0.0000000000
40
0.0000000000
40
0.0000000000
40
0.4320131960
40
1.0000000000
40
1.0000000000
40
1.0000000000
40
1.0000000000
10
16.0675050326
20
-25.0590252776
30
0.0000000000
10
16.0689716821
20
-25.0579330635
30
0.0000000000
10
16.0608076237
20
-25.0365748804
30
0.0000000000
10
16.0595759502
20
-25.0234104578
30
0.0000000000
10
16.0595008576
20
-25.0162414725
30
0.0000000000
11
16.0675050326
21
-25.0590252776
31
0.0000000000
11
16.0632115486
21
-25.0410082754
31
0.0000000000
11
16.0595008576
21
-25.0162414725
31
0.0000000000
0
SPLINE
5
314
100
AcDbEntity
8
0
100
AcDbSpline
62
0
6
CONTINUOUS
70
0
71
3
72
8
73
4
74
2
42
0.0000001000
43
0.0000001000
44
0.0000000001
12
-0.0001597474
22
0.0152508487
32
0.0000000000
13
0.0000000000
23
0.0168188300
33
0.0000000000
40
0.0000000000
40
0.0000000000
40
0.0000000000
40
0.0000000000
40
1.0000000000
40
1.0000000000
40
1.0000000000
40
1.0000000000
10
16.0595008576
20
-25.0162414725
30
0.0000000000
10
16.0594476084
20
-25.0111578562
30
0.0000000000
10
16.0597083739
20
-25.0062292320
30
0.0000000000
10
16.0597083739
20
-25.0006229554
30
0.0000000000
11
16.0595008576
21
-25.0162414725
31
0.0000000000
11
16.0597083739
21
-25.0006229554
31
0.0000000000
0
SPLINE
5
315
100
AcDbEntity
8
0
100
AcDbSpline
62
0
6
CONTINUOUS
70
0
71
3
72
9
73
5
74
3
42
0.0000001000
43
0.0000001000
44
0.0000000001
12
0.0000000000
22
0.1352131738
32
0.0000000000
13
-0.0705245311
23
0.1164326772
33
0.0000000000
40
0.0000000000
40
0.0000000000
40
0.0000000000
40
0.0000000000
40
0.7481290239
40
1.0000000000
40
1.0000000000
40
1.0000000000
40
1.0000000000
10
16.7668151551
20
-25.3970695648
30
0.0000000000
10
16.7668151551
20
-25.3633505982
30
0.0000000000
10
16.7574235505
20
-25.3177442358
30
0.0000000000
10
16.7365736526
20
-25.2773063886
30
0.0000000000
10
16.7306526251
20
-25.2675310513
30
0.0000000000
11
16.7668151551
21
-25.3970695648
31
0.0000000000
11
16.7463497183
21
-25.2980045141
31
0.0000000000
11
16.7306526251
21
-25.2675310513
31
0.0000000000
0
SPLINE
5
316
100
AcDbEntity
8
0
100
AcDbSpline
62
0
6
CONTINUOUS
70
0
71
3
72
9
73
5
74
3
42
0.0000001000
43
0.0000001000
44
0.0000000001
12
-0.0729565200
22
0.1204477762
32
0.0000000000
13
-0.1258781919
23
0.0629100841
33
0.0000000000
40
0.0000000000
40
0.0000000000
40
0.0000000000
40
0.0000000000
40
0.4867712243
40
1.0000000000
40
1.0000000000
40
1.0000000000
40
1.0000000000
10
16.7306526251
20
-25.2675310513
30
0.0000000000
10
16.7188149136
20
-25.2479875475
30
0.0000000000
10
16.6889981947
20
-25.2112031724
30
0.0000000000
10
16.6498213744
20
-25.1840935087
30
0.0000000000
10
16.6282866043
20
-25.1733310869
30
0.0000000000
11
16.7306526251
21
-25.2675310513
31
0.0000000000
11
16.6875692314
21
-25.2144687832
31
0.0000000000
11
16.6282866043
21
-25.1733310869
31
0.0000000000
0
SPLINE
5
317
100
AcDbEntity
8
0
100
AcDbSpline
62
0
6
CONTINUOUS
70
0
71
3
72
15
73
11
74
9
42
0.0000001000
43
0.0000001000
44
0.0000000001
12
0.6584562976
22
-0.3292281488
32
0.0000000000
13
0.0000000000
23
-0.7361765208
33
0.0000000000
40
0.0000000000
40
0.0000000000
40
0.0000000000
40
0.0000000000
40
0.1103210880
40
0.2298825222
40
0.3567663160
40
0.4883345280
40
0.6215367244
40
0.7531861065
40
0.8802252688
40
1.0000000000
40
1.0000000000
40
1.0000000000
40
1.0000000000
10
16.8702069856
20
14.6366658001
30
0.0000000000
10
16.8944208573
20
14.6245588642
30
0.0000000000
10
16.9424140350
20
14.5942570299
30
0.0000000000
10
17.0083211564
20
14.5361941226
30
0.0000000000
10
17.0690069862
20
14.4656767346
30
0.0000000000
10
17.1222026002
20
14.3853476238
30
0.0000000000
10
17.1659434026
20
14.2982011643
30
0.0000000000
10
17.1985909966
20
14.2074862253
30
0.0000000000
10
17.2189215168
20
14.1166171682
30
0.0000000000
10
17.2239219362
20
14.0559895346
30
0.0000000000
10
17.2239219362
20
14.0265977530
30
0.0000000000
11
16.8702069856
21
14.6366658001
31
0.0000000000
11
16.9392122567
21
14.5938373298
31
0.0000000000
11
17.0055649913
21
14.5360053371
31
0.0000000000
11
17.0667153517
21
14.4653947826
31
0.0000000000
11
17.1203146166
21
14.3847196299
31
0.0000000000
11
17.1643038430
21
14.2970795923
31
0.0000000000
11
17.1969926474
21
14.2058415375
31
0.0000000000
11
17.2171239143
21
14.1145106550
31
0.0000000000
11
17.2239219362
21
14.0265977530
31
0.0000000000
0
SPLINE
5
318
100
AcDbEntity
8
0
100
AcDbSpline
62
0
6
CONTINUOUS
70
0
71
3
72
11
73
7
74
5
42
0.0000001000
43
0.0000001000
44
0.0000000001
12
0.2078681995
22
-0.1039340997
32
0.0000000000
13
0.2084814306
23
0.1050502880
33
0.0000000000
40
0.0000000000
40
0.0000000000
40
0.0000000000
40
0.0000000000
40
0.3175658015
40
0.6054166106
40
0.8716679417
40
1.0000000000
40
1.0000000000
40
1.0000000000
40
1.0000000000
10
14.7118588577
20
-25.2185350987
30
0.0000000000
10
14.7338628015
20
-25.2295370706
30
0.0000000000
10
14.7779043995
20
-25.2467913462
30
0.0000000000
10
14.8454909525
20
-25.2563207645
30
0.0000000000
10
14.8986383194
20
-25.2486105414
30
0.0000000000
10
14.9271451785
20
-25.2369488833
30
0.0000000000
10
14.9360634622
20
-25.2324551101
30
0.0000000000
11
14.7118588577
21
-25.2185350987
31
0.0000000000
11
14.7808641288
21
-25.2447118996
31
0.0000000000
11
14.8472168634
21
-25.2532326415
31
0.0000000000
11
14.9083672238
21
-25.2437724474
31
0.0000000000
11
14.9360634622
21
-25.2324551101
31
0.0000000000
0
SPLINE
5
319
100
AcDbEntity
8
0
100
AcDbSpline
62
0
6
CONTINUOUS
70
0
71
3
72
12
73
8
74
6
42
0.0000001000
43
0.0000001000
44
0.0000000001
12
0.0000000000
22
-0.3146429610
32
0.0000000000
13
-0.2822554466
23
-0.1422237887
33
0.0000000000
40
0.0000000000
40
0.0000000000
40
0.0000000000
40
0.0000000000
40
0.2587034113
40
0.4938614812
40
0.7069806019
40
0.9039381619
40
1.0000000000
40
1.0000000000
40
1.0000000000
40
1.0000000000
10
17.2239219362
20
-23.8746861337
30
0.0000000000
10
17.2239219362
20
-23.9018192028
30
0.0000000000
10
17.2199779465
20
-23.9537651227
30
0.0000000000
10
17.2004239013
20
-24.0258284257
30
0.0000000000
10
17.1678189702
20
-24.0859785142
30
0.0000000000
10
17.1299121050
20
-24.1243176342
30
0.0000000000
10
17.1034495867
20
-24.1404051464
30
0.0000000000
10
17.0944115944
20
-24.1449592393
30
0.0000000000
11
17.2239219362
21
-23.8746861337
31
0.0000000000
11
17.2171239207
21
-23.9558009779
31
0.0000000000
11
17.1969926869
21
-24.0270005324
31
0.0000000000
11
17.1643039406
21
-24.0855497496
31
0.0000000000
11
17.1203147625
21
-24.1292005852
31
0.0000000000
11
17.0944115944
21
-24.1449592393
31
0.0000000000
0
SPLINE
5
31A
100
AcDbEntity
8
0
100
AcDbSpline
62
0
6
CONTINUOUS
70
0
71
3
72
12
73
8
74
6
42
0.0000001000
43
0.0000001000
44
0.0000000001
12
1.1544904648
22
0.5816965273
32
0.0000000000
13
1.0770214968
23
0.7150131317
33
0.0000000000
40
0.0000000000
40
0.0000000000
40
0.0000000000
40
0.0000000000
40
0.1511514706
40
0.3378938807
40
0.5476765024
40
0.7716890904
40
1.0000000000
40
1.0000000000
40
1.0000000000
40
1.0000000000
10
21.0015039300
20
-19.6840733701
30
0.0000000000
10
21.0596715739
20
-19.6547652749
30
0.0000000000
10
21.1884000963
20
-19.5866629954
30
0.0000000000
10
21.3941301619
20
-19.4709857743
30
0.0000000000
10
21.6243750132
20
-19.3349659733
30
0.0000000000
10
21.8671406934
20
-19.1850387403
30
0.0000000000
10
22.0308759892
20
-19.0792547480
30
0.0000000000
10
22.1128412417
20
-19.0248396485
30
0.0000000000
11
21.0015039300
21
-19.6840733701
31
0.0000000000
11
21.1744804005
21
-19.5931828108
31
0.0000000000
11
21.3850706920
21
-19.4751501999
31
0.0000000000
11
21.6186503370
21
-19.3373503106
31
0.0000000000
11
21.8650466304
21
-19.1851879621
31
0.0000000000
11
22.1128412417
21
-19.0248396485
31
0.0000000000
0
SPLINE
5
31B
100
AcDbEntity
8
0
100
AcDbSpline
62
0
6
CONTINUOUS
70
0
71
3
72
10
73
6
74
4
42
0.0000001000
43
0.0000001000
44
0.0000000001
12
0.0819023456
22
0.3172903359
32
0.0000000000
13
-0.0000000000
23
0.3276906338
33
0.0000000000
40
0.0000000000
40
0.0000000000
40
0.0000000000
40
0.0000000000
40
0.3452993644
40
0.6794170504
40
1.0000000000
40
1.0000000000
40
1.0000000000
40
1.0000000000
10
22.1128412417
20
-19.0248396485
30
0.0000000000
10
22.1222681844
20
-18.9883195981
30
0.0000000000
10
22.1381326367
20
-18.9157297414
30
0.0000000000
10
22.1528388946
20
-18.8073810741
30
0.0000000000
10
22.1563094740
20
-18.7358339152
30
0.0000000000
10
22.1563094740
20
-18.7008165719
30
0.0000000000
11
22.1128412417
21
-19.0248396485
31
0.0000000000
11
22.1368768135
21
-18.9142705603
31
0.0000000000
11
22.1514342290
21
-18.8057554159
31
0.0000000000
11
22.1563094740
21
-18.7008165719
31
0.0000000000
0
SPLINE
5
31C
100
AcDbEntity
8
0
100
AcDbSpline
62
0
6
CONTINUOUS
70
0
71
3
72
10
73
6
74
4
42
0.0000001000
43
0.0000001000
44
0.0000000001
12
0.0000000000
22
0.2835639754
32
0.0000000000
13
-0.0942236552
23
0.2674517357
33
0.0000000000
40
0.0000000000
40
0.0000000000
40
0.0000000000
40
0.0000000000
40
0.3526868308
40
0.6861836209
40
1.0000000000
40
1.0000000000
40
1.0000000000
40
1.0000000000
10
22.1563094740
20
18.0624762771
30
0.0000000000
10
22.1563094740
20
18.0958127037
30
0.0000000000
10
22.1533125827
20
18.1607314504
30
0.0000000000
10
22.1390455569
20
18.2543450676
30
0.0000000000
10
22.1226975505
20
18.3135097699
30
0.0000000000
10
22.1128412417
20
18.3414866816
30
0.0000000000
11
22.1563094740
21
18.0624762771
31
0.0000000000
11
22.1514342290
21
18.1623666572
31
0.0000000000
11
22.1368768135
21
18.2558071565
31
0.0000000000
11
22.1128412417
21
18.3414866816
31
0.0000000000
0
SPLINE
5
31D
100
AcDbEntity
8
0
100
AcDbSpline
62
0
6
CONTINUOUS
70
0
71
3
72
10
73
6
74
4
42
0.0000001000
43
0.0000001000
44
0.0000000001
12
-0.4421372264
22
0.4961865928
32
0.0000000000
13
-0.5958626307
23
0.2980118706
33
0.0000000000
40
0.0000000000
40
0.0000000000
40
0.0000000000
40
0.0000000000
40
0.5158607784
40
0.9608207693
40
1.0000000000
40
1.0000000000
40
1.0000000000
40
1.0000000000
10
22.1128412417
20
18.3414866816
30
0.0000000000
10
22.0368141571
20
18.4268077490
30
0.0000000000
10
21.8831165521
20
18.5756673083
30
0.0000000000
10
21.6988586163
20
18.7008645249
30
0.0000000000
10
21.6032120045
20
18.7499560129
30
0.0000000000
10
21.5954301914
20
18.7538479715
30
0.0000000000
11
22.1128412417
21
18.3414866816
31
0.0000000000
11
21.8650466304
21
18.5784171560
31
0.0000000000
11
21.6186503370
21
18.7419350490
31
0.0000000000
11
21.5954301914
21
18.7538479715
31
0.0000000000
0
SPLINE
5
31E
100
AcDbEntity
8
0
100
AcDbSpline
62
0
6
CONTINUOUS
70
0
71
3
72
11
73
7
74
5
42
0.0000001000
43
0.0000001000
44
0.0000000001
12
0.4056879499
22
0.1941711775
32
0.0000000000
13
0.4039890973
23
-0.2021280081
33
0.0000000000
40
0.0000000000
40
0.0000000000
40
0.0000000000
40
0.0000000000
40
0.3217225417
40
0.6138360054
40
0.8848886384
40
1.0000000000
40
1.0000000000
40
1.0000000000
40
1.0000000000
10
17.8373034152
20
20.3931067442
30
0.0000000000
10
17.8808097347
20
20.4139298258
30
0.0000000000
10
17.9678257406
20
20.4462424716
30
0.0000000000
10
18.1009484300
20
20.4624375660
30
0.0000000000
10
18.2028628923
20
20.4456617846
30
0.0000000000
10
18.2566361996
20
20.4232004650
30
0.0000000000
10
18.2721374447
20
20.4154447216
30
0.0000000000
11
17.8373034152
21
20.3931067442
31
0.0000000000
11
17.9734870724
21
20.4420109011
31
0.0000000000
11
18.1040887579
21
20.4563024404
31
0.0000000000
11
18.2242000863
21
20.4354442452
31
0.0000000000
11
18.2721374447
21
20.4154447216
31
0.0000000000
0
SPLINE
5
31F
100
AcDbEntity
8
0
100
AcDbSpline
62
0
6
CONTINUOUS
70
0
71
3
72
12
73
8
74
6
42
0.0000001000
43
0.0000001000
44
0.0000000001
12
0.0000000000
22
0.6302091156
32
0.0000000000
13
-0.5660728359
23
0.2832234225
33
0.0000000000
40
0.0000000000
40
0.0000000000
40
0.0000000000
40
0.0000000000
40
0.2554789576
40
0.4879801843
40
0.6988883657
40
0.8937515308
40
1.0000000000
40
1.0000000000
40
1.0000000000
40
1.0000000000
10
14.2894287943
20
21.9959166170
30
0.0000000000
10
14.2894287943
20
22.0495850063
30
0.0000000000
10
14.2817067749
20
22.1523823719
30
0.0000000000
10
14.2434663750
20
22.2951665221
30
0.0000000000
10
14.1797110458
20
22.4147423594
30
0.0000000000
10
14.1038589488
20
22.4932809670
30
0.0000000000
10
14.0495448816
20
22.5267343801
30
0.0000000000
10
14.0294967575
20
22.5367650652
30
0.0000000000
11
14.2894287943
21
21.9959166170
31
0.0000000000
11
14.2761412446
21
22.1563725459
31
0.0000000000
11
14.2367779798
21
22.2975105314
31
0.0000000000
11
14.1728183841
21
22.4140262037
31
0.0000000000
11
14.0866662424
21
22.5015405696
31
0.0000000000
11
14.0294967575
21
22.5367650652
31
0.0000000000
0
SPLINE
5
320
100
AcDbEntity
8
0
100
AcDbSpline
62
0
6
CONTINUOUS
70
0
71
3
72
10
73
6
74
4
42
0.0000001000
43
0.0000001000
44
0.0000000001
12
0.2633977027
22
0.1306472023
32
0.0000000000
13
0.1439998940
23
-0.1186054518
33
0.0000000000
40
0.0000000000
40
0.0000000000
40
0.0000000000
40
0.0000000000
40
0.5022705884
40
0.8547960901
40
1.0000000000
40
1.0000000000
40
1.0000000000
40
1.0000000000
10
10.4304622132
20
24.0965273452
30
0.0000000000
10
10.4745611863
20
24.1184007609
30
0.0000000000
10
10.5568695085
20
24.1561857602
30
0.0000000000
10
10.6293531328
20
24.1875818319
30
0.0000000000
10
10.6995618104
20
24.2048366421
30
0.0000000000
10
10.7065315929
20
24.1990959836
30
0.0000000000
11
10.4304622132
21
24.0965273452
31
0.0000000000
11
10.5642624924
21
24.1590251607
31
0.0000000000
11
10.6615023428
21
24.1949076208
31
0.0000000000
11
10.7065315929
21
24.1990959836
31
0.0000000000
0
SPLINE
5
321
100
AcDbEntity
8
0
100
AcDbSpline
62
0
6
CONTINUOUS
70
0
71
3
72
10
73
6
74
4
42
0.0000001000
43
0.0000001000
44
0.0000000001
12
0.0000000000
22
-0.2681866143
32
0.0000000000
13
-0.1982920754
23
-0.1849303063
33
0.0000000000
40
0.0000000000
40
0.0000000000
40
0.0000000000
40
0.0000000000
40
0.5382808969
40
0.9751629158
40
1.0000000000
40
1.0000000000
40
1.0000000000
40
1.0000000000
10
21.4225320190
20
16.5058735292
30
0.0000000000
10
21.4225320190
20
16.4577536187
30
0.0000000000
10
21.4118364559
20
16.3697537206
30
0.0000000000
10
21.3684549526
20
16.2879641808
30
0.0000000000
10
21.3384493080
20
16.2590076348
30
0.0000000000
10
21.3368076423
20
16.2574765916
30
0.0000000000
11
21.4225320190
21
16.5058735292
31
0.0000000000
11
21.4010934114
21
16.3631145780
31
0.0000000000
11
21.3416486072
21
16.2621484173
31
0.0000000000
11
21.3368076423
21
16.2574765916
31
0.0000000000
0
SPLINE
5
322
100
AcDbEntity
8
0
100
AcDbSpline
62
0
6
CONTINUOUS
70
0
71
3
72
11
73
7
74
5
42
0.0000001000
43
0.0000001000
44
0.0000000001
12
0.2088226041
22
0.1032154446
32
0.0000000000
13
0.2092700250
23
-0.1046487878
33
0.0000000000
40
0.0000000000
40
0.0000000000
40
0.0000000000
40
0.0000000000
40
0.3179929582
40
0.6065837780
40
0.8737184910
40
1.0000000000
40
1.0000000000
40
1.0000000000
40
1.0000000000
10
10.8551507245
20
23.4679401033
30
0.0000000000
10
10.8772854303
20
23.4788806982
30
0.0000000000
10
10.9215900385
20
23.4960061930
30
0.0000000000
10
10.9895190538
20
23.5053287873
30
0.0000000000
10
11.0427290048
20
23.4975024467
30
0.0000000000
10
11.0712245931
20
23.4858841364
30
0.0000000000
10
11.0800335712
20
23.4814790674
30
0.0000000000
11
10.8551507245
21
23.4679401033
31
0.0000000000
11
10.9245223090
21
23.4939085387
31
0.0000000000
11
10.9912280595
21
23.5022388588
31
0.0000000000
11
11.0527046355
21
23.4926108792
31
0.0000000000
11
11.0800335712
21
23.4814790674
31
0.0000000000
0
SPLINE
5
323
100
AcDbEntity
8
0
100
AcDbSpline
62
0
6
CONTINUOUS
70
0
71
3
72
12
73
8
74
6
42
0.0000001000
43
0.0000001000
44
0.0000000001
12
0.0000000000
22
0.3150795073
32
0.0000000000
13
-0.2830792673
23
0.1415607165
33
0.0000000000
40
0.0000000000
40
0.0000000000
40
0.0000000000
40
0.0000000000
40
0.2582331548
40
0.4929665756
40
0.7057006450
40
0.9022993158
40
1.0000000000
40
1.0000000000
40
1.0000000000
40
1.0000000000
10
11.8145550602
20
22.9087786242
30
0.0000000000
10
11.8145550602
20
22.9358999492
30
0.0000000000
10
11.8106138983
20
22.9878236219
30
0.0000000000
10
11.7910720592
20
23.0598572037
30
0.0000000000
10
11.7584846096
20
23.1199836699
30
0.0000000000
10
11.7204589835
20
23.1584451790
30
0.0000000000
10
11.6938154968
20
23.1745868914
30
0.0000000000
10
11.6845964841
20
23.1791970843
30
0.0000000000
11
11.8145550602
21
22.9087786242
31
0.0000000000
11
11.8077616309
21
22.9898584970
31
0.0000000000
11
11.7876424108
21
23.0610290865
31
0.0000000000
11
11.7549705702
21
23.1195553469
31
0.0000000000
11
11.7110016696
21
23.1631881467
31
0.0000000000
11
11.6845964841
21
23.1791970843
31
0.0000000000
0
SPLINE
5
324
100
AcDbEntity
8
0
100
AcDbSpline
62
0
6
CONTINUOUS
70
0
71
3
72
11
73
7
74
5
42
0.0000001000
43
0.0000001000
44
0.0000000001
12
0.2072674228
22
0.1036337114
32
0.0000000000
13
0.2081967564
23
-0.1041138840
33
0.0000000000
40
0.0000000000
40
0.0000000000
40
0.0000000000
40
0.0000000000
40
0.3183488335
40
0.6069120174
40
0.8738205244
40
1.0000000000
40
1.0000000000
40
1.0000000000
40
1.0000000000
10
16.4107491379
20
20.6901408966
30
0.0000000000
10
16.4327435853
20
20.7011381203
30
0.0000000000
10
16.4767657286
20
20.7183860988
30
0.0000000000
10
16.5443225874
20
20.7279159221
30
0.0000000000
10
16.5972562001
20
20.7202405562
30
0.0000000000
10
16.6255872332
20
20.7087023619
30
0.0000000000
10
16.6343439524
20
20.7043233502
30
0.0000000000
11
16.4107491379
21
20.6901408966
31
0.0000000000
11
16.4797239827
21
20.7163081014
31
0.0000000000
11
16.5460481629
21
20.7248292798
31
0.0000000000
11
16.6071728775
21
20.7153769679
31
0.0000000000
11
16.6343439524
21
20.7043233502
31
0.0000000000
0
SPLINE
5
325
100
AcDbEntity
8
0
100
AcDbSpline
62
0
6
CONTINUOUS
70
0
71
3
72
12
73
8
74
6
42
0.0000001000
43
0.0000001000
44
0.0000000001
12
0.0000000000
22
0.3143566812
32
0.0000000000
13
-0.2824444458
23
0.1412456436
33
0.0000000000
40
0.0000000000
40
0.0000000000
40
0.0000000000
40
0.0000000000
40
0.2587566289
40
0.4937538350
40
0.7064249753
40
0.9026204442
40
1.0000000000
40
1.0000000000
40
1.0000000000
40
1.0000000000
10
17.3681171297
20
20.1319975894
30
0.0000000000
10
17.3681171297
20
20.1591115478
30
0.0000000000
10
17.3642034720
20
20.2109974287
30
0.0000000000
10
17.3447863446
20
20.2829623456
30
0.0000000000
10
17.3124032692
20
20.3429945118
30
0.0000000000
10
17.2745870943
20
20.3813774567
30
0.0000000000
10
17.2480749292
20
20.3974565651
30
0.0000000000
10
17.2389068243
20
20.4020413778
30
0.0000000000
11
17.3681171297
21
20.1319975894
31
0.0000000000
11
17.3613627145
21
20.2130585450
31
0.0000000000
11
17.3413590646
21
20.2841715924
31
0.0000000000
11
17.3088750152
21
20.3426038032
31
0.0000000000
11
17.2651590495
21
20.3861097101
31
0.0000000000
11
17.2389068243
21
20.4020413778
31
0.0000000000
0
SPLINE
5
326
100
AcDbEntity
8
0
100
AcDbSpline
62
0
6
CONTINUOUS
70
0
71
3
72
12
73
8
74
6
42
0.0000001000
43
0.0000001000
44
0.0000000001
12
-0.2177675582
22
-0.1076366969
32
0.0000000000
13
0.0000675890
23
-0.2440074563
33
0.0000000000
40
0.0000000000
40
0.0000000000
40
0.0000000000
40
0.0000000000
40
0.3019225804
40
0.5642486083
40
0.7914899606
40
0.9970676985
40
1.0000000000
40
1.0000000000
40
1.0000000000
40
1.0000000000
10
5.1677630117
20
20.6568160203
30
0.0000000000
10
5.1458466973
20
20.6459833705
30
0.0000000000
10
5.1062156550
20
20.6227222432
30
0.0000000000
10
5.0580222385
20
20.5796705120
30
0.0000000000
10
5.0269676309
20
20.5316204509
30
0.0000000000
10
5.0193202418
20
20.4962263115
30
0.0000000000
10
5.0192742944
20
20.4792670538
30
0.0000000000
10
5.0192743604
20
20.4790285526
30
0.0000000000
11
5.1677630117
21
20.6568160203
31
0.0000000000
11
5.1049446318
21
20.6189624686
31
0.0000000000
11
5.0581653059
21
20.5756917827
31
0.0000000000
11
5.0292359017
21
20.5286790080
31
0.0000000000
11
5.0192763013
21
20.4797440494
31
0.0000000000
11
5.0192743604
21
20.4790285526
31
0.0000000000
0
SPLINE
5
327
100
AcDbEntity
8
0
100
AcDbSpline
62
9
6
CONTINUOUS
70
0
71
3
72
9
73
5
74
3
42
0.0000001000
43
0.0000001000
44
0.0000000001
12
0.0000000000
22
-0.1183504396
32
0.0000000000
13
-0.1065872076
23
-0.0532936038
33
0.0000000000
40
0.0000000000
40
0.0000000000
40
0.0000000000
40
0.0000000000
40
0.4320096608
40
1.0000000000
40
1.0000000000
40
1.0000000000
40
1.0000000000
10
3.4024969906
20
22.9360076289
30
0.0000000000
10
3.4024969906
20
22.9189647845
30
0.0000000000
10
3.3838918644
20
22.8795146380
30
0.0000000000
10
3.3494538540
20
22.8577093653
30
0.0000000000
10
3.3292736859
20
22.8476192813
30
0.0000000000
11
3.4024969906
21
22.9360076289
31
0.0000000000
11
3.3834668738
21
22.8881721999
31
0.0000000000
11
3.3292736859
21
22.8476192813
31
0.0000000000
0
SPLINE
5
328
100
AcDbEntity
8
0
100
AcDbSpline
62
9
6
CONTINUOUS
70
0
71
3
72
9
73
5
74
3
42
0.0000001000
43
0.0000001000
44
0.0000000001
12
0.0000577645
22
-0.1183379837
32
0.0000000000
13
-0.1065828831
23
-0.0532914415
33
0.0000000000
40
0.0000000000
40
0.0000000000
40
0.0000000000
40
0.0000000000
40
0.4343815064
40
1.0000000000
40
1.0000000000
40
1.0000000000
40
1.0000000000
10
3.4024969173
20
22.5846825526
30
0.0000000000
10
3.4025052812
20
22.5675479421
30
0.0000000000
10
3.3837832957
20
22.5281315898
30
0.0000000000
10
3.3493687692
20
22.5063528508
30
0.0000000000
10
3.3292736859
20
22.4963053092
30
0.0000000000
11
3.4024969173
21
22.5846825526
31
0.0000000000
11
3.3832793296
21
22.5366324666
31
0.0000000000
11
3.3292736859
21
22.4963053092
31
0.0000000000
0
SPLINE
5
329
100
AcDbEntity
8
0
100
AcDbSpline
62
9
6
CONTINUOUS
70
0
71
3
72
9
73
5
74
3
42
0.0000001000
43
0.0000001000
44
0.0000000001
12
0.1043460885
22
0.0506505174
32
0.0000000000
13
0.1025770087
23
-0.0512885044
33
0.0000000000
40
0.0000000000
40
0.0000000000
40
0.0000000000
40
0.0000000000
40
0.3993864599
40
1.0000000000
40
1.0000000000
40
1.0000000000
40
1.0000000000
10
1.6972869248
20
23.8312325696
30
0.0000000000
10
1.7111783964
20
23.8379756132
30
0.0000000000
10
1.7504234205
20
23.8467008642
30
0.0000000000
10
1.7884577263
20
23.8345336120
30
0.0000000000
10
1.8089941064
20
23.8242654220
30
0.0000000000
11
1.6972869248
21
23.8312325696
31
0.0000000000
11
1.7423331378
21
23.8416125538
31
0.0000000000
11
1.8089941064
21
23.8242654220
31
0.0000000000
0
SPLINE
5
32A
100
AcDbEntity
8
0
100
AcDbSpline
62
9
6
CONTINUOUS
70
0
71
3
72
9
73
5
74
3
42
0.0000001000
43
0.0000001000
44
0.0000000001
12
0.1043731838
22
0.0507387174
32
0.0000000000
13
0.1025947039
23
-0.0512973520
33
0.0000000000
40
0.0000000000
40
0.0000000000
40
0.0000000000
40
0.0000000000
40
0.3911521382
40
1.0000000000
40
1.0000000000
40
1.0000000000
40
1.0000000000
10
-0.4240558033
20
22.7705538178
30
0.0000000000
10
-0.4104472053
20
22.7771693371
30
0.0000000000
10
-0.3713028153
20
22.7861185817
30
0.0000000000
10
-0.3331477592
20
22.7740160112
30
0.0000000000
10
-0.3123262372
20
22.7636052502
30
0.0000000000
11
-0.4240558033
21
22.7705538178
31
0.0000000000
11
-0.3799757497
21
22.7809494418
31
0.0000000000
11
-0.3123262372
21
22.7636052502
31
0.0000000000
0
SPLINE
5
32B
100
AcDbEntity
8
0
100
AcDbSpline
62
9
6
CONTINUOUS
70
0
71
3
72
9
73
5
74
3
42
0.0000001000
43
0.0000001000
44
0.0000000001
12
-0.1044096115
22
0.0507430838
32
0.0000000000
13
-0.1025784558
23
-0.0512892279
33
0.0000000000
40
0.0000000000
40
0.0000000000
40
0.0000000000
40
0.0000000000
40
0.3886826481
40
1.0000000000
40
1.0000000000
40
1.0000000000
40
1.0000000000
10
3.2642194737
20
23.1594521982
30
0.0000000000
10
3.2506920722
20
23.1660265169
30
0.0000000000
10
3.2115791067
20
23.1750575897
30
0.0000000000
10
3.1733996540
20
23.1629653115
30
0.0000000000
10
3.1524969906
20
23.1525139799
30
0.0000000000
11
3.2642194737
21
23.1594521982
31
0.0000000000
11
3.2204280399
21
23.1698557661
31
0.0000000000
11
3.1524969906
21
23.1525139799
31
0.0000000000
0
SPLINE
5
32C
100
AcDbEntity
8
0
100
AcDbSpline
62
9
6
CONTINUOUS
70
0
71
3
72
8
73
4
74
2
42
0.0000001000
43
0.0000001000
44
0.0000000001
12
-0.0057724119
22
0.0028061305
32
0.0000000000
13
-0.0059609395
23
0.0024315908
33
0.0000000000
40
0.0000000000
40
0.0000000000
40
0.0000000000
40
0.0000000000
40
1.0000000000
40
1.0000000000
40
1.0000000000
40
1.0000000000
10
1.9207236725
20
23.8312139896
30
0.0000000000
10
1.9187995352
20
23.8321493664
30
0.0000000000
10
1.9168413561
20
23.8330224697
30
0.0000000000
10
1.9148543763
20
23.8338330000
30
0.0000000000
11
1.9207236725
21
23.8312139896
31
0.0000000000
11
1.9148543763
21
23.8338330000
31
0.0000000000
0
SPLINE
5
32D
100
AcDbEntity
8
0
100
AcDbSpline
62
9
6
CONTINUOUS
70
0
71
3
72
9
73
5
74
3
42
0.0000001000
43
0.0000001000
44
0.0000000001
12
-0.1018210834
22
0.0415349312
32
0.0000000000
13
-0.0969206517
23
-0.0484603259
33
0.0000000000
40
0.0000000000
40
0.0000000000
40
0.0000000000
40
0.0000000000
40
0.3555081913
40
1.0000000000
40
1.0000000000
40
1.0000000000
40
1.0000000000
10
1.9148543763
20
23.8338330000
30
0.0000000000
10
1.9027882999
20
23.8387550027
30
0.0000000000
10
1.8658604997
20
23.8461094147
30
0.0000000000
10
1.8298156284
20
23.8346761830
30
0.0000000000
10
1.8089941064
20
23.8242654220
30
0.0000000000
11
1.9148543763
21
23.8338330000
31
0.0000000000
11
1.8766436189
21
23.8416096136
31
0.0000000000
11
1.8089941064
21
23.8242654220
31
0.0000000000
0
SPLINE
5
32E
100
AcDbEntity
8
0
100
AcDbSpline
62
9
6
CONTINUOUS
70
0
71
3
72
9
73
5
74
3
42
0.0000001000
43
0.0000001000
44
0.0000000001
12
0.0002465096
22
-0.1182964284
32
0.0000000000
13
0.1065580600
23
-0.0532790300
33
0.0000000000
40
0.0000000000
40
0.0000000000
40
0.0000000000
40
0.0000000000
40
0.4297457606
40
1.0000000000
40
1.0000000000
40
1.0000000000
40
1.0000000000
10
-0.5623255075
20
22.5470988886
30
0.0000000000
10
-0.5622901953
20
22.5301530924
30
0.0000000000
10
-0.5438178116
20
22.4906396727
30
0.0000000000
10
-0.5093579943
20
22.4688380825
30
0.0000000000
10
-0.4891029325
20
22.4587105516
30
0.0000000000
11
-0.5623255075
21
22.5470988886
31
0.0000000000
11
-0.5434607562
21
22.4994626890
31
0.0000000000
11
-0.4891029325
21
22.4587105516
31
0.0000000000
0
SPLINE
5
32F
100
AcDbEntity
8
0
100
AcDbSpline
62
9
6
CONTINUOUS
70
0
71
3
72
9
73
5
74
3
42
0.0000001000
43
0.0000001000
44
0.0000000001
12
0.0000819624
22
-0.1183323093
32
0.0000000000
13
0.1065777391
23
-0.0532888696
33
0.0000000000
40
0.0000000000
40
0.0000000000
40
0.0000000000
40
0.0000000000
40
0.4312039500
40
1.0000000000
40
1.0000000000
40
1.0000000000
40
1.0000000000
10
-0.5623261573
20
22.1957849263
30
0.0000000000
10
-0.5623143764
20
22.1787764733
30
0.0000000000
10
-0.5437555334
20
22.1393049782
30
0.0000000000
10
-0.5093099315
20
22.1175000790
30
0.0000000000
10
-0.4891029325
20
22.1073965795
30
0.0000000000
11
-0.5623261573
21
22.1957849263
31
0.0000000000
11
-0.5433551497
21
22.1480208152
31
0.0000000000
11
-0.4891029325
21
22.1073965795
31
0.0000000000
0
SPLINE
5
330
100
AcDbEntity
8
0
100
AcDbSpline
62
9
6
CONTINUOUS
70
0
71
3
72
10
73
6
74
4
42
0.0000001000
43
0.0000001000
44
0.0000000001
12
0.0000820386
22
-0.0997299692
32
0.0000000000
13
0.0836144133
23
-0.0511958990
33
0.0000000000
40
0.0000000000
40
0.0000000000
40
0.0000000000
40
0.0000000000
40
0.1925998704
40
0.6351840661
40
1.0000000000
40
1.0000000000
40
1.0000000000
40
1.0000000000
10
0.1450376544
20
21.4954330379
30
0.0000000000
10
0.1450429212
20
21.4890303782
30
0.0000000000
10
0.1481719854
20
21.4678937432
30
0.0000000000
10
0.1688688871
20
21.4407827808
30
0.0000000000
10
0.1901849650
20
21.4250147946
30
0.0000000000
10
0.2003529217
20
21.4187891014
30
0.0000000000
11
0.1450376544
21
21.4954330379
31
0.0000000000
11
0.1478615107
21
21.4765723808
31
0.0000000000
11
0.1718622744
21
21.4405137632
31
0.0000000000
11
0.2003529217
21
21.4187891014
31
0.0000000000
0
SPLINE
5
331
100
AcDbEntity
8
0
100
AcDbSpline
62
9
6
CONTINUOUS
70
0
71
3
72
8
73
4
74
2
42
0.0000001000
43
0.0000001000
44
0.0000000001
12
0.0172110689
22
-0.0105380892
32
0.0000000000
13
0.0180182640
23
-0.0090101087
33
0.0000000000
40
0.0000000000
40
0.0000000000
40
0.0000000000
40
0.0000000000
40
1.0000000000
40
1.0000000000
40
1.0000000000
40
1.0000000000
10
0.2003529217
20
21.4187891014
30
0.0000000000
10
0.2060899447
20
21.4152764050
30
0.0000000000
10
0.2119977607
20
21.4120498799
30
0.0000000000
10
0.2180038487
20
21.4090465104
30
0.0000000000
11
0.2003529217
21
21.4187891014
31
0.0000000000
11
0.2180038487
21
21.4090465104
31
0.0000000000
0
SPLINE
5
332
100
AcDbEntity
8
0
100
AcDbSpline
62
9
6
CONTINUOUS
70
0
71
3
72
9
73
5
74
3
42
0.0000001000
43
0.0000001000
44
0.0000000001
12
0.0527894128
22
-0.0310283960
32
0.0000000000
13
0.0277993620
23
-0.0541616686
33
0.0000000000
40
0.0000000000
40
0.0000000000
40
0.0000000000
40
0.0000000000
40
0.3689529772
40
1.0000000000
40
1.0000000000
40
1.0000000000
40
1.0000000000
10
1.5021521299
20
21.1711929709
30
0.0000000000
10
1.5086444002
20
21.1673769646
30
0.0000000000
10
1.5250983016
20
21.1550487657
30
0.0000000000
10
1.5368728042
20
21.1383662981
30
0.0000000000
10
1.5427203725
20
21.1269734449
30
0.0000000000
11
1.5021521299
21
21.1711929709
31
0.0000000000
11
1.5201488428
21
21.1576871827
31
0.0000000000
11
1.5427203725
21
21.1269734449
31
0.0000000000
0
SPLINE
5
333
100
AcDbEntity
8
0
100
AcDbSpline
62
9
6
CONTINUOUS
70
0
71
3
72
9
73
5
74
3
42
0.0000001000
43
0.0000001000
44
0.0000000001
12
0.0415793299
22
-0.0810092651
32
0.0000000000
13
0.0000000000
23
-0.0900310712
33
0.0000000000
40
0.0000000000
40
0.0000000000
40
0.0000000000
40
0.0000000000
40
0.2275877162
40
1.0000000000
40
1.0000000000
40
1.0000000000
40
1.0000000000
10
1.5427203725
20
21.1269734449
30
0.0000000000
10
1.5458746874
20
21.1208278737
30
0.0000000000
10
1.5577109400
20
21.0927183054
30
0.0000000000
10
1.5615067330
20
21.0623788964
30
0.0000000000
10
1.5615067330
20
21.0391985280
30
0.0000000000
11
1.5427203725
21
21.1269734449
31
0.0000000000
11
1.5508457938
21
21.1079175916
31
0.0000000000
11
1.5615067330
21
21.0391985280
31
0.0000000000
0
SPLINE
5
334
100
AcDbEntity
8
0
100
AcDbSpline
62
9
6
CONTINUOUS
70
0
71
3
72
9
73
5
74
3
42
0.0000001000
43
0.0000001000
44
0.0000000001
12
-0.1044096115
22
0.0507430838
32
0.0000000000
13
-0.1025784558
23
-0.0512892279
33
0.0000000000
40
0.0000000000
40
0.0000000000
40
0.0000000000
40
0.0000000000
40
0.3886826481
40
1.0000000000
40
1.0000000000
40
1.0000000000
40
1.0000000000
10
16.6285376381
20
16.4772931160
30
0.0000000000
10
16.6150102367
20
16.4838674347
30
0.0000000000
10
16.5758972712
20
16.4928985075
30
0.0000000000
10
16.5377178184
20
16.4808062293
30
0.0000000000
10
16.5168151551
20
16.4703548977
30
0.0000000000
11
16.6285376381
21
16.4772931160
31
0.0000000000
11
16.5847462043
21
16.4876966839
31
0.0000000000
11
16.5168151551
21
16.4703548977
31
0.0000000000
0
SPLINE
5
335
100
AcDbEntity
8
0
100
AcDbSpline
62
9
6
CONTINUOUS
70
0
71
3
72
9
73
5
74
3
42
0.0000001000
43
0.0000001000
44
0.0000000001
12
-0.1043460885
22
0.0506505174
32
0.0000000000
13
-0.1025770087
23
-0.0512885044
33
0.0000000000
40
0.0000000000
40
0.0000000000
40
0.0000000000
40
0.0000000000
40
0.3993864599
40
1.0000000000
40
1.0000000000
40
1.0000000000
40
1.0000000000
10
15.2850194524
20
17.1490734874
30
0.0000000000
10
15.2711279808
20
17.1558165310
30
0.0000000000
10
15.2318829567
20
17.1645417820
30
0.0000000000
10
15.1938486509
20
17.1523745298
30
0.0000000000
10
15.1733122708
20
17.1421063398
30
0.0000000000
11
15.2850194524
21
17.1490734874
31
0.0000000000
11
15.2399732394
21
17.1594534716
31
0.0000000000
11
15.1733122708
21
17.1421063398
31
0.0000000000
0
SPLINE
5
336
100
AcDbEntity
8
0
100
AcDbSpline
62
9
6
CONTINUOUS
70
0
71
3
72
11
73
7
74
5
42
0.0000001000
43
0.0000001000
44
0.0000000001
12
0.1282325543
22
0.3361386034
32
0.0000000000
13
-0.3217859520
23
0.1608929760
33
0.0000000000
40
0.0000000000
40
0.0000000000
40
0.0000000000
40
0.0000000000
40
0.2711305050
40
0.5346867854
40
0.7783356466
40
1.0000000000
40
1.0000000000
40
1.0000000000
40
1.0000000000
10
16.1632617645
20
-25.3756229554
30
0.0000000000
10
16.1748510169
20
-25.3452438123
30
0.0000000000
10
16.1885152400
20
-25.2813977550
30
0.0000000000
10
16.1796549612
20
-25.1869631037
30
0.0000000000
10
16.1423878971
20
-25.1057380635
30
0.0000000000
10
16.0986495751
20
-25.0674285130
30
0.0000000000
10
16.0748734168
20
-25.0555404339
30
0.0000000000
11
16.1632617645
21
-25.3756229554
31
0.0000000000
11
16.1836301960
21
-25.2802292713
31
0.0000000000
11
16.1739850692
21
-25.1859020862
31
0.0000000000
11
16.1357947670
21
-25.1070018590
31
0.0000000000
11
16.0748734168
21
-25.0555404339
31
0.0000000000
0
SPLINE
5
337
100
AcDbEntity
8
0
100
AcDbSpline
62
9
6
CONTINUOUS
70
0
71
3
72
9
73
5
74
3
42
0.0000001000
43
0.0000001000
44
0.0000000001
12
0.0000000000
22
-0.1183504396
32
0.0000000000
13
-0.1065872076
23
-0.0532936038
33
0.0000000000
40
0.0000000000
40
0.0000000000
40
0.0000000000
40
0.0000000000
40
0.4320096608
40
1.0000000000
40
1.0000000000
40
1.0000000000
40
1.0000000000
10
16.7668151551
20
15.9025345746
30
0.0000000000
10
16.7668151551
20
15.8854917302
30
0.0000000000
10
16.7482100288
20
15.8460415837
30
0.0000000000
10
16.7137720184
20
15.8242363110
30
0.0000000000
10
16.6935918504
20
15.8141462270
30
0.0000000000
11
16.7668151551
21
15.9025345746
31
0.0000000000
11
16.7477850382
21
15.8546991456
31
0.0000000000
11
16.6935918504
21
15.8141462270
31
0.0000000000
0
SPLINE
5
338
100
AcDbEntity
8
0
100
AcDbSpline
62
9
6
CONTINUOUS
70
0
71
3
72
9
73
5
74
3
42
0.0000001000
43
0.0000001000
44
0.0000000001
12
0.0000000000
22
-0.1183504396
32
0.0000000000
13
-0.1065872076
23
-0.0532936038
33
0.0000000000
40
0.0000000000
40
0.0000000000
40
0.0000000000
40
0.0000000000
40
0.4320096608
40
1.0000000000
40
1.0000000000
40
1.0000000000
40
1.0000000000
10
16.7668151551
20
16.2538485467
30
0.0000000000
10
16.7668151551
20
16.2368057023
30
0.0000000000
10
16.7482100288
20
16.1973555557
30
0.0000000000
10
16.7137720184
20
16.1755502831
30
0.0000000000
10
16.6935918504
20
16.1654601991
30
0.0000000000
11
16.7668151551
21
16.2538485467
31
0.0000000000
11
16.7477850382
21
16.2060131177
31
0.0000000000
11
16.6935918504
21
16.1654601991
31
0.0000000000
0
SPLINE
5
339
100
AcDbEntity
8
0
100
AcDbSpline
62
9
6
CONTINUOUS
70
0
71
3
72
9
73
5
74
3
42
0.0000001000
43
0.0000001000
44
0.0000000001
12
0.0460603439
22
0.1207389166
32
0.0000000000
13
-0.0060515878
23
0.1296703380
33
0.0000000000
40
0.0000000000
40
0.0000000000
40
0.0000000000
40
0.0000000000
40
0.7511171255
40
1.0000000000
40
1.0000000000
40
1.0000000000
40
1.0000000000
10
16.6935918504
20
-25.4854579124
30
0.0000000000
10
16.7051240881
20
-25.4552282231
30
0.0000000000
10
16.7143332467
20
-25.4123532628
30
0.0000000000
10
16.7146340348
20
-25.3689980156
30
0.0000000000
10
16.7141319893
20
-25.3582404401
30
0.0000000000
11
16.6935918504
21
-25.4854579124
31
0.0000000000
11
16.7139325044
21
-25.3905490224
31
0.0000000000
11
16.7141319893
21
-25.3582404401
31
0.0000000000
0
SPLINE
5
33A
100
AcDbEntity
8
0
100
AcDbSpline
62
9
6
CONTINUOUS
70
0
71
3
72
8
73
4
74
2
42
0.0000001000
43
0.0000001000
44
0.0000000001
12
-0.0029427066
22
0.0630548167
32
0.0000000000
13
-0.0167179085
23
0.0609038365
33
0.0000000000
40
0.0000000000
40
0.0000000000
40
0.0000000000
40
0.0000000000
40
1.0000000000
40
1.0000000000
40
1.0000000000
40
1.0000000000
10
16.7141319893
20
-25.3582404401
30
0.0000000000
10
16.7131510871
20
-25.3372221679
30
0.0000000000
10
16.7099679143
20
-25.3163291173
30
0.0000000000
10
16.7043952782
20
-25.2960278385
30
0.0000000000
11
16.7141319893
21
-25.3582404401
31
0.0000000000
11
16.7043952782
21
-25.2960278385
31
0.0000000000
0
SPLINE
5
33B
100
AcDbEntity
8
0
100
AcDbSpline
62
9
6
CONTINUOUS
70
0
71
3
72
8
73
4
74
2
42
0.0000001000
43
0.0000001000
44
0.0000000001
12
-0.0080339391
22
0.0292678784
32
0.0000000000
13
-0.0114452415
23
0.0281349514
33
0.0000000000
40
0.0000000000
40
0.0000000000
40
0.0000000000
40
0.0000000000
40
1.0000000000
40
1.0000000000
40
1.0000000000
40
1.0000000000
10
16.7043952782
20
-25.2960278385
30
0.0000000000
10
16.7017172985
20
-25.2862718790
30
0.0000000000
10
16.6984875037
20
-25.2766525814
30
0.0000000000
10
16.6946724232
20
-25.2672742643
30
0.0000000000
11
16.7043952782
21
-25.2960278385
31
0.0000000000
11
16.6946724232
21
-25.2672742643
31
0.0000000000
0
SPLINE
5
33C
100
AcDbEntity
8
0
100
AcDbSpline
62
9
6
CONTINUOUS
70
0
71
3
72
9
73
5
74
3
42
0.0000001000
43
0.0000001000
44
0.0000000001
12
-0.0429532888
22
0.1055887452
32
0.0000000000
13
-0.0931448198
23
0.0658386869
33
0.0000000000
40
0.0000000000
40
0.0000000000
40
0.0000000000
40
0.0000000000
40
0.5084807211
40
1.0000000000
40
1.0000000000
40
1.0000000000
40
1.0000000000
10
16.6946724232
20
-25.2672742643
30
0.0000000000
10
16.6873921168
20
-25.2493776505
30
0.0000000000
10
16.6688827006
20
-25.2159072372
30
0.0000000000
10
16.6412301920
20
-25.1886347489
30
0.0000000000
10
16.6259693671
20
-25.1778477543
30
0.0000000000
11
16.6946724232
21
-25.2672742643
31
0.0000000000
11
16.6662047835
21
-25.2169420206
31
0.0000000000
11
16.6259693671
21
-25.1778477543
31
0.0000000000
0
SPLINE
5
33D
100
AcDbEntity
8
0
100
AcDbSpline
62
9
6
CONTINUOUS
70
0
71
3
72
8
73
4
74
2
42
0.0000001000
43
0.0000001000
44
0.0000000001
12
-0.0198670688
22
0.0140428821
32
0.0000000000
13
-0.0216205496
23
0.0108102748
33
0.0000000000
40
0.0000000000
40
0.0000000000
40
0.0000000000
40
0.0000000000
40
1.0000000000
40
1.0000000000
40
1.0000000000
40
1.0000000000
10
16.6259693671
20
-25.1778477543
30
0.0000000000
10
16.6193470109
20
-25.1731667936
30
0.0000000000
10
16.6124103526
20
-25.1689788159
30
0.0000000000
10
16.6052035027
20
-25.1653753909
30
0.0000000000
11
16.6259693671
21
-25.1778477543
31
0.0000000000
11
16.6052035027
21
-25.1653753909
31
0.0000000000
0
SPLINE
5
33E
100
AcDbEntity
8
0
100
AcDbSpline
62
9
6
CONTINUOUS
70
0
71
3
72
11
73
7
74
5
42
0.0000001000
43
0.0000001000
44
0.0000000001
12
0.0000000000
22
-0.3637757396
32
0.0000000000
13
0.3562163182
23
-0.0737748151
33
0.0000000000
40
0.0000000000
40
0.0000000000
40
0.0000000000
40
0.0000000000
40
0.2944003400
40
0.5512517510
40
0.7796839657
40
1.0000000000
40
1.0000000000
40
1.0000000000
40
1.0000000000
10
15.9864850692
20
-25.0890113030
30
0.0000000000
10
15.9864850692
20
-25.1247098701
30
0.0000000000
10
15.9931331445
20
-25.1919356411
30
0.0000000000
10
16.0275003212
20
-25.2815764692
30
0.0000000000
10
16.0853818776
20
-25.3475860735
30
0.0000000000
10
16.1371017089
20
-25.3702050305
30
0.0000000000
10
16.1632617645
20
-25.3756229554
30
0.0000000000
11
15.9864850692
21
-25.0890113030
31
0.0000000000
11
15.9986201313
21
-25.1954172687
31
0.0000000000
11
16.0339126245
21
-25.2819319167
31
0.0000000000
11
16.0899107580
21
-25.3433281944
31
0.0000000000
11
16.1632617645
21
-25.3756229554
31
0.0000000000
0
SPLINE
5
33F
100
AcDbEntity
8
0
100
AcDbSpline
62
9
6
CONTINUOUS
70
0
71
3
72
11
73
7
74
5
42
0.0000001000
43
0.0000001000
44
0.0000000001
12
0.0000000000
22
0.3637757396
32
0.0000000000
13
-0.3562163182
23
0.0737748151
33
0.0000000000
40
0.0000000000
40
0.0000000000
40
0.0000000000
40
0.0000000000
40
0.2944003400
40
0.5512517510
40
0.7796839657
40
1.0000000000
40
1.0000000000
40
1.0000000000
40
1.0000000000
10
15.2793782880
20
14.3570394458
30
0.0000000000
10
15.2793782880
20
14.3927380129
30
0.0000000000
10
15.2727302126
20
14.4599637839
30
0.0000000000
10
15.2383630359
20
14.5496046120
30
0.0000000000
10
15.1804814796
20
14.6156142163
30
0.0000000000
10
15.1287616482
20
14.6382331732
30
0.0000000000
10
15.1026015927
20
14.6436510981
30
0.0000000000
11
15.2793782880
21
14.3570394458
31
0.0000000000
11
15.2672432259
21
14.4634454115
31
0.0000000000
11
15.2319507326
21
14.5499600595
31
0.0000000000
11
15.1759525992
21
14.6113563372
31
0.0000000000
11
15.1026015927
21
14.6436510981
31
0.0000000000
0
SPLINE
5
340
100
AcDbEntity
8
0
100
AcDbSpline
62
9
6
CONTINUOUS
70
0
71
3
72
11
73
7
74
5
42
0.0000001000
43
0.0000001000
44
0.0000000001
12
-0.1061592977
22
-0.2782775268
32
0.0000000000
13
-0.2954793229
23
0.0611227618
33
0.0000000000
40
0.0000000000
40
0.0000000000
40
0.0000000000
40
0.0000000000
40
0.3176223393
40
0.6108082489
40
0.8776890968
40
1.0000000000
40
1.0000000000
40
1.0000000000
40
1.0000000000
10
15.1026015927
20
14.6436510981
30
0.0000000000
10
15.0913620712
20
14.6141887118
30
0.0000000000
10
15.0609915008
20
14.5602981201
30
0.0000000000
10
14.9936720059
20
14.5018406668
30
0.0000000000
10
14.9265298542
20
14.4813710694
30
0.0000000000
10
14.8871919051
20
14.4848439814
30
0.0000000000
10
14.8751451241
20
14.4873359748
30
0.0000000000
11
15.1026015927
21
14.6436510981
31
0.0000000000
11
15.0553205117
21
14.5617137388
31
0.0000000000
11
14.9883248974
21
14.5057069243
31
0.0000000000
11
14.9118142246
21
14.4841571845
31
0.0000000000
11
14.8751451241
21
14.4873359748
31
0.0000000000
0
SPLINE
5
341
100
AcDbEntity
8
0
100
AcDbSpline
62
9
6
CONTINUOUS
70
0
71
3
72
8
73
4
74
2
42
0.0000001000
43
0.0000001000
44
0.0000000001
12
-0.0088373777
22
0.0018302808
32
0.0000000000
13
-0.0086739698
23
0.0027210715
33
0.0000000000
40
0.0000000000
40
0.0000000000
40
0.0000000000
40
0.0000000000
40
1.0000000000
40
1.0000000000
40
1.0000000000
40
1.0000000000
10
16.0748734168
20
-25.0555404339
30
0.0000000000
10
16.0719276243
20
-25.0549303403
30
0.0000000000
10
16.0690018377
20
-25.0541670911
30
0.0000000000
10
16.0661105145
20
-25.0532600673
30
0.0000000000
11
16.0748734168
21
-25.0555404339
31
0.0000000000
11
16.0661105145
21
-25.0532600673
31
0.0000000000
0
SPLINE
5
342
100
AcDbEntity
8
0
100
AcDbSpline
62
9
6
CONTINUOUS
70
0
71
3
72
8
73
4
74
2
42
0.0000001000
43
0.0000001000
44
0.0000000001
12
-0.0084837533
22
0.0026613995
32
0.0000000000
13
-0.0082453634
23
0.0034602963
33
0.0000000000
40
0.0000000000
40
0.0000000000
40
0.0000000000
40
0.0000000000
40
1.0000000000
40
1.0000000000
40
1.0000000000
40
1.0000000000
10
16.0661105145
20
-25.0532600673
30
0.0000000000
10
16.0632825967
20
-25.0523729341
30
0.0000000000
10
16.0604876472
20
-25.0513482630
30
0.0000000000
10
16.0577391927
20
-25.0501948309
30
0.0000000000
11
16.0661105145
21
-25.0532600673
31
0.0000000000
11
16.0577391927
21
-25.0501948309
31
0.0000000000
0
SPLINE
5
343
100
AcDbEntity
8
0
100
AcDbSpline
62
9
6
CONTINUOUS
70
0
71
3
72
8
73
4
74
2
42
0.0000001000
43
0.0000001000
44
0.0000000001
12
-0.0063048832
22
0.0026459433
32
0.0000000000
13
-0.0061236254
23
0.0030858911
33
0.0000000000
40
0.0000000000
40
0.0000000000
40
0.0000000000
40
0.0000000000
40
1.0000000000
40
1.0000000000
40
1.0000000000
40
1.0000000000
10
16.0577391927
20
-25.0501948309
30
0.0000000000
10
16.0556375650
20
-25.0493128498
30
0.0000000000
10
16.0535631230
20
-25.0483555819
30
0.0000000000
10
16.0515219146
20
-25.0473269516
30
0.0000000000
11
16.0577391927
21
-25.0501948309
31
0.0000000000
11
16.0515219146
21
-25.0473269516
31
0.0000000000
0
SPLINE
5
344
100
AcDbEntity
8
0
100
AcDbSpline
62
9
6
CONTINUOUS
70
0
71
3
72
11
73
7
74
5
42
0.0000001000
43
0.0000001000
44
0.0000000001
12
-0.1061592977
22
-0.2782775268
32
0.0000000000
13
-0.2954793229
23
0.0611227618
33
0.0000000000
40
0.0000000000
40
0.0000000000
40
0.0000000000
40
0.0000000000
40
0.3176223393
40
0.6108082489
40
0.8776890968
40
1.0000000000
40
1.0000000000
40
1.0000000000
40
1.0000000000
10
14.5722715068
20
14.7534860552
30
0.0000000000
10
14.5610319853
20
14.7240236689
30
0.0000000000
10
14.5306614149
20
14.6701330772
30
0.0000000000
10
14.4633419200
20
14.6116756239
30
0.0000000000
10
14.3961997683
20
14.5912060264
30
0.0000000000
10
14.3568618192
20
14.5946789384
30
0.0000000000
10
14.3448150382
20
14.5971709318
30
0.0000000000
11
14.5722715068
21
14.7534860552
31
0.0000000000
11
14.5249904259
21
14.6715486958
31
0.0000000000
11
14.4579948115
21
14.6155418814
31
0.0000000000
11
14.3814841387
21
14.5939921416
31
0.0000000000
11
14.3448150382
21
14.5971709318
31
0.0000000000
0
SPLINE
5
345
100
AcDbEntity
8
0
100
AcDbSpline
62
9
6
CONTINUOUS
70
0
71
3
72
10
73
6
74
4
42
0.0000001000
43
0.0000001000
44
0.0000000001
12
0.0000000000
22
-0.1565859256
32
0.0000000000
13
0.1420458097
23
-0.0715474661
33
0.0000000000
40
0.0000000000
40
0.0000000000
40
0.0000000000
40
0.0000000000
40
0.4461619557
40
0.8210307692
40
1.0000000000
40
1.0000000000
40
1.0000000000
40
1.0000000000
10
14.2187181162
20
14.7534860552
30
0.0000000000
10
14.2187181162
20
14.7301984943
30
0.0000000000
10
14.2241535897
20
14.6868667677
30
0.0000000000
10
14.2508255438
20
14.6396751704
30
0.0000000000
10
14.2752709318
20
14.6226611057
30
0.0000000000
10
14.2837448749
20
14.6183928407
30
0.0000000000
11
14.2187181162
21
14.7534860552
31
0.0000000000
11
14.2294871331
21
14.6844583599
31
0.0000000000
11
14.2604823080
21
14.6346096599
31
0.0000000000
11
14.2837448749
21
14.6183928407
31
0.0000000000
0
SPLINE
5
346
100
AcDbEntity
8
0
100
AcDbSpline
62
9
6
CONTINUOUS
70
0
71
3
72
10
73
6
74
4
42
0.0000001000
43
0.0000001000
44
0.0000000001
12
0.0000000000
22
-0.1565856039
32
0.0000000000
13
0.1420669092
23
-0.0716176355
33
0.0000000000
40
0.0000000000
40
0.0000000000
40
0.0000000000
40
0.0000000000
40
0.4399929087
40
0.8157800551
40
1.0000000000
40
1.0000000000
40
1.0000000000
40
1.0000000000
10
12.8752152320
20
15.4252374973
30
0.0000000000
10
12.8752152320
20
15.4022719789
30
0.0000000000
10
12.8805529077
20
15.3592509270
30
0.0000000000
10
12.9068526575
20
15.3118770978
30
0.0000000000
10
12.9315294944
20
15.2945453542
30
0.0000000000
10
12.9402533471
20
15.2901475553
30
0.0000000000
11
12.8752152320
21
15.4252374973
31
0.0000000000
11
12.8856614987
21
15.3571374911
31
0.0000000000
11
12.9163707142
21
15.3069436076
31
0.0000000000
11
12.9402533471
21
15.2901475553
31
0.0000000000
0
SPLINE
5
347
100
AcDbEntity
8
0
100
AcDbSpline
62
9
6
CONTINUOUS
70
0
71
3
72
8
73
4
74
2
42
0.0000001000
43
0.0000001000
44
0.0000000001
12
0.0057724119
22
0.0028061305
32
0.0000000000
13
0.0059609395
23
0.0024315908
33
0.0000000000
40
0.0000000000
40
0.0000000000
40
0.0000000000
40
0.0000000000
40
1.0000000000
40
1.0000000000
40
1.0000000000
40
1.0000000000
10
15.0615827047
20
17.1490549074
30
0.0000000000
10
15.0635068420
20
17.1499902842
30
0.0000000000
10
15.0654650211
20
17.1508633875
30
0.0000000000
10
15.0674520009
20
17.1516739177
30
0.0000000000
11
15.0615827047
21
17.1490549074
31
0.0000000000
11
15.0674520009
21
17.1516739177
31
0.0000000000
0
SPLINE
5
348
100
AcDbEntity
8
0
100
AcDbSpline
62
9
6
CONTINUOUS
70
0
71
3
72
9
73
5
74
3
42
0.0000001000
43
0.0000001000
44
0.0000000001
12
0.1018210834
22
0.0415349312
32
0.0000000000
13
0.0969206517
23
-0.0484603259
33
0.0000000000
40
0.0000000000
40
0.0000000000
40
0.0000000000
40
0.0000000000
40
0.3555081913
40
1.0000000000
40
1.0000000000
40
1.0000000000
40
1.0000000000
10
15.0674520009
20
17.1516739177
30
0.0000000000
10
15.0795180773
20
17.1565959205
30
0.0000000000
10
15.1164458775
20
17.1639503325
30
0.0000000000
10
15.1524907488
20
17.1525171008
30
0.0000000000
10
15.1733122708
20
17.1421063398
30
0.0000000000
11
15.0674520009
21
17.1516739177
31
0.0000000000
11
15.1056627583
21
17.1594505314
31
0.0000000000
11
15.1733122708
21
17.1421063398
31
0.0000000000
0
SPLINE
5
349
100
AcDbEntity
8
0
100
AcDbSpline
62
9
6
CONTINUOUS
70
0
71
3
72
9
73
5
74
3
42
0.0000001000
43
0.0000001000
44
0.0000000001
12
0.1042886375
22
0.0503857346
32
0.0000000000
13
0.1024200382
23
-0.0512100191
33
0.0000000000
40
0.0000000000
40
0.0000000000
40
0.0000000000
40
0.0000000000
40
0.3984659506
40
1.0000000000
40
1.0000000000
40
1.0000000000
40
1.0000000000
10
12.9404445017
20
16.0884906810
30
0.0000000000
10
12.9542963254
20
16.0951830143
30
0.0000000000
10
12.9934794441
20
16.1038629911
30
0.0000000000
10
13.0314555471
20
16.0917143581
30
0.0000000000
10
13.0519919272
20
16.0814461680
30
0.0000000000
11
12.9404445017
21
16.0884906810
31
0.0000000000
11
12.9853309586
21
16.0987932998
31
0.0000000000
11
13.0519919272
21
16.0814461680
31
0.0000000000
0
SPLINE
5
34A
100
AcDbEntity
8
0
100
AcDbSpline
62
9
6
CONTINUOUS
70
0
71
3
72
9
73
5
74
3
42
0.0000001000
43
0.0000001000
44
0.0000000001
12
-0.0002466153
22
-0.1183471546
32
0.0000000000
13
0.1066037527
23
-0.0533018764
33
0.0000000000
40
0.0000000000
40
0.0000000000
40
0.0000000000
40
0.0000000000
40
0.4395135603
40
1.0000000000
40
1.0000000000
40
1.0000000000
40
1.0000000000
10
12.8019926570
20
15.8649398277
30
0.0000000000
10
12.8019565267
20
15.8476014346
30
0.0000000000
10
12.8209218521
20
15.8082391900
30
0.0000000000
10
12.8552985793
20
15.7865097957
30
0.0000000000
10
12.8752152320
20
15.7765514694
30
0.0000000000
11
12.8019926570
21
15.8649398277
31
0.0000000000
11
12.8216046160
21
15.8164071301
31
0.0000000000
11
12.8752152320
21
15.7765514694
31
0.0000000000
0
SPLINE
5
34B
100
AcDbEntity
8
0
100
AcDbSpline
62
9
6
CONTINUOUS
70
0
71
3
72
9
73
5
74
3
42
0.0000001000
43
0.0000001000
44
0.0000000001
12
0.0000000000
22
-0.1183504396
32
0.0000000000
13
0.1065872076
23
-0.0532936038
33
0.0000000000
40
0.0000000000
40
0.0000000000
40
0.0000000000
40
0.0000000000
40
0.4320096608
40
1.0000000000
40
1.0000000000
40
1.0000000000
40
1.0000000000
10
12.8019919272
20
15.5136258450
30
0.0000000000
10
12.8019919272
20
15.4965830005
30
0.0000000000
10
12.8205970535
20
15.4571328540
30
0.0000000000
10
12.8550350639
20
15.4353275814
30
0.0000000000
10
12.8752152320
20
15.4252374973
30
0.0000000000
11
12.8019919272
21
15.5136258450
31
0.0000000000
11
12.8210220441
21
15.4657904159
31
0.0000000000
11
12.8752152320
21
15.4252374973
31
0.0000000000
0
SPLINE
5
34C
100
AcDbEntity
8
0
100
AcDbSpline
62
9
6
CONTINUOUS
70
0
71
3
72
9
73
5
74
3
42
0.0000001000
43
0.0000001000
44
0.0000000001
12
0.0527894128
22
-0.0310283960
32
0.0000000000
13
0.0277993620
23
-0.0541616686
33
0.0000000000
40
0.0000000000
40
0.0000000000
40
0.0000000000
40
0.0000000000
40
0.3689529772
40
1.0000000000
40
1.0000000000
40
1.0000000000
40
1.0000000000
10
14.8664702943
20
14.4890338887
30
0.0000000000
10
14.8729625646
20
14.4852178823
30
0.0000000000
10
14.8894164660
20
14.4728896835
30
0.0000000000
10
14.9011909687
20
14.4562072159
30
0.0000000000
10
14.9070385369
20
14.4448143627
30
0.0000000000
11
14.8664702943
21
14.4890338887
31
0.0000000000
11
14.8844670072
21
14.4755281005
31
0.0000000000
11
14.9070385369
21
14.4448143627
31
0.0000000000
0
SPLINE
5
34D
100
AcDbEntity
8
0
100
AcDbSpline
62
9
6
CONTINUOUS
70
0
71
3
72
9
73
5
74
3
42
0.0000001000
43
0.0000001000
44
0.0000000001
12
0.0415793299
22
-0.0810092651
32
0.0000000000
13
0.0000000000
23
-0.0900310712
33
0.0000000000
40
0.0000000000
40
0.0000000000
40
0.0000000000
40
0.0000000000
40
0.2275877162
40
1.0000000000
40
1.0000000000
40
1.0000000000
40
1.0000000000
10
14.9070385369
20
14.4448143627
30
0.0000000000
10
14.9101928518
20
14.4386687915
30
0.0000000000
10
14.9220291044
20
14.4105592232
30
0.0000000000
10
14.9258248974
20
14.3802198142
30
0.0000000000
10
14.9258248974
20
14.3570394458
30
0.0000000000
11
14.9070385369
21
14.4448143627
31
0.0000000000
11
14.9151639582
21
14.4257585094
31
0.0000000000
11
14.9258248974
21
14.3570394458
31
0.0000000000
0
SPLINE
5
34E
100
AcDbEntity
8
0
100
AcDbSpline
62
9
6
CONTINUOUS
70
0
71
3
72
10
73
6
74
4
42
0.0000001000
43
0.0000001000
44
0.0000000001
12
0.0000820386
22
-0.0997299692
32
0.0000000000
13
0.0836144133
23
-0.0511958990
33
0.0000000000
40
0.0000000000
40
0.0000000000
40
0.0000000000
40
0.0000000000
40
0.1925998704
40
0.6351840661
40
1.0000000000
40
1.0000000000
40
1.0000000000
40
1.0000000000
10
13.5093558188
20
14.8132739557
30
0.0000000000
10
13.5093610857
20
14.8068712960
30
0.0000000000
10
13.5124901499
20
14.7857346609
30
0.0000000000
10
13.5331870515
20
14.7586236986
30
0.0000000000
10
13.5545031294
20
14.7428557124
30
0.0000000000
10
13.5646710862
20
14.7366300192
30
0.0000000000
11
13.5093558188
21
14.8132739557
31
0.0000000000
11
13.5121796752
21
14.7944132986
31
0.0000000000
11
13.5361804388
21
14.7583546810
31
0.0000000000
11
13.5646710862
21
14.7366300192
31
0.0000000000
0
SPLINE
5
34F
100
AcDbEntity
8
0
100
AcDbSpline
62
9
6
CONTINUOUS
70
0
71
3
72
8
73
4
74
2
42
0.0000001000
43
0.0000001000
44
0.0000000001
12
0.0172110689
22
-0.0105380892
32
0.0000000000
13
0.0180182640
23
-0.0090101087
33
0.0000000000
40
0.0000000000
40
0.0000000000
40
0.0000000000
40
0.0000000000
40
1.0000000000
40
1.0000000000
40
1.0000000000
40
1.0000000000
10
13.5646710862
20
14.7366300192
30
0.0000000000
10
13.5704081091
20
14.7331173227
30
0.0000000000
10
13.5763159251
20
14.7298907977
30
0.0000000000
10
13.5823220131
20
14.7268874282
30
0.0000000000
11
13.5646710862
21
14.7366300192
31
0.0000000000
11
13.5823220131
21
14.7268874282
31
0.0000000000
0
SPLINE
5
350
100
AcDbEntity
8
0
100
AcDbSpline
62
9
6
CONTINUOUS
70
0
71
3
72
9
73
5
74
3
42
0.0000001000
43
0.0000001000
44
0.0000000001
12
0.1065872076
22
0.0532936038
32
0.0000000000
13
0.0000000000
23
0.1183504396
33
0.0000000000
40
0.0000000000
40
0.0000000000
40
0.0000000000
40
0.0000000000
40
0.5679903392
40
1.0000000000
40
1.0000000000
40
1.0000000000
40
1.0000000000
10
15.9864850692
20
-25.0890113030
30
0.0000000000
10
16.0066652372
20
-25.0789212190
30
0.0000000000
10
16.0411032477
20
-25.0571159463
30
0.0000000000
10
16.0597083739
20
-25.0176657998
30
0.0000000000
10
16.0597083739
20
-25.0006229554
30
0.0000000000
11
15.9864850692
21
-25.0890113030
31
0.0000000000
11
16.0406782570
21
-25.0484583844
31
0.0000000000
11
16.0597083739
21
-25.0006229554
31
0.0000000000
0
SPLINE
5
351
100
AcDbEntity
8
0
100
AcDbSpline
62
9
6
CONTINUOUS
70
0
71
3
72
8
73
4
74
2
42
0.0000001000
43
0.0000001000
44
0.0000000001
12
-0.0315625383
22
-0.0380993540
32
0.0000000000
13
-0.0289979005
23
-0.0401531648
33
0.0000000000
40
0.0000000000
40
0.0000000000
40
0.0000000000
40
0.0000000000
40
1.0000000000
40
1.0000000000
40
1.0000000000
40
1.0000000000
10
16.1632617645
20
15.1739811840
30
0.0000000000
10
16.1527409184
20
15.1612813994
30
0.0000000000
10
16.1426453378
20
15.1482167326
30
0.0000000000
10
16.1329793710
20
15.1348323443
30
0.0000000000
11
16.1632617645
21
15.1739811840
31
0.0000000000
11
16.1329793710
21
15.1348323443
31
0.0000000000
0
SPLINE
5
352
100
AcDbEntity
8
0
100
AcDbSpline
62
9
6
CONTINUOUS
70
0
71
3
72
9
73
5
74
3
42
0.0000001000
43
0.0000001000
44
0.0000000001
12
-0.0975244535
22
-0.1350413437
32
0.0000000000
13
-0.0675662299
23
-0.1522213257
33
0.0000000000
40
0.0000000000
40
0.0000000000
40
0.0000000000
40
0.0000000000
40
0.4769583011
40
1.0000000000
40
1.0000000000
40
1.0000000000
40
1.0000000000
10
16.1329793710
20
15.1348323443
30
0.0000000000
10
16.1174743384
20
15.1133626477
30
0.0000000000
10
16.0872838622
20
15.0666240371
30
0.0000000000
10
16.0620315601
20
15.0170884892
30
0.0000000000
10
16.0502515749
20
14.9905491223
30
0.0000000000
11
16.1329793710
21
15.1348323443
31
0.0000000000
11
16.0897985233
21
15.0681416380
31
0.0000000000
11
16.0502515749
21
14.9905491223
31
0.0000000000
0
SPLINE
5
353
100
AcDbEntity
8
0
100
AcDbSpline
62
9
6
CONTINUOUS
70
0
71
3
72
9
73
5
74
3
42
0.0000001000
43
0.0000001000
44
0.0000000001
12
-0.0348810751
22
-0.0785842794
32
0.0000000000
13
-0.0262176585
23
-0.0818898164
33
0.0000000000
40
0.0000000000
40
0.0000000000
40
0.0000000000
40
0.0000000000
40
0.5023428387
40
1.0000000000
40
1.0000000000
40
1.0000000000
40
1.0000000000
10
16.0502515749
20
14.9905491223
30
0.0000000000
10
16.0444108221
20
14.9773903723
30
0.0000000000
10
16.0334826451
20
14.9508871992
30
0.0000000000
10
16.0239828738
20
14.9238352636
30
0.0000000000
10
16.0196337386
20
14.9102509124
30
0.0000000000
11
16.0502515749
21
14.9905491223
31
0.0000000000
11
16.0337918950
21
14.9506245346
31
0.0000000000
11
16.0196337386
21
14.9102509124
31
0.0000000000
0
SPLINE
5
354
100
AcDbEntity
8
0
100
AcDbSpline
62
9
6
CONTINUOUS
70
0
71
3
72
9
73
5
74
3
42
0.0000001000
43
0.0000001000
44
0.0000000001
12
-0.0619250986
22
-0.1934205897
32
0.0000000000
13
0.0000000000
23
-0.2028915163
33
0.0000000000
40
0.0000000000
40
0.0000000000
40
0.0000000000
40
0.0000000000
40
0.4137313025
40
1.0000000000
40
1.0000000000
40
1.0000000000
40
1.0000000000
10
16.0196337386
20
14.9102509124
30
0.0000000000
10
16.0110936214
20
14.8835761949
30
0.0000000000
10
15.9939793857
20
14.8179678785
30
0.0000000000
10
15.9864850692
20
14.7502424847
30
0.0000000000
10
15.9864850692
20
14.7105928364
30
0.0000000000
11
16.0196337386
21
14.9102509124
31
0.0000000000
11
15.9985789074
21
14.8289253788
31
0.0000000000
11
15.9864850692
21
14.7105928364
31
0.0000000000
0
SPLINE
5
355
100
AcDbEntity
8
0
100
AcDbSpline
62
9
6
CONTINUOUS
70
0
71
3
72
9
73
5
74
3
42
0.0000001000
43
0.0000001000
44
0.0000000001
12
0.1065872076
22
0.0532936038
32
0.0000000000
13
0.0000000000
23
0.1183504396
33
0.0000000000
40
0.0000000000
40
0.0000000000
40
0.0000000000
40
0.0000000000
40
0.5679903392
40
1.0000000000
40
1.0000000000
40
1.0000000000
40
1.0000000000
10
15.9864850692
20
14.7105928364
30
0.0000000000
10
16.0066652372
20
14.7206829204
30
0.0000000000
10
16.0411032477
20
14.7424881931
30
0.0000000000
10
16.0597083739
20
14.7819383396
30
0.0000000000
10
16.0597083739
20
14.7989811840
30
0.0000000000
11
15.9864850692
21
14.7105928364
31
0.0000000000
11
16.0406782570
21
14.7511457550
31
0.0000000000
11
16.0597083739
21
14.7989811840
31
0.0000000000
0
SPLINE
5
356
100
AcDbEntity
8
0
100
AcDbSpline
62
9
6
CONTINUOUS
70
0
71
3
72
9
73
5
74
3
42
0.0000001000
43
0.0000001000
44
0.0000000001
12
0.0390589135
22
-0.0633270110
32
0.0000000000
13
-0.0388406053
23
-0.0616439661
33
0.0000000000
40
0.0000000000
40
0.0000000000
40
0.0000000000
40
0.0000000000
40
0.6996685086
40
1.0000000000
40
1.0000000000
40
1.0000000000
40
1.0000000000
10
16.6935918504
20
15.8141462270
30
0.0000000000
10
16.7027012809
20
15.7993769219
30
0.0000000000
10
16.7181297341
20
15.7782824952
30
0.0000000000
10
16.7123985960
20
15.7497687012
30
0.0000000000
10
16.7085102437
20
15.7435974931
30
0.0000000000
11
16.6935918504
21
15.8141462270
31
0.0000000000
11
16.7139325044
21
15.7662266622
31
0.0000000000
11
16.7085102437
21
15.7435974931
31
0.0000000000
0
SPLINE
5
357
100
AcDbEntity
8
0
100
AcDbSpline
62
9
6
CONTINUOUS
70
0
71
3
72
9
73
5
74
3
42
0.0000001000
43
0.0000001000
44
0.0000000001
12
0.0390754420
22
-0.0633538090
32
0.0000000000
13
-0.0390171369
23
-0.0616959367
33
0.0000000000
40
0.0000000000
40
0.0000000000
40
0.0000000000
40
0.0000000000
40
0.7019059025
40
1.0000000000
40
1.0000000000
40
1.0000000000
40
1.0000000000
10
16.1632617645
20
15.1739811840
30
0.0000000000
10
16.1724041923
20
15.1591583799
30
0.0000000000
10
16.1878996495
20
15.1380106117
30
0.0000000000
10
16.1820285500
20
15.1095510558
30
0.0000000000
10
16.1781516239
20
15.1034206576
30
0.0000000000
11
16.1632617645
21
15.1739811840
31
0.0000000000
11
16.1836301960
21
15.1258685809
31
0.0000000000
11
16.1781516239
21
15.1034206576
31
0.0000000000
0
SPLINE
5
358
100
AcDbEntity
8
0
100
AcDbSpline
62
9
6
CONTINUOUS
70
0
71
3
72
9
73
5
74
3
42
0.0000001000
43
0.0000001000
44
0.0000000001
12
0.0962299386
22
0.0472325042
32
0.0000000000
13
0.1062737778
23
-0.0042849516
33
0.0000000000
40
0.0000000000
40
0.0000000000
40
0.0000000000
40
0.0000000000
40
0.0715056991
40
1.0000000000
40
1.0000000000
40
1.0000000000
40
1.0000000000
10
0.0185457457
20
21.4407759193
30
0.0000000000
10
0.0208394087
20
21.4419017171
30
0.0000000000
10
0.0532267597
20
21.4570146461
30
0.0000000000
10
0.0897683343
20
21.4629773545
30
0.0000000000
10
0.1226598667
20
21.4616511701
30
0.0000000000
11
0.0185457457
21
21.4407759193
31
0.0000000000
11
0.0254924098
21
21.4440162525
31
0.0000000000
11
0.1226598667
21
21.4616511701
31
0.0000000000
0
SPLINE
5
359
100
AcDbEntity
8
0
100
AcDbSpline
62
9
6
CONTINUOUS
70
0
71
3
72
11
73
7
74
5
42
0.0000001000
43
0.0000001000
44
0.0000000001
12
0.3283038806
22
-0.1641519403
32
0.0000000000
13
0.0000000000
23
-0.3670548971
33
0.0000000000
40
0.0000000000
40
0.0000000000
40
0.0000000000
40
0.0000000000
40
0.2307526336
40
0.4908242915
40
0.7571794809
40
1.0000000000
40
1.0000000000
40
1.0000000000
40
1.0000000000
10
16.5168151551
20
16.4703548977
30
0.0000000000
10
16.5420674834
20
16.4577287335
30
0.0000000000
10
16.5903268665
20
16.4199057208
30
0.0000000000
10
16.6459446536
20
16.3448103258
30
0.0000000000
10
16.6833841747
20
16.2575714891
30
0.0000000000
10
16.6935918504
20
16.1951696859
30
0.0000000000
10
16.6935918504
20
16.1654601991
30
0.0000000000
11
16.5168151551
21
16.4703548977
31
0.0000000000
11
16.5847462043
21
16.4197656347
31
0.0000000000
11
16.6422988185
21
16.3436051587
31
0.0000000000
11
16.6805414977
21
16.2536280548
31
0.0000000000
11
16.6935918504
21
16.1654601991
31
0.0000000000
0
SPLINE
5
35A
100
AcDbEntity
8
0
100
AcDbSpline
62
9
6
CONTINUOUS
70
0
71
3
72
11
73
7
74
5
42
0.0000001000
43
0.0000001000
44
0.0000000001
12
0.3283038806
22
-0.1641519403
32
0.0000000000
13
0.0000000000
23
-0.3670548971
33
0.0000000000
40
0.0000000000
40
0.0000000000
40
0.0000000000
40
0.0000000000
40
0.2307526336
40
0.4908242915
40
0.7571794809
40
1.0000000000
40
1.0000000000
40
1.0000000000
40
1.0000000000
10
14.3954948115
20
15.4096947259
30
0.0000000000
10
14.4207471399
20
15.3970685617
30
0.0000000000
10
14.4690065230
20
15.3592455491
30
0.0000000000
10
14.5246243101
20
15.2841501540
30
0.0000000000
10
14.5620638311
20
15.1969113173
30
0.0000000000
10
14.5722715068
20
15.1345095142
30
0.0000000000
10
14.5722715068
20
15.1048000273
30
0.0000000000
11
14.3954948115
21
15.4096947259
31
0.0000000000
11
14.4634258608
21
15.3591054629
31
0.0000000000
11
14.5209784749
21
15.2829449869
31
0.0000000000
11
14.5592211541
21
15.1929678831
31
0.0000000000
11
14.5722715068
21
15.1048000273
31
0.0000000000
0
SPLINE
5
35B
100
AcDbEntity
8
0
100
AcDbSpline
62
9
6
CONTINUOUS
70
0
71
3
72
11
73
7
74
5
42
0.0000001000
43
0.0000001000
44
0.0000000001
12
-0.3283038806
22
-0.1641519403
32
0.0000000000
13
0.0000000000
23
-0.3670548971
33
0.0000000000
40
0.0000000000
40
0.0000000000
40
0.0000000000
40
0.0000000000
40
0.2307526336
40
0.4908242915
40
0.7571794809
40
1.0000000000
40
1.0000000000
40
1.0000000000
40
1.0000000000
10
14.3954948115
20
15.4096947259
30
0.0000000000
10
14.3702424831
20
15.3970685617
30
0.0000000000
10
14.3219831000
20
15.3592455491
30
0.0000000000
10
14.2663653129
20
15.2841501540
30
0.0000000000
10
14.2289257919
20
15.1969113173
30
0.0000000000
10
14.2187181162
20
15.1345095142
30
0.0000000000
10
14.2187181162
20
15.1048000273
30
0.0000000000
11
14.3954948115
21
15.4096947259
31
0.0000000000
11
14.3275637622
21
15.3591054629
31
0.0000000000
11
14.2700111481
21
15.2829449869
31
0.0000000000
11
14.2317684689
21
15.1929678831
31
0.0000000000
11
14.2187181162
21
15.1048000273
31
0.0000000000
0
SPLINE
5
35C
100
AcDbEntity
8
0
100
AcDbSpline
62
9
6
CONTINUOUS
70
0
71
3
72
11
73
7
74
5
42
0.0000001000
43
0.0000001000
44
0.0000000001
12
-0.3283037267
22
-0.1641518634
32
0.0000000000
13
0.0000000000
23
-0.3670547251
33
0.0000000000
40
0.0000000000
40
0.0000000000
40
0.0000000000
40
0.0000000000
40
0.2296755894
40
0.4882147766
40
0.7532068921
40
1.0000000000
40
1.0000000000
40
1.0000000000
40
1.0000000000
10
13.0519919272
20
16.0814461680
30
0.0000000000
10
13.0268574766
20
16.0688789427
30
0.0000000000
10
12.9788294026
20
16.0313049067
30
0.0000000000
10
12.9233701574
20
15.9567074423
30
0.0000000000
10
12.8856355082
20
15.8694723728
30
0.0000000000
10
12.8752152320
20
15.8067469949
30
0.0000000000
10
12.8752152320
20
15.7765514694
30
0.0000000000
11
13.0519919272
21
16.0814461680
31
0.0000000000
11
12.9843424147
21
16.0311408471
31
0.0000000000
11
12.9269919272
21
15.9555329260
31
0.0000000000
11
12.8886715566
21
15.8661330253
31
0.0000000000
11
12.8752152320
21
15.7765514694
31
0.0000000000
0
SPLINE
5
35D
100
AcDbEntity
8
0
100
AcDbSpline
62
9
6
CONTINUOUS
70
0
71
3
72
11
73
7
74
5
42
0.0000001000
43
0.0000001000
44
0.0000000001
12
-0.3249553250
22
-0.1624776625
32
0.0000000000
13
-0.3249553250
23
0.1624776625
33
0.0000000000
40
0.0000000000
40
0.0000000000
40
0.0000000000
40
0.0000000000
40
0.2341093284
40
0.4991216953
40
0.7642320678
40
1.0000000000
40
1.0000000000
40
1.0000000000
40
1.0000000000
10
14.5722715068
20
14.7534860552
30
0.0000000000
10
14.5469131492
20
14.7408068764
30
0.0000000000
10
14.4884448191
20
14.7226111108
30
0.0000000000
10
14.3958050394
20
14.7138588583
30
0.0000000000
10
14.3029584417
20
14.7225149008
30
0.0000000000
10
14.2442561312
20
14.7407170477
30
0.0000000000
10
14.2187181162
20
14.7534860552
30
0.0000000000
11
14.5722715068
21
14.7534860552
31
0.0000000000
11
14.4916171919
21
14.7264832334
31
0.0000000000
11
14.3958159227
21
14.7168745060
31
0.0000000000
11
14.2999665876
21
14.7263599466
31
0.0000000000
11
14.2187181162
21
14.7534860552
31
0.0000000000
0
SPLINE
5
35E
100
AcDbEntity
8
0
100
AcDbSpline
62
9
6
CONTINUOUS
70
0
71
3
72
11
73
7
74
5
42
0.0000001000
43
0.0000001000
44
0.0000000001
12
-0.3249549290
22
-0.1624774645
32
0.0000000000
13
-0.3249549290
23
0.1624774645
33
0.0000000000
40
0.0000000000
40
0.0000000000
40
0.0000000000
40
0.0000000000
40
0.2353701082
40
0.5000000000
40
0.7646298918
40
1.0000000000
40
1.0000000000
40
1.0000000000
40
1.0000000000
10
14.5722715068
20
15.1048000273
30
0.0000000000
10
14.5467766145
20
15.0920525811
30
0.0000000000
10
14.4881840165
20
15.0738684554
30
0.0000000000
10
14.3954948115
20
15.0651821368
30
0.0000000000
10
14.3028056065
20
15.0738684554
30
0.0000000000
10
14.2442130085
20
15.0920525811
30
0.0000000000
10
14.2187181162
20
15.1048000273
30
0.0000000000
11
14.5722715068
21
15.1048000273
31
0.0000000000
11
14.4911656696
21
15.0777034334
31
0.0000000000
11
14.3954948115
21
15.0681883749
31
0.0000000000
11
14.2998239534
21
15.0777034334
31
0.0000000000
11
14.2187181162
21
15.1048000273
31
0.0000000000
0
SPLINE
5
35F
100
AcDbEntity
8
0
100
AcDbSpline
62
9
6
CONTINUOUS
70
0
71
3
72
11
73
7
74
5
42
0.0000001000
43
0.0000001000
44
0.0000000001
12
-0.3249549290
22
-0.1624774645
32
0.0000000000
13
-0.3249549290
23
0.1624774645
33
0.0000000000
40
0.0000000000
40
0.0000000000
40
0.0000000000
40
0.0000000000
40
0.2353701082
40
0.5000000000
40
0.7646298918
40
1.0000000000
40
1.0000000000
40
1.0000000000
40
1.0000000000
10
15.2793782880
20
14.3570394458
30
0.0000000000
10
15.2538833957
20
14.3442919997
30
0.0000000000
10
15.1952907977
20
14.3261078739
30
0.0000000000
10
15.1026015927
20
14.3174215553
30
0.0000000000
10
15.0099123876
20
14.3261078739
30
0.0000000000
10
14.9513197897
20
14.3442919997
30
0.0000000000
10
14.9258248974
20
14.3570394458
30
0.0000000000
11
15.2793782880
21
14.3570394458
31
0.0000000000
11
15.1982724508
21
14.3299428519
31
0.0000000000
11
15.1026015927
21
14.3204277934
31
0.0000000000
11
15.0069307346
21
14.3299428519
31
0.0000000000
11
14.9258248974
21
14.3570394458
31
0.0000000000
0
SPLINE
5
360
100
AcDbEntity
8
0
100
AcDbSpline
62
9
6
CONTINUOUS
70
0
71
3
72
11
73
7
74
5
42
0.0000001000
43
0.0000001000
44
0.0000000001
12
-0.3249549290
22
-0.1624774645
32
0.0000000000
13
-0.3249549290
23
0.1624774645
33
0.0000000000
40
0.0000000000
40
0.0000000000
40
0.0000000000
40
0.0000000000
40
0.2353701082
40
0.5000000000
40
0.7646298918
40
1.0000000000
40
1.0000000000
40
1.0000000000
40
1.0000000000
10
1.9150601236
20
21.0391985280
30
0.0000000000
10
1.8895652313
20
21.0264510819
30
0.0000000000
10
1.8309726333
20
21.0082669561
30
0.0000000000
10
1.7382834283
20
20.9995806375
30
0.0000000000
10
1.6455942232
20
21.0082669561
30
0.0000000000
10
1.5870016252
20
21.0264510819
30
0.0000000000
10
1.5615067330
20
21.0391985280
30
0.0000000000
11
1.9150601236
21
21.0391985280
31
0.0000000000
11
1.8339542864
21
21.0121019341
31
0.0000000000
11
1.7382834283
21
21.0025868757
31
0.0000000000
11
1.6426125702
21
21.0121019341
31
0.0000000000
11
1.5615067330
21
21.0391985280
31
0.0000000000
0
SPLINE
5
361
100
AcDbEntity
8
0
100
AcDbSpline
62
9
6
CONTINUOUS
70
0
71
3
72
11
73
7
74
5
42
0.0000001000
43
0.0000001000
44
0.0000000001
12
0.0000000000
22
0.3637757396
32
0.0000000000
13
-0.3562163182
23
0.0737748151
33
0.0000000000
40
0.0000000000
40
0.0000000000
40
0.0000000000
40
0.0000000000
40
0.2944003400
40
0.5512517510
40
0.7796839657
40
1.0000000000
40
1.0000000000
40
1.0000000000
40
1.0000000000
10
1.9150601236
20
21.0391985280
30
0.0000000000
10
1.9150601236
20
21.0748970951
30
0.0000000000
10
1.9084120482
20
21.1421228661
30
0.0000000000
10
1.8740448715
20
21.2317636943
30
0.0000000000
10
1.8161633151
20
21.2977732985
30
0.0000000000
10
1.7644434838
20
21.3203922555
30
0.0000000000
10
1.7382834283
20
21.3258101804
30
0.0000000000
11
1.9150601236
21
21.0391985280
31
0.0000000000
11
1.9029250614
21
21.1456044937
31
0.0000000000
11
1.8676325682
21
21.2321191417
31
0.0000000000
11
1.8116344348
21
21.2935154194
31
0.0000000000
11
1.7382834283
21
21.3258101804
31
0.0000000000
0
SPLINE
5
362
100
AcDbEntity
8
0
100
AcDbSpline
62
9
6
CONTINUOUS
70
0
71
3
72
10
73
6
74
4
42
0.0000001000
43
0.0000001000
44
0.0000000001
12
0.0000000000
22
-0.1564808595
32
0.0000000000
13
-0.1423869558
23
-0.0692182728
33
0.0000000000
40
0.0000000000
40
0.0000000000
40
0.0000000000
40
0.0000000000
40
0.4940245815
40
0.9020990723
40
1.0000000000
40
1.0000000000
40
1.0000000000
40
1.0000000000
10
16.6935918504
20
-25.8367718845
30
0.0000000000
10
16.6935918504
20
-25.8625403482
30
0.0000000000
10
16.6872379337
20
-25.9102971436
30
0.0000000000
10
16.6561800758
20
-25.9560284425
30
0.0000000000
10
16.6331913262
20
-25.9695796110
30
0.0000000000
10
16.6285447212
20
-25.9718384554
30
0.0000000000
11
16.6935918504
21
-25.8367718845
31
0.0000000000
11
16.6801355257
21
-25.9128971157
31
0.0000000000
11
16.6418151551
21
-25.9639766458
31
0.0000000000
11
16.6285447212
21
-25.9718384554
31
0.0000000000
0
SPLINE
5
363
100
AcDbEntity
8
0
100
AcDbSpline
62
0
6
CONTINUOUS
70
0
71
3
72
11
73
7
74
5
42
0.0000001000
43
0.0000001000
44
0.0000000001
12
0.0000669568
22
-0.2417248529
32
0.0000000000
13
0.2152385224
23
-0.1076192612
33
0.0000000000
40
0.0000000000
40
0.0000000000
40
0.0000000000
40
0.0000000000
40
0.2042181767
40
0.4327266543
40
0.6963913004
40
1.0000000000
40
1.0000000000
40
1.0000000000
40
1.0000000000
10
5.0192743604
20
20.4790285526
30
0.0000000000
10
5.0192789184
20
20.4625736831
30
0.0000000000
10
5.0264722426
20
20.4276958268
30
0.0000000000
10
5.0568612199
20
20.3797141479
30
0.0000000000
10
5.1045813516
20
20.3365068364
30
0.0000000000
10
5.1439380748
20
20.3131387881
30
0.0000000000
10
5.1657208374
20
20.3022474067
30
0.0000000000
11
5.0192743604
21
20.4790285526
31
0.0000000000
11
5.0286720494
21
20.4307812209
31
0.0000000000
11
5.0570594284
21
20.3836859158
31
0.0000000000
11
5.1033395387
21
20.3402812336
31
0.0000000000
11
5.1657208374
21
20.3022474067
31
0.0000000000
0
SPLINE
5
364
100
AcDbEntity
8
0
100
AcDbSpline
62
9
6
CONTINUOUS
70
0
71
3
72
11
73
7
74
5
42
0.0000001000
43
0.0000001000
44
0.0000000001
12
-0.3283063189
22
-0.1641531595
32
0.0000000000
13
0.0000000000
23
-0.3670576233
33
0.0000000000
40
0.0000000000
40
0.0000000000
40
0.0000000000
40
0.0000000000
40
0.2259015102
40
0.4856075256
40
0.7520750422
40
1.0000000000
40
1.0000000000
40
1.0000000000
40
1.0000000000
10
1.0311766471
20
22.0918538081
30
0.0000000000
10
1.0064550160
20
22.0794929925
30
0.0000000000
10
0.9585983409
20
22.0422863173
30
0.0000000000
10
0.9029875805
20
21.9679424222
30
0.0000000000
10
0.8649198341
20
21.8803393605
30
0.0000000000
10
0.8543999518
20
21.8172933581
30
0.0000000000
10
0.8543999518
20
21.7869591095
30
0.0000000000
11
1.0311766471
21
22.0918538081
31
0.0000000000
11
0.9645156785
21
22.0425399712
31
0.0000000000
11
0.9066621892
21
21.9667757014
31
0.0000000000
11
0.8679731773
21
21.8769439265
31
0.0000000000
11
0.8543999518
21
21.7869591095
31
0.0000000000
0
SPLINE
5
365
100
AcDbEntity
8
0
100
AcDbSpline
62
9
6
CONTINUOUS
70
0
71
3
72
11
73
7
74
5
42
0.0000001000
43
0.0000001000
44
0.0000000001
12
-0.3283063189
22
-0.1641531595
32
0.0000000000
13
0.0000000000
23
-0.3670576233
33
0.0000000000
40
0.0000000000
40
0.0000000000
40
0.0000000000
40
0.0000000000
40
0.2259015102
40
0.4856075256
40
0.7520750422
40
1.0000000000
40
1.0000000000
40
1.0000000000
40
1.0000000000
10
-0.3123262372
20
22.7636052502
30
0.0000000000
10
-0.3370478683
20
22.7512444347
30
0.0000000000
10
-0.3849045433
20
22.7140377595
30
0.0000000000
10
-0.4405153037
20
22.6396938643
30
0.0000000000
10
-0.4785830502
20
22.5520908026
30
0.0000000000
10
-0.4891029325
20
22.4890448002
30
0.0000000000
10
-0.4891029325
20
22.4587105516
30
0.0000000000
11
-0.3123262372
21
22.7636052502
31
0.0000000000
11
-0.3789872058
21
22.7142914134
31
0.0000000000
11
-0.4368406950
21
22.6385271436
31
0.0000000000
11
-0.4755297069
21
22.5486953686
31
0.0000000000
11
-0.4891029325
21
22.4587105516
31
0.0000000000
0
SPLINE
5
366
100
AcDbEntity
8
0
100
AcDbSpline
62
9
6
CONTINUOUS
70
0
71
3
72
11
73
7
74
5
42
0.0000001000
43
0.0000001000
44
0.0000000001
12
-0.3249549290
22
-0.1624774645
32
0.0000000000
13
-0.3249549290
23
0.1624774645
33
0.0000000000
40
0.0000000000
40
0.0000000000
40
0.0000000000
40
0.0000000000
40
0.2353701082
40
0.5000000000
40
0.7646298918
40
1.0000000000
40
1.0000000000
40
1.0000000000
40
1.0000000000
10
1.2079533424
20
21.4356451374
30
0.0000000000
10
1.1824584501
20
21.4228976913
30
0.0000000000
10
1.1238658521
20
21.4047135655
30
0.0000000000
10
1.0311766471
20
21.3960272469
30
0.0000000000
10
0.9384874420
20
21.4047135655
30
0.0000000000
10
0.8798948440
20
21.4228976913
30
0.0000000000
10
0.8543999518
20
21.4356451374
30
0.0000000000
11
1.2079533424
21
21.4356451374
31
0.0000000000
11
1.1268475052
21
21.4085485435
31
0.0000000000
11
1.0311766471
21
21.3990334851
31
0.0000000000
11
0.9355057890
21
21.4085485435
31
0.0000000000
11
0.8543999518
21
21.4356451374
31
0.0000000000
0
SPLINE
5
367
100
AcDbEntity
8
0
100
AcDbSpline
62
9
6
CONTINUOUS
70
0
71
3
72
11
73
7
74
5
42
0.0000001000
43
0.0000001000
44
0.0000000001
12
-0.3249561016
22
-0.1624780508
32
0.0000000000
13
-0.3249561016
23
0.1624780508
33
0.0000000000
40
0.0000000000
40
0.0000000000
40
0.0000000000
40
0.0000000000
40
0.2314751089
40
0.4973489063
40
0.7635187405
40
1.0000000000
40
1.0000000000
40
1.0000000000
40
1.0000000000
10
1.2079533424
20
21.7869591095
30
0.0000000000
10
1.1828802594
20
21.7744225680
30
0.0000000000
10
1.1246641158
20
21.7562005873
30
0.0000000000
10
1.0321129854
20
21.7473116838
30
0.0000000000
10
0.9389375732
20
21.7559099540
30
0.0000000000
10
0.8800152945
20
21.7741514381
30
0.0000000000
10
0.8543999518
20
21.7869591095
30
0.0000000000
11
1.2079533424
21
21.7869591095
31
0.0000000000
11
1.1282420211
21
21.7601538015
31
0.0000000000
11
1.0321458526
21
21.7503483965
31
0.0000000000
11
0.9359042266
21
21.7597801976
31
0.0000000000
11
0.8543999518
21
21.7869591095
31
0.0000000000
0
SPLINE
5
368
100
AcDbEntity
8
0
100
AcDbSpline
62
9
6
CONTINUOUS
70
0
71
3
72
11
73
7
74
5
42
0.0000001000
43
0.0000001000
44
0.0000000001
12
-0.1061592977
22
-0.2782775268
32
0.0000000000
13
-0.2954793229
23
0.0611227618
33
0.0000000000
40
0.0000000000
40
0.0000000000
40
0.0000000000
40
0.0000000000
40
0.3176223393
40
0.6108082489
40
0.8776890968
40
1.0000000000
40
1.0000000000
40
1.0000000000
40
1.0000000000
10
1.7382834283
20
21.3258101804
30
0.0000000000
10
1.7270439068
20
21.2963477940
30
0.0000000000
10
1.6966733364
20
21.2424572023
30
0.0000000000
10
1.6293538414
20
21.1839997491
30
0.0000000000
10
1.5622116898
20
21.1635301516
30
0.0000000000
10
1.5228737406
20
21.1670030636
30
0.0000000000
10
1.5108269597
20
21.1694950570
30
0.0000000000
11
1.7382834283
21
21.3258101804
31
0.0000000000
11
1.6910023473
21
21.2438728210
31
0.0000000000
11
1.6240067330
21
21.1878660065
31
0.0000000000
11
1.5474960602
21
21.1663162667
31
0.0000000000
11
1.5108269597
21
21.1694950570
31
0.0000000000
0
SPLINE
5
369
100
AcDbEntity
8
0
100
AcDbSpline
62
9
6
CONTINUOUS
70
0
71
3
72
11
73
7
74
5
42
0.0000001000
43
0.0000001000
44
0.0000000001
12
-0.1057221029
22
-0.2771314992
32
0.0000000000
13
-0.2947811286
23
0.0585649842
33
0.0000000000
40
0.0000000000
40
0.0000000000
40
0.0000000000
40
0.0000000000
40
0.3174140699
40
0.6124256554
40
0.8809117771
40
1.0000000000
40
1.0000000000
40
1.0000000000
40
1.0000000000
10
1.2079533424
20
21.4356451374
30
0.0000000000
10
1.1967674481
20
21.4063233251
30
0.0000000000
10
1.1664869135
20
21.3525054785
30
0.0000000000
10
1.0992892808
20
21.2939625903
30
0.0000000000
10
1.0324219582
20
21.2734882851
30
0.0000000000
10
0.9934147149
20
21.2767593785
30
0.0000000000
10
0.9817130613
20
21.2790841785
30
0.0000000000
11
1.2079533424
21
21.4356451374
31
0.0000000000
11
1.1609640171
21
21.3540605830
31
0.0000000000
11
1.0939174289
21
21.2978313063
31
0.0000000000
11
1.0172877073
21
21.2761555966
31
0.0000000000
11
0.9817130613
21
21.2790841785
31
0.0000000000
0
SPLINE
5
36A
100
AcDbEntity
8
0
100
AcDbSpline
62
9
6
CONTINUOUS
70
0
71
3
72
10
73
6
74
4
42
0.0000001000
43
0.0000001000
44
0.0000000001
12
0.0000000000
22
-0.1565856039
32
0.0000000000
13
0.1420669092
23
-0.0716176355
33
0.0000000000
40
0.0000000000
40
0.0000000000
40
0.0000000000
40
0.0000000000
40
0.4399929087
40
0.8157800551
40
1.0000000000
40
1.0000000000
40
1.0000000000
40
1.0000000000
10
0.8543999518
20
21.4356451374
30
0.0000000000
10
0.8543999518
20
21.4126796190
30
0.0000000000
10
0.8597376275
20
21.3696585671
30
0.0000000000
10
0.8860373774
20
21.3222847379
30
0.0000000000
10
0.9107142142
20
21.3049529943
30
0.0000000000
10
0.9194380669
20
21.3005551954
30
0.0000000000
11
0.8543999518
21
21.4356451374
31
0.0000000000
11
0.8648462185
21
21.3675451312
31
0.0000000000
11
0.8955554340
21
21.3173512477
31
0.0000000000
11
0.9194380669
21
21.3005551954
31
0.0000000000
0
SPLINE
5
36B
100
AcDbEntity
8
0
100
AcDbSpline
62
9
6
CONTINUOUS
70
0
71
3
72
10
73
6
74
4
42
0.0000001000
43
0.0000001000
44
0.0000000001
12
0.0000000000
22
-0.1564808595
32
0.0000000000
13
-0.1423869558
23
-0.0692182728
33
0.0000000000
40
0.0000000000
40
0.0000000000
40
0.0000000000
40
0.0000000000
40
0.4940245815
40
0.9020990723
40
1.0000000000
40
1.0000000000
40
1.0000000000
40
1.0000000000
10
14.5722715068
20
-26.8974320563
30
0.0000000000
10
14.5722715068
20
-26.9232005200
30
0.0000000000
10
14.5659175902
20
-26.9709573154
30
0.0000000000
10
14.5348597323
20
-27.0166886143
30
0.0000000000
10
14.5118709827
20
-27.0302397828
30
0.0000000000
10
14.5072243776
20
-27.0324986271
30
0.0000000000
11
14.5722715068
21
-26.8974320563
31
0.0000000000
11
14.5588151821
21
-26.9735572874
31
0.0000000000
11
14.5204948115
21
-27.0246368175
31
0.0000000000
11
14.5072243776
21
-27.0324986271
31
0.0000000000
0
SPLINE
5
36C
100
AcDbEntity
8
0
100
AcDbSpline
62
9
6
CONTINUOUS
70
0
71
3
72
10
73
6
74
4
42
0.0000001000
43
0.0000001000
44
0.0000000001
12
0.0000000000
22
-0.1566946312
32
0.0000000000
13
0.1422190834
23
-0.0714370359
33
0.0000000000
40
0.0000000000
40
0.0000000000
40
0.0000000000
40
0.0000000000
40
0.4458524345
40
0.8204611858
40
1.0000000000
40
1.0000000000
40
1.0000000000
40
1.0000000000
10
-0.4891029325
20
22.1073965795
30
0.0000000000
10
-0.4891029325
20
22.0841090186
30
0.0000000000
10
-0.4836674590
20
22.0407772920
30
0.0000000000
10
-0.4569769886
20
21.9935529332
30
0.0000000000
10
-0.4324888182
20
21.9765289909
30
0.0000000000
10
-0.4239775363
20
21.9722537507
30
0.0000000000
11
-0.4891029325
21
22.1073965795
31
0.0000000000
11
-0.4783339156
21
22.0383688842
31
0.0000000000
11
-0.4473387407
21
21.9885201843
31
0.0000000000
11
-0.4239775363
21
21.9722537507
31
0.0000000000
0
SPLINE
5
36D
100
AcDbEntity
8
0
100
AcDbSpline
62
9
6
CONTINUOUS
70
0
71
3
72
11
73
7
74
5
42
0.0000001000
43
0.0000001000
44
0.0000000001
12
0.3283038806
22
-0.1641519403
32
0.0000000000
13
0.0000000000
23
-0.3670548971
33
0.0000000000
40
0.0000000000
40
0.0000000000
40
0.0000000000
40
0.0000000000
40
0.2307526336
40
0.4908242915
40
0.7571794809
40
1.0000000000
40
1.0000000000
40
1.0000000000
40
1.0000000000
10
3.1524969906
20
23.1525139799
30
0.0000000000
10
3.1777493190
20
23.1398878157
30
0.0000000000
10
3.2260087021
20
23.1020648030
30
0.0000000000
10
3.2816264892
20
23.0269694080
30
0.0000000000
10
3.3190660102
20
22.9397305713
30
0.0000000000
10
3.3292736859
20
22.8773287682
30
0.0000000000
10
3.3292736859
20
22.8476192813
30
0.0000000000
11
3.1524969906
21
23.1525139799
31
0.0000000000
11
3.2204280399
21
23.1019247169
31
0.0000000000
11
3.2779806541
21
23.0257642409
31
0.0000000000
11
3.3162233332
21
22.9357871371
31
0.0000000000
11
3.3292736859
21
22.8476192813
31
0.0000000000
0
SPLINE
5
36E
100
AcDbEntity
8
0
100
AcDbSpline
62
9
6
CONTINUOUS
70
0
71
3
72
11
73
7
74
5
42
0.0000001000
43
0.0000001000
44
0.0000000001
12
0.3283037267
22
-0.1641518634
32
0.0000000000
13
0.0000000000
23
-0.3670547251
33
0.0000000000
40
0.0000000000
40
0.0000000000
40
0.0000000000
40
0.0000000000
40
0.2296755894
40
0.4882147766
40
0.7532068921
40
1.0000000000
40
1.0000000000
40
1.0000000000
40
1.0000000000
10
1.0311766471
20
22.0918538081
30
0.0000000000
10
1.0563110977
20
22.0792865828
30
0.0000000000
10
1.1043391718
20
22.0417125467
30
0.0000000000
10
1.1597984169
20
21.9671150824
30
0.0000000000
10
1.1975330662
20
21.8798800129
30
0.0000000000
10
1.2079533424
20
21.8171546350
30
0.0000000000
10
1.2079533424
20
21.7869591095
30
0.0000000000
11
1.0311766471
21
22.0918538081
31
0.0000000000
11
1.0988261596
21
22.0415484872
31
0.0000000000
11
1.1561766471
21
21.9659405661
31
0.0000000000
11
1.1944970177
21
21.8765406653
31
0.0000000000
11
1.2079533424
21
21.7869591095
31
0.0000000000
0
SPLINE
5
36F
100
AcDbEntity
8
0
100
AcDbSpline
62
9
6
CONTINUOUS
70
0
71
3
72
9
73
5
74
3
42
0.0000001000
43
0.0000001000
44
0.0000000001
12
0.0000000000
22
-0.1183504396
32
0.0000000000
13
0.1065872076
23
-0.0532936038
33
0.0000000000
40
0.0000000000
40
0.0000000000
40
0.0000000000
40
0.0000000000
40
0.4320096608
40
1.0000000000
40
1.0000000000
40
1.0000000000
40
1.0000000000
10
13.5090987084
20
-24.6824249038
30
0.0000000000
10
13.5090987084
20
-24.6994677482
30
0.0000000000
10
13.5277038347
20
-24.7389178948
30
0.0000000000
10
13.5621418451
20
-24.7607231674
30
0.0000000000
10
13.5823220131
20
-24.7708132515
30
0.0000000000
11
13.5090987084
21
-24.6824249038
31
0.0000000000
11
13.5281288253
21
-24.7302603329
31
0.0000000000
11
13.5823220131
21
-24.7708132515
31
0.0000000000
0
SPLINE
5
370
100
AcDbEntity
8
0
100
AcDbSpline
62
0
6
CONTINUOUS
70
0
71
3
72
12
73
8
74
6
42
0.0000001000
43
0.0000001000
44
0.0000000001
12
0.2822554548
22
0.1422237785
32
0.0000000000
13
-0.0000000000
23
0.3146429650
33
0.0000000000
40
0.0000000000
40
0.0000000000
40
0.0000000000
40
0.0000000000
40
0.0960612823
40
0.2930188939
40
0.5061381941
40
0.7412964765
40
1.0000000000
40
1.0000000000
40
1.0000000000
40
1.0000000000
10
14.9360634622
20
-25.2324551101
30
0.0000000000
10
14.9451014026
20
-25.2279010439
30
0.0000000000
10
14.9715638823
20
-25.2118135730
30
0.0000000000
10
15.0094707569
20
-25.1734745079
30
0.0000000000
10
15.0420757414
20
-25.1133243913
30
0.0000000000
10
15.0616298142
20
-25.0412610383
30
0.0000000000
10
15.0655738084
20
-24.9893150835
30
0.0000000000
10
15.0655738084
20
-24.9621820023
30
0.0000000000
11
14.9360634622
21
-25.2324551101
31
0.0000000000
11
14.9619664887
21
-25.2166965596
31
0.0000000000
11
15.0059557151
21
-25.1730457483
31
0.0000000000
11
15.0386445195
21
-25.1144964979
31
0.0000000000
11
15.0587757864
21
-25.0432968824
31
0.0000000000
11
15.0655738084
21
-24.9621820023
31
0.0000000000
0
SPLINE
5
371
100
AcDbEntity
8
0
100
AcDbSpline
62
9
6
CONTINUOUS
70
0
71
3
72
10
73
6
74
4
42
0.0000001000
43
0.0000001000
44
0.0000000001
12
0.0577373133
22
0.0912972583
32
0.0000000000
13
0.0985199949
23
-0.0492599974
33
0.0000000000
40
0.0000000000
40
0.0000000000
40
0.0000000000
40
0.0000000000
40
0.0616876350
40
0.4090815214
40
1.0000000000
40
1.0000000000
40
1.0000000000
40
1.0000000000
10
13.3906554584
20
-24.9868643774
30
0.0000000000
10
13.3918426845
20
-24.9849870734
30
0.0000000000
10
13.4010383703
20
-24.9740011479
30
0.0000000000
10
13.4456617775
20
-24.9801394656
30
0.0000000000
10
13.4745279037
20
-24.9928045444
30
0.0000000000
10
13.4939336655
20
-25.0025074253
30
0.0000000000
11
13.3906554584
21
-24.9868643774
31
0.0000000000
11
13.3948220131
21
-24.9819807300
31
0.0000000000
11
13.4330123153
21
-24.9795911755
31
0.0000000000
11
13.4939336655
21
-25.0025074253
31
0.0000000000
0
SPLINE
5
372
100
AcDbEntity
8
0
100
AcDbSpline
62
9
6
CONTINUOUS
70
0
71
3
72
10
73
6
74
4
42
0.0000001000
43
0.0000001000
44
0.0000000001
12
0.0575678310
22
0.0911909990
32
0.0000000000
13
0.0985241476
23
-0.0492620738
33
0.0000000000
40
0.0000000000
40
0.0000000000
40
0.0000000000
40
0.0000000000
40
0.0609551840
40
0.4083744189
40
1.0000000000
40
1.0000000000
40
1.0000000000
40
1.0000000000
10
12.8603086745
20
-25.6270224461
30
0.0000000000
10
12.8614783605
20
-25.6251695914
30
0.0000000000
10
12.8706257850
20
-25.6142052320
30
0.0000000000
10
12.9153041353
20
-25.6202570006
30
0.0000000000
10
12.9441737776
20
-25.6329575672
30
0.0000000000
10
12.9636035796
20
-25.6426724682
30
0.0000000000
11
12.8603086745
21
-25.6270224461
31
0.0000000000
11
12.8644118041
21
-25.6221957863
31
0.0000000000
11
12.9026022988
21
-25.6197396901
31
0.0000000000
11
12.9636035796
21
-25.6426724682
31
0.0000000000
0
SPLINE
5
373
100
AcDbEntity
8
0
100
AcDbSpline
62
9
6
CONTINUOUS
70
0
71
3
72
9
73
5
74
3
42
0.0000001000
43
0.0000001000
44
0.0000000001
12
0.0000000000
22
-0.1183504396
32
0.0000000000
13
0.1065872076
23
-0.0532936038
33
0.0000000000
40
0.0000000000
40
0.0000000000
40
0.0000000000
40
0.0000000000
40
0.4320096608
40
1.0000000000
40
1.0000000000
40
1.0000000000
40
1.0000000000
10
12.8019919272
20
-25.7859782944
30
0.0000000000
10
12.8019919272
20
-25.8030211388
30
0.0000000000
10
12.8205970535
20
-25.8424712854
30
0.0000000000
10
12.8550350639
20
-25.8642765580
30
0.0000000000
10
12.8752152320
20
-25.8743666421
30
0.0000000000
11
12.8019919272
21
-25.7859782944
31
0.0000000000
11
12.8210220441
21
-25.8338137235
31
0.0000000000
11
12.8752152320
21
-25.8743666421
31
0.0000000000
0
SPLINE
5
374
100
AcDbEntity
8
0
100
AcDbSpline
62
9
6
CONTINUOUS
70
0
71
3
72
9
73
5
74
3
42
0.0000001000
43
0.0000001000
44
0.0000000001
12
0.0005509234
22
-0.1181569234
32
0.0000000000
13
0.1064313428
23
-0.0532156714
33
0.0000000000
40
0.0000000000
40
0.0000000000
40
0.0000000000
40
0.0000000000
40
0.4290668158
40
1.0000000000
40
1.0000000000
40
1.0000000000
40
1.0000000000
10
12.8019931316
20
-26.1374329542
30
0.0000000000
10
12.8020719259
20
-26.1543320258
30
0.0000000000
10
12.8205413319
20
-26.1937774191
30
0.0000000000
10
12.8549601701
20
-26.2155530832
30
0.0000000000
10
12.8752152320
20
-26.2256806141
30
0.0000000000
11
12.8019931316
21
-26.1374329542
31
0.0000000000
11
12.8208574082
21
-26.1849284767
31
0.0000000000
11
12.8752152320
21
-26.2256806141
31
0.0000000000
0
SPLINE
5
375
100
AcDbEntity
8
0
100
AcDbSpline
62
9
6
CONTINUOUS
70
0
71
3
72
10
73
6
74
4
42
0.0000001000
43
0.0000001000
44
0.0000000001
12
-0.1423874165
22
0.0691161156
32
0.0000000000
13
0.0000000000
23
0.1564950024
33
0.0000000000
40
0.0000000000
40
0.0000000000
40
0.0000000000
40
0.0000000000
40
0.0943102269
40
0.5040879606
40
1.0000000000
40
1.0000000000
40
1.0000000000
40
1.0000000000
10
12.9402847456
20
-26.3607657650
30
0.0000000000
10
12.9358085491
20
-26.3585929795
30
0.0000000000
10
12.9128724995
20
-26.3451711896
30
0.0000000000
10
12.8816072987
20
-26.2995126154
30
0.0000000000
10
12.8752152320
20
-26.2515498661
30
0.0000000000
10
12.8752152320
20
-26.2256806141
30
0.0000000000
11
12.9402847456
21
-26.3607657650
31
0.0000000000
11
12.9274774694
21
-26.3532349686
31
0.0000000000
11
12.8887884575
21
-26.3020922056
31
0.0000000000
11
12.8752152320
21
-26.2256806141
31
0.0000000000
0
SPLINE
5
376
100
AcDbEntity
8
0
100
AcDbSpline
62
9
6
CONTINUOUS
70
0
71
3
72
10
73
6
74
4
42
0.0000001000
43
0.0000001000
44
0.0000000001
12
-0.1420346928
22
0.0693255849
32
0.0000000000
13
0.0000000000
23
0.1562885568
33
0.0000000000
40
0.0000000000
40
0.0000000000
40
0.0000000000
40
0.0000000000
40
0.0931138777
40
0.5034328975
40
1.0000000000
40
1.0000000000
40
1.0000000000
40
1.0000000000
10
14.2835999036
20
-27.0324258318
30
0.0000000000
10
14.2791914366
20
-27.0302741071
30
0.0000000000
10
14.2563341392
20
-27.0168623997
30
0.0000000000
10
14.2251101829
20
-26.9712640575
30
0.0000000000
10
14.2187181162
20
-26.9233013082
30
0.0000000000
10
14.2187181162
20
-26.8974320563
30
0.0000000000
11
14.2835999036
21
-27.0324258318
31
0.0000000000
11
14.2709803536
21
-27.0249864108
31
0.0000000000
11
14.2322913417
21
-26.9738436477
31
0.0000000000
11
14.2187181162
21
-26.8974320563
31
0.0000000000
0
SPLINE
5
377
100
AcDbEntity
8
0
100
AcDbSpline
62
9
6
CONTINUOUS
70
0
71
3
72
8
73
4
74
2
42
0.0000001000
43
0.0000001000
44
0.0000000001
12
-0.0315625383
22
-0.0380993540
32
0.0000000000
13
-0.0289979005
23
-0.0401531648
33
0.0000000000
40
0.0000000000
40
0.0000000000
40
0.0000000000
40
0.0000000000
40
1.0000000000
40
1.0000000000
40
1.0000000000
40
1.0000000000
10
2.7989436000
20
21.8561402662
30
0.0000000000
10
2.7884227539
20
21.8434404816
30
0.0000000000
10
2.7783271734
20
21.8303758148
30
0.0000000000
10
2.7686612065
20
21.8169914265
30
0.0000000000
11
2.7989436000
21
21.8561402662
31
0.0000000000
11
2.7686612065
21
21.8169914265
31
0.0000000000
0
SPLINE
5
378
100
AcDbEntity
8
0
100
AcDbSpline
62
9
6
CONTINUOUS
70
0
71
3
72
9
73
5
74
3
42
0.0000001000
43
0.0000001000
44
0.0000000001
12
-0.0975244535
22
-0.1350413437
32
0.0000000000
13
-0.0675662299
23
-0.1522213257
33
0.0000000000
40
0.0000000000
40
0.0000000000
40
0.0000000000
40
0.0000000000
40
0.4769583011
40
1.0000000000
40
1.0000000000
40
1.0000000000
40
1.0000000000
10
2.7686612065
20
21.8169914265
30
0.0000000000
10
2.7531561740
20
21.7955217299
30
0.0000000000
10
2.7229656977
20
21.7487831193
30
0.0000000000
10
2.6977133957
20
21.6992475714
30
0.0000000000
10
2.6859334104
20
21.6727082045
30
0.0000000000
11
2.7686612065
21
21.8169914265
31
0.0000000000
11
2.7254803589
21
21.7503007202
31
0.0000000000
11
2.6859334104
21
21.6727082045
31
0.0000000000
0
SPLINE
5
379
100
AcDbEntity
8
0
100
AcDbSpline
62
9
6
CONTINUOUS
70
0
71
3
72
9
73
5
74
3
42
0.0000001000
43
0.0000001000
44
0.0000000001
12
-0.0348810751
22
-0.0785842794
32
0.0000000000
13
-0.0262176585
23
-0.0818898164
33
0.0000000000
40
0.0000000000
40
0.0000000000
40
0.0000000000
40
0.0000000000
40
0.5023428387
40
1.0000000000
40
1.0000000000
40
1.0000000000
40
1.0000000000
10
2.6859334104
20
21.6727082045
30
0.0000000000
10
2.6800926577
20
21.6595494545
30
0.0000000000
10
2.6691644807
20
21.6330462814
30
0.0000000000
10
2.6596647094
20
21.6059943458
30
0.0000000000
10
2.6553155742
20
21.5924099946
30
0.0000000000
11
2.6859334104
21
21.6727082045
31
0.0000000000
11
2.6694737306
21
21.6327836168
31
0.0000000000
11
2.6553155742
21
21.5924099946
31
0.0000000000
0
SPLINE
5
37A
100
AcDbEntity
8
0
100
AcDbSpline
62
9
6
CONTINUOUS
70
0
71
3
72
9
73
5
74
3
42
0.0000001000
43
0.0000001000
44
0.0000000001
12
-0.0619250986
22
-0.1934205897
32
0.0000000000
13
0.0000000000
23
-0.2028915163
33
0.0000000000
40
0.0000000000
40
0.0000000000
40
0.0000000000
40
0.0000000000
40
0.4137313025
40
1.0000000000
40
1.0000000000
40
1.0000000000
40
1.0000000000
10
2.6553155742
20
21.5924099946
30
0.0000000000
10
2.6467754570
20
21.5657352771
30
0.0000000000
10
2.6296612213
20
21.5001269608
30
0.0000000000
10
2.6221669047
20
21.4324015669
30
0.0000000000
10
2.6221669047
20
21.3927519186
30
0.0000000000
11
2.6553155742
21
21.5924099946
31
0.0000000000
11
2.6342607430
21
21.5110844610
31
0.0000000000
11
2.6221669047
21
21.3927519186
31
0.0000000000
0
SPLINE
5
37B
100
AcDbEntity
8
0
100
AcDbSpline
62
9
6
CONTINUOUS
70
0
71
3
72
9
73
5
74
3
42
0.0000001000
43
0.0000001000
44
0.0000000001
12
0.1065872076
22
0.0532936038
32
0.0000000000
13
0.0000000000
23
0.1183504396
33
0.0000000000
40
0.0000000000
40
0.0000000000
40
0.0000000000
40
0.0000000000
40
0.5679903392
40
1.0000000000
40
1.0000000000
40
1.0000000000
40
1.0000000000
10
2.6221669047
20
21.3927519186
30
0.0000000000
10
2.6423470728
20
21.4028420026
30
0.0000000000
10
2.6767850832
20
21.4246472753
30
0.0000000000
10
2.6953902095
20
21.4640974218
30
0.0000000000
10
2.6953902095
20
21.4811402662
30
0.0000000000
11
2.6221669047
21
21.3927519186
31
0.0000000000
11
2.6763600926
21
21.4333048372
31
0.0000000000
11
2.6953902095
21
21.4811402662
31
0.0000000000
0
SPLINE
5
37C
100
AcDbEntity
8
0
100
AcDbSpline
62
9
6
CONTINUOUS
70
0
71
3
72
9
73
5
74
3
42
0.0000001000
43
0.0000001000
44
0.0000000001
12
0.0390754420
22
-0.0633538090
32
0.0000000000
13
-0.0390171369
23
-0.0616959367
33
0.0000000000
40
0.0000000000
40
0.0000000000
40
0.0000000000
40
0.0000000000
40
0.7019059025
40
1.0000000000
40
1.0000000000
40
1.0000000000
40
1.0000000000
10
3.3292736859
20
22.4963053092
30
0.0000000000
10
3.3384161137
20
22.4814825050
30
0.0000000000
10
3.3539115710
20
22.4603347368
30
0.0000000000
10
3.3480404714
20
22.4318751810
30
0.0000000000
10
3.3441635454
20
22.4257447828
30
0.0000000000
11
3.3292736859
21
22.4963053092
31
0.0000000000
11
3.3496421175
21
22.4481927061
31
0.0000000000
11
3.3441635454
21
22.4257447828
31
0.0000000000
0
SPLINE
5
37D
100
AcDbEntity
8
0
100
AcDbSpline
62
9
6
CONTINUOUS
70
0
71
3
72
9
73
5
74
3
42
0.0000001000
43
0.0000001000
44
0.0000000001
12
0.0390754420
22
-0.0633538090
32
0.0000000000
13
-0.0390171369
23
-0.0616959367
33
0.0000000000
40
0.0000000000
40
0.0000000000
40
0.0000000000
40
0.0000000000
40
0.7019059025
40
1.0000000000
40
1.0000000000
40
1.0000000000
40
1.0000000000
10
2.7989436000
20
21.8561402662
30
0.0000000000
10
2.8080860278
20
21.8413174621
30
0.0000000000
10
2.8235814851
20
21.8201696939
30
0.0000000000
10
2.8177103856
20
21.7917101380
30
0.0000000000
10
2.8138334595
20
21.7855797398
30
0.0000000000
11
2.7989436000
21
21.8561402662
31
0.0000000000
11
2.8193120316
21
21.8080276631
31
0.0000000000
11
2.8138334595
21
21.7855797398
31
0.0000000000
0
SPLINE
5
37E
100
AcDbEntity
8
0
100
AcDbSpline
62
9
6
CONTINUOUS
70
0
71
3
72
9
73
5
74
3
42
0.0000001000
43
0.0000001000
44
0.0000000001
12
0.0001997394
22
-0.1183253753
32
0.0000000000
13
-0.1065843247
23
-0.0532921624
33
0.0000000000
40
0.0000000000
40
0.0000000000
40
0.0000000000
40
0.0000000000
40
0.4394113958
40
1.0000000000
40
1.0000000000
40
1.0000000000
40
1.0000000000
10
16.7668144660
20
-25.7484050943
30
0.0000000000
10
16.7668437219
20
-25.7657362671
30
0.0000000000
10
16.7478789145
20
-25.8050881231
30
0.0000000000
10
16.7135085030
20
-25.8268135582
30
0.0000000000
10
16.6935918504
20
-25.8367718845
30
0.0000000000
11
16.7668144660
21
-25.7484050943
31
0.0000000000
11
16.7472024663
21
-25.7969162238
31
0.0000000000
11
16.6935918504
21
-25.8367718845
31
0.0000000000
0
SPLINE
5
37F
100
AcDbEntity
8
0
100
AcDbSpline
62
9
6
CONTINUOUS
70
0
71
3
72
9
73
5
74
3
42
0.0000001000
43
0.0000001000
44
0.0000000001
12
0.0000000000
22
-0.1183504396
32
0.0000000000
13
-0.1065872076
23
-0.0532936038
33
0.0000000000
40
0.0000000000
40
0.0000000000
40
0.0000000000
40
0.0000000000
40
0.4320096608
40
1.0000000000
40
1.0000000000
40
1.0000000000
40
1.0000000000
10
16.7668151551
20
-25.3970695648
30
0.0000000000
10
16.7668151551
20
-25.4141124092
30
0.0000000000
10
16.7482100288
20
-25.4535625557
30
0.0000000000
10
16.7137720184
20
-25.4753678284
30
0.0000000000
10
16.6935918504
20
-25.4854579124
30
0.0000000000
11
16.7668151551
21
-25.3970695648
31
0.0000000000
11
16.7477850382
21
-25.4449049938
31
0.0000000000
11
16.6935918504
21
-25.4854579124
31
0.0000000000
0
SPLINE
5
380
100
AcDbEntity
8
0
100
AcDbSpline
62
9
6
CONTINUOUS
70
0
71
3
72
9
73
5
74
3
42
0.0000001000
43
0.0000001000
44
0.0000000001
12
-0.0561195967
22
-0.0268600735
32
0.0000000000
13
-0.0628139858
23
0.0079004212
33
0.0000000000
40
0.0000000000
40
0.0000000000
40
0.0000000000
40
0.0000000000
40
0.8813377703
40
1.0000000000
40
1.0000000000
40
1.0000000000
40
1.0000000000
10
2.7611201180
20
21.1352016536
30
0.0000000000
10
2.7446333446
20
21.1273107212
30
0.0000000000
10
2.7238000756
20
21.1211471623
30
0.0000000000
10
2.7027762687
20
21.1228575633
30
0.0000000000
10
2.7002917195
20
21.1231700572
30
0.0000000000
11
2.7611201180
21
21.1352016536
31
0.0000000000
11
2.7077630494
21
21.1225625144
31
0.0000000000
11
2.7002917195
21
21.1231700572
31
0.0000000000
0
SPLINE
5
381
100
AcDbEntity
8
0
100
AcDbSpline
62
9
6
CONTINUOUS
70
0
71
3
72
8
73
4
74
2
42
0.0000001000
43
0.0000001000
44
0.0000000001
12
-0.0271048707
22
0.0034091117
32
0.0000000000
13
-0.0244409301
23
0.0119069404
33
0.0000000000
40
0.0000000000
40
0.0000000000
40
0.0000000000
40
0.0000000000
40
1.0000000000
40
1.0000000000
40
1.0000000000
40
1.0000000000
10
2.7002917195
20
21.1231700572
30
0.0000000000
10
2.6912567626
20
21.1243064278
30
0.0000000000
10
2.6823564585
20
21.1268912546
30
0.0000000000
10
2.6742094818
20
21.1308602347
30
0.0000000000
11
2.7002917195
21
21.1231700572
31
0.0000000000
11
2.6742094818
21
21.1308602347
31
0.0000000000
0
SPLINE
5
382
100
AcDbEntity
8
0
100
AcDbSpline
62
9
6
CONTINUOUS
70
0
71
3
72
8
73
4
74
2
42
0.0000001000
43
0.0000001000
44
0.0000000001
12
-0.0220391038
22
0.0110117566
32
0.0000000000
13
-0.0237468160
23
0.0049181266
33
0.0000000000
40
0.0000000000
40
0.0000000000
40
0.0000000000
40
0.0000000000
40
1.0000000000
40
1.0000000000
40
1.0000000000
40
1.0000000000
10
16.6282362248
20
-25.1734319238
30
0.0000000000
10
16.6208898569
20
-25.1697613382
30
0.0000000000
10
16.6131191080
20
-25.1670147665
30
0.0000000000
10
16.6052035027
20
-25.1653753909
30
0.0000000000
11
16.6282362248
21
-25.1734319238
31
0.0000000000
11
16.6052035027
21
-25.1653753909
31
0.0000000000
0
SPLINE
5
383
100
AcDbEntity
8
0
100
AcDbSpline
62
9
6
CONTINUOUS
70
0
71
3
72
12
73
8
74
6
42
0.0000001000
43
0.0000001000
44
0.0000000001
12
0.3840982882
22
0.1836468381
32
0.0000000000
13
-0.3807916457
23
0.1904084522
33
0.0000000000
40
0.0000000000
40
0.0000000000
40
0.0000000000
40
0.0000000000
40
0.2354379521
40
0.4187084188
40
0.5791455464
40
0.7637466818
40
1.0000000000
40
1.0000000000
40
1.0000000000
40
1.0000000000
10
2.7611201180
20
20.8238060404
30
0.0000000000
10
2.7912638895
20
20.8382185189
30
0.0000000000
10
2.8425506815
20
20.8696058608
30
0.0000000000
10
2.8944006317
20
20.9384250594
30
0.0000000000
10
2.8938887191
20
21.0189242872
30
0.0000000000
10
2.8420818931
20
21.0878481666
30
0.0000000000
10
2.7911078813
20
21.1202067774
30
0.0000000000
10
2.7611201180
20
21.1352016536
30
0.0000000000
11
2.7611201180
21
20.8238060404
31
0.0000000000
11
2.8445771788
21
20.8793237624
31
0.0000000000
11
2.8876012124
21
20.9444162065
31
0.0000000000
11
2.8873357383
21
21.0127207790
31
0.0000000000
11
2.8440944806
21
21.0783486372
31
0.0000000000
11
2.7611201180
21
21.1352016536
31
0.0000000000
0
SPLINE
5
384
100
AcDbEntity
8
0
100
AcDbSpline
62
9
6
CONTINUOUS
70
0
71
3
72
11
73
7
74
5
42
0.0000001000
43
0.0000001000
44
0.0000000001
12
-0.2627907652
22
0.1313953820
32
0.0000000000
13
0.0041573225
23
0.2937795931
33
0.0000000000
40
0.0000000000
40
0.0000000000
40
0.0000000000
40
0.0000000000
40
0.2292205508
40
0.4872313220
40
0.7522438706
40
1.0000000000
40
1.0000000000
40
1.0000000000
40
1.0000000000
10
2.7611201180
20
20.8238060404
30
0.0000000000
10
2.7410411034
20
20.8338455477
30
0.0000000000
10
2.7027352628
20
20.8639931126
30
0.0000000000
10
2.6588690831
20
20.9240045846
30
0.0000000000
10
2.6294595387
20
20.9942408674
30
0.0000000000
10
2.6218235707
20
21.0446675925
30
0.0000000000
10
2.6221669047
20
21.0689294908
30
0.0000000000
11
2.7611201180
21
20.8238060404
31
0.0000000000
11
2.7071884529
21
20.8641421572
31
0.0000000000
11
2.6618430842
21
20.9248902458
31
0.0000000000
11
2.6319874695
21
20.9968020010
31
0.0000000000
11
2.6221669047
21
21.0689294908
31
0.0000000000
0
SPLINE
5
385
100
AcDbEntity
8
0
100
AcDbSpline
62
9
6
CONTINUOUS
70
0
71
3
72
10
73
6
74
4
42
0.0000001000
43
0.0000001000
44
0.0000000001
12
0.1001153703
22
0.0462032148
32
0.0000000000
13
0.0103735708
23
0.1116498312
33
0.0000000000
40
0.0000000000
40
0.0000000000
40
0.0000000000
40
0.0000000000
40
0.4997785051
40
0.8865712819
40
1.0000000000
40
1.0000000000
40
1.0000000000
40
1.0000000000
10
2.6221669047
20
21.0689294908
30
0.0000000000
10
2.6388454081
20
21.0766266154
30
0.0000000000
10
2.6672153081
20
21.0933821277
30
0.0000000000
10
2.6908892524
20
21.1238809938
30
0.0000000000
10
2.6944645258
20
21.1422611778
30
0.0000000000
10
2.6948567461
20
21.1464826102
30
0.0000000000
11
2.6221669047
21
21.0689294908
31
0.0000000000
11
2.6684851789
21
21.0987855000
31
0.0000000000
11
2.6924180137
21
21.1340861395
31
0.0000000000
11
2.6948567461
21
21.1464826102
31
0.0000000000
0
SPLINE
5
386
100
AcDbEntity
8
0
100
AcDbSpline
62
9
6
CONTINUOUS
70
0
71
3
72
8
73
4
74
2
42
0.0000001000
43
0.0000001000
44
0.0000000001
12
0.0005583841
22
0.0060098386
32
0.0000000000
13
-0.0000049751
23
0.0060479429
33
0.0000000000
40
0.0000000000
40
0.0000000000
40
0.0000000000
40
0.0000000000
40
1.0000000000
40
1.0000000000
40
1.0000000000
40
1.0000000000
10
2.6948567461
20
21.1464826102
30
0.0000000000
10
2.6950428741
20
21.1484858898
30
0.0000000000
10
2.6951347575
20
21.1505012393
30
0.0000000000
10
2.6951330991
20
21.1525172202
30
0.0000000000
11
2.6948567461
21
21.1464826102
31
0.0000000000
11
2.6951330991
21
21.1525172202
31
0.0000000000
0
SPLINE
5
387
100
AcDbEntity
8
0
100
AcDbSpline
62
9
6
CONTINUOUS
70
0
71
3
72
11
73
7
74
5
42
0.0000001000
43
0.0000001000
44
0.0000000001
12
-0.2627907646
22
0.1313953824
32
0.0000000000
13
0.0041573218
23
0.2937795929
33
0.0000000000
40
0.0000000000
40
0.0000000000
40
0.0000000000
40
0.0000000000
40
0.2292208809
40
0.4872317594
40
0.7522441560
40
1.0000000000
40
1.0000000000
40
1.0000000000
40
1.0000000000
10
2.0540133368
20
20.4853691795
30
0.0000000000
10
2.0339342933
20
20.4954087013
30
0.0000000000
10
1.9956284246
20
20.5255563051
30
0.0000000000
10
1.9517622511
20
20.5855678158
30
0.0000000000
10
1.9223527423
20
20.6558040778
30
0.0000000000
10
1.9147167900
20
20.7062307596
30
0.0000000000
10
1.9150601236
20
20.7304926299
30
0.0000000000
11
2.0540133368
21
20.4853691795
31
0.0000000000
11
2.0000816030
21
20.5257053663
31
0.0000000000
11
1.9547362392
21
20.5864534978
31
0.0000000000
11
1.9248806659
21
20.6583652217
31
0.0000000000
11
1.9150601236
21
20.7304926299
31
0.0000000000
0
SPLINE
5
388
100
AcDbEntity
8
0
100
AcDbSpline
62
9
6
CONTINUOUS
70
0
71
3
72
12
73
8
74
6
42
0.0000001000
43
0.0000001000
44
0.0000000001
12
0.5847731312
22
-0.2922949993
32
0.0000000000
13
0.5895776321
23
0.2824786670
33
0.0000000000
40
0.0000000000
40
0.0000000000
40
0.0000000000
40
0.0000000000
40
0.1862834693
40
0.3929044251
40
0.6064354564
40
0.8135431007
40
1.0000000000
40
1.0000000000
40
1.0000000000
40
1.0000000000
10
1.4176172337
20
20.4921716178
30
0.0000000000
10
1.4539284230
20
20.4740217090
30
0.0000000000
10
1.5354906372
20
20.4456105161
30
0.0000000000
10
1.6663609888
20
20.4241936332
30
0.0000000000
10
1.8035968841
20
20.4225919751
30
0.0000000000
10
1.9350677530
20
20.4410319891
30
0.0000000000
10
2.0173697311
20
20.4678124807
30
0.0000000000
10
2.0540133368
20
20.4853691795
30
0.0000000000
11
1.4176172337
21
20.4921716178
31
0.0000000000
11
1.5319943457
21
20.4503485244
31
0.0000000000
11
1.6651729670
21
20.4277667215
31
0.0000000000
11
1.8047605860
21
20.4261447870
31
0.0000000000
11
1.9387292003
21
20.4457649942
31
0.0000000000
11
2.0540133368
21
20.4853691795
31
0.0000000000
0
SPLINE
5
389
100
AcDbEntity
8
0
100
AcDbSpline
62
9
6
CONTINUOUS
70
0
71
3
72
11
73
7
74
5
42
0.0000001000
43
0.0000001000
44
0.0000000001
12
0.2673132820
22
0.1279420278
32
0.0000000000
13
0.0000000090
23
0.2963537636
33
0.0000000000
40
0.0000000000
40
0.0000000000
40
0.0000000000
40
0.0000000000
40
0.2286216525
40
0.4870756638
40
0.7526229308
40
1.0000000000
40
1.0000000000
40
1.0000000000
40
1.0000000000
10
1.4176172337
20
20.4921716178
30
0.0000000000
10
1.4379884352
20
20.5019217238
30
0.0000000000
10
1.4770544530
20
20.5317780566
30
0.0000000000
10
1.5221917838
20
20.5916818237
30
0.0000000000
10
1.5529817804
20
20.6621019677
30
0.0000000000
10
1.5615067322
20
20.7128580264
30
0.0000000000
10
1.5615067330
20
20.7372950682
30
0.0000000000
11
1.4176172337
21
20.4921716178
31
0.0000000000
11
1.4724906694
21
20.5319127776
31
0.0000000000
11
1.5192094541
21
20.5926084798
31
0.0000000000
11
1.5505044883
21
20.6648142312
31
0.0000000000
11
1.5615067330
21
20.7372950682
31
0.0000000000
0
SPLINE
5
38A
100
AcDbEntity
8
0
100
AcDbSpline
62
9
6
CONTINUOUS
70
0
71
3
72
12
73
8
74
6
42
0.0000001000
43
0.0000001000
44
0.0000000001
12
0.3246083006
22
-0.1622865476
32
0.0000000000
13
0.3294706869
23
0.1521727268
33
0.0000000000
40
0.0000000000
40
0.0000000000
40
0.0000000000
40
0.0000000000
40
0.1867565899
40
0.3938800539
40
0.6076446816
40
0.8144839336
40
1.0000000000
40
1.0000000000
40
1.0000000000
40
1.0000000000
10
1.5615067330
20
20.7372950682
30
0.0000000000
10
1.5817143127
20
20.7271923742
30
0.0000000000
10
1.6270538962
20
20.7112820466
30
0.0000000000
10
1.6997721525
20
20.6989751893
30
0.0000000000
10
1.7759909520
20
20.6974434806
30
0.0000000000
10
1.8489545557
20
20.7068692874
30
0.0000000000
10
1.8946860883
20
20.7210824680
30
0.0000000000
10
1.9150601236
20
20.7304926299
30
0.0000000000
11
1.5615067330
21
20.7372950682
31
0.0000000000
11
1.6251134453
21
20.7138881779
31
0.0000000000
11
1.6991555482
21
20.7009253620
31
0.0000000000
11
1.7767186198
21
20.6993811790
31
0.0000000000
11
1.8511046789
21
20.7094552051
31
0.0000000000
11
1.9150601236
21
20.7304926299
31
0.0000000000
0
SPLINE
5
38B
100
AcDbEntity
8
0
100
AcDbSpline
62
9
6
CONTINUOUS
70
0
71
3
72
11
73
7
74
5
42
0.0000001000
43
0.0000001000
44
0.0000000001
12
0.2673132890
22
0.1279420203
32
0.0000000000
13
-0.0000000003
23
0.2963537667
33
0.0000000000
40
0.0000000000
40
0.0000000000
40
0.0000000000
40
0.0000000000
40
0.2286190319
40
0.4870720935
40
0.7526205358
40
1.0000000000
40
1.0000000000
40
1.0000000000
40
1.0000000000
10
0.0741143495
20
21.1639230600
30
0.0000000000
10
0.0944853179
20
21.1736730536
30
0.0000000000
10
0.1335510996
20
21.2035290696
30
0.0000000000
10
0.1786884702
20
21.2634325142
30
0.0000000000
10
0.2094787597
20
21.3338528181
30
0.0000000000
10
0.2180038487
20
21.3846092317
30
0.0000000000
10
0.2180038487
20
21.4090465104
30
0.0000000000
11
0.0741143495
21
21.1639230600
31
0.0000000000
11
0.1289872279
21
21.2036636663
31
0.0000000000
11
0.1757060312
21
21.2643590000
31
0.0000000000
11
0.2070014046
21
21.3365649850
31
0.0000000000
11
0.2180038487
21
21.4090465104
31
0.0000000000
0
SPLINE
5
38C
100
AcDbEntity
8
0
100
AcDbSpline
62
9
6
CONTINUOUS
70
0
71
3
72
8
73
4
74
2
42
0.0000001000
43
0.0000001000
44
0.0000000001
12
0.0155622658
22
-0.0007860591
32
0.0000000000
13
0.0156328664
23
0.0019593135
33
0.0000000000
40
0.0000000000
40
0.0000000000
40
0.0000000000
40
0.0000000000
40
1.0000000000
40
1.0000000000
40
1.0000000000
40
1.0000000000
10
0.1226598667
20
21.4616511701
30
0.0000000000
10
0.1278472886
20
21.4613891504
30
0.0000000000
10
0.1331084550
20
21.4615702778
30
0.0000000000
10
0.1383194105
20
21.4622233822
30
0.0000000000
11
0.1226598667
21
21.4616511701
31
0.0000000000
11
0.1383194105
21
21.4622233822
31
0.0000000000
0
SPLINE
5
38D
100
AcDbEntity
8
0
100
AcDbSpline
62
9
6
CONTINUOUS
70
0
71
3
72
9
73
5
74
3
42
0.0000001000
43
0.0000001000
44
0.0000000001
12
0.0255489954
22
0.0032021313
32
0.0000000000
13
0.0231291067
23
0.0111287655
33
0.0000000000
40
0.0000000000
40
0.0000000000
40
0.0000000000
40
0.0000000000
40
0.9059852031
40
1.0000000000
40
1.0000000000
40
1.0000000000
40
1.0000000000
10
0.1383194105
20
21.4622233822
30
0.0000000000
10
0.1460350811
20
21.4631904101
30
0.0000000000
10
0.1544299091
20
21.4653999092
30
0.0000000000
10
0.1622004034
20
21.4689840672
30
0.0000000000
10
0.1629252295
20
21.4693328234
30
0.0000000000
11
0.1383194105
21
21.4622233822
31
0.0000000000
11
0.1607338022
21
21.4683222897
31
0.0000000000
11
0.1629252295
21
21.4693328234
31
0.0000000000
0
SPLINE
5
38E
100
AcDbEntity
8
0
100
AcDbSpline
62
9
6
CONTINUOUS
70
0
71
3
72
9
73
5
74
3
42
0.0000001000
43
0.0000001000
44
0.0000000001
12
0.0785196590
22
-0.1181631123
32
0.0000000000
13
0.1268868382
23
-0.0634632828
33
0.0000000000
40
0.0000000000
40
0.0000000000
40
0.0000000000
40
0.0000000000
40
0.4517116874
40
1.0000000000
40
1.0000000000
40
1.0000000000
40
1.0000000000
10
-0.0353702568
20
21.2523318263
30
0.0000000000
10
-0.0235475076
20
21.2345399400
30
0.0000000000
10
0.0101985376
20
21.2002010911
30
0.0000000000
10
0.0509241593
20
21.1755217854
30
0.0000000000
10
0.0741143495
20
21.1639230600
30
0.0000000000
11
-0.0353702568
21
21.2523318263
31
0.0000000000
11
0.0083635953
21
21.2054883877
31
0.0000000000
11
0.0741143495
21
21.1639230600
31
0.0000000000
0
SPLINE
5
38F
100
AcDbEntity
8
0
100
AcDbSpline
62
9
6
CONTINUOUS
70
0
71
3
72
9
73
5
74
3
42
0.0000001000
43
0.0000001000
44
0.0000000001
12
0.0813792530
22
0.0438146219
32
0.0000000000
13
0.0383036431
23
0.0845808474
33
0.0000000000
40
0.0000000000
40
0.0000000000
40
0.0000000000
40
0.0000000000
40
0.6206529377
40
1.0000000000
40
1.0000000000
40
1.0000000000
40
1.0000000000
10
15.9864850692
20
-24.7651888752
30
0.0000000000
10
16.0033211600
20
-24.7561243173
30
0.0000000000
10
16.0290761884
20
-24.7384801232
30
0.0000000000
10
16.0480953175
20
-24.7129949428
30
0.0000000000
10
16.0529387756
20
-24.7022997775
30
0.0000000000
11
15.9864850692
21
-24.7651888752
31
0.0000000000
11
16.0326962918
21
-24.7312020486
31
0.0000000000
11
16.0529387756
21
-24.7022997775
31
0.0000000000
0
SPLINE
5
390
100
AcDbEntity
8
0
100
AcDbSpline
62
9
6
CONTINUOUS
70
0
71
3
72
8
73
4
74
2
42
0.0000001000
43
0.0000001000
44
0.0000000001
12
-0.0004349333
22
0.0302998856
32
0.0000000000
13
0.0045324860
23
0.0300820827
33
0.0000000000
40
0.0000000000
40
0.0000000000
40
0.0000000000
40
0.0000000000
40
1.0000000000
40
1.0000000000
40
1.0000000000
40
1.0000000000
10
15.9864850692
20
-24.7651888752
30
0.0000000000
10
15.9863400914
20
-24.7550889134
30
0.0000000000
10
15.9869016953
20
-24.7449287857
30
0.0000000000
10
15.9884125240
20
-24.7349014248
30
0.0000000000
11
15.9864850692
21
-24.7651888752
31
0.0000000000
11
15.9884125240
21
-24.7349014248
31
0.0000000000
0
SPLINE
5
391
100
AcDbEntity
8
0
100
AcDbSpline
62
9
6
CONTINUOUS
70
0
71
3
72
9
73
5
74
3
42
0.0000001000
43
0.0000001000
44
0.0000000001
12
-0.0009112996
22
0.0634862234
32
0.0000000000
13
0.0244456858
23
0.0591319373
33
0.0000000000
40
0.0000000000
40
0.0000000000
40
0.0000000000
40
0.0000000000
40
0.7681368210
40
1.0000000000
40
1.0000000000
40
1.0000000000
40
1.0000000000
10
15.2793782880
20
-25.1338587955
30
0.0000000000
10
15.2791449537
20
-25.1176034269
30
0.0000000000
10
15.2812289356
20
-25.0962420214
30
0.0000000000
10
15.2881142988
20
-25.0759779295
30
0.0000000000
10
15.2900036503
20
-25.0714077566
30
0.0000000000
11
15.2793782880
21
-25.1338587955
31
0.0000000000
11
15.2851794992
21
-25.0854339152
31
0.0000000000
11
15.2900036503
21
-25.0714077566
31
0.0000000000
0
SPLINE
5
392
100
AcDbEntity
8
0
100
AcDbSpline
62
9
6
CONTINUOUS
70
0
71
3
72
10
73
6
74
4
42
0.0000001000
43
0.0000001000
44
0.0000000001
12
0.1995985634
22
-0.0123848963
32
0.0000000000
13
0.1831368882
23
0.0804826860
33
0.0000000000
40
0.0000000000
40
0.0000000000
40
0.0000000000
40
0.0000000000
40
0.3883877775
40
0.7662151033
40
1.0000000000
40
1.0000000000
40
1.0000000000
40
1.0000000000
10
15.0638639395
20
-25.1744577718
30
0.0000000000
10
15.0897044870
20
-25.1760611526
30
0.0000000000
10
15.1409492583
20
-25.1750579343
30
0.0000000000
10
15.2067352513
20
-25.1631474371
30
0.0000000000
10
15.2454589482
20
-25.1496981304
30
0.0000000000
10
15.2597304944
20
-25.1434262516
30
0.0000000000
11
15.0638639395
21
-25.1744577718
31
0.0000000000
11
15.1414400895
21
-25.1729570488
31
0.0000000000
11
15.2156342802
21
-25.1590792291
31
0.0000000000
11
15.2597304944
21
-25.1434262516
31
0.0000000000
0
SPLINE
5
393
100
AcDbEntity
8
0
100
AcDbSpline
62
9
6
CONTINUOUS
70
0
71
3
72
8
73
4
74
2
42
0.0000001000
43
0.0000001000
44
0.0000000001
12
0.0200276045
22
0.0088014786
32
0.0000000000
13
0.0192363089
23
0.0103569999
33
0.0000000000
40
0.0000000000
40
0.0000000000
40
0.0000000000
40
0.0000000000
40
1.0000000000
40
1.0000000000
40
1.0000000000
40
1.0000000000
10
15.2597304944
20
-25.1434262516
30
0.0000000000
10
15.2664063626
20
-25.1404924253
30
0.0000000000
10
15.2729661850
20
-25.1373111288
30
0.0000000000
10
15.2793782880
20
-25.1338587955
30
0.0000000000
11
15.2597304944
21
-25.1434262516
31
0.0000000000
11
15.2793782880
21
-25.1338587955
31
0.0000000000
0
SPLINE
5
394
100
AcDbEntity
8
0
100
AcDbSpline
62
9
6
CONTINUOUS
70
0
71
3
72
11
73
7
74
5
42
0.0000001000
43
0.0000001000
44
0.0000000001
12
-0.1697017593
22
0.1621059263
32
0.0000000000
13
0.0033207311
23
0.2346614396
33
0.0000000000
40
0.0000000000
40
0.0000000000
40
0.0000000000
40
0.0000000000
40
0.2470902447
40
0.5057212682
40
0.7613057128
40
1.0000000000
40
1.0000000000
40
1.0000000000
40
1.0000000000
10
15.3700840286
20
13.8379390891
30
0.0000000000
10
15.3561068122
20
13.8512906867
30
0.0000000000
10
15.3306383229
20
13.8820070179
30
0.0000000000
10
15.3019138645
20
13.9345507256
30
0.0000000000
10
15.2835594308
20
13.9908647873
30
0.0000000000
10
15.2791140748
20
14.0296627660
30
0.0000000000
10
15.2793782880
20
14.0483335477
30
0.0000000000
11
15.3700840286
21
13.8379390891
31
0.0000000000
11
15.3327443163
21
13.8823056929
31
0.0000000000
11
15.3035358333
21
13.9355125217
31
0.0000000000
11
15.2851808673
21
13.9926169330
31
0.0000000000
11
15.2793782880
21
14.0483335477
31
0.0000000000
0
SPLINE
5
395
100
AcDbEntity
8
0
100
AcDbSpline
62
9
6
CONTINUOUS
70
0
71
3
72
9
73
5
74
3
42
0.0000001000
43
0.0000001000
44
0.0000000001
12
0.1674561314
22
-0.0837018447
32
0.0000000000
13
0.1845301806
23
-0.0315621164
33
0.0000000000
40
0.0000000000
40
0.0000000000
40
0.0000000000
40
0.0000000000
40
0.4797674019
40
1.0000000000
40
1.0000000000
40
1.0000000000
40
1.0000000000
10
14.7819353982
20
13.8100125356
30
0.0000000000
10
14.8087153959
20
13.7966267301
30
0.0000000000
10
14.8672540551
20
13.7740891002
30
0.0000000000
10
14.9282240877
20
13.7600079282
30
0.0000000000
10
14.9602236261
20
13.7545347143
30
0.0000000000
11
14.7819353982
21
13.8100125356
31
0.0000000000
11
14.8654449224
21
13.7769475699
31
0.0000000000
11
14.9602236261
21
13.7545347143
31
0.0000000000
0
SPLINE
5
396
100
AcDbEntity
8
0
100
AcDbSpline
62
9
6
CONTINUOUS
70
0
71
3
72
11
73
7
74
5
42
0.0000001000
43
0.0000001000
44
0.0000000001
12
0.2673132820
22
0.1279420278
32
0.0000000000
13
0.0000000090
23
0.2963537636
33
0.0000000000
40
0.0000000000
40
0.0000000000
40
0.0000000000
40
0.0000000000
40
0.2286216525
40
0.4870756638
40
0.7526229308
40
1.0000000000
40
1.0000000000
40
1.0000000000
40
1.0000000000
10
14.7819353982
20
13.8100125356
30
0.0000000000
10
14.8023065996
20
13.8197626416
30
0.0000000000
10
14.8413726174
20
13.8496189744
30
0.0000000000
10
14.8865099482
20
13.9095227415
30
0.0000000000
10
14.9172999449
20
13.9799428855
30
0.0000000000
10
14.9258248967
20
14.0306989442
30
0.0000000000
10
14.9258248974
20
14.0551359860
30
0.0000000000
11
14.7819353982
21
13.8100125356
31
0.0000000000
11
14.8368088338
21
13.8497536954
31
0.0000000000
11
14.8835276185
21
13.9104493976
31
0.0000000000
11
14.9148226528
21
13.9826551490
31
0.0000000000
11
14.9258248974
21
14.0551359860
31
0.0000000000
0
SPLINE
5
397
100
AcDbEntity
8
0
100
AcDbSpline
62
9
6
CONTINUOUS
70
0
71
3
72
12
73
8
74
6
42
0.0000001000
43
0.0000001000
44
0.0000000001
12
0.3246083006
22
-0.1622865476
32
0.0000000000
13
0.3294706869
23
0.1521727268
33
0.0000000000
40
0.0000000000
40
0.0000000000
40
0.0000000000
40
0.0000000000
40
0.1867565899
40
0.3938800539
40
0.6076446816
40
0.8144839336
40
1.0000000000
40
1.0000000000
40
1.0000000000
40
1.0000000000
10
14.9258248974
20
14.0551359860
30
0.0000000000
10
14.9460324772
20
14.0450332920
30
0.0000000000
10
14.9913720606
20
14.0291229644
30
0.0000000000
10
15.0640903169
20
14.0168161070
30
0.0000000000
10
15.1403091164
20
14.0152843984
30
0.0000000000
10
15.2132727201
20
14.0247102051
30
0.0000000000
10
15.2590042527
20
14.0389233858
30
0.0000000000
10
15.2793782880
20
14.0483335477
30
0.0000000000
11
14.9258248974
21
14.0551359860
31
0.0000000000
11
14.9894316097
21
14.0317290957
31
0.0000000000
11
15.0634737126
21
14.0187662798
31
0.0000000000
11
15.1410367842
21
14.0172220967
31
0.0000000000
11
15.2154228433
21
14.0272961229
31
0.0000000000
11
15.2793782880
21
14.0483335477
31
0.0000000000
0
SPLINE
5
398
100
AcDbEntity
8
0
100
AcDbSpline
62
9
6
CONTINUOUS
70
0
71
3
72
11
73
7
74
5
42
0.0000001000
43
0.0000001000
44
0.0000000001
12
0.2673132890
22
0.1279420203
32
0.0000000000
13
-0.0000000003
23
0.2963537667
33
0.0000000000
40
0.0000000000
40
0.0000000000
40
0.0000000000
40
0.0000000000
40
0.2286190319
40
0.4870720935
40
0.7526205358
40
1.0000000000
40
1.0000000000
40
1.0000000000
40
1.0000000000
10
13.4384325139
20
14.4817639778
30
0.0000000000
10
13.4588034824
20
14.4915139714
30
0.0000000000
10
13.4978692640
20
14.5213699874
30
0.0000000000
10
13.5430066346
20
14.5812734320
30
0.0000000000
10
13.5737969242
20
14.6516937359
30
0.0000000000
10
13.5823220132
20
14.7024501495
30
0.0000000000
10
13.5823220131
20
14.7268874282
30
0.0000000000
11
13.4384325139
21
14.4817639778
31
0.0000000000
11
13.4933053923
21
14.5215045841
31
0.0000000000
11
13.5400241957
21
14.5821999178
31
0.0000000000
11
13.5713195691
21
14.6544059027
31
0.0000000000
11
13.5823220131
21
14.7268874282
31
0.0000000000
0
SPLINE
5
399
100
AcDbEntity
8
0
100
AcDbSpline
62
9
6
CONTINUOUS
70
0
71
3
72
12
73
8
74
6
42
0.0000001000
43
0.0000001000
44
0.0000000001
12
-0.3840433493
22
-0.1837624800
32
0.0000000000
13
0.3807731528
23
-0.1904461850
33
0.0000000000
40
0.0000000000
40
0.0000000000
40
0.0000000000
40
0.0000000000
40
0.2354377598
40
0.4187082346
40
0.5791452876
40
0.7637460582
40
1.0000000000
40
1.0000000000
40
1.0000000000
40
1.0000000000
10
13.4384325139
20
14.7931595909
30
0.0000000000
10
13.4082930786
20
14.7787380487
30
0.0000000000
10
13.3570004522
20
14.7473630085
30
0.0000000000
10
13.3051521062
20
14.6785398674
30
0.0000000000
10
13.3056638467
20
14.5980418577
30
0.0000000000
10
13.3574696234
20
14.5291158871
30
0.0000000000
10
13.4084461278
20
14.4967618651
30
0.0000000000
10
13.4384325139
20
14.4817639778
30
0.0000000000
11
13.4384325139
21
14.7931595909
31
0.0000000000
11
13.3549754578
21
14.7376418664
31
0.0000000000
11
13.3119512844
21
14.6725494365
31
0.0000000000
11
13.3122167254
21
14.6042448415
31
0.0000000000
11
13.3554576526
21
14.5386168771
31
0.0000000000
11
13.4384325139
21
14.4817639778
31
0.0000000000
0
SPLINE
5
39A
100
AcDbEntity
8
0
100
AcDbSpline
62
9
6
CONTINUOUS
70
0
71
3
72
9
73
5
74
3
42
0.0000001000
43
0.0000001000
44
0.0000000001
12
0.0589762782
22
-0.0294881390
32
0.0000000000
13
0.0665112358
23
0.0091441109
33
0.0000000000
40
0.0000000000
40
0.0000000000
40
0.0000000000
40
0.0000000000
40
0.8497331049
40
1.0000000000
40
1.0000000000
40
1.0000000000
40
1.0000000000
10
13.4384325139
20
14.7931595909
30
0.0000000000
10
13.4551372126
20
14.7848072417
30
0.0000000000
10
13.4771227756
20
14.7779437417
30
0.0000000000
10
13.4994393373
20
14.7797129446
30
0.0000000000
10
13.5027708163
20
14.7801709637
30
0.0000000000
11
13.4384325139
21
14.7931595909
31
0.0000000000
11
13.4927399305
21
14.7793761670
31
0.0000000000
11
13.5027708163
21
14.7801709637
31
0.0000000000
0
SPLINE
5
39B
100
AcDbEntity
8
0
100
AcDbSpline
62
9
6
CONTINUOUS
70
0
71
3
72
8
73
4
74
2
42
0.0000001000
43
0.0000001000
44
0.0000000001
12
0.0253126547
22
0.0034800394
32
0.0000000000
13
0.0230328328
23
0.0107413059
33
0.0000000000
40
0.0000000000
40
0.0000000000
40
0.0000000000
40
0.0000000000
40
1.0000000000
40
1.0000000000
40
1.0000000000
40
1.0000000000
10
13.5027708163
20
14.7801709637
30
0.0000000000
10
13.5112083679
20
14.7813309768
30
0.0000000000
10
13.5195050489
20
14.7837236299
30
0.0000000000
10
13.5271826598
20
14.7873040652
30
0.0000000000
11
13.5027708163
21
14.7801709637
31
0.0000000000
11
13.5271826598
21
14.7873040652
31
0.0000000000
0
SPLINE
5
39C
100
AcDbEntity
8
0
100
AcDbSpline
62
9
6
CONTINUOUS
70
0
71
3
72
9
73
5
74
3
42
0.0000001000
43
0.0000001000
44
0.0000000001
12
-0.0561212034
22
-0.0268608424
32
0.0000000000
13
-0.0628156599
23
0.0079019836
33
0.0000000000
40
0.0000000000
40
0.0000000000
40
0.0000000000
40
0.0000000000
40
0.8813125397
40
1.0000000000
40
1.0000000000
40
1.0000000000
40
1.0000000000
10
16.1254382824
20
14.4530425714
30
0.0000000000
10
16.1089515090
20
14.4451516390
30
0.0000000000
10
16.0881176436
20
14.4389879037
30
0.0000000000
10
16.0670932294
20
14.4406985791
30
0.0000000000
10
16.0646080857
20
14.4410112012
30
0.0000000000
11
16.1254382824
21
14.4530425714
31
0.0000000000
11
16.0720812138
21
14.4404034322
31
0.0000000000
11
16.0646080857
21
14.4410112012
31
0.0000000000
0
SPLINE
5
39D
100
AcDbEntity
8
0
100
AcDbSpline
62
9
6
CONTINUOUS
70
0
71
3
72
8
73
4
74
2
42
0.0000001000
43
0.0000001000
44
0.0000000001
12
-0.0271030189
22
0.0034094621
32
0.0000000000
13
-0.0244393086
23
0.0119061504
33
0.0000000000
40
0.0000000000
40
0.0000000000
40
0.0000000000
40
0.0000000000
40
1.0000000000
40
1.0000000000
40
1.0000000000
40
1.0000000000
10
16.0646080857
20
14.4410112012
30
0.0000000000
10
16.0555737460
20
14.4421476886
30
0.0000000000
10
16.0466740824
20
14.4447324357
30
0.0000000000
10
16.0385276462
20
14.4487011525
30
0.0000000000
11
16.0646080857
21
14.4410112012
31
0.0000000000
11
16.0385276462
21
14.4487011525
31
0.0000000000
0
SPLINE
5
39E
100
AcDbEntity
8
0
100
AcDbSpline
62
9
6
CONTINUOUS
70
0
71
3
72
11
73
7
74
5
42
0.0000001000
43
0.0000001000
44
0.0000000001
12
-0.1764019917
22
0.1619331825
32
0.0000000000
13
0.0033882665
23
0.2394337861
33
0.0000000000
40
0.0000000000
40
0.0000000000
40
0.0000000000
40
0.0000000000
40
0.2460417753
40
0.5046693856
40
0.7608284907
40
1.0000000000
40
1.0000000000
40
1.0000000000
40
1.0000000000
10
16.0806953936
20
14.1730938428
30
0.0000000000
10
16.0662279739
20
14.1863746187
30
0.0000000000
10
16.0398139274
20
14.2172765860
30
0.0000000000
10
16.0099896761
20
14.2705756770
30
0.0000000000
10
15.9908713055
20
14.3280079370
30
0.0000000000
10
15.9862149436
20
14.3676818286
30
0.0000000000
10
15.9864850692
20
14.3867704086
30
0.0000000000
11
16.0806953936
21
14.1730938428
31
0.0000000000
11
16.0420487950
21
14.2175641430
31
0.0000000000
11
16.0116915043
21
14.2715438415
31
0.0000000000
11
15.9925543789
21
14.3298214388
31
0.0000000000
11
15.9864850692
21
14.3867704086
31
0.0000000000
0
SPLINE
5
39F
100
AcDbEntity
8
0
100
AcDbSpline
62
9
6
CONTINUOUS
70
0
71
3
72
10
73
6
74
4
42
0.0000001000
43
0.0000001000
44
0.0000000001
12
0.1001153703
22
0.0462032148
32
0.0000000000
13
0.0103735708
23
0.1116498312
33
0.0000000000
40
0.0000000000
40
0.0000000000
40
0.0000000000
40
0.0000000000
40
0.4997785051
40
0.8865712819
40
1.0000000000
40
1.0000000000
40
1.0000000000
40
1.0000000000
10
15.9864850692
20
14.3867704086
30
0.0000000000
10
16.0031635725
20
14.3944675332
30
0.0000000000
10
16.0315334725
20
14.4112230455
30
0.0000000000
10
16.0552074168
20
14.4417219116
30
0.0000000000
10
16.0587826902
20
14.4601020956
30
0.0000000000
10
16.0591749105
20
14.4643235280
30
0.0000000000
11
15.9864850692
21
14.3867704086
31
0.0000000000
11
16.0328033434
21
14.4166264178
31
0.0000000000
11
16.0567361781
21
14.4519270573
31
0.0000000000
11
16.0591749105
21
14.4643235280
31
0.0000000000
0
SPLINE
5
3A0
100
AcDbEntity
8
0
100
AcDbSpline
62
9
6
CONTINUOUS
70
0
71
3
72
8
73
4
74
2
42
0.0000001000
43
0.0000001000
44
0.0000000001
12
0.0005583841
22
0.0060098386
32
0.0000000000
13
-0.0000049751
23
0.0060479429
33
0.0000000000
40
0.0000000000
40
0.0000000000
40
0.0000000000
40
0.0000000000
40
1.0000000000
40
1.0000000000
40
1.0000000000
40
1.0000000000
10
16.0591749105
20
14.4643235280
30
0.0000000000
10
16.0593610385
20
14.4663268075
30
0.0000000000
10
16.0594529219
20
14.4683421570
30
0.0000000000
10
16.0594512635
20
14.4703581380
30
0.0000000000
11
16.0591749105
21
14.4643235280
31
0.0000000000
11
16.0594512635
21
14.4703581380
31
0.0000000000
0
SPLINE
5
3A1
100
AcDbEntity
8
0
100
AcDbSpline
62
9
6
CONTINUOUS
70
0
71
3
72
9
73
5
74
3
42
0.0000001000
43
0.0000001000
44
0.0000000001
12
-0.0709890445
22
0.1445679680
32
0.0000000000
13
-0.1440518062
23
0.0720306807
33
0.0000000000
40
0.0000000000
40
0.0000000000
40
0.0000000000
40
0.0000000000
40
0.4455148880
40
1.0000000000
40
1.0000000000
40
1.0000000000
40
1.0000000000
10
16.2446619744
20
14.3477674026
30
0.0000000000
10
16.2341197490
20
14.3692364633
30
0.0000000000
10
16.1981194591
20
14.4112053420
30
0.0000000000
10
16.1520631431
20
14.4397292581
30
0.0000000000
10
16.1254382824
20
14.4530425714
30
0.0000000000
11
16.2446619744
21
14.3477674026
31
0.0000000000
11
16.2000464633
21
14.4039633804
31
0.0000000000
11
16.1254382824
21
14.4530425714
31
0.0000000000
0
SPLINE
5
3A2
100
AcDbEntity
8
0
100
AcDbSpline
62
0
6
CONTINUOUS
70
0
71
3
72
11
73
7
74
5
42
0.0000001000
43
0.0000001000
44
0.0000000001
12
-0.2068159736
22
0.1034079868
32
0.0000000000
13
-0.2080697585
23
-0.1032300930
33
0.0000000000
40
0.0000000000
40
0.0000000000
40
0.0000000000
40
0.0000000000
40
0.3191814938
40
0.6084968130
40
0.8761027616
40
1.0000000000
40
1.0000000000
40
1.0000000000
40
1.0000000000
10
-0.2751368928
20
21.1333669847
30
0.0000000000
10
-0.2971408366
20
21.1443689566
30
0.0000000000
10
-0.3411824346
20
21.1616232322
30
0.0000000000
10
-0.4087689876
20
21.1711526505
30
0.0000000000
10
-0.4615221315
20
21.1634996182
30
0.0000000000
10
-0.4896914367
20
21.1520787912
30
0.0000000000
10
-0.4982845262
20
21.1478154834
30
0.0000000000
11
-0.2751368928
21
21.1333669847
31
0.0000000000
11
-0.3441421639
21
21.1595437855
31
0.0000000000
11
-0.4104948985
21
21.1680645274
31
0.0000000000
11
-0.4716452589
21
21.1586043334
31
0.0000000000
11
-0.4982845262
21
21.1478154834
31
0.0000000000
0
SPLINE
5
3A3
100
AcDbEntity
8
0
100
AcDbSpline
62
9
6
CONTINUOUS
70
0
71
3
72
9
73
5
74
3
42
0.0000001000
43
0.0000001000
44
0.0000000001
12
0.0185538321
22
0.0502290249
32
0.0000000000
13
0.0155300819
23
0.0512562232
33
0.0000000000
40
0.0000000000
40
0.0000000000
40
0.0000000000
40
0.0000000000
40
0.4695685080
40
1.0000000000
40
1.0000000000
40
1.0000000000
40
1.0000000000
10
-0.0353928572
20
21.2523676222
30
0.0000000000
10
-0.0324887588
20
21.2602296117
30
0.0000000000
10
-0.0272447872
20
21.2773118423
30
0.0000000000
10
-0.0226245386
20
21.2945473973
30
0.0000000000
10
-0.0198786571
20
21.3036100356
30
0.0000000000
11
-0.0353928572
21
21.2523676222
31
0.0000000000
11
-0.0277014785
21
21.2763059740
31
0.0000000000
11
-0.0198786571
21
21.3036100356
31
0.0000000000
0
SPLINE
5
3A4
100
AcDbEntity
8
0
100
AcDbSpline
62
9
6
CONTINUOUS
70
0
71
3
72
13
73
9
74
7
42
0.0000001000
43
0.0000001000
44
0.0000000001
12
0.0637534893
22
0.2104150579
32
0.0000000000
13
0.1981503340
23
0.0951603493
33
0.0000000000
40
0.0000000000
40
0.0000000000
40
0.0000000000
40
0.0000000000
40
0.1431644207
40
0.2984241124
40
0.4644169605
40
0.6392831726
40
0.8194324110
40
1.0000000000
40
1.0000000000
40
1.0000000000
40
1.0000000000
10
-0.0198786571
20
21.3036100356
30
0.0000000000
10
-0.0168362467
20
21.3136513522
30
0.0000000000
10
-0.0097390816
20
21.3343785216
30
0.0000000000
10
0.0057398504
20
21.3648452765
30
0.0000000000
10
0.0275128265
20
21.3941867341
30
0.0000000000
10
0.0552935880
20
21.4206148019
30
0.0000000000
10
0.0874359820
20
21.4433192022
30
0.0000000000
10
0.1107321206
20
21.4559261400
30
0.0000000000
10
0.1226586300
20
21.4616537650
30
0.0000000000
11
-0.0198786571
21
21.3036100356
31
0.0000000000
11
-0.0093709898
21
21.3332737945
31
0.0000000000
11
0.0061742589
21
21.3636564129
31
0.0000000000
11
0.0278860525
21
21.3929815378
31
0.0000000000
11
0.0555883456
21
21.4196290903
31
0.0000000000
11
0.0878219543
21
21.4426318869
31
0.0000000000
11
0.1226586300
21
21.4616537650
31
0.0000000000
0
SPLINE
5
3A5
100
AcDbEntity
8
0
100
AcDbSpline
62
9
6
CONTINUOUS
70
0
71
3
72
10
73
6
74
4
42
0.0000001000
43
0.0000001000
44
0.0000000001
12
0.2117668242
22
0.1062534796
32
0.0000000000
13
0.2117502958
23
-0.1022933210
33
0.0000000000
40
0.0000000000
40
0.0000000000
40
0.0000000000
40
0.0000000000
40
0.0724530030
40
0.5063568397
40
1.0000000000
40
1.0000000000
40
1.0000000000
40
1.0000000000
10
-0.2636270196
20
21.2641620680
30
0.0000000000
10
-0.2585126389
20
21.2667281959
30
0.0000000000
10
-0.2220280282
20
21.2830952216
30
0.0000000000
10
-0.1410922450
20
21.2920534815
30
0.0000000000
10
-0.0701963586
20
21.2691723548
30
0.0000000000
10
-0.0353533303
20
21.2523402221
30
0.0000000000
11
-0.2636270196
21
21.2641620680
31
0.0000000000
11
-0.2479796164
21
21.2711697830
31
0.0000000000
11
-0.1468411140
21
21.2846928104
31
0.0000000000
11
-0.0353533303
21
21.2523402221
31
0.0000000000
0
SPLINE
5
3A6
100
AcDbEntity
8
0
100
AcDbSpline
62
9
6
CONTINUOUS
70
0
71
3
72
10
73
6
74
4
42
0.0000001000
43
0.0000001000
44
0.0000000001
12
0.0000000000
22
-0.2520873581
32
0.0000000000
13
-0.1608196274
23
-0.1941264628
33
0.0000000000
40
0.0000000000
40
0.0000000000
40
0.0000000000
40
0.0000000000
40
0.3177180317
40
0.6593574453
40
1.0000000000
40
1.0000000000
40
1.0000000000
40
1.0000000000
10
14.9258248974
20
-25.4425646936
30
0.0000000000
10
14.9258248974
20
-25.4692622600
30
0.0000000000
10
14.9176208385
20
-25.5247714204
30
0.0000000000
10
14.8871861656
20
-25.6036486747
30
0.0000000000
10
14.8556972193
20
-25.6522162893
30
0.0000000000
10
14.8374365497
20
-25.6742588674
30
0.0000000000
11
14.9258248974
21
-25.4425646936
31
0.0000000000
11
14.9151639582
21
-25.5219446964
31
0.0000000000
11
14.8844670072
21
-25.6024112385
31
0.0000000000
11
14.8374365497
21
-25.6742588674
31
0.0000000000
0
SPLINE
5
3A7
100
AcDbEntity
8
0
100
AcDbSpline
62
0
6
CONTINUOUS
70
0
71
3
72
11
73
7
74
5
42
0.0000001000
43
0.0000001000
44
0.0000000001
12
-0.2071258395
22
0.1035800949
32
0.0000000000
13
-0.2057117522
23
-0.1040475676
33
0.0000000000
40
0.0000000000
40
0.0000000000
40
0.0000000000
40
0.0000000000
40
0.1260855173
40
0.3927613430
40
0.6812935057
40
1.0000000000
40
1.0000000000
40
1.0000000000
40
1.0000000000
10
17.2389068243
20
20.4020413778
30
0.0000000000
10
17.2302016347
20
20.4063946944
30
0.0000000000
10
17.2020344082
20
20.4178528812
30
0.0000000000
10
17.1493764600
20
20.4253765647
30
0.0000000000
10
17.0821928348
20
20.4156389453
30
0.0000000000
10
17.0384539735
20
20.3982689692
30
0.0000000000
10
17.0166000830
20
20.3872154240
30
0.0000000000
11
17.2389068243
21
20.4020413778
31
0.0000000000
11
17.2118913003
21
20.4130175390
31
0.0000000000
11
17.1511188509
21
20.4222934492
31
0.0000000000
11
17.0851771223
21
20.4135811249
31
0.0000000000
11
17.0166000830
21
20.3872154240
31
0.0000000000
0
SPLINE
5
3A8
100
AcDbEntity
8
0
100
AcDbSpline
62
9
6
CONTINUOUS
70
0
71
3
72
10
73
6
74
4
42
0.0000001000
43
0.0000001000
44
0.0000000001
12
0.0000000000
22
-0.2520873581
32
0.0000000000
13
-0.1608196274
23
-0.1941264628
33
0.0000000000
40
0.0000000000
40
0.0000000000
40
0.0000000000
40
0.0000000000
40
0.3177180317
40
0.6593574453
40
1.0000000000
40
1.0000000000
40
1.0000000000
40
1.0000000000
10
13.5823220131
20
-24.7708132515
30
0.0000000000
10
13.5823220131
20
-24.7975108179
30
0.0000000000
10
13.5741179543
20
-24.8530199783
30
0.0000000000
10
13.5436832814
20
-24.9318972326
30
0.0000000000
10
13.5121943351
20
-24.9804648472
30
0.0000000000
10
13.4939336655
20
-25.0025074253
30
0.0000000000
11
13.5823220131
21
-24.7708132515
31
0.0000000000
11
13.5716610739
21
-24.8501932542
31
0.0000000000
11
13.5409641229
21
-24.9306597964
31
0.0000000000
11
13.4939336655
21
-25.0025074253
31
0.0000000000
0
SPLINE
5
3A9
100
AcDbEntity
8
0
100
AcDbSpline
62
0
6
CONTINUOUS
70
0
71
3
72
11
73
7
74
5
42
0.0000001000
43
0.0000001000
44
0.0000000001
12
-0.2081967564
22
0.1041138840
32
0.0000000000
13
-0.2072674228
23
-0.1036337114
33
0.0000000000
40
0.0000000000
40
0.0000000000
40
0.0000000000
40
0.0000000000
40
0.1261794756
40
0.3930879826
40
0.6816511665
40
1.0000000000
40
1.0000000000
40
1.0000000000
40
1.0000000000
10
11.6845964841
20
23.1791970843
30
0.0000000000
10
11.6758397649
20
23.1835760961
30
0.0000000000
10
11.6475087318
20
23.1951142904
30
0.0000000000
10
11.5945751191
20
23.2027896563
30
0.0000000000
10
11.5270182603
20
23.1932598329
30
0.0000000000
10
11.4829961170
20
23.1760118545
30
0.0000000000
10
11.4610016696
20
23.1650146308
30
0.0000000000
11
11.6845964841
21
23.1791970843
31
0.0000000000
11
11.6574254092
21
23.1902507020
31
0.0000000000
11
11.5963006946
21
23.1997030140
31
0.0000000000
11
11.5299765144
21
23.1911818355
31
0.0000000000
11
11.4610016696
21
23.1650146308
31
0.0000000000
0
SPLINE
5
3AA
100
AcDbEntity
8
0
100
AcDbSpline
62
9
6
CONTINUOUS
70
0
71
3
72
11
73
7
74
5
42
0.0000001000
43
0.0000001000
44
0.0000000001
12
0.3219471227
22
0.3886245550
32
0.0000000000
13
0.0000000000
23
0.5046573041
33
0.0000000000
40
0.0000000000
40
0.0000000000
40
0.0000000000
40
0.0000000000
40
0.2552951313
40
0.5132537277
40
0.7642975857
40
1.0000000000
40
1.0000000000
40
1.0000000000
40
1.0000000000
10
15.1026015927
20
-25.9059530412
30
0.0000000000
10
15.1299987703
20
-25.8728817223
30
0.0000000000
10
15.1792811996
20
-25.8014195201
30
0.0000000000
10
15.2348493965
20
-25.6849108294
30
0.0000000000
10
15.2703049447
20
-25.5642092435
30
0.0000000000
10
15.2793782880
20
-25.4822143419
30
0.0000000000
10
15.2793782880
20
-25.4425646936
30
0.0000000000
11
15.1026015927
21
-25.9059530412
31
0.0000000000
11
15.1760648339
21
-25.8001134952
31
0.0000000000
11
15.2320714622
21
-25.6825963918
31
0.0000000000
11
15.2672844497
21
-25.5608972360
31
0.0000000000
11
15.2793782880
21
-25.4425646936
31
0.0000000000
0
SPLINE
5
3AB
100
AcDbEntity
8
0
100
AcDbSpline
62
0
6
CONTINUOUS
70
0
71
3
72
11
73
7
74
5
42
0.0000001000
43
0.0000001000
44
0.0000000001
12
-0.4039890973
22
0.2021280081
32
0.0000000000
13
-0.4056879499
23
-0.1941711775
33
0.0000000000
40
0.0000000000
40
0.0000000000
40
0.0000000000
40
0.0000000000
40
0.1151113616
40
0.3861639946
40
0.6782774583
40
1.0000000000
40
1.0000000000
40
1.0000000000
40
1.0000000000
10
14.0294967575
20
22.5367650652
30
0.0000000000
10
14.0139955125
20
22.5445208086
30
0.0000000000
10
13.9602222052
20
22.5669821281
30
0.0000000000
10
13.8583077429
20
22.5837579095
30
0.0000000000
10
13.7251850535
20
22.5675628152
30
0.0000000000
10
13.6381690475
20
22.5352501693
30
0.0000000000
10
13.5946627281
20
22.5144270878
30
0.0000000000
11
14.0294967575
21
22.5367650652
31
0.0000000000
11
13.9815593992
21
22.5567645887
31
0.0000000000
11
13.8614480708
21
22.5776227840
31
0.0000000000
11
13.7308463852
21
22.5633312447
31
0.0000000000
11
13.5946627281
21
22.5144270878
31
0.0000000000
0
SPLINE
5
3AC
100
AcDbEntity
8
0
100
AcDbSpline
62
9
6
CONTINUOUS
70
0
71
3
72
11
73
7
74
5
42
0.0000001000
43
0.0000001000
44
0.0000000001
12
-0.3249549290
22
-0.1624774645
32
0.0000000000
13
-0.3249549290
23
0.1624774645
33
0.0000000000
40
0.0000000000
40
0.0000000000
40
0.0000000000
40
0.0000000000
40
0.2353701082
40
0.5000000000
40
0.7646298918
40
1.0000000000
40
1.0000000000
40
1.0000000000
40
1.0000000000
10
15.2793782880
20
-25.4425646936
30
0.0000000000
10
15.2538833957
20
-25.4553121397
30
0.0000000000
10
15.1952907977
20
-25.4734962655
30
0.0000000000
10
15.1026015927
20
-25.4821825841
30
0.0000000000
10
15.0099123876
20
-25.4734962655
30
0.0000000000
10
14.9513197897
20
-25.4553121397
30
0.0000000000
10
14.9258248974
20
-25.4425646936
30
0.0000000000
11
15.2793782880
21
-25.4425646936
31
0.0000000000
11
15.1982724508
21
-25.4696612875
31
0.0000000000
11
15.1026015927
21
-25.4791763459
31
0.0000000000
11
15.0069307346
21
-25.4696612875
31
0.0000000000
11
14.9258248974
21
-25.4425646936
31
0.0000000000
0
SPLINE
5
3AD
100
AcDbEntity
8
0
100
AcDbSpline
62
0
6
CONTINUOUS
70
0
71
3
72
8
73
4
74
2
42
0.0000001000
43
0.0000001000
44
0.0000000001
12
0.0000000000
22
0.0881753022
32
0.0000000000
13
-0.0131141893
23
0.0872985335
33
0.0000000000
40
0.0000000000
40
0.0000000000
40
0.0000000000
40
0.0000000000
40
1.0000000000
40
1.0000000000
40
1.0000000000
40
1.0000000000
10
15.0655738084
20
13.0298010623
30
0.0000000000
10
15.0655738084
20
13.0591928297
30
0.0000000000
10
15.0631471892
20
13.0886144109
30
0.0000000000
10
15.0587757928
20
13.1177139221
30
0.0000000000
11
15.0655738084
21
13.0298010623
31
0.0000000000
11
15.0587757928
21
13.1177139221
31
0.0000000000
0
SPLINE
5
3AE
100
AcDbEntity
8
0
100
AcDbSpline
62
0
6
CONTINUOUS
70
0
71
3
72
14
73
10
74
8
42
0.0000001000
43
0.0000001000
44
0.0000000001
12
-0.0963763143
22
0.6415578358
32
0.0000000000
13
-0.5795899097
23
0.2897949548
33
0.0000000000
40
0.0000000000
40
0.0000000000
40
0.0000000000
40
0.0000000000
40
0.1443255764
40
0.2938886878
40
0.4452160060
40
0.5946871408
40
0.7388365246
40
0.8746671579
40
1.0000000000
40
1.0000000000
40
1.0000000000
40
1.0000000000
10
15.0587757928
20
13.1177139221
30
0.0000000000
10
15.0541392704
20
13.1485783235
30
0.0000000000
10
15.0402429053
20
13.2106893946
30
0.0000000000
10
15.0075953619
20
13.3014042633
30
0.0000000000
10
14.9638546030
20
13.3885507072
30
0.0000000000
10
14.9106589952
20
13.4688798674
30
0.0000000000
10
14.8499731294
20
13.5393973356
30
0.0000000000
10
14.7840659560
20
13.5974603068
30
0.0000000000
10
14.7360727412
20
13.6277621677
30
0.0000000000
10
14.7118588577
20
13.6398691094
30
0.0000000000
11
15.0587757928
21
13.1177139221
31
0.0000000000
11
15.0386445590
21
13.2090447104
31
0.0000000000
11
15.0059558128
21
13.3002826738
31
0.0000000000
11
14.9619666346
21
13.3879226876
31
0.0000000000
11
14.9083673700
21
13.4685978993
31
0.0000000000
11
14.8472169588
21
13.5392085504
31
0.0000000000
11
14.7808641608
21
13.5970406154
31
0.0000000000
11
14.7118588577
21
13.6398691094
31
0.0000000000
0
SPLINE
5
3AF
100
AcDbEntity
8
0
100
AcDbSpline
62
9
6
CONTINUOUS
70
0
71
3
72
15
73
11
74
9
42
0.0000001000
43
0.0000001000
44
0.0000000001
12
0.4191263951
22
0.0324964256
32
0.0000000000
13
0.3796878666
23
0.1804441097
33
0.0000000000
40
0.0000000000
40
0.0000000000
40
0.0000000000
40
0.0000000000
40
0.0972506257
40
0.2188815956
40
0.3622385441
40
0.5092748885
40
0.6505352241
40
0.7799996987
40
0.8965747227
40
1.0000000000
40
1.0000000000
40
1.0000000000
40
1.0000000000
10
14.9602796875
20
13.7545303505
30
0.0000000000
10
14.9738664555
20
13.7555837831
30
0.0000000000
10
15.0044208560
20
13.7582745649
30
0.0000000000
10
15.0549430716
20
13.7631866571
30
0.0000000000
10
15.1123017828
20
13.7698353184
30
0.0000000000
10
15.1721293147
20
13.7788606473
30
0.0000000000
10
15.2295563008
20
13.7903628715
30
0.0000000000
10
15.2820960676
20
13.8041148117
30
0.0000000000
10
15.3285467528
20
13.8197393205
30
0.0000000000
10
15.3569947866
20
13.8317175684
30
0.0000000000
10
15.3700845609
20
13.8379383958
30
0.0000000000
11
14.9602796875
21
13.7545303505
31
0.0000000000
11
15.0010122929
21
13.7580295980
31
0.0000000000
11
15.0518983715
21
13.7630358719
31
0.0000000000
11
15.1117463128
21
13.7701136721
31
0.0000000000
11
15.1728446014
21
13.7794781788
31
0.0000000000
11
15.2310446054
21
13.7912754068
31
0.0000000000
11
15.2836581481
21
13.8051993931
31
0.0000000000
11
15.3300715886
21
13.8209286923
31
0.0000000000
11
15.3700845609
21
13.8379383958
31
0.0000000000
0
SPLINE
5
3B0
100
AcDbEntity
8
0
100
AcDbSpline
62
9
6
CONTINUOUS
70
0
71
3
72
15
73
11
74
9
42
0.0000001000
43
0.0000001000
44
0.0000000001
12
0.3051400739
22
0.1408494049
32
0.0000000000
13
0.3059637791
23
0.1390510175
33
0.0000000000
40
0.0000000000
40
0.0000000000
40
0.0000000000
40
0.0000000000
40
0.1698949813
40
0.3448663033
40
0.5101348635
40
0.6477196907
40
0.7586774472
40
0.8506772069
40
0.9293108834
40
1.0000000000
40
1.0000000000
40
1.0000000000
40
1.0000000000
10
15.3013199450
20
13.1386803433
30
0.0000000000
10
15.3186005341
20
13.1466568790
30
0.0000000000
10
15.3530322392
20
13.1642669957
30
0.0000000000
10
15.4022201724
20
13.1934069018
30
0.0000000000
10
15.4471393300
20
13.2225323193
30
0.0000000000
10
15.4857096778
20
13.2482474591
30
0.0000000000
10
15.5177177519
20
13.2690110154
30
0.0000000000
10
15.5447182786
20
13.2853378586
30
0.0000000000
10
15.5684299573
20
13.2983424770
30
0.0000000000
10
15.5834862302
20
13.3056507008
30
0.0000000000
10
15.5906956666
20
13.3089271653
30
0.0000000000
11
15.3013199450
21
13.1386803433
31
0.0000000000
11
15.3522392278
21
13.1645148466
31
0.0000000000
11
15.4029385295
21
13.1943059681
31
0.0000000000
11
15.4496696615
21
13.2243269041
31
0.0000000000
11
15.4882512237
21
13.2498130000
31
0.0000000000
11
15.5196145391
21
13.2699854634
31
0.0000000000
11
15.5461175342
21
13.2859098711
31
0.0000000000
11
15.5693171190
21
13.2985657733
31
0.0000000000
11
15.5906956666
21
13.3089271653
31
0.0000000000
0
SPLINE
5
3B1
100
AcDbEntity
8
0
100
AcDbSpline
62
9
6
CONTINUOUS
70
0
71
3
72
12
73
8
74
6
42
0.0000001000
43
0.0000001000
44
0.0000000001
12
0.6519776465
22
-0.3372252867
32
0.0000000000
13
-0.0106347958
23
-0.7339500301
33
0.0000000000
40
0.0000000000
40
0.0000000000
40
0.0000000000
40
0.0000000000
40
0.1796205348
40
0.3805877404
40
0.5927615964
40
0.8033755722
40
1.0000000000
40
1.0000000000
40
1.0000000000
40
1.0000000000
10
14.9602203225
20
13.7545331864
30
0.0000000000
10
14.9992565136
20
13.7343423243
30
0.0000000000
10
15.0750003711
20
13.6778476568
30
0.0000000000
10
15.1688833741
20
13.5660991311
30
0.0000000000
10
15.2430030169
20
13.4315807265
30
0.0000000000
10
15.2904475628
20
13.2867697561
30
0.0000000000
10
15.3020169653
20
13.1867845116
30
0.0000000000
10
15.3013199450
20
13.1386803433
30
0.0000000000
11
14.9602203225
21
13.7545331864
31
0.0000000000
11
15.0673071875
21
13.6776185613
31
0.0000000000
11
15.1632416940
21
13.5655589575
31
0.0000000000
11
15.2386915755
21
13.4293140128
31
0.0000000000
11
15.2862703982
21
13.2822212180
31
0.0000000000
11
15.3013199450
21
13.1386803433
31
0.0000000000
0
SPLINE
5
3B2
100
AcDbEntity
8
0
100
AcDbSpline
62
9
6
CONTINUOUS
70
0
71
3
72
10
73
6
74
4
42
0.0000001000
43
0.0000001000
44
0.0000000001
12
0.7193080063
22
0.3266950023
32
0.0000000000
13
0.7191392953
23
0.3270662112
33
0.0000000000
40
0.0000000000
40
0.0000000000
40
0.0000000000
40
0.0000000000
40
0.3332759543
40
0.6666786861
40
1.0000000000
40
1.0000000000
40
1.0000000000
40
1.0000000000
10
15.5906956666
20
13.3089271653
30
0.0000000000
10
15.6706050207
20
13.3452203615
30
0.0000000000
10
15.8304477902
20
13.4178345111
30
0.0000000000
10
16.0701887945
20
13.5267952053
30
0.0000000000
10
16.2300174426
20
13.5994692947
30
0.0000000000
10
16.3099189276
20
13.6358086744
30
0.0000000000
11
15.5906956666
21
13.3089271653
31
0.0000000000
11
15.8304142573
21
13.4178276057
31
0.0000000000
11
16.0702052019
21
13.5268109220
31
0.0000000000
11
16.3099189276
21
13.6358086744
31
0.0000000000
0
SPLINE
5
3B3
100
AcDbEntity
8
0
100
AcDbSpline
62
9
6
CONTINUOUS
70
0
71
3
72
11
73
7
74
5
42
0.0000001000
43
0.0000001000
44
0.0000000001
12
0.4181618484
22
-0.4116118851
32
0.0000000000
13
-0.0114922088
23
-0.5866443595
33
0.0000000000
40
0.0000000000
40
0.0000000000
40
0.0000000000
40
0.0000000000
40
0.2462879081
40
0.5047476650
40
0.7607052784
40
1.0000000000
40
1.0000000000
40
1.0000000000
40
1.0000000000
10
15.3700840286
20
13.8379390891
30
0.0000000000
10
15.4044134309
20
13.8041474123
30
0.0000000000
10
15.4667999653
20
13.7265538795
30
0.0000000000
10
15.5367758444
20
13.5943516242
30
0.0000000000
10
15.5811519329
20
13.4529314381
30
0.0000000000
10
15.5915408499
20
13.3556883206
30
0.0000000000
10
15.5906241749
20
13.3088946877
30
0.0000000000
11
15.3700840286
21
13.8379390891
31
0.0000000000
11
15.4614966644
21
13.7260141253
31
0.0000000000
11
15.5327062101
21
13.5921192115
31
0.0000000000
11
15.5771194402
21
13.4486515534
31
0.0000000000
11
15.5906241749
21
13.3088946877
31
0.0000000000
0
SPLINE
5
3B4
100
AcDbEntity
8
0
100
AcDbSpline
62
9
6
CONTINUOUS
70
0
71
3
72
16
73
12
74
10
42
0.0000001000
43
0.0000001000
44
0.0000000001
12
0.2229396392
22
0.1056661886
32
0.0000000000
13
0.1027714135
23
0.2242887931
33
0.0000000000
40
0.0000000000
40
0.0000000000
40
0.0000000000
40
0.0000000000
40
0.1314889959
40
0.2631107463
40
0.3905692854
40
0.5119854326
40
0.6254437700
40
0.7293027819
40
0.8255434478
40
0.9148297522
40
1.0000000000
40
1.0000000000
40
1.0000000000
40
1.0000000000
10
16.0806955994
20
14.1730947405
30
0.0000000000
10
16.0904669692
20
14.1777260541
30
0.0000000000
10
16.1097238951
20
14.1876387119
30
0.0000000000
10
16.1370975609
20
14.2045116578
30
0.0000000000
10
16.1621742390
20
14.2233131673
30
0.0000000000
10
16.1840015409
20
14.2436987781
30
0.0000000000
10
16.2019400800
20
14.2650991391
30
0.0000000000
10
16.2161579693
20
14.2866759377
30
0.0000000000
10
16.2271156810
20
14.3078369628
30
0.0000000000
10
16.2360473324
20
14.3282308193
30
0.0000000000
10
16.2417447445
20
14.3413988516
30
0.0000000000
10
16.2446624334
20
14.3477664289
30
0.0000000000
11
16.0806955994
21
14.1730947405
31
0.0000000000
11
16.1095102865
21
14.1879968347
31
0.0000000000
11
16.1371097412
21
14.2051069121
31
0.0000000000
11
16.1622027268
21
14.2240588184
31
0.0000000000
11
16.1840237903
21
14.2445805514
31
0.0000000000
11
16.2019974257
21
14.2660394026
31
0.0000000000
11
16.2161002815
21
14.2874325739
31
0.0000000000
11
16.2271358604
21
14.3084560435
31
0.0000000000
11
16.2361677451
21
14.3285474065
31
0.0000000000
11
16.2446624334
21
14.3477664289
31
0.0000000000
0
SPLINE
5
3B5
100
AcDbEntity
8
0
100
AcDbSpline
62
9
6
CONTINUOUS
70
0
71
3
72
16
73
12
74
10
42
0.0000001000
43
0.0000001000
44
0.0000000001
12
0.2662460246
22
0.1210161096
32
0.0000000000
13
0.2655034577
23
0.1226366926
33
0.0000000000
40
0.0000000000
40
0.0000000000
40
0.0000000000
40
0.0000000000
40
0.0682733994
40
0.1414728877
40
0.2218225972
40
0.3113344231
40
0.4126436001
40
0.5294019061
40
0.6647930563
40
0.8203631201
40
1.0000000000
40
1.0000000000
40
1.0000000000
40
1.0000000000
10
16.3099189276
20
13.6358086744
30
0.0000000000
10
16.3159781013
20
13.6385627348
30
0.0000000000
10
16.3286369985
20
13.6440457161
30
0.0000000000
10
16.3488042072
20
13.6518648870
30
0.0000000000
10
16.3712103800
20
13.6595883223
30
0.0000000000
10
16.3964598395
20
13.6674276837
30
0.0000000000
10
16.4252797454
20
13.6757064169
30
0.0000000000
10
16.4584217280
20
13.6851350266
30
0.0000000000
10
16.4964437173
20
13.6967377338
30
0.0000000000
10
16.5397579347
20
13.7119081796
30
0.0000000000
10
16.5699222233
20
13.7245578415
30
0.0000000000
10
16.5858202942
20
13.7319011991
30
0.0000000000
11
16.3099189276
21
13.6358086744
31
0.0000000000
11
16.3282435492
21
13.6437392579
31
0.0000000000
11
16.3481983642
21
13.6514916190
31
0.0000000000
11
16.3704011124
21
13.6591882445
31
0.0000000000
11
16.3953859743
21
13.6670029231
31
0.0000000000
11
16.4238352684
21
13.6752792732
31
0.0000000000
11
16.4566470737
21
13.6847343498
31
0.0000000000
11
16.4944854147
21
13.6964015675
31
0.0000000000
11
16.5373945268
21
13.7115294762
31
0.0000000000
11
16.5858202942
21
13.7319011991
31
0.0000000000
0
SPLINE
5
3B6
100
AcDbEntity
8
0
100
AcDbSpline
62
9
6
CONTINUOUS
70
0
71
3
72
11
73
7
74
5
42
0.0000001000
43
0.0000001000
44
0.0000000001
12
0.4349072090
22
-0.4113304504
32
0.0000000000
13
-0.0115986590
23
-0.5985002013
33
0.0000000000
40
0.0000000000
40
0.0000000000
40
0.0000000000
40
0.0000000000
40
0.2451285677
40
0.5036119767
40
0.7601872546
40
1.0000000000
40
1.0000000000
40
1.0000000000
40
1.0000000000
10
16.0806955994
20
14.1730947405
30
0.0000000000
10
16.1162316598
20
14.1394851257
30
0.0000000000
10
16.1809578613
20
14.0614226786
30
0.0000000000
10
16.2536578250
20
13.9273305390
30
0.0000000000
10
16.2999354242
20
13.7830960678
30
0.0000000000
10
16.3108545161
20
13.6836549772
30
0.0000000000
10
16.3099273474
20
13.6358123184
30
0.0000000000
11
16.0806955994
21
14.1730947405
31
0.0000000000
11
16.1753172429
21
14.0609408074
31
0.0000000000
11
16.2493871312
21
13.9250899184
31
0.0000000000
11
16.2957500130
21
13.7786654597
31
0.0000000000
11
16.3099273474
21
13.6358123184
31
0.0000000000
0
SPLINE
5
3B7
100
AcDbEntity
8
0
100
AcDbSpline
62
9
6
CONTINUOUS
70
0
71
3
72
12
73
8
74
6
42
0.0000001000
43
0.0000001000
44
0.0000000001
12
0.6519661659
22
-0.3373159253
32
0.0000000000
13
-0.0105655716
23
-0.7339824819
33
0.0000000000
40
0.0000000000
40
0.0000000000
40
0.0000000000
40
0.0000000000
40
0.1795520416
40
0.3805347453
40
0.5927295553
40
0.8033632481
40
1.0000000000
40
1.0000000000
40
1.0000000000
40
1.0000000000
10
16.2446618728
20
14.3477673557
30
0.0000000000
10
16.2836824915
20
14.3275787680
30
0.0000000000
10
16.3594150091
20
14.2710882958
30
0.0000000000
10
16.4533173885
20
14.1593587130
30
0.0000000000
10
16.5274625857
20
14.0248303714
30
0.0000000000
10
16.5749312322
20
13.8800068946
30
0.0000000000
10
16.5865128207
20
13.7800105095
30
0.0000000000
10
16.5858202942
20
13.7319011991
30
0.0000000000
11
16.2446618728
21
14.3477673557
31
0.0000000000
11
16.3517109730
21
14.2708766543
31
0.0000000000
11
16.4476730525
21
14.1588173617
31
0.0000000000
11
16.5231511052
21
14.0225628092
31
0.0000000000
11
16.5707540086
21
13.8754556316
31
0.0000000000
11
16.5858202942
21
13.7319011991
31
0.0000000000
0
SPLINE
5
3B8
100
AcDbEntity
8
0
100
AcDbSpline
62
9
6
CONTINUOUS
70
0
71
3
72
15
73
11
74
9
42
0.0000001000
43
0.0000001000
44
0.0000000001
12
0.2765445311
22
0.1393259845
32
0.0000000000
13
0.2756813935
23
0.1410261570
33
0.0000000000
40
0.0000000000
40
0.0000000000
40
0.0000000000
40
0.0000000000
40
0.1870059473
40
0.3617553290
40
0.5138485870
40
0.6412214855
40
0.7483969144
40
0.8411926550
40
0.9239408893
40
1.0000000000
40
1.0000000000
40
1.0000000000
40
1.0000000000
10
15.3013261261
20
-24.8434036163
30
0.0000000000
10
15.3185646168
20
-24.8347186871
30
0.0000000000
10
15.3525789771
20
-24.8192072171
30
0.0000000000
10
15.4023093253
20
-24.8006743236
30
0.0000000000
10
15.4470040854
20
-24.7864881822
30
0.0000000000
10
15.4852338612
20
-24.7750385885
30
0.0000000000
10
15.5174576103
20
-24.7648599323
30
0.0000000000
10
15.5449135116
20
-24.7549413155
30
0.0000000000
10
15.5688874682
20
-24.7449260660
30
0.0000000000
10
15.5836599520
20
-24.7378029684
30
0.0000000000
10
15.5906493125
20
-24.7342275270
30
0.0000000000
11
15.3013261261
21
-24.8434036163
31
0.0000000000
11
15.3539976709
21
-24.8193401506
31
0.0000000000
11
15.4046533224
21
-24.8003088974
31
0.0000000000
11
15.4494760185
21
-24.7858501415
31
0.0000000000
11
15.4872007220
21
-24.7743379897
31
0.0000000000
11
15.5187969575
21
-24.7641837122
31
0.0000000000
11
15.5457995531
21
-24.7543571474
31
0.0000000000
11
15.5694272490
21
-24.7444421486
31
0.0000000000
11
15.5906493125
21
-24.7342275270
31
0.0000000000
0
SPLINE
5
3B9
100
AcDbEntity
8
0
100
AcDbSpline
62
9
6
CONTINUOUS
70
0
71
3
72
11
73
7
74
5
42
0.0000001000
43
0.0000001000
44
0.0000000001
12
-0.1865150811
22
0.3024006954
32
0.0000000000
13
-0.3177849034
23
0.1588924517
33
0.0000000000
40
0.0000000000
40
0.0000000000
40
0.0000000000
40
0.0000000000
40
0.2172659026
40
0.4816028008
40
0.7552980278
40
1.0000000000
40
1.0000000000
40
1.0000000000
40
1.0000000000
10
14.5722715068
20
-26.5461180842
30
0.0000000000
10
14.5587637177
20
-26.5242176308
30
0.0000000000
10
14.5227824486
20
-26.4794982090
30
0.0000000000
10
14.4585159910
20
-26.4171105271
30
0.0000000000
10
14.3854258607
20
-26.3598347025
30
0.0000000000
10
14.3330273281
20
-26.3273843425
30
0.0000000000
10
14.3071064639
20
-26.3144239104
30
0.0000000000
11
14.5722715068
21
-26.5461180842
31
0.0000000000
11
14.5252821816
21
-26.4848741838
31
0.0000000000
11
14.4582355933
21
-26.4191076809
31
0.0000000000
11
14.3816058717
21
-26.3592414765
31
0.0000000000
11
14.3071064639
21
-26.3144239104
31
0.0000000000
0
SPLINE
5
3BA
100
AcDbEntity
8
0
100
AcDbSpline
62
9
6
CONTINUOUS
70
0
71
3
72
10
73
6
74
4
42
0.0000001000
43
0.0000001000
44
0.0000000001
12
0.0044754092
22
-0.3069916472
32
0.0000000000
13
-0.2754857969
23
-0.1409940928
33
0.0000000000
40
0.0000000000
40
0.0000000000
40
0.0000000000
40
0.0000000000
40
0.4070828405
40
0.7511740722
40
1.0000000000
40
1.0000000000
40
1.0000000000
40
1.0000000000
10
15.3013261261
20
-24.8434036163
30
0.0000000000
10
15.3019334135
20
-24.8850606269
30
0.0000000000
10
15.2943462449
20
-24.9626613543
30
0.0000000000
10
15.2504606587
20
-25.0582947780
30
0.0000000000
10
15.2017863790
20
-25.0983127759
30
0.0000000000
10
15.1789370426
20
-25.1100071045
30
0.0000000000
11
15.3013261261
21
-24.8434036163
31
0.0000000000
11
15.2862566599
21
-24.9674761320
31
0.0000000000
11
15.2386503245
21
-25.0617860852
31
0.0000000000
11
15.1789370426
21
-25.1100071045
31
0.0000000000
0
SPLINE
5
3BB
100
AcDbEntity
8
0
100
AcDbSpline
62
9
6
CONTINUOUS
70
0
71
3
72
10
73
6
74
4
42
0.0000001000
43
0.0000001000
44
0.0000000001
12
0.7192221616
22
0.3678887543
32
0.0000000000
13
0.7194037252
23
0.3675335815
33
0.0000000000
40
0.0000000000
40
0.0000000000
40
0.0000000000
40
0.0000000000
40
0.3333528341
40
0.6667136362
40
1.0000000000
40
1.0000000000
40
1.0000000000
40
1.0000000000
10
15.5906493125
20
-24.7342275270
30
0.0000000000
10
15.6705675612
20
-24.6933486074
30
0.0000000000
10
15.8304127903
20
-24.6116031264
30
0.0000000000
10
16.0701840073
20
-24.4890331782
30
0.0000000000
10
16.2300401933
20
-24.4073484555
30
0.0000000000
10
16.3099626772
20
-24.3665171452
30
0.0000000000
11
15.5906493125
21
-24.7342275270
31
0.0000000000
11
15.8304142575
21
-24.6116107095
31
0.0000000000
11
16.0702052021
21
-24.4890306023
31
0.0000000000
11
16.3099626772
21
-24.3665171452
31
0.0000000000
0
SPLINE
5
3BC
100
AcDbEntity
8
0
100
AcDbSpline
62
9
6
CONTINUOUS
70
0
71
3
72
10
73
6
74
4
42
0.0000001000
43
0.0000001000
44
0.0000000001
12
0.0060801907
22
-0.3045047973
32
0.0000000000
13
-0.2727009997
23
-0.1411472608
33
0.0000000000
40
0.0000000000
40
0.0000000000
40
0.0000000000
40
0.0000000000
40
0.3985132894
40
0.7363100185
40
1.0000000000
40
1.0000000000
40
1.0000000000
40
1.0000000000
10
15.5906241749
20
-24.7342403826
30
0.0000000000
10
15.5914318538
20
-24.7746901187
30
0.0000000000
10
15.5846840367
20
-24.8501480585
30
0.0000000000
10
15.5430274325
20
-24.9456273093
30
0.0000000000
10
15.4950348390
20
-24.9870709443
30
0.0000000000
10
15.4710653318
20
-24.9994773172
30
0.0000000000
11
15.5906241749
21
-24.7342403826
31
0.0000000000
11
15.5771194399
21
-24.8548601306
31
0.0000000000
11
15.5327062100
21
-24.9476610575
31
0.0000000000
11
15.4710653318
21
-24.9994773172
31
0.0000000000
0
SPLINE
5
3BD
100
AcDbEntity
8
0
100
AcDbSpline
62
9
6
CONTINUOUS
70
0
71
3
72
15
73
11
74
9
42
0.0000001000
43
0.0000001000
44
0.0000000001
12
0.2888898958
22
0.1475901566
32
0.0000000000
13
0.2897264966
23
0.1459410271
33
0.0000000000
40
0.0000000000
40
0.0000000000
40
0.0000000000
40
0.0000000000
40
0.0723147506
40
0.1540582560
40
0.2481995915
40
0.3578136713
40
0.4862746641
40
0.6359843930
40
0.8080614977
40
1.0000000000
40
1.0000000000
40
1.0000000000
40
1.0000000000
10
16.3099626772
20
-24.3665171452
30
0.0000000000
10
16.3169263441
20
-24.3629594967
30
0.0000000000
10
16.3316105078
20
-24.3550809069
30
0.0000000000
10
16.3547514732
20
-24.3414739954
30
0.0000000000
10
16.3808381747
20
-24.3249548332
30
0.0000000000
10
16.4107002752
20
-24.3049808618
30
0.0000000000
10
16.4453276231
20
-24.2813311159
30
0.0000000000
10
16.4857628451
20
-24.2542057293
30
0.0000000000
10
16.5328134409
20
-24.2246483339
30
0.0000000000
10
16.5672736623
20
-24.2055440488
30
0.0000000000
10
16.5858102189
20
-24.1962068148
30
0.0000000000
11
16.3099626772
21
-24.3665171452
31
0.0000000000
11
16.3306411836
21
-24.3554381087
31
0.0000000000
11
16.3535247817
21
-24.3420382504
31
0.0000000000
11
16.3793598093
21
-24.3257516782
31
0.0000000000
11
16.4089762848
21
-24.3060704272
31
0.0000000000
11
16.4434605452
21
-24.2826709860
31
0.0000000000
11
16.4838781205
21
-24.2557420219
31
0.0000000000
11
16.5312449185
21
-24.2262021283
31
0.0000000000
11
16.5858102189
21
-24.1962068148
31
0.0000000000
0
SPLINE
5
3BE
100
AcDbEntity
8
0
100
AcDbSpline
62
9
6
CONTINUOUS
70
0
71
3
72
10
73
6
74
4
42
0.0000001000
43
0.0000001000
44
0.0000000001
12
0.0059457481
22
-0.3046244240
32
0.0000000000
13
-0.2729100050
23
-0.1415608566
33
0.0000000000
40
0.0000000000
40
0.0000000000
40
0.0000000000
40
0.0000000000
40
0.4063351482
40
0.7495864993
40
1.0000000000
40
1.0000000000
40
1.0000000000
40
1.0000000000
10
16.3100027622
20
-24.3664956686
30
0.0000000000
10
16.3108080844
20
-24.4077555388
30
0.0000000000
10
16.3037547110
20
-24.4846252973
30
0.0000000000
10
16.2609101987
20
-24.5798499391
30
0.0000000000
10
16.2129734800
20
-24.6199997871
30
0.0000000000
10
16.1901933635
20
-24.6318160370
30
0.0000000000
11
16.3100027622
21
-24.3664956686
31
0.0000000000
11
16.2957965642
21
-24.4894810856
31
0.0000000000
11
16.2494102811
21
-24.5832139274
31
0.0000000000
11
16.1901933635
21
-24.6318160370
31
0.0000000000
0
SPLINE
5
3BF
100
AcDbEntity
8
0
100
AcDbSpline
62
9
6
CONTINUOUS
70
0
71
3
72
10
73
6
74
4
42
0.0000001000
43
0.0000001000
44
0.0000000001
12
0.0044713289
22
-0.3070005328
32
0.0000000000
13
-0.2754927929
23
-0.1409964623
33
0.0000000000
40
0.0000000000
40
0.0000000000
40
0.0000000000
40
0.0000000000
40
0.4070488826
40
0.7511225562
40
1.0000000000
40
1.0000000000
40
1.0000000000
40
1.0000000000
10
16.5858102189
20
-24.1962068148
30
0.0000000000
10
16.5864169020
20
-24.2378615560
30
0.0000000000
10
16.5788294391
20
-24.3154589910
30
0.0000000000
10
16.5349454807
20
-24.4110955697
30
0.0000000000
10
16.4862686689
20
-24.4511194005
30
0.0000000000
10
16.4634140216
20
-24.4628163469
30
0.0000000000
11
16.5858102189
21
-24.1962068148
31
0.0000000000
11
16.5707412821
21
-24.3202725109
31
0.0000000000
11
16.5231393095
21
-24.4145820291
31
0.0000000000
11
16.4634140216
21
-24.4628163469
31
0.0000000000
0
SPLINE
5
3C0
100
AcDbEntity
8
0
100
AcDbSpline
62
9
6
CONTINUOUS
70
0
71
3
72
11
73
7
74
5
42
0.0000001000
43
0.0000001000
44
0.0000000001
12
-0.1865148844
22
0.3024003765
32
0.0000000000
13
-0.3177845683
23
0.1588922841
33
0.0000000000
40
0.0000000000
40
0.0000000000
40
0.0000000000
40
0.0000000000
40
0.2184918121
40
0.4825008070
40
0.7557136777
40
1.0000000000
40
1.0000000000
40
1.0000000000
40
1.0000000000
10
15.1026015927
20
-25.9059530412
30
0.0000000000
10
15.0890176010
20
-25.8839290392
30
0.0000000000
10
15.0529411869
20
-25.8391448036
30
0.0000000000
10
14.9886154975
20
-25.7767509862
30
0.0000000000
10
14.9156247934
20
-25.7195839477
30
0.0000000000
10
14.8633133576
20
-25.6871972713
30
0.0000000000
10
14.8374365497
20
-25.6742588674
30
0.0000000000
11
15.1026015927
21
-25.9059530412
31
0.0000000000
11
15.0553205117
21
-25.8443841135
31
0.0000000000
11
14.9883248974
21
-25.7787321721
31
0.0000000000
11
14.9118142246
21
-25.7189921302
31
0.0000000000
11
14.8374365497
21
-25.6742588674
31
0.0000000000
0
SPLINE
5
3C1
100
AcDbEntity
8
0
100
AcDbSpline
62
9
6
CONTINUOUS
70
0
71
3
72
10
73
6
74
4
42
0.0000001000
43
0.0000001000
44
0.0000000001
12
-0.1608200954
22
-0.1941270278
32
0.0000000000
13
0.0000000000
23
-0.2520880918
33
0.0000000000
40
0.0000000000
40
0.0000000000
40
0.0000000000
40
0.0000000000
40
0.3423995913
40
0.6856738510
40
1.0000000000
40
1.0000000000
40
1.0000000000
40
1.0000000000
10
14.3071064639
20
-26.3144239104
30
0.0000000000
10
14.2887515522
20
-26.3365802487
30
0.0000000000
10
14.2571318942
20
-26.3854111642
30
0.0000000000
10
14.2268163716
20
-26.4643463083
30
0.0000000000
10
14.2187181162
20
-26.5197054578
30
0.0000000000
10
14.2187181162
20
-26.5461180842
30
0.0000000000
11
14.3071064639
21
-26.3144239104
31
0.0000000000
11
14.2598735984
21
-26.3866687123
31
0.0000000000
11
14.2291643829
21
-26.4675718112
31
0.0000000000
11
14.2187181162
21
-26.5461180842
31
0.0000000000
0
SPLINE
5
3C2
100
AcDbEntity
8
0
100
AcDbSpline
62
9
6
CONTINUOUS
70
0
71
3
72
9
73
5
74
3
42
0.0000001000
43
0.0000001000
44
0.0000000001
12
4.1986100827
22
0.2962079228
32
0.0000000000
13
4.1986100827
23
0.2962079228
33
0.0000000000
40
0.0000000000
40
0.0000000000
40
0.0000000000
40
0.0000000000
40
0.1652761986
40
1.0000000000
40
1.0000000000
40
1.0000000000
40
1.0000000000
10
17.2239219362
20
-16.7066442917
30
0.0000000000
10
17.4552320408
20
-16.6903255852
30
0.0000000000
10
18.8547687351
20
-16.5915896109
30
0.0000000000
10
20.2543054293
20
-16.4928536366
30
0.0000000000
10
21.4225320190
20
-16.4104363689
30
0.0000000000
11
17.2239219362
21
-16.7066442917
31
0.0000000000
11
17.9178522500
21
-16.6576881722
31
0.0000000000
11
21.4225320190
21
-16.4104363689
31
0.0000000000
0
SPLINE
5
3C3
100
AcDbEntity
8
0
100
AcDbSpline
62
9
6
CONTINUOUS
70
0
71
3
72
10
73
6
74
4
42
0.0000001000
43
0.0000001000
44
0.0000000001
12
-0.1608200954
22
-0.1941270278
32
0.0000000000
13
0.0000000000
23
-0.2520880918
33
0.0000000000
40
0.0000000000
40
0.0000000000
40
0.0000000000
40
0.0000000000
40
0.3423995913
40
0.6856738510
40
1.0000000000
40
1.0000000000
40
1.0000000000
40
1.0000000000
10
12.9636035796
20
-25.6426724682
30
0.0000000000
10
12.9452486680
20
-25.6648288066
30
0.0000000000
10
12.9136290100
20
-25.7136597220
30
0.0000000000
10
12.8833134873
20
-25.7925948662
30
0.0000000000
10
12.8752152320
20
-25.8479540157
30
0.0000000000
10
12.8752152320
20
-25.8743666421
30
0.0000000000
11
12.9636035796
21
-25.6426724682
31
0.0000000000
11
12.9163707142
21
-25.7149172702
31
0.0000000000
11
12.8856614987
21
-25.7958203691
31
0.0000000000
11
12.8752152320
21
-25.8743666421
31
0.0000000000
0
SPLINE
5
3C4
100
AcDbEntity
8
0
100
AcDbSpline
62
0
6
CONTINUOUS
70
0
71
3
72
10
73
6
74
4
42
0.0000001000
43
0.0000001000
44
0.0000000001
12
-0.5509876298
22
0.2755683034
32
0.0000000000
13
-0.5579181128
23
-0.2576650733
33
0.0000000000
40
0.0000000000
40
0.0000000000
40
0.0000000000
40
0.0000000000
40
0.3656536120
40
0.7099974045
40
1.0000000000
40
1.0000000000
40
1.0000000000
40
1.0000000000
10
21.5954301914
20
18.7538479715
30
0.0000000000
10
21.5282733190
20
18.7874354867
30
0.0000000000
10
21.3918634469
20
18.8409688364
30
0.0000000000
10
21.1854060827
20
18.8661747479
30
0.0000000000
10
21.0554364970
20
18.8359143335
30
0.0000000000
10
21.0015039300
20
18.8110064868
30
0.0000000000
11
21.5954301914
21
18.7538479715
31
0.0000000000
11
21.3850706920
21
18.8331234462
31
0.0000000000
11
21.1744804005
21
18.8539162067
31
0.0000000000
11
21.0015039300
21
18.8110064868
31
0.0000000000
0
SPLINE
5
3C5
100
AcDbEntity
8
0
100
AcDbSpline
62
9
6
CONTINUOUS
70
0
71
3
72
11
73
7
74
5
42
0.0000001000
43
0.0000001000
44
0.0000000001
12
-0.3249561016
22
-0.1624780508
32
0.0000000000
13
-0.3249561016
23
0.1624780508
33
0.0000000000
40
0.0000000000
40
0.0000000000
40
0.0000000000
40
0.0000000000
40
0.2314751089
40
0.4973489063
40
0.7635187405
40
1.0000000000
40
1.0000000000
40
1.0000000000
40
1.0000000000
10
14.5722715068
20
-26.8974320563
30
0.0000000000
10
14.5471984238
20
-26.9099685978
30
0.0000000000
10
14.4889822803
20
-26.9281905785
30
0.0000000000
10
14.3964311498
20
-26.9370794820
30
0.0000000000
10
14.3032557376
20
-26.9284812118
30
0.0000000000
10
14.2443334589
20
-26.9102397276
30
0.0000000000
10
14.2187181162
20
-26.8974320563
30
0.0000000000
11
14.5722715068
21
-26.8974320563
31
0.0000000000
11
14.4925601855
21
-26.9242373642
31
0.0000000000
11
14.3964640171
21
-26.9340427693
31
0.0000000000
11
14.3002223910
21
-26.9246109681
31
0.0000000000
11
14.2187181162
21
-26.8974320563
31
0.0000000000
0
SPLINE
5
3C6
100
AcDbEntity
8
0
100
AcDbSpline
62
9
6
CONTINUOUS
70
0
71
3
72
11
73
7
74
5
42
0.0000001000
43
0.0000001000
44
0.0000000001
12
-0.3249549290
22
-0.1624774645
32
0.0000000000
13
-0.3249549290
23
0.1624774645
33
0.0000000000
40
0.0000000000
40
0.0000000000
40
0.0000000000
40
0.0000000000
40
0.2353701082
40
0.5000000000
40
0.7646298918
40
1.0000000000
40
1.0000000000
40
1.0000000000
40
1.0000000000
10
14.5722715068
20
-26.5461180842
30
0.0000000000
10
14.5467766145
20
-26.5588655303
30
0.0000000000
10
14.4881840165
20
-26.5770496561
30
0.0000000000
10
14.3954948115
20
-26.5857359747
30
0.0000000000
10
14.3028056065
20
-26.5770496561
30
0.0000000000
10
14.2442130085
20
-26.5588655303
30
0.0000000000
10
14.2187181162
20
-26.5461180842
30
0.0000000000
11
14.5722715068
21
-26.5461180842
31
0.0000000000
11
14.4911656696
21
-26.5732146781
31
0.0000000000
11
14.3954948115
21
-26.5827297365
31
0.0000000000
11
14.2998239534
21
-26.5732146781
31
0.0000000000
11
14.2187181162
21
-26.5461180842
31
0.0000000000
0
SPLINE
5
3C7
100
AcDbEntity
8
0
100
AcDbSpline
62
9
6
CONTINUOUS
70
0
71
3
72
9
73
5
74
3
42
0.0000001000
43
0.0000001000
44
0.0000000001
12
4.0294020544
22
3.8160788615
32
0.0000000000
13
4.0294020544
23
3.8160788615
33
0.0000000000
40
0.0000000000
40
0.0000000000
40
0.0000000000
40
0.0000000000
40
0.1722166973
40
1.0000000000
40
1.0000000000
40
1.0000000000
40
1.0000000000
10
17.2239219362
20
12.5295447916
30
0.0000000000
10
17.4552320408
20
12.7486089576
30
0.0000000000
10
18.7983660590
20
14.0206352448
30
0.0000000000
10
20.1415000771
20
15.2926615319
30
0.0000000000
10
21.2533239907
20
16.3456236531
30
0.0000000000
11
17.2239219362
21
12.5295447916
31
0.0000000000
11
17.9178522500
21
13.1867372896
31
0.0000000000
11
21.2533239907
21
16.3456236531
31
0.0000000000
0
SPLINE
5
3C8
100
AcDbEntity
8
0
100
AcDbSpline
62
9
6
CONTINUOUS
70
0
71
3
72
8
73
4
74
2
42
0.0000001000
43
0.0000001000
44
0.0000000001
12
0.1692080283
22
0.1602498761
32
0.0000000000
13
0.1692080283
23
0.1602498761
33
0.0000000000
40
0.0000000000
40
0.0000000000
40
0.0000000000
40
0.0000000000
40
1.0000000000
40
1.0000000000
40
1.0000000000
40
1.0000000000
10
21.2533239907
20
16.3456236531
30
0.0000000000
10
21.3097266668
20
16.3990402784
30
0.0000000000
10
21.3661293429
20
16.4524569038
30
0.0000000000
10
21.4225320190
20
16.5058735292
30
0.0000000000
11
21.2533239907
21
16.3456236531
31
0.0000000000
11
21.4225320190
21
16.5058735292
31
0.0000000000
0
SPLINE
5
3C9
100
AcDbEntity
8
0
100
AcDbSpline
62
0
6
CONTINUOUS
70
0
71
3
72
15
73
11
74
9
42
0.0000001000
43
0.0000001000
44
0.0000000001
12
-0.6563339422
22
-0.3178567338
32
0.0000000000
13
-0.6522620007
23
0.3261310003
33
0.0000000000
40
0.0000000000
40
0.0000000000
40
0.0000000000
40
0.0000000000
40
0.1116241460
40
0.2340492219
40
0.3642315565
40
0.4985371605
40
0.6330449557
40
0.7638178300
40
0.8871770791
40
1.0000000000
40
1.0000000000
40
1.0000000000
40
1.0000000000
10
11.3943519170
20
16.3386007349
30
0.0000000000
10
11.3699310117
20
16.3267739061
30
0.0000000000
10
11.3166560815
20
16.3061710896
30
0.0000000000
10
11.2305740875
20
16.2847286155
30
0.0000000000
10
11.1372306551
20
16.2718940939
30
0.0000000000
10
11.0401642384
20
16.2681728743
30
0.0000000000
10
10.9430409711
20
16.2737063076
30
0.0000000000
10
10.8495317038
20
16.2882866266
30
0.0000000000
10
10.7631858642
20
16.3113436752
30
0.0000000000
10
10.7097447246
20
16.3329164275
30
0.0000000000
10
10.6852146899
20
16.3451814449
30
0.0000000000
11
11.3943519170
21
16.3386007349
31
0.0000000000
11
11.3186506161
21
16.3086740999
31
0.0000000000
11
11.2321159210
21
16.2867100730
31
0.0000000000
11
11.1380956396
21
16.2735587798
31
0.0000000000
11
11.0402280054
21
16.2697298134
31
0.0000000000
11
10.9423004681
21
16.2753722290
31
0.0000000000
11
10.8481047873
21
16.2902684499
31
0.0000000000
11
10.7612886190
21
16.3138423865
31
0.0000000000
11
10.6852146899
21
16.3451814449
31
0.0000000000
0
SPLINE
5
3CA
100
AcDbEntity
8
0
100
AcDbSpline
62
0
6
CONTINUOUS
70
0
71
3
72
15
73
11
74
9
42
0.0000001000
43
0.0000001000
44
0.0000000001
12
0.6530083801
22
-0.3265041900
32
0.0000000000
13
0.6514917591
23
0.3295199817
33
0.0000000000
40
0.0000000000
40
0.0000000000
40
0.0000000000
40
0.0000000000
40
0.1126087417
40
0.2356635914
40
0.3661332835
40
0.5004165574
40
0.6346426413
40
0.7649447023
40
0.8877336614
40
1.0000000000
40
1.0000000000
40
1.0000000000
40
1.0000000000
10
10.6852146899
20
17.5425004805
30
0.0000000000
10
10.7097261739
20
17.5302447385
30
0.0000000000
10
10.7631576899
20
17.5087833389
30
0.0000000000
10
10.8495254093
20
17.4861584743
30
0.0000000000
10
10.9430538070
20
17.4722784388
30
0.0000000000
10
11.0401962894
20
17.4676862108
30
0.0000000000
10
11.1372846622
20
17.4725540625
30
0.0000000000
10
11.2306532656
20
17.4866991930
30
0.0000000000
10
11.3167622357
20
17.5095684530
30
0.0000000000
10
11.3699717188
20
17.5311902337
30
0.0000000000
10
11.3943519170
20
17.5435215676
30
0.0000000000
11
10.6852146899
21
17.5425004805
31
0.0000000000
11
10.7612823435
21
17.5113098312
31
0.0000000000
11
10.8480917079
21
17.4881697760
31
0.0000000000
11
10.9422823182
21
17.4739760865
31
0.0000000000
11
11.0402079751
21
17.4692782125
31
0.0000000000
11
11.1380778924
21
17.4742580127
31
0.0000000000
11
11.2321034418
21
17.4887227148
31
0.0000000000
11
11.3186448135
21
17.5121123777
31
0.0000000000
11
11.3943519170
21
17.5435215676
31
0.0000000000
0
SPLINE
5
3CB
100
AcDbEntity
8
0
100
AcDbSpline
62
0
6
CONTINUOUS
70
0
71
3
72
11
73
7
74
5
42
0.0000001000
43
0.0000001000
44
0.0000000001
12
-0.2135511355
22
0.1067755677
32
0.0000000000
13
-0.0000387367
23
0.2398394103
33
0.0000000000
40
0.0000000000
40
0.0000000000
40
0.0000000000
40
0.0000000000
40
0.3057112858
40
0.5702352185
40
0.7980365643
40
1.0000000000
40
1.0000000000
40
1.0000000000
40
1.0000000000
10
5.1657208374
20
19.1049283711
30
0.0000000000
10
5.1439591733
20
19.1158092031
30
0.0000000000
10
5.1046770130
20
19.1390436751
30
0.0000000000
10
5.0569843148
20
19.1817716120
30
0.0000000000
10
5.0265524149
20
19.2289893432
30
0.0000000000
10
5.0192768776
20
19.2633494660
30
0.0000000000
10
5.0192742698
20
19.2794957298
30
0.0000000000
11
5.1657208374
21
19.1049283711
31
0.0000000000
11
5.1033352819
21
19.1428190721
31
0.0000000000
11
5.0570538801
21
19.1857940100
31
0.0000000000
11
5.0286683484
21
19.2321885524
31
0.0000000000
11
5.0192742698
21
19.2794957298
31
0.0000000000
0
SPLINE
5
3CC
100
AcDbEntity
8
0
100
AcDbSpline
62
0
6
CONTINUOUS
70
0
71
3
72
12
73
8
74
6
42
0.0000001000
43
0.0000001000
44
0.0000000001
12
0.0313238515
22
-0.2919627047
32
0.0000000000
13
-0.2680364497
23
-0.1240211512
33
0.0000000000
40
0.0000000000
40
0.0000000000
40
0.0000000000
40
0.0000000000
40
0.2613584604
40
0.4933668909
40
0.6987859377
40
0.8862491261
40
1.0000000000
40
1.0000000000
40
1.0000000000
40
1.0000000000
10
13.2486128139
20
-20.2748692731
30
0.0000000000
10
13.2513417318
20
-20.3003049141
30
0.0000000000
10
13.2529969615
20
-20.3488404163
30
0.0000000000
10
13.2421449337
20
-20.4168958815
30
0.0000000000
10
13.2176309505
20
-20.4738258973
30
0.0000000000
10
13.1839780161
20
-20.5116344917
30
0.0000000000
10
13.1584064237
20
-20.5269913967
30
0.0000000000
10
13.1482432969
20
-20.5316939014
30
0.0000000000
11
13.2486128139
21
-20.2748692731
31
0.0000000000
11
13.2504807683
21
-20.3515913701
31
0.0000000000
11
13.2388156600
21
-20.4187117923
31
0.0000000000
11
13.2140056677
21
-20.4736920794
31
0.0000000000
11
13.1769267689
21
-20.5143769254
31
0.0000000000
11
13.1482432969
21
-20.5316939014
31
0.0000000000
0
SPLINE
5
3CD
100
AcDbEntity
8
0
100
AcDbSpline
62
0
6
CONTINUOUS
70
0
71
3
72
11
73
7
74
5
42
0.0000001000
43
0.0000001000
44
0.0000000001
12
0.3326638619
22
0.1325200678
32
0.0000000000
13
0.3191833561
23
-0.1595916781
33
0.0000000000
40
0.0000000000
40
0.0000000000
40
0.0000000000
40
0.0000000000
40
0.0623902555
40
0.3571798174
40
0.6665748512
40
1.0000000000
40
1.0000000000
40
1.0000000000
40
1.0000000000
10
-15.8386900020
20
27.9508198797
30
0.0000000000
10
-15.8317716742
20
27.9535758667
30
0.0000000000
10
-15.7916713523
20
27.9681015456
30
0.0000000000
10
-15.7123013910
20
27.9812552201
30
0.0000000000
10
-15.6002899833
20
27.9679300652
30
0.0000000000
10
-15.5281355779
20
27.9404158816
30
0.0000000000
10
-15.4926609919
20
27.9226785886
30
0.0000000000
11
-15.8386900020
21
27.9508198797
31
0.0000000000
11
-15.8176885269
21
27.9584222584
31
0.0000000000
11
-15.7139838850
21
27.9760846313
31
0.0000000000
11
-15.6042356341
21
27.9640140403
31
0.0000000000
11
-15.4926609919
21
27.9226785886
31
0.0000000000
0
SPLINE
5
3CE
100
AcDbEntity
8
0
100
AcDbSpline
62
0
6
CONTINUOUS
70
0
71
3
72
8
73
4
74
2
42
0.0000001000
43
0.0000001000
44
0.0000000001
12
-0.0214031136
22
-0.0400744287
32
0.0000000000
13
-0.0192078460
23
-0.0411882542
33
0.0000000000
40
0.0000000000
40
0.0000000000
40
0.0000000000
40
0.0000000000
40
1.0000000000
40
1.0000000000
40
1.0000000000
40
1.0000000000
10
-16.4268422380
20
-7.6067251196
30
0.0000000000
10
-16.4339766092
20
-7.6200832625
30
0.0000000000
10
-16.4407380817
20
-7.6336421646
30
0.0000000000
10
-16.4471406970
20
-7.6473715827
30
0.0000000000
11
-16.4268422380
21
-7.6067251196
31
0.0000000000
11
-16.4471406970
21
-7.6473715827
31
0.0000000000
0
SPLINE
5
3CF
100
AcDbEntity
8
0
100
AcDbSpline
62
0
6
CONTINUOUS
70
0
71
3
72
8
73
4
74
2
42
0.0000001000
43
0.0000001000
44
0.0000000001
12
0.0763644345
22
-0.0361713957
32
0.0000000000
13
0.0799191447
23
-0.0282197389
33
0.0000000000
40
0.0000000000
40
0.0000000000
40
0.0000000000
40
0.0000000000
40
1.0000000000
40
1.0000000000
40
1.0000000000
40
1.0000000000
10
-15.7707158776
20
-9.5241411445
30
0.0000000000
10
-15.7452610660
20
-9.5361982764
30
0.0000000000
10
-15.7191486020
20
-9.5470547346
30
0.0000000000
10
-15.6925088871
20
-9.5564613142
30
0.0000000000
11
-15.7707158776
21
-9.5241411445
31
0.0000000000
11
-15.6925088871
21
-9.5564613142
31
0.0000000000
0
SPLINE
5
3D0
100
AcDbEntity
8
0
100
AcDbSpline
62
0
6
CONTINUOUS
70
0
71
3
72
12
73
8
74
6
42
0.0000001000
43
0.0000001000
44
0.0000000001
12
-0.0527163453
22
-0.5930297731
32
0.0000000000
13
-0.5681904480
23
-0.1842368260
33
0.0000000000
40
0.0000000000
40
0.0000000000
40
0.0000000000
40
0.0000000000
40
0.2302653248
40
0.4435293699
40
0.6400788011
40
0.8231509783
40
1.0000000000
40
1.0000000000
40
1.0000000000
40
1.0000000000
10
11.7231517323
20
-25.6568145417
30
0.0000000000
10
11.7191054835
20
-25.7023326061
30
0.0000000000
10
11.7045592721
20
-25.7896413306
30
0.0000000000
10
11.6610426967
20
-25.9098305431
30
0.0000000000
10
11.5977403885
20
-26.0102891409
30
0.0000000000
10
11.5162719879
20
-26.0868643308
30
0.0000000000
10
11.4514629309
20
-26.1193635890
30
0.0000000000
10
11.4179682892
20
-26.1302242898
30
0.0000000000
11
11.7231517323
21
-25.6568145417
31
0.0000000000
11
11.6997948959
21
-25.7919028649
31
0.0000000000
11
11.6556020894
21
-25.9109345343
31
0.0000000000
11
11.5922683137
21
-26.0093334480
31
0.0000000000
11
11.5122262859
21
-26.0833149437
31
0.0000000000
11
11.4179682892
21
-26.1302242898
31
0.0000000000
0
SPLINE
5
3D1
100
AcDbEntity
8
0
100
AcDbSpline
62
0
6
CONTINUOUS
70
0
71
3
72
15
73
11
74
9
42
0.0000001000
43
0.0000001000
44
0.0000000001
12
1.0559052887
22
-0.5279526443
32
0.0000000000
13
-0.1045296779
23
-1.1759011522
33
0.0000000000
40
0.0000000000
40
0.0000000000
40
0.0000000000
40
0.0000000000
40
0.1093617680
40
0.2271657961
40
0.3521463471
40
0.4822284473
40
0.6148302427
40
0.7471365696
40
0.8763591092
40
1.0000000000
40
1.0000000000
40
1.0000000000
40
1.0000000000
10
14.5595495217
20
12.8965733317
30
0.0000000000
10
14.5980414115
20
12.8773273869
30
0.0000000000
10
14.6737883648
20
12.8286191417
30
0.0000000000
10
14.7757643495
20
12.7339487435
30
0.0000000000
10
14.8670438282
20
12.6183869996
30
0.0000000000
10
14.9442429963
20
12.4862779814
30
0.0000000000
10
15.0045415925
20
12.3425430800
30
0.0000000000
10
15.0456880903
20
12.1925389196
30
0.0000000000
10
15.0661448060
20
12.0419127897
30
0.0000000000
10
15.0654291827
20
11.9419610931
30
0.0000000000
10
15.0611211352
20
11.8934979377
30
0.0000000000
11
14.5595495217
21
12.8965733317
31
0.0000000000
11
14.6686642068
21
12.8275641060
31
0.0000000000
11
14.7711265050
21
12.7335293502
31
0.0000000000
11
14.8629983751
21
12.6180785945
31
0.0000000000
11
14.9407470715
21
12.4856477767
31
0.0000000000
11
15.0013834257
21
12.3413270893
31
0.0000000000
11
15.0425772151
21
12.1906645040
31
0.0000000000
11
15.0627470504
21
12.0394516519
31
0.0000000000
11
15.0611211352
21
11.8934979377
31
0.0000000000
0
SPLINE
5
3D2
100
AcDbEntity
8
0
100
AcDbSpline
62
9
6
CONTINUOUS
70
0
71
3
72
9
73
5
74
3
42
0.0000001000
43
0.0000001000
44
0.0000000001
12
-0.3361030982
22
0.1680833477
32
0.0000000000
13
-0.2652297936
23
0.2670090456
33
0.0000000000
40
0.0000000000
40
0.0000000000
40
0.0000000000
40
0.0000000000
40
0.6911216836
40
1.0000000000
40
1.0000000000
40
1.0000000000
40
1.0000000000
10
-16.4612453511
20
-9.7587625624
30
0.0000000000
10
-16.5386747308
20
-9.7200405470
30
0.0000000000
10
-16.6430749332
20
-9.6482784430
30
0.0000000000
10
-16.7351684346
20
-9.5628918857
30
0.0000000000
10
-16.7624763453
20
-9.5354007842
30
0.0000000000
11
-16.4612453511
21
-9.7587625624
31
0.0000000000
11
-16.6771029325
21
-9.6143401458
31
0.0000000000
11
-16.7624763453
21
-9.5354007842
31
0.0000000000
0
SPLINE
5
3D3
100
AcDbEntity
8
0
100
AcDbSpline
62
9
6
CONTINUOUS
70
0
71
3
72
8
73
4
74
2
42
0.0000001000
43
0.0000001000
44
0.0000000001
12
-0.0134369850
22
0.0934571718
32
0.0000000000
13
-0.0078635373
23
0.0940990586
33
0.0000000000
40
0.0000000000
40
0.0000000000
40
0.0000000000
40
0.0000000000
40
1.0000000000
40
1.0000000000
40
1.0000000000
40
1.0000000000
10
-17.2413678292
20
-8.5560046079
30
0.0000000000
10
-17.2458468242
20
-8.5248522172
30
0.0000000000
10
-17.2494351403
20
-8.4935641777
30
0.0000000000
10
-17.2520563194
20
-8.4621978248
30
0.0000000000
11
-17.2413678292
21
-8.5560046079
31
0.0000000000
11
-17.2520563194
21
-8.4621978248
31
0.0000000000
0
SPLINE
5
3D4
100
AcDbEntity
8
0
100
AcDbSpline
62
9
6
CONTINUOUS
70
0
71
3
72
12
73
8
74
6
42
0.0000001000
43
0.0000001000
44
0.0000000001
12
-0.0870410429
22
1.0415770754
32
0.0000000000
13
0.9879291336
23
0.3580896047
33
0.0000000000
40
0.0000000000
40
0.0000000000
40
0.0000000000
40
0.0000000000
40
0.1838797556
40
0.4385556588
40
0.6656070659
40
0.8696106639
40
1.0000000000
40
1.0000000000
40
1.0000000000
40
1.0000000000
10
-17.2520563194
20
-8.4621978248
30
0.0000000000
10
-17.2573913480
20
-8.3983561788
30
0.0000000000
10
-17.2605598409
20
-8.2453192453
30
0.0000000000
10
-17.2252136625
20
-8.0144240394
30
0.0000000000
10
-17.1283562352
20
-7.7927224813
30
0.0000000000
10
-16.9926861420
20
-7.6459208329
30
0.0000000000
10
-16.8877755388
20
-7.5912156126
30
0.0000000000
10
-16.8448370642
20
-7.5756519240
30
0.0000000000
11
-17.2520563194
21
-8.4621978248
31
0.0000000000
11
-17.2553971430
21
-8.2701830521
31
0.0000000000
11
-17.2118790745
21
-8.0080170498
31
0.0000000000
11
-17.1130936541
21
-7.7926662290
31
0.0000000000
11
-16.9659255841
21
-7.6388541139
31
0.0000000000
11
-16.8448370642
21
-7.5756519240
31
0.0000000000
0
SPLINE
5
3D5
100
AcDbEntity
8
0
100
AcDbSpline
62
9
6
CONTINUOUS
70
0
71
3
72
10
73
6
74
4
42
0.0000001000
43
0.0000001000
44
0.0000000001
12
-0.4819608822
22
-0.1742335981
32
0.0000000000
13
-0.4551860101
23
0.2275035429
33
0.0000000000
40
0.0000000000
40
0.0000000000
40
0.0000000000
40
0.0000000000
40
0.1294275135
40
0.5424754357
40
1.0000000000
40
1.0000000000
40
1.0000000000
40
1.0000000000
10
-15.9665332399
20
-9.8099053135
30
0.0000000000
10
-15.9873262394
20
-9.8174221873
30
0.0000000000
10
-16.0764846177
20
-9.8432063173
30
0.0000000000
10
-16.2502004076
20
-9.8435828795
30
0.0000000000
10
-16.3918257574
20
-9.7934587155
30
0.0000000000
10
-16.4612453511
20
-9.7587625624
30
0.0000000000
11
-15.9665332399
21
-9.8099053135
31
0.0000000000
11
-16.0301593435
21
-9.8282695970
31
0.0000000000
11
-16.2403115363
21
-9.8322089829
31
0.0000000000
11
-16.4612453511
21
-9.7587625624
31
0.0000000000
0
SPLINE
5
3D6
100
AcDbEntity
8
0
100
AcDbSpline
62
9
6
CONTINUOUS
70
0
71
3
72
18
73
14
74
12
42
0.0000001000
43
0.0000001000
44
0.0000000001
12
-2.7406841456
22
1.3709098955
32
0.0000000000
13
3.0823103061
23
-0.1282647979
33
0.0000000000
40
0.0000000000
40
0.0000000000
40
0.0000000000
40
0.0000000000
40
0.0917114259
40
0.1934481871
40
0.3019794516
40
0.4129249160
40
0.5220447894
40
0.6252272092
40
0.7194164247
40
0.8034438923
40
0.8789467342
40
0.9507692912
40
1.0000000000
40
1.0000000000
40
1.0000000000
40
1.0000000000
10
-16.5398079366
20
-9.8784000537
30
0.0000000000
10
-16.6235919536
20
-9.8364906866
30
0.0000000000
10
-16.7882688516
20
-9.7232436349
30
0.0000000000
10
-17.0009387346
20
-9.4973694879
30
0.0000000000
10
-17.1798405911
20
-9.2202842580
30
0.0000000000
10
-17.3125610034
20
-8.9102963200
30
0.0000000000
10
-17.3903247400
20
-8.5876937799
30
0.0000000000
10
-17.4077848385
20
-8.2731535133
30
0.0000000000
10
-17.3631357387
20
-7.9866064028
30
0.0000000000
10
-17.2573347081
20
-7.7459726238
30
0.0000000000
10
-17.0929236833
20
-7.5685846798
30
0.0000000000
10
-16.9038924432
20
-7.4850016430
30
0.0000000000
10
-16.7790419607
20
-7.4755796861
30
0.0000000000
10
-16.7284605204
20
-7.4776845417
30
0.0000000000
11
-16.5398079366
21
-9.8784000537
31
0.0000000000
11
-16.7733423135
21
-9.7220443574
31
0.0000000000
11
-16.9889030643
21
-9.4968084376
31
0.0000000000
11
-17.1702816949
21
-9.2180330934
31
0.0000000000
11
-17.3041628002
21
-8.9055182366
31
0.0000000000
11
-17.3814556220
21
-8.5801833610
31
0.0000000000
11
-17.3966653393
21
-8.2643538742
31
0.0000000000
11
-17.3486636654
21
-7.9797368722
31
0.0000000000
11
-17.2407833287
21
-7.7459287021
31
0.0000000000
11
-17.0805934211
21
-7.5789771844
31
0.0000000000
11
-16.8791974019
21
-7.4901987903
31
0.0000000000
11
-16.7284605204
21
-7.4776845417
31
0.0000000000
0
SPLINE
5
3D7
100
AcDbEntity
8
0
100
AcDbSpline
62
9
6
CONTINUOUS
70
0
71
3
72
9
73
5
74
3
42
0.0000001000
43
0.0000001000
44
0.0000000001
12
0.2433091560
22
-0.0101248728
32
0.0000000000
13
0.2264984984
23
-0.0875977260
33
0.0000000000
40
0.0000000000
40
0.0000000000
40
0.0000000000
40
0.0000000000
40
0.3224177740
40
1.0000000000
40
1.0000000000
40
1.0000000000
40
1.0000000000
10
-16.7284605204
20
-7.4776845417
30
0.0000000000
10
-16.7023114549
20
-7.4787726880
30
0.0000000000
10
-16.6213688353
20
-7.4870686241
30
0.0000000000
10
-16.5430345121
20
-7.5092730747
30
0.0000000000
10
-16.4918773932
20
-7.5290579621
30
0.0000000000
11
-16.7284605204
21
-7.4776845417
31
0.0000000000
11
-16.6503879173
21
-7.4855680374
31
0.0000000000
11
-16.4918773932
21
-7.5290579621
31
0.0000000000
0
SPLINE
5
3D8
100
AcDbEntity
8
0
100
AcDbSpline
62
9
6
CONTINUOUS
70
0
71
3
72
8
73
4
74
2
42
0.0000001000
43
0.0000001000
44
0.0000000001
12
0.0827665252
22
-0.0320097460
32
0.0000000000
13
0.0790742495
23
-0.0395058886
33
0.0000000000
40
0.0000000000
40
0.0000000000
40
0.0000000000
40
0.0000000000
40
1.0000000000
40
1.0000000000
40
1.0000000000
40
1.0000000000
10
-16.4918773932
20
-7.5290579621
30
0.0000000000
10
-16.4642885515
20
-7.5397278774
30
0.0000000000
10
-16.4372583637
20
-7.5517762445
30
0.0000000000
10
-16.4109002805
20
-7.5649448740
30
0.0000000000
11
-16.4918773932
21
-7.5290579621
31
0.0000000000
11
-16.4109002805
21
-7.5649448740
31
0.0000000000
0
SPLINE
5
3D9
100
AcDbEntity
8
0
100
AcDbSpline
62
9
6
CONTINUOUS
70
0
71
3
72
8
73
4
74
2
42
0.0000001000
43
0.0000001000
44
0.0000000001
12
0.0816987897
22
-0.0408648762
32
0.0000000000
13
0.0779819594
23
-0.0478935201
33
0.0000000000
40
0.0000000000
40
0.0000000000
40
0.0000000000
40
0.0000000000
40
1.0000000000
40
1.0000000000
40
1.0000000000
40
1.0000000000
10
-16.4109002805
20
-7.5649448740
30
0.0000000000
10
-16.3836673506
20
-7.5785664994
30
0.0000000000
10
-16.3570417022
20
-7.5934410626
30
0.0000000000
10
-16.3310477157
20
-7.6094055693
30
0.0000000000
11
-16.4109002805
21
-7.5649448740
31
0.0000000000
11
-16.3310477157
21
-7.6094055693
31
0.0000000000
0
SPLINE
5
3DA
100
AcDbEntity
8
0
100
AcDbSpline
62
9
6
CONTINUOUS
70
0
71
3
72
8
73
4
74
2
42
0.0000001000
43
0.0000001000
44
0.0000000001
12
0.0797478590
22
-0.0489780677
32
0.0000000000
13
0.0757060728
23
-0.0552943041
33
0.0000000000
40
0.0000000000
40
0.0000000000
40
0.0000000000
40
0.0000000000
40
1.0000000000
40
1.0000000000
40
1.0000000000
40
1.0000000000
10
-16.3310477157
20
-7.6094055693
30
0.0000000000
10
-16.3044650961
20
-7.6257315918
30
0.0000000000
10
-16.2785430702
20
-7.6431974804
30
0.0000000000
10
-16.2533077126
20
-7.6616289151
30
0.0000000000
11
-16.3310477157
21
-7.6094055693
31
0.0000000000
11
-16.2533077126
21
-7.6616289151
31
0.0000000000
0
SPLINE
5
3DB
100
AcDbEntity
8
0
100
AcDbSpline
62
9
6
CONTINUOUS
70
0
71
3
72
16
73
12
74
10
42
0.0000001000
43
0.0000001000
44
0.0000000001
12
2.0313379069
22
-1.4836513339
32
0.0000000000
13
-2.0580111286
23
-1.4542599337
33
0.0000000000
40
0.0000000000
40
0.0000000000
40
0.0000000000
40
0.0000000000
40
0.0383753063
40
0.1626539848
40
0.2952477340
40
0.4308464863
40
0.5642679971
40
0.6904391505
40
0.8055407828
40
0.9080637135
40
1.0000000000
40
1.0000000000
40
1.0000000000
40
1.0000000000
10
-16.2533077126
20
-7.6616289151
30
0.0000000000
10
-16.2273233078
20
-7.6806074399
30
0.0000000000
10
-16.1202740301
20
-7.7653870689
30
0.0000000000
10
-15.9506287396
20
-7.9464553750
30
0.0000000000
10
-15.7727492674
20
-8.2239771286
30
0.0000000000
10
-15.6411010565
20
-8.5343080937
30
0.0000000000
10
-15.5641433456
20
-8.8570815779
30
0.0000000000
10
-15.5469890872
20
-9.1715950938
30
0.0000000000
10
-15.5913496242
20
-9.4579481677
30
0.0000000000
10
-15.6963451101
20
-9.6983255931
30
0.0000000000
10
-15.8091086745
20
-9.8205719028
30
0.0000000000
10
-15.8721773081
20
-9.8651383221
30
0.0000000000
11
-16.2533077126
21
-7.6616289151
31
0.0000000000
11
-16.1775670759
21
-7.7214453308
31
0.0000000000
11
-15.9627033942
21
-7.9469982128
31
0.0000000000
11
-15.7823337670
21
-8.2261523191
31
0.0000000000
11
-15.6494819344
21
-8.5390007073
31
0.0000000000
11
-15.5729457622
21
-8.8645554764
31
0.0000000000
11
-15.5580164959
21
-9.1804597739
31
0.0000000000
11
-15.6057656600
21
-9.4649913750
31
0.0000000000
11
-15.7129466014
21
-9.6985538888
31
0.0000000000
11
-15.8721773081
21
-9.8651383221
31
0.0000000000
0
SPLINE
5
3DC
100
AcDbEntity
8
0
100
AcDbSpline
62
9
6
CONTINUOUS
70
0
71
3
72
10
73
6
74
4
42
0.0000001000
43
0.0000001000
44
0.0000000001
12
-0.5740356387
22
-0.4056329036
32
0.0000000000
13
-0.6254470676
23
0.3124551153
33
0.0000000000
40
0.0000000000
40
0.0000000000
40
0.0000000000
40
0.0000000000
40
0.3132933433
40
0.6395390510
40
1.0000000000
40
1.0000000000
40
1.0000000000
40
1.0000000000
10
-15.8721773081
20
-9.8651383221
30
0.0000000000
10
-15.9321244896
20
-9.9074990183
30
0.0000000000
10
-16.0724906706
20
-9.9695735596
30
0.0000000000
10
-16.3111591571
20
-9.9702461827
30
0.0000000000
10
-16.4646581888
20
-9.9159426761
30
0.0000000000
10
-16.5398079366
20
-9.8784000537
30
0.0000000000
11
-15.8721773081
21
-9.8651383221
31
0.0000000000
11
-16.0725927835
21
-9.9535232021
31
0.0000000000
11
-16.3006465494
21
-9.9578621754
31
0.0000000000
11
-16.5398079366
21
-9.8784000537
31
0.0000000000
0
SPLINE
5
3DD
100
AcDbEntity
8
0
100
AcDbSpline
62
9
6
CONTINUOUS
70
0
71
3
72
11
73
7
74
5
42
0.0000001000
43
0.0000001000
44
0.0000000001
12
-0.9049899573
22
0.4562446343
32
0.0000000000
13
0.0367401262
23
1.0066913085
33
0.0000000000
40
0.0000000000
40
0.0000000000
40
0.0000000000
40
0.0000000000
40
0.1738519141
40
0.4175803736
40
0.6915517252
40
1.0000000000
40
1.0000000000
40
1.0000000000
40
1.0000000000
10
6.5234374872
20
-27.3837618371
30
0.0000000000
10
6.4709927418
20
-27.3573221695
30
0.0000000000
10
6.3544778825
20
-27.2744291262
30
0.0000000000
10
6.2197221553
20
-27.0793773750
30
0.0000000000
10
6.1382884855
20
-26.8107581994
30
0.0000000000
10
6.1274966223
20
-26.6137574133
30
0.0000000000
10
6.1312740985
20
-26.5102533475
30
0.0000000000
11
6.5234374872
21
-27.3837618371
31
0.0000000000
11
6.3800668850
21
-27.2822534481
31
0.0000000000
11
6.2366640555
21
-27.0829621778
31
0.0000000000
11
6.1520022969
21
-26.8202801051
31
0.0000000000
11
6.1312740985
21
-26.5102533475
31
0.0000000000
0
SPLINE
5
3DE
100
AcDbEntity
8
0
100
AcDbSpline
62
9
6
CONTINUOUS
70
0
71
3
72
11
73
7
74
5
42
0.0000001000
43
0.0000001000
44
0.0000000001
12
0.5708220578
22
0.1833625821
32
0.0000000000
13
0.0606006030
23
0.5926285407
33
0.0000000000
40
0.0000000000
40
0.0000000000
40
0.0000000000
40
0.0000000000
40
0.0357242953
40
0.3204392165
40
0.6382785263
40
1.0000000000
40
1.0000000000
40
1.0000000000
40
1.0000000000
10
7.3814047331
20
-27.4390398278
30
0.0000000000
10
7.3882021384
20
-27.4368563281
30
0.0000000000
10
7.4485350336
20
-27.4153773509
30
0.0000000000
10
7.5551101979
20
-27.3384257772
30
0.0000000000
10
7.6536007123
20
-27.1695147259
30
0.0000000000
10
7.6831471277
20
-27.0358722950
30
0.0000000000
10
7.6904539741
20
-26.9644168053
30
0.0000000000
11
7.3814047331
21
-27.4390398278
31
0.0000000000
11
7.4015697443
21
-27.4318539420
31
0.0000000000
11
7.5408571779
21
-27.3350728272
31
0.0000000000
11
7.6403982643
21
-27.1740066882
31
0.0000000000
11
7.6904539741
21
-26.9644168053
31
0.0000000000
0
SPLINE
5
3DF
100
AcDbEntity
8
0
100
AcDbSpline
62
9
6
CONTINUOUS
70
0
71
3
72
13
73
9
74
7
42
0.0000001000
43
0.0000001000
44
0.0000000001
12
-0.6952671701
22
-0.2251680075
32
0.0000000000
13
0.0261793118
23
0.7303504043
33
0.0000000000
40
0.0000000000
40
0.0000000000
40
0.0000000000
40
0.0000000000
40
0.1665417139
40
0.3185581486
40
0.4668812730
40
0.6249987541
40
0.8021283396
40
1.0000000000
40
1.0000000000
40
1.0000000000
40
1.0000000000
10
7.6904539741
20
-26.9644168053
30
0.0000000000
10
7.6518569788
20
-26.9769167606
30
0.0000000000
10
7.5742247897
20
-26.9916535625
30
0.0000000000
10
7.4592345397
20
-26.9728351260
30
0.0000000000
10
7.3627128745
20
-26.9106408109
30
0.0000000000
10
7.2940007741
20
-26.8119346312
30
0.0000000000
10
7.2555549718
20
-26.6862530788
30
0.0000000000
10
7.2504188067
20
-26.5942316779
30
0.0000000000
10
7.2521455214
20
-26.5460597955
30
0.0000000000
11
7.6904539741
21
-26.9644168053
31
0.0000000000
11
7.5704589910
21
-26.9847882663
31
0.0000000000
11
7.4610762619
21
-26.9653494949
31
0.0000000000
11
7.3696885144
21
-26.9070547162
31
0.0000000000
11
7.3019209276
21
-26.8134567001
31
0.0000000000
11
7.2619384324
21
-26.6903362838
31
0.0000000000
11
7.2521455214
21
-26.5460597955
31
0.0000000000
0
SPLINE
5
3E0
100
AcDbEntity
8
0
100
AcDbSpline
62
9
6
CONTINUOUS
70
0
71
3
72
11
73
7
74
5
42
0.0000001000
43
0.0000001000
44
0.0000000001
12
1.3154738803
22
36.4280056194
32
0.0000000000
13
5.0454616409
23
36.1008778532
33
0.0000000000
40
0.0000000000
40
0.0000000000
40
0.0000000000
40
0.0000000000
40
0.2456307954
40
0.4942513707
40
0.7457484944
40
1.0000000000
40
1.0000000000
40
1.0000000000
40
1.0000000000
10
6.1312740985
20
-26.5102533475
30
0.0000000000
10
6.2389810637
20
-23.5276400162
30
0.0000000000
10
6.5370257436
20
-17.5287592157
30
0.0000000000
10
7.2242653280
20
-8.4926009566
30
0.0000000000
10
8.1536624791
20
0.6271420631
30
0.0000000000
10
8.9299269663
20
6.7238031059
30
0.0000000000
10
9.3575323726
20
9.7833706219
30
0.0000000000
11
6.1312740985
21
-26.5102533475
31
0.0000000000
11
6.5741054747
21
-17.5675385448
31
0.0000000000
11
7.2599877809
21
-8.5308753714
31
0.0000000000
11
8.1881462126
21
0.5895284477
31
0.0000000000
11
9.3575323726
21
9.7833706219
31
0.0000000000
0
SPLINE
5
3E1
100
AcDbEntity
8
0
100
AcDbSpline
62
9
6
CONTINUOUS
70
0
71
3
72
11
73
7
74
5
42
0.0000001000
43
0.0000001000
44
0.0000000001
12
1.3118787015
22
36.3308689079
32
0.0000000000
13
5.0320937402
23
36.0045982330
33
0.0000000000
40
0.0000000000
40
0.0000000000
40
0.0000000000
40
0.0000000000
40
0.2456303853
40
0.4942516792
40
0.7457494101
40
1.0000000000
40
1.0000000000
40
1.0000000000
40
1.0000000000
10
7.2521455214
20
-26.5460597955
30
0.0000000000
10
7.3595579450
20
-23.5714046860
30
0.0000000000
10
7.6567957268
20
-17.5885162422
30
0.0000000000
10
8.3421979159
20
-8.5764424338
30
0.0000000000
10
9.2691230491
20
0.5189860982
30
0.0000000000
10
10.0433295061
20
6.5993843972
30
0.0000000000
10
10.4698004400
20
9.6507811766
30
0.0000000000
11
7.2521455214
21
-26.5460597955
31
0.0000000000
11
7.6937779415
21
-17.6272058978
31
0.0000000000
11
8.3778272423
21
-8.6146136209
31
0.0000000000
11
9.3035189944
21
0.4814908302
31
0.0000000000
11
10.4698004400
21
9.6507811766
31
0.0000000000
0
SPLINE
5
3E2
100
AcDbEntity
8
0
100
AcDbSpline
62
9
6
CONTINUOUS
70
0
71
3
72
12
73
8
74
6
42
0.0000001000
43
0.0000001000
44
0.0000000001
12
1.0283214727
22
-0.5126299356
32
0.0000000000
13
1.0566311258
23
0.4514035514
33
0.0000000000
40
0.0000000000
40
0.0000000000
40
0.0000000000
40
0.0000000000
40
0.1856553601
40
0.3935500077
40
0.6089827074
40
0.8159808490
40
1.0000000000
40
1.0000000000
40
1.0000000000
40
1.0000000000
10
6.1312741213
20
-26.5102533374
30
0.0000000000
10
6.1949119191
20
-26.5419775025
30
0.0000000000
10
6.3380903032
20
-26.5927491882
30
0.0000000000
10
6.5684608939
20
-26.6337148477
30
0.0000000000
10
6.8106499929
20
-26.6414873945
30
0.0000000000
10
7.0421983549
20
-26.6153547882
30
0.0000000000
10
7.1873320671
20
-26.5737487616
30
0.0000000000
10
7.2521455214
20
-26.5460597955
30
0.0000000000
11
6.1312741213
21
-26.5102533374
31
0.0000000000
11
6.3312671368
21
-26.5844727512
31
0.0000000000
11
6.5662159028
21
-26.6275988004
31
0.0000000000
11
6.8136250077
21
-26.6355023339
31
0.0000000000
11
7.0498060117
21
-26.6074266196
31
0.0000000000
11
7.2521455214
21
-26.5460597955
31
0.0000000000
0
SPLINE
5
3E3
100
AcDbEntity
8
0
100
AcDbSpline
62
9
6
CONTINUOUS
70
0
71
3
72
13
73
9
74
7
42
0.0000001000
43
0.0000001000
44
0.0000000001
12
0.2867464404
22
2.0575808780
32
0.0000000000
13
1.9451354823
23
0.7295961527
33
0.0000000000
40
0.0000000000
40
0.0000000000
40
0.0000000000
40
0.0000000000
40
0.1704903409
40
0.3478616651
40
0.5255366121
40
0.6969435734
40
0.8563811112
40
1.0000000000
40
1.0000000000
40
1.0000000000
40
1.0000000000
10
9.3575323726
20
9.7833706219
30
0.0000000000
10
9.3738282053
20
9.9003031770
30
0.0000000000
10
9.4289438960
20
10.1361792182
30
0.0000000000
10
9.5666665546
20
10.4744624649
30
0.0000000000
10
9.7539174450
20
10.7889124123
30
0.0000000000
10
9.9799061058
20
11.0610675355
30
0.0000000000
10
10.2314470185
20
11.2751062761
30
0.0000000000
10
10.4179383406
20
11.3763690885
30
0.0000000000
10
10.5110577394
20
11.4112970180
30
0.0000000000
11
9.3575323726
21
9.7833706219
31
0.0000000000
11
9.4365120095
21
10.1286403807
31
0.0000000000
11
9.5748828857
21
10.4701562218
31
0.0000000000
11
9.7641701682
21
10.7870397086
31
0.0000000000
11
9.9928406494
21
11.0600073788
31
0.0000000000
11
10.2469807800
21
11.2724301617
31
0.0000000000
11
10.5110577394
21
11.4112970180
31
0.0000000000
0
SPLINE
5
3E4
100
AcDbEntity
8
0
100
AcDbSpline
62
9
6
CONTINUOUS
70
0
71
3
72
13
73
9
74
7
42
0.0000001000
43
0.0000001000
44
0.0000000001
12
0.1346209746
22
0.9615234939
32
0.0000000000
13
0.9113817110
23
0.3347142257
33
0.0000000000
40
0.0000000000
40
0.0000000000
40
0.0000000000
40
0.0000000000
40
0.1695230038
40
0.3468999640
40
0.5247719532
40
0.6965218406
40
0.8564431831
40
1.0000000000
40
1.0000000000
40
1.0000000000
40
1.0000000000
10
10.4698004400
20
9.6507811766
30
0.0000000000
10
10.4774075574
20
9.7051146269
30
0.0000000000
10
10.5032053415
20
9.8150282208
30
0.0000000000
10
10.5679256701
20
9.9727303085
30
0.0000000000
10
10.6562039823
20
10.1194539844
30
0.0000000000
10
10.7628386475
20
10.2462435262
30
0.0000000000
10
10.8813582100
20
10.3455489950
30
0.0000000000
10
10.9690176670
20
10.3922047878
30
0.0000000000
10
11.0126293528
20
10.4082216240
30
0.0000000000
11
10.4698004400
21
9.6507811766
31
0.0000000000
11
10.5066775470
21
9.8111869355
31
0.0000000000
11
10.5717775045
21
9.9706241007
31
0.0000000000
11
10.6610088325
21
10.1184813201
31
0.0000000000
11
10.7688822511
21
10.2456412379
31
0.0000000000
11
10.8887643415
21
10.3443144834
31
0.0000000000
11
11.0126293528
21
10.4082216240
31
0.0000000000
0
SPLINE
5
3E5
100
AcDbEntity
8
0
100
AcDbSpline
62
9
6
CONTINUOUS
70
0
71
3
72
12
73
8
74
6
42
0.0000001000
43
0.0000001000
44
0.0000000001
12
1.0177105170
22
-0.5105080949
32
0.0000000000
13
1.1011993782
23
0.2893322326
33
0.0000000000
40
0.0000000000
40
0.0000000000
40
0.0000000000
40
0.0000000000
40
0.1886027189
40
0.3998929632
40
0.6170458012
40
0.8223928658
40
1.0000000000
40
1.0000000000
40
1.0000000000
40
1.0000000000
10
9.3575466874
20
9.7833745714
30
0.0000000000
10
9.4215276776
20
9.7512801665
30
0.0000000000
10
9.5639448319
20
9.6966416754
30
0.0000000000
10
9.7921242247
20
9.6419231101
30
0.0000000000
10
10.0315504974
20
9.6131870625
30
0.0000000000
10
10.2597764598
20
9.6130765069
30
0.0000000000
10
10.4046068180
20
9.6336520204
30
0.0000000000
10
10.4698004400
20
9.6507811767
30
0.0000000000
11
9.3575466874
21
9.7833745714
31
0.0000000000
11
9.5570795760
21
9.7040071489
31
0.0000000000
11
9.7907873433
21
9.6469588237
31
0.0000000000
11
10.0362938155
21
9.6176916401
31
0.0000000000
11
10.2700931615
21
9.6190077614
31
0.0000000000
11
10.4698004400
21
9.6507811767
31
0.0000000000
0
SPLINE
5
3E6
100
AcDbEntity
8
0
100
AcDbSpline
62
9
6
CONTINUOUS
70
0
71
3
72
12
73
8
74
6
42
0.0000001000
43
0.0000001000
44
0.0000000001
12
1.0450894664
22
-0.5388421377
32
0.0000000000
13
-0.0884070022
23
-1.1724960742
33
0.0000000000
40
0.0000000000
40
0.0000000000
40
0.0000000000
40
0.0000000000
40
0.1781068112
40
0.3769479540
40
0.5879477715
40
0.7995340060
40
1.0000000000
40
1.0000000000
40
1.0000000000
40
1.0000000000
10
10.5110577394
20
11.4112970180
30
0.0000000000
10
10.5731035902
20
11.3793065331
30
0.0000000000
10
10.6927557721
20
11.2884479397
30
0.0000000000
10
10.8370616670
20
11.1065700097
30
0.0000000000
10
10.9461049470
20
10.8868179608
30
0.0000000000
10
11.0098054580
20
10.6495231336
30
0.0000000000
10
11.0185368854
20
10.4865701544
30
0.0000000000
10
11.0126293528
20
10.4082216240
30
0.0000000000
11
10.5110577394
21
11.4112970180
31
0.0000000000
11
10.6801164273
21
11.2876973878
31
0.0000000000
11
10.8273275867
21
11.1060593748
31
0.0000000000
11
10.9382867080
21
10.8841561364
31
0.0000000000
11
11.0021365169
21
10.6437007541
31
0.0000000000
11
11.0126293528
21
10.4082216240
31
0.0000000000
0
SPLINE
5
3E7
100
AcDbEntity
8
0
100
AcDbSpline
62
9
6
CONTINUOUS
70
0
71
3
72
13
73
9
74
7
42
0.0000001000
43
0.0000001000
44
0.0000000001
12
-1.9309631870
22
-0.7521791390
32
0.0000000000
13
-0.2841901626
23
-2.0527124100
33
0.0000000000
40
0.0000000000
40
0.0000000000
40
0.0000000000
40
0.0000000000
40
0.1426589828
40
0.3016554912
40
0.4730709289
40
0.6510862996
40
0.8289800388
40
1.0000000000
40
1.0000000000
40
1.0000000000
40
1.0000000000
10
-19.4016335535
20
26.3676426645
30
0.0000000000
10
-19.4934566349
20
26.3318742942
30
0.0000000000
10
-19.6772536290
20
26.2288386295
30
0.0000000000
10
-19.9247175092
20
26.0128656150
30
0.0000000000
10
-20.1471765751
20
25.7390855939
30
0.0000000000
10
-20.3316438307
20
25.4234061056
30
0.0000000000
10
-20.4674847271
20
25.0843559177
30
0.0000000000
10
-20.5220191591
20
24.8482650184
30
0.0000000000
10
-20.5382198893
20
24.7312467528
30
0.0000000000
11
-19.4016335535
21
26.3676426645
31
0.0000000000
11
-19.6614841174
21
26.2266626104
31
0.0000000000
11
-19.9116751309
21
26.0122652689
31
0.0000000000
11
-20.1369120190
21
25.7375808022
31
0.0000000000
11
-20.3234930929
21
25.4193442111
31
0.0000000000
11
-20.4600508445
21
25.0769218078
31
0.0000000000
11
-20.5382198893
21
24.7312467528
31
0.0000000000
0
SPLINE
5
3E8
100
AcDbEntity
8
0
100
AcDbSpline
62
9
6
CONTINUOUS
70
0
71
3
72
9
73
5
74
3
42
0.0000001000
43
0.0000001000
44
0.0000000001
12
-0.3228763536
22
0.1565750884
32
0.0000000000
13
-0.3352834455
23
-0.1336091315
33
0.0000000000
40
0.0000000000
40
0.0000000000
40
0.0000000000
40
0.0000000000
40
0.5226490773
40
1.0000000000
40
1.0000000000
40
1.0000000000
40
1.0000000000
10
-19.4016335535
20
26.3676426645
30
0.0000000000
10
-19.4578838963
20
26.3949206063
30
0.0000000000
10
-19.5752012278
20
26.4314905319
30
0.0000000000
10
-19.6982124386
20
26.4155023616
30
0.0000000000
10
-19.7515617259
20
26.3942428809
30
0.0000000000
11
-19.4016335535
21
26.3676426645
31
0.0000000000
11
-19.5820708382
21
26.4187902044
31
0.0000000000
11
-19.7515617259
21
26.3942428809
31
0.0000000000
0
SPLINE
5
3E9
100
AcDbEntity
8
0
100
AcDbSpline
62
9
6
CONTINUOUS
70
0
71
3
72
11
73
7
74
5
42
0.0000001000
43
0.0000001000
44
0.0000000001
12
-4.9768792385
22
-36.1092933073
32
0.0000000000
13
-1.3849486519
23
-36.4243367453
33
0.0000000000
40
0.0000000000
40
0.0000000000
40
0.0000000000
40
0.0000000000
40
0.2543863218
40
0.5059363590
40
0.7545160169
40
1.0000000000
40
1.0000000000
40
1.0000000000
40
1.0000000000
10
-20.5382198893
20
24.7312467528
30
0.0000000000
10
-20.9602365571
20
21.6693433174
30
0.0000000000
10
-21.7280667639
20
15.5695566725
30
0.0000000000
10
-22.6532612529
20
6.4479397583
30
0.0000000000
10
-23.3446499109
20
-2.5859156901
30
0.0000000000
10
-23.6511505929
20
-8.5818467947
30
0.0000000000
10
-23.7644781634
20
-11.5623772166
30
0.0000000000
11
-20.5382198893
21
24.7312467528
31
0.0000000000
11
-21.6950951808
21
15.5311491444
31
0.0000000000
11
-22.6190817531
21
6.4086593956
31
0.0000000000
11
-23.3091359188
21
-2.6259178480
31
0.0000000000
11
-23.7644781634
21
-11.5623772166
31
0.0000000000
0
SPLINE
5
3EA
100
AcDbEntity
8
0
100
AcDbSpline
62
9
6
CONTINUOUS
70
0
71
3
72
10
73
6
74
4
42
0.0000001000
43
0.0000001000
44
0.0000000001
12
-0.3311613781
22
0.1650431950
32
0.0000000000
13
0.0391580283
23
0.3725723328
33
0.0000000000
40
0.0000000000
40
0.0000000000
40
0.0000000000
40
0.0000000000
40
0.4694023433
40
0.8124602410
40
1.0000000000
40
1.0000000000
40
1.0000000000
40
1.0000000000
10
-20.5382198647
20
24.7312467596
30
0.0000000000
10
-20.5900358403
20
24.7570706471
30
0.0000000000
10
-20.6755083952
20
24.8091466228
30
0.0000000000
10
-20.7650299053
20
24.9011393621
30
0.0000000000
10
-20.7757671521
20
24.9707389283
30
0.0000000000
10
-20.7733192564
20
24.9940296368
30
0.0000000000
11
-20.5382198647
21
24.7312467596
31
0.0000000000
11
-20.6845475273
21
24.8248102761
31
0.0000000000
11
-20.7635843460
21
24.9241360256
31
0.0000000000
11
-20.7733192564
21
24.9940296368
31
0.0000000000
0
SPLINE
5
3EB
100
AcDbEntity
8
0
100
AcDbSpline
62
9
6
CONTINUOUS
70
0
71
3
72
11
73
7
74
5
42
0.0000001000
43
0.0000001000
44
0.0000000001
12
-0.0373954934
22
-0.9998578007
32
0.0000000000
13
0.8993578540
23
-0.4524153731
33
0.0000000000
40
0.0000000000
40
0.0000000000
40
0.0000000000
40
0.0000000000
40
0.3100887606
40
0.5845089116
40
0.8272215587
40
1.0000000000
40
1.0000000000
40
1.0000000000
40
1.0000000000
10
-23.7644781634
20
-11.5623772166
30
0.0000000000
10
-23.7683434708
20
-11.6657254387
30
0.0000000000
10
-23.7580971178
20
-11.8620717266
30
0.0000000000
10
-23.6786712301
20
-12.1296169747
30
0.0000000000
10
-23.5465052377
20
-12.3238630487
30
0.0000000000
10
-23.4314724757
20
-12.4061462080
30
0.0000000000
10
-23.3796759263
20
-12.4322020823
30
0.0000000000
11
-23.7644781634
21
-11.5623772166
31
0.0000000000
11
-23.7445605572
21
-11.8719986781
31
0.0000000000
11
-23.6617119232
21
-12.1337741885
31
0.0000000000
11
-23.5210153022
21
-12.3317123545
31
0.0000000000
11
-23.3796759263
21
-12.4322020823
31
0.0000000000
0
SPLINE
5
3EC
100
AcDbEntity
8
0
100
AcDbSpline
62
9
6
CONTINUOUS
70
0
71
3
72
10
73
6
74
4
42
0.0000001000
43
0.0000001000
44
0.0000000001
12
-0.3415970269
22
0.1713068321
32
0.0000000000
13
0.0114644148
23
0.3889910903
33
0.0000000000
40
0.0000000000
40
0.0000000000
40
0.0000000000
40
0.0000000000
40
0.4608981414
40
0.8204372547
40
1.0000000000
40
1.0000000000
40
1.0000000000
40
1.0000000000
10
-23.7644636262
20
-11.5623707662
30
0.0000000000
10
-23.8169441044
20
-11.5360524327
30
0.0000000000
10
-23.9061117881
20
-11.4798718998
30
0.0000000000
10
-23.9885517821
20
-11.3755878175
30
0.0000000000
10
-23.9986965627
20
-11.3049665131
30
0.0000000000
10
-23.9980103688
20
-11.2816837437
30
0.0000000000
11
-23.7644636262
21
-11.5623707662
31
0.0000000000
11
-23.9103329493
21
-11.4636598850
31
0.0000000000
11
-23.9881334355
21
-11.3504135411
31
0.0000000000
11
-23.9980103688
21
-11.2816837437
31
0.0000000000
0
ENDSEC
0
SECTION
2
OBJECTS
0
DICTIONARY
5
C
100
AcDbDictionary
280
0
281
1
3
ACAD_GROUP
350
D
3
ACAD_MLINESTYLE
350
17
3
ACAD_LAYOUT
350
1A
3
ACAD_PLOTSETTINGS
350
19
3
ACAD_PLOTSTYLENAME
350
E
0
DICTIONARY
5
D
102
{ACAD_REACTORS
330
C
102
}
100
AcDbDictionary
280
0
281
1
0
ACDBDICTIONARYWDFLT
5
E
102
{ACAD_REACTORS
330
C
102
}
100
AcDbDictionary
281
1
3
Normal
350
F
100
AcDbDictionaryWithDefault
340
F
0
DICTIONARY
5
17
102
{ACAD_REACTORS
330
C
102
}
100
AcDbDictionary
280
0
281
1
3
Standard
350
18
0
DICTIONARY
5
19
102
{ACAD_REACTORS
330
C
102
}
100
AcDbDictionary
281
1
0
DICTIONARY
5
1A
102
{ACAD_REACTORS
330
C
102
}
100
AcDbDictionary
281
1
3
Layout1
350
1E
3
Model
350
22
0
ACDBPLACEHOLDER
5
F
102
{ACAD_REACTORS
330
E
102
}
0
MLINESTYLE
5
18
102
{ACAD_REACTORS
330
17
102
}
100
AcDbMlineStyle
2
STANDARD
70
0
3

62
256
51
90.0
52
90.0
71
2
49
0.5
62
256
6
BYLAYER
49
-0.5
62
256
6
BYLAYER
0
LAYOUT
5
1E
102
{ACAD_REACTORS
330
1A
102
}
100
AcDbPlotSettings
1

2

4

6

40
0.0
41
0.0
42
0.0
43
0.0
44
0.0
45
0.0
46
0.0
47
0.0
48
0.0
49
0.0
140
0.0
141
0.0
142
1.0
143
1.0
70
0
72
0
73
0
74
0
7

75
0
147
1.0
148
0.0
149
0.0
100
AcDbLayout
1
Layout1
70
0
71
0
10
0.0
20
0.0
11
0.0
21
0.0
12
0.0
22
0.0
32
0.0
14
0.0
24
0.0
34
0.0
15
0.0
25
0.0
35
0.0
146
0.0
13
0.0
23
0.0
33
0.0
16
0.0
26
0.0
36
0.0
17
0.0
27
0.0
37
0.0
76
0
330
1B
331
0
345
0
346
0
0
LAYOUT
5
22
102
{ACAD_REACTORS
330
1A
102
}
100
AcDbPlotSettings
1

2

4

6

40
0.0
41
0.0
42
0.0
43
0.0
44
0.0
45
0.0
46
0.0
47
0.0
48
0.0
49
0.0
140
0.0
141
0.0
142
1.0
143
1.0
70
0
72
0
73
0
74
0
7

75
0
147
1.0
148
0.0
149
0.0
100
AcDbLayout
1
Model
70
0
71
0
10
0.0
20
0.0
11
0.0
21
0.0
12
0.0
22
0.0
32
0.0
14
0.0
24
0.0
34
0.0
15
0.0
25
0.0
35
0.0
146
0.0
13
0.0
23
0.0
33
0.0
16
0.0
26
0.0
36
0.0
17
0.0
27
0.0
37
0.0
76
0
330
1F
331
0
345
0
346
0
0
ENDSEC
0
EOF
