  0
SECTION
  2
HEADER
  9
$ACADVER
  1
AC1024
  9
$DWGCODEPAGE
  3
ANSI_1252
  9
$EXTMAX
 10
297.0
 20
210.0
 30
0.0
  9
$EXTMIN
 10
0.0
 20
0.0
 30
0.0
  9
$LIMMIN
 10
0.0
 20
0.0
  9
$LIMMAX
 10
297.0
 20
210.0
  9
$VIEWCTR
 10
148.5
 20
105.0
  9
$VIEWSIZE
 40
210.0
  9
$CLAYER
  8
0
  9
$LTSCALE
 40
16.335
  9
$CELTYPE
  6
BYLAYER
  9
$DIMSCALE
 40
1.0
  9
$DIMASZ
 40
3.0
  9
$DIMEXO
 40
0.5
  9
$DIMDLI
 40
11.286
  9
$DIMEXE
 40
1.5
  9
$DIMCEN
 40
2.673
  9
$DIMLFAC
 40
1.0
  9
$DIMBLK
  1
_FILLED
  9
$DIMALT
 70
0
  9
$DIMALTF
 40
0.0393700787
  9
$DIMTXT
 40
3.0
  9
$DIMTOL
 70
1
  9
$DIMLIM
 70
0
  9
$DIMTFAC
 40
1.0
  9
$DIMTP
 40
0.01
  9
$DIMTM
 40
0.01
  9
$DIMGAP
 40
0.625
  9
$DIMDSEP
 70
44
  9
$AUNITS
 70
0
  9
$PDMODE
 70
3
  9
$PDSIZE
 40
3.0
  9
$HANDSEED
  5
56E
  9
$TILEMODE
 70
1
  9
$MEASUREMENT
 70
1
  9
$INSUNITS
 70
4
  0
ENDSEC
  0
SECTION
  2
CLASSES
  0
CLASS
  1
ACDBDICTIONARYWDFLT
  2
AcDbDictionaryWithDefault
  3
AutoCAD 2000
 90
0
 91
1
280
0
281
0
  0
CLASS
  1
ACDBPLACEHOLDER
  2
AcDbPlaceHolder
  3
AutoCAD 2000
 90
0
 91
1
280
0
281
0
  0
CLASS
  1
LAYOUT
  2
AcDbLayout
  3
AutoCAD 2000
 90
0
 91
0
280
0
281
0
  0
ENDSEC
  0
SECTION
  2
TABLES
  0
TABLE
  2
VPORT
  5
8
100
AcDbSymbolTable
 70
2
  0
VPORT
  5
1F4
100
AcDbSymbolTableRecord
100
AcDbViewportTableRecord
  2
*ACTIVE
 70
0
 10
0.0
 20
0.0
 11
1.0
 21
1.0
 12
148.5
 22
105.0
 13
0.0
 23
0.0
 14
1.0
 24
1.0
 15
0.0
 25
0.0
 16
0.0
 26
0.0
 36
1.0
 17
0.0
 27
0.0
 37
0.0
 40
210.0
 41
1.4142857143
 42
50.0
 43
0.0
 44
0.0
 50
0.0
 51
0.0
 71
0
 72
100
 73
1
 74
1
 75
0
 76
0
 77
0
 78
0
  0
ENDTAB
  0
TABLE
  2
LTYPE
  5
5
100
AcDbSymbolTable
 70
6
  0
LTYPE
  5
14
100
AcDbSymbolTableRecord
100
AcDbLinetypeTableRecord
  2
BYBLOCK
 70
0
  3

 72
65
 73
0
 40
0.0
  0
LTYPE
  5
15
100
AcDbSymbolTableRecord
100
AcDbLinetypeTableRecord
  2
BYLAYER
 70
0
  3

 72
65
 73
0
 40
0.0
  0
LTYPE
  5
16
100
AcDbSymbolTableRecord
100
AcDbLinetypeTableRecord
  2
CONTINUOUS
 70
64
  3
Solid line
 72
65
 73
0
 40
0.0
  0
LTYPE
  5
1F5
100
AcDbSymbolTableRecord
100
AcDbLinetypeTableRecord
  2
CENTER
 70
64
  3
____ _ ____ _ ____ _ ____ _ ____ _ ____ _ ____
 72
65
 73
4
 40
0.6
 49
0.375
 74
0
 49
-0.075
 74
0
 49
0.075
 74
0
 49
-0.075
 74
0
  0
LTYPE
  5
1F6
100
AcDbSymbolTableRecord
100
AcDbLinetypeTableRecord
  2
HIDDEN
 70
64
  3
- - - - - - - - - - - - - - - - - - - -
 72
65
 73
2
 40
0.2
 49
0.1
 74
0
 49
-0.1
 74
0
  0
LTYPE
  5
1F7
100
AcDbSymbolTableRecord
100
AcDbLinetypeTableRecord
  2
PHANTOM
 70
64
  3
_____ _ _ _____ _ _ _____ _ _ _____
 72
65
 73
6
 40
0.8
 49
0.45
 74
0
 49
-0.05
 74
0
 49
0.1
 74
0
 49
-0.05
 74
0
 49
0.1
 74
0
 49
-0.05
 74
0
  0
LTYPE
  5
1F8
100
AcDbSymbolTableRecord
100
AcDbLinetypeTableRecord
  2
DOT
 70
64
  3
. . . . . . . . . . . . . . . . . . . .
 72
65
 73
2
 40
0.2
 49
0.1
 74
0
 49
-0.1
 74
0
  0
LTYPE
  5
1F9
100
AcDbSymbolTableRecord
100
AcDbLinetypeTableRecord
  2
DASHED
 70
64
  3
- - - - - - - - - - - - - - - - - - - -
 72
65
 73
2
 40
0.2
 49
0.1
 74
0
 49
-0.1
 74
0
  0
ENDTAB
  0
TABLE
  2
LAYER
  5
2
100
AcDbSymbolTable
 70
36
  0
LAYER
  5
10
100
AcDbSymbolTableRecord
100
AcDbLayerTableRecord
  2
0
 70
0
 62
7
  6
CONTINUOUS
370
-3
390
F
  0
LAYER
  5
1FA
100
AcDbSymbolTableRecord
100
AcDbLayerTableRecord
  2
DEFAULT_1
 70
0
 62
7
  6
CENTER
370
-3
390
F
  0
LAYER
  5
1FB
100
AcDbSymbolTableRecord
100
AcDbLayerTableRecord
  2
DEFAULT_2
 70
0
 62
7
  6
HIDDEN
370
-3
390
F
  0
LAYER
  5
1FC
100
AcDbSymbolTableRecord
100
AcDbLayerTableRecord
  2
DEFAULT_3
 70
0
 62
7
  6
PHANTOM
370
-3
390
F
  0
LAYER
  5
1FD
100
AcDbSymbolTableRecord
100
AcDbLayerTableRecord
  2
ASSI
 70
0
 62
7
  6
CONTINUOUS
370
-3
390
F
  0
LAYER
  5
1FE
100
AcDbSymbolTableRecord
100
AcDbLayerTableRecord
  2
COORDINATE
 70
0
 62
7
  6
CONTINUOUS
370
-3
390
F
  0
LAYER
  5
1FF
100
AcDbSymbolTableRecord
100
AcDbLayerTableRecord
  2
COORD_ORIGINE
 70
0
 62
7
  6
CONTINUOUS
370
-3
390
F
  0
LAYER
  5
200
100
AcDbSymbolTableRecord
100
AcDbLayerTableRecord
  2
COPY_PUBLISH
 70
0
 62
7
  6
CONTINUOUS
370
-3
390
F
  0
LAYER
  5
201
100
AcDbSymbolTableRecord
100
AcDbLayerTableRecord
  2
COSMETIC
 70
0
 62
7
  6
CONTINUOUS
370
-3
390
F
  0
LAYER
  5
202
100
AcDbSymbolTableRecord
100
AcDbLayerTableRecord
  2
COSMETICI
 70
0
 62
7
  6
CONTINUOUS
370
-3
390
F
  0
LAYER
  5
203
100
AcDbSymbolTableRecord
100
AcDbLayerTableRecord
  2
CURVE
 70
0
 62
7
  6
CONTINUOUS
370
-3
390
F
  0
LAYER
  5
204
100
AcDbSymbolTableRecord
100
AcDbLayerTableRecord
  2
DRAFT
 70
0
 62
7
  6
CONTINUOUS
370
-3
390
F
  0
LAYER
  5
205
100
AcDbSymbolTableRecord
100
AcDbLayerTableRecord
  2
IMPORT_IGES
 70
0
 62
7
  6
CONTINUOUS
370
-3
390
F
  0
LAYER
  5
206
100
AcDbSymbolTableRecord
100
AcDbLayerTableRecord
  2
IMPORT_SCRITTE
 70
0
 62
7
  6
CONTINUOUS
370
-3
390
F
  0
LAYER
  5
207
100
AcDbSymbolTableRecord
100
AcDbLayerTableRecord
  2
NOTE
 70
0
 62
7
  6
CONTINUOUS
370
-3
390
F
  0
LAYER
  5
208
100
AcDbSymbolTableRecord
100
AcDbLayerTableRecord
  2
PIANI
 70
0
 62
7
  6
CONTINUOUS
370
-3
390
F
  0
LAYER
  5
209
100
AcDbSymbolTableRecord
100
AcDbLayerTableRecord
  2
PIANI_ORIGINE
 70
0
 62
7
  6
CONTINUOUS
370
-3
390
F
  0
LAYER
  5
20A
100
AcDbSymbolTableRecord
100
AcDbLayerTableRecord
  2
PIANI_RIFERIMENTO
 70
0
 62
7
  6
CONTINUOUS
370
-3
390
F
  0
LAYER
  5
20B
100
AcDbSymbolTableRecord
100
AcDbLayerTableRecord
  2
PUNTI
 70
0
 62
7
  6
CONTINUOUS
370
-3
390
F
  0
LAYER
  5
20C
100
AcDbSymbolTableRecord
100
AcDbLayerTableRecord
  2
RACCORDO
 70
0
 62
7
  6
CONTINUOUS
370
-3
390
F
  0
LAYER
  5
20D
100
AcDbSymbolTableRecord
100
AcDbLayerTableRecord
  2
SMUSSO
 70
0
 62
7
  6
CONTINUOUS
370
-3
390
F
  0
LAYER
  5
20E
100
AcDbSymbolTableRecord
100
AcDbLayerTableRecord
  2
SNAPLINE
 70
0
 62
7
  6
CONTINUOUS
370
-3
390
F
  0
LAYER
  5
20F
100
AcDbSymbolTableRecord
100
AcDbLayerTableRecord
  2
SUPERFICI
 70
0
 62
7
  6
CONTINUOUS
370
-3
390
F
  0
LAYER
  5
210
100
AcDbSymbolTableRecord
100
AcDbLayerTableRecord
  2
TRASH
 70
0
 62
7
  6
CONTINUOUS
370
-3
390
F
  0
LAYER
  5
211
100
AcDbSymbolTableRecord
100
AcDbLayerTableRecord
  2
XSEC_DATUMS
 70
0
 62
7
  6
CONTINUOUS
370
-3
390
F
  0
ENDTAB
  0
TABLE
  2
STYLE
  5
3
100
AcDbSymbolTable
 70
1
  0
STYLE
  5
11
100
AcDbSymbolTableRecord
100
AcDbTextStyleTableRecord
  2
STANDARD
 70
0
 40
0.0
 41
0.8
 50
0.0
 71
0
 42
0.2
  3
txt
  4

  0
STYLE
  5
212
100
AcDbSymbolTableRecord
100
AcDbTextStyleTableRecord
  2
TEXTSTYLE_1
 70
0
 40
0.0
 41
0.8
 50
0.0
 71
0
 42
0.2
  3
gdt
  4

  0
ENDTAB
  0
TABLE
  2
VIEW
  5
6
100
AcDbSymbolTable
 70
0
  0
ENDTAB
  0
TABLE
  2
UCS
  5
7
100
AcDbSymbolTable
 70
0
  0
ENDTAB
  0
TABLE
  2
APPID
  5
9
100
AcDbSymbolTable
 70
1
  0
APPID
  5
213
100
AcDbSymbolTableRecord
100
AcDbRegAppTableRecord
  2
ACAD
 70
0
  0
ENDTAB
  0
TABLE
  2
BLOCK_RECORD
  5
1
100
AcDbSymbolTable
 70
0
  0
BLOCK_RECORD
  5
214
100
AcDbSymbolTableRecord
100
AcDbBlockTableRecord
  2
*Model_Space
  0
BLOCK_RECORD
  5
215
100
AcDbSymbolTableRecord
100
AcDbBlockTableRecord
  2
*Paper_Space
  0
BLOCK_RECORD
  5
216
100
AcDbSymbolTableRecord
100
AcDbBlockTableRecord
  2
_FILLED
  0
ENDTAB
  0
TABLE
  2
DIMSTYLE
  5
A
100
AcDbSymbolTable
 70
1
100
AcDbDimStyleTable
 71
0
  0
DIMSTYLE
105
217
100
AcDbSymbolTableRecord
100
AcDbDimStyleTableRecord
  2
STANDARD
 70
0
  3

  4

 40
1.0
 41
3.0
 42
0.5
 43
0.38
 44
1.5
 45
0.0
 46
0.0
 47
0.01
 48
0.01
140
3.0
141
0.09
142
0.0
143
25.4
144
1.0
145
0.0
146
1.0
147
0.625
 71
1
 72
0
 73
0
 74
0
 75
0
 76
0
 77
1
 78
8
 79
2
170
0
171
1
172
0
173
0
174
0
175
0
176
0
177
0
178
0
270
2
179
2
271
2
272
2
273
2
274
2
275
0
280
0
281
0
282
0
283
1
284
8
285
0
286
0
287
3
288
0
340
11
278
44
341
216
342
216
343
216
344
216
  0
ENDTAB
  0
ENDSEC
  0
SECTION
  2
BLOCKS
  0
BLOCK
  5
20
100
AcDbEntity
  8
0
100
AcDbBlockBegin
  2
*Model_Space
 70
0
 10
0.0
 20
0.0
 30
0.0
  3
*Model_Space
  1

  0
ENDBLK
  5
21
100
AcDbEntity
  8
0
100
AcDbBlockEnd
  0
BLOCK
  5
1C
100
AcDbEntity
  8
0
100
AcDbBlockBegin
  2
*Paper_Space
 70
0
 10
0.0
 20
0.0
 30
0.0
  3
*Paper_Space
  1

  0
ENDBLK
  5
1D
100
AcDbEntity
  8
0
100
AcDbBlockEnd
  0
BLOCK
  5
218
100
AcDbEntity
  8
0
100
AcDbBlockBegin
  2
_FILLED
 70
64
 10
0.0
 20
0.0
  3
_FILLED
  1

  0
SOLID
  5
219
100
AcDbEntity
  8
0
  6
BYBLOCK
 62
0
100
AcDbTrace
 10
0.0
 20
0.0
 11
-1.0
 21
0.3166666667
 12
-1.0
 22
-0.3166666667
 13
-1.0
 23
-0.3166666667
  0
ENDBLK
  5
21A
100
AcDbEntity
  8
0
  6
BYBLOCK
 62
0
100
AcDbBlockEnd
  0
ENDSEC
  0
SECTION
  2
ENTITIES
  0
LWPOLYLINE
  5
21B
100
AcDbEntity
  8
RACCORDO
100
AcDbPolyline
 62
250
  6
CONTINUOUS
 90
13
 70
0
 10
-29.6305112375
 20
27.1754138643
 10
-29.64496473
 20
27.1556671511
 10
-29.6592021162
 20
27.1329027804
 10
-29.6729779298
 20
27.1074412248
 10
-29.6860754508
 20
27.0795949022
 10
-29.6982178322
 20
27.049858115
 10
-29.7090995588
 20
27.0189350418
 10
-29.7185125807
 20
26.987432742
 10
-29.726319427
 20
26.9558295371
 10
-29.7323832976
 20
26.9246829143
 10
-29.7366009086
 20
26.8945340339
 10
-29.7389022473
 20
26.86589867
 10
-29.7392496836
 20
26.8392691952
  0
LINE
  5
21C
100
AcDbEntity
  8
RACCORDO
100
AcDbLine
 62
7
  6
CONTINUOUS
 10
-29.8210973282
 20
27.1375111392
 11
-28.4583717538
 21
28.8451965202
  0
LINE
  5
21D
100
AcDbEntity
  8
RACCORDO
100
AcDbLine
 62
250
  6
CONTINUOUS
 10
-29.6305112375
 20
27.1754138643
 11
-28.2677856631
 21
28.8830992453
  0
LWPOLYLINE
  5
21E
100
AcDbEntity
  8
RACCORDO
100
AcDbPolyline
 62
250
  6
CONTINUOUS
 90
9
 70
0
 10
-29.8210973282
 20
27.1375111392
 10
-29.8052785999
 20
27.1538258447
 10
-29.7865485263
 20
27.1669914137
 10
-29.7650661054
 20
27.176984479
 10
-29.7411989073
 20
27.1836340563
 10
-29.7153553064
 20
27.1868263695
 10
-29.6879774939
 20
27.1865067973
 10
-29.6595339118
 20
27.1826808077
 10
-29.6305112375
 20
27.1754138643
  0
LWPOLYLINE
  5
21F
100
AcDbEntity
  8
RACCORDO
100
AcDbPolyline
 62
250
  6
CONTINUOUS
 90
9
 70
0
 10
-28.4583717538
 20
28.8451965202
 10
-28.4421382133
 20
28.8618628036
 10
-28.4232245576
 20
28.8750193243
 10
-28.4014871763
 20
28.8849800655
 10
-28.3773420378
 20
28.8915394593
 10
-28.3513956389
 20
28.8945745245
 10
-28.3241942325
 20
28.8941111826
 10
-28.2961637058
 20
28.8902409191
 10
-28.2677856631
 20
28.8830992453
  0
LWPOLYLINE
  5
220
100
AcDbEntity
  8
RACCORDO
100
AcDbPolyline
 62
7
  6
CONTINUOUS
 90
3
 70
0
 10
-32.5949960583
 20
21.0682177163
 10
-32.6346699991
 20
20.9300023321
 10
-32.6677630608
 20
20.7866508363
  0
LINE
  5
221
100
AcDbEntity
  8
ASSI
100
AcDbLine
 62
7
  6
CONTINUOUS
 10
-32.551634533
 20
21.1950633923
 11
-32.6335071959
 21
20.9344455715
  0
LINE
  5
222
100
AcDbEntity
  8
RACCORDO
100
AcDbLine
 62
7
  6
CONTINUOUS
 10
-32.5471233033
 20
21.2072270961
 11
-32.5949960583
 21
21.0682177163
  0
LINE
  5
223
100
AcDbEntity
  8
ASSI
100
AcDbLine
 62
250
  6
CONTINUOUS
 10
-32.0635285276
 20
21.0528500772
 11
-32.0125693555
 21
21.1904010485
  0
LINE
  5
224
100
AcDbEntity
  8
RACCORDO
100
AcDbLine
 62
7
  6
CONTINUOUS
 10
-32.487970603
 20
21.3517999405
 11
-32.5471233033
 21
21.2072270961
  0
LWPOLYLINE
  5
225
100
AcDbEntity
  8
ASSI
100
AcDbPolyline
 62
250
  6
CONTINUOUS
 90
6
 70
0
 10
-32.0125693555
 20
21.1904010485
 10
-31.9576334439
 20
21.3233514725
 10
-31.8992814891
 20
21.450380962
 10
-31.8380850197
 20
21.5702711322
 10
-31.7746064863
 20
21.6818765171
 10
-31.7094610798
 20
21.7841076252
  0
LINE
  5
226
100
AcDbEntity
  8
ASSI
100
AcDbLine
 62
7
  6
CONTINUOUS
 10
-32.450193757
 20
21.4326329607
 11
-32.551634533
 21
21.1950633923
  0
LWPOLYLINE
  5
227
100
AcDbEntity
  8
RACCORDO
100
AcDbPolyline
 62
250
  6
CONTINUOUS
 90
5
 70
0
 10
-31.9576334439
 20
21.3233514725
 10
-31.8992814891
 20
21.450380962
 10
-31.8380850197
 20
21.5702711322
 10
-31.7746064863
 20
21.6818765171
 10
-31.7094610798
 20
21.7841076252
  0
LINE
  5
228
100
AcDbEntity
  8
RACCORDO
100
AcDbLine
 62
7
  6
CONTINUOUS
 10
-32.4187713366
 20
21.494298435
 11
-32.487970603
 21
21.3517999405
  0
LINE
  5
229
100
AcDbEntity
  8
ASSI
100
AcDbLine
 62
7
  6
CONTINUOUS
 10
-32.3334232218
 20
21.6404842942
 11
-32.450193757
 21
21.4326329607
  0
LWPOLYLINE
  5
22A
100
AcDbEntity
  8
RACCORDO
100
AcDbPolyline
 62
7
  6
CONTINUOUS
 90
6
 70
0
 10
-29.828305583
 20
25.9693625892
 10
-29.8443534138
 20
25.9443060947
 10
-29.8592497646
 20
25.9217106865
 10
-29.8727808733
 20
25.902082164
 10
-29.8843468678
 20
25.8862480413
 10
-29.8892790746
 20
25.8798336972
  0
LWPOLYLINE
  5
22B
100
AcDbEntity
  8
RACCORDO
100
AcDbPolyline
 62
250
  6
CONTINUOUS
 90
5
 70
0
 10
-26.7777374923
 20
26.5459703922
 10
-26.7648198278
 20
26.5651301899
 10
-26.7559330889
 20
26.5851321418
 10
-26.7512293302
 20
26.6056340089
 10
-26.7504822076
 20
26.6205666177
  0
LWPOLYLINE
  5
22C
100
AcDbEntity
  8
RACCORDO
100
AcDbPolyline
 62
7
  6
CONTINUOUS
 90
3
 70
0
 10
-32.2644680337
 20
21.7399414524
 10
-32.3439014699
 20
21.6241202864
 10
-32.4187713366
 20
21.494298435
  0
LWPOLYLINE
  5
22D
100
AcDbEntity
  8
RACCORDO
100
AcDbPolyline
 62
250
  6
CONTINUOUS
 90
3
 70
0
 10
-31.7094610798
 20
21.7841076252
 10
-31.6433132396
 20
21.8759497491
 10
-31.5768223824
 20
21.9564983666
  0
LINE
  5
22E
100
AcDbEntity
  8
ASSI
100
AcDbLine
 62
250
  6
CONTINUOUS
 10
-31.7094610798
 20
21.7841076252
 11
-31.6433132396
 21
21.8759497491
  0
LWPOLYLINE
  5
22F
100
AcDbEntity
  8
RACCORDO
100
AcDbPolyline
 62
250
  6
CONTINUOUS
 90
5
 70
0
 10
-26.7705253357
 20
26.2560530431
 10
-26.7597347611
 20
26.2708523904
 10
-26.751594132
 20
26.2862127959
 10
-26.7461663019
 20
26.301950353
 10
-26.7434830284
 20
26.3178687949
  0
LWPOLYLINE
  5
230
100
AcDbEntity
  8
RACCORDO
100
AcDbPolyline
 62
250
  6
CONTINUOUS
 90
13
 70
0
 10
-27.9382390315
 20
26.6557334645
 10
-27.952692524
 20
26.6359867513
 10
-27.9669299102
 20
26.6132223806
 10
-27.9807057238
 20
26.587760825
 10
-27.9938032448
 20
26.5599145023
 10
-28.0059456262
 20
26.5301777152
 10
-28.0168273528
 20
26.499254642
 10
-28.0262403747
 20
26.4677523422
 10
-28.034047221
 20
26.4361491373
 10
-28.0401110916
 20
26.4050025145
 10
-28.0443287026
 20
26.3748536341
 10
-28.0466300413
 20
26.3462182702
 10
-28.0469774776
 20
26.3195887954
  0
LWPOLYLINE
  5
231
100
AcDbEntity
  8
RACCORDO
100
AcDbPolyline
 62
250
  6
CONTINUOUS
 90
13
 70
0
 10
-29.3423323052
 20
25.8813218619
 10
-29.3303560305
 20
25.8973598347
 10
-29.3186289788
 20
25.9158641063
 10
-29.3073562804
 20
25.9365109989
 10
-29.296735118
 20
25.9589393558
 10
-29.2869512777
 20
25.9827568588
 10
-29.2781758989
 20
26.0075468908
 10
-29.2705624811
 20
26.032875823
 10
-29.2642441985
 20
26.0583006002
 10
-29.2593315711
 20
26.0833764908
 10
-29.2559105309
 20
26.1076648657
 10
-29.2540409187
 20
26.1307408712
 10
-29.2537554381
 20
26.1522008605
  0
LWPOLYLINE
  5
232
100
AcDbEntity
  8
RACCORDO
100
AcDbPolyline
 62
250
  6
CONTINUOUS
 90
13
 70
0
 10
-27.6500600991
 20
25.3616414621
 10
-27.6380836665
 20
25.3776796666
 10
-27.6263564966
 20
25.3961841797
 10
-27.6150837235
 20
25.4168312942
 10
-27.604462531
 20
25.4392598257
 10
-27.5946787005
 20
25.4630774385
 10
-27.5859033626
 20
25.4878675094
 10
-27.5782900095
 20
25.5131964005
 10
-27.5719718039
 20
25.5386210598
 10
-27.5670592511
 20
25.563696779
 10
-27.5636382728
 20
25.5879849458
 10
-27.5617687017
 20
25.6110607157
 10
-27.561483232
 20
25.6325204607
  0
LINE
  5
233
100
AcDbEntity
  8
ASSI
100
AcDbLine
 62
7
  6
CONTINUOUS
 10
-32.1886247469
 20
21.8329472482
 11
-32.3334232218
 21
21.6404842942
  0
LWPOLYLINE
  5
234
100
AcDbEntity
  8
RACCORDO
100
AcDbPolyline
 62
7
  6
CONTINUOUS
 90
6
 70
0
 10
-29.7125831655
 20
26.1392086994
 10
-29.7303444174
 20
26.1160965621
 10
-29.7526783793
 20
26.0852555805
 10
-29.7734552489
 20
26.0548443435
 10
-29.7928305542
 20
26.0252303142
 10
-29.828305583
 20
25.9693625892
  0
LINE
  5
235
100
AcDbEntity
  8
RACCORDO
100
AcDbLine
 62
250
  6
CONTINUOUS
 10
-29.6529429759
 20
25.7705468904
 11
-29.5014553334
 21
25.9640140686
  0
LINE
  5
236
100
AcDbEntity
  8
RACCORDO
100
AcDbLine
 62
7
  6
CONTINUOUS
 10
-30.0356052076
 20
25.6930261768
 11
-29.8893437721
 21
25.8797438146
  0
LINE
  5
237
100
AcDbEntity
  8
RACCORDO
100
AcDbLine
 62
7
  6
CONTINUOUS
 10
-29.5247058229
 20
26.3769151241
 11
-29.7125825996
 21
26.1392082531
  0
LINE
  5
238
100
AcDbEntity
  8
RACCORDO
100
AcDbLine
 62
250
  6
CONTINUOUS
 10
-27.9382390315
 20
26.6557334645
 11
-26.575513457
 21
28.3634188455
  0
LINE
  5
239
100
AcDbEntity
  8
RACCORDO
100
AcDbLine
 62
250
  6
CONTINUOUS
 10
-27.7107496175
 20
26.3935169105
 11
-26.3480240431
 21
28.1012022915
  0
LINE
  5
23A
100
AcDbEntity
  8
RACCORDO
100
AcDbLine
 62
7
  6
CONTINUOUS
 10
-32.1952695281
 20
21.8255538502
 11
-32.2644680337
 21
21.7399414524
  0
LINE
  5
23B
100
AcDbEntity
  8
RACCORDO
100
AcDbLine
 62
250
  6
CONTINUOUS
 10
-29.477750347
 20
26.2452278163
 11
-29.4016726908
 21
26.3391328411
  0
LINE
  5
23C
100
AcDbEntity
  8
RACCORDO
100
AcDbLine
 62
7
  6
CONTINUOUS
 10
-25.7325727574
 20
26.652513183
 11
-21.5588787246
 21
31.7911551037
  0
LINE
  5
23D
100
AcDbEntity
  8
RACCORDO
100
AcDbLine
 62
250
  6
CONTINUOUS
 10
-27.2251038684
 20
25.7003583711
 11
-26.7705253357
 21
26.2560530431
  0
LINE
  5
23E
100
AcDbEntity
  8
RACCORDO
100
AcDbLine
 62
250
  6
CONTINUOUS
 10
-27.0446984475
 20
25.4886218645
 11
-26.5901199147
 21
26.0443165365
  0
LINE
  5
23F
100
AcDbEntity
  8
ASSI
100
AcDbLine
 62
250
  6
CONTINUOUS
 10
-31.6433132396
 20
21.8759497491
 11
-31.5768223824
 21
21.9564983666
  0
LINE
  5
240
100
AcDbEntity
  8
RACCORDO
100
AcDbLine
 62
7
  6
CONTINUOUS
 10
-32.1967100285
 20
21.823943663
 11
-29.7148081993
 21
24.6770675214
  0
LINE
  5
241
100
AcDbEntity
  8
ASSI
100
AcDbLine
 62
7
  6
CONTINUOUS
 10
-32.1967100285
 20
21.823943663
 11
-29.7148081993
 21
24.6770675214
  0
LINE
  5
242
100
AcDbEntity
  8
RACCORDO
100
AcDbLine
 62
250
  6
CONTINUOUS
 10
-31.5768223824
 20
21.9564983666
 11
-29.0972206659
 21
24.8069780807
  0
LINE
  5
243
100
AcDbEntity
  8
ASSI
100
AcDbLine
 62
250
  6
CONTINUOUS
 10
-31.5768223824
 20
21.9564983666
 11
-29.0972206659
 21
24.8069780807
  0
LINE
  5
244
100
AcDbEntity
  8
ASSI
100
AcDbLine
 62
250
  6
CONTINUOUS
 10
-32.1967100285
 20
21.823943663
 11
-32.1886437762
 21
21.8329644488
  0
LWPOLYLINE
  5
245
100
AcDbEntity
  8
RACCORDO
100
AcDbPolyline
 62
250
  6
CONTINUOUS
 90
8
 70
0
 10
-29.7122594819
 20
26.139617883
 10
-29.6905189364
 20
26.1637220451
 10
-29.6627737381
 20
26.1871453661
 10
-29.6314778631
 20
26.2068642973
 10
-29.596955508
 20
26.2226745687
 10
-29.5595642933
 20
26.2344124001
 10
-29.5196915579
 20
26.2419561982
 10
-29.477750347
 20
26.2452278163
  0
LWPOLYLINE
  5
246
100
AcDbEntity
  8
RACCORDO
100
AcDbPolyline
 62
250
  6
CONTINUOUS
 90
11
 70
0
 10
-29.8892754904
 20
25.8798309429
 10
-29.8625690638
 20
25.9088096087
 10
-29.8334451628
 20
25.9320698431
 10
-29.8006209998
 20
25.9513780845
 10
-29.7644562784
 20
25.9665227405
 10
-29.7253488412
 20
25.9773375605
 10
-29.6837257996
 20
25.9837047724
 10
-29.6400379879
 20
25.9855545491
 10
-29.5947617459
 20
25.9828648448
 10
-29.5483945919
 20
25.9756634331
 10
-29.501444639
 20
25.9640277242
  0
LWPOLYLINE
  5
247
100
AcDbEntity
  8
RACCORDO
100
AcDbPolyline
 62
250
  6
CONTINUOUS
 90
13
 70
0
 10
-27.7107496175
 20
26.3935169105
 10
-27.7270633466
 20
26.3759144061
 10
-27.7469036701
 20
26.3596082829
 10
-27.7700104753
 20
26.344902131
 10
-27.7961205639
 20
26.3320547946
 10
-27.8247893575
 20
26.3213672405
 10
-27.8553456314
 20
26.3131221105
 10
-27.887187152
 20
26.3074721066
 10
-27.9198281223
 20
26.3044940509
 10
-27.9526923594
 20
26.3042389743
 10
-27.985207976
 20
26.3067078996
 10
-28.0168177968
 20
26.3118550711
 10
-28.0469774776
 20
26.3195887954
  0
LWPOLYLINE
  5
248
100
AcDbEntity
  8
RACCORDO
100
AcDbPolyline
 62
250
  6
CONTINUOUS
 90
13
 70
0
 10
-27.7029251706
 20
26.0789864556
 10
-27.719652736
 20
26.0609966415
 10
-27.7399039891
 20
26.0444846219
 10
-27.7633324252
 20
26.0297329218
 10
-27.7895371772
 20
26.0169939469
 10
-27.8180698747
 20
26.0064856648
 10
-27.8484423153
 20
25.9983878749
 10
-27.8801348181
 20
25.9928391327
 10
-27.9126051155
 20
25.9899343788
 10
-27.9452976318
 20
25.9897233142
 10
-27.977652989
 20
25.9922095503
 10
-28.0091175778
 20
25.9973505471
 10
-28.0391530306
 20
26.0050583405
  0
LWPOLYLINE
  5
249
100
AcDbEntity
  8
RACCORDO
100
AcDbPolyline
 62
250
  6
CONTINUOUS
 90
12
 70
0
 10
-27.2319793505
 20
25.9767419319
 10
-27.248706916
 20
25.9587521178
 10
-27.268958169
 20
25.9422400982
 10
-27.2923866051
 20
25.9274883981
 10
-27.3185913572
 20
25.9147494232
 10
-27.3471240547
 20
25.9042411411
 10
-27.3774964952
 20
25.8961433512
 10
-27.409188998
 20
25.890594609
 10
-27.4416592954
 20
25.8876898551
 10
-27.4743518117
 20
25.8874787905
 10
-27.5067071689
 20
25.8899650266
 10
-27.5381717578
 20
25.8951060234
  0
LWPOLYLINE
  5
24A
100
AcDbEntity
  8
RACCORDO
100
AcDbPolyline
 62
250
  6
CONTINUOUS
 90
7
 70
0
 10
-32.1952881058
 20
21.8255702337
 10
-32.1533562638
 20
21.8673237194
 10
-32.0897628771
 20
21.9137071306
 10
-32.0176751259
 20
21.949574912
 10
-31.9383259738
 20
21.9743135937
 10
-31.8530725809
 20
21.9875000541
 10
-31.7633730914
 20
21.9889087566
  0
LWPOLYLINE
  5
24B
100
AcDbEntity
  8
ASSI
100
AcDbPolyline
 62
250
  6
CONTINUOUS
 90
9
 70
0
 10
-32.1886437762
 20
21.8329644488
 10
-32.1533562638
 20
21.8673237194
 10
-32.0897628771
 20
21.9137071306
 10
-32.0176751259
 20
21.949574912
 10
-31.9383259738
 20
21.9743135937
 10
-31.8530725809
 20
21.9875000541
 10
-31.7633730914
 20
21.9889087566
 10
-31.6707616942
 20
21.9785156072
 10
-31.5768223824
 20
21.9564983666
  0
LINE
  5
24C
100
AcDbEntity
  8
RACCORDO
100
AcDbLine
 62
7
  6
CONTINUOUS
 10
25.1633398579
 20
-31.817337421
 11
25.2767997282
 21
-31.7859443342
  0
LWPOLYLINE
  5
24D
100
AcDbEntity
  8
RACCORDO
100
AcDbPolyline
 62
250
  6
CONTINUOUS
 90
10
 70
0
 10
-33.8498375277
 20
-12.9690651899
 10
-33.8482399438
 20
-12.9988125454
 10
-33.8350341624
 20
-13.0609517826
 10
-33.8086892961
 20
-13.121526189
 10
-33.7696461878
 20
-13.1795221407
 10
-33.7185581667
 20
-13.2339691604
 10
-33.6562801158
 20
-13.2839561564
 10
-33.5838541672
 20
-13.3286466694
 10
-33.5024922629
 20
-13.3672928692
 10
-33.4135558753
 20
-13.3992480683
  0
LWPOLYLINE
  5
24E
100
AcDbEntity
  8
ASSI
100
AcDbPolyline
 62
250
  6
CONTINUOUS
 90
10
 70
0
 10
-33.8498384582
 20
-12.9686476614
 10
-33.8482399438
 20
-12.9988125454
 10
-33.8350341624
 20
-13.0609517826
 10
-33.8086892961
 20
-13.121526189
 10
-33.7696461878
 20
-13.1795221407
 10
-33.7185581667
 20
-13.2339691604
 10
-33.6562801158
 20
-13.2839561564
 10
-33.5838541672
 20
-13.3286466694
 10
-33.5024922629
 20
-13.3672928692
 10
-33.4135558753
 20
-13.3992480683
  0
LWPOLYLINE
  5
24F
100
AcDbEntity
  8
RACCORDO
100
AcDbPolyline
 62
7
  6
CONTINUOUS
 90
13
 70
0
 10
-33.8498179133
 20
-12.9690650977
 10
-33.8444158107
 20
-13.1023722583
 10
-33.8291489016
 20
-13.2251886653
 10
-33.8041792376
 20
-13.3404411213
 10
-33.7692906019
 20
-13.4492623987
 10
-33.7241519768
 20
-13.551995692
 10
-33.6685817816
 20
-13.6483006361
 10
-33.6027715879
 20
-13.7371763576
 10
-33.5278765783
 20
-13.8168363929
 10
-33.445239362
 20
-13.8860882145
 10
-33.3558097747
 20
-13.9444604162
 10
-33.2610550081
 20
-13.9913065946
 10
-33.175644207
 20
-14.022331626
  0
LWPOLYLINE
  5
250
100
AcDbEntity
  8
ASSI
100
AcDbPolyline
 62
7
  6
CONTINUOUS
 90
10
 70
0
 10
-33.8498137714
 20
-12.9663748617
 10
-33.8496094243
 20
-12.993252037
 10
-33.8360611512
 20
-13.179728602
 10
-33.7988448327
 20
-13.3597210635
 10
-33.7339328262
 20
-13.53205042
 10
-33.6412245631
 20
-13.6878948913
 10
-33.5220338671
 20
-13.8222948235
 10
-33.3781950266
 20
-13.9312509795
 10
-33.2191267722
 20
-14.0077761401
 10
-33.1752539883
 20
-14.0224494631
  0
LINE
  5
251
100
AcDbEntity
  8
RACCORDO
100
AcDbLine
 62
7
  6
CONTINUOUS
 10
-33.8498384602
 20
-12.968646304
 11
-33.8498375277
 21
-12.9690651899
  0
LINE
  5
252
100
AcDbEntity
  8
ASSI
100
AcDbLine
 62
250
  6
CONTINUOUS
 10
-32.7105043359
 20
20.4739115422
 11
-32.7106889674
 21
20.4707872227
  0
LWPOLYLINE
  5
253
100
AcDbEntity
  8
RACCORDO
100
AcDbPolyline
 62
7
  6
CONTINUOUS
 90
10
 70
0
 10
-32.7105213863
 20
20.4739118463
 10
-32.9471072111
 20
16.7484701282
 10
-33.1642698054
 20
12.9001528309
 10
-33.3516975806
 20
9.0827899915
 10
-33.5093336054
 20
5.2973687522
 10
-33.6371429807
 20
1.5446967714
 10
-33.7350961408
 20
-2.1744863152
 10
-33.8031643482
 20
-5.8593818616
 10
-33.8413299099
 20
-9.5090480395
 10
-33.8498384602
 20
-12.968646304
  0
LWPOLYLINE
  5
254
100
AcDbEntity
  8
ASSI
100
AcDbPolyline
 62
7
  6
CONTINUOUS
 90
10
 70
0
 10
-32.7105213319
 20
20.4739126596
 10
-32.9248265593
 20
17.1173764123
 10
-33.1507347318
 20
13.155416992
 10
-33.3451703433
 20
9.2261597875
 10
-33.5080708337
 20
5.3306867307
 10
-33.6393978404
 20
1.4698791815
 10
-33.7391194529
 20
-2.3554654201
 10
-33.8072047709
 20
-6.1444752761
 10
-33.8436347876
 20
-9.8961175476
 10
-33.8498384582
 20
-12.9686476614
  0
LWPOLYLINE
  5
255
100
AcDbEntity
  8
RACCORDO
100
AcDbPolyline
 62
250
  6
CONTINUOUS
 90
10
 70
0
 10
-32.272982461
 20
20.077945524
 10
-32.2611012413
 20
20.2087854352
 10
-32.2428120358
 20
20.3447001062
 10
-32.2182908079
 20
20.4843629299
 10
-32.1877787122
 20
20.6264202185
 10
-32.1515704804
 20
20.7694708837
 10
-32.1100154037
 20
20.912079879
 10
-32.0635285276
 20
21.0528500772
 10
-32.0125693555
 20
21.1904010485
 10
-31.9576334439
 20
21.3233514725
  0
LWPOLYLINE
  5
256
100
AcDbEntity
  8
ASSI
100
AcDbPolyline
 62
250
  6
CONTINUOUS
 90
4
 70
0
 10
-32.272982461
 20
20.077945524
 10
-32.2611012413
 20
20.2087854352
 10
-32.2428120358
 20
20.3447001062
 10
-32.2182908079
 20
20.4843629299
  0
LINE
  5
257
100
AcDbEntity
  8
ASSI
100
AcDbLine
 62
7
  6
CONTINUOUS
 10
-32.6865009629
 20
20.6833538971
 11
-32.7106889674
 21
20.4707872227
  0
LWPOLYLINE
  5
258
100
AcDbEntity
  8
RACCORDO
100
AcDbPolyline
 62
7
  6
CONTINUOUS
 90
3
 70
0
 10
-32.6677630608
 20
20.7866508363
 10
-32.6935995794
 20
20.636061491
 10
-32.7106284386
 20
20.4719052618
  0
LINE
  5
259
100
AcDbEntity
  8
ASSI
100
AcDbLine
 62
7
  6
CONTINUOUS
 10
-32.6335071959
 20
20.9344455715
 11
-32.6865009629
 21
20.6833538971
  0
LWPOLYLINE
  5
25A
100
AcDbEntity
  8
ASSI
100
AcDbPolyline
 62
250
  6
CONTINUOUS
 90
5
 70
0
 10
-32.2182908079
 20
20.4843629299
 10
-32.1877787122
 20
20.6264202185
 10
-32.1515704804
 20
20.7694708837
 10
-32.1100154037
 20
20.912079879
 10
-32.0635285276
 20
21.0528500772
  0
LWPOLYLINE
  5
25B
100
AcDbEntity
  8
RACCORDO
100
AcDbPolyline
 62
250
  6
CONTINUOUS
 90
9
 70
0
 10
-27.7029251706
 20
26.0789864556
 10
-27.7116197957
 20
26.0485881159
 10
-27.7239545755
 20
26.0197933466
 10
-27.7397441506
 20
25.9931028027
 10
-27.758757146
 20
25.9689698294
 10
-27.780677691
 20
25.9478473191
 10
-27.8050898434
 20
25.9301554267
 10
-27.8315538564
 20
25.9162070727
 10
-27.8622691374
 20
25.9055181081
  0
LWPOLYLINE
  5
25C
100
AcDbEntity
  8
RACCORDO
100
AcDbPolyline
 62
250
  6
CONTINUOUS
 90
3
 70
0
 10
-26.7042610111
 20
26.94380862
 10
-26.7181822591
 20
26.9030031709
 10
-26.7308815943
 20
26.8614365033
  0
LWPOLYLINE
  5
25D
100
AcDbEntity
  8
RACCORDO
100
AcDbPolyline
 62
7
  6
CONTINUOUS
 90
3
 70
0
 10
-26.6923063456
 20
26.9258917011
 10
-26.6795325163
 20
26.9599309603
 10
-26.6660101762
 20
26.9925247218
  0
LWPOLYLINE
  5
25E
100
AcDbEntity
  8
RACCORDO
100
AcDbPolyline
 62
250
  6
CONTINUOUS
 90
3
 70
0
 10
-26.6725290088
 20
27.0240139993
 10
-26.689043261
 20
26.9841455628
 10
-26.7042610111
 20
26.94380862
  0
LINE
  5
25F
100
AcDbEntity
  8
RACCORDO
100
AcDbLine
 62
250
  6
CONTINUOUS
 10
-26.6725290088
 20
27.0240139993
 11
-26.3401995961
 21
27.7866718366
  0
LINE
  5
260
100
AcDbEntity
  8
RACCORDO
100
AcDbLine
 62
7
  6
CONTINUOUS
 10
-26.6660101762
 20
26.9925247218
 11
-26.3336807636
 21
27.755182559
  0
LWPOLYLINE
  5
261
100
AcDbEntity
  8
RACCORDO
100
AcDbPolyline
 62
250
  6
CONTINUOUS
 90
14
 70
0
 10
-26.5901199147
 20
26.0443165365
 10
-26.5705936462
 20
26.0720783231
 10
-26.5559810312
 20
26.1001609832
 10
-26.5462820697
 20
26.1285645168
 10
-26.5415453452
 20
26.1575937692
 10
-26.5417222742
 20
26.1869438951
 10
-26.5466671061
 20
26.2157003582
 10
-26.5564796814
 20
26.2438172009
 10
-26.5710601595
 20
26.2713403807
 10
-26.5899632683
 20
26.2974932339
 10
-26.6132963514
 20
26.3222620143
 10
-26.6409520652
 20
26.3456604681
 10
-26.672163106
 20
26.36695317
 10
-26.7066737059
 20
26.3858949782
  0
LWPOLYLINE
  5
262
100
AcDbEntity
  8
RACCORDO
100
AcDbPolyline
 62
7
  6
CONTINUOUS
 90
9
 70
0
 10
-23.4793109255
 20
25.990144912
 10
-23.4935027879
 20
25.9710729703
 10
-23.5056283679
 20
25.9516563084
 10
-23.5156876654
 20
25.9318949263
 10
-23.5237061725
 20
25.9117008609
 10
-23.5296583972
 20
25.8911620753
 10
-23.533467863
 20
25.8705424591
 10
-23.5351069208
 20
25.8498409694
 10
-23.5351370071
 20
25.8393158904
  0
LINE
  5
263
100
AcDbEntity
  8
RACCORDO
100
AcDbLine
 62
7
  6
CONTINUOUS
 10
-25.3678545597
 20
26.5405117579
 11
-21.4089058615
 21
31.5945134928
  0
LINE
  5
264
100
AcDbEntity
  8
RACCORDO
100
AcDbLine
 62
7
  6
CONTINUOUS
 10
-19.0425313522
 20
30.295385802
 11
-21.9951034302
 21
26.5954008098
  0
LINE
  5
265
100
AcDbEntity
  8
RACCORDO
100
AcDbLine
 62
7
  6
CONTINUOUS
 10
-19.8056593867
 20
30.5297350282
 11
-23.4793109255
 21
25.990144912
  0
LINE
  5
266
100
AcDbEntity
  8
0
100
AcDbLine
 62
7
  6
CONTINUOUS
 10
-18.1535226881
 20
29.0356192847
 11
-16.953343451
 21
29.9799468079
  0
LINE
  5
267
100
AcDbEntity
  8
RACCORDO
100
AcDbLine
 62
250
  6
CONTINUOUS
 10
31.4934093876
 20
-26.6664251321
 11
31.144376013
 21
-26.7576099854
  0
LINE
  5
268
100
AcDbEntity
  8
ASSI
100
AcDbLine
 62
7
  6
CONTINUOUS
 10
25.0068005616
 20
-31.8367058246
 11
25.1922153743
 21
-31.8107622899
  0
LWPOLYLINE
  5
269
100
AcDbEntity
  8
ASSI
100
AcDbPolyline
 62
250
  6
CONTINUOUS
 90
4
 70
0
 10
-33.3833295582
 20
-13.7134073162
 10
-33.3998943813
 20
-13.6184941897
 10
-33.4100049106
 20
-13.5134321377
 10
-33.4135559127
 20
-13.3992478485
  0
LWPOLYLINE
  5
26A
100
AcDbEntity
  8
ASSI
100
AcDbPolyline
 62
250
  6
CONTINUOUS
 90
10
 70
0
 10
-32.7106889674
 20
20.4707872227
 10
-32.7091816143
 20
20.4333106882
 10
-32.6956437555
 20
20.3808190796
 10
-32.668998319
 20
20.3289914052
 10
-32.6296911554
 20
20.2786948827
 10
-32.5783799807
 20
20.2307711103
 10
-32.5159233704
 20
20.1860219835
 10
-32.4433663938
 20
20.1451962775
 10
-32.3619231267
 20
20.1089771172
 10
-32.272956337
 20
20.0779705477
  0
LWPOLYLINE
  5
26B
100
AcDbEntity
  8
RACCORDO
100
AcDbPolyline
 62
250
  6
CONTINUOUS
 90
10
 70
0
 10
-32.7106284386
 20
20.4719052618
 10
-32.7091816143
 20
20.4333106882
 10
-32.6956437555
 20
20.3808190796
 10
-32.668998319
 20
20.3289914052
 10
-32.6296911554
 20
20.2786948827
 10
-32.5783799807
 20
20.2307711103
 10
-32.5159233704
 20
20.1860219835
 10
-32.4433663938
 20
20.1451962775
 10
-32.3619231267
 20
20.1089771172
 10
-32.272956337
 20
20.0779705477
  0
LWPOLYLINE
  5
26C
100
AcDbEntity
  8
RACCORDO
100
AcDbPolyline
 62
250
  6
CONTINUOUS
 90
10
 70
0
 10
-33.413555913
 20
-13.3992478485
 10
-33.4042552821
 20
-9.8145334202
 10
-33.3655549244
 20
-6.1941636237
 10
-33.2974627869
 20
-2.5389466247
 10
-33.1999936123
 20
1.1503015646
 10
-33.0731689239
 20
4.8727576887
 10
-32.91701701
 20
8.6275914449
 10
-32.7315729369
 20
12.4139651008
 10
-32.5168785533
 20
16.2310336687
 10
-32.2729824613
 20
20.0779455241
  0
LWPOLYLINE
  5
26D
100
AcDbEntity
  8
ASSI
100
AcDbPolyline
 62
250
  6
CONTINUOUS
 90
10
 70
0
 10
-33.413555913
 20
-13.3992478485
 10
-33.4042552821
 20
-9.8145334202
 10
-33.3655549244
 20
-6.1941636237
 10
-33.2974627869
 20
-2.5389466247
 10
-33.1999936123
 20
1.1503015646
 10
-33.0731689239
 20
4.8727576887
 10
-32.91701701
 20
8.6275914449
 10
-32.7315729369
 20
12.4139651008
 10
-32.5168785533
 20
16.2310336687
 10
-32.2729824613
 20
20.0779455241
  0
LWPOLYLINE
  5
26E
100
AcDbEntity
  8
RACCORDO
100
AcDbPolyline
 62
7
  6
CONTINUOUS
 90
3
 70
0
 10
-29.3899904302
 20
26.2839449891
 10
-29.3901284228
 20
26.2817689355
 10
-29.3902421431
 20
26.2808702787
  0
LWPOLYLINE
  5
26F
100
AcDbEntity
  8
RACCORDO
100
AcDbPolyline
 62
250
  6
CONTINUOUS
 90
5
 70
0
 10
-26.7605047557
 20
26.7365714988
 10
-26.767322251
 20
26.6957768421
 10
-26.7724692908
 20
26.656235077
 10
-26.7758958135
 20
26.6182272905
 10
-26.7776518806
 20
26.5814723956
  0
LWPOLYLINE
  5
270
100
AcDbEntity
  8
RACCORDO
100
AcDbPolyline
 62
250
  6
CONTINUOUS
 90
4
 70
0
 10
-26.7308815943
 20
26.8614365033
 10
-26.7422844273
 20
26.8194013294
 10
-26.7521669903
 20
26.7777757861
 10
-26.7605047557
 20
26.7365714988
  0
LWPOLYLINE
  5
271
100
AcDbEntity
  8
RACCORDO
100
AcDbPolyline
 62
250
  6
CONTINUOUS
 90
9
 70
0
 10
-27.353891796
 20
26.1701713088
 10
-27.3626629778
 20
26.1395576948
 10
-27.3750939831
 20
26.1106378718
 10
-27.390972114
 20
26.0839066661
 10
-27.4100256913
 20
26.0598214559
 10
-27.4319287029
 20
26.0387943461
 10
-27.4563063823
 20
26.0211851161
 10
-27.4827416206
 20
26.0072950648
 10
-27.5133676394
 20
25.9966684621
  0
LINE
  5
272
100
AcDbEntity
  8
0
100
AcDbLine
 62
7
  6
CONTINUOUS
 10
-20.4736491491
 20
26.1281769398
 11
-18.1535226881
 21
29.0356192847
  0
LINE
  5
273
100
AcDbEntity
  8
DRAFT
100
AcDbLine
 62
7
  6
CONTINUOUS
 10
-18.7857137232
 20
29.3862394226
 11
-21.2547153187
 21
26.3680347936
  0
LINE
  5
274
100
AcDbEntity
  8
RACCORDO
100
AcDbLine
 62
7
  6
CONTINUOUS
 10
-17.4232883773
 20
30.3705689758
 11
-20.8093805277
 21
26.2312767936
  0
LINE
  5
275
100
AcDbEntity
  8
RACCORDO
100
AcDbLine
 62
250
  6
CONTINUOUS
 10
31.3233462338
 20
-26.3590243286
 11
31.0875431977
 21
-26.4206277935
  0
LWPOLYLINE
  5
276
100
AcDbEntity
  8
RACCORDO
100
AcDbPolyline
 62
250
  6
CONTINUOUS
 90
7
 70
0
 10
29.9939122461
 20
-28.769035768
 10
29.9620707256
 20
-28.774685772
 10
29.9294297552
 20
-28.7776638276
 10
29.8965655182
 20
-28.7779189043
 10
29.8640499016
 20
-28.7754499789
 10
29.8324400807
 20
-28.7703028074
 10
29.8022804
 20
-28.7625690832
  0
LWPOLYLINE
  5
277
100
AcDbEntity
  8
ASSI
100
AcDbPolyline
 62
250
  6
CONTINUOUS
 90
6
 70
0
 10
24.9644670906
 20
-31.2161677747
 10
24.8616160963
 20
-31.223338308
 10
24.7581519973
 20
-31.2224248063
 10
24.6558060283
 20
-31.2134425544
 10
24.5562907148
 20
-31.1965418495
 10
24.4612712176
 20
-31.1720054857
  0
LWPOLYLINE
  5
278
100
AcDbEntity
  8
RACCORDO
100
AcDbPolyline
 62
7
  6
CONTINUOUS
 90
3
 70
0
 10
24.9374070554
 20
-31.8366657612
 10
25.0499493244
 20
-31.834068033
 10
25.1633398579
 20
-31.817337421
  0
LWPOLYLINE
  5
279
100
AcDbEntity
  8
RACCORDO
100
AcDbPolyline
 62
250
  6
CONTINUOUS
 90
12
 70
0
 10
-29.3900022902
 20
26.2839275024
 10
-29.3896937064
 20
26.2790534074
 10
-29.3869164641
 20
26.2632619296
 10
-29.3814777815
 20
26.2477944637
 10
-29.3734550714
 20
26.2328077427
 10
-29.3629101624
 20
26.2183978506
 10
-29.3499403941
 20
26.2047186215
 10
-29.3346828961
 20
26.1919338224
 10
-29.3172575002
 20
26.1801556282
 10
-29.2978209314
 20
26.1695161334
 10
-29.2765804414
 20
26.1601584519
 10
-29.2537554381
 20
26.1522008605
  0
LWPOLYLINE
  5
27A
100
AcDbEntity
  8
RACCORDO
100
AcDbPolyline
 62
250
  6
CONTINUOUS
 90
8
 70
0
 10
-29.7314252367
 20
26.5247387403
 10
-29.7300868798
 20
26.5030932485
 10
-29.7272153833
 20
26.4836875825
 10
-29.7228499693
 20
26.4667868671
 10
-29.7170392585
 20
26.4526004256
 10
-29.7098690459
 20
26.4413535982
 10
-29.7014834348
 20
26.4332339563
 10
-29.6912547978
 20
26.4280607007
  0
LWPOLYLINE
  5
27B
100
AcDbEntity
  8
RACCORDO
100
AcDbPolyline
 62
250
  6
CONTINUOUS
 90
10
 70
0
 10
-29.8677823548
 20
26.6606315583
 10
-29.867505181
 20
26.6554135416
 10
-29.8637225756
 20
26.6349115635
 10
-29.8557126711
 20
26.6149621804
 10
-29.8436235118
 20
26.5959218962
 10
-29.8276583815
 20
26.5781027959
 10
-29.808092238
 20
26.5618113889
 10
-29.7852617225
 20
26.5473273192
 10
-29.7595588895
 20
26.5348987519
 10
-29.7314252367
 20
26.5247387403
  0
LWPOLYLINE
  5
27C
100
AcDbEntity
  8
RACCORDO
100
AcDbPolyline
 62
250
  6
CONTINUOUS
 90
10
 70
0
 10
-29.8756118993
 20
26.9753590848
 10
-29.8753777019
 20
26.970574518
 10
-29.871694281
 20
26.9499519122
 10
-29.8637355301
 20
26.9298791912
 10
-29.8516708723
 20
26.9107460252
 10
-29.8356963962
 20
26.892838637
 10
-29.8160960575
 20
26.8764721974
 10
-29.79321531
 20
26.861929436
 10
-29.767450651
 20
26.8494574606
 10
-29.7392496836
 20
26.8392691952
  0
LINE
  5
27D
100
AcDbEntity
  8
RACCORDO
100
AcDbLine
 62
250
  6
CONTINUOUS
 10
-29.3900370976
 20
26.2850525165
 11
-29.3900022902
 21
26.2839275024
  0
LINE
  5
27E
100
AcDbEntity
  8
RACCORDO
100
AcDbLine
 62
250
  6
CONTINUOUS
 10
-29.8677874524
 20
26.6608286299
 11
-29.8677823548
 21
26.6606315583
  0
LINE
  5
27F
100
AcDbEntity
  8
RACCORDO
100
AcDbLine
 62
7
  6
CONTINUOUS
 10
-30.0888328237
 20
25.519515123
 11
-30.0882566564
 21
25.4963541057
  0
LINE
  5
280
100
AcDbEntity
  8
RACCORDO
100
AcDbLine
 62
7
  6
CONTINUOUS
 10
-29.8677874524
 20
26.6608286299
 11
-29.8756118993
 21
26.9753590848
  0
LINE
  5
281
100
AcDbEntity
  8
DRAFT
100
AcDbLine
 62
7
  6
CONTINUOUS
 10
-29.7718120739
 20
24.611537486
 11
-29.7915567009
 21
25.4052404238
  0
LINE
  5
282
100
AcDbEntity
  8
RACCORDO
100
AcDbLine
 62
250
  6
CONTINUOUS
 10
-29.7314252367
 20
26.5247387403
 11
-29.7392496836
 21
26.8392691952
  0
LINE
  5
283
100
AcDbEntity
  8
RACCORDO
100
AcDbLine
 62
7
  6
CONTINUOUS
 10
-29.3900370986
 20
26.2850525577
 11
-29.3913032158
 21
26.3359484758
  0
LINE
  5
284
100
AcDbEntity
  8
RACCORDO
100
AcDbLine
 62
250
  6
CONTINUOUS
 10
-29.2537554381
 20
26.1522008605
 11
-29.2573027754
 21
26.2947982388
  0
LINE
  5
285
100
AcDbEntity
  8
RACCORDO
100
AcDbLine
 62
250
  6
CONTINUOUS
 10
-26.7434830284
 20
26.3178687949
 11
-26.7431991036
 21
26.3277972974
  0
LWPOLYLINE
  5
286
100
AcDbEntity
  8
RACCORDO
100
AcDbPolyline
 62
250
  6
CONTINUOUS
 90
5
 70
0
 10
-26.3207687583
 20
28.1757985169
 10
-26.3215158809
 20
28.1608659082
 10
-26.3262196396
 20
28.1403640411
 10
-26.3351063785
 20
28.1203620892
 10
-26.3480240431
 20
28.1012022915
  0
LWPOLYLINE
  5
287
100
AcDbEntity
  8
RACCORDO
100
AcDbPolyline
 62
250
  6
CONTINUOUS
 90
5
 70
0
 10
-26.3129443114
 20
27.861268062
 10
-26.3137304475
 20
27.8460271709
 10
-26.3184785754
 20
27.825586045
 10
-26.3273608655
 20
27.8056900754
 10
-26.3401995961
 20
27.7866718366
  0
LINE
  5
288
100
AcDbEntity
  8
RACCORDO
100
AcDbLine
 62
7
  6
CONTINUOUS
 10
-12.8078442774
 20
28.3807738027
 11
-15.7604163554
 21
24.6807888105
  0
LINE
  5
289
100
AcDbEntity
  8
RACCORDO
100
AcDbLine
 62
7
  6
CONTINUOUS
 10
-12.3630872111
 20
28.3825247396
 11
-12.0792708846
 21
28.7294729764
  0
LWPOLYLINE
  5
28A
100
AcDbEntity
  8
RACCORDO
100
AcDbPolyline
 62
7
  6
CONTINUOUS
 90
13
 70
0
 10
-12.8078442774
 20
28.3807738027
 10
-12.792864001
 20
28.3986599056
 10
-12.7780325334
 20
28.4146853767
 10
-12.7633498748
 20
28.428850216
 10
-12.7487546018
 20
28.4411990168
 10
-12.7343081377
 20
28.4516871858
 10
-12.7201947521
 20
28.4601809427
 10
-12.7064187118
 20
28.4666547395
 10
-12.6929757501
 20
28.4711341241
 10
-12.6800373366
 20
28.4735619606
 10
-12.6676099346
 20
28.4739119689
 10
-12.6556870807
 20
28.472210429
 10
-12.6514413018
 20
28.4710754835
  0
LWPOLYLINE
  5
28B
100
AcDbEntity
  8
RACCORDO
100
AcDbPolyline
 62
7
  6
CONTINUOUS
 90
13
 70
0
 10
-12.0792708846
 20
28.7294729764
 10
-12.0496475245
 20
28.7639546677
 10
-12.0203438422
 20
28.7947715403
 10
-11.9913598378
 20
28.8219235943
 10
-11.9625771476
 20
28.8454936056
 10
-11.9341141353
 20
28.8653987982
 10
-11.9063258919
 20
28.8813908444
 10
-11.8792208706
 20
28.8934207219
 10
-11.8527906183
 20
28.9015374529
 10
-11.8273648661
 20
28.9056397771
 10
-11.8029561982
 20
28.9056774035
 10
-11.7795520305
 20
28.901700623
 10
-11.774392667
 20
28.9002591569
  0
LINE
  5
28C
100
AcDbEntity
  8
ASSI
100
AcDbLine
 62
7
  6
CONTINUOUS
 10
24.8249318274
 20
-31.8251979391
 11
25.0068005616
 21
-31.8367058246
  0
LINE
  5
28D
100
AcDbEntity
  8
RACCORDO
100
AcDbLine
 62
250
  6
CONTINUOUS
 10
-27.569534868
 20
25.9243547535
 11
-27.5682072106
 21
25.9028138168
  0
LWPOLYLINE
  5
28E
100
AcDbEntity
  8
RACCORDO
100
AcDbPolyline
 62
250
  6
CONTINUOUS
 90
9
 70
0
 10
-28.0391530306
 20
26.0050583405
 10
-28.0378572608
 20
25.9838316828
 10
-28.0350713001
 20
25.9646562936
 10
-28.0308093519
 20
25.9478216862
 10
-28.0250954745
 20
25.9335707223
 10
-28.0179920471
 20
25.9221706305
 10
-28.0096220129
 20
25.9138575425
 10
-28.0001171364
 20
25.9087513032
 10
-27.9989825918
 20
25.9083803009
  0
LWPOLYLINE
  5
28F
100
AcDbEntity
  8
RACCORDO
100
AcDbPolyline
 62
250
  6
CONTINUOUS
 90
13
 70
0
 10
-27.2319793505
 20
25.9767419319
 10
-27.2337805107
 20
26.0099496346
 10
-27.2372140131
 20
26.0402590898
 10
-27.2422798577
 20
26.0676702974
 10
-27.2490417015
 20
26.0923241312
 10
-27.2574358875
 20
26.1140797174
 10
-27.2672714449
 20
26.1325144349
 10
-27.2785691556
 20
26.147575112
 10
-27.2913082375
 20
26.1593149206
 10
-27.3052353742
 20
26.167470755
 10
-27.3202661267
 20
26.1719549137
 10
-27.336484934
 20
26.1728550983
 10
-27.353891796
 20
26.1701713088
  0
LINE
  5
290
100
AcDbEntity
  8
RACCORDO
100
AcDbLine
 62
250
  6
CONTINUOUS
 10
-28.0469774776
 20
26.3195887954
 11
-28.0391530306
 21
26.0050583405
  0
LINE
  5
291
100
AcDbEntity
  8
RACCORDO
100
AcDbLine
 62
250
  6
CONTINUOUS
 10
-27.7107496175
 20
26.3935169105
 11
-27.7029251706
 21
26.0789864556
  0
LINE
  5
292
100
AcDbEntity
  8
RACCORDO
100
AcDbLine
 62
250
  6
CONTINUOUS
 10
-27.5682072106
 20
25.9028138168
 11
-27.561483232
 21
25.6325204607
  0
LINE
  5
293
100
AcDbEntity
  8
RACCORDO
100
AcDbLine
 62
250
  6
CONTINUOUS
 10
-27.2319793505
 20
25.9767419319
 11
-27.2251038684
 21
25.7003583711
  0
LINE
  5
294
100
AcDbEntity
  8
RACCORDO
100
AcDbLine
 62
250
  6
CONTINUOUS
 10
-26.7705253357
 20
26.2560530431
 11
-26.7777374923
 21
26.5459703922
  0
LINE
  5
295
100
AcDbEntity
  8
RACCORDO
100
AcDbLine
 62
7
  6
CONTINUOUS
 10
-26.7431991036
 20
26.3277972974
 11
-26.7504822076
 21
26.6205666177
  0
LINE
  5
296
100
AcDbEntity
  8
RACCORDO
100
AcDbLine
 62
250
  6
CONTINUOUS
 10
-26.3480240431
 20
28.1012022915
 11
-26.3401995961
 21
27.7866718366
  0
LINE
  5
297
100
AcDbEntity
  8
RACCORDO
100
AcDbLine
 62
7
  6
CONTINUOUS
 10
-26.3207687583
 20
28.1757985169
 11
-26.3129443114
 21
27.861268062
  0
LWPOLYLINE
  5
298
100
AcDbEntity
  8
RACCORDO
100
AcDbPolyline
 62
7
  6
CONTINUOUS
 90
11
 70
0
 10
-26.7504822076
 20
26.6205666177
 10
-26.7505184901
 20
26.640287012
 10
-26.7495826266
 20
26.6632533191
 10
-26.7474713422
 20
26.6893525839
 10
-26.7439783287
 20
26.7185958379
 10
-26.73896549
 20
26.7505323704
 10
-26.7324466405
 20
26.7842171151
 10
-26.7244219449
 20
26.8192005758
 10
-26.7149128347
 20
26.8550659761
 10
-26.7041404706
 20
26.890840162
 10
-26.6923063456
 20
26.9258917011
  0
LINE
  5
299
100
AcDbEntity
  8
RACCORDO
100
AcDbLine
 62
250
  6
CONTINUOUS
 10
-26.7776518806
 20
26.5814723956
 11
-26.7777374923
 21
26.5459703922
  0
LINE
  5
29A
100
AcDbEntity
  8
RACCORDO
100
AcDbLine
 62
7
  6
CONTINUOUS
 10
-12.0447162429
 20
28.1464245764
 11
-15.6363182038
 21
23.5816378297
  0
LINE
  5
29B
100
AcDbEntity
  8
RACCORDO
100
AcDbLine
 62
7
  6
CONTINUOUS
 10
-11.7904635865
 20
27.2380658753
 11
-15.6094822682
 21
22.5028754469
  0
LWPOLYLINE
  5
29C
100
AcDbEntity
  8
RACCORDO
100
AcDbPolyline
 62
250
  6
CONTINUOUS
 90
9
 70
0
 10
-11.6247166517
 20
23.6757441221
 10
-11.6088979234
 20
23.6920588276
 10
-11.5901678499
 20
23.7052243967
 10
-11.5686854289
 20
23.7152174619
 10
-11.5448182308
 20
23.7218670392
 10
-11.5189746299
 20
23.7250593524
 10
-11.4915968174
 20
23.7247397802
 10
-11.4631532353
 20
23.7209137906
 10
-11.434130561
 20
23.7136468472
  0
LWPOLYLINE
  5
29D
100
AcDbEntity
  8
RACCORDO
100
AcDbPolyline
 62
250
  6
CONTINUOUS
 90
9
 70
0
 10
-12.9874422262
 20
21.9680587411
 10
-12.9712086857
 20
21.9847250245
 10
-12.95229503
 20
21.9978815452
 10
-12.9305576487
 20
22.0078422863
 10
-12.9064125102
 20
22.0144016802
 10
-12.8804661113
 20
22.0174367454
 10
-12.8532647049
 20
22.0169734035
 10
-12.8252341782
 20
22.01310314
 10
-12.7968561355
 20
22.0059614662
  0
LWPOLYLINE
  5
29E
100
AcDbEntity
  8
RACCORDO
100
AcDbPolyline
 62
7
  6
CONTINUOUS
 90
3
 70
0
 10
24.7061699313
 20
-31.7972747217
 10
24.8247026454
 20
-31.8252189916
 10
24.9374070554
 20
-31.8366657612
  0
LINE
  5
29F
100
AcDbEntity
  8
ASSI
100
AcDbLine
 62
7
  6
CONTINUOUS
 10
24.7005729028
 20
-31.7954358707
 11
24.8249318274
 21
-31.8251979391
  0
LWPOLYLINE
  5
2A0
100
AcDbEntity
  8
RACCORDO
100
AcDbPolyline
 62
250
  6
CONTINUOUS
 90
10
 70
0
 10
-33.1762936209
 20
-14.0221727599
 10
-33.2116088275
 20
-14.0073550476
 10
-33.2567844592
 20
-13.9747600757
 10
-33.2969135151
 20
-13.9285424134
 10
-33.3315943091
 20
-13.8691731721
 10
-33.3604877949
 20
-13.7972352859
 10
-33.3833295582
 20
-13.7134073162
 10
-33.3998943813
 20
-13.6184941897
 10
-33.4100049106
 20
-13.5134321377
 10
-33.4135559127
 20
-13.3992478485
  0
LWPOLYLINE
  5
2A1
100
AcDbEntity
  8
ASSI
100
AcDbPolyline
 62
250
  6
CONTINUOUS
 90
7
 70
0
 10
-33.1762936209
 20
-14.0221727599
 10
-33.2116088275
 20
-14.0073550476
 10
-33.2567844592
 20
-13.9747600757
 10
-33.2969135151
 20
-13.9285424134
 10
-33.3315943091
 20
-13.8691731721
 10
-33.3604877949
 20
-13.7972352859
 10
-33.3833295582
 20
-13.7134073162
  0
LINE
  5
2A2
100
AcDbEntity
  8
RACCORDO
100
AcDbLine
 62
250
  6
CONTINUOUS
 10
-26.3504602491
 20
28.1264995669
 11
-26.3480240431
 21
28.1012022915
  0
LWPOLYLINE
  5
2A3
100
AcDbEntity
  8
RACCORDO
100
AcDbPolyline
 62
7
  6
CONTINUOUS
 90
18
 70
0
 10
-23.5351370071
 20
25.8393158904
 10
-23.5346032199
 20
25.8290586492
 10
-23.5319632318
 20
25.808462517
 10
-23.527159391
 20
25.7880549754
 10
-23.520219263
 20
25.7678336219
 10
-23.5112320173
 20
25.7480582677
 10
-23.5001712386
 20
25.7287346677
 10
-23.487063342
 20
25.7098570669
 10
-23.4720767425
 20
25.6916680115
 10
-23.4551871982
 20
25.6741763862
 10
-23.4364189509
 20
25.6573733062
 10
-23.4160131418
 20
25.6414746636
 10
-23.3939486405
 20
25.6264921288
 10
-23.3702465774
 20
25.6124140313
 10
-23.3452114851
 20
25.5994212515
 10
-23.3189448745
 20
25.587574083
 10
-23.2913452346
 20
25.5768122321
 10
-23.2624125654
 20
25.5671356989
  0
LINE
  5
2A4
100
AcDbEntity
  8
RACCORDO
100
AcDbLine
 62
7
  6
CONTINUOUS
 10
-23.508380856
 20
24.7637607184
 11
-23.5351369968
 21
25.8393154782
  0
LINE
  5
2A5
100
AcDbEntity
  8
RACCORDO
100
AcDbLine
 62
250
  6
CONTINUOUS
 10
-23.2357459366
 20
24.4951791846
 11
-23.2624125654
 21
25.5671356989
  0
LWPOLYLINE
  5
2A6
100
AcDbEntity
  8
RACCORDO
100
AcDbPolyline
 62
250
  6
CONTINUOUS
 90
16
 70
0
 10
-12.7049181754
 20
21.0850142661
 10
-12.7244444255
 20
21.05725248
 10
-12.7390570385
 20
21.0291698192
 10
-12.7487560143
 20
21.0007662838
 10
-12.7534927795
 20
20.9717370286
 10
-12.7533159075
 20
20.9423868989
 10
-12.7483711189
 20
20.9136304296
 10
-12.7385585501
 20
20.8855135832
 10
-12.7239780646
 20
20.8579903974
 10
-12.7050749738
 20
20.83183752
 10
-12.6817419793
 20
20.8070686694
 10
-12.6540863795
 20
20.7836701273
 10
-12.6228753813
 20
20.7623773864
 10
-12.5883647203
 20
20.743435611
 10
-12.5502986609
 20
20.7265996368
 10
-12.5086772031
 20
20.7118694638
  0
LWPOLYLINE
  5
2A7
100
AcDbEntity
  8
RACCORDO
100
AcDbPolyline
 62
250
  6
CONTINUOUS
 90
13
 70
0
 10
-11.1045839295
 20
21.4862810664
 10
-11.1194243214
 20
21.4659601969
 10
-11.1339307267
 20
21.4426375484
 10
-11.1478522526
 20
21.4167126628
 10
-11.1609491237
 20
21.3886274186
 10
-11.1729922253
 20
21.3588682035
 10
-11.1837684261
 20
21.3279592788
 10
-11.1931099961
 20
21.2963657944
 10
-11.2008293515
 20
21.2647037184
 10
-11.2067572359
 20
21.2337365411
 10
-11.2108218259
 20
21.2040478093
 10
-11.2130091642
 20
21.176038201
 10
-11.2133223755
 20
21.1501363973
  0
LWPOLYLINE
  5
2A8
100
AcDbEntity
  8
RACCORDO
100
AcDbPolyline
 62
250
  6
CONTINUOUS
 90
13
 70
0
 10
-12.7968561355
 20
22.0059614662
 10
-12.8116374975
 20
21.9857283532
 10
-12.8260834402
 20
21.9625248201
 10
-12.8399467895
 20
21.9367478857
 10
-12.8529903398
 20
21.9088386006
 10
-12.8649909122
 20
21.8792745004
 10
-12.8757431735
 20
21.848561435
 10
-12.8850631497
 20
21.8172249134
 10
-12.8927913734
 20
21.7858011124
 10
-12.8987956125
 20
21.7548277017
 10
-12.9029731328
 20
21.7248346451
 10
-12.9052524558
 20
21.696335132
 10
-12.9055945816
 20
21.6698167971
  0
LINE
  5
2A9
100
AcDbEntity
  8
RACCORDO
100
AcDbLine
 62
7
  6
CONTINUOUS
 10
-10.0566067447
 20
23.3597883902
 11
-7.0827521972
 21
27.3456768912
  0
LWPOLYLINE
  5
2AA
100
AcDbEntity
  8
RACCORDO
100
AcDbPolyline
 62
250
  6
CONTINUOUS
 90
13
 70
0
 10
-12.5086772031
 20
20.7118694638
 10
-12.4967009284
 20
20.7279074366
 10
-12.4849738767
 20
20.7464117082
 10
-12.4737011784
 20
20.7670586008
 10
-12.463080016
 20
20.7894869577
 10
-12.4532961757
 20
20.8133044607
 10
-12.4445207969
 20
20.8380944927
 10
-12.436907379
 20
20.8634234249
 10
-12.4305890965
 20
20.8888482021
 10
-12.4256764691
 20
20.9139240927
 10
-12.4222554288
 20
20.9382124676
 10
-12.4203858167
 20
20.9612884731
 10
-12.420100336
 20
20.9827484624
  0
LINE
  5
2AB
100
AcDbEntity
  8
DRAFT
100
AcDbLine
 62
7
  6
CONTINUOUS
 10
-9.7815503098
 20
23.2753212238
 11
-7.0423153195
 21
26.8594233828
  0
LINE
  5
2AC
100
AcDbEntity
  8
RACCORDO
100
AcDbLine
 62
7
  6
CONTINUOUS
 10
-12.9874422262
 20
21.9680587411
 11
-11.6247166517
 21
23.6757441221
  0
LINE
  5
2AD
100
AcDbEntity
  8
RACCORDO
100
AcDbLine
 62
250
  6
CONTINUOUS
 10
-12.7968561355
 20
22.0059614662
 11
-11.434130561
 21
23.7136468472
  0
LINE
  5
2AE
100
AcDbEntity
  8
RACCORDO
100
AcDbLine
 62
250
  6
CONTINUOUS
 10
-11.1045839295
 20
21.4862810664
 11
-9.741858355
 21
23.1939664474
  0
LINE
  5
2AF
100
AcDbEntity
  8
RACCORDO
100
AcDbLine
 62
250
  6
CONTINUOUS
 10
-10.8770945155
 20
21.2240645124
 11
-9.514368941
 21
22.9317498934
  0
LINE
  5
2B0
100
AcDbEntity
  8
RACCORDO
100
AcDbLine
 62
250
  6
CONTINUOUS
 10
-12.6220776614
 20
21.1862817676
 11
-12.7049181754
 21
21.0850142661
  0
LINE
  5
2B1
100
AcDbEntity
  8
RACCORDO
100
AcDbLine
 62
7
  6
CONTINUOUS
 10
-11.3044087038
 20
23.7429762832
 11
-8.0936534004
 21
27.5055284595
  0
LWPOLYLINE
  5
2B2
100
AcDbEntity
  8
RACCORDO
100
AcDbPolyline
 62
250
  6
CONTINUOUS
 90
13
 70
0
 10
-10.8692700685
 20
20.9095340575
 10
-10.8858640368
 20
20.8916690158
 10
-10.9059821327
 20
20.8752234533
 10
-10.9293058035
 20
20.8604866966
 10
-10.9554784064
 20
20.847713338
 10
-10.9840527126
 20
20.837147854
 10
-11.0144819015
 20
20.8290027441
 10
-11.046219217
 20
20.8234211457
 10
-11.0787413475
 20
20.8204920134
 10
-11.1114886687
 20
20.8202655647
 10
-11.1438985923
 20
20.8227452987
 10
-11.1754152817
 20
20.8278882924
 10
-11.2054979286
 20
20.8356059424
  0
LWPOLYLINE
  5
2B3
100
AcDbEntity
  8
RACCORDO
100
AcDbPolyline
 62
250
  6
CONTINUOUS
 90
13
 70
0
 10
-10.8770945155
 20
21.2240645124
 10
-10.8938220809
 20
21.2060746983
 10
-10.914073334
 20
21.1895626787
 10
-10.9375017701
 20
21.1748109786
 10
-10.9637065222
 20
21.1620720037
 10
-10.9922392197
 20
21.1515637216
 10
-11.0226116602
 20
21.1434659317
 10
-11.054304163
 20
21.1379171895
 10
-11.0867744604
 20
21.1350124356
 10
-11.1194669767
 20
21.134801371
 10
-11.1518223339
 20
21.1372876071
 10
-11.1832869228
 20
21.1424286039
 10
-11.2133223755
 20
21.1501363973
  0
LWPOLYLINE
  5
2B4
100
AcDbEntity
  8
RACCORDO
100
AcDbPolyline
 62
250
  6
CONTINUOUS
 90
12
 70
0
 10
-10.3983242485
 20
20.8072895338
 10
-10.4150518139
 20
20.7892997197
 10
-10.435303067
 20
20.7727877001
 10
-10.4587315031
 20
20.758036
 10
-10.4849362551
 20
20.7452970251
 10
-10.5134689526
 20
20.734788743
 10
-10.5438413932
 20
20.7266909531
 10
-10.575533896
 20
20.7211422109
 10
-10.6080041934
 20
20.718237457
 10
-10.6406967097
 20
20.7180263924
 10
-10.6730520668
 20
20.7205126285
 10
-10.7045166557
 20
20.7256536253
  0
LWPOLYLINE
  5
2B5
100
AcDbEntity
  8
RACCORDO
100
AcDbPolyline
 62
250
  6
CONTINUOUS
 90
9
 70
0
 10
-9.403540985
 20
20.5326202473
 10
-9.3952560863
 20
20.5405033116
 10
-9.3866057893
 20
20.5489291151
 10
-9.3775995268
 20
20.5578746914
 10
-9.3682278661
 20
20.5673630069
 10
-9.3584623365
 20
20.5775888948
 10
-9.3482934477
 20
20.5886172996
 10
-9.33773069
 20
20.6003832769
 10
-9.3267740634
 20
20.6128868266
  0
LWPOLYLINE
  5
2B6
100
AcDbEntity
  8
RACCORDO
100
AcDbPolyline
 62
250
  6
CONTINUOUS
 90
3
 70
0
 10
-9.4457700226
 20
20.493291906
 10
-9.418999692
 20
20.518105487
 10
-9.403540985
 20
20.5326202473
  0
LWPOLYLINE
  5
2B7
100
AcDbEntity
  8
RACCORDO
100
AcDbPolyline
 62
250
  6
CONTINUOUS
 90
20
 70
0
 10
-10.5466775235
 20
20.1866174161
 10
-10.5303067639
 20
20.1924660103
 10
-10.5130087954
 20
20.1988150639
 10
-10.4949464034
 20
20.2056939919
 10
-10.476774575
 20
20.2129245259
 10
-10.4588364365
 20
20.2204256453
 10
-10.4410855237
 20
20.2282712106
 10
-10.4236426728
 20
20.2364585529
 10
-10.40675792
 20
20.2449124629
 10
-10.3905817624
 20
20.2535753361
 10
-10.3751121219
 20
20.262457178
 10
-10.3604367592
 20
20.2715040231
 10
-10.3466152374
 20
20.2806681296
 10
-10.3335615118
 20
20.2899991254
 10
-10.3213143695
 20
20.2994529192
 10
-10.3099161453
 20
20.308955669
 10
-10.2992958257
 20
20.3185330087
 10
-10.289446437
 20
20.3281674652
 10
-10.2803982315
 20
20.3377915612
 10
-10.2721398845
 20
20.3473705248
  0
LINE
  5
2B8
100
AcDbEntity
  8
RACCORDO
100
AcDbLine
 62
250
  6
CONTINUOUS
 10
-10.5763231906
 20
20.1762149321
 11
-10.5466775235
 21
20.1866174161
  0
LINE
  5
2B9
100
AcDbEntity
  8
RACCORDO
100
AcDbLine
 62
250
  6
CONTINUOUS
 10
-10.6129900302
 20
20.1635721334
 11
-10.5763231906
 21
20.1762149321
  0
LWPOLYLINE
  5
2BA
100
AcDbEntity
  8
RACCORDO
100
AcDbPolyline
 62
250
  6
CONTINUOUS
 90
3
 70
0
 10
31.3438802329
 20
-26.3589847546
 10
31.334743572
 20
-26.3575856135
 10
31.3233462338
 20
-26.3590243286
  0
LINE
  5
2BB
100
AcDbEntity
  8
RACCORDO
100
AcDbLine
 62
7
  6
CONTINUOUS
 10
24.707234244
 20
-31.7976433941
 11
-33.1762900464
 21
-14.0221738576
  0
LINE
  5
2BC
100
AcDbEntity
  8
ASSI
100
AcDbLine
 62
7
  6
CONTINUOUS
 10
24.707234244
 20
-31.7976433941
 11
-33.1762900464
 21
-14.0221738576
  0
LINE
  5
2BD
100
AcDbEntity
  8
RACCORDO
100
AcDbLine
 62
250
  6
CONTINUOUS
 10
24.4612435409
 20
-31.1720380722
 11
-33.413555913
 21
-13.3992478485
  0
LINE
  5
2BE
100
AcDbEntity
  8
ASSI
100
AcDbLine
 62
250
  6
CONTINUOUS
 10
24.4612435409
 20
-31.1720380722
 11
-33.413555913
 21
-13.3992478485
  0
LINE
  5
2BF
100
AcDbEntity
  8
ASSI
100
AcDbLine
 62
250
  6
CONTINUOUS
 10
24.7006115386
 20
-31.7954854067
 11
24.707237795
 21
-31.7976444846
  0
LWPOLYLINE
  5
2C0
100
AcDbEntity
  8
RACCORDO
100
AcDbPolyline
 62
250
  6
CONTINUOUS
 90
20
 70
0
 10
-29.5146013918
 20
26.016239213
 10
-29.517434016
 20
26.0279003387
 10
-29.5201561083
 20
26.0399589987
 10
-29.5227365077
 20
26.0523461156
 10
-29.5248365042
 20
26.064996174
 10
-29.5264510899
 20
26.0778730507
 10
-29.527607386
 20
26.0909264046
 10
-29.5280349185
 20
26.1040733765
 10
-29.5277535383
 20
26.117237866
 10
-29.5268204761
 20
26.1303514382
 10
-29.5250459201
 20
26.1433439578
 10
-29.5224344021
 20
26.1561343153
 10
-29.5191030244
 20
26.1686473125
 10
-29.5150338609
 20
26.1808386932
 10
-29.5102343864
 20
26.1926599698
 10
-29.5047796116
 20
26.2040786008
 10
-29.4987527643
 20
26.215081462
 10
-29.4922192415
 20
26.2256326945
 10
-29.4852090806
 20
26.2356886398
 10
-29.4777519582
 20
26.2452300689
  0
LWPOLYLINE
  5
2C1
100
AcDbEntity
  8
RACCORDO
100
AcDbPolyline
 62
250
  6
CONTINUOUS
 90
5
 70
0
 10
-29.5014942616
 20
25.9640496836
 10
-29.5037358964
 20
25.9736466153
 10
-29.5061828749
 20
25.9836623873
 10
-29.5087980082
 20
25.9941101318
 10
-29.5146013918
 20
26.016239213
  0
LINE
  5
2C2
100
AcDbEntity
  8
RACCORDO
100
AcDbLine
 62
7
  6
CONTINUOUS
 10
-9.5720698962
 20
22.4203969159
 11
-7.9609752622
 21
25.5287757822
  0
LINE
  5
2C3
100
AcDbEntity
  8
RACCORDO
100
AcDbLine
 62
250
  6
CONTINUOUS
 10
-9.478449516
 20
22.6913796438
 11
-7.9300136509
 21
25.6733782361
  0
LWPOLYLINE
  5
2C4
100
AcDbEntity
  8
RACCORDO
100
AcDbPolyline
 62
250
  6
CONTINUOUS
 90
5
 70
0
 10
-9.9440823903
 20
21.3765179941
 10
-9.9311647257
 20
21.3956777918
 10
-9.9222779868
 20
21.4156797437
 10
-9.9175742282
 20
21.4361816108
 10
-9.9168271056
 20
21.4511142195
  0
LINE
  5
2C5
100
AcDbEntity
  8
RACCORDO
100
AcDbLine
 62
250
  6
CONTINUOUS
 10
-10.0695750167
 20
19.758219559
 11
-10.0445346174
 21
19.7946285087
  0
LWPOLYLINE
  5
2C6
100
AcDbEntity
  8
RACCORDO
100
AcDbPolyline
 62
250
  6
CONTINUOUS
 90
12
 70
0
 10
-10.0445346174
 20
19.7946285087
 10
-10.0305511198
 20
19.8147133412
 10
-10.0241668933
 20
19.8237373701
 10
-10.0181109759
 20
19.8321618758
 10
-10.0124029877
 20
19.8399735546
 10
-10.0069305329
 20
19.8473307898
 10
-10.0016917839
 20
19.8542347381
 10
-9.9966885682
 20
19.8606842427
 10
-9.9918139733
 20
19.8668342168
 10
-9.9870323618
 20
19.8727362981
 10
-9.982379371
 20
19.8783388489
 10
-9.977855001
 20
19.8836418692
  0
LWPOLYLINE
  5
2C7
100
AcDbEntity
  8
RACCORDO
100
AcDbPolyline
 62
250
  6
CONTINUOUS
 90
5
 70
0
 10
-9.9368702336
 20
21.086600645
 10
-9.9260796591
 20
21.1013999923
 10
-9.91793903
 20
21.1167603978
 10
-9.9125111999
 20
21.1324979549
 10
-9.9098279263
 20
21.1484163968
  0
LWPOLYLINE
  5
2C8
100
AcDbEntity
  8
RACCORDO
100
AcDbPolyline
 62
250
  6
CONTINUOUS
 90
13
 70
0
 10
-10.8164049971
 20
20.192189064
 10
-10.8044285645
 20
20.2082272685
 10
-10.7927013946
 20
20.2267317816
 10
-10.7814286215
 20
20.247378896
 10
-10.770807429
 20
20.2698074276
 10
-10.7610235985
 20
20.2936250404
 10
-10.7522482606
 20
20.3184151113
 10
-10.7446349074
 20
20.3437440024
 10
-10.7383167018
 20
20.3691686616
 10
-10.733404149
 20
20.3942443809
 10
-10.7299831707
 20
20.4185325477
 10
-10.7281135997
 20
20.4416083176
 10
-10.72782813
 20
20.4630680626
  0
LWPOLYLINE
  5
2C9
100
AcDbEntity
  8
RACCORDO
100
AcDbPolyline
 62
250
  6
CONTINUOUS
 90
23
 70
0
 10
-9.8131005893
 20
20.9003349887
 10
-9.8069186188
 20
20.9080233744
 10
-9.8010071217
 20
20.916035431
 10
-9.7953692346
 20
20.9243568693
 10
-9.7900144696
 20
20.9329497053
 10
-9.7849826924
 20
20.9417846397
 10
-9.7803368716
 20
20.9508461481
 10
-9.7761239833
 20
20.960098461
 10
-9.7723510289
 20
20.9695185939
 10
-9.7690252753
 20
20.979106308
 10
-9.766193144
 20
20.9888514761
 10
-9.7638626456
 20
20.998715346
 10
-9.7619895717
 20
21.0086506546
 10
-9.7606408793
 20
21.018649119
 10
-9.7598180962
 20
21.0286659107
 10
-9.7593830347
 20
21.0386030191
 10
-9.759368393
 20
21.0484288686
 10
-9.7598040792
 20
21.0581464373
 10
-9.7605370413
 20
21.0677275269
 10
-9.7615761498
 20
21.0772089423
 10
-9.7629120948
 20
21.0865844082
 10
-9.7643685994
 20
21.0957644478
 10
-9.7659471532
 20
21.1047410171
  0
LINE
  5
2CA
100
AcDbEntity
  8
RACCORDO
100
AcDbLine
 62
250
  6
CONTINUOUS
 10
-10.3914487664
 20
20.530905973
 11
-9.9368702336
 21
21.086600645
  0
LINE
  5
2CB
100
AcDbEntity
  8
RACCORDO
100
AcDbLine
 62
250
  6
CONTINUOUS
 10
-10.2721405748
 20
20.3473711183
 11
-9.8131008179
 21
20.9003341684
  0
LWPOLYLINE
  5
2CC
100
AcDbEntity
  8
RACCORDO
100
AcDbPolyline
 62
250
  6
CONTINUOUS
 90
9
 70
0
 10
-10.1661327501
 20
19.6292805399
 10
-10.1550328536
 20
19.642584605
 10
-10.1439589718
 20
19.6562736541
 10
-10.1329111045
 20
19.6703476871
 10
-10.1218001848
 20
19.6849791853
 10
-10.1107152796
 20
19.6999956675
 10
-10.0999235901
 20
19.7148796902
 10
-10.0894153228
 20
19.7296713201
 10
-10.0695750167
 20
19.758219559
  0
LINE
  5
2CD
100
AcDbEntity
  8
RACCORDO
100
AcDbLine
 62
250
  6
CONTINUOUS
 10
-9.7737550335
 20
21.1471737425
 11
-9.3649923659
 21
21.6261878132
  0
LINE
  5
2CE
100
AcDbEntity
  8
RACCORDO
100
AcDbLine
 62
250
  6
CONTINUOUS
 10
-9.3267740634
 20
20.6128868266
 11
-8.9098056304
 21
21.1015150597
  0
LINE
  5
2CF
100
AcDbEntity
  8
RACCORDO
100
AcDbLine
 62
250
  6
CONTINUOUS
 10
-10.3201813148
 20
19.4487537624
 11
-10.1661327501
 21
19.6292805399
  0
LINE
  5
2D0
100
AcDbEntity
  8
RACCORDO
100
AcDbLine
 62
250
  6
CONTINUOUS
 10
-10.7753680503
 20
19.9734265159
 11
-10.6130501185
 21
20.1635676458
  0
LWPOLYLINE
  5
2D1
100
AcDbEntity
  8
RACCORDO
100
AcDbPolyline
 62
250
  6
CONTINUOUS
 90
14
 70
0
 10
-9.977855001
 20
19.8836418692
 10
-9.5038852371
 20
20.4341347498
 10
-9.4998898683
 20
20.4386532613
 10
-9.495773834
 20
20.4432178522
 10
-9.4915522189
 20
20.4478164011
 10
-9.4872099384
 20
20.4524610293
 10
-9.482701738
 20
20.4571881009
 10
-9.4780255213
 20
20.461997005
 10
-9.4731833847
 20
20.4668883525
 10
-9.4681363633
 20
20.4719003402
 10
-9.4628879586
 20
20.4770254039
 10
-9.4574346692
 20
20.4822711077
 10
-9.4517270251
 20
20.487698341
 10
-9.4457700226
 20
20.493291906
  0
LINE
  5
2D2
100
AcDbEntity
  8
DRAFT
100
AcDbLine
 62
7
  6
CONTINUOUS
 10
-10.0127032072
 20
19.7306073154
 11
-10.3196051475
 21
19.4255927452
  0
LINE
  5
2D3
100
AcDbEntity
  8
RACCORDO
100
AcDbLine
 62
7
  6
CONTINUOUS
 10
29.8424508388
 20
-28.8592471227
 11
28.5134674124
 21
-28.4511291876
  0
LINE
  5
2D4
100
AcDbEntity
  8
RACCORDO
100
AcDbLine
 62
250
  6
CONTINUOUS
 10
29.8022804
 20
-28.7625690832
 11
28.4907170674
 21
-28.3598006901
  0
LINE
  5
2D5
100
AcDbEntity
  8
RACCORDO
100
AcDbLine
 62
250
  6
CONTINUOUS
 10
28.5012411972
 20
-28.0509049054
 11
29.794455953
 21
-28.4480386283
  0
LINE
  5
2D6
100
AcDbEntity
  8
RACCORDO
100
AcDbLine
 62
250
  6
CONTINUOUS
 10
28.5098450682
 20
-27.7983710142
 11
29.8470601948
 21
-28.2090168247
  0
LINE
  5
2D7
100
AcDbEntity
  8
RACCORDO
100
AcDbLine
 62
250
  6
CONTINUOUS
 10
29.8424508388
 20
-28.8592471227
 11
29.842329396
 21
-28.8592095725
  0
LWPOLYLINE
  5
2D8
100
AcDbEntity
  8
RACCORDO
100
AcDbPolyline
 62
7
  6
CONTINUOUS
 90
14
 70
0
 10
-18.8057663863
 20
30.1923249241
 10
-18.8069051031
 20
30.2172274266
 10
-18.8089869442
 20
30.2406150529
 10
-18.8120119095
 20
30.2624878031
 10
-18.8160009696
 20
30.2829261356
 10
-18.8209331539
 20
30.3018495919
 10
-18.8267455507
 20
30.3190167968
 10
-18.8334494354
 20
30.334405253
 10
-18.8410335325
 20
30.3480374578
 10
-18.8494011043
 20
30.3597395276
 10
-18.858562187
 20
30.3694867379
 10
-18.8685067444
 20
30.3773038131
 10
-18.8791079301
 20
30.3830910439
 10
-18.8861283766
 20
30.3856874828
  0
LWPOLYLINE
  5
2D9
100
AcDbEntity
  8
RACCORDO
100
AcDbPolyline
 62
7
  6
CONTINUOUS
 90
14
 70
0
 10
-16.9576889966
 20
30.1546309031
 10
-16.9599291561
 20
30.2038904212
 10
-16.9640149866
 20
30.2501928536
 10
-16.9699464881
 20
30.2935382003
 10
-16.9777638445
 20
30.3340827692
 10
-16.9874268718
 20
30.3716702523
 10
-16.9988150189
 20
30.4058317262
 10
-17.0119498972
 20
30.436524271
 10
-17.0268098953
 20
30.4637908065
 10
-17.0432096267
 20
30.4872911684
 10
-17.0611683807
 20
30.5069781753
 10
-17.0806668681
 20
30.5228990086
 10
-17.101461835
 20
30.5348550474
 10
-17.1184101597
 20
30.5413551563
  0
LINE
  5
2DA
100
AcDbEntity
  8
RACCORDO
100
AcDbLine
 62
7
  6
CONTINUOUS
 10
-18.7857137232
 20
29.3862394226
 11
-18.8057663863
 21
30.1923249241
  0
LINE
  5
2DB
100
AcDbEntity
  8
RACCORDO
100
AcDbLine
 62
7
  6
CONTINUOUS
 10
-16.953343451
 20
29.9799468079
 11
-16.9576889966
 21
30.1546309031
  0
LINE
  5
2DC
100
AcDbEntity
  8
RACCORDO
100
AcDbLine
 62
250
  6
CONTINUOUS
 10
-16.3100746529
 20
23.4321400799
 11
-16.2834080241
 21
22.3601835657
  0
LWPOLYLINE
  5
2DD
100
AcDbEntity
  8
RACCORDO
100
AcDbPolyline
 62
250
  6
CONTINUOUS
 90
4
 70
0
 10
-9.8972264923
 20
21.6919841052
 10
-9.9086293253
 20
21.6499489312
 10
-9.9185118883
 20
21.608323388
 10
-9.9268496537
 20
21.5671191007
  0
LWPOLYLINE
  5
2DE
100
AcDbEntity
  8
RACCORDO
100
AcDbPolyline
 62
250
  6
CONTINUOUS
 90
9
 70
0
 10
-10.8692700685
 20
20.9095340575
 10
-10.8780412503
 20
20.8789204434
 10
-10.8904722557
 20
20.8500006204
 10
-10.9063503866
 20
20.8232694147
 10
-10.9254039638
 20
20.7991842046
 10
-10.9473069754
 20
20.7781570947
 10
-10.9716846548
 20
20.7605478647
 10
-10.9981198931
 20
20.7466578135
 10
-11.0287459119
 20
20.7360312108
  0
LWPOLYLINE
  5
2DF
100
AcDbEntity
  8
RACCORDO
100
AcDbPolyline
 62
250
  6
CONTINUOUS
 90
9
 70
0
 10
-10.520236694
 20
21.0007189107
 10
-10.5290078758
 20
20.9701052967
 10
-10.5414388811
 20
20.9411854737
 10
-10.557317012
 20
20.914454268
 10
-10.5763705893
 20
20.8903690578
 10
-10.5982736009
 20
20.8693419479
 10
-10.6226512802
 20
20.851732718
 10
-10.6490865185
 20
20.8378426667
 10
-10.6797125374
 20
20.827216064
  0
LWPOLYLINE
  5
2E0
100
AcDbEntity
  8
RACCORDO
100
AcDbPolyline
 62
250
  6
CONTINUOUS
 90
3
 70
0
 10
-9.8706059091
 20
21.7743562219
 10
-9.8845271571
 20
21.7335507728
 10
-9.8972264923
 20
21.6919841052
  0
LWPOLYLINE
  5
2E1
100
AcDbEntity
  8
RACCORDO
100
AcDbPolyline
 62
7
  6
CONTINUOUS
 90
3
 70
0
 10
-9.8586512436
 20
21.756439303
 10
-9.8458774142
 20
21.7904785621
 10
-9.8323550742
 20
21.8230723236
  0
LWPOLYLINE
  5
2E2
100
AcDbEntity
  8
RACCORDO
100
AcDbPolyline
 62
250
  6
CONTINUOUS
 90
3
 70
0
 10
-9.8388739067
 20
21.8545616012
 10
-9.855388159
 20
21.8146931647
 10
-9.8706059091
 20
21.7743562219
  0
LINE
  5
2E3
100
AcDbEntity
  8
RACCORDO
100
AcDbLine
 62
250
  6
CONTINUOUS
 10
-9.8388739067
 20
21.8545616012
 11
-9.5065444941
 21
22.6172194385
  0
LINE
  5
2E4
100
AcDbEntity
  8
RACCORDO
100
AcDbLine
 62
7
  6
CONTINUOUS
 10
-9.8323550742
 20
21.8230723236
 11
-9.5000256615
 21
22.5857301609
  0
LWPOLYLINE
  5
2E5
100
AcDbEntity
  8
ASSI
100
AcDbPolyline
 62
250
  6
CONTINUOUS
 90
5
 70
0
 10
-3.8296425289
 20
-17.4784818076
 10
-3.9384419378
 20
-17.5013478474
 10
-4.0530963559
 20
-17.5103709668
 10
-4.1717477287
 20
-17.5056710072
 10
-4.2929385692
 20
-17.4875119608
  0
LWPOLYLINE
  5
2E6
100
AcDbEntity
  8
0
100
AcDbPolyline
 62
7
  6
CONTINUOUS
 90
4
 70
0
 10
-3.5582965711
 20
-17.0381694123
 10
-3.4972676674
 20
-17.0323012456
 10
-3.3866859018
 20
-17.0071818393
 10
-3.3724265724
 20
-17.0018299356
  0
LWPOLYLINE
  5
2E7
100
AcDbEntity
  8
ASSI
100
AcDbPolyline
 62
7
  6
CONTINUOUS
 90
4
 70
0
 10
-3.5582965711
 20
-17.0381694123
 10
-3.4972676674
 20
-17.0323012456
 10
-3.3866859018
 20
-17.0071818393
 10
-3.3724265724
 20
-17.0018299356
  0
LWPOLYLINE
  5
2E8
100
AcDbEntity
  8
RACCORDO
100
AcDbPolyline
 62
250
  6
CONTINUOUS
 90
5
 70
0
 10
-3.9477124517
 20
-17.639826436
 10
-4.0712312364
 20
-17.6501636972
 10
-4.1974262861
 20
-17.6454583254
 10
-4.32812186
 20
-17.6260045046
 10
-4.4633198795
 20
-17.5918044497
  0
LWPOLYLINE
  5
2E9
100
AcDbEntity
  8
RACCORDO
100
AcDbPolyline
 62
7
  6
CONTINUOUS
 90
3
 70
0
 10
-4.891350251
 20
-15.4845985082
 10
-4.7741749312
 20
-15.4762878249
 10
-4.6514331575
 20
-15.482625597
  0
LINE
  5
2EA
100
AcDbEntity
  8
RACCORDO
100
AcDbLine
 62
250
  6
CONTINUOUS
 10
-4.8336180073
 20
-15.428215124
 11
-4.7072054754
 21
-15.4327383548
  0
LWPOLYLINE
  5
2EB
100
AcDbEntity
  8
ASSI
100
AcDbPolyline
 62
250
  6
CONTINUOUS
 90
3
 70
0
 10
-4.8336180073
 20
-15.428215124
 10
-4.7072054754
 20
-15.4327383548
 10
-4.5763074701
 20
-15.4520841263
  0
LWPOLYLINE
  5
2EC
100
AcDbEntity
  8
RACCORDO
100
AcDbPolyline
 62
250
  6
CONTINUOUS
 90
29
 70
0
 10
-4.3572448697
 20
-17.3919542913
 10
-4.3118025787
 20
-17.3945658033
 10
-4.2669822272
 20
-17.3945207112
 10
-4.222892686
 20
-17.3918025992
 10
-4.179735443
 20
-17.3864067249
 10
-4.1377316307
 20
-17.3783545431
 10
-4.0970295395
 20
-17.3676760609
 10
-4.0577608156
 20
-17.3544076175
 10
-4.0201039886
 20
-17.3386164123
 10
-3.9842143053
 20
-17.3203852563
 10
-3.9501682173
 20
-17.2997714286
 10
-3.9180199088
 20
-17.276813134
 10
-3.887859822
 20
-17.2515675217
 10
-3.8598142106
 20
-17.2241323506
 10
-3.8339882925
 20
-17.1946085194
 10
-3.8104697426
 20
-17.1630965912
 10
-3.7893371677
 20
-17.1297022487
 10
-3.7706663978
 20
-17.0945477283
 10
-3.7545277412
 20
-17.0577766913
 10
-3.7409609098
 20
-17.019492661
 10
-3.7299937421
 20
-16.9797600052
 10
-3.7216671358
 20
-16.9386667876
 10
-3.7160321735
 20
-16.8963856128
 10
-3.713120981
 20
-16.8531127236
 10
-3.7129433946
 20
-16.8090120324
 10
-3.7154987817
 20
-16.7642169649
 10
-3.7207778052
 20
-16.7188868085
 10
-3.7287605558
 20
-16.6731810261
 10
-3.7394194991
 20
-16.6272496723
  0
LINE
  5
2ED
100
AcDbEntity
  8
RACCORDO
100
AcDbLine
 62
250
  6
CONTINUOUS
 10
-4.7072054754
 20
-15.4327383548
 11
-4.5763074701
 21
-15.4520841263
  0
LWPOLYLINE
  5
2EE
100
AcDbEntity
  8
ASSI
100
AcDbPolyline
 62
250
  6
CONTINUOUS
 90
3
 70
0
 10
-4.1974262861
 20
-17.6454583254
 10
-4.32812186
 20
-17.6260045046
 10
-4.4633198795
 20
-17.5918044497
  0
LINE
  5
2EF
100
AcDbEntity
  8
RACCORDO
100
AcDbLine
 62
7
  6
CONTINUOUS
 10
-4.6514331575
 20
-15.482625597
 11
-4.5562597897
 21
-15.498492593
  0
LINE
  5
2F0
100
AcDbEntity
  8
ASSI
100
AcDbLine
 62
7
  6
CONTINUOUS
 10
-4.579561319
 20
-15.4928706473
 11
-4.4249826198
 21
-15.5301657551
  0
LINE
  5
2F1
100
AcDbEntity
  8
RACCORDO
100
AcDbLine
 62
250
  6
CONTINUOUS
 10
-4.5763074701
 20
-15.4520841263
 11
-4.4409259141
 21
-15.4862546262
  0
LINE
  5
2F2
100
AcDbEntity
  8
ASSI
100
AcDbLine
 62
250
  6
CONTINUOUS
 10
-4.5763074701
 20
-15.4520841263
 11
-4.4409259141
 21
-15.4862546262
  0
LINE
  5
2F3
100
AcDbEntity
  8
ASSI
100
AcDbLine
 62
250
  6
CONTINUOUS
 10
-4.2929385692
 20
-17.4875119608
 11
-4.4150297163
 21
-17.45633236
  0
LWPOLYLINE
  5
2F4
100
AcDbEntity
  8
RACCORDO
100
AcDbPolyline
 62
250
  6
CONTINUOUS
 90
5
 70
0
 10
-4.5428791256
 20
-17.3552594807
 10
-4.4962070259
 20
-17.3683174037
 10
-4.4496023699
 20
-17.3788086658
 10
-4.4032220383
 20
-17.3866973587
 10
-4.3572448697
 20
-17.3919542913
  0
LWPOLYLINE
  5
2F5
100
AcDbEntity
  8
RACCORDO
100
AcDbPolyline
 62
250
  6
CONTINUOUS
 90
55
 70
0
 10
-4.4917739582
 20
-15.8552617629
 10
-4.5384460331
 20
-15.8422038134
 10
-4.5850506769
 20
-15.8317125382
 10
-4.6314310087
 20
-15.8238238456
 10
-4.6774081985
 20
-15.8185669356
 10
-4.7228505232
 20
-15.8159554597
 10
-4.767670896
 20
-15.8160005745
 10
-4.8117604323
 20
-15.8187186812
 10
-4.854917658
 20
-15.8241145371
 10
-4.8969214575
 20
-15.8321667052
 10
-4.9376235482
 20
-15.8428451869
 10
-4.9768922762
 20
-15.8561136347
 10
-5.014549106
 20
-15.8719048429
 10
-5.0504387886
 20
-15.8901359981
 10
-5.0844848746
 20
-15.9107498237
 10
-5.1166331815
 20
-15.9337081165
 10
-5.1467932676
 20
-15.9589537281
 10
-5.1748388785
 20
-15.9863888987
 10
-5.2006647961
 20
-16.0159127294
 10
-5.2241833453
 20
-16.0474246567
 10
-5.2453159193
 20
-16.0808189984
 10
-5.2639866885
 20
-16.1159735181
 10
-5.2801253449
 20
-16.1527445547
 10
-5.2936921761
 20
-16.1910285849
 10
-5.3046593436
 20
-16.2307612404
 10
-5.3129859494
 20
-16.2718544575
 10
-5.3186209112
 20
-16.3141356318
 10
-5.3215321033
 20
-16.3574085205
 10
-5.3217096894
 20
-16.4015092115
 10
-5.3191543022
 20
-16.4463042788
 10
-5.3138752787
 20
-16.4916344352
 10
-5.3058925281
 20
-16.5373402175
 10
-5.2952335847
 20
-16.5832715713
 10
-5.281932717
 20
-16.6292813085
 10
-5.2660321603
 20
-16.6752193141
 10
-5.2475868929
 20
-16.7209233918
 10
-5.2266635756
 20
-16.7662288179
 10
-5.203337705
 20
-16.8109755487
 10
-5.177686548
 20
-16.8550184319
 10
-5.1497916314
 20
-16.898217716
 10
-5.1197420176
 20
-16.9404332132
 10
-5.0876434843
 20
-16.9815142353
 10
-5.0536136776
 20
-17.0213106533
 10
-5.0177763606
 20
-17.0596805944
 10
-4.9802474718
 20
-17.0965026011
 10
-4.9411419392
 20
-17.1316638964
 10
-4.9005644715
 20
-17.1650657311
 10
-4.8586776719
 20
-17.1965699289
 10
-4.8156952764
 20
-17.2260215841
 10
-4.7718139144
 20
-17.253302903
 10
-4.7271417101
 20
-17.2783629884
 10
-4.6817654539
 20
-17.3011590759
 10
-4.6358152563
 20
-17.3216240812
 10
-4.5894678108
 20
-17.3396777232
 10
-4.5428791256
 20
-17.3552594807
  0
LWPOLYLINE
  5
2F6
100
AcDbEntity
  8
RACCORDO
100
AcDbPolyline
 62
250
  6
CONTINUOUS
 90
19
 70
0
 10
-4.4442456379
 20
-15.731648282
 10
-4.4956197297
 20
-15.7172750913
 10
-4.5469195699
 20
-15.7057270144
 10
-4.5979724987
 20
-15.6970435704
 10
-4.6485817116
 20
-15.6912567959
 10
-4.6986022357
 20
-15.6883818161
 10
-4.7479381532
 20
-15.6884312168
 10
-4.7964695295
 20
-15.6914232227
 10
-4.8439746056
 20
-15.6973628989
 10
-4.8902100545
 20
-15.7062264421
 10
-4.935012708
 20
-15.7179807426
 10
-4.9782376222
 20
-15.7325858841
 10
-5.0196882424
 20
-15.749967959
 10
-5.0591936585
 20
-15.7700358371
 10
-5.096669733
 20
-15.7927264424
 10
-5.1320568354
 20
-15.8179977059
 10
-5.1652554187
 20
-15.8457867156
 10
-5.1961265045
 20
-15.8759858699
 10
-5.2011865006
 20
-15.8814079281
  0
LINE
  5
2F7
100
AcDbEntity
  8
RACCORDO
100
AcDbLine
 62
250
  6
CONTINUOUS
 10
30.1793896075
 20
-27.4463589874
 11
28.5390009341
 21
-26.9426115179
  0
LINE
  5
2F8
100
AcDbEntity
  8
RACCORDO
100
AcDbLine
 62
250
  6
CONTINUOUS
 10
30.2319938493
 20
-27.2073371839
 11
28.547604805
 21
-26.6900776267
  0
LINE
  5
2F9
100
AcDbEntity
  8
RACCORDO
100
AcDbLine
 62
7
  6
CONTINUOUS
 10
28.5497541993
 20
-26.6269903361
 11
30.1702155504
 21
-27.1246183181
  0
LINE
  5
2FA
100
AcDbEntity
  8
DRAFT
100
AcDbLine
 62
7
  6
CONTINUOUS
 10
30.605529231
 20
-26.8504255334
 11
28.5635066263
 21
-26.2233401745
  0
LINE
  5
2FB
100
AcDbEntity
  8
DRAFT
100
AcDbLine
 62
7
  6
CONTINUOUS
 10
30.9093524103
 20
-26.4216496165
 11
28.5811097032
 21
-25.7066688371
  0
LINE
  5
2FC
100
AcDbEntity
  8
RACCORDO
100
AcDbLine
 62
250
  6
CONTINUOUS
 10
31.1740794867
 20
-26.3131859567
 11
31.3233462338
 21
-26.3590243286
  0
LINE
  5
2FD
100
AcDbEntity
  8
RACCORDO
100
AcDbLine
 62
7
  6
CONTINUOUS
 10
31.1781777865
 20
-26.3080980409
 11
31.3441320177
 21
-26.3590609775
  0
LWPOLYLINE
  5
2FE
100
AcDbEntity
  8
RACCORDO
100
AcDbPolyline
 62
7
  6
CONTINUOUS
 90
37
 70
0
 10
-4.5267880117
 20
-17.3950453025
 10
-4.5798770534
 20
-17.3772243439
 10
-4.6325437318
 20
-17.3565100344
 10
-4.6846161916
 20
-17.3329798301
 10
-4.7359340743
 20
-17.3067129937
 10
-4.7863205636
 20
-17.2778044355
 10
-4.8355827192
 20
-17.2463703007
 10
-4.8835609537
 20
-17.2125179648
 10
-4.9300947489
 20
-17.1763638192
 10
-4.974997851
 20
-17.1380570471
 10
-5.018117664
 20
-17.0977342212
 10
-5.0593177677
 20
-17.0555267749
 10
-5.0984483725
 20
-17.0115904619
 10
-5.1353764463
 20
-16.9660766262
 10
-5.1699824769
 20
-16.9191313983
 10
-5.2021487486
 20
-16.8709091196
 10
-5.2317765825
 20
-16.8215450508
 10
-5.258747012
 20
-16.771219436
 10
-5.2829333948
 20
-16.7201592151
 10
-5.3042543763
 20
-16.6685336022
 10
-5.3226386364
 20
-16.6165065887
 10
-5.3380064506
 20
-16.5642997671
 10
-5.3503102972
 20
-16.5120768062
 10
-5.3595081044
 20
-16.4600096388
 10
-5.3655614278
 20
-16.4083297113
 10
-5.3684577471
 20
-16.3571808797
 10
-5.3681891301
 20
-16.306749252
 10
-5.3647721817
 20
-16.257322245
 10
-5.3582539094
 20
-16.2091140258
 10
-5.3486785542
 20
-16.1622148077
 10
-5.3360870821
 20
-16.1167234952
 10
-5.3205310609
 20
-16.0727756003
 10
-5.3020831712
 20
-16.0305338726
 10
-5.2808249143
 20
-15.9901421782
 10
-5.2568506771
 20
-15.9517392637
 10
-5.2302656412
 20
-15.9154542431
 10
-5.2011864998
 20
-15.8814079273
  0
LWPOLYLINE
  5
2FF
100
AcDbEntity
  8
ASSI
100
AcDbPolyline
 62
7
  6
CONTINUOUS
 90
3
 70
0
 10
-4.4247367322
 20
-15.5302459678
 10
-4.3063372266
 20
-15.5725114328
 10
-4.1064165887
 20
-15.6718852898
  0
LINE
  5
300
100
AcDbEntity
  8
RACCORDO
100
AcDbLine
 62
250
  6
CONTINUOUS
 10
-4.4150297163
 20
-17.45633236
 11
-4.5390851639
 21
-17.4117254038
  0
LWPOLYLINE
  5
301
100
AcDbEntity
  8
ASSI
100
AcDbPolyline
 62
250
  6
CONTINUOUS
 90
4
 70
0
 10
-4.4150297163
 20
-17.45633236
 10
-4.5390851639
 20
-17.4117254038
 10
-4.6613762696
 20
-17.3546094975
 10
-4.7802551003
 20
-17.2857588147
  0
LWPOLYLINE
  5
302
100
AcDbEntity
  8
RACCORDO
100
AcDbPolyline
 62
250
  6
CONTINUOUS
 90
15
 70
0
 10
-4.4633198795
 20
-17.5918044497
 10
-4.6007661674
 20
-17.5416501034
 10
-4.7327494447
 20
-17.4799021364
 10
-4.8592677535
 20
-17.4065582922
 10
-4.9818526616
 20
-17.3203270638
 10
-5.0989647802
 20
-17.2224909481
 10
-5.2059949267
 20
-17.1169077874
 10
-5.3025557562
 20
-17.0032543927
 10
-5.3890226742
 20
-16.8818402267
 10
-5.4619329025
 20
-16.7574747403
 10
-5.5207344891
 20
-16.6300249946
 10
-5.5659688678
 20
-16.4996118822
 10
-5.5958189919
 20
-16.3714321062
 10
-5.6096577169
 20
-16.2455742713
 10
-5.6081080645
 20
-16.1219451036
  0
LWPOLYLINE
  5
303
100
AcDbEntity
  8
ASSI
100
AcDbPolyline
 62
250
  6
CONTINUOUS
 90
3
 70
0
 10
-4.4633198795
 20
-17.5918044497
 10
-4.6007661674
 20
-17.5416501034
 10
-4.7327494447
 20
-17.4799021364
  0
LINE
  5
304
100
AcDbEntity
  8
RACCORDO
100
AcDbLine
 62
250
  6
CONTINUOUS
 10
-4.4409259141
 20
-15.4862546262
 11
-4.3034713262
 21
-15.5364730542
  0
LINE
  5
305
100
AcDbEntity
  8
ASSI
100
AcDbLine
 62
250
  6
CONTINUOUS
 10
-4.4409259141
 20
-15.4862546262
 11
-4.3034713262
 21
-15.5364730542
  0
LWPOLYLINE
  5
306
100
AcDbEntity
  8
RACCORDO
100
AcDbPolyline
 62
250
  6
CONTINUOUS
 90
8
 70
0
 10
29.842329396
 20
-28.8592095725
 10
29.8392762749
 20
-28.8580916187
 10
29.828912434
 20
-28.8513724887
 10
29.8200527861
 20
-28.8406547278
 10
29.8128527583
 20
-28.8261296212
 10
29.8074355002
 20
-28.8080545768
 10
29.803891677
 20
-28.7867440168
 10
29.8022804
 20
-28.7625690832
  0
LWPOLYLINE
  5
307
100
AcDbEntity
  8
RACCORDO
100
AcDbPolyline
 62
250
  6
CONTINUOUS
 90
4
 70
0
 10
-4.5390851639
 20
-17.4117254038
 10
-4.6613762696
 20
-17.3546094975
 10
-4.7802551003
 20
-17.2857588147
 10
-4.8941505848
 20
-17.20613951
  0
LWPOLYLINE
  5
308
100
AcDbEntity
  8
RACCORDO
100
AcDbPolyline
 62
250
  6
CONTINUOUS
 90
3
 70
0
 10
-4.3034713262
 20
-15.5364730542
 10
-4.1715528612
 20
-15.598353326
 10
-4.0451685617
 20
-15.6718932138
  0
LWPOLYLINE
  5
309
100
AcDbEntity
  8
ASSI
100
AcDbPolyline
 62
250
  6
CONTINUOUS
 90
3
 70
0
 10
-4.3034713262
 20
-15.5364730542
 10
-4.1715528612
 20
-15.598353326
 10
-4.0451685617
 20
-15.6718932138
  0
LINE
  5
30A
100
AcDbEntity
  8
ASSI
100
AcDbLine
 62
250
  6
CONTINUOUS
 10
-4.7327494447
 20
-17.4799021364
 11
-4.8592677535
 21
-17.4065582922
  0
LWPOLYLINE
  5
30B
100
AcDbEntity
  8
ASSI
100
AcDbPolyline
 62
7
  6
CONTINUOUS
 90
5
 70
0
 10
-4.1064165887
 20
-15.6718852898
 10
-3.9159247324
 20
-15.8030721786
 10
-3.7441788377
 20
-15.9603542035
 10
-3.5982885218
 20
-16.1366385131
 10
-3.482995678
 20
-16.3256246306
  0
LINE
  5
30C
100
AcDbEntity
  8
ASSI
100
AcDbLine
 62
250
  6
CONTINUOUS
 10
-4.7802551003
 20
-17.2857588147
 11
-4.8941505848
 21
-17.20613951
  0
LWPOLYLINE
  5
30D
100
AcDbEntity
  8
ASSI
100
AcDbPolyline
 62
250
  6
CONTINUOUS
 90
14
 70
0
 10
-4.8592677535
 20
-17.4065582922
 10
-4.9818526616
 20
-17.3203270638
 10
-5.0989647802
 20
-17.2224909481
 10
-5.2059949267
 20
-17.1169077874
 10
-5.3025557562
 20
-17.0032543927
 10
-5.3890226742
 20
-16.8818402267
 10
-5.4619329025
 20
-16.7574747403
 10
-5.5207344891
 20
-16.6300249946
 10
-5.5659688678
 20
-16.4996118822
 10
-5.5958189919
 20
-16.3714321062
 10
-5.6096577169
 20
-16.2455742713
 10
-5.6081080645
 20
-16.1219451036
 10
-5.591236111
 20
-16.0054775205
 10
-5.5584244643
 20
-15.8964716433
  0
LINE
  5
30E
100
AcDbEntity
  8
RACCORDO
100
AcDbLine
 62
250
  6
CONTINUOUS
 10
-4.0451685617
 20
-15.6718932138
 11
-3.9227847193
 21
-15.758382327
  0
LINE
  5
30F
100
AcDbEntity
  8
ASSI
100
AcDbLine
 62
250
  6
CONTINUOUS
 10
-4.0451685617
 20
-15.6718932138
 11
-3.9227847193
 21
-15.758382327
  0
LWPOLYLINE
  5
310
100
AcDbEntity
  8
RACCORDO
100
AcDbPolyline
 62
250
  6
CONTINUOUS
 90
15
 70
0
 10
-4.8941505848
 20
-17.20613951
 10
-5.0015078802
 20
-17.1168146844
 10
-5.1008098345
 20
-17.018930655
 10
-5.1907440538
 20
-16.9138504419
 10
-5.2701067737
 20
-16.8030131216
 10
-5.3377372556
 20
-16.6878322945
 10
-5.3927548549
 20
-16.5699060064
 10
-5.4344381159
 20
-16.4508718648
 10
-5.4621259776
 20
-16.3322633626
 10
-5.4754786767
 20
-16.2157282062
 10
-5.4743556537
 20
-16.1028953361
 10
-5.4586949103
 20
-15.9952274797
 10
-5.4287468476
 20
-15.8942211523
 10
-5.3849672606
 20
-15.8012886013
 10
-5.3278960392
 20
-15.717625642
  0
LWPOLYLINE
  5
311
100
AcDbEntity
  8
ASSI
100
AcDbPolyline
 62
250
  6
CONTINUOUS
 90
16
 70
0
 10
-4.8941505848
 20
-17.20613951
 10
-5.0015078802
 20
-17.1168146844
 10
-5.1008098345
 20
-17.018930655
 10
-5.1907440538
 20
-16.9138504419
 10
-5.2701067737
 20
-16.8030131216
 10
-5.3377372556
 20
-16.6878322945
 10
-5.3927548549
 20
-16.5699060064
 10
-5.4344381159
 20
-16.4508718648
 10
-5.4621259776
 20
-16.3322633626
 10
-5.4754786767
 20
-16.2157282062
 10
-5.4743556537
 20
-16.1028953361
 10
-5.4586949103
 20
-15.9952274797
 10
-5.4287468476
 20
-15.8942211523
 10
-5.3849672606
 20
-15.8012886013
 10
-5.3278960392
 20
-15.717625642
 10
-5.3134781637
 20
-15.7004030537
  0
LINE
  5
312
100
AcDbEntity
  8
RACCORDO
100
AcDbLine
 62
250
  6
CONTINUOUS
 10
-15.6363182038
 20
23.5816378297
 11
-15.6094822682
 21
22.5028754469
  0
LINE
  5
313
100
AcDbEntity
  8
RACCORDO
100
AcDbLine
 62
7
  6
CONTINUOUS
 10
-13.0341323503
 20
21.4913762318
 11
-13.0419567973
 21
21.8059066867
  0
LINE
  5
314
100
AcDbEntity
  8
RACCORDO
100
AcDbLine
 62
250
  6
CONTINUOUS
 10
-12.8977701346
 20
21.3552863422
 11
-12.9055945816
 21
21.6698167971
  0
LINE
  5
315
100
AcDbEntity
  8
RACCORDO
100
AcDbLine
 62
7
  6
CONTINUOUS
 10
-12.5563819965
 20
21.1156001595
 11
-12.5576481137
 21
21.1664960777
  0
LWPOLYLINE
  5
316
100
AcDbEntity
  8
RACCORDO
100
AcDbPolyline
 62
7
  6
CONTINUOUS
 90
3
 70
0
 10
-12.5563353282
 20
21.114492591
 10
-12.5564733207
 20
21.1123165374
 10
-12.5565870411
 20
21.1114178806
  0
LWPOLYLINE
  5
317
100
AcDbEntity
  8
RACCORDO
100
AcDbPolyline
 62
250
  6
CONTINUOUS
 90
5
 70
0
 10
-9.9268496537
 20
21.5671191007
 10
-9.933667149
 20
21.526324444
 10
-9.9388141888
 20
21.4867826789
 10
-9.9422407114
 20
21.4487748924
 10
-9.9439967786
 20
21.4120199975
  0
LWPOLYLINE
  5
318
100
AcDbEntity
  8
RACCORDO
100
AcDbPolyline
 62
250
  6
CONTINUOUS
 90
3
 70
0
 10
-5.0765930846
 20
-15.4642176828
 10
-4.9573521853
 20
-15.4388095764
 10
-4.8336180073
 20
-15.428215124
  0
LWPOLYLINE
  5
319
100
AcDbEntity
  8
ASSI
100
AcDbPolyline
 62
250
  6
CONTINUOUS
 90
3
 70
0
 10
-5.0765930846
 20
-15.4642176828
 10
-4.9573521853
 20
-15.4388095764
 10
-4.8336180073
 20
-15.428215124
  0
LINE
  5
31A
100
AcDbEntity
  8
RACCORDO
100
AcDbLine
 62
7
  6
CONTINUOUS
 10
-5.0012350169
 20
-15.5073642665
 11
-4.891350251
 21
-15.4845985082
  0
LWPOLYLINE
  5
31B
100
AcDbEntity
  8
ASSI
100
AcDbPolyline
 62
7
  6
CONTINUOUS
 90
3
 70
0
 10
-4.9624893367
 20
-15.4974814731
 10
-4.777387817
 20
-15.4763180252
 10
-4.579561319
 20
-15.4928706473
  0
LINE
  5
31C
100
AcDbEntity
  8
DRAFT
100
AcDbLine
 62
7
  6
CONTINUOUS
 10
30.8732576492
 20
-24.9706970192
 11
28.6296583043
 21
-24.2817093962
  0
LINE
  5
31D
100
AcDbEntity
  8
RACCORDO
100
AcDbLine
 62
250
  6
CONTINUOUS
 10
31.3520029706
 20
-26.3700142786
 11
31.3233462338
 21
-26.3590243286
  0
LWPOLYLINE
  5
31E
100
AcDbEntity
  8
RACCORDO
100
AcDbPolyline
 62
250
  6
CONTINUOUS
 90
9
 70
0
 10
-3.9227847193
 20
-15.758382327
 10
-3.8059272218
 20
-15.8565221522
 10
-3.6991827176
 20
-15.9624273771
 10
-3.6029310053
 20
-16.0764065954
 10
-3.516780356
 20
-16.1981376022
 10
-3.4441624048
 20
-16.3227914737
 10
-3.3856173297
 20
-16.4504898607
 10
-3.3405944377
 20
-16.5810990697
 10
-3.3108946973
 20
-16.7094135893
  0
LWPOLYLINE
  5
31F
100
AcDbEntity
  8
ASSI
100
AcDbPolyline
 62
250
  6
CONTINUOUS
 90
3
 70
0
 10
-3.9227847193
 20
-15.758382327
 10
-3.8059272218
 20
-15.8565221522
 10
-3.6991827176
 20
-15.9624273771
  0
LWPOLYLINE
  5
320
100
AcDbEntity
  8
ASSI
100
AcDbPolyline
 62
250
  6
CONTINUOUS
 90
3
 70
0
 10
-3.6991827176
 20
-15.9624273771
 10
-3.6029310053
 20
-16.0764065954
 10
-3.516780356
 20
-16.1981376022
  0
LWPOLYLINE
  5
321
100
AcDbEntity
  8
RACCORDO
100
AcDbPolyline
 62
250
  6
CONTINUOUS
 90
12
 70
0
 10
-12.5563471881
 20
21.1144751043
 10
-12.5560386044
 20
21.1096010093
 10
-12.5532613621
 20
21.0938095315
 10
-12.5478226795
 20
21.0783420656
 10
-12.5397999694
 20
21.0633553446
 10
-12.5292550603
 20
21.0489454525
 10
-12.516285292
 20
21.0352662234
 10
-12.5010277941
 20
21.0224814242
 10
-12.4836023982
 20
21.0107032301
 10
-12.4641658293
 20
21.0000637353
 10
-12.4429253393
 20
20.9907060538
 10
-12.420100336
 20
20.9827484624
  0
LWPOLYLINE
  5
322
100
AcDbEntity
  8
RACCORDO
100
AcDbPolyline
 62
250
  6
CONTINUOUS
 90
8
 70
0
 10
-11.2054979286
 20
20.8356059424
 10
-11.2041595717
 20
20.8139604506
 10
-11.2012880752
 20
20.7945547846
 10
-11.1969226612
 20
20.7776540692
 10
-11.1911119505
 20
20.7634676277
 10
-11.1839417378
 20
20.7522208003
 10
-11.1755561267
 20
20.7441011584
 10
-11.1653775063
 20
20.7389433059
  0
LINE
  5
323
100
AcDbEntity
  8
RACCORDO
100
AcDbLine
 62
250
  6
CONTINUOUS
 10
-10.7358797659
 20
20.7549023554
 11
-10.7345521085
 21
20.7333614187
  0
LWPOLYLINE
  5
324
100
AcDbEntity
  8
RACCORDO
100
AcDbPolyline
 62
250
  6
CONTINUOUS
 90
9
 70
0
 10
-12.8977701346
 20
21.3552863422
 10
-12.8964743648
 20
21.3340596845
 10
-12.893688404
 20
21.3148842953
 10
-12.8894264559
 20
21.2980496879
 10
-12.8837125785
 20
21.283798724
 10
-12.8766091511
 20
21.2723986322
 10
-12.8682391169
 20
21.2640855442
 10
-12.8587342403
 20
21.258979305
 10
-12.8575996958
 20
21.2586083026
  0
LWPOLYLINE
  5
325
100
AcDbEntity
  8
RACCORDO
100
AcDbPolyline
 62
250
  6
CONTINUOUS
 90
10
 70
0
 10
-13.0419561221
 20
21.8058796916
 10
-13.041617951
 20
21.7998089922
 10
-13.0376752131
 20
21.779256125
 10
-13.0294822324
 20
21.7592716739
 10
-13.0171491556
 20
21.740160758
 10
-13.0009035336
 20
21.7223002667
 10
-12.9811770566
 20
21.7061076011
 10
-12.9584358029
 20
21.6918565272
 10
-12.9330834434
 20
21.6797072079
 10
-12.9055945816
 20
21.6698167971
  0
LWPOLYLINE
  5
326
100
AcDbEntity
  8
RACCORDO
100
AcDbPolyline
 62
250
  6
CONTINUOUS
 90
13
 70
0
 10
-10.3983242485
 20
20.8072895338
 10
-10.4001254086
 20
20.8404972365
 10
-10.403558911
 20
20.8708066917
 10
-10.4086247557
 20
20.8982178993
 10
-10.4153865995
 20
20.9228717331
 10
-10.4237807855
 20
20.9446273192
 10
-10.4336163429
 20
20.9630620368
 10
-10.4449140535
 20
20.9781227139
 10
-10.4576531355
 20
20.9898625225
 10
-10.4715802722
 20
20.9980183569
 10
-10.4866110247
 20
21.0025025156
 10
-10.502829832
 20
21.0034027002
 10
-10.520236694
 20
21.0007189107
  0
LWPOLYLINE
  5
327
100
AcDbEntity
  8
RACCORDO
100
AcDbPolyline
 62
250
  6
CONTINUOUS
 90
10
 70
0
 10
-13.0341323503
 20
21.4913762318
 10
-13.0338255235
 20
21.4856578508
 10
-13.0299948228
 20
21.4652110826
 10
-13.02195867
 20
21.4453183857
 10
-13.0098545658
 20
21.4263201299
 10
-12.993889615
 20
21.4085413804
 10
-12.9743369822
 20
21.3922863367
 10
-12.9515312183
 20
21.377833127
 10
-12.9258625364
 20
21.3654290498
 10
-12.8977701346
 20
21.3552863422
  0
LINE
  5
328
100
AcDbEntity
  8
RACCORDO
100
AcDbLine
 62
250
  6
CONTINUOUS
 10
-12.5563819955
 20
21.1156001183
 11
-12.5563471881
 21
21.1144751043
  0
LINE
  5
329
100
AcDbEntity
  8
RACCORDO
100
AcDbLine
 62
250
  6
CONTINUOUS
 10
-12.420100336
 20
20.9827484624
 11
-12.4236476733
 21
21.1253458407
  0
LINE
  5
32A
100
AcDbEntity
  8
RACCORDO
100
AcDbLine
 62
7
  6
CONTINUOUS
 10
-11.7904635865
 20
27.2380658753
 11
-11.8105162496
 21
28.0441513768
  0
LINE
  5
32B
100
AcDbEntity
  8
RACCORDO
100
AcDbLine
 62
250
  6
CONTINUOUS
 10
-11.2133223755
 20
21.1501363973
 11
-11.2054979286
 21
20.8356059424
  0
LINE
  5
32C
100
AcDbEntity
  8
RACCORDO
100
AcDbLine
 62
250
  6
CONTINUOUS
 10
-10.8770945155
 20
21.2240645124
 11
-10.8692700685
 21
20.9095340575
  0
LINE
  5
32D
100
AcDbEntity
  8
RACCORDO
100
AcDbLine
 62
250
  6
CONTINUOUS
 10
-10.7345521085
 20
20.7333614187
 11
-10.72782813
 21
20.4630680626
  0
LINE
  5
32E
100
AcDbEntity
  8
RACCORDO
100
AcDbLine
 62
250
  6
CONTINUOUS
 10
-10.3983242485
 20
20.8072895338
 11
-10.3914487664
 21
20.530905973
  0
LINE
  5
32F
100
AcDbEntity
  8
RACCORDO
100
AcDbLine
 62
7
  6
CONTINUOUS
 10
-10.3201813148
 20
19.4487537624
 11
-10.3196051475
 21
19.4255927452
  0
LINE
  5
330
100
AcDbEntity
  8
DRAFT
100
AcDbLine
 62
7
  6
CONTINUOUS
 10
-9.9930423051
 20
18.9402699865
 11
-10.0127032072
 21
19.7306073154
  0
LINE
  5
331
100
AcDbEntity
  8
RACCORDO
100
AcDbLine
 62
250
  6
CONTINUOUS
 10
-9.9368702336
 20
21.086600645
 11
-9.9440823903
 21
21.3765179941
  0
LINE
  5
332
100
AcDbEntity
  8
RACCORDO
100
AcDbLine
 62
7
  6
CONTINUOUS
 10
-9.9095440016
 20
21.1583448993
 11
-9.9168271056
 21
21.4511142195
  0
LINE
  5
333
100
AcDbEntity
  8
RACCORDO
100
AcDbLine
 62
250
  6
CONTINUOUS
 10
-9.514368941
 20
22.9317498934
 11
-9.5065444941
 21
22.6172194385
  0
LINE
  5
334
100
AcDbEntity
  8
RACCORDO
100
AcDbLine
 62
7
  6
CONTINUOUS
 10
-9.4871136563
 20
23.0063461188
 11
-9.4792892093
 21
22.6918156639
  0
LWPOLYLINE
  5
335
100
AcDbEntity
  8
RACCORDO
100
AcDbPolyline
 62
7
  6
CONTINUOUS
 90
11
 70
0
 10
-9.9168271056
 20
21.4511142195
 10
-9.916863388
 20
21.4708346139
 10
-9.9159275246
 20
21.493800921
 10
-9.9138162402
 20
21.5199001858
 10
-9.9103232266
 20
21.5491434398
 10
-9.9053103879
 20
21.5810799723
 10
-9.8987915385
 20
21.614764717
 10
-9.8907668429
 20
21.6497481777
 10
-9.8812577327
 20
21.685613578
 10
-9.8704853686
 20
21.7213877639
 10
-9.8586512436
 20
21.756439303
  0
LINE
  5
336
100
AcDbEntity
  8
RACCORDO
100
AcDbLine
 62
250
  6
CONTINUOUS
 10
-9.9439967786
 20
21.4120199975
 11
-9.9440823903
 21
21.3765179941
  0
LINE
  5
337
100
AcDbEntity
  8
RACCORDO
100
AcDbLine
 62
250
  6
CONTINUOUS
 10
-9.9098279263
 20
21.1484163968
 11
-9.9095440016
 21
21.1583448993
  0
LWPOLYLINE
  5
338
100
AcDbEntity
  8
RACCORDO
100
AcDbPolyline
 62
250
  6
CONTINUOUS
 90
5
 70
0
 10
-9.4871136563
 20
23.0063461188
 10
-9.4878607789
 20
22.9914135101
 10
-9.4925645375
 20
22.970911643
 10
-9.5014512764
 20
22.9509096911
 10
-9.514368941
 20
22.9317498934
  0
LWPOLYLINE
  5
339
100
AcDbEntity
  8
RACCORDO
100
AcDbPolyline
 62
250
  6
CONTINUOUS
 90
5
 70
0
 10
-9.4792892093
 20
22.6918156639
 10
-9.480036332
 20
22.6768830552
 10
-9.4847400906
 20
22.6563811881
 10
-9.4936268295
 20
22.6363792362
 10
-9.5065444941
 20
22.6172194385
  0
LWPOLYLINE
  5
33A
100
AcDbEntity
  8
RACCORDO
100
AcDbPolyline
 62
7
  6
CONTINUOUS
 90
5
 70
0
 10
-7.9300136509
 20
25.6733782361
 10
-7.9325000038
 20
25.6264390439
 10
-7.9403619191
 20
25.583400377
 10
-7.9535993969
 20
25.5442622356
 10
-7.9609295998
 20
25.5287458223
  0
LWPOLYLINE
  5
33B
100
AcDbEntity
  8
RACCORDO
100
AcDbPolyline
 62
250
  6
CONTINUOUS
 90
5
 70
0
 10
-27.584587764
 20
25.9780622282
 10
-27.5824504553
 20
25.97467112
 10
-27.576704972
 20
25.9605279956
 10
-27.5723802816
 20
25.9436799264
 10
-27.569534868
 20
25.9243547535
  0
LWPOLYLINE
  5
33C
100
AcDbEntity
  8
ASSI
100
AcDbPolyline
 62
250
  6
CONTINUOUS
 90
4
 70
0
 10
-3.516780356
 20
-16.1981376022
 10
-3.4441624048
 20
-16.3227914737
 10
-3.3856173297
 20
-16.4504898607
 10
-3.3405944377
 20
-16.5810990697
  0
LWPOLYLINE
  5
33D
100
AcDbEntity
  8
RACCORDO
100
AcDbPolyline
 62
250
  6
CONTINUOUS
 90
4
 70
0
 10
-26.6725290088
 20
27.0240139993
 10
-26.6664775756
 20
27.0119751911
 10
-26.6643395849
 20
27.0013123539
 10
-26.6660101762
 20
26.9925247218
  0
LWPOLYLINE
  5
33E
100
AcDbEntity
  8
RACCORDO
100
AcDbPolyline
 62
250
  6
CONTINUOUS
 90
4
 70
0
 10
-26.3401995961
 20
27.7866718366
 10
-26.3341481629
 20
27.7746330284
 10
-26.3320101723
 20
27.7639701912
 10
-26.3336807636
 20
27.755182559
  0
LWPOLYLINE
  5
33F
100
AcDbEntity
  8
ASSI
100
AcDbPolyline
 62
7
  6
CONTINUOUS
 90
3
 70
0
 10
-3.482995678
 20
-16.3256246306
 10
-3.4020256306
 20
-16.5202548988
 10
-3.3581594918
 20
-16.7127799101
  0
LINE
  5
340
100
AcDbEntity
  8
RACCORDO
100
AcDbLine
 62
250
  6
CONTINUOUS
 10
-9.516805147
 20
22.9570471688
 11
-9.514368941
 21
22.9317498934
  0
LINE
  5
341
100
AcDbEntity
  8
RACCORDO
100
AcDbLine
 62
7
  6
CONTINUOUS
 10
-8.8472883822
 20
18.5884200568
 11
-8.9098056304
 21
21.1015150597
  0
LINE
  5
342
100
AcDbEntity
  8
RACCORDO
100
AcDbLine
 62
7
  6
CONTINUOUS
 10
-7.9306051778
 20
25.6971566877
 11
-7.9300136509
 21
25.6733782361
  0
LINE
  5
343
100
AcDbEntity
  8
RACCORDO
100
AcDbLine
 62
7
  6
CONTINUOUS
 10
-7.0485896725
 20
27.1116424997
 11
-7.0423153195
 21
26.8594233828
  0
LINE
  5
344
100
AcDbEntity
  8
DRAFT
100
AcDbLine
 62
7
  6
CONTINUOUS
 10
32.9197934785
 20
-17.574603165
 11
33.8440573614
 21
-17.8584356492
  0
LWPOLYLINE
  5
345
100
AcDbEntity
  8
RACCORDO
100
AcDbPolyline
 62
7
  6
CONTINUOUS
 90
6
 70
0
 10
-26.7436963112
 20
26.3236024199
 10
-26.7424572524
 20
26.3216767607
 10
-26.7420222576
 20
26.3208861314
 10
-26.7425738427
 20
26.3227057846
 10
-26.7431532602
 20
26.3265460654
 10
-26.7432176451
 20
26.3280401972
  0
LWPOLYLINE
  5
346
100
AcDbEntity
  8
RACCORDO
100
AcDbPolyline
 62
250
  6
CONTINUOUS
 90
23
 70
0
 10
-3.7394194991
 20
-16.6272496723
 10
-3.7527203668
 20
-16.5812399351
 10
-3.7686209237
 20
-16.5353019297
 10
-3.7870661912
 20
-16.4895978522
 10
-3.8079895088
 20
-16.4442924263
 10
-3.8313153794
 20
-16.3995456955
 10
-3.8569665365
 20
-16.3555028124
 10
-3.8848614534
 20
-16.3123035287
 10
-3.9149110683
 20
-16.2700880327
 10
-3.9470096031
 20
-16.2290070122
 10
-3.9810394104
 20
-16.1892105948
 10
-4.0168767253
 20
-16.1508406514
 10
-4.0544056112
 20
-16.1140186415
 10
-4.0935111439
 20
-16.0788573465
 10
-4.1340886201
 20
-16.0454555209
 10
-4.1759754313
 20
-16.0139513354
 10
-4.21895783
 20
-15.9844996837
 10
-4.2628391772
 20
-15.957218349
 10
-4.3075113583
 20
-15.9321582388
 10
-4.3528876004
 20
-15.9093621363
 10
-4.3988377988
 20
-15.8888971317
 10
-4.4451852541
 20
-15.8708435003
 10
-4.4917739582
 20
-15.8552617629
  0
LINE
  5
347
100
AcDbEntity
  8
ASSI
100
AcDbLine
 62
250
  6
CONTINUOUS
 10
-3.3405944377
 20
-16.5810990697
 11
-3.3108946973
 21
-16.7094135893
  0
LINE
  5
348
100
AcDbEntity
  8
RACCORDO
100
AcDbLine
 62
250
  6
CONTINUOUS
 10
-3.3108946973
 20
-16.7094135893
 11
-3.2971394397
 21
-16.8353439737
  0
LINE
  5
349
100
AcDbEntity
  8
ASSI
100
AcDbLine
 62
250
  6
CONTINUOUS
 10
-3.3108946973
 20
-16.7094135893
 11
-3.2971394397
 21
-16.8353439737
  0
LINE
  5
34A
100
AcDbEntity
  8
ASSI
100
AcDbLine
 62
7
  6
CONTINUOUS
 10
-3.3581594918
 20
-16.7127799101
 11
-3.3523085447
 21
-16.8954833806
  0
LINE
  5
34B
100
AcDbEntity
  8
RACCORDO
100
AcDbLine
 62
250
  6
CONTINUOUS
 10
-3.2971394397
 20
-16.8353439737
 11
-3.2987031952
 21
-16.9589748763
  0
LINE
  5
34C
100
AcDbEntity
  8
ASSI
100
AcDbLine
 62
250
  6
CONTINUOUS
 10
-3.2971394397
 20
-16.8353439737
 11
-3.2987031952
 21
-16.9589748763
  0
LINE
  5
34D
100
AcDbEntity
  8
ASSI
100
AcDbLine
 62
7
  6
CONTINUOUS
 10
-5.0106426322
 20
-15.6084613267
 11
-5.0129782252
 21
-15.6770137732
  0
LWPOLYLINE
  5
34E
100
AcDbEntity
  8
RACCORDO
100
AcDbPolyline
 62
250
  6
CONTINUOUS
 90
9
 70
0
 10
-5.6081080645
 20
-16.1219451036
 10
-5.591236111
 20
-16.0054775205
 10
-5.5584244643
 20
-15.8964716433
 10
-5.5102947391
 20
-15.7946322391
 10
-5.4487793711
 20
-15.7040081702
 10
-5.3733849196
 20
-15.625066937
 10
-5.2846153835
 20
-15.5573531305
 10
-5.1859049403
 20
-15.5035376109
 10
-5.0765930846
 20
-15.4642176828
  0
LWPOLYLINE
  5
34F
100
AcDbEntity
  8
RACCORDO
100
AcDbPolyline
 62
250
  6
CONTINUOUS
 90
9
 70
0
 10
10.2590338671
 20
14.8292911437
 10
10.2748525954
 20
14.8456058492
 10
10.293582669
 20
14.8587714183
 10
10.3150650899
 20
14.8687644835
 10
10.338932288
 20
14.8754140608
 10
10.3647758889
 20
14.878606374
 10
10.3921537014
 20
14.8782868018
 10
10.4205972836
 20
14.8744608122
 10
10.4496199578
 20
14.8671938688
  0
LWPOLYLINE
  5
350
100
AcDbEntity
  8
RACCORDO
100
AcDbPolyline
 62
250
  6
CONTINUOUS
 90
9
 70
0
 10
11.6217594416
 20
16.5369765247
 10
11.637992982
 20
16.5536428081
 10
11.6569066378
 20
16.5667993289
 10
11.678644019
 20
16.57676007
 10
11.7027891575
 20
16.5833194638
 10
11.7287355564
 20
16.586354529
 10
11.7559369628
 20
16.5858911871
 10
11.7839674895
 20
16.5820209236
 10
11.8123455323
 20
16.5748792498
  0
LWPOLYLINE
  5
351
100
AcDbEntity
  8
RACCORDO
100
AcDbPolyline
 62
250
  6
CONTINUOUS
 90
5
 70
0
 10
-9.7659471532
 20
21.1047410171
 10
-9.7693164505
 20
21.1221648733
 10
-9.7708672748
 20
21.130616033
 10
-9.7723514392
 20
21.1389410559
 10
-9.773754368
 20
21.1471728635
  0
LINE
  5
352
100
AcDbEntity
  8
RACCORDO
100
AcDbLine
 62
250
  6
CONTINUOUS
 10
-3.2987031952
 20
-16.9589748763
 11
-3.3155245976
 21
-17.0753709302
  0
LINE
  5
353
100
AcDbEntity
  8
ASSI
100
AcDbLine
 62
250
  6
CONTINUOUS
 10
-3.2987031952
 20
-16.9589748763
 11
-3.3155245976
 21
-17.0753709302
  0
LWPOLYLINE
  5
354
100
AcDbEntity
  8
0
100
AcDbPolyline
 62
7
  6
CONTINUOUS
 90
3
 70
0
 10
-4.9943646265
 20
-15.5087912297
 10
-5.0106426322
 20
-15.6084613267
 10
-5.0129782252
 20
-15.6770137732
  0
LINE
  5
355
100
AcDbEntity
  8
ASSI
100
AcDbLine
 62
7
  6
CONTINUOUS
 10
-4.9943646265
 20
-15.5087912297
 11
-5.0106426322
 21
-15.6084613267
  0
LINE
  5
356
100
AcDbEntity
  8
ASSI
100
AcDbLine
 62
7
  6
CONTINUOUS
 10
-3.3523085447
 20
-16.8954833806
 11
-3.3837978568
 21
-17.0619400485
  0
LWPOLYLINE
  5
357
100
AcDbEntity
  8
RACCORDO
100
AcDbPolyline
 62
250
  6
CONTINUOUS
 90
13
 70
0
 10
10.4496199578
 20
14.8671938688
 10
10.4351664653
 20
14.8474471556
 10
10.4209290791
 20
14.8246827849
 10
10.4071532655
 20
14.7992212293
 10
10.3940557445
 20
14.7713749067
 10
10.3819133631
 20
14.7416381195
 10
10.3710316365
 20
14.7107150463
 10
10.3616186146
 20
14.6792127465
 10
10.3538117683
 20
14.6476095417
 10
10.3477478977
 20
14.6164629188
 10
10.3435302867
 20
14.5863140384
 10
10.341228948
 20
14.5576786745
 10
10.3408815117
 20
14.5310491997
  0
LWPOLYLINE
  5
358
100
AcDbEntity
  8
RACCORDO
100
AcDbPolyline
 62
7
  6
CONTINUOUS
 90
6
 70
0
 10
10.3675480298
 20
13.830988704
 10
10.3497867779
 20
13.8078765666
 10
10.327452816
 20
13.777035585
 10
10.3066759464
 20
13.7466243481
 10
10.2873006411
 20
13.7170103187
 10
10.2518256123
 20
13.6611425937
  0
LINE
  5
359
100
AcDbEntity
  8
RACCORDO
100
AcDbLine
 62
250
  6
CONTINUOUS
 10
10.4271882194
 20
13.4623268949
 11
10.5786758619
 21
13.6557940731
  0
LINE
  5
35A
100
AcDbEntity
  8
RACCORDO
100
AcDbLine
 62
7
  6
CONTINUOUS
 10
10.0445259877
 20
13.3848061813
 11
10.1907874232
 21
13.5715238191
  0
LINE
  5
35B
100
AcDbEntity
  8
RACCORDO
100
AcDbLine
 62
7
  6
CONTINUOUS
 10
10.5554253724
 20
14.0686951286
 11
10.3675485957
 21
13.8309882576
  0
LINE
  5
35C
100
AcDbEntity
  8
RACCORDO
100
AcDbLine
 62
7
  6
CONTINUOUS
 10
10.2590338671
 20
14.8292911437
 11
11.6217594416
 21
16.5369765247
  0
LINE
  5
35D
100
AcDbEntity
  8
RACCORDO
100
AcDbLine
 62
250
  6
CONTINUOUS
 10
10.4496199578
 20
14.8671938688
 11
11.8123455323
 21
16.5748792498
  0
LINE
  5
35E
100
AcDbEntity
  8
RACCORDO
100
AcDbLine
 62
250
  6
CONTINUOUS
 10
10.6023808483
 20
13.9370078208
 11
10.6784585045
 21
14.0309128457
  0
LWPOLYLINE
  5
35F
100
AcDbEntity
  8
RACCORDO
100
AcDbPolyline
 62
250
  6
CONTINUOUS
 90
8
 70
0
 10
10.3678717134
 20
13.8313978875
 10
10.3896122589
 20
13.8555020497
 10
10.4173574572
 20
13.8789253706
 10
10.4486533323
 20
13.8986443018
 10
10.4831756873
 20
13.9144545732
 10
10.520566902
 20
13.9261924046
 10
10.5604396374
 20
13.9337362028
 10
10.6023808483
 20
13.9370078208
  0
LWPOLYLINE
  5
360
100
AcDbEntity
  8
RACCORDO
100
AcDbPolyline
 62
250
  6
CONTINUOUS
 90
11
 70
0
 10
10.1908557049
 20
13.5716109474
 10
10.2175621316
 20
13.6005896132
 10
10.2466860325
 20
13.6238498477
 10
10.2795101955
 20
13.6431580891
 10
10.3156749169
 20
13.658302745
 10
10.3547823541
 20
13.669117565
 10
10.3964053957
 20
13.6754847769
 10
10.4400932074
 20
13.6773345536
 10
10.4853694494
 20
13.6746448493
 10
10.5317366034
 20
13.6674434376
 10
10.5786865563
 20
13.6558077287
  0
LWPOLYLINE
  5
361
100
AcDbEntity
  8
RACCORDO
100
AcDbPolyline
 62
250
  6
CONTINUOUS
 90
13
 70
0
 10
12.3693815778
 20
14.085296915
 10
12.3530678487
 20
14.0676944106
 10
12.3332275252
 20
14.0513882874
 10
12.31012072
 20
14.0366821355
 10
12.2840106314
 20
14.0238347991
 10
12.2553418378
 20
14.013147245
 10
12.2247855639
 20
14.004902115
 10
12.1929440434
 20
13.9992521111
 10
12.160303073
 20
13.9962740554
 10
12.1274388359
 20
13.9960189788
 10
12.0949232193
 20
13.9984879041
 10
12.0633133985
 20
14.0036350756
 10
12.0331537177
 20
14.0113687999
  0
LWPOLYLINE
  5
362
100
AcDbEntity
  8
RACCORDO
100
AcDbPolyline
 62
250
  6
CONTINUOUS
 90
13
 70
0
 10
12.3772060247
 20
13.7707664601
 10
12.3604784593
 20
13.7527766461
 10
12.3402272062
 20
13.7362646264
 10
12.3167987702
 20
13.7215129263
 10
12.2905940181
 20
13.7087739515
 10
12.2620613206
 20
13.6982656693
 10
12.23168888
 20
13.6901678794
 10
12.1999963772
 20
13.6846191372
 10
12.1675260798
 20
13.6817143833
 10
12.1348335635
 20
13.6815033187
 10
12.1024782064
 20
13.6839895549
 10
12.0710136175
 20
13.6891305516
 10
12.0409781647
 20
13.696838345
  0
LWPOLYLINE
  5
363
100
AcDbEntity
  8
RACCORDO
100
AcDbPolyline
 62
250
  6
CONTINUOUS
 90
12
 70
0
 10
12.8481518448
 20
13.6685219364
 10
12.8314242794
 20
13.6505321224
 10
12.8111730263
 20
13.6340201027
 10
12.7877445902
 20
13.6192684026
 10
12.7615398381
 20
13.6065294278
 10
12.7330071406
 20
13.5960211456
 10
12.7026347001
 20
13.5879233557
 10
12.6709421973
 20
13.5823746135
 10
12.6384718999
 20
13.5794698596
 10
12.6057793836
 20
13.579258795
 10
12.5734240264
 20
13.5817450312
 10
12.5419594375
 20
13.5868860279
  0
LINE
  5
364
100
AcDbEntity
  8
0
100
AcDbLine
 62
7
  6
CONTINUOUS
 10
21.9266085072
 20
16.7273992892
 11
23.1267877444
 21
17.6717268124
  0
LINE
  5
365
100
AcDbEntity
  8
DRAFT
100
AcDbLine
 62
7
  6
CONTINUOUS
 10
29.337408243
 20
-10.8825439893
 11
29.0887714514
 21
-10.8061900394
  0
LWPOLYLINE
  5
366
100
AcDbEntity
  8
RACCORDO
100
AcDbPolyline
 62
250
  6
CONTINUOUS
 90
7
 70
0
 10
-26.4384020028
 20
28.2811946465
 10
-26.4160290299
 20
28.2575743977
 10
-26.396291748
 20
28.2323746271
 10
-26.3795851748
 20
28.2060832033
 10
-26.3662805698
 20
28.1793447703
 10
-26.3565540154
 20
28.152688367
 10
-26.3504602491
 20
28.1264995669
  0
LWPOLYLINE
  5
367
100
AcDbEntity
  8
RACCORDO
100
AcDbPolyline
 62
250
  6
CONTINUOUS
 90
4
 70
0
 10
-3.3155245976
 20
-17.0753709302
 10
-3.3482276982
 20
-17.1842392154
 10
-3.3961926551
 20
-17.2858774205
 10
-3.4575001234
 20
-17.3762451084
  0
LINE
  5
368
100
AcDbEntity
  8
ASSI
100
AcDbLine
 62
250
  6
CONTINUOUS
 10
-3.3155245976
 20
-17.0753709302
 11
-3.3482276982
 21
-17.1842392154
  0
LWPOLYLINE
  5
369
100
AcDbEntity
  8
ASSI
100
AcDbPolyline
 62
250
  6
CONTINUOUS
 90
6
 70
0
 10
-5.5584244643
 20
-15.8964716433
 10
-5.5102947391
 20
-15.7946322391
 10
-5.4487793711
 20
-15.7040081702
 10
-5.3733849196
 20
-15.625066937
 10
-5.2846153835
 20
-15.5573531305
 10
-5.1859049403
 20
-15.5035376109
  0
LWPOLYLINE
  5
36A
100
AcDbEntity
  8
RACCORDO
100
AcDbPolyline
 62
7
  6
CONTINUOUS
 90
6
 70
0
 10
10.2518256123
 20
13.6611425937
 10
10.2357777815
 20
13.6360860992
 10
10.2208814308
 20
13.6134906911
 10
10.207350322
 20
13.5938621685
 10
10.1957843275
 20
13.5780280458
 10
10.1908521207
 20
13.5716137017
  0
LWPOLYLINE
  5
36B
100
AcDbEntity
  8
RACCORDO
100
AcDbPolyline
 62
250
  6
CONTINUOUS
 90
5
 70
0
 10
13.302393703
 20
14.2377503967
 10
13.3153113676
 20
14.2569101944
 10
13.3241981064
 20
14.2769121463
 10
13.3289018651
 20
14.2974140134
 10
13.3296489877
 20
14.3123466222
  0
LWPOLYLINE
  5
36C
100
AcDbEntity
  8
RACCORDO
100
AcDbPolyline
 62
250
  6
CONTINUOUS
 90
14
 70
0
 10
13.4900112806
 20
13.736096541
 10
13.5095375491
 20
13.7638583276
 10
13.5241501641
 20
13.7919409877
 10
13.5338491256
 20
13.8203445213
 10
13.5385858501
 20
13.8493737737
 10
13.5384089211
 20
13.8787238997
 10
13.5334640892
 20
13.9074803627
 10
13.5236515139
 20
13.9355972054
 10
13.5090710358
 20
13.9631203852
 10
13.490167927
 20
13.9892732384
 10
13.4668348439
 20
14.0140420188
 10
13.4391791301
 20
14.0374404726
 10
13.4079680893
 20
14.0587331745
 10
13.3734574894
 20
14.0776749827
  0
LWPOLYLINE
  5
36D
100
AcDbEntity
  8
RACCORDO
100
AcDbPolyline
 62
250
  6
CONTINUOUS
 90
5
 70
0
 10
13.3096058596
 20
13.9478330476
 10
13.3203964342
 20
13.9626323949
 10
13.3285370633
 20
13.9779928004
 10
13.3339648934
 20
13.9937303575
 10
13.336648167
 20
14.0096487994
  0
LWPOLYLINE
  5
36E
100
AcDbEntity
  8
RACCORDO
100
AcDbPolyline
 62
250
  6
CONTINUOUS
 90
13
 70
0
 10
12.1418921638
 20
14.347513469
 10
12.1274386713
 20
14.3277667558
 10
12.1132012851
 20
14.3050023851
 10
12.0994254715
 20
14.2795408295
 10
12.0863279505
 20
14.2516945069
 10
12.0741855691
 20
14.2219577197
 10
12.0633038425
 20
14.1910346465
 10
12.0538908207
 20
14.1595323467
 10
12.0460839743
 20
14.1279291418
 10
12.0400201037
 20
14.096782519
 10
12.0358024927
 20
14.0666336386
 10
12.033501154
 20
14.0379982747
 10
12.0331537177
 20
14.0113687999
  0
LWPOLYLINE
  5
36F
100
AcDbEntity
  8
RACCORDO
100
AcDbPolyline
 62
250
  6
CONTINUOUS
 90
13
 70
0
 10
10.7377988901
 20
13.5731018664
 10
10.7497751649
 20
13.5891398392
 10
10.7615022165
 20
13.6076441108
 10
10.7727749149
 20
13.6282910034
 10
10.7833960773
 20
13.6507193603
 10
10.7931799176
 20
13.6745368633
 10
10.8019552964
 20
13.6993268953
 10
10.8095687143
 20
13.7246558275
 10
10.8158869968
 20
13.7500806047
 10
10.8207996242
 20
13.7751564953
 10
10.8242206645
 20
13.7994448702
 10
10.8260902766
 20
13.8225208757
 10
10.8263757573
 20
13.8439808651
  0
LWPOLYLINE
  5
370
100
AcDbEntity
  8
RACCORDO
100
AcDbPolyline
 62
250
  6
CONTINUOUS
 90
13
 70
0
 10
12.4300710962
 20
13.0534214666
 10
12.4420475288
 20
13.0694596711
 10
12.4537746987
 20
13.0879641842
 10
12.4650474718
 20
13.1086112987
 10
12.4756686643
 20
13.1310398302
 10
12.4854524948
 20
13.154857443
 10
12.4942278327
 20
13.1796475139
 10
12.5018411859
 20
13.204976405
 10
12.5081593914
 20
13.2304010643
 10
12.5130719443
 20
13.2554767835
 10
12.5164929226
 20
13.2797649503
 10
12.5183624936
 20
13.3028407203
 10
12.5186479633
 20
13.3243004652
  0
LINE
  5
371
100
AcDbEntity
  8
RACCORDO
100
AcDbLine
 62
7
  6
CONTINUOUS
 10
14.7122766356
 20
14.2322917624
 11
18.6712253338
 21
19.2862934973
  0
LINE
  5
372
100
AcDbEntity
  8
RACCORDO
100
AcDbLine
 62
250
  6
CONTINUOUS
 10
12.1418921638
 20
14.347513469
 11
13.5046177383
 21
16.05519885
  0
LINE
  5
373
100
AcDbEntity
  8
RACCORDO
100
AcDbLine
 62
250
  6
CONTINUOUS
 10
12.3693815778
 20
14.085296915
 11
13.7321071523
 21
15.792982296
  0
LINE
  5
374
100
AcDbEntity
  8
RACCORDO
100
AcDbLine
 62
7
  6
CONTINUOUS
 10
14.3475584379
 20
14.3442931876
 11
18.5212524708
 21
19.4829351082
  0
LINE
  5
375
100
AcDbEntity
  8
RACCORDO
100
AcDbLine
 62
250
  6
CONTINUOUS
 10
12.8550273269
 20
13.3921383756
 11
13.3096058596
 21
13.9478330476
  0
LINE
  5
376
100
AcDbEntity
  8
RACCORDO
100
AcDbLine
 62
250
  6
CONTINUOUS
 10
13.0354327479
 20
13.180401869
 11
13.4900112806
 21
13.736096541
  0
LWPOLYLINE
  5
377
100
AcDbEntity
  8
RACCORDO
100
AcDbPolyline
 62
250
  6
CONTINUOUS
 90
20
 70
0
 10
29.5334536718
 20
7.8783974206
 10
29.5498244314
 20
7.8842460149
 10
29.5671223999
 20
7.8905950684
 10
29.5851847919
 20
7.8974739964
 10
29.6033566203
 20
7.9047045304
 10
29.6212947588
 20
7.9122056499
 10
29.6390456716
 20
7.9200512151
 10
29.6564885225
 20
7.9282385574
 10
29.6733732753
 20
7.9366924674
 10
29.6895494329
 20
7.9453553406
 10
29.7050190734
 20
7.9542371825
 10
29.7196944362
 20
7.9632840276
 10
29.7335159579
 20
7.9724481341
 10
29.7465696835
 20
7.9817791299
 10
29.7588168258
 20
7.9912329238
 10
29.77021505
 20
8.0007356735
 10
29.7808353696
 20
8.0103130132
 10
29.7906847583
 20
8.0199474697
 10
29.7997329638
 20
8.0295715657
 10
29.8079913108
 20
8.0391505293
  0
LINE
  5
378
100
AcDbEntity
  8
RACCORDO
100
AcDbLine
 62
250
  6
CONTINUOUS
 10
29.5038080047
 20
7.8679949366
 11
29.5334536718
 21
7.8783974206
  0
LINE
  5
379
100
AcDbEntity
  8
RACCORDO
100
AcDbLine
 62
250
  6
CONTINUOUS
 10
29.4671411651
 20
7.8553521379
 11
29.5038080047
 21
7.8679949366
  0
LINE
  5
37A
100
AcDbEntity
  8
RACCORDO
100
AcDbLine
 62
7
  6
CONTINUOUS
 10
29.0513852834
 20
8.4278112153
 11
29.400418658
 21
8.5189960685
  0
LINE
  5
37B
100
AcDbEntity
  8
RACCORDO
100
AcDbLine
 62
250
  6
CONTINUOUS
 10
29.2108611268
 20
8.601314062
 11
29.5598945014
 21
8.6924989152
  0
LWPOLYLINE
  5
37C
100
AcDbEntity
  8
RACCORDO
100
AcDbPolyline
 62
250
  6
CONTINUOUS
 90
7
 70
0
 10
-29.5014553334
 20
25.9640140686
 10
-29.4797872346
 20
25.9471765344
 10
-29.4561781734
 20
25.9315612001
 10
-29.4306281498
 20
25.9171680657
 10
-29.4031371639
 20
25.9039971312
 10
-29.3737052157
 20
25.8920483966
 10
-29.3423323052
 20
25.8813218619
  0
LWPOLYLINE
  5
37D
100
AcDbEntity
  8
RACCORDO
100
AcDbPolyline
 62
7
  6
CONTINUOUS
 90
6
 70
0
 10
-9.9100790909
 20
21.1542044782
 10
-9.9088170029
 20
21.1522496498
 10
-9.9083625814
 20
21.1514221271
 10
-9.9089101324
 20
21.1532177626
 10
-9.9094948957
 20
21.1570477987
 10
-9.909562584
 20
21.1585892605
  0
LWPOLYLINE
  5
37E
100
AcDbEntity
  8
RACCORDO
100
AcDbPolyline
 62
250
  6
CONTINUOUS
 90
5
 70
0
 10
-10.750932662
 20
20.8086098301
 10
-10.7487953532
 20
20.8052187219
 10
-10.74304987
 20
20.7910755975
 10
-10.7387251795
 20
20.7742275283
 10
-10.7358797659
 20
20.7549023554
  0
LWPOLYLINE
  5
37F
100
AcDbEntity
  8
RACCORDO
100
AcDbPolyline
 62
250
  6
CONTINUOUS
 90
4
 70
0
 10
-9.5065444941
 20
22.6172194385
 10
-9.5005227698
 20
22.605262739
 10
-9.4983573565
 20
22.5946387358
 10
-9.5000256615
 20
22.5857301609
  0
LWPOLYLINE
  5
380
100
AcDbEntity
  8
RACCORDO
100
AcDbPolyline
 62
250
  6
CONTINUOUS
 90
4
 70
0
 10
-9.8388739067
 20
21.8545616012
 10
-9.8328224735
 20
21.842522793
 10
-9.8306844829
 20
21.8318599558
 10
-9.8323550742
 20
21.8230723236
  0
LINE
  5
381
100
AcDbEntity
  8
RACCORDO
100
AcDbLine
 62
250
  6
CONTINUOUS
 10
13.4076021866
 20
14.7157940038
 11
13.7399315992
 21
15.4784518411
  0
LINE
  5
382
100
AcDbEntity
  8
RACCORDO
100
AcDbLine
 62
7
  6
CONTINUOUS
 10
13.4141210191
 20
14.6843047263
 11
13.7464504318
 21
15.4469625635
  0
LINE
  5
383
100
AcDbEntity
  8
ASSI
100
AcDbLine
 62
7
  6
CONTINUOUS
 10
-3.3837978568
 20
-17.0619400485
 11
-3.4504607198
 21
-17.206205081
  0
LWPOLYLINE
  5
384
100
AcDbEntity
  8
ASSI
100
AcDbPolyline
 62
250
  6
CONTINUOUS
 90
5
 70
0
 10
-3.3482276982
 20
-17.1842392154
 10
-3.3961926551
 20
-17.2858774205
 10
-3.4575001234
 20
-17.3762451084
 10
-3.532655426
 20
-17.4548859073
 10
-3.6211638064
 20
-17.522268291
  0
LWPOLYLINE
  5
385
100
AcDbEntity
  8
RACCORDO
100
AcDbPolyline
 62
7
  6
CONTINUOUS
 90
9
 70
0
 10
16.6008202698
 20
13.6819249165
 10
16.5866284074
 20
13.6628529748
 10
16.5745028274
 20
13.6434363129
 10
16.56444353
 20
13.6236749308
 10
16.5564250228
 20
13.6034808654
 10
16.5504727982
 20
13.5829420798
 10
16.5466633323
 20
13.5623224637
 10
16.5450242745
 20
13.5416209739
 10
16.5449941882
 20
13.5310958949
  0
LINE
  5
386
100
AcDbEntity
  8
RACCORDO
100
AcDbLine
 62
7
  6
CONTINUOUS
 10
21.0375998431
 20
17.9871658065
 11
18.0850277651
 21
14.2871808143
  0
LINE
  5
387
100
AcDbEntity
  8
RACCORDO
100
AcDbLine
 62
7
  6
CONTINUOUS
 10
20.2744718086
 20
18.2215150327
 11
16.6008202698
 21
13.6819249165
  0
LINE
  5
388
100
AcDbEntity
  8
DRAFT
100
AcDbLine
 62
7
  6
CONTINUOUS
 10
21.2944174721
 20
17.0780194271
 11
18.8254158766
 21
14.0598147981
  0
LINE
  5
389
100
AcDbEntity
  8
RACCORDO
100
AcDbLine
 62
7
  6
CONTINUOUS
 10
22.656842818
 20
18.0623489804
 11
19.2707506677
 21
13.9230567981
  0
LINE
  5
38A
100
AcDbEntity
  8
RACCORDO
100
AcDbLine
 62
250
  6
CONTINUOUS
 10
-5.3278960392
 20
-15.717625642
 11
-5.3022540987
 21
-15.6878191669
  0
LINE
  5
38B
100
AcDbEntity
  8
ASSI
100
AcDbLine
 62
250
  6
CONTINUOUS
 10
-5.3134781637
 20
-15.7004030537
 11
-5.2978719814
 21
-15.6830862931
  0
LWPOLYLINE
  5
38C
100
AcDbEntity
  8
RACCORDO
100
AcDbPolyline
 62
250
  6
CONTINUOUS
 90
4
 70
0
 10
13.349249601
 20
14.5532165078
 10
13.337846768
 20
14.5111813339
 10
13.327964205
 20
14.4695557906
 10
13.3196264396
 20
14.4283515033
  0
LWPOLYLINE
  5
38D
100
AcDbEntity
  8
RACCORDO
100
AcDbPolyline
 62
250
  6
CONTINUOUS
 90
9
 70
0
 10
12.3772060247
 20
13.7707664601
 10
12.3685113996
 20
13.7403681204
 10
12.3561766198
 20
13.7115733511
 10
12.3403870447
 20
13.6848828072
 10
12.3213740493
 20
13.6607498339
 10
12.2994535043
 20
13.6396273236
 10
12.2750413519
 20
13.6219354312
 10
12.2485773389
 20
13.6079870772
 10
12.217862058
 20
13.5972981126
  0
LWPOLYLINE
  5
38E
100
AcDbEntity
  8
RACCORDO
100
AcDbPolyline
 62
250
  6
CONTINUOUS
 90
9
 70
0
 10
12.7262393993
 20
13.8619513133
 10
12.7174682175
 20
13.8313376993
 10
12.7050372122
 20
13.8024178763
 10
12.6891590813
 20
13.7756866706
 10
12.670105504
 20
13.7516014605
 10
12.6482024924
 20
13.7305743506
 10
12.623824813
 20
13.7129651206
 10
12.5973895748
 20
13.6990750693
 10
12.5667635559
 20
13.6884484666
  0
LWPOLYLINE
  5
38F
100
AcDbEntity
  8
RACCORDO
100
AcDbPolyline
 62
250
  6
CONTINUOUS
 90
3
 70
0
 10
13.3758701842
 20
14.6355886245
 10
13.3619489362
 20
14.5947831754
 10
13.349249601
 20
14.5532165078
  0
LWPOLYLINE
  5
390
100
AcDbEntity
  8
RACCORDO
100
AcDbPolyline
 62
7
  6
CONTINUOUS
 90
3
 70
0
 10
13.3878248497
 20
14.6176717056
 10
13.400598679
 20
14.6517109648
 10
13.4141210191
 20
14.6843047263
  0
LWPOLYLINE
  5
391
100
AcDbEntity
  8
RACCORDO
100
AcDbPolyline
 62
250
  6
CONTINUOUS
 90
3
 70
0
 10
13.4076021866
 20
14.7157940038
 10
13.3910879343
 20
14.6759255673
 10
13.3758701842
 20
14.6355886245
  0
LINE
  5
392
100
AcDbEntity
  8
ASSI
100
AcDbLine
 62
7
  6
CONTINUOUS
 10
-3.4504607198
 20
-17.206205081
 11
-3.5136572752
 21
-17.2888433213
  0
LINE
  5
393
100
AcDbEntity
  8
0
100
AcDbLine
 62
7
  6
CONTINUOUS
 10
19.6064820462
 20
13.8199569443
 11
21.9266085072
 21
16.7273992892
  0
LWPOLYLINE
  5
394
100
AcDbEntity
  8
RACCORDO
100
AcDbPolyline
 62
250
  6
CONTINUOUS
 90
38
 70
0
 10
-3.7495406698
 20
-17.2393994233
 10
-3.7201908028
 20
-17.2059285892
 10
-3.6943028652
 20
-17.1712419595
 10
-3.671041281
 20
-17.1344832704
 10
-3.6504895168
 20
-17.0957870748
 10
-3.6327249621
 20
-17.0553115082
 10
-3.6177913313
 20
-17.0131705219
 10
-3.6057192704
 20
-16.969434967
 10
-3.5965537989
 20
-16.9242017788
 10
-3.5903511442
 20
-16.8776609518
 10
-3.5871466664
 20
-16.8300285005
 10
-3.5869511917
 20
-16.7814848506
 10
-3.5897640247
 20
-16.7321768695
 10
-3.5955748884
 20
-16.6822798917
 10
-3.6043618681
 20
-16.6319694453
 10
-3.6160946551
 20
-16.5814107022
 10
-3.6307355284
 20
-16.5307656789
 10
-3.6482379973
 20
-16.4801996138
 10
-3.6685415451
 20
-16.4298910436
 10
-3.6915727963
 20
-16.3800212873
 10
-3.7172486491
 20
-16.3307665124
 10
-3.7454840514
 20
-16.2822864948
 10
-3.7761892599
 20
-16.2347350642
 10
-3.8092662359
 20
-16.188266529
 10
-3.8445985503
 20
-16.1430467597
 10
-3.8820567137
 20
-16.0992410161
 10
-3.9215045047
 20
-16.0570054761
 10
-3.9628142896
 20
-16.0164738266
 10
-4.0058595374
 20
-15.9777701791
 10
-4.0505249702
 20
-15.9410031873
 10
-4.0966316414
 20
-15.906324978
 10
-4.1439443314
 20
-15.8739061575
 10
-4.1922466152
 20
-15.8438764835
 10
-4.2414194164
 20
-15.8162919121
 10
-4.2913671527
 20
-15.7911993559
 10
-4.3419466171
 20
-15.7686725893
 10
-4.3929633477
 20
-15.7488000274
 10
-4.4442456379
 20
-15.731648282
  0
LINE
  5
395
100
AcDbEntity
  8
DRAFT
100
AcDbLine
 62
7
  6
CONTINUOUS
 10
-5.201186501
 20
-15.8814079286
 11
-4.8341515819
 21
-15.482808069
  0
LINE
  5
396
100
AcDbEntity
  8
RACCORDO
100
AcDbLine
 62
250
  6
CONTINUOUS
 10
-5.3022540987
 20
-15.6878191669
 11
-5.2978719814
 21
-15.6830862931
  0
LINE
  5
397
100
AcDbEntity
  8
DRAFT
100
AcDbLine
 62
7
  6
CONTINUOUS
 10
-3.749540669
 20
-17.2393994224
 11
-3.3546028805
 21
-16.8238397475
  0
LINE
  5
398
100
AcDbEntity
  8
RACCORDO
100
AcDbLine
 62
250
  6
CONTINUOUS
 10
-3.4575001234
 20
-17.3762451084
 11
-3.532655426
 21
-17.4548859073
  0
LINE
  5
399
100
AcDbEntity
  8
ASSI
100
AcDbLine
 62
7
  6
CONTINUOUS
 10
-5.3132980317
 20
-15.7002637884
 11
-5.2604979151
 21
-15.6465434607
  0
LINE
  5
39A
100
AcDbEntity
  8
RACCORDO
100
AcDbLine
 62
7
  6
CONTINUOUS
 10
-5.3020422305
 20
-15.687636229
 11
-5.2718725856
 21
-15.6570097338
  0
LWPOLYLINE
  5
39B
100
AcDbEntity
  8
RACCORDO
100
AcDbPolyline
 62
7
  6
CONTINUOUS
 90
19
 70
0
 10
-3.7495406679
 20
-17.2393994213
 10
-3.7795537673
 20
-17.2688412349
 10
-3.811702507
 20
-17.2962374596
 10
-3.8458964837
 20
-17.3214814183
 10
-3.8820244603
 20
-17.3444668173
 10
-3.9199922385
 20
-17.3651125253
 10
-3.9597320209
 20
-17.3833557383
 10
-4.0011544255
 20
-17.3991238961
 10
-4.044124348
 20
-17.412335757
 10
-4.0885066006
 20
-17.4229250412
 10
-4.1342010502
 20
-17.4308430192
 10
-4.1810585279
 20
-17.4360391509
 10
-4.2288625985
 20
-17.438474421
 10
-4.2774789701
 20
-17.4381336653
 10
-4.3267680911
 20
-17.4350084233
 10
-4.3764962176
 20
-17.4291106925
 10
-4.4264887261
 20
-17.4204670945
 10
-4.476633688
 20
-17.4091011986
 10
-4.5267880117
 20
-17.3950453025
  0
LINE
  5
39C
100
AcDbEntity
  8
RACCORDO
100
AcDbLine
 62
7
  6
CONTINUOUS
 10
-5.2718725856
 20
-15.6570097338
 11
-5.1926230541
 21
-15.5941740645
  0
LWPOLYLINE
  5
39D
100
AcDbEntity
  8
RACCORDO
100
AcDbPolyline
 62
250
  6
CONTINUOUS
 90
4
 70
0
 10
-9.7737550335
 20
21.1471737425
 10
-9.7969570959
 20
21.1681175668
 10
-9.8228083834
 20
21.1874062078
 10
-9.8513088961
 20
21.2050396658
  0
LWPOLYLINE
  5
39E
100
AcDbEntity
  8
RACCORDO
100
AcDbPolyline
 62
250
  6
CONTINUOUS
 90
7
 70
0
 10
-9.6047469008
 20
23.1117422484
 10
-9.5823739278
 20
23.0881219996
 10
-9.562636646
 20
23.062922229
 10
-9.5459300727
 20
23.0366308052
 10
-9.5326254678
 20
23.0098923722
 10
-9.5228989134
 20
22.9832359689
 10
-9.516805147
 20
22.9570471688
  0
LWPOLYLINE
  5
39F
100
AcDbEntity
  8
RACCORDO
100
AcDbPolyline
 62
250
  6
CONTINUOUS
 90
13
 70
0
 10
30.4630132258
 20
-27.6114526759
 10
30.4531518917
 20
-27.598243884
 10
30.4396493869
 20
-27.5840911146
 10
30.422736743
 20
-27.5692365255
 10
30.40270334
 20
-27.5539342827
 10
30.379891955
 20
-27.538446212
 10
30.3546928971
 20
-27.5230373184
 10
30.3275373292
 20
-27.5079712525
 10
30.2988898906
 20
-27.4935057988
 10
30.2692407468
 20
-27.4798884652
 10
30.2390972031
 20
-27.467352248
 10
30.2089750237
 20
-27.4561116455
 10
30.1793896075
 20
-27.4463589874
  0
LWPOLYLINE
  5
3A0
100
AcDbEntity
  8
RACCORDO
100
AcDbPolyline
 62
250
  6
CONTINUOUS
 90
13
 70
0
 10
30.1306838131
 20
-28.3741105132
 10
30.1209068511
 20
-28.3610006166
 10
30.1075056322
 20
-28.3469262063
 10
30.090683765
 20
-28.3321202344
 10
30.0706897884
 20
-28.3168193093
 10
30.0478575713
 20
-28.3012940359
 10
30.0226209883
 20
-28.2858451169
 10
29.9954344483
 20
-28.2707490183
 10
29.9667471402
 20
-28.2562535827
 10
29.937052756
 20
-28.2426081753
 10
29.9068615512
 20
-28.2300470832
 10
29.8766914287
 20
-28.2187855938
 10
29.8470601948
 20
-28.2090168247
  0
LWPOLYLINE
  5
3A1
100
AcDbEntity
  8
RACCORDO
100
AcDbPolyline
 62
250
  6
CONTINUOUS
 90
12
 70
0
 10
10.6901289052
 20
13.975707507
 10
10.6904374889
 20
13.970833412
 10
10.6932147312
 20
13.9550419341
 10
10.6986534138
 20
13.9395744682
 10
10.7066761239
 20
13.9245877472
 10
10.7172210329
 20
13.9101778552
 10
10.7301908012
 20
13.896498626
 10
10.7454482992
 20
13.8837138269
 10
10.7628736951
 20
13.8719356327
 10
10.7823102639
 20
13.8612961379
 10
10.803550754
 20
13.8519384564
 10
10.8263757573
 20
13.8439808651
  0
LWPOLYLINE
  5
3A2
100
AcDbEntity
  8
RACCORDO
100
AcDbPolyline
 62
250
  6
CONTINUOUS
 90
8
 70
0
 10
10.3487059587
 20
14.2165187448
 10
10.3500443155
 20
14.1948732531
 10
10.352915812
 20
14.1754675871
 10
10.3572812261
 20
14.1585668716
 10
10.3630919368
 20
14.1443804302
 10
10.3702621494
 20
14.1331336027
 10
10.3786477605
 20
14.1250139608
 10
10.3888763975
 20
14.1198407053
  0
LWPOLYLINE
  5
3A3
100
AcDbEntity
  8
RACCORDO
100
AcDbPolyline
 62
250
  6
CONTINUOUS
 90
10
 70
0
 10
10.2123488405
 20
14.3524115628
 10
10.2126260143
 20
14.3471935461
 10
10.2164086197
 20
14.326691568
 10
10.2244185242
 20
14.306742185
 10
10.2365076835
 20
14.2877019007
 10
10.2524728138
 20
14.2698828004
 10
10.2720389573
 20
14.2535913934
 10
10.2948694728
 20
14.2391073238
 10
10.3205723058
 20
14.2266787565
 10
10.3487059587
 20
14.2165187448
  0
LWPOLYLINE
  5
3A4
100
AcDbEntity
  8
RACCORDO
100
AcDbPolyline
 62
250
  6
CONTINUOUS
 90
10
 70
0
 10
10.204519296
 20
14.6671390893
 10
10.2047534934
 20
14.6623545225
 10
10.2084369143
 20
14.6417319167
 10
10.2163956652
 20
14.6216591957
 10
10.228460323
 20
14.6025260298
 10
10.2444347991
 20
14.5846186415
 10
10.2640351378
 20
14.5682522019
 10
10.2869158854
 20
14.5537094405
 10
10.3126805443
 20
14.5412374651
 10
10.3408815117
 20
14.5310491997
  0
LINE
  5
3A5
100
AcDbEntity
  8
RACCORDO
100
AcDbLine
 62
250
  6
CONTINUOUS
 10
10.6900940978
 20
13.976832521
 11
10.6901289052
 21
13.975707507
  0
LINE
  5
3A6
100
AcDbEntity
  8
RACCORDO
100
AcDbLine
 62
250
  6
CONTINUOUS
 10
10.2123437429
 20
14.3526086344
 11
10.2123488405
 21
14.3524115628
  0
LINE
  5
3A7
100
AcDbEntity
  8
RACCORDO
100
AcDbLine
 62
7
  6
CONTINUOUS
 10
9.9912983716
 20
13.2112951275
 11
9.9918745389
 21
13.1881341102
  0
LINE
  5
3A8
100
AcDbEntity
  8
RACCORDO
100
AcDbLine
 62
7
  6
CONTINUOUS
 10
10.2123437429
 20
14.3526086344
 11
10.204519296
 21
14.6671390893
  0
LINE
  5
3A9
100
AcDbEntity
  8
DRAFT
100
AcDbLine
 62
7
  6
CONTINUOUS
 10
10.2982266773
 20
12.709017863
 11
10.2885744944
 21
13.0970204283
  0
LINE
  5
3AA
100
AcDbEntity
  8
RACCORDO
100
AcDbLine
 62
250
  6
CONTINUOUS
 10
10.3487059587
 20
14.2165187448
 11
10.3408815117
 21
14.5310491997
  0
LINE
  5
3AB
100
AcDbEntity
  8
RACCORDO
100
AcDbLine
 62
7
  6
CONTINUOUS
 10
10.6900940967
 20
13.9768325622
 11
10.6888279796
 21
14.0277284803
  0
LINE
  5
3AC
100
AcDbEntity
  8
RACCORDO
100
AcDbLine
 62
250
  6
CONTINUOUS
 10
10.8263757573
 20
13.8439808651
 11
10.8228284199
 21
13.9865782433
  0
LINE
  5
3AD
100
AcDbEntity
  8
RACCORDO
100
AcDbLine
 62
250
  6
CONTINUOUS
 10
12.0331537177
 20
14.0113687999
 11
12.0409781647
 21
13.696838345
  0
LINE
  5
3AE
100
AcDbEntity
  8
RACCORDO
100
AcDbLine
 62
250
  6
CONTINUOUS
 10
12.3693815778
 20
14.085296915
 11
12.3772060247
 21
13.7707664601
  0
LWPOLYLINE
  5
3AF
100
AcDbEntity
  8
RACCORDO
100
AcDbPolyline
 62
7
  6
CONTINUOUS
 90
3
 70
0
 10
10.6901407651
 20
13.9757249936
 10
10.6900027726
 20
13.97354894
 10
10.6898890522
 20
13.9726502833
  0
LWPOLYLINE
  5
3B0
100
AcDbEntity
  8
RACCORDO
100
AcDbPolyline
 62
250
  6
CONTINUOUS
 90
5
 70
0
 10
13.3196264396
 20
14.4283515033
 10
13.3128089443
 20
14.3875568466
 10
13.3076619045
 20
14.3480150815
 10
13.3042353819
 20
14.310007295
 10
13.3024793147
 20
14.2732524001
  0
LINE
  5
3B1
100
AcDbEntity
  8
RACCORDO
100
AcDbLine
 62
7
  6
CONTINUOUS
 10
28.0354149524
 20
15.838204581
 11
24.4438129915
 21
11.2734178342
  0
LINE
  5
3B2
100
AcDbEntity
  8
RACCORDO
100
AcDbLine
 62
7
  6
CONTINUOUS
 10
27.2722869179
 20
16.0725538072
 11
24.3197148399
 21
12.372568815
  0
LINE
  5
3B3
100
AcDbEntity
  8
RACCORDO
100
AcDbLine
 62
7
  6
CONTINUOUS
 10
28.2896676088
 20
14.9298458798
 11
24.4706489271
 21
10.1946554514
  0
LINE
  5
3B4
100
AcDbEntity
  8
RACCORDO
100
AcDbLine
 62
7
  6
CONTINUOUS
 10
27.7170439842
 20
16.0743047441
 11
28.0008603107
 21
16.421252981
  0
LWPOLYLINE
  5
3B5
100
AcDbEntity
  8
RACCORDO
100
AcDbPolyline
 62
7
  6
CONTINUOUS
 90
13
 70
0
 10
27.2722869179
 20
16.0725538072
 10
27.2872671943
 20
16.0904399102
 10
27.3020986619
 20
16.1064653813
 10
27.3167813206
 20
16.1206302205
 10
27.3313765936
 20
16.1329790214
 10
27.3458230577
 20
16.1434671903
 10
27.3599364432
 20
16.1519609472
 10
27.3737124835
 20
16.158434744
 10
27.3871554452
 20
16.1629141287
 10
27.4000938587
 20
16.1653419651
 10
27.4125212607
 20
16.1656919734
 10
27.4244441146
 20
16.1639904335
 10
27.4286898936
 20
16.162855488
  0
LWPOLYLINE
  5
3B6
100
AcDbEntity
  8
RACCORDO
100
AcDbPolyline
 62
7
  6
CONTINUOUS
 90
13
 70
0
 10
28.0008603107
 20
16.421252981
 10
28.0304836708
 20
16.4557346722
 10
28.0597873531
 20
16.4865515448
 10
28.0887713575
 20
16.5137035988
 10
28.1175540477
 20
16.5372736101
 10
28.14601706
 20
16.5571788027
 10
28.1738053034
 20
16.5731708489
 10
28.2009103247
 20
16.5852007264
 10
28.227340577
 20
16.5933174574
 10
28.2527663292
 20
16.5974197816
 10
28.2771749971
 20
16.597457408
 10
28.3005791648
 20
16.5934806275
 10
28.3057385283
 20
16.5920391614
  0
LWPOLYLINE
  5
3B7
100
AcDbEntity
  8
RACCORDO
100
AcDbPolyline
 62
250
  6
CONTINUOUS
 90
9
 70
0
 10
28.4554145436
 20
11.3675241266
 10
28.4712332719
 20
11.3838388321
 10
28.4899633455
 20
11.3970044012
 10
28.5114457664
 20
11.4069974664
 10
28.5353129645
 20
11.4136470437
 10
28.5611565654
 20
11.4168393569
 10
28.5885343779
 20
11.4165197847
 10
28.61697796
 20
11.4126937951
 10
28.6460006343
 20
11.4054268517
  0
LWPOLYLINE
  5
3B8
100
AcDbEntity
  8
RACCORDO
100
AcDbPolyline
 62
250
  6
CONTINUOUS
 90
9
 70
0
 10
27.0926889691
 20
9.6598387456
 10
27.1089225096
 20
9.676505029
 10
27.1278361653
 20
9.6896615497
 10
27.1495735466
 20
9.6996222909
 10
27.1737186851
 20
9.7061816847
 10
27.199665084
 20
9.7092167499
 10
27.2268664904
 20
9.708753408
 10
27.2548970171
 20
9.7048831445
 10
27.2832750598
 20
9.6977414707
  0
LWPOLYLINE
  5
3B9
100
AcDbEntity
  8
RACCORDO
100
AcDbPolyline
 62
250
  6
CONTINUOUS
 90
10
 70
0
 10
-3.517263573
 20
-17.2927783212
 10
-3.5567557574
 20
-17.3314109648
 10
-3.6375078955
 20
-17.3928365842
 10
-3.7287999957
 20
-17.4420769643
 10
-3.8296425289
 20
-17.4784818076
 10
-3.9384419378
 20
-17.5013478474
 10
-4.0530963559
 20
-17.5103709668
 10
-4.1717477287
 20
-17.5056710072
 10
-4.2929385692
 20
-17.4875119608
 10
-4.4150297163
 20
-17.45633236
  0
LWPOLYLINE
  5
3BA
100
AcDbEntity
  8
ASSI
100
AcDbPolyline
 62
250
  6
CONTINUOUS
 90
5
 70
0
 10
-3.517263573
 20
-17.2927783212
 10
-3.5567557574
 20
-17.3314109648
 10
-3.6375078955
 20
-17.3928365842
 10
-3.7287999957
 20
-17.4420769643
 10
-3.8296425289
 20
-17.4784818076
  0
LWPOLYLINE
  5
3BB
100
AcDbEntity
  8
RACCORDO
100
AcDbPolyline
 62
250
  6
CONTINUOUS
 90
5
 70
0
 10
-3.532655426
 20
-17.4548859073
 10
-3.6211638064
 20
-17.522268291
 10
-3.7196113939
 20
-17.5757455291
 10
-3.8286863826
 20
-17.6147317301
 10
-3.9477124517
 20
-17.639826436
  0
LINE
  5
3BC
100
AcDbEntity
  8
ASSI
100
AcDbLine
 62
7
  6
CONTINUOUS
 10
-5.2604979151
 20
-15.6465434607
 11
-5.1255378895
 21
-15.5553331652
  0
LWPOLYLINE
  5
3BD
100
AcDbEntity
  8
RACCORDO
100
AcDbPolyline
 62
7
  6
CONTINUOUS
 90
3
 70
0
 10
-5.1926230541
 20
-15.5941740645
 10
-5.1020910157
 20
-15.544139805
 10
-5.0012350169
 20
-15.5073642665
  0
LINE
  5
3BE
100
AcDbEntity
  8
RACCORDO
100
AcDbLine
 62
250
  6
CONTINUOUS
 10
12.217862058
 20
13.5972981126
 11
12.2177301814
 21
13.5972636134
  0
LINE
  5
3BF
100
AcDbEntity
  8
RACCORDO
100
AcDbLine
 62
7
  6
CONTINUOUS
 10
12.2177301814
 20
13.5972636134
 11
12.5667635559
 21
13.6884484666
  0
LINE
  5
3C0
100
AcDbEntity
  8
RACCORDO
100
AcDbLine
 62
250
  6
CONTINUOUS
 10
12.3772060247
 20
13.7707664601
 11
12.7262393993
 21
13.8619513133
  0
LINE
  5
3C1
100
AcDbEntity
  8
RACCORDO
100
AcDbLine
 62
250
  6
CONTINUOUS
 10
25.6018169927
 20
2.3051553004
 11
-32.2729824613
 21
20.0779455241
  0
LINE
  5
3C2
100
AcDbEntity
  8
ASSI
100
AcDbLine
 62
250
  6
CONTINUOUS
 10
25.6018169927
 20
2.3051553004
 11
-32.2729824613
 21
20.0779455241
  0
LINE
  5
3C3
100
AcDbEntity
  8
RACCORDO
100
AcDbLine
 62
250
  6
CONTINUOUS
 10
26.3193134247
 20
4.1771559555
 11
-31.5768223824
 21
21.9564983666
  0
LINE
  5
3C4
100
AcDbEntity
  8
ASSI
100
AcDbLine
 62
250
  6
CONTINUOUS
 10
26.3193134247
 20
4.1771559555
 11
-31.5768223824
 21
21.9564983666
  0
LWPOLYLINE
  5
3C5
100
AcDbEntity
  8
RACCORDO
100
AcDbPolyline
 62
250
  6
CONTINUOUS
 90
13
 70
0
 10
-9.8131008179
 20
20.9003341684
 10
-9.8304180805
 20
20.911602203
 10
-9.8469608078
 20
20.9241700403
 10
-9.8625502543
 20
20.937901882
 10
-9.8770179729
 20
20.9526493509
 10
-9.8902076416
 20
20.9682531001
 10
-9.9019767507
 20
20.9845445365
 10
-9.9121981346
 20
21.0013476325
 10
-9.9207613468
 20
21.0184808263
 10
-9.9275738594
 20
21.0357589907
 10
-9.9325620616
 20
21.0529954326
 10
-9.9356720546
 20
21.0700039103
 10
-9.9368702336
 20
21.086600645
  0
LWPOLYLINE
  5
3C6
100
AcDbEntity
  8
RACCORDO
100
AcDbPolyline
 62
250
  6
CONTINUOUS
 90
13
 70
0
 10
-9.8131005893
 20
20.9003349887
 10
-9.7702375268
 20
20.8716294885
 10
-9.729307936
 20
20.8396776027
 10
-9.690754321
 20
20.804824768
 10
-9.6549934976
 20
20.7674477853
 10
-9.6224120869
 20
20.7279507456
 10
-9.5933623356
 20
20.6867606621
 10
-9.5681583069
 20
20.6443228534
 10
-9.5470724858
 20
20.6010961291
 10
-9.5303328325
 20
20.55754783
 10
-9.518120318
 20
20.5141487754
 10
-9.5105669675
 20
20.4713681729
 10
-9.5077544331
 20
20.4296685461
  0
LWPOLYLINE
  5
3C7
100
AcDbEntity
  8
RACCORDO
100
AcDbPolyline
 62
250
  6
CONTINUOUS
 90
13
 70
0
 10
-10.2721405748
 20
20.3473711183
 10
-10.288915388
 20
20.3587159962
 10
-10.3049107258
 20
20.3712780298
 10
-10.3199607008
 20
20.3849277928
 10
-10.333909776
 20
20.3995252786
 10
-10.3466121756
 20
20.4149190794
 10
-10.3579340833
 20
20.4309475639
 10
-10.3677577741
 20
20.4474438672
 10
-10.375982145
 20
20.4642379808
 10
-10.3825220291
 20
20.4811559947
 10
-10.3873097032
 20
20.4980227159
 10
-10.390295589
 20
20.5146634827
 10
-10.3914487664
 20
20.530905973
  0
LWPOLYLINE
  5
3C8
100
AcDbEntity
  8
RACCORDO
100
AcDbPolyline
 62
250
  6
CONTINUOUS
 90
13
 70
0
 10
-10.2721405748
 20
20.3473711183
 10
-10.2306069481
 20
20.3184651864
 10
-10.1910270246
 20
20.2865222465
 10
-10.1538108165
 20
20.2518731983
 10
-10.1193438498
 20
20.2148769747
 10
-10.087983171
 20
20.1759168227
 10
-10.0600536483
 20
20.1353963343
 10
-10.035844606
 20
20.0937352648
 10
-10.015606828
 20
20.051365185
 10
-9.9995499591
 20
20.0087250106
 10
-9.987840334
 20
19.9662564549
 10
-9.9805992538
 20
19.9243994537
 10
-9.9779017294
 20
19.8835876074
  0
LWPOLYLINE
  5
3C9
100
AcDbEntity
  8
RACCORDO
100
AcDbPolyline
 62
250
  6
CONTINUOUS
 90
6
 70
0
 10
31.465542731
 20
-26.4776627417
 10
31.448180269
 20
-26.4502557018
 10
31.4277714611
 20
-26.4253861499
 10
31.4046676657
 20
-26.4034818147
 10
31.379266165
 20
-26.3849185548
 10
31.3520029706
 20
-26.3700142786
  0
LINE
  5
3CA
100
AcDbEntity
  8
RACCORDO
100
AcDbLine
 62
250
  6
CONTINUOUS
 10
13.7296709462
 20
15.8182795715
 11
13.7321071523
 21
15.792982296
  0
LINE
  5
3CB
100
AcDbEntity
  8
RACCORDO
100
AcDbLine
 62
250
  6
CONTINUOUS
 10
12.5105963273
 20
13.616134758
 11
12.5119239848
 21
13.5945938213
  0
LWPOLYLINE
  5
3CC
100
AcDbEntity
  8
RACCORDO
100
AcDbPolyline
 62
250
  6
CONTINUOUS
 90
9
 70
0
 10
12.0409781647
 20
13.696838345
 10
12.0422739345
 20
13.6756116873
 10
12.0450598953
 20
13.6564362981
 10
12.0493218434
 20
13.6396016907
 10
12.0550357208
 20
13.6253507268
 10
12.0621391482
 20
13.613950635
 10
12.0705091824
 20
13.605637547
 10
12.080014059
 20
13.6005313078
 10
12.0811486035
 20
13.6001603054
  0
LWPOLYLINE
  5
3CD
100
AcDbEntity
  8
RACCORDO
100
AcDbPolyline
 62
250
  6
CONTINUOUS
 90
13
 70
0
 10
12.8481518448
 20
13.6685219364
 10
12.8463506846
 20
13.7017296391
 10
12.8429171823
 20
13.7320390943
 10
12.8378513376
 20
13.759450302
 10
12.8310894938
 20
13.7841041357
 10
12.8226953078
 20
13.8058597219
 10
12.8128597504
 20
13.8242944394
 10
12.8015620398
 20
13.8393551166
 10
12.7888229578
 20
13.8510949251
 10
12.7748958211
 20
13.8592507596
 10
12.7598650686
 20
13.8637349182
 10
12.7436462613
 20
13.8646351028
 10
12.7262393993
 20
13.8619513133
  0
LINE
  5
3CE
100
AcDbEntity
  8
RACCORDO
100
AcDbLine
 62
250
  6
CONTINUOUS
 10
12.5119239848
 20
13.5945938213
 11
12.5186479633
 21
13.3243004652
  0
LINE
  5
3CF
100
AcDbEntity
  8
RACCORDO
100
AcDbLine
 62
250
  6
CONTINUOUS
 10
12.8481518448
 20
13.6685219364
 11
12.8550273269
 21
13.3921383756
  0
LINE
  5
3D0
100
AcDbEntity
  8
RACCORDO
100
AcDbLine
 62
250
  6
CONTINUOUS
 10
13.3096058596
 20
13.9478330476
 11
13.302393703
 21
14.2377503967
  0
LINE
  5
3D1
100
AcDbEntity
  8
RACCORDO
100
AcDbLine
 62
7
  6
CONTINUOUS
 10
13.3369320917
 20
14.019577302
 11
13.3296489877
 21
14.3123466222
  0
LINE
  5
3D2
100
AcDbEntity
  8
RACCORDO
100
AcDbLine
 62
250
  6
CONTINUOUS
 10
13.7321071523
 20
15.792982296
 11
13.7399315992
 21
15.4784518411
  0
LINE
  5
3D3
100
AcDbEntity
  8
RACCORDO
100
AcDbLine
 62
7
  6
CONTINUOUS
 10
13.759362437
 20
15.8675785214
 11
13.7671868839
 21
15.5530480665
  0
LWPOLYLINE
  5
3D4
100
AcDbEntity
  8
RACCORDO
100
AcDbPolyline
 62
7
  6
CONTINUOUS
 90
11
 70
0
 10
13.3296489877
 20
14.3123466222
 10
13.3296127053
 20
14.3320670165
 10
13.3305485687
 20
14.3550333236
 10
13.3326598531
 20
14.3811325885
 10
13.3361528667
 20
14.4103758424
 10
13.3411657053
 20
14.4423123749
 10
13.3476845548
 20
14.4759971196
 10
13.3557092504
 20
14.5109805803
 10
13.3652183606
 20
14.5468459807
 10
13.3759907247
 20
14.5826201665
 10
13.3878248497
 20
14.6176717056
  0
LINE
  5
3D5
100
AcDbEntity
  8
RACCORDO
100
AcDbLine
 62
250
  6
CONTINUOUS
 10
13.3024793147
 20
14.2732524001
 11
13.302393703
 21
14.2377503967
  0
LINE
  5
3D6
100
AcDbEntity
  8
RACCORDO
100
AcDbLine
 62
250
  6
CONTINUOUS
 10
13.336648167
 20
14.0096487994
 11
13.3369320917
 21
14.019577302
  0
LWPOLYLINE
  5
3D7
100
AcDbEntity
  8
RACCORDO
100
AcDbPolyline
 62
250
  6
CONTINUOUS
 90
5
 70
0
 10
13.759362437
 20
15.8675785214
 10
13.7586153144
 20
15.8526459127
 10
13.7539115557
 20
15.8321440456
 10
13.7450248168
 20
15.8121420937
 10
13.7321071523
 20
15.792982296
  0
LWPOLYLINE
  5
3D8
100
AcDbEntity
  8
RACCORDO
100
AcDbPolyline
 62
250
  6
CONTINUOUS
 90
5
 70
0
 10
13.7671868839
 20
15.5530480665
 10
13.7664007478
 20
15.5378071755
 10
13.76165262
 20
15.5173660495
 10
13.7527703298
 20
15.4974700799
 10
13.7399315992
 20
15.4784518411
  0
LINE
  5
3D9
100
AcDbEntity
  8
RACCORDO
100
AcDbLine
 62
7
  6
CONTINUOUS
 10
27.0926889691
 20
9.6598387456
 11
28.4554145436
 21
11.3675241266
  0
LINE
  5
3DA
100
AcDbEntity
  8
RACCORDO
100
AcDbLine
 62
250
  6
CONTINUOUS
 10
27.2832750598
 20
9.6977414707
 11
28.6460006343
 21
11.4054268517
  0
LINE
  5
3DB
100
AcDbEntity
  8
RACCORDO
100
AcDbLine
 62
250
  6
CONTINUOUS
 10
27.4580535339
 20
8.8780617721
 11
27.37521302
 21
8.7767942706
  0
LINE
  5
3DC
100
AcDbEntity
  8
RACCORDO
100
AcDbLine
 62
7
  6
CONTINUOUS
 10
28.7757224915
 20
11.4347562877
 11
31.9864777949
 21
15.1973084641
  0
LWPOLYLINE
  5
3DD
100
AcDbEntity
  8
RACCORDO
100
AcDbPolyline
 62
250
  6
CONTINUOUS
 90
13
 70
0
 10
29.2108611268
 20
8.601314062
 10
29.1942671585
 20
8.5834490203
 10
29.1741490626
 20
8.5670034578
 10
29.1508253918
 20
8.5522667011
 10
29.1246527889
 20
8.5394933426
 10
29.0960784827
 20
8.5289278585
 10
29.0656492939
 20
8.5207827486
 10
29.0339119783
 20
8.5152011502
 10
29.0013898478
 20
8.5122720179
 10
28.9686425266
 20
8.5120455692
 10
28.936232603
 20
8.5145253032
 10
28.9047159137
 20
8.5196682969
 10
28.8746332667
 20
8.5273859469
  0
LWPOLYLINE
  5
3DE
100
AcDbEntity
  8
RACCORDO
100
AcDbPolyline
 62
250
  6
CONTINUOUS
 90
13
 70
0
 10
29.2030366798
 20
8.9158445169
 10
29.1863091144
 20
8.8978547028
 10
29.1660578613
 20
8.8813426832
 10
29.1426294252
 20
8.8665909831
 10
29.1164246732
 20
8.8538520082
 10
29.0878919756
 20
8.8433437261
 10
29.0575195351
 20
8.8352459362
 10
29.0258270323
 20
8.829697194
 10
28.9933567349
 20
8.8267924401
 10
28.9606642186
 20
8.8265813755
 10
28.9283088614
 20
8.8290676117
 10
28.8968442726
 20
8.8342086084
 10
28.8668088198
 20
8.8419164018
  0
LWPOLYLINE
  5
3DF
100
AcDbEntity
  8
RACCORDO
100
AcDbPolyline
 62
250
  6
CONTINUOUS
 90
9
 70
0
 10
30.6765902103
 20
8.2244002518
 10
30.684875109
 20
8.2322833161
 10
30.693525406
 20
8.2407091196
 10
30.7025316685
 20
8.2496546959
 10
30.7119033292
 20
8.2591430114
 10
30.7216688589
 20
8.2693688993
 10
30.7318377476
 20
8.2803973041
 10
30.7424005053
 20
8.2921632814
 10
30.7533571319
 20
8.3046668311
  0
LWPOLYLINE
  5
3E0
100
AcDbEntity
  8
RACCORDO
100
AcDbPolyline
 62
250
  6
CONTINUOUS
 90
3
 70
0
 10
30.6343611727
 20
8.1850719105
 10
30.6611315033
 20
8.2098854915
 10
30.6765902103
 20
8.2244002518
  0
LWPOLYLINE
  5
3E1
100
AcDbEntity
  8
RACCORDO
100
AcDbPolyline
 62
250
  6
CONTINUOUS
 90
13
 70
0
 10
26.6685836278
 20
2.4221420665
 10
26.6145229048
 20
2.380312211
 10
26.5495513992
 20
2.342956598
 10
26.474756314
 20
2.3107003191
 10
26.3913892354
 20
2.2840831358
 10
26.3008451895
 20
2.2635504477
 10
26.2046392983
 20
2.2494458395
 10
26.1043814265
 20
2.2420053307
 10
26.0017492429
 20
2.2413534278
 10
25.8984601467
 20
2.24750104
 10
25.79624253
 20
2.2603452963
 10
25.6968068549
 20
2.2796712667
 10
25.6018170318
 20
2.3051555594
  0
LWPOLYLINE
  5
3E2
100
AcDbEntity
  8
ASSI
100
AcDbPolyline
 62
250
  6
CONTINUOUS
 90
13
 70
0
 10
26.6685836278
 20
2.4221420665
 10
26.6145229048
 20
2.380312211
 10
26.5495513992
 20
2.342956598
 10
26.474756314
 20
2.3107003191
 10
26.3913892354
 20
2.2840831358
 10
26.3008451895
 20
2.2635504477
 10
26.2046392983
 20
2.2494458395
 10
26.1043814265
 20
2.2420053307
 10
26.0017492429
 20
2.2413534278
 10
25.8984601467
 20
2.24750104
 10
25.79624253
 20
2.2603452963
 10
25.6968068549
 20
2.2796712667
 10
25.6018170318
 20
2.3051555594
  0
LWPOLYLINE
  5
3E3
100
AcDbEntity
  8
ASSI
100
AcDbPolyline
 62
250
  6
CONTINUOUS
 90
6
 70
0
 10
-3.6211638064
 20
-17.522268291
 10
-3.7196113939
 20
-17.5757455291
 10
-3.8286863826
 20
-17.6147317301
 10
-3.9477124517
 20
-17.639826436
 10
-4.0712312364
 20
-17.6501636972
 10
-4.1974262861
 20
-17.6454583254
  0
LINE
  5
3E4
100
AcDbEntity
  8
ASSI
100
AcDbLine
 62
250
  6
CONTINUOUS
 10
-5.1859049403
 20
-15.5035376109
 11
-5.0765930846
 21
-15.4642176828
  0
LINE
  5
3E5
100
AcDbEntity
  8
ASSI
100
AcDbLine
 62
7
  6
CONTINUOUS
 10
-5.1255378895
 20
-15.5553331652
 11
-4.9624893367
 21
-15.4974814731
  0
LWPOLYLINE
  5
3E6
100
AcDbEntity
  8
RACCORDO
100
AcDbPolyline
 62
250
  6
CONTINUOUS
 90
8
 70
0
 10
10.6023808483
 20
13.9370078208
 10
10.61898382
 20
13.9381061848
 10
10.6347617141
 20
13.9409145802
 10
10.6495511796
 20
13.945403939
 10
10.6631991027
 20
13.9515277927
 10
10.6755641756
 20
13.9592227463
 10
10.6865183647
 20
13.9684091284
 10
10.6901755898
 20
13.9723868316
  0
LWPOLYLINE
  5
3E7
100
AcDbEntity
  8
RACCORDO
100
AcDbPolyline
 62
250
  6
CONTINUOUS
 90
9
 70
0
 10
27.37521302
 20
8.7767942706
 10
27.3984446896
 20
8.7709975195
 10
27.4212400021
 20
8.7679868257
 10
27.4432089238
 20
8.767813706
 10
27.4639755604
 20
8.7704811254
 10
27.4831845876
 20
8.7759434468
 10
27.500507331
 20
8.7841072105
 10
27.5156473922
 20
8.7948327349
 10
27.523693475
 20
8.8030517054
  0
LINE
  5
3E8
100
AcDbEntity
  8
RACCORDO
100
AcDbLine
 62
250
  6
CONTINUOUS
 10
29.3756145396
 20
8.4174336298
 11
29.3455790868
 21
8.4251414232
  0
LWPOLYLINE
  5
3E9
100
AcDbEntity
  8
RACCORDO
100
AcDbPolyline
 62
250
  6
CONTINUOUS
 90
16
 70
0
 10
12.4300710962
 20
13.0534214666
 10
12.4742405607
 20
13.0418060749
 10
12.5190358206
 20
13.0331961386
 10
12.5644568758
 20
13.0275916577
 10
12.6109773466
 20
13.0250138192
 10
12.6581236127
 20
13.025441436
 10
12.7044748135
 20
13.0288109477
 10
12.7499846735
 20
13.0351832327
 10
12.7946994683
 20
13.0444974125
 10
12.8373371632
 20
13.0565072907
 10
12.8778980956
 20
13.0712893933
 10
12.9163819282
 20
13.0887671942
 10
12.9515056144
 20
13.1084649197
 10
12.9828414719
 20
13.1302239783
 10
13.0108171831
 20
13.1542029614
 10
13.0354327479
 20
13.180401869
  0
LWPOLYLINE
  5
3EA
100
AcDbEntity
  8
RACCORDO
100
AcDbPolyline
 62
250
  6
CONTINUOUS
 90
16
 70
0
 10
29.3523030653
 20
8.1548480671
 10
29.3763938267
 20
8.1483982817
 10
29.4014008947
 20
8.1435537862
 10
29.427039616
 20
8.1403510962
 10
29.4530052084
 20
8.1388043381
 10
29.4790289768
 20
8.1389120602
 10
29.5048814547
 20
8.1406693536
 10
29.5302706974
 20
8.1440442159
 10
29.5549393578
 20
8.1489917339
 10
29.578710373
 20
8.1554891846
 10
29.6013380192
 20
8.163479067
 10
29.6225451773
 20
8.1728759038
 10
29.6421076681
 20
8.1836109014
 10
29.6597966804
 20
8.1955831683
 10
29.6753874778
 20
8.2086556995
 10
29.6886824289
 20
8.2226859775
  0
LWPOLYLINE
  5
3EB
100
AcDbEntity
  8
RACCORDO
100
AcDbPolyline
 62
250
  6
CONTINUOUS
 90
7
 70
0
 10
29.2637261982
 20
7.8839690685
 10
29.2965267961
 20
7.8749884734
 10
29.3297641467
 20
7.8676920218
 10
29.3634382501
 20
7.8620797137
 10
29.3975491062
 20
7.8581515491
 10
29.4320967151
 20
7.855907528
 10
29.4670810768
 20
7.8553476503
  0
LINE
  5
3EC
100
AcDbEntity
  8
DRAFT
100
AcDbLine
 62
7
  6
CONTINUOUS
 10
30.1035227492
 20
5.9714347225
 11
29.6688684938
 21
6.1049128334
  0
LINE
  5
3ED
100
AcDbEntity
  8
RACCORDO
100
AcDbLine
 62
7
  6
CONTINUOUS
 10
-29.0972206659
 20
24.8069780807
 11
28.9746531335
 21
6.9736682347
  0
LINE
  5
3EE
100
AcDbEntity
  8
ASSI
100
AcDbLine
 62
7
  6
CONTINUOUS
 10
-29.0972206659
 20
24.8069780807
 11
28.9746531335
 21
6.9736682347
  0
LINE
  5
3EF
100
AcDbEntity
  8
DRAFT
100
AcDbLine
 62
7
  6
CONTINUOUS
 10
29.7605260478
 20
7.1173727497
 11
9.9918745389
 21
13.1881341102
  0
LINE
  5
3F0
100
AcDbEntity
  8
DRAFT
100
AcDbLine
 62
7
  6
CONTINUOUS
 10
-10.3196051475
 20
19.4255927452
 11
-30.0882566564
 21
25.4963541057
  0
LWPOLYLINE
  5
3F1
100
AcDbEntity
  8
RACCORDO
100
AcDbPolyline
 62
250
  6
CONTINUOUS
 90
13
 70
0
 10
-27.9382390315
 20
26.6557334645
 10
-27.9091338512
 20
26.6451499069
 10
-27.8804441625
 20
26.6314308225
 10
-27.852660854
 20
26.6148109488
 10
-27.8262593058
 20
26.5955746565
 10
-27.8016912556
 20
26.5740510837
 10
-27.7793770697
 20
26.5506085048
 10
-27.7596985499
 20
26.5256480288
 10
-27.7429924011
 20
26.4995967364
 10
-27.7295444703
 20
26.4729003724
 10
-27.7195848552
 20
26.446015719
 10
-27.7132839677
 20
26.4194027801
 10
-27.7107496175
 20
26.3935169105
  0
LWPOLYLINE
  5
3F2
100
AcDbEntity
  8
RACCORDO
100
AcDbPolyline
 62
250
  6
CONTINUOUS
 90
13
 70
0
 10
-27.0446984475
 20
25.4886218645
 10
-27.0679690223
 20
25.4971055066
 10
-27.0908802972
 20
25.5081308747
 10
-27.113040254
 20
25.5215093215
 10
-27.1340697296
 20
25.5370119383
 10
-27.1536089038
 20
25.554373471
 10
-27.171323456
 20
25.5732968588
 10
-27.1869102853
 20
25.5934583174
 10
-27.2001026966
 20
25.6145128787
 10
-27.2106749643
 20
25.6361002932
 10
-27.2184461938
 20
25.6578511943
 10
-27.2232834172
 20
25.6793934181
 10
-27.2251038684
 20
25.7003583711
  0
LWPOLYLINE
  5
3F3
100
AcDbEntity
  8
RACCORDO
100
AcDbPolyline
 62
250
  6
CONTINUOUS
 90
13
 70
0
 10
-26.5901199147
 20
26.0443165365
 10
-26.6133904503
 20
26.0528001619
 10
-26.6363016957
 20
26.0638255093
 10
-26.6584616336
 20
26.0772039348
 10
-26.6794911016
 20
26.092706533
 10
-26.6990302782
 20
26.1100680524
 10
-26.7167448403
 20
26.1289914332
 10
-26.7323316852
 20
26.1491528928
 10
-26.7455241153
 20
26.1702074632
 10
-26.7560964011
 20
26.1917948931
 10
-26.763867646
 20
26.2135458143
 10
-26.7687048802
 20
26.2350880626
 10
-26.7705253357
 20
26.2560530431
  0
LWPOLYLINE
  5
3F4
100
AcDbEntity
  8
RACCORDO
100
AcDbPolyline
 62
250
  6
CONTINUOUS
 90
16
 70
0
 10
-10.6130522775
 20
20.1635651143
 10
-10.5668633788
 20
20.1466077747
 10
-10.5211263286
 20
20.1255316134
 10
-10.4763423364
 20
20.1005691744
 10
-10.4330040785
 20
20.0719960123
 10
-10.3915836129
 20
20.0401261692
 10
-10.352528034
 20
20.0053074736
 10
-10.3162634234
 20
19.9679204582
 10
-10.2831892413
 20
19.928375467
 10
-10.253667845
 20
19.8871058308
 10
-10.228022754
 20
19.8445637075
 10
-10.2065350089
 20
19.8012152167
 10
-10.1894400173
 20
19.7575353934
 10
-10.1769251194
 20
19.7140028469
 10
-10.1691275309
 20
19.6710945181
 10
-10.1661327501
 20
19.6292805399
  0
LINE
  5
3F5
100
AcDbEntity
  8
RACCORDO
100
AcDbLine
 62
250
  6
CONTINUOUS
 10
-26.7066737059
 20
26.3858949782
 11
-26.7447396329
 21
26.4027310344
  0
LWPOLYLINE
  5
3F6
100
AcDbEntity
  8
RACCORDO
100
AcDbPolyline
 62
250
  6
CONTINUOUS
 90
5
 70
0
 10
-26.5462915474
 20
28.3527861765
 10
-26.5174802085
 20
28.3389880188
 10
-26.4895774679
 20
28.3222592456
 10
-26.4630635734
 20
28.3028834202
 10
-26.4384020028
 20
28.2811946465
  0
LWPOLYLINE
  5
3F7
100
AcDbEntity
  8
RACCORDO
100
AcDbPolyline
 62
250
  6
CONTINUOUS
 90
3
 70
0
 10
-9.8513088961
 20
21.2050396658
 10
-9.8824586339
 20
21.2210179405
 10
-9.9162575968
 20
21.2353410322
  0
LWPOLYLINE
  5
3F8
100
AcDbEntity
  8
RACCORDO
100
AcDbPolyline
 62
250
  6
CONTINUOUS
 90
20
 70
0
 10
10.5655298035
 20
13.7080192175
 10
10.5626971793
 20
13.7196803432
 10
10.559975087
 20
13.7317390033
 10
10.5573946876
 20
13.7441261201
 10
10.5552946911
 20
13.7567761785
 10
10.5536801054
 20
13.7696530552
 10
10.5525238093
 20
13.7827064092
 10
10.5520962768
 20
13.795853381
 10
10.552377657
 20
13.8090178706
 10
10.5533107192
 20
13.8221314427
 10
10.5550852752
 20
13.8351239623
 10
10.5576967932
 20
13.8479143198
 10
10.5610281709
 20
13.860427317
 10
10.5650973344
 20
13.8726186977
 10
10.5698968089
 20
13.8844399743
 10
10.5753515837
 20
13.8958586053
 10
10.581378431
 20
13.9068614665
 10
10.5879119538
 20
13.917412699
 10
10.5949221147
 20
13.9274686443
 10
10.6023792371
 20
13.9370100735
  0
LWPOLYLINE
  5
3F9
100
AcDbEntity
  8
RACCORDO
100
AcDbPolyline
 62
250
  6
CONTINUOUS
 90
5
 70
0
 10
10.5786369337
 20
13.6558296881
 10
10.5763952989
 20
13.6654266198
 10
10.5739483204
 20
13.6754423918
 10
10.5713331871
 20
13.6858901364
 10
10.5655298035
 20
13.7080192175
  0
LWPOLYLINE
  5
3FA
100
AcDbEntity
  8
RACCORDO
100
AcDbPolyline
 62
7
  6
CONTINUOUS
 90
18
 70
0
 10
16.5449941882
 20
13.5310958949
 10
16.5455279755
 20
13.5208386537
 10
16.5481679635
 20
13.5002425215
 10
16.5529718044
 20
13.4798349799
 10
16.5599119323
 20
13.4596136264
 10
16.568899178
 20
13.4398382722
 10
16.5799599568
 20
13.4205146722
 10
16.5930678533
 20
13.4016370714
 10
16.6080544528
 20
13.383448016
 10
16.6249439972
 20
13.3659563907
 10
16.6437122444
 20
13.3491533108
 10
16.6641180535
 20
13.3332546681
 10
16.6861825548
 20
13.3182721333
 10
16.7098846179
 20
13.3041940358
 10
16.7349197102
 20
13.2912012561
 10
16.7611863208
 20
13.2793540875
 10
16.7887859608
 20
13.2685922366
 10
16.8177186299
 20
13.2589157035
  0
LINE
  5
3FB
100
AcDbEntity
  8
RACCORDO
100
AcDbLine
 62
7
  6
CONTINUOUS
 10
16.5717503393
 20
12.4555407229
 11
16.5449941985
 21
13.5310954827
  0
LINE
  5
3FC
100
AcDbEntity
  8
RACCORDO
100
AcDbLine
 62
250
  6
CONTINUOUS
 10
16.8443852587
 20
12.1869591892
 11
16.8177186299
 21
13.2589157035
  0
LWPOLYLINE
  5
3FD
100
AcDbEntity
  8
RACCORDO
100
AcDbPolyline
 62
250
  6
CONTINUOUS
 90
16
 70
0
 10
27.37521302
 20
8.7767942706
 10
27.3556867698
 20
8.7490324845
 10
27.3410741568
 20
8.7209498237
 10
27.331375181
 20
8.6925462883
 10
27.3266384158
 20
8.6635170332
 10
27.3268152878
 20
8.6341669034
 10
27.3317600764
 20
8.6054104341
 10
27.3415726452
 20
8.5772935878
 10
27.3561531307
 20
8.5497704019
 10
27.3750562215
 20
8.5236175245
 10
27.398389216
 20
8.4988486739
 10
27.4260448158
 20
8.4754501318
 10
27.457255814
 20
8.4541573909
 10
27.491766475
 20
8.4352156155
 10
27.5298325344
 20
8.4183796413
 10
27.5714539922
 20
8.4036494683
  0
LWPOLYLINE
  5
3FE
100
AcDbEntity
  8
RACCORDO
100
AcDbPolyline
 62
250
  6
CONTINUOUS
 90
13
 70
0
 10
28.9755472658
 20
9.1780610709
 10
28.960706874
 20
9.1577402014
 10
28.9462004687
 20
9.1344175529
 10
28.9322789428
 20
9.1084926673
 10
28.9191820716
 20
9.0804074231
 10
28.90713897
 20
9.0506482081
 10
28.8963627692
 20
9.0197392833
 10
28.8870211992
 20
8.9881457989
 10
28.8793018438
 20
8.9564837229
 10
28.8733739594
 20
8.9255165456
 10
28.8693093694
 20
8.8958278138
 10
28.8671220311
 20
8.8678182055
 10
28.8668088198
 20
8.8419164018
  0
LWPOLYLINE
  5
3FF
100
AcDbEntity
  8
RACCORDO
100
AcDbPolyline
 62
250
  6
CONTINUOUS
 90
13
 70
0
 10
27.2832750598
 20
9.6977414707
 10
27.2684936978
 20
9.6775083577
 10
27.2540477551
 20
9.6543048246
 10
27.2401844058
 20
9.6285278902
 10
27.2271408555
 20
9.6006186051
 10
27.2151402832
 20
9.5710545049
 10
27.2043880218
 20
9.5403414395
 10
27.1950680456
 20
9.509004918
 10
27.1873398219
 20
9.4775811169
 10
27.1813355828
 20
9.4466077062
 10
27.1771580625
 20
9.4166146496
 10
27.1748787396
 20
9.3881151365
 10
27.1745366137
 20
9.3615968016
  0
LINE
  5
400
100
AcDbEntity
  8
RACCORDO
100
AcDbLine
 62
7
  6
CONTINUOUS
 10
30.0235244506
 20
11.0515683947
 11
32.9973789981
 21
15.0374568957
  0
LWPOLYLINE
  5
401
100
AcDbEntity
  8
RACCORDO
100
AcDbPolyline
 62
250
  6
CONTINUOUS
 90
13
 70
0
 10
27.5714539922
 20
8.4036494683
 10
27.5834302669
 20
8.4196874411
 10
27.5951573186
 20
8.4381917127
 10
27.606430017
 20
8.4588386053
 10
27.6170511793
 20
8.4812669622
 10
27.6268350196
 20
8.5050844652
 10
27.6356103984
 20
8.5298744972
 10
27.6432238163
 20
8.5552034294
 10
27.6495420988
 20
8.5806282066
 10
27.6544547262
 20
8.6057040972
 10
27.6578757665
 20
8.6299924721
 10
27.6597453786
 20
8.6530684776
 10
27.6600308593
 20
8.674528467
  0
LWPOLYLINE
  5
402
100
AcDbEntity
  8
RACCORDO
100
AcDbPolyline
 62
250
  6
CONTINUOUS
 90
13
 70
0
 10
29.2637261982
 20
7.8839690685
 10
29.2757026308
 20
7.900007273
 10
29.2874298007
 20
7.9185117861
 10
29.2987025738
 20
7.9391589006
 10
29.3093237664
 20
7.9615874321
 10
29.3191075968
 20
7.9854050449
 10
29.3278829347
 20
8.0101951158
 10
29.3354962879
 20
8.0355240069
 10
29.3418144935
 20
8.0609486662
 10
29.3467270463
 20
8.0860243854
 10
29.3501480246
 20
8.1103125522
 10
29.3520175957
 20
8.1333883222
 10
29.3523030653
 20
8.1548480671
  0
LINE
  5
403
100
AcDbEntity
  8
DRAFT
100
AcDbLine
 62
7
  6
CONTINUOUS
 10
30.2985808855
 20
10.9671012283
 11
33.0378158758
 21
14.5512033873
  0
LINE
  5
404
100
AcDbEntity
  8
RACCORDO
100
AcDbLine
 62
250
  6
CONTINUOUS
 10
28.9755472658
 20
9.1780610709
 11
30.3382728403
 21
10.8857464519
  0
LINE
  5
405
100
AcDbEntity
  8
RACCORDO
100
AcDbLine
 62
250
  6
CONTINUOUS
 10
29.2030366798
 20
8.9158445169
 11
30.5657622543
 21
10.6235298979
  0
LWPOLYLINE
  5
406
100
AcDbEntity
  8
RACCORDO
100
AcDbPolyline
 62
250
  6
CONTINUOUS
 90
23
 70
0
 10
30.267030606
 20
8.5921149932
 10
30.2732125765
 20
8.5998033789
 10
30.2791240736
 20
8.6078154355
 10
30.2847619607
 20
8.6161368738
 10
30.2901167257
 20
8.6247297098
 10
30.2951485029
 20
8.6335646442
 10
30.2997943237
 20
8.6426261526
 10
30.304007212
 20
8.6518784655
 10
30.3077801664
 20
8.6612985984
 10
30.31110592
 20
8.6708863125
 10
30.3139380513
 20
8.6806314806
 10
30.3162685497
 20
8.6904953506
 10
30.3181416236
 20
8.7004306591
 10
30.319490316
 20
8.7104291235
 10
30.3203130991
 20
8.7204459153
 10
30.3207481606
 20
8.7303830237
 10
30.3207628023
 20
8.7402088731
 10
30.3203271161
 20
8.7499264418
 10
30.319594154
 20
8.7595075314
 10
30.3185550455
 20
8.7689889469
 10
30.3172191005
 20
8.7783644127
 10
30.3157625959
 20
8.7875444523
 10
30.3141840422
 20
8.7965210216
  0
LINE
  5
407
100
AcDbEntity
  8
RACCORDO
100
AcDbLine
 62
250
  6
CONTINUOUS
 10
29.6886824289
 20
8.2226859775
 11
30.1432609617
 21
8.7783806495
  0
LINE
  5
408
100
AcDbEntity
  8
RACCORDO
100
AcDbLine
 62
250
  6
CONTINUOUS
 10
29.8079906205
 20
8.0391511229
 11
30.2670303774
 21
8.5921141729
  0
LWPOLYLINE
  5
409
100
AcDbEntity
  8
RACCORDO
100
AcDbPolyline
 62
250
  6
CONTINUOUS
 90
9
 70
0
 10
29.9139984452
 20
7.3210605444
 10
29.9250983417
 20
7.3343646095
 10
29.9361722236
 20
7.3480536586
 10
29.9472200908
 20
7.3621276916
 10
29.9583310106
 20
7.3767591898
 10
29.9694159157
 20
7.391775672
 10
29.9802076052
 20
7.4066596947
 10
29.9907158725
 20
7.4214513246
 10
30.0105561787
 20
7.4499995635
  0
LINE
  5
40A
100
AcDbEntity
  8
RACCORDO
100
AcDbLine
 62
250
  6
CONTINUOUS
 10
30.3063761618
 20
8.8389537471
 11
30.7151388294
 21
9.3179678177
  0
LINE
  5
40B
100
AcDbEntity
  8
RACCORDO
100
AcDbLine
 62
250
  6
CONTINUOUS
 10
30.7533571319
 20
8.3046668311
 11
31.1703255649
 21
8.7932950643
  0
LINE
  5
40C
100
AcDbEntity
  8
RACCORDO
100
AcDbLine
 62
250
  6
CONTINUOUS
 10
29.7599498805
 20
7.1405337669
 11
29.9139984452
 21
7.3210605444
  0
LINE
  5
40D
100
AcDbEntity
  8
RACCORDO
100
AcDbLine
 62
250
  6
CONTINUOUS
 10
29.304763145
 20
7.6652065204
 11
29.4670810768
 21
7.8553476503
  0
LWPOLYLINE
  5
40E
100
AcDbEntity
  8
RACCORDO
100
AcDbPolyline
 62
250
  6
CONTINUOUS
 90
16
 70
0
 10
26.3193134247
 20
4.1771559555
 10
26.2506588337
 20
4.0973065428
 10
26.1824020161
 20
4.0061349741
 10
26.1152023962
 20
3.9045400742
 10
26.0496997494
 20
3.7935254113
 10
25.9865363714
 20
3.6741814033
 10
25.9263508253
 20
3.5476747151
 10
25.8697257616
 20
3.4152480878
 10
25.8172068175
 20
3.2782056705
 10
25.7693252642
 20
3.1378927339
 10
25.7265439279
 20
2.9956825946
 10
25.6892747424
 20
2.8529778733
 10
25.6578963053
 20
2.7111947048
 10
25.6327144963
 20
2.5717282298
 10
25.6139622443
 20
2.4359390957
 10
25.6018169924
 20
2.3051553004
  0
LWPOLYLINE
  5
40F
100
AcDbEntity
  8
ASSI
100
AcDbPolyline
 62
250
  6
CONTINUOUS
 90
16
 70
0
 10
26.3193134247
 20
4.1771559555
 10
26.2506588337
 20
4.0973065428
 10
26.1824020161
 20
4.0061349741
 10
26.1152023962
 20
3.9045400742
 10
26.0496997494
 20
3.7935254113
 10
25.9865363714
 20
3.6741814033
 10
25.9263508253
 20
3.5476747151
 10
25.8697257616
 20
3.4152480878
 10
25.8172068175
 20
3.2782056705
 10
25.7693252642
 20
3.1378927339
 10
25.7265439279
 20
2.9956825946
 10
25.6892747424
 20
2.8529778733
 10
25.6578963053
 20
2.7111947048
 10
25.6327144963
 20
2.5717282298
 10
25.6139622443
 20
2.4359390957
 10
25.6018169924
 20
2.3051553004
  0
LINE
  5
410
100
AcDbEntity
  8
RACCORDO
100
AcDbLine
 62
250
  6
CONTINUOUS
 10
30.1022761943
 20
7.5754218737
 11
30.1544993166
 21
7.6360591698
  0
LWPOLYLINE
  5
411
100
AcDbEntity
  8
RACCORDO
100
AcDbPolyline
 62
250
  6
CONTINUOUS
 90
14
 70
0
 10
30.1544993166
 20
7.6360591698
 10
30.5762459582
 20
8.1259147543
 10
30.580241327
 20
8.1304332658
 10
30.5843573613
 20
8.1349978567
 10
30.5885789764
 20
8.1395964056
 10
30.5929212569
 20
8.1442410338
 10
30.5974294574
 20
8.1489681055
 10
30.6021056741
 20
8.1537770096
 10
30.6069478106
 20
8.1586683571
 10
30.611994832
 20
8.1636803447
 10
30.6172432367
 20
8.1688054084
 10
30.6226965262
 20
8.1740511122
 10
30.6284041702
 20
8.1794783455
 10
30.6343611727
 20
8.1850719105
  0
LWPOLYLINE
  5
412
100
AcDbEntity
  8
RACCORDO
100
AcDbPolyline
 62
250
  6
CONTINUOUS
 90
16
 70
0
 10
27.0091049825
 20
3.2939950116
 10
26.9759526688
 20
3.2560953763
 10
26.9436169752
 20
3.2138298669
 10
26.9120979017
 20
3.1671984832
 10
26.881106633
 20
3.1156631538
 10
26.8509319844
 20
3.0597619501
 10
26.8224404018
 20
3.0011090867
 10
26.7956788798
 20
2.9396220744
 10
26.7706004237
 20
2.8753834024
 10
26.7479304957
 20
2.8102547532
 10
26.7277389652
 20
2.7442038963
 10
26.7099559627
 20
2.6772630622
 10
26.6950973423
 20
2.6113906248
 10
26.6833350554
 20
2.5472393754
 10
26.6744971505
 20
2.4841565226
 10
26.6685836278
 20
2.4221420665
  0
LWPOLYLINE
  5
413
100
AcDbEntity
  8
ASSI
100
AcDbPolyline
 62
250
  6
CONTINUOUS
 90
16
 70
0
 10
27.0091049825
 20
3.2939950116
 10
26.9759526688
 20
3.2560953763
 10
26.9436169752
 20
3.2138298669
 10
26.9120979017
 20
3.1671984832
 10
26.881106633
 20
3.1156631538
 10
26.8509319844
 20
3.0597619501
 10
26.8224404018
 20
3.0011090867
 10
26.7956788798
 20
2.9396220744
 10
26.7706004237
 20
2.8753834024
 10
26.7479304957
 20
2.8102547532
 10
26.7277389652
 20
2.7442038963
 10
26.7099559627
 20
2.6772630622
 10
26.6950973423
 20
2.6113906248
 10
26.6833350554
 20
2.5472393754
 10
26.6744971505
 20
2.4841565226
 10
26.6685836278
 20
2.4221420665
  0
LWPOLYLINE
  5
414
100
AcDbEntity
  8
RACCORDO
100
AcDbPolyline
 62
250
  6
CONTINUOUS
 90
12
 70
0
 10
29.6818069469
 20
8.4990695383
 10
29.6650793814
 20
8.4810797242
 10
29.6448281283
 20
8.4645677046
 10
29.6213996923
 20
8.4498160045
 10
29.5951949402
 20
8.4370770297
 10
29.5666622427
 20
8.4265687475
 10
29.5362898021
 20
8.4184709576
 10
29.5045972994
 20
8.4129222154
 10
29.4721270019
 20
8.4100174615
 10
29.4394344856
 20
8.4098063969
 10
29.4070791285
 20
8.4122926331
 10
29.3756145396
 20
8.4174336298
  0
LINE
  5
415
100
AcDbEntity
  8
RACCORDO
100
AcDbLine
 62
250
  6
CONTINUOUS
 10
28.9746531335
 20
6.9736682347
 11
26.3193134247
 21
4.1771559555
  0
LINE
  5
416
100
AcDbEntity
  8
ASSI
100
AcDbLine
 62
250
  6
CONTINUOUS
 10
28.9746531335
 20
6.9736682347
 11
26.3193134247
 21
4.1771559555
  0
LINE
  5
417
100
AcDbEntity
  8
RACCORDO
100
AcDbLine
 62
250
  6
CONTINUOUS
 10
29.6644446912
 20
6.0905072908
 11
27.0091049825
 21
3.2939950116
  0
LINE
  5
418
100
AcDbEntity
  8
ASSI
100
AcDbLine
 62
250
  6
CONTINUOUS
 10
29.6644446912
 20
6.0905072908
 11
27.0091049825
 21
3.2939950116
  0
LINE
  5
419
100
AcDbEntity
  8
DRAFT
100
AcDbLine
 62
7
  6
CONTINUOUS
 10
30.0674279881
 20
7.4223873199
 11
29.7605260478
 21
7.1173727497
  0
LWPOLYLINE
  5
41A
100
AcDbEntity
  8
RACCORDO
100
AcDbPolyline
 62
250
  6
CONTINUOUS
 90
3
 70
0
 10
-31.7633730914
 20
21.9889087566
 10
-31.6707616942
 20
21.9785156072
 10
-31.5768223824
 20
21.9564983666
  0
LWPOLYLINE
  5
41B
100
AcDbEntity
  8
RACCORDO
100
AcDbPolyline
 62
250
  6
CONTINUOUS
 90
7
 70
0
 10
28.7242126784
 20
11.4505744523
 10
28.715671446
 20
11.4520241705
 10
28.7028284547
 20
11.4504507977
 10
28.6891792874
 20
11.4447797861
 10
28.6750079019
 20
11.4352195998
 10
28.6605329885
 20
11.4220034508
 10
28.6460006343
 20
11.4054268517
  0
LWPOLYLINE
  5
41C
100
AcDbEntity
  8
RACCORDO
100
AcDbPolyline
 62
250
  6
CONTINUOUS
 90
7
 70
0
 10
11.8905575764
 20
16.6200268504
 10
11.8824732169
 20
16.6214544495
 10
11.8697717925
 20
16.6200634993
 10
11.8561702949
 20
16.6145828199
 10
11.8419014495
 20
16.605106187
 10
11.8272094003
 20
16.5917957485
 10
11.8123455323
 20
16.5748792498
  0
LWPOLYLINE
  5
41D
100
AcDbEntity
  8
RACCORDO
100
AcDbPolyline
 62
250
  6
CONTINUOUS
 90
7
 70
0
 10
30.4164848475
 20
10.9308940638
 10
30.4086925303
 20
10.9323044356
 10
30.3959417339
 20
10.9309934353
 10
30.3822816495
 20
10.925548479
 10
30.3679510066
 20
10.916069453
 10
30.3531964033
 20
10.902723973
 10
30.3382728403
 20
10.8857464519
  0
LWPOLYLINE
  5
41E
100
AcDbEntity
  8
RACCORDO
100
AcDbPolyline
 62
250
  6
CONTINUOUS
 90
7
 70
0
 10
13.5828297455
 20
16.1003464619
 10
13.5750374282
 20
16.1017568337
 10
13.5622866319
 20
16.1004458334
 10
13.5486265475
 20
16.0950008771
 10
13.5342959046
 20
16.0855218511
 10
13.5195413013
 20
16.0721763711
 10
13.5046177383
 20
16.05519885
  0
LWPOLYLINE
  5
41F
100
AcDbEntity
  8
RACCORDO
100
AcDbPolyline
 62
250
  6
CONTINUOUS
 90
9
 70
0
 10
-12.7049181754
 20
21.0850142661
 10
-12.6816865057
 20
21.0792175149
 10
-12.6588911932
 20
21.0762068212
 10
-12.6369222715
 20
21.0760337015
 10
-12.6161556349
 20
21.0787011209
 10
-12.5969466077
 20
21.0841634423
 10
-12.5796238643
 20
21.092327206
 10
-12.5644838031
 20
21.1030527304
 10
-12.5564377203
 20
21.1112717009
  0
LINE
  5
420
100
AcDbEntity
  8
RACCORDO
100
AcDbLine
 62
250
  6
CONTINUOUS
 10
12.5419594375
 20
13.5868860279
 11
12.5119239848
 21
13.5945938213
  0
LINE
  5
421
100
AcDbEntity
  8
RACCORDO
100
AcDbLine
 62
250
  6
CONTINUOUS
 10
-10.7045166557
 20
20.7256536253
 11
-10.7345521085
 21
20.7333614187
  0
LINE
  5
422
100
AcDbEntity
  8
RACCORDO
100
AcDbLine
 62
250
  6
CONTINUOUS
 10
-27.5381717578
 20
25.8951060234
 11
-27.5682072106
 21
25.9028138168
  0
LWPOLYLINE
  5
423
100
AcDbEntity
  8
RACCORDO
100
AcDbPolyline
 62
250
  6
CONTINUOUS
 90
16
 70
0
 10
-27.6500600991
 20
25.3616414621
 10
-27.6058906346
 20
25.3500260704
 10
-27.5610953747
 20
25.3414161341
 10
-27.5156743195
 20
25.3358116532
 10
-27.4691538487
 20
25.3332338147
 10
-27.4220075826
 20
25.3336614315
 10
-27.3756563818
 20
25.3370309431
 10
-27.3301465218
 20
25.3434032282
 10
-27.285431727
 20
25.352717408
 10
-27.2427940321
 20
25.3647272862
 10
-27.2022330997
 20
25.3795093887
 10
-27.1637492671
 20
25.3969871897
 10
-27.1286255809
 20
25.4166849151
 10
-27.0972897234
 20
25.4384439738
 10
-27.0693140122
 20
25.4624229569
 10
-27.0446984475
 20
25.4886218645
  0
LWPOLYLINE
  5
424
100
AcDbEntity
  8
RACCORDO
100
AcDbPolyline
 62
250
  6
CONTINUOUS
 90
16
 70
0
 10
12.5186479633
 20
13.3243004652
 10
12.5427387247
 20
13.3178506798
 10
12.5677457926
 20
13.3130061844
 10
12.593384514
 20
13.3098034943
 10
12.6193501064
 20
13.3082567362
 10
12.6453738747
 20
13.3083644583
 10
12.6712263527
 20
13.3101217518
 10
12.6966155954
 20
13.313496614
 10
12.7212842558
 20
13.318444132
 10
12.745055271
 20
13.3249415827
 10
12.7676829172
 20
13.3329314651
 10
12.7888900753
 20
13.3423283019
 10
12.8084525661
 20
13.3530632995
 10
12.8261415784
 20
13.3650355664
 10
12.8417323758
 20
13.3781080976
 10
12.8550273269
 20
13.3921383756
  0
LWPOLYLINE
  5
425
100
AcDbEntity
  8
RACCORDO
100
AcDbPolyline
 62
250
  6
CONTINUOUS
 90
16
 70
0
 10
-10.72782813
 20
20.4630680626
 10
-10.7037373686
 20
20.4566182772
 10
-10.6787303006
 20
20.4517737817
 10
-10.6530915793
 20
20.4485710916
 10
-10.6271259869
 20
20.4470243336
 10
-10.6011022185
 20
20.4471320557
 10
-10.5752497406
 20
20.4488893491
 10
-10.5498604979
 20
20.4522642114
 10
-10.5251918375
 20
20.4572117293
 10
-10.5014208223
 20
20.4637091801
 10
-10.4787931761
 20
20.4716990625
 10
-10.457586018
 20
20.4810958993
 10
-10.4380235272
 20
20.4918308968
 10
-10.4203345149
 20
20.5038031638
 10
-10.4047437175
 20
20.516875695
 10
-10.3914487664
 20
20.530905973
  0
LWPOLYLINE
  5
426
100
AcDbEntity
  8
RACCORDO
100
AcDbPolyline
 62
250
  6
CONTINUOUS
 90
16
 70
0
 10
-27.561483232
 20
25.6325204607
 10
-27.5373924707
 20
25.6260706753
 10
-27.5123854027
 20
25.6212261798
 10
-27.4867466813
 20
25.6180234897
 10
-27.4607810889
 20
25.6164767317
 10
-27.4347573206
 20
25.6165844538
 10
-27.4089048426
 20
25.6183417472
 10
-27.3835155999
 20
25.6217166095
 10
-27.3588469395
 20
25.6266641274
 10
-27.3350759243
 20
25.6331615782
 10
-27.3124482781
 20
25.6411514606
 10
-27.29124112
 20
25.6505482974
 10
-27.2716786292
 20
25.6612832949
 10
-27.2539896169
 20
25.6732555619
 10
-27.2383988195
 20
25.6863280931
 10
-27.2251038684
 20
25.7003583711
  0
LWPOLYLINE
  5
427
100
AcDbEntity
  8
RACCORDO
100
AcDbPolyline
 62
250
  6
CONTINUOUS
 90
7
 70
0
 10
-10.8164049971
 20
20.192189064
 10
-10.7836043993
 20
20.1832084689
 10
-10.7503670486
 20
20.1759120173
 10
-10.7166929452
 20
20.1702997092
 10
-10.6825820891
 20
20.1663715446
 10
-10.6480344802
 20
20.1641275234
 10
-10.6130501185
 20
20.1635676458
  0
LWPOLYLINE
  5
428
100
AcDbEntity
  8
RACCORDO
100
AcDbPolyline
 62
7
  6
CONTINUOUS
 90
25
 70
0
 10
23.7700565425
 20
11.1239200845
 10
23.800003922
 20
11.1155151251
 10
23.8305342439
 20
11.1084258278
 10
23.8616475081
 20
11.1026521927
 10
23.893482554
 20
11.098180704
 10
23.9259005422
 20
11.0950248775
 10
23.9584849549
 20
11.0932252602
 10
23.9912379395
 20
11.0927993523
 10
24.0241573487
 20
11.0937296537
 10
24.0568202221
 20
11.0960042116
 10
24.0892232495
 20
11.0996403717
 10
24.1213697411
 20
11.1046207883
 10
24.1528466673
 20
11.1108814712
 10
24.1836453884
 20
11.1184389405
 10
24.2137745442
 20
11.1272766761
 10
24.2428470245
 20
11.1372811276
 10
24.2708491944
 20
11.1484673499
 10
24.2977946889
 20
11.1608202882
 10
24.3233373026
 20
11.1741812274
 10
24.3474589334
 20
11.1885631745
 10
24.3701776834
 20
11.2039531227
 10
24.3912016541
 20
11.2201533362
 10
24.4104335459
 20
11.2370979034
 10
24.4279706584
 20
11.2548527361
 10
24.4438129915
 20
11.2734178342
  0
LWPOLYLINE
  5
429
100
AcDbEntity
  8
RACCORDO
100
AcDbPolyline
 62
7
  6
CONTINUOUS
 90
25
 70
0
 10
-16.3100746529
 20
23.4321400799
 10
-16.2801272733
 20
23.4237351206
 10
-16.2495969514
 20
23.4166458233
 10
-16.2184836872
 20
23.4108721882
 10
-16.1866486414
 20
23.4064006995
 10
-16.1542306532
 20
23.403244873
 10
-16.1216462405
 20
23.4014452557
 10
-16.0888932558
 20
23.4010193478
 10
-16.0559738466
 20
23.4019496492
 10
-16.0233109732
 20
23.4042242071
 10
-15.9909079458
 20
23.4078603672
 10
-15.9587614543
 20
23.4128407838
 10
-15.927284528
 20
23.4191014667
 10
-15.8964858069
 20
23.426658936
 10
-15.8663566511
 20
23.4354966715
 10
-15.8372841708
 20
23.4455011231
 10
-15.8092820009
 20
23.4566873454
 10
-15.7823365064
 20
23.4690402837
 10
-15.7567938927
 20
23.4824012229
 10
-15.7326722619
 20
23.49678317
 10
-15.7099535119
 20
23.5121731181
 10
-15.6889295413
 20
23.5283733317
 10
-15.6696976494
 20
23.5453178989
 10
-15.652160537
 20
23.5630727316
 10
-15.6363182038
 20
23.5816378297
  0
LINE
  5
42A
100
AcDbEntity
  8
RACCORDO
100
AcDbLine
 62
7
  6
CONTINUOUS
 10
29.304763145
 20
7.6652065204
 11
10.4271882194
 21
13.4623268949
  0
LINE
  5
42B
100
AcDbEntity
  8
RACCORDO
100
AcDbLine
 62
7
  6
CONTINUOUS
 10
-10.7753680503
 20
19.9734265159
 11
-29.6529429759
 21
25.7705468904
  0
LINE
  5
42C
100
AcDbEntity
  8
RACCORDO
100
AcDbLine
 62
250
  6
CONTINUOUS
 10
-29.3423323052
 20
25.8813218619
 11
-27.6500600991
 21
25.3616414621
  0
LINE
  5
42D
100
AcDbEntity
  8
RACCORDO
100
AcDbLine
 62
250
  6
CONTINUOUS
 10
-12.5086772031
 20
20.7118694638
 11
-10.8164049971
 21
20.192189064
  0
LINE
  5
42E
100
AcDbEntity
  8
RACCORDO
100
AcDbLine
 62
250
  6
CONTINUOUS
 10
10.7377988901
 20
13.5731018664
 11
12.4300710962
 21
13.0534214666
  0
LINE
  5
42F
100
AcDbEntity
  8
RACCORDO
100
AcDbLine
 62
250
  6
CONTINUOUS
 10
27.5714539922
 20
8.4036494683
 11
29.2637261982
 21
7.8839690685
  0
LINE
  5
430
100
AcDbEntity
  8
RACCORDO
100
AcDbLine
 62
250
  6
CONTINUOUS
 10
-29.2537554381
 20
26.1522008605
 11
-27.561483232
 21
25.6325204607
  0
LINE
  5
431
100
AcDbEntity
  8
RACCORDO
100
AcDbLine
 62
250
  6
CONTINUOUS
 10
-12.420100336
 20
20.9827484624
 11
-10.72782813
 21
20.4630680626
  0
LINE
  5
432
100
AcDbEntity
  8
RACCORDO
100
AcDbLine
 62
250
  6
CONTINUOUS
 10
10.8263757573
 20
13.8439808651
 11
12.5186479633
 21
13.3243004652
  0
LINE
  5
433
100
AcDbEntity
  8
RACCORDO
100
AcDbLine
 62
250
  6
CONTINUOUS
 10
27.6600308593
 20
8.674528467
 11
29.3523030653
 21
8.1548480671
  0
LINE
  5
434
100
AcDbEntity
  8
RACCORDO
100
AcDbLine
 62
7
  6
CONTINUOUS
 10
-29.6912547978
 20
26.4280607007
 11
-27.9989825918
 21
25.9083803009
  0
LINE
  5
435
100
AcDbEntity
  8
RACCORDO
100
AcDbLine
 62
7
  6
CONTINUOUS
 10
-12.8575996958
 20
21.2586083026
 11
-11.1653274898
 21
20.7389279028
  0
LINE
  5
436
100
AcDbEntity
  8
RACCORDO
100
AcDbLine
 62
7
  6
CONTINUOUS
 10
10.3888763975
 20
14.1198407053
 11
12.0811486035
 21
13.6001603054
  0
LINE
  5
437
100
AcDbEntity
  8
RACCORDO
100
AcDbLine
 62
7
  6
CONTINUOUS
 10
27.2225314995
 20
8.9503883072
 11
28.9148037055
 21
8.4307079073
  0
LINE
  5
438
100
AcDbEntity
  8
RACCORDO
100
AcDbLine
 62
7
  6
CONTINUOUS
 10
-23.2357459366
 20
24.4951791846
 11
-16.2834080241
 21
22.3601835657
  0
LINE
  5
439
100
AcDbEntity
  8
RACCORDO
100
AcDbLine
 62
7
  6
CONTINUOUS
 10
16.8443852587
 20
12.1869591892
 11
23.7967231712
 21
10.0519635702
  0
LINE
  5
43A
100
AcDbEntity
  8
RACCORDO
100
AcDbLine
 62
250
  6
CONTINUOUS
 10
-29.7314252367
 20
26.5247387403
 11
-28.0391530306
 21
26.0050583405
  0
LINE
  5
43B
100
AcDbEntity
  8
RACCORDO
100
AcDbLine
 62
250
  6
CONTINUOUS
 10
-12.8977701346
 20
21.3552863422
 11
-11.2054979286
 21
20.8356059424
  0
LINE
  5
43C
100
AcDbEntity
  8
RACCORDO
100
AcDbLine
 62
250
  6
CONTINUOUS
 10
10.3487059587
 20
14.2165187448
 11
12.0409781647
 21
13.696838345
  0
LINE
  5
43D
100
AcDbEntity
  8
RACCORDO
100
AcDbLine
 62
250
  6
CONTINUOUS
 10
27.1823610607
 20
9.0470663467
 11
28.8746332667
 21
8.5273859469
  0
LINE
  5
43E
100
AcDbEntity
  8
RACCORDO
100
AcDbLine
 62
250
  6
CONTINUOUS
 10
29.3455790868
 20
8.4251414232
 11
29.2056490653
 21
8.4681125771
  0
LINE
  5
43F
100
AcDbEntity
  8
RACCORDO
100
AcDbLine
 62
250
  6
CONTINUOUS
 10
12.5119239848
 20
13.5945938213
 11
12.3719939633
 21
13.6375649752
  0
LINE
  5
440
100
AcDbEntity
  8
RACCORDO
100
AcDbLine
 62
250
  6
CONTINUOUS
 10
-10.7345521085
 20
20.7333614187
 11
-10.87448213
 21
20.7763325726
  0
LINE
  5
441
100
AcDbEntity
  8
RACCORDO
100
AcDbLine
 62
250
  6
CONTINUOUS
 10
-27.5682072106
 20
25.9028138168
 11
-27.708137232
 21
25.9457849707
  0
LINE
  5
442
100
AcDbEntity
  8
RACCORDO
100
AcDbLine
 62
250
  6
CONTINUOUS
 10
-29.7392496836
 20
26.8392691952
 11
-28.0469774776
 21
26.3195887954
  0
LINE
  5
443
100
AcDbEntity
  8
RACCORDO
100
AcDbLine
 62
250
  6
CONTINUOUS
 10
-12.9055945816
 20
21.6698167971
 11
-11.2133223755
 21
21.1501363973
  0
LINE
  5
444
100
AcDbEntity
  8
RACCORDO
100
AcDbLine
 62
250
  6
CONTINUOUS
 10
10.3408815117
 20
14.5310491997
 11
12.0331537177
 21
14.0113687999
  0
LINE
  5
445
100
AcDbEntity
  8
RACCORDO
100
AcDbLine
 62
250
  6
CONTINUOUS
 10
27.1745366137
 20
9.3615968016
 11
28.8668088198
 21
8.8419164018
  0
LINE
  5
446
100
AcDbEntity
  8
RACCORDO
100
AcDbLine
 62
250
  6
CONTINUOUS
 10
-29.6305112375
 20
27.1754138643
 11
-27.9382390315
 21
26.6557334645
  0
LINE
  5
447
100
AcDbEntity
  8
RACCORDO
100
AcDbLine
 62
250
  6
CONTINUOUS
 10
-12.7968561355
 20
22.0059614662
 11
-11.1045839295
 21
21.4862810664
  0
LINE
  5
448
100
AcDbEntity
  8
RACCORDO
100
AcDbLine
 62
250
  6
CONTINUOUS
 10
10.4496199578
 20
14.8671938688
 11
12.1418921638
 21
14.347513469
  0
LINE
  5
449
100
AcDbEntity
  8
RACCORDO
100
AcDbLine
 62
250
  6
CONTINUOUS
 10
27.2832750598
 20
9.6977414707
 11
28.9755472658
 21
9.1780610709
  0
LINE
  5
44A
100
AcDbEntity
  8
RACCORDO
100
AcDbLine
 62
7
  6
CONTINUOUS
 10
-23.2624125654
 20
25.5671356989
 11
-16.3100746529
 21
23.4321400799
  0
LINE
  5
44B
100
AcDbEntity
  8
RACCORDO
100
AcDbLine
 62
7
  6
CONTINUOUS
 10
16.8177186299
 20
13.2589157035
 11
23.7700565425
 21
11.1239200845
  0
LINE
  5
44C
100
AcDbEntity
  8
RACCORDO
100
AcDbLine
 62
7
  6
CONTINUOUS
 10
-26.6809849283
 20
26.9437613725
 11
-25.3678545597
 21
26.5405117579
  0
LINE
  5
44D
100
AcDbEntity
  8
RACCORDO
100
AcDbLine
 62
7
  6
CONTINUOUS
 10
-9.8473298263
 20
21.7743089744
 11
-9.3649923659
 21
21.6261878132
  0
LINE
  5
44E
100
AcDbEntity
  8
RACCORDO
100
AcDbLine
 62
7
  6
CONTINUOUS
 10
13.399146267
 20
14.6355413771
 11
14.7122766356
 21
14.2322917624
  0
LINE
  5
44F
100
AcDbEntity
  8
RACCORDO
100
AcDbLine
 62
7
  6
CONTINUOUS
 10
30.232801369
 20
9.466088979
 11
30.7151388294
 21
9.3179678177
  0
LINE
  5
450
100
AcDbEntity
  8
0
100
AcDbLine
 62
7
  6
CONTINUOUS
 10
-21.9951034302
 20
26.5954008098
 11
-15.7604163554
 21
24.6807888105
  0
LINE
  5
451
100
AcDbEntity
  8
0
100
AcDbLine
 62
7
  6
CONTINUOUS
 10
18.0850277651
 20
14.2871808143
 11
24.3197148399
 21
12.372568815
  0
LINE
  5
452
100
AcDbEntity
  8
RACCORDO
100
AcDbLine
 62
250
  6
CONTINUOUS
 10
-11.1653775063
 20
20.7389433059
 11
-11.1653274898
 21
20.7389279028
  0
LINE
  5
453
100
AcDbEntity
  8
RACCORDO
100
AcDbLine
 62
250
  6
CONTINUOUS
 10
28.914753689
 20
8.4307233104
 11
28.9148037055
 21
8.4307079073
  0
LWPOLYLINE
  5
454
100
AcDbEntity
  8
RACCORDO
100
AcDbPolyline
 62
250
  6
CONTINUOUS
 90
13
 70
0
 10
12.1418921638
 20
14.347513469
 10
12.1709973441
 20
14.3369299114
 10
12.1996870328
 20
14.323210827
 10
12.2274703413
 20
14.3065909534
 10
12.2538718896
 20
14.287354661
 10
12.2784399397
 20
14.2658310882
 10
12.3007541257
 20
14.2423885093
 10
12.3204326454
 20
14.2174280333
 10
12.3371387942
 20
14.1913767409
 10
12.350586725
 20
14.1646803769
 10
12.3605463401
 20
14.1377957236
 10
12.3668472277
 20
14.1111827846
 10
12.3693815778
 20
14.085296915
  0
LWPOLYLINE
  5
455
100
AcDbEntity
  8
RACCORDO
100
AcDbPolyline
 62
250
  6
CONTINUOUS
 90
13
 70
0
 10
-11.1045839295
 20
21.4862810664
 10
-11.0753620198
 20
21.4756483974
 10
-11.0465506809
 20
21.4618502397
 10
-11.0186479404
 20
21.4451214665
 10
-10.9921340458
 20
21.4257456411
 10
-10.9674724752
 20
21.4040568674
 10
-10.9450995023
 20
21.3804366186
 10
-10.9253622204
 20
21.355236848
 10
-10.9086556472
 20
21.3289454241
 10
-10.8953510422
 20
21.3022069912
 10
-10.8856244878
 20
21.2755505879
 10
-10.8795307215
 20
21.2493617878
 10
-10.8770945155
 20
21.2240645124
  0
LINE
  5
456
100
AcDbEntity
  8
RACCORDO
100
AcDbLine
 62
250
  6
CONTINUOUS
 10
-26.575513457
 20
28.3634188455
 11
-26.5462915474
 21
28.3527861765
  0
LINE
  5
457
100
AcDbEntity
  8
RACCORDO
100
AcDbLine
 62
250
  6
CONTINUOUS
 10
-9.741858355
 20
23.1939664474
 11
-9.7126364454
 21
23.1833337784
  0
LWPOLYLINE
  5
458
100
AcDbEntity
  8
RACCORDO
100
AcDbPolyline
 62
250
  6
CONTINUOUS
 90
13
 70
0
 10
28.9755472658
 20
9.1780610709
 10
29.0047691755
 20
9.1674284019
 10
29.0335805144
 20
9.1536302442
 10
29.061483255
 20
9.136901471
 10
29.0879971495
 20
9.1175256456
 10
29.1126587201
 20
9.0958368719
 10
29.135031693
 20
9.0722166231
 10
29.1547689749
 20
9.0470168525
 10
29.1714755481
 20
9.0207254286
 10
29.1847801531
 20
8.9939869957
 10
29.1945067075
 20
8.9673305924
 10
29.2006004738
 20
8.9411417923
 10
29.2030366798
 20
8.9158445169
  0
LWPOLYLINE
  5
459
100
AcDbEntity
  8
RACCORDO
100
AcDbPolyline
 62
250
  6
CONTINUOUS
 90
13
 70
0
 10
13.0354327479
 20
13.180401869
 10
13.012162173
 20
13.1888855111
 10
12.9892508981
 20
13.1999108792
 10
12.9670909413
 20
13.2132893261
 10
12.9460614657
 20
13.2287919428
 10
12.9265222915
 20
13.2461534755
 10
12.9088077393
 20
13.2650768633
 10
12.8932209101
 20
13.2852383219
 10
12.8800284987
 20
13.3062928832
 10
12.8694562311
 20
13.3278802977
 10
12.8616850016
 20
13.3496311988
 10
12.8568477781
 20
13.3711734226
 10
12.8550273269
 20
13.3921383756
  0
LWPOLYLINE
  5
45A
100
AcDbEntity
  8
RACCORDO
100
AcDbPolyline
 62
250
  6
CONTINUOUS
 90
13
 70
0
 10
13.4900112806
 20
13.736096541
 10
13.466740745
 20
13.7445801665
 10
13.4438294996
 20
13.7556055138
 10
13.4216695617
 20
13.7689839393
 10
13.4006400937
 20
13.7844865376
 10
13.3811009171
 20
13.8018480569
 10
13.3633863551
 20
13.8207714378
 10
13.3477995102
 20
13.8409328973
 10
13.33460708
 20
13.8619874677
 10
13.3240347942
 20
13.8835748976
 10
13.3162635494
 20
13.9053258188
 10
13.3114263151
 20
13.9268680671
 10
13.3096058596
 20
13.9478330476
  0
LWPOLYLINE
  5
45B
100
AcDbEntity
  8
RACCORDO
100
AcDbPolyline
 62
250
  6
CONTINUOUS
 90
16
 70
0
 10
29.4670789178
 20
7.8553451188
 10
29.5132678165
 20
7.8383877792
 10
29.5590048667
 20
7.817311618
 10
29.6037888589
 20
7.7923491789
 10
29.6471271168
 20
7.7637760168
 10
29.6885475824
 20
7.7319061737
 10
29.7276031613
 20
7.6970874781
 10
29.7638677719
 20
7.6597004627
 10
29.796941954
 20
7.6201554715
 10
29.8264633503
 20
7.5788858354
 10
29.8521084413
 20
7.536343712
 10
29.8735961864
 20
7.4929952213
 10
29.890691178
 20
7.4493153979
 10
29.9032060759
 20
7.4057828514
 10
29.9110036644
 20
7.3628745226
 10
29.9139984452
 20
7.3210605444
  0
LWPOLYLINE
  5
45C
100
AcDbEntity
  8
RACCORDO
100
AcDbPolyline
 62
250
  6
CONTINUOUS
 90
16
 70
0
 10
-9.7737550999
 20
21.1471736648
 10
-9.727586564
 20
21.1302196652
 10
-9.6818618265
 20
21.109148617
 10
-9.6370820494
 20
21.0841914683
 10
-9.5937380375
 20
21.0556217598
 10
-9.5523048588
 20
21.0237526281
 10
-9.5132366379
 20
20.9889333722
 10
-9.4769615787
 20
20.9515456262
 10
-9.4438772705
 20
20.9119991757
 10
-9.4143463308
 20
20.8707274665
 10
-9.3886924309
 20
20.828182854
 10
-9.3671967478
 20
20.7848316455
 10
-9.3500948829
 20
20.7411489884
 10
-9.3375742795
 20
20.6976136632
 10
-9.3297721683
 20
20.6547028357
 10
-9.3267740634
 20
20.6128868266
  0
LWPOLYLINE
  5
45D
100
AcDbEntity
  8
RACCORDO
100
AcDbPolyline
 62
250
  6
CONTINUOUS
 90
16
 70
0
 10
30.3063760954
 20
8.8389536693
 10
30.3525446314
 20
8.8219996697
 10
30.3982693688
 20
8.8009286216
 10
30.4430491459
 20
8.7759714728
 10
30.4863931578
 20
8.7474017644
 10
30.5278263365
 20
8.7155326326
 10
30.5668945574
 20
8.6807133768
 10
30.6031696166
 20
8.6433256308
 10
30.6362539249
 20
8.6037791802
 10
30.6657848645
 20
8.562507471
 10
30.6914387644
 20
8.5199628586
 10
30.7129344475
 20
8.47661165
 10
30.7300363124
 20
8.4329289929
 10
30.7425569159
 20
8.3893936678
 10
30.750359027
 20
8.3464828402
 10
30.7533571319
 20
8.3046668311
  0
LINE
  5
45E
100
AcDbEntity
  8
RACCORDO
100
AcDbLine
 62
250
  6
CONTINUOUS
 10
13.3734574894
 20
14.0776749827
 11
13.3353915624
 21
14.094511039
  0
LWPOLYLINE
  5
45F
100
AcDbEntity
  8
RACCORDO
100
AcDbPolyline
 62
250
  6
CONTINUOUS
 90
5
 70
0
 10
-9.7126364454
 20
23.1833337784
 10
-9.6838251065
 20
23.1695356207
 10
-9.6559223659
 20
23.1528068475
 10
-9.6294084714
 20
23.1334310221
 10
-9.6047469008
 20
23.1117422484
  0
LWPOLYLINE
  5
460
100
AcDbEntity
  8
RACCORDO
100
AcDbPolyline
 62
250
  6
CONTINUOUS
 90
7
 70
0
 10
10.5786758619
 20
13.6557940731
 10
10.6003439608
 20
13.6389565389
 10
10.623953022
 20
13.6233412046
 10
10.6495030455
 20
13.6089480702
 10
10.6769940314
 20
13.5957771357
 10
10.7064259796
 20
13.5838284011
 10
10.7377988901
 20
13.5731018664
  0
LWPOLYLINE
  5
461
100
AcDbEntity
  8
RACCORDO
100
AcDbPolyline
 62
7
  6
CONTINUOUS
 90
6
 70
0
 10
13.3364348841
 20
14.0153824244
 10
13.3376739429
 20
14.0134567652
 10
13.3381089377
 20
14.0126661359
 10
13.3375573526
 20
14.0144857891
 10
13.3369779351
 20
14.0183260699
 10
13.3369135502
 20
14.0198202017
  0
LWPOLYLINE
  5
462
100
AcDbEntity
  8
RACCORDO
100
AcDbPolyline
 62
250
  6
CONTINUOUS
 90
5
 70
0
 10
12.4955434313
 20
13.6698422327
 10
12.49768074
 20
13.6664511245
 10
12.5034262233
 20
13.6523080001
 10
12.5077509137
 20
13.6354599309
 10
12.5105963273
 20
13.616134758
  0
LWPOLYLINE
  5
463
100
AcDbEntity
  8
RACCORDO
100
AcDbPolyline
 62
250
  6
CONTINUOUS
 90
4
 70
0
 10
13.4076021866
 20
14.7157940038
 10
13.4136536198
 20
14.7037551956
 10
13.4157916104
 20
14.6930923584
 10
13.4141210191
 20
14.6843047263
  0
LWPOLYLINE
  5
464
100
AcDbEntity
  8
RACCORDO
100
AcDbPolyline
 62
7
  6
CONTINUOUS
 90
9
 70
0
 10
31.0515116827
 20
-26.5269609085
 10
31.0528296973
 20
-26.5297142402
 10
31.054308165
 20
-26.5332697635
 10
31.054544065
 20
-26.5339366642
 10
31.0539253404
 20
-26.5315230174
 10
31.0528367589
 20
-26.5260324064
 10
31.0515819855
 20
-26.5173173231
 10
31.0504465492
 20
-26.5051901245
 10
31.0497188522
 20
-26.489584383
  0
LWPOLYLINE
  5
465
100
AcDbEntity
  8
RACCORDO
100
AcDbPolyline
 62
7
  6
CONTINUOUS
 90
14
 70
0
 10
21.2743648091
 20
17.8841049286
 10
21.2732260922
 20
17.9090074311
 10
21.2711442511
 20
17.9323950574
 10
21.2681192858
 20
17.9542678076
 10
21.2641302257
 20
17.9747061401
 10
21.2591980414
 20
17.9936295964
 10
21.2533856446
 20
18.0107968013
 10
21.24668176
 20
18.0261852575
 10
21.2390976628
 20
18.0398174623
 10
21.230730091
 20
18.0515195322
 10
21.2215690083
 20
18.0612667424
 10
21.2116244509
 20
18.0690838176
 10
21.2010232652
 20
18.0748710484
 10
21.1940028187
 20
18.0774674873
  0
LINE
  5
466
100
AcDbEntity
  8
RACCORDO
100
AcDbLine
 62
7
  6
CONTINUOUS
 10
21.2944174721
 20
17.0780194271
 11
21.2743648091
 21
17.8841049286
  0
LWPOLYLINE
  5
467
100
AcDbEntity
  8
RACCORDO
100
AcDbPolyline
 62
250
  6
CONTINUOUS
 90
5
 70
0
 10
30.136048805
 20
9.0682979986
 10
30.1489664696
 20
9.0874577963
 10
30.1578532085
 20
9.1074597482
 10
30.1625569671
 20
9.1279616153
 10
30.1633040897
 20
9.1428942241
  0
LINE
  5
468
100
AcDbEntity
  8
RACCORDO
100
AcDbLine
 62
250
  6
CONTINUOUS
 10
30.0105561787
 20
7.4499995635
 11
30.0355965779
 21
7.4864085132
  0
LWPOLYLINE
  5
469
100
AcDbEntity
  8
RACCORDO
100
AcDbPolyline
 62
250
  6
CONTINUOUS
 90
12
 70
0
 10
30.0355965779
 20
7.4864085132
 10
30.0495800755
 20
7.5064933457
 10
30.055964302
 20
7.5155173747
 10
30.0620202194
 20
7.5239418803
 10
30.0677282076
 20
7.5317535592
 10
30.0732006624
 20
7.5391107943
 10
30.0784394115
 20
7.5460147426
 10
30.0834426271
 20
7.5524642472
 10
30.088317222
 20
7.5586142213
 10
30.0930988336
 20
7.5645163026
 10
30.0977518243
 20
7.5701188534
 10
30.1022761943
 20
7.5754218737
  0
LWPOLYLINE
  5
46A
100
AcDbEntity
  8
RACCORDO
100
AcDbPolyline
 62
250
  6
CONTINUOUS
 90
5
 70
0
 10
30.1432609617
 20
8.7783806495
 10
30.1540515363
 20
8.7931799968
 10
30.1621921653
 20
8.8085404023
 10
30.1676199954
 20
8.8242779594
 10
30.170303269
 20
8.8401964013
  0
LWPOLYLINE
  5
46B
100
AcDbEntity
  8
RACCORDO
100
AcDbPolyline
 62
250
  6
CONTINUOUS
 90
7
 70
0
 10
-11.3559185169
 20
23.7587944478
 10
-11.3644597494
 20
23.760244166
 10
-11.3773027406
 20
23.7586707932
 10
-11.3909519079
 20
23.7529997816
 10
-11.4051232934
 20
23.7434395953
 10
-11.4195982069
 20
23.7302234463
 10
-11.434130561
 20
23.7136468472
  0
LWPOLYLINE
  5
46C
100
AcDbEntity
  8
RACCORDO
100
AcDbPolyline
 62
250
  6
CONTINUOUS
 90
7
 70
0
 10
-9.6636463478
 20
23.2391140593
 10
-9.671438665
 20
23.2405244311
 10
-9.6841894614
 20
23.2392134308
 10
-9.6978495458
 20
23.2337684745
 10
-9.7121801887
 20
23.2242894485
 10
-9.726934792
 20
23.2109439685
 10
-9.741858355
 20
23.1939664474
  0
LINE
  5
46D
100
AcDbEntity
  8
RACCORDO
100
AcDbLine
 62
250
  6
CONTINUOUS
 10
-28.2677856631
 20
28.8830992453
 11
-26.575513457
 21
28.3634188455
  0
LINE
  5
46E
100
AcDbEntity
  8
RACCORDO
100
AcDbLine
 62
250
  6
CONTINUOUS
 10
-11.434130561
 20
23.7136468472
 11
-9.741858355
 21
23.1939664474
  0
LINE
  5
46F
100
AcDbEntity
  8
RACCORDO
100
AcDbLine
 62
250
  6
CONTINUOUS
 10
11.8123455323
 20
16.5748792498
 11
13.5046177383
 21
16.05519885
  0
LINE
  5
470
100
AcDbEntity
  8
RACCORDO
100
AcDbLine
 62
250
  6
CONTINUOUS
 10
28.6460006343
 20
11.4054268517
 11
30.3382728403
 21
10.8857464519
  0
LINE
  5
471
100
AcDbEntity
  8
RACCORDO
100
AcDbLine
 62
7
  6
CONTINUOUS
 10
-28.1895736189
 20
28.9282468459
 11
-26.4973014129
 21
28.4085664461
  0
LINE
  5
472
100
AcDbEntity
  8
RACCORDO
100
AcDbLine
 62
7
  6
CONTINUOUS
 10
-11.3559185169
 20
23.7587944478
 11
-9.6636463108
 21
23.239114048
  0
LINE
  5
473
100
AcDbEntity
  8
RACCORDO
100
AcDbLine
 62
7
  6
CONTINUOUS
 10
11.8905575764
 20
16.6200268504
 11
13.5828297824
 21
16.1003464506
  0
LINE
  5
474
100
AcDbEntity
  8
RACCORDO
100
AcDbLine
 62
7
  6
CONTINUOUS
 10
28.7242126784
 20
11.4505744523
 11
30.4164848845
 21
10.9308940525
  0
LINE
  5
475
100
AcDbEntity
  8
RACCORDO
100
AcDbLine
 62
250
  6
CONTINUOUS
 10
13.5046177383
 20
16.05519885
 11
13.5338396479
 21
16.044566181
  0
LINE
  5
476
100
AcDbEntity
  8
RACCORDO
100
AcDbLine
 62
250
  6
CONTINUOUS
 10
30.3382728403
 20
10.8857464519
 11
30.36749475
 21
10.8751137829
  0
LWPOLYLINE
  5
477
100
AcDbEntity
  8
RACCORDO
100
AcDbPolyline
 62
250
  6
CONTINUOUS
 90
5
 70
0
 10
13.5338396479
 20
16.044566181
 10
13.5626509868
 20
16.0307680233
 10
13.5905537274
 20
16.0140392501
 10
13.6170676219
 20
15.9946634247
 10
13.6417291925
 20
15.972974651
  0
LWPOLYLINE
  5
478
100
AcDbEntity
  8
RACCORDO
100
AcDbPolyline
 62
250
  6
CONTINUOUS
 90
3
 70
0
 10
30.2288222992
 20
8.8968196703
 10
30.1976725614
 20
8.9127979451
 10
30.1638735985
 20
8.9271210367
  0
LWPOLYLINE
  5
479
100
AcDbEntity
  8
RACCORDO
100
AcDbPolyline
 62
250
  6
CONTINUOUS
 90
7
 70
0
 10
13.6417291925
 20
15.972974651
 10
13.6641021655
 20
15.9493544023
 10
13.6838394473
 20
15.9241546316
 10
13.7005460205
 20
15.8978632078
 10
13.7138506255
 20
15.8711247749
 10
13.7235771799
 20
15.8444683715
 10
13.7296709462
 20
15.8182795715
  0
LWPOLYLINE
  5
47A
100
AcDbEntity
  8
RACCORDO
100
AcDbPolyline
 62
250
  6
CONTINUOUS
 90
4
 70
0
 10
13.7399315992
 20
15.4784518411
 10
13.7459830324
 20
15.4664130329
 10
13.7481210231
 20
15.4557501957
 10
13.7464504318
 20
15.4469625635
  0
LWPOLYLINE
  5
47B
100
AcDbEntity
  8
RACCORDO
100
AcDbPolyline
 62
250
  6
CONTINUOUS
 90
3
 70
0
 10
31.4900060385
 20
-26.5382179117
 10
31.4795696718
 20
-26.5071589072
 10
31.465542731
 20
-26.4776627417
  0
LWPOLYLINE
  5
47C
100
AcDbEntity
  8
RACCORDO
100
AcDbPolyline
 62
7
  6
CONTINUOUS
 90
14
 70
0
 10
23.1224421988
 20
17.8464109077
 10
23.1202020393
 20
17.8956704257
 10
23.1161162087
 20
17.9419728581
 10
23.1101847072
 20
17.9853182048
 10
23.1023673509
 20
18.0258627737
 10
23.0927043235
 20
18.0634502569
 10
23.0813161765
 20
18.0976117307
 10
23.0681812981
 20
18.1283042755
 10
23.0533213001
 20
18.155570811
 10
23.0369215686
 20
18.1790711729
 10
23.0189628146
 20
18.1987581798
 10
22.9994643272
 20
18.2146790131
 10
22.9786693603
 20
18.2266350519
 10
22.9617210356
 20
18.2331351608
  0
LWPOLYLINE
  5
47D
100
AcDbEntity
  8
RACCORDO
100
AcDbPolyline
 62
250
  6
CONTINUOUS
 90
16
 70
0
 10
25.5310516898
 20
-30.9657792905
 10
25.5330352901
 20
-31.0198675041
 10
25.5380798412
 20
-31.0688584885
 10
25.546185343
 20
-31.1127522437
 10
25.5574910098
 20
-31.151872358
 10
25.5718576274
 20
-31.185895243
 10
25.5888675531
 20
-31.2138501339
 10
25.6085979322
 20
-31.2355636267
 10
25.6309716194
 20
-31.2512091253
 10
25.6553395359
 20
-31.260336076
 10
25.6817633068
 20
-31.2627508388
 10
25.710181307
 20
-31.2586470537
 10
25.7397595827
 20
-31.2481550872
 10
25.7702201492
 20
-31.2313183949
 10
25.8018409911
 20
-31.2080935212
 10
25.8346221084
 20
-31.1784804661
  0
LWPOLYLINE
  5
47E
100
AcDbEntity
  8
ASSI
100
AcDbPolyline
 62
250
  6
CONTINUOUS
 90
15
 70
0
 10
25.5310516898
 20
-30.9657792905
 10
25.5330352901
 20
-31.0198675041
 10
25.5380798412
 20
-31.0688584885
 10
25.546185343
 20
-31.1127522437
 10
25.5574910098
 20
-31.151872358
 10
25.5718576274
 20
-31.185895243
 10
25.5888675531
 20
-31.2138501339
 10
25.6085979322
 20
-31.2355636267
 10
25.6309716194
 20
-31.2512091253
 10
25.6553395359
 20
-31.260336076
 10
25.6817633068
 20
-31.2627508388
 10
25.710181307
 20
-31.2586470537
 10
25.7397595827
 20
-31.2481550872
 10
25.7702201492
 20
-31.2313183949
 10
25.8018409911
 20
-31.2080935212
  0
LWPOLYLINE
  5
47F
100
AcDbEntity
  8
RACCORDO
100
AcDbPolyline
 62
250
  6
CONTINUOUS
 90
10
 70
0
 10
24.4612435406
 20
-31.1720380721
 10
24.4650544102
 20
-31.2862644112
 10
24.4756207278
 20
-31.3914528989
 10
24.4928406542
 20
-31.4865725708
 10
24.5165532952
 20
-31.570693381
 10
24.5465246066
 20
-31.6429901597
 10
24.5824495622
 20
-31.7027508502
 10
24.6239841053
 20
-31.7493930479
 10
24.6707245313
 20
-31.782460841
 10
24.7061853803
 20
-31.7973181927
  0
LWPOLYLINE
  5
480
100
AcDbEntity
  8
ASSI
100
AcDbPolyline
 62
250
  6
CONTINUOUS
 90
10
 70
0
 10
24.4612435406
 20
-31.1720380721
 10
24.4650544102
 20
-31.2862644112
 10
24.4756207278
 20
-31.3914528989
 10
24.4928406542
 20
-31.4865725708
 10
24.5165532952
 20
-31.570693381
 10
24.5465246066
 20
-31.6429901597
 10
24.5824495622
 20
-31.7027508502
 10
24.6239841053
 20
-31.7493930479
 10
24.6707245313
 20
-31.782460841
 10
24.7006115386
 20
-31.7954854067
  0
LINE
  5
481
100
AcDbEntity
  8
RACCORDO
100
AcDbLine
 62
7
  6
CONTINUOUS
 10
23.1267877444
 20
17.6717268124
 11
23.1224421988
 21
17.8464109077
  0
LINE
  5
482
100
AcDbEntity
  8
RACCORDO
100
AcDbLine
 62
250
  6
CONTINUOUS
 10
23.7700565425
 20
11.1239200845
 11
23.7967231712
 21
10.0519635702
  0
LINE
  5
483
100
AcDbEntity
  8
RACCORDO
100
AcDbLine
 62
250
  6
CONTINUOUS
 10
24.4438129915
 20
11.2734178342
 11
24.4706489271
 21
10.1946554514
  0
LWPOLYLINE
  5
484
100
AcDbEntity
  8
RACCORDO
100
AcDbPolyline
 62
7
  6
CONTINUOUS
 90
3
 70
0
 10
30.2214799518
 20
9.4482193075
 10
30.2342537811
 20
9.4822585667
 10
30.2477761211
 20
9.5148523282
  0
LWPOLYLINE
  5
485
100
AcDbEntity
  8
RACCORDO
100
AcDbPolyline
 62
250
  6
CONTINUOUS
 90
3
 70
0
 10
30.2412572886
 20
9.5463416057
 10
30.2247430363
 20
9.5064731692
 10
30.2095252862
 20
9.4661362264
  0
LINE
  5
486
100
AcDbEntity
  8
RACCORDO
100
AcDbLine
 62
250
  6
CONTINUOUS
 10
30.2412572886
 20
9.5463416057
 11
30.5735867012
 21
10.308999443
  0
LINE
  5
487
100
AcDbEntity
  8
RACCORDO
100
AcDbLine
 62
7
  6
CONTINUOUS
 10
30.2477761211
 20
9.5148523282
 11
30.5801055338
 21
10.2775101654
  0
LINE
  5
488
100
AcDbEntity
  8
RACCORDO
100
AcDbLine
 62
7
  6
CONTINUOUS
 10
30.5080612991
 20
10.1121769204
 11
32.1191559331
 21
13.2205557867
  0
LINE
  5
489
100
AcDbEntity
  8
RACCORDO
100
AcDbLine
 62
250
  6
CONTINUOUS
 10
30.6016816794
 20
10.3831596483
 11
32.1501175444
 21
13.3651582406
  0
LINE
  5
48A
100
AcDbEntity
  8
RACCORDO
100
AcDbLine
 62
7
  6
CONTINUOUS
 10
-11.0287459119
 20
20.7360312108
 11
-10.6797125374
 21
20.827216064
  0
LINE
  5
48B
100
AcDbEntity
  8
RACCORDO
100
AcDbLine
 62
250
  6
CONTINUOUS
 10
-10.8692700685
 20
20.9095340575
 11
-10.520236694
 21
21.0007189107
  0
LWPOLYLINE
  5
48C
100
AcDbEntity
  8
RACCORDO
100
AcDbPolyline
 62
250
  6
CONTINUOUS
 90
7
 70
0
 10
-28.1895736189
 20
28.9282468459
 10
-28.1976579784
 20
28.929674445
 10
-28.2103594028
 20
28.9282834948
 10
-28.2239609004
 20
28.9228028153
 10
-28.2382297458
 20
28.9133261825
 10
-28.252921795
 20
28.900015744
 10
-28.2677856631
 20
28.8830992453
  0
LWPOLYLINE
  5
48D
100
AcDbEntity
  8
RACCORDO
100
AcDbPolyline
 62
250
  6
CONTINUOUS
 90
7
 70
0
 10
-26.4973014498
 20
28.4085664574
 10
-26.5050937671
 20
28.4099768292
 10
-26.5178445634
 20
28.4086658289
 10
-26.5315046478
 20
28.4032208726
 10
-26.5458352907
 20
28.3937418466
 10
-26.560589894
 20
28.3803963666
 10
-26.575513457
 20
28.3634188455
  0
LWPOLYLINE
  5
48E
100
AcDbEntity
  8
RACCORDO
100
AcDbPolyline
 62
7
  6
CONTINUOUS
 90
13
 70
0
 10
21.1940028187
 20
18.0774674873
 10
21.1897570397
 20
18.0786024328
 10
21.1778341859
 20
18.0803039727
 10
21.1654067838
 20
18.0799539644
 10
21.1524683704
 20
18.077526128
 10
21.1390254087
 20
18.0730467433
 10
21.1252493684
 20
18.0665729465
 10
21.1111359828
 20
18.0580791896
 10
21.0966895187
 20
18.0475910207
 10
21.0820942457
 20
18.0352422198
 10
21.0674115871
 20
18.0210773806
 10
21.0525801195
 20
18.0050519095
 10
21.0375998431
 20
17.9871658065
  0
LWPOLYLINE
  5
48F
100
AcDbEntity
  8
RACCORDO
100
AcDbPolyline
 62
7
  6
CONTINUOUS
 90
13
 70
0
 10
-18.8861283766
 20
30.3856874828
 10
-18.8903741556
 20
30.3868224283
 10
-18.9022970094
 20
30.3885239682
 10
-18.9147244115
 20
30.3881739599
 10
-18.9276628249
 20
30.3857461234
 10
-18.9411057867
 20
30.3812667388
 10
-18.9548818269
 20
30.374792942
 10
-18.9689952125
 20
30.3662991851
 10
-18.9834416766
 20
30.3558110161
 10
-18.9980369496
 20
30.3434622153
 10
-19.0127196083
 20
30.329297376
 10
-19.0275510758
 20
30.3132719049
 10
-19.0425313522
 20
30.295385802
  0
LWPOLYLINE
  5
490
100
AcDbEntity
  8
RACCORDO
100
AcDbPolyline
 62
7
  6
CONTINUOUS
 90
13
 70
0
 10
22.9617210356
 20
18.2331351608
 10
22.9565616721
 20
18.2345766269
 10
22.9331575044
 20
18.2385534074
 10
22.9087488365
 20
18.238515781
 10
22.8833230843
 20
18.2344134568
 10
22.856892832
 20
18.2262967258
 10
22.8297878107
 20
18.2142668483
 10
22.8019995673
 20
18.1982748021
 10
22.773536555
 20
18.1783696095
 10
22.7447538648
 20
18.1547995982
 10
22.7157698604
 20
18.1276475442
 10
22.6864661781
 20
18.0968306716
 10
22.656842818
 20
18.0623489804
  0
LWPOLYLINE
  5
491
100
AcDbEntity
  8
RACCORDO
100
AcDbPolyline
 62
7
  6
CONTINUOUS
 90
13
 70
0
 10
-17.1184101597
 20
30.5413551563
 10
-17.1235695232
 20
30.5427966224
 10
-17.1469736909
 20
30.5467734029
 10
-17.1713823589
 20
30.5467357765
 10
-17.196808111
 20
30.5426334523
 10
-17.2232383633
 20
30.5345167213
 10
-17.2503433846
 20
30.5224868438
 10
-17.278131628
 20
30.5064947976
 10
-17.3065946403
 20
30.486589605
 10
-17.3353773305
 20
30.4630195937
 10
-17.3643613349
 20
30.4358675397
 10
-17.3936650172
 20
30.4050506671
 10
-17.4232883773
 20
30.3705689758
  0
LINE
  5
492
100
AcDbEntity
  8
0
100
AcDbLine
 62
7
  6
CONTINUOUS
 10
26.6398413009
 20
15.2800111598
 11
21.9266085072
 21
16.7273992892
  0
LINE
  5
493
100
AcDbEntity
  8
0
100
AcDbLine
 62
7
  6
CONTINUOUS
 10
-13.4402898944
 20
27.5882311553
 11
-18.1535226881
 21
29.0356192847
  0
LINE
  5
494
100
AcDbEntity
  8
RACCORDO
100
AcDbLine
 62
250
  6
CONTINUOUS
 10
28.0354149524
 20
15.838204581
 11
27.2722869179
 21
16.0725538072
  0
LINE
  5
495
100
AcDbEntity
  8
RACCORDO
100
AcDbLine
 62
250
  6
CONTINUOUS
 10
21.0375998431
 20
17.9871658065
 11
20.2744718086
 21
18.2215150327
  0
LINE
  5
496
100
AcDbEntity
  8
RACCORDO
100
AcDbLine
 62
250
  6
CONTINUOUS
 10
-12.0447162429
 20
28.1464245764
 11
-12.8078442774
 21
28.3807738027
  0
LINE
  5
497
100
AcDbEntity
  8
RACCORDO
100
AcDbLine
 62
250
  6
CONTINUOUS
 10
-19.0425313522
 20
30.295385802
 11
-19.8056593867
 21
30.5297350282
  0
LINE
  5
498
100
AcDbEntity
  8
RACCORDO
100
AcDbLine
 62
7
  6
CONTINUOUS
 10
28.1901012823
 20
15.9290334309
 11
27.4287110062
 21
16.1628490083
  0
LINE
  5
499
100
AcDbEntity
  8
RACCORDO
100
AcDbLine
 62
7
  6
CONTINUOUS
 10
21.1940239314
 20
18.0774610076
 11
20.4326336553
 21
18.3112765851
  0
LINE
  5
49A
100
AcDbEntity
  8
RACCORDO
100
AcDbLine
 62
7
  6
CONTINUOUS
 10
-11.890029913
 20
28.2372534264
 11
-12.6514201891
 21
28.4710690038
  0
LINE
  5
49B
100
AcDbEntity
  8
RACCORDO
100
AcDbLine
 62
7
  6
CONTINUOUS
 10
-18.8861072639
 20
30.3856810031
 11
-19.64749754
 21
30.6194965806
  0
LINE
  5
49C
100
AcDbEntity
  8
0
100
AcDbLine
 62
7
  6
CONTINUOUS
 10
-16.953343451
 20
29.9799468079
 11
-12.2403051195
 21
28.532618396
  0
LINE
  5
49D
100
AcDbEntity
  8
0
100
AcDbLine
 62
7
  6
CONTINUOUS
 10
23.1267877444
 20
17.6717268124
 11
27.8398260758
 21
16.2243984006
  0
LINE
  5
49E
100
AcDbEntity
  8
RACCORDO
100
AcDbLine
 62
250
  6
CONTINUOUS
 10
-21.4089058615
 20
31.5945134928
 11
-17.4232883773
 21
30.3705689758
  0
LINE
  5
49F
100
AcDbEntity
  8
RACCORDO
100
AcDbLine
 62
250
  6
CONTINUOUS
 10
-12.0792708846
 20
28.7294729764
 11
-8.0936534004
 21
27.5055284595
  0
LINE
  5
4A0
100
AcDbEntity
  8
RACCORDO
100
AcDbLine
 62
250
  6
CONTINUOUS
 10
18.6712253338
 20
19.2862934973
 11
22.656842818
 21
18.0623489804
  0
LINE
  5
4A1
100
AcDbEntity
  8
RACCORDO
100
AcDbLine
 62
250
  6
CONTINUOUS
 10
28.0008603107
 20
16.421252981
 11
31.9864777949
 21
15.1973084641
  0
LINE
  5
4A2
100
AcDbEntity
  8
RACCORDO
100
AcDbLine
 62
7
  6
CONTINUOUS
 10
-21.3394110344
 20
31.8375836388
 11
-17.1183707519
 21
30.5413430613
  0
LINE
  5
4A3
100
AcDbEntity
  8
RACCORDO
100
AcDbLine
 62
7
  6
CONTINUOUS
 10
-11.7743532592
 20
28.9002470619
 11
-7.5533129766
 21
27.6040064844
  0
LINE
  5
4A4
100
AcDbEntity
  8
RACCORDO
100
AcDbLine
 62
7
  6
CONTINUOUS
 10
18.7407201609
 20
19.5293636433
 11
22.9617604434
 21
18.2331230658
  0
LINE
  5
4A5
100
AcDbEntity
  8
RACCORDO
100
AcDbLine
 62
7
  6
CONTINUOUS
 10
28.3057779361
 20
16.5920270664
 11
32.5268182187
 21
15.2957864889
  0
LWPOLYLINE
  5
4A6
100
AcDbEntity
  8
RACCORDO
100
AcDbPolyline
 62
250
  6
CONTINUOUS
 90
5
 70
0
 10
30.36749475
 20
10.8751137829
 10
30.3963060888
 20
10.8613156252
 10
30.4242088294
 20
10.844586852
 10
30.4507227239
 20
10.8252110266
 10
30.4753842945
 20
10.8035222529
  0
LWPOLYLINE
  5
4A7
100
AcDbEntity
  8
RACCORDO
100
AcDbPolyline
 62
250
  6
CONTINUOUS
 90
13
 70
0
 10
30.2670303774
 20
8.5921141729
 10
30.2497131148
 20
8.6033822075
 10
30.2331703875
 20
8.6159500448
 10
30.217580941
 20
8.6296818865
 10
30.2031132224
 20
8.6444293554
 10
30.1899235537
 20
8.6600331046
 10
30.1781544446
 20
8.676324541
 10
30.1679330607
 20
8.6931276371
 10
30.1593698485
 20
8.7102608308
 10
30.1525573359
 20
8.7275389952
 10
30.1475691337
 20
8.7447754371
 10
30.1444591407
 20
8.7617839149
 10
30.1432609617
 20
8.7783806495
  0
LWPOLYLINE
  5
4A8
100
AcDbEntity
  8
RACCORDO
100
AcDbPolyline
 62
250
  6
CONTINUOUS
 90
13
 70
0
 10
30.267030606
 20
8.5921149932
 10
30.3098936685
 20
8.563409493
 10
30.3508232593
 20
8.5314576072
 10
30.3893768743
 20
8.4966047725
 10
30.4251376977
 20
8.4592277898
 10
30.4577191084
 20
8.4197307501
 10
30.4867688597
 20
8.3785406666
 10
30.5119728884
 20
8.3361028579
 10
30.5330587095
 20
8.2928761336
 10
30.5497983629
 20
8.2493278345
 10
30.5620108774
 20
8.2059287799
 10
30.5695642278
 20
8.1631481775
 10
30.5723767622
 20
8.1214485506
  0
LWPOLYLINE
  5
4A9
100
AcDbEntity
  8
RACCORDO
100
AcDbPolyline
 62
250
  6
CONTINUOUS
 90
13
 70
0
 10
29.8079906205
 20
8.0391511229
 10
29.7912158073
 20
8.0504960007
 10
29.7752204695
 20
8.0630580343
 10
29.7601704945
 20
8.0767077973
 10
29.7462214193
 20
8.0913052832
 10
29.7335190197
 20
8.1066990839
 10
29.7221971121
 20
8.1227275685
 10
29.7123734212
 20
8.1392238717
 10
29.7041490503
 20
8.1560179853
 10
29.6976091663
 20
8.1729359992
 10
29.6928214922
 20
8.1898027205
 10
29.6898356064
 20
8.2064434872
 10
29.6886824289
 20
8.2226859775
  0
LWPOLYLINE
  5
4AA
100
AcDbEntity
  8
RACCORDO
100
AcDbPolyline
 62
250
  6
CONTINUOUS
 90
13
 70
0
 10
29.8079906205
 20
8.0391511228
 10
29.8495242472
 20
8.0102451909
 10
29.8891041707
 20
7.978302251
 10
29.9263203788
 20
7.9436532028
 10
29.9607873455
 20
7.9066569792
 10
29.9921480243
 20
7.8676968272
 10
30.020077547
 20
7.8271763388
 10
30.0442865893
 20
7.7855152693
 10
30.0645243673
 20
7.7431451895
 10
30.0805812362
 20
7.7005050151
 10
30.0922908613
 20
7.6580364595
 10
30.0995319415
 20
7.6161794582
 10
30.102229466
 20
7.5753676119
  0
LINE
  5
4AB
100
AcDbEntity
  8
DRAFT
100
AcDbLine
 62
7
  6
CONTINUOUS
 10
30.8732576492
 20
-24.9706970192
 11
29.337408243
 21
-10.8825439893
  0
LWPOLYLINE
  5
4AC
100
AcDbEntity
  8
RACCORDO
100
AcDbPolyline
 62
250
  6
CONTINUOUS
 90
12
 70
0
 10
27.5237840072
 20
8.8062551089
 10
27.5240925909
 20
8.8013810139
 10
27.5268698333
 20
8.785589536
 10
27.5323085158
 20
8.7701220701
 10
27.5403312259
 20
8.7551353491
 10
27.550876135
 20
8.7407254571
 10
27.5638459033
 20
8.7270462279
 10
27.5791034012
 20
8.7142614288
 10
27.5965287971
 20
8.7024832346
 10
27.615965366
 20
8.6918437398
 10
27.637205856
 20
8.6824860583
 10
27.6600308593
 20
8.674528467
  0
LWPOLYLINE
  5
4AD
100
AcDbEntity
  8
RACCORDO
100
AcDbPolyline
 62
250
  6
CONTINUOUS
 90
9
 70
0
 10
27.1823610607
 20
9.0470663467
 10
27.1836568305
 20
9.0258396891
 10
27.1864427913
 20
9.0066642998
 10
27.1907047394
 20
8.9898296924
 10
27.1964186168
 20
8.9755787285
 10
27.2035220442
 20
8.9641786367
 10
27.2118920784
 20
8.9558655487
 10
27.221396955
 20
8.9507593095
 10
27.2225314995
 20
8.9503883072
  0
LWPOLYLINE
  5
4AE
100
AcDbEntity
  8
RACCORDO
100
AcDbPolyline
 62
250
  6
CONTINUOUS
 90
10
 70
0
 10
27.0381750732
 20
9.4976596962
 10
27.0385132443
 20
9.4915889967
 10
27.0424559822
 20
9.4710361295
 10
27.0506489629
 20
9.4510516784
 10
27.0629820397
 20
9.4319407625
 10
27.0792276617
 20
9.4140802712
 10
27.0989541387
 20
9.3978876057
 10
27.1216953924
 20
9.3836365317
 10
27.1470477519
 20
9.3714872125
 10
27.1745366137
 20
9.3615968016
  0
LWPOLYLINE
  5
4AF
100
AcDbEntity
  8
RACCORDO
100
AcDbPolyline
 62
250
  6
CONTINUOUS
 90
10
 70
0
 10
27.045998845
 20
9.1831562363
 10
27.0463056718
 20
9.1774378553
 10
27.0501363725
 20
9.1569910871
 10
27.0581725253
 20
9.1370983903
 10
27.0702766295
 20
9.1181001344
 10
27.0862415803
 20
9.100321385
 10
27.1057942131
 20
9.0840663412
 10
27.128599977
 20
9.0696131315
 10
27.1542686589
 20
9.0572090543
 10
27.1823610607
 20
9.0470663467
  0
LWPOLYLINE
  5
4B0
100
AcDbEntity
  8
RACCORDO
100
AcDbPolyline
 62
250
  6
CONTINUOUS
 90
13
 70
0
 10
27.0091049825
 20
3.2939950116
 10
27.0051661396
 20
3.3817480174
 10
26.989218693
 20
3.4718584054
 10
26.9615351083
 20
3.5627850938
 10
26.9225885725
 20
3.6529730053
 10
26.8730449441
 20
3.740879585
 10
26.8137514037
 20
3.8250011921
 10
26.7457218677
 20
3.9038989762
 10
26.6701197542
 20
3.9762233276
 10
26.5882381882
 20
4.0407369392
 10
26.501477667
 20
4.0963361946
 10
26.4113220662
 20
4.1420700029
 10
26.319313421
 20
4.1771559516
  0
LWPOLYLINE
  5
4B1
100
AcDbEntity
  8
ASSI
100
AcDbPolyline
 62
250
  6
CONTINUOUS
 90
13
 70
0
 10
27.0091049825
 20
3.2939950116
 10
27.0051661396
 20
3.3817480174
 10
26.989218693
 20
3.4718584054
 10
26.9615351083
 20
3.5627850938
 10
26.9225885725
 20
3.6529730053
 10
26.8730449441
 20
3.740879585
 10
26.8137514037
 20
3.8250011921
 10
26.7457218677
 20
3.9038989762
 10
26.6701197542
 20
3.9762233276
 10
26.5882381882
 20
4.0407369392
 10
26.501477667
 20
4.0963361946
 10
26.4113220662
 20
4.1420700029
 10
26.319313421
 20
4.1771559516
  0
LINE
  5
4B2
100
AcDbEntity
  8
RACCORDO
100
AcDbLine
 62
250
  6
CONTINUOUS
 10
27.5237491998
 20
8.8073801229
 11
27.5237840072
 21
8.8062551089
  0
LINE
  5
4B3
100
AcDbEntity
  8
RACCORDO
100
AcDbLine
 62
7
  6
CONTINUOUS
 10
27.045998845
 20
9.1831562363
 11
27.038174398
 21
9.4976866912
  0
LINE
  5
4B4
100
AcDbEntity
  8
RACCORDO
100
AcDbLine
 62
250
  6
CONTINUOUS
 10
27.1823610607
 20
9.0470663467
 11
27.1745366137
 21
9.3615968016
  0
LINE
  5
4B5
100
AcDbEntity
  8
RACCORDO
100
AcDbLine
 62
7
  6
CONTINUOUS
 10
27.5237491988
 20
8.8073801641
 11
27.5224830816
 21
8.8582760822
  0
LINE
  5
4B6
100
AcDbEntity
  8
RACCORDO
100
AcDbLine
 62
250
  6
CONTINUOUS
 10
27.6600308593
 20
8.674528467
 11
27.656483522
 21
8.8171258452
  0
LWPOLYLINE
  5
4B7
100
AcDbEntity
  8
RACCORDO
100
AcDbPolyline
 62
250
  6
CONTINUOUS
 90
5
 70
0
 10
25.7233203714
 20
-16.4489485285
 10
25.6281815029
 20
-20.1287414091
 10
25.5644379402
 20
-23.7743944629
 10
25.5320613358
 20
-27.3867404233
 10
25.5310516898
 20
-30.9657792905
  0
LWPOLYLINE
  5
4B8
100
AcDbEntity
  8
ASSI
100
AcDbPolyline
 62
250
  6
CONTINUOUS
 90
5
 70
0
 10
25.7233203714
 20
-16.4489485285
 10
25.6281815029
 20
-20.1287414091
 10
25.5644379402
 20
-23.7743944629
 10
25.5320613358
 20
-27.3867404233
 10
25.5310516898
 20
-30.9657792905
  0
LWPOLYLINE
  5
4B9
100
AcDbEntity
  8
RACCORDO
100
AcDbPolyline
 62
250
  6
CONTINUOUS
 90
7
 70
0
 10
24.9391045451
 20
-9.139462977
 10
24.7808773081
 20
-12.8936594216
 10
24.6540526184
 20
-16.6161155453
 10
24.5586587652
 20
-20.3060010457
 10
24.4947172722
 20
-23.9624926675
 10
24.4622428817
 20
-27.5847743981
 10
24.4612435409
 20
-31.1720380722
  0
LWPOLYLINE
  5
4BA
100
AcDbEntity
  8
ASSI
100
AcDbPolyline
 62
250
  6
CONTINUOUS
 90
7
 70
0
 10
24.9391045451
 20
-9.139462977
 10
24.7808773081
 20
-12.8936594216
 10
24.6540526184
 20
-16.6161155453
 10
24.5586587652
 20
-20.3060010457
 10
24.4947172722
 20
-23.9624926675
 10
24.4622428817
 20
-27.5847743981
 10
24.4612435409
 20
-31.1720380722
  0
LWPOLYLINE
  5
4BB
100
AcDbEntity
  8
RACCORDO
100
AcDbPolyline
 62
250
  6
CONTINUOUS
 90
4
 70
0
 10
26.1966552538
 20
-5.2180546624
 10
26.0076139415
 20
-8.991939688
 10
25.8498261982
 20
-12.7358485545
 10
25.7233203714
 20
-16.4489485285
  0
LWPOLYLINE
  5
4BC
100
AcDbEntity
  8
ASSI
100
AcDbPolyline
 62
250
  6
CONTINUOUS
 90
4
 70
0
 10
26.1966552538
 20
-5.2180546624
 10
26.0076139415
 20
-8.991939688
 10
25.8498261982
 20
-12.7358485545
 10
25.7233203714
 20
-16.4489485285
  0
LWPOLYLINE
  5
4BD
100
AcDbEntity
  8
RACCORDO
100
AcDbPolyline
 62
7
  6
CONTINUOUS
 90
3
 70
0
 10
27.5237958671
 20
8.8062725955
 10
27.5236578746
 20
8.8040965419
 10
27.5235441543
 20
8.8031978852
  0
LWPOLYLINE
  5
4BE
100
AcDbEntity
  8
RACCORDO
100
AcDbPolyline
 62
250
  6
CONTINUOUS
 90
4
 70
0
 10
25.6018169927
 20
2.3051553004
 10
25.3496196126
 20
-1.5392073099
 10
25.1286992627
 20
-5.3543639439
 10
24.9391045451
 20
-9.139462977
  0
LWPOLYLINE
  5
4BF
100
AcDbEntity
  8
ASSI
100
AcDbPolyline
 62
250
  6
CONTINUOUS
 90
4
 70
0
 10
25.6018169927
 20
2.3051553004
 10
25.3496196126
 20
-1.5392073099
 10
25.1286992627
 20
-5.3543639439
 10
24.9391045451
 20
-9.139462977
  0
LWPOLYLINE
  5
4C0
100
AcDbEntity
  8
RACCORDO
100
AcDbPolyline
 62
250
  6
CONTINUOUS
 90
3
 70
0
 10
26.6685836278
 20
2.4221420665
 10
26.4169784826
 20
-1.4133607442
 10
26.1966552538
 20
-5.2180546624
  0
LWPOLYLINE
  5
4C1
100
AcDbEntity
  8
ASSI
100
AcDbPolyline
 62
250
  6
CONTINUOUS
 90
3
 70
0
 10
26.6685836278
 20
2.4221420665
 10
26.4169784826
 20
-1.4133607442
 10
26.1966552538
 20
-5.2180546624
  0
LWPOLYLINE
  5
4C2
100
AcDbEntity
  8
RACCORDO
100
AcDbPolyline
 62
250
  6
CONTINUOUS
 90
5
 70
0
 10
30.1532815416
 20
9.2588991052
 10
30.1464640463
 20
9.2181044485
 10
30.1413170065
 20
9.1785626834
 10
30.1378904839
 20
9.1405548969
 10
30.1361344167
 20
9.103800002
  0
LWPOLYLINE
  5
4C3
100
AcDbEntity
  8
RACCORDO
100
AcDbPolyline
 62
250
  6
CONTINUOUS
 90
4
 70
0
 10
30.182904703
 20
9.3837641097
 10
30.17150187
 20
9.3417289358
 10
30.161619307
 20
9.3001033925
 10
30.1532815416
 20
9.2588991052
  0
LWPOLYLINE
  5
4C4
100
AcDbEntity
  8
RACCORDO
100
AcDbPolyline
 62
250
  6
CONTINUOUS
 90
9
 70
0
 10
29.2108611268
 20
8.601314062
 10
29.202089945
 20
8.5707004479
 10
29.1896589396
 20
8.541780625
 10
29.1737808087
 20
8.5150494192
 10
29.1547272315
 20
8.4909642091
 10
29.1328242199
 20
8.4699370992
 10
29.1084465405
 20
8.4523278692
 10
29.0820113022
 20
8.438437818
 10
29.0513852834
 20
8.4278112153
  0
LWPOLYLINE
  5
4C5
100
AcDbEntity
  8
RACCORDO
100
AcDbPolyline
 62
250
  6
CONTINUOUS
 90
9
 70
0
 10
29.5598945014
 20
8.6924989152
 10
29.5511233195
 20
8.6618853012
 10
29.5386923142
 20
8.6329654782
 10
29.5228141833
 20
8.6062342725
 10
29.5037606061
 20
8.5821490624
 10
29.4818575944
 20
8.5611219525
 10
29.4574799151
 20
8.5435127225
 10
29.4310446768
 20
8.5296226712
 10
29.400418658
 20
8.5189960685
  0
LWPOLYLINE
  5
4C6
100
AcDbEntity
  8
RACCORDO
100
AcDbPolyline
 62
250
  6
CONTINUOUS
 90
3
 70
0
 10
30.2095252862
 20
9.4661362264
 10
30.1956040382
 20
9.4253307773
 10
30.182904703
 20
9.3837641097
  0
LWPOLYLINE
  5
4C7
100
AcDbEntity
  8
RACCORDO
100
AcDbPolyline
 62
250
  6
CONTINUOUS
 90
8
 70
0
 10
-29.477750347
 20
26.2452278163
 10
-29.4611473753
 20
26.2463261802
 10
-29.4453694812
 20
26.2491345757
 10
-29.4305800157
 20
26.2536239345
 10
-29.4169320926
 20
26.2597477882
 10
-29.4045670197
 20
26.2674427418
 10
-29.3936128306
 20
26.2766291239
 10
-29.3899556055
 20
26.2806068271
  0
LWPOLYLINE
  5
4C8
100
AcDbEntity
  8
RACCORDO
100
AcDbPolyline
 62
250
  6
CONTINUOUS
 90
4
 70
0
 10
30.3063761618
 20
8.8389537471
 10
30.2831740994
 20
8.8598975713
 10
30.2573228119
 20
8.8791862123
 10
30.2288222992
 20
8.8968196703
  0
LWPOLYLINE
  5
4C9
100
AcDbEntity
  8
RACCORDO
100
AcDbPolyline
 62
250
  6
CONTINUOUS
 90
8
 70
0
 10
28.8746332667
 20
8.5273859469
 10
28.8759716236
 20
8.5057404551
 10
28.8788431201
 20
8.4863347891
 10
28.8832085341
 20
8.4694340737
 10
28.8890192448
 20
8.4552476322
 10
28.8961894575
 20
8.4440008048
 10
28.9045750686
 20
8.4358811629
 10
28.914753689
 20
8.4307233104
  0
LINE
  5
4CA
100
AcDbEntity
  8
RACCORDO
100
AcDbLine
 62
250
  6
CONTINUOUS
 10
29.3442514294
 20
8.4466823599
 11
29.3455790868
 21
8.4251414232
  0
LWPOLYLINE
  5
4CB
100
AcDbEntity
  8
RACCORDO
100
AcDbPolyline
 62
250
  6
CONTINUOUS
 90
13
 70
0
 10
31.0224635675
 20
-26.5641806084
 10
31.0242647277
 20
-26.5973883112
 10
31.0276982301
 20
-26.6276977664
 10
31.0327640747
 20
-26.655108974
 10
31.0395259185
 20
-26.6797628077
 10
31.0479201045
 20
-26.7015183939
 10
31.0577556619
 20
-26.7199531115
 10
31.0690533725
 20
-26.7350137886
 10
31.0817924545
 20
-26.7467535971
 10
31.0957195912
 20
-26.7549094316
 10
31.1107503437
 20
-26.7593935902
 10
31.126969151
 20
-26.7602937748
 10
31.144376013
 20
-26.7576099854
  0
LWPOLYLINE
  5
4CC
100
AcDbEntity
  8
RACCORDO
100
AcDbPolyline
 62
250
  6
CONTINUOUS
 90
13
 70
0
 10
29.6818069469
 20
8.4990695383
 10
29.6800057867
 20
8.532277241
 10
29.6765722843
 20
8.5625866962
 10
29.6715064397
 20
8.5899979039
 10
29.6647445958
 20
8.6146517376
 10
29.6563504098
 20
8.6364073238
 10
29.6465148524
 20
8.6548420413
 10
29.6352171418
 20
8.6699027185
 10
29.6224780598
 20
8.681642527
 10
29.6085509231
 20
8.6897983615
 10
29.5935201706
 20
8.6942825201
 10
29.5773013633
 20
8.6951827047
 10
29.5598945014
 20
8.6924989152
  0
LINE
  5
4CD
100
AcDbEntity
  8
RACCORDO
100
AcDbLine
 62
7
  6
CONTINUOUS
 10
28.2896676088
 20
14.9298458798
 11
28.2696149458
 21
15.7359313813
  0
LINE
  5
4CE
100
AcDbEntity
  8
RACCORDO
100
AcDbLine
 62
250
  6
CONTINUOUS
 10
28.8668088198
 20
8.8419164018
 11
28.8746332667
 21
8.5273859469
  0
LINE
  5
4CF
100
AcDbEntity
  8
RACCORDO
100
AcDbLine
 62
250
  6
CONTINUOUS
 10
29.794455953
 20
-28.4480386283
 11
29.8022804
 21
-28.7625690832
  0
LINE
  5
4D0
100
AcDbEntity
  8
RACCORDO
100
AcDbLine
 62
250
  6
CONTINUOUS
 10
29.2030366798
 20
8.9158445169
 11
29.2108611268
 21
8.601314062
  0
LINE
  5
4D1
100
AcDbEntity
  8
RACCORDO
100
AcDbLine
 62
250
  6
CONTINUOUS
 10
30.1306838131
 20
-28.3741105132
 11
30.13850826
 21
-28.6886409681
  0
LINE
  5
4D2
100
AcDbEntity
  8
RACCORDO
100
AcDbLine
 62
250
  6
CONTINUOUS
 10
29.3455790868
 20
8.4251414232
 11
29.3523030653
 21
8.1548480671
  0
LINE
  5
4D3
100
AcDbEntity
  8
RACCORDO
100
AcDbLine
 62
250
  6
CONTINUOUS
 10
30.2303059545
 20
-27.1394864707
 11
30.2319938493
 21
-27.2073371839
  0
LINE
  5
4D4
100
AcDbEntity
  8
RACCORDO
100
AcDbLine
 62
250
  6
CONTINUOUS
 10
29.6818069469
 20
8.4990695383
 11
29.6886824289
 21
8.2226859775
  0
LINE
  5
4D5
100
AcDbEntity
  8
RACCORDO
100
AcDbLine
 62
250
  6
CONTINUOUS
 10
30.5656837958
 20
-27.0313889393
 11
30.5682217093
 21
-27.1334090688
  0
LINE
  5
4D6
100
AcDbEntity
  8
RACCORDO
100
AcDbLine
 62
7
  6
CONTINUOUS
 10
29.7599498805
 20
7.1405337669
 11
29.7605260478
 21
7.1173727497
  0
LINE
  5
4D7
100
AcDbEntity
  8
RACCORDO
100
AcDbLine
 62
7
  6
CONTINUOUS
 10
30.6061053982
 20
-26.8735865506
 11
30.605529231
 21
-26.8504255334
  0
LINE
  5
4D8
100
AcDbEntity
  8
DRAFT
100
AcDbLine
 62
7
  6
CONTINUOUS
 10
30.9093524103
 20
-26.4216496165
 11
30.8732576492
 21
-24.9706970192
  0
LINE
  5
4D9
100
AcDbEntity
  8
DRAFT
100
AcDbLine
 62
7
  6
CONTINUOUS
 10
30.1035227492
 20
5.9714347225
 11
30.0674279881
 21
7.4223873199
  0
LINE
  5
4DA
100
AcDbEntity
  8
RACCORDO
100
AcDbLine
 62
250
  6
CONTINUOUS
 10
31.0224635675
 20
-26.5641806084
 11
31.0209495397
 21
-26.5033190728
  0
LINE
  5
4DB
100
AcDbEntity
  8
RACCORDO
100
AcDbLine
 62
250
  6
CONTINUOUS
 10
30.1432609617
 20
8.7783806495
 11
30.136048805
 21
9.0682979986
  0
LINE
  5
4DC
100
AcDbEntity
  8
RACCORDO
100
AcDbLine
 62
7
  6
CONTINUOUS
 10
31.0497188522
 20
-26.489584383
 11
31.0491882052
 21
-26.468253206
  0
LINE
  5
4DD
100
AcDbEntity
  8
RACCORDO
100
AcDbLine
 62
7
  6
CONTINUOUS
 10
30.1705871937
 20
8.8501249039
 11
30.1633040897
 21
9.1428942241
  0
LINE
  5
4DE
100
AcDbEntity
  8
RACCORDO
100
AcDbLine
 62
250
  6
CONTINUOUS
 10
30.5657622543
 20
10.6235298979
 11
30.5735867012
 21
10.308999443
  0
LINE
  5
4DF
100
AcDbEntity
  8
RACCORDO
100
AcDbLine
 62
250
  6
CONTINUOUS
 10
31.4934093876
 20
-26.6664251321
 11
31.5012338345
 21
-26.980955587
  0
LINE
  5
4E0
100
AcDbEntity
  8
RACCORDO
100
AcDbLine
 62
7
  6
CONTINUOUS
 10
30.593017539
 20
10.6981261233
 11
30.600841986
 21
10.3835956684
  0
LINE
  5
4E1
100
AcDbEntity
  8
RACCORDO
100
AcDbLine
 62
7
  6
CONTINUOUS
 10
31.5206646723
 20
-26.5918289067
 11
31.5284891192
 21
-26.9063593616
  0
LINE
  5
4E2
100
AcDbEntity
  8
RACCORDO
100
AcDbLine
 62
7
  6
CONTINUOUS
 10
32.0144610351
 20
-25.1396225231
 11
31.1703255649
 21
8.7932950643
  0
LINE
  5
4E3
100
AcDbEntity
  8
RACCORDO
100
AcDbLine
 62
250
  6
CONTINUOUS
 10
31.5284891192
 20
-26.9063593616
 11
31.5284906171
 21
-26.9064203221
  0
LWPOLYLINE
  5
4E4
100
AcDbEntity
  8
RACCORDO
100
AcDbPolyline
 62
7
  6
CONTINUOUS
 90
11
 70
0
 10
30.1633040897
 20
9.1428942241
 10
30.1632678073
 20
9.1626146184
 10
30.1642036707
 20
9.1855809255
 10
30.1663149551
 20
9.2116801904
 10
30.1698079687
 20
9.2409234443
 10
30.1748208074
 20
9.2728599768
 10
30.1813396568
 20
9.3065447215
 10
30.1893643524
 20
9.3415281822
 10
30.1988734627
 20
9.3773935825
 10
30.2096458267
 20
9.4131677684
 10
30.2214799518
 20
9.4482193075
  0
LINE
  5
4E5
100
AcDbEntity
  8
RACCORDO
100
AcDbLine
 62
250
  6
CONTINUOUS
 10
30.1361344167
 20
9.103800002
 11
30.136048805
 21
9.0682979986
  0
LWPOLYLINE
  5
4E6
100
AcDbEntity
  8
RACCORDO
100
AcDbPolyline
 62
250
  6
CONTINUOUS
 90
10
 70
0
 10
30.2319938493
 20
-27.2073371839
 10
30.2317857962
 20
-27.2308025802
 10
30.2300448462
 20
-27.2558751069
 10
30.2267945427
 20
-27.2822157011
 10
30.2220788404
 20
-27.3094681513
 10
30.2159615111
 20
-27.3372639151
 10
30.2085252813
 20
-27.3652271023
 10
30.199870713
 20
-27.3929795588
 10
30.1901148446
 20
-27.4201459803
 10
30.1793896075
 20
-27.4463589874
  0
LINE
  5
4E7
100
AcDbEntity
  8
RACCORDO
100
AcDbLine
 62
250
  6
CONTINUOUS
 10
30.170303269
 20
8.8401964013
 11
30.1705871937
 21
8.8501249039
  0
LINE
  5
4E8
100
AcDbEntity
  8
RACCORDO
100
AcDbLine
 62
7
  6
CONTINUOUS
 10
28.4843781833
 20
-28.5458545111
 11
29.6644446912
 21
6.0905072908
  0
LINE
  5
4E9
100
AcDbEntity
  8
ASSI
100
AcDbLine
 62
7
  6
CONTINUOUS
 10
28.4843781833
 20
-28.5458545111
 11
29.6644446912
 21
6.0905072908
  0
LINE
  5
4EA
100
AcDbEntity
  8
DRAFT
100
AcDbLine
 62
7
  6
CONTINUOUS
 10
29.337408243
 20
-10.8825439893
 11
30.1035227492
 21
5.9714347225
  0
LWPOLYLINE
  5
4EB
100
AcDbEntity
  8
RACCORDO
100
AcDbPolyline
 62
250
  6
CONTINUOUS
 90
5
 70
0
 10
30.593017539
 20
10.6981261233
 10
30.5922704164
 20
10.6831935146
 10
30.5875666578
 20
10.6626916475
 10
30.5786799189
 20
10.6426896956
 10
30.5657622543
 20
10.6235298979
  0
LWPOLYLINE
  5
4EC
100
AcDbEntity
  8
RACCORDO
100
AcDbPolyline
 62
250
  6
CONTINUOUS
 90
5
 70
0
 10
30.600841986
 20
10.3835956684
 10
30.6000948633
 20
10.3686630597
 10
30.5953911047
 20
10.3481611926
 10
30.5865043658
 20
10.3281592407
 10
30.5735867012
 20
10.308999443
  0
LWPOLYLINE
  5
4ED
100
AcDbEntity
  8
RACCORDO
100
AcDbPolyline
 62
250
  6
CONTINUOUS
 90
6
 70
0
 10
25.8346221084
 20
-31.1784804661
 10
25.824774913
 20
-31.264128897
 10
25.8030193951
 20
-31.3444546657
 10
25.7697276535
 20
-31.4180839083
 10
25.7254690985
 20
-31.4837572957
 10
25.692378475
 20
-31.5204454541
  0
LWPOLYLINE
  5
4EE
100
AcDbEntity
  8
ASSI
100
AcDbPolyline
 62
250
  6
CONTINUOUS
 90
6
 70
0
 10
25.8346221084
 20
-31.1784804661
 10
25.824774913
 20
-31.264128897
 10
25.8030193951
 20
-31.3444546657
 10
25.7697276535
 20
-31.4180839083
 10
25.7254690985
 20
-31.4837572957
 10
25.692378475
 20
-31.5204454541
  0
LINE
  5
4EF
100
AcDbEntity
  8
RACCORDO
100
AcDbLine
 62
7
  6
CONTINUOUS
 10
32.1561179237
 20
-15.6049178797
 11
31.7829868593
 21
-15.8347248976
  0
LWPOLYLINE
  5
4F0
100
AcDbEntity
  8
RACCORDO
100
AcDbPolyline
 62
7
  6
CONTINUOUS
 90
22
 70
0
 10
32.1562050149
 20
-15.6050158648
 10
32.1655895642
 20
-15.5995849792
 10
32.2033247519
 20
-15.5822854216
 10
32.2435895698
 20
-15.5703431071
 10
32.2861969831
 20
-15.5639805997
 10
32.3313340267
 20
-15.5629753354
 10
32.3777144969
 20
-15.5672698811
 10
32.4256564211
 20
-15.5770744158
 10
32.474841772
 20
-15.5921787605
 10
32.5230302643
 20
-15.6118949454
 10
32.5699095119
 20
-15.6362395556
 10
32.6157919009
 20
-15.6651960059
 10
32.6593743044
 20
-15.698026571
 10
32.7008577955
 20
-15.7350729992
 10
32.7400413011
 20
-15.7759935423
 10
32.775018475
 20
-15.8190252305
 10
32.8055060145
 20
-15.8640729234
 10
32.8317872224
 20
-15.9112317614
 10
32.8528056613
 20
-15.9590241964
 10
32.8682091855
 20
-16.0069577121
 10
32.8783499407
 20
-16.0555248246
 10
32.883227927
 20
-16.104725534
  0
LWPOLYLINE
  5
4F1
100
AcDbEntity
  8
RACCORDO
100
AcDbPolyline
 62
250
  6
CONTINUOUS
 90
7
 70
0
 10
30.4753842945
 20
10.8035222529
 10
30.4977572675
 20
10.7799020042
 10
30.5174945493
 20
10.7547022335
 10
30.5342011226
 20
10.7284108097
 10
30.5475057275
 20
10.7016723768
 10
30.5572322819
 20
10.6750159734
 10
30.5633260483
 20
10.6488271733
  0
LWPOLYLINE
  5
4F2
100
AcDbEntity
  8
RACCORDO
100
AcDbPolyline
 62
7
  6
CONTINUOUS
 90
6
 70
0
 10
30.1700521044
 20
8.8459844827
 10
30.1713141924
 20
8.8440296544
 10
30.1717686139
 20
8.8432021317
 10
30.171221063
 20
8.8449977671
 10
30.1706362996
 20
8.8488278032
 10
30.1705686114
 20
8.850369265
  0
LWPOLYLINE
  5
4F3
100
AcDbEntity
  8
RACCORDO
100
AcDbPolyline
 62
250
  6
CONTINUOUS
 90
5
 70
0
 10
29.3291985334
 20
8.5003898346
 10
29.3313358421
 20
8.4969987264
 10
29.3370813253
 20
8.482855602
 10
29.3414060158
 20
8.4660075328
 10
29.3442514294
 20
8.4466823599
  0
LWPOLYLINE
  5
4F4
100
AcDbEntity
  8
RACCORDO
100
AcDbPolyline
 62
250
  6
CONTINUOUS
 90
4
 70
0
 10
30.2412572886
 20
9.5463416057
 10
30.2473087218
 20
9.5343027975
 10
30.2494467124
 20
9.5236399603
 10
30.2477761211
 20
9.5148523282
  0
LINE
  5
4F5
100
AcDbEntity
  8
RACCORDO
100
AcDbLine
 62
250
  6
CONTINUOUS
 10
30.5633260483
 20
10.6488271733
 11
30.5657622543
 21
10.6235298979
  0
LINE
  5
4F6
100
AcDbEntity
  8
RACCORDO
100
AcDbLine
 62
7
  6
CONTINUOUS
 10
32.1495260175
 20
13.3889366923
 11
32.1501175444
 21
13.3651582406
  0
LINE
  5
4F7
100
AcDbEntity
  8
RACCORDO
100
AcDbLine
 62
7
  6
CONTINUOUS
 10
32.883227927
 20
-16.104725534
 11
32.9197934785
 21
-17.574603165
  0
LINE
  5
4F8
100
AcDbEntity
  8
RACCORDO
100
AcDbLine
 62
7
  6
CONTINUOUS
 10
33.0315415228
 20
14.8034225042
 11
33.0378158758
 21
14.5512033873
  0
LINE
  5
4F9
100
AcDbEntity
  8
RACCORDO
100
AcDbLine
 62
7
  6
CONTINUOUS
 10
33.8440573614
 20
-17.8584356492
 11
33.8503317144
 21
-18.110654766
  0
LWPOLYLINE
  5
4FA
100
AcDbEntity
  8
RACCORDO
100
AcDbPolyline
 62
250
  6
CONTINUOUS
 90
7
 70
0
 10
30.9495242385
 20
-26.4845489589
 10
30.9487867477
 20
-26.5225273825
 10
30.9434853969
 20
-26.5586444556
 10
30.9336751033
 20
-26.5925260381
 10
30.9194574926
 20
-26.6238211475
 10
30.9009798464
 20
-26.652205595
 10
30.8978513607
 20
-26.6561944645
  0
LWPOLYLINE
  5
4FB
100
AcDbEntity
  8
RACCORDO
100
AcDbPolyline
 62
250
  6
CONTINUOUS
 90
6
 70
0
 10
31.4188122917
 20
-25.9018890755
 10
31.4179954611
 20
-25.9406850831
 10
31.4124164363
 20
-25.9775296803
 10
31.4021355328
 20
-26.0120245338
 10
31.3872638989
 20
-26.0437967137
 10
31.3670011619
 20
-26.0737068309
  0
LWPOLYLINE
  5
4FC
100
AcDbEntity
  8
RACCORDO
100
AcDbPolyline
 62
250
  6
CONTINUOUS
 90
6
 70
0
 10
30.7599375931
 20
-26.6841949537
 10
30.7589547175
 20
-26.723429151
 10
30.7531455582
 20
-26.7606798917
 10
30.7425738377
 20
-26.7955389025
 10
30.7273554794
 20
-26.8276241303
 10
30.7067438704
 20
-26.8577161193
  0
LWPOLYLINE
  5
4FD
100
AcDbEntity
  8
RACCORDO
100
AcDbPolyline
 62
250
  6
CONTINUOUS
 90
6
 70
0
 10
31.5980833403
 20
-25.6522698745
 10
31.5971004505
 20
-25.6915017511
 10
31.5912920034
 20
-25.7287506819
 10
31.5807216464
 20
-25.7636084594
 10
31.5655052138
 20
-25.7956930812
 10
31.5448869541
 20
-25.8257963975
  0
LINE
  5
4FE
100
AcDbEntity
  8
RACCORDO
100
AcDbLine
 62
250
  6
CONTINUOUS
 10
31.0489717296
 20
-26.5045169917
 11
31.0497188522
 21
-26.489584383
  0
LWPOLYLINE
  5
4FF
100
AcDbEntity
  8
RACCORDO
100
AcDbPolyline
 62
250
  6
CONTINUOUS
 90
5
 70
0
 10
31.5206646723
 20
-26.5918289067
 10
31.5199175497
 20
-26.6067615154
 10
31.515213791
 20
-26.6272633826
 10
31.5063270521
 20
-26.6472653345
 10
31.4934093876
 20
-26.6664251321
  0
LWPOLYLINE
  5
500
100
AcDbEntity
  8
RACCORDO
100
AcDbPolyline
 62
250
  6
CONTINUOUS
 90
5
 70
0
 10
30.13850826
 20
-28.6886409681
 10
30.1372327093
 20
-28.7133568541
 10
30.1321690827
 20
-28.7364798608
 10
30.1234040204
 20
-28.7576143471
 10
30.1112489737
 20
-28.776196797
  0
LWPOLYLINE
  5
501
100
AcDbEntity
  8
RACCORDO
100
AcDbPolyline
 62
250
  6
CONTINUOUS
 90
5
 70
0
 10
31.5012338345
 20
-26.980955587
 10
31.4999582838
 20
-27.0056714731
 10
31.4948946572
 20
-27.0287944798
 10
31.4861295948
 20
-27.0499289661
 10
31.4739745481
 20
-27.068511416
  0
LWPOLYLINE
  5
502
100
AcDbEntity
  8
RACCORDO
100
AcDbPolyline
 62
7
  6
CONTINUOUS
 90
5
 70
0
 10
32.1501175444
 20
13.3651582406
 10
32.1476311915
 20
13.3182190484
 10
32.1397692762
 20
13.2751803815
 10
32.1265317984
 20
13.2360422401
 10
32.1192015956
 20
13.2205258268
  0
LWPOLYLINE
  5
503
100
AcDbEntity
  8
RACCORDO
100
AcDbPolyline
 62
250
  6
CONTINUOUS
 90
5
 70
0
 10
31.5284906171
 20
-26.9064203221
 10
31.5276183221
 20
-26.9222447927
 10
31.5227779282
 20
-26.9425603826
 10
31.5139059521
 20
-26.9622347791
 10
31.5012338345
 20
-26.980955587
  0
LINE
  5
504
100
AcDbEntity
  8
RACCORDO
100
AcDbLine
 62
250
  6
CONTINUOUS
 10
31.8072168857
 20
-16.8087338324
 11
32.883227927
 21
-16.104725534
  0
LINE
  5
505
100
AcDbEntity
  8
RACCORDO
100
AcDbLine
 62
250
  6
CONTINUOUS
 10
-27.8622691374
 20
25.9055181081
 11
-27.862401014
 21
25.9054836089
  0
LINE
  5
506
100
AcDbEntity
  8
RACCORDO
100
AcDbLine
 62
7
  6
CONTINUOUS
 10
-27.862401014
 20
25.9054836089
 11
-27.5133676394
 21
25.9966684621
  0
LINE
  5
507
100
AcDbEntity
  8
RACCORDO
100
AcDbLine
 62
250
  6
CONTINUOUS
 10
-27.7029251706
 20
26.0789864556
 11
-27.353891796
 21
26.1701713088
  0
LWPOLYLINE
  5
508
100
AcDbEntity
  8
RACCORDO
100
AcDbPolyline
 62
250
  6
CONTINUOUS
 90
4
 70
0
 10
30.5735867012
 20
10.308999443
 10
30.5796084255
 20
10.2970427435
 10
30.5817738388
 20
10.2864187403
 10
30.5801055338
 20
10.2775101654
  0
LWPOLYLINE
  5
509
100
AcDbEntity
  8
RACCORDO
100
AcDbPolyline
 62
250
  6
CONTINUOUS
 90
5
 70
0
 10
30.3141840422
 20
8.7965210216
 10
30.3108147448
 20
8.8139448779
 10
30.3092639205
 20
8.8223960375
 10
30.3077797561
 20
8.8307210604
 10
30.3063768273
 20
8.838952868
  0
LWPOLYLINE
  5
50A
100
AcDbEntity
  8
RACCORDO
100
AcDbPolyline
 62
250
  6
CONTINUOUS
 90
11
 70
0
 10
31.144376013
 20
-26.7576099854
 10
31.1493372939
 20
-26.7258263877
 10
31.1504037851
 20
-26.6934166325
 10
31.1475572385
 20
-26.6609352597
 10
31.1408463595
 20
-26.6289380347
 10
31.1303859729
 20
-26.5979724387
 10
31.1163550589
 20
-26.5685683018
 10
31.0989936903
 20
-26.5412287369
 10
31.078598925
 20
-26.5164215315
 10
31.055519723
 20
-26.4945711437
 10
31.0497551541
 20
-26.4903628906
  0
LWPOLYLINE
  5
50B
100
AcDbEntity
  8
RACCORDO
100
AcDbPolyline
 62
250
  6
CONTINUOUS
 90
5
 70
0
 10
31.4934093876
 20
-26.6664251321
 10
31.498348775
 20
-26.6348735953
 10
31.4994477491
 20
-26.602628419
 10
31.4966617812
 20
-26.5702335058
 10
31.4900060385
 20
-26.5382179117
  0
LINE
  5
50C
100
AcDbEntity
  8
DRAFT
100
AcDbLine
 62
7
  6
CONTINUOUS
 10
31.860022353
 20
-18.9314305259
 11
32.9197934785
 21
-17.574603165
  0
LWPOLYLINE
  5
50D
100
AcDbEntity
  8
RACCORDO
100
AcDbPolyline
 62
250
  6
CONTINUOUS
 90
10
 70
0
 10
29.8470601948
 20
-28.2090168247
 10
29.8362825554
 20
-28.2353664522
 10
29.8264849004
 20
-28.2626774239
 10
29.817801087
 20
-28.2905766307
 10
29.8103382276
 20
-28.3187305446
 10
29.8042143375
 20
-28.3467063119
 10
29.7995335333
 20
-28.373983263
 10
29.7963415289
 20
-28.4001587134
 10
29.7946492102
 20
-28.4249460119
 10
29.794455953
 20
-28.4480386283
  0
LWPOLYLINE
  5
50E
100
AcDbEntity
  8
RACCORDO
100
AcDbPolyline
 62
250
  6
CONTINUOUS
 90
13
 70
0
 10
30.4630132258
 20
-27.6114526759
 10
30.479527478
 20
-27.5715842394
 10
30.4947452281
 20
-27.5312472966
 10
30.5086664761
 20
-27.4904418475
 10
30.5213658113
 20
-27.4488751798
 10
30.5327686443
 20
-27.4068400059
 10
30.5426512073
 20
-27.3652144626
 10
30.5509889727
 20
-27.3240101753
 10
30.557806468
 20
-27.2832155187
 10
30.5629535078
 20
-27.2436737536
 10
30.5663800305
 20
-27.2056659671
 10
30.5681360976
 20
-27.1689110721
 10
30.5682217093
 20
-27.1334090688
  0
LINE
  5
50F
100
AcDbEntity
  8
RACCORDO
100
AcDbLine
 62
250
  6
CONTINUOUS
 10
30.1793896075
 20
-27.4463589874
 11
29.8470601948
 21
-28.2090168247
  0
LINE
  5
510
100
AcDbEntity
  8
RACCORDO
100
AcDbLine
 62
250
  6
CONTINUOUS
 10
30.4630132258
 20
-27.6114526759
 11
30.1306838131
 21
-28.3741105132
  0
LWPOLYLINE
  5
511
100
AcDbEntity
  8
RACCORDO
100
AcDbPolyline
 62
250
  6
CONTINUOUS
 90
4
 70
0
 10
31.0224635675
 20
-26.5641806084
 10
31.0353812321
 20
-26.5450208108
 10
31.044267971
 20
-26.5250188589
 10
31.0489717296
 20
-26.5045169917
  0
LWPOLYLINE
  5
512
100
AcDbEntity
  8
RACCORDO
100
AcDbPolyline
 62
250
  6
CONTINUOUS
 90
10
 70
0
 10
31.4831589284
 20
-25.8129246302
 10
31.5138139964
 20
-25.7676108674
 10
31.5225305629
 20
-25.7548111534
 10
31.5317531635
 20
-25.7414797066
 10
31.541499624
 20
-25.7275655095
 10
31.5517521188
 20
-25.7131195797
 10
31.562534366
 20
-25.6983465845
 10
31.5738542717
 20
-25.6833147465
 10
31.5857039298
 20
-25.6679558432
 10
31.5980833403
 20
-25.6522698745
  0
LWPOLYLINE
  5
513
100
AcDbEntity
  8
RACCORDO
100
AcDbPolyline
 62
7
  6
CONTINUOUS
 90
5
 70
0
 10
31.4939654461
 20
-25.8953617398
 10
31.5096636251
 20
-25.8727967122
 10
31.5242239274
 20
-25.8526105014
 10
31.5371954897
 20
-25.8354786413
 10
31.5448098464
 20
-25.8258997475
  0
LINE
  5
514
100
AcDbEntity
  8
DRAFT
100
AcDbLine
 62
7
  6
CONTINUOUS
 10
30.605529231
 20
-26.8504255334
 11
30.9093524103
 21
-26.4216496165
  0
LINE
  5
515
100
AcDbEntity
  8
DRAFT
100
AcDbLine
 62
7
  6
CONTINUOUS
 10
31.8967145933
 20
-20.4064008455
 11
33.8440573614
 21
-17.8584356492
  0
LINE
  5
516
100
AcDbEntity
  8
RACCORDO
100
AcDbLine
 62
7
  6
CONTINUOUS
 10
31.9082308968
 20
-20.8693381238
 11
33.8295999208
 21
-18.4165146292
  0
LINE
  5
517
100
AcDbEntity
  8
RACCORDO
100
AcDbLine
 62
250
  6
CONTINUOUS
 10
25.8346221084
 20
-31.1784804661
 11
28.4843781833
 21
-28.5458545111
  0
LINE
  5
518
100
AcDbEntity
  8
ASSI
100
AcDbLine
 62
250
  6
CONTINUOUS
 10
25.8346221084
 20
-31.1784804661
 11
28.4843781833
 21
-28.5458545111
  0
LINE
  5
519
100
AcDbEntity
  8
RACCORDO
100
AcDbLine
 62
7
  6
CONTINUOUS
 10
25.692378475
 20
-31.5204454541
 11
28.3446957193
 21
-28.8852748871
  0
LINE
  5
51A
100
AcDbEntity
  8
ASSI
100
AcDbLine
 62
7
  6
CONTINUOUS
 10
25.692378475
 20
-31.5204454541
 11
28.3446957193
 21
-28.8852748871
  0
LWPOLYLINE
  5
51B
100
AcDbEntity
  8
RACCORDO
100
AcDbPolyline
 62
250
  6
CONTINUOUS
 90
11
 70
0
 10
30.8959764225
 20
-26.5431340337
 10
30.9025167271
 20
-26.5366600682
 10
30.9087263321
 20
-26.530374021
 10
30.9145979735
 20
-26.5243003766
 10
30.9202205019
 20
-26.5183500342
 10
30.9255998811
 20
-26.5125129425
 10
30.9307301473
 20
-26.5067991528
 10
30.9356822601
 20
-26.5011497178
 10
30.9404798725
 20
-26.4955449885
 10
30.9450993315
 20
-26.4900046139
 10
31.4231220668
 20
-25.8965050879
  0
LWPOLYLINE
  5
51C
100
AcDbEntity
  8
RACCORDO
100
AcDbPolyline
 62
250
  6
CONTINUOUS
 90
13
 70
0
 10
25.5310516893
 20
-30.9657792903
 10
25.4765980349
 20
-31.0191302336
 10
25.4112409618
 20
-31.0678140972
 10
25.3360740707
 20
-31.1110162683
 10
25.2523551074
 20
-31.1480138576
 10
25.1614849172
 20
-31.1781877953
 10
25.0649840043
 20
-31.2010331894
 10
24.9644670906
 20
-31.2161677747
 10
24.8616160963
 20
-31.223338308
 10
24.7581519973
 20
-31.2224248063
 10
24.6558060283
 20
-31.2134425544
 10
24.5562907148
 20
-31.1965418495
 10
24.4612712176
 20
-31.1720054857
  0
LWPOLYLINE
  5
51D
100
AcDbEntity
  8
ASSI
100
AcDbPolyline
 62
250
  6
CONTINUOUS
 90
8
 70
0
 10
25.5310516893
 20
-30.9657792903
 10
25.4765980349
 20
-31.0191302336
 10
25.4112409618
 20
-31.0678140972
 10
25.3360740707
 20
-31.1110162683
 10
25.2523551074
 20
-31.1480138576
 10
25.1614849172
 20
-31.1781877953
 10
25.0649840043
 20
-31.2010331894
 10
24.9644670906
 20
-31.2161677747
  0
LINE
  5
51E
100
AcDbEntity
  8
RACCORDO
100
AcDbLine
 62
250
  6
CONTINUOUS
 10
30.8817712807
 20
-26.5568817267
 11
30.8959764225
 21
-26.5431340337
  0
LWPOLYLINE
  5
51F
100
AcDbEntity
  8
RACCORDO
100
AcDbPolyline
 62
250
  6
CONTINUOUS
 90
4
 70
0
 10
30.8378206977
 20
-26.598988759
 10
30.8569883837
 20
-26.5804779919
 10
30.8657430013
 20
-26.5721069528
 10
30.8817712807
 20
-26.5568817267
  0
LWPOLYLINE
  5
520
100
AcDbEntity
  8
RACCORDO
100
AcDbPolyline
 62
7
  6
CONTINUOUS
 90
8
 70
0
 10
30.7543406204
 20
-26.8067694025
 10
30.7859429107
 20
-26.7766424247
 10
30.8050118677
 20
-26.7581673114
 10
30.8257122124
 20
-26.7374248279
 10
30.847282508
 20
-26.7147642987
 10
30.8706610201
 20
-26.6886967682
 10
30.8953143371
 20
-26.659341193
 10
31.3668551313
 20
-26.0738888137
  0
LINE
  5
521
100
AcDbEntity
  8
ASSI
100
AcDbLine
 62
250
  6
CONTINUOUS
 10
25.8018409911
 20
-31.2080935212
 11
25.8346221084
 21
-31.1784804661
  0
LINE
  5
522
100
AcDbEntity
  8
ASSI
100
AcDbLine
 62
7
  6
CONTINUOUS
 10
25.5370911983
 20
-31.6515333501
 11
25.689348958
 21
-31.5233898099
  0
LWPOLYLINE
  5
523
100
AcDbEntity
  8
RACCORDO
100
AcDbPolyline
 62
7
  6
CONTINUOUS
 90
3
 70
0
 10
25.4956759953
 20
-31.679438382
 10
25.6001084754
 20
-31.6036150517
 10
25.689594605
 20
-31.5231501409
  0
LINE
  5
524
100
AcDbEntity
  8
ASSI
100
AcDbLine
 62
7
  6
CONTINUOUS
 10
25.3719938219
 20
-31.7475437287
 11
25.5370911983
 21
-31.6515333501
  0
LWPOLYLINE
  5
525
100
AcDbEntity
  8
RACCORDO
100
AcDbPolyline
 62
250
  6
CONTINUOUS
 90
4
 70
0
 10
30.0792474022
 20
-28.7372557476
 10
30.0531373137
 20
-28.7501030839
 10
30.0244685201
 20
-28.7607906381
 10
29.9939122461
 20
-28.769035768
  0
LWPOLYLINE
  5
526
100
AcDbEntity
  8
RACCORDO
100
AcDbPolyline
 62
7
  6
CONTINUOUS
 90
3
 70
0
 10
25.2767997282
 20
-31.7859443342
 10
25.3878184017
 20
-31.7400236489
 10
25.4956759953
 20
-31.679438382
  0
LINE
  5
527
100
AcDbEntity
  8
ASSI
100
AcDbLine
 62
7
  6
CONTINUOUS
 10
25.1922153743
 20
-31.8107622899
 11
25.3719938219
 21
-31.7475437287
  0
LWPOLYLINE
  5
528
100
AcDbEntity
  8
RACCORDO
100
AcDbPolyline
 62
250
  6
CONTINUOUS
 90
11
 70
0
 10
31.4231220668
 20
-25.8965050879
 10
31.4276148486
 20
-25.8907705711
 10
31.4322645097
 20
-25.8847188737
 10
31.4370531695
 20
-25.8783784981
 10
31.4419987085
 20
-25.8717209421
 10
31.4471547677
 20
-25.8646606991
 10
31.4525192421
 20
-25.8571969403
 10
31.4580942366
 20
-25.8493304946
 10
31.463939707
 20
-25.8409783427
 10
31.4700491999
 20
-25.8321377124
 10
31.4831589284
 20
-25.8129246302
  0
LWPOLYLINE
  5
529
100
AcDbEntity
  8
RACCORDO
100
AcDbPolyline
 62
7
  6
CONTINUOUS
 90
6
 70
0
 10
31.3670011619
 20
-26.0737068309
 10
31.3782455514
 20
-26.059541531
 10
31.4003775503
 20
-26.0304680681
 10
31.4211900071
 20
-26.0017491996
 10
31.4408368393
 20
-25.9736012151
 10
31.4939654461
 20
-25.8953617398
  0
LINE
  5
52A
100
AcDbEntity
  8
RACCORDO
100
AcDbLine
 62
250
  6
CONTINUOUS
 10
30.13850826
 20
-28.6886409681
 11
31.5012338345
 21
-26.980955587
  0
LINE
  5
52B
100
AcDbEntity
  8
RACCORDO
100
AcDbLine
 62
7
  6
CONTINUOUS
 10
30.1112489737
 20
-28.776196797
 11
31.4739745481
 21
-27.068511416
  0
LINE
  5
52C
100
AcDbEntity
  8
RACCORDO
100
AcDbLine
 62
250
  6
CONTINUOUS
 10
31.5980833403
 20
-25.6522698745
 11
32.0144610351
 21
-25.1396225231
  0
LINE
  5
52D
100
AcDbEntity
  8
RACCORDO
100
AcDbLine
 62
250
  6
CONTINUOUS
 10
30.6061053982
 20
-26.8735865506
 11
30.7599375932
 21
-26.6841949537
  0
LINE
  5
52E
100
AcDbEntity
  8
RACCORDO
100
AcDbLine
 62
7
  6
CONTINUOUS
 10
31.5448869541
 20
-25.8257963975
 11
31.9586470004
 21
-25.3163760369
  0
LWPOLYLINE
  5
52F
100
AcDbEntity
  8
RACCORDO
100
AcDbPolyline
 62
7
  6
CONTINUOUS
 90
6
 70
0
 10
30.5502913636
 20
-27.0503400644
 10
30.7085966145
 20
-26.855455213
 10
30.7205679458
 20
-26.8414685354
 10
30.7313741579
 20
-26.8297380513
 10
30.7417563254
 20
-26.8191083864
 10
30.7543406204
 20
-26.8067694025
  0
LWPOLYLINE
  5
530
100
AcDbEntity
  8
RACCORDO
100
AcDbPolyline
 62
250
  6
CONTINUOUS
 90
8
 70
0
 10
30.7599375932
 20
-26.6841949537
 10
30.7715485201
 20
-26.6702491831
 10
30.7830232307
 20
-26.6568829098
 10
30.794361725
 20
-26.6440961337
 10
30.8056582166
 20
-26.6318542965
 10
30.8168184919
 20
-26.6201919565
 10
30.8275599103
 20
-26.6092127886
 10
30.8378206977
 20
-26.598988759
  0
LWPOLYLINE
  5
531
100
AcDbEntity
  8
RACCORDO
100
AcDbPolyline
 62
250
  6
CONTINUOUS
 90
4
 70
0
 10
30.13850826
 20
-28.6886409681
 10
30.122194531
 20
-28.7062434724
 10
30.1023542074
 20
-28.7225495956
 10
30.0792474022
 20
-28.7372557476
  0
LWPOLYLINE
  5
532
100
AcDbEntity
  8
RACCORDO
100
AcDbPolyline
 62
250
  6
CONTINUOUS
 90
13
 70
0
 10
30.5682217093
 20
-27.1334090688
 10
30.5514941439
 20
-27.1513988828
 10
30.5312428908
 20
-27.1679109025
 10
30.5078144547
 20
-27.1826626026
 10
30.4816097027
 20
-27.1954015774
 10
30.4530770052
 20
-27.2059098596
 10
30.4227045646
 20
-27.2140076495
 10
30.3910120618
 20
-27.2195563916
 10
30.3585417644
 20
-27.2224611456
 10
30.3258492481
 20
-27.2226722102
 10
30.293493891
 20
-27.220185974
 10
30.2620293021
 20
-27.2150449773
 10
30.2319938493
 20
-27.2073371839
  0
LWPOLYLINE
  5
533
100
AcDbEntity
  8
RACCORDO
100
AcDbPolyline
 62
250
  6
CONTINUOUS
 90
13
 70
0
 10
30.1306838131
 20
-28.3741105132
 10
30.1139562476
 20
-28.3921003272
 10
30.0937049946
 20
-28.4086123469
 10
30.0702765585
 20
-28.423364047
 10
30.0440718064
 20
-28.4361030218
 10
30.0155391089
 20
-28.446611304
 10
29.9851666684
 20
-28.4547090938
 10
29.9534741656
 20
-28.460257836
 10
29.9210038682
 20
-28.46316259
 10
29.8883113519
 20
-28.4633736546
 10
29.8559559947
 20
-28.4608874184
 10
29.8244914058
 20
-28.4557464217
 10
29.794455953
 20
-28.4480386283
  0
ARC
  5
534
100
AcDbEntity
  8
RACCORDO
100
AcDbCircle
 62
7
  6
CONTINUOUS
 10
-26.5628669916
 20
27.8550508366
 40
0.25
100
AcDbArc
 50
336.454755815
 51
1.4349128174
  0
ARC
  5
535
100
AcDbEntity
  8
RACCORDO
100
AcDbCircle
 62
7
  6
CONTINUOUS
 10
-28.2629636446
 20
28.6892616913
 40
0.25
100
AcDbArc
 50
72.9287850948
 51
141.4139821332
  0
ARC
  5
536
100
AcDbEntity
  8
RACCORDO
100
AcDbCircle
 62
7
  6
CONTINUOUS
 10
-26.5706914386
 20
28.1695812915
 40
0.25
100
AcDbArc
 50
1.4250300306
 51
72.9287939504
  0
ARC
  5
537
100
AcDbEntity
  8
RACCORDO
100
AcDbCircle
 62
7
  6
CONTINUOUS
 10
-27.9255925661
 20
26.1473654556
 40
0.25
100
AcDbArc
 50
252.9842040018
 51
284.672503711
  0
ARC
  5
538
100
AcDbEntity
  8
RACCORDO
100
AcDbCircle
 62
7
  6
CONTINUOUS
 10
-29.6256892191
 20
26.9815763103
 40
0.25
100
AcDbArc
 50
141.4102837079
 51
181.4110546893
  0
ARC
  5
539
100
AcDbEntity
  8
RACCORDO
100
AcDbCircle
 62
7
  6
CONTINUOUS
 10
-29.6178647721
 20
26.6670458554
 40
0.25
100
AcDbArc
 50
181.4702106311
 51
252.9395963501
  0
ARC
  5
53A
100
AcDbEntity
  8
RACCORDO
100
AcDbCircle
 62
7
  6
CONTINUOUS
 10
-9.7370363366
 20
23.0001288934
 40
0.25
100
AcDbArc
 50
1.4250300306
 51
72.9287939504
  0
ARC
  5
53B
100
AcDbEntity
  8
RACCORDO
100
AcDbCircle
 62
7
  6
CONTINUOUS
 10
-9.7292118896
 20
22.6855984385
 40
0.25
100
AcDbArc
 50
336.4374981299
 51
1.4250300306
  0
ARC
  5
53C
100
AcDbEntity
  8
RACCORDO
100
AcDbCircle
 62
7
  6
CONTINUOUS
 10
-11.4293085426
 20
23.5198092932
 40
0.25
100
AcDbArc
 50
72.9132973233
 51
141.4102837079
  0
ARC
  5
53D
100
AcDbEntity
  8
RACCORDO
100
AcDbCircle
 62
7
  6
CONTINUOUS
 10
-12.792034117
 20
21.8121239122
 40
0.25
100
AcDbArc
 50
141.4160147221
 51
181.4312187747
  0
ARC
  5
53E
100
AcDbEntity
  8
RACCORDO
100
AcDbCircle
 62
7
  6
CONTINUOUS
 10
-12.7842096701
 20
21.4975934573
 40
0.25
100
AcDbArc
 50
181.4250300306
 51
252.9890759327
  0
ARC
  5
53F
100
AcDbEntity
  8
RACCORDO
100
AcDbCircle
 62
7
  6
CONTINUOUS
 10
-11.0919374641
 20
20.9779130574
 40
0.25
100
AcDbArc
 50
252.9167908959
 51
284.6412627379
  0
ARC
  5
540
100
AcDbEntity
  8
RACCORDO
100
AcDbCircle
 62
7
  6
CONTINUOUS
 10
13.5172642037
 20
15.5468308411
 40
0.25
100
AcDbArc
 50
336.454755815
 51
1.4349128174
  0
ARC
  5
541
100
AcDbEntity
  8
RACCORDO
100
AcDbCircle
 62
7
  6
CONTINUOUS
 10
11.8171675507
 20
16.3810416958
 40
0.25
100
AcDbArc
 50
72.9287850948
 51
141.4139821332
  0
ARC
  5
542
100
AcDbEntity
  8
RACCORDO
100
AcDbCircle
 62
7
  6
CONTINUOUS
 10
13.5094397567
 20
15.861361296
 40
0.25
100
AcDbArc
 50
1.4250300306
 51
72.9287939504
  0
ARC
  5
543
100
AcDbEntity
  8
RACCORDO
100
AcDbCircle
 62
7
  6
CONTINUOUS
 10
12.1545386292
 20
13.8391454601
 40
0.25
100
AcDbArc
 50
252.9842040018
 51
284.672503711
  0
ARC
  5
544
100
AcDbEntity
  8
RACCORDO
100
AcDbCircle
 62
7
  6
CONTINUOUS
 10
10.4544419762
 20
14.6733563148
 40
0.25
100
AcDbArc
 50
141.4102837079
 51
181.4110546893
  0
ARC
  5
545
100
AcDbEntity
  8
RACCORDO
100
AcDbCircle
 62
7
  6
CONTINUOUS
 10
10.4622664232
 20
14.3588258599
 40
0.25
100
AcDbArc
 50
181.4702106311
 51
252.9395963501
  0
ARC
  5
546
100
AcDbEntity
  8
RACCORDO
100
AcDbCircle
 62
7
  6
CONTINUOUS
 10
30.3430948588
 20
10.6919088979
 40
0.25
100
AcDbArc
 50
1.4250300306
 51
72.9287939504
  0
ARC
  5
547
100
AcDbEntity
  8
RACCORDO
100
AcDbCircle
 62
7
  6
CONTINUOUS
 10
30.3509193057
 20
10.377378443
 40
0.25
100
AcDbArc
 50
336.4374981299
 51
1.4250300306
  0
ARC
  5
548
100
AcDbEntity
  8
RACCORDO
100
AcDbCircle
 62
7
  6
CONTINUOUS
 10
28.6508226527
 20
11.2115892977
 40
0.25
100
AcDbArc
 50
72.9132973233
 51
141.4102837079
  0
ARC
  5
549
100
AcDbEntity
  8
RACCORDO
100
AcDbCircle
 62
7
  6
CONTINUOUS
 10
27.2880970783
 20
9.5039039167
 40
0.25
100
AcDbArc
 50
141.4160147221
 51
181.4312187747
  0
ARC
  5
54A
100
AcDbEntity
  8
RACCORDO
100
AcDbCircle
 62
7
  6
CONTINUOUS
 10
27.2959215252
 20
9.1893734618
 40
0.25
100
AcDbArc
 50
181.4250300306
 51
252.9890759327
  0
ARC
  5
54B
100
AcDbEntity
  8
RACCORDO
100
AcDbCircle
 62
7
  6
CONTINUOUS
 10
28.9881937313
 20
8.669693062
 40
0.25
100
AcDbArc
 50
252.9167908959
 51
284.6412627379
  0
ARC
  5
54C
100
AcDbEntity
  8
RACCORDO
100
AcDbCircle
 62
7
  6
CONTINUOUS
 10
29.9158408645
 20
-28.6202619681
 40
0.25
100
AcDbArc
 50
252.8996523614
 51
321.4102837079
  0
ARC
  5
54D
100
AcDbEntity
  8
RACCORDO
100
AcDbCircle
 62
7
  6
CONTINUOUS
 10
31.278566439
 20
-26.9125765871
 40
0.25
100
AcDbArc
 50
321.4102837079
 51
1.4110546893
  0
ARC
  5
54E
100
AcDbEntity
  8
RACCORDO
100
AcDbCircle
 62
7
  6
CONTINUOUS
 10
31.270741992
 20
-26.5980461322
 40
0.25
100
AcDbArc
 50
1.4250300306
 51
72.9890759327
  0
ELLIPSE
  5
54F
100
AcDbEntity
  8
RACCORDO
100
AcDbEllipse
 62
7
  6
CONTINUOUS
 10
-9.3552111963
 20
21.2384119904
 30
0.0
 11
0.3908655411
 21
-0.3120355005
 31
0.0
 40
0.685124804
 41
0.522149444
 42
2.0932503573
  0
ELLIPSE
  5
550
100
AcDbEntity
  8
RACCORDO
100
AcDbEllipse
 62
7
  6
CONTINUOUS
 10
-7.4872848353
 20
26.5376397998
 30
0.0
 11
0.2815427246
 21
0.9596208503
 31
0.0
 40
0.3511651657
 41
-0.8308571156
 42
-0.475247886
  0
ELLIPSE
  5
551
100
AcDbEntity
  8
RACCORDO
100
AcDbEllipse
 62
7
  6
CONTINUOUS
 10
-19.7960153498
 20
30.1420599201
 30
0.0
 11
0.1487883263
 21
0.4773529651
 31
0.0
 40
0.3671173535
 41
0.0015426335
 42
0.7458954057
  0
ELLIPSE
  5
552
100
AcDbEntity
  8
RACCORDO
100
AcDbEllipse
 62
7
  6
CONTINUOUS
 10
-12.035072206
 20
27.7587494684
 30
0.0
 11
0.1447846592
 21
0.4785824868
 31
0.0
 40
0.359223273
 41
5.4552422111
 42
7.0260385379
  0
ELLIPSE
  5
553
100
AcDbEntity
  8
RACCORDO
100
AcDbEllipse
 62
7
  6
CONTINUOUS
 10
-29.6434331336
 20
25.3828543895
 30
0.0
 11
0.3908860199
 21
-0.3117987247
 31
0.0
 40
0.6854857115
 41
2.0925215548
 42
3.6636224681
  0
ELLIPSE
  5
554
100
AcDbEntity
  8
RACCORDO
100
AcDbEllipse
 62
7
  6
CONTINUOUS
 10
-7.191761949
 20
26.4468875844
 30
0.0
 11
-0.8442357278
 21
1.1131708327
 31
0.0
 40
0.5094632201
 41
5.1965157753
 42
6.3942495801
  0
ELLIPSE
  5
555
100
AcDbEntity
  8
RACCORDO
100
AcDbEllipse
 62
7
  6
CONTINUOUS
 10
-10.7655868807
 20
19.585650693
 30
0.0
 11
0.3908655411
 21
-0.3120355005
 31
0.0
 40
0.685124804
 41
6.8053347512
 42
8.3764356645
  0
ELLIPSE
  5
556
100
AcDbEntity
  8
RACCORDO
100
AcDbEllipse
 62
7
  6
CONTINUOUS
 10
-22.2880822678
 20
31.0828213018
 30
0.0
 11
0.9736896221
 21
0.7384523045
 31
0.0
 40
0.1794991614
 41
-0.5983819059
 42
0.5993518988
  0
ELLIPSE
  5
557
100
AcDbEntity
  8
RACCORDO
100
AcDbEllipse
 62
7
  6
CONTINUOUS
 10
-16.0561187577
 20
22.6380309016
 30
0.0
 11
0.4999630806
 21
0.007294762
 31
0.0
 40
0.6192344803
 41
-2.0517469146
 42
-0.4751910013
  0
ELLIPSE
  5
558
100
AcDbEntity
  8
RACCORDO
100
AcDbEllipse
 62
7
  6
CONTINUOUS
 10
-23.0084566703
 20
24.7730265206
 30
0.0
 11
0.4999630806
 21
0.007294762
 31
0.0
 40
0.6192344803
 41
-3.1352256081
 42
-2.0517469146
  0
ELLIPSE
  5
559
100
AcDbEntity
  8
RACCORDO
100
AcDbEllipse
 62
7
  6
CONTINUOUS
 10
30.724919999
 20
8.9301919949
 30
0.0
 11
0.3908655411
 21
-0.3120355005
 31
0.0
 40
0.685124804
 41
0.522149444
 42
2.0932503573
  0
ELLIPSE
  5
55A
100
AcDbEntity
  8
RACCORDO
100
AcDbEllipse
 62
7
  6
CONTINUOUS
 10
31.569061345
 20
-25.0029617897
 30
0.0
 11
0.3908860199
 21
-0.3117987247
 31
0.0
 40
0.6854857115
 41
-0.0060506156
 42
0.5220298145
  0
ELLIPSE
  5
55B
100
AcDbEntity
  8
RACCORDO
100
AcDbEllipse
 62
7
  6
CONTINUOUS
 10
33.4116365517
 20
-18.6846574659
 30
0.0
 11
0.2815427246
 21
0.9596208503
 31
0.0
 40
0.3511651657
 41
-1.1864663452
 42
-0.8308571156
  0
ELLIPSE
  5
55C
100
AcDbEntity
  8
RACCORDO
100
AcDbEllipse
 62
7
  6
CONTINUOUS
 10
32.5928463601
 20
14.2294198043
 30
0.0
 11
0.2815427246
 21
0.9596208503
 31
0.0
 40
0.3511651657
 41
-0.8308571156
 42
-0.475247886
  0
ELLIPSE
  5
55D
100
AcDbEntity
  8
RACCORDO
100
AcDbEllipse
 62
7
  6
CONTINUOUS
 10
20.2841158455
 20
17.8338399247
 30
0.0
 11
0.1487883263
 21
0.4773529651
 31
0.0
 40
0.3671173535
 41
0.0015426335
 42
0.7458954057
  0
ELLIPSE
  5
55E
100
AcDbEntity
  8
RACCORDO
100
AcDbEllipse
 62
7
  6
CONTINUOUS
 10
28.0450589893
 20
15.4505294729
 30
0.0
 11
0.1447846592
 21
0.4785824868
 31
0.0
 40
0.359223273
 41
5.4552422111
 42
7.0260385379
  0
ELLIPSE
  5
55F
100
AcDbEntity
  8
RACCORDO
100
AcDbEllipse
 62
7
  6
CONTINUOUS
 10
10.4366980618
 20
13.074634394
 30
0.0
 11
0.3908860199
 21
-0.3117987247
 31
0.0
 40
0.6854857115
 41
2.0925215548
 42
3.6636224681
  0
ELLIPSE
  5
560
100
AcDbEntity
  8
RACCORDO
100
AcDbEllipse
 62
7
  6
CONTINUOUS
 10
32.8883692463
 20
14.1386675889
 30
0.0
 11
-0.8442357278
 21
1.1131708327
 31
0.0
 40
0.5094632201
 41
5.1965157753
 42
6.3942495801
  0
ELLIPSE
  5
561
100
AcDbEntity
  8
RACCORDO
100
AcDbEllipse
 62
7
  6
CONTINUOUS
 10
29.3145443146
 20
7.2774306976
 30
0.0
 11
0.3908655411
 21
-0.3120355005
 31
0.0
 40
0.685124804
 41
6.8053347512
 42
8.3764356645
  0
ELLIPSE
  5
562
100
AcDbEntity
  8
RACCORDO
100
AcDbEllipse
 62
7
  6
CONTINUOUS
 10
17.7920489276
 20
18.7746013063
 30
0.0
 11
0.9736896221
 21
0.7384523045
 31
0.0
 40
0.1794991614
 41
-0.5983819059
 42
0.5993518988
  0
ELLIPSE
  5
563
100
AcDbEntity
  8
RACCORDO
100
AcDbEllipse
 62
7
  6
CONTINUOUS
 10
24.0240124376
 20
10.3298109062
 30
0.0
 11
0.4999630806
 21
0.007294762
 31
0.0
 40
0.6192344803
 41
-2.0517469146
 42
-0.4751910013
  0
ELLIPSE
  5
564
100
AcDbEntity
  8
RACCORDO
100
AcDbEllipse
 62
7
  6
CONTINUOUS
 10
30.1607057081
 20
-26.7369258172
 30
0.0
 11
0.3908860199
 21
-0.3117987247
 31
0.0
 40
0.6854857115
 41
5.2341142084
 42
6.8052151217
  0
ELLIPSE
  5
565
100
AcDbEntity
  8
RACCORDO
100
AcDbEllipse
 62
7
  6
CONTINUOUS
 10
17.071674525
 20
12.4648065251
 30
0.0
 11
0.4999630806
 21
0.007294762
 31
0.0
 40
0.6192344803
 41
-3.1352256081
 42
-2.0517469146
  0
ELLIPSE
  5
566
100
AcDbEntity
  8
RACCORDO
100
AcDbEllipse
 62
7
  6
CONTINUOUS
 10
27.771740875
 20
-28.3268059566
 30
0.0
 11
-0.5842742092
 21
0.5468063573
 31
0.0
 40
0.7473248423
 41
-3.1687685366
 42
-2.5630309181
  0
ELLIPSE
  5
567
100
AcDbEntity
  8
RACCORDO
100
AcDbEllipse
 62
7
  6
CONTINUOUS
 10
28.9517935898
 20
6.3091509987
 30
0.0
 11
0.5843381112
 21
-0.5464114216
 31
0.0
 40
0.7477417852
 41
0.5784336099
 42
2.1489253502
  0
ELLIPSE
  5
568
100
AcDbEntity
  8
RACCORDO
100
AcDbEllipse
 62
7
  6
CONTINUOUS
 10
-29.119646086
 20
24.1423275295
 30
0.0
 11
-0.5842742092
 21
0.5468063573
 31
0.0
 40
0.7473248423
 41
-0.9919300048
 42
0.0271764167
  0
ELLIPSE
  5
569
100
AcDbEntity
  8
ASSI
100
AcDbEllipse
 62
7
  6
CONTINUOUS
 10
27.771740875
 20
-28.3268059566
 30
0.0
 11
-0.5842742092
 21
0.5468063573
 31
0.0
 40
0.7473248423
 41
-3.1687685366
 42
-2.5630309181
  0
ELLIPSE
  5
56A
100
AcDbEntity
  8
ASSI
100
AcDbEllipse
 62
7
  6
CONTINUOUS
 10
28.9517935898
 20
6.3091509987
 30
0.0
 11
0.5843381112
 21
-0.5464114216
 31
0.0
 40
0.7477417852
 41
0.5784336099
 42
2.1489253502
  0
ELLIPSE
  5
56B
100
AcDbEntity
  8
ASSI
100
AcDbEllipse
 62
7
  6
CONTINUOUS
 10
-29.119646086
 20
24.1423275295
 30
0.0
 11
-0.5842742092
 21
0.5468063573
 31
0.0
 40
0.7473248423
 41
-0.9919300048
 42
0.0271764167
  0
ENDSEC
  0
SECTION
  2
OBJECTS
  0
DICTIONARY
  5
C
100
AcDbDictionary
280
0
281
1
  3
ACAD_GROUP
350
D
  3
ACAD_MLINESTYLE
350
17
  3
ACAD_LAYOUT
350
1A
  3
ACAD_PLOTSETTINGS
350
19
  3
ACAD_PLOTSTYLENAME
350
E
  0
DICTIONARY
  5
D
102
{ACAD_REACTORS
330
C
102
}
100
AcDbDictionary
280
0
281
1
  0
ACDBDICTIONARYWDFLT
  5
E
102
{ACAD_REACTORS
330
C
102
}
100
AcDbDictionary
281
1
  3
Normal
350
F
100
AcDbDictionaryWithDefault
340
F
  0
DICTIONARY
  5
17
102
{ACAD_REACTORS
330
C
102
}
100
AcDbDictionary
280
0
281
1
  3
Standard
350
18
  0
DICTIONARY
  5
19
102
{ACAD_REACTORS
330
C
102
}
100
AcDbDictionary
281
1
  0
DICTIONARY
  5
1A
102
{ACAD_REACTORS
330
C
102
}
100
AcDbDictionary
281
1
  3
Model
350
56C
  3
Layout1
350
56D
  0
ACDBPLACEHOLDER
  5
F
102
{ACAD_REACTORS
330
E
102
}
  0
MLINESTYLE
  5
18
102
{ACAD_REACTORS
330
17
102
}
100
AcDbMlineStyle
  2
STANDARD
 70
0
  3

 62
256
 51
90.0
 52
90.0
 71
2
 49
0.5
 62
256
  6
BYLAYER
 49
-0.5
 62
256
  6
BYLAYER
  0
LAYOUT
  5
56C
102
{ACAD_REACTORS
330
1A
102
}
100
AcDbPlotSettings
  1

  2
none_device
  4
ISO_A4_(297.00_x_210.00_MM)
  6

 40
0.0
 41
0.0
 42
0.0
 43
0.0
 44
297.0
 45
210.0
 46
0.0
 47
0.0
 48
0.0
 49
0.0
140
0.0
141
0.0
142
1.0
143
1.0
 70
1024
 72
1
 73
0
 74
0
  7

 75
0
147
1.0
148
0.0
149
0.0
100
AcDbLayout
  1
Model
 70
0
 71
0
 10
0.0
 20
0.0
 11
297.0
 21
210.0
 12
0.0
 22
0.0
 32
0.0
 14
0.0
 24
0.0
 34
0.0
 15
0.0
 25
0.0
 35
0.0
146
0.0
 13
0.0
 23
0.0
 33
0.0
 16
1.0
 26
0.0
 36
0.0
 17
0.0
 27
1.0
 37
0.0
 76
0
330
214
345
0
346
0
  0
LAYOUT
  5
56D
102
{ACAD_REACTORS
330
1A
102
}
100
AcDbPlotSettings
  1

  2
none_device
  4
ISO_A4_(297.00_x_210.00_MM)
  6

 40
0.0
 41
0.0
 42
0.0
 43
0.0
 44
297.0
 45
210.0
 46
0.0
 47
0.0
 48
0.0
 49
0.0
140
0.0
141
0.0
142
1.0
143
1.0
 70
0
 72
1
 73
0
 74
0
  7

 75
0
147
1.0
148
0.0
149
0.0
100
AcDbLayout
  1
Layout1
 70
0
 71
1
 10
0.0
 20
0.0
 11
297.0
 21
210.0
 12
0.0
 22
0.0
 32
0.0
 14
0.0
 24
0.0
 34
0.0
 15
0.0
 25
0.0
 35
0.0
146
0.0
 13
0.0
 23
0.0
 33
0.0
 16
1.0
 26
0.0
 36
0.0
 17
0.0
 27
1.0
 37
0.0
 76
0
330
215
345
0
346
0
  0
ENDSEC
  0
EOF
