  0
SECTION
  2
HEADER
  9
$ACADVER
  1
AC1021
  9
$DWGCODEPAGE
  3
ANSI_1252
  9
$EXTMAX
 10
297.0
 20
210.0
 30
0.0
  9
$EXTMIN
 10
0.0
 20
0.0
 30
0.0
  9
$LIMMIN
 10
0.0
 20
0.0
  9
$LIMMAX
 10
297.0
 20
210.0
  9
$VIEWCTR
 10
148.5
 20
105.0
  9
$VIEWSIZE
 40
210.0
  9
$CLAYER
  8
0
  9
$LTSCALE
 40
16.335
  9
$CELTYPE
  6
BYLAYER
  9
$DIMSCALE
 40
1.0
  9
$DIMASZ
 40
3.0
  9
$DIMEXO
 40
0.5
  9
$DIMDLI
 40
11.286
  9
$DIMEXE
 40
1.5
  9
$DIMCEN
 40
2.673
  9
$DIMLFAC
 40
1.0
  9
$DIMBLK
  1
_FILLED
  9
$DIMALT
 70
0
  9
$DIMALTF
 40
0.0393700787
  9
$DIMTXT
 40
3.0
  9
$DIMTOL
 70
1
  9
$DIMLIM
 70
0
  9
$DIMTFAC
 40
1.0
  9
$DIMTP
 40
0.01
  9
$DIMTM
 40
0.01
  9
$DIMGAP
 40
0.625
  9
$DIMDSEP
 70
44
  9
$AUNITS
 70
0
  9
$PDMODE
 70
3
  9
$PDSIZE
 40
3.0
  9
$HANDSEED
  5
33D
  9
$TILEMODE
 70
1
  9
$MEASUREMENT
 70
1
  9
$INSUNITS
 70
4
  0
ENDSEC
  0
SECTION
  2
CLASSES
  0
CLASS
  1
ACDBDICTIONARYWDFLT
  2
AcDbDictionaryWithDefault
  3
AutoCAD 2000
 90
0
 91
1
280
0
281
0
  0
CLASS
  1
ACDBPLACEHOLDER
  2
AcDbPlaceHolder
  3
AutoCAD 2000
 90
0
 91
1
280
0
281
0
  0
CLASS
  1
LAYOUT
  2
AcDbLayout
  3
AutoCAD 2000
 90
0
 91
0
280
0
281
0
  0
ENDSEC
  0
SECTION
  2
TABLES
  0
TABLE
  2
VPORT
  5
8
100
AcDbSymbolTable
 70
2
  0
VPORT
  5
1F4
100
AcDbSymbolTableRecord
100
AcDbViewportTableRecord
  2
*ACTIVE
 70
0
 10
0.0
 20
0.0
 11
1.0
 21
1.0
 12
148.5
 22
105.0
 13
0.0
 23
0.0
 14
1.0
 24
1.0
 15
0.0
 25
0.0
 16
0.0
 26
0.0
 36
1.0
 17
0.0
 27
0.0
 37
0.0
 40
210.0
 41
1.4142857143
 42
50.0
 43
0.0
 44
0.0
 50
0.0
 51
0.0
 71
0
 72
100
 73
1
 74
1
 75
0
 76
0
 77
0
 78
0
  0
ENDTAB
  0
TABLE
  2
LTYPE
  5
5
100
AcDbSymbolTable
 70
6
  0
LTYPE
  5
14
100
AcDbSymbolTableRecord
100
AcDbLinetypeTableRecord
  2
BYBLOCK
 70
0
  3

 72
65
 73
0
 40
0.0
  0
LTYPE
  5
15
100
AcDbSymbolTableRecord
100
AcDbLinetypeTableRecord
  2
BYLAYER
 70
0
  3

 72
65
 73
0
 40
0.0
  0
LTYPE
  5
16
100
AcDbSymbolTableRecord
100
AcDbLinetypeTableRecord
  2
CONTINUOUS
 70
64
  3
Solid line
 72
65
 73
0
 40
0.0
  0
LTYPE
  5
1F5
100
AcDbSymbolTableRecord
100
AcDbLinetypeTableRecord
  2
CENTER
 70
64
  3
____ _ ____ _ ____ _ ____ _ ____ _ ____ _ ____
 72
65
 73
4
 40
0.6
 49
0.375
 74
0
 49
-0.075
 74
0
 49
0.075
 74
0
 49
-0.075
 74
0
  0
LTYPE
  5
1F6
100
AcDbSymbolTableRecord
100
AcDbLinetypeTableRecord
  2
HIDDEN
 70
64
  3
- - - - - - - - - - - - - - - - - - - -
 72
65
 73
2
 40
0.2
 49
0.1
 74
0
 49
-0.1
 74
0
  0
LTYPE
  5
1F7
100
AcDbSymbolTableRecord
100
AcDbLinetypeTableRecord
  2
PHANTOM
 70
64
  3
_____ _ _ _____ _ _ _____ _ _ _____
 72
65
 73
6
 40
0.8
 49
0.45
 74
0
 49
-0.05
 74
0
 49
0.1
 74
0
 49
-0.05
 74
0
 49
0.1
 74
0
 49
-0.05
 74
0
  0
LTYPE
  5
1F8
100
AcDbSymbolTableRecord
100
AcDbLinetypeTableRecord
  2
DOT
 70
64
  3
. . . . . . . . . . . . . . . . . . . .
 72
65
 73
2
 40
0.2
 49
0.1
 74
0
 49
-0.1
 74
0
  0
LTYPE
  5
1F9
100
AcDbSymbolTableRecord
100
AcDbLinetypeTableRecord
  2
DASHED
 70
64
  3
- - - - - - - - - - - - - - - - - - - -
 72
65
 73
2
 40
0.2
 49
0.1
 74
0
 49
-0.1
 74
0
  0
ENDTAB
  0
TABLE
  2
LAYER
  5
2
100
AcDbSymbolTable
 70
36
  0
LAYER
  5
10
100
AcDbSymbolTableRecord
100
AcDbLayerTableRecord
  2
0
 70
0
 62
7
  6
CONTINUOUS
370
-3
390
F
  0
LAYER
  5
1FA
100
AcDbSymbolTableRecord
100
AcDbLayerTableRecord
  2
DEFAULT_1
 70
0
 62
7
  6
CENTER
370
-3
390
F
  0
LAYER
  5
1FB
100
AcDbSymbolTableRecord
100
AcDbLayerTableRecord
  2
DEFAULT_2
 70
0
 62
7
  6
HIDDEN
370
-3
390
F
  0
LAYER
  5
1FC
100
AcDbSymbolTableRecord
100
AcDbLayerTableRecord
  2
DEFAULT_3
 70
0
 62
7
  6
PHANTOM
370
-3
390
F
  0
LAYER
  5
1FD
100
AcDbSymbolTableRecord
100
AcDbLayerTableRecord
  2
ASSI
 70
0
 62
7
  6
CONTINUOUS
370
-3
390
F
  0
LAYER
  5
1FE
100
AcDbSymbolTableRecord
100
AcDbLayerTableRecord
  2
COORDINATE
 70
0
 62
7
  6
CONTINUOUS
370
-3
390
F
  0
LAYER
  5
1FF
100
AcDbSymbolTableRecord
100
AcDbLayerTableRecord
  2
COORD_ORIGINE
 70
0
 62
7
  6
CONTINUOUS
370
-3
390
F
  0
LAYER
  5
200
100
AcDbSymbolTableRecord
100
AcDbLayerTableRecord
  2
COPY_PUBLISH
 70
0
 62
7
  6
CONTINUOUS
370
-3
390
F
  0
LAYER
  5
201
100
AcDbSymbolTableRecord
100
AcDbLayerTableRecord
  2
COSMETICI
 70
0
 62
7
  6
CONTINUOUS
370
-3
390
F
  0
LAYER
  5
202
100
AcDbSymbolTableRecord
100
AcDbLayerTableRecord
  2
CURVE
 70
0
 62
7
  6
CONTINUOUS
370
-3
390
F
  0
LAYER
  5
203
100
AcDbSymbolTableRecord
100
AcDbLayerTableRecord
  2
DRAFT
 70
0
 62
7
  6
CONTINUOUS
370
-3
390
F
  0
LAYER
  5
204
100
AcDbSymbolTableRecord
100
AcDbLayerTableRecord
  2
IGES
 70
0
 62
7
  6
CONTINUOUS
370
-3
390
F
  0
LAYER
  5
205
100
AcDbSymbolTableRecord
100
AcDbLayerTableRecord
  2
IMPORT_IGES
 70
0
 62
7
  6
CONTINUOUS
370
-3
390
F
  0
LAYER
  5
206
100
AcDbSymbolTableRecord
100
AcDbLayerTableRecord
  2
IMPORT_SCRITTE
 70
0
 62
7
  6
CONTINUOUS
370
-3
390
F
  0
LAYER
  5
207
100
AcDbSymbolTableRecord
100
AcDbLayerTableRecord
  2
INTF_MAGENTA
 70
0
 62
7
  6
CONTINUOUS
370
-3
390
F
  0
LAYER
  5
208
100
AcDbSymbolTableRecord
100
AcDbLayerTableRecord
  2
MARCABILE
 70
0
 62
7
  6
CONTINUOUS
370
-3
390
F
  0
LAYER
  5
209
100
AcDbSymbolTableRecord
100
AcDbLayerTableRecord
  2
NOTE
 70
0
 62
7
  6
CONTINUOUS
370
-3
390
F
  0
LAYER
  5
20A
100
AcDbSymbolTableRecord
100
AcDbLayerTableRecord
  2
PIANI
 70
0
 62
7
  6
CONTINUOUS
370
-3
390
F
  0
LAYER
  5
20B
100
AcDbSymbolTableRecord
100
AcDbLayerTableRecord
  2
PIANI_ORIGINE
 70
0
 62
7
  6
CONTINUOUS
370
-3
390
F
  0
LAYER
  5
20C
100
AcDbSymbolTableRecord
100
AcDbLayerTableRecord
  2
PUNTI
 70
0
 62
7
  6
CONTINUOUS
370
-3
390
F
  0
LAYER
  5
20D
100
AcDbSymbolTableRecord
100
AcDbLayerTableRecord
  2
RACCORDO
 70
0
 62
7
  6
CONTINUOUS
370
-3
390
F
  0
LAYER
  5
20E
100
AcDbSymbolTableRecord
100
AcDbLayerTableRecord
  2
SIMBOLI
 70
0
 62
7
  6
CONTINUOUS
370
-3
390
F
  0
LAYER
  5
20F
100
AcDbSymbolTableRecord
100
AcDbLayerTableRecord
  2
SMUSSO
 70
0
 62
7
  6
CONTINUOUS
370
-3
390
F
  0
LAYER
  5
210
100
AcDbSymbolTableRecord
100
AcDbLayerTableRecord
  2
SNAPLINE
 70
0
 62
7
  6
CONTINUOUS
370
-3
390
F
  0
LAYER
  5
211
100
AcDbSymbolTableRecord
100
AcDbLayerTableRecord
  2
SUPERFICI
 70
0
 62
7
  6
CONTINUOUS
370
-3
390
F
  0
LAYER
  5
212
100
AcDbSymbolTableRecord
100
AcDbLayerTableRecord
  2
TRASH
 70
0
 62
7
  6
CONTINUOUS
370
-3
390
F
  0
ENDTAB
  0
TABLE
  2
STYLE
  5
3
100
AcDbSymbolTable
 70
1
  0
STYLE
  5
11
100
AcDbSymbolTableRecord
100
AcDbTextStyleTableRecord
  2
STANDARD
 70
0
 40
0.0
 41
0.8
 50
0.0
 71
0
 42
0.2
  3
txt
  4

  0
STYLE
  5
213
100
AcDbSymbolTableRecord
100
AcDbTextStyleTableRecord
  2
TEXTSTYLE_1
 70
0
 40
0.0
 41
0.8
 50
0.0
 71
0
 42
0.2
  3
gdt
  4

  0
ENDTAB
  0
TABLE
  2
VIEW
  5
6
100
AcDbSymbolTable
 70
0
  0
ENDTAB
  0
TABLE
  2
UCS
  5
7
100
AcDbSymbolTable
 70
0
  0
ENDTAB
  0
TABLE
  2
APPID
  5
9
100
AcDbSymbolTable
 70
1
  0
APPID
  5
214
100
AcDbSymbolTableRecord
100
AcDbRegAppTableRecord
  2
ACAD
 70
0
  0
ENDTAB
  0
TABLE
  2
BLOCK_RECORD
  5
1
100
AcDbSymbolTable
 70
0
  0
BLOCK_RECORD
  5
215
100
AcDbSymbolTableRecord
100
AcDbBlockTableRecord
  2
*Model_Space
  0
BLOCK_RECORD
  5
216
100
AcDbSymbolTableRecord
100
AcDbBlockTableRecord
  2
*Paper_Space
  0
ENDTAB
  0
TABLE
  2
DIMSTYLE
  5
A
100
AcDbSymbolTable
 70
1
100
AcDbDimStyleTable
 71
0
  0
DIMSTYLE
105
217
100
AcDbSymbolTableRecord
100
AcDbDimStyleTableRecord
  2
STANDARD
 70
0
  3

  4

 40
1.0
 41
3.0
 42
0.5
 43
0.38
 44
1.5
 45
0.0
 46
0.0
 47
0.01
 48
0.01
140
3.0
141
0.09
142
0.0
143
25.4
144
1.0
145
0.0
146
1.0
147
0.625
 71
1.0
 72
0.0
 73
0
 74
0
 75
0
 76
0
 77
1
 78
8
170
0
171
2
172
0
173
0
174
0
175
0
176
0
177
0
178
0
270
2
271
2
272
2
273
2
274
2
275
0
280
0
281
0
282
0
283
1
284
8
285
0
286
0
287
3
288
0
340
11
278
44
  0
ENDTAB
  0
ENDSEC
  0
SECTION
  2
BLOCKS
  0
BLOCK
  5
20
100
AcDbEntity
  8
0
100
AcDbBlockBegin
  2
*Model_Space
 70
0
 10
0.0
 20
0.0
 30
0.0
  3
*Model_Space
  1

  0
ENDBLK
  5
21
100
AcDbEntity
  8
0
100
AcDbBlockEnd
  0
BLOCK
  5
1C
100
AcDbEntity
  8
0
100
AcDbBlockBegin
  2
*Paper_Space
 70
0
 10
0.0
 20
0.0
 30
0.0
  3
*Paper_Space
  1

  0
ENDBLK
  5
1D
100
AcDbEntity
  8
0
100
AcDbBlockEnd
  0
ENDSEC
  0
SECTION
  2
ENTITIES
  0
LWPOLYLINE
  5
218
100
AcDbEntity
  8
ASSI
100
AcDbPolyline
 62
7
  6
CONTINUOUS
 90
17
 70
0
 10
132.2356292822
 20
121.8515926123
 10
132.1470840859
 20
121.7973328924
 10
132.0620527972
 20
121.7364922457
 10
131.9804517961
 20
121.6692016268
 10
131.9025141746
 20
121.5958142413
 10
131.8288379376
 20
121.5170547932
 10
131.7593938643
 20
121.4330705357
 10
131.6943170625
 20
121.3440749646
 10
131.6343577464
 20
121.2511472598
 10
131.5795566576
 20
121.1544940823
 10
131.530061247
 20
121.054291374
 10
131.4865112458
 20
120.9518368368
 10
131.4489912707
 20
120.8473704779
 10
131.4176493768
 20
120.74103538
 10
131.3929009287
 20
120.634016728
 10
131.374912247
 20
120.526775406
 10
131.3637695233
 20
120.4191897543
  0
LWPOLYLINE
  5
219
100
AcDbEntity
  8
RACCORDO
100
AcDbPolyline
 62
7
  6
CONTINUOUS
 90
19
 70
0
 10
132.2577594123
 20
121.8637980333
 10
132.2355794101
 20
121.8515651064
 10
132.1470303946
 20
121.7972972636
 10
132.0620073773
 20
121.7364573028
 10
131.9804146254
 20
121.6691688392
 10
131.9024850626
 20
121.5957850135
 10
131.8288164184
 20
121.5170303161
 10
131.7593794756
 20
121.4330520348
 10
131.6943092642
 20
121.3440636139
 10
131.6343556759
 20
121.251143839
 10
131.5795594381
 20
121.1544993285
 10
131.5300679493
 20
121.0543059768
 10
131.4865207034
 20
120.9518609702
 10
131.449002303
 20
120.8474042305
 10
131.4176608008
 20
120.7410788242
 10
131.3929114614
 20
120.6340694964
 10
131.374920609
 20
120.526836948
 10
131.3637729242
 20
120.4192445355
 10
131.3619654587
 20
120.3901298265
  0
LINE
  5
21A
100
AcDbEntity
  8
ASSI
100
AcDbLine
 62
7
  6
CONTINUOUS
 10
132.2577594493
 20
121.8637980532
 11
132.2356292822
 21
121.8515926123
  0
LINE
  5
21B
100
AcDbEntity
  8
RACCORDO
100
AcDbLine
 62
7
  6
CONTINUOUS
 10
132.2577109639
 20
121.8637844411
 11
136.2485927308
 21
124.0169567119
  0
LINE
  5
21C
100
AcDbEntity
  8
ASSI
100
AcDbLine
 62
7
  6
CONTINUOUS
 10
132.2577109639
 20
121.8637844411
 11
136.2485927308
 21
124.0169567119
  0
LINE
  5
21D
100
AcDbEntity
  8
RACCORDO
100
AcDbLine
 62
253
  6
CONTINUOUS
 10
132.6276974479
 20
121.8474982612
 11
136.6146089653
 21
123.9985284913
  0
LINE
  5
21E
100
AcDbEntity
  8
ASSI
100
AcDbLine
 62
253
  6
CONTINUOUS
 10
132.6276974479
 20
121.8474982612
 11
136.6146089653
 21
123.9985284913
  0
LWPOLYLINE
  5
21F
100
AcDbEntity
  8
RACCORDO
100
AcDbPolyline
 62
253
  6
CONTINUOUS
 90
8
 70
0
 10
132.2577541783
 20
121.8638077517
 10
132.2913868502
 20
121.8793669858
 10
132.3413357917
 20
121.8941908467
 10
132.39452908
 20
121.900970806
 10
132.450384144
 20
121.8996326099
 10
132.5082892609
 20
121.8901909142
 10
132.567610256
 20
121.872749124
 10
132.6276974479
 20
121.8474982612
  0
LWPOLYLINE
  5
220
100
AcDbEntity
  8
ASSI
100
AcDbPolyline
 62
253
  6
CONTINUOUS
 90
8
 70
0
 10
132.2577542153
 20
121.8638077717
 10
132.2913868502
 20
121.8793669858
 10
132.3413357917
 20
121.8941908467
 10
132.39452908
 20
121.900970806
 10
132.450384144
 20
121.8996326099
 10
132.5082892609
 20
121.8901909142
 10
132.567610256
 20
121.872749124
 10
132.6276974479
 20
121.8474982612
  0
LWPOLYLINE
  5
221
100
AcDbEntity
  8
RACCORDO
100
AcDbPolyline
 62
7
  6
CONTINUOUS
 90
13
 70
0
 10
146.3942172296
 20
76.9327234132
 10
146.4087746737
 20
76.9255665148
 10
146.4951244686
 20
76.8885011046
 10
146.5850803378
 20
76.8589233758
 10
146.6777888102
 20
76.8372137312
 10
146.7727373928
 20
76.823568128
 10
146.869850414
 20
76.818159311
 10
146.9685323463
 20
76.8212250737
 10
147.068036262
 20
76.8329075238
 10
147.1682294336
 20
76.8534071873
 10
147.2687303089
 20
76.8829471523
 10
147.3687363807
 20
76.9215446463
 10
147.3974721966
 20
76.9343950568
  0
LWPOLYLINE
  5
222
100
AcDbEntity
  8
ASSI
100
AcDbPolyline
 62
7
  6
CONTINUOUS
 90
12
 70
0
 10
146.3942165889
 20
76.9327237349
 10
146.4087284609
 20
76.9255888034
 10
146.4950864881
 20
76.8885154721
 10
146.5850516117
 20
76.8589314449
 10
146.6777701057
 20
76.8372172584
 10
146.772729262
 20
76.8235689379
 10
146.869853273
 20
76.8181592759
 10
146.9685464099
 20
76.8212261169
 10
147.068061493
 20
76.8329115782
 10
147.1682656638
 20
76.8534162034
 10
147.2687772272
 20
76.8829630795
 10
147.3687804881
 20
76.9215643707
  0
LINE
  5
223
100
AcDbEntity
  8
RACCORDO
100
AcDbLine
 62
7
  6
CONTINUOUS
 10
146.3949908897
 20
76.9323344657
 11
131.9807011528
 21
84.1394793341
  0
LINE
  5
224
100
AcDbEntity
  8
ASSI
100
AcDbLine
 62
7
  6
CONTINUOUS
 10
146.3949908897
 20
76.9323344657
 11
131.9807011528
 21
84.1394793341
  0
LWPOLYLINE
  5
225
100
AcDbEntity
  8
RACCORDO
100
AcDbPolyline
 62
253
  6
CONTINUOUS
 90
13
 70
0
 10
131.980700831
 20
84.139479495
 10
131.9485495886
 20
84.1569048106
 10
131.8946599819
 20
84.1927879436
 10
131.844514369
 20
84.2351307493
 10
131.7983580187
 20
84.2837346645
 10
131.7564369883
 20
84.3383505629
 10
131.7189687323
 20
84.398694016
 10
131.6861444945
 20
84.4644525192
 10
131.658124112
 20
84.5353024511
 10
131.6350415175
 20
84.610900041
 10
131.6170121176
 20
84.6908718061
 10
131.6041299826
 20
84.7748142219
 10
131.596460967
 20
84.8623077579
  0
LWPOLYLINE
  5
226
100
AcDbEntity
  8
ASSI
100
AcDbPolyline
 62
253
  6
CONTINUOUS
 90
13
 70
0
 10
131.980700831
 20
84.139479495
 10
131.9485495886
 20
84.1569048106
 10
131.8946599819
 20
84.1927879436
 10
131.844514369
 20
84.2351307493
 10
131.7983580187
 20
84.2837346645
 10
131.7564369883
 20
84.3383505629
 10
131.7189687323
 20
84.398694016
 10
131.6861444945
 20
84.4644525192
 10
131.658124112
 20
84.5353024511
 10
131.6350415175
 20
84.610900041
 10
131.6170121176
 20
84.6908718061
 10
131.6041299826
 20
84.7748142219
 10
131.596460967
 20
84.8623077579
  0
LINE
  5
227
100
AcDbEntity
  8
RACCORDO
100
AcDbLine
 62
253
  6
CONTINUOUS
 10
146.0044385018
 20
77.6583189905
 11
131.596460967
 21
84.8623077579
  0
LINE
  5
228
100
AcDbEntity
  8
ASSI
100
AcDbLine
 62
253
  6
CONTINUOUS
 10
146.0044385018
 20
77.6583189905
 11
131.596460967
 21
84.8623077579
  0
LINE
  5
229
100
AcDbEntity
  8
RACCORDO
100
AcDbLine
 62
253
  6
CONTINUOUS
 10
142.4927172232
 20
84.1528259287
 11
142.4803527448
 21
84.1583357913
  0
LINE
  5
22A
100
AcDbEntity
  8
ASSI
100
AcDbLine
 62
253
  6
CONTINUOUS
 10
142.4927172232
 20
84.1528259287
 11
142.4803527448
 21
84.1583357913
  0
LWPOLYLINE
  5
22B
100
AcDbEntity
  8
RACCORDO
100
AcDbPolyline
 62
253
  6
CONTINUOUS
 90
16
 70
0
 10
142.3776153886
 20
84.4485156436
 10
142.3931726666
 20
84.4415117256
 10
142.4101089378
 20
84.4353592649
 10
142.4282386449
 20
84.4301256693
 10
142.4473631549
 20
84.4258682791
 10
142.4672729358
 20
84.4226337391
 10
142.4877498518
 20
84.4204574876
 10
142.5085695536
 20
84.4193633682
 10
142.5295039361
 20
84.4193633682
 10
142.5503236378
 20
84.4204574876
 10
142.5708005538
 20
84.4226337391
 10
142.5907103347
 20
84.4258682791
 10
142.6098348448
 20
84.4301256693
 10
142.6279645518
 20
84.4353592649
 10
142.644900823
 20
84.4415117256
 10
142.6604581011
 20
84.4485156436
  0
LWPOLYLINE
  5
22C
100
AcDbEntity
  8
RACCORDO
100
AcDbPolyline
 62
253
  6
CONTINUOUS
 90
22
 70
0
 10
142.1654833542
 20
84.2947740396
 10
142.1814169044
 20
84.2875515141
 10
142.1971084335
 20
84.2818648592
 10
142.2125579417
 20
84.2777140748
 10
142.2278550423
 20
84.2750893186
 10
142.2429101219
 20
84.2740004331
 10
142.2574543404
 20
84.2744769448
 10
142.2714752378
 20
84.2765495348
 10
142.2849852741
 20
84.2801875222
 10
142.2977529887
 20
84.2853283902
 10
142.3097621778
 20
84.2919958311
 10
142.3210290452
 20
84.3001661526
 10
142.3313707419
 20
84.3097057619
 10
142.3407741581
 20
84.3206399259
 10
142.3492524037
 20
84.3329433775
 10
142.3566619586
 20
84.3464067229
 10
142.362983663
 20
84.3610568353
 10
142.3682366768
 20
84.3768668414
 10
142.3723349603
 20
84.3935467267
 10
142.3752498334
 20
84.4109998198
 10
142.3770099762
 20
84.4293227921
 10
142.3776153886
 20
84.4485156436
  0
LWPOLYLINE
  5
22D
100
AcDbEntity
  8
RACCORDO
100
AcDbPolyline
 62
7
  6
CONTINUOUS
 90
13
 70
0
 10
142.2174619983
 20
84.1865992761
 10
142.2456195326
 20
84.173755221
 10
142.2736994722
 20
84.163343114
 10
142.3015770125
 20
84.1553047596
 10
142.329071483
 20
84.149581519
 10
142.3561369094
 20
84.1460741116
 10
142.3828370026
 20
84.1446947106
 10
142.4090251304
 20
84.1453874186
 10
142.4345976237
 20
84.1480819451
 10
142.4596467604
 20
84.1527445692
 10
142.4841048936
 20
84.1593489813
 10
142.507768226
 20
84.1678203357
 10
142.5305115082
 20
84.1780787434
  0
LINE
  5
22E
100
AcDbEntity
  8
RACCORDO
100
AcDbLine
 62
7
  6
CONTINUOUS
 10
134.4392873983
 20
88.0756865761
 11
142.2174619971
 21
84.1865992767
  0
LINE
  5
22F
100
AcDbEntity
  8
RACCORDO
100
AcDbLine
 62
253
  6
CONTINUOUS
 10
134.3873087612
 20
88.1838613362
 11
142.1654833542
 21
84.2947740396
  0
LWPOLYLINE
  5
230
100
AcDbEntity
  8
RACCORDO
100
AcDbPolyline
 62
253
  6
CONTINUOUS
 90
9
 70
0
 10
134.1751767268
 20
88.5497349745
 10
134.1611690426
 20
88.557513518
 10
134.1488642109
 20
88.5659815598
 10
134.1383970535
 20
88.5750463279
 10
134.129882259
 20
88.5846085117
 10
134.1234131281
 20
88.5945633492
 10
134.1190605496
 20
88.604801774
 10
134.1168722218
 20
88.6152116141
 10
134.1165980831
 20
88.6204456447
  0
LWPOLYLINE
  5
231
100
AcDbEntity
  8
RACCORDO
100
AcDbPolyline
 62
253
  6
CONTINUOUS
 90
6
 70
0
 10
142.8594317391
 20
84.4667306094
 10
142.8482791579
 20
84.4734332529
 10
142.8395842133
 20
84.4811174873
 10
142.8336082214
 20
84.4895523717
 10
142.8305307838
 20
84.4984844056
 10
142.8301323449
 20
84.5022043491
  0
LWPOLYLINE
  5
232
100
AcDbEntity
  8
ASSI
100
AcDbPolyline
 62
253
  6
CONTINUOUS
 90
6
 70
0
 10
142.8594317391
 20
84.4667306094
 10
142.8482791579
 20
84.4734332529
 10
142.8395842133
 20
84.4811174873
 10
142.8336082214
 20
84.4895523717
 10
142.8305307838
 20
84.4984844056
 10
142.8301323459
 20
84.5022043246
  0
LWPOLYLINE
  5
233
100
AcDbEntity
  8
RACCORDO
100
AcDbPolyline
 62
253
  6
CONTINUOUS
 90
8
 70
0
 10
131.363291093
 20
85.132967226
 10
131.3726167901
 20
85.0889525936
 10
131.3904274674
 20
85.0458515164
 10
131.4164930421
 20
85.004311036
 10
131.4505342252
 20
84.9647762527
 10
131.4921862702
 20
84.9276707763
 10
131.5410028812
 20
84.8933921867
 10
131.5964609951
 20
84.8623077743
  0
LWPOLYLINE
  5
234
100
AcDbEntity
  8
ASSI
100
AcDbPolyline
 62
253
  6
CONTINUOUS
 90
8
 70
0
 10
131.3632911531
 20
85.1329669424
 10
131.3726167901
 20
85.0889525936
 10
131.3904274674
 20
85.0458515164
 10
131.4164930421
 20
85.004311036
 10
131.4505342252
 20
84.9647762527
 10
131.4921862702
 20
84.9276707763
 10
131.5410028812
 20
84.8933921867
 10
131.5964609951
 20
84.8623077743
  0
LWPOLYLINE
  5
235
100
AcDbEntity
  8
RACCORDO
100
AcDbPolyline
 62
7
  6
CONTINUOUS
 90
14
 70
0
 10
131.369732614
 20
85.0584847512
 10
131.3855995788
 20
84.9559616771
 10
131.4084441876
 20
84.8578923318
 10
131.4378186938
 20
84.7646911347
 10
131.4733746958
 20
84.6763642267
 10
131.5149377678
 20
84.592737822
 10
131.5620671369
 20
84.514235963
 10
131.6143686409
 20
84.4410638158
 10
131.6718336458
 20
84.3729950602
 10
131.7340257327
 20
84.3104391698
 10
131.8004968417
 20
84.2536958848
 10
131.8713431879
 20
84.202622937
 10
131.9463097198
 20
84.1574786859
 10
131.9815483041
 20
84.139057636
  0
LWPOLYLINE
  5
236
100
AcDbEntity
  8
ASSI
100
AcDbPolyline
 62
7
  6
CONTINUOUS
 90
14
 70
0
 10
131.3697322863
 20
85.0584885402
 10
131.3856002495
 20
84.9559582111
 10
131.4084477248
 20
84.8578794077
 10
131.4378263434
 20
84.7646697827
 10
131.4733876043
 20
84.6763354681
 10
131.5149570577
 20
84.5927025988
 10
131.5620937846
 20
84.5141953518
 10
131.6144035087
 20
84.4410189624
 10
131.6718776571
 20
84.3729470327
 10
131.734079687
 20
84.3103891702
 10
131.8005613844
 20
84.2536452048
 10
131.8714190552
 20
84.202572862
 10
131.946397595
 20
84.1574306211
 10
131.9815484177
 20
84.1390575794
  0
LINE
  5
237
100
AcDbEntity
  8
ASSI
100
AcDbLine
 62
7
  6
CONTINUOUS
 10
131.3621185059
 20
85.146526144
 11
131.3697322863
 21
85.0584885402
  0
LINE
  5
238
100
AcDbEntity
  8
RACCORDO
100
AcDbLine
 62
7
  6
CONTINUOUS
 10
131.362118499
 20
85.1465262647
 11
131.3697322863
 21
85.0584885402
  0
LINE
  5
239
100
AcDbEntity
  8
ASSI
100
AcDbLine
 62
7
  6
CONTINUOUS
 10
131.3621007039
 20
85.1466620718
 11
131.3621084066
 21
85.1465255671
  0
LINE
  5
23A
100
AcDbEntity
  8
RACCORDO
100
AcDbLine
 62
7
  6
CONTINUOUS
 10
131.3621007039
 20
85.1466620718
 11
131.3621083997
 21
85.1465256879
  0
LINE
  5
23B
100
AcDbEntity
  8
ASSI
100
AcDbLine
 62
7
  6
CONTINUOUS
 10
131.2180913039
 20
87.9475764395
 11
131.3621007039
 21
85.1466620718
  0
LWPOLYLINE
  5
23C
100
AcDbEntity
  8
RACCORDO
100
AcDbPolyline
 62
253
  6
CONTINUOUS
 90
13
 70
0
 10
131.596460967
 20
84.8623077579
 10
131.4497754759
 20
87.7204495621
 10
131.3297340826
 20
90.5942667664
 10
131.2363524258
 20
93.4833912877
 10
131.1696427615
 20
96.3874530313
 10
131.1296136871
 20
99.3060801836
 10
131.1162701432
 20
102.2388992608
 10
131.1296136871
 20
105.1855348391
 10
131.1696427615
 20
108.1456095742
 10
131.2363524257
 20
111.1187444974
 10
131.3297340826
 20
114.104559016
 10
131.4497754759
 20
117.1026709609
 10
131.596460967
 20
120.1126966102
  0
LWPOLYLINE
  5
23D
100
AcDbEntity
  8
ASSI
100
AcDbPolyline
 62
253
  6
CONTINUOUS
 90
13
 70
0
 10
131.596460967
 20
84.8623077579
 10
131.4497754759
 20
87.7204495621
 10
131.3297340826
 20
90.5942667664
 10
131.2363524258
 20
93.4833912877
 10
131.1696427615
 20
96.3874530313
 10
131.1296136871
 20
99.3060801836
 10
131.1162701432
 20
102.2388992608
 10
131.1296136871
 20
105.1855348391
 10
131.1696427615
 20
108.1456095742
 10
131.2363524257
 20
111.1187444974
 10
131.3297340826
 20
114.104559016
 10
131.4497754759
 20
117.1026709609
 10
131.596460967
 20
120.1126966102
  0
LWPOLYLINE
  5
23E
100
AcDbEntity
  8
ASSI
100
AcDbPolyline
 62
7
  6
CONTINUOUS
 90
11
 70
0
 10
131.2177452526
 20
117.4353594641
 10
131.0968633842
 20
114.4266498761
 10
131.0028295877
 20
111.4302045303
 10
130.9356624057
 20
108.4464806819
 10
130.8953693187
 20
105.4758556319
 10
130.8819555826
 20
102.5186856707
 10
130.8954255557
 20
99.5753416531
 10
130.9357781319
 20
96.6461917176
 10
131.0030112772
 20
93.7315883724
 10
131.0971207933
 20
90.8319025305
 10
131.2180913039
 20
87.9475764395
  0
LWPOLYLINE
  5
23F
100
AcDbEntity
  8
RACCORDO
100
AcDbPolyline
 62
7
  6
CONTINUOUS
 90
13
 70
0
 10
131.3619666131
 20
120.390268511
 10
131.2177439481
 20
117.4353327356
 10
131.0968618999
 20
114.4266084
 10
131.0028287719
 20
111.4301742684
 10
130.9356620603
 20
108.4464615439
 10
130.8953692452
 20
105.4758475229
 10
130.8819555826
 20
102.5186884924
 10
130.8954254306
 20
99.575355303
 10
130.9357776833
 20
96.6462160891
 10
131.0030103065
 20
93.7316233554
 10
131.0971191021
 20
90.8319480105
 10
131.2180898547
 20
87.9476046261
 10
131.3621007039
 20
85.1466620718
  0
LINE
  5
240
100
AcDbEntity
  8
ASSI
100
AcDbLine
 62
7
  6
CONTINUOUS
 10
131.3619666131
 20
120.390268511
 11
131.2177452526
 21
117.4353594641
  0
LINE
  5
241
100
AcDbEntity
  8
ASSI
100
AcDbLine
 62
7
  6
CONTINUOUS
 10
131.3637695233
 20
120.4191897543
 11
131.361965452
 21
120.3901296964
  0
LWPOLYLINE
  5
242
100
AcDbEntity
  8
RACCORDO
100
AcDbPolyline
 62
253
  6
CONTINUOUS
 90
22
 70
0
 10
131.596460967
 20
120.1126966102
 10
131.6041305232
 20
120.2079928247
 10
131.6170134713
 20
120.3050320458
 10
131.6350436446
 20
120.4033287508
 10
131.6581263628
 20
120.5023862722
 10
131.6861461086
 20
120.6017146881
 10
131.7189699511
 20
120.7008333055
 10
131.7564391473
 20
120.7992620726
 10
131.7983620555
 20
120.8964937193
 10
131.8445201397
 20
120.9920130261
 10
131.8946667286
 20
121.0853246964
 10
131.9485568184
 20
121.1759851285
 10
132.0059448478
 20
121.2635718716
 10
132.0665556805
 20
121.3476635908
 10
132.1300743552
 20
121.4278203992
 10
132.196172858
 20
121.5036178292
 10
132.2645081349
 20
121.5746703057
 10
132.3347436908
 20
121.6406349046
 10
132.4065432188
 20
121.7011878533
 10
132.4795510623
 20
121.7560276946
 10
132.5533932436
 20
121.8048791533
 10
132.6276974479
 20
121.8474982612
  0
LWPOLYLINE
  5
243
100
AcDbEntity
  8
ASSI
100
AcDbPolyline
 62
253
  6
CONTINUOUS
 90
22
 70
0
 10
131.596460967
 20
120.1126966102
 10
131.6041305232
 20
120.2079928247
 10
131.6170134713
 20
120.3050320458
 10
131.6350436446
 20
120.4033287508
 10
131.6581263628
 20
120.5023862722
 10
131.6861461086
 20
120.6017146881
 10
131.7189699511
 20
120.7008333055
 10
131.7564391473
 20
120.7992620726
 10
131.7983620555
 20
120.8964937193
 10
131.8445201397
 20
120.9920130261
 10
131.8946667286
 20
121.0853246964
 10
131.9485568184
 20
121.1759851285
 10
132.0059448478
 20
121.2635718716
 10
132.0665556805
 20
121.3476635908
 10
132.1300743552
 20
121.4278203992
 10
132.196172858
 20
121.5036178292
 10
132.2645081349
 20
121.5746703057
 10
132.3347436908
 20
121.6406349046
 10
132.4065432188
 20
121.7011878533
 10
132.4795510623
 20
121.7560276946
 10
132.5533932436
 20
121.8048791533
 10
132.6276974479
 20
121.8474982612
  0
LINE
  5
244
100
AcDbEntity
  8
RACCORDO
100
AcDbLine
 62
253
  6
CONTINUOUS
 10
151.181180971
 20
116.7152424885
 11
147.0526132363
 21
114.635040367
  0
LINE
  5
245
100
AcDbEntity
  8
ASSI
100
AcDbLine
 62
253
  6
CONTINUOUS
 10
151.181180971
 20
116.7152424885
 11
147.0526132363
 21
114.635040367
  0
LINE
  5
246
100
AcDbEntity
  8
RACCORDO
100
AcDbLine
 62
253
  6
CONTINUOUS
 10
134.4601786555
 20
92.1028928915
 11
134.4967106399
 21
92.0904026464
  0
LWPOLYLINE
  5
247
100
AcDbEntity
  8
ASSI
100
AcDbPolyline
 62
253
  6
CONTINUOUS
 90
3
 70
0
 10
134.4601786555
 20
92.1028928915
 10
134.4967106399
 20
92.0904026464
 10
134.5342006419
 20
92.0737253885
  0
LINE
  5
248
100
AcDbEntity
  8
RACCORDO
100
AcDbLine
 62
253
  6
CONTINUOUS
 10
134.1245203448
 20
91.7730842672
 11
134.131581931
 21
91.7701441751
  0
LINE
  5
249
100
AcDbEntity
  8
ASSI
100
AcDbLine
 62
253
  6
CONTINUOUS
 10
134.1245203448
 20
91.7730842672
 11
134.131581931
 21
91.7701441751
  0
LINE
  5
24A
100
AcDbEntity
  8
RACCORDO
100
AcDbLine
 62
253
  6
CONTINUOUS
 10
134.4967106399
 20
92.0904026464
 11
134.5342006419
 21
92.0737253885
  0
LWPOLYLINE
  5
24B
100
AcDbEntity
  8
RACCORDO
100
AcDbPolyline
 62
253
  6
CONTINUOUS
 90
16
 70
0
 10
142.3776153886
 20
87.4796045568
 10
142.3931724791
 20
87.4726007165
 10
142.410108566
 20
87.4664483022
 10
142.4282381046
 20
87.4612147248
 10
142.4473624743
 20
87.4569573286
 10
142.4672721509
 20
87.4537227639
 10
142.4877490016
 20
87.4515464752
 10
142.5085686822
 20
87.4504523115
 10
142.5295030883
 20
87.4504522664
 10
142.5503228505
 20
87.4515463453
 10
142.5707998619
 20
87.4537225657
 10
142.5907097677
 20
87.4569570887
 10
142.6098344168
 20
87.4612144776
 10
142.627964268
 20
87.4664480887
 10
142.6449006845
 20
87.4726005838
 10
142.6604581011
 20
87.479604556
  0
LWPOLYLINE
  5
24C
100
AcDbEntity
  8
RACCORDO
100
AcDbPolyline
 62
253
  6
CONTINUOUS
 90
22
 70
0
 10
134.3873087612
 20
91.7345654917
 10
134.371375211
 20
91.7417880172
 10
134.3556836819
 20
91.7474746721
 10
134.3402341737
 20
91.7516254565
 10
134.3249370731
 20
91.7542502127
 10
134.3098819935
 20
91.7553390982
 10
134.295337775
 20
91.7548625865
 10
134.2813168776
 20
91.7527899964
 10
134.2678068413
 20
91.7491520091
 10
134.2550391267
 20
91.7440111411
 10
134.2430299376
 20
91.7373437002
 10
134.2317630702
 20
91.7291733787
 10
134.2214213735
 20
91.7196337694
 10
134.2120179573
 20
91.7086996054
 10
134.2035397117
 20
91.6963961538
 10
134.1961301568
 20
91.6829328084
 10
134.1898084524
 20
91.668282696
 10
134.1845554386
 20
91.6524726899
 10
134.1804571551
 20
91.6357928046
 10
134.177542282
 20
91.6183397115
 10
134.1757821392
 20
91.6000167392
 10
134.1751767268
 20
91.5808238877
  0
LWPOLYLINE
  5
24D
100
AcDbEntity
  8
RACCORDO
100
AcDbPolyline
 62
253
  6
CONTINUOUS
 90
11
 70
0
 10
134.5287301174
 20
91.9784812505
 10
134.5023012818
 20
91.9904841649
 10
134.4760231916
 20
91.9999960065
 10
134.4500427864
 20
92.0069643857
 10
134.4245072564
 20
92.0113509217
 10
134.3995571419
 20
92.0131325892
 10
134.3753260535
 20
92.0122997769
 10
134.3519450852
 20
92.0088551695
 10
134.3295504526
 20
92.0028169472
 10
134.3082756998
 20
91.9942216422
 10
134.3051233197
 20
91.9926821442
  0
LINE
  5
24E
100
AcDbEntity
  8
ASSI
100
AcDbLine
 62
7
  6
CONTINUOUS
 10
134.5497834315
 20
92.0274588609
 11
134.5599768441
 21
92.0225506539
  0
LINE
  5
24F
100
AcDbEntity
  8
RACCORDO
100
AcDbLine
 62
7
  6
CONTINUOUS
 10
134.549746834
 20
92.0274758209
 11
134.5599768595
 21
92.0225506461
  0
LINE
  5
250
100
AcDbEntity
  8
RACCORDO
100
AcDbLine
 62
253
  6
CONTINUOUS
 10
142.1654833542
 20
87.8454781951
 11
134.3873087612
 21
91.7345654917
  0
LINE
  5
251
100
AcDbEntity
  8
RACCORDO
100
AcDbLine
 62
253
  6
CONTINUOUS
 10
142.3069047105
 20
88.089393954
 11
134.5287301174
 21
91.9784812505
  0
LINE
  5
252
100
AcDbEntity
  8
RACCORDO
100
AcDbLine
 62
7
  6
CONTINUOUS
 10
134.5601514654
 20
92.0224759922
 11
142.3462221127
 21
88.1294406685
  0
LINE
  5
253
100
AcDbEntity
  8
ASSI
100
AcDbLine
 62
7
  6
CONTINUOUS
 10
134.5601514654
 20
92.0224759922
 11
142.3462221127
 21
88.1294406685
  0
LINE
  5
254
100
AcDbEntity
  8
RACCORDO
100
AcDbLine
 62
253
  6
CONTINUOUS
 10
134.5342006419
 20
92.0737253885
 11
142.320271288
 21
88.1806900654
  0
LINE
  5
255
100
AcDbEntity
  8
ASSI
100
AcDbLine
 62
253
  6
CONTINUOUS
 10
134.5342006419
 20
92.0737253885
 11
142.320271288
 21
88.1806900654
  0
LWPOLYLINE
  5
256
100
AcDbEntity
  8
ASSI
100
AcDbPolyline
 62
7
  6
CONTINUOUS
 90
17
 70
0
 10
142.3463310657
 20
88.129378879
 10
142.3607192039
 20
88.1218231704
 10
142.3942950401
 20
88.1014060201
 10
142.4282489227
 20
88.0768292321
 10
142.462130912
 20
88.0482832844
 10
142.4956260999
 20
88.0158777772
 10
142.5283702031
 20
87.9798075946
 10
142.5598429269
 20
87.9404916451
 10
142.5895706412
 20
87.8984010071
 10
142.6171990086
 20
87.8539724317
 10
142.6423702642
 20
87.8077154774
 10
142.6647117946
 20
87.760296112
 10
142.683989541
 20
87.7122885605
 10
142.700018174
 20
87.6642422609
 10
142.7126307088
 20
87.6168345633
 10
142.7217681988
 20
87.5706590955
 10
142.7274341845
 20
87.526205546
  0
LINE
  5
257
100
AcDbEntity
  8
RACCORDO
100
AcDbLine
 62
7
  6
CONTINUOUS
 10
142.3463310547
 20
88.1293788845
 11
142.3607323721
 21
88.121815163
  0
LWPOLYLINE
  5
258
100
AcDbEntity
  8
RACCORDO
100
AcDbPolyline
 62
253
  6
CONTINUOUS
 90
9
 70
0
 10
134.1751767268
 20
91.5808238877
 10
134.1611688908
 20
91.5886025267
 10
134.1488639695
 20
91.5970706623
 10
134.1383967782
 20
91.6061355159
 10
134.1298819978
 20
91.6156977709
 10
134.1234129178
 20
91.6256526613
 10
134.1190604149
 20
91.6358911193
 10
134.1168721761
 20
91.6463009702
 10
134.1165980831
 20
91.6515345658
  0
LWPOLYLINE
  5
259
100
AcDbEntity
  8
RACCORDO
100
AcDbPolyline
 62
253
  6
CONTINUOUS
 90
3
 70
0
 10
142.320271288
 20
88.1806900654
 10
142.357999244
 20
88.1597205506
 10
142.3949276282
 20
88.1354566146
  0
LWPOLYLINE
  5
25A
100
AcDbEntity
  8
ASSI
100
AcDbPolyline
 62
253
  6
CONTINUOUS
 90
3
 70
0
 10
142.320271288
 20
88.1806900654
 10
142.357999244
 20
88.1597205506
 10
142.3949276282
 20
88.1354566146
  0
LWPOLYLINE
  5
25B
100
AcDbEntity
  8
RACCORDO
100
AcDbPolyline
 62
253
  6
CONTINUOUS
 90
6
 70
0
 10
142.7588321641
 20
87.455925515
 10
142.7476824772
 20
87.462612062
 10
142.738991301
 20
87.4702504877
 10
142.7330197955
 20
87.4786112659
 10
142.7299473977
 20
87.4874431647
 10
142.7295408508
 20
87.4914154434
  0
LWPOLYLINE
  5
25C
100
AcDbEntity
  8
ASSI
100
AcDbPolyline
 62
253
  6
CONTINUOUS
 90
6
 70
0
 10
142.7588321641
 20
87.455925515
 10
142.7476824772
 20
87.462612062
 10
142.738991301
 20
87.4702504877
 10
142.7330197955
 20
87.4786112659
 10
142.7299473977
 20
87.4874431647
 10
142.7295408508
 20
87.4914154434
  0
LWPOLYLINE
  5
25D
100
AcDbEntity
  8
RACCORDO
100
AcDbPolyline
 62
253
  6
CONTINUOUS
 90
9
 70
0
 10
131.3619654587
 20
120.3901298265
 10
131.3632584919
 20
120.3588214567
 10
131.3726238688
 20
120.3208206014
 10
131.3904348707
 20
120.2831097774
 10
131.4165006572
 20
120.2460930472
 10
131.4505419395
 20
120.2101670362
 10
131.4921939737
 20
120.1757166829
 10
131.5410104683
 20
120.1431111145
 10
131.5964683663
 20
120.1126996919
  0
LWPOLYLINE
  5
25E
100
AcDbEntity
  8
ASSI
100
AcDbPolyline
 62
253
  6
CONTINUOUS
 90
9
 70
0
 10
131.361965452
 20
120.3901296964
 10
131.3632584919
 20
120.3588214567
 10
131.3726238688
 20
120.3208206014
 10
131.3904348707
 20
120.2831097774
 10
131.4165006572
 20
120.2460930472
 10
131.4505419395
 20
120.2101670362
 10
131.4921939737
 20
120.1757166829
 10
131.5410104683
 20
120.1431111145
 10
131.5964683663
 20
120.1126996919
  0
LWPOLYLINE
  5
25F
100
AcDbEntity
  8
RACCORDO
100
AcDbPolyline
 62
253
  6
CONTINUOUS
 90
22
 70
0
 10
147.0526132363
 20
114.635040367
 10
146.9770786251
 20
114.5930364626
 10
146.9020257628
 20
114.5447903444
 10
146.827826964
 20
114.4905459807
 10
146.7548505958
 20
114.4305814521
 10
146.6834579256
 20
114.3651954104
 10
146.614002093
 20
114.2947032117
 10
146.546819837
 20
114.2194476583
 10
146.4822539677
 20
114.1398144472
 10
146.4206485997
 20
114.0562199956
 10
146.3623198119
 20
113.9691036317
 10
146.3075416231
 20
113.8788872492
 10
146.2565723423
 20
113.7859869248
 10
146.2096576647
 20
113.6908459147
 10
146.1670435705
 20
113.5939598611
 10
146.1289592687
 20
113.4958386467
 10
146.0955977436
 20
113.3969888706
 10
146.0671163959
 20
113.2978912556
 10
146.0436548021
 20
113.1990231721
 10
146.0253306948
 20
113.100873434
 10
146.0122365392
 20
113.0039398167
 10
146.0044385018
 20
112.9087078428
  0
LWPOLYLINE
  5
260
100
AcDbEntity
  8
ASSI
100
AcDbPolyline
 62
253
  6
CONTINUOUS
 90
22
 70
0
 10
147.0526132363
 20
114.635040367
 10
146.9770786251
 20
114.5930364626
 10
146.9020257628
 20
114.5447903444
 10
146.827826964
 20
114.4905459807
 10
146.7548505958
 20
114.4305814521
 10
146.6834579256
 20
114.3651954104
 10
146.614002093
 20
114.2947032117
 10
146.546819837
 20
114.2194476583
 10
146.4822539677
 20
114.1398144472
 10
146.4206485997
 20
114.0562199956
 10
146.3623198119
 20
113.9691036317
 10
146.3075416231
 20
113.8788872492
 10
146.2565723423
 20
113.7859869248
 10
146.2096576647
 20
113.6908459147
 10
146.1670435705
 20
113.5939598611
 10
146.1289592687
 20
113.4958386467
 10
146.0955977436
 20
113.3969888706
 10
146.0671163959
 20
113.2978912556
 10
146.0436548021
 20
113.1990231721
 10
146.0253306948
 20
113.100873434
 10
146.0122365392
 20
113.0039398167
 10
146.0044385018
 20
112.9087078428
  0
LWPOLYLINE
  5
261
100
AcDbEntity
  8
RACCORDO
100
AcDbPolyline
 62
253
  6
CONTINUOUS
 90
22
 70
0
 10
147.6182125046
 20
113.6595259297
 10
147.5825208988
 20
113.639999633
 10
147.5473503935
 20
113.6177754326
 10
147.5127009886
 20
113.5928533286
 10
147.4783897888
 20
113.5650753138
 10
147.4445996895
 20
113.5345993954
 10
147.4118793766
 20
113.5018995945
 10
147.38025733
 20
113.4669466577
 10
147.3497050698
 20
113.4297698384
 10
147.3206858424
 20
113.3909309189
 10
147.2932272832
 20
113.3504115496
 10
147.2673017568
 20
113.30823008
 10
147.2432896022
 20
113.2650033413
 10
147.2212148088
 20
113.2207056792
 10
147.2010533872
 20
113.1753627479
 10
147.1831137082
 20
113.129668342
 10
147.1674319525
 20
113.0836072822
 10
147.1539719394
 20
113.0371947477
 10
147.1429334975
 20
112.9911700708
 10
147.1343832363
 20
112.9457796958
 10
147.1282545464
 20
112.9007771785
 10
147.1245474276
 20
112.8561625189
  0
LWPOLYLINE
  5
262
100
AcDbEntity
  8
ASSI
100
AcDbPolyline
 62
253
  6
CONTINUOUS
 90
22
 70
0
 10
147.6182125046
 20
113.6595259297
 10
147.5825208988
 20
113.639999633
 10
147.5473503935
 20
113.6177754326
 10
147.5127009886
 20
113.5928533286
 10
147.4783897888
 20
113.5650753138
 10
147.4445996895
 20
113.5345993954
 10
147.4118793766
 20
113.5018995945
 10
147.38025733
 20
113.4669466577
 10
147.3497050698
 20
113.4297698384
 10
147.3206858424
 20
113.3909309189
 10
147.2932272832
 20
113.3504115496
 10
147.2673017568
 20
113.30823008
 10
147.2432896022
 20
113.2650033413
 10
147.2212148088
 20
113.2207056792
 10
147.2010533872
 20
113.1753627479
 10
147.1831137082
 20
113.129668342
 10
147.1674319525
 20
113.0836072822
 10
147.1539719394
 20
113.0371947477
 10
147.1429334975
 20
112.9911700708
 10
147.1343832363
 20
112.9457796958
 10
147.1282545464
 20
112.9007771785
 10
147.1245474276
 20
112.8561625189
  0
LINE
  5
263
100
AcDbEntity
  8
RACCORDO
100
AcDbLine
 62
253
  6
CONTINUOUS
 10
151.7467802393
 20
115.7397280512
 11
147.6182125046
 21
113.6595259297
  0
LINE
  5
264
100
AcDbEntity
  8
ASSI
100
AcDbLine
 62
253
  6
CONTINUOUS
 10
151.7467802393
 20
115.7397280512
 11
147.6182125046
 21
113.6595259297
  0
LWPOLYLINE
  5
265
100
AcDbEntity
  8
RACCORDO
100
AcDbPolyline
 62
253
  6
CONTINUOUS
 90
16
 70
0
 10
147.1245474276
 20
112.8561625189
 10
147.0622184913
 20
112.8339057882
 10
146.9946028669
 20
112.8149705857
 10
146.9224250465
 20
112.7995597994
 10
146.8464584052
 20
112.7878385538
 10
146.7675169152
 20
112.7799324403
 10
146.6864464234
 20
112.7759261719
 10
146.6041155889
 20
112.7758626751
 10
146.5214065752
 20
112.7797426304
 10
146.4392055977
 20
112.7875244646
 10
146.3583934286
 20
112.7991247963
 10
146.2798359589
 20
112.8144193297
 10
146.204374921
 20
112.833244186
 10
146.1328188694
 20
112.8553976597
 10
146.0659345173
 20
112.8806423792
 10
146.0044385212
 20
112.9087078509
  0
LWPOLYLINE
  5
266
100
AcDbEntity
  8
ASSI
100
AcDbPolyline
 62
253
  6
CONTINUOUS
 90
16
 70
0
 10
147.1245474276
 20
112.8561625189
 10
147.0622184913
 20
112.8339057882
 10
146.9946028669
 20
112.8149705857
 10
146.9224250465
 20
112.7995597994
 10
146.8464584052
 20
112.7878385538
 10
146.7675169152
 20
112.7799324403
 10
146.6864464234
 20
112.7759261719
 10
146.6041155889
 20
112.7758626751
 10
146.5214065752
 20
112.7797426304
 10
146.4392055977
 20
112.7875244646
 10
146.3583934286
 20
112.7991247963
 10
146.2798359589
 20
112.8144193297
 10
146.204374921
 20
112.833244186
 10
146.1328188694
 20
112.8553976597
 10
146.0659345173
 20
112.8806423792
 10
146.0044385212
 20
112.9087078509
  0
LWPOLYLINE
  5
267
100
AcDbEntity
  8
ASSI
100
AcDbPolyline
 62
7
  6
CONTINUOUS
 90
5
 70
0
 10
134.4395243882
 20
92.0540093723
 10
134.4648943705
 20
92.0528191749
 10
134.4921266969
 20
92.0479448018
 10
134.520599781
 20
92.0394336841
 10
134.5497834315
 20
92.0274588609
  0
LINE
  5
268
100
AcDbEntity
  8
0
100
AcDbLine
 62
253
  6
CONTINUOUS
 10
139.8535943478
 20
91.0174720627
 11
139.1969955069
 21
91.3457714831
  0
LINE
  5
269
100
AcDbEntity
  8
0
100
AcDbLine
 62
253
  6
CONTINUOUS
 10
137.3585176567
 20
92.2650104082
 11
136.8332383648
 21
92.5276500542
  0
LINE
  5
26A
100
AcDbEntity
  8
0
100
AcDbLine
 62
253
  6
CONTINUOUS
 10
134.6883477861
 20
93.6000953435
 11
135.2136271053
 21
93.3374556839
  0
LINE
  5
26B
100
AcDbEntity
  8
0
100
AcDbLine
 62
253
  6
CONTINUOUS
 10
141.5607522107
 20
90.1638931312
 11
142.2173514899
 21
89.8355934916
  0
LWPOLYLINE
  5
26C
100
AcDbEntity
  8
RACCORDO
100
AcDbPolyline
 62
7
  6
CONTINUOUS
 90
15
 70
0
 10
142.3607627722
 20
88.1217991965
 10
142.3943362218
 20
88.1013786054
 10
142.4282872161
 20
88.0767992677
 10
142.4621659377
 20
88.0482516256
 10
142.4956574619
 20
88.0158453803
 10
142.5283975749
 20
87.9797754807
 10
142.5598661775
 20
87.9404607266
 10
142.5895897783
 20
87.8983721454
 10
142.6172141594
 20
87.8539464153
 10
142.6423816806
 20
87.8076929634
 10
142.6647198614
 20
87.7602776095
 10
142.6839947296
 20
87.7122744399
 10
142.7000210305
 20
87.6642327305
 10
142.7126318555
 20
87.6168296217
 10
142.721768285
 20
87.5706585668
  0
LINE
  5
26D
100
AcDbEntity
  8
RACCORDO
100
AcDbLine
 62
253
  6
CONTINUOUS
 10
142.3949276282
 20
88.1354566146
 11
142.431056654
 21
88.1078983727
  0
LINE
  5
26E
100
AcDbEntity
  8
ASSI
100
AcDbLine
 62
253
  6
CONTINUOUS
 10
142.3949276282
 20
88.1354566146
 11
142.431056654
 21
88.1078983727
  0
LWPOLYLINE
  5
26F
100
AcDbEntity
  8
RACCORDO
100
AcDbPolyline
 62
253
  6
CONTINUOUS
 90
13
 70
0
 10
142.431056654
 20
88.1078983727
 10
142.4666400974
 20
88.0767741258
 10
142.5014250336
 20
88.0423560332
 10
142.5346517553
 20
88.0054600689
 10
142.5662688989
 20
87.9660704171
 10
142.5963292586
 20
87.9242036676
 10
142.6242292989
 20
87.8807243679
 10
142.6499400762
 20
87.8356013206
 10
142.6734922047
 20
87.7888666281
 10
142.6943712004
 20
87.7414796342
 10
142.7125423586
 20
87.6933703791
 10
142.7280419174
 20
87.6446096549
 10
142.7404612294
 20
87.5963676199
  0
LWPOLYLINE
  5
270
100
AcDbEntity
  8
ASSI
100
AcDbPolyline
 62
253
  6
CONTINUOUS
 90
13
 70
0
 10
142.431056654
 20
88.1078983727
 10
142.4666400974
 20
88.0767741258
 10
142.5014250336
 20
88.0423560332
 10
142.5346517553
 20
88.0054600689
 10
142.5662688989
 20
87.9660704171
 10
142.5963292586
 20
87.9242036676
 10
142.6242292989
 20
87.8807243679
 10
142.6499400762
 20
87.8356013206
 10
142.6734922047
 20
87.7888666281
 10
142.6943712004
 20
87.7414796342
 10
142.7125423586
 20
87.6933703791
 10
142.7280419174
 20
87.6446096549
 10
142.7404612294
 20
87.5963676199
  0
LWPOLYLINE
  5
271
100
AcDbEntity
  8
RACCORDO
100
AcDbPolyline
 62
253
  6
CONTINUOUS
 90
6
 70
0
 10
134.5342006419
 20
92.0737253885
 10
134.5356126159
 20
92.0598376721
 10
134.5390189762
 20
92.0474496583
 10
134.5443216348
 20
92.0369180668
 10
134.5513678987
 20
92.0285461608
 10
134.5599821125
 20
92.0225612044
  0
LWPOLYLINE
  5
272
100
AcDbEntity
  8
ASSI
100
AcDbPolyline
 62
253
  6
CONTINUOUS
 90
6
 70
0
 10
134.5342006419
 20
92.0737253885
 10
134.5356126159
 20
92.0598376721
 10
134.5390189762
 20
92.0474496583
 10
134.5443216348
 20
92.0369180668
 10
134.5513678987
 20
92.0285461608
 10
134.559982097
 20
92.0225612122
  0
LWPOLYLINE
  5
273
100
AcDbEntity
  8
RACCORDO
100
AcDbPolyline
 62
253
  6
CONTINUOUS
 90
9
 70
0
 10
134.3873087612
 20
88.1838613362
 10
134.3880834822
 20
88.1661438357
 10
134.3903991571
 20
88.1493951729
 10
134.394230415
 20
88.1337988496
 10
134.3995352798
 20
88.1195257424
 10
134.4062556303
 20
88.1067322303
 10
134.4143178368
 20
88.0955584819
 10
134.4236335683
 20
88.086126919
 10
134.4341007596
 20
88.0785408758
  0
LWPOLYLINE
  5
274
100
AcDbEntity
  8
RACCORDO
100
AcDbPolyline
 62
7
  6
CONTINUOUS
 90
19
 70
0
 10
134.1165980831
 20
88.6204456447
 10
134.1178792273
 20
88.5836387293
 10
134.1216374691
 20
88.5468232355
 10
134.1277559673
 20
88.5101317274
 10
134.1361532314
 20
88.4736076587
 10
134.1467396211
 20
88.4374199548
 10
134.1593644113
 20
88.4018962949
 10
134.1738975968
 20
88.367227631
 10
134.1902822188
 20
88.3334476614
 10
134.2084473148
 20
88.3006698601
 10
134.2283539222
 20
88.2689787751
 10
134.2499283385
 20
88.2385378856
 10
134.2730549685
 20
88.2095620353
 10
134.2977649137
 20
88.18209202
 10
134.3239537262
 20
88.1563501975
 10
134.3512856003
 20
88.1327301441
 10
134.3796065413
 20
88.1113862172
 10
134.4089604002
 20
88.0923314638
 10
134.4392873983
 20
88.0756865761
  0
LWPOLYLINE
  5
275
100
AcDbEntity
  8
RACCORDO
100
AcDbPolyline
 62
253
  6
CONTINUOUS
 90
22
 70
0
 10
134.1751767268
 20
88.5497349745
 10
134.175784404
 20
88.529916602
 10
134.1775473097
 20
88.5098170294
 10
134.1804654437
 20
88.4894362564
 10
134.1845673545
 20
88.4686502555
 10
134.1898244936
 20
88.4475830544
 10
134.1961512161
 20
88.4266067362
 10
134.2035674863
 20
88.4057265789
 10
134.2120533397
 20
88.3849373045
 10
134.2214632385
 20
88.3645951621
 10
134.2318099121
 20
88.3447136326
 10
134.2430806311
 20
88.3252792351
 10
134.2550916694
 20
88.3066077759
 10
134.2678583055
 20
88.288707672
 10
134.281365261
 20
88.2715705065
 10
134.2953829746
 20
88.2554868353
 10
134.3099255663
 20
88.2404730644
 10
134.3249789161
 20
88.2265127878
 10
134.3402711027
 20
88.2138473429
 10
134.3557114854
 20
88.2025571756
 10
134.371390705
 20
88.19256184
 10
134.3873087612
 20
88.1838613362
  0
LINE
  5
276
100
AcDbEntity
  8
RACCORDO
100
AcDbLine
 62
253
  6
CONTINUOUS
 10
134.1254360045
 20
91.7422706034
 11
134.1245176191
 21
91.7730827874
  0
LINE
  5
277
100
AcDbEntity
  8
ASSI
100
AcDbLine
 62
253
  6
CONTINUOUS
 10
134.1254360045
 20
91.7422706034
 11
134.1245176191
 21
91.7730827874
  0
LWPOLYLINE
  5
278
100
AcDbEntity
  8
0
100
AcDbPolyline
 62
253
  6
CONTINUOUS
 90
3
 70
0
 10
134.3974755682
 20
95.1647984922
 10
134.4143882421
 20
94.2665921904
 10
134.4222456952
 20
93.8905172116
  0
LINE
  5
279
100
AcDbEntity
  8
RACCORDO
100
AcDbLine
 62
7
  6
CONTINUOUS
 10
134.1165980831
 20
91.6515345658
 11
134.1165980831
 21
88.6204456454
  0
LINE
  5
27A
100
AcDbEntity
  8
RACCORDO
100
AcDbLine
 62
253
  6
CONTINUOUS
 10
134.1751767268
 20
91.5808238877
 11
134.1751767268
 21
88.5497349745
  0
LWPOLYLINE
  5
27B
100
AcDbEntity
  8
RACCORDO
100
AcDbPolyline
 62
253
  6
CONTINUOUS
 90
17
 70
0
 10
134.1245176191
 20
91.7730827874
 10
134.1249610464
 20
91.817779273
 10
134.1285467379
 20
91.8598287685
 10
134.1352742191
 20
91.8992310151
 10
134.1452584149
 20
91.9362260386
 10
134.1583835677
 20
91.9705733593
 10
134.1743028336
 20
92.0015517727
 10
134.1930525404
 20
92.0290768883
 10
134.214594847
 20
92.0532322751
 10
134.2384711074
 20
92.0735483718
 10
134.2647194609
 20
92.0899668415
 10
134.2933001108
 20
92.1025451231
 10
134.3236372164
 20
92.1109871621
 10
134.3558034019
 20
92.1152103452
 10
134.3897246093
 20
92.11529651
 10
134.4246049021
 20
92.1111962392
 10
134.4601786555
 20
92.1028928915
  0
LWPOLYLINE
  5
27C
100
AcDbEntity
  8
ASSI
100
AcDbPolyline
 62
253
  6
CONTINUOUS
 90
17
 70
0
 10
134.1245176191
 20
91.7730827874
 10
134.1249610464
 20
91.817779273
 10
134.1285467379
 20
91.8598287685
 10
134.1352742191
 20
91.8992310151
 10
134.1452584149
 20
91.9362260386
 10
134.1583835677
 20
91.9705733593
 10
134.1743028336
 20
92.0015517727
 10
134.1930525404
 20
92.0290768883
 10
134.214594847
 20
92.0532322751
 10
134.2384711074
 20
92.0735483718
 10
134.2647194609
 20
92.0899668415
 10
134.2933001108
 20
92.1025451231
 10
134.3236372164
 20
92.1109871621
 10
134.3558034019
 20
92.1152103452
 10
134.3897246093
 20
92.11529651
 10
134.4246049021
 20
92.1111962392
 10
134.4601786555
 20
92.1028928915
  0
LWPOLYLINE
  5
27D
100
AcDbEntity
  8
RACCORDO
100
AcDbPolyline
 62
7
  6
CONTINUOUS
 90
6
 70
0
 10
134.4164054827
 20
92.0516340613
 10
134.4395123876
 20
92.0540090623
 10
134.4648766564
 20
92.0528212048
 10
134.4921027367
 20
92.0479505545
 10
134.5205694251
 20
92.0394444801
 10
134.549746834
 20
92.0274758209
  0
LINE
  5
27E
100
AcDbEntity
  8
ASSI
100
AcDbLine
 62
7
  6
CONTINUOUS
 10
134.4164125942
 20
92.0516353845
 11
134.4395243882
 21
92.0540093723
  0
LINE
  5
27F
100
AcDbEntity
  8
0
100
AcDbLine
 62
253
  6
CONTINUOUS
 10
142.1863887779
 20
91.4284450667
 11
141.5297894987
 21
91.7567447063
  0
LINE
  5
280
100
AcDbEntity
  8
0
100
AcDbLine
 62
253
  6
CONTINUOUS
 10
140.8731902195
 20
92.0850443459
 11
140.3479111468
 21
92.3476838822
  0
LINE
  5
281
100
AcDbEntity
  8
0
100
AcDbLine
 62
253
  6
CONTINUOUS
 10
138.5094335157
 20
93.2669226978
 11
137.9841540047
 21
93.5295624533
  0
LINE
  5
282
100
AcDbEntity
  8
0
100
AcDbLine
 62
253
  6
CONTINUOUS
 10
137.3275549447
 20
93.8578619833
 11
136.8022756528
 21
94.1205016292
  0
LINE
  5
283
100
AcDbEntity
  8
0
100
AcDbLine
 62
253
  6
CONTINUOUS
 10
135.1826643933
 20
94.930307259
 11
134.6573850741
 21
95.1929469186
  0
LINE
  5
284
100
AcDbEntity
  8
0
100
AcDbLine
 62
253
  6
CONTINUOUS
 10
136.0042493541
 20
95.152740646
 11
135.9604761346
 21
95.1746272558
  0
LWPOLYLINE
  5
285
100
AcDbEntity
  8
0
100
AcDbPolyline
 62
253
  6
CONTINUOUS
 90
4
 70
0
 10
135.2136271053
 20
93.3374556839
 10
135.1951729204
 20
94.2348461309
 10
135.179302803
 20
95.1336019828
 10
135.172557143
 20
95.5685866833
  0
LWPOLYLINE
  5
286
100
AcDbEntity
  8
0
100
AcDbPolyline
 62
253
  6
CONTINUOUS
 90
3
 70
0
 10
135.9705833859
 20
94.5363477627
 10
135.9870376845
 20
93.6378996215
 10
136.0015460988
 20
92.943496148
  0
LINE
  5
287
100
AcDbEntity
  8
0
100
AcDbLine
 62
253
  6
CONTINUOUS
 10
135.9604761346
 20
95.1746272558
 11
135.9628809422
 21
95.0149963158
  0
LWPOLYLINE
  5
288
100
AcDbEntity
  8
0
100
AcDbPolyline
 62
253
  6
CONTINUOUS
 90
4
 70
0
 10
135.5111922003
 20
96.253743659
 10
135.5016240838
 20
97.155783109
 10
135.4946405677
 20
98.0591502397
 10
135.4921934059
 20
98.4959101964
  0
LINE
  5
289
100
AcDbEntity
  8
0
100
AcDbLine
 62
253
  6
CONTINUOUS
 10
136.0236637454
 20
97.2713664566
 11
136.0327817203
 21
96.3109256463
  0
LWPOLYLINE
  5
28A
100
AcDbEntity
  8
0
100
AcDbPolyline
 62
253
  6
CONTINUOUS
 90
3
 70
0
 10
134.7092303203
 20
98.0881812959
 10
134.7172574805
 20
97.1853489435
 10
134.7213876359
 20
96.8075936483
  0
LWPOLYLINE
  5
28B
100
AcDbEntity
  8
RACCORDO
100
AcDbPolyline
 62
253
  6
CONTINUOUS
 90
16
 70
0
 10
134.3873087612
 20
91.7345654917
 10
134.3880834629
 20
91.7530574971
 10
134.3903990892
 20
91.772121644
 10
134.3942302788
 20
91.7915490682
 10
134.3995350655
 20
91.8111269248
 10
134.4062553377
 20
91.8306407161
 10
134.4143174734
 20
91.8498766424
 10
134.4236331496
 20
91.8686239509
 10
134.4341003077
 20
91.8866772383
 10
134.4456042683
 20
91.9038386988
 10
134.4580189956
 20
91.9199203037
 10
134.4712084731
 20
91.9347458527
 10
134.4850281886
 20
91.9481529009
 10
134.4993267279
 20
91.9599945505
 10
134.5139474341
 20
91.9701410581
 10
134.5287301181
 20
91.9784812502
  0
LINE
  5
28C
100
AcDbEntity
  8
ASSI
100
AcDbLine
 62
7
  6
CONTINUOUS
 10
134.3956225326
 20
92.045912114
 11
134.4164125942
 21
92.0516353845
  0
LINE
  5
28D
100
AcDbEntity
  8
0
100
AcDbLine
 62
253
  6
CONTINUOUS
 10
134.9859128811
 20
96.5163833187
 11
135.5111922003
 21
96.253743659
  0
LINE
  5
28E
100
AcDbEntity
  8
0
100
AcDbLine
 62
253
  6
CONTINUOUS
 10
136.2991111929
 20
95.8597841627
 11
136.5617508388
 21
95.7284643398
  0
LINE
  5
28F
100
AcDbEntity
  8
0
100
AcDbLine
 62
253
  6
CONTINUOUS
 10
140.3700258692
 20
93.8243268246
 11
140.6326654055
 21
93.6930070564
  0
LINE
  5
290
100
AcDbEntity
  8
0
100
AcDbLine
 62
253
  6
CONTINUOUS
 10
137.4764759907
 20
92.8360029929
 11
137.4863750062
 21
92.3584526079
  0
LINE
  5
291
100
AcDbEntity
  8
0
100
AcDbLine
 62
253
  6
CONTINUOUS
 10
136.6736860521
 20
94.0266932502
 11
136.6823646489
 21
93.5485327201
  0
LWPOLYLINE
  5
292
100
AcDbEntity
  8
0
100
AcDbPolyline
 62
253
  6
CONTINUOUS
 90
4
 70
0
 10
138.1929131798
 20
94.0584087332
 10
138.2075339731
 20
93.1589967099
 10
138.2247389314
 20
92.2609447993
 10
138.2339831416
 20
91.8272777335
  0
LINE
  5
293
100
AcDbEntity
  8
0
100
AcDbLine
 62
253
  6
CONTINUOUS
 10
136.8207007675
 20
95.9169661415
 11
136.8115827926
 21
96.8774069518
  0
LINE
  5
294
100
AcDbEntity
  8
0
100
AcDbLine
 62
253
  6
CONTINUOUS
 10
141.930667293
 20
94.6371423729
 11
141.405387782
 21
94.8997821284
  0
LINE
  5
295
100
AcDbEntity
  8
0
100
AcDbLine
 62
253
  6
CONTINUOUS
 10
140.6174687346
 20
95.2937416521
 11
140.3548291982
 21
95.4250614202
  0
LINE
  5
296
100
AcDbEntity
  8
0
100
AcDbLine
 62
253
  6
CONTINUOUS
 10
139.4355903827
 20
95.884680828
 11
138.7789911035
 21
96.2129804676
  0
LINE
  5
297
100
AcDbEntity
  8
0
100
AcDbLine
 62
253
  6
CONTINUOUS
 10
136.5465541679
 20
97.3291989354
 11
136.283914522
 21
97.4605187584
  0
LINE
  5
298
100
AcDbEntity
  8
0
100
AcDbLine
 62
253
  6
CONTINUOUS
 10
135.4959955294
 20
97.8544782547
 11
134.9707162101
 21
98.1171179143
  0
LWPOLYLINE
  5
299
100
AcDbEntity
  8
0
100
AcDbPolyline
 62
253
  6
CONTINUOUS
 90
3
 70
0
 10
139.0622128817
 20
91.5705336735
 10
139.0442171096
 20
92.4681671494
 10
139.0347125883
 20
93.0042831682
  0
LWPOLYLINE
  5
29A
100
AcDbEntity
  8
0
100
AcDbPolyline
 62
253
  6
CONTINUOUS
 90
3
 70
0
 10
139.8226316358
 20
92.6103236378
 10
139.8390859344
 20
91.7118754966
 10
139.8535943487
 20
91.0174720231
  0
LWPOLYLINE
  5
29B
100
AcDbEntity
  8
0
100
AcDbPolyline
 62
253
  6
CONTINUOUS
 90
3
 70
0
 10
139.5821068218
 20
94.2182863483
 10
139.5725387053
 20
95.1203257982
 10
139.568063934
 20
95.658764536
  0
LWPOLYLINE
  5
29C
100
AcDbEntity
  8
0
100
AcDbPolyline
 62
253
  6
CONTINUOUS
 90
3
 70
0
 10
138.7789911035
 20
96.2129804676
 10
138.7865598788
 20
95.3099130103
 10
138.7941877744
 20
94.6122458786
  0
LWPOLYLINE
  5
29D
100
AcDbEntity
  8
RACCORDO
100
AcDbPolyline
 62
253
  6
CONTINUOUS
 90
6
 70
0
 10
142.320271288
 20
88.1806900654
 10
142.3216834405
 20
88.1668013746
 10
142.3250901792
 20
88.154412869
 10
142.3303932769
 20
88.1438812191
 10
142.337439888
 20
88.1355096056
 10
142.3462221127
 20
88.1294406685
  0
LWPOLYLINE
  5
29E
100
AcDbEntity
  8
ASSI
100
AcDbPolyline
 62
253
  6
CONTINUOUS
 90
6
 70
0
 10
142.320271288
 20
88.1806900654
 10
142.3216834405
 20
88.1668013746
 10
142.3250901792
 20
88.154412869
 10
142.3303932769
 20
88.1438812191
 10
142.337439888
 20
88.1355096056
 10
142.3462221127
 20
88.1294406685
  0
LWPOLYLINE
  5
29F
100
AcDbEntity
  8
RACCORDO
100
AcDbPolyline
 62
253
  6
CONTINUOUS
 90
10
 70
0
 10
142.1654833542
 20
84.2947740396
 10
142.1662580588
 20
84.2770567373
 10
142.1685736877
 20
84.260308218
 10
142.1724048793
 20
84.2447119844
 10
142.1777096678
 20
84.2304389155
 10
142.1844299413
 20
84.217645397
 10
142.1924920778
 20
84.2064716068
 10
142.2018077544
 20
84.1970399747
 10
142.2122749123
 20
84.1894538453
 10
142.2174619971
 20
84.1865992767
  0
LWPOLYLINE
  5
2A0
100
AcDbEntity
  8
0
100
AcDbPolyline
 62
253
  6
CONTINUOUS
 90
3
 70
0
 10
140.3479111468
 20
92.3476838822
 10
140.3643654454
 20
91.4492357411
 10
140.3788738597
 20
90.7548322676
  0
LINE
  5
2A1
100
AcDbEntity
  8
0
100
AcDbLine
 62
253
  6
CONTINUOUS
 10
140.9691714236
 20
91.5629883835
 11
140.9634670453
 21
91.8818027435
  0
LWPOLYLINE
  5
2A2
100
AcDbEntity
  8
0
100
AcDbPolyline
 62
253
  6
CONTINUOUS
 90
4
 70
0
 10
141.5196822474
 20
92.3950241994
 10
141.5343030407
 20
91.4956121761
 10
141.551507999
 20
90.5975602655
 10
141.5607522092
 20
90.1638931997
  0
LINE
  5
2A3
100
AcDbEntity
  8
0
100
AcDbLine
 62
253
  6
CONTINUOUS
 10
140.0945785312
 20
95.2359090637
 11
140.1036965062
 21
94.2754682534
  0
LINE
  5
2A4
100
AcDbEntity
  8
0
100
AcDbLine
 62
253
  6
CONTINUOUS
 10
140.8916155533
 20
93.8815087486
 11
140.8824975784
 21
94.8419495589
  0
LWPOLYLINE
  5
2A5
100
AcDbEntity
  8
RACCORDO
100
AcDbPolyline
 62
253
  6
CONTINUOUS
 90
3
 70
0
 10
142.7404612294
 20
87.5963676199
 10
142.7496641926
 20
87.5490343893
 10
142.7557876878
 20
87.5022202727
  0
LINE
  5
2A6
100
AcDbEntity
  8
ASSI
100
AcDbLine
 62
253
  6
CONTINUOUS
 10
142.7404612294
 20
87.5963676199
 11
142.7496641926
 21
87.5490343893
  0
LINE
  5
2A7
100
AcDbEntity
  8
ASSI
100
AcDbLine
 62
253
  6
CONTINUOUS
 10
142.7496641926
 20
87.5490343893
 11
142.7557876878
 21
87.5022202727
  0
LINE
  5
2A8
100
AcDbEntity
  8
RACCORDO
100
AcDbLine
 62
7
  6
CONTINUOUS
 10
142.721768285
 20
87.5706585668
 11
142.7274339775
 21
87.5262071704
  0
LINE
  5
2A9
100
AcDbEntity
  8
RACCORDO
100
AcDbLine
 62
253
  6
CONTINUOUS
 10
142.7557876878
 20
87.5022202727
 11
142.7588321641
 21
87.455925515
  0
LINE
  5
2AA
100
AcDbEntity
  8
ASSI
100
AcDbLine
 62
253
  6
CONTINUOUS
 10
142.7557876878
 20
87.5022202727
 11
142.7588321641
 21
87.455925515
  0
LINE
  5
2AB
100
AcDbEntity
  8
RACCORDO
100
AcDbLine
 62
7
  6
CONTINUOUS
 10
142.7274339775
 20
87.5262071704
 11
142.7295299314
 21
87.4914426379
  0
LINE
  5
2AC
100
AcDbEntity
  8
ASSI
100
AcDbLine
 62
7
  6
CONTINUOUS
 10
142.7274341845
 20
87.526205546
 11
142.7295299309
 21
87.4914426558
  0
LINE
  5
2AD
100
AcDbEntity
  8
ASSI
100
AcDbLine
 62
7
  6
CONTINUOUS
 10
142.8065171089
 20
85.131470921
 11
142.8301368767
 21
84.5022348786
  0
LINE
  5
2AE
100
AcDbEntity
  8
RACCORDO
100
AcDbLine
 62
7
  6
CONTINUOUS
 10
142.8065159106
 20
85.1315037557
 11
142.8301368767
 21
84.5022348786
  0
LINE
  5
2AF
100
AcDbEntity
  8
RACCORDO
100
AcDbLine
 62
253
  6
CONTINUOUS
 10
142.8345834318
 20
85.1296004516
 11
142.859429002
 21
84.4667290841
  0
LINE
  5
2B0
100
AcDbEntity
  8
ASSI
100
AcDbLine
 62
253
  6
CONTINUOUS
 10
142.8345834318
 20
85.1296004516
 11
142.859429002
 21
84.4667290841
  0
LINE
  5
2B1
100
AcDbEntity
  8
ASSI
100
AcDbLine
 62
7
  6
CONTINUOUS
 10
142.7820220935
 20
85.8243035145
 11
142.8065171089
 21
85.131470921
  0
LINE
  5
2B2
100
AcDbEntity
  8
RACCORDO
100
AcDbLine
 62
7
  6
CONTINUOUS
 10
142.7820219443
 20
85.8243078755
 11
142.8065159106
 21
85.1315037557
  0
LINE
  5
2B3
100
AcDbEntity
  8
RACCORDO
100
AcDbLine
 62
253
  6
CONTINUOUS
 10
142.8111610661
 20
85.7932706396
 11
142.8345834318
 21
85.1296004516
  0
LINE
  5
2B4
100
AcDbEntity
  8
ASSI
100
AcDbLine
 62
253
  6
CONTINUOUS
 10
142.8111610661
 20
85.7932706396
 11
142.8345834318
 21
85.1296004516
  0
LINE
  5
2B5
100
AcDbEntity
  8
RACCORDO
100
AcDbLine
 62
7
  6
CONTINUOUS
 10
142.7590790664
 20
86.5179799975
 11
142.7820219443
 21
85.8243078755
  0
LINE
  5
2B6
100
AcDbEntity
  8
ASSI
100
AcDbLine
 62
7
  6
CONTINUOUS
 10
142.7590782941
 20
86.5180041819
 11
142.7820220935
 21
85.8243035145
  0
LINE
  5
2B7
100
AcDbEntity
  8
RACCORDO
100
AcDbLine
 62
253
  6
CONTINUOUS
 10
142.789162007
 20
86.4577363569
 11
142.8111610661
 21
85.7932706396
  0
LINE
  5
2B8
100
AcDbEntity
  8
ASSI
100
AcDbLine
 62
253
  6
CONTINUOUS
 10
142.789162007
 20
86.4577363569
 11
142.8111610661
 21
85.7932706396
  0
LWPOLYLINE
  5
2B9
100
AcDbEntity
  8
RACCORDO
100
AcDbPolyline
 62
253
  6
CONTINUOUS
 90
22
 70
0
 10
142.3776153886
 20
87.4796045568
 10
142.3770077114
 20
87.4994229293
 10
142.3752448057
 20
87.5195225019
 10
142.3723266717
 20
87.5399032749
 10
142.3682247609
 20
87.5606892758
 10
142.3629676218
 20
87.5817564769
 10
142.3566408993
 20
87.6027327951
 10
142.3492246291
 20
87.6236129524
 10
142.3407387757
 20
87.6444022268
 10
142.3313288769
 20
87.6647443692
 10
142.3209822033
 20
87.6846258987
 10
142.3097114843
 20
87.7040602962
 10
142.297700446
 20
87.7227317554
 10
142.2849338099
 20
87.7406318593
 10
142.2714268544
 20
87.7577690247
 10
142.2574091408
 20
87.773852696
 10
142.2428665491
 20
87.7888664669
 10
142.2278131993
 20
87.8028267435
 10
142.2125210127
 20
87.8154921884
 10
142.19708063
 20
87.8267823557
 10
142.1814014104
 20
87.8367776913
 10
142.1654833542
 20
87.8454781951
  0
LWPOLYLINE
  5
2BA
100
AcDbEntity
  8
RACCORDO
100
AcDbPolyline
 62
253
  6
CONTINUOUS
 90
22
 70
0
 10
142.6604581011
 20
87.4796045568
 10
142.6594689126
 20
87.5124677319
 10
142.6565073134
 20
87.5461324878
 10
142.6515905151
 20
87.5804102549
 10
142.6447472703
 20
87.6151063867
 10
142.6360161542
 20
87.6500294695
 10
142.6254438653
 20
87.6849925152
 10
142.6130861148
 20
87.7198071115
 10
142.5990133565
 20
87.7542712021
 10
142.5833099379
 20
87.7881790558
 10
142.5660700831
 20
87.8213320348
 10
142.547386945
 20
87.8535553871
 10
142.527355821
 20
87.884684812
 10
142.5060816541
 20
87.9145536189
 10
142.4836879793
 20
87.9429849694
 10
142.460307564
 20
87.9698097355
 10
142.4360759076
 20
87.9948740613
 10
142.4111246647
 20
88.0180433158
 10
142.3855885935
 20
88.0391924461
 10
142.3596086752
 20
88.0582038114
 10
142.3333317356
 20
88.0749691042
 10
142.3069047105
 20
88.089393954
  0
LWPOLYLINE
  5
2BB
100
AcDbEntity
  8
RACCORDO
100
AcDbPolyline
 62
253
  6
CONTINUOUS
 90
3
 70
0
 10
142.7588321641
 20
87.455925515
 10
142.7685862471
 20
87.1229979628
 10
142.789162007
 20
86.4577363569
  0
LWPOLYLINE
  5
2BC
100
AcDbEntity
  8
ASSI
100
AcDbPolyline
 62
253
  6
CONTINUOUS
 90
3
 70
0
 10
142.7588321641
 20
87.455925515
 10
142.7685862471
 20
87.1229979628
 10
142.789162007
 20
86.4577363569
  0
LINE
  5
2BD
100
AcDbEntity
  8
RACCORDO
100
AcDbLine
 62
7
  6
CONTINUOUS
 10
142.7295408508
 20
87.4914154434
 11
142.7590790664
 21
86.5179799975
  0
LINE
  5
2BE
100
AcDbEntity
  8
ASSI
100
AcDbLine
 62
7
  6
CONTINUOUS
 10
142.7295408508
 20
87.4914154434
 11
142.7590782941
 21
86.5180041819
  0
LWPOLYLINE
  5
2BF
100
AcDbEntity
  8
0
100
AcDbPolyline
 62
253
  6
CONTINUOUS
 90
3
 70
0
 10
142.345208401
 20
89.9290359138
 10
142.3272126289
 20
90.8266693898
 10
142.3204382742
 20
91.2033171945
  0
LWPOLYLINE
  5
2C0
100
AcDbEntity
  8
ASSI
100
AcDbPolyline
 62
7
  6
CONTINUOUS
 90
3
 70
0
 10
142.8301323459
 20
84.5022043246
 10
142.8303721144
 20
84.4708123416
 10
142.8282136947
 20
84.4369452797
  0
LINE
  5
2C1
100
AcDbEntity
  8
RACCORDO
100
AcDbLine
 62
7
  6
CONTINUOUS
 10
142.8301323449
 20
84.5022043491
 11
142.8303720536
 21
84.4708113879
  0
LWPOLYLINE
  5
2C2
100
AcDbEntity
  8
0
100
AcDbPolyline
 62
253
  6
CONTINUOUS
 90
4
 70
0
 10
141.6204520843
 20
95.4317809719
 10
141.6261873159
 20
94.5277765686
 10
141.634507193
 20
93.6250945321
 10
141.6394508779
 20
93.1896144342
  0
LINE
  5
2C3
100
AcDbEntity
  8
RACCORDO
100
AcDbLine
 62
253
  6
CONTINUOUS
 10
142.3776153886
 20
84.4485156436
 11
142.3776153886
 21
87.4796045568
  0
LINE
  5
2C4
100
AcDbEntity
  8
RACCORDO
100
AcDbLine
 62
253
  6
CONTINUOUS
 10
142.6604581011
 20
84.4485156436
 11
142.6604581011
 21
87.4796045568
  0
LINE
  5
2C5
100
AcDbEntity
  8
RACCORDO
100
AcDbLine
 62
253
  6
CONTINUOUS
 10
142.859429002
 20
84.4667290841
 11
142.8594089998
 21
84.4223172451
  0
LINE
  5
2C6
100
AcDbEntity
  8
ASSI
100
AcDbLine
 62
253
  6
CONTINUOUS
 10
142.859429002
 20
84.4667290841
 11
142.8594089998
 21
84.4223172451
  0
LWPOLYLINE
  5
2C7
100
AcDbEntity
  8
RACCORDO
100
AcDbPolyline
 62
253
  6
CONTINUOUS
 90
16
 70
0
 10
142.1654833542
 20
87.8454781951
 10
142.1662580752
 20
87.8639704166
 10
142.1685737502
 20
87.8830347543
 10
142.1724050081
 20
87.9024623355
 10
142.1777098729
 20
87.9220403076
 10
142.1844302233
 20
87.9415541701
 10
142.1924924299
 20
87.9607901251
 10
142.2018081614
 20
87.9795374194
 10
142.2122753526
 20
87.9975906538
 10
142.2237793229
 20
88.0147520333
 10
142.2361940323
 20
88.0308335342
 10
142.2493834628
 20
88.0456589642
 10
142.263203108
 20
88.0590658927
 10
142.2775015572
 20
88.0709074308
 10
142.2921221534
 20
88.0810538399
 10
142.3069047105
 20
88.089393954
  0
LWPOLYLINE
  5
2C8
100
AcDbEntity
  8
RACCORDO
100
AcDbPolyline
 62
253
  6
CONTINUOUS
 90
3
 70
0
 10
134.3415600097
 20
92.0109004891
 10
134.3581406947
 20
92.0250408293
 10
134.379887241
 20
92.0387143732
  0
LINE
  5
2C9
100
AcDbEntity
  8
ASSI
100
AcDbLine
 62
253
  6
CONTINUOUS
 10
134.3415600097
 20
92.0109004891
 11
134.3581406947
 21
92.0250408293
  0
LWPOLYLINE
  5
2CA
100
AcDbEntity
  8
RACCORDO
100
AcDbPolyline
 62
253
  6
CONTINUOUS
 90
13
 70
0
 10
146.0044385018
 20
77.6583189905
 10
146.0122359559
 20
77.5707612352
 10
146.0253292716
 20
77.4867132291
 10
146.0436525942
 20
77.4065945027
 10
146.0671140989
 20
77.3308074576
 10
146.0955961337
 20
77.2597266996
 10
146.12895803
 20
77.1936993671
 10
146.1670412221
 20
77.133048446
 10
146.2096531949
 20
77.0780870765
 10
146.2565659448
 20
77.0291049614
 10
146.3075341424
 20
76.9863508633
 10
146.3623117911
 20
76.9500237093
 10
146.3941650308
 20
76.9327482301
  0
LWPOLYLINE
  5
2CB
100
AcDbEntity
  8
ASSI
100
AcDbPolyline
 62
253
  6
CONTINUOUS
 90
13
 70
0
 10
146.0044385018
 20
77.6583189905
 10
146.0122359559
 20
77.5707612352
 10
146.0253292716
 20
77.4867132291
 10
146.0436525942
 20
77.4065945027
 10
146.0671140989
 20
77.3308074576
 10
146.0955961337
 20
77.2597266996
 10
146.12895803
 20
77.1936993671
 10
146.1670412221
 20
77.133048446
 10
146.2096531949
 20
77.0780870765
 10
146.2565659448
 20
77.0291049614
 10
146.3075341424
 20
76.9863508633
 10
146.3623117911
 20
76.9500237093
 10
146.3941643882
 20
76.9327485527
  0
LINE
  5
2CC
100
AcDbEntity
  8
RACCORDO
100
AcDbLine
 62
7
  6
CONTINUOUS
 10
142.8303720536
 20
84.4708113879
 11
142.8282136292
 21
84.4369446551
  0
LINE
  5
2CD
100
AcDbEntity
  8
RACCORDO
100
AcDbLine
 62
253
  6
CONTINUOUS
 10
142.8594089998
 20
84.4223172451
 11
142.85624969
 21
84.3805483746
  0
LWPOLYLINE
  5
2CE
100
AcDbEntity
  8
ASSI
100
AcDbPolyline
 62
253
  6
CONTINUOUS
 90
3
 70
0
 10
142.8594089998
 20
84.4223172451
 10
142.85624969
 20
84.3805483746
 10
142.8499506006
 20
84.3414222107
  0
LWPOLYLINE
  5
2CF
100
AcDbEntity
  8
ASSI
100
AcDbPolyline
 62
253
  6
CONTINUOUS
 90
3
 70
0
 10
134.3581406947
 20
92.0250408293
 10
134.379887241
 20
92.0387143732
 10
134.3856297152
 20
92.0416292178
  0
LWPOLYLINE
  5
2D0
100
AcDbEntity
  8
RACCORDO
100
AcDbPolyline
 62
253
  6
CONTINUOUS
 90
22
 70
0
 10
147.1245474276
 20
77.6997747035
 10
147.1282489702
 20
77.6587707143
 10
147.1343713125
 20
77.6197105677
 10
147.1429144542
 20
77.5825942637
 10
147.1539454027
 20
77.5472378151
 10
147.1673971507
 20
77.513825209
 10
147.1830686768
 20
77.4829084074
 10
147.2009942377
 20
77.4545403115
 10
147.2211395767
 20
77.42866802
 10
147.2432009022
 20
77.4056847914
 10
147.2672031216
 20
77.3856374697
 10
147.2931213276
 20
77.3684792109
 10
147.3205770063
 20
77.3544627413
 10
147.3495998485
 20
77.3436331058
 10
147.3801601636
 20
77.3359452596
 10
147.4117903652
 20
77.3315167948
 10
147.4445157587
 20
77.33040506
 10
147.4783110389
 20
77.3325527066
 10
147.5126327037
 20
77.3379052809
 10
147.547299586
 20
77.3464446316
 10
147.5824928529
 20
77.35818891
 10
147.6182125046
 20
77.3731381162
  0
LWPOLYLINE
  5
2D1
100
AcDbEntity
  8
ASSI
100
AcDbPolyline
 62
253
  6
CONTINUOUS
 90
22
 70
0
 10
147.1245474276
 20
77.6997747035
 10
147.1282489702
 20
77.6587707143
 10
147.1343713125
 20
77.6197105677
 10
147.1429144542
 20
77.5825942637
 10
147.1539454027
 20
77.5472378151
 10
147.1673971507
 20
77.513825209
 10
147.1830686768
 20
77.4829084074
 10
147.2009942377
 20
77.4545403115
 10
147.2211395767
 20
77.42866802
 10
147.2432009022
 20
77.4056847914
 10
147.2672031216
 20
77.3856374697
 10
147.2931213276
 20
77.3684792109
 10
147.3205770063
 20
77.3544627413
 10
147.3495998485
 20
77.3436331058
 10
147.3801601636
 20
77.3359452596
 10
147.4117903652
 20
77.3315167948
 10
147.4445157587
 20
77.33040506
 10
147.4783110389
 20
77.3325527066
 10
147.5126327037
 20
77.3379052809
 10
147.547299586
 20
77.3464446316
 10
147.5824928529
 20
77.35818891
 10
147.6182125046
 20
77.3731381162
  0
LWPOLYLINE
  5
2D2
100
AcDbEntity
  8
RACCORDO
100
AcDbPolyline
 62
253
  6
CONTINUOUS
 90
13
 70
0
 10
146.0044385018
 20
112.9087078428
 10
145.852554655
 20
109.9012813713
 10
145.7282599131
 20
106.9052961007
 10
145.6315699147
 20
103.9211357529
 10
145.5624967346
 20
100.9491825877
 10
145.5210491514
 20
97.989817107
 10
145.5072326503
 20
95.0434180073
 10
145.5210491513
 20
92.1103624514
 10
145.5624967344
 20
89.1910260449
 10
145.6315699145
 20
86.2857825433
 10
145.7282599128
 20
83.3950038513
 10
145.8525546548
 20
80.5190599726
 10
146.0044385018
 20
77.6583189905
  0
LWPOLYLINE
  5
2D3
100
AcDbEntity
  8
ASSI
100
AcDbPolyline
 62
253
  6
CONTINUOUS
 90
13
 70
0
 10
146.0044385018
 20
112.9087078428
 10
145.852554655
 20
109.9012813713
 10
145.7282599131
 20
106.9052961007
 10
145.6315699147
 20
103.9211357529
 10
145.5624967346
 20
100.9491825877
 10
145.5210491514
 20
97.989817107
 10
145.5072326503
 20
95.0434180073
 10
145.5210491513
 20
92.1103624514
 10
145.5624967344
 20
89.1910260449
 10
145.6315699145
 20
86.2857825433
 10
145.7282599128
 20
83.3950038513
 10
145.8525546548
 20
80.5190599726
 10
146.0044385018
 20
77.6583189905
  0
LWPOLYLINE
  5
2D4
100
AcDbEntity
  8
RACCORDO
100
AcDbPolyline
 62
253
  6
CONTINUOUS
 90
13
 70
0
 10
147.1245474276
 20
112.8561625189
 10
146.9730416862
 20
109.8561334672
 10
146.8490780644
 20
106.8682729919
 10
146.752656562
 20
103.8925810928
 10
146.6837718108
 20
100.9286785127
 10
146.6424291791
 20
97.9769445089
 10
146.6286447716
 20
95.0385168534
 10
146.6424293572
 20
92.1134001763
 10
146.683772167
 20
89.2015898475
 10
146.7526569991
 20
86.3042097478
 10
146.849078453
 20
83.421634504
 10
146.9730419291
 20
80.5534894892
 10
147.1245474276
 20
77.6997747035
  0
LWPOLYLINE
  5
2D5
100
AcDbEntity
  8
ASSI
100
AcDbPolyline
 62
253
  6
CONTINUOUS
 90
13
 70
0
 10
147.1245474276
 20
112.8561625189
 10
146.9730416862
 20
109.8561334672
 10
146.8490780644
 20
106.8682729919
 10
146.752656562
 20
103.8925810928
 10
146.6837718108
 20
100.9286785127
 10
146.6424291791
 20
97.9769445089
 10
146.6286447716
 20
95.0385168534
 10
146.6424293572
 20
92.1134001763
 10
146.683772167
 20
89.2015898475
 10
146.7526569991
 20
86.3042097478
 10
146.849078453
 20
83.421634504
 10
146.9730419291
 20
80.5534894892
 10
147.1245474276
 20
77.6997747035
  0
LWPOLYLINE
  5
2D6
100
AcDbEntity
  8
ASSI
100
AcDbPolyline
 62
7
  6
CONTINUOUS
 90
3
 70
0
 10
142.8282136947
 20
84.4369452797
 10
142.8234992865
 20
84.4052449652
 10
142.8162604838
 20
84.3760092199
  0
LWPOLYLINE
  5
2D7
100
AcDbEntity
  8
RACCORDO
100
AcDbPolyline
 62
7
  6
CONTINUOUS
 90
4
 70
0
 10
142.8282136292
 20
84.4369446551
 10
142.8234993653
 20
84.4052453673
 10
142.8162607837
 20
84.3760102048
 10
142.8066700835
 20
84.3498847662
  0
LINE
  5
2D8
100
AcDbEntity
  8
RACCORDO
100
AcDbLine
 62
253
  6
CONTINUOUS
 10
142.85624969
 20
84.3805483746
 11
142.8499506006
 21
84.3414222107
  0
LWPOLYLINE
  5
2D9
100
AcDbEntity
  8
RACCORDO
100
AcDbPolyline
 62
7
  6
CONTINUOUS
 90
13
 70
0
 10
134.3051233197
 20
91.9926821442
 10
134.2790047415
 20
91.9780184092
 10
134.2540040258
 20
91.960622814
 10
134.2303983441
 20
91.9405387801
 10
134.2085074957
 20
91.9179060563
 10
134.1885186722
 20
91.892791351
 10
134.1705176916
 20
91.8651013922
 10
134.1546815892
 20
91.8347838616
 10
134.1413306174
 20
91.8020843854
 10
134.1307092906
 20
91.7672850908
 10
134.1229630878
 20
91.730540016
 10
134.1182129164
 20
91.6919142913
 10
134.1165980831
 20
91.6515345658
  0
LINE
  5
2DA
100
AcDbEntity
  8
RACCORDO
100
AcDbLine
 62
253
  6
CONTINUOUS
 10
134.379887241
 20
92.0387143732
 11
134.3856297945
 21
92.0416292562
  0
LINE
  5
2DB
100
AcDbEntity
  8
RACCORDO
100
AcDbLine
 62
7
  6
CONTINUOUS
 10
134.4247406828
 20
92.0524908257
 11
134.3051233197
 21
91.9926821442
  0
LINE
  5
2DC
100
AcDbEntity
  8
RACCORDO
100
AcDbLine
 62
253
  6
CONTINUOUS
 10
134.588435533
 20
92.0083339584
 11
134.5287301174
 21
91.9784812505
  0
LINE
  5
2DD
100
AcDbEntity
  8
ASSI
100
AcDbLine
 62
7
  6
CONTINUOUS
 10
134.3856297152
 20
92.0416292178
 11
134.3861380478
 21
92.0418746065
  0
LINE
  5
2DE
100
AcDbEntity
  8
RACCORDO
100
AcDbLine
 62
7
  6
CONTINUOUS
 10
134.3856297945
 20
92.0416292562
 11
134.3861380478
 21
92.0418746065
  0
LWPOLYLINE
  5
2DF
100
AcDbEntity
  8
RACCORDO
100
AcDbPolyline
 62
7
  6
CONTINUOUS
 90
3
 70
0
 10
134.3856100546
 20
92.0416196858
 10
134.3956194141
 20
92.0459109487
 10
134.4164054827
 20
92.0516340613
  0
LINE
  5
2E0
100
AcDbEntity
  8
ASSI
100
AcDbLine
 62
7
  6
CONTINUOUS
 10
134.3856099758
 20
92.0416196476
 11
134.3956205331
 21
92.0459112568
  0
LINE
  5
2E1
100
AcDbEntity
  8
0
100
AcDbLine
 62
253
  6
CONTINUOUS
 10
140.5328600528
 20
106.3141595131
 11
138.1765925998
 21
107.491776369
  0
LINE
  5
2E2
100
AcDbEntity
  8
0
100
AcDbLine
 62
253
  6
CONTINUOUS
 10
136.4367829002
 20
108.3882623909
 11
137.5034144493
 21
107.8551806055
  0
LWPOLYLINE
  5
2E3
100
AcDbEntity
  8
RACCORDO
100
AcDbPolyline
 62
253
  6
CONTINUOUS
 90
16
 70
0
 10
147.6182125046
 20
113.6595259297
 10
147.6141199749
 20
113.7329884607
 10
147.603986076
 20
113.808797786
 10
147.5879217614
 20
113.8861236696
 10
147.5661029338
 20
113.9641192619
 10
147.5387685213
 20
114.0419303662
 10
147.5062178633
 20
114.118704794
 10
147.4688074255
 20
114.1936017153
 10
147.4269469046
 20
114.265800848
 10
147.3810947484
 20
114.3345114361
 10
147.3317531131
 20
114.3989809479
 10
147.2794623794
 20
114.458503289
 10
147.2247952501
 20
114.5124265253
 10
147.1683504463
 20
114.560160062
 10
147.1107461464
 20
114.6011811054
 10
147.0526132382
 20
114.6350403679
  0
LWPOLYLINE
  5
2E4
100
AcDbEntity
  8
ASSI
100
AcDbPolyline
 62
253
  6
CONTINUOUS
 90
16
 70
0
 10
147.6182125046
 20
113.6595259297
 10
147.6141199749
 20
113.7329884607
 10
147.603986076
 20
113.808797786
 10
147.5879217614
 20
113.8861236696
 10
147.5661029338
 20
113.9641192619
 10
147.5387685213
 20
114.0419303662
 10
147.5062178633
 20
114.118704794
 10
147.4688074255
 20
114.1936017153
 10
147.4269469046
 20
114.265800848
 10
147.3810947484
 20
114.3345114361
 10
147.3317531131
 20
114.3989809479
 10
147.2794623794
 20
114.458503289
 10
147.2247952501
 20
114.5124265253
 10
147.1683504463
 20
114.560160062
 10
147.1107461464
 20
114.6011811054
 10
147.0526132382
 20
114.6350403679
  0
LWPOLYLINE
  5
2E5
100
AcDbEntity
  8
RACCORDO
100
AcDbPolyline
 62
253
  6
CONTINUOUS
 90
15
 70
0
 10
142.8499506006
 20
84.3414222107
 10
142.8403994957
 20
84.3046991324
 10
142.8277077835
 20
84.2706183013
 10
142.8122101112
 20
84.2398974364
 10
142.7938672468
 20
84.2126198334
 10
142.7727169119
 20
84.1887013547
 10
142.749208635
 20
84.1686082626
 10
142.7233016832
 20
84.1523983246
 10
142.6950351329
 20
84.1400128479
 10
142.6649779343
 20
84.131743241
 10
142.6330552453
 20
84.1276716982
 10
142.5993404744
 20
84.1277152235
 10
142.5646248765
 20
84.1319173991
 10
142.5291718903
 20
84.1402925776
 10
142.4927172232
 20
84.1528259287
  0
LINE
  5
2E6
100
AcDbEntity
  8
ASSI
100
AcDbLine
 62
253
  6
CONTINUOUS
 10
142.8499506006
 20
84.3414222107
 11
142.8403994957
 21
84.3046991324
  0
LWPOLYLINE
  5
2E7
100
AcDbEntity
  8
ASSI
100
AcDbPolyline
 62
7
  6
CONTINUOUS
 90
4
 70
0
 10
142.8162604838
 20
84.3760092199
 10
142.8066695571
 20
84.3498835625
 10
142.7952296395
 20
84.327652064
 10
142.7825457314
 20
84.3096145871
  0
LWPOLYLINE
  5
2E8
100
AcDbEntity
  8
ASSI
100
AcDbPolyline
 62
253
  6
CONTINUOUS
 90
14
 70
0
 10
142.8403994957
 20
84.3046991324
 10
142.8277077835
 20
84.2706183013
 10
142.8122101112
 20
84.2398974364
 10
142.7938672468
 20
84.2126198334
 10
142.7727169119
 20
84.1887013547
 10
142.749208635
 20
84.1686082626
 10
142.7233016832
 20
84.1523983246
 10
142.6950351329
 20
84.1400128479
 10
142.6649779343
 20
84.131743241
 10
142.6330552453
 20
84.1276716982
 10
142.5993404744
 20
84.1277152235
 10
142.5646248765
 20
84.1319173991
 10
142.5291718903
 20
84.1402925776
 10
142.4927172232
 20
84.1528259287
  0
LWPOLYLINE
  5
2E9
100
AcDbEntity
  8
RACCORDO
100
AcDbPolyline
 62
253
  6
CONTINUOUS
 90
10
 70
0
 10
147.6182125046
 20
77.3731381162
 10
147.6141198998
 20
77.3018126013
 10
147.603985818
 20
77.2344195145
 10
147.5879212473
 20
77.1716969426
 10
147.5661021262
 20
77.1143318209
 10
147.538767417
 20
77.0629524102
 10
147.5062164886
 20
77.018121416
 10
147.4688058374
 20
76.9803298257
 10
147.4269451837
 20
76.9499915316
 10
147.3979087768
 20
76.9345879823
  0
LWPOLYLINE
  5
2EA
100
AcDbEntity
  8
ASSI
100
AcDbPolyline
 62
253
  6
CONTINUOUS
 90
10
 70
0
 10
147.6182125046
 20
77.3731381162
 10
147.6141198998
 20
77.3018126013
 10
147.603985818
 20
77.2344195145
 10
147.5879212473
 20
77.1716969426
 10
147.5661021262
 20
77.1143318209
 10
147.538767417
 20
77.0629524102
 10
147.5062164886
 20
77.018121416
 10
147.4688058374
 20
76.9803298257
 10
147.4269451837
 20
76.9499915316
 10
147.3979087768
 20
76.9345879823
  0
LWPOLYLINE
  5
2EB
100
AcDbEntity
  8
RACCORDO
100
AcDbPolyline
 62
7
  6
CONTINUOUS
 90
3
 70
0
 10
142.8066700835
 20
84.3498847662
 10
142.7952303676
 20
84.3276532701
 10
142.7825465986
 20
84.3096156421
  0
LINE
  5
2EC
100
AcDbEntity
  8
RACCORDO
100
AcDbLine
 62
7
  6
CONTINUOUS
 10
151.7467802393
 20
79.2798475121
 11
151.7467802393
 21
115.7397280512
  0
LINE
  5
2ED
100
AcDbEntity
  8
ASSI
100
AcDbLine
 62
7
  6
CONTINUOUS
 10
151.7467802393
 20
79.2798475121
 11
151.7467802393
 21
115.7397280512
  0
LINE
  5
2EE
100
AcDbEntity
  8
0
100
AcDbLine
 62
253
  6
CONTINUOUS
 10
138.5318831021
 20
112.689326638
 11
138.6945191724
 21
112.6080447545
  0
LWPOLYLINE
  5
2EF
100
AcDbEntity
  8
RACCORDO
100
AcDbPolyline
 62
7
  6
CONTINUOUS
 90
3
 70
0
 10
142.7825465986
 20
84.3096156421
 10
142.7688323336
 20
84.295310619
 10
142.7538657283
 20
84.2840861407
  0
LWPOLYLINE
  5
2F0
100
AcDbEntity
  8
ASSI
100
AcDbPolyline
 62
7
  6
CONTINUOUS
 90
4
 70
0
 10
142.7825457314
 20
84.3096145871
 10
142.7688314161
 20
84.2953098045
 10
142.7538647987
 20
84.2840855597
 10
142.7459307843
 20
84.2795839145
  0
LINE
  5
2F1
100
AcDbEntity
  8
RACCORDO
100
AcDbLine
 62
253
  6
CONTINUOUS
 10
142.3657025236
 20
88.1187928606
 11
142.3069047105
 21
88.089393954
  0
LINE
  5
2F2
100
AcDbEntity
  8
RACCORDO
100
AcDbLine
 62
253
  6
CONTINUOUS
 10
142.728201591
 20
87.5134763018
 11
142.6604581011
 21
87.4796045568
  0
LINE
  5
2F3
100
AcDbEntity
  8
RACCORDO
100
AcDbLine
 62
253
  6
CONTINUOUS
 10
146.0044385018
 20
112.9087078428
 11
131.596460967
 21
120.1126966102
  0
LINE
  5
2F4
100
AcDbEntity
  8
ASSI
100
AcDbLine
 62
253
  6
CONTINUOUS
 10
146.0044385018
 20
112.9087078428
 11
131.596460967
 21
120.1126966102
  0
LINE
  5
2F5
100
AcDbEntity
  8
RACCORDO
100
AcDbLine
 62
7
  6
CONTINUOUS
 10
142.7538650919
 20
84.2840857796
 11
142.745930747
 21
84.2795838953
  0
LWPOLYLINE
  5
2F6
100
AcDbEntity
  8
RACCORDO
100
AcDbPolyline
 62
253
  6
CONTINUOUS
 90
13
 70
0
 10
142.5305115082
 20
84.1780787434
 10
142.5473902809
 20
84.1876380926
 10
142.5660731786
 20
84.2011787214
 10
142.5833125755
 20
84.2170920393
 10
142.599015212
 20
84.2352961479
 10
142.613087133
 20
84.2556867258
 10
142.6254444482
 20
84.2781431118
 10
142.6360168522
 20
84.3025345068
 10
142.644748167
 20
84.3287277561
 10
142.6515913022
 20
84.3565813608
 10
142.6565077598
 20
84.3859419036
 10
142.6594690483
 20
84.4166438065
 10
142.6604581011
 20
84.4485156436
  0
LINE
  5
2F7
100
AcDbEntity
  8
ASSI
100
AcDbLine
 62
7
  6
CONTINUOUS
 10
142.7464936097
 20
84.2798751113
 11
142.7459332559
 21
84.27958528
  0
LINE
  5
2F8
100
AcDbEntity
  8
RACCORDO
100
AcDbLine
 62
7
  6
CONTINUOUS
 10
142.7464936097
 20
84.2798751113
 11
142.7459332184
 21
84.2795852607
  0
LINE
  5
2F9
100
AcDbEntity
  8
RACCORDO
100
AcDbLine
 62
253
  6
CONTINUOUS
 10
142.8289730766
 20
84.5327731314
 11
142.6604581011
 21
84.4485156436
  0
LINE
  5
2FA
100
AcDbEntity
  8
RACCORDO
100
AcDbLine
 62
7
  6
CONTINUOUS
 10
142.7723833463
 20
84.2990146624
 11
142.5305115082
 21
84.1780787434
  0
LWPOLYLINE
  5
2FB
100
AcDbEntity
  8
RACCORDO
100
AcDbPolyline
 62
253
  6
CONTINUOUS
 90
3
 70
0
 10
142.7459332184
 20
84.2795852607
 10
142.7244820975
 20
84.2703353988
 10
142.7035964396
 20
84.2646212091
  0
LWPOLYLINE
  5
2FC
100
AcDbEntity
  8
ASSI
100
AcDbPolyline
 62
253
  6
CONTINUOUS
 90
3
 70
0
 10
142.7459332559
 20
84.27958528
 10
142.7244820975
 20
84.2703353988
 10
142.7035964396
 20
84.2646212091
  0
LINE
  5
2FD
100
AcDbEntity
  8
RACCORDO
100
AcDbLine
 62
253
  6
CONTINUOUS
 10
147.0526132363
 20
114.635040367
 11
132.6276974479
 21
121.8474982612
  0
LINE
  5
2FE
100
AcDbEntity
  8
ASSI
100
AcDbLine
 62
253
  6
CONTINUOUS
 10
147.0526132363
 20
114.635040367
 11
132.6276974479
 21
121.8474982612
  0
LINE
  5
2FF
100
AcDbEntity
  8
RACCORDO
100
AcDbLine
 62
7
  6
CONTINUOUS
 10
136.6146089653
 20
123.9985284913
 11
151.181180971
 21
116.7152424885
  0
LINE
  5
300
100
AcDbEntity
  8
ASSI
100
AcDbLine
 62
7
  6
CONTINUOUS
 10
136.6146089653
 20
123.9985284913
 11
151.181180971
 21
116.7152424885
  0
LWPOLYLINE
  5
301
100
AcDbEntity
  8
RACCORDO
100
AcDbPolyline
 62
253
  6
CONTINUOUS
 90
16
 70
0
 10
147.1245474275
 20
77.6997747036
 10
147.0622188676
 20
77.667800114
 10
146.9946037591
 20
77.6392511695
 10
146.9224265786
 20
77.6144337637
 10
146.8464606834
 20
77.5936138079
 10
146.7675200262
 20
77.577014382
 10
146.6864504331
 20
77.5648133439
 10
146.6041205415
 20
77.5571414242
 10
146.5214124923
 20
77.5540808254
 10
146.4392124781
 20
77.5556643408
 10
146.3584012484
 20
77.5618750036
 10
146.279844672
 20
77.5726462683
 10
146.2043844599
 20
77.5878627237
 10
146.1328291464
 20
77.6073613298
 10
146.065945426
 20
77.6309331649
 10
146.0044499383
 20
77.6583256634
  0
LWPOLYLINE
  5
302
100
AcDbEntity
  8
ASSI
100
AcDbPolyline
 62
253
  6
CONTINUOUS
 90
16
 70
0
 10
147.1245474275
 20
77.6997747036
 10
147.0622188676
 20
77.667800114
 10
146.9946037591
 20
77.6392511695
 10
146.9224265786
 20
77.6144337637
 10
146.8464606834
 20
77.5936138079
 10
146.7675200262
 20
77.577014382
 10
146.6864504331
 20
77.5648133439
 10
146.6041205415
 20
77.5571414242
 10
146.5214124923
 20
77.5540808254
 10
146.4392124781
 20
77.5556643408
 10
146.3584012484
 20
77.5618750036
 10
146.279844672
 20
77.5726462683
 10
146.2043844599
 20
77.5878627237
 10
146.1328291464
 20
77.6073613298
 10
146.065945426
 20
77.6309331649
 10
146.0044499383
 20
77.6583256634
  0
LINE
  5
303
100
AcDbEntity
  8
RACCORDO
100
AcDbLine
 62
253
  6
CONTINUOUS
 10
147.6182125046
 20
77.3731381162
 11
151.7467802393
 21
79.2798475121
  0
LINE
  5
304
100
AcDbEntity
  8
ASSI
100
AcDbLine
 62
253
  6
CONTINUOUS
 10
147.6182125046
 20
77.3731381162
 11
151.7467802393
 21
79.2798475121
  0
LINE
  5
305
100
AcDbEntity
  8
RACCORDO
100
AcDbLine
 62
7
  6
CONTINUOUS
 10
147.3979087768
 20
76.9345879823
 11
151.5305335699
 21
78.8431710623
  0
LINE
  5
306
100
AcDbEntity
  8
ASSI
100
AcDbLine
 62
7
  6
CONTINUOUS
 10
147.3979087768
 20
76.9345879823
 11
151.5305335699
 21
78.8431710623
  0
LINE
  5
307
100
AcDbEntity
  8
ASSI
100
AcDbLine
 62
7
  6
CONTINUOUS
 10
147.3687804881
 20
76.9215643707
 11
147.39747197
 21
76.9343949526
  0
ELLIPSE
  5
308
100
AcDbEntity
  8
RACCORDO
100
AcDbEllipse
 62
7
  6
CONTINUOUS
 10
136.6147812917
 20
123.3055164692
 30
0.0
 11
-0.3579214571
 21
0.7157361817
 31
0.0
 40
0.6121897086
 41
-0.6846338794
 42
0.019016348
  0
ELLIPSE
  5
309
100
AcDbEntity
  8
RACCORDO
100
AcDbEllipse
 62
7
  6
CONTINUOUS
 10
151.1810086446
 20
116.0224027927
 30
0.0
 11
-0.357729241
 21
0.7155653229
 31
0.0
 40
0.6125552124
 41
-2.255296188
 42
-0.6848044477
  0
ELLIPSE
  5
30A
100
AcDbEntity
  8
RACCORDO
100
AcDbEllipse
 62
7
  6
CONTINUOUS
 10
151.1810086446
 20
79.5629443653
 30
0.0
 11
-0.3579214571
 21
0.7157361817
 31
0.0
 40
0.6121897086
 41
-3.1606090032
 42
-2.2557347926
  0
ELLIPSE
  5
30B
100
AcDbEntity
  8
ASSI
100
AcDbEllipse
 62
7
  6
CONTINUOUS
 10
136.6147812917
 20
123.3055164692
 30
0.0
 11
-0.3579214571
 21
0.7157361817
 31
0.0
 40
0.6121897086
 41
-0.6846338794
 42
0.019016348
  0
ELLIPSE
  5
30C
100
AcDbEntity
  8
ASSI
100
AcDbEllipse
 62
7
  6
CONTINUOUS
 10
151.1810086446
 20
116.0224027927
 30
0.0
 11
-0.357729241
 21
0.7155653229
 31
0.0
 40
0.6125552124
 41
-2.255296188
 42
-0.6848044477
  0
ELLIPSE
  5
30D
100
AcDbEntity
  8
ASSI
100
AcDbEllipse
 62
7
  6
CONTINUOUS
 10
151.1810086446
 20
79.5629443653
 30
0.0
 11
-0.3579214571
 21
0.7157361817
 31
0.0
 40
0.6121897086
 41
-3.1606090032
 42
-2.2557347926
  0
ELLIPSE
  5
30E
100
AcDbEntity
  8
0
100
AcDbEllipse
 62
253
  6
CONTINUOUS
 10
341.8490745012
 20
209.0045314353
 30
0.0
 11
-338.3470904718
 21
405.7604760438
 31
0.0
 40
0.4392854384
 41
1.4914384938
 42
1.491851311
  0
ELLIPSE
  5
30F
100
AcDbEntity
  8
0
100
AcDbEllipse
 62
253
  6
CONTINUOUS
 10
319.1509437505
 20
220.3535968106
 30
0.0
 11
1284.919273369
 21
-886.0158034807
 31
0.0
 40
0.1334597598
 41
-1.6208091306
 42
-1.6203963176
  0
ELLIPSE
  5
310
100
AcDbEntity
  8
0
100
AcDbEllipse
 62
253
  6
CONTINUOUS
 10
341.4551149775
 20
209.2015111971
 30
0.0
 11
-338.3470904718
 21
405.7604760438
 31
0.0
 40
0.4392854384
 41
1.4906128716
 42
1.4910256807
  0
ELLIPSE
  5
311
100
AcDbEntity
  8
0
100
AcDbEllipse
 62
253
  6
CONTINUOUS
 10
353.2334868695
 20
203.3123252511
 30
0.0
 11
299.6198420335
 21
185.1753871395
 31
0.0
 40
0.0815201988
 41
2.3263328018
 42
2.3269519834
  0
ELLIPSE
  5
312
100
AcDbEntity
  8
0
100
AcDbEllipse
 62
253
  6
CONTINUOUS
 10
345.0714615901
 20
207.3933378908
 30
0.0
 11
-222.5372089155
 21
360.0730420757
 31
0.0
 40
0.5587456698
 41
1.5409346384
 42
1.54155382
  0
ELLIPSE
  5
313
100
AcDbEntity
  8
0
100
AcDbEllipse
 62
253
  6
CONTINUOUS
 10
349.3747056184
 20
205.2417158767
 30
0.0
 11
200.5579601545
 21
233.2383079674
 31
0.0
 40
0.423927463
 41
-3.9033778901
 42
-3.9027587385
  0
ELLIPSE
  5
314
100
AcDbEntity
  8
0
100
AcDbEllipse
 62
253
  6
CONTINUOUS
 10
354.277313767
 20
202.7904118024
 30
0.0
 11
299.6199064026
 21
185.1753563923
 31
0.0
 40
0.0815200296
 41
2.314331387
 42
2.3155695334
  0
ELLIPSE
  5
315
100
AcDbEntity
  8
0
100
AcDbEllipse
 62
253
  6
CONTINUOUS
 10
350.9438088069
 20
204.4571642824
 30
0.0
 11
-222.5377365704
 21
360.0732101172
 31
0.0
 40
0.558745084
 41
1.5289328829
 42
1.5301710294
  0
ELLIPSE
  5
316
100
AcDbEntity
  8
0
100
AcDbEllipse
 62
253
  6
CONTINUOUS
 10
355.8531559626
 20
202.0024907046
 30
0.0
 11
299.6201477868
 21
185.1752410904
 31
0.0
 40
0.0815193951
 41
2.3192837508
 42
2.3205219683
  0
ELLIPSE
  5
317
100
AcDbEntity
  8
0
100
AcDbEllipse
 62
253
  6
CONTINUOUS
 10
349.3679748046
 20
205.2450812836
 30
0.0
 11
-222.5372880637
 21
360.0730672819
 31
0.0
 40
0.5587455819
 41
1.5338859281
 42
1.5351241456
  0
ELLIPSE
  5
318
100
AcDbEntity
  8
0
100
AcDbEllipse
 62
253
  6
CONTINUOUS
 10
349.7619342061
 20
205.0481015828
 30
0.0
 11
-222.5372089155
 21
360.0730420757
 31
0.0
 40
0.5587456698
 41
1.5289333088
 42
1.5295523805
  0
ELLIPSE
  5
319
100
AcDbEntity
  8
0
100
AcDbEllipse
 62
253
  6
CONTINUOUS
 10
350.2063998409
 20
204.8258687654
 30
0.0
 11
299.6199707717
 21
185.1753256452
 31
0.0
 40
0.0815198604
 41
2.3143313018
 42
2.3155694483
  0
ELLIPSE
  5
31A
100
AcDbEntity
  8
0
100
AcDbEllipse
 62
253
  6
CONTINUOUS
 10
346.8728957407
 20
206.4926208155
 30
0.0
 11
-222.5375255085
 21
360.0731429006
 31
0.0
 40
0.5587453183
 41
1.5289330533
 42
1.5301711997
  0
ELLIPSE
  5
31B
100
AcDbEntity
  8
0
100
AcDbEllipse
 62
253
  6
CONTINUOUS
 10
351.7822387997
 20
204.037949286
 30
0.0
 11
299.6200190485
 21
185.1753025848
 31
0.0
 40
0.0815197335
 41
2.3192839211
 42
2.3205221387
  0
ELLIPSE
  5
31C
100
AcDbEntity
  8
0
100
AcDbEllipse
 62
253
  6
CONTINUOUS
 10
345.2970588302
 20
207.2805392708
 30
0.0
 11
-222.5373935947
 21
360.0731008902
 31
0.0
 40
0.5587454647
 41
1.5338858429
 42
1.5351240604
  0
ELLIPSE
  5
31D
100
AcDbEntity
  8
0
100
AcDbEllipse
 62
253
  6
CONTINUOUS
 10
340.8725903567
 20
209.4927735075
 30
0.0
 11
-445.5276612263
 21
456.9215805257
 31
0.0
 40
0.356305953
 41
1.4715405669
 42
1.4721596783
  0
ELLIPSE
  5
31E
100
AcDbEntity
  8
0
100
AcDbEllipse
 62
253
  6
CONTINUOUS
 10
350.6912719018
 20
204.583432735
 30
0.0
 11
474.1412383086
 21
92.1756206659
 31
0.0
 40
0.1495307189
 41
-2.0726008207
 42
-2.071981749
  0
ELLIPSE
  5
31F
100
AcDbEntity
  8
0
100
AcDbEllipse
 62
253
  6
CONTINUOUS
 10
335.4312355061
 20
212.2134509328
 30
0.0
 11
-445.5276612263
 21
456.9215805257
 31
0.0
 40
0.356305953
 41
1.4835430512
 42
1.484162314
  0
ELLIPSE
  5
320
100
AcDbEntity
  8
0
100
AcDbEllipse
 62
253
  6
CONTINUOUS
 10
355.4322531072
 20
202.2129421323
 30
0.0
 11
474.1412383086
 21
92.1756206659
 31
0.0
 40
0.1495307189
 41
-2.0846022602
 42
-2.0839830786
  0
ELLIPSE
  5
321
100
AcDbEntity
  8
0
100
AcDbEllipse
 62
253
  6
CONTINUOUS
 10
319.4661290022
 20
220.1960041848
 30
0.0
 11
615.3957514965
 21
9.6130796715
 31
0.0
 40
0.1780102051
 41
-1.8724578846
 42
-1.8722842696
  0
ELLIPSE
  5
322
100
AcDbEntity
  8
0
100
AcDbEllipse
 62
253
  6
CONTINUOUS
 10
354.3177199946
 20
202.7702086886
 30
0.0
 11
40.7525044267
 21
305.5780813673
 31
0.0
 40
0.7058482833
 41
-4.3147699114
 42
-4.3135902077
  0
ELLIPSE
  5
323
100
AcDbEntity
  8
0
100
AcDbEllipse
 62
253
  6
CONTINUOUS
 10
329.572460807
 20
215.1428382824
 30
0.0
 11
441.1501677844
 21
111.0410227721
 31
0.0
 40
0.130453239
 41
-2.0524370218
 42
-2.0519162598
  0
ELLIPSE
  5
324
100
AcDbEntity
  8
0
100
AcDbEllipse
 62
253
  6
CONTINUOUS
 10
335.9941567565
 20
211.9319903077
 30
0.0
 11
339.2539455024
 21
165.7779171376
 31
0.0
 40
0.0073596379
 41
-2.1979653363
 42
-2.1973653016
  0
ELLIPSE
  5
325
100
AcDbEntity
  8
0
100
AcDbEllipse
 62
253
  6
CONTINUOUS
 10
355.226234546
 20
202.3159514129
 30
0.0
 11
1.4288689185
 21
315.6312406373
 31
0.0
 40
0.7127799471
 41
-4.4167160741
 42
-4.4155363221
  0
ELLIPSE
  5
326
100
AcDbEntity
  8
0
100
AcDbEllipse
 62
253
  6
CONTINUOUS
 10
339.4053069217
 20
210.226415225
 30
0.0
 11
290.1709145135
 21
189.6694169372
 31
0.0
 40
0.1072841742
 41
2.2661114634
 42
2.2669444949
  0
ELLIPSE
  5
327
100
AcDbEntity
  8
0
100
AcDbEllipse
 62
253
  6
CONTINUOUS
 10
358.4815742945
 20
200.6882815386
 30
0.0
 11
-123.7805379586
 21
336.5698223258
 31
0.0
 40
0.6590534249
 41
-4.6899302485
 42
-4.6891767958
  0
ELLIPSE
  5
328
100
AcDbEntity
  8
0
100
AcDbEllipse
 62
253
  6
CONTINUOUS
 10
341.6001653746
 20
209.1289859986
 30
0.0
 11
260.1251970039
 21
203.8286474202
 31
0.0
 40
0.2015331033
 41
2.2996292634
 42
2.3003035717
  0
ELLIPSE
  5
329
100
AcDbEntity
  8
0
100
AcDbEllipse
 62
253
  6
CONTINUOUS
 10
361.5736260621
 20
199.1422556548
 30
0.0
 11
-208.2769611727
 21
355.6996393875
 31
0.0
 40
0.5745496591
 41
1.4810246392
 42
1.4817780808
  0
ELLIPSE
  5
32A
100
AcDbEntity
  8
0
100
AcDbEllipse
 62
253
  6
CONTINUOUS
 10
364.2420731129
 20
197.8080321294
 30
0.0
 11
-267.9954539584
 21
376.1175475172
 31
0.0
 40
0.5089665217
 41
1.4387615327
 42
1.4394356612
  0
ELLIPSE
  5
32B
100
AcDbEntity
  8
0
100
AcDbEllipse
 62
253
  6
CONTINUOUS
 10
370.5777128716
 20
194.6402122501
 30
0.0
 11
-393.9587346516
 21
431.7322498409
 31
0.0
 40
0.3928412552
 41
1.4071008409
 42
1.4075271018
  0
ELLIPSE
  5
32C
100
AcDbEntity
  8
0
100
AcDbEllipse
 62
253
  6
CONTINUOUS
 10
345.000465864
 20
207.4288357539
 30
0.0
 11
213.6474678925
 21
226.4693325095
 31
0.0
 40
0.3747152922
 41
-3.965671072
 42
-3.9651108481
  0
ELLIPSE
  5
32D
100
AcDbEntity
  8
0
100
AcDbEllipse
 62
253
  6
CONTINUOUS
 10
380.4634987154
 20
189.6973193282
 30
0.0
 11
579.7971928196
 21
-524.7702916316
 31
0.0
 40
0.2843183335
 41
-1.7343079545
 42
-1.7339957389
  0
ELLIPSE
  5
32E
100
AcDbEntity
  8
0
100
AcDbEllipse
 62
253
  6
CONTINUOUS
 10
405.2045812836
 20
177.3267780441
 30
0.0
 11
1039.4813030341
 21
-760.7489146358
 31
0.0
 40
0.1642915237
 41
-1.7085198981
 42
-1.7083465088
  0
ELLIPSE
  5
32F
100
AcDbEntity
  8
0
100
AcDbEllipse
 62
253
  6
CONTINUOUS
 10
346.1102642503
 20
206.8739365607
 30
0.0
 11
197.2153505617
 21
234.9958199223
 31
0.0
 40
0.4361213516
 41
-3.9736870411
 42
-3.9656226167
  0
ELLIPSE
  5
330
100
AcDbEntity
  8
0
100
AcDbEllipse
 62
253
  6
CONTINUOUS
 10
346.7993213269
 20
206.5294080224
 30
0.0
 11
183.6878881594
 21
242.2002856214
 31
0.0
 40
0.483160357
 41
-3.9750914324
 42
-3.9708467028
  0
ELLIPSE
  5
331
100
AcDbEntity
  8
0
100
AcDbEllipse
 62
253
  6
CONTINUOUS
 10
330.144501799
 20
214.8568177864
 30
0.0
 11
515.695926086
 21
68.0171787704
 31
0.0
 40
0.1649358821
 41
-1.9802081697
 42
-1.9672793224
  0
ELLIPSE
  5
332
100
AcDbEntity
  8
0
100
AcDbEllipse
 62
253
  6
CONTINUOUS
 10
348.3347255378
 20
205.761705917
 30
0.0
 11
188.8417110198
 21
239.4409556549
 31
0.0
 40
0.4657248323
 41
-3.9649032624
 42
-3.9598823218
  0
ELLIPSE
  5
333
100
AcDbEntity
  8
0
100
AcDbEllipse
 62
253
  6
CONTINUOUS
 10
354.6365758796
 20
202.6107807461
 30
0.0
 11
27.749650638
 21
309.2269607515
 31
0.0
 40
0.7096513126
 41
-4.3436378551
 42
-4.3327767315
  0
ELLIPSE
  5
334
100
AcDbEntity
  8
0
100
AcDbEllipse
 62
253
  6
CONTINUOUS
 10
349.9303099218
 20
204.963913725
 30
0.0
 11
-222.5363646668
 21
360.07277321
 31
0.0
 40
0.558746607
 41
1.5409353197
 42
1.5415545014
  0
ELLIPSE
  5
335
100
AcDbEntity
  8
0
100
AcDbEllipse
 62
253
  6
CONTINUOUS
 10
359.9307801264
 20
199.9636786227
 30
0.0
 11
299.6193753577
 21
185.1756100562
 31
0.0
 40
0.0815214255
 41
2.3319063632
 42
2.332525626
  0
ELLIPSE
  5
336
100
AcDbEntity
  8
0
100
AcDbEllipse
 62
253
  6
CONTINUOUS
 10
286.3348056153
 20
236.7616658782
 30
0.0
 11
1218.443388785
 21
-322.059658807
 31
0.0
 40
0.1256382801
 41
-1.659275575
 42
-1.6591366077
  0
ELLIPSE
  5
337
100
AcDbEntity
  8
0
100
AcDbEllipse
 62
253
  6
CONTINUOUS
 10
350.0649761273
 20
204.8965806222
 30
0.0
 11
-126.4950215217
 21
337.0312769491
 31
0.0
 40
0.6567855552
 41
-4.6230720245
 42
-4.6224528429
  0
ELLIPSE
  5
338
100
AcDbEntity
  8
0
100
AcDbEllipse
 62
253
  6
CONTINUOUS
 10
345.596721545
 20
207.1307079134
 30
0.0
 11
-222.5381323111
 21
360.0733361484
 31
0.0
 40
0.5587446446
 41
1.5465068371
 42
1.5471260999
  0
ELLIPSE
  5
339
100
AcDbEntity
  8
0
100
AcDbEllipse
 62
253
  6
CONTINUOUS
 10
343.2329832846
 20
208.3125770436
 30
0.0
 11
-222.5372880637
 21
360.0730672819
 31
0.0
 40
0.5587455819
 41
1.5465075184
 42
1.5471267812
  0
ELLIPSE
  5
33A
100
AcDbEntity
  8
0
100
AcDbEllipse
 62
253
  6
CONTINUOUS
 10
355.0719651749
 20
202.3930860984
 30
0.0
 11
299.6198903103
 21
185.1753640791
 31
0.0
 40
0.0815200719
 41
2.3319056818
 42
2.3325249446
  0
ENDSEC
  0
SECTION
  2
OBJECTS
  0
DICTIONARY
  5
C
100
AcDbDictionary
280
0
281
1
  3
ACAD_GROUP
350
D
  3
ACAD_MLINESTYLE
350
17
  3
ACAD_LAYOUT
350
1A
  3
ACAD_PLOTSETTINGS
350
19
  3
ACAD_PLOTSTYLENAME
350
E
  0
DICTIONARY
  5
D
102
{ACAD_REACTORS
330
C
102
}
100
AcDbDictionary
280
0
281
1
  0
ACDBDICTIONARYWDFLT
  5
E
102
{ACAD_REACTORS
330
C
102
}
100
AcDbDictionary
281
1
  3
Normal
350
F
100
AcDbDictionaryWithDefault
340
F
  0
DICTIONARY
  5
17
102
{ACAD_REACTORS
330
C
102
}
100
AcDbDictionary
280
0
281
1
  3
Standard
350
18
  0
DICTIONARY
  5
19
102
{ACAD_REACTORS
330
C
102
}
100
AcDbDictionary
281
1
  0
DICTIONARY
  5
1A
102
{ACAD_REACTORS
330
C
102
}
100
AcDbDictionary
281
1
  3
Model
350
33B
  3
Layout1
350
33C
  0
ACDBPLACEHOLDER
  5
F
102
{ACAD_REACTORS
330
E
102
}
  0
MLINESTYLE
  5
18
102
{ACAD_REACTORS
330
17
102
}
100
AcDbMlineStyle
  2
STANDARD
 70
0
  3

 62
256
 51
90.0
 52
90.0
 71
2
 49
0.5
 62
256
  6
BYLAYER
 49
-0.5
 62
256
  6
BYLAYER
  0
LAYOUT
  5
33B
102
{ACAD_REACTORS
330
1A
102
}
100
AcDbPlotSettings
  1

  2
none_device
  4
ISO_A4_(297.00_x_210.00_MM)
  6

 40
0.0
 41
0.0
 42
0.0
 43
0.0
 44
297.0
 45
210.0
 46
0.0
 47
0.0
 48
0.0
 49
0.0
140
0.0
141
0.0
142
1.0
143
1.0
 70
1024
 72
1
 73
0
 74
0
  7

 75
0
147
1.0
148
0.0
149
0.0
100
AcDbLayout
  1
Model
 70
0
 71
0
 10
0.0
 20
0.0
 11
297.0
 21
210.0
 12
0.0
 22
0.0
 32
0.0
 14
0.0
 24
0.0
 34
0.0
 15
0.0
 25
0.0
 35
0.0
146
0.0
 13
0.0
 23
0.0
 33
0.0
 16
1.0
 26
0.0
 36
0.0
 17
0.0
 27
1.0
 37
0.0
 76
0
330
215
345
0
346
0
  0
LAYOUT
  5
33C
102
{ACAD_REACTORS
330
1A
102
}
100
AcDbPlotSettings
  1

  2
none_device
  4
ISO_A4_(297.00_x_210.00_MM)
  6

 40
0.0
 41
0.0
 42
0.0
 43
0.0
 44
297.0
 45
210.0
 46
0.0
 47
0.0
 48
0.0
 49
0.0
140
0.0
141
0.0
142
1.0
143
1.0
 70
0
 72
1
 73
0
 74
0
  7

 75
0
147
1.0
148
0.0
149
0.0
100
AcDbLayout
  1
Layout1
 70
0
 71
1
 10
0.0
 20
0.0
 11
297.0
 21
210.0
 12
0.0
 22
0.0
 32
0.0
 14
0.0
 24
0.0
 34
0.0
 15
0.0
 25
0.0
 35
0.0
146
0.0
 13
0.0
 23
0.0
 33
0.0
 16
1.0
 26
0.0
 36
0.0
 17
0.0
 27
1.0
 37
0.0
 76
0
330
216
345
0
346
0
  0
ENDSEC
  0
EOF
