  0
SECTION
  2
HEADER
  9
$ACADVER
  1
AC1021
  9
$DWGCODEPAGE
  3
ANSI_1252
  9
$EXTMAX
 10
297.0
 20
210.0
 30
0.0
  9
$EXTMIN
 10
0.0
 20
0.0
 30
0.0
  9
$LIMMIN
 10
0.0
 20
0.0
  9
$LIMMAX
 10
297.0
 20
210.0
  9
$VIEWCTR
 10
148.5
 20
105.0
  9
$VIEWSIZE
 40
210.0
  9
$CLAYER
  8
0
  9
$LTSCALE
 40
16.335
  9
$CELTYPE
  6
BYLAYER
  9
$DIMSCALE
 40
1.0
  9
$DIMASZ
 40
3.0
  9
$DIMEXO
 40
0.5
  9
$DIMDLI
 40
11.286
  9
$DIMEXE
 40
1.5
  9
$DIMCEN
 40
2.673
  9
$DIMLFAC
 40
1.0
  9
$DIMBLK
  1
_FILLED
  9
$DIMALT
 70
0
  9
$DIMALTF
 40
0.0393700787
  9
$DIMTXT
 40
3.0
  9
$DIMTOL
 70
1
  9
$DIMLIM
 70
0
  9
$DIMTFAC
 40
1.0
  9
$DIMTP
 40
0.01
  9
$DIMTM
 40
0.01
  9
$DIMGAP
 40
0.625
  9
$DIMDSEP
 70
44
  9
$AUNITS
 70
0
  9
$PDMODE
 70
3
  9
$PDSIZE
 40
3.0
  9
$HANDSEED
  5
367
  9
$TILEMODE
 70
1
  9
$MEASUREMENT
 70
1
  9
$INSUNITS
 70
4
  0
ENDSEC
  0
SECTION
  2
CLASSES
  0
CLASS
  1
ACDBDICTIONARYWDFLT
  2
AcDbDictionaryWithDefault
  3
AutoCAD 2000
 90
0
 91
1
280
0
281
0
  0
CLASS
  1
ACDBPLACEHOLDER
  2
AcDbPlaceHolder
  3
AutoCAD 2000
 90
0
 91
1
280
0
281
0
  0
CLASS
  1
LAYOUT
  2
AcDbLayout
  3
AutoCAD 2000
 90
0
 91
0
280
0
281
0
  0
ENDSEC
  0
SECTION
  2
TABLES
  0
TABLE
  2
VPORT
  5
8
100
AcDbSymbolTable
 70
2
  0
VPORT
  5
1F4
100
AcDbSymbolTableRecord
100
AcDbViewportTableRecord
  2
*ACTIVE
 70
0
 10
0.0
 20
0.0
 11
1.0
 21
1.0
 12
148.5
 22
105.0
 13
0.0
 23
0.0
 14
1.0
 24
1.0
 15
0.0
 25
0.0
 16
0.0
 26
0.0
 36
1.0
 17
0.0
 27
0.0
 37
0.0
 40
210.0
 41
1.4142857143
 42
50.0
 43
0.0
 44
0.0
 50
0.0
 51
0.0
 71
0
 72
100
 73
1
 74
1
 75
0
 76
0
 77
0
 78
0
  0
ENDTAB
  0
TABLE
  2
LTYPE
  5
5
100
AcDbSymbolTable
 70
6
  0
LTYPE
  5
14
100
AcDbSymbolTableRecord
100
AcDbLinetypeTableRecord
  2
BYBLOCK
 70
0
  3

 72
65
 73
0
 40
0.0
  0
LTYPE
  5
15
100
AcDbSymbolTableRecord
100
AcDbLinetypeTableRecord
  2
BYLAYER
 70
0
  3

 72
65
 73
0
 40
0.0
  0
LTYPE
  5
16
100
AcDbSymbolTableRecord
100
AcDbLinetypeTableRecord
  2
CONTINUOUS
 70
64
  3
Solid line
 72
65
 73
0
 40
0.0
  0
LTYPE
  5
1F5
100
AcDbSymbolTableRecord
100
AcDbLinetypeTableRecord
  2
CENTER
 70
64
  3
____ _ ____ _ ____ _ ____ _ ____ _ ____ _ ____
 72
65
 73
4
 40
0.6
 49
0.375
 74
0
 49
-0.075
 74
0
 49
0.075
 74
0
 49
-0.075
 74
0
  0
LTYPE
  5
1F6
100
AcDbSymbolTableRecord
100
AcDbLinetypeTableRecord
  2
HIDDEN
 70
64
  3
- - - - - - - - - - - - - - - - - - - -
 72
65
 73
2
 40
0.2
 49
0.1
 74
0
 49
-0.1
 74
0
  0
LTYPE
  5
1F7
100
AcDbSymbolTableRecord
100
AcDbLinetypeTableRecord
  2
PHANTOM
 70
64
  3
_____ _ _ _____ _ _ _____ _ _ _____
 72
65
 73
6
 40
0.8
 49
0.45
 74
0
 49
-0.05
 74
0
 49
0.1
 74
0
 49
-0.05
 74
0
 49
0.1
 74
0
 49
-0.05
 74
0
  0
LTYPE
  5
1F8
100
AcDbSymbolTableRecord
100
AcDbLinetypeTableRecord
  2
DOT
 70
64
  3
. . . . . . . . . . . . . . . . . . . .
 72
65
 73
2
 40
0.2
 49
0.1
 74
0
 49
-0.1
 74
0
  0
LTYPE
  5
1F9
100
AcDbSymbolTableRecord
100
AcDbLinetypeTableRecord
  2
DASHED
 70
64
  3
- - - - - - - - - - - - - - - - - - - -
 72
65
 73
2
 40
0.2
 49
0.1
 74
0
 49
-0.1
 74
0
  0
ENDTAB
  0
TABLE
  2
LAYER
  5
2
100
AcDbSymbolTable
 70
36
  0
LAYER
  5
10
100
AcDbSymbolTableRecord
100
AcDbLayerTableRecord
  2
0
 70
0
 62
7
  6
CONTINUOUS
370
-3
390
F
  0
LAYER
  5
1FA
100
AcDbSymbolTableRecord
100
AcDbLayerTableRecord
  2
DEFAULT_1
 70
0
 62
7
  6
CENTER
370
-3
390
F
  0
LAYER
  5
1FB
100
AcDbSymbolTableRecord
100
AcDbLayerTableRecord
  2
DEFAULT_2
 70
0
 62
7
  6
HIDDEN
370
-3
390
F
  0
LAYER
  5
1FC
100
AcDbSymbolTableRecord
100
AcDbLayerTableRecord
  2
DEFAULT_3
 70
0
 62
7
  6
PHANTOM
370
-3
390
F
  0
LAYER
  5
1FD
100
AcDbSymbolTableRecord
100
AcDbLayerTableRecord
  2
ASSI
 70
0
 62
7
  6
CONTINUOUS
370
-3
390
F
  0
LAYER
  5
1FE
100
AcDbSymbolTableRecord
100
AcDbLayerTableRecord
  2
COORDINATE
 70
0
 62
7
  6
CONTINUOUS
370
-3
390
F
  0
LAYER
  5
1FF
100
AcDbSymbolTableRecord
100
AcDbLayerTableRecord
  2
COORD_ORIGINE
 70
0
 62
7
  6
CONTINUOUS
370
-3
390
F
  0
LAYER
  5
200
100
AcDbSymbolTableRecord
100
AcDbLayerTableRecord
  2
COPY_PUBLISH
 70
0
 62
7
  6
CONTINUOUS
370
-3
390
F
  0
LAYER
  5
201
100
AcDbSymbolTableRecord
100
AcDbLayerTableRecord
  2
COSMETICI
 70
0
 62
7
  6
CONTINUOUS
370
-3
390
F
  0
LAYER
  5
202
100
AcDbSymbolTableRecord
100
AcDbLayerTableRecord
  2
CURVE
 70
0
 62
7
  6
CONTINUOUS
370
-3
390
F
  0
LAYER
  5
203
100
AcDbSymbolTableRecord
100
AcDbLayerTableRecord
  2
DRAFT
 70
0
 62
7
  6
CONTINUOUS
370
-3
390
F
  0
LAYER
  5
204
100
AcDbSymbolTableRecord
100
AcDbLayerTableRecord
  2
IGES
 70
0
 62
7
  6
CONTINUOUS
370
-3
390
F
  0
LAYER
  5
205
100
AcDbSymbolTableRecord
100
AcDbLayerTableRecord
  2
IMPORT_IGES
 70
0
 62
7
  6
CONTINUOUS
370
-3
390
F
  0
LAYER
  5
206
100
AcDbSymbolTableRecord
100
AcDbLayerTableRecord
  2
IMPORT_SCRITTE
 70
0
 62
7
  6
CONTINUOUS
370
-3
390
F
  0
LAYER
  5
207
100
AcDbSymbolTableRecord
100
AcDbLayerTableRecord
  2
INTF_MAGENTA
 70
0
 62
7
  6
CONTINUOUS
370
-3
390
F
  0
LAYER
  5
208
100
AcDbSymbolTableRecord
100
AcDbLayerTableRecord
  2
NOTE
 70
0
 62
7
  6
CONTINUOUS
370
-3
390
F
  0
LAYER
  5
209
100
AcDbSymbolTableRecord
100
AcDbLayerTableRecord
  2
PIANI
 70
0
 62
7
  6
CONTINUOUS
370
-3
390
F
  0
LAYER
  5
20A
100
AcDbSymbolTableRecord
100
AcDbLayerTableRecord
  2
PIANI_ORIGINE
 70
0
 62
7
  6
CONTINUOUS
370
-3
390
F
  0
LAYER
  5
20B
100
AcDbSymbolTableRecord
100
AcDbLayerTableRecord
  2
PUNTI
 70
0
 62
7
  6
CONTINUOUS
370
-3
390
F
  0
LAYER
  5
20C
100
AcDbSymbolTableRecord
100
AcDbLayerTableRecord
  2
RACCORDO
 70
0
 62
7
  6
CONTINUOUS
370
-3
390
F
  0
LAYER
  5
20D
100
AcDbSymbolTableRecord
100
AcDbLayerTableRecord
  2
SIMBOLI
 70
0
 62
7
  6
CONTINUOUS
370
-3
390
F
  0
LAYER
  5
20E
100
AcDbSymbolTableRecord
100
AcDbLayerTableRecord
  2
SMUSSO
 70
0
 62
7
  6
CONTINUOUS
370
-3
390
F
  0
LAYER
  5
20F
100
AcDbSymbolTableRecord
100
AcDbLayerTableRecord
  2
SNAPLINE
 70
0
 62
7
  6
CONTINUOUS
370
-3
390
F
  0
LAYER
  5
210
100
AcDbSymbolTableRecord
100
AcDbLayerTableRecord
  2
STANDARD
 70
0
 62
7
  6
CONTINUOUS
370
-3
390
F
  0
LAYER
  5
211
100
AcDbSymbolTableRecord
100
AcDbLayerTableRecord
  2
SUPERFICI
 70
0
 62
7
  6
CONTINUOUS
370
-3
390
F
  0
LAYER
  5
212
100
AcDbSymbolTableRecord
100
AcDbLayerTableRecord
  2
TRASH
 70
0
 62
7
  6
CONTINUOUS
370
-3
390
F
  0
ENDTAB
  0
TABLE
  2
STYLE
  5
3
100
AcDbSymbolTable
 70
1
  0
STYLE
  5
11
100
AcDbSymbolTableRecord
100
AcDbTextStyleTableRecord
  2
STANDARD
 70
0
 40
0.0
 41
0.8
 50
0.0
 71
0
 42
0.2
  3
txt
  4

  0
STYLE
  5
213
100
AcDbSymbolTableRecord
100
AcDbTextStyleTableRecord
  2
TEXTSTYLE_1
 70
0
 40
0.0
 41
0.8
 50
0.0
 71
0
 42
0.2
  3
gdt
  4

  0
ENDTAB
  0
TABLE
  2
VIEW
  5
6
100
AcDbSymbolTable
 70
0
  0
ENDTAB
  0
TABLE
  2
UCS
  5
7
100
AcDbSymbolTable
 70
0
  0
ENDTAB
  0
TABLE
  2
APPID
  5
9
100
AcDbSymbolTable
 70
1
  0
APPID
  5
214
100
AcDbSymbolTableRecord
100
AcDbRegAppTableRecord
  2
ACAD
 70
0
  0
ENDTAB
  0
TABLE
  2
BLOCK_RECORD
  5
1
100
AcDbSymbolTable
 70
0
  0
BLOCK_RECORD
  5
215
100
AcDbSymbolTableRecord
100
AcDbBlockTableRecord
  2
*Model_Space
  0
BLOCK_RECORD
  5
216
100
AcDbSymbolTableRecord
100
AcDbBlockTableRecord
  2
*Paper_Space
  0
ENDTAB
  0
TABLE
  2
DIMSTYLE
  5
A
100
AcDbSymbolTable
 70
1
100
AcDbDimStyleTable
 71
0
  0
DIMSTYLE
105
217
100
AcDbSymbolTableRecord
100
AcDbDimStyleTableRecord
  2
STANDARD
 70
0
  3

  4

 40
1.0
 41
3.0
 42
0.5
 43
0.38
 44
1.5
 45
0.0
 46
0.0
 47
0.01
 48
0.01
140
3.0
141
0.09
142
0.0
143
25.4
144
1.0
145
0.0
146
1.0
147
0.625
 71
1.0
 72
0.0
 73
0
 74
0
 75
0
 76
0
 77
1
 78
8
170
0
171
2
172
0
173
0
174
0
175
0
176
0
177
0
178
0
270
2
271
2
272
2
273
2
274
2
275
0
280
0
281
0
282
0
283
1
284
8
285
0
286
0
287
3
288
0
340
11
278
44
  0
ENDTAB
  0
ENDSEC
  0
SECTION
  2
BLOCKS
  0
BLOCK
  5
20
100
AcDbEntity
  8
0
100
AcDbBlockBegin
  2
*Model_Space
 70
0
 10
0.0
 20
0.0
 30
0.0
  3
*Model_Space
  1

  0
ENDBLK
  5
21
100
AcDbEntity
  8
0
100
AcDbBlockEnd
  0
BLOCK
  5
1C
100
AcDbEntity
  8
0
100
AcDbBlockBegin
  2
*Paper_Space
 70
0
 10
0.0
 20
0.0
 30
0.0
  3
*Paper_Space
  1

  0
ENDBLK
  5
1D
100
AcDbEntity
  8
0
100
AcDbBlockEnd
  0
ENDSEC
  0
SECTION
  2
ENTITIES
  0
LWPOLYLINE
  5
218
100
AcDbEntity
  8
ASSI
100
AcDbPolyline
 62
7
  6
CONTINUOUS
 90
17
 70
0
 10
167.8990189648
 20
123.1191673823
 10
167.8104737685
 20
123.0649076624
 10
167.7254424798
 20
123.0040670156
 10
167.6438414788
 20
122.9367763968
 10
167.5659038573
 20
122.8633890112
 10
167.4922276202
 20
122.7846295631
 10
167.422783547
 20
122.7006453057
 10
167.3577067452
 20
122.6116497346
 10
167.2977474291
 20
122.5187220297
 10
167.2429463403
 20
122.4220688522
 10
167.1934509296
 20
122.3218661439
 10
167.1499009284
 20
122.2194116068
 10
167.1123809534
 20
122.1149452478
 10
167.0810390594
 20
122.0086101499
 10
167.0562906113
 20
121.9015914979
 10
167.0383019296
 20
121.7943501759
 10
167.027159206
 20
121.6867645242
  0
LWPOLYLINE
  5
219
100
AcDbEntity
  8
RACCORDO
100
AcDbPolyline
 62
7
  6
CONTINUOUS
 90
19
 70
0
 10
167.921149095
 20
123.1313728032
 10
167.8989690927
 20
123.1191398763
 10
167.8104200772
 20
123.0648720335
 10
167.72539706
 20
123.0040320727
 10
167.6438043081
 20
122.9367436091
 10
167.5658747452
 20
122.8633597834
 10
167.492206101
 20
122.784605086
 10
167.4227691582
 20
122.7006268047
 10
167.3576989468
 20
122.6116383838
 10
167.2977453585
 20
122.518718609
 10
167.2429491208
 20
122.4220740985
 10
167.193457632
 20
122.3218807467
 10
167.1499103861
 20
122.2194357402
 10
167.1123919856
 20
122.1149790004
 10
167.0810504834
 20
122.0086535942
 10
167.056301144
 20
121.9016442664
 10
167.0383102917
 20
121.7944117179
 10
167.0271626069
 20
121.6868193054
 10
167.0253551414
 20
121.6577045964
  0
LINE
  5
21A
100
AcDbEntity
  8
ASSI
100
AcDbLine
 62
7
  6
CONTINUOUS
 10
167.921149132
 20
123.1313728232
 11
167.8990189648
 21
123.1191673823
  0
LINE
  5
21B
100
AcDbEntity
  8
RACCORDO
100
AcDbLine
 62
7
  6
CONTINUOUS
 10
167.9211006466
 20
123.131359211
 11
171.9119824134
 21
125.2845314818
  0
LINE
  5
21C
100
AcDbEntity
  8
ASSI
100
AcDbLine
 62
7
  6
CONTINUOUS
 10
167.9211006466
 20
123.131359211
 11
171.9119824134
 21
125.2845314818
  0
LINE
  5
21D
100
AcDbEntity
  8
RACCORDO
100
AcDbLine
 62
253
  6
CONTINUOUS
 10
168.2910871305
 20
123.1150730311
 11
172.2779986479
 21
125.2661032613
  0
LINE
  5
21E
100
AcDbEntity
  8
ASSI
100
AcDbLine
 62
253
  6
CONTINUOUS
 10
168.2910871305
 20
123.1150730311
 11
172.2779986479
 21
125.2661032613
  0
LWPOLYLINE
  5
21F
100
AcDbEntity
  8
RACCORDO
100
AcDbPolyline
 62
253
  6
CONTINUOUS
 90
8
 70
0
 10
167.921143861
 20
123.1313825217
 10
167.9547765329
 20
123.1469417557
 10
168.0047254744
 20
123.1617656166
 10
168.0579187627
 20
123.168545576
 10
168.1137738266
 20
123.1672073798
 10
168.1716789436
 20
123.1577656841
 10
168.2309999387
 20
123.1403238939
 10
168.2910871305
 20
123.1150730311
  0
LWPOLYLINE
  5
220
100
AcDbEntity
  8
ASSI
100
AcDbPolyline
 62
253
  6
CONTINUOUS
 90
8
 70
0
 10
167.921143898
 20
123.1313825416
 10
167.9547765329
 20
123.1469417557
 10
168.0047254744
 20
123.1617656166
 10
168.0579187627
 20
123.168545576
 10
168.1137738266
 20
123.1672073798
 10
168.1716789436
 20
123.1577656841
 10
168.2309999387
 20
123.1403238939
 10
168.2910871305
 20
123.1150730311
  0
LWPOLYLINE
  5
221
100
AcDbEntity
  8
RACCORDO
100
AcDbPolyline
 62
7
  6
CONTINUOUS
 90
13
 70
0
 10
182.0576069123
 20
78.2002981831
 10
182.0721643563
 20
78.1931412848
 10
182.1585141513
 20
78.1560758745
 10
182.2484700204
 20
78.1264981458
 10
182.3411784928
 20
78.1047885011
 10
182.4361270755
 20
78.0911428979
 10
182.5332400967
 20
78.085734081
 10
182.6319220289
 20
78.0887998437
 10
182.7314259446
 20
78.1004822937
 10
182.8316191162
 20
78.1209819572
 10
182.9321199916
 20
78.1505219223
 10
183.0321260634
 20
78.1891194162
 10
183.0608618792
 20
78.2019698268
  0
LWPOLYLINE
  5
222
100
AcDbEntity
  8
ASSI
100
AcDbPolyline
 62
7
  6
CONTINUOUS
 90
12
 70
0
 10
182.0576062716
 20
78.2002985049
 10
182.0721181436
 20
78.1931635733
 10
182.1584761707
 20
78.1560902421
 10
182.2484412944
 20
78.1265062149
 10
182.3411597884
 20
78.1047920283
 10
182.4361189446
 20
78.0911437079
 10
182.5332429557
 20
78.0857340459
 10
182.6319360926
 20
78.0888008868
 10
182.7314511756
 20
78.1004863481
 10
182.8316553465
 20
78.1209909733
 10
182.9321669098
 20
78.1505378494
 10
183.0321701708
 20
78.1891391407
  0
LINE
  5
223
100
AcDbEntity
  8
RACCORDO
100
AcDbLine
 62
7
  6
CONTINUOUS
 10
182.0583805724
 20
78.1999092356
 11
167.6440908354
 21
85.4070541041
  0
LINE
  5
224
100
AcDbEntity
  8
ASSI
100
AcDbLine
 62
7
  6
CONTINUOUS
 10
182.0583805724
 20
78.1999092356
 11
167.6440908354
 21
85.4070541041
  0
LWPOLYLINE
  5
225
100
AcDbEntity
  8
RACCORDO
100
AcDbPolyline
 62
253
  6
CONTINUOUS
 90
13
 70
0
 10
167.6440905137
 20
85.4070542649
 10
167.6119392712
 20
85.4244795806
 10
167.5580496645
 20
85.4603627135
 10
167.5079040516
 20
85.5027055192
 10
167.4617477014
 20
85.5513094345
 10
167.419826671
 20
85.6059253328
 10
167.3823584149
 20
85.6662687859
 10
167.3495341772
 20
85.7320272891
 10
167.3215137947
 20
85.802877221
 10
167.2984312002
 20
85.878474811
 10
167.2804018003
 20
85.958446576
 10
167.2675196652
 20
86.0423889918
 10
167.2598506497
 20
86.1298825279
  0
LWPOLYLINE
  5
226
100
AcDbEntity
  8
ASSI
100
AcDbPolyline
 62
253
  6
CONTINUOUS
 90
13
 70
0
 10
167.6440905137
 20
85.4070542649
 10
167.6119392712
 20
85.4244795806
 10
167.5580496645
 20
85.4603627135
 10
167.5079040516
 20
85.5027055192
 10
167.4617477014
 20
85.5513094345
 10
167.419826671
 20
85.6059253328
 10
167.3823584149
 20
85.6662687859
 10
167.3495341772
 20
85.7320272891
 10
167.3215137947
 20
85.802877221
 10
167.2984312002
 20
85.878474811
 10
167.2804018003
 20
85.958446576
 10
167.2675196652
 20
86.0423889918
 10
167.2598506497
 20
86.1298825279
  0
LINE
  5
227
100
AcDbEntity
  8
RACCORDO
100
AcDbLine
 62
253
  6
CONTINUOUS
 10
181.6678281845
 20
78.9258937605
 11
167.2598506497
 21
86.1298825279
  0
LINE
  5
228
100
AcDbEntity
  8
ASSI
100
AcDbLine
 62
253
  6
CONTINUOUS
 10
181.6678281845
 20
78.9258937605
 11
167.2598506497
 21
86.1298825279
  0
LINE
  5
229
100
AcDbEntity
  8
RACCORDO
100
AcDbLine
 62
253
  6
CONTINUOUS
 10
178.1561069059
 20
85.4204006986
 11
178.1437424275
 21
85.4259105612
  0
LINE
  5
22A
100
AcDbEntity
  8
ASSI
100
AcDbLine
 62
253
  6
CONTINUOUS
 10
178.1561069059
 20
85.4204006986
 11
178.1437424275
 21
85.4259105612
  0
LWPOLYLINE
  5
22B
100
AcDbEntity
  8
RACCORDO
100
AcDbPolyline
 62
253
  6
CONTINUOUS
 90
16
 70
0
 10
178.0410050712
 20
85.7160904135
 10
178.0565623493
 20
85.7090864955
 10
178.0734986205
 20
85.7029340348
 10
178.0916283275
 20
85.6977004392
 10
178.1107528376
 20
85.693443049
 10
178.1306626184
 20
85.690208509
 10
178.1511395345
 20
85.6880322576
 10
178.1719592362
 20
85.6869381382
 10
178.1928936187
 20
85.6869381382
 10
178.2137133205
 20
85.6880322576
 10
178.2341902365
 20
85.690208509
 10
178.2541000174
 20
85.693443049
 10
178.2732245274
 20
85.6977004392
 10
178.2913542345
 20
85.7029340348
 10
178.3082905057
 20
85.7090864955
 10
178.3238477837
 20
85.7160904135
  0
LWPOLYLINE
  5
22C
100
AcDbEntity
  8
RACCORDO
100
AcDbPolyline
 62
253
  6
CONTINUOUS
 90
22
 70
0
 10
177.8288730369
 20
85.5623488096
 10
177.844806587
 20
85.5551262841
 10
177.8604981162
 20
85.5494396291
 10
177.8759476244
 20
85.5452888447
 10
177.891244725
 20
85.5426640886
 10
177.9062998046
 20
85.541575203
 10
177.9208440231
 20
85.5420517147
 10
177.9348649205
 20
85.5441243048
 10
177.9483749568
 20
85.5477622921
 10
177.9611426714
 20
85.5529031602
 10
177.9731518604
 20
85.559570601
 10
177.9844187278
 20
85.5677409226
 10
177.9947604245
 20
85.5772805318
 10
178.0041638408
 20
85.5882146958
 10
178.0126420863
 20
85.6005181475
 10
178.0200516413
 20
85.6139814928
 10
178.0263733457
 20
85.6286316053
 10
178.0316263595
 20
85.6444416113
 10
178.0357246429
 20
85.6611214967
 10
178.038639516
 20
85.6785745897
 10
178.0403996588
 20
85.696897562
 10
178.0410050712
 20
85.7160904135
  0
LWPOLYLINE
  5
22D
100
AcDbEntity
  8
RACCORDO
100
AcDbPolyline
 62
7
  6
CONTINUOUS
 90
13
 70
0
 10
177.8808516809
 20
85.454174046
 10
177.9090092153
 20
85.4413299909
 10
177.9370891548
 20
85.4309178839
 10
177.9649666951
 20
85.4228795295
 10
177.9924611656
 20
85.4171562889
 10
178.0195265921
 20
85.4136488816
 10
178.0462266852
 20
85.4122694805
 10
178.072414813
 20
85.4129621885
 10
178.0979873063
 20
85.415656715
 10
178.123036443
 20
85.4203193392
 10
178.1474945763
 20
85.4269237513
 10
178.1711579086
 20
85.4353951056
 10
178.1939011909
 20
85.4456535133
  0
LINE
  5
22E
100
AcDbEntity
  8
RACCORDO
100
AcDbLine
 62
7
  6
CONTINUOUS
 10
170.102677081
 20
89.343261346
 11
177.8808516797
 21
85.4541740466
  0
LINE
  5
22F
100
AcDbEntity
  8
RACCORDO
100
AcDbLine
 62
253
  6
CONTINUOUS
 10
170.0506984438
 20
89.4514361061
 11
177.8288730369
 21
85.5623488096
  0
LWPOLYLINE
  5
230
100
AcDbEntity
  8
RACCORDO
100
AcDbPolyline
 62
253
  6
CONTINUOUS
 90
9
 70
0
 10
169.8385664095
 20
89.8173097444
 10
169.8245587252
 20
89.8250882879
 10
169.8122538936
 20
89.8335563298
 10
169.8017867362
 20
89.8426210978
 10
169.7932719417
 20
89.8521832816
 10
169.7868028108
 20
89.8621381191
 10
169.7824502323
 20
89.872376544
 10
169.7802619044
 20
89.8827863841
 10
169.7799877657
 20
89.8880204146
  0
LWPOLYLINE
  5
231
100
AcDbEntity
  8
RACCORDO
100
AcDbPolyline
 62
253
  6
CONTINUOUS
 90
6
 70
0
 10
178.5228214217
 20
85.7343053793
 10
178.5116688406
 20
85.7410080229
 10
178.5029738959
 20
85.7486922572
 10
178.4969979041
 20
85.7571271416
 10
178.4939204664
 20
85.7660591755
 10
178.4935220276
 20
85.7697791191
  0
LWPOLYLINE
  5
232
100
AcDbEntity
  8
ASSI
100
AcDbPolyline
 62
253
  6
CONTINUOUS
 90
6
 70
0
 10
178.5228214217
 20
85.7343053793
 10
178.5116688406
 20
85.7410080229
 10
178.5029738959
 20
85.7486922572
 10
178.4969979041
 20
85.7571271416
 10
178.4939204664
 20
85.7660591755
 10
178.4935220285
 20
85.7697790945
  0
LWPOLYLINE
  5
233
100
AcDbEntity
  8
RACCORDO
100
AcDbPolyline
 62
253
  6
CONTINUOUS
 90
8
 70
0
 10
167.0266807757
 20
86.4005419959
 10
167.0360064728
 20
86.3565273636
 10
167.0538171501
 20
86.3134262863
 10
167.0798827248
 20
86.2718858059
 10
167.1139239079
 20
86.2323510227
 10
167.1555759529
 20
86.1952455462
 10
167.2043925639
 20
86.1609669566
 10
167.2598506777
 20
86.1298825442
  0
LWPOLYLINE
  5
234
100
AcDbEntity
  8
ASSI
100
AcDbPolyline
 62
253
  6
CONTINUOUS
 90
8
 70
0
 10
167.0266808357
 20
86.4005417123
 10
167.0360064728
 20
86.3565273636
 10
167.0538171501
 20
86.3134262863
 10
167.0798827248
 20
86.2718858059
 10
167.1139239079
 20
86.2323510227
 10
167.1555759529
 20
86.1952455462
 10
167.2043925639
 20
86.1609669566
 10
167.2598506777
 20
86.1298825442
  0
LWPOLYLINE
  5
235
100
AcDbEntity
  8
RACCORDO
100
AcDbPolyline
 62
7
  6
CONTINUOUS
 90
14
 70
0
 10
167.0331222967
 20
86.3260595211
 10
167.0489892614
 20
86.2235364471
 10
167.0718338703
 20
86.1254671018
 10
167.1012083764
 20
86.0322659046
 10
167.1367643784
 20
85.9439389967
 10
167.1783274505
 20
85.8603125919
 10
167.2254568196
 20
85.781810733
 10
167.2777583236
 20
85.7086385857
 10
167.3352233285
 20
85.6405698301
 10
167.3974154153
 20
85.5780139397
 10
167.4638865244
 20
85.5212706547
 10
167.5347328705
 20
85.470197707
 10
167.6096994025
 20
85.4250534558
 10
167.6449379867
 20
85.406632406
  0
LWPOLYLINE
  5
236
100
AcDbEntity
  8
ASSI
100
AcDbPolyline
 62
7
  6
CONTINUOUS
 90
14
 70
0
 10
167.033121969
 20
86.3260633102
 10
167.0489899322
 20
86.223532981
 10
167.0718374075
 20
86.1254541777
 10
167.1012160261
 20
86.0322445527
 10
167.1367772869
 20
85.9439102381
 10
167.1783467403
 20
85.8602773687
 10
167.2254834672
 20
85.7817701217
 10
167.2777931913
 20
85.7085937323
 10
167.3352673398
 20
85.6405218026
 10
167.3974693697
 20
85.5779639402
 10
167.4639510671
 20
85.5212199748
 10
167.5348087379
 20
85.470147632
 10
167.6097872776
 20
85.4250053911
 10
167.6449381003
 20
85.4066323494
  0
LINE
  5
237
100
AcDbEntity
  8
ASSI
100
AcDbLine
 62
7
  6
CONTINUOUS
 10
167.0255081885
 20
86.4141009139
 11
167.033121969
 21
86.3260633102
  0
LINE
  5
238
100
AcDbEntity
  8
RACCORDO
100
AcDbLine
 62
7
  6
CONTINUOUS
 10
167.0255081817
 20
86.4141010347
 11
167.033121969
 21
86.3260633102
  0
LINE
  5
239
100
AcDbEntity
  8
ASSI
100
AcDbLine
 62
7
  6
CONTINUOUS
 10
167.0254903866
 20
86.4142368417
 11
167.0254980892
 21
86.414100337
  0
LINE
  5
23A
100
AcDbEntity
  8
RACCORDO
100
AcDbLine
 62
7
  6
CONTINUOUS
 10
167.0254903866
 20
86.4142368418
 11
167.0254980824
 21
86.4141004578
  0
LINE
  5
23B
100
AcDbEntity
  8
ASSI
100
AcDbLine
 62
7
  6
CONTINUOUS
 10
166.8814809866
 20
89.2151512095
 11
167.0254903866
 21
86.4142368417
  0
LWPOLYLINE
  5
23C
100
AcDbEntity
  8
RACCORDO
100
AcDbPolyline
 62
253
  6
CONTINUOUS
 90
13
 70
0
 10
167.2598506497
 20
86.1298825279
 10
167.1131651585
 20
88.988024332
 10
166.9931237652
 20
91.8618415364
 10
166.8997421084
 20
94.7509660576
 10
166.8330324441
 20
97.6550278013
 10
166.7930033697
 20
100.5736549535
 10
166.7796598259
 20
103.5064740308
 10
166.7930033697
 20
106.4531096091
 10
166.8330324441
 20
109.4131843442
 10
166.8997421084
 20
112.3863192673
 10
166.9931237652
 20
115.3721337859
 10
167.1131651585
 20
118.3702457308
 10
167.2598506497
 20
121.3802713801
  0
LWPOLYLINE
  5
23D
100
AcDbEntity
  8
ASSI
100
AcDbPolyline
 62
253
  6
CONTINUOUS
 90
13
 70
0
 10
167.2598506497
 20
86.1298825279
 10
167.1131651585
 20
88.988024332
 10
166.9931237652
 20
91.8618415364
 10
166.8997421084
 20
94.7509660576
 10
166.8330324441
 20
97.6550278013
 10
166.7930033697
 20
100.5736549535
 10
166.7796598259
 20
103.5064740308
 10
166.7930033697
 20
106.4531096091
 10
166.8330324441
 20
109.4131843442
 10
166.8997421084
 20
112.3863192673
 10
166.9931237652
 20
115.3721337859
 10
167.1131651585
 20
118.3702457308
 10
167.2598506497
 20
121.3802713801
  0
LWPOLYLINE
  5
23E
100
AcDbEntity
  8
ASSI
100
AcDbPolyline
 62
7
  6
CONTINUOUS
 90
11
 70
0
 10
166.8811349353
 20
118.702934234
 10
166.7602530669
 20
115.694224646
 10
166.6662192703
 20
112.6977793002
 10
166.5990520884
 20
109.7140554518
 10
166.5587590013
 20
106.7434304018
 10
166.5453452652
 20
103.7862604406
 10
166.5588152384
 20
100.842916423
 10
166.5991678146
 20
97.9137664875
 10
166.6664009599
 20
94.9991631424
 10
166.7605104759
 20
92.0994773004
 10
166.8814809866
 20
89.2151512095
  0
LWPOLYLINE
  5
23F
100
AcDbEntity
  8
RACCORDO
100
AcDbPolyline
 62
7
  6
CONTINUOUS
 90
13
 70
0
 10
167.0253562958
 20
121.6578432809
 10
166.8811336307
 20
118.7029075056
 10
166.7602515825
 20
115.69418317
 10
166.6662184546
 20
112.6977490384
 10
166.599051743
 20
109.7140363138
 10
166.5587589279
 20
106.7434222929
 10
166.5453452652
 20
103.7862632623
 10
166.5588151133
 20
100.8429300729
 10
166.5991673659
 20
97.9137908591
 10
166.6663999891
 20
94.9991981253
 10
166.7605087847
 20
92.0995227805
 10
166.8814795374
 20
89.215179396
 10
167.0254903866
 20
86.4142368418
  0
LINE
  5
240
100
AcDbEntity
  8
ASSI
100
AcDbLine
 62
7
  6
CONTINUOUS
 10
167.0253562958
 20
121.6578432809
 11
166.8811349353
 21
118.702934234
  0
LINE
  5
241
100
AcDbEntity
  8
ASSI
100
AcDbLine
 62
7
  6
CONTINUOUS
 10
167.027159206
 20
121.6867645242
 11
167.0253551346
 21
121.6577044663
  0
LWPOLYLINE
  5
242
100
AcDbEntity
  8
RACCORDO
100
AcDbPolyline
 62
253
  6
CONTINUOUS
 90
22
 70
0
 10
167.2598506497
 20
121.3802713801
 10
167.2675202058
 20
121.4755675946
 10
167.2804031539
 20
121.5726068158
 10
167.2984333272
 20
121.6709035208
 10
167.3215160455
 20
121.7699610421
 10
167.3495357912
 20
121.869289458
 10
167.3823596338
 20
121.9684080754
 10
167.41982883
 20
122.0668368426
 10
167.4617517381
 20
122.1640684893
 10
167.5079098224
 20
122.259587796
 10
167.5580564113
 20
122.3528994664
 10
167.6119465011
 20
122.4435598984
 10
167.6693345304
 20
122.5311466415
 10
167.7299453631
 20
122.6152383608
 10
167.7934640379
 20
122.6953951691
 10
167.8595625407
 20
122.7711925991
 10
167.9278978176
 20
122.8422450756
 10
167.9981333735
 20
122.9082096745
 10
168.0699329014
 20
122.9687626233
 10
168.142940745
 20
123.0236024646
 10
168.2167829263
 20
123.0724539233
 10
168.2910871305
 20
123.1150730311
  0
LWPOLYLINE
  5
243
100
AcDbEntity
  8
ASSI
100
AcDbPolyline
 62
253
  6
CONTINUOUS
 90
22
 70
0
 10
167.2598506497
 20
121.3802713801
 10
167.2675202058
 20
121.4755675946
 10
167.2804031539
 20
121.5726068158
 10
167.2984333272
 20
121.6709035208
 10
167.3215160455
 20
121.7699610421
 10
167.3495357912
 20
121.869289458
 10
167.3823596338
 20
121.9684080754
 10
167.41982883
 20
122.0668368426
 10
167.4617517381
 20
122.1640684893
 10
167.5079098224
 20
122.259587796
 10
167.5580564113
 20
122.3528994664
 10
167.6119465011
 20
122.4435598984
 10
167.6693345304
 20
122.5311466415
 10
167.7299453631
 20
122.6152383608
 10
167.7934640379
 20
122.6953951691
 10
167.8595625407
 20
122.7711925991
 10
167.9278978176
 20
122.8422450756
 10
167.9981333735
 20
122.9082096745
 10
168.0699329014
 20
122.9687626233
 10
168.142940745
 20
123.0236024646
 10
168.2167829263
 20
123.0724539233
 10
168.2910871305
 20
123.1150730311
  0
LINE
  5
244
100
AcDbEntity
  8
RACCORDO
100
AcDbLine
 62
253
  6
CONTINUOUS
 10
186.8445706536
 20
117.9828172584
 11
182.716002919
 21
115.9026151369
  0
LINE
  5
245
100
AcDbEntity
  8
ASSI
100
AcDbLine
 62
253
  6
CONTINUOUS
 10
186.8445706536
 20
117.9828172584
 11
182.716002919
 21
115.9026151369
  0
LINE
  5
246
100
AcDbEntity
  8
RACCORDO
100
AcDbLine
 62
253
  6
CONTINUOUS
 10
170.1235683382
 20
93.3704676614
 11
170.1601003226
 21
93.3579774163
  0
LWPOLYLINE
  5
247
100
AcDbEntity
  8
ASSI
100
AcDbPolyline
 62
253
  6
CONTINUOUS
 90
3
 70
0
 10
170.1235683382
 20
93.3704676614
 10
170.1601003226
 20
93.3579774163
 10
170.1975903245
 20
93.3413001584
  0
LINE
  5
248
100
AcDbEntity
  8
RACCORDO
100
AcDbLine
 62
253
  6
CONTINUOUS
 10
169.7879100274
 20
93.0406590371
 11
169.7949716136
 21
93.0377189451
  0
LINE
  5
249
100
AcDbEntity
  8
ASSI
100
AcDbLine
 62
253
  6
CONTINUOUS
 10
169.7879100274
 20
93.0406590371
 11
169.7949716136
 21
93.0377189451
  0
LINE
  5
24A
100
AcDbEntity
  8
RACCORDO
100
AcDbLine
 62
253
  6
CONTINUOUS
 10
170.1601003226
 20
93.3579774163
 11
170.1975903245
 21
93.3413001584
  0
LWPOLYLINE
  5
24B
100
AcDbEntity
  8
RACCORDO
100
AcDbPolyline
 62
253
  6
CONTINUOUS
 90
16
 70
0
 10
178.0410050712
 20
88.7471793268
 10
178.0565621618
 20
88.7401754864
 10
178.0734982486
 20
88.7340230722
 10
178.0916277872
 20
88.7287894947
 10
178.1107521569
 20
88.7245320985
 10
178.1306618335
 20
88.7212975338
 10
178.1511386842
 20
88.7191212451
 10
178.1719583649
 20
88.7180270814
 10
178.192892771
 20
88.7180270363
 10
178.2137125331
 20
88.7191211152
 10
178.2341895445
 20
88.7212973357
 10
178.2540994503
 20
88.7245318586
 10
178.2732240995
 20
88.7287892475
 10
178.2913539507
 20
88.7340228586
 10
178.3082903671
 20
88.7401753537
 10
178.3238477837
 20
88.747179326
  0
LWPOLYLINE
  5
24C
100
AcDbEntity
  8
RACCORDO
100
AcDbPolyline
 62
253
  6
CONTINUOUS
 90
22
 70
0
 10
170.0506984438
 20
93.0021402616
 10
170.0347648937
 20
93.0093627871
 10
170.0190733645
 20
93.0150494421
 10
170.0036238563
 20
93.0192002265
 10
169.9883267557
 20
93.0218249826
 10
169.9732716761
 20
93.0229138682
 10
169.9587274576
 20
93.0224373565
 10
169.9447065602
 20
93.0203647664
 10
169.9311965239
 20
93.016726779
 10
169.9184288093
 20
93.011585911
 10
169.9064196203
 20
93.0049184701
 10
169.8951527529
 20
92.9967481486
 10
169.8848110562
 20
92.9872085394
 10
169.8754076399
 20
92.9762743754
 10
169.8669293944
 20
92.9639709237
 10
169.8595198394
 20
92.9505075784
 10
169.853198135
 20
92.9358574659
 10
169.8479451212
 20
92.9200474598
 10
169.8438468378
 20
92.9033675745
 10
169.8409319647
 20
92.8859144815
 10
169.8391718219
 20
92.8675915092
 10
169.8385664095
 20
92.8483986576
  0
LWPOLYLINE
  5
24D
100
AcDbEntity
  8
RACCORDO
100
AcDbPolyline
 62
253
  6
CONTINUOUS
 90
11
 70
0
 10
170.1921198001
 20
93.2460560205
 10
170.1656909644
 20
93.2580589348
 10
170.1394128742
 20
93.2675707765
 10
170.113432469
 20
93.2745391556
 10
170.0878969391
 20
93.2789256916
 10
170.0629468246
 20
93.2807073592
 10
170.0387157361
 20
93.2798745468
 10
170.0153347678
 20
93.2764299394
 10
169.9929401352
 20
93.2703917172
 10
169.9716653824
 20
93.2617964121
 10
169.9685130023
 20
93.2602569141
  0
LINE
  5
24E
100
AcDbEntity
  8
ASSI
100
AcDbLine
 62
7
  6
CONTINUOUS
 10
170.2131731142
 20
93.2950336308
 11
170.2233665267
 21
93.2901254239
  0
LINE
  5
24F
100
AcDbEntity
  8
RACCORDO
100
AcDbLine
 62
7
  6
CONTINUOUS
 10
170.2131365166
 20
93.2950505909
 11
170.2233665421
 21
93.2901254161
  0
LINE
  5
250
100
AcDbEntity
  8
RACCORDO
100
AcDbLine
 62
253
  6
CONTINUOUS
 10
177.8288730369
 20
89.1130529651
 11
170.0506984438
 21
93.0021402616
  0
LINE
  5
251
100
AcDbEntity
  8
RACCORDO
100
AcDbLine
 62
253
  6
CONTINUOUS
 10
177.9702943931
 20
89.356968724
 11
170.1921198001
 21
93.2460560205
  0
LINE
  5
252
100
AcDbEntity
  8
RACCORDO
100
AcDbLine
 62
7
  6
CONTINUOUS
 10
170.223541148
 20
93.2900507621
 11
178.0096117954
 21
89.3970154385
  0
LINE
  5
253
100
AcDbEntity
  8
ASSI
100
AcDbLine
 62
7
  6
CONTINUOUS
 10
170.223541148
 20
93.2900507621
 11
178.0096117954
 21
89.3970154385
  0
LINE
  5
254
100
AcDbEntity
  8
RACCORDO
100
AcDbLine
 62
253
  6
CONTINUOUS
 10
170.1975903245
 20
93.3413001584
 11
177.9836609706
 21
89.4482648354
  0
LINE
  5
255
100
AcDbEntity
  8
ASSI
100
AcDbLine
 62
253
  6
CONTINUOUS
 10
170.1975903245
 20
93.3413001584
 11
177.9836609706
 21
89.4482648354
  0
LWPOLYLINE
  5
256
100
AcDbEntity
  8
ASSI
100
AcDbPolyline
 62
7
  6
CONTINUOUS
 90
17
 70
0
 10
178.0097207484
 20
89.396953649
 10
178.0241088866
 20
89.3893979403
 10
178.0576847228
 20
89.36898079
 10
178.0916386054
 20
89.3444040021
 10
178.1255205947
 20
89.3158580544
 10
178.1590157826
 20
89.2834525472
 10
178.1917598857
 20
89.2473823646
 10
178.2232326095
 20
89.208066415
 10
178.2529603239
 20
89.1659757771
 10
178.2805886912
 20
89.1215472017
 10
178.3057599469
 20
89.0752902473
 10
178.3281014773
 20
89.0278708819
 10
178.3473792237
 20
88.9798633304
 10
178.3634078566
 20
88.9318170309
 10
178.3760203915
 20
88.8844093332
 10
178.3851578815
 20
88.8382338654
 10
178.3908238672
 20
88.7937803159
  0
LINE
  5
257
100
AcDbEntity
  8
RACCORDO
100
AcDbLine
 62
7
  6
CONTINUOUS
 10
178.0097207373
 20
89.3969536545
 11
178.0241220547
 21
89.3893899329
  0
LWPOLYLINE
  5
258
100
AcDbEntity
  8
RACCORDO
100
AcDbPolyline
 62
253
  6
CONTINUOUS
 90
9
 70
0
 10
169.8385664095
 20
92.8483986576
 10
169.8245585734
 20
92.8561772967
 10
169.8122536521
 20
92.8646454323
 10
169.8017864609
 20
92.8737102858
 10
169.7932716804
 20
92.8832725408
 10
169.7868026004
 20
92.8932274313
 10
169.7824500976
 20
92.9034658893
 10
169.7802618588
 20
92.9138757401
 10
169.7799877657
 20
92.9191093358
  0
LWPOLYLINE
  5
259
100
AcDbEntity
  8
RACCORDO
100
AcDbPolyline
 62
253
  6
CONTINUOUS
 90
3
 70
0
 10
177.9836609706
 20
89.4482648354
 10
178.0213889267
 20
89.4272953205
 10
178.0583173108
 20
89.4030313845
  0
LWPOLYLINE
  5
25A
100
AcDbEntity
  8
ASSI
100
AcDbPolyline
 62
253
  6
CONTINUOUS
 90
3
 70
0
 10
177.9836609706
 20
89.4482648354
 10
178.0213889267
 20
89.4272953205
 10
178.0583173108
 20
89.4030313845
  0
LWPOLYLINE
  5
25B
100
AcDbEntity
  8
RACCORDO
100
AcDbPolyline
 62
253
  6
CONTINUOUS
 90
6
 70
0
 10
178.4222218468
 20
88.7235002849
 10
178.4110721599
 20
88.730186832
 10
178.4023809836
 20
88.7378252577
 10
178.3964094781
 20
88.7461860359
 10
178.3933370803
 20
88.7550179346
 10
178.3929305335
 20
88.7589902133
  0
LWPOLYLINE
  5
25C
100
AcDbEntity
  8
ASSI
100
AcDbPolyline
 62
253
  6
CONTINUOUS
 90
6
 70
0
 10
178.4222218468
 20
88.7235002849
 10
178.4110721599
 20
88.730186832
 10
178.4023809836
 20
88.7378252577
 10
178.3964094781
 20
88.7461860359
 10
178.3933370803
 20
88.7550179346
 10
178.3929305335
 20
88.7589902133
  0
LWPOLYLINE
  5
25D
100
AcDbEntity
  8
RACCORDO
100
AcDbPolyline
 62
253
  6
CONTINUOUS
 90
9
 70
0
 10
167.0253551414
 20
121.6577045964
 10
167.0266481745
 20
121.6263962267
 10
167.0360135514
 20
121.5883953713
 10
167.0538245534
 20
121.5506845474
 10
167.0798903398
 20
121.5136678171
 10
167.1139316222
 20
121.4777418061
 10
167.1555836564
 20
121.4432914528
 10
167.2044001509
 20
121.4106858845
 10
167.2598580489
 20
121.3802744619
  0
LWPOLYLINE
  5
25E
100
AcDbEntity
  8
ASSI
100
AcDbPolyline
 62
253
  6
CONTINUOUS
 90
9
 70
0
 10
167.0253551346
 20
121.6577044663
 10
167.0266481745
 20
121.6263962267
 10
167.0360135514
 20
121.5883953713
 10
167.0538245534
 20
121.5506845474
 10
167.0798903398
 20
121.5136678171
 10
167.1139316222
 20
121.4777418061
 10
167.1555836564
 20
121.4432914528
 10
167.2044001509
 20
121.4106858845
 10
167.2598580489
 20
121.3802744619
  0
LWPOLYLINE
  5
25F
100
AcDbEntity
  8
RACCORDO
100
AcDbPolyline
 62
253
  6
CONTINUOUS
 90
22
 70
0
 10
182.716002919
 20
115.9026151369
 10
182.6404683078
 20
115.8606112325
 10
182.5654154454
 20
115.8123651144
 10
182.4912166467
 20
115.7581207506
 10
182.4182402785
 20
115.698156222
 10
182.3468476083
 20
115.6327701803
 10
182.2773917756
 20
115.5622779817
 10
182.2102095197
 20
115.4870224282
 10
182.1456436503
 20
115.4073892172
 10
182.0840382824
 20
115.3237947656
 10
182.0257094946
 20
115.2366784017
 10
181.9709313057
 20
115.1464620191
 10
181.9199620249
 20
115.0535616947
 10
181.8730473474
 20
114.9584206846
 10
181.8304332531
 20
114.861534631
 10
181.7923489513
 20
114.7634134166
 10
181.7589874263
 20
114.6645636405
 10
181.7305060786
 20
114.5654660256
 10
181.7070444847
 20
114.466597942
 10
181.6887203775
 20
114.368448204
 10
181.6756262219
 20
114.2715145866
 10
181.6678281845
 20
114.1762826127
  0
LWPOLYLINE
  5
260
100
AcDbEntity
  8
ASSI
100
AcDbPolyline
 62
253
  6
CONTINUOUS
 90
22
 70
0
 10
182.716002919
 20
115.9026151369
 10
182.6404683078
 20
115.8606112325
 10
182.5654154454
 20
115.8123651144
 10
182.4912166467
 20
115.7581207506
 10
182.4182402785
 20
115.698156222
 10
182.3468476083
 20
115.6327701803
 10
182.2773917756
 20
115.5622779817
 10
182.2102095197
 20
115.4870224282
 10
182.1456436503
 20
115.4073892172
 10
182.0840382824
 20
115.3237947656
 10
182.0257094946
 20
115.2366784017
 10
181.9709313057
 20
115.1464620191
 10
181.9199620249
 20
115.0535616947
 10
181.8730473474
 20
114.9584206846
 10
181.8304332531
 20
114.861534631
 10
181.7923489513
 20
114.7634134166
 10
181.7589874263
 20
114.6645636405
 10
181.7305060786
 20
114.5654660256
 10
181.7070444847
 20
114.466597942
 10
181.6887203775
 20
114.368448204
 10
181.6756262219
 20
114.2715145866
 10
181.6678281845
 20
114.1762826127
  0
LWPOLYLINE
  5
261
100
AcDbEntity
  8
RACCORDO
100
AcDbPolyline
 62
253
  6
CONTINUOUS
 90
22
 70
0
 10
183.2816021873
 20
114.9271006996
 10
183.2459105815
 20
114.9075744029
 10
183.2107400761
 20
114.8853502025
 10
183.1760906712
 20
114.8604280985
 10
183.1417794714
 20
114.8326500837
 10
183.1079893721
 20
114.8021741653
 10
183.0752690592
 20
114.7694743645
 10
183.0436470126
 20
114.7345214276
 10
183.0130947525
 20
114.6973446084
 10
182.984075525
 20
114.6585056889
 10
182.9566169659
 20
114.6179863195
 10
182.9306914395
 20
114.5758048499
 10
182.9066792848
 20
114.5325781113
 10
182.8846044914
 20
114.4882804491
 10
182.8644430699
 20
114.4429375179
 10
182.8465033909
 20
114.397243112
 10
182.8308216352
 20
114.3511820521
 10
182.8173616221
 20
114.3047695176
 10
182.8063231802
 20
114.2587448408
 10
182.797772919
 20
114.2133544658
 10
182.791644229
 20
114.1683519485
 10
182.7879371102
 20
114.1237372888
  0
LWPOLYLINE
  5
262
100
AcDbEntity
  8
ASSI
100
AcDbPolyline
 62
253
  6
CONTINUOUS
 90
22
 70
0
 10
183.2816021873
 20
114.9271006996
 10
183.2459105815
 20
114.9075744029
 10
183.2107400761
 20
114.8853502025
 10
183.1760906712
 20
114.8604280985
 10
183.1417794714
 20
114.8326500837
 10
183.1079893721
 20
114.8021741653
 10
183.0752690592
 20
114.7694743645
 10
183.0436470126
 20
114.7345214276
 10
183.0130947525
 20
114.6973446084
 10
182.984075525
 20
114.6585056889
 10
182.9566169659
 20
114.6179863195
 10
182.9306914395
 20
114.5758048499
 10
182.9066792848
 20
114.5325781113
 10
182.8846044914
 20
114.4882804491
 10
182.8644430699
 20
114.4429375179
 10
182.8465033909
 20
114.397243112
 10
182.8308216352
 20
114.3511820521
 10
182.8173616221
 20
114.3047695176
 10
182.8063231802
 20
114.2587448408
 10
182.797772919
 20
114.2133544658
 10
182.791644229
 20
114.1683519485
 10
182.7879371102
 20
114.1237372888
  0
LINE
  5
263
100
AcDbEntity
  8
RACCORDO
100
AcDbLine
 62
253
  6
CONTINUOUS
 10
187.410169922
 20
117.0073028211
 11
183.2816021873
 21
114.9271006996
  0
LINE
  5
264
100
AcDbEntity
  8
ASSI
100
AcDbLine
 62
253
  6
CONTINUOUS
 10
187.410169922
 20
117.0073028211
 11
183.2816021873
 21
114.9271006996
  0
LWPOLYLINE
  5
265
100
AcDbEntity
  8
RACCORDO
100
AcDbPolyline
 62
253
  6
CONTINUOUS
 90
16
 70
0
 10
182.7879371102
 20
114.1237372888
 10
182.7256081739
 20
114.1014805582
 10
182.6579925496
 20
114.0825453557
 10
182.5858147291
 20
114.0671345694
 10
182.5098480879
 20
114.0554133237
 10
182.4309065979
 20
114.0475072102
 10
182.3498361061
 20
114.0435009418
 10
182.2675052716
 20
114.0434374451
 10
182.1847962578
 20
114.0473174004
 10
182.1025952804
 20
114.0550992345
 10
182.0217831112
 20
114.0666995663
 10
181.9432256415
 20
114.0819940996
 10
181.8677646037
 20
114.100818956
 10
181.7962085521
 20
114.1229724296
 10
181.7293242
 20
114.1482171491
 10
181.6678282039
 20
114.1762826208
  0
LWPOLYLINE
  5
266
100
AcDbEntity
  8
ASSI
100
AcDbPolyline
 62
253
  6
CONTINUOUS
 90
16
 70
0
 10
182.7879371102
 20
114.1237372888
 10
182.7256081739
 20
114.1014805582
 10
182.6579925496
 20
114.0825453557
 10
182.5858147291
 20
114.0671345694
 10
182.5098480879
 20
114.0554133237
 10
182.4309065979
 20
114.0475072102
 10
182.3498361061
 20
114.0435009418
 10
182.2675052716
 20
114.0434374451
 10
182.1847962578
 20
114.0473174004
 10
182.1025952804
 20
114.0550992345
 10
182.0217831112
 20
114.0666995663
 10
181.9432256415
 20
114.0819940996
 10
181.8677646037
 20
114.100818956
 10
181.7962085521
 20
114.1229724296
 10
181.7293242
 20
114.1482171491
 10
181.6678282039
 20
114.1762826208
  0
LWPOLYLINE
  5
267
100
AcDbEntity
  8
ASSI
100
AcDbPolyline
 62
7
  6
CONTINUOUS
 90
5
 70
0
 10
170.1029140708
 20
93.3215841422
 10
170.1282840531
 20
93.3203939448
 10
170.1555163796
 20
93.3155195717
 10
170.1839894636
 20
93.307008454
 10
170.2131731142
 20
93.2950336308
  0
LINE
  5
268
100
AcDbEntity
  8
0
100
AcDbLine
 62
253
  6
CONTINUOUS
 10
175.4950974755
 20
92.2959901101
 11
174.9698179645
 21
92.5586298656
  0
LINE
  5
269
100
AcDbEntity
  8
0
100
AcDbLine
 62
253
  6
CONTINUOUS
 10
171.4241825389
 20
94.3314475784
 11
171.9494618719
 21
94.0688079119
  0
LINE
  5
26A
100
AcDbEntity
  8
0
100
AcDbLine
 62
253
  6
CONTINUOUS
 10
172.6060610415
 20
93.7405083271
 11
172.8687006874
 21
93.6091885041
  0
LINE
  5
26B
100
AcDbEntity
  8
0
100
AcDbLine
 62
253
  6
CONTINUOUS
 10
173.6566196252
 20
93.2152290352
 11
174.1818989171
 21
92.9525893893
  0
LWPOLYLINE
  5
26C
100
AcDbEntity
  8
RACCORDO
100
AcDbPolyline
 62
7
  6
CONTINUOUS
 90
15
 70
0
 10
178.0241524549
 20
89.3893739664
 10
178.0577259045
 20
89.3689533753
 10
178.0916768987
 20
89.3443740376
 10
178.1255556204
 20
89.3158263955
 10
178.1590471446
 20
89.2834201503
 10
178.1917872575
 20
89.2473502507
 10
178.2232558602
 20
89.2080354966
 10
178.2529794609
 20
89.1659469153
 10
178.280603842
 20
89.1215211852
 10
178.3057713633
 20
89.0752677333
 10
178.3281095441
 20
89.0278523795
 10
178.3473844123
 20
88.9798492099
 10
178.3634107131
 20
88.9318075004
 10
178.3760215381
 20
88.8844043916
 10
178.3851579676
 20
88.8382333368
  0
LINE
  5
26D
100
AcDbEntity
  8
RACCORDO
100
AcDbLine
 62
253
  6
CONTINUOUS
 10
178.0583173108
 20
89.4030313845
 11
178.0944463366
 21
89.3754731427
  0
LINE
  5
26E
100
AcDbEntity
  8
ASSI
100
AcDbLine
 62
253
  6
CONTINUOUS
 10
178.0583173108
 20
89.4030313845
 11
178.0944463366
 21
89.3754731427
  0
LWPOLYLINE
  5
26F
100
AcDbEntity
  8
RACCORDO
100
AcDbPolyline
 62
253
  6
CONTINUOUS
 90
13
 70
0
 10
178.0944463366
 20
89.3754731427
 10
178.13002978
 20
89.3443488957
 10
178.1648147162
 20
89.3099308032
 10
178.1980414379
 20
89.2730348389
 10
178.2296585816
 20
89.2336451871
 10
178.2597189412
 20
89.1917784375
 10
178.2876189815
 20
89.1482991378
 10
178.3133297588
 20
89.1031760905
 10
178.3368818873
 20
89.0564413981
 10
178.3577608831
 20
89.0090544041
 10
178.3759320413
 20
88.9609451491
 10
178.3914316001
 20
88.9121844249
 10
178.4038509121
 20
88.8639423898
  0
LWPOLYLINE
  5
270
100
AcDbEntity
  8
ASSI
100
AcDbPolyline
 62
253
  6
CONTINUOUS
 90
13
 70
0
 10
178.0944463366
 20
89.3754731427
 10
178.13002978
 20
89.3443488957
 10
178.1648147162
 20
89.3099308032
 10
178.1980414379
 20
89.2730348389
 10
178.2296585816
 20
89.2336451871
 10
178.2597189412
 20
89.1917784375
 10
178.2876189815
 20
89.1482991378
 10
178.3133297588
 20
89.1031760905
 10
178.3368818873
 20
89.0564413981
 10
178.3577608831
 20
89.0090544041
 10
178.3759320413
 20
88.9609451491
 10
178.3914316001
 20
88.9121844249
 10
178.4038509121
 20
88.8639423898
  0
LWPOLYLINE
  5
271
100
AcDbEntity
  8
RACCORDO
100
AcDbPolyline
 62
253
  6
CONTINUOUS
 90
6
 70
0
 10
170.1975903245
 20
93.3413001584
 10
170.1990022985
 20
93.327412442
 10
170.2024086588
 20
93.3150244282
 10
170.2077113175
 20
93.3044928367
 10
170.2147575813
 20
93.2961209307
 10
170.2233717951
 20
93.2901359744
  0
LWPOLYLINE
  5
272
100
AcDbEntity
  8
ASSI
100
AcDbPolyline
 62
253
  6
CONTINUOUS
 90
6
 70
0
 10
170.1975903245
 20
93.3413001584
 10
170.1990022985
 20
93.327412442
 10
170.2024086588
 20
93.3150244282
 10
170.2077113175
 20
93.3044928367
 10
170.2147575813
 20
93.2961209307
 10
170.2233717797
 20
93.2901359822
  0
LWPOLYLINE
  5
273
100
AcDbEntity
  8
RACCORDO
100
AcDbPolyline
 62
253
  6
CONTINUOUS
 90
9
 70
0
 10
170.0506984438
 20
89.4514361061
 10
170.0514731648
 20
89.4337186057
 10
170.0537888398
 20
89.4169699429
 10
170.0576200977
 20
89.4013736195
 10
170.0629249625
 20
89.3871005123
 10
170.0696453129
 20
89.3743070003
 10
170.0777075195
 20
89.3631332518
 10
170.087023251
 20
89.3537016889
 10
170.0974904422
 20
89.3461156458
  0
LWPOLYLINE
  5
274
100
AcDbEntity
  8
RACCORDO
100
AcDbPolyline
 62
7
  6
CONTINUOUS
 90
19
 70
0
 10
169.7799877657
 20
89.8880204146
 10
169.78126891
 20
89.8512134993
 10
169.7850271517
 20
89.8143980054
 10
169.79114565
 20
89.7777064973
 10
169.7995429141
 20
89.7411824286
 10
169.8101293038
 20
89.7049947247
 10
169.822754094
 20
89.6694710649
 10
169.8372872794
 20
89.6348024009
 10
169.8536719014
 20
89.6010224314
 10
169.8718369974
 20
89.5682446301
 10
169.8917436049
 20
89.536553545
 10
169.9133180212
 20
89.5061126555
 10
169.9364446512
 20
89.4771368052
 10
169.9611545964
 20
89.4496667899
 10
169.9873434089
 20
89.4239249674
 10
170.0146752829
 20
89.400304914
 10
170.042996224
 20
89.3789609872
 10
170.0723500828
 20
89.3599062338
 10
170.102677081
 20
89.343261346
  0
LWPOLYLINE
  5
275
100
AcDbEntity
  8
RACCORDO
100
AcDbPolyline
 62
253
  6
CONTINUOUS
 90
22
 70
0
 10
169.8385664095
 20
89.8173097444
 10
169.8391740867
 20
89.797491372
 10
169.8409369923
 20
89.7773917993
 10
169.8438551263
 20
89.7570110264
 10
169.8479570371
 20
89.7362250255
 10
169.8532141763
 20
89.7151578243
 10
169.8595408988
 20
89.6941815061
 10
169.8669571689
 20
89.6733013488
 10
169.8754430224
 20
89.6525120745
 10
169.8848529212
 20
89.6321699321
 10
169.8951995948
 20
89.6122884025
 10
169.9064703137
 20
89.592854005
 10
169.9184813521
 20
89.5741825459
 10
169.9312479882
 20
89.556282442
 10
169.9447549436
 20
89.5391452765
 10
169.9587726572
 20
89.5230616052
 10
169.973315249
 20
89.5080478344
 10
169.9883685988
 20
89.4940875578
 10
170.0036607853
 20
89.4814221129
 10
170.0191011681
 20
89.4701319455
 10
170.0347803876
 20
89.4601366099
 10
170.0506984438
 20
89.4514361061
  0
LINE
  5
276
100
AcDbEntity
  8
RACCORDO
100
AcDbLine
 62
253
  6
CONTINUOUS
 10
169.7888256872
 20
93.0098453734
 11
169.7879073018
 21
93.0406575574
  0
LINE
  5
277
100
AcDbEntity
  8
ASSI
100
AcDbLine
 62
253
  6
CONTINUOUS
 10
169.7888256872
 20
93.0098453734
 11
169.7879073018
 21
93.0406575574
  0
LINE
  5
278
100
AcDbEntity
  8
RACCORDO
100
AcDbLine
 62
7
  6
CONTINUOUS
 10
169.7799877657
 20
92.9191093358
 11
169.7799877657
 21
89.8880204154
  0
LINE
  5
279
100
AcDbEntity
  8
RACCORDO
100
AcDbLine
 62
253
  6
CONTINUOUS
 10
169.8385664095
 20
92.8483986576
 11
169.8385664095
 21
89.8173097444
  0
LWPOLYLINE
  5
27A
100
AcDbEntity
  8
RACCORDO
100
AcDbPolyline
 62
253
  6
CONTINUOUS
 90
17
 70
0
 10
169.7879073018
 20
93.0406575574
 10
169.7883507291
 20
93.085354043
 10
169.7919364205
 20
93.1274035384
 10
169.7986639017
 20
93.166805785
 10
169.8086480975
 20
93.2038008085
 10
169.8217732504
 20
93.2381481292
 10
169.8376925162
 20
93.2691265426
 10
169.8564422231
 20
93.2966516582
 10
169.8779845297
 20
93.3208070451
 10
169.90186079
 20
93.3411231418
 10
169.9281091435
 20
93.3575416114
 10
169.9566897934
 20
93.370119893
 10
169.9870268991
 20
93.3785619321
 10
170.0191930846
 20
93.3827851152
 10
170.0531142919
 20
93.3828712799
 10
170.0879945848
 20
93.3787710091
 10
170.1235683382
 20
93.3704676614
  0
LWPOLYLINE
  5
27B
100
AcDbEntity
  8
ASSI
100
AcDbPolyline
 62
253
  6
CONTINUOUS
 90
17
 70
0
 10
169.7879073018
 20
93.0406575574
 10
169.7883507291
 20
93.085354043
 10
169.7919364205
 20
93.1274035384
 10
169.7986639017
 20
93.166805785
 10
169.8086480975
 20
93.2038008085
 10
169.8217732504
 20
93.2381481292
 10
169.8376925162
 20
93.2691265426
 10
169.8564422231
 20
93.2966516582
 10
169.8779845297
 20
93.3208070451
 10
169.90186079
 20
93.3411231418
 10
169.9281091435
 20
93.3575416114
 10
169.9566897934
 20
93.370119893
 10
169.9870268991
 20
93.3785619321
 10
170.0191930846
 20
93.3827851152
 10
170.0531142919
 20
93.3828712799
 10
170.0879945848
 20
93.3787710091
 10
170.1235683382
 20
93.3704676614
  0
LWPOLYLINE
  5
27C
100
AcDbEntity
  8
RACCORDO
100
AcDbPolyline
 62
7
  6
CONTINUOUS
 90
6
 70
0
 10
170.0797951654
 20
93.3192088312
 10
170.1029020702
 20
93.3215838323
 10
170.1282663391
 20
93.3203959747
 10
170.1554924193
 20
93.3155253244
 10
170.1839591078
 20
93.3070192501
 10
170.2131365166
 20
93.2950505909
  0
LINE
  5
27D
100
AcDbEntity
  8
ASSI
100
AcDbLine
 62
7
  6
CONTINUOUS
 10
170.0798022768
 20
93.3192101545
 11
170.1029140708
 21
93.3215841422
  0
LINE
  5
27E
100
AcDbEntity
  8
0
100
AcDbLine
 62
253
  6
CONTINUOUS
 10
173.3774817175
 20
94.1424660833
 11
174.1654005457
 21
93.7485066692
  0
LINE
  5
27F
100
AcDbEntity
  8
0
100
AcDbLine
 62
253
  6
CONTINUOUS
 10
174.9533195931
 20
93.3545471455
 11
175.4785991041
 21
93.09190739
  0
LINE
  5
280
100
AcDbEntity
  8
0
100
AcDbLine
 62
253
  6
CONTINUOUS
 10
176.6460131153
 20
93.2979025092
 11
175.9894138361
 21
93.6262021488
  0
LINE
  5
281
100
AcDbEntity
  8
0
100
AcDbLine
 62
253
  6
CONTINUOUS
 10
173.8882966687
 20
94.6767607325
 11
173.6256569132
 21
94.8080806103
  0
LINE
  5
282
100
AcDbEntity
  8
0
100
AcDbLine
 62
253
  6
CONTINUOUS
 10
171.9184991599
 20
95.661659487
 11
171.3932198269
 21
95.9242991534
  0
LINE
  5
283
100
AcDbEntity
  8
0
100
AcDbLine
 62
253
  6
CONTINUOUS
 10
174.6762154969
 20
94.2828013184
 11
175.3328145569
 21
93.9545017884
  0
LWPOLYLINE
  5
284
100
AcDbEntity
  8
0
100
AcDbPolyline
 62
253
  6
CONTINUOUS
 90
3
 70
0
 10
171.2646301577
 20
95.8304908087
 10
171.2815428316
 20
94.9322845069
 10
171.2894002847
 20
94.5562095281
  0
LWPOLYLINE
  5
285
100
AcDbEntity
  8
0
100
AcDbPolyline
 62
253
  6
CONTINUOUS
 90
3
 70
0
 10
171.3040161128
 20
97.6155490384
 10
171.2949063995
 20
98.5178247713
 10
171.2918587973
 20
98.8961366861
  0
LWPOLYLINE
  5
286
100
AcDbEntity
  8
0
100
AcDbPolyline
 62
253
  6
CONTINUOUS
 90
3
 70
0
 10
170.5027860214
 20
99.4503526199
 10
170.5103547967
 20
98.5472851626
 10
170.5248552518
 20
97.3169433923
  0
LWPOLYLINE
  5
287
100
AcDbEntity
  8
0
100
AcDbPolyline
 62
253
  6
CONTINUOUS
 90
3
 70
0
 10
171.8121822366
 20
99.4351855071
 10
171.8179174682
 20
98.5311811038
 10
171.8292954605
 20
97.3529092689
  0
LWPOLYLINE
  5
288
100
AcDbEntity
  8
RACCORDO
100
AcDbPolyline
 62
253
  6
CONTINUOUS
 90
16
 70
0
 10
170.0506984438
 20
93.0021402616
 10
170.0514731455
 20
93.0206322671
 10
170.0537887719
 20
93.039696414
 10
170.0576199614
 20
93.0591238382
 10
170.0629247482
 20
93.0787016947
 10
170.0696450204
 20
93.098215486
 10
170.077707156
 20
93.1174514123
 10
170.0870228323
 20
93.1361987208
 10
170.0974899903
 20
93.1542520082
 10
170.108993951
 20
93.1714134687
 10
170.1214086783
 20
93.1874950736
 10
170.1345981557
 20
93.2023206226
 10
170.1484178713
 20
93.2157276708
 10
170.1627164105
 20
93.2275693204
 10
170.1773371168
 20
93.237715828
 10
170.1921198007
 20
93.2460560202
  0
LINE
  5
289
100
AcDbEntity
  8
ASSI
100
AcDbLine
 62
7
  6
CONTINUOUS
 10
170.0590122153
 20
93.3134868839
 11
170.0798022768
 21
93.3192101545
  0
LINE
  5
28A
100
AcDbEntity
  8
0
100
AcDbLine
 62
253
  6
CONTINUOUS
 10
176.0334155855
 20
95.0919015777
 11
175.5081360745
 21
95.3545413332
  0
LINE
  5
28B
100
AcDbEntity
  8
0
100
AcDbLine
 62
253
  6
CONTINUOUS
 10
174.8515372337
 20
95.6828407536
 11
174.3262577226
 21
95.9454805091
  0
LINE
  5
28C
100
AcDbEntity
  8
0
100
AcDbLine
 62
253
  6
CONTINUOUS
 10
170.5179826923
 20
97.8496180243
 11
171.1745818619
 21
97.5213184395
  0
LINE
  5
28D
100
AcDbEntity
  8
0
100
AcDbLine
 62
253
  6
CONTINUOUS
 10
171.9625007997
 20
97.1273589706
 11
172.2251404456
 21
96.9960391476
  0
LINE
  5
28E
100
AcDbEntity
  8
0
100
AcDbLine
 62
253
  6
CONTINUOUS
 10
173.0130593834
 20
96.6020796788
 11
173.5383388944
 21
96.3394399232
  0
LINE
  5
28F
100
AcDbEntity
  8
0
100
AcDbLine
 62
253
  6
CONTINUOUS
 10
176.9526544011
 20
94.6322821699
 11
177.4779339121
 21
94.3696424144
  0
LINE
  5
290
100
AcDbEntity
  8
0
100
AcDbLine
 62
253
  6
CONTINUOUS
 10
172.7418051396
 20
97.5332585588
 11
173.529724187
 21
97.1392990351
  0
LINE
  5
291
100
AcDbEntity
  8
0
100
AcDbLine
 62
253
  6
CONTINUOUS
 10
174.3176430152
 20
96.745339621
 11
174.8429225262
 21
96.4826998655
  0
LINE
  5
292
100
AcDbEntity
  8
0
100
AcDbLine
 62
253
  6
CONTINUOUS
 10
176.6814001573
 20
95.5634610499
 11
177.4693192047
 21
95.1695015262
  0
LINE
  5
293
100
AcDbEntity
  8
0
100
AcDbLine
 62
253
  6
CONTINUOUS
 10
173.3685590569
 20
94.6205046591
 11
173.3871366272
 21
93.6647936771
  0
LWPOLYLINE
  5
294
100
AcDbEntity
  8
0
100
AcDbPolyline
 62
253
  6
CONTINUOUS
 90
3
 70
0
 10
172.4336712004
 20
96.0372993341
 10
172.4482919937
 20
95.1378873108
 10
172.4712787454
 20
93.9652703348
  0
LINE
  5
295
100
AcDbEntity
  8
0
100
AcDbLine
 62
253
  6
CONTINUOUS
 10
172.7376120455
 20
98.0136619178
 11
172.7467300204
 21
97.0532211076
  0
LINE
  5
296
100
AcDbEntity
  8
0
100
AcDbLine
 62
253
  6
CONTINUOUS
 10
173.529724187
 20
97.1392990351
 11
173.5255310928
 21
97.6197024003
  0
LWPOLYLINE
  5
297
100
AcDbEntity
  8
0
100
AcDbPolyline
 62
253
  6
CONTINUOUS
 90
3
 70
0
 10
172.8563709263
 20
109.1122543833
 10
172.8819733739
 20
110.0314125844
 10
172.9043837203
 20
110.769766553
  0
LINE
  5
298
100
AcDbEntity
  8
0
100
AcDbLine
 62
253
  6
CONTINUOUS
 10
173.640135461
 20
110.5429891738
 11
173.6113267991
 21
109.5971182133
  0
LINE
  5
299
100
AcDbEntity
  8
0
100
AcDbLine
 62
253
  6
CONTINUOUS
 10
173.0052425153
 20
113.0967864999
 11
173.0255960571
 21
113.6157705154
  0
LWPOLYLINE
  5
29A
100
AcDbEntity
  8
0
100
AcDbPolyline
 62
253
  6
CONTINUOUS
 90
77
 70
0
 10
173.2733908657
 20
112.1129789023
 10
173.2759391023
 20
112.1610105365
 10
173.2800833825
 20
112.2078336597
 10
173.28582145
 20
112.2534895405
 10
173.2931510491
 20
112.2980194475
 10
173.3020699237
 20
112.3414646494
 10
173.3125724005
 20
112.3838412629
 10
173.3246391371
 20
112.4250647979
 10
173.3382473739
 20
112.4650256122
 10
173.3533743511
 20
112.5036140638
 10
173.369997309
 20
112.5407205107
 10
173.3880896567
 20
112.5762446996
 10
173.4076094781
 20
112.6101239324
 10
173.4285110255
 20
112.6423048997
 10
173.4507485516
 20
112.6727342923
 10
173.4742763088
 20
112.7013588007
 10
173.4990510568
 20
112.7281282596
 10
173.5250395832
 20
112.7530050789
 10
173.5522111825
 20
112.7759548126
 10
173.5805351496
 20
112.7969430146
 10
173.6099807791
 20
112.8159352389
 10
173.6405085554
 20
112.832897972
 10
173.6720437224
 20
112.8478014308
 10
173.7045027138
 20
112.8606167649
 10
173.7378019632
 20
112.871315124
 10
173.7718579044
 20
112.8798676575
 10
173.8065960157
 20
112.8862494733
 10
173.841977955
 20
112.8904515127
 10
173.8779744249
 20
112.8924686754
 10
173.9145561281
 20
112.8922958609
 10
173.951693767
 20
112.8899279689
 10
173.9893448446
 20
112.8853651657
 10
174.0274140651
 20
112.8786286847
 10
174.0657929329
 20
112.8697450261
 10
174.1043729523
 20
112.8587406901
 10
174.1430456279
 20
112.8456421769
 10
174.1817164395
 20
112.8304734997
 10
174.2203467696
 20
112.8132487236
 10
174.2589119762
 20
112.7939794268
 10
174.2973874172
 20
112.7726771873
 10
174.3357484508
 20
112.7493535835
 10
174.3739564219
 20
112.7240322271
 10
174.4119166244
 20
112.6967848648
 10
174.4495203394
 20
112.6676952771
 10
174.4866588479
 20
112.6368472444
 10
174.5232234308
 20
112.6043245471
 10
174.5591196302
 20
112.5702016915
 10
174.594310032
 20
112.5345160872
 10
174.628771483
 20
112.4972958695
 10
174.6624808301
 20
112.4585691739
 10
174.6954149203
 20
112.4183641358
 10
174.7275407989
 20
112.376723616
 10
174.758786306
 20
112.3337493769
 10
174.78906948
 20
112.2895579064
 10
174.8183083594
 20
112.2442656923
 10
174.8464209827
 20
112.1979892226
 10
174.8733354044
 20
112.1508345387
 10
174.899019742
 20
112.1028658969
 10
174.9234521292
 20
112.054137107
 10
174.9466106997
 20
112.0047019791
 10
174.9684735869
 20
111.9546143229
 10
174.9890153987
 20
111.9039365324
 10
175.0081966396
 20
111.8527653373
 10
175.0259742882
 20
111.8012060516
 10
175.0423053233
 20
111.7493639889
 10
175.0571467234
 20
111.6973444631
 10
175.0704607387
 20
111.6452553808
 10
175.0822307047
 20
111.5932150205
 10
175.0924452284
 20
111.5413442535
 10
175.1010929166
 20
111.4897639509
 10
175.1081623763
 20
111.4385949843
 10
175.1128402659
 20
111.3963405622
 10
175.116410562
 20
111.3544354727
 10
175.118869575
 20
111.3128594599
 10
175.1202136153
 20
111.2715922683
 10
175.1204389934
 20
111.230613642
 10
175.1195420195
 20
111.1899033253
  0
LINE
  5
29B
100
AcDbEntity
  8
0
100
AcDbLine
 62
253
  6
CONTINUOUS
 10
177.2000972665
 20
96.1016969974
 11
176.9374577302
 21
96.2330167655
  0
LINE
  5
29C
100
AcDbEntity
  8
0
100
AcDbLine
 62
253
  6
CONTINUOUS
 10
176.0182189146
 20
96.6926361733
 11
175.4929394036
 21
96.9552759288
  0
LINE
  5
29D
100
AcDbEntity
  8
0
100
AcDbLine
 62
253
  6
CONTINUOUS
 10
173.260502468
 20
98.0714943966
 11
172.9978627125
 21
98.2028142744
  0
LINE
  5
29E
100
AcDbEntity
  8
0
100
AcDbLine
 62
253
  6
CONTINUOUS
 10
171.159385191
 20
99.1220530351
 11
170.5027860214
 21
99.4503526199
  0
LINE
  5
29F
100
AcDbEntity
  8
0
100
AcDbLine
 62
253
  6
CONTINUOUS
 10
174.0484215154
 20
97.6775348729
 11
174.7050207945
 21
97.3492352333
  0
LINE
  5
2A0
100
AcDbEntity
  8
0
100
AcDbLine
 62
253
  6
CONTINUOUS
 10
174.7037157902
 20
92.8490518305
 11
174.6938167747
 21
93.3266022155
  0
LWPOLYLINE
  5
2A1
100
AcDbEntity
  8
0
100
AcDbPolyline
 62
253
  6
CONTINUOUS
 90
3
 70
0
 10
175.4696764435
 20
93.5699459658
 10
175.4870474918
 20
92.6719818508
 10
175.4950974766
 20
92.2959900609
  0
LINE
  5
2A2
100
AcDbEntity
  8
0
100
AcDbLine
 62
253
  6
CONTINUOUS
 10
174.1654005457
 20
93.7485066692
 11
174.1564778853
 21
94.2265452365
  0
LINE
  5
2A3
100
AcDbEntity
  8
0
100
AcDbLine
 62
253
  6
CONTINUOUS
 10
174.0617326142
 20
96.2366907877
 11
174.0565637935
 21
96.716606277
  0
LWPOLYLINE
  5
2A4
100
AcDbEntity
  8
0
100
AcDbPolyline
 62
253
  6
CONTINUOUS
 90
3
 70
0
 10
174.8387294321
 20
96.9631032245
 10
174.8472149763
 20
96.0605063242
 10
174.851537234
 20
95.6828407279
  0
LINE
  5
2A5
100
AcDbEntity
  8
0
100
AcDbLine
 62
253
  6
CONTINUOUS
 10
175.3627734189
 20
96.8606793579
 11
175.3667225938
 21
96.3801540916
  0
LINE
  5
2A6
100
AcDbEntity
  8
0
100
AcDbLine
 62
253
  6
CONTINUOUS
 10
174.6174414613
 20
109.0940608988
 11
174.6462501234
 21
110.0399318594
  0
LINE
  5
2A7
100
AcDbEntity
  8
0
100
AcDbLine
 62
253
  6
CONTINUOUS
 10
175.463888329
 20
112.39662438
 11
175.4435347873
 21
111.8776403645
  0
LINE
  5
2A8
100
AcDbEntity
  8
0
100
AcDbLine
 62
253
  6
CONTINUOUS
 10
174.2521742719
 20
113.3208047155
 11
174.2621327532
 21
113.5620911174
  0
LWPOLYLINE
  5
2A9
100
AcDbEntity
  8
0
100
AcDbPolyline
 62
253
  6
CONTINUOUS
 90
77
 70
0
 10
175.1195420195
 20
111.1899033253
 10
175.1170011627
 20
111.1418797514
 10
175.1128784506
 20
111.0950706358
 10
175.1071758281
 20
111.0494346359
 10
175.0998952399
 20
111.0049304089
 10
175.0910386309
 20
110.9615166121
 10
175.0806112934
 20
110.9191770353
 10
175.0686319104
 20
110.8779959974
 10
175.0551225121
 20
110.8380829496
 10
175.0401051291
 20
110.7995473435
 10
175.0236017916
 20
110.7624986303
 10
175.0056383101
 20
110.7270368331
 10
174.9862556146
 20
110.6932242627
 10
174.9654984152
 20
110.6611138014
 10
174.9434114218
 20
110.6307583318
 10
174.9200393446
 20
110.6022107362
 10
174.8954243886
 20
110.5755207333
 10
174.8695987397
 20
110.550725386
 10
174.8425920788
 20
110.5278585934
 10
174.8144340869
 20
110.5069542546
 10
174.785154445
 20
110.4880462686
 10
174.7547916137
 20
110.471167579
 10
174.7234191723
 20
110.4563473076
 10
174.6911194798
 20
110.4436136207
 10
174.6579748951
 20
110.4329946846
 10
174.6240677772
 20
110.4245186656
 10
174.5894715127
 20
110.4182098071
 10
174.5542235991
 20
110.414076661
 10
174.5183525614
 20
110.4121238561
 10
174.4818869247
 20
110.4123560215
 10
174.444855214
 20
110.414777786
 10
174.4072991788
 20
110.4193885413
 10
174.369313465
 20
110.4261667292
 10
174.3310059433
 20
110.4350855542
 10
174.2924844839
 20
110.446118221
 10
174.2538569573
 20
110.459237934
 10
174.2152173569
 20
110.4744204349
 10
174.1766041681
 20
110.491651614
 10
174.1380419991
 20
110.5109198987
 10
174.0995554584
 20
110.5322137164
 10
174.0611691543
 20
110.5555214946
 10
174.0229217897
 20
110.580819692
 10
173.984908446
 20
110.6080368925
 10
173.947238299
 20
110.6370897115
 10
173.9100205246
 20
110.6678947641
 10
173.8733642988
 20
110.7003686657
 10
173.8373645966
 20
110.7344373115
 10
173.8020595907
 20
110.770063717
 10
173.7674732529
 20
110.8072201777
 10
173.733629555
 20
110.845878989
 10
173.7005524688
 20
110.8860124465
 10
173.6682758505
 20
110.9275781542
 10
173.6368730935
 20
110.9704749509
 10
173.6064274755
 20
111.0145869839
 10
173.5770222742
 20
111.0597984005
 10
173.5487407673
 20
111.1059933482
 10
173.5216561867
 20
111.1530663893
 10
173.4958015816
 20
111.2009537465
 10
173.4711999553
 20
111.2496020573
 10
173.4478743111
 20
111.2989579594
 10
173.4258476524
 20
111.3489680905
 10
173.4051465073
 20
111.3995704986
 10
173.3858115032
 20
111.4506688739
 10
173.3678867923
 20
111.5021583167
 10
173.3514165268
 20
111.5539339276
 10
173.336444859
 20
111.6058908072
 10
173.3230105818
 20
111.6579214378
 10
173.3111310513
 20
111.7099078303
 10
173.3008182642
 20
111.7617293774
 10
173.2920842173
 20
111.8132654719
 10
173.2849409074
 20
111.8643955066
 10
173.2802114207
 20
111.9066216969
 10
173.2765987074
 20
111.9485024996
 10
173.2741065315
 20
111.9900582681
 10
173.2727386566
 20
112.0313093558
 10
173.2724988467
 20
112.0722761161
 10
173.2733908657
 20
112.1129789023
  0
LWPOLYLINE
  5
2AA
100
AcDbEntity
  8
RACCORDO
100
AcDbPolyline
 62
253
  6
CONTINUOUS
 90
6
 70
0
 10
177.9836609706
 20
89.4482648354
 10
177.9850731231
 20
89.4343761445
 10
177.9884798619
 20
89.421987639
 10
177.9937829596
 20
89.411455989
 10
178.0008295707
 20
89.4030843756
 10
178.0096117954
 20
89.3970154385
  0
LWPOLYLINE
  5
2AB
100
AcDbEntity
  8
ASSI
100
AcDbPolyline
 62
253
  6
CONTINUOUS
 90
6
 70
0
 10
177.9836609706
 20
89.4482648354
 10
177.9850731231
 20
89.4343761445
 10
177.9884798619
 20
89.421987639
 10
177.9937829596
 20
89.411455989
 10
178.0008295707
 20
89.4030843756
 10
178.0096117954
 20
89.3970154385
  0
LWPOLYLINE
  5
2AC
100
AcDbEntity
  8
RACCORDO
100
AcDbPolyline
 62
253
  6
CONTINUOUS
 90
10
 70
0
 10
177.8288730369
 20
85.5623488096
 10
177.8296477415
 20
85.5446315073
 10
177.8319633704
 20
85.527882988
 10
177.835794562
 20
85.5122867543
 10
177.8410993504
 20
85.4980136854
 10
177.8478196239
 20
85.4852201669
 10
177.8558817604
 20
85.4740463767
 10
177.865197437
 20
85.4646147446
 10
177.875664595
 20
85.4570286152
 10
177.8808516797
 20
85.4541740466
  0
LWPOLYLINE
  5
2AD
100
AcDbEntity
  8
0
100
AcDbPolyline
 62
253
  6
CONTINUOUS
 90
3
 70
0
 10
176.8082955955
 20
91.6393910501
 10
176.7898414106
 20
92.5367814971
 10
176.7800630515
 20
93.0727743309
  0
LWPOLYLINE
  5
2AE
100
AcDbEntity
  8
0
100
AcDbPolyline
 62
253
  6
CONTINUOUS
 90
3
 70
0
 10
175.9894138361
 20
93.6262021488
 10
176.0058681348
 20
92.7277540077
 10
176.020376549
 20
92.0333505342
  0
LINE
  5
2AF
100
AcDbEntity
  8
0
100
AcDbLine
 62
253
  6
CONTINUOUS
 10
176.157680961
 20
95.6660476831
 11
176.1628497817
 21
95.1861321939
  0
LINE
  5
2B0
100
AcDbEntity
  8
0
100
AcDbLine
 62
253
  6
CONTINUOUS
 10
176.6772070631
 20
96.043864409
 11
176.6863250381
 21
95.0834235987
  0
LWPOLYLINE
  5
2B1
100
AcDbEntity
  8
RACCORDO
100
AcDbPolyline
 62
253
  6
CONTINUOUS
 90
3
 70
0
 10
178.4038509121
 20
88.8639423898
 10
178.4130538753
 20
88.8166091593
 10
178.4191773705
 20
88.7697950426
  0
LINE
  5
2B2
100
AcDbEntity
  8
ASSI
100
AcDbLine
 62
253
  6
CONTINUOUS
 10
178.4038509121
 20
88.8639423898
 11
178.4130538753
 21
88.8166091593
  0
LINE
  5
2B3
100
AcDbEntity
  8
ASSI
100
AcDbLine
 62
253
  6
CONTINUOUS
 10
178.4130538753
 20
88.8166091593
 11
178.4191773705
 21
88.7697950426
  0
LINE
  5
2B4
100
AcDbEntity
  8
RACCORDO
100
AcDbLine
 62
7
  6
CONTINUOUS
 10
178.3851579676
 20
88.8382333368
 11
178.3908236601
 21
88.7937819403
  0
LINE
  5
2B5
100
AcDbEntity
  8
RACCORDO
100
AcDbLine
 62
253
  6
CONTINUOUS
 10
178.4191773705
 20
88.7697950426
 11
178.4222218467
 21
88.7235002849
  0
LINE
  5
2B6
100
AcDbEntity
  8
ASSI
100
AcDbLine
 62
253
  6
CONTINUOUS
 10
178.4191773705
 20
88.7697950426
 11
178.4222218467
 21
88.7235002849
  0
LINE
  5
2B7
100
AcDbEntity
  8
RACCORDO
100
AcDbLine
 62
7
  6
CONTINUOUS
 10
178.3908236601
 20
88.7937819403
 11
178.392919614
 21
88.7590174078
  0
LINE
  5
2B8
100
AcDbEntity
  8
ASSI
100
AcDbLine
 62
7
  6
CONTINUOUS
 10
178.3908238672
 20
88.7937803159
 11
178.3929196135
 21
88.7590174257
  0
LINE
  5
2B9
100
AcDbEntity
  8
ASSI
100
AcDbLine
 62
7
  6
CONTINUOUS
 10
178.4699067916
 20
86.3990456909
 11
178.4935265594
 21
85.7698096486
  0
LINE
  5
2BA
100
AcDbEntity
  8
RACCORDO
100
AcDbLine
 62
7
  6
CONTINUOUS
 10
178.4699055932
 20
86.3990785257
 11
178.4935265594
 21
85.7698096486
  0
LINE
  5
2BB
100
AcDbEntity
  8
RACCORDO
100
AcDbLine
 62
253
  6
CONTINUOUS
 10
178.4979731144
 20
86.3971752215
 11
178.5228186847
 21
85.7343038541
  0
LINE
  5
2BC
100
AcDbEntity
  8
ASSI
100
AcDbLine
 62
253
  6
CONTINUOUS
 10
178.4979731144
 20
86.3971752215
 11
178.5228186847
 21
85.7343038541
  0
LINE
  5
2BD
100
AcDbEntity
  8
ASSI
100
AcDbLine
 62
7
  6
CONTINUOUS
 10
178.4454117762
 20
87.0918782845
 11
178.4699067916
 21
86.3990456909
  0
LINE
  5
2BE
100
AcDbEntity
  8
RACCORDO
100
AcDbLine
 62
7
  6
CONTINUOUS
 10
178.445411627
 20
87.0918826454
 11
178.4699055932
 21
86.3990785257
  0
LINE
  5
2BF
100
AcDbEntity
  8
RACCORDO
100
AcDbLine
 62
253
  6
CONTINUOUS
 10
178.4745507487
 20
87.0608454096
 11
178.4979731144
 21
86.3971752215
  0
LINE
  5
2C0
100
AcDbEntity
  8
ASSI
100
AcDbLine
 62
253
  6
CONTINUOUS
 10
178.4745507487
 20
87.0608454096
 11
178.4979731144
 21
86.3971752215
  0
LINE
  5
2C1
100
AcDbEntity
  8
RACCORDO
100
AcDbLine
 62
7
  6
CONTINUOUS
 10
178.4224687491
 20
87.7855547675
 11
178.445411627
 21
87.0918826454
  0
LINE
  5
2C2
100
AcDbEntity
  8
ASSI
100
AcDbLine
 62
7
  6
CONTINUOUS
 10
178.4224679767
 20
87.7855789518
 11
178.4454117762
 21
87.0918782845
  0
LINE
  5
2C3
100
AcDbEntity
  8
RACCORDO
100
AcDbLine
 62
253
  6
CONTINUOUS
 10
178.4525516897
 20
87.7253111268
 11
178.4745507487
 21
87.0608454096
  0
LINE
  5
2C4
100
AcDbEntity
  8
ASSI
100
AcDbLine
 62
253
  6
CONTINUOUS
 10
178.4525516897
 20
87.7253111268
 11
178.4745507487
 21
87.0608454096
  0
LWPOLYLINE
  5
2C5
100
AcDbEntity
  8
RACCORDO
100
AcDbPolyline
 62
253
  6
CONTINUOUS
 90
22
 70
0
 10
178.0410050712
 20
88.7471793268
 10
178.040397394
 20
88.7669976992
 10
178.0386344884
 20
88.7870972719
 10
178.0357163544
 20
88.8074780448
 10
178.0316144436
 20
88.8282640457
 10
178.0263573044
 20
88.8493312468
 10
178.0200305819
 20
88.8703075651
 10
178.0126143118
 20
88.8911877223
 10
178.0041284583
 20
88.9119769967
 10
177.9947185595
 20
88.9323191391
 10
177.9843718859
 20
88.9522006686
 10
177.973101167
 20
88.9716350662
 10
177.9610901286
 20
88.9903065253
 10
177.9483234925
 20
89.0082066292
 10
177.9348165371
 20
89.0253437947
 10
177.9207988235
 20
89.0414274659
 10
177.9062562317
 20
89.0564412368
 10
177.8912028819
 20
89.0704015134
 10
177.8759106954
 20
89.0830669583
 10
177.8604703126
 20
89.0943571256
 10
177.8447910931
 20
89.1043524612
 10
177.8288730369
 20
89.1130529651
  0
LWPOLYLINE
  5
2C6
100
AcDbEntity
  8
RACCORDO
100
AcDbPolyline
 62
253
  6
CONTINUOUS
 90
22
 70
0
 10
178.3238477837
 20
88.7471793268
 10
178.3228585953
 20
88.7800425019
 10
178.319896996
 20
88.8137072577
 10
178.3149801978
 20
88.8479850249
 10
178.308136953
 20
88.8826811566
 10
178.2994058369
 20
88.9176042394
 10
178.288833548
 20
88.9525672852
 10
178.2764757975
 20
88.9873818814
 10
178.2624030392
 20
89.021845972
 10
178.2466996205
 20
89.0557538257
 10
178.2294597658
 20
89.0889068048
 10
178.2107766276
 20
89.121130157
 10
178.1907455037
 20
89.1522595819
 10
178.1694713368
 20
89.1821283889
 10
178.1470776619
 20
89.2105597394
 10
178.1236972467
 20
89.2373845054
 10
178.0994655902
 20
89.2624488312
 10
178.0745143474
 20
89.2856180857
 10
178.0489782761
 20
89.3067672161
 10
178.0229983579
 20
89.3257785814
 10
177.9967214182
 20
89.3425438742
 10
177.9702943931
 20
89.356968724
  0
LWPOLYLINE
  5
2C7
100
AcDbEntity
  8
RACCORDO
100
AcDbPolyline
 62
253
  6
CONTINUOUS
 90
3
 70
0
 10
178.4222218467
 20
88.7235002849
 10
178.4319759298
 20
88.3905727328
 10
178.4525516897
 20
87.7253111268
  0
LWPOLYLINE
  5
2C8
100
AcDbEntity
  8
ASSI
100
AcDbPolyline
 62
253
  6
CONTINUOUS
 90
3
 70
0
 10
178.4222218467
 20
88.7235002849
 10
178.4319759298
 20
88.3905727328
 10
178.4525516897
 20
87.7253111268
  0
LINE
  5
2C9
100
AcDbEntity
  8
RACCORDO
100
AcDbLine
 62
7
  6
CONTINUOUS
 10
178.3929305335
 20
88.7589902133
 11
178.4224687491
 21
87.7855547675
  0
LINE
  5
2CA
100
AcDbEntity
  8
ASSI
100
AcDbLine
 62
7
  6
CONTINUOUS
 10
178.3929305335
 20
88.7589902133
 11
178.4224679767
 21
87.7855789518
  0
LINE
  5
2CB
100
AcDbEntity
  8
0
100
AcDbLine
 62
253
  6
CONTINUOUS
 10
177.4693192047
 20
95.1695015262
 11
177.4651261105
 21
95.6499048915
  0
LWPOLYLINE
  5
2CC
100
AcDbEntity
  8
ASSI
100
AcDbPolyline
 62
7
  6
CONTINUOUS
 90
3
 70
0
 10
178.4935220285
 20
85.7697790945
 10
178.493761797
 20
85.7383871116
 10
178.4916033773
 20
85.7045200496
  0
LINE
  5
2CD
100
AcDbEntity
  8
RACCORDO
100
AcDbLine
 62
7
  6
CONTINUOUS
 10
178.4935220276
 20
85.7697791191
 11
178.4937617363
 21
85.7383861578
  0
LINE
  5
2CE
100
AcDbEntity
  8
RACCORDO
100
AcDbLine
 62
253
  6
CONTINUOUS
 10
178.0410050712
 20
85.7160904135
 11
178.0410050712
 21
88.7471793268
  0
LINE
  5
2CF
100
AcDbEntity
  8
RACCORDO
100
AcDbLine
 62
253
  6
CONTINUOUS
 10
178.3238477837
 20
85.7160904135
 11
178.3238477837
 21
88.7471793268
  0
LINE
  5
2D0
100
AcDbEntity
  8
RACCORDO
100
AcDbLine
 62
253
  6
CONTINUOUS
 10
178.5228186847
 20
85.7343038541
 11
178.5227986825
 21
85.6898920151
  0
LINE
  5
2D1
100
AcDbEntity
  8
ASSI
100
AcDbLine
 62
253
  6
CONTINUOUS
 10
178.5228186847
 20
85.7343038541
 11
178.5227986825
 21
85.6898920151
  0
LWPOLYLINE
  5
2D2
100
AcDbEntity
  8
RACCORDO
100
AcDbPolyline
 62
253
  6
CONTINUOUS
 90
16
 70
0
 10
177.8288730369
 20
89.1130529651
 10
177.8296477579
 20
89.1315451865
 10
177.8319634328
 20
89.1506095242
 10
177.8357946907
 20
89.1700371055
 10
177.8410995555
 20
89.1896150775
 10
177.847819906
 20
89.20912894
 10
177.8558821126
 20
89.228364895
 10
177.865197844
 20
89.2471121894
 10
177.8756650353
 20
89.2651654238
 10
177.8871690056
 20
89.2823268033
 10
177.899583715
 20
89.2984083041
 10
177.9127731454
 20
89.3132337341
 10
177.9265927907
 20
89.3266406627
 10
177.9408912398
 20
89.3384822007
 10
177.9555118361
 20
89.3486286099
 10
177.9702943931
 20
89.356968724
  0
LWPOLYLINE
  5
2D3
100
AcDbEntity
  8
RACCORDO
100
AcDbPolyline
 62
253
  6
CONTINUOUS
 90
3
 70
0
 10
170.0049496923
 20
93.2784752591
 10
170.0215303773
 20
93.2926155993
 10
170.0432769237
 20
93.3062891431
  0
LINE
  5
2D4
100
AcDbEntity
  8
ASSI
100
AcDbLine
 62
253
  6
CONTINUOUS
 10
170.0049496923
 20
93.2784752591
 11
170.0215303773
 21
93.2926155993
  0
LWPOLYLINE
  5
2D5
100
AcDbEntity
  8
RACCORDO
100
AcDbPolyline
 62
253
  6
CONTINUOUS
 90
13
 70
0
 10
181.6678281845
 20
78.9258937605
 10
181.6756256385
 20
78.8383360051
 10
181.6887189543
 20
78.754287999
 10
181.7070422769
 20
78.6741692726
 10
181.7305037815
 20
78.5983822276
 10
181.7589858163
 20
78.5273014695
 10
181.7923477127
 20
78.4612741371
 10
181.8304309047
 20
78.4006232159
 10
181.8730428775
 20
78.3456618464
 10
181.9199556275
 20
78.2966797313
 10
181.9709238251
 20
78.2539256333
 10
182.0257014738
 20
78.2175984793
 10
182.0575547134
 20
78.2003230001
  0
LWPOLYLINE
  5
2D6
100
AcDbEntity
  8
ASSI
100
AcDbPolyline
 62
253
  6
CONTINUOUS
 90
13
 70
0
 10
181.6678281845
 20
78.9258937605
 10
181.6756256385
 20
78.8383360051
 10
181.6887189543
 20
78.754287999
 10
181.7070422769
 20
78.6741692726
 10
181.7305037815
 20
78.5983822276
 10
181.7589858163
 20
78.5273014695
 10
181.7923477127
 20
78.4612741371
 10
181.8304309047
 20
78.4006232159
 10
181.8730428775
 20
78.3456618464
 10
181.9199556275
 20
78.2966797313
 10
181.9709238251
 20
78.2539256333
 10
182.0257014738
 20
78.2175984793
 10
182.0575540709
 20
78.2003233226
  0
LINE
  5
2D7
100
AcDbEntity
  8
RACCORDO
100
AcDbLine
 62
7
  6
CONTINUOUS
 10
178.4937617363
 20
85.7383861578
 11
178.4916033119
 21
85.704519425
  0
LINE
  5
2D8
100
AcDbEntity
  8
RACCORDO
100
AcDbLine
 62
253
  6
CONTINUOUS
 10
178.5227986825
 20
85.6898920151
 11
178.5196393726
 21
85.6481231445
  0
LWPOLYLINE
  5
2D9
100
AcDbEntity
  8
ASSI
100
AcDbPolyline
 62
253
  6
CONTINUOUS
 90
3
 70
0
 10
178.5227986825
 20
85.6898920151
 10
178.5196393726
 20
85.6481231445
 10
178.5133402833
 20
85.6089969807
  0
LWPOLYLINE
  5
2DA
100
AcDbEntity
  8
ASSI
100
AcDbPolyline
 62
253
  6
CONTINUOUS
 90
3
 70
0
 10
170.0215303773
 20
93.2926155993
 10
170.0432769237
 20
93.3062891431
 10
170.0490193978
 20
93.3092039877
  0
LWPOLYLINE
  5
2DB
100
AcDbEntity
  8
RACCORDO
100
AcDbPolyline
 62
253
  6
CONTINUOUS
 90
22
 70
0
 10
182.7879371102
 20
78.9673494735
 10
182.7916386529
 20
78.9263454843
 10
182.7977609951
 20
78.8872853377
 10
182.8063041369
 20
78.8501690337
 10
182.8173350853
 20
78.814812585
 10
182.8307868333
 20
78.781399979
 10
182.8464583594
 20
78.7504831774
 10
182.8643839203
 20
78.7221150814
 10
182.8845292593
 20
78.69624279
 10
182.9065905849
 20
78.6732595614
 10
182.9305928043
 20
78.6532122397
 10
182.9565110102
 20
78.6360539808
 10
182.9839666889
 20
78.6220375113
 10
183.0129895312
 20
78.6112078758
 10
183.0435498462
 20
78.6035200295
 10
183.0751800479
 20
78.5990915647
 10
183.1079054414
 20
78.5979798299
 10
183.1417007215
 20
78.6001274765
 10
183.1760223864
 20
78.6054800508
 10
183.2106892686
 20
78.6140194015
 10
183.2458825356
 20
78.62576368
 10
183.2816021873
 20
78.6407128861
  0
LWPOLYLINE
  5
2DC
100
AcDbEntity
  8
ASSI
100
AcDbPolyline
 62
253
  6
CONTINUOUS
 90
22
 70
0
 10
182.7879371102
 20
78.9673494735
 10
182.7916386529
 20
78.9263454843
 10
182.7977609951
 20
78.8872853377
 10
182.8063041369
 20
78.8501690337
 10
182.8173350853
 20
78.814812585
 10
182.8307868333
 20
78.781399979
 10
182.8464583594
 20
78.7504831774
 10
182.8643839203
 20
78.7221150814
 10
182.8845292593
 20
78.69624279
 10
182.9065905849
 20
78.6732595614
 10
182.9305928043
 20
78.6532122397
 10
182.9565110102
 20
78.6360539808
 10
182.9839666889
 20
78.6220375113
 10
183.0129895312
 20
78.6112078758
 10
183.0435498462
 20
78.6035200295
 10
183.0751800479
 20
78.5990915647
 10
183.1079054414
 20
78.5979798299
 10
183.1417007215
 20
78.6001274765
 10
183.1760223864
 20
78.6054800508
 10
183.2106892686
 20
78.6140194015
 10
183.2458825356
 20
78.62576368
 10
183.2816021873
 20
78.6407128861
  0
LWPOLYLINE
  5
2DD
100
AcDbEntity
  8
RACCORDO
100
AcDbPolyline
 62
253
  6
CONTINUOUS
 90
13
 70
0
 10
181.6678281845
 20
114.1762826127
 10
181.5159443376
 20
111.1688561413
 10
181.3916495957
 20
108.1728708707
 10
181.2949595973
 20
105.1887105228
 10
181.2258864172
 20
102.2167573576
 10
181.1844388341
 20
99.2573918769
 10
181.170622333
 20
96.3109927772
 10
181.184438834
 20
93.3779372214
 10
181.225886417
 20
90.4586008148
 10
181.2949595971
 20
87.5533573133
 10
181.3916495955
 20
84.6625786213
 10
181.5159443375
 20
81.7866347425
 10
181.6678281845
 20
78.9258937605
  0
LWPOLYLINE
  5
2DE
100
AcDbEntity
  8
ASSI
100
AcDbPolyline
 62
253
  6
CONTINUOUS
 90
13
 70
0
 10
181.6678281845
 20
114.1762826127
 10
181.5159443376
 20
111.1688561413
 10
181.3916495957
 20
108.1728708707
 10
181.2949595973
 20
105.1887105228
 10
181.2258864172
 20
102.2167573576
 10
181.1844388341
 20
99.2573918769
 10
181.170622333
 20
96.3109927772
 10
181.184438834
 20
93.3779372214
 10
181.225886417
 20
90.4586008148
 10
181.2949595971
 20
87.5533573133
 10
181.3916495955
 20
84.6625786213
 10
181.5159443375
 20
81.7866347425
 10
181.6678281845
 20
78.9258937605
  0
LWPOLYLINE
  5
2DF
100
AcDbEntity
  8
RACCORDO
100
AcDbPolyline
 62
253
  6
CONTINUOUS
 90
13
 70
0
 10
182.7879371102
 20
114.1237372888
 10
182.6364313689
 20
111.1237082372
 10
182.5124677471
 20
108.1358477618
 10
182.4160462447
 20
105.1601558627
 10
182.3471614935
 20
102.1962532826
 10
182.3058188618
 20
99.2445192789
 10
182.2920344543
 20
96.3060916233
 10
182.3058190399
 20
93.3809749463
 10
182.3471618497
 20
90.4691646175
 10
182.4160466818
 20
87.5717845177
 10
182.5124681356
 20
84.6892092739
 10
182.6364316117
 20
81.8210642592
 10
182.7879371102
 20
78.9673494735
  0
LWPOLYLINE
  5
2E0
100
AcDbEntity
  8
ASSI
100
AcDbPolyline
 62
253
  6
CONTINUOUS
 90
13
 70
0
 10
182.7879371102
 20
114.1237372888
 10
182.6364313689
 20
111.1237082372
 10
182.5124677471
 20
108.1358477618
 10
182.4160462447
 20
105.1601558627
 10
182.3471614935
 20
102.1962532826
 10
182.3058188618
 20
99.2445192789
 10
182.2920344543
 20
96.3060916233
 10
182.3058190399
 20
93.3809749463
 10
182.3471618497
 20
90.4691646175
 10
182.4160466818
 20
87.5717845177
 10
182.5124681356
 20
84.6892092739
 10
182.6364316117
 20
81.8210642592
 10
182.7879371102
 20
78.9673494735
  0
LWPOLYLINE
  5
2E1
100
AcDbEntity
  8
ASSI
100
AcDbPolyline
 62
7
  6
CONTINUOUS
 90
3
 70
0
 10
178.4916033773
 20
85.7045200496
 10
178.4868889692
 20
85.6728197351
 10
178.4796501665
 20
85.6435839898
  0
LWPOLYLINE
  5
2E2
100
AcDbEntity
  8
RACCORDO
100
AcDbPolyline
 62
7
  6
CONTINUOUS
 90
4
 70
0
 10
178.4916033119
 20
85.704519425
 10
178.486889048
 20
85.6728201372
 10
178.4796504663
 20
85.6435849748
 10
178.4700597662
 20
85.6174595362
  0
LINE
  5
2E3
100
AcDbEntity
  8
RACCORDO
100
AcDbLine
 62
253
  6
CONTINUOUS
 10
178.5196393726
 20
85.6481231445
 11
178.5133402833
 21
85.6089969807
  0
LWPOLYLINE
  5
2E4
100
AcDbEntity
  8
RACCORDO
100
AcDbPolyline
 62
7
  6
CONTINUOUS
 90
13
 70
0
 10
169.9685130023
 20
93.2602569141
 10
169.9423944241
 20
93.2455931791
 10
169.9173937085
 20
93.2281975839
 10
169.8937880267
 20
93.20811355
 10
169.8718971783
 20
93.1854808262
 10
169.8519083548
 20
93.1603661209
 10
169.8339073743
 20
93.1326761622
 10
169.8180712719
 20
93.1023586315
 10
169.8047203
 20
93.0696591553
 10
169.7940989733
 20
93.0348598607
 10
169.7863527705
 20
92.9981147859
 10
169.781602599
 20
92.9594890612
 10
169.7799877657
 20
92.9191093358
  0
LINE
  5
2E5
100
AcDbEntity
  8
RACCORDO
100
AcDbLine
 62
253
  6
CONTINUOUS
 10
170.0432769237
 20
93.3062891431
 11
170.0490194772
 21
93.3092040262
  0
LINE
  5
2E6
100
AcDbEntity
  8
RACCORDO
100
AcDbLine
 62
7
  6
CONTINUOUS
 10
170.0881303655
 20
93.3200655957
 11
169.9685130023
 21
93.2602569141
  0
LINE
  5
2E7
100
AcDbEntity
  8
RACCORDO
100
AcDbLine
 62
253
  6
CONTINUOUS
 10
170.2518252157
 20
93.2759087283
 11
170.1921198001
 21
93.2460560205
  0
LINE
  5
2E8
100
AcDbEntity
  8
ASSI
100
AcDbLine
 62
7
  6
CONTINUOUS
 10
170.0490193978
 20
93.3092039877
 11
170.0495277305
 21
93.3094493765
  0
LINE
  5
2E9
100
AcDbEntity
  8
RACCORDO
100
AcDbLine
 62
7
  6
CONTINUOUS
 10
170.0490194772
 20
93.3092040262
 11
170.0495277305
 21
93.3094493765
  0
LWPOLYLINE
  5
2EA
100
AcDbEntity
  8
RACCORDO
100
AcDbPolyline
 62
7
  6
CONTINUOUS
 90
3
 70
0
 10
170.0489997373
 20
93.3091944558
 10
170.0590090967
 20
93.3134857186
 10
170.0797951654
 20
93.3192088312
  0
LINE
  5
2EB
100
AcDbEntity
  8
ASSI
100
AcDbLine
 62
7
  6
CONTINUOUS
 10
170.0489996585
 20
93.3091944176
 11
170.0590102158
 21
93.3134860267
  0
LINE
  5
2EC
100
AcDbEntity
  8
0
100
AcDbLine
 62
253
  6
CONTINUOUS
 10
175.4479179865
 20
107.8164808532
 11
172.8563709263
 21
109.1122543833
  0
LWPOLYLINE
  5
2ED
100
AcDbEntity
  8
RACCORDO
100
AcDbPolyline
 62
253
  6
CONTINUOUS
 90
16
 70
0
 10
183.2816021873
 20
114.9271006996
 10
183.2775096576
 20
115.0005632306
 10
183.2673757586
 20
115.076372556
 10
183.2513114441
 20
115.1536984396
 10
183.2294926165
 20
115.2316940318
 10
183.2021582039
 20
115.3095051362
 10
183.1696075459
 20
115.386279564
 10
183.1321971082
 20
115.4611764853
 10
183.0903365873
 20
115.5333756179
 10
183.044484431
 20
115.6020862061
 10
182.9951427957
 20
115.6665557179
 10
182.9428520621
 20
115.7260780589
 10
182.8881849328
 20
115.7800012952
 10
182.8317401289
 20
115.827734832
 10
182.7741358291
 20
115.8687558753
 10
182.7160029208
 20
115.9026151379
  0
LWPOLYLINE
  5
2EE
100
AcDbEntity
  8
ASSI
100
AcDbPolyline
 62
253
  6
CONTINUOUS
 90
16
 70
0
 10
183.2816021873
 20
114.9271006996
 10
183.2775096576
 20
115.0005632306
 10
183.2673757586
 20
115.076372556
 10
183.2513114441
 20
115.1536984396
 10
183.2294926165
 20
115.2316940318
 10
183.2021582039
 20
115.3095051362
 10
183.1696075459
 20
115.386279564
 10
183.1321971082
 20
115.4611764853
 10
183.0903365873
 20
115.5333756179
 10
183.044484431
 20
115.6020862061
 10
182.9951427957
 20
115.6665557179
 10
182.9428520621
 20
115.7260780589
 10
182.8881849328
 20
115.7800012952
 10
182.8317401289
 20
115.827734832
 10
182.7741358291
 20
115.8687558753
 10
182.7160029208
 20
115.9026151379
  0
LWPOLYLINE
  5
2EF
100
AcDbEntity
  8
RACCORDO
100
AcDbPolyline
 62
253
  6
CONTINUOUS
 90
15
 70
0
 10
178.5133402833
 20
85.6089969807
 10
178.5037891784
 20
85.5722739023
 10
178.4910974662
 20
85.5381930712
 10
178.4755997939
 20
85.5074722064
 10
178.4572569295
 20
85.4801946033
 10
178.4361065945
 20
85.4562761247
 10
178.4125983177
 20
85.4361830326
 10
178.3866913659
 20
85.4199730945
 10
178.3584248155
 20
85.4075876179
 10
178.328367617
 20
85.399318011
 10
178.296444928
 20
85.3952464681
 10
178.2627301571
 20
85.3952899934
 10
178.2280145591
 20
85.399492169
 10
178.192561573
 20
85.4078673475
 10
178.1561069059
 20
85.4204006986
  0
LINE
  5
2F0
100
AcDbEntity
  8
ASSI
100
AcDbLine
 62
253
  6
CONTINUOUS
 10
178.5133402833
 20
85.6089969807
 11
178.5037891784
 21
85.5722739023
  0
LWPOLYLINE
  5
2F1
100
AcDbEntity
  8
ASSI
100
AcDbPolyline
 62
7
  6
CONTINUOUS
 90
4
 70
0
 10
178.4796501665
 20
85.6435839898
 10
178.4700592397
 20
85.6174583324
 10
178.4586193221
 20
85.595226834
 10
178.445935414
 20
85.577189357
  0
LWPOLYLINE
  5
2F2
100
AcDbEntity
  8
ASSI
100
AcDbPolyline
 62
253
  6
CONTINUOUS
 90
14
 70
0
 10
178.5037891784
 20
85.5722739023
 10
178.4910974662
 20
85.5381930712
 10
178.4755997939
 20
85.5074722064
 10
178.4572569295
 20
85.4801946033
 10
178.4361065945
 20
85.4562761247
 10
178.4125983177
 20
85.4361830326
 10
178.3866913659
 20
85.4199730945
 10
178.3584248155
 20
85.4075876179
 10
178.328367617
 20
85.399318011
 10
178.296444928
 20
85.3952464681
 10
178.2627301571
 20
85.3952899934
 10
178.2280145591
 20
85.399492169
 10
178.192561573
 20
85.4078673475
 10
178.1561069059
 20
85.4204006986
  0
LINE
  5
2F3
100
AcDbEntity
  8
0
100
AcDbLine
 62
253
  6
CONTINUOUS
 10
175.8403440327
 20
109.5179342771
 11
176.0031197644
 21
109.440253217
  0
LINE
  5
2F4
100
AcDbEntity
  8
0
100
AcDbLine
 62
253
  6
CONTINUOUS
 10
176.0031197644
 20
109.440253217
 11
176.1833484636
 21
109.3535362867
  0
LINE
  5
2F5
100
AcDbEntity
  8
0
100
AcDbLine
 62
253
  6
CONTINUOUS
 10
173.6113267995
 20
109.5971182297
 11
174.6174414613
 21
109.0940608988
  0
LWPOLYLINE
  5
2F6
100
AcDbEntity
  8
RACCORDO
100
AcDbPolyline
 62
253
  6
CONTINUOUS
 90
10
 70
0
 10
183.2816021873
 20
78.6407128861
 10
183.2775095825
 20
78.5693873712
 10
183.2673755007
 20
78.5019942844
 10
183.2513109299
 20
78.4392717125
 10
183.2294918088
 20
78.3819065908
 10
183.2021570997
 20
78.3305271801
 10
183.1696061712
 20
78.2856961859
 10
183.13219552
 20
78.2479045956
 10
183.0903348663
 20
78.2175663015
 10
183.0612984594
 20
78.2021627523
  0
LWPOLYLINE
  5
2F7
100
AcDbEntity
  8
ASSI
100
AcDbPolyline
 62
253
  6
CONTINUOUS
 90
10
 70
0
 10
183.2816021873
 20
78.6407128861
 10
183.2775095825
 20
78.5693873712
 10
183.2673755007
 20
78.5019942844
 10
183.2513109299
 20
78.4392717125
 10
183.2294918088
 20
78.3819065908
 10
183.2021570997
 20
78.3305271801
 10
183.1696061712
 20
78.2856961859
 10
183.13219552
 20
78.2479045956
 10
183.0903348663
 20
78.2175663015
 10
183.0612984594
 20
78.2021627523
  0
LWPOLYLINE
  5
2F8
100
AcDbEntity
  8
RACCORDO
100
AcDbPolyline
 62
7
  6
CONTINUOUS
 90
3
 70
0
 10
178.4700597662
 20
85.6174595362
 10
178.4586200503
 20
85.59522804
 10
178.4459362813
 20
85.5771904121
  0
LINE
  5
2F9
100
AcDbEntity
  8
0
100
AcDbLine
 62
253
  6
CONTINUOUS
 10
175.9277700673
 20
110.108947493
 11
175.9400438193
 21
110.1046670395
  0
LINE
  5
2FA
100
AcDbEntity
  8
0
100
AcDbLine
 62
253
  6
CONTINUOUS
 10
176.57392506
 20
110.0437473318
 11
176.5364410285
 21
110.0590830505
  0
LINE
  5
2FB
100
AcDbEntity
  8
RACCORDO
100
AcDbLine
 62
7
  6
CONTINUOUS
 10
187.410169922
 20
80.547422282
 11
187.410169922
 21
117.0073028211
  0
LINE
  5
2FC
100
AcDbEntity
  8
ASSI
100
AcDbLine
 62
7
  6
CONTINUOUS
 10
187.410169922
 20
80.547422282
 11
187.410169922
 21
117.0073028211
  0
LINE
  5
2FD
100
AcDbEntity
  8
0
100
AcDbLine
 62
253
  6
CONTINUOUS
 10
173.5870748795
 20
113.8996200485
 11
174.9369459675
 21
113.2246845045
  0
LWPOLYLINE
  5
2FE
100
AcDbEntity
  8
RACCORDO
100
AcDbPolyline
 62
7
  6
CONTINUOUS
 90
3
 70
0
 10
178.4459362813
 20
85.5771904121
 10
178.4322220163
 20
85.5628853889
 10
178.417255411
 20
85.5516609106
  0
LWPOLYLINE
  5
2FF
100
AcDbEntity
  8
ASSI
100
AcDbPolyline
 62
7
  6
CONTINUOUS
 90
4
 70
0
 10
178.445935414
 20
85.577189357
 10
178.4322210987
 20
85.5628845745
 10
178.4172544813
 20
85.5516603297
 10
178.409320467
 20
85.5471586844
  0
LINE
  5
300
100
AcDbEntity
  8
RACCORDO
100
AcDbLine
 62
253
  6
CONTINUOUS
 10
178.0290922062
 20
89.3863676305
 11
177.9702943931
 21
89.356968724
  0
LINE
  5
301
100
AcDbEntity
  8
RACCORDO
100
AcDbLine
 62
253
  6
CONTINUOUS
 10
178.3915912736
 20
88.7810510717
 11
178.3238477837
 21
88.7471793268
  0
LINE
  5
302
100
AcDbEntity
  8
RACCORDO
100
AcDbLine
 62
253
  6
CONTINUOUS
 10
181.6678281845
 20
114.1762826127
 11
167.2598506497
 21
121.3802713801
  0
LINE
  5
303
100
AcDbEntity
  8
ASSI
100
AcDbLine
 62
253
  6
CONTINUOUS
 10
181.6678281845
 20
114.1762826127
 11
167.2598506497
 21
121.3802713801
  0
LINE
  5
304
100
AcDbEntity
  8
RACCORDO
100
AcDbLine
 62
7
  6
CONTINUOUS
 10
178.4172547746
 20
85.5516605496
 11
178.4093204296
 21
85.5471586652
  0
LWPOLYLINE
  5
305
100
AcDbEntity
  8
RACCORDO
100
AcDbPolyline
 62
253
  6
CONTINUOUS
 90
13
 70
0
 10
178.1939011909
 20
85.4456535133
 10
178.2107799636
 20
85.4552128625
 10
178.2294628613
 20
85.4687534914
 10
178.2467022582
 20
85.4846668093
 10
178.2624048947
 20
85.5028709178
 10
178.2764768157
 20
85.5232614957
 10
178.2888341308
 20
85.5457178818
 10
178.2994065348
 20
85.5701092768
 10
178.3081378497
 20
85.5963025261
 10
178.3149809849
 20
85.6241561308
 10
178.3198974424
 20
85.6535166736
 10
178.322858731
 20
85.6842185764
 10
178.3238477837
 20
85.7160904135
  0
LINE
  5
306
100
AcDbEntity
  8
ASSI
100
AcDbLine
 62
7
  6
CONTINUOUS
 10
178.4098832923
 20
85.5474498812
 11
178.4093229386
 21
85.54716005
  0
LINE
  5
307
100
AcDbEntity
  8
RACCORDO
100
AcDbLine
 62
7
  6
CONTINUOUS
 10
178.4098832923
 20
85.5474498812
 11
178.409322901
 21
85.5471600306
  0
LINE
  5
308
100
AcDbEntity
  8
RACCORDO
100
AcDbLine
 62
253
  6
CONTINUOUS
 10
178.4923627593
 20
85.8003479013
 11
178.3238477837
 21
85.7160904135
  0
LINE
  5
309
100
AcDbEntity
  8
RACCORDO
100
AcDbLine
 62
7
  6
CONTINUOUS
 10
178.435773029
 20
85.5665894324
 11
178.1939011909
 21
85.4456535133
  0
LWPOLYLINE
  5
30A
100
AcDbEntity
  8
RACCORDO
100
AcDbPolyline
 62
253
  6
CONTINUOUS
 90
3
 70
0
 10
178.409322901
 20
85.5471600306
 10
178.3878717801
 20
85.5379101688
 10
178.3669861223
 20
85.532195979
  0
LWPOLYLINE
  5
30B
100
AcDbEntity
  8
ASSI
100
AcDbPolyline
 62
253
  6
CONTINUOUS
 90
3
 70
0
 10
178.4093229386
 20
85.54716005
 10
178.3878717801
 20
85.5379101688
 10
178.3669861223
 20
85.532195979
  0
LINE
  5
30C
100
AcDbEntity
  8
RACCORDO
100
AcDbLine
 62
253
  6
CONTINUOUS
 10
182.716002919
 20
115.9026151369
 11
168.2910871305
 21
123.1150730311
  0
LINE
  5
30D
100
AcDbEntity
  8
ASSI
100
AcDbLine
 62
253
  6
CONTINUOUS
 10
182.716002919
 20
115.9026151369
 11
168.2910871305
 21
123.1150730311
  0
LINE
  5
30E
100
AcDbEntity
  8
RACCORDO
100
AcDbLine
 62
7
  6
CONTINUOUS
 10
172.2779986479
 20
125.2661032613
 11
186.8445706536
 21
117.9828172584
  0
LINE
  5
30F
100
AcDbEntity
  8
ASSI
100
AcDbLine
 62
7
  6
CONTINUOUS
 10
172.2779986479
 20
125.2661032613
 11
186.8445706536
 21
117.9828172584
  0
LWPOLYLINE
  5
310
100
AcDbEntity
  8
RACCORDO
100
AcDbPolyline
 62
253
  6
CONTINUOUS
 90
16
 70
0
 10
182.7879371102
 20
78.9673494735
 10
182.7256085502
 20
78.935374884
 10
182.6579934418
 20
78.9068259394
 10
182.5858162612
 20
78.8820085336
 10
182.509850366
 20
78.8611885779
 10
182.4309097088
 20
78.8445891519
 10
182.3498401158
 20
78.8323881138
 10
182.2675102242
 20
78.8247161942
 10
182.1848021749
 20
78.8216555953
 10
182.1026021608
 20
78.8232391108
 10
182.021790931
 20
78.8294497736
 10
181.9432343546
 20
78.8402210382
 10
181.8677741425
 20
78.8554374936
 10
181.7962188291
 20
78.8749360998
 10
181.7293351086
 20
78.8985079348
 10
181.6678396209
 20
78.9259004333
  0
LWPOLYLINE
  5
311
100
AcDbEntity
  8
ASSI
100
AcDbPolyline
 62
253
  6
CONTINUOUS
 90
16
 70
0
 10
182.7879371102
 20
78.9673494735
 10
182.7256085502
 20
78.935374884
 10
182.6579934418
 20
78.9068259394
 10
182.5858162612
 20
78.8820085336
 10
182.509850366
 20
78.8611885779
 10
182.4309097088
 20
78.8445891519
 10
182.3498401158
 20
78.8323881138
 10
182.2675102242
 20
78.8247161942
 10
182.1848021749
 20
78.8216555953
 10
182.1026021608
 20
78.8232391108
 10
182.021790931
 20
78.8294497736
 10
181.9432343546
 20
78.8402210382
 10
181.8677741425
 20
78.8554374936
 10
181.7962188291
 20
78.8749360998
 10
181.7293351086
 20
78.8985079348
 10
181.6678396209
 20
78.9259004333
  0
LINE
  5
312
100
AcDbEntity
  8
RACCORDO
100
AcDbLine
 62
253
  6
CONTINUOUS
 10
183.2816021873
 20
78.6407128861
 11
187.410169922
 21
80.547422282
  0
LINE
  5
313
100
AcDbEntity
  8
ASSI
100
AcDbLine
 62
253
  6
CONTINUOUS
 10
183.2816021873
 20
78.6407128861
 11
187.410169922
 21
80.547422282
  0
LINE
  5
314
100
AcDbEntity
  8
RACCORDO
100
AcDbLine
 62
7
  6
CONTINUOUS
 10
183.0612984594
 20
78.2021627523
 11
187.1939232526
 21
80.1107458322
  0
LINE
  5
315
100
AcDbEntity
  8
ASSI
100
AcDbLine
 62
7
  6
CONTINUOUS
 10
183.0612984594
 20
78.2021627523
 11
187.1939232526
 21
80.1107458322
  0
LINE
  5
316
100
AcDbEntity
  8
ASSI
100
AcDbLine
 62
7
  6
CONTINUOUS
 10
183.0321701708
 20
78.1891391407
 11
183.0608616526
 21
78.2019697226
  0
ELLIPSE
  5
317
100
AcDbEntity
  8
RACCORDO
100
AcDbEllipse
 62
7
  6
CONTINUOUS
 10
172.2781709743
 20
124.5730912391
 30
0.0
 11
-0.3579214571
 21
0.7157361817
 31
0.0
 40
0.6121897086
 41
-0.6846338794
 42
0.019016348
  0
ELLIPSE
  5
318
100
AcDbEntity
  8
RACCORDO
100
AcDbEllipse
 62
7
  6
CONTINUOUS
 10
186.8443983273
 20
117.2899775626
 30
0.0
 11
-0.357729241
 21
0.7155653229
 31
0.0
 40
0.6125552124
 41
-2.255296188
 42
-0.6848044477
  0
ELLIPSE
  5
319
100
AcDbEntity
  8
RACCORDO
100
AcDbEllipse
 62
7
  6
CONTINUOUS
 10
186.8443983273
 20
80.8305191352
 30
0.0
 11
-0.3579214571
 21
0.7157361817
 31
0.0
 40
0.6121897086
 41
-3.1606090032
 42
-2.2557347926
  0
ELLIPSE
  5
31A
100
AcDbEntity
  8
ASSI
100
AcDbEllipse
 62
7
  6
CONTINUOUS
 10
172.2781709743
 20
124.5730912391
 30
0.0
 11
-0.3579214571
 21
0.7157361817
 31
0.0
 40
0.6121897086
 41
-0.6846338794
 42
0.019016348
  0
ELLIPSE
  5
31B
100
AcDbEntity
  8
ASSI
100
AcDbEllipse
 62
7
  6
CONTINUOUS
 10
186.8443983273
 20
117.2899775626
 30
0.0
 11
-0.357729241
 21
0.7155653229
 31
0.0
 40
0.6125552124
 41
-2.255296188
 42
-0.6848044477
  0
ELLIPSE
  5
31C
100
AcDbEntity
  8
ASSI
100
AcDbEllipse
 62
7
  6
CONTINUOUS
 10
186.8443983273
 20
80.8305191352
 30
0.0
 11
-0.3579214571
 21
0.7157361817
 31
0.0
 40
0.6121897086
 41
-3.1606090032
 42
-2.2557347926
  0
ELLIPSE
  5
31D
100
AcDbEntity
  8
0
100
AcDbEllipse
 62
253
  6
CONTINUOUS
 10
386.6064727817
 20
205.7251019063
 30
0.0
 11
170.1829182234
 21
249.4672940269
 31
0.0
 40
0.5255067851
 41
-4.0012524264
 42
-4.0006681264
  0
ELLIPSE
  5
31E
100
AcDbEntity
  8
0
100
AcDbEllipse
 62
253
  6
CONTINUOUS
 10
375.1164838487
 20
211.4700963728
 30
0.0
 11
359.3731301451
 21
155.5151311512
 31
0.0
 40
0.0419886991
 41
-2.1754028672
 42
-2.1750018003
  0
ELLIPSE
  5
31F
100
AcDbEntity
  8
0
100
AcDbEllipse
 62
253
  6
CONTINUOUS
 10
448.5442154259
 20
174.7562305842
 30
0.0
 11
1344.7328988553
 21
-916.4540203991
 31
0.0
 40
0.1275936345
 41
-1.687121234
 42
-1.687027882
  0
ELLIPSE
  5
320
100
AcDbEntity
  8
0
100
AcDbEllipse
 62
253
  6
CONTINUOUS
 10
394.7041381971
 20
201.6762691986
 30
0.0
 11
-213.4492076601
 21
357.246704339
 31
0.0
 40
0.5688276086
 41
1.4801525447
 42
1.4818860545
  0
ELLIPSE
  5
321
100
AcDbEntity
  8
0
100
AcDbEllipse
 62
253
  6
CONTINUOUS
 10
448.1813502931
 20
174.9376631506
 30
0.0
 11
1336.7503605463
 21
-912.3936503457
 31
0.0
 40
0.1283470624
 41
-1.6873282125
 42
-1.6872532996
  0
ELLIPSE
  5
322
100
AcDbEntity
  8
0
100
AcDbEllipse
 62
253
  6
CONTINUOUS
 10
397.6203220135
 20
200.2181772904
 30
0.0
 11
-211.6682570789
 21
356.7089240322
 31
0.0
 40
0.570799773
 41
1.484624882
 42
1.4849913714
  0
ELLIPSE
  5
323
100
AcDbEntity
  8
0
100
AcDbEllipse
 62
253
  6
CONTINUOUS
 10
389.7527901845
 20
204.1519432049
 30
0.0
 11
95.3598271557
 21
286.2068072134
 31
0.0
 40
0.6688246154
 41
-4.1677345577
 42
-4.1672343899
  0
ELLIPSE
  5
324
100
AcDbEntity
  8
0
100
AcDbEllipse
 62
253
  6
CONTINUOUS
 10
355.6824382071
 20
221.1871191936
 30
0.0
 11
787.3366658168
 21
-88.9311551066
 31
0.0
 40
0.168460528
 41
-1.7813191805
 42
-1.7812730841
  0
ELLIPSE
  5
325
100
AcDbEntity
  8
0
100
AcDbEllipse
 62
253
  6
CONTINUOUS
 10
445.7524081571
 20
176.1521342186
 30
0.0
 11
1335.4329780959
 21
-911.7235024078
 31
0.0
 40
0.1284722434
 41
-1.6854799156
 42
-1.6854511053
  0
ELLIPSE
  5
326
100
AcDbEntity
  8
0
100
AcDbEllipse
 62
253
  6
CONTINUOUS
 10
446.6769539277
 20
175.6898613333
 30
0.0
 11
1356.6785002776
 21
-922.5292113689
 31
0.0
 40
0.1264822417
 41
-1.6846557994
 42
-1.6845509317
  0
ELLIPSE
  5
327
100
AcDbEntity
  8
0
100
AcDbEllipse
 62
253
  6
CONTINUOUS
 10
395.3226703853
 20
201.3670031045
 30
0.0
 11
-145.7809613456
 21
340.5432014652
 31
0.0
 40
0.639588441
 41
1.5655386671
 42
1.5661644072
  0
ELLIPSE
  5
328
100
AcDbEntity
  8
0
100
AcDbEllipse
 62
253
  6
CONTINUOUS
 10
387.3456558829
 20
205.3555103557
 30
0.0
 11
170.1205017631
 21
249.5008772408
 31
0.0
 40
0.5256904519
 41
-3.9990021497
 42
-3.9983372453
  0
ELLIPSE
  5
329
100
AcDbEntity
  8
0
100
AcDbEllipse
 62
253
  6
CONTINUOUS
 10
387.353274361
 20
205.3517011166
 30
0.0
 11
169.9527772293
 21
249.5911170067
 31
0.0
 40
0.5261834302
 41
-3.9986051422
 42
-3.997987503
  0
ELLIPSE
  5
32A
100
AcDbEntity
  8
0
100
AcDbEllipse
 62
253
  6
CONTINUOUS
 10
377.801338424
 20
210.1276690852
 30
0.0
 11
339.7923873012
 21
165.5071018929
 31
0.0
 40
0.0083706797
 41
-2.2083175813
 42
-2.2078820152
  0
ELLIPSE
  5
32B
100
AcDbEntity
  8
0
100
AcDbEllipse
 62
253
  6
CONTINUOUS
 10
228.7741164455
 20
284.6412800744
 30
0.0
 11
3925.6733093862
 21
-1695.6204050652
 31
0.0
 40
0.0424679777
 41
-1.565759797
 42
-1.5657263792
  0
ELLIPSE
  5
32C
100
AcDbEntity
  8
0
100
AcDbEllipse
 62
253
  6
CONTINUOUS
 10
393.2346055511
 20
202.4110355216
 30
0.0
 11
-86.658497915
 21
330.7734134187
 31
0.0
 40
0.6857751013
 41
-4.6112918855
 42
-4.6110798541
  0
ELLIPSE
  5
32D
100
AcDbEntity
  8
0
100
AcDbEllipse
 62
253
  6
CONTINUOUS
 10
390.7481774484
 20
203.654249573
 30
0.0
 11
35.4575475933
 21
307.1053682865
 31
0.0
 40
0.7075907896
 41
-4.3214781795
 42
-4.3212315798
  0
ELLIPSE
  5
32E
100
AcDbEntity
  8
0
100
AcDbEllipse
 62
253
  6
CONTINUOUS
 10
388.4614770855
 20
204.7975997544
 30
0.0
 11
128.8160889924
 21
270.9764619685
 31
0.0
 40
0.6221755484
 41
-4.0818196403
 42
-4.0815592179
  0
ELLIPSE
  5
32F
100
AcDbEntity
  8
0
100
AcDbEllipse
 62
253
  6
CONTINUOUS
 10
388.4355485691
 20
204.8105640126
 30
0.0
 11
129.62190508
 21
270.5807868573
 31
0.0
 40
0.6207448581
 41
-4.0796731689
 42
-4.0788239288
  0
ELLIPSE
  5
330
100
AcDbEntity
  8
0
100
AcDbEllipse
 62
253
  6
CONTINUOUS
 10
379.9842924654
 20
209.0361920645
 30
0.0
 11
293.9482695729
 21
187.8772544397
 31
0.0
 40
0.0967614361
 41
2.2725844823
 42
2.2732862091
  0
ELLIPSE
  5
331
100
AcDbEntity
  8
0
100
AcDbEllipse
 62
253
  6
CONTINUOUS
 10
397.7372931817
 20
200.1596917063
 30
0.0
 11
-264.5652241985
 21
374.8058285377
 31
0.0
 40
0.5126352944
 41
1.4524629508
 42
1.453012575
  0
ELLIPSE
  5
332
100
AcDbEntity
  8
0
100
AcDbEllipse
 62
253
  6
CONTINUOUS
 10
389.1920624423
 20
204.432307076
 30
0.0
 11
77.1487889334
 21
293.4277631876
 31
0.0
 40
0.6855798251
 41
-4.2115621875
 42
-4.2108293361
  0
ELLIPSE
  5
333
100
AcDbEntity
  8
0
100
AcDbEllipse
 62
253
  6
CONTINUOUS
 10
383.7044273102
 20
207.176124642
 30
0.0
 11
225.5349611212
 21
220.4905195315
 31
0.0
 40
0.3290453694
 41
-3.9454989833
 42
-3.9439958142
  0
ELLIPSE
  5
334
100
AcDbEntity
  8
0
100
AcDbEllipse
 62
253
  6
CONTINUOUS
 10
383.7232045955
 20
207.1667359994
 30
0.0
 11
225.1872055797
 21
220.6631759788
 31
0.0
 40
0.3303823598
 41
-3.9529757039
 42
-3.9485217309
  0
ELLIPSE
  5
335
100
AcDbEntity
  8
0
100
AcDbEllipse
 62
253
  6
CONTINUOUS
 10
431.2371593702
 20
183.4097586121
 30
0.0
 11
1138.9446127923
 21
-811.5892010068
 31
0.0
 40
0.1502644485
 41
-1.6900521752
 42
-1.68952561
  0
ELLIPSE
  5
336
100
AcDbEntity
  8
0
100
AcDbEllipse
 62
253
  6
CONTINUOUS
 10
330.4997063691
 20
233.7784851126
 30
0.0
 11
1405.3063024378
 21
-419.6473265489
 31
0.0
 40
0.1114593874
 41
-1.649841999
 42
-1.6493154338
  0
ELLIPSE
  5
337
100
AcDbEntity
  8
0
100
AcDbEllipse
 62
253
  6
CONTINUOUS
 10
384.3899197608
 20
206.8333784168
 30
0.0
 11
-222.5372089155
 21
360.0730420757
 31
0.0
 40
0.5587456698
 41
1.5409346384
 42
1.54155382
  0
ELLIPSE
  5
338
100
AcDbEntity
  8
0
100
AcDbEllipse
 62
253
  6
CONTINUOUS
 10
397.0269285158
 20
200.5148740393
 30
0.0
 11
474.1415158434
 21
92.1754605263
 31
0.0
 40
0.1495308508
 41
-2.0876979592
 42
-2.087078735
  0
ELLIPSE
  5
339
100
AcDbEntity
  8
0
100
AcDbEllipse
 62
253
  6
CONTINUOUS
 10
375.7127021442
 20
211.1719872251
 30
0.0
 11
-445.5277935446
 21
456.9216460846
 31
0.0
 40
0.3563058666
 41
1.4835430487
 42
1.4841623115
  0
ELLIPSE
  5
33A
100
AcDbEntity
  8
0
100
AcDbEllipse
 62
253
  6
CONTINUOUS
 10
385.2485391898
 20
206.4040687023
 30
0.0
 11
-63.6357116587
 21
327.3323751313
 31
0.0
 40
0.6979890785
 41
-4.4999024788
 42
-4.498664108
  0
ELLIPSE
  5
33B
100
AcDbEntity
  8
0
100
AcDbEllipse
 62
253
  6
CONTINUOUS
 10
380.056364545
 20
209.0001560246
 30
0.0
 11
-222.5372880637
 21
360.0730672819
 31
0.0
 40
0.5587455819
 41
1.5458882656
 42
1.5471267812
  0
ELLIPSE
  5
33C
100
AcDbEntity
  8
0
100
AcDbEllipse
 62
253
  6
CONTINUOUS
 10
390.0568699422
 20
203.999903326
 30
0.0
 11
299.6199064026
 21
185.1753563923
 31
0.0
 40
0.0815200296
 41
2.3263327166
 42
2.3275710874
  0
ELLIPSE
  5
33D
100
AcDbEntity
  8
0
100
AcDbEllipse
 62
253
  6
CONTINUOUS
 10
381.6322015018
 20
208.2122375462
 30
0.0
 11
-222.5373144465
 21
360.073075684
 31
0.0
 40
0.5587455526
 41
1.5409345532
 42
1.542172924
  0
ELLIPSE
  5
33E
100
AcDbEntity
  8
0
100
AcDbEllipse
 62
253
  6
CONTINUOUS
 10
379.0058012409
 20
209.5254376767
 30
0.0
 11
-222.5374991257
 21
360.0731344985
 31
0.0
 40
0.5587453476
 41
1.5465073481
 42
1.5471266109
  0
ELLIPSE
  5
33F
100
AcDbEntity
  8
0
100
AcDbEllipse
 62
253
  6
CONTINUOUS
 10
377.8239245085
 20
210.1163760429
 30
0.0
 11
-222.5374199775
 21
360.0731092923
 31
0.0
 40
0.5587454355
 41
1.546507412
 42
1.5471266748
  0
ELLIPSE
  5
340
100
AcDbEntity
  8
0
100
AcDbEllipse
 62
253
  6
CONTINUOUS
 10
387.824433309
 20
205.1161216426
 30
0.0
 11
299.6199224949
 21
185.1753487055
 31
0.0
 40
0.0815199873
 41
2.3263326953
 42
2.3269518769
  0
ELLIPSE
  5
341
100
AcDbEntity
  8
0
100
AcDbEllipse
 62
253
  6
CONTINUOUS
 10
385.9506033366
 20
206.0530366289
 30
0.0
 11
-222.5372880637
 21
360.0730672819
 31
0.0
 40
0.5587455819
 41
1.5338859281
 42
1.5351241456
  0
ELLIPSE
  5
342
100
AcDbEntity
  8
0
100
AcDbEllipse
 62
253
  6
CONTINUOUS
 10
390.8599422989
 20
203.5983671477
 30
0.0
 11
299.6199064026
 21
185.1753563923
 31
0.0
 40
0.0815200296
 41
2.314331387
 42
2.3155695334
  0
ELLIPSE
  5
343
100
AcDbEntity
  8
0
100
AcDbEllipse
 62
253
  6
CONTINUOUS
 10
387.5264373388
 20
205.2651196277
 30
0.0
 11
-222.5377365704
 21
360.0732101172
 31
0.0
 40
0.558745084
 41
1.5289328829
 42
1.5301710294
  0
ELLIPSE
  5
344
100
AcDbEntity
  8
0
100
AcDbEllipse
 62
253
  6
CONTINUOUS
 10
384.50608501
 20
206.7752957921
 30
0.0
 11
-222.5372880637
 21
360.0730672819
 31
0.0
 40
0.5587455819
 41
1.5345050341
 42
1.5351241456
  0
ELLIPSE
  5
345
100
AcDbEntity
  8
0
100
AcDbEllipse
 62
253
  6
CONTINUOUS
 10
391.2539009501
 20
203.4013878221
 30
0.0
 11
299.6198903103
 21
185.1753640791
 31
0.0
 40
0.0815200719
 41
2.3199031975
 42
2.320522309
  0
ELLIPSE
  5
346
100
AcDbEntity
  8
0
100
AcDbEllipse
 62
253
  6
CONTINUOUS
 10
384.3949683863
 20
206.830854104
 30
0.0
 11
-338.3470904718
 21
405.7604760438
 31
0.0
 40
0.4392854384
 41
1.479436525
 42
1.479849253
  0
ELLIPSE
  5
347
100
AcDbEntity
  8
0
100
AcDbEllipse
 62
253
  6
CONTINUOUS
 10
373.1519628294
 20
212.4523568824
 30
0.0
 11
1284.9198005162
 21
-886.0160718791
 31
0.0
 40
0.1334597058
 41
-1.6328109915
 42
-1.6323982655
  0
ELLIPSE
  5
348
100
AcDbEntity
  8
0
100
AcDbEllipse
 62
253
  6
CONTINUOUS
 10
384.0010086435
 20
207.0278339754
 30
0.0
 11
-338.3470904718
 21
405.7604760438
 31
0.0
 40
0.4392854384
 41
1.4786110749
 42
1.4790237989
  0
ELLIPSE
  5
349
100
AcDbEntity
  8
0
100
AcDbEllipse
 62
253
  6
CONTINUOUS
 10
389.4154232221
 20
204.3206266861
 30
0.0
 11
299.6198420335
 21
185.1753871395
 31
0.0
 40
0.0815201988
 41
2.3143314722
 42
2.3149505439
  0
ELLIPSE
  5
34A
100
AcDbEntity
  8
0
100
AcDbEllipse
 62
253
  6
CONTINUOUS
 10
386.344562738
 20
205.8560569281
 30
0.0
 11
-222.5372089155
 21
360.0730420757
 31
0.0
 40
0.5587456698
 41
1.5289333088
 42
1.5295523805
  0
ELLIPSE
  5
34B
100
AcDbEntity
  8
0
100
AcDbEllipse
 62
253
  6
CONTINUOUS
 10
391.3448141595
 20
203.3559312174
 30
0.0
 11
474.1411986608
 21
92.175643543
 31
0.0
 40
0.1495307001
 41
-2.0756962829
 42
-2.0750771916
  0
ELLIPSE
  5
34C
100
AcDbEntity
  8
0
100
AcDbEllipse
 62
253
  6
CONTINUOUS
 10
380.2129384435
 20
208.9218690754
 30
0.0
 11
-445.5274406959
 21
456.921471261
 31
0.0
 40
0.356306097
 41
1.471540571
 42
1.4721596825
  0
ELLIPSE
  5
34D
100
AcDbEntity
  8
0
100
AcDbEllipse
 62
253
  6
CONTINUOUS
 10
385.9303992416
 20
206.0631386763
 30
0.0
 11
-63.6350153852
 21
327.3322691659
 31
0.0
 40
0.6979893948
 41
-4.511902282
 42
-4.5106641355
  0
ELLIPSE
  5
34E
100
AcDbEntity
  8
0
100
AcDbEllipse
 62
253
  6
CONTINUOUS
 10
382.0110083189
 20
208.0228341377
 30
0.0
 11
-222.5372880637
 21
360.0730672819
 31
0.0
 40
0.5587455819
 41
1.5338859281
 42
1.5351241456
  0
ELLIPSE
  5
34F
100
AcDbEntity
  8
0
100
AcDbEllipse
 62
253
  6
CONTINUOUS
 10
386.9203472812
 20
205.5681646565
 30
0.0
 11
299.6199064026
 21
185.1753563923
 31
0.0
 40
0.0815200296
 41
2.314331387
 42
2.3155695334
  0
ELLIPSE
  5
350
100
AcDbEntity
  8
0
100
AcDbEllipse
 62
253
  6
CONTINUOUS
 10
383.5868440407
 20
207.2349162768
 30
0.0
 11
-222.5375255085
 21
360.0731429006
 31
0.0
 40
0.5587453183
 41
1.5289330533
 42
1.5301711997
  0
ELLIPSE
  5
351
100
AcDbEntity
  8
0
100
AcDbEllipse
 62
253
  6
CONTINUOUS
 10
380.9604497352
 20
208.5481134296
 30
0.0
 11
-222.5372880637
 21
360.0730672819
 31
0.0
 40
0.5587455819
 41
1.5345050341
 42
1.5351241456
  0
ELLIPSE
  5
352
100
AcDbEntity
  8
0
100
AcDbEllipse
 62
253
  6
CONTINUOUS
 10
381.4857282642
 20
208.2854741651
 30
0.0
 11
-222.5373144465
 21
360.073075684
 31
0.0
 40
0.5587455526
 41
1.5289332236
 42
1.5295522953
  0
ELLIPSE
  5
353
100
AcDbEntity
  8
0
100
AcDbEllipse
 62
253
  6
CONTINUOUS
 10
386.3950685246
 20
205.8308040348
 30
0.0
 11
299.6199546794
 21
185.1753333319
 31
0.0
 40
0.0815199027
 41
2.3199031124
 42
2.3205222238
  0
ELLIPSE
  5
354
100
AcDbEntity
  8
0
100
AcDbEllipse
 62
253
  6
CONTINUOUS
 10
392.5515673713
 20
202.7525546115
 30
0.0
 11
-126.3261908224
 21
337.0023661314
 31
0.0
 40
0.6569277644
 41
-4.6942681067
 42
-4.6934876605
  0
ELLIPSE
  5
355
100
AcDbEntity
  8
0
100
AcDbEllipse
 62
253
  6
CONTINUOUS
 10
303.2973483618
 20
247.3796641163
 30
0.0
 11
2010.2738131011
 21
-729.8995782202
 31
0.0
 40
0.0807032747
 41
-1.6049566479
 42
-1.6048771369
  0
ELLIPSE
  5
356
100
AcDbEntity
  8
0
100
AcDbEllipse
 62
253
  6
CONTINUOUS
 10
379.7219533293
 20
209.1673616325
 30
0.0
 11
250.1572428919
 21
208.5500513916
 31
0.0
 40
0.2366568788
 41
2.3077553669
 42
2.3085358079
  0
ELLIPSE
  5
357
100
AcDbEntity
  8
0
100
AcDbEllipse
 62
253
  6
CONTINUOUS
 10
398.7378037417
 20
199.6594364263
 30
0.0
 11
-278.1884388155
 21
380.1010540906
 31
0.0
 40
0.4981895123
 41
1.4436588393
 42
1.4442039047
  0
ELLIPSE
  5
358
100
AcDbEntity
  8
0
100
AcDbEllipse
 62
253
  6
CONTINUOUS
 10
377.1009667532
 20
210.4778549205
 30
0.0
 11
300.4968674288
 21
184.7562746283
 31
0.0
 40
0.0792227325
 41
2.2567189842
 42
2.2583430001
  0
ELLIPSE
  5
359
100
AcDbEntity
  8
0
100
AcDbEllipse
 62
253
  6
CONTINUOUS
 10
400.4791287244
 20
198.7887739349
 30
0.0
 11
-280.5428019169
 21
381.0386641596
 31
0.0
 40
0.4957286663
 41
1.4333756865
 42
1.435464594
  0
ELLIPSE
  5
35A
100
AcDbEntity
  8
0
100
AcDbEllipse
 62
253
  6
CONTINUOUS
 10
388.5176967643
 20
204.769489915
 30
0.0
 11
103.2521440211
 21
282.8372975559
 31
0.0
 40
0.6598562902
 41
-4.1463412223
 42
-4.1455921654
  0
ELLIPSE
  5
35B
100
AcDbEntity
  8
0
100
AcDbEllipse
 62
253
  6
CONTINUOUS
 10
371.9997771262
 20
213.028449734
 30
0.0
 11
334.2565327148
 21
168.2814547216
 31
0.0
 40
0.0022581775
 41
2.2051765086
 42
2.207265416
  0
ELLIPSE
  5
35C
100
AcDbEntity
  8
0
100
AcDbEllipse
 62
253
  6
CONTINUOUS
 10
388.5233155236
 20
204.7666805353
 30
0.0
 11
103.0506007072
 21
282.925125999
 31
0.0
 40
0.6600994603
 41
-4.1476036504
 42
-4.1468534179
  0
ELLIPSE
  5
35D
100
AcDbEntity
  8
0
100
AcDbEllipse
 62
253
  6
CONTINUOUS
 10
379.9307300735
 20
209.0629732604
 30
0.0
 11
271.0298947927
 21
198.6939443496
 31
0.0
 40
0.1652012904
 41
2.2952402075
 42
2.2959109446
  0
ELLIPSE
  5
35E
100
AcDbEntity
  8
0
100
AcDbEllipse
 62
253
  6
CONTINUOUS
 10
296.5626506302
 20
250.747012982
 30
0.0
 11
2037.935832808
 21
-743.9656860438
 31
0.0
 40
0.0796812986
 41
-1.6010161742
 42
-1.600937805
  0
ELLIPSE
  5
35F
100
AcDbEntity
  8
0
100
AcDbEllipse
 62
253
  6
CONTINUOUS
 10
299.3789387202
 20
249.338868937
 30
0.0
 11
1975.6997415144
 21
-712.3084879682
 31
0.0
 40
0.0820167149
 41
-1.6037511898
 42
-1.6037292942
  0
ELLIPSE
  5
360
100
AcDbEntity
  8
0
100
AcDbEllipse
 62
253
  6
CONTINUOUS
 10
468.7922374209
 20
164.6322195867
 30
0.0
 11
1806.9701752745
 21
-1150.7957922523
 31
0.0
 40
0.095106049
 41
-1.672788714
 42
-1.672765664
  0
ELLIPSE
  5
361
100
AcDbEntity
  8
0
100
AcDbEllipse
 62
253
  6
CONTINUOUS
 10
402.6215188741
 20
197.7175788601
 30
0.0
 11
-347.7126295604
 21
410.015672743
 31
0.0
 40
0.4309194437
 41
1.4208481932
 42
1.4209692021
  0
ELLIPSE
  5
362
100
AcDbEntity
  8
0
100
AcDbEllipse
 62
253
  6
CONTINUOUS
 10
395.8656967893
 20
201.0954899025
 30
0.0
 11
-179.2095323705
 21
347.8527516227
 31
0.0
 40
0.6060782244
 41
1.5198417111
 42
1.5200721927
  0
ELLIPSE
  5
363
100
AcDbEntity
  8
0
100
AcDbEllipse
 62
253
  6
CONTINUOUS
 10
390.9881542366
 20
203.5342611788
 30
0.0
 11
20.9714132778
 21
310.9966088167
 31
0.0
 40
0.7110179685
 41
-4.3608053006
 42
-4.3604952967
  0
ELLIPSE
  5
364
100
AcDbEntity
  8
0
100
AcDbEllipse
 62
253
  6
CONTINUOUS
 10
386.6258124055
 20
205.7154320944
 30
0.0
 11
169.7803350273
 21
249.6838879228
 31
0.0
 40
0.5266894108
 41
-4.0013117227
 42
-4.0009901933
  0
ENDSEC
  0
SECTION
  2
OBJECTS
  0
DICTIONARY
  5
C
100
AcDbDictionary
280
0
281
1
  3
ACAD_GROUP
350
D
  3
ACAD_MLINESTYLE
350
17
  3
ACAD_LAYOUT
350
1A
  3
ACAD_PLOTSETTINGS
350
19
  3
ACAD_PLOTSTYLENAME
350
E
  0
DICTIONARY
  5
D
102
{ACAD_REACTORS
330
C
102
}
100
AcDbDictionary
280
0
281
1
  0
ACDBDICTIONARYWDFLT
  5
E
102
{ACAD_REACTORS
330
C
102
}
100
AcDbDictionary
281
1
  3
Normal
350
F
100
AcDbDictionaryWithDefault
340
F
  0
DICTIONARY
  5
17
102
{ACAD_REACTORS
330
C
102
}
100
AcDbDictionary
280
0
281
1
  3
Standard
350
18
  0
DICTIONARY
  5
19
102
{ACAD_REACTORS
330
C
102
}
100
AcDbDictionary
281
1
  0
DICTIONARY
  5
1A
102
{ACAD_REACTORS
330
C
102
}
100
AcDbDictionary
281
1
  3
Model
350
365
  3
Layout1
350
366
  0
ACDBPLACEHOLDER
  5
F
102
{ACAD_REACTORS
330
E
102
}
  0
MLINESTYLE
  5
18
102
{ACAD_REACTORS
330
17
102
}
100
AcDbMlineStyle
  2
STANDARD
 70
0
  3

 62
256
 51
90.0
 52
90.0
 71
2
 49
0.5
 62
256
  6
BYLAYER
 49
-0.5
 62
256
  6
BYLAYER
  0
LAYOUT
  5
365
102
{ACAD_REACTORS
330
1A
102
}
100
AcDbPlotSettings
  1

  2
none_device
  4
ISO_A4_(297.00_x_210.00_MM)
  6

 40
0.0
 41
0.0
 42
0.0
 43
0.0
 44
297.0
 45
210.0
 46
0.0
 47
0.0
 48
0.0
 49
0.0
140
0.0
141
0.0
142
1.0
143
1.0
 70
1024
 72
1
 73
0
 74
0
  7

 75
0
147
1.0
148
0.0
149
0.0
100
AcDbLayout
  1
Model
 70
0
 71
0
 10
0.0
 20
0.0
 11
297.0
 21
210.0
 12
0.0
 22
0.0
 32
0.0
 14
0.0
 24
0.0
 34
0.0
 15
0.0
 25
0.0
 35
0.0
146
0.0
 13
0.0
 23
0.0
 33
0.0
 16
1.0
 26
0.0
 36
0.0
 17
0.0
 27
1.0
 37
0.0
 76
0
330
215
345
0
346
0
  0
LAYOUT
  5
366
102
{ACAD_REACTORS
330
1A
102
}
100
AcDbPlotSettings
  1

  2
none_device
  4
ISO_A4_(297.00_x_210.00_MM)
  6

 40
0.0
 41
0.0
 42
0.0
 43
0.0
 44
297.0
 45
210.0
 46
0.0
 47
0.0
 48
0.0
 49
0.0
140
0.0
141
0.0
142
1.0
143
1.0
 70
0
 72
1
 73
0
 74
0
  7

 75
0
147
1.0
148
0.0
149
0.0
100
AcDbLayout
  1
Layout1
 70
0
 71
1
 10
0.0
 20
0.0
 11
297.0
 21
210.0
 12
0.0
 22
0.0
 32
0.0
 14
0.0
 24
0.0
 34
0.0
 15
0.0
 25
0.0
 35
0.0
146
0.0
 13
0.0
 23
0.0
 33
0.0
 16
1.0
 26
0.0
 36
0.0
 17
0.0
 27
1.0
 37
0.0
 76
0
330
216
345
0
346
0
  0
ENDSEC
  0
EOF
