0
SECTION
2
HEADER
9
$ACADVER
1
AC1014
9
$HANDSEED
5
       27D
9
$EXTMAX
10
297.0000000000
20
210.0000000000
9
$EXTMIN
10
0.0000000000
20
0.0000000000
9
$LIMMIN
10
0.0000000000
20
0.0000000000
9
$LIMMAX
10
297.0000000000
20
210.0000000000
9
$VIEWCTR
10
148.5000000000
20
105.0000000000
9
$VIEWSIZE
40
210.0000000000
9
$CLAYER
8
0
9
$LTSCALE
40
16.3350000000
9
$CELTYPE
6
BYLAYER
9
$DIMSCALE
40
1
9
$DIMASZ
40
3.0000000000
9
$DIMEXO
40
1.8562500000
9
$DIMDLI
40
11.2860000000
9
$DIMEXE
40
5.3460000000
9
$DIMCEN
40
2.6730000000
9
$DIMLFAC
40
1.0000000000
9
$DIMTXT
40
3.0000000000
9
$DIMTOL
70
1
9
$DIMLIM
70
0
9
$DIMTFAC
40
1.0000000000
9
$DIMTP
40
0.0100000000
9
$DIMTM
40
0.0100000000
9
$MEASUREMENT
70
1
0
ENDSEC
0
SECTION
2
CLASSES
0
ENDSEC
0
SECTION
2
TABLES
0
TABLE
2
VPORT
5
8
100
AcDbSymbolTable
70
2
0
VPORT
5
1F4
100
AcDbSymbolTableRecord
100
AcDbViewportTableRecord
2
*ACTIVE
70
0
10
0.0
20
0.0
11
1.0
21
1.0
12
148.5000000000
22
105.0000000000
13
0.0
23
0.0
14
1.0
24
1.0
15
0.0
25
0.0
16
0.0
26
0.0
36
1.0
17
0.0
27
0.0
37
0.0
40
210.0000000000
41
1.4142857143
42
50.0
43
0.0
44
0.0
50
0.0
51
0.0
71
0
72
100
73
1
74
1
75
0
76
0
77
0
78
0
0
ENDTAB
0
TABLE
2
LTYPE
5
5
100
AcDbSymbolTable
70
6
0
LTYPE
5
14
100
AcDbSymbolTableRecord
100
AcDbLinetypeTableRecord
2
BYBLOCK
70
0
3

72
65
73
0
40
0.0
0
LTYPE
5
15
100
AcDbSymbolTableRecord
100
AcDbLinetypeTableRecord
2
BYLAYER
70
0
3

72
65
73
0
40
0.0
0
LTYPE
5
16
100
AcDbSymbolTableRecord
100
AcDbLinetypeTableRecord
2
CONTINUOUS
70
64
3
Solid line
72
65
73
0
40
0
0
LTYPE
5
1F5
100
AcDbSymbolTableRecord
100
AcDbLinetypeTableRecord
2
CENTER
70
64
3
____ _ ____ _ ____ _ ____ _ ____ _ ____ _ ____
72
65
73
4
40
0.6
49
0.375
74
0
49
-0.075
74
0
49
0.075
74
0
49
-0.075
74
0
0
LTYPE
5
1F6
100
AcDbSymbolTableRecord
100
AcDbLinetypeTableRecord
2
HIDDEN
70
64
3
- - - - - - - - - - - - - - - - - - - -
72
65
73
2
40
0.2
49
0.1
74
0
49
-0.1
74
0
0
LTYPE
5
1F7
100
AcDbSymbolTableRecord
100
AcDbLinetypeTableRecord
2
PHANTOM
70
64
3
_____ _ _ _____ _ _ _____ _ _ _____
72
65
73
6
40
0.8
49
0.45
74
0
49
-0.05
74
0
49
0.1
74
0
49
-0.05
74
0
49
0.1
74
0
49
-0.05
74
0
0
LTYPE
5
1F8
100
AcDbSymbolTableRecord
100
AcDbLinetypeTableRecord
2
DOT
70
64
3
. . . . . . . . . . . . . . . . . . . .
72
65
73
2
40
0.2
49
0.1
74
0
49
-0.1
74
0
0
LTYPE
5
1F9
100
AcDbSymbolTableRecord
100
AcDbLinetypeTableRecord
2
DASHED
70
64
3
- - - - - - - - - - - - - - - - - - - -
72
65
73
2
40
0.2
49
0.1
74
0
49
-0.1
74
0
0
ENDTAB
0
TABLE
2
LAYER
5
2
100
AcDbSymbolTable
70
36
0
LAYER
5
10
100
AcDbSymbolTableRecord
100
AcDbLayerTableRecord
2
0
70
0
62
7
6
CONTINUOUS
0
LAYER
5
1FA
100
AcDbSymbolTableRecord
100
AcDbLayerTableRecord
2
DEFAULT_1
70
0
62
7
6
CENTER
0
LAYER
5
1FB
100
AcDbSymbolTableRecord
100
AcDbLayerTableRecord
2
DEFAULT_2
70
0
62
8
6
HIDDEN
0
LAYER
5
1FC
100
AcDbSymbolTableRecord
100
AcDbLayerTableRecord
2
DEFAULT_3
70
0
62
7
6
PHANTOM
0
LAYER
5
1FD
100
AcDbSymbolTableRecord
100
AcDbLayerTableRecord
2
ASSI
70
0
62
7
6
CONTINUOUS
0
LAYER
5
1FE
100
AcDbSymbolTableRecord
100
AcDbLayerTableRecord
2
COORDINATE
70
0
62
7
6
CONTINUOUS
0
LAYER
5
1FF
100
AcDbSymbolTableRecord
100
AcDbLayerTableRecord
2
COORD_ORIGINE
70
0
62
7
6
CONTINUOUS
0
LAYER
5
200
100
AcDbSymbolTableRecord
100
AcDbLayerTableRecord
2
CURVE
70
0
62
7
6
CONTINUOUS
0
LAYER
5
201
100
AcDbSymbolTableRecord
100
AcDbLayerTableRecord
2
DRAFT
70
0
62
7
6
CONTINUOUS
0
LAYER
5
202
100
AcDbSymbolTableRecord
100
AcDbLayerTableRecord
2
IMPORT_SCRITTE
70
0
62
7
6
CONTINUOUS
0
LAYER
5
203
100
AcDbSymbolTableRecord
100
AcDbLayerTableRecord
2
NOTE
70
0
62
7
6
CONTINUOUS
0
LAYER
5
204
100
AcDbSymbolTableRecord
100
AcDbLayerTableRecord
2
PIANI
70
0
62
7
6
CONTINUOUS
0
LAYER
5
205
100
AcDbSymbolTableRecord
100
AcDbLayerTableRecord
2
PIANI_ORIGINE
70
0
62
7
6
CONTINUOUS
0
LAYER
5
206
100
AcDbSymbolTableRecord
100
AcDbLayerTableRecord
2
PUNTI
70
0
62
7
6
CONTINUOUS
0
LAYER
5
207
100
AcDbSymbolTableRecord
100
AcDbLayerTableRecord
2
RACCORDO
70
0
62
7
6
CONTINUOUS
0
LAYER
5
208
100
AcDbSymbolTableRecord
100
AcDbLayerTableRecord
2
SUPERFICI
70
0
62
7
6
CONTINUOUS
0
LAYER
5
209
100
AcDbSymbolTableRecord
100
AcDbLayerTableRecord
2
TRASH
70
0
62
7
6
CONTINUOUS
0
ENDTAB
0
TABLE
2
STYLE
5
3
100
AcDbSymbolTable
70
1
0
STYLE
5
11
100
AcDbSymbolTableRecord
100
AcDbTextStyleTableRecord
2
STANDARD
70
0
40
0.0
41
0.8000000000
50
0.0
71
0
42
0.2
3
txt
4

0
ENDTAB
0
TABLE
2
VIEW
5
6
100
AcDbSymbolTable
70
0
0
ENDTAB
0
TABLE
2
UCS
5
7
100
AcDbSymbolTable
70
0
0
ENDTAB
0
TABLE
2
APPID
5
9
100
AcDbSymbolTable
70
1
0
APPID
5
20A
100
AcDbSymbolTableRecord
100
AcDbRegAppTableRecord
2
ACAD
70
0
0
ENDTAB
0
TABLE
2
DIMSTYLE
5
A
100
AcDbSymbolTable
70
1
0
DIMSTYLE
105
20B
100
AcDbSymbolTableRecord
100
AcDbDimStyleTableRecord
2
STANDARD
70
0
3

4

5

6

7

40
1.0
41
3.0000000000
42
0.0625
43
0.38
44
0.18
45
0.0
46
0.0
47
0.0100000000
48
0.0100000000
140
3.0000000000
141
0.09
142
0.0
143
25.4
144
1.0000000000
145
0.0
146
1.0000000000
147
0.09
71
1
72
0
73
0
74
0
75
0
76
0
77
1
78
8
170
0
171
2
172
0
173
0
174
0
175
0
176
0
177
0
178
0
270
2
271
2
272
2
273
2
274
2
340
11
275
0
280
0
281
0
282
0
283
1
284
8
285
0
286
0
287
3
288
0
0
ENDTAB
0
TABLE
2
BLOCK_RECORD
5
1
100
AcDbSymbolTable
70
0
0
BLOCK_RECORD
5
1B
100
AcDbSymbolTableRecord
100
AcDbBlockTableRecord
2
*MODEL_SPACE
0
BLOCK_RECORD
5
1C
100
AcDbSymbolTableRecord
100
AcDbBlockTableRecord
2
*PAPER_SPACE
0
ENDTAB
0
ENDSEC
0
SECTION
2
BLOCKS
0
BLOCK
5
1E
100
AcDbEntity
8
0
100
AcDbBlockBegin
2
*MODEL_SPACE
70
0
10
0.0
20
0.0
30
0.0
3
*MODEL_SPACE
1

0
ENDBLK
5
1F
100
AcDbEntity
8
0
100
AcDbBlockEnd
0
BLOCK
5
20
100
AcDbEntity
8
0
100
AcDbBlockBegin
2
*PAPER_SPACE
70
0
10
0.0
20
0.0
30
0.0
3
*PAPER_SPACE
1

0
ENDBLK
5
21
100
AcDbEntity
8
0
100
AcDbBlockEnd
0
ENDSEC
0
SECTION
2
ENTITIES
0
LINE
5
20C
100
AcDbEntity
8
0
100
AcDbLine
62
7
6
CONTINUOUS
10
-11.3928832846
20
25.2397367905
11
-7.4020653900
21
27.3928746007
0
LINE
5
20D
100
AcDbEntity
8
0
100
AcDbLine
62
9
6
CONTINUOUS
10
-11.0228968006
20
25.2234506106
11
-7.0359852832
21
27.3744808407
0
LINE
5
20E
100
AcDbEntity
8
0
100
AcDbLine
62
7
6
CONTINUOUS
10
2.7444120765
20
-19.6917209026
11
-11.6699085311
21
-12.4845605988
0
LINE
5
20F
100
AcDbEntity
8
0
100
AcDbLine
62
9
6
CONTINUOUS
10
2.3538442533
20
-18.9657286601
11
-12.0541332815
21
-11.7617398927
0
LINE
5
210
100
AcDbEntity
8
0
100
AcDbLine
62
7
6
CONTINUOUS
10
-9.2113068502
20
-8.5483610746
11
-1.4331322516
21
-12.4374483738
0
LINE
5
211
100
AcDbEntity
8
0
100
AcDbLine
62
9
6
CONTINUOUS
10
-9.2632854873
20
-8.4401863145
11
-1.4851108943
21
-12.3292736110
0
LINE
5
212
100
AcDbEntity
8
0
100
AcDbLine
62
7
6
CONTINUOUS
10
-12.2884935446
20
-11.4773855788
11
-12.2884858488
21
-11.4775219628
0
LINE
5
213
100
AcDbEntity
8
0
100
AcDbLine
62
7
6
CONTINUOUS
10
-12.2886215105
20
23.7662205382
11
-12.2886287898
21
23.7660821759
0
LINE
5
214
100
AcDbEntity
8
0
100
AcDbLine
62
9
6
CONTINUOUS
10
7.5305867225
20
20.0911948379
11
3.4020189878
21
18.0109927164
0
LINE
5
215
100
AcDbEntity
8
0
100
AcDbLine
62
9
6
CONTINUOUS
10
-1.4851108943
20
-8.7785694555
11
-9.2632854873
21
-4.8894821590
0
LINE
5
216
100
AcDbEntity
8
0
100
AcDbLine
62
9
6
CONTINUOUS
10
-1.3436895380
20
-8.5346536966
11
-9.1218641311
21
-4.6455664001
0
LINE
5
217
100
AcDbEntity
8
0
100
AcDbLine
62
7
6
CONTINUOUS
10
-9.0904427831
20
-4.6015716584
11
-1.3043721358
21
-8.4946069821
0
LINE
5
218
100
AcDbEntity
8
0
100
AcDbLine
62
9
6
CONTINUOUS
10
-9.1163936066
20
-4.5503222621
11
-1.3303229605
21
-8.4433575852
0
LINE
5
219
100
AcDbEntity
8
0
100
AcDbLine
62
9
6
CONTINUOUS
10
8.0961859908
20
19.1156804006
11
3.9676182561
21
17.0354782791
0
LINE
5
21A
100
AcDbEntity
8
0
100
AcDbLine
62
7
6
CONTINUOUS
10
-9.5339961655
20
-4.9725130848
11
-9.5339961655
21
-8.0036020049
0
LINE
5
21B
100
AcDbEntity
8
0
100
AcDbLine
62
9
6
CONTINUOUS
10
-9.4754175217
20
-5.0432237629
11
-9.4754175217
21
-8.0743126762
0
LINE
5
21C
100
AcDbEntity
8
0
100
AcDbLine
62
7
6
CONTINUOUS
10
-0.8204619036
20
-12.1218433015
11
-0.8204630963
21
-12.1218129758
0
LINE
5
21D
100
AcDbEntity
8
0
100
AcDbLine
62
9
6
CONTINUOUS
10
-1.2729788599
20
-12.1755320070
11
-1.2729788599
21
-9.1444430938
0
LINE
5
21E
100
AcDbEntity
8
0
100
AcDbLine
62
9
6
CONTINUOUS
10
-0.9901361475
20
-12.1755320070
11
-0.9901361475
21
-9.1444430938
0
LINE
5
21F
100
AcDbEntity
8
0
100
AcDbLine
62
7
6
CONTINUOUS
10
-9.2258536818
20
-4.5715568829
11
-9.3454709288
21
-4.6313655065
0
LINE
5
220
100
AcDbEntity
8
0
100
AcDbLine
62
9
6
CONTINUOUS
10
-9.0621587155
20
-4.6157136923
11
-9.1218641311
21
-4.6455664001
0
LINE
5
221
100
AcDbEntity
8
0
100
AcDbLine
62
7
6
CONTINUOUS
10
-9.2649644540
20
-4.5824183944
11
-9.2644802746
21
-4.5821846200
0
LINE
5
222
100
AcDbEntity
8
0
100
AcDbLine
62
7
6
CONTINUOUS
10
8.0961859908
20
-17.3442001385
11
8.0961859908
21
19.1156804006
0
LINE
5
223
100
AcDbEntity
8
0
100
AcDbLine
62
9
6
CONTINUOUS
10
-1.2848901009
20
-8.5052539780
11
-1.3436895380
21
-8.5346536966
0
LINE
5
224
100
AcDbEntity
8
0
100
AcDbLine
62
9
6
CONTINUOUS
10
-0.9223927249
20
-9.1105713825
11
-0.9901361475
21
-9.1444430938
0
LINE
5
225
100
AcDbEntity
8
0
100
AcDbLine
62
9
6
CONTINUOUS
10
2.3538442533
20
16.2846601922
11
-12.0541332815
21
23.4886489596
0
LINE
5
226
100
AcDbEntity
8
0
100
AcDbLine
62
7
6
CONTINUOUS
10
-0.9040819307
20
-12.3441628174
11
-0.9046610306
21
-12.3444623902
0
LINE
5
227
100
AcDbEntity
8
0
100
AcDbLine
62
9
6
CONTINUOUS
10
-0.8216211695
20
-12.0912745181
11
-0.9901361475
21
-12.1755320070
0
LINE
5
228
100
AcDbEntity
8
0
100
AcDbLine
62
7
6
CONTINUOUS
10
-0.8782107794
20
-12.3250329268
11
-1.1200827403
21
-12.4459689072
0
LINE
5
229
100
AcDbEntity
8
0
100
AcDbLine
62
9
6
CONTINUOUS
10
3.4020189878
20
18.0109927164
11
-11.0228968006
21
25.2234506106
0
LINE
5
22A
100
AcDbEntity
8
0
100
AcDbLine
62
7
6
CONTINUOUS
10
-7.0359852832
20
27.3744808407
11
7.5305867225
21
20.0911948379
0
LINE
5
22B
100
AcDbEntity
8
0
100
AcDbLine
62
9
6
CONTINUOUS
10
3.9676182561
20
-19.2509095344
11
8.0961859908
21
-17.3442001385
0
LINE
5
22C
100
AcDbEntity
8
0
100
AcDbLine
62
7
6
CONTINUOUS
10
3.7473145283
20
-19.6894596683
11
7.8798745788
21
-17.7809064886
0
SPLINE
5
22D
100
AcDbEntity
8
0
100
AcDbSpline
62
7
6
CONTINUOUS
70
0
71
3
72
11
73
7
74
5
42
0.0000001000
43
0.0000001000
44
0.0000000001
12
-0.3664003234
22
-0.1832001617
32
0.0000000000
13
-0.0000000000
23
-0.4096480151
33
0.0000000000
40
0.0000000000
40
0.0000000000
40
0.0000000000
40
0.0000000000
40
0.2224334964
40
0.4575488728
40
0.7153470770
40
1.0000000000
40
1.0000000000
40
1.0000000000
40
1.0000000000
10
-9.3454709288
20
-4.6313655065
30
0.0000000000
10
-9.3726374972
20
-4.6449487906
30
0.0000000000
10
-9.4246929882
20
-4.6813516569
30
0.0000000000
10
-9.4858732059
20
-4.7592106242
30
0.0000000000
10
-9.5256347433
20
-4.8591259523
30
0.0000000000
10
-9.5339961655
20
-4.9336439165
30
0.0000000000
10
-9.5339961655
20
-4.9725130848
30
0.0000000000
11
-9.3454709288
21
-4.6313655065
31
0.0000000000
11
-9.4201959044
21
-4.6835088706
31
0.0000000000
11
-9.4800765569
21
-4.7589462584
31
0.0000000000
11
-9.5198849579
21
-4.8567625599
31
0.0000000000
11
-9.5339961655
21
-4.9725130848
31
0.0000000000
0
SPLINE
5
22E
100
AcDbEntity
8
0
100
AcDbSpline
62
7
6
CONTINUOUS
70
0
71
3
72
11
73
7
74
5
42
0.0000001000
43
0.0000001000
44
0.0000000001
12
0.2899600231
22
-0.1449800052
32
0.0000000000
13
0.2899600203
23
0.1449800102
33
0.0000000000
40
0.0000000000
40
0.0000000000
40
0.0000000000
40
0.0000000000
40
0.2768414285
40
0.5296282490
40
0.7678576274
40
1.0000000000
40
1.0000000000
40
1.0000000000
40
1.0000000000
10
-1.4331322502
20
-12.4374483745
30
0.0000000000
10
-1.4063746012
20
-12.4508271984
30
0.0000000000
10
-1.3523408140
20
-12.4713006449
30
0.0000000000
10
-1.2693886851
20
-12.4824769066
30
0.0000000000
10
-1.1909387427
20
-12.4744660881
30
0.0000000000
10
-1.1425200760
20
-12.4571875751
30
0.0000000000
10
-1.1200827403
20
-12.4459689072
30
0.0000000000
11
-1.4331322502
21
-12.4374483745
31
0.0000000000
11
-1.3490172360
21
-12.4687428910
31
0.0000000000
11
-1.2677572459
21
-12.4793529401
31
0.0000000000
11
-1.1909474882
21
-12.4713030814
31
0.0000000000
11
-1.1200827403
21
-12.4459689072
31
0.0000000000
0
SPLINE
5
22F
100
AcDbEntity
8
0
100
AcDbSpline
62
7
6
CONTINUOUS
70
0
71
3
72
13
73
9
74
7
42
0.0000001000
43
0.0000001000
44
0.0000000001
12
0.0000000101
22
-0.6623452103
32
0.0000000000
13
0.5924195657
23
-0.2962097829
33
0.0000000000
40
0.0000000000
40
0.0000000000
40
0.0000000000
40
0.0000000000
40
0.1674002785
40
0.3376383723
40
0.5074871804
40
0.6761161278
40
0.8416645769
40
1.0000000000
40
1.0000000000
40
1.0000000000
40
1.0000000000
10
-9.5339961655
20
-8.0036020060
30
0.0000000000
10
-9.5339961649
20
-8.0405609302
30
0.0000000000
10
-9.5260251177
20
-8.1152504462
30
0.0000000000
10
-9.4941485178
20
-8.2231909318
30
0.0000000000
10
-9.4449170985
20
-8.3246925173
30
0.0000000000
10
-9.3804557685
20
-8.4160441708
30
0.0000000000
10
-9.3028665397
20
-8.4930565592
30
0.0000000000
10
-9.2425738511
20
-8.5327275741
30
0.0000000000
10
-9.2113068502
20
-8.5483610746
30
0.0000000000
11
-9.5339961655
21
-8.0036020060
31
0.0000000000
11
-9.5228382812
21
-8.1139159232
31
0.0000000000
11
-9.4912298372
21
-8.2221513557
31
0.0000000000
11
-9.4421469337
21
-8.3233777905
31
0.0000000000
11
-9.3775392800
21
-8.4144856153
31
0.0000000000
11
-9.2993086482
21
-8.4913175065
31
0.0000000000
11
-9.2113068502
21
-8.5483610746
31
0.0000000000
0
SPLINE
5
230
100
AcDbEntity
8
0
100
AcDbSpline
62
9
6
CONTINUOUS
70
0
71
3
72
11
73
7
74
5
42
0.0000001000
43
0.0000001000
44
0.0000000001
12
0.2827680488
22
0.1416108095
32
0.0000000000
13
-0.0000000003
23
0.3148298859
33
0.0000000000
40
0.0000000000
40
0.0000000000
40
0.0000000000
40
0.0000000000
40
0.2083979621
40
0.4440099003
40
0.7066324201
40
1.0000000000
40
1.0000000000
40
1.0000000000
40
1.0000000000
10
-1.1200822994
20
-12.4459672751
30
0.0000000000
10
-1.1004395377
20
-12.4361301404
30
0.0000000000
10
-1.0623417310
20
-12.4076086865
30
0.0000000000
10
-1.0205284241
20
-12.3448703048
30
0.0000000000
10
-0.9951653956
20
-12.2648977756
30
0.0000000000
10
-0.9901361474
20
-12.2063189676
30
0.0000000000
10
-0.9901361475
20
-12.1755320070
30
0.0000000000
11
-1.1200822994
21
-12.4459672751
31
0.0000000000
11
-1.0672816730
21
-12.4069556113
31
0.0000000000
11
-1.0251498003
21
-12.3459045388
31
0.0000000000
11
-0.9990029463
21
-12.2674662898
31
0.0000000000
11
-0.9901361475
21
-12.1755320070
31
0.0000000000
0
SPLINE
5
231
100
AcDbEntity
8
0
100
AcDbSpline
62
9
6
CONTINUOUS
70
0
71
3
72
12
73
8
74
6
42
0.0000001000
43
0.0000001000
44
0.0000000001
12
-0.0000000254
22
0.2939752665
32
0.0000000000
13
0.2629394834
23
0.1314697127
33
0.0000000000
40
0.0000000000
40
0.0000000000
40
0.0000000000
40
0.0000000000
40
0.1952626819
40
0.4051087569
40
0.6172899186
40
0.8190507015
40
1.0000000000
40
1.0000000000
40
1.0000000000
40
1.0000000000
10
-9.2632854873
20
-4.8894821590
30
0.0000000000
10
-9.2632854890
20
-4.8703480260
30
0.0000000000
10
-9.2580026352
20
-4.8305850747
30
0.0000000000
10
-9.2379578680
20
-4.7731576773
30
0.0000000000
10
-9.2071987543
20
-4.7198850219
30
0.0000000000
10
-9.1685937191
20
-4.6757195958
30
0.0000000000
10
-9.1377237021
20
-4.6534961845
30
0.0000000000
10
-9.1218641304
20
-4.6455664004
30
0.0000000000
11
-9.2632854873
21
-4.8894821590
31
0.0000000000
11
-9.2563639698
21
-4.8324985824
31
0.0000000000
11
-9.2362767751
21
-4.7741710082
31
0.0000000000
11
-9.2049899802
21
-4.7202089518
31
0.0000000000
11
-9.1655660599
21
-4.6758947497
31
0.0000000000
11
-9.1218641304
21
-4.6455664004
31
0.0000000000
0
SPLINE
5
232
100
AcDbEntity
8
0
100
AcDbSpline
62
9
6
CONTINUOUS
70
0
71
3
72
11
73
7
74
5
42
0.0000001000
43
0.0000001000
44
0.0000000001
12
-0.2070851074
22
0.1035425539
32
0.0000000000
13
-0.2079503171
23
-0.1041403367
33
0.0000000000
40
0.0000000000
40
0.0000000000
40
0.0000000000
40
0.0000000000
40
0.3614412582
40
0.6849741574
40
0.9849148193
40
1.0000000000
40
1.0000000000
40
1.0000000000
40
1.0000000000
10
-9.1218641311
20
-4.6455664001
30
0.0000000000
10
-9.1468138317
20
-4.6330915498
30
0.0000000000
10
-9.1968171395
20
-4.6141678872
30
0.0000000000
10
-9.2737099259
20
-4.6074215466
30
0.0000000000
10
-9.3224838971
20
-4.6201174017
30
0.0000000000
10
-9.3444247078
20
-4.6308429762
30
0.0000000000
10
-9.3454703638
20
-4.6313666348
30
0.0000000000
11
-9.1218641311
21
-4.6455664001
31
0.0000000000
11
-9.2005514621
21
-4.6170832650
31
0.0000000000
11
-9.2752681950
21
-4.6117478738
31
0.0000000000
11
-9.3423185487
21
-4.6298260084
31
0.0000000000
11
-9.3454703638
21
-4.6313666348
31
0.0000000000
0
SPLINE
5
233
100
AcDbEntity
8
0
100
AcDbSpline
62
9
6
CONTINUOUS
70
0
71
3
72
14
73
10
74
8
42
0.0000001000
43
0.0000001000
44
0.0000000001
12
-0.2932058510
22
0.1466029255
32
0.0000000000
13
0.0000000000
23
-0.3278141072
33
0.0000000000
40
0.0000000000
40
0.0000000000
40
0.0000000000
40
0.0000000000
40
0.1527406571
40
0.2900530806
40
0.4173633365
40
0.5440388209
40
0.6800041733
40
0.8315448979
40
1.0000000000
40
1.0000000000
40
1.0000000000
40
1.0000000000
10
-9.2632854873
20
-4.8894821590
30
0.0000000000
10
-9.2782136388
20
-4.8820180832
30
0.0000000000
10
-9.3081868832
20
-4.8706640795
30
0.0000000000
10
-9.3543198144
20
-4.8665831940
30
0.0000000000
10
-9.3966439615
20
-4.8775832272
30
0.0000000000
10
-9.4317492493
20
-4.9034276815
30
0.0000000000
10
-9.4572399854
20
-4.9417373486
30
0.0000000000
10
-9.4724151729
20
-4.9897129604
30
0.0000000000
10
-9.4754175217
20
-5.0248164433
30
0.0000000000
10
-9.4754175217
20
-5.0432237629
30
0.0000000000
11
-9.2632854873
21
-4.8894821590
31
0.0000000000
11
-9.3103600748
21
-4.8724221941
31
0.0000000000
11
-9.3552564735
21
-4.8691850641
31
0.0000000000
11
-9.3955551218
21
-4.8800365096
31
0.0000000000
11
-9.4291728750
21
-4.9044138812
31
0.0000000000
11
-9.4544640917
21
-4.9411148422
31
0.0000000000
11
-9.4701370934
21
-4.9882548460
31
0.0000000000
11
-9.4754175217
21
-5.0432237629
31
0.0000000000
0
SPLINE
5
234
100
AcDbEntity
8
0
100
AcDbSpline
62
9
6
CONTINUOUS
70
0
71
3
72
12
73
8
74
6
42
0.0000001000
43
0.0000001000
44
0.0000000001
12
-0.0000000000
22
0.2939752625
32
0.0000000000
13
0.2629394683
23
0.1314697341
33
0.0000000000
40
0.0000000000
40
0.0000000000
40
0.0000000000
40
0.0000000000
40
0.1952646443
40
0.4051116665
40
0.6172925625
40
0.8190521716
40
1.0000000000
40
1.0000000000
40
1.0000000000
40
1.0000000000
10
-1.4851108943
20
-8.7785694555
30
0.0000000000
10
-1.4851108943
20
-8.7594351305
30
0.0000000000
10
-1.4798279485
20
-8.7196718938
30
0.0000000000
10
-1.4597829629
20
-8.6622442966
30
0.0000000000
10
-1.4290237425
20
-8.6089717605
30
0.0000000000
10
-1.3904188030
20
-8.5648066351
30
0.0000000000
10
-1.3595489800
20
-8.5425834176
30
0.0000000000
10
-1.3436895380
20
-8.5346536966
30
0.0000000000
11
-1.4851108943
21
-8.7785694555
31
0.0000000000
11
-1.4781892404
21
-8.7215853151
31
0.0000000000
11
-1.4581018186
21
-8.6632575256
31
0.0000000000
11
-1.4268149256
21
-8.6092956173
31
0.0000000000
11
-1.3873911405
21
-8.5649817579
31
0.0000000000
11
-1.3436895380
21
-8.5346536966
31
0.0000000000
0
SPLINE
5
235
100
AcDbEntity
8
0
100
AcDbSpline
62
9
6
CONTINUOUS
70
0
71
3
72
12
73
8
74
6
42
0.0000001000
43
0.0000001000
44
0.0000000001
12
0.2601680991
22
-0.1300840159
32
0.0000000000
13
0.2601680997
23
0.1300840147
33
0.0000000000
40
0.0000000000
40
0.0000000000
40
0.0000000000
40
0.0000000000
40
0.1851625940
40
0.3924364318
40
0.6075579436
40
0.8148339881
40
1.0000000000
40
1.0000000000
40
1.0000000000
40
1.0000000000
10
-1.2729788599
20
-9.1444430938
30
0.0000000000
10
-1.2569210599
20
-9.1524719917
30
0.0000000000
10
-1.2206337122
20
-9.1650217443
30
0.0000000000
10
-1.1622146271
20
-9.1741466170
30
0.0000000000
10
-1.1009018098
20
-9.1741467394
30
0.0000000000
10
-1.0424821500
20
-9.1650219950
30
0.0000000000
10
-1.0061942439
20
-9.1524721407
30
0.0000000000
10
-0.9901361475
20
-9.1444430946
30
0.0000000000
11
-1.2729788599
21
-9.1444430938
31
0.0000000000
11
-1.2223561439
21
-9.1628329258
31
0.0000000000
11
-1.1628452469
21
-9.1725011755
31
0.0000000000
11
-1.1002713980
21
-9.1725013053
31
0.0000000000
11
-1.0407598317
21
-9.1628331730
31
0.0000000000
11
-0.9901361475
21
-9.1444430946
31
0.0000000000
0
SPLINE
5
236
100
AcDbEntity
8
0
100
AcDbSpline
62
9
6
CONTINUOUS
70
0
71
3
72
14
73
10
74
8
42
0.0000001000
43
0.0000001000
44
0.0000000001
12
0.0000000006
22
0.7356660743
32
0.0000000000
13
-0.6579997408
23
0.3289998694
33
0.0000000000
40
0.0000000000
40
0.0000000000
40
0.0000000000
40
0.0000000000
40
0.1375555812
40
0.2840910724
40
0.4355963614
40
0.5872326633
40
0.7345266972
40
0.8731291428
40
1.0000000000
40
1.0000000000
40
1.0000000000
40
1.0000000000
10
-0.9901361475
20
-9.1444430938
30
0.0000000000
10
-0.9901361474
20
-9.1107114356
30
0.0000000000
10
-0.9967249733
20
-9.0409625881
30
0.0000000000
10
-1.0230930588
20
-8.9370912917
30
0.0000000000
10
-1.0650320309
20
-8.8347229733
30
0.0000000000
10
-1.1205125895
20
-8.7388195227
30
0.0000000000
10
-1.1868667040
20
-8.6540126049
30
0.0000000000
10
-1.2608976573
20
-8.5843950496
30
0.0000000000
10
-1.3158625410
20
-8.5485671951
30
0.0000000000
10
-1.3436895380
20
-8.5346536966
30
0.0000000000
11
-0.9901361475
21
-9.1444430938
31
0.0000000000
11
-0.9990037334
21
-9.0436373957
31
0.0000000000
11
-1.0251503832
21
-8.9390551354
31
0.0000000000
11
-1.0672843106
21
-8.8358685948
31
0.0000000000
11
-1.1232384275
21
-8.7393628386
31
0.0000000000
11
-1.1902866845
21
-8.6542379152
31
0.0000000000
11
-1.2650056550
21
-8.5848552045
31
0.0000000000
11
-1.3436895380
21
-8.5346536966
31
0.0000000000
0
SPLINE
5
237
100
AcDbEntity
8
0
100
AcDbSpline
62
9
6
CONTINUOUS
70
0
71
3
72
14
73
10
74
8
42
0.0000001000
43
0.0000001000
44
0.0000000001
12
0.0000000000
22
0.4413999026
32
0.0000000000
13
-0.3948000750
23
0.1974000375
33
0.0000000000
40
0.0000000000
40
0.0000000000
40
0.0000000000
40
0.0000000000
40
0.1371323517
40
0.2838427373
40
0.4355840643
40
0.5874483703
40
0.7349115742
40
0.8736233727
40
1.0000000000
40
1.0000000000
40
1.0000000000
40
1.0000000000
10
-1.2729788599
20
-9.1444430938
30
0.0000000000
10
-1.2729788599
20
-9.1242663582
30
0.0000000000
10
-1.2769159582
20
-9.0824538290
30
0.0000000000
10
-1.2927176425
20
-9.0201268493
30
0.0000000000
10
-1.3179092275
20
-8.9586149954
30
0.0000000000
10
-1.3512497059
20
-8.9009940765
30
0.0000000000
10
-1.3911247539
20
-8.8500635008
30
0.0000000000
10
-1.4355406641
20
-8.8083344738
30
0.0000000000
10
-1.4684797270
20
-8.7868850391
30
0.0000000000
10
-1.4851108943
20
-8.7785694555
30
0.0000000000
11
-1.2729788599
21
-9.1444430938
31
0.0000000000
11
-1.2782675768
21
-9.0841443758
31
0.0000000000
11
-1.2939533493
21
-9.0213148555
31
0.0000000000
11
-1.3192653717
21
-8.9593032815
31
0.0000000000
11
-1.3528938025
21
-8.9013158952
31
0.0000000000
11
-1.3931851077
21
-8.8501949546
31
0.0000000000
11
-1.4380732358
21
-8.8085554623
31
0.0000000000
11
-1.4851108943
21
-8.7785694555
31
0.0000000000
0
SPLINE
5
238
100
AcDbEntity
8
0
100
AcDbSpline
62
9
6
CONTINUOUS
70
0
71
3
72
12
73
8
74
6
42
0.0000001000
43
0.0000001000
44
0.0000000001
12
0.2601680891
22
-0.1300840446
32
0.0000000000
13
0.2601680891
23
0.1300840446
33
0.0000000000
40
0.0000000000
40
0.0000000000
40
0.0000000000
40
0.0000000000
40
0.1851645043
40
0.3924393536
40
0.6075606464
40
0.8148354957
40
1.0000000000
40
1.0000000000
40
1.0000000000
40
1.0000000000
10
-1.2729788599
20
-12.1755320070
30
0.0000000000
10
-1.2569208948
20
-12.1835609896
30
0.0000000000
10
-1.2206332560
20
-12.1961107952
30
0.0000000000
10
-1.1622138930
20
-12.2052355979
30
0.0000000000
10
-1.1009011144
20
-12.2052355979
30
0.0000000000
10
-1.0424817514
20
-12.1961107952
30
0.0000000000
10
-1.0061941125
20
-12.1835609896
30
0.0000000000
10
-0.9901361475
20
-12.1755320070
30
0.0000000000
11
-1.2729788599
21
-12.1755320070
31
0.0000000000
11
-1.2223556036
21
-12.1939219813
31
0.0000000000
11
-1.1628443967
21
-12.2035901630
31
0.0000000000
11
-1.1002706107
21
-12.2035901630
31
0.0000000000
11
-1.0407594037
21
-12.1939219813
31
0.0000000000
11
-0.9901361475
21
-12.1755320070
31
0.0000000000
0
SPLINE
5
239
100
AcDbEntity
8
0
100
AcDbSpline
62
9
6
CONTINUOUS
70
0
71
3
72
10
73
6
74
4
42
0.0000001000
43
0.0000001000
44
0.0000000001
12
0.0000000108
22
-0.1255067554
32
0.0000000000
13
0.1128171141
23
-0.0571755123
33
0.0000000000
40
0.0000000000
40
0.0000000000
40
0.0000000000
40
0.0000000000
40
0.4026737152
40
0.7468397473
40
1.0000000000
40
1.0000000000
40
1.0000000000
40
1.0000000000
10
-1.4851108943
20
-12.3292736110
30
0.0000000000
10
-1.4851108928
20
-12.3461197015
30
0.0000000000
10
-1.4814751098
20
-12.3776223118
30
0.0000000000
10
-1.4627847825
20
-12.4163280009
30
0.0000000000
10
-1.4426390592
20
-12.4325969290
30
0.0000000000
10
-1.4331187895
20
-12.4374217848
30
0.0000000000
11
-1.4851108943
21
-12.3292736110
31
0.0000000000
11
-1.4781893692
21
-12.3793356662
31
0.0000000000
11
-1.4581021707
21
-12.4175760438
31
0.0000000000
11
-1.4331187895
21
-12.4374217848
31
0.0000000000
0
SPLINE
5
23A
100
AcDbEntity
8
0
100
AcDbSpline
62
9
6
CONTINUOUS
70
0
71
3
72
14
73
10
74
8
42
0.0000001000
43
0.0000001000
44
0.0000000001
12
0.2932058510
22
-0.1466029255
32
0.0000000000
13
0.0000000000
23
0.3278141072
33
0.0000000000
40
0.0000000000
40
0.0000000000
40
0.0000000000
40
0.0000000000
40
0.1527406571
40
0.2900530806
40
0.4173633365
40
0.5440388209
40
0.6800041733
40
0.8315448979
40
1.0000000000
40
1.0000000000
40
1.0000000000
40
1.0000000000
10
-1.4851108943
20
-12.3292736110
30
0.0000000000
10
-1.4701827428
20
-12.3367376867
30
0.0000000000
10
-1.4402094984
20
-12.3480916905
30
0.0000000000
10
-1.3940765673
20
-12.3521725759
30
0.0000000000
10
-1.3517524202
20
-12.3411725427
30
0.0000000000
10
-1.3166471323
20
-12.3153280884
30
0.0000000000
10
-1.2911563962
20
-12.2770184213
30
0.0000000000
10
-1.2759812087
20
-12.2290428095
30
0.0000000000
10
-1.2729788599
20
-12.1939393267
30
0.0000000000
10
-1.2729788599
20
-12.1755320070
30
0.0000000000
11
-1.4851108943
21
-12.3292736110
31
0.0000000000
11
-1.4380363068
21
-12.3463335759
31
0.0000000000
11
-1.3931399081
21
-12.3495707058
31
0.0000000000
11
-1.3528412598
21
-12.3387192604
31
0.0000000000
11
-1.3192235066
21
-12.3143418887
31
0.0000000000
11
-1.2939322899
21
-12.2776409277
31
0.0000000000
11
-1.2782592883
21
-12.2305009239
31
0.0000000000
11
-1.2729788599
21
-12.1755320070
31
0.0000000000
0
SPLINE
5
23B
100
AcDbEntity
8
0
100
AcDbSpline
62
9
6
CONTINUOUS
70
0
71
3
72
10
73
6
74
4
42
0.0000001000
43
0.0000001000
44
0.0000000001
12
0.0000000000
22
-0.1255067571
32
0.0000000000
13
0.1128171458
23
-0.0571755215
33
0.0000000000
40
0.0000000000
40
0.0000000000
40
0.0000000000
40
0.0000000000
40
0.4026772544
40
0.7468440397
40
1.0000000000
40
1.0000000000
40
1.0000000000
40
1.0000000000
10
-9.2632854873
20
-8.4401863145
30
0.0000000000
10
-9.2632854873
20
-8.4570325533
30
0.0000000000
10
-9.2596496571
20
-8.4885353535
30
0.0000000000
10
-9.2409591478
20
-8.5272409800
30
0.0000000000
10
-9.2208134870
20
-8.5435097130
30
0.0000000000
10
-9.2112933760
20
-8.5483344877
30
0.0000000000
11
-9.2632854873
21
-8.4401863145
31
0.0000000000
11
-9.2563638335
21
-8.4902488010
31
0.0000000000
11
-9.2362764117
21
-8.5284891687
31
0.0000000000
11
-9.2112933760
21
-8.5483344877
31
0.0000000000
0
SPLINE
5
23C
100
AcDbEntity
8
0
100
AcDbSpline
62
9
6
CONTINUOUS
70
0
71
3
72
10
73
6
74
4
42
0.0000001000
43
0.0000001000
44
0.0000000001
12
-0.0856663664
22
0.0428331721
32
0.0000000000
13
-0.0000001243
23
0.0974997288
33
0.0000000000
40
0.0000000000
40
0.0000000000
40
0.0000000000
40
0.0000000000
40
0.4661577131
40
0.8366652291
40
1.0000000000
40
1.0000000000
40
1.0000000000
40
1.0000000000
10
-9.4754175217
20
-8.0743126762
30
0.0000000000
10
-9.4887288675
20
-8.0676570050
30
0.0000000000
10
-9.5115226632
20
-8.0531322962
30
0.0000000000
10
-9.5313302513
20
-8.0262602208
30
0.0000000000
10
-9.5338075940
20
-8.0089103881
30
0.0000000000
10
-9.5338076008
20
-8.0036020228
30
0.0000000000
11
-9.4754175217
21
-8.0743126762
31
0.0000000000
11
-9.5121971950
21
-8.0490013228
31
0.0000000000
11
-9.5315336989
21
-8.0192458766
31
0.0000000000
11
-9.5338076008
21
-8.0036020228
31
0.0000000000
0
SPLINE
5
23D
100
AcDbEntity
8
0
100
AcDbSpline
62
9
6
CONTINUOUS
70
0
71
3
72
14
73
10
74
8
42
0.0000001000
43
0.0000001000
44
0.0000000001
12
0.0000000000
22
-0.4413999026
32
0.0000000000
13
0.3948000750
23
-0.1974000375
33
0.0000000000
40
0.0000000000
40
0.0000000000
40
0.0000000000
40
0.0000000000
40
0.1371323517
40
0.2838427373
40
0.4355840643
40
0.5874483703
40
0.7349115742
40
0.8736233727
40
1.0000000000
40
1.0000000000
40
1.0000000000
40
1.0000000000
10
-9.4754175217
20
-8.0743126762
30
0.0000000000
10
-9.4754175217
20
-8.0944894117
30
0.0000000000
10
-9.4714804234
20
-8.1363019409
30
0.0000000000
10
-9.4556787391
20
-8.1986289207
30
0.0000000000
10
-9.4304871541
20
-8.2601407745
30
0.0000000000
10
-9.3971466757
20
-8.3177616934
30
0.0000000000
10
-9.3572716277
20
-8.3686922691
30
0.0000000000
10
-9.3128557176
20
-8.4104212961
30
0.0000000000
10
-9.2799166547
20
-8.4318707308
30
0.0000000000
10
-9.2632854873
20
-8.4401863145
30
0.0000000000
11
-9.4754175217
21
-8.0743126762
31
0.0000000000
11
-9.4701288048
21
-8.1346113942
31
0.0000000000
11
-9.4544430324
21
-8.1974409145
31
0.0000000000
11
-9.4291310100
21
-8.2594524885
31
0.0000000000
11
-9.3955025791
21
-8.3174398747
31
0.0000000000
11
-9.3552112739
21
-8.3685608153
31
0.0000000000
11
-9.3103231459
21
-8.4102003077
31
0.0000000000
11
-9.2632854873
21
-8.4401863145
31
0.0000000000
0
SPLINE
5
23E
100
AcDbEntity
8
0
100
AcDbSpline
62
9
6
CONTINUOUS
70
0
71
3
72
10
73
6
74
4
42
0.0000001000
43
0.0000001000
44
0.0000000001
12
-0.0856663819
22
0.0428331910
32
0.0000000000
13
0.0000000000
23
0.0974997484
33
0.0000000000
40
0.0000000000
40
0.0000000000
40
0.0000000000
40
0.0000000000
40
0.4661615988
40
0.8366696059
40
1.0000000000
40
1.0000000000
40
1.0000000000
40
1.0000000000
10
-9.4754175217
20
-5.0432237629
30
0.0000000000
10
-9.4887289809
20
-5.0365680333
30
0.0000000000
10
-9.5115229022
20
-5.0220432278
30
0.0000000000
10
-9.5313303638
20
-4.9951710122
30
0.0000000000
10
-9.5338076016
20
-4.9778213089
30
0.0000000000
10
-9.5338076016
20
-4.9725130848
30
0.0000000000
11
-9.4754175217
21
-5.0432237629
31
0.0000000000
11
-9.5121974703
21
-5.0179121348
31
0.0000000000
11
-9.5315338336
21
-4.9881565313
31
0.0000000000
11
-9.5338076016
21
-4.9725130848
31
0.0000000000
0
SPLINE
5
23F
100
AcDbEntity
8
0
100
AcDbSpline
62
7
6
CONTINUOUS
70
0
71
3
72
12
73
8
74
6
42
0.0000001000
43
0.0000001000
44
0.0000000001
12
0.0697057425
22
-1.2358631102
32
0.0000000000
13
1.1105118033
23
-0.5540817886
33
0.0000000000
40
0.0000000000
40
0.0000000000
40
0.0000000000
40
0.0000000000
40
0.2362014258
40
0.4671587429
40
0.6853979527
40
0.8974539893
40
1.0000000000
40
1.0000000000
40
1.0000000000
40
1.0000000000
10
-12.2884752420
20
-11.4775213573
30
0.0000000000
10
-12.2829870434
20
-11.5748255668
30
0.0000000000
10
-12.2531937556
20
-11.7669217952
30
0.0000000000
10
-12.1480209174
20
-12.0319837177
30
0.0000000000
10
-11.9885687892
20
-12.2565669540
30
0.0000000000
10
-11.8200429927
20
-12.4008824822
30
0.0000000000
10
-11.7069911943
20
-12.4660217915
30
0.0000000000
10
-11.6690316759
20
-12.4849614171
30
0.0000000000
11
-12.2884752420
21
-11.4775213573
31
0.0000000000
11
-12.2421500609
21
-11.7661553188
31
0.0000000000
11
-12.1356564807
21
-12.0313098286
31
0.0000000000
11
-11.9787606027
21
-12.2510525905
31
0.0000000000
11
-11.7792510606
21
-12.4214247136
31
0.0000000000
11
-11.6690316759
21
-12.4849614171
31
0.0000000000
0
SPLINE
5
240
100
AcDbEntity
8
0
100
AcDbSpline
62
7
6
CONTINUOUS
70
0
71
3
72
11
73
7
74
5
42
0.0000001000
43
0.0000001000
44
0.0000000001
12
-1.8679461387
22
-35.2104619744
32
0.0000000000
13
1.9761966664
23
-35.2045557205
33
0.0000000000
40
0.0000000000
40
0.0000000000
40
0.0000000000
40
0.0000000000
40
0.2543192378
40
0.5070792612
40
0.7563110171
40
1.0000000000
40
1.0000000000
40
1.0000000000
40
1.0000000000
10
-12.2886276377
20
23.7662208605
30
0.0000000000
10
-12.4469791838
20
20.7813215765
30
0.0000000000
10
-12.6867196982
20
14.8254880534
30
0.0000000000
10
-12.8089437396
20
5.9361219141
30
0.0000000000
10
-12.6899566046
20
-2.8283666948
30
0.0000000000
10
-12.4490193328
20
-8.6177314530
30
0.0000000000
10
-12.2884935476
20
-11.4773855790
30
0.0000000000
11
-12.2886276377
21
23.7662208605
31
0.0000000000
11
-12.6477654766
21
14.8061266178
31
0.0000000000
11
-12.7686386659
21
5.8946408418
31
0.0000000000
11
-12.6475839420
21
-2.8924242952
31
0.0000000000
11
-12.2884935476
21
-11.4773855790
31
0.0000000000
0
SPLINE
5
241
100
AcDbEntity
8
0
100
AcDbSpline
62
7
6
CONTINUOUS
70
0
71
3
72
13
73
9
74
7
42
0.0000001000
43
0.0000001000
44
0.0000000001
12
-1.5804036666
22
-0.8530516550
32
0.0000000000
13
-0.0950161567
23
-1.7928186064
33
0.0000000000
40
0.0000000000
40
0.0000000000
40
0.0000000000
40
0.0000000000
40
0.1300264085
40
0.3085531104
40
0.4922161540
40
0.6783296324
40
0.8630420509
40
1.0000000000
40
1.0000000000
40
1.0000000000
40
1.0000000000
10
-11.3928323475
20
25.2397457721
30
0.0000000000
10
-11.4613304184
20
25.2027726911
30
0.0000000000
10
-11.6167263192
20
25.1010540350
30
0.0000000000
10
-11.8312628499
20
24.8971686717
30
0.0000000000
10
-12.0250944352
20
24.6307117174
30
0.0000000000
10
-12.1725487947
20
24.3320337871
30
0.0000000000
10
-12.2594846001
20
24.0396731810
30
0.0000000000
10
-12.2842972579
20
23.8479294246
30
0.0000000000
10
-12.2886349972
20
23.7660825048
30
0.0000000000
11
-11.3928323475
21
25.2397457721
31
0.0000000000
11
-11.5885868712
21
25.1124096522
31
0.0000000000
11
-11.8217778301
21
24.8929826654
31
0.0000000000
11
-12.0162385727
21
24.6270961884
31
0.0000000000
11
-12.1640735451
21
24.3278133196
31
0.0000000000
11
-12.2576827871
21
24.0100218458
31
0.0000000000
11
-12.2886349972
21
23.7660825048
31
0.0000000000
0
SPLINE
5
242
100
AcDbEntity
8
0
100
AcDbSpline
62
7
6
CONTINUOUS
70
0
71
3
72
11
73
7
74
5
42
0.0000001000
43
0.0000001000
44
0.0000000001
12
0.3360387486
22
0.1811604896
32
0.0000000000
13
0.3399310084
23
-0.1699655042
33
0.0000000000
40
0.0000000000
40
0.0000000000
40
0.0000000000
40
0.0000000000
40
0.1476291790
40
0.4079855043
40
0.6894667574
40
1.0000000000
40
1.0000000000
40
1.0000000000
40
1.0000000000
10
-7.4020083943
20
27.3928674105
30
0.0000000000
10
-7.3854720194
20
27.4017822686
30
0.0000000000
10
-7.3374847001
20
27.4221961346
30
0.0000000000
10
-7.2496739218
20
27.4349222484
30
0.0000000000
10
-7.1415976190
20
27.4196692323
30
0.0000000000
10
-7.0711719093
20
27.3920741538
30
0.0000000000
10
-7.0359852832
20
27.3744808407
30
0.0000000000
11
-7.4020083943
21
27.3928674105
31
0.0000000000
11
-7.3502233648
21
27.4148688732
31
0.0000000000
11
-7.2524351458
21
27.4299844982
31
0.0000000000
11
-7.1463299208
21
27.4163457525
31
0.0000000000
11
-7.0359852832
21
27.3744808407
31
0.0000000000
0
SPLINE
5
243
100
AcDbEntity
8
0
100
AcDbSpline
62
7
6
CONTINUOUS
70
0
71
3
72
11
73
7
74
5
42
0.0000001000
43
0.0000001000
44
0.0000000001
12
0.9277218949
22
-0.4643598387
32
0.0000000000
13
0.9418398064
23
0.4343181326
33
0.0000000000
40
0.0000000000
40
0.0000000000
40
0.0000000000
40
0.0000000000
40
0.1972973493
40
0.4752095485
40
0.7654689252
40
1.0000000000
40
1.0000000000
40
1.0000000000
40
1.0000000000
10
2.7436340395
20
-19.6913021445
30
0.0000000000
10
2.8046463964
20
-19.7218411330
30
0.0000000000
10
2.9589658423
20
-19.7815594397
30
0.0000000000
10
3.2234217741
20
-19.8188394169
30
0.0000000000
10
3.5013325178
20
-19.7850076772
30
0.0000000000
10
3.6732459130
20
-19.7236023876
30
0.0000000000
10
3.7468761470
20
-19.6896486881
30
0.0000000000
11
2.7436340395
21
-19.6913021445
31
0.0000000000
11
2.9344860893
21
-19.7651242748
31
0.0000000000
11
3.2192561655
21
-19.8058883396
31
0.0000000000
11
3.5176351851
21
-19.7706404633
31
0.0000000000
11
3.7468761470
21
-19.6896486881
31
0.0000000000
0
SPLINE
5
244
100
AcDbEntity
8
0
100
AcDbSpline
62
7
6
CONTINUOUS
70
0
71
3
72
8
73
4
74
2
42
0.0000001000
43
0.0000001000
44
0.0000000001
12
0.0025295812
22
-0.0651977897
32
0.0000000000
13
-0.0068537648
23
-0.0650420498
33
0.0000000000
40
0.0000000000
40
0.0000000000
40
0.0000000000
40
0.0000000000
40
1.0000000000
40
1.0000000000
40
1.0000000000
40
1.0000000000
10
-0.8204617993
20
-12.1218432975
30
0.0000000000
10
-0.8196186056
20
-12.1435758940
30
0.0000000000
10
-0.8201106747
20
-12.1654207692
30
0.0000000000
10
-0.8223952630
20
-12.1871014525
30
0.0000000000
11
-0.8204617993
21
-12.1218432975
31
0.0000000000
11
-0.8223952630
21
-12.1871014525
31
0.0000000000
0
SPLINE
5
245
100
AcDbEntity
8
0
100
AcDbSpline
62
7
6
CONTINUOUS
70
0
71
3
72
9
73
5
74
3
42
0.0000001000
43
0.0000001000
44
0.0000000001
12
-0.0094214185
22
-0.0894090168
32
0.0000000000
13
-0.0362987197
23
-0.0823761463
33
0.0000000000
40
0.0000000000
40
0.0000000000
40
0.0000000000
40
0.0000000000
40
0.3562439778
40
1.0000000000
40
1.0000000000
40
1.0000000000
40
1.0000000000
10
-0.8223952630
20
-12.1871014525
30
0.0000000000
10
-0.8235140375
20
-12.1977185937
30
0.0000000000
10
-0.8278611721
20
-12.2274110710
30
0.0000000000
10
-0.8360186092
20
-12.2565374545
30
0.0000000000
10
-0.8438077823
20
-12.2742141680
30
0.0000000000
11
-0.8223952630
21
-12.1871014525
31
0.0000000000
11
-0.8270948832
21
-12.2188022833
31
0.0000000000
11
-0.8438077823
21
-12.2742141680
31
0.0000000000
0
SPLINE
5
246
100
AcDbEntity
8
0
100
AcDbSpline
62
7
6
CONTINUOUS
70
0
71
3
72
9
73
5
74
3
42
0.0000001000
43
0.0000001000
44
0.0000000001
12
-0.0247624280
22
-0.0561957393
32
0.0000000000
13
-0.0441543795
23
-0.0430173083
33
0.0000000000
40
0.0000000000
40
0.0000000000
40
0.0000000000
40
0.0000000000
40
0.4065253682
40
1.0000000000
40
1.0000000000
40
1.0000000000
40
1.0000000000
10
-0.8438077823
20
-12.2742141680
30
0.0000000000
10
-0.8471633007
20
-12.2818291658
30
0.0000000000
10
-0.8565759587
20
-12.3000709844
30
0.0000000000
10
-0.8693021961
20
-12.3167013743
30
0.0000000000
10
-0.8780370308
20
-12.3252112681
30
0.0000000000
11
-0.8438077823
21
-12.2742141680
31
0.0000000000
11
-0.8553638809
21
-12.2963943805
31
0.0000000000
11
-0.8780370308
21
-12.3252112681
31
0.0000000000
0
SPLINE
5
247
100
AcDbEntity
8
0
100
AcDbSpline
62
7
6
CONTINUOUS
70
0
71
3
72
9
73
5
74
3
42
0.0000001000
43
0.0000001000
44
0.0000000001
12
-0.0237396310
22
-0.0231282840
32
0.0000000000
13
-0.0294636515
23
-0.0148372044
33
0.0000000000
40
0.0000000000
40
0.0000000000
40
0.0000000000
40
0.0000000000
40
0.7230730863
40
1.0000000000
40
1.0000000000
40
1.0000000000
40
1.0000000000
10
-0.8780370308
20
-12.3252112681
30
0.0000000000
10
-0.8837588602
20
-12.3307857479
30
0.0000000000
10
-0.8923735995
20
-12.3376882013
30
0.0000000000
10
-0.9019666361
20
-12.3430486864
30
0.0000000000
10
-0.9046863954
20
-12.3444182934
30
0.0000000000
11
-0.8780370308
21
-12.3252112681
31
0.0000000000
11
-0.8967285202
21
-12.3399615099
31
0.0000000000
11
-0.9046863954
21
-12.3444182934
31
0.0000000000
0
SPLINE
5
248
100
AcDbEntity
8
0
100
AcDbSpline
62
7
6
CONTINUOUS
70
0
71
3
72
8
73
4
74
2
42
0.0000001000
43
0.0000001000
44
0.0000000001
12
0.0010442322
22
-0.0363150098
32
0.0000000000
13
0.0010485284
23
-0.0363148879
33
0.0000000000
40
0.0000000000
40
0.0000000000
40
0.0000000000
40
0.0000000000
40
1.0000000000
40
1.0000000000
40
1.0000000000
40
1.0000000000
10
-0.9210533977
20
-9.1326322072
30
0.0000000000
10
-0.9207053203
20
-9.1447372105
30
0.0000000000
10
-0.9203565270
20
-9.1568421935
30
0.0000000000
10
-0.9200070175
20
-9.1689471561
30
0.0000000000
11
-0.9210533977
21
-9.1326322072
31
0.0000000000
11
-0.9200070175
21
-9.1689471561
31
0.0000000000
0
SPLINE
5
249
100
AcDbEntity
8
0
100
AcDbSpline
62
7
6
CONTINUOUS
70
0
71
3
72
10
73
6
74
4
42
0.0000001000
43
0.0000001000
44
0.0000000001
12
0.0852719933
22
-2.9533229592
32
0.0000000000
13
0.1138972253
23
-2.9523573865
33
0.0000000000
40
0.0000000000
40
0.0000000000
40
0.0000000000
40
0.0000000000
40
0.3173249268
40
0.6695851252
40
1.0000000000
40
1.0000000000
40
1.0000000000
40
1.0000000000
10
-0.9200070175
20
-9.1689471561
30
0.0000000000
10
-0.9109873745
20
-9.4813348201
30
0.0000000000
10
-0.8909487857
20
-10.1404732537
30
0.0000000000
10
-0.8578360289
20
-11.1247692449
30
0.0000000000
10
-0.8330018176
20
-11.7966451733
30
0.0000000000
10
-0.8204573718
20
-12.1218127720
30
0.0000000000
11
-0.9200070175
21
-9.1689471561
31
0.0000000000
11
-0.8915151821
21
-10.1060676531
31
0.0000000000
11
-0.8565191971
21
-11.1462506324
31
0.0000000000
11
-0.8204573718
21
-12.1218127720
31
0.0000000000
0
SPLINE
5
24A
100
AcDbEntity
8
0
100
AcDbSpline
62
7
6
CONTINUOUS
70
0
71
3
72
13
73
9
74
7
42
0.0000001000
43
0.0000001000
44
0.0000000001
12
0.6227388430
22
-0.3115422739
32
0.0000000000
13
0.1120882417
23
-0.6865746848
33
0.0000000000
40
0.0000000000
40
0.0000000000
40
0.0000000000
40
0.0000000000
40
0.0797620839
40
0.2708992978
40
0.4877143528
40
0.7143295769
40
0.9323376074
40
1.0000000000
40
1.0000000000
40
1.0000000000
40
1.0000000000
10
-1.3042472603
20
-8.4946369168
30
0.0000000000
10
-1.2876902777
20
-8.5029200038
30
0.0000000000
10
-1.2333171523
20
-8.5351220479
30
0.0000000000
10
-1.1476040985
20
-8.6094255984
30
0.0000000000
10
-1.0560644053
20
-8.7251542738
30
0.0000000000
10
-0.9826503404
20
-8.8601870900
30
0.0000000000
10
-0.9443278682
20
-8.9728683347
30
0.0000000000
10
-0.9313394370
20
-9.0379016083
30
0.0000000000
10
-0.9288113842
20
-9.0533867036
30
0.0000000000
11
-1.3042472603
21
-8.4946369168
31
0.0000000000
11
-1.2562580267
21
-8.5226690453
31
0.0000000000
11
-1.1549367866
21
-8.6082022703
31
0.0000000000
11
-1.0610044702
21
-8.7256755052
31
0.0000000000
11
-0.9858743871
21
-8.8637700411
31
0.0000000000
11
-0.9379623930
21
-9.0072180289
31
0.0000000000
11
-0.9288113842
21
-9.0533867036
31
0.0000000000
0
SPLINE
5
24B
100
AcDbEntity
8
0
100
AcDbSpline
62
7
6
CONTINUOUS
70
0
71
3
72
8
73
4
74
2
42
0.0000001000
43
0.0000001000
44
0.0000000001
12
0.0128511979
22
-0.0787175089
32
0.0000000000
13
0.0022649937
23
-0.0795164508
33
0.0000000000
40
0.0000000000
40
0.0000000000
40
0.0000000000
40
0.0000000000
40
1.0000000000
40
1.0000000000
40
1.0000000000
40
1.0000000000
10
-0.9288113842
20
-9.0533867036
30
0.0000000000
10
-0.9245276515
20
-9.0796258733
30
0.0000000000
10
-0.9218182836
20
-9.1060994997
30
0.0000000000
10
-0.9210632857
20
-9.1326049833
30
0.0000000000
11
-0.9288113842
21
-9.0533867036
31
0.0000000000
11
-0.9210632857
21
-9.1326049833
31
0.0000000000
0
SPLINE
5
24C
100
AcDbEntity
8
0
100
AcDbSpline
62
7
6
CONTINUOUS
70
0
71
3
72
8
73
4
74
2
42
0.0000001000
43
0.0000001000
44
0.0000000001
12
0.0290478492
22
0.0139262938
32
0.0000000000
13
0.0320895565
23
0.0060564322
33
0.0000000000
40
0.0000000000
40
0.0000000000
40
0.0000000000
40
0.0000000000
40
1.0000000000
40
1.0000000000
40
1.0000000000
40
1.0000000000
10
-9.2649683246
20
-4.5824610654
30
0.0000000000
10
-9.2552857082
20
-4.5778189674
30
0.0000000000
10
-9.2448574000
20
-4.5745801449
30
0.0000000000
10
-9.2341608811
20
-4.5725613341
30
0.0000000000
11
-9.2649683246
21
-4.5824610654
31
0.0000000000
11
-9.2341608811
21
-4.5725613341
31
0.0000000000
0
SPLINE
5
24D
100
AcDbEntity
8
0
100
AcDbSpline
62
7
6
CONTINUOUS
70
0
71
3
72
8
73
4
74
2
42
0.0000001000
43
0.0000001000
44
0.0000000001
12
0.0082220509
22
0.0015517913
32
0.0000000000
13
0.0083036036
23
0.0010804786
33
0.0000000000
40
0.0000000000
40
0.0000000000
40
0.0000000000
40
0.0000000000
40
1.0000000000
40
1.0000000000
40
1.0000000000
40
1.0000000000
10
-9.2341608811
20
-4.5725613341
30
0.0000000000
10
-9.2314201975
20
-4.5720440704
30
0.0000000000
10
-9.2286619059
20
-4.5716069000
30
0.0000000000
10
-9.2258940380
20
-4.5712467405
30
0.0000000000
11
-9.2341608811
21
-4.5725613341
31
0.0000000000
11
-9.2258940380
21
-4.5712467405
31
0.0000000000
0
SPLINE
5
24E
100
AcDbEntity
8
0
100
AcDbSpline
62
7
6
CONTINUOUS
70
0
71
3
72
10
73
6
74
4
42
0.0000001000
43
0.0000001000
44
0.0000000001
12
0.1294995836
22
0.0168506998
32
0.0000000000
13
0.1168919977
23
-0.0540590760
33
0.0000000000
40
0.0000000000
40
0.0000000000
40
0.0000000000
40
0.0000000000
40
0.1140273379
40
0.7553419426
40
1.0000000000
40
1.0000000000
40
1.0000000000
40
1.0000000000
10
-9.2258940380
20
-4.5712467405
30
0.0000000000
10
-9.2209718738
20
-4.5706062603
30
0.0000000000
10
-9.1881657746
20
-4.5679768524
30
0.0000000000
10
-9.1455983408
20
-4.5776367624
30
0.0000000000
10
-9.1103870931
20
-4.5921779185
30
0.0000000000
10
-9.1008542367
20
-4.5965865813
30
0.0000000000
11
-9.2258940380
21
-4.5712467405
31
0.0000000000
11
-9.2110818609
21
-4.5700385883
31
0.0000000000
11
-9.1300248234
21
-4.5846031705
31
0.0000000000
11
-9.1008542367
21
-4.5965865813
31
0.0000000000
0
SPLINE
5
24F
100
AcDbEntity
8
0
100
AcDbSpline
62
7
6
CONTINUOUS
70
0
71
3
72
8
73
4
74
2
42
0.0000001000
43
0.0000001000
44
0.0000000001
12
0.0103076986
22
-0.0047670044
32
0.0000000000
13
0.0101591682
23
-0.0050646082
33
0.0000000000
40
0.0000000000
40
0.0000000000
40
0.0000000000
40
0.0000000000
40
1.0000000000
40
1.0000000000
40
1.0000000000
40
1.0000000000
10
-9.1008542367
20
-4.5965865813
30
0.0000000000
10
-9.0974183372
20
-4.5981755828
30
0.0000000000
10
-9.0940071979
20
-4.5998156609
30
0.0000000000
10
-9.0906208085
20
-4.6015038636
30
0.0000000000
11
-9.1008542367
21
-4.5965865813
31
0.0000000000
11
-9.0906208085
21
-4.6015038636
31
0.0000000000
0
SPLINE
5
250
100
AcDbEntity
8
0
100
AcDbSpline
62
7
6
CONTINUOUS
70
0
71
3
72
12
73
8
74
6
42
0.0000001000
43
0.0000001000
44
0.0000000001
12
0.0000000000
22
-0.5133412239
32
0.0000000000
13
-0.4680310168
23
-0.2163953320
33
0.0000000000
40
0.0000000000
40
0.0000000000
40
0.0000000000
40
0.0000000000
40
0.2535655462
40
0.4840588792
40
0.6929500481
40
0.8859943094
40
1.0000000000
40
1.0000000000
40
1.0000000000
40
1.0000000000
10
8.0961859908
20
-17.3442001385
30
0.0000000000
10
8.0961859908
20
-17.3875886878
30
0.0000000000
10
8.0898827331
20
-17.4706562777
30
0.0000000000
10
8.0586257889
20
-17.5858975639
30
0.0000000000
10
8.0064979503
20
-17.6820914185
30
0.0000000000
10
7.9434581131
20
-17.7458576414
30
0.0000000000
10
7.8976820293
20
-17.7726378196
30
0.0000000000
10
7.8798959629
20
-17.7808612527
30
0.0000000000
11
8.0961859908
21
-17.3442001385
31
0.0000000000
11
8.0853205279
21
-17.4739115011
31
0.0000000000
11
8.0531391853
21
-17.5877727891
31
0.0000000000
11
8.0008753591
21
-17.6814065994
31
0.0000000000
11
7.9305361279
21
-17.7512114875
31
0.0000000000
11
7.8798959629
21
-17.7808612527
31
0.0000000000
0
SPLINE
5
251
100
AcDbEntity
8
0
100
AcDbSpline
62
7
6
CONTINUOUS
70
0
71
3
72
15
73
11
74
9
42
0.0000001000
43
0.0000001000
44
0.0000000001
12
1.0529012362
22
-0.5264506181
32
0.0000000000
13
0.0000000000
23
-1.1771793689
33
0.0000000000
40
0.0000000000
40
0.0000000000
40
0.0000000000
40
0.0000000000
40
0.1103204576
40
0.2298794375
40
0.3567631407
40
0.4883331405
40
0.6215375495
40
0.7531878701
40
0.8802255292
40
1.0000000000
40
1.0000000000
40
1.0000000000
40
1.0000000000
10
7.5305867225
20
20.0911948379
30
0.0000000000
10
7.5693055712
20
20.0718354135
30
0.0000000000
10
7.6460501613
20
20.0233866119
30
0.0000000000
10
7.7514449235
20
19.9305503167
30
0.0000000000
10
7.8484906740
20
19.8177954717
30
0.0000000000
10
7.9335563882
20
19.6893457912
30
0.0000000000
10
8.0034979625
20
19.5499912643
30
0.0000000000
10
8.0556953275
20
19.4049304063
30
0.0000000000
10
8.0881947134
20
19.2596247398
30
0.0000000000
10
8.0961859908
20
19.1626790792
30
0.0000000000
10
8.0961859908
20
19.1156804006
30
0.0000000000
11
7.5305867225
21
20.0911948379
31
0.0000000000
11
7.6409314132
21
20.0227150725
31
0.0000000000
11
7.7470367436
21
19.9302484730
31
0.0000000000
11
7.8448250473
21
19.8173444681
31
0.0000000000
11
7.9305363706
21
19.6883411937
31
0.0000000000
11
8.0008755216
21
19.5481971140
31
0.0000000000
11
8.0531392510
21
19.4022996296
31
0.0000000000
11
8.0853205384
21
19.2562571557
31
0.0000000000
11
8.0961859908
21
19.1156804006
31
0.0000000000
0
SPLINE
5
252
100
AcDbEntity
8
0
100
AcDbSpline
62
9
6
CONTINUOUS
70
0
71
3
72
11
73
7
74
5
42
0.0000001000
43
0.0000001000
44
0.0000000001
12
-0.7675880059
22
0.3849236013
32
0.0000000000
13
-0.0484109528
23
0.8535416594
33
0.0000000000
40
0.0000000000
40
0.0000000000
40
0.0000000000
40
0.0000000000
40
0.1943729339
40
0.4355561913
40
0.7024836327
40
1.0000000000
40
1.0000000000
40
1.0000000000
40
1.0000000000
10
-11.6698883680
20
-12.4845472370
30
0.0000000000
10
-11.7196211456
20
-12.4596076604
30
0.0000000000
10
-11.8226723345
20
-12.3867021600
30
0.0000000000
10
-11.9441955382
20
-12.2235982067
30
0.0000000000
10
-12.0264443060
20
-12.0068359580
30
0.0000000000
10
-12.0493322646
20
-11.8463874306
30
0.0000000000
10
-12.0541332815
20
-11.7617398927
30
0.0000000000
11
-11.6698883680
21
-12.4845472370
31
0.0000000000
11
-11.8060798795
21
-12.3889169013
31
0.0000000000
11
-11.9316255162
21
-12.2253536346
31
0.0000000000
11
-12.0155527310
21
-12.0131476096
31
0.0000000000
11
-12.0541332815
21
-11.7617398927
31
0.0000000000
0
SPLINE
5
253
100
AcDbEntity
8
0
100
AcDbSpline
62
9
6
CONTINUOUS
70
0
71
3
72
13
73
9
74
7
42
0.0000001000
43
0.0000001000
44
0.0000000001
12
-0.0166520809
22
0.5626867289
32
0.0000000000
13
0.5433526813
23
-0.1556419938
33
0.0000000000
40
0.0000000000
40
0.0000000000
40
0.0000000000
40
0.0000000000
40
0.2249041810
40
0.4194415283
40
0.5907622397
40
0.7560249962
40
0.9353853975
40
1.0000000000
40
1.0000000000
40
1.0000000000
40
1.0000000000
10
-9.5260766294
20
-4.8509648632
30
0.0000000000
10
-9.5273250036
20
-4.8087813305
30
0.0000000000
10
-9.5218228224
20
-4.7294121307
30
0.0000000000
10
-9.4841688662
20
-4.6232616382
30
0.0000000000
10
-9.4174673506
20
-4.5453154015
30
0.0000000000
10
-9.3255534242
20
-4.5055278776
30
0.0000000000
10
-9.2469281747
20
-4.5072522103
30
0.0000000000
10
-9.2021021633
20
-4.5177457152
30
0.0000000000
10
-9.1903993241
20
-4.5210979637
30
0.0000000000
11
-9.5260766294
21
-4.8509648632
31
0.0000000000
11
-9.5153200294
21
-4.7248166356
31
0.0000000000
11
-9.4762914150
21
-4.6224958779
31
0.0000000000
11
-9.4121231411
21
-4.5504992788
31
0.0000000000
11
-9.3269570321
21
-4.5130604885
31
0.0000000000
11
-9.2259893464
21
-4.5128514114
31
0.0000000000
11
-9.1903993241
21
-4.5210979637
31
0.0000000000
0
SPLINE
5
254
100
AcDbEntity
8
0
100
AcDbSpline
62
9
6
CONTINUOUS
70
0
71
3
72
8
73
4
74
2
42
0.0000001000
43
0.0000001000
44
0.0000000001
12
0.0371480102
22
-0.0106409531
32
0.0000000000
13
0.0359233932
23
-0.0141682966
33
0.0000000000
40
0.0000000000
40
0.0000000000
40
0.0000000000
40
0.0000000000
40
1.0000000000
40
1.0000000000
40
1.0000000000
40
1.0000000000
10
-9.1903993241
20
-4.5210979637
30
0.0000000000
10
-9.1780166540
20
-4.5246449481
30
0.0000000000
10
-9.1658231106
20
-4.5288335923
30
0.0000000000
10
-9.1538486462
20
-4.5335563578
30
0.0000000000
11
-9.1903993241
21
-4.5210979637
31
0.0000000000
11
-9.1538486462
21
-4.5335563578
31
0.0000000000
0
SPLINE
5
255
100
AcDbEntity
8
0
100
AcDbSpline
62
9
6
CONTINUOUS
70
0
71
3
72
8
73
4
74
2
42
0.0000001000
43
0.0000001000
44
0.0000000001
12
0.0382357272
22
-0.0150802882
32
0.0000000000
13
0.0366382353
23
-0.0183218502
33
0.0000000000
40
0.0000000000
40
0.0000000000
40
0.0000000000
40
0.0000000000
40
1.0000000000
40
1.0000000000
40
1.0000000000
40
1.0000000000
10
-9.1538486462
20
-4.5335563578
30
0.0000000000
10
-9.1411034038
20
-4.5385831206
30
0.0000000000
10
-9.1286063517
20
-4.5442149787
30
0.0000000000
10
-9.1163936066
20
-4.5503222621
30
0.0000000000
11
-9.1538486462
21
-4.5335563578
31
0.0000000000
11
-9.1163936066
21
-4.5503222621
31
0.0000000000
0
SPLINE
5
256
100
AcDbEntity
8
0
100
AcDbSpline
62
9
6
CONTINUOUS
70
0
71
3
72
8
73
4
74
2
42
0.0000001000
43
0.0000001000
44
0.0000000001
12
-0.0009045281
22
0.0308125916
32
0.0000000000
13
-0.0009013833
23
0.0308126822
33
0.0000000000
40
0.0000000000
40
0.0000000000
40
0.0000000000
40
0.0000000000
40
1.0000000000
40
1.0000000000
40
1.0000000000
40
1.0000000000
10
-9.5251736737
20
-4.8817775001
30
0.0000000000
10
-9.5254751831
20
-4.8715066363
30
0.0000000000
10
-9.5257761683
20
-4.8612357573
30
0.0000000000
10
-9.5260766294
20
-4.8509648632
30
0.0000000000
11
-9.5251736737
21
-4.8817775001
31
0.0000000000
11
-9.5260766294
21
-4.8509648632
31
0.0000000000
0
SPLINE
5
257
100
AcDbEntity
8
0
100
AcDbSpline
62
9
6
CONTINUOUS
70
0
71
3
72
8
73
4
74
2
42
0.0000001000
43
0.0000001000
44
0.0000000001
12
0.0017210494
22
-0.0443286222
32
0.0000000000
13
-0.0016259226
23
-0.0444376381
33
0.0000000000
40
0.0000000000
40
0.0000000000
40
0.0000000000
40
0.0000000000
40
1.0000000000
40
1.0000000000
40
1.0000000000
40
1.0000000000
10
-0.7911652465
20
-12.1573185665
30
0.0000000000
10
-0.7905915634
20
-12.1720947739
30
0.0000000000
10
-0.7905324533
20
-12.1869219143
30
0.0000000000
10
-0.7910744275
20
-12.2017344603
30
0.0000000000
11
-0.7911652465
21
-12.1573185665
31
0.0000000000
11
-0.7910744275
21
-12.2017344603
31
0.0000000000
0
SPLINE
5
258
100
AcDbEntity
8
0
100
AcDbSpline
62
9
6
CONTINUOUS
70
0
71
3
72
8
73
4
74
2
42
0.0000001000
43
0.0000001000
44
0.0000000001
12
-0.0015318384
22
-0.0418662472
32
0.0000000000
13
-0.0049500743
23
-0.0416241294
33
0.0000000000
40
0.0000000000
40
0.0000000000
40
0.0000000000
40
0.0000000000
40
1.0000000000
40
1.0000000000
40
1.0000000000
40
1.0000000000
10
-0.7910744275
20
-12.2017344603
30
0.0000000000
10
-0.7915850403
20
-12.2156898760
30
0.0000000000
10
-0.7926291863
20
-12.2296323376
30
0.0000000000
10
-0.7942792111
20
-12.2435070474
30
0.0000000000
11
-0.7910744275
21
-12.2017344603
31
0.0000000000
11
-0.7942792111
21
-12.2435070474
31
0.0000000000
0
SPLINE
5
259
100
AcDbEntity
8
0
100
AcDbSpline
62
9
6
CONTINUOUS
70
0
71
3
72
13
73
9
74
7
42
0.0000001000
43
0.0000001000
44
0.0000000001
12
-0.0603984466
22
-0.5078777817
32
0.0000000000
13
-0.4757228446
23
0.1882815140
33
0.0000000000
40
0.0000000000
40
0.0000000000
40
0.0000000000
40
0.0000000000
40
0.0774719759
40
0.2898651970
40
0.4764248959
40
0.6567219408
40
0.8535073263
40
1.0000000000
40
1.0000000000
40
1.0000000000
40
1.0000000000
10
-0.7942792111
20
-12.2435070474
30
0.0000000000
10
-0.7958389401
20
-12.2566224791
30
0.0000000000
10
-0.8037003465
20
-12.3054679992
30
0.0000000000
10
-0.8304841702
20
-12.3832929760
30
0.0000000000
10
-0.8960785873
20
-12.4606881350
30
0.0000000000
10
-0.9872216440
20
-12.4998434370
30
0.0000000000
10
-1.0783290551
20
-12.4973838491
30
0.0000000000
10
-1.1346817429
20
-12.4805033211
30
0.0000000000
10
-1.1579117134
20
-12.4713093669
30
0.0000000000
11
-0.7942792111
21
-12.2435070474
31
0.0000000000
11
-0.8006436479
21
-12.2826254399
31
0.0000000000
11
-0.8383841373
21
-12.3841502142
31
0.0000000000
11
-0.9013856135
21
-12.4554393880
31
0.0000000000
11
-0.9856163142
21
-12.4923044096
31
0.0000000000
11
-1.0859693721
21
-12.4921302515
31
0.0000000000
11
-1.1579117134
21
-12.4713093669
31
0.0000000000
0
SPLINE
5
25A
100
AcDbEntity
8
0
100
AcDbSpline
62
9
6
CONTINUOUS
70
0
71
3
72
8
73
4
74
2
42
0.0000001000
43
0.0000001000
44
0.0000000001
12
-0.0125935399
22
0.0049842693
32
0.0000000000
13
-0.0124296148
23
0.0053602347
33
0.0000000000
40
0.0000000000
40
0.0000000000
40
0.0000000000
40
0.0000000000
40
1.0000000000
40
1.0000000000
40
1.0000000000
40
1.0000000000
10
-1.1579117134
20
-12.4713093669
30
0.0000000000
10
-1.1621095600
20
-12.4696479438
30
0.0000000000
10
-1.1662806835
20
-12.4679215282
30
0.0000000000
10
-1.1704238884
20
-12.4661347833
30
0.0000000000
11
-1.1579117134
21
-12.4713093669
31
0.0000000000
11
-1.1704238884
21
-12.4661347833
31
0.0000000000
0
SPLINE
5
25B
100
AcDbEntity
8
0
100
AcDbSpline
62
9
6
CONTINUOUS
70
0
71
3
72
10
73
6
74
4
42
0.0000001000
43
0.0000001000
44
0.0000000001
12
0.0849166114
22
-2.9531157200
32
0.0000000000
13
0.1135323926
23
-2.9521542450
33
0.0000000000
40
0.0000000000
40
0.0000000000
40
0.0000000000
40
0.0000000000
40
0.3380284831
40
0.6754864403
40
1.0000000000
40
1.0000000000
40
1.0000000000
40
1.0000000000
10
-0.8917620844
20
-9.1681221357
30
0.0000000000
10
-0.8821940067
20
-9.5008678780
30
0.0000000000
10
-0.8619929532
20
-10.1657672023
30
0.0000000000
10
-0.8288731426
20
-11.1499904719
30
0.0000000000
10
-0.8048534691
20
-11.8014446500
30
0.0000000000
10
-0.7925725355
20
-12.1207826777
30
0.0000000000
11
-0.8917620844
21
-9.1681221357
31
0.0000000000
11
-0.8614322415
21
-10.1663112937
31
0.0000000000
11
-0.8278999146
21
-11.1627115244
31
0.0000000000
11
-0.7925725355
21
-12.1207826777
31
0.0000000000
0
SPLINE
5
25C
100
AcDbEntity
8
0
100
AcDbSpline
62
9
6
CONTINUOUS
70
0
71
3
72
8
73
4
74
2
42
0.0000001000
43
0.0000001000
44
0.0000000001
12
0.0014050813
22
-0.0365359749
32
0.0000000000
13
0.0014094969
23
-0.0365358027
33
0.0000000000
40
0.0000000000
40
0.0000000000
40
0.0000000000
40
0.0000000000
40
1.0000000000
40
1.0000000000
40
1.0000000000
40
1.0000000000
10
-0.7925725355
20
-12.1207826777
30
0.0000000000
10
-0.7921041751
20
-12.1329613359
30
0.0000000000
10
-0.7916350788
20
-12.1451399656
30
0.0000000000
10
-0.7911652465
20
-12.1573185665
30
0.0000000000
11
-0.7925725355
21
-12.1207826777
31
0.0000000000
11
-0.7911652465
21
-12.1573185665
31
0.0000000000
0
SPLINE
5
25D
100
AcDbEntity
8
0
100
AcDbSpline
62
9
6
CONTINUOUS
70
0
71
3
72
8
73
4
74
2
42
0.0000001000
43
0.0000001000
44
0.0000000001
12
0.0780506372
22
-0.0389958046
32
0.0000000000
13
0.0712960323
23
-0.0507557041
33
0.0000000000
40
0.0000000000
40
0.0000000000
40
0.0000000000
40
0.0000000000
40
1.0000000000
40
1.0000000000
40
1.0000000000
40
1.0000000000
10
-1.3303229605
20
-8.4433575852
30
0.0000000000
10
-1.3043060815
20
-8.4563561867
30
0.0000000000
10
-1.2793968302
20
-8.4716231153
30
0.0000000000
10
-1.2556314861
20
-8.4885416834
30
0.0000000000
11
-1.3303229605
21
-8.4433575852
31
0.0000000000
11
-1.2556314861
21
-8.4885416834
31
0.0000000000
0
SPLINE
5
25E
100
AcDbEntity
8
0
100
AcDbSpline
62
9
6
CONTINUOUS
70
0
71
3
72
8
73
4
74
2
42
0.0000001000
43
0.0000001000
44
0.0000000001
12
0.0370244334
22
-0.0263577246
32
0.0000000000
13
0.0351582691
23
-0.0287711001
33
0.0000000000
40
0.0000000000
40
0.0000000000
40
0.0000000000
40
0.0000000000
40
1.0000000000
40
1.0000000000
40
1.0000000000
40
1.0000000000
10
-1.2556314861
20
-8.4885416834
30
0.0000000000
10
-1.2432900083
20
-8.4973275916
30
0.0000000000
10
-1.2312570176
20
-8.5065589112
30
0.0000000000
10
-1.2195375945
20
-8.5161492779
30
0.0000000000
11
-1.2556314861
21
-8.4885416834
31
0.0000000000
11
-1.2195375945
21
-8.5161492779
31
0.0000000000
0
SPLINE
5
25F
100
AcDbEntity
8
0
100
AcDbSpline
62
9
6
CONTINUOUS
70
0
71
3
72
11
73
7
74
5
42
0.0000001000
43
0.0000001000
44
0.0000000001
12
0.4713382742
22
-0.3857107025
32
0.0000000000
13
0.1341253904
23
-0.5936856293
33
0.0000000000
40
0.0000000000
40
0.0000000000
40
0.0000000000
40
0.0000000000
40
0.2398476250
40
0.4926648560
40
0.7493432556
40
1.0000000000
40
1.0000000000
40
1.0000000000
40
1.0000000000
10
-1.2195375945
20
-8.5161492779
30
0.0000000000
10
-1.1818544727
20
-8.5469865432
30
0.0000000000
10
-1.1111098424
20
-8.6179537371
30
0.0000000000
10
-1.0225687704
20
-8.7419518126
30
0.0000000000
10
-0.9529885217
20
-8.8799202979
30
0.0000000000
10
-0.9213394970
20
-8.9780762617
30
0.0000000000
10
-0.9101330191
20
-9.0276800307
30
0.0000000000
11
-1.2195375945
21
-8.5161492779
31
0.0000000000
11
-1.1159424932
21
-8.6185875817
31
0.0000000000
11
-1.0263649496
21
-8.7433232827
31
0.0000000000
11
-0.9562230481
21
-8.8825680165
31
0.0000000000
11
-0.9101330191
21
-9.0276800307
31
0.0000000000
0
SPLINE
5
260
100
AcDbEntity
8
0
100
AcDbSpline
62
9
6
CONTINUOUS
70
0
71
3
72
8
73
4
74
2
42
0.0000001000
43
0.0000001000
44
0.0000000001
12
0.0230318853
22
-0.1019471352
32
0.0000000000
13
0.0088761418
23
-0.1040261377
33
0.0000000000
40
0.0000000000
40
0.0000000000
40
0.0000000000
40
0.0000000000
40
1.0000000000
40
1.0000000000
40
1.0000000000
40
1.0000000000
10
-0.9101330191
20
-9.0276800307
30
0.0000000000
10
-0.9024557240
20
-9.0616624091
30
0.0000000000
10
-0.8968576589
20
-9.0961649472
30
0.0000000000
10
-0.8938989450
20
-9.1308403264
30
0.0000000000
11
-0.9101330191
21
-9.0276800307
31
0.0000000000
11
-0.8938989450
21
-9.1308403264
31
0.0000000000
0
SPLINE
5
261
100
AcDbEntity
8
0
100
AcDbSpline
62
9
6
CONTINUOUS
70
0
71
3
72
8
73
4
74
2
42
0.0000001000
43
0.0000001000
44
0.0000000001
12
0.0031768016
22
-0.0372313121
32
0.0000000000
13
0.0010712404
23
-0.0373163835
33
0.0000000000
40
0.0000000000
40
0.0000000000
40
0.0000000000
40
0.0000000000
40
1.0000000000
40
1.0000000000
40
1.0000000000
40
1.0000000000
10
-0.8938989450
20
-9.1308403264
30
0.0000000000
10
-0.8928400111
20
-9.1432507637
30
0.0000000000
10
-0.8921191646
20
-9.1556833412
30
0.0000000000
10
-0.8917620844
20
-9.1681221357
30
0.0000000000
11
-0.8938989450
21
-9.1308403264
31
0.0000000000
11
-0.8917620844
21
-9.1681221357
31
0.0000000000
0
SPLINE
5
262
100
AcDbEntity
8
0
100
AcDbSpline
62
9
6
CONTINUOUS
70
0
71
3
72
8
73
4
74
2
42
0.0000001000
43
0.0000001000
44
0.0000000001
12
-0.0400830886
22
-0.0205096538
32
0.0000000000
13
-0.0438552720
23
-0.0099118502
33
0.0000000000
40
0.0000000000
40
0.0000000000
40
0.0000000000
40
0.0000000000
40
1.0000000000
40
1.0000000000
40
1.0000000000
40
1.0000000000
10
-0.9046997710
20
-12.3443866778
30
0.0000000000
10
-0.9180608005
20
-12.3512232291
30
0.0000000000
10
-0.9323276163
20
-12.3563515431
30
0.0000000000
10
-0.9469460403
20
-12.3596554932
30
0.0000000000
11
-0.9046997710
21
-12.3443866778
31
0.0000000000
11
-0.9469460403
21
-12.3596554932
31
0.0000000000
0
SPLINE
5
263
100
AcDbEntity
8
0
100
AcDbSpline
62
9
6
CONTINUOUS
70
0
71
3
72
10
73
6
74
4
42
0.0000001000
43
0.0000001000
44
0.0000000001
12
0.0206979569
22
-0.3879485967
32
0.0000000000
13
0.3422523913
23
-0.1715938823
33
0.0000000000
40
0.0000000000
40
0.0000000000
40
0.0000000000
40
0.0000000000
40
0.1513653108
40
0.5342677450
40
1.0000000000
40
1.0000000000
40
1.0000000000
40
1.0000000000
10
-12.2879604180
20
-11.4774939298
30
0.0000000000
10
-12.2869161005
20
-11.4970679165
30
0.0000000000
10
-12.2752161303
20
-11.5656106147
30
0.0000000000
10
-12.1994711159
20
-11.6749915088
30
0.0000000000
10
-12.1072659128
20
-11.7351009411
30
0.0000000000
10
-12.0541332534
20
-11.7617398763
30
0.0000000000
11
-12.2879604180
21
-11.4774939298
31
0.0000000000
11
-12.2779774584
21
-11.5350950570
31
0.0000000000
11
-12.2000600233
21
-11.6592713979
31
0.0000000000
11
-12.0541332534
21
-11.7617398763
31
0.0000000000
0
SPLINE
5
264
100
AcDbEntity
8
0
100
AcDbSpline
62
9
6
CONTINUOUS
70
0
71
3
72
11
73
7
74
5
42
0.0000001000
43
0.0000001000
44
0.0000000001
12
-1.9766695921
22
35.2113093400
32
0.0000000000
13
1.8683981437
23
35.2172204538
33
0.0000000000
40
0.0000000000
40
0.0000000000
40
0.0000000000
40
0.0000000000
40
0.2446667664
40
0.4929553626
40
0.7447692551
40
1.0000000000
40
1.0000000000
40
1.0000000000
40
1.0000000000
10
-12.0541332815
20
-11.7617398927
30
0.0000000000
10
-12.2153417339
20
-8.8900608271
30
0.0000000000
10
-12.4559986471
20
-3.0991561891
30
0.0000000000
10
-12.5743349473
20
5.6563059774
30
0.0000000000
10
-12.4526151295
20
14.5358890152
30
0.0000000000
10
-12.2130908315
20
20.4924764893
30
0.0000000000
10
-12.0541332815
20
23.4886489596
30
0.0000000000
11
-12.0541332815
21
-11.7617398927
31
0.0000000000
11
-12.4142418228
21
-3.1406563629
31
0.0000000000
11
-12.5343241053
21
5.6148516102
31
0.0000000000
11
-12.4142418228
21
14.4946968467
31
0.0000000000
11
-12.0541332815
21
23.4886489596
31
0.0000000000
0
SPLINE
5
265
100
AcDbEntity
8
0
100
AcDbSpline
62
9
6
CONTINUOUS
70
0
71
3
72
14
73
10
74
8
42
0.0000001000
43
0.0000001000
44
0.0000000001
12
0.1122265846
22
2.0923518298
32
0.0000000000
13
1.8514979046
23
0.9810639608
33
0.0000000000
40
0.0000000000
40
0.0000000000
40
0.0000000000
40
0.0000000000
40
0.1399196554
40
0.2874436614
40
0.4387751244
40
0.5895439007
40
0.7357155573
40
0.8734481977
40
1.0000000000
40
1.0000000000
40
1.0000000000
40
1.0000000000
10
-12.0541332815
20
23.4886489596
30
0.0000000000
10
-12.0488990465
20
23.5862360086
30
0.0000000000
10
-12.0213768980
20
23.7860313818
30
0.0000000000
10
-11.9371400443
20
24.0815779219
30
0.0000000000
10
-11.8122514926
20
24.3706778812
30
0.0000000000
10
-11.6521337110
20
24.6407288547
30
0.0000000000
10
-11.4636998122
20
24.8800220919
30
0.0000000000
10
-11.2551126030
20
25.0781808752
30
0.0000000000
10
-11.1010002662
20
25.1820654731
30
0.0000000000
10
-11.0228968006
20
25.2234506106
30
0.0000000000
11
-12.0541332815
21
23.4886489596
31
0.0000000000
11
-12.0155506039
21
23.7792811002
31
0.0000000000
11
-11.9316242974
21
24.0767856549
31
0.0000000000
11
-11.8060741088
21
24.3679653754
31
0.0000000000
11
-11.6446494007
21
24.6395242210
31
0.0000000000
11
-11.4544213905
21
24.8795701786
31
0.0000000000
11
-11.2440510297
21
25.0771402027
31
0.0000000000
11
-11.0228968006
21
25.2234506106
31
0.0000000000
0
SPLINE
5
266
100
AcDbEntity
8
0
100
AcDbSpline
62
9
6
CONTINUOUS
70
0
71
3
72
10
73
6
74
4
42
0.0000001000
43
0.0000001000
44
0.0000000001
12
-0.0073989744
22
-0.5139750024
32
0.0000000000
13
-0.4687657497
23
-0.2190887816
33
0.0000000000
40
0.0000000000
40
0.0000000000
40
0.0000000000
40
0.0000000000
40
0.3962932573
40
0.7347128000
40
1.0000000000
40
1.0000000000
40
1.0000000000
40
1.0000000000
10
3.9676182561
20
-19.2509095344
30
0.0000000000
10
3.9666408682
20
-19.3188044771
30
0.0000000000
10
3.9503945131
20
-19.4454641372
30
0.0000000000
10
3.8731357013
20
-19.6033995151
30
0.0000000000
10
3.7887413124
20
-19.6700307918
30
0.0000000000
10
3.7472887947
20
-19.6894046083
30
0.0000000000
11
3.9676182561
21
-19.2509095344
31
0.0000000000
11
3.9373269988
21
-19.4523507080
31
0.0000000000
11
3.8556222401
21
-19.6059262347
31
0.0000000000
11
3.7472887947
21
-19.6894046083
31
0.0000000000
0
SPLINE
5
267
100
AcDbEntity
8
0
100
AcDbSpline
62
9
6
CONTINUOUS
70
0
71
3
72
12
73
8
74
6
42
0.0000001000
43
0.0000001000
44
0.0000000001
12
-1.0074231484
22
-0.5688985476
32
0.0000000000
13
-1.0353779820
23
0.5162745315
33
0.0000000000
40
0.0000000000
40
0.0000000000
40
0.0000000000
40
0.0000000000
40
0.1896346978
40
0.3980581472
40
0.6119013677
40
0.8167710396
40
1.0000000000
40
1.0000000000
40
1.0000000000
40
1.0000000000
10
3.4739531790
20
-18.9242729471
30
0.0000000000
10
3.4102723843
20
-18.9602339151
30
0.0000000000
10
3.2667649278
20
-19.0185914186
30
0.0000000000
10
3.0346059187
20
-19.0661500519
30
0.0000000000
10
2.7917530069
20
-19.0753013098
30
0.0000000000
10
2.5605312078
20
-19.0452337732
30
0.0000000000
10
2.4170927668
20
-18.9972541358
30
0.0000000000
10
2.3538556898
20
-18.9657219872
30
0.0000000000
11
3.4739531790
21
-18.9242729471
31
0.0000000000
11
3.2718323301
21
-19.0096138869
31
0.0000000000
11
3.0358561846
21
-19.0592343067
31
0.0000000000
11
2.7886182296
21
-19.0683833098
31
0.0000000000
11
2.5537902114
21
-19.0361849270
31
0.0000000000
11
2.3538556898
21
-18.9657219872
31
0.0000000000
0
SPLINE
5
268
100
AcDbEntity
8
0
100
AcDbSpline
62
9
6
CONTINUOUS
70
0
71
3
72
11
73
7
74
5
42
0.0000001000
43
0.0000001000
44
0.0000000001
12
0.0494849066
22
-0.8586904629
32
0.0000000000
13
0.7716067082
23
-0.3884542970
33
0.0000000000
40
0.0000000000
40
0.0000000000
40
0.0000000000
40
0.0000000000
40
0.2961935966
40
0.5628437724
40
0.8049821566
40
1.0000000000
40
1.0000000000
40
1.0000000000
40
1.0000000000
10
2.3538442533
20
-18.9657286601
30
0.0000000000
10
2.3587299575
20
-19.0505081990
30
0.0000000000
10
2.3820785202
20
-19.2114553989
30
0.0000000000
10
2.4658470479
20
-19.4289885347
30
0.0000000000
10
2.5892780416
20
-19.5926690068
30
0.0000000000
10
2.6934216104
20
-19.6660280082
30
0.0000000000
10
2.7435806358
20
-19.6912798479
30
0.0000000000
11
2.3538442533
21
-18.9657286601
31
0.0000000000
11
2.3930583457
21
-19.2174531479
31
0.0000000000
11
2.4783637815
21
-19.4303482835
31
0.0000000000
11
2.6059716963
21
-19.5949426892
31
0.0000000000
11
2.7435806358
21
-19.6912798479
31
0.0000000000
0
SPLINE
5
269
100
AcDbEntity
8
0
100
AcDbSpline
62
9
6
CONTINUOUS
70
0
71
3
72
14
73
10
74
8
42
0.0000001000
43
0.0000001000
44
0.0000000001
12
0.0420297695
22
-0.7219295380
32
0.0000000000
13
0.6565808732
23
0.3030681711
33
0.0000000000
40
0.0000000000
40
0.0000000000
40
0.0000000000
40
0.0000000000
40
0.1640196651
40
0.3126318764
40
0.4479758545
40
0.5762949150
40
0.7063578511
40
0.8460857374
40
1.0000000000
40
1.0000000000
40
1.0000000000
40
1.0000000000
10
3.4739531791
20
-18.9242729471
30
0.0000000000
10
3.4762510820
20
-18.9637431608
30
0.0000000000
10
3.4872304261
20
-19.0388987605
30
0.0000000000
10
3.5266429314
20
-19.1406075815
30
0.0000000000
10
3.5876376897
20
-19.2210612024
30
0.0000000000
10
3.6681581020
20
-19.2748340777
30
0.0000000000
10
3.7632019595
20
-19.2979011482
30
0.0000000000
10
3.8663940421
20
-19.2899458742
30
0.0000000000
10
3.9339325358
20
-19.2664583725
30
0.0000000000
10
3.9676182561
20
-19.2509095344
30
0.0000000000
11
3.4739531791
21
-18.9242729471
31
0.0000000000
11
3.4923202057
21
-19.0414533869
31
0.0000000000
11
3.5324744283
21
-19.1411392432
31
0.0000000000
11
3.5926066537
21
-19.2183628592
31
0.0000000000
11
3.6699827577
21
-19.2695849093
31
0.0000000000
11
3.7611961167
21
-19.2925308559
31
0.0000000000
11
3.8620384552
21
-19.2861423698
31
0.0000000000
11
3.9676182561
21
-19.2509095344
31
0.0000000000
0
SPLINE
5
26A
100
AcDbEntity
8
0
100
AcDbSpline
62
9
6
CONTINUOUS
70
0
71
3
72
12
73
8
74
6
42
0.0000001000
43
0.0000001000
44
0.0000000001
12
-1.0650832573
22
-0.4270667391
32
0.0000000000
13
-1.0257402615
23
0.5144368382
33
0.0000000000
40
0.0000000000
40
0.0000000000
40
0.0000000000
40
0.0000000000
40
0.1829157384
40
0.3895878537
40
0.6052825840
40
0.8137679916
40
1.0000000000
40
1.0000000000
40
1.0000000000
40
1.0000000000
10
3.4739531791
20
16.2321148683
30
0.0000000000
10
3.4090130156
20
16.2060757923
30
0.0000000000
10
3.2637582364
20
16.1678361042
30
0.0000000000
10
3.0325520300
20
16.1460910010
30
0.0000000000
10
2.7906659506
20
16.1575084996
30
0.0000000000
10
2.5605666433
20
16.2010458097
30
0.0000000000
10
2.4175194957
20
16.2527253317
30
0.0000000000
10
2.3538442727
20
16.2846602003
30
0.0000000000
11
3.4739531791
21
16.2321148683
31
0.0000000000
11
3.2718307980
21
16.1755121488
31
0.0000000000
11
3.0358521749
21
16.1518785213
31
0.0000000000
11
2.7886113492
21
16.1634768140
31
0.0000000000
11
2.5537806725
21
16.2091965354
31
0.0000000000
11
2.3538442727
21
16.2846602003
31
0.0000000000
0
SPLINE
5
26B
100
AcDbEntity
8
0
100
AcDbSpline
62
9
6
CONTINUOUS
70
0
71
3
72
11
73
7
74
5
42
0.0000001000
43
0.0000001000
44
0.0000000001
12
-1.9362859705
22
-35.2147338484
32
0.0000000000
13
2.0445204672
23
-35.2086156989
33
0.0000000000
40
0.0000000000
40
0.0000000000
40
0.0000000000
40
0.0000000000
40
0.2550561976
40
0.5068030150
40
0.7551453129
40
1.0000000000
40
1.0000000000
40
1.0000000000
40
1.0000000000
10
2.3538442533
20
16.2846601922
30
0.0000000000
10
2.1892236743
20
13.2907481538
30
0.0000000000
10
1.9411884869
20
7.3370930714
30
0.0000000000
10
1.8152076101
20
-1.5405932909
30
0.0000000000
10
1.9378049982
20
-10.2984181383
30
0.0000000000
10
2.1869741136
20
-16.0920638001
30
0.0000000000
10
2.3538442533
20
-18.9657286601
30
0.0000000000
11
2.3538442533
21
16.2846601922
31
0.0000000000
11
1.9809756662
21
7.2970881023
31
0.0000000000
11
1.8566384018
21
-1.5806296433
31
0.0000000000
11
1.9809756659
21
-10.3382651073
31
0.0000000000
11
2.3538442533
21
-18.9657286601
31
0.0000000000
0
SPLINE
5
26C
100
AcDbEntity
8
0
100
AcDbSpline
62
9
6
CONTINUOUS
70
0
71
3
72
11
73
7
74
5
42
0.0000001000
43
0.0000001000
44
0.0000000001
12
-1.9312080248
22
-35.1208247934
32
0.0000000000
13
2.0391528802
23
-35.1147227546
33
0.0000000000
40
0.0000000000
40
0.0000000000
40
0.0000000000
40
0.0000000000
40
0.2550555294
40
0.5068029179
40
0.7551459274
40
1.0000000000
40
1.0000000000
40
1.0000000000
40
1.0000000000
10
3.4739531791
20
16.2321148683
30
0.0000000000
10
3.3097647507
20
13.2461946818
30
0.0000000000
10
3.0623787300
20
7.3084173219
30
0.0000000000
10
2.9367282285
20
-1.5456028528
30
0.0000000000
10
3.0590045928
20
-10.2800817714
30
0.0000000000
10
3.3075215499
20
-16.0582786551
30
0.0000000000
10
3.4739531791
20
-18.9242729471
30
0.0000000000
11
3.4739531791
21
16.2321148683
31
0.0000000000
11
3.1020623135
21
7.2685334422
31
0.0000000000
11
2.9780505231
21
-1.5855307973
31
0.0000000000
11
3.1020627506
21
-10.3198379029
31
0.0000000000
11
3.4739531791
21
-18.9242729471
31
0.0000000000
0
SPLINE
5
26D
100
AcDbEntity
8
0
100
AcDbSpline
62
9
6
CONTINUOUS
70
0
71
3
72
12
73
8
74
6
42
0.0000001000
43
0.0000001000
44
0.0000000001
12
-0.0171191063
22
1.1726566175
32
0.0000000000
13
-1.0413034513
23
0.5395402937
33
0.0000000000
40
0.0000000000
40
0.0000000000
40
0.0000000000
40
0.0000000000
40
0.1949325932
40
0.4051292105
40
0.6178337893
40
0.8197632545
40
1.0000000000
40
1.0000000000
40
1.0000000000
40
1.0000000000
10
3.9676182561
20
17.0354782791
30
0.0000000000
10
3.9665058989
20
17.1116746109
30
0.0000000000
10
3.9434940252
20
17.2699652776
30
0.0000000000
10
3.8620694744
20
17.4986805832
30
0.0000000000
10
3.7391954850
20
17.7114757630
30
0.0000000000
10
3.5863623880
20
17.8885448811
30
0.0000000000
10
3.4645793714
20
17.9785777218
30
0.0000000000
10
3.4020189897
20
18.0109927173
30
0.0000000000
11
3.9676182561
21
17.0354782791
31
0.0000000000
11
3.9373275129
21
17.2620760190
31
0.0000000000
11
3.8556236147
21
17.4946571434
31
0.0000000000
11
3.7305004999
21
17.7104637855
31
0.0000000000
11
3.5742010016
21
17.8883788746
31
0.0000000000
11
3.4020189897
21
18.0109927173
31
0.0000000000
0
SPLINE
5
26E
100
AcDbEntity
8
0
100
AcDbSpline
62
9
6
CONTINUOUS
70
0
71
3
72
14
73
10
74
8
42
0.0000001000
43
0.0000001000
44
0.0000000001
12
-1.8675149352
22
-0.9584305667
32
0.0000000000
13
-0.1143294016
23
-2.0959794780
33
0.0000000000
40
0.0000000000
40
0.0000000000
40
0.0000000000
40
0.0000000000
40
0.1273033230
40
0.2654379246
40
0.4116997995
40
0.5623093699
40
0.7133133728
40
0.8604388971
40
1.0000000000
40
1.0000000000
40
1.0000000000
40
1.0000000000
10
3.4020189878
20
18.0109927164
30
0.0000000000
10
3.3227720354
20
17.9703222510
30
0.0000000000
10
3.1663173536
20
17.8678926086
30
0.0000000000
10
2.9542073678
20
17.6714359679
30
0.0000000000
10
2.7625937301
20
17.4336534847
30
0.0000000000
10
2.5997785289
20
17.1648596847
30
0.0000000000
10
2.4727852158
20
16.8767096765
30
0.0000000000
10
2.3871309680
20
16.5817586686
30
0.0000000000
10
2.3591628991
20
16.3821659280
30
0.0000000000
10
2.3538442533
20
16.2846601922
30
0.0000000000
11
3.4020189878
21
18.0109927164
31
0.0000000000
11
3.1772327155
21
17.8664983301
31
0.0000000000
11
2.9634078444
21
17.6706555611
31
0.0000000000
11
2.7700543512
21
17.4321723450
31
0.0000000000
11
2.6059780937
21
17.1619392742
31
0.0000000000
11
2.4783650202
21
16.8717909961
31
0.0000000000
11
2.3930605536
21
16.5749755215
31
0.0000000000
11
2.3538442533
21
16.2846601922
31
0.0000000000
0
SPLINE
5
26F
100
AcDbEntity
8
0
100
AcDbSpline
62
9
6
CONTINUOUS
70
0
71
3
72
14
73
10
74
8
42
0.0000001000
43
0.0000001000
44
0.0000000001
12
-0.8756612627
22
-0.4413826525
32
0.0000000000
13
-0.0539993343
23
-0.9791247953
33
0.0000000000
40
0.0000000000
40
0.0000000000
40
0.0000000000
40
0.0000000000
40
0.1272791177
40
0.2657487153
40
0.4122209585
40
0.5629537202
40
0.7139923827
40
0.8610524252
40
1.0000000000
40
1.0000000000
40
1.0000000000
40
1.0000000000
10
3.9676182561
20
17.0354782791
30
0.0000000000
10
3.9304671251
20
17.0167520142
30
0.0000000000
10
3.8569122700
20
16.9694385253
30
0.0000000000
10
3.7569974946
20
16.8782953773
30
0.0000000000
10
3.6665998388
20
16.7676394251
30
0.0000000000
10
3.5897871427
20
16.6423762346
30
0.0000000000
10
3.5298981448
20
16.5079707859
30
0.0000000000
10
3.4895838282
20
16.3704773285
30
0.0000000000
10
3.4764542046
20
16.2774638735
30
0.0000000000
10
3.4739531791
20
16.2321148683
30
0.0000000000
11
3.9676182561
21
17.0354782791
31
0.0000000000
11
3.8621067400
21
16.9688056779
31
0.0000000000
11
3.7612851281
21
16.8778519439
31
0.0000000000
11
3.6700915938
21
16.7668832683
31
0.0000000000
11
3.5926953537
21
16.6409556907
31
0.0000000000
11
3.5325194597
21
16.5056206914
31
0.0000000000
11
3.4923392490
21
16.3671224202
31
0.0000000000
11
3.4739531791
21
16.2321148683
31
0.0000000000
0
SPLINE
5
270
100
AcDbEntity
8
0
100
AcDbSpline
62
9
6
CONTINUOUS
70
0
71
3
72
10
73
6
74
4
42
0.0000001000
43
0.0000001000
44
0.0000000001
12
-0.0162074258
22
-0.3866233409
32
0.0000000000
13
0.3400059876
23
-0.1694836886
33
0.0000000000
40
0.0000000000
40
0.0000000000
40
0.0000000000
40
0.0000000000
40
0.1818564460
40
0.5380878124
40
1.0000000000
40
1.0000000000
40
1.0000000000
40
1.0000000000
10
-12.2877760333
20
23.7660464279
30
0.0000000000
10
-12.2887585083
20
23.7426097790
30
0.0000000000
10
-12.2787115315
20
23.6722025256
30
0.0000000000
10
-12.1950072252
20
23.5698929295
30
0.0000000000
10
-12.1064768521
20
23.5147475684
30
0.0000000000
10
-12.0541258822
20
23.4886520413
30
0.0000000000
11
-12.2877760333
21
23.7660464279
31
0.0000000000
11
-12.2779703798
21
23.6967729508
31
0.0000000000
11
-12.2000523090
21
23.5861193855
31
0.0000000000
11
-12.0541258822
21
23.4886520413
31
0.0000000000
0
SPLINE
5
271
100
AcDbEntity
8
0
100
AcDbSpline
62
9
6
CONTINUOUS
70
0
71
3
72
10
73
6
74
4
42
0.0000001000
43
0.0000001000
44
0.0000000001
12
0.3381206716
22
0.1847641469
32
0.0000000000
13
0.3439604170
23
-0.1659550153
33
0.0000000000
40
0.0000000000
40
0.0000000000
40
0.0000000000
40
0.0000000000
40
0.0963608281
40
0.5160580916
40
1.0000000000
40
1.0000000000
40
1.0000000000
40
1.0000000000
10
-11.3927520486
20
25.2395990205
30
0.0000000000
10
-11.3818915193
20
25.2455336959
30
0.0000000000
10
-11.3218928190
20
25.2737348587
30
0.0000000000
10
-11.1901992037
20
25.2869174503
30
0.0000000000
10
-11.0783824208
20
25.2502214728
30
0.0000000000
10
-11.0228968006
20
25.2234506106
30
0.0000000000
11
-11.3927520486
21
25.2395990205
31
0.0000000000
11
-11.3592073983
21
25.2553193352
31
0.0000000000
11
-11.2002101045
21
25.2755849593
31
0.0000000000
11
-11.0228968006
21
25.2234506106
31
0.0000000000
0
SPLINE
5
272
100
AcDbEntity
8
0
100
AcDbSpline
62
9
6
CONTINUOUS
70
0
71
3
72
9
73
5
74
3
42
0.0000001000
43
0.0000001000
44
0.0000000001
12
0.0345658101
22
0.0325912827
32
0.0000000000
13
0.0421112612
23
0.0222155275
33
0.0000000000
40
0.0000000000
40
0.0000000000
40
0.0000000000
40
0.0000000000
40
0.4594538688
40
1.0000000000
40
1.0000000000
40
1.0000000000
40
1.0000000000
10
-9.3091966588
20
-4.6129749014
30
0.0000000000
10
-9.3039028604
20
-4.6079835044
30
0.0000000000
10
-9.2917509178
20
-4.5978077772
30
0.0000000000
10
-9.2782593477
20
-4.5894031307
30
0.0000000000
10
-9.2706716546
20
-4.5854002916
30
0.0000000000
11
-9.3091966588
21
-4.6129749014
31
0.0000000000
11
-9.2924535538
21
-4.5990068213
31
0.0000000000
11
-9.2706716546
21
-4.5854002916
31
0.0000000000
0
SPLINE
5
273
100
AcDbEntity
8
0
100
AcDbSpline
62
9
6
CONTINUOUS
70
0
71
3
72
8
73
4
74
2
42
0.0000001000
43
0.0000001000
44
0.0000000001
12
0.0056923273
22
0.0030029510
32
0.0000000000
13
0.0057984373
23
0.0027991745
33
0.0000000000
40
0.0000000000
40
0.0000000000
40
0.0000000000
40
0.0000000000
40
1.0000000000
40
1.0000000000
40
1.0000000000
40
1.0000000000
10
-9.2706716546
20
-4.5854002916
30
0.0000000000
10
-9.2687742122
20
-4.5843993079
30
0.0000000000
10
-9.2668583298
20
-4.5834321090
30
0.0000000000
10
-9.2649255174
20
-4.5824990508
30
0.0000000000
11
-9.2706716546
21
-4.5854002916
31
0.0000000000
11
-9.2649255174
21
-4.5824990508
31
0.0000000000
0
SPLINE
5
274
100
AcDbEntity
8
0
100
AcDbSpline
62
9
6
CONTINUOUS
70
0
71
3
72
8
73
4
74
2
42
0.0000001000
43
0.0000001000
44
0.0000000001
12
0.0068467334
22
-0.0034217825
32
0.0000000000
13
0.0070796753
23
-0.0029242463
33
0.0000000000
40
0.0000000000
40
0.0000000000
40
0.0000000000
40
0.0000000000
40
1.0000000000
40
1.0000000000
40
1.0000000000
40
1.0000000000
10
-9.5260739037
20
-4.8509633834
30
0.0000000000
10
-9.5237916593
20
-4.8521039776
30
0.0000000000
10
-9.5214672963
20
-4.8531589349
30
0.0000000000
10
-9.5191074046
20
-4.8541336837
30
0.0000000000
11
-9.5260739037
21
-4.8509633834
31
0.0000000000
11
-9.5191074046
21
-4.8541336837
31
0.0000000000
0
SPLINE
5
275
100
AcDbEntity
8
0
100
AcDbSpline
62
9
6
CONTINUOUS
70
0
71
3
72
9
73
5
74
3
42
0.0000001000
43
0.0000001000
44
0.0000000001
12
0.0016108253
22
-0.0589590220
32
0.0000000000
13
0.0532127128
23
-0.0283204298
33
0.0000000000
40
0.0000000000
40
0.0000000000
40
0.0000000000
40
0.0000000000
40
0.6472160586
40
1.0000000000
40
1.0000000000
40
1.0000000000
40
1.0000000000
10
-9.1163936066
20
-4.5503222621
30
0.0000000000
10
-9.1160460893
20
-4.5630420041
30
0.0000000000
10
-9.1123535738
20
-4.5838039695
30
0.0000000000
10
-9.0967395960
20
-4.5979117196
30
0.0000000000
10
-9.0904820658
20
-4.6012420506
30
0.0000000000
11
-9.1163936066
21
-4.5503222621
31
0.0000000000
11
-9.1062726137
21
-4.5871295838
31
0.0000000000
11
-9.0904820658
21
-4.6012420506
31
0.0000000000
0
SPLINE
5
276
100
AcDbEntity
8
0
100
AcDbSpline
62
9
6
CONTINUOUS
70
0
71
3
72
9
73
5
74
3
42
0.0000001000
43
0.0000001000
44
0.0000000001
12
0.0016158603
22
-0.0591433593
32
0.0000000000
13
0.0534921621
23
-0.0281593104
33
0.0000000000
40
0.0000000000
40
0.0000000000
40
0.0000000000
40
0.0000000000
40
0.6452281338
40
1.0000000000
40
1.0000000000
40
1.0000000000
40
1.0000000000
10
-1.3303229605
20
-8.4433575852
30
0.0000000000
10
-1.3299754277
20
-8.4560779050
30
0.0000000000
10
-1.3262711516
20
-8.4769050230
30
0.0000000000
10
-1.3105706763
20
-8.4910354586
30
0.0000000000
10
-1.3042448382
20
-8.4943655023
30
0.0000000000
11
-1.3303229605
21
-8.4433575852
31
0.0000000000
11
-1.3202009716
21
-8.4801664315
31
0.0000000000
11
-1.3042448382
21
-8.4943655023
31
0.0000000000
0
SPLINE
5
277
100
AcDbEntity
8
0
100
AcDbSpline
62
9
6
CONTINUOUS
70
0
71
3
72
9
73
5
74
3
42
0.0000001000
43
0.0000001000
44
0.0000000001
12
-0.0422544402
22
0.0211425625
32
0.0000000000
13
-0.0011485331
23
0.0490273974
33
0.0000000000
40
0.0000000000
40
0.0000000000
40
0.0000000000
40
0.0000000000
40
0.7273109022
40
1.0000000000
40
1.0000000000
40
1.0000000000
40
1.0000000000
10
-0.8917620844
20
-9.1681221356
30
0.0000000000
10
-0.9020061227
20
-9.1629963969
30
0.0000000000
10
-0.9168526437
20
-9.1532971577
30
0.0000000000
10
-0.9203041597
20
-9.1370735132
30
0.0000000000
10
-0.9204085572
20
-9.1326171010
30
0.0000000000
11
-0.8917620844
21
-9.1681221356
31
0.0000000000
11
-0.9175744531
21
-9.1454363847
31
0.0000000000
11
-0.9204085572
21
-9.1326171010
31
0.0000000000
0
SPLINE
5
278
100
AcDbEntity
8
0
100
AcDbSpline
62
9
6
CONTINUOUS
70
0
71
3
72
9
73
5
74
3
42
0.0000001000
43
0.0000001000
44
0.0000000001
12
-0.0422296530
22
0.0211294273
32
0.0000000000
13
-0.0015640005
23
0.0489443904
33
0.0000000000
40
0.0000000000
40
0.0000000000
40
0.0000000000
40
0.0000000000
40
0.7298244161
40
1.0000000000
40
1.0000000000
40
1.0000000000
40
1.0000000000
10
-0.7911625094
20
-12.1573170413
30
0.0000000000
10
-0.8014359201
20
-12.1521767839
30
0.0000000000
10
-0.8161973317
20
-12.1423841634
30
0.0000000000
10
-0.8197009917
20
-12.1262313475
30
0.0000000000
10
-0.8198418433
20
-12.1218234877
30
0.0000000000
11
-0.7911625094
21
-12.1573170413
31
0.0000000000
11
-0.8169860271
21
-12.1344952789
31
0.0000000000
11
-0.8198418433
21
-12.1218234877
31
0.0000000000
0
ENDSEC
0
SECTION
2
OBJECTS
0
DICTIONARY
5
279
100
AcDbDictionary
3
ACAD_GROUP
350
27A
3
ACAD_MLINESTYLE
350
27B
0
DICTIONARY
5
27A
102
{ACAD_REACTORS
330
279
102
}
100
AcDbDictionary
0
DICTIONARY
5
27B
102
{ACAD_REACTORS
330
279
102
}
100
AcDbDictionary
3
STANDARD
350
27C
0
MLINESTYLE
5
27C
102
{ACAD_REACTORS
330
27B
102
}
100
AcDbMlineStyle
2
STANDARD
70
0
3

62
256
51
90.0
52
90.0
71
2
49
0.5
62
256
6
BYLAYER
49
-0.5
62
256
6
BYLAYER
0
ENDSEC
0
EOF
