0
SECTION
2
HEADER
9
$ACADVER
1
AC1015
9
$DWGCODEPAGE
3
ANSI_1252
9
$EXTMAX
10
431.8000000000
20
558.8000000000
30
0.0000000000
9
$EXTMIN
10
0.0000000000
20
0.0000000000
30
0.0000000000
9
$LIMMIN
10
0.0000000000
20
0.0000000000
9
$LIMMAX
10
431.8000000000
20
558.8000000000
9
$VIEWCTR
10
215.9000000000
20
279.4000000000
9
$VIEWSIZE
40
558.8000000000
9
$CLAYER
8
0
9
$LTSCALE
40
36.4254814815
9
$CELTYPE
6
BYLAYER
9
$DIMSCALE
40
1
9
$DIMASZ
40
3.0000000000
9
$DIMEXO
40
4.1392592593
9
$DIMDLI
40
25.1666962963
9
$DIMEXE
40
11.9210666667
9
$DIMCEN
40
5.9605333333
9
$DIMLFAC
40
1.0000000000
9
$DIMBLK
1
_FILLED
9
$DIMTXT
40
3.0000000000
9
$DIMTOL
70
1
9
$DIMLIM
70
0
9
$DIMTFAC
40
1.0000000000
9
$DIMTP
40
0.0100000000
9
$DIMTM
40
0.0100000000
9
$PDMODE
70
3
9
$PDSIZE
40
3.0000000000
9
$HANDSEED
5
7E8
9
$MEASUREMENT
70
1
9
$INSUNITS
70
4
0
ENDSEC
0
SECTION
2
CLASSES
0
CLASS
1
ACDBDICTIONARYWDFLT
2
AcDbDictionaryWithDefault
3
AutoCAD 2000
90
0
280
0
281
0
0
CLASS
1
ACDBPLACEHOLDER
2
AcDbPlaceHolder
3
AutoCAD 2000
90
0
280
0
281
0
0
CLASS
1
LAYOUT
2
AcDbLayout
3
AutoCAD 2000
90
0
280
0
281
0
0
ENDSEC
0
SECTION
2
TABLES
0
TABLE
2
VPORT
5
8
100
AcDbSymbolTable
70
2
0
VPORT
5
1F4
100
AcDbSymbolTableRecord
100
AcDbViewportTableRecord
2
*ACTIVE
70
0
10
0.0
20
0.0
11
1.0
21
1.0
12
215.9000000000
22
279.4000000000
13
0.0
23
0.0
14
1.0
24
1.0
15
0.0
25
0.0
16
0.0
26
0.0
36
1.0
17
0.0
27
0.0
37
0.0
40
558.8000000000
41
0.7727272727
42
50.0
43
0.0
44
0.0
50
0.0
51
0.0
71
0
72
100
73
1
74
1
75
0
76
0
77
0
78
0
0
ENDTAB
0
TABLE
2
LTYPE
5
5
100
AcDbSymbolTable
70
6
0
LTYPE
5
14
100
AcDbSymbolTableRecord
100
AcDbLinetypeTableRecord
2
BYBLOCK
70
0
3

72
65
73
0
40
0.0
0
LTYPE
5
15
100
AcDbSymbolTableRecord
100
AcDbLinetypeTableRecord
2
BYLAYER
70
0
3

72
65
73
0
40
0.0
0
LTYPE
5
16
100
AcDbSymbolTableRecord
100
AcDbLinetypeTableRecord
2
CONTINUOUS
70
64
3
Solid line
72
65
73
0
40
0
0
LTYPE
5
1F5
100
AcDbSymbolTableRecord
100
AcDbLinetypeTableRecord
2
CENTER
70
64
3
____ _ ____ _ ____ _ ____ _ ____ _ ____ _ ____
72
65
73
4
40
0.6
49
0.375
74
0
49
-0.075
74
0
49
0.075
74
0
49
-0.075
74
0
0
LTYPE
5
1F6
100
AcDbSymbolTableRecord
100
AcDbLinetypeTableRecord
2
HIDDEN
70
64
3
- - - - - - - - - - - - - - - - - - - -
72
65
73
2
40
0.2
49
0.1
74
0
49
-0.1
74
0
0
LTYPE
5
1F7
100
AcDbSymbolTableRecord
100
AcDbLinetypeTableRecord
2
PHANTOM
70
64
3
_____ _ _ _____ _ _ _____ _ _ _____
72
65
73
6
40
0.8
49
0.45
74
0
49
-0.05
74
0
49
0.1
74
0
49
-0.05
74
0
49
0.1
74
0
49
-0.05
74
0
0
LTYPE
5
1F8
100
AcDbSymbolTableRecord
100
AcDbLinetypeTableRecord
2
DOT
70
64
3
. . . . . . . . . . . . . . . . . . . .
72
65
73
2
40
0.2
49
0.1
74
0
49
-0.1
74
0
0
LTYPE
5
1F9
100
AcDbSymbolTableRecord
100
AcDbLinetypeTableRecord
2
DASHED
70
64
3
- - - - - - - - - - - - - - - - - - - -
72
65
73
2
40
0.2
49
0.1
74
0
49
-0.1
74
0
0
ENDTAB
0
TABLE
2
LAYER
5
2
100
AcDbSymbolTable
70
36
0
LAYER
5
10
100
AcDbSymbolTableRecord
100
AcDbLayerTableRecord
2
0
70
0
62
7
6
CONTINUOUS
370
-3
390
F
0
LAYER
5
1FA
100
AcDbSymbolTableRecord
100
AcDbLayerTableRecord
2
DEFAULT_1
70
0
62
7
6
CENTER
370
-3
390
F
0
LAYER
5
1FB
100
AcDbSymbolTableRecord
100
AcDbLayerTableRecord
2
DEFAULT_2
70
0
62
9
6
HIDDEN
370
-3
390
F
0
LAYER
5
1FC
100
AcDbSymbolTableRecord
100
AcDbLayerTableRecord
2
DEFAULT_3
70
0
62
7
6
PHANTOM
370
-3
390
F
0
LAYER
5
1FD
100
AcDbSymbolTableRecord
100
AcDbLayerTableRecord
2
_2D_DELETED_OBJS
70
0
62
7
6
CONTINUOUS
370
-3
390
F
0
LAYER
5
1FE
100
AcDbSymbolTableRecord
100
AcDbLayerTableRecord
2
_BLACK_HOLE
70
0
62
7
6
CONTINUOUS
370
-3
390
F
0
LAYER
5
1FF
100
AcDbSymbolTableRecord
100
AcDbLayerTableRecord
2
0
70
0
62
7
6
CONTINUOUS
370
-3
390
F
0
LAYER
5
200
100
AcDbSymbolTableRecord
100
AcDbLayerTableRecord
2
ASSI
70
0
62
7
6
CONTINUOUS
370
-3
390
F
0
LAYER
5
201
100
AcDbSymbolTableRecord
100
AcDbLayerTableRecord
2
COORDINATE
70
0
62
7
6
CONTINUOUS
370
-3
390
F
0
LAYER
5
202
100
AcDbSymbolTableRecord
100
AcDbLayerTableRecord
2
COORD_ORIGINE
70
0
62
7
6
CONTINUOUS
370
-3
390
F
0
LAYER
5
203
100
AcDbSymbolTableRecord
100
AcDbLayerTableRecord
2
CURVE
70
0
62
7
6
CONTINUOUS
370
-3
390
F
0
LAYER
5
204
100
AcDbSymbolTableRecord
100
AcDbLayerTableRecord
2
DEFAULT_1
70
0
62
7
6
CONTINUOUS
370
-3
390
F
0
LAYER
5
205
100
AcDbSymbolTableRecord
100
AcDbLayerTableRecord
2
DEFAULT_2
70
0
62
7
6
CONTINUOUS
370
-3
390
F
0
LAYER
5
206
100
AcDbSymbolTableRecord
100
AcDbLayerTableRecord
2
DEFAULT_3
70
0
62
7
6
CONTINUOUS
370
-3
390
F
0
LAYER
5
207
100
AcDbSymbolTableRecord
100
AcDbLayerTableRecord
2
DRAFT
70
0
62
7
6
CONTINUOUS
370
-3
390
F
0
LAYER
5
208
100
AcDbSymbolTableRecord
100
AcDbLayerTableRecord
2
IMPORT
70
0
62
7
6
CONTINUOUS
370
-3
390
F
0
LAYER
5
209
100
AcDbSymbolTableRecord
100
AcDbLayerTableRecord
2
NOTE
70
0
62
7
6
CONTINUOUS
370
-3
390
F
0
LAYER
5
20A
100
AcDbSymbolTableRecord
100
AcDbLayerTableRecord
2
PIANI
70
0
62
7
6
CONTINUOUS
370
-3
390
F
0
LAYER
5
20B
100
AcDbSymbolTableRecord
100
AcDbLayerTableRecord
2
PIANI_ORIGINE
70
0
62
7
6
CONTINUOUS
370
-3
390
F
0
LAYER
5
20C
100
AcDbSymbolTableRecord
100
AcDbLayerTableRecord
2
PUNTI
70
0
62
7
6
CONTINUOUS
370
-3
390
F
0
LAYER
5
20D
100
AcDbSymbolTableRecord
100
AcDbLayerTableRecord
2
RACCORDO
70
0
62
7
6
CONTINUOUS
370
-3
390
F
0
LAYER
5
20E
100
AcDbSymbolTableRecord
100
AcDbLayerTableRecord
2
SMUSSO
70
0
62
7
6
CONTINUOUS
370
-3
390
F
0
LAYER
5
20F
100
AcDbSymbolTableRecord
100
AcDbLayerTableRecord
2
SNAPLINE
70
0
62
7
6
CONTINUOUS
370
-3
390
F
0
LAYER
5
210
100
AcDbSymbolTableRecord
100
AcDbLayerTableRecord
2
SUPERFICI
70
0
62
7
6
CONTINUOUS
370
-3
390
F
0
LAYER
5
211
100
AcDbSymbolTableRecord
100
AcDbLayerTableRecord
2
TRASH
70
0
62
7
6
CONTINUOUS
370
-3
390
F
0
LAYER
5
212
100
AcDbSymbolTableRecord
100
AcDbLayerTableRecord
2
_2D_DELETED_OBJS
70
0
62
7
6
CONTINUOUS
370
-3
390
F
0
LAYER
5
213
100
AcDbSymbolTableRecord
100
AcDbLayerTableRecord
2
_BLACK_HOLE
70
0
62
7
6
CONTINUOUS
370
-3
390
F
0
ENDTAB
0
TABLE
2
STYLE
5
3
100
AcDbSymbolTable
70
1
0
STYLE
5
11
100
AcDbSymbolTableRecord
100
AcDbTextStyleTableRecord
2
STANDARD
70
0
40
0.0
41
0.8000000000
50
0.0
71
0
42
0.2
3
txt
4

0
ENDTAB
0
TABLE
2
VIEW
5
6
100
AcDbSymbolTable
70
0
0
ENDTAB
0
TABLE
2
UCS
5
7
100
AcDbSymbolTable
70
0
0
ENDTAB
0
TABLE
2
APPID
5
9
100
AcDbSymbolTable
70
1
0
APPID
5
214
100
AcDbSymbolTableRecord
100
AcDbRegAppTableRecord
2
ACAD
70
0
0
ENDTAB
0
TABLE
2
BLOCK_RECORD
5
1
100
AcDbSymbolTable
70
0
0
BLOCK_RECORD
5
1F
100
AcDbSymbolTableRecord
100
AcDbBlockTableRecord
2
*MODEL_SPACE
0
BLOCK_RECORD
5
1B
100
AcDbSymbolTableRecord
100
AcDbBlockTableRecord
2
*PAPER_SPACE
0
ENDTAB
0
TABLE
2
DIMSTYLE
5
A
100
AcDbSymbolTable
70
1
100
AcDbDimStyleTable
71
0
0
DIMSTYLE
105
215
100
AcDbSymbolTableRecord
100
AcDbDimStyleTableRecord
2
STANDARD
70
0
3

4

40
1.0
41
3.0000000000
42
0.0625
43
0.38
44
0.18
45
0.0
46
0.0
47
0.0100000000
48
0.0100000000
140
3.0000000000
141
0.09
142
0.0
143
25.4
144
1.0000000000
145
0.0
146
1.0000000000
147
0.09
71
1
72
0
73
0
74
0
75
0
76
0
77
1
78
8
170
0
171
2
172
0
173
0
174
0
175
0
176
0
177
0
178
0
270
2
271
2
272
2
273
2
274
2
275
0
280
0
281
0
282
0
283
1
284
8
285
0
286
0
287
3
288
0
340
11
0
ENDTAB
0
ENDSEC
0
SECTION
2
BLOCKS
0
BLOCK
5
20
100
AcDbEntity
8
0
100
AcDbBlockBegin
2
*MODEL_SPACE
70
0
10
0.0
20
0.0
30
0.0
3
*MODEL_SPACE
1

0
ENDBLK
5
21
100
AcDbEntity
8
0
100
AcDbBlockEnd
0
BLOCK
5
1C
100
AcDbEntity
8
0
100
AcDbBlockBegin
2
*PAPER_SPACE
70
0
10
0.0
20
0.0
30
0.0
3
*PAPER_SPACE
1

0
ENDBLK
5
1D
100
AcDbEntity
8
0
100
AcDbBlockEnd
0
ENDSEC
0
SECTION
2
ENTITIES
0
LINE
5
216
100
AcDbEntity
8
0
100
AcDbLine
62
9
6
CONTINUOUS
10
6.1490666335
20
-22.7421187642
11
6.1701238397
21
-22.7475981757
0
LINE
5
217
100
AcDbEntity
8
0
100
AcDbLine
62
9
6
CONTINUOUS
10
5.0255675822
20
-22.5025468331
11
4.9064022270
21
-22.4700750281
0
LINE
5
218
100
AcDbEntity
8
0
100
AcDbLine
62
9
6
CONTINUOUS
10
-2.6475917384
20
-13.4305482641
11
-2.6109403173
21
-13.4423173436
0
LINE
5
219
100
AcDbEntity
8
0
100
AcDbLine
62
9
6
CONTINUOUS
10
-2.7954246201
20
-11.8031798519
11
-2.8320760416
21
-11.7914107726
0
LINE
5
21A
100
AcDbEntity
8
0
100
AcDbLine
62
9
6
CONTINUOUS
10
-2.7328197837
20
-11.6861792780
11
-2.7731636610
21
-11.6732245170
0
LINE
5
21B
100
AcDbEntity
8
0
100
AcDbLine
62
9
6
CONTINUOUS
10
6.1283363909
20
-22.7350471486
11
6.1490666335
21
-22.7421187642
0
LINE
5
21C
100
AcDbEntity
8
0
100
AcDbLine
62
0
6
CONTINUOUS
10
-2.8543277938
20
-11.4909796085
11
-2.7659115599
21
-11.5215560323
0
LINE
5
21D
100
AcDbEntity
8
0
100
AcDbLine
62
0
6
CONTINUOUS
10
-2.5901732022
20
-13.4886202944
11
-2.6252837068
21
-13.4763054478
0
LINE
5
21E
100
AcDbEntity
8
0
100
AcDbLine
62
0
6
CONTINUOUS
10
5.2311229666
20
-23.1713475517
11
5.3590879049
21
-23.2193683522
0
LINE
5
21F
100
AcDbEntity
8
0
100
AcDbLine
62
9
6
CONTINUOUS
10
3.2837867401
20
-8.6304757349
11
3.3085988312
21
-8.6399735041
0
LINE
5
220
100
AcDbEntity
8
0
100
AcDbLine
62
9
6
CONTINUOUS
10
3.4148881118
20
-8.3799683236
11
3.4306095760
21
-8.3861137564
0
LINE
5
221
100
AcDbEntity
8
0
100
AcDbLine
62
9
6
CONTINUOUS
10
-2.6844891084
20
-13.4160418410
11
-2.6475917384
21
-13.4305482641
0
LINE
5
222
100
AcDbEntity
8
0
100
AcDbLine
62
9
6
CONTINUOUS
10
-2.7585272691
20
-11.8176862845
11
-2.7954246201
21
-11.8031798519
0
LINE
5
223
100
AcDbEntity
8
0
100
AcDbLine
62
9
6
CONTINUOUS
10
-2.6922051994
20
-11.7021470157
11
-2.7328197837
21
-11.6861792780
0
LINE
5
224
100
AcDbEntity
8
DEFAULT_3
100
AcDbLine
62
9
6
PHANTOM
10
3.4759278488
20
-7.1460492016
11
3.4597164544
21
-7.1396468398
0
LINE
5
225
100
AcDbEntity
8
0
100
AcDbLine
62
0
6
CONTINUOUS
10
-2.6252837068
20
-13.4763054478
11
-2.6605165417
21
-13.4618479373
0
LINE
5
226
100
AcDbEntity
8
DEFAULT_3
100
AcDbLine
62
9
6
PHANTOM
10
-8.1364400236
20
-0.4493566781
11
-8.1490680693
21
-0.4441748935
0
LINE
5
227
100
AcDbEntity
8
0
100
AcDbLine
62
9
6
CONTINUOUS
10
4.9064022270
20
-22.4700750281
11
4.8008722337
21
-22.4265267968
0
LINE
5
228
100
AcDbEntity
8
0
100
AcDbLine
62
9
6
CONTINUOUS
10
-9.3578712784
20
-1.8373057090
11
-9.3844183103
21
-1.8261969285
0
LINE
5
229
100
AcDbEntity
8
0
100
AcDbLine
62
9
6
CONTINUOUS
10
-2.8396150548
20
-11.4524060063
11
-2.7303193699
21
-11.4988152537
0
LINE
5
22A
100
AcDbEntity
8
0
100
AcDbLine
62
9
6
CONTINUOUS
10
-2.5417082587
20
-13.7576772471
11
-2.6505231108
21
-13.7113339796
0
LINE
5
22B
100
AcDbEntity
8
0
100
AcDbLine
62
9
6
CONTINUOUS
10
-2.4815942821
20
-13.6277265685
11
-2.5798928633
21
-13.5852868846
0
LINE
5
22C
100
AcDbEntity
8
0
100
AcDbLine
62
9
6
CONTINUOUS
10
6.1082921640
20
-22.7263608236
11
6.1283363909
21
-22.7350471486
0
LINE
5
22D
100
AcDbEntity
8
DEFAULT_3
100
AcDbLine
62
9
6
PHANTOM
10
3.1420173265
20
-8.1078189153
11
3.1389245361
21
-8.1064386975
0
LINE
5
22E
100
AcDbEntity
8
DEFAULT_3
100
AcDbLine
62
9
6
PHANTOM
10
3.1932390023
20
-8.0897610404
11
3.1737928819
21
-8.0810224790
0
LINE
5
22F
100
AcDbEntity
8
DEFAULT_3
100
AcDbLine
62
9
6
PHANTOM
10
3.2578196109
20
-7.1373578105
11
3.2225500545
21
-7.1214537412
0
LINE
5
230
100
AcDbEntity
8
0
100
AcDbLine
62
0
6
CONTINUOUS
10
-2.7659115599
20
-11.5215560323
11
-2.7045216935
21
-11.5495528477
0
LINE
5
231
100
AcDbEntity
8
DEFAULT_3
100
AcDbLine
62
9
6
PHANTOM
10
3.2041751237
20
-8.2388084909
11
3.2209919953
21
-8.2465301726
0
LINE
5
232
100
AcDbEntity
8
0
100
AcDbLine
62
9
6
CONTINUOUS
10
-2.7215082080
20
-13.3988475188
11
-2.6844891084
21
-13.4160418410
0
LINE
5
233
100
AcDbEntity
8
0
100
AcDbLine
62
9
6
CONTINUOUS
10
-2.7215082080
20
-11.8348806260
11
-2.7585272691
21
-11.8176862845
0
LINE
5
234
100
AcDbEntity
8
0
100
AcDbLine
62
9
6
CONTINUOUS
10
-2.6514566214
20
-11.7210733139
11
-2.6922051994
21
-11.7021470157
0
LINE
5
235
100
AcDbEntity
8
DEFAULT_3
100
AcDbLine
62
9
6
PHANTOM
10
3.4597164544
20
-7.1396468398
11
3.4425282135
21
-7.1316462926
0
LINE
5
236
100
AcDbEntity
8
DEFAULT_3
100
AcDbLine
62
9
6
PHANTOM
10
-8.1244050405
20
-0.4549822532
11
-8.1364400236
21
-0.4493566781
0
LINE
5
237
100
AcDbEntity
8
DEFAULT_3
100
AcDbLine
62
9
6
PHANTOM
10
-8.1364400236
20
4.5735906638
11
-8.1244050405
21
4.5679650888
0
LINE
5
238
100
AcDbEntity
8
0
100
AcDbLine
62
9
6
CONTINUOUS
10
3.3997016244
20
-8.3728659109
11
3.4148881118
21
-8.3799683236
0
LINE
5
239
100
AcDbEntity
8
0
100
AcDbLine
62
0
6
CONTINUOUS
10
-2.6605165417
20
-13.4618479373
11
-2.6958077419
21
-13.4452594910
0
LINE
5
23A
100
AcDbEntity
8
0
100
AcDbLine
62
0
6
CONTINUOUS
10
5.1889535524
20
-23.1512662381
11
5.2311229666
21
-23.1713475517
0
LINE
5
23B
100
AcDbEntity
8
0
100
AcDbLine
62
9
6
CONTINUOUS
10
-8.9896500316
20
5.7582816181
11
-9.0139190394
21
5.7698501469
0
LINE
5
23C
100
AcDbEntity
8
0
100
AcDbLine
62
9
6
CONTINUOUS
10
3.2595322240
20
-8.6188999602
11
3.2837867401
21
-8.6304757349
0
LINE
5
23D
100
AcDbEntity
8
0
100
AcDbLine
62
0
6
CONTINUOUS
10
-2.7044933177
20
-11.5494959480
11
-2.7041463631
21
-11.5496686012
0
LINE
5
23E
100
AcDbEntity
8
0
100
AcDbLine
62
0
6
CONTINUOUS
10
5.1914278007
20
-23.1525128987
11
-9.2228708626
21
-15.9453635670
0
LINE
5
23F
100
AcDbEntity
8
0
100
AcDbLine
62
9
6
CONTINUOUS
10
4.8008722453
20
-22.4265267901
11
-9.6071052895
21
-15.2225380227
0
LINE
5
240
100
AcDbEntity
8
0
100
AcDbLine
62
9
6
CONTINUOUS
10
-8.9896500316
20
-2.4943088324
11
3.2595322240
21
-8.6188999602
0
LINE
5
241
100
AcDbEntity
8
0
100
AcDbLine
62
9
6
CONTINUOUS
10
-8.8494806311
20
-2.2482747831
11
3.3997016244
21
-8.3728659109
0
LINE
5
242
100
AcDbEntity
8
DEFAULT_3
100
AcDbLine
62
9
6
PHANTOM
10
3.1389245361
20
-8.1064386975
11
-9.0233121003
21
-2.0253203793
0
LINE
5
243
100
AcDbEntity
8
0
100
AcDbLine
62
0
6
CONTINUOUS
10
-7.5940749546
20
-2.0191854018
11
3.5782121881
21
-7.6053289732
0
LINE
5
244
100
AcDbEntity
8
0
100
AcDbLine
62
0
6
CONTINUOUS
10
-7.8944857305
20
-1.7867517901
11
-7.9122824297
21
-1.7778534404
0
LINE
5
245
100
AcDbEntity
8
DEFAULT_3
100
AcDbLine
62
9
6
PHANTOM
10
3.2225500545
20
-7.1214537412
11
-7.8083157419
21
-1.6060208430
0
LINE
5
246
100
AcDbEntity
8
DEFAULT_3
100
AcDbLine
62
9
6
PHANTOM
10
-7.5883375729
20
-1.6162133994
11
3.4425282135
21
-7.1316462926
0
LINE
5
247
100
AcDbEntity
8
DEFAULT_3
100
AcDbLine
62
9
6
PHANTOM
10
-8.1244050405
20
-0.4549822532
11
-8.3376884669
21
-0.3483405400
0
LINE
5
248
100
AcDbEntity
8
DEFAULT_3
100
AcDbLine
62
9
6
PHANTOM
10
-8.3376884669
20
4.6746068020
11
-8.1244050405
21
4.5679650888
0
LINE
5
249
100
AcDbEntity
8
DEFAULT_3
100
AcDbLine
62
9
6
PHANTOM
10
-9.0233121003
20
5.1686854770
11
3.1389245361
21
-0.9124328412
0
LINE
5
24A
100
AcDbEntity
8
DEFAULT_3
100
AcDbLine
62
9
6
PHANTOM
10
-8.8465523481
20
5.4705742016
11
3.3156842883
21
-0.6105441166
0
LINE
5
24B
100
AcDbEntity
8
0
100
AcDbLine
62
9
6
CONTINUOUS
10
3.2595322240
20
-0.3663095097
11
-8.9896500316
21
5.7582816181
0
LINE
5
24C
100
AcDbEntity
8
DEFAULT_3
100
AcDbLine
62
9
6
PHANTOM
10
3.2041726909
20
-8.2388133839
11
-8.9585586380
21
-2.1574480458
0
LINE
5
24D
100
AcDbEntity
8
0
100
AcDbLine
62
0
6
CONTINUOUS
10
3.3115587723
20
-0.4772768859
11
-8.9379573743
21
5.6474818184
0
LINE
5
24E
100
AcDbEntity
8
DEFAULT_3
100
AcDbLine
62
9
6
PHANTOM
10
-8.9636663905
20
-2.1548187817
11
-8.9585562065
21
-2.1574431842
0
LINE
5
24F
100
AcDbEntity
8
0
100
AcDbLine
62
9
6
CONTINUOUS
10
-2.5798928633
20
-13.5852868846
11
-2.6114489258
21
-13.5688229093
0
LINE
5
250
100
AcDbEntity
8
0
100
AcDbLine
62
9
6
CONTINUOUS
10
-9.0143888495
20
-2.4813938275
11
-8.9896500316
21
-2.4943088324
0
LINE
5
251
100
AcDbEntity
8
0
100
AcDbLine
62
9
6
CONTINUOUS
10
-2.6505231108
20
-13.7113339796
11
-2.6847901690
21
-13.6934245765
0
LINE
5
252
100
AcDbEntity
8
0
100
AcDbLine
62
9
6
CONTINUOUS
10
-2.7303193699
20
-11.4988152537
11
-2.6960447268
21
-11.5167347917
0
LINE
5
253
100
AcDbEntity
8
0
100
AcDbLine
62
9
6
CONTINUOUS
10
3.2842567049
20
-0.3792316831
11
3.2595322240
21
-0.3663095097
0
LINE
5
254
100
AcDbEntity
8
0
100
AcDbLine
62
9
6
CONTINUOUS
10
3.3114930238
20
-0.4772440519
11
3.3087483601
21
-0.4758000484
0
LINE
5
255
100
AcDbEntity
8
0
100
AcDbLine
62
9
6
CONTINUOUS
10
-8.9379573743
20
5.6474818184
11
-8.9404337277
21
5.6487909866
0
LINE
5
256
100
AcDbEntity
8
0
100
AcDbLine
62
0
6
CONTINUOUS
10
-7.6278563217
20
-2.0012925187
11
-7.5940749546
21
-2.0191854018
0
LINE
5
257
100
AcDbEntity
8
0
100
AcDbLine
62
9
6
CONTINUOUS
10
-8.8651247597
20
-2.2399419294
11
-8.8494806311
21
-2.2482747831
0
LINE
5
258
100
AcDbEntity
8
0
100
AcDbLine
62
9
6
CONTINUOUS
10
-2.7585292886
20
-13.3790215498
11
-2.7215082080
21
-13.3988475188
0
LINE
5
259
100
AcDbEntity
8
0
100
AcDbLine
62
9
6
CONTINUOUS
10
-2.6844870982
20
-11.8547065803
11
-2.7215082080
21
-11.8348806260
0
LINE
5
25A
100
AcDbEntity
8
0
100
AcDbLine
62
9
6
CONTINUOUS
10
-2.6107058146
20
-11.7428968671
11
-2.6514566214
21
-11.7210733139
0
LINE
5
25B
100
AcDbEntity
8
0
100
AcDbLine
62
9
6
CONTINUOUS
10
6.0889562755
20
-22.7159984372
11
6.1082921640
21
-22.7263608236
0
LINE
5
25C
100
AcDbEntity
8
0
100
AcDbLine
62
0
6
CONTINUOUS
10
-2.6958077419
20
-13.4452594910
11
-2.7383534208
21
-13.4224398580
0
LINE
5
25D
100
AcDbEntity
8
0
100
AcDbLine
62
0
6
CONTINUOUS
10
-9.2807725858
20
-15.9141133312
11
-9.2218156300
21
-15.9458874298
0
LINE
5
25E
100
AcDbEntity
8
DEFAULT_3
100
AcDbLine
62
9
6
PHANTOM
10
-7.5883375729
20
-1.6162133994
11
-7.6086575020
21
-1.6052571667
0
LINE
5
25F
100
AcDbEntity
8
DEFAULT_3
100
AcDbLine
62
9
6
PHANTOM
10
3.2038808889
20
-8.2386681165
11
3.1982488588
21
-8.2356072756
0
LINE
5
260
100
AcDbEntity
8
DEFAULT_3
100
AcDbLine
62
9
6
PHANTOM
10
-8.9585586380
20
-2.1574480458
11
-8.9639887079
21
-2.1544884094
0
LINE
5
261
100
AcDbEntity
8
0
100
AcDbLine
62
9
6
CONTINUOUS
10
5.1574061345
20
-23.1340373846
11
5.1889320991
21
-23.1512574358
0
LINE
5
262
100
AcDbEntity
8
DEFAULT_3
100
AcDbLine
62
9
6
PHANTOM
10
-7.8083157469
20
-1.6060208405
11
-7.8415670669
21
-1.5877542808
0
LINE
5
263
100
AcDbEntity
8
DEFAULT_3
100
AcDbLine
62
9
6
PHANTOM
10
-9.0233121003
20
-2.0253203793
11
-9.0264086910
21
-2.0236059066
0
LINE
5
264
100
AcDbEntity
8
DEFAULT_3
100
AcDbLine
62
9
6
PHANTOM
10
3.3156842883
20
-0.6105441166
11
3.3341724551
21
-0.6207789946
0
LINE
5
265
100
AcDbEntity
8
DEFAULT_3
100
AcDbLine
62
9
6
PHANTOM
10
-9.0766640053
20
5.1524891005
11
-9.0591544326
21
5.1427822652
0
LINE
5
266
100
AcDbEntity
8
DEFAULT_3
100
AcDbLine
62
9
6
PHANTOM
10
3.1389245361
20
-0.9124328412
11
3.1420173265
21
-0.9141492140
0
LINE
5
267
100
AcDbEntity
8
DEFAULT_3
100
AcDbLine
62
9
6
PHANTOM
10
-9.0766643183
20
-1.9548093454
11
-9.0591544326
21
-1.9645488217
0
LINE
5
268
100
AcDbEntity
8
0
100
AcDbLine
62
0
6
CONTINUOUS
10
-2.7041463631
20
-11.5496686012
11
-2.6218160281
21
-11.5956481854
0
LINE
5
269
100
AcDbEntity
8
0
100
AcDbLine
62
9
6
CONTINUOUS
10
-2.6847901690
20
-13.6934245765
11
-2.7188869373
21
-13.6741474105
0
LINE
5
26A
100
AcDbEntity
8
0
100
AcDbLine
62
9
6
CONTINUOUS
10
-2.6114489258
20
-13.5688229093
11
-2.6429379846
21
-13.5510247954
0
LINE
5
26B
100
AcDbEntity
8
0
100
AcDbLine
62
9
6
CONTINUOUS
10
-2.6960447268
20
-11.5167347917
11
-2.6619512802
21
-11.5360284633
0
LINE
5
26C
100
AcDbEntity
8
DEFAULT_3
100
AcDbLine
62
9
6
PHANTOM
10
-8.9853730758
20
-2.1421941611
11
-8.9636663905
21
-2.1548187817
0
LINE
5
26D
100
AcDbEntity
8
0
100
AcDbLine
62
0
6
CONTINUOUS
10
-7.6614025454
20
-1.9815807062
11
-7.6278563217
21
-2.0012925187
0
LINE
5
26E
100
AcDbEntity
8
0
100
AcDbLine
62
0
6
CONTINUOUS
10
3.3115585993
20
-0.4772772439
11
3.3447493331
21
-0.4969702401
0
LINE
5
26F
100
AcDbEntity
8
0
100
AcDbLine
62
9
6
CONTINUOUS
10
3.6203553553
20
-1.0270116909
11
3.6426533629
21
-1.0402449836
0
LINE
5
270
100
AcDbEntity
8
0
100
AcDbLine
62
9
6
CONTINUOUS
10
3.6203553549
20
-8.3264190263
11
3.6426533619
21
-8.3397327656
0
LINE
5
271
100
AcDbEntity
8
0
100
AcDbLine
62
9
6
CONTINUOUS
10
-9.6958795106
20
-15.1689340843
11
-9.6071052303
21
-15.2225379882
0
LINE
5
272
100
AcDbEntity
8
0
100
AcDbLine
62
9
6
CONTINUOUS
10
-2.7954269917
20
-13.3566302177
11
-2.7585292886
21
-13.3790215498
0
LINE
5
273
100
AcDbEntity
8
0
100
AcDbLine
62
9
6
CONTINUOUS
10
-2.6475893798
20
-11.8770979048
11
-2.6844870982
21
-11.8547065803
0
LINE
5
274
100
AcDbEntity
8
0
100
AcDbLine
62
9
6
CONTINUOUS
10
-2.5700908350
20
-11.7675441266
11
-2.6107058146
21
-11.7428968671
0
LINE
5
275
100
AcDbEntity
8
0
100
AcDbLine
62
9
6
CONTINUOUS
10
-2.7188869373
20
-13.6741474105
11
-2.7528133828
21
-13.6535024632
0
LINE
5
276
100
AcDbEntity
8
0
100
AcDbLine
62
9
6
CONTINUOUS
10
-2.6429379846
20
-13.5510247954
11
-2.6743174223
21
-13.5319280071
0
LINE
5
277
100
AcDbEntity
8
0
100
AcDbLine
62
9
6
CONTINUOUS
10
-2.6619512802
20
-11.5360284633
11
-2.6280389970
21
-11.5566962502
0
LINE
5
278
100
AcDbEntity
8
0
100
AcDbLine
62
0
6
CONTINUOUS
10
-2.7383534208
20
-13.4224398580
11
-2.7804858056
21
-13.3967570194
0
LINE
5
279
100
AcDbEntity
8
0
100
AcDbLine
62
9
6
CONTINUOUS
10
-8.8814027462
20
-2.2300151130
11
-8.8651247597
21
-2.2399419294
0
LINE
5
27A
100
AcDbEntity
8
DEFAULT_3
100
AcDbLine
62
9
6
PHANTOM
10
-7.6086575020
20
-1.6052571667
11
-7.6300343806
21
-1.5920662007
0
LINE
5
27B
100
AcDbEntity
8
0
100
AcDbLine
62
9
6
CONTINUOUS
10
-9.0398039908
20
-2.4656524890
11
-9.0143888495
21
-2.4813938275
0
LINE
5
27C
100
AcDbEntity
8
0
100
AcDbLine
62
9
6
CONTINUOUS
10
3.3095921613
20
-0.3950128641
11
3.2842567049
21
-0.3792316831
0
LINE
5
27D
100
AcDbEntity
8
0
100
AcDbLine
62
9
6
CONTINUOUS
10
-9.2506266620
20
-15.9304841206
11
-9.2897904257
21
-15.9058216409
0
LINE
5
27E
100
AcDbEntity
8
0
100
AcDbLine
62
0
6
CONTINUOUS
10
-7.9575604939
20
-1.7492474526
11
-7.9122824297
21
-1.7778534404
0
LINE
5
27F
100
AcDbEntity
8
0
100
AcDbLine
62
9
6
CONTINUOUS
10
6.0703064026
20
-22.7040213414
11
6.0889562755
21
-22.7159984372
0
LINE
5
280
100
AcDbEntity
8
0
100
AcDbLine
62
9
6
CONTINUOUS
10
5.1178777095
20
-23.1085822635
11
5.1574061345
21
-23.1340373846
0
LINE
5
281
100
AcDbEntity
8
0
100
AcDbLine
62
0
6
CONTINUOUS
10
-7.6947136256
20
-1.9600499642
11
-7.6614025454
21
-1.9815807062
0
LINE
5
282
100
AcDbEntity
8
0
100
AcDbLine
62
9
6
CONTINUOUS
10
-2.6743174223
20
-13.5319280071
11
-2.7055056445
21
-13.5115968964
0
LINE
5
283
100
AcDbEntity
8
0
100
AcDbLine
62
9
6
CONTINUOUS
10
-2.7528133828
20
-13.6535024632
11
-2.7865708238
21
-13.6314855502
0
LINE
5
284
100
AcDbEntity
8
0
100
AcDbLine
62
9
6
CONTINUOUS
10
-2.6280389970
20
-11.5566962502
11
-2.5943064573
21
-11.5787422957
0
LINE
5
285
100
AcDbEntity
8
DEFAULT_3
100
AcDbLine
62
9
6
PHANTOM
10
-7.8415670669
20
-1.5877542808
11
-7.8738543853
21
-1.5666373611
0
LINE
5
286
100
AcDbEntity
8
DEFAULT_3
100
AcDbLine
62
9
6
PHANTOM
10
-9.0264086910
20
-2.0236059066
11
-9.0294478704
21
-2.0216050473
0
LINE
5
287
100
AcDbEntity
8
DEFAULT_3
100
AcDbLine
62
9
6
PHANTOM
10
3.3341724551
20
-0.6207789946
11
3.3525160447
21
-0.6329152049
0
LINE
5
288
100
AcDbEntity
8
0
100
AcDbLine
62
0
6
CONTINUOUS
10
-9.3838236173
20
-15.8459210160
11
-9.2807725858
21
-15.9141133312
0
LINE
5
289
100
AcDbEntity
8
DEFAULT_3
100
AcDbLine
62
9
6
PHANTOM
10
3.1420173265
20
-0.9141492140
11
3.1450455009
21
-0.9161555758
0
LINE
5
28A
100
AcDbEntity
8
0
100
AcDbLine
62
9
6
CONTINUOUS
10
-2.8320771246
20
-13.3317486353
11
-2.7954269917
21
-13.3566302177
0
LINE
5
28B
100
AcDbEntity
8
0
100
AcDbLine
62
9
6
CONTINUOUS
10
-2.6109392458
20
-11.9019794866
11
-2.6475893798
21
-11.8770979048
0
LINE
5
28C
100
AcDbEntity
8
0
100
AcDbLine
62
9
6
CONTINUOUS
10
-2.5297483726
20
-11.7949324202
11
-2.5700908350
21
-11.7675441266
0
LINE
5
28D
100
AcDbEntity
8
0
100
AcDbLine
62
0
6
CONTINUOUS
10
-2.7804858056
20
-13.3967570194
11
-2.8220888813
21
-13.3683084173
0
LINE
5
28E
100
AcDbEntity
8
0
100
AcDbLine
62
9
6
CONTINUOUS
10
-2.7128320234
20
-11.5437850088
11
-2.7044933177
21
-11.5494959480
0
LINE
5
28F
100
AcDbEntity
8
DEFAULT_3
100
AcDbLine
62
9
6
PHANTOM
10
-9.0920452383
20
5.1630254496
11
-9.0766640053
21
5.1524891005
0
LINE
5
290
100
AcDbEntity
8
0
100
AcDbLine
62
9
6
CONTINUOUS
10
-8.8982339225
20
-2.2183825602
11
-8.8814027462
21
-2.2300151130
0
LINE
5
291
100
AcDbEntity
8
DEFAULT_3
100
AcDbLine
62
9
6
PHANTOM
10
-9.0920457407
20
-1.9441758207
11
-9.0766643183
21
-1.9548093454
0
LINE
5
292
100
AcDbEntity
8
0
100
AcDbLine
62
0
6
CONTINUOUS
10
-2.6218160281
20
-11.5956481854
11
-2.5144753704
21
-11.6699657305
0
LINE
5
293
100
AcDbEntity
8
0
100
AcDbLine
62
9
6
CONTINUOUS
10
-2.7055056445
20
-13.5115968964
11
-2.7365019296
21
-13.4900456760
0
LINE
5
294
100
AcDbEntity
8
DEFAULT_3
100
AcDbLine
62
9
6
PHANTOM
10
-7.6300343806
20
-1.5920662007
11
-7.6522756409
21
-1.5765850848
0
LINE
5
295
100
AcDbEntity
8
0
100
AcDbLine
62
9
6
CONTINUOUS
10
-2.7865708238
20
-13.6314855502
11
-2.8201578109
21
-13.6081007827
0
LINE
5
296
100
AcDbEntity
8
0
100
AcDbLine
62
9
6
CONTINUOUS
10
-2.5943064573
20
-11.5787422957
11
-2.5607549498
21
-11.6021623848
0
LINE
5
297
100
AcDbEntity
8
DEFAULT_3
100
AcDbLine
62
9
6
PHANTOM
10
-9.0064115739
20
-2.1274312018
11
-8.9853730758
21
-2.1421941611
0
LINE
5
298
100
AcDbEntity
8
0
100
AcDbLine
62
0
6
CONTINUOUS
10
-7.7278571174
20
-1.9366490101
11
-7.6947136256
21
-1.9600499642
0
LINE
5
299
100
AcDbEntity
8
DEFAULT_3
100
AcDbLine
62
9
6
PHANTOM
10
-8.9639887079
20
-2.1544884094
11
-8.9770468582
21
-2.1452442659
0
LINE
5
29A
100
AcDbEntity
8
DEFAULT_3
100
AcDbLine
62
9
6
PHANTOM
10
3.1982488588
20
-8.2356072756
11
3.1851906239
21
-8.2263632961
0
LINE
5
29B
100
AcDbEntity
8
0
100
AcDbLine
62
9
6
CONTINUOUS
10
-9.0658953825
20
-2.4470847790
11
-9.0398039908
21
-2.4656524890
0
LINE
5
29C
100
AcDbEntity
8
0
100
AcDbLine
62
9
6
CONTINUOUS
10
3.3355386662
20
-0.4136530175
11
3.3095921613
21
-0.3950128641
0
LINE
5
29D
100
AcDbEntity
8
0
100
AcDbLine
62
9
6
CONTINUOUS
10
-2.7365019296
20
-13.4900456760
11
-2.7673840147
21
-13.4672216154
0
LINE
5
29E
100
AcDbEntity
8
0
100
AcDbLine
62
9
6
CONTINUOUS
10
-2.8201578109
20
-13.6081007827
11
-2.8535701276
21
-13.5833605676
0
LINE
5
29F
100
AcDbEntity
8
0
100
AcDbLine
62
9
6
CONTINUOUS
10
-2.5607549498
20
-11.6021623848
11
-2.5273884721
21
-11.6269439438
0
LINE
5
2A0
100
AcDbEntity
8
0
100
AcDbLine
62
9
6
CONTINUOUS
10
-9.2897904257
20
-15.9058216409
11
-9.3270270148
21
-15.8778563612
0
LINE
5
2A1
100
AcDbEntity
8
0
100
AcDbLine
62
9
6
CONTINUOUS
10
-2.8683387029
20
-13.3044741509
11
-2.8320771246
21
-13.3317486353
0
LINE
5
2A2
100
AcDbEntity
8
0
100
AcDbLine
62
9
6
CONTINUOUS
10
-2.5746776893
20
-11.9292539819
11
-2.6109392458
21
-11.9019794866
0
LINE
5
2A3
100
AcDbEntity
8
0
100
AcDbLine
62
9
6
CONTINUOUS
10
-2.4898335939
20
-11.8249545463
11
-2.5297483726
21
-11.7949324202
0
LINE
5
2A4
100
AcDbEntity
8
0
100
AcDbLine
62
9
6
CONTINUOUS
10
-8.9404337277
20
5.6487909866
11
-8.9577273248
21
5.6618521171
0
LINE
5
2A5
100
AcDbEntity
8
0
100
AcDbLine
62
9
6
CONTINUOUS
10
3.3087483601
20
-0.4758000484
11
3.2914547829
21
-0.4627388634
0
LINE
5
2A6
100
AcDbEntity
8
0
100
AcDbLine
62
0
6
CONTINUOUS
10
-2.8220888813
20
-13.3683084173
11
-2.8630733268
21
-13.3371755848
0
LINE
5
2A7
100
AcDbEntity
8
0
100
AcDbLine
62
9
6
CONTINUOUS
10
6.0526346286
20
-22.6905910867
11
6.0703064026
21
-22.7040213414
0
LINE
5
2A8
100
AcDbEntity
8
0
100
AcDbLine
62
9
6
CONTINUOUS
10
5.0803608186
20
-23.0798860000
11
5.1178777095
21
-23.1085822635
0
LINE
5
2A9
100
AcDbEntity
8
0
100
AcDbLine
62
0
6
CONTINUOUS
10
-7.7607654657
20
-1.9114291264
11
-7.7278571174
21
-1.9366490101
0
LINE
5
2AA
100
AcDbEntity
8
DEFAULT_3
100
AcDbLine
62
9
6
PHANTOM
10
-9.0294478704
20
-2.0216050473
11
-9.0324296371
21
-2.0193178008
0
LINE
5
2AB
100
AcDbEntity
8
DEFAULT_3
100
AcDbLine
62
9
6
PHANTOM
10
-7.8738543853
20
-1.5666373611
11
-7.9050552660
21
-1.5426393509
0
LINE
5
2AC
100
AcDbEntity
8
0
100
AcDbLine
62
0
6
CONTINUOUS
10
3.3447493331
20
-0.4969702401
11
3.3776638549
21
-0.5223136976
0
LINE
5
2AD
100
AcDbEntity
8
DEFAULT_3
100
AcDbLine
62
9
6
PHANTOM
10
3.3525160447
20
-0.6329152049
11
3.3705753978
21
-0.6468603100
0
LINE
5
2AE
100
AcDbEntity
8
DEFAULT_3
100
AcDbLine
62
9
6
PHANTOM
10
3.1450455009
20
-0.9161555758
11
3.1480090608
21
-0.9184519257
0
LINE
5
2AF
100
AcDbEntity
8
DEFAULT_3
100
AcDbLine
62
9
6
PHANTOM
10
-7.6522756409
20
-1.5765850848
11
-7.6751730450
21
-1.5587944307
0
LINE
5
2B0
100
AcDbEntity
8
0
100
AcDbLine
62
9
6
CONTINUOUS
10
-8.9155558621
20
-2.2049154982
11
-8.8982339225
21
-2.2183825602
0
LINE
5
2B1
100
AcDbEntity
8
0
100
AcDbLine
62
9
6
CONTINUOUS
10
-2.7673840147
20
-13.4672216154
11
-2.7980890756
21
-13.4431667277
0
LINE
5
2B2
100
AcDbEntity
8
0
100
AcDbLine
62
9
6
CONTINUOUS
10
-2.8535701276
20
-13.5833605676
11
-2.8867914363
21
-13.5573002020
0
LINE
5
2B3
100
AcDbEntity
8
0
100
AcDbLine
62
9
6
CONTINUOUS
10
-2.5273884721
20
-11.6269439438
11
-2.4942231600
21
-11.6530511742
0
LINE
5
2B4
100
AcDbEntity
8
0
100
AcDbLine
62
9
6
CONTINUOUS
10
-9.0929274018
20
-2.4257215378
11
-9.0658953825
21
-2.4470847790
0
LINE
5
2B5
100
AcDbEntity
8
0
100
AcDbLine
62
9
6
CONTINUOUS
10
3.3623651326
20
-0.4351190352
11
3.3355386662
21
-0.4136530175
0
LINE
5
2B6
100
AcDbEntity
8
0
100
AcDbLine
62
9
6
CONTINUOUS
10
-2.9041077172
20
-13.2748867612
11
-2.8683387029
21
-13.3044741509
0
LINE
5
2B7
100
AcDbEntity
8
0
100
AcDbLine
62
9
6
CONTINUOUS
10
-2.5389087108
20
-11.9588413895
11
-2.5746776893
21
-11.9292539819
0
LINE
5
2B8
100
AcDbEntity
8
0
100
AcDbLine
62
9
6
CONTINUOUS
10
-2.4504609730
20
-11.8575225214
11
-2.4898335939
21
-11.8249545463
0
LINE
5
2B9
100
AcDbEntity
8
0
100
AcDbLine
62
9
6
CONTINUOUS
10
-9.7652442951
20
20.1371490018
11
-9.6958793610
21
20.0797769945
0
LINE
5
2BA
100
AcDbEntity
8
0
100
AcDbLine
62
0
6
CONTINUOUS
10
-7.7932360056
20
-1.8845441611
11
-7.7607654657
21
-1.9114291264
0
LINE
5
2BB
100
AcDbEntity
8
0
100
AcDbLine
62
9
6
CONTINUOUS
10
-2.7980890756
20
-13.4431667277
11
-2.8285960307
21
-13.4178952130
0
LINE
5
2BC
100
AcDbEntity
8
0
100
AcDbLine
62
9
6
CONTINUOUS
10
-2.8867914363
20
-13.5573002020
11
-2.9198378186
21
-13.5298842458
0
LINE
5
2BD
100
AcDbEntity
8
0
100
AcDbLine
62
0
6
CONTINUOUS
10
-7.9990154876
20
-1.7148367241
11
-7.9575604939
21
-1.7492474526
0
LINE
5
2BE
100
AcDbEntity
8
0
100
AcDbLine
62
9
6
CONTINUOUS
10
-2.4942231600
20
-11.6530511742
11
-2.4612426213
21
-11.6805197342
0
LINE
5
2BF
100
AcDbEntity
8
DEFAULT_3
100
AcDbLine
62
9
6
PHANTOM
10
-9.0264455917
20
-2.1106549790
11
-9.0064115739
21
-2.1274312018
0
LINE
5
2C0
100
AcDbEntity
8
0
100
AcDbLine
62
0
6
CONTINUOUS
10
-2.8630733268
20
-13.3371755848
11
-2.9033037196
21
-13.3034777686
0
LINE
5
2C1
100
AcDbEntity
8
0
100
AcDbLine
62
0
6
CONTINUOUS
10
-9.4779299676
20
-15.7665450855
11
-9.3838236173
21
-15.8459210160
0
LINE
5
2C2
100
AcDbEntity
8
0
100
AcDbLine
62
0
6
CONTINUOUS
10
-2.5144753704
20
-11.6699657305
11
-2.4086185848
21
-11.7597326711
0
LINE
5
2C3
100
AcDbEntity
8
0
100
AcDbLine
62
9
6
CONTINUOUS
10
3.6029764832
20
-1.0121246002
11
3.6203553553
21
-1.0270116909
0
LINE
5
2C4
100
AcDbEntity
8
DEFAULT_3
100
AcDbLine
62
9
6
PHANTOM
10
-9.1051295987
20
5.1742758841
11
-9.0920452383
21
5.1630254496
0
LINE
5
2C5
100
AcDbEntity
8
DEFAULT_3
100
AcDbLine
62
9
6
PHANTOM
10
-7.6751730450
20
-1.5587944307
11
-7.6985089634
21
-1.5387101471
0
LINE
5
2C6
100
AcDbEntity
8
0
100
AcDbLine
62
9
6
CONTINUOUS
10
3.6029764834
20
-8.3113076796
11
3.6203553549
21
-8.3264190263
0
LINE
5
2C7
100
AcDbEntity
8
0
100
AcDbLine
62
9
6
CONTINUOUS
10
-8.9332130439
20
-2.1895513560
11
-8.9155558621
21
-2.2049154982
0
LINE
5
2C8
100
AcDbEntity
8
DEFAULT_3
100
AcDbLine
62
9
6
PHANTOM
10
-9.1051301778
20
-1.9327647505
11
-9.0920457407
21
-1.9441758207
0
LINE
5
2C9
100
AcDbEntity
8
0
100
AcDbLine
62
9
6
CONTINUOUS
10
-9.1206353566
20
-2.4015317614
11
-9.0929274018
21
-2.4257215378
0
LINE
5
2CA
100
AcDbEntity
8
0
100
AcDbLine
62
9
6
CONTINUOUS
10
-2.8285960307
20
-13.4178952130
11
-2.8590375595
21
-13.3912794668
0
LINE
5
2CB
100
AcDbEntity
8
0
100
AcDbLine
62
9
6
CONTINUOUS
10
-2.9198378186
20
-13.5298842458
11
-2.9527536472
21
-13.5010189779
0
LINE
5
2CC
100
AcDbEntity
8
0
100
AcDbLine
62
9
6
CONTINUOUS
10
-2.4612426213
20
-11.6805197342
11
-2.4284020229
21
-11.7094442142
0
LINE
5
2CD
100
AcDbEntity
8
DEFAULT_3
100
AcDbLine
62
9
6
PHANTOM
10
-9.0324296371
20
-2.0193178008
11
-9.0353783186
21
-2.0167213847
0
LINE
5
2CE
100
AcDbEntity
8
0
100
AcDbLine
62
9
6
CONTINUOUS
10
-9.3270270148
20
-15.8778563612
11
-9.3622480230
21
-15.8466749024
0
LINE
5
2CF
100
AcDbEntity
8
0
100
AcDbLine
62
9
6
CONTINUOUS
10
3.3898029624
20
-0.4594438740
11
3.3623651326
21
-0.4351190352
0
LINE
5
2D0
100
AcDbEntity
8
DEFAULT_3
100
AcDbLine
62
9
6
PHANTOM
10
3.3705753978
20
-0.6468603100
11
3.3882130469
21
-0.6625083263
0
LINE
5
2D1
100
AcDbEntity
8
0
100
AcDbLine
62
9
6
CONTINUOUS
10
-9.7652444400
20
-15.1071407514
11
-9.6958795106
21
-15.1689340843
0
LINE
5
2D2
100
AcDbEntity
8
0
100
AcDbLine
62
0
6
CONTINUOUS
10
-7.8252813194
20
-1.8559685209
11
-7.7932360056
21
-1.8845441611
0
LINE
5
2D3
100
AcDbEntity
8
DEFAULT_3
100
AcDbLine
62
9
6
PHANTOM
10
3.1480090608
20
-0.9184519257
11
3.1509320958
21
-0.9210611651
0
LINE
5
2D4
100
AcDbEntity
8
0
100
AcDbLine
62
9
6
CONTINUOUS
10
6.0359788045
20
-22.6756537782
11
6.0526346286
21
-22.6905910867
0
LINE
5
2D5
100
AcDbEntity
8
0
100
AcDbLine
62
9
6
CONTINUOUS
10
5.0449380989
20
-23.0480475511
11
5.0803608186
21
-23.0798860000
0
LINE
5
2D6
100
AcDbEntity
8
DEFAULT_3
100
AcDbLine
62
9
6
PHANTOM
10
-7.9050552660
20
-1.5426393509
11
-7.9354830097
21
-1.5152777283
0
LINE
5
2D7
100
AcDbEntity
8
0
100
AcDbLine
62
9
6
CONTINUOUS
10
-2.9393148651
20
-13.2430377253
11
-2.9041077172
21
-13.2748867612
0
LINE
5
2D8
100
AcDbEntity
8
0
100
AcDbLine
62
9
6
CONTINUOUS
10
-2.5037015857
20
-11.9906904369
11
-2.5389087108
21
-11.9588413895
0
LINE
5
2D9
100
AcDbEntity
8
0
100
AcDbLine
62
9
6
CONTINUOUS
10
-2.4117068181
20
-11.8925800879
11
-2.4504609730
21
-11.8575225214
0
LINE
5
2DA
100
AcDbEntity
8
0
100
AcDbLine
62
0
6
CONTINUOUS
10
-2.9033037196
20
-13.3034777686
11
-2.9425958723
21
-13.2673929978
0
LINE
5
2DB
100
AcDbEntity
8
0
100
AcDbLine
62
9
6
CONTINUOUS
10
-2.8590375595
20
-13.3912794668
11
-2.8892288375
21
-13.3634571307
0
LINE
5
2DC
100
AcDbEntity
8
0
100
AcDbLine
62
9
6
CONTINUOUS
10
-2.9527536472
20
-13.5010189779
11
-2.9854189592
21
-13.4708853314
0
LINE
5
2DD
100
AcDbEntity
8
0
100
AcDbLine
62
9
6
CONTINUOUS
10
-2.4284020229
20
-11.7094442142
11
-2.3958200009
21
-11.7396429286
0
LINE
5
2DE
100
AcDbEntity
8
DEFAULT_3
100
AcDbLine
62
9
6
PHANTOM
10
-7.6985089634
20
-1.5387101471
11
-7.7220826868
21
-1.5163609608
0
LINE
5
2DF
100
AcDbEntity
8
0
100
AcDbLine
62
0
6
CONTINUOUS
10
3.3776638549
20
-0.5223136976
11
3.4116865805
21
-0.5546385694
0
LINE
5
2E0
100
AcDbEntity
8
0
100
AcDbLine
62
0
6
CONTINUOUS
10
-7.8568888247
20
-1.8257277990
11
-7.8252813194
21
-1.8559685209
0
LINE
5
2E1
100
AcDbEntity
8
0
100
AcDbLine
62
9
6
CONTINUOUS
10
-2.8892288375
20
-13.3634571307
11
-2.9192598410
21
-13.3343278277
0
LINE
5
2E2
100
AcDbEntity
8
0
100
AcDbLine
62
9
6
CONTINUOUS
10
-8.9509636386
20
-2.1723245195
11
-8.9332130439
21
-2.1895513560
0
LINE
5
2E3
100
AcDbEntity
8
0
100
AcDbLine
62
9
6
CONTINUOUS
10
-2.9854189592
20
-13.4708853314
11
-3.0179533229
21
-13.4393021531
0
LINE
5
2E4
100
AcDbEntity
8
0
100
AcDbLine
62
9
6
CONTINUOUS
10
-2.3958200009
20
-11.7396429286
11
-2.3633775239
21
-11.7712973464
0
LINE
5
2E5
100
AcDbEntity
8
0
100
AcDbLine
62
9
6
CONTINUOUS
10
-9.1482254304
20
-2.3744225737
11
-9.1206353566
21
-2.4015317614
0
LINE
5
2E6
100
AcDbEntity
8
0
100
AcDbLine
62
9
6
CONTINUOUS
10
-2.9738738335
20
-13.2089884458
11
-2.9393148651
21
-13.2430377253
0
LINE
5
2E7
100
AcDbEntity
8
0
100
AcDbLine
62
9
6
CONTINUOUS
10
-2.4691426123
20
-12.0247397139
11
-2.5037015857
21
-11.9906904369
0
LINE
5
2E8
100
AcDbEntity
8
0
100
AcDbLine
62
9
6
CONTINUOUS
10
-2.3736661770
20
-11.9300597258
11
-2.4117068181
21
-11.8925800879
0
LINE
5
2E9
100
AcDbEntity
8
DEFAULT_3
100
AcDbLine
62
9
6
PHANTOM
10
-8.9770468582
20
-2.1452442659
11
-8.9887003239
21
-2.1337256865
0
LINE
5
2EA
100
AcDbEntity
8
DEFAULT_3
100
AcDbLine
62
9
6
PHANTOM
10
3.1851906239
20
-8.2263632961
11
3.1735370348
21
-8.2148448425
0
LINE
5
2EB
100
AcDbEntity
8
DEFAULT_3
100
AcDbLine
62
9
6
PHANTOM
10
-9.0450037753
20
-2.0922675925
11
-9.0264455917
21
-2.1106549790
0
LINE
5
2EC
100
AcDbEntity
8
DEFAULT_3
100
AcDbLine
62
9
6
PHANTOM
10
-9.0353783186
20
-2.0167213847
11
-9.0382695815
21
-2.0138385781
0
LINE
5
2ED
100
AcDbEntity
8
0
100
AcDbLine
62
9
6
CONTINUOUS
10
3.4170461015
20
-0.4867265291
11
3.3898029624
21
-0.4594438740
0
LINE
5
2EE
100
AcDbEntity
8
0
100
AcDbLine
62
0
6
CONTINUOUS
10
-2.9425958723
20
-13.2673929978
11
-2.9808283154
21
-13.2290635136
0
LINE
5
2EF
100
AcDbEntity
8
DEFAULT_3
100
AcDbLine
62
9
6
PHANTOM
10
3.3882130469
20
-0.6625083263
11
3.4052946160
21
-0.6797399562
0
LINE
5
2F0
100
AcDbEntity
8
0
100
AcDbLine
62
0
6
CONTINUOUS
10
-2.4086185848
20
-11.7597326711
11
-2.3062960095
21
-11.8634716295
0
LINE
5
2F1
100
AcDbEntity
8
DEFAULT_3
100
AcDbLine
62
9
6
PHANTOM
10
3.1509320958
20
-0.9210611651
11
3.1537905222
21
-0.9239603899
0
LINE
5
2F2
100
AcDbEntity
8
0
100
AcDbLine
62
9
6
CONTINUOUS
10
-2.9192598410
20
-13.3343278277
11
-2.9496422537
21
-13.3033261920
0
LINE
5
2F3
100
AcDbEntity
8
0
100
AcDbLine
62
0
6
CONTINUOUS
10
-7.8878181101
20
-1.7940526223
11
-7.8568888247
21
-1.8257277990
0
LINE
5
2F4
100
AcDbEntity
8
0
100
AcDbLine
62
9
6
CONTINUOUS
10
-3.0179533229
20
-13.4393021531
11
-3.0507602977
21
-13.4056325297
0
LINE
5
2F5
100
AcDbEntity
8
0
100
AcDbLine
62
9
6
CONTINUOUS
10
-2.3633775239
20
-11.7712973464
11
-2.3306731458
21
-11.8050467292
0
LINE
5
2F6
100
AcDbEntity
8
0
100
AcDbLine
62
9
6
CONTINUOUS
10
-9.3622480230
20
-15.8466749024
11
-9.3953722627
21
-15.8123699914
0
LINE
5
2F7
100
AcDbEntity
8
DEFAULT_3
100
AcDbLine
62
9
6
PHANTOM
10
-7.7220826868
20
-1.5163609608
11
-7.7457173315
21
-1.4917733339
0
LINE
5
2F8
100
AcDbEntity
8
0
100
AcDbLine
62
9
6
CONTINUOUS
10
6.0203010793
20
-22.6592633109
11
6.0359788045
21
-22.6756537782
0
LINE
5
2F9
100
AcDbEntity
8
0
100
AcDbLine
62
9
6
CONTINUOUS
10
5.0116811183
20
-23.0131694031
11
5.0449380989
21
-23.0480475511
0
LINE
5
2FA
100
AcDbEntity
8
DEFAULT_3
100
AcDbLine
62
9
6
PHANTOM
10
-7.9354830097
20
-1.5152777283
11
-7.9644596611
21
-1.4848619724
0
LINE
5
2FB
100
AcDbEntity
8
0
100
AcDbLine
62
0
6
CONTINUOUS
10
-9.5635819682
20
-15.6755239650
11
-9.4779299676
21
-15.7665450855
0
LINE
5
2FC
100
AcDbEntity
8
0
100
AcDbLine
62
0
6
CONTINUOUS
10
-8.0366474109
20
-1.6746212548
11
-7.9990154876
21
-1.7148367241
0
LINE
5
2FD
100
AcDbEntity
8
0
100
AcDbLine
62
9
6
CONTINUOUS
10
-3.0076269763
20
-13.1728769829
11
-2.9738738335
21
-13.2089884458
0
LINE
5
2FE
100
AcDbEntity
8
0
100
AcDbLine
62
9
6
CONTINUOUS
10
-2.4353894516
20
-12.0608511678
11
-2.4691426123
21
-12.0247397139
0
LINE
5
2FF
100
AcDbEntity
8
0
100
AcDbLine
62
9
6
CONTINUOUS
10
-2.3365125751
20
-11.9698093646
11
-2.3736661770
21
-11.9300597258
0
LINE
5
300
100
AcDbEntity
8
0
100
AcDbLine
62
9
6
CONTINUOUS
10
-2.9496422537
20
-13.3033261920
11
-2.9803787324
21
-13.2703130983
0
LINE
5
301
100
AcDbEntity
8
0
100
AcDbLine
62
9
6
CONTINUOUS
10
-3.0507602977
20
-13.4056325297
11
-3.0839883299
21
-13.3698185349
0
LINE
5
302
100
AcDbEntity
8
0
100
AcDbLine
62
9
6
CONTINUOUS
10
-8.9687362643
20
-2.1531283732
11
-8.9509636386
21
-2.1723245195
0
LINE
5
303
100
AcDbEntity
8
0
100
AcDbLine
62
9
6
CONTINUOUS
10
-2.3306731458
20
-11.8050467292
11
-2.2975571760
21
-11.8409489440
0
LINE
5
304
100
AcDbEntity
8
0
100
AcDbLine
62
0
6
CONTINUOUS
10
-2.9808283154
20
-13.2290635136
11
-3.0179074574
21
-13.1886106709
0
LINE
5
305
100
AcDbEntity
8
0
100
AcDbLine
62
0
6
CONTINUOUS
10
-7.9180450403
20
-1.7609550954
11
-7.8878181101
21
-1.7940526223
0
LINE
5
306
100
AcDbEntity
8
0
100
AcDbLine
62
9
6
CONTINUOUS
10
-9.1758289669
20
-2.3440762975
11
-9.1482254304
21
-2.3744225737
0
LINE
5
307
100
AcDbEntity
8
DEFAULT_3
100
AcDbLine
62
9
6
PHANTOM
10
-9.1157737156
20
5.1861171503
11
-9.1051295987
21
5.1742758841
0
LINE
5
308
100
AcDbEntity
8
DEFAULT_3
100
AcDbLine
62
9
6
PHANTOM
10
-9.0382695815
20
-2.0138385781
11
-9.0410304319
21
-2.0107377225
0
LINE
5
309
100
AcDbEntity
8
0
100
AcDbLine
62
9
6
CONTINUOUS
10
3.4442201426
20
-0.5172875530
11
3.4170461015
21
-0.4867265291
0
LINE
5
30A
100
AcDbEntity
8
0
100
AcDbLine
62
9
6
CONTINUOUS
10
-2.9803787324
20
-13.2703130983
11
-3.0112894586
21
-13.2353478549
0
LINE
5
30B
100
AcDbEntity
8
0
100
AcDbLine
62
9
6
CONTINUOUS
10
-3.0839883299
20
-13.3698185349
11
-3.1174882492
21
-13.3319176913
0
LINE
5
30C
100
AcDbEntity
8
DEFAULT_3
100
AcDbLine
62
9
6
PHANTOM
10
-9.1157742737
20
-1.9207011571
11
-9.1051301778
21
-1.9327647505
0
LINE
5
30D
100
AcDbEntity
8
0
100
AcDbLine
62
9
6
CONTINUOUS
10
-2.2975571760
20
-11.8409489440
11
-2.2641785798
21
-11.8789457258
0
LINE
5
30E
100
AcDbEntity
8
DEFAULT_3
100
AcDbLine
62
9
6
PHANTOM
10
-7.7457173315
20
-1.4917733339
11
-7.7691761816
21
-1.4650592674
0
LINE
5
30F
100
AcDbEntity
8
DEFAULT_3
100
AcDbLine
62
9
6
PHANTOM
10
3.4052946160
20
-0.6797399562
11
3.4216898972
21
-0.6984233614
0
LINE
5
310
100
AcDbEntity
8
DEFAULT_3
100
AcDbLine
62
9
6
PHANTOM
10
3.1537905222
20
-0.9239603899
11
3.1565120820
21
-0.9270808908
0
LINE
5
311
100
AcDbEntity
8
0
100
AcDbLine
62
0
6
CONTINUOUS
10
3.4116865805
20
-0.5546385694
11
3.4459345714
21
-0.5941013671
0
LINE
5
312
100
AcDbEntity
8
0
100
AcDbLine
62
9
6
CONTINUOUS
10
-3.0404022376
20
-13.1348814610
11
-3.0076269763
21
-13.1728769829
0
LINE
5
313
100
AcDbEntity
8
0
100
AcDbLine
62
9
6
CONTINUOUS
10
-2.4026141771
20
-12.0988466831
11
-2.4353894516
21
-12.0608511678
0
LINE
5
314
100
AcDbEntity
8
0
100
AcDbLine
62
9
6
CONTINUOUS
10
-2.3004353722
20
-12.0116328387
11
-2.3365125751
21
-11.9698093646
0
LINE
5
315
100
AcDbEntity
8
0
100
AcDbLine
62
9
6
CONTINUOUS
10
-2.7199593697
20
-11.5354941439
11
-2.7128320234
21
-11.5437850088
0
LINE
5
316
100
AcDbEntity
8
0
100
AcDbLine
62
0
6
CONTINUOUS
10
-7.9475937506
20
-1.7264231136
11
-7.9180450403
21
-1.7609550954
0
LINE
5
317
100
AcDbEntity
8
DEFAULT_3
100
AcDbLine
62
9
6
PHANTOM
10
-9.0622919820
20
-2.0720433770
11
-9.0450037753
21
-2.0922675925
0
LINE
5
318
100
AcDbEntity
8
0
100
AcDbLine
62
0
6
CONTINUOUS
10
-3.0179074574
20
-13.1886106709
11
-3.0536929006
21
-13.1462154185
0
LINE
5
319
100
AcDbEntity
8
0
100
AcDbLine
62
9
6
CONTINUOUS
10
-3.0112894586
20
-13.2353478549
11
-3.0425577598
21
-13.1980775232
0
LINE
5
31A
100
AcDbEntity
8
0
100
AcDbLine
62
0
6
CONTINUOUS
10
-2.3062960095
20
-11.8634716295
11
-2.2093165376
21
-11.9795601283
0
LINE
5
31B
100
AcDbEntity
8
0
100
AcDbLine
62
9
6
CONTINUOUS
10
-3.1174882492
20
-13.3319176913
11
-3.1512169582
21
-13.2914661302
0
LINE
5
31C
100
AcDbEntity
8
0
100
AcDbLine
62
9
6
CONTINUOUS
10
-8.9862825270
20
-2.1320397654
11
-8.9687362643
21
-2.1531283732
0
LINE
5
31D
100
AcDbEntity
8
0
100
AcDbLine
62
9
6
CONTINUOUS
10
-9.3953722627
20
-15.8123699914
11
-9.4260967113
21
-15.7753385092
0
LINE
5
31E
100
AcDbEntity
8
0
100
AcDbLine
62
9
6
CONTINUOUS
10
6.0057799836
20
-22.6417429198
11
6.0203010793
21
-22.6592633109
0
LINE
5
31F
100
AcDbEntity
8
0
100
AcDbLine
62
9
6
CONTINUOUS
10
-2.2641785798
20
-11.8789457258
11
-2.2305836624
21
-11.9195020112
0
LINE
5
320
100
AcDbEntity
8
0
100
AcDbLine
62
9
6
CONTINUOUS
10
-9.2033137378
20
-2.3108101507
11
-9.1758289669
21
-2.3440762975
0
LINE
5
321
100
AcDbEntity
8
0
100
AcDbLine
62
9
6
CONTINUOUS
10
4.9808872017
20
-22.9756627506
11
5.0116811183
21
-23.0131694031
0
LINE
5
322
100
AcDbEntity
8
DEFAULT_3
100
AcDbLine
62
9
6
PHANTOM
10
-7.9644596611
20
-1.4848619724
11
-7.9907261567
21
-1.4527288933
0
LINE
5
323
100
AcDbEntity
8
DEFAULT_3
100
AcDbLine
62
9
6
PHANTOM
10
-7.7691761816
20
-1.4650592674
11
-7.7921994321
21
-1.4364005968
0
LINE
5
324
100
AcDbEntity
8
0
100
AcDbLine
62
0
6
CONTINUOUS
10
-7.9762962351
20
-1.6906509904
11
-7.9475937506
21
-1.7264231136
0
LINE
5
325
100
AcDbEntity
8
0
100
AcDbLine
62
9
6
CONTINUOUS
10
-3.0720681952
20
-13.0951586090
11
-3.0404022376
21
-13.1348814610
0
LINE
5
326
100
AcDbEntity
8
0
100
AcDbLine
62
9
6
CONTINUOUS
10
-2.3709482193
20
-12.1385695350
11
-2.4026141771
21
-12.0988466831
0
LINE
5
327
100
AcDbEntity
8
0
100
AcDbLine
62
9
6
CONTINUOUS
10
-2.2655792046
20
-12.0553576004
11
-2.3004353722
21
-12.0116328387
0
LINE
5
328
100
AcDbEntity
8
0
100
AcDbLine
62
9
6
CONTINUOUS
10
-3.0425577598
20
-13.1980775232
11
-3.0741188287
21
-13.1583744957
0
LINE
5
329
100
AcDbEntity
8
0
100
AcDbLine
62
9
6
CONTINUOUS
10
-3.1512169582
20
-13.2914661302
11
-3.1852967244
21
-13.2483670798
0
LINE
5
32A
100
AcDbEntity
8
DEFAULT_3
100
AcDbLine
62
9
6
PHANTOM
10
-9.0410304319
20
-2.0107377225
11
-9.0436557818
21
-2.0074144494
0
LINE
5
32B
100
AcDbEntity
8
0
100
AcDbLine
62
9
6
CONTINUOUS
10
-2.2305836624
20
-11.9195020112
11
-2.1966492944
21
-11.9627138725
0
LINE
5
32C
100
AcDbEntity
8
0
100
AcDbLine
62
0
6
CONTINUOUS
10
-3.0536929006
20
-13.1462154185
11
-3.0880675559
21
-13.1020493050
0
LINE
5
32D
100
AcDbEntity
8
0
100
AcDbLine
62
9
6
CONTINUOUS
10
-8.9577273248
20
5.6618521171
11
-8.9716641188
21
5.6799533754
0
LINE
5
32E
100
AcDbEntity
8
0
100
AcDbLine
62
0
6
CONTINUOUS
10
-8.0041689771
20
-1.6536009444
11
-7.9762962351
21
-1.6906509904
0
LINE
5
32F
100
AcDbEntity
8
0
100
AcDbLine
62
9
6
CONTINUOUS
10
-3.0741188287
20
-13.1583744957
11
-3.1057677391
21
-13.1162815064
0
LINE
5
330
100
AcDbEntity
8
0
100
AcDbLine
62
9
6
CONTINUOUS
10
-3.1852967244
20
-13.2483670798
11
-3.2196040404
21
-13.2027166209
0
LINE
5
331
100
AcDbEntity
8
0
100
AcDbLine
62
9
6
CONTINUOUS
10
-9.0031214793
20
-2.1094978413
11
-8.9862825270
21
-2.1320397654
0
LINE
5
332
100
AcDbEntity
8
0
100
AcDbLine
62
9
6
CONTINUOUS
10
-2.1966492944
20
-11.9627138725
11
-2.1624973630
21
-12.0084845554
0
LINE
5
333
100
AcDbEntity
8
0
100
AcDbLine
62
0
6
CONTINUOUS
10
-9.6395765100
20
-15.5735496771
11
-9.5635819682
21
-15.6755239650
0
LINE
5
334
100
AcDbEntity
8
0
100
AcDbLine
62
9
6
CONTINUOUS
10
-9.2294904399
20
-2.2754835324
11
-9.2033137378
21
-2.3108101507
0
LINE
5
335
100
AcDbEntity
8
DEFAULT_3
100
AcDbLine
62
9
6
PHANTOM
10
-8.9887003239
20
-2.1337256865
11
-8.9988236770
21
-2.1200566761
0
LINE
5
336
100
AcDbEntity
8
0
100
AcDbLine
62
9
6
CONTINUOUS
10
-3.1025398936
20
-13.0538196331
11
-3.0720681952
21
-13.0951586090
0
LINE
5
337
100
AcDbEntity
8
0
100
AcDbLine
62
9
6
CONTINUOUS
10
-2.3404765255
20
-12.1799085132
11
-2.3709482193
21
-12.1385695350
0
LINE
5
338
100
AcDbEntity
8
0
100
AcDbLine
62
9
6
CONTINUOUS
10
-2.2320375986
20
-12.1008612849
11
-2.2655792046
21
-12.0553576004
0
LINE
5
339
100
AcDbEntity
8
DEFAULT_3
100
AcDbLine
62
9
6
PHANTOM
10
-7.7921994321
20
-1.4364005968
11
-7.8146010579
21
-1.4059305044
0
LINE
5
33A
100
AcDbEntity
8
0
100
AcDbLine
62
0
6
CONTINUOUS
10
-8.0712856746
20
-1.6271348140
11
-8.0366474109
21
-1.6746212548
0
LINE
5
33B
100
AcDbEntity
8
DEFAULT_3
100
AcDbLine
62
9
6
PHANTOM
10
-9.0781585787
20
-2.0500422648
11
-9.0622919820
21
-2.0720433770
0
LINE
5
33C
100
AcDbEntity
8
0
100
AcDbLine
62
0
6
CONTINUOUS
10
-3.0880675559
20
-13.1020493050
11
-3.1209542414
21
-13.0562418942
0
LINE
5
33D
100
AcDbEntity
8
0
100
AcDbLine
62
9
6
CONTINUOUS
10
-9.4260967113
20
-15.7753385092
11
-9.4543984440
21
-15.7357617900
0
LINE
5
33E
100
AcDbEntity
8
0
100
AcDbLine
62
9
6
CONTINUOUS
10
5.9924603893
20
-22.6230567791
11
6.0057799836
21
-22.6417429198
0
LINE
5
33F
100
AcDbEntity
8
0
100
AcDbLine
62
0
6
CONTINUOUS
10
-2.2093165376
20
-11.9795601283
11
-2.1193780654
21
-12.1061769052
0
LINE
5
340
100
AcDbEntity
8
0
100
AcDbLine
62
9
6
CONTINUOUS
10
-3.1057677391
20
-13.1162815064
11
-3.1374351676
21
-13.0716794436
0
LINE
5
341
100
AcDbEntity
8
0
100
AcDbLine
62
9
6
CONTINUOUS
10
4.9525724075
20
-22.9357180537
11
4.9808872017
21
-22.9756627506
0
LINE
5
342
100
AcDbEntity
8
0
100
AcDbLine
62
0
6
CONTINUOUS
10
-8.0311954931
20
-1.6153107570
11
-8.0041689771
21
-1.6536009444
0
LINE
5
343
100
AcDbEntity
8
0
100
AcDbLine
62
9
6
CONTINUOUS
10
-3.2196040404
20
-13.2027166209
11
-3.2537268399
21
-13.1543399925
0
LINE
5
344
100
AcDbEntity
8
DEFAULT_3
100
AcDbLine
62
9
6
PHANTOM
10
-9.0436557818
20
-2.0074144494
11
-9.0461507089
21
-2.0038731218
0
LINE
5
345
100
AcDbEntity
8
0
100
AcDbLine
62
9
6
CONTINUOUS
10
-9.8131387544
20
-15.0389942544
11
-9.7652444400
21
-15.1071407514
0
LINE
5
346
100
AcDbEntity
8
DEFAULT_3
100
AcDbLine
62
9
6
PHANTOM
10
-7.9907261567
20
-1.4527288933
11
-8.0143600901
21
-1.4190356983
0
LINE
5
347
100
AcDbEntity
8
0
100
AcDbLine
62
9
6
CONTINUOUS
10
-2.1624973630
20
-12.0084845554
11
-2.1285413905
21
-12.0569895877
0
LINE
5
348
100
AcDbEntity
8
0
100
AcDbLine
62
9
6
CONTINUOUS
10
-3.1317239311
20
-13.0109912575
11
-3.1025398936
21
-13.0538196331
0
LINE
5
349
100
AcDbEntity
8
0
100
AcDbLine
62
9
6
CONTINUOUS
10
-2.3112924912
20
-12.2227368905
11
-2.3404765255
21
-12.1799085132
0
LINE
5
34A
100
AcDbEntity
8
0
100
AcDbLine
62
9
6
CONTINUOUS
10
-2.1999133817
20
-12.1480044282
11
-2.2320375986
21
-12.1008612849
0
LINE
5
34B
100
AcDbEntity
8
0
100
AcDbLine
62
9
6
CONTINUOUS
10
-9.0191336211
20
-2.0855884629
11
-9.0031214793
21
-2.1094978413
0
LINE
5
34C
100
AcDbEntity
8
0
100
AcDbLine
62
9
6
CONTINUOUS
10
-3.1374351676
20
-13.0716794436
11
-3.1689335009
21
-13.0245838442
0
LINE
5
34D
100
AcDbEntity
8
0
100
AcDbLine
62
9
6
CONTINUOUS
10
-3.2537268399
20
-13.1543399925
11
-3.2877046461
21
-13.1032207675
0
LINE
5
34E
100
AcDbEntity
8
0
100
AcDbLine
62
0
6
CONTINUOUS
10
-3.1209542414
20
-13.0562418942
11
-3.1522738992
21
-13.0089259772
0
LINE
5
34F
100
AcDbEntity
8
0
100
AcDbLine
62
9
6
CONTINUOUS
10
-9.4543984440
20
-15.7357617900
11
-9.4802730057
21
-15.6938087041
0
LINE
5
350
100
AcDbEntity
8
0
100
AcDbLine
62
9
6
CONTINUOUS
10
6.1915125885
20
-22.7514294393
11
6.2132283010
21
-22.7536684987
0
LINE
5
351
100
AcDbEntity
8
0
100
AcDbLine
62
0
6
CONTINUOUS
10
5.4941607399
20
-23.2512124388
11
5.6337808878
21
-23.2658161064
0
LINE
5
352
100
AcDbEntity
8
0
100
AcDbLine
62
9
6
CONTINUOUS
10
-2.3380954816
20
-13.8019269925
11
-2.4375667443
21
-13.7878754924
0
LINE
5
353
100
AcDbEntity
8
0
100
AcDbLine
62
9
6
CONTINUOUS
10
-2.2914803285
20
-13.6690949823
11
-2.3850111182
21
-13.6558145833
0
LINE
5
354
100
AcDbEntity
8
0
100
AcDbLine
62
9
6
CONTINUOUS
10
5.1548271534
20
-22.5229772721
11
5.0255675822
21
-22.5025468331
0
LINE
5
355
100
AcDbEntity
8
0
100
AcDbLine
62
0
6
CONTINUOUS
10
-2.4862163238
20
-13.5126247170
11
-2.5204884431
21
-13.5068033314
0
LINE
5
356
100
AcDbEntity
8
0
100
AcDbLine
62
9
6
CONTINUOUS
10
-2.5746761528
20
-13.4513049850
11
-2.5389030772
21
-13.4574869161
0
LINE
5
357
100
AcDbEntity
8
0
100
AcDbLine
62
9
6
CONTINUOUS
10
-2.8683402388
20
-11.7824231476
11
-2.9041133665
21
-11.7762412425
0
LINE
5
358
100
AcDbEntity
8
0
100
AcDbLine
62
9
6
CONTINUOUS
10
-2.8130813345
20
-11.6633311655
11
-2.8524585132
21
-11.6565260336
0
LINE
5
359
100
AcDbEntity
8
0
100
AcDbLine
62
9
6
CONTINUOUS
10
6.1701238397
20
-22.7475981757
11
6.1915125885
21
-22.7514294393
0
LINE
5
35A
100
AcDbEntity
8
0
100
AcDbLine
62
0
6
CONTINUOUS
10
-2.9385967990
20
-11.4734829312
11
-2.8543277938
21
-11.4909796085
0
LINE
5
35B
100
AcDbEntity
8
0
100
AcDbLine
62
9
6
CONTINUOUS
10
3.3339685636
20
-8.6473932334
11
3.3601161625
21
-8.6530136490
0
LINE
5
35C
100
AcDbEntity
8
DEFAULT_3
100
AcDbLine
62
9
6
PHANTOM
10
3.2609747060
20
-8.1090760934
11
3.2370700062
21
-8.1038651187
0
LINE
5
35D
100
AcDbEntity
8
0
100
AcDbLine
62
9
6
CONTINUOUS
10
3.4467876965
20
-8.3911265922
11
3.4633398945
21
-8.3948284721
0
LINE
5
35E
100
AcDbEntity
8
DEFAULT_3
100
AcDbLine
62
9
6
PHANTOM
10
-8.1906336178
20
-0.4312594001
11
-8.2055108777
21
-0.4278856592
0
LINE
5
35F
100
AcDbEntity
8
DEFAULT_3
100
AcDbLine
62
9
6
PHANTOM
10
3.2609761600
20
-1.0022573381
11
3.2370711428
21
-0.9968242053
0
LINE
5
360
100
AcDbEntity
8
0
100
AcDbLine
62
0
6
CONTINUOUS
10
-2.5204884431
20
-13.5068033314
11
-2.5552055903
21
-13.4987942066
0
LINE
5
361
100
AcDbEntity
8
DEFAULT_3
100
AcDbLine
62
9
6
PHANTOM
10
3.1480090608
20
-8.1095371498
11
3.1450455009
21
-8.1088517330
0
LINE
5
362
100
AcDbEntity
8
0
100
AcDbLine
62
0
6
CONTINUOUS
10
5.3590879049
20
-23.2193683522
11
5.4941607399
21
-23.2512124388
0
LINE
5
363
100
AcDbEntity
8
DEFAULT_3
100
AcDbLine
62
9
6
PHANTOM
10
3.5046174626
20
-7.1542771029
11
3.4909549144
21
-7.1508958128
0
LINE
5
364
100
AcDbEntity
8
0
100
AcDbLine
62
9
6
CONTINUOUS
10
-2.6109403173
20
-13.4423173436
11
-2.5746761528
21
-13.4513049850
0
LINE
5
365
100
AcDbEntity
8
0
100
AcDbLine
62
9
6
CONTINUOUS
10
-2.8320760416
20
-11.7914107726
11
-2.8683402388
21
-11.7824231476
0
LINE
5
366
100
AcDbEntity
8
0
100
AcDbLine
62
9
6
CONTINUOUS
10
-2.7731636610
20
-11.6732245170
11
-2.8130813345
21
-11.6633311655
0
LINE
5
367
100
AcDbEntity
8
DEFAULT_3
100
AcDbLine
62
9
6
PHANTOM
10
3.2462570374
20
-8.2557938253
11
3.2719961997
21
-8.2625466786
0
LINE
5
368
100
AcDbEntity
8
0
100
AcDbLine
62
0
6
CONTINUOUS
10
-8.9791309207
20
5.6624097249
11
-8.9652799719
21
5.6587559104
0
LINE
5
369
100
AcDbEntity
8
DEFAULT_3
100
AcDbLine
62
9
6
PHANTOM
10
-8.1761648664
20
-0.4351262545
11
-8.1906336178
21
-0.4312594001
0
LINE
5
36A
100
AcDbEntity
8
DEFAULT_3
100
AcDbLine
62
9
6
PHANTOM
10
-8.1906336178
20
4.5916879418
11
-8.1761648664
21
4.5878210875
0
LINE
5
36B
100
AcDbEntity
8
DEFAULT_3
100
AcDbLine
62
9
6
PHANTOM
10
3.3305641676
20
-7.1600598692
11
3.2939184617
21
-7.1502469539
0
LINE
5
36C
100
AcDbEntity
8
DEFAULT_3
100
AcDbLine
62
9
6
PHANTOM
10
3.2370700062
20
-8.1038651187
11
3.2144086833
21
-8.0974031654
0
LINE
5
36D
100
AcDbEntity
8
0
100
AcDbLine
62
9
6
CONTINUOUS
10
-9.3278728410
20
-1.8458830170
11
-9.3578712784
21
-1.8373057090
0
LINE
5
36E
100
AcDbEntity
8
0
100
AcDbLine
62
9
6
CONTINUOUS
10
-2.9442383084
20
-11.4222680723
11
-2.8396150548
21
-11.4524060063
0
LINE
5
36F
100
AcDbEntity
8
0
100
AcDbLine
62
9
6
CONTINUOUS
10
-9.0388075204
20
5.7793097211
11
-9.0643154081
21
5.7866603728
0
LINE
5
370
100
AcDbEntity
8
0
100
AcDbLine
62
9
6
CONTINUOUS
10
-2.4375667443
20
-13.7878754924
11
-2.5417082587
21
-13.7576772471
0
LINE
5
371
100
AcDbEntity
8
0
100
AcDbLine
62
9
6
CONTINUOUS
10
-2.3850111182
20
-13.6558145833
11
-2.4815942821
21
-13.6277265685
0
LINE
5
372
100
AcDbEntity
8
0
100
AcDbLine
62
0
6
CONTINUOUS
10
-2.5552055903
20
-13.4987942066
11
-2.5901732022
21
-13.4886202944
0
LINE
5
373
100
AcDbEntity
8
DEFAULT_3
100
AcDbLine
62
9
6
PHANTOM
10
3.2370711428
20
-0.9968242053
11
3.2144094570
21
-0.9902017595
0
LINE
5
374
100
AcDbEntity
8
0
100
AcDbLine
62
9
6
CONTINUOUS
10
3.3085988312
20
-8.6399735041
11
3.3339685636
21
-8.6473932334
0
LINE
5
375
100
AcDbEntity
8
0
100
AcDbLine
62
9
6
CONTINUOUS
10
-9.3278728419
20
5.4533000619
11
-9.3578712794
21
5.4621016257
0
LINE
5
376
100
AcDbEntity
8
0
100
AcDbLine
62
9
6
CONTINUOUS
10
3.4306095760
20
-8.3861137564
11
3.4467876965
21
-8.3911265922
0
LINE
5
377
100
AcDbEntity
8
DEFAULT_3
100
AcDbLine
62
9
6
PHANTOM
10
-8.1622891776
20
-0.4394368993
11
-8.1761648664
21
-0.4351262545
0
LINE
5
378
100
AcDbEntity
8
DEFAULT_3
100
AcDbLine
62
9
6
PHANTOM
10
-8.1761648664
20
4.5878210875
11
-8.1622891776
21
4.5835104427
0
LINE
5
379
100
AcDbEntity
8
DEFAULT_3
100
AcDbLine
62
9
6
PHANTOM
10
3.4909549144
20
-7.1508958128
11
3.4759278488
21
-7.1460492016
0
LINE
5
37A
100
AcDbEntity
8
DEFAULT_3
100
AcDbLine
62
9
6
PHANTOM
10
-9.0294478704
20
5.1710911099
11
-9.0264086910
21
5.1700637947
0
LINE
5
37B
100
AcDbEntity
8
DEFAULT_3
100
AcDbLine
62
9
6
PHANTOM
10
-8.8833991357
20
5.4850423853
11
-8.8650444649
21
5.4788294654
0
LINE
5
37C
100
AcDbEntity
8
DEFAULT_3
100
AcDbLine
62
9
6
PHANTOM
10
3.1450455009
20
-8.1088517330
11
3.1420173265
21
-8.1078189153
0
LINE
5
37D
100
AcDbEntity
8
DEFAULT_3
100
AcDbLine
62
9
6
PHANTOM
10
3.2939184617
20
-7.1502469539
11
3.2578196109
21
-7.1373578105
0
LINE
5
37E
100
AcDbEntity
8
DEFAULT_3
100
AcDbLine
62
9
6
PHANTOM
10
-8.1490680693
20
-0.4441748935
11
-8.1622891776
21
-0.4394368993
0
LINE
5
37F
100
AcDbEntity
8
DEFAULT_3
100
AcDbLine
62
9
6
PHANTOM
10
-8.1622891776
20
4.5835104427
11
-8.1490680693
21
4.5787724485
0
LINE
5
380
100
AcDbEntity
8
DEFAULT_3
100
AcDbLine
62
9
6
PHANTOM
10
3.2144086833
20
-8.0974031654
11
3.1932390023
21
-8.0897610404
0
LINE
5
381
100
AcDbEntity
8
DEFAULT_3
100
AcDbLine
62
9
6
PHANTOM
10
3.2144094570
20
-0.9902017595
11
3.1932393888
21
-0.9824625577
0
LINE
5
382
100
AcDbEntity
8
DEFAULT_3
100
AcDbLine
62
9
6
PHANTOM
10
3.2209919953
20
-8.2465301726
11
3.2462570374
21
-8.2557938253
0
LINE
5
383
100
AcDbEntity
8
0
100
AcDbLine
62
0
6
CONTINUOUS
10
-8.9652799719
20
5.6587559104
11
-8.9490080124
21
5.6526223474
0
LINE
5
384
100
AcDbEntity
8
0
100
AcDbLine
62
9
6
CONTINUOUS
10
-8.6756288192
20
21.8004124562
11
-8.5758688086
21
21.7626524806
0
LINE
5
385
100
AcDbEntity
8
0
100
AcDbLine
62
9
6
CONTINUOUS
10
-9.0139190394
20
5.7698501469
11
-9.0388075204
21
5.7793097211
0
LINE
5
386
100
AcDbEntity
8
DEFAULT_3
100
AcDbLine
62
9
6
PHANTOM
10
-8.1490680693
20
4.5787724485
11
-8.1364400236
21
4.5735906638
0
LINE
5
387
100
AcDbEntity
8
0
100
AcDbLine
62
9
6
CONTINUOUS
10
-9.3578712794
20
5.4621016257
11
-9.3844183115
21
5.4732908525
0
LINE
5
388
100
AcDbEntity
8
0
100
AcDbLine
62
9
6
CONTINUOUS
10
4.9064022695
20
12.7786360248
11
4.8008722819
21
12.8238620774
0
LINE
5
389
100
AcDbEntity
8
DEFAULT_3
100
AcDbLine
62
9
6
PHANTOM
10
-9.0264086910
20
5.1700637947
11
-9.0233121003
21
5.1686854770
0
LINE
5
38A
100
AcDbEntity
8
DEFAULT_3
100
AcDbLine
62
9
6
PHANTOM
10
-8.8650444649
20
5.4788294654
11
-8.8465523481
21
5.4705742016
0
LINE
5
38B
100
AcDbEntity
8
DEFAULT_3
100
AcDbLine
62
9
6
PHANTOM
10
3.1932393888
20
-0.9824625577
11
3.1737928819
21
-0.9736913920
0
LINE
5
38C
100
AcDbEntity
8
0
100
AcDbLine
62
0
6
CONTINUOUS
10
-8.9490080124
20
5.6526223474
11
-8.9379575170
21
5.6474815243
0
LINE
5
38D
100
AcDbEntity
8
0
100
AcDbLine
62
9
6
CONTINUOUS
10
4.8008722453
20
12.8238620622
11
-9.6071052895
21
20.0278508296
0
LINE
5
38E
100
AcDbEntity
8
0
100
AcDbLine
62
9
6
CONTINUOUS
10
5.8490469798
20
14.5501945864
11
-8.5758688086
21
21.7626524806
0
LINE
5
38F
100
AcDbEntity
8
0
100
AcDbLine
62
0
6
CONTINUOUS
10
-4.5889572912
20
23.9136827107
11
9.9776147145
21
16.6303967079
0
LINE
5
390
100
AcDbEntity
8
0
100
AcDbLine
62
9
6
CONTINUOUS
10
-9.6958793610
20
20.0797769945
11
-9.6071050811
21
20.0278509165
0
LINE
5
391
100
AcDbEntity
8
0
100
AcDbLine
62
0
6
CONTINUOUS
10
9.9776147145
20
16.6303967079
11
10.0535981417
21
16.5855699817
0
LINE
5
392
100
AcDbEntity
8
0
100
AcDbLine
62
9
6
CONTINUOUS
10
5.9456798404
20
14.4897581266
11
5.8490469798
21
14.5501945864
0
LINE
5
393
100
AcDbEntity
8
0
100
AcDbLine
62
0
6
CONTINUOUS
10
10.0535981417
20
16.5855699817
11
10.1258514999
21
16.5318170503
0
LINE
5
394
100
AcDbEntity
8
0
100
AcDbLine
62
9
6
CONTINUOUS
10
6.0396775534
20
14.4102675688
11
5.9456798404
21
14.4897581266
0
LINE
5
395
100
AcDbEntity
8
0
100
AcDbLine
62
0
6
CONTINUOUS
10
10.1258514999
20
16.5318170503
11
10.1943747889
21
16.4691379137
0
LINE
5
396
100
AcDbEntity
8
0
100
AcDbLine
62
9
6
CONTINUOUS
10
6.1281851505
20
14.3141372589
11
6.0396775534
21
14.4102675688
0
LINE
5
397
100
AcDbEntity
8
0
100
AcDbLine
62
0
6
CONTINUOUS
10
10.1943747889
20
16.4691379137
11
10.2601733574
21
16.3961869077
0
LINE
5
398
100
AcDbEntity
8
0
100
AcDbLine
62
9
6
CONTINUOUS
10
3.4712003775
20
-0.5508059678
11
3.4442201426
21
-0.5172875530
0
LINE
5
399
100
AcDbEntity
8
0
100
AcDbLine
62
9
6
CONTINUOUS
10
-9.8131386189
20
20.1982620586
11
-9.7652442951
21
20.1371490018
0
LINE
5
39A
100
AcDbEntity
8
DEFAULT_3
100
AcDbLine
62
9
6
PHANTOM
10
3.4216898972
20
-0.6984233614
11
3.4372736193
21
-0.7184158498
0
LINE
5
39B
100
AcDbEntity
8
DEFAULT_3
100
AcDbLine
62
9
6
PHANTOM
10
3.1565120820
20
-0.9270808908
11
3.1590915390
21
-0.9304271104
0
LINE
5
39C
100
AcDbEntity
8
0
100
AcDbLine
62
9
6
CONTINUOUS
10
3.2914547829
20
-0.4627388634
11
3.2775180301
21
-0.4446375726
0
LINE
5
39D
100
AcDbEntity
8
0
100
AcDbLine
62
0
6
CONTINUOUS
10
10.2601733574
20
16.3961869077
11
10.3222418568
21
16.3143096965
0
LINE
5
39E
100
AcDbEntity
8
0
100
AcDbLine
62
9
6
CONTINUOUS
10
3.5910389592
20
-0.9960310493
11
3.6029764832
21
-1.0121246002
0
LINE
5
39F
100
AcDbEntity
8
DEFAULT_3
100
AcDbLine
62
9
6
PHANTOM
10
3.1735370348
20
-8.2148448425
11
3.1634135320
21
-8.2011759006
0
LINE
5
3A0
100
AcDbEntity
8
0
100
AcDbLine
62
9
6
CONTINUOUS
10
6.2085144135
20
14.2042869381
11
6.1281851505
21
14.3141372589
0
LINE
5
3A1
100
AcDbEntity
8
0
100
AcDbLine
62
9
6
CONTINUOUS
10
3.5910389599
20
-8.2948528018
11
3.6029764834
21
-8.3113076796
0
LINE
5
3A2
100
AcDbEntity
8
0
100
AcDbLine
62
0
6
CONTINUOUS
10
3.4459345714
20
-0.5941013671
11
3.4786117007
21
-0.6395449266
0
LINE
5
3A3
100
AcDbEntity
8
0
100
AcDbLine
62
9
6
CONTINUOUS
10
3.4968054290
20
-0.5864184114
11
3.4712003775
21
-0.5508059678
0
LINE
5
3A4
100
AcDbEntity
8
DEFAULT_3
100
AcDbLine
62
9
6
PHANTOM
10
3.4372736193
20
-0.7184158498
11
3.4519276020
21
-0.7395655684
0
LINE
5
3A5
100
AcDbEntity
8
DEFAULT_3
100
AcDbLine
62
9
6
PHANTOM
10
3.1590915390
20
-0.9304271104
11
3.1615341395
21
-0.9339946012
0
LINE
5
3A6
100
AcDbEntity
8
DEFAULT_3
100
AcDbLine
62
9
6
PHANTOM
10
-7.8146010579
20
-1.4059305044
11
-7.8361900802
21
-1.3738179411
0
LINE
5
3A7
100
AcDbEntity
8
0
100
AcDbLine
62
0
6
CONTINUOUS
10
-8.0571583277
20
-1.5760880849
11
-8.0311954931
21
-1.6153107570
0
LINE
5
3A8
100
AcDbEntity
8
0
100
AcDbLine
62
9
6
CONTINUOUS
10
-2.1285413905
20
-12.0569895877
11
-2.0947398370
21
-12.1082445562
0
LINE
5
3A9
100
AcDbEntity
8
0
100
AcDbLine
62
9
6
CONTINUOUS
10
-9.2542708923
20
-2.2378553523
11
-9.2294904399
21
-2.2754835324
0
LINE
5
3AA
100
AcDbEntity
8
DEFAULT_3
100
AcDbLine
62
9
6
PHANTOM
10
-9.1238609522
20
5.1984195201
11
-9.1157737156
21
5.1861171503
0
LINE
5
3AB
100
AcDbEntity
8
DEFAULT_3
100
AcDbLine
62
9
6
PHANTOM
10
-9.1238614095
20
-1.9081172116
11
-9.1157742737
21
-1.9207011571
0
LINE
5
3AC
100
AcDbEntity
8
0
100
AcDbLine
62
9
6
CONTINUOUS
10
3.5209410355
20
-0.6243690145
11
3.4968054290
21
-0.5864184114
0
LINE
5
3AD
100
AcDbEntity
8
0
100
AcDbLine
62
9
6
CONTINUOUS
10
-3.1595259251
20
-12.9668093223
11
-3.1317239311
21
-13.0109912575
0
LINE
5
3AE
100
AcDbEntity
8
0
100
AcDbLine
62
9
6
CONTINUOUS
10
-2.2834904964
20
-12.2669188252
11
-2.3112924912
21
-12.2227368905
0
LINE
5
3AF
100
AcDbEntity
8
0
100
AcDbLine
62
9
6
CONTINUOUS
10
-2.1693104558
20
-12.1966375114
11
-2.1999133817
21
-12.1480044282
0
LINE
5
3B0
100
AcDbEntity
8
0
100
AcDbLine
62
9
6
CONTINUOUS
10
-3.1689335009
20
-13.0245838442
11
-3.2000971537
21
-12.9749735546
0
LINE
5
3B1
100
AcDbEntity
8
0
100
AcDbLine
62
9
6
CONTINUOUS
10
-3.2877046461
20
-13.1032207675
11
-3.3214960567
21
-13.0493743273
0
LINE
5
3B2
100
AcDbEntity
8
DEFAULT_3
100
AcDbLine
62
9
6
PHANTOM
10
-9.0461507089
20
-2.0038731218
11
-9.0484574684
21
-2.0001951787
0
LINE
5
3B3
100
AcDbEntity
8
0
100
AcDbLine
62
9
6
CONTINUOUS
10
-2.0947398370
20
-12.1082445562
11
-2.0611323598
21
-12.1622328392
0
LINE
5
3B4
100
AcDbEntity
8
0
100
AcDbLine
62
0
6
CONTINUOUS
10
-8.0820289740
20
-1.5359596290
11
-8.0571583277
21
-1.5760880849
0
LINE
5
3B5
100
AcDbEntity
8
DEFAULT_3
100
AcDbLine
62
9
6
PHANTOM
10
3.4519276020
20
-0.7395655684
11
3.4655414183
21
-0.7617121348
0
LINE
5
3B6
100
AcDbEntity
8
0
100
AcDbLine
62
9
6
CONTINUOUS
10
5.9802974246
20
-22.6032407148
11
5.9924603893
21
-22.6230567791
0
LINE
5
3B7
100
AcDbEntity
8
DEFAULT_3
100
AcDbLine
62
9
6
PHANTOM
10
-7.8361900802
20
-1.3738179411
11
-7.8567342885
21
-1.3403386941
0
LINE
5
3B8
100
AcDbEntity
8
0
100
AcDbLine
62
9
6
CONTINUOUS
10
4.9267309646
20
-22.8935103692
11
4.9525724075
21
-22.9357180537
0
LINE
5
3B9
100
AcDbEntity
8
0
100
AcDbLine
62
0
6
CONTINUOUS
10
-3.1522738992
20
-13.0089259772
11
-3.1819371706
21
-12.9602537433
0
LINE
5
3BA
100
AcDbEntity
8
DEFAULT_3
100
AcDbLine
62
9
6
PHANTOM
10
3.1615341395
20
-0.9339946012
11
3.1637833495
21
-0.9377013191
0
LINE
5
3BB
100
AcDbEntity
8
DEFAULT_3
100
AcDbLine
62
9
6
PHANTOM
10
-9.0919912379
20
-2.0271304954
11
-9.0781585787
21
-2.0500422648
0
LINE
5
3BC
100
AcDbEntity
8
0
100
AcDbLine
62
0
6
CONTINUOUS
10
-2.1193780654
20
-12.1061769052
11
-2.0382215943
21
-12.2410325354
0
LINE
5
3BD
100
AcDbEntity
8
DEFAULT_3
100
AcDbLine
62
9
6
PHANTOM
10
-8.0143600901
20
-1.4190356983
11
-8.0356096878
21
-1.3835309676
0
LINE
5
3BE
100
AcDbEntity
8
0
100
AcDbLine
62
9
6
CONTINUOUS
10
-9.0341556990
20
-2.0604748455
11
-9.0191336211
21
-2.0855884629
0
LINE
5
3BF
100
AcDbEntity
8
0
100
AcDbLine
62
0
6
CONTINUOUS
10
3.4786117007
20
-0.6395449266
11
3.5082178624
21
-0.6894104110
0
LINE
5
3C0
100
AcDbEntity
8
0
100
AcDbLine
62
9
6
CONTINUOUS
10
-9.2777419865
20
-2.1981660318
11
-9.2542708923
21
-2.2378553523
0
LINE
5
3C1
100
AcDbEntity
8
0
100
AcDbLine
62
9
6
CONTINUOUS
10
-3.2000971537
20
-12.9749735546
11
-3.2308468739
21
-12.9226810226
0
LINE
5
3C2
100
AcDbEntity
8
0
100
AcDbLine
62
9
6
CONTINUOUS
10
-3.3214960567
20
-13.0493743273
11
-3.3545672371
21
-12.9926734116
0
LINE
5
3C3
100
AcDbEntity
8
0
100
AcDbLine
62
0
6
CONTINUOUS
10
-9.7046181852
20
-15.4618675879
11
-9.6395765100
21
-15.5735496771
0
LINE
5
3C4
100
AcDbEntity
8
0
100
AcDbLine
62
9
6
CONTINUOUS
10
-3.1858448941
20
-12.9214314577
11
-3.1595259251
21
-12.9668093223
0
LINE
5
3C5
100
AcDbEntity
8
0
100
AcDbLine
62
9
6
CONTINUOUS
10
-2.2571715252
20
-12.3122966887
11
-2.2834904964
21
-12.2669188252
0
LINE
5
3C6
100
AcDbEntity
8
0
100
AcDbLine
62
9
6
CONTINUOUS
10
-2.1403399692
20
-12.2465870116
11
-2.1693104558
21
-12.1966375114
0
LINE
5
3C7
100
AcDbEntity
8
0
100
AcDbLine
62
0
6
CONTINUOUS
10
-8.1058359388
20
-1.4948986886
11
-8.0820289740
21
-1.5359596290
0
LINE
5
3C8
100
AcDbEntity
8
0
100
AcDbLine
62
9
6
CONTINUOUS
10
-2.0611323598
20
-12.1622328392
11
-2.0282538949
21
-12.2190814415
0
LINE
5
3C9
100
AcDbEntity
8
0
100
AcDbLine
62
0
6
CONTINUOUS
10
-8.1021008679
20
-1.5738436324
11
-8.0712856746
21
-1.6271348140
0
LINE
5
3CA
100
AcDbEntity
8
0
100
AcDbLine
62
9
6
CONTINUOUS
10
3.5437027481
20
-0.6644130258
11
3.5209410355
21
-0.6243690145
0
LINE
5
3CB
100
AcDbEntity
8
0
100
AcDbLine
62
0
6
CONTINUOUS
10
-3.1819371706
20
-12.9602537433
11
-3.2098545911
21
-12.9103864663
0
LINE
5
3CC
100
AcDbEntity
8
DEFAULT_3
100
AcDbLine
62
9
6
PHANTOM
10
-7.8567342885
20
-1.3403386941
11
-7.8760786243
21
-1.3056979937
0
LINE
5
3CD
100
AcDbEntity
8
DEFAULT_3
100
AcDbLine
62
9
6
PHANTOM
10
-9.0484574684
20
-2.0001951787
11
-9.0505713336
21
-1.9963775739
0
LINE
5
3CE
100
AcDbEntity
8
0
100
AcDbLine
62
9
6
CONTINUOUS
10
-3.2308468739
20
-12.9226810226
11
-3.2609466095
21
-12.8677623912
0
LINE
5
3CF
100
AcDbEntity
8
0
100
AcDbLine
62
9
6
CONTINUOUS
10
-3.3545672371
20
-12.9926734116
11
-3.3869872559
21
-12.9330634163
0
LINE
5
3D0
100
AcDbEntity
8
DEFAULT_3
100
AcDbLine
62
9
6
PHANTOM
10
-8.9988236770
20
-2.1200566761
11
-9.0073079633
21
-2.1043843831
0
LINE
5
3D1
100
AcDbEntity
8
0
100
AcDbLine
62
0
6
CONTINUOUS
10
-8.1284472870
20
-1.4531328181
11
-8.1058359388
21
-1.4948986886
0
LINE
5
3D2
100
AcDbEntity
8
DEFAULT_3
100
AcDbLine
62
9
6
PHANTOM
10
3.1634135320
20
-8.2011759006
11
3.1549290856
21
-8.1855036040
0
LINE
5
3D3
100
AcDbEntity
8
0
100
AcDbLine
62
9
6
CONTINUOUS
10
-2.0282538949
20
-12.2190814415
11
-1.9960326508
21
-12.2788438290
0
LINE
5
3D4
100
AcDbEntity
8
DEFAULT_3
100
AcDbLine
62
9
6
PHANTOM
10
-8.6475280262
20
-0.5397670507
11
-8.6923567998
21
-0.4561154203
0
LINE
5
3D5
100
AcDbEntity
8
DEFAULT_3
100
AcDbLine
62
9
6
PHANTOM
10
-8.6475280262
20
4.4831802912
11
-8.6923567998
21
4.5668319216
0
LINE
5
3D6
100
AcDbEntity
8
0
100
AcDbLine
62
9
6
CONTINUOUS
10
5.9693350044
20
-22.5827254395
11
5.9802974246
21
-22.6032407148
0
LINE
5
3D7
100
AcDbEntity
8
0
100
AcDbLine
62
9
6
CONTINUOUS
10
-3.2105844449
20
-12.8750234250
11
-3.1858448941
21
-12.9214314577
0
LINE
5
3D8
100
AcDbEntity
8
0
100
AcDbLine
62
9
6
CONTINUOUS
10
-2.2324319726
20
-12.3587047205
11
-2.2571715252
21
-12.3122966887
0
LINE
5
3D9
100
AcDbEntity
8
0
100
AcDbLine
62
9
6
CONTINUOUS
10
-2.1131080197
20
-12.2976704622
11
-2.1403399692
21
-12.2465870116
0
LINE
5
3DA
100
AcDbEntity
8
0
100
AcDbLine
62
9
6
CONTINUOUS
10
-9.4802730057
20
-15.6938087041
11
-9.5035545481
21
-15.6499887420
0
LINE
5
3DB
100
AcDbEntity
8
0
100
AcDbLine
62
9
6
CONTINUOUS
10
-9.0477616705
20
-2.0348620141
11
-9.0341556990
21
-2.0604748455
0
LINE
5
3DC
100
AcDbEntity
8
0
100
AcDbLine
62
9
6
CONTINUOUS
10
-9.2989772712
20
-2.1579973646
11
-9.2777419865
21
-2.1981660318
0
LINE
5
3DD
100
AcDbEntity
8
0
100
AcDbLine
62
9
6
CONTINUOUS
10
4.9035185111
20
-22.8495555932
11
4.9267309646
21
-22.8935103692
0
LINE
5
3DE
100
AcDbEntity
8
0
100
AcDbLine
62
9
6
CONTINUOUS
10
-2.7253443085
20
-11.5250248399
11
-2.7199593697
21
-11.5354941439
0
LINE
5
3DF
100
AcDbEntity
8
0
100
AcDbLine
62
0
6
CONTINUOUS
10
-3.2098545911
20
-12.9103864663
11
-3.2359478189
21
-12.8594748431
0
LINE
5
3E0
100
AcDbEntity
8
0
100
AcDbLine
62
9
6
CONTINUOUS
10
-3.2609466095
20
-12.8677623912
11
-3.2901612500
21
-12.8102645474
0
LINE
5
3E1
100
AcDbEntity
8
0
100
AcDbLine
62
9
6
CONTINUOUS
10
-3.3869872559
20
-12.9330634163
11
-3.4186843049
21
-12.8705974231
0
LINE
5
3E2
100
AcDbEntity
8
DEFAULT_3
100
AcDbLine
62
9
6
PHANTOM
10
-7.8760786243
20
-1.3056979937
11
-7.8940806457
21
-1.2701144533
0
LINE
5
3E3
100
AcDbEntity
8
DEFAULT_3
100
AcDbLine
62
9
6
PHANTOM
10
-8.0356096878
20
-1.3835309676
11
-8.0539860267
21
-1.3471631792
0
LINE
5
3E4
100
AcDbEntity
8
0
100
AcDbLine
62
0
6
CONTINUOUS
10
-8.1498731818
20
-1.4106220221
11
-8.1284472870
21
-1.4531328181
0
LINE
5
3E5
100
AcDbEntity
8
0
100
AcDbLine
62
0
6
CONTINUOUS
10
-2.0382215943
20
-12.2410325354
11
-1.9673903168
21
-12.3815925212
0
LINE
5
3E6
100
AcDbEntity
8
0
100
AcDbLine
62
9
6
CONTINUOUS
10
-1.9960326508
20
-12.2788438290
11
-1.9645376738
21
-12.3414650245
0
LINE
5
3E7
100
AcDbEntity
8
DEFAULT_3
100
AcDbLine
62
9
6
PHANTOM
10
-9.1039431998
20
-2.0031524149
11
-9.0919912379
21
-2.0271304954
0
LINE
5
3E8
100
AcDbEntity
8
0
100
AcDbLine
62
9
6
CONTINUOUS
10
-3.2336574613
20
-12.8277507013
11
-3.2105844449
21
-12.8750234250
0
LINE
5
3E9
100
AcDbEntity
8
0
100
AcDbLine
62
9
6
CONTINUOUS
10
-2.2093589557
20
-12.4059774439
11
-2.2324319726
21
-12.3587047205
0
LINE
5
3EA
100
AcDbEntity
8
0
100
AcDbLine
62
9
6
CONTINUOUS
10
-2.0877104965
20
-12.3497057141
11
-2.1131080197
21
-12.2976704622
0
LINE
5
3EB
100
AcDbEntity
8
DEFAULT_3
100
AcDbLine
62
9
6
PHANTOM
10
-9.0505713336
20
-1.9963775739
11
-9.0524970194
21
-1.9924233474
0
LINE
5
3EC
100
AcDbEntity
8
0
100
AcDbLine
62
9
6
CONTINUOUS
10
-9.0598777405
20
-2.0090064506
11
-9.0477616705
21
-2.0348620141
0
LINE
5
3ED
100
AcDbEntity
8
0
100
AcDbLine
62
0
6
CONTINUOUS
10
-8.1701034600
20
-1.3674062961
11
-8.1498731818
21
-1.4106220221
0
LINE
5
3EE
100
AcDbEntity
8
0
100
AcDbLine
62
9
6
CONTINUOUS
10
-3.2901612500
20
-12.8102645474
11
-3.3183480984
21
-12.7500234637
0
LINE
5
3EF
100
AcDbEntity
8
0
100
AcDbLine
62
0
6
CONTINUOUS
10
-3.2359478189
20
-12.8594748431
11
-3.2601345750
21
-12.8076863080
0
LINE
5
3F0
100
AcDbEntity
8
0
100
AcDbLine
62
9
6
CONTINUOUS
10
-3.4186843049
20
-12.8705974231
11
-3.4489127678
21
-12.8053094420
0
LINE
5
3F1
100
AcDbEntity
8
0
100
AcDbLine
62
9
6
CONTINUOUS
10
-9.3177365613
20
-2.1173874780
11
-9.2989772712
21
-2.1579973646
0
LINE
5
3F2
100
AcDbEntity
8
0
100
AcDbLine
62
9
6
CONTINUOUS
10
-9.5035545481
20
-15.6499887420
11
-9.5242954311
21
-15.6045398739
0
LINE
5
3F3
100
AcDbEntity
8
0
100
AcDbLine
62
0
6
CONTINUOUS
10
-9.7585384804
20
-15.3397598688
11
-9.7046181852
21
-15.4618675879
0
LINE
5
3F4
100
AcDbEntity
8
0
100
AcDbLine
62
0
6
CONTINUOUS
10
5.6337808878
20
-23.2658161064
11
5.7762845868
21
-23.2627274124
0
LINE
5
3F5
100
AcDbEntity
8
0
100
AcDbLine
62
9
6
CONTINUOUS
10
6.2132283010
20
-22.7536684987
11
6.2348981885
21
-22.7545056914
0
LINE
5
3F6
100
AcDbEntity
8
0
100
AcDbLine
62
0
6
CONTINUOUS
10
-2.4193218409
20
-13.5177954609
11
-2.4524833110
21
-13.5162781669
0
LINE
5
3F7
100
AcDbEntity
8
0
100
AcDbLine
62
9
6
CONTINUOUS
10
5.2903398326
20
-22.5307592292
11
5.1548271534
21
-22.5229772721
0
LINE
5
3F8
100
AcDbEntity
8
0
100
AcDbLine
62
0
6
CONTINUOUS
10
-3.0176814384
20
-11.4686697628
11
-2.9385967990
21
-11.4734829312
0
LINE
5
3F9
100
AcDbEntity
8
DEFAULT_3
100
AcDbLine
62
9
6
PHANTOM
10
3.2980242787
20
-8.2667798651
11
3.3242517312
21
-8.2685045976
0
LINE
5
3FA
100
AcDbEntity
8
0
100
AcDbLine
62
9
6
CONTINUOUS
10
-9.2612040306
20
-1.8544960798
11
-9.2953244123
21
-1.8516711156
0
LINE
5
3FB
100
AcDbEntity
8
DEFAULT_3
100
AcDbLine
62
9
6
PHANTOM
10
3.5272411496
20
-7.1572156979
11
3.5167679545
21
-7.1563269647
0
LINE
5
3FC
100
AcDbEntity
8
0
100
AcDbLine
62
9
6
CONTINUOUS
10
-2.5389030772
20
-13.4574869161
11
-2.5036897410
21
-13.4608448440
0
LINE
5
3FD
100
AcDbEntity
8
0
100
AcDbLine
62
9
6
CONTINUOUS
10
-2.9041133665
20
-11.7762412425
11
-2.9393267357
21
-11.7728833311
0
LINE
5
3FE
100
AcDbEntity
8
0
100
AcDbLine
62
9
6
CONTINUOUS
10
-2.8524585132
20
-11.6565260336
11
-2.8912195436
21
-11.6528295539
0
LINE
5
3FF
100
AcDbEntity
8
DEFAULT_3
100
AcDbLine
62
9
6
PHANTOM
10
3.4042667751
20
-7.1704094636
11
3.3674155457
21
-7.1667682741
0
LINE
5
400
100
AcDbEntity
8
DEFAULT_3
100
AcDbLine
62
9
6
PHANTOM
10
3.3114559236
20
-8.1155310312
11
3.2858608934
21
-8.1129789879
0
LINE
5
401
100
AcDbEntity
8
DEFAULT_3
100
AcDbLine
62
9
6
PHANTOM
10
-8.4707064174
20
-0.3312969065
11
-8.4474078255
21
-0.3336409332
0
LINE
5
402
100
AcDbEntity
8
0
100
AcDbLine
62
0
6
CONTINUOUS
10
-2.4524833110
20
-13.5162781669
11
-2.4862163238
21
-13.5126247170
0
LINE
5
403
100
AcDbEntity
8
DEFAULT_3
100
AcDbLine
62
9
6
PHANTOM
10
-9.0353783186
20
5.1720940421
11
-9.0324296371
21
5.1717674232
0
LINE
5
404
100
AcDbEntity
8
DEFAULT_3
100
AcDbLine
62
9
6
PHANTOM
10
3.3114578025
20
-1.0093312412
11
3.2858626003
21
-1.0064416314
0
LINE
5
405
100
AcDbEntity
8
DEFAULT_3
100
AcDbLine
62
9
6
PHANTOM
10
-8.9191399139
20
5.4911681541
11
-8.9014767014
21
5.4891657396
0
LINE
5
406
100
AcDbEntity
8
DEFAULT_3
100
AcDbLine
62
9
6
PHANTOM
10
3.1509320958
20
-8.1098765919
11
3.1480090608
21
-8.1095371498
0
LINE
5
407
100
AcDbEntity
8
DEFAULT_3
100
AcDbLine
62
9
6
PHANTOM
10
-8.2365013893
20
-0.4226301514
11
-8.2524091553
21
-0.4207724408
0
LINE
5
408
100
AcDbEntity
8
DEFAULT_3
100
AcDbLine
62
9
6
PHANTOM
10
-8.2524091553
20
4.6021749012
11
-8.2365013893
21
4.6003171905
0
LINE
5
409
100
AcDbEntity
8
0
100
AcDbLine
62
9
6
CONTINUOUS
10
-9.0906582713
20
5.7921831563
11
-9.1176202581
21
5.7955971532
0
LINE
5
40A
100
AcDbEntity
8
0
100
AcDbLine
62
9
6
CONTINUOUS
10
3.4633398945
20
-8.3948284721
11
3.4801427304
21
-8.3970295875
0
LINE
5
40B
100
AcDbEntity
8
0
100
AcDbLine
62
9
6
CONTINUOUS
10
3.3601161625
20
-8.6530136490
11
3.3868216858
21
-8.6565558777
0
LINE
5
40C
100
AcDbEntity
8
DEFAULT_3
100
AcDbLine
62
9
6
PHANTOM
10
-8.4474078255
20
-0.3336409332
11
-8.3376884669
21
-0.3483405400
0
LINE
5
40D
100
AcDbEntity
8
DEFAULT_3
100
AcDbLine
62
9
6
PHANTOM
10
-8.4474078255
20
4.6893064088
11
-8.3376884669
21
4.6746068020
0
LINE
5
40E
100
AcDbEntity
8
0
100
AcDbLine
62
9
6
CONTINUOUS
10
-3.0441860194
20
-11.4083997466
11
-2.9442383084
21
-11.4222680723
0
LINE
5
40F
100
AcDbEntity
8
0
100
AcDbLine
62
0
6
CONTINUOUS
10
-8.9901558394
20
5.6639868928
11
-8.9791309207
21
5.6624097249
0
LINE
5
410
100
AcDbEntity
8
DEFAULT_3
100
AcDbLine
62
9
6
PHANTOM
10
-8.2208018792
20
-0.4250113486
11
-8.2365013893
21
-0.4226301514
0
LINE
5
411
100
AcDbEntity
8
DEFAULT_3
100
AcDbLine
62
9
6
PHANTOM
10
-8.2365013893
20
4.6003171905
11
-8.2208018792
21
4.5979359934
0
LINE
5
412
100
AcDbEntity
8
DEFAULT_3
100
AcDbLine
62
9
6
PHANTOM
10
3.2858608934
20
-8.1129789879
11
3.2609747060
21
-8.1090760934
0
LINE
5
413
100
AcDbEntity
8
DEFAULT_3
100
AcDbLine
62
9
6
PHANTOM
10
3.2719961997
20
-8.2625466786
11
3.2980242787
21
-8.2667798651
0
LINE
5
414
100
AcDbEntity
8
DEFAULT_3
100
AcDbLine
62
9
6
PHANTOM
10
3.2858626003
20
-1.0064416314
11
3.2609761600
21
-1.0022573381
0
LINE
5
415
100
AcDbEntity
8
DEFAULT_3
100
AcDbLine
62
9
6
PHANTOM
10
3.5167679545
20
-7.1563269647
11
3.5046174626
21
-7.1542771029
0
LINE
5
416
100
AcDbEntity
8
0
100
AcDbLine
62
9
6
CONTINUOUS
10
-9.2953244123
20
-1.8516711156
11
-9.3278728410
21
-1.8458830170
0
LINE
5
417
100
AcDbEntity
8
DEFAULT_3
100
AcDbLine
62
9
6
PHANTOM
10
3.3674155457
20
-7.1667682741
11
3.3305641676
21
-7.1600598692
0
LINE
5
418
100
AcDbEntity
8
DEFAULT_3
100
AcDbLine
62
9
6
PHANTOM
10
-8.2055108777
20
-0.4278856592
11
-8.2208018792
21
-0.4250113486
0
LINE
5
419
100
AcDbEntity
8
DEFAULT_3
100
AcDbLine
62
9
6
PHANTOM
10
-8.2208018792
20
4.5979359934
11
-8.2055108777
21
4.5950616827
0
LINE
5
41A
100
AcDbEntity
8
0
100
AcDbLine
62
9
6
CONTINUOUS
10
-9.2953244133
20
5.4471506367
11
-9.3278728419
21
5.4533000619
0
LINE
5
41B
100
AcDbEntity
8
0
100
AcDbLine
62
9
6
CONTINUOUS
10
-9.0643154081
20
5.7866603728
11
-9.0906582713
21
5.7921831563
0
LINE
5
41C
100
AcDbEntity
8
0
100
AcDbLine
62
9
6
CONTINUOUS
10
5.1548271814
20
12.7142790247
11
5.0255676178
21
12.7417428990
0
LINE
5
41D
100
AcDbEntity
8
DEFAULT_3
100
AcDbLine
62
9
6
PHANTOM
10
-8.2055108777
20
4.5950616827
11
-8.1906336178
21
4.5916879418
0
LINE
5
41E
100
AcDbEntity
8
DEFAULT_3
100
AcDbLine
62
9
6
PHANTOM
10
-9.0324296371
20
5.1717674232
11
-9.0294478704
21
5.1710911099
0
LINE
5
41F
100
AcDbEntity
8
DEFAULT_3
100
AcDbLine
62
9
6
PHANTOM
10
-8.9014767014
20
5.4891657396
11
-8.8833991357
21
5.4850423853
0
LINE
5
420
100
AcDbEntity
8
0
100
AcDbLine
62
0
6
CONTINUOUS
10
-4.7371940767
20
23.9633398386
11
-4.6649407185
21
23.9448394118
0
LINE
5
421
100
AcDbEntity
8
0
100
AcDbLine
62
9
6
CONTINUOUS
10
5.0255676178
20
12.7417428990
11
4.9064022695
21
12.7786360248
0
LINE
5
422
100
AcDbEntity
8
0
100
AcDbLine
62
0
6
CONTINUOUS
10
-4.6649407185
20
23.9448394118
11
-4.5889572912
21
23.9136827107
0
LINE
5
423
100
AcDbEntity
8
0
100
AcDbLine
62
0
6
CONTINUOUS
10
10.3222418568
20
16.3143096965
11
10.3775642412
21
16.2275432731
0
LINE
5
424
100
AcDbEntity
8
0
100
AcDbLine
62
9
6
CONTINUOUS
10
6.2782255222
20
14.0840530615
11
6.2085144135
21
14.2042869381
0
LINE
5
425
100
AcDbEntity
8
DEFAULT_3
100
AcDbLine
62
9
6
PHANTOM
10
3.4655414183
20
-0.7617121348
11
3.4780111830
21
-0.7846871627
0
LINE
5
426
100
AcDbEntity
8
DEFAULT_3
100
AcDbLine
62
9
6
PHANTOM
10
3.1637833495
20
-0.9377013191
11
3.1658343303
21
-0.9415503662
0
LINE
5
427
100
AcDbEntity
8
0
100
AcDbLine
62
0
6
CONTINUOUS
10
10.3775642412
20
16.2275432731
11
10.4258234605
21
16.1356578569
0
LINE
5
428
100
AcDbEntity
8
0
100
AcDbLine
62
9
6
CONTINUOUS
10
3.5641936653
20
-0.7049538767
11
3.5437027481
21
-0.6644130258
0
LINE
5
429
100
AcDbEntity
8
0
100
AcDbLine
62
0
6
CONTINUOUS
10
3.5082178624
20
-0.6894104110
11
3.5338136666
21
-0.7423907371
0
LINE
5
42A
100
AcDbEntity
8
DEFAULT_3
100
AcDbLine
62
9
6
PHANTOM
10
3.4780111830
20
-0.7846871627
11
3.4892418680
21
-0.8083159315
0
LINE
5
42B
100
AcDbEntity
8
DEFAULT_3
100
AcDbLine
62
9
6
PHANTOM
10
3.1658343303
20
-0.9415503662
11
3.1676919323
21
-0.9455386345
0
LINE
5
42C
100
AcDbEntity
8
0
100
AcDbLine
62
9
6
CONTINUOUS
10
-1.9645376738
20
-12.3414650245
11
-1.9345146906
21
-12.4069091105
0
LINE
5
42D
100
AcDbEntity
8
0
100
AcDbLine
62
9
6
CONTINUOUS
10
5.9596151550
20
-22.5614956864
11
5.9693350044
21
-22.5827254395
0
LINE
5
42E
100
AcDbEntity
8
DEFAULT_3
100
AcDbLine
62
9
6
PHANTOM
10
-7.8940806457
20
-1.2701144533
11
-7.9105697281
21
-1.2339159340
0
LINE
5
42F
100
AcDbEntity
8
0
100
AcDbLine
62
9
6
CONTINUOUS
10
4.8828759848
20
-22.8040962093
11
4.9035185111
21
-22.8495555932
0
LINE
5
430
100
AcDbEntity
8
0
100
AcDbLine
62
9
6
CONTINUOUS
10
-8.9716641188
20
5.6799533754
11
-8.9818167787
21
5.7025397721
0
LINE
5
431
100
AcDbEntity
8
0
100
AcDbLine
62
9
6
CONTINUOUS
10
3.2775180301
20
-0.4446375726
11
3.2673654199
21
-0.4220511845
0
LINE
5
432
100
AcDbEntity
8
0
100
AcDbLine
62
9
6
CONTINUOUS
10
6.3352011592
20
13.9570874614
11
6.2782255222
21
14.0840530615
0
LINE
5
433
100
AcDbEntity
8
0
100
AcDbLine
62
0
6
CONTINUOUS
10
-8.1266047583
20
-1.5191464025
11
-8.1021008679
21
-1.5738436324
0
LINE
5
434
100
AcDbEntity
8
0
100
AcDbLine
62
9
6
CONTINUOUS
10
-3.2549901779
20
-12.7797666407
11
-3.2336574613
21
-12.8277507013
0
LINE
5
435
100
AcDbEntity
8
0
100
AcDbLine
62
9
6
CONTINUOUS
10
-2.1880262390
20
-12.4539615045
11
-2.2093589557
21
-12.4059774439
0
LINE
5
436
100
AcDbEntity
8
0
100
AcDbLine
62
9
6
CONTINUOUS
10
-2.0642285991
20
-12.4025239661
11
-2.0877104965
21
-12.3497057141
0
LINE
5
437
100
AcDbEntity
8
0
100
AcDbLine
62
9
6
CONTINUOUS
10
3.5821724847
20
-0.7459539987
11
3.5641936653
21
-0.7049538767
0
LINE
5
438
100
AcDbEntity
8
0
100
AcDbLine
62
0
6
CONTINUOUS
10
-8.1889756966
20
-1.3238331801
11
-8.1701034600
21
-1.3674062961
0
LINE
5
439
100
AcDbEntity
8
DEFAULT_3
100
AcDbLine
62
9
6
PHANTOM
10
-9.1293026833
20
5.2110482130
11
-9.1238609522
21
5.1984195201
0
LINE
5
43A
100
AcDbEntity
8
0
100
AcDbLine
62
9
6
CONTINUOUS
10
-3.3183480984
20
-12.7500234637
11
-3.3452049345
21
-12.6871698089
0
LINE
5
43B
100
AcDbEntity
8
DEFAULT_3
100
AcDbLine
62
9
6
PHANTOM
10
-9.0524970194
20
-1.9924233474
11
-9.0541909455
21
-1.9884230686
0
LINE
5
43C
100
AcDbEntity
8
0
100
AcDbLine
62
9
6
CONTINUOUS
10
-3.4489127678
20
-12.8053094420
11
-3.4777652728
21
-12.7370896506
0
LINE
5
43D
100
AcDbEntity
8
0
100
AcDbLine
62
0
6
CONTINUOUS
10
-3.2601345750
20
-12.8076863080
11
-3.2823422428
21
-12.7551795257
0
LINE
5
43E
100
AcDbEntity
8
DEFAULT_3
100
AcDbLine
62
9
6
PHANTOM
10
-9.1293029808
20
-1.8951507864
11
-9.1238614095
21
-1.9081172116
0
LINE
5
43F
100
AcDbEntity
8
DEFAULT_3
100
AcDbLine
62
9
6
PHANTOM
10
-8.0539860267
20
-1.3471631792
11
-8.0696289253
21
-1.3098826999
0
LINE
5
440
100
AcDbEntity
8
0
100
AcDbLine
62
9
6
CONTINUOUS
10
-1.9345146906
20
-12.4069091105
11
-1.9058675554
21
-12.4752843971
0
LINE
5
441
100
AcDbEntity
8
0
100
AcDbLine
62
0
6
CONTINUOUS
10
-1.9673903168
20
-12.3815925212
11
-1.9081676074
21
-12.5251572910
0
LINE
5
442
100
AcDbEntity
8
DEFAULT_3
100
AcDbLine
62
9
6
PHANTOM
10
3.4892418680
20
-0.8083159315
11
3.4991490163
21
-0.8324193657
0
LINE
5
443
100
AcDbEntity
8
0
100
AcDbLine
62
9
6
CONTINUOUS
10
-9.0705030525
20
-1.9830455647
11
-9.0598777405
21
-2.0090064506
0
LINE
5
444
100
AcDbEntity
8
DEFAULT_3
100
AcDbLine
62
9
6
PHANTOM
10
-7.9105697281
20
-1.2339159340
11
-7.9254469206
21
-1.1973415488
0
LINE
5
445
100
AcDbEntity
8
DEFAULT_3
100
AcDbLine
62
9
6
PHANTOM
10
-8.6923567998
20
-0.4561154203
11
-8.6970448531
21
-0.4444661244
0
LINE
5
446
100
AcDbEntity
8
DEFAULT_3
100
AcDbLine
62
9
6
PHANTOM
10
-8.6923567998
20
4.5668319216
11
-8.6970448531
21
4.5784812175
0
LINE
5
447
100
AcDbEntity
8
0
100
AcDbLine
62
9
6
CONTINUOUS
10
-3.2745147627
20
-12.7312235942
11
-3.2549901779
21
-12.7797666407
0
LINE
5
448
100
AcDbEntity
8
0
100
AcDbLine
62
9
6
CONTINUOUS
10
-2.1685016542
20
-12.5025045510
11
-2.1880262390
21
-12.4539615045
0
LINE
5
449
100
AcDbEntity
8
0
100
AcDbLine
62
9
6
CONTINUOUS
10
-2.0427369954
20
-12.4559575193
11
-2.0642285991
21
-12.4025239661
0
LINE
5
44A
100
AcDbEntity
8
0
100
AcDbLine
62
9
6
CONTINUOUS
10
-9.3342590888
20
-2.0762977513
11
-9.3177365613
21
-2.1173874780
0
LINE
5
44B
100
AcDbEntity
8
DEFAULT_3
100
AcDbLine
62
9
6
PHANTOM
10
3.1676919323
20
-0.9455386345
11
3.1693141521
21
-0.9495747665
0
LINE
5
44C
100
AcDbEntity
8
DEFAULT_3
100
AcDbLine
62
9
6
PHANTOM
10
-9.1140608868
20
-1.9779087068
11
-9.1039431998
21
-2.0031524149
0
LINE
5
44D
100
AcDbEntity
8
0
100
AcDbLine
62
0
6
CONTINUOUS
10
-8.2064657727
20
-1.2799349213
11
-8.1889756966
21
-1.3238331801
0
LINE
5
44E
100
AcDbEntity
8
0
100
AcDbLine
62
9
6
CONTINUOUS
10
-9.8381390936
20
20.2613001151
11
-9.8131386189
21
20.1982620586
0
LINE
5
44F
100
AcDbEntity
8
0
100
AcDbLine
62
9
6
CONTINUOUS
10
-9.5242954311
20
-15.6045398739
11
-9.5425649164
21
-15.5576733377
0
LINE
5
450
100
AcDbEntity
8
0
100
AcDbLine
62
9
6
CONTINUOUS
10
5.9510958501
20
-22.5395667224
11
5.9596151550
21
-22.5614956864
0
LINE
5
451
100
AcDbEntity
8
0
100
AcDbLine
62
9
6
CONTINUOUS
10
4.8647251935
20
-22.7573460918
11
4.8828759848
21
-22.8040962093
0
LINE
5
452
100
AcDbEntity
8
0
100
AcDbLine
62
9
6
CONTINUOUS
10
-3.3452049345
20
-12.6871698089
11
-3.3704149530
21
-12.6218523983
0
LINE
5
453
100
AcDbEntity
8
DEFAULT_3
100
AcDbLine
62
9
6
PHANTOM
10
-9.0073079633
20
-2.1043843831
11
-9.0140618722
21
-2.0868775162
0
LINE
5
454
100
AcDbEntity
8
DEFAULT_3
100
AcDbLine
62
9
6
PHANTOM
10
3.1549290856
20
-8.1855036040
11
3.1481750232
21
-8.1679966509
0
LINE
5
455
100
AcDbEntity
8
0
100
AcDbLine
62
9
6
CONTINUOUS
10
-3.4777652728
20
-12.7370896506
11
-3.5051454128
21
-12.6660457751
0
LINE
5
456
100
AcDbEntity
8
0
100
AcDbLine
62
9
6
CONTINUOUS
10
-1.9058675554
20
-12.4752843971
11
-1.8786886275
21
-12.5464804857
0
LINE
5
457
100
AcDbEntity
8
0
100
AcDbLine
62
0
6
CONTINUOUS
10
3.5338136666
20
-0.7423907371
11
3.5545868841
21
-0.7968831165
0
LINE
5
458
100
AcDbEntity
8
0
100
AcDbLine
62
0
6
CONTINUOUS
10
-3.2823422428
20
-12.7551795257
11
-3.3025097744
21
-12.7020927658
0
LINE
5
459
100
AcDbEntity
8
0
100
AcDbLine
62
9
6
CONTINUOUS
10
3.5978814618
20
-0.7874505006
11
3.5821724847
21
-0.7459539987
0
LINE
5
45A
100
AcDbEntity
8
0
100
AcDbLine
62
0
6
CONTINUOUS
10
-8.2225978072
20
-1.2356792726
11
-8.2064657727
21
-1.2799349213
0
LINE
5
45B
100
AcDbEntity
8
0
100
AcDbLine
62
9
6
CONTINUOUS
10
-3.2921666098
20
-12.6822792051
11
-3.2745147627
21
-12.7312235942
0
LINE
5
45C
100
AcDbEntity
8
0
100
AcDbLine
62
9
6
CONTINUOUS
10
-2.1508498068
20
-12.5514489399
11
-2.1685016542
21
-12.5025045510
0
LINE
5
45D
100
AcDbEntity
8
0
100
AcDbLine
62
9
6
CONTINUOUS
10
-2.0233068008
20
-12.5098328487
11
-2.0427369954
21
-12.4559575193
0
LINE
5
45E
100
AcDbEntity
8
DEFAULT_3
100
AcDbLine
62
9
6
PHANTOM
10
-9.0541909455
20
-1.9884230686
11
-9.0556476838
21
-1.9843730926
0
LINE
5
45F
100
AcDbEntity
8
DEFAULT_3
100
AcDbLine
62
9
6
PHANTOM
10
-7.9254469206
20
-1.1973415488
11
-7.9386277010
21
-1.1606419911
0
LINE
5
460
100
AcDbEntity
8
0
100
AcDbLine
62
9
6
CONTINUOUS
10
-9.0794816868
20
-1.9575638308
11
-9.0705030525
21
-1.9830455647
0
LINE
5
461
100
AcDbEntity
8
0
100
AcDbLine
62
9
6
CONTINUOUS
10
-9.3483382215
20
-2.0361952162
11
-9.3342590888
21
-2.0762977513
0
LINE
5
462
100
AcDbEntity
8
0
100
AcDbLine
62
9
6
CONTINUOUS
10
-9.8381392150
20
-14.9665196506
11
-9.8131387544
21
-15.0389942544
0
LINE
5
463
100
AcDbEntity
8
0
100
AcDbLine
62
9
6
CONTINUOUS
10
-3.3704149530
20
-12.6218523983
11
-3.3937281032
21
-12.5539786193
0
LINE
5
464
100
AcDbEntity
8
DEFAULT_3
100
AcDbLine
62
9
6
PHANTOM
10
-8.0696289253
20
-1.3098826999
11
-8.0826244931
21
-1.2714920215
0
LINE
5
465
100
AcDbEntity
8
0
100
AcDbLine
62
9
6
CONTINUOUS
10
-3.5051454128
20
-12.6660457751
11
-3.5300235770
21
-12.5925379039
0
LINE
5
466
100
AcDbEntity
8
0
100
AcDbLine
62
0
6
CONTINUOUS
10
-3.3025097744
20
-12.7020927658
11
-3.3205712889
21
-12.6485814252
0
LINE
5
467
100
AcDbEntity
8
0
100
AcDbLine
62
9
6
CONTINUOUS
10
-1.8786886275
20
-12.5464804857
11
-1.8540059498
21
-12.6201331513
0
LINE
5
468
100
AcDbEntity
8
0
100
AcDbLine
62
0
6
CONTINUOUS
10
-8.2372817322
20
-1.1913170324
11
-8.2225978072
21
-1.2356792726
0
LINE
5
469
100
AcDbEntity
8
0
100
AcDbLine
62
9
6
CONTINUOUS
10
-9.5425649164
20
-15.5576733377
11
-9.5583275586
21
-15.5099505596
0
LINE
5
46A
100
AcDbEntity
8
0
100
AcDbLine
62
9
6
CONTINUOUS
10
-3.3078821458
20
-12.6331064417
11
-3.2921666098
21
-12.6822792051
0
LINE
5
46B
100
AcDbEntity
8
0
100
AcDbLine
62
0
6
CONTINUOUS
10
-8.1439679350
20
-1.4645093552
11
-8.1266047583
21
-1.5191464025
0
LINE
5
46C
100
AcDbEntity
8
0
100
AcDbLine
62
0
6
CONTINUOUS
10
-9.8003582477
20
-15.2071998031
11
-9.7585384804
21
-15.3397598688
0
LINE
5
46D
100
AcDbEntity
8
DEFAULT_3
100
AcDbLine
62
9
6
PHANTOM
10
-7.9386277010
20
-1.1606419911
11
-7.9500141749
21
-1.1241823694
0
LINE
5
46E
100
AcDbEntity
8
DEFAULT_3
100
AcDbLine
62
9
6
PHANTOM
10
-9.1219372846
20
-1.9523508249
11
-9.1140608868
21
-1.9779087068
0
LINE
5
46F
100
AcDbEntity
8
0
100
AcDbLine
62
9
6
CONTINUOUS
10
6.2565136292
20
-22.7538986187
11
6.2780832449
21
-22.7518896791
0
LINE
5
470
100
AcDbEntity
8
0
100
AcDbLine
62
9
6
CONTINUOUS
10
-2.4691221127
20
-13.4613533371
11
-2.4353586342
21
-13.4589921268
0
LINE
5
471
100
AcDbEntity
8
0
100
AcDbLine
62
9
6
CONTINUOUS
10
-2.9738943564
20
-11.7723748342
11
-3.0076578081
21
-11.7747360311
0
LINE
5
472
100
AcDbEntity
8
0
100
AcDbLine
62
9
6
CONTINUOUS
10
-2.9292697103
20
-11.6522698908
11
-2.9664346422
21
-11.6548691892
0
LINE
5
473
100
AcDbEntity
8
0
100
AcDbLine
62
9
6
CONTINUOUS
10
-3.1413679038
20
-11.4121007842
11
-3.0441860194
21
-11.4083997466
0
LINE
5
474
100
AcDbEntity
8
0
100
AcDbLine
62
9
6
CONTINUOUS
10
5.4280786928
20
-22.5256614540
11
5.2903398326
21
-22.5307592292
0
LINE
5
475
100
AcDbEntity
8
0
100
AcDbLine
62
9
6
CONTINUOUS
10
-2.2413771268
20
-13.7985695097
11
-2.3380954816
21
-13.8019269925
0
LINE
5
476
100
AcDbEntity
8
DEFAULT_3
100
AcDbLine
62
9
6
PHANTOM
10
3.3242517312
20
-8.2685045976
11
3.3503741795
21
-8.2677142341
0
LINE
5
477
100
AcDbEntity
8
0
100
AcDbLine
62
9
6
CONTINUOUS
10
6.2348981885
20
-22.7545056914
11
6.2565136292
21
-22.7538986187
0
LINE
5
478
100
AcDbEntity
8
0
100
AcDbLine
62
9
6
CONTINUOUS
10
-2.2012352809
20
-13.6672224929
11
-2.2914803285
21
-13.6690949823
0
LINE
5
479
100
AcDbEntity
8
0
100
AcDbLine
62
0
6
CONTINUOUS
10
-2.3868358691
20
-13.5172079277
11
-2.4193218409
21
-13.5177954609
0
LINE
5
47A
100
AcDbEntity
8
DEFAULT_3
100
AcDbLine
62
9
6
PHANTOM
10
-8.3011817358
20
-0.4183706008
11
-8.3175086813
21
-0.4186408905
0
LINE
5
47B
100
AcDbEntity
8
DEFAULT_3
100
AcDbLine
62
9
6
PHANTOM
10
-8.5166027831
20
-0.3306140460
11
-8.4937714032
21
-0.3302879441
0
LINE
5
47C
100
AcDbEntity
8
DEFAULT_3
100
AcDbLine
62
9
6
PHANTOM
10
3.3636461527
20
-8.1164857818
11
3.3374793825
21
-8.1167042512
0
LINE
5
47D
100
AcDbEntity
8
0
100
AcDbLine
62
9
6
CONTINUOUS
10
-9.2265369692
20
-1.8542730231
11
-9.2612040306
21
-1.8544960798
0
LINE
5
47E
100
AcDbEntity
8
DEFAULT_3
100
AcDbLine
62
9
6
PHANTOM
10
3.5359155655
20
-7.1571674925
11
3.5272411496
21
-7.1572156979
0
LINE
5
47F
100
AcDbEntity
8
DEFAULT_3
100
AcDbLine
62
9
6
PHANTOM
10
3.1537905222
20
-8.1098686300
11
3.1509320958
21
-8.1098765919
0
LINE
5
480
100
AcDbEntity
8
DEFAULT_3
100
AcDbLine
62
9
6
PHANTOM
10
3.3636480945
20
-1.0111143052
11
3.3374813404
21
-1.0108945083
0
LINE
5
481
100
AcDbEntity
8
0
100
AcDbLine
62
0
6
CONTINUOUS
10
-8.9981699848
20
5.6640678610
11
-8.9901558394
21
5.6639868928
0
LINE
5
482
100
AcDbEntity
8
0
100
AcDbLine
62
9
6
CONTINUOUS
10
-9.2265369704
20
5.4434620854
11
-9.2612040317
21
5.4438381324
0
LINE
5
483
100
AcDbEntity
8
0
100
AcDbLine
62
9
6
CONTINUOUS
10
-2.5036897410
20
-13.4608448440
11
-2.4691221127
21
-13.4613533371
0
LINE
5
484
100
AcDbEntity
8
0
100
AcDbLine
62
9
6
CONTINUOUS
10
-2.9393267357
20
-11.7728833311
11
-2.9738943564
21
-11.7723748342
0
LINE
5
485
100
AcDbEntity
8
0
100
AcDbLine
62
9
6
CONTINUOUS
10
-2.8912195436
20
-11.6528295539
11
-2.9292697103
21
-11.6522698908
0
LINE
5
486
100
AcDbEntity
8
DEFAULT_3
100
AcDbLine
62
9
6
PHANTOM
10
-8.2848547904
20
-0.4186408905
11
-8.3011817358
21
-0.4183706008
0
LINE
5
487
100
AcDbEntity
8
DEFAULT_3
100
AcDbLine
62
9
6
PHANTOM
10
-8.3011817358
20
4.6045767411
11
-8.2848547904
21
4.6043064515
0
LINE
5
488
100
AcDbEntity
8
DEFAULT_3
100
AcDbLine
62
9
6
PHANTOM
10
3.4410154344
20
-7.1710291624
11
3.4042667751
21
-7.1704094636
0
LINE
5
489
100
AcDbEntity
8
0
100
AcDbLine
62
9
6
CONTINUOUS
10
-9.1176202581
20
5.7955971532
11
-9.1445540426
21
5.7960594983
0
LINE
5
48A
100
AcDbEntity
8
0
100
AcDbLine
62
9
6
CONTINUOUS
10
3.3868216858
20
-8.6565558777
11
3.4134250786
21
-8.6571834186
0
LINE
5
48B
100
AcDbEntity
8
0
100
AcDbLine
62
9
6
CONTINUOUS
10
3.4801427304
20
-8.3970295875
11
3.4970340911
21
-8.3975435672
0
LINE
5
48C
100
AcDbEntity
8
DEFAULT_3
100
AcDbLine
62
9
6
PHANTOM
10
-8.4937714032
20
-0.3302879441
11
-8.4707064174
21
-0.3312969065
0
LINE
5
48D
100
AcDbEntity
8
DEFAULT_3
100
AcDbLine
62
9
6
PHANTOM
10
3.3374793825
20
-8.1167042512
11
3.3114559236
21
-8.1155310312
0
LINE
5
48E
100
AcDbEntity
8
0
100
AcDbLine
62
9
6
CONTINUOUS
10
5.4280787058
20
12.6905990685
11
5.2903398528
21
12.6970605249
0
LINE
5
48F
100
AcDbEntity
8
DEFAULT_3
100
AcDbLine
62
9
6
PHANTOM
10
-8.2685278449
20
-0.4194449224
11
-8.2848547904
21
-0.4186408905
0
LINE
5
490
100
AcDbEntity
8
DEFAULT_3
100
AcDbLine
62
9
6
PHANTOM
10
-8.2848547904
20
4.6043064515
11
-8.2685278449
21
4.6035024196
0
LINE
5
491
100
AcDbEntity
8
DEFAULT_3
100
AcDbLine
62
9
6
PHANTOM
10
3.3374813404
20
-1.0108945083
11
3.3114578025
21
-1.0093312412
0
LINE
5
492
100
AcDbEntity
8
DEFAULT_3
100
AcDbLine
62
9
6
PHANTOM
10
-8.2524091553
20
-0.4207724408
11
-8.2685278449
21
-0.4194449224
0
LINE
5
493
100
AcDbEntity
8
DEFAULT_3
100
AcDbLine
62
9
6
PHANTOM
10
-8.2685278449
20
4.6035024196
11
-8.2524091553
21
4.6021749012
0
LINE
5
494
100
AcDbEntity
8
0
100
AcDbLine
62
9
6
CONTINUOUS
10
-9.2612040317
20
5.4438381324
11
-9.2953244133
21
5.4471506367
0
LINE
5
495
100
AcDbEntity
8
DEFAULT_3
100
AcDbLine
62
9
6
PHANTOM
10
-8.4707064174
20
4.6916504354
11
-8.4474078255
21
4.6893064088
0
LINE
5
496
100
AcDbEntity
8
0
100
AcDbLine
62
9
6
CONTINUOUS
10
5.2903398528
20
12.6970605249
11
5.1548271814
21
12.7142790247
0
LINE
5
497
100
AcDbEntity
8
0
100
AcDbLine
62
9
6
CONTINUOUS
10
-8.7720589876
20
21.8161358387
11
-8.6756288192
21
21.8004124562
0
LINE
5
498
100
AcDbEntity
8
0
100
AcDbLine
62
0
6
CONTINUOUS
10
10.4258234605
20
16.1356578569
11
10.4673365647
21
16.0388832285
0
LINE
5
499
100
AcDbEntity
8
0
100
AcDbLine
62
9
6
CONTINUOUS
10
3.5849014905
20
-0.9792146286
11
3.5910389592
21
-0.9960310493
0
LINE
5
49A
100
AcDbEntity
8
0
100
AcDbLine
62
9
6
CONTINUOUS
10
3.5849014916
20
-8.2775488409
11
3.5910389599
21
-8.2948528018
0
LINE
5
49B
100
AcDbEntity
8
DEFAULT_3
100
AcDbLine
62
9
6
PHANTOM
10
3.4991490163
20
-0.8324193657
11
3.5076569843
21
-0.8568147659
0
LINE
5
49C
100
AcDbEntity
8
DEFAULT_3
100
AcDbLine
62
9
6
PHANTOM
10
3.1693141521
20
-0.9495747665
11
3.1706954271
21
-0.9536624741
0
LINE
5
49D
100
AcDbEntity
8
0
100
AcDbLine
62
0
6
CONTINUOUS
10
10.4673365647
20
16.0388832285
11
10.5000386586
21
15.9419457222
0
LINE
5
49E
100
AcDbEntity
8
0
100
AcDbLine
62
9
6
CONTINUOUS
10
5.9436949256
20
-22.5174150611
11
5.9510958501
21
-22.5395667224
0
LINE
5
49F
100
AcDbEntity
8
0
100
AcDbLine
62
9
6
CONTINUOUS
10
4.8490895625
20
-22.7098667508
11
4.8647251935
21
-22.7573460918
0
LINE
5
4A0
100
AcDbEntity
8
0
100
AcDbLine
62
9
6
CONTINUOUS
10
3.6111483379
20
-0.8279591640
11
3.5978814618
21
-0.7874505006
0
LINE
5
4A1
100
AcDbEntity
8
0
100
AcDbLine
62
9
6
CONTINUOUS
10
6.3777108181
20
13.8272464313
11
6.3352011592
21
13.9570874614
0
LINE
5
4A2
100
AcDbEntity
8
0
100
AcDbLine
62
0
6
CONTINUOUS
10
-1.9081676074
20
-12.5251572910
11
-1.8614066988
21
-12.6693938007
0
LINE
5
4A3
100
AcDbEntity
8
0
100
AcDbLine
62
9
6
CONTINUOUS
10
-2.1351342704
20
-12.6006217032
11
-2.1508498068
21
-12.5514489399
0
LINE
5
4A4
100
AcDbEntity
8
0
100
AcDbLine
62
9
6
CONTINUOUS
10
-2.0060079925
20
-12.5639595599
11
-2.0233068008
21
-12.5098328487
0
LINE
5
4A5
100
AcDbEntity
8
0
100
AcDbLine
62
9
6
CONTINUOUS
10
-3.3937281032
20
-12.5539786193
11
-3.4147583116
21
-12.4838234736
0
LINE
5
4A6
100
AcDbEntity
8
DEFAULT_3
100
AcDbLine
62
9
6
PHANTOM
10
-9.0556476838
20
-1.9843730926
11
-9.0568726521
21
-1.9802770589
0
LINE
5
4A7
100
AcDbEntity
8
0
100
AcDbLine
62
9
6
CONTINUOUS
10
-9.0868467382
20
-1.9328198911
11
-9.0794816868
21
-1.9575638308
0
LINE
5
4A8
100
AcDbEntity
8
0
100
AcDbLine
62
0
6
CONTINUOUS
10
-8.2505175777
20
-1.1468186259
11
-8.2372817322
21
-1.1913170324
0
LINE
5
4A9
100
AcDbEntity
8
0
100
AcDbLine
62
0
6
CONTINUOUS
10
-3.3205712889
20
-12.6485814252
11
-3.3364586556
21
-12.5948212021
0
LINE
5
4AA
100
AcDbEntity
8
0
100
AcDbLine
62
9
6
CONTINUOUS
10
-3.5300235770
20
-12.5925379039
11
-3.5525021613
21
-12.5164037061
0
LINE
5
4AB
100
AcDbEntity
8
0
100
AcDbLine
62
9
6
CONTINUOUS
10
-9.3597820125
20
-1.9973115432
11
-9.3483382215
21
-2.0361952162
0
LINE
5
4AC
100
AcDbEntity
8
0
100
AcDbLine
62
9
6
CONTINUOUS
10
-1.8540059498
20
-12.6201331513
11
-1.8317128128
21
-12.6964028310
0
LINE
5
4AD
100
AcDbEntity
8
DEFAULT_3
100
AcDbLine
62
9
6
PHANTOM
10
3.5076569843
20
-0.8568147659
11
3.5147003218
21
-0.8813161184
0
LINE
5
4AE
100
AcDbEntity
8
0
100
AcDbLine
62
0
6
CONTINUOUS
10
3.5545868841
20
-0.7968831165
11
3.5698431834
21
-0.8505970396
0
LINE
5
4AF
100
AcDbEntity
8
0
100
AcDbLine
62
9
6
CONTINUOUS
10
-2.7288312309
20
-11.5126796302
11
-2.7253443085
21
-11.5250248399
0
LINE
5
4B0
100
AcDbEntity
8
0
100
AcDbLine
62
9
6
CONTINUOUS
10
5.9374453589
20
-22.4950406665
11
5.9436949256
21
-22.5174150611
0
LINE
5
4B1
100
AcDbEntity
8
0
100
AcDbLine
62
9
6
CONTINUOUS
10
-3.3216046118
20
-12.5838824711
11
-3.3078821458
21
-12.6331064417
0
LINE
5
4B2
100
AcDbEntity
8
0
100
AcDbLine
62
9
6
CONTINUOUS
10
-2.1214118042
20
-12.6498456737
11
-2.1351342704
21
-12.6006217032
0
LINE
5
4B3
100
AcDbEntity
8
0
100
AcDbLine
62
9
6
CONTINUOUS
10
-1.9909030473
20
-12.6181426370
11
-2.0060079925
21
-12.5639595599
0
LINE
5
4B4
100
AcDbEntity
8
DEFAULT_3
100
AcDbLine
62
9
6
PHANTOM
10
3.1706954271
20
-0.9536624741
11
3.1718413300
21
-0.9577980405
0
LINE
5
4B5
100
AcDbEntity
8
0
100
AcDbLine
62
9
6
CONTINUOUS
10
-9.5583275586
20
-15.5099505596
11
-9.5717047819
21
-15.4616200518
0
LINE
5
4B6
100
AcDbEntity
8
0
100
AcDbLine
62
9
6
CONTINUOUS
10
4.8358422909
20
-22.6619069131
11
4.8490895625
21
-22.7098667508
0
LINE
5
4B7
100
AcDbEntity
8
0
100
AcDbLine
62
9
6
CONTINUOUS
10
3.6217846054
20
-0.8672465987
11
3.6111483379
21
-0.8279591640
0
LINE
5
4B8
100
AcDbEntity
8
DEFAULT_3
100
AcDbLine
62
9
6
PHANTOM
10
-7.9500141749
20
-1.1241823694
11
-7.9595751459
21
-1.0882204036
0
LINE
5
4B9
100
AcDbEntity
8
0
100
AcDbLine
62
0
6
CONTINUOUS
10
-8.2623053138
20
-1.1022136278
11
-8.2505175777
21
-1.1468186259
0
LINE
5
4BA
100
AcDbEntity
8
DEFAULT_3
100
AcDbLine
62
9
6
PHANTOM
10
-8.0826244931
20
-1.2714920215
11
-8.0926788495
21
-1.2329301535
0
LINE
5
4BB
100
AcDbEntity
8
DEFAULT_3
100
AcDbLine
62
9
6
PHANTOM
10
-9.0140618722
20
-2.0868775162
11
-9.0190127187
21
-2.0677245296
0
LINE
5
4BC
100
AcDbEntity
8
DEFAULT_3
100
AcDbLine
62
9
6
PHANTOM
10
3.1481750232
20
-8.1679966509
11
3.1432240459
21
-8.1488434877
0
LINE
5
4BD
100
AcDbEntity
8
0
100
AcDbLine
62
9
6
CONTINUOUS
10
-3.4147583116
20
-12.4838234736
11
-3.4331087621
21
-12.4116686852
0
LINE
5
4BE
100
AcDbEntity
8
0
100
AcDbLine
62
9
6
CONTINUOUS
10
-3.5525021613
20
-12.5164037061
11
-3.5724739783
21
-12.4378028612
0
LINE
5
4BF
100
AcDbEntity
8
0
100
AcDbLine
62
0
6
CONTINUOUS
10
-3.3364586556
20
-12.5948212021
11
-3.3501126885
21
-12.5409773980
0
LINE
5
4C0
100
AcDbEntity
8
0
100
AcDbLine
62
9
6
CONTINUOUS
10
-1.8317128128
20
-12.6964028310
11
-1.8119111270
21
-12.7751264342
0
LINE
5
4C1
100
AcDbEntity
8
0
100
AcDbLine
62
9
6
CONTINUOUS
10
-9.0927062757
20
-1.9088678198
11
-9.0868467382
21
-1.9328198911
0
LINE
5
4C2
100
AcDbEntity
8
DEFAULT_3
100
AcDbLine
62
9
6
PHANTOM
10
-9.0568726521
20
-1.9802770589
11
-9.0578385436
21
-1.9762364661
0
LINE
5
4C3
100
AcDbEntity
8
0
100
AcDbLine
62
9
6
CONTINUOUS
10
-3.3332864767
20
-12.5347809598
11
-3.3216046118
21
-12.5838824711
0
LINE
5
4C4
100
AcDbEntity
8
0
100
AcDbLine
62
9
6
CONTINUOUS
10
-2.1097299392
20
-12.6989471850
11
-2.1214118042
21
-12.6498456737
0
LINE
5
4C5
100
AcDbEntity
8
0
100
AcDbLine
62
9
6
CONTINUOUS
10
-1.9780442843
20
-12.6721909174
11
-1.9909030473
21
-12.6181426370
0
LINE
5
4C6
100
AcDbEntity
8
0
100
AcDbLine
62
9
6
CONTINUOUS
10
-9.3687822897
20
-1.9594150015
11
-9.3597820125
21
-1.9973115432
0
LINE
5
4C7
100
AcDbEntity
8
0
100
AcDbLine
62
0
6
CONTINUOUS
10
-1.8614066988
20
-12.6693938007
11
-1.8277575479
21
-12.8121135458
0
LINE
5
4C8
100
AcDbEntity
8
0
100
AcDbLine
62
0
6
CONTINUOUS
10
-8.2725547817
20
-1.0578415602
11
-8.2623053138
21
-1.1022136278
0
LINE
5
4C9
100
AcDbEntity
8
0
100
AcDbLine
62
9
6
CONTINUOUS
10
-8.9818167787
20
5.7025397721
11
-8.9878739952
21
5.7289187888
0
LINE
5
4CA
100
AcDbEntity
8
0
100
AcDbLine
62
9
6
CONTINUOUS
10
-9.5717047819
20
-15.4616200518
11
-9.5828250560
21
-15.4129047035
0
LINE
5
4CB
100
AcDbEntity
8
DEFAULT_3
100
AcDbLine
62
9
6
PHANTOM
10
-9.1275821660
20
-1.9267621631
11
-9.1219372846
21
-1.9523508249
0
LINE
5
4CC
100
AcDbEntity
8
DEFAULT_3
100
AcDbLine
62
9
6
PHANTOM
10
-7.9595751459
20
-1.0882204036
11
-7.9673046179
21
-1.0529927881
0
LINE
5
4CD
100
AcDbEntity
8
DEFAULT_3
100
AcDbLine
62
9
6
PHANTOM
10
-9.1320392662
20
5.2238648709
11
-9.1293026833
21
5.2110482130
0
LINE
5
4CE
100
AcDbEntity
8
0
100
AcDbLine
62
0
6
CONTINUOUS
10
-3.3501126885
20
-12.5409773980
11
-3.3614814826
21
-12.4872014198
0
LINE
5
4CF
100
AcDbEntity
8
DEFAULT_3
100
AcDbLine
62
9
6
PHANTOM
10
-9.1320393687
20
-1.8819439443
11
-9.1293029808
21
-1.8951507864
0
LINE
5
4D0
100
AcDbEntity
8
0
100
AcDbLine
62
0
6
CONTINUOUS
10
-9.8286860170
20
-15.0656133633
11
-9.8003582477
21
-15.2071998031
0
LINE
5
4D1
100
AcDbEntity
8
0
100
AcDbLine
62
9
6
CONTINUOUS
10
-9.3757088192
20
-1.9232779017
11
-9.3687822897
21
-1.9594150015
0
LINE
5
4D2
100
AcDbEntity
8
0
100
AcDbLine
62
9
6
CONTINUOUS
10
-9.5828250560
20
-15.4129047035
11
-9.5917561150
21
-15.3643832685
0
LINE
5
4D3
100
AcDbEntity
8
0
100
AcDbLine
62
9
6
CONTINUOUS
10
-9.5986534697
20
-15.3164069260
11
-9.6037135135
21
-15.2690629682
0
LINE
5
4D4
100
AcDbEntity
8
0
100
AcDbLine
62
0
6
CONTINUOUS
10
-9.8414496546
20
-14.9384640113
11
-9.8286860170
21
-15.0656133633
0
LINE
5
4D5
100
AcDbEntity
8
0
100
AcDbLine
62
9
6
CONTINUOUS
10
6.2992601134
20
-22.7487964054
11
6.3200298363
21
-22.7445910544
0
LINE
5
4D6
100
AcDbEntity
8
0
100
AcDbLine
62
9
6
CONTINUOUS
10
-2.4353586342
20
-13.4589921268
11
-2.4025724519
21
-13.4537668297
0
LINE
5
4D7
100
AcDbEntity
8
0
100
AcDbLine
62
9
6
CONTINUOUS
10
-3.0076578081
20
-11.7747360311
11
-3.0404439707
21
-11.7799613184
0
LINE
5
4D8
100
AcDbEntity
8
0
100
AcDbLine
62
9
6
CONTINUOUS
10
-2.9664346422
20
-11.6548691892
11
-3.0025238287
21
-11.6606210637
0
LINE
5
4D9
100
AcDbEntity
8
0
100
AcDbLine
62
0
6
CONTINUOUS
10
-2.3242254098
20
-13.5099035411
11
-2.3551292991
21
-13.5145616215
0
LINE
5
4DA
100
AcDbEntity
8
DEFAULT_3
100
AcDbLine
62
9
6
PHANTOM
10
3.5131716211
20
-7.1633971970
11
3.4774273963
21
-7.1686653734
0
LINE
5
4DB
100
AcDbEntity
8
0
100
AcDbLine
62
0
6
CONTINUOUS
10
5.7762845868
20
-23.2627274124
11
5.9214139943
21
-23.2413692689
0
LINE
5
4DC
100
AcDbEntity
8
0
100
AcDbLine
62
9
6
CONTINUOUS
10
6.2780832449
20
-22.7518896791
11
6.2992601134
21
-22.7487964054
0
LINE
5
4DD
100
AcDbEntity
8
DEFAULT_3
100
AcDbLine
62
9
6
PHANTOM
10
3.1565120820
20
-8.1095089795
11
3.1537905222
21
-8.1098686300
0
LINE
5
4DE
100
AcDbEntity
8
0
100
AcDbLine
62
9
6
CONTINUOUS
10
5.5639506535
20
-22.5078354331
11
5.4280786928
21
-22.5256614540
0
LINE
5
4DF
100
AcDbEntity
8
DEFAULT_3
100
AcDbLine
62
9
6
PHANTOM
10
3.3503741795
20
-8.2677142341
11
3.3761291097
21
-8.2644428155
0
LINE
5
4E0
100
AcDbEntity
8
DEFAULT_3
100
AcDbLine
62
9
6
PHANTOM
10
-8.3499543163
20
-0.4207724408
11
-8.3658620823
21
-0.4226301514
0
LINE
5
4E1
100
AcDbEntity
8
DEFAULT_3
100
AcDbLine
62
9
6
PHANTOM
10
3.4152644265
20
-8.1118985255
11
3.3896695406
21
-8.1148780053
0
LINE
5
4E2
100
AcDbEntity
8
DEFAULT_3
100
AcDbLine
62
9
6
PHANTOM
10
3.5427976602
20
-7.1564488155
11
3.5359155655
21
-7.1571674925
0
LINE
5
4E3
100
AcDbEntity
8
0
100
AcDbLine
62
0
6
CONTINUOUS
10
-3.0910508681
20
-11.4760407921
11
-3.0176814384
21
-11.4686697628
0
LINE
5
4E4
100
AcDbEntity
8
DEFAULT_3
100
AcDbLine
62
9
6
PHANTOM
10
3.4152660697
20
-1.0075286018
11
3.3896713764
21
-1.0099882238
0
LINE
5
4E5
100
AcDbEntity
8
0
100
AcDbLine
62
9
6
CONTINUOUS
10
-9.1923649282
20
-1.8510086482
11
-9.2265369692
21
-1.8542730231
0
LINE
5
4E6
100
AcDbEntity
8
0
100
AcDbLine
62
9
6
CONTINUOUS
10
3.4134250786
20
-8.6571834186
11
3.4400548322
21
-8.6547746286
0
LINE
5
4E7
100
AcDbEntity
8
0
100
AcDbLine
62
0
6
CONTINUOUS
10
-2.3551292991
20
-13.5145616215
11
-2.3868358691
21
-13.5172079277
0
LINE
5
4E8
100
AcDbEntity
8
DEFAULT_3
100
AcDbLine
62
9
6
PHANTOM
10
-8.3338356268
20
-0.4194449224
11
-8.3499543163
21
-0.4207724408
0
LINE
5
4E9
100
AcDbEntity
8
DEFAULT_3
100
AcDbLine
62
9
6
PHANTOM
10
-8.3499543163
20
4.6021749012
11
-8.3338356268
21
4.6035024196
0
LINE
5
4EA
100
AcDbEntity
8
0
100
AcDbLine
62
9
6
CONTINUOUS
10
3.4970340911
20
-8.3975435672
11
3.5139290735
21
-8.3961909269
0
LINE
5
4EB
100
AcDbEntity
8
0
100
AcDbLine
62
9
6
CONTINUOUS
10
-9.1923649296
20
5.4460337955
11
-9.2265369704
21
5.4434620854
0
LINE
5
4EC
100
AcDbEntity
8
DEFAULT_3
100
AcDbLine
62
9
6
PHANTOM
10
-8.5395002735
20
-0.3323153665
11
-8.5166027831
21
-0.3306140460
0
LINE
5
4ED
100
AcDbEntity
8
DEFAULT_3
100
AcDbLine
62
9
6
PHANTOM
10
3.4774273963
20
-7.1686653734
11
3.4410154344
21
-7.1710291624
0
LINE
5
4EE
100
AcDbEntity
8
DEFAULT_3
100
AcDbLine
62
9
6
PHANTOM
10
3.3896695406
20
-8.1148780053
11
3.3636461527
21
-8.1164857818
0
LINE
5
4EF
100
AcDbEntity
8
DEFAULT_3
100
AcDbLine
62
9
6
PHANTOM
10
-8.3175086813
20
-0.4186408905
11
-8.3338356268
21
-0.4194449224
0
LINE
5
4F0
100
AcDbEntity
8
DEFAULT_3
100
AcDbLine
62
9
6
PHANTOM
10
-8.3338356268
20
4.6035024196
11
-8.3175086813
21
4.6043064515
0
LINE
5
4F1
100
AcDbEntity
8
DEFAULT_3
100
AcDbLine
62
9
6
PHANTOM
10
3.3896713764
20
-1.0099882238
11
3.3636480945
21
-1.0111143052
0
LINE
5
4F2
100
AcDbEntity
8
0
100
AcDbLine
62
9
6
CONTINUOUS
10
5.5639506603
20
12.6950866657
11
5.4280787058
21
12.6905990685
0
LINE
5
4F3
100
AcDbEntity
8
DEFAULT_3
100
AcDbLine
62
9
6
PHANTOM
10
-8.3175086813
20
4.6043064515
11
-8.3011817358
21
4.6045767411
0
LINE
5
4F4
100
AcDbEntity
8
DEFAULT_3
100
AcDbLine
62
9
6
PHANTOM
10
-9.0382695815
20
5.1720696620
11
-9.0353783186
21
5.1720940421
0
LINE
5
4F5
100
AcDbEntity
8
DEFAULT_3
100
AcDbLine
62
9
6
PHANTOM
10
-8.9362541777
20
5.4910344406
11
-8.9191399139
21
5.4911681541
0
LINE
5
4F6
100
AcDbEntity
8
0
100
AcDbLine
62
0
6
CONTINUOUS
10
-4.8057173657
20
23.9691839910
11
-4.7371940767
21
23.9633398386
0
LINE
5
4F7
100
AcDbEntity
8
0
100
AcDbLine
62
0
6
CONTINUOUS
10
10.5000386586
20
15.9419457222
11
10.5232414436
21
15.8464207829
0
LINE
5
4F8
100
AcDbEntity
8
0
100
AcDbLine
62
9
6
CONTINUOUS
10
3.2673654199
20
-0.4220511845
11
3.2613082444
21
-0.3956722261
0
LINE
5
4F9
100
AcDbEntity
8
0
100
AcDbLine
62
9
6
CONTINUOUS
10
4.8248482569
20
-22.6136893008
11
4.8358422909
21
-22.6619069131
0
LINE
5
4FA
100
AcDbEntity
8
0
100
AcDbLine
62
9
6
CONTINUOUS
10
5.9323141725
20
-22.4724435747
11
5.9374453589
21
-22.4950406665
0
LINE
5
4FB
100
AcDbEntity
8
DEFAULT_3
100
AcDbLine
62
9
6
PHANTOM
10
3.5147003218
20
-0.8813161184
11
3.5202256608
21
-0.9057360918
0
LINE
5
4FC
100
AcDbEntity
8
DEFAULT_3
100
AcDbLine
62
9
6
PHANTOM
10
3.1718413300
20
-0.9577980405
11
3.1727265558
21
-0.9618789662
0
LINE
5
4FD
100
AcDbEntity
8
0
100
AcDbLine
62
9
6
CONTINUOUS
10
3.6299788908
20
-0.9055461364
11
3.6217846054
21
-0.8672465987
0
LINE
5
4FE
100
AcDbEntity
8
0
100
AcDbLine
62
9
6
CONTINUOUS
10
6.4044633638
20
13.6984735992
11
6.3777108181
21
13.8272464313
0
LINE
5
4FF
100
AcDbEntity
8
0
100
AcDbLine
62
9
6
CONTINUOUS
10
-3.4331087621
20
-12.4116686852
11
-3.4484051485
21
-12.3375186589
0
LINE
5
500
100
AcDbEntity
8
0
100
AcDbLine
62
9
6
CONTINUOUS
10
-3.5724739783
20
-12.4378028612
11
-3.5885948646
21
-12.3575783765
0
LINE
5
501
100
AcDbEntity
8
0
100
AcDbLine
62
9
6
CONTINUOUS
10
-1.8119111270
20
-12.7751264342
11
-1.7959416906
21
-12.8554543461
0
LINE
5
502
100
AcDbEntity
8
0
100
AcDbLine
62
0
6
CONTINUOUS
10
-8.2812502216
20
-1.0137257130
11
-8.2725547817
21
-1.0578415602
0
LINE
5
503
100
AcDbEntity
8
0
100
AcDbLine
62
0
6
CONTINUOUS
10
-8.1550198088
20
-1.4084662596
11
-8.1439679350
21
-1.4645093552
0
LINE
5
504
100
AcDbEntity
8
0
100
AcDbLine
62
9
6
CONTINUOUS
10
-3.3428905225
20
-12.4859620665
11
-3.3332864767
21
-12.5347809598
0
LINE
5
505
100
AcDbEntity
8
0
100
AcDbLine
62
9
6
CONTINUOUS
10
-2.1001258934
20
-12.7477660782
11
-2.1097299392
21
-12.6989471850
0
LINE
5
506
100
AcDbEntity
8
0
100
AcDbLine
62
9
6
CONTINUOUS
10
-1.9674726714
20
-12.7259281074
11
-1.9780442843
21
-12.6721909174
0
LINE
5
507
100
AcDbEntity
8
0
100
AcDbLine
62
9
6
CONTINUOUS
10
-9.0971208152
20
-1.8859593662
11
-9.0927062757
21
-1.9088678198
0
LINE
5
508
100
AcDbEntity
8
0
100
AcDbLine
62
0
6
CONTINUOUS
10
3.5698431834
20
-0.8505970396
11
3.5794665784
21
-0.9016261399
0
LINE
5
509
100
AcDbEntity
8
0
100
AcDbLine
62
9
6
CONTINUOUS
10
5.9281202702
20
-22.4501004077
11
5.9323141725
21
-22.4724435747
0
LINE
5
50A
100
AcDbEntity
8
DEFAULT_3
100
AcDbLine
62
9
6
PHANTOM
10
-8.0926788495
20
-1.2329301535
11
-8.0998148183
21
-1.1945146916
0
LINE
5
50B
100
AcDbEntity
8
0
100
AcDbLine
62
9
6
CONTINUOUS
10
4.8160277028
20
-22.5657895271
11
4.8248482569
21
-22.6136893008
0
LINE
5
50C
100
AcDbEntity
8
DEFAULT_3
100
AcDbLine
62
9
6
PHANTOM
10
-9.0578385436
20
-1.9762364661
11
-9.0585362555
21
-1.9722851466
0
LINE
5
50D
100
AcDbEntity
8
DEFAULT_3
100
AcDbLine
62
9
6
PHANTOM
10
-8.6970448531
20
-0.4444661244
11
-8.6990627779
21
-0.4329336315
0
LINE
5
50E
100
AcDbEntity
8
DEFAULT_3
100
AcDbLine
62
9
6
PHANTOM
10
-7.9673046179
20
-1.0529927881
11
-7.9731994394
21
-1.0188404993
0
LINE
5
50F
100
AcDbEntity
8
0
100
AcDbLine
62
0
6
CONTINUOUS
10
-3.3614814826
20
-12.4872014198
11
-3.3705110972
21
-12.4336733216
0
LINE
5
510
100
AcDbEntity
8
0
100
AcDbLine
62
9
6
CONTINUOUS
10
3.6361239010
20
-0.9420739958
11
3.6299788908
21
-0.9055461364
0
LINE
5
511
100
AcDbEntity
8
DEFAULT_3
100
AcDbLine
62
9
6
PHANTOM
10
3.5202256608
20
-0.9057360918
11
3.5241908177
21
-0.9298886320
0
LINE
5
512
100
AcDbEntity
8
0
100
AcDbLine
62
0
6
CONTINUOUS
10
-8.2884073934
20
-0.9698427963
11
-8.2812502216
21
-1.0137257130
0
LINE
5
513
100
AcDbEntity
8
0
100
AcDbLine
62
9
6
CONTINUOUS
10
-3.4484051485
20
-12.3375186589
11
-3.4601783675
21
-12.2618434859
0
LINE
5
514
100
AcDbEntity
8
0
100
AcDbLine
62
9
6
CONTINUOUS
10
-3.3503858742
20
-12.4375822988
11
-3.3428905225
21
-12.4859620665
0
LINE
5
515
100
AcDbEntity
8
0
100
AcDbLine
62
9
6
CONTINUOUS
10
-2.0926305419
20
-12.7961458459
11
-2.1001258934
21
-12.7477660782
0
LINE
5
516
100
AcDbEntity
8
0
100
AcDbLine
62
9
6
CONTINUOUS
10
-1.9592221944
20
-12.7791819318
11
-1.9674726714
21
-12.7259281074
0
LINE
5
517
100
AcDbEntity
8
DEFAULT_3
100
AcDbLine
62
9
6
PHANTOM
10
3.1727265558
20
-0.9618789662
11
3.1733426697
21
-0.9658710847
0
LINE
5
518
100
AcDbEntity
8
0
100
AcDbLine
62
9
6
CONTINUOUS
10
5.9248032864
20
-22.4281700394
11
5.9281202702
21
-22.4501004077
0
LINE
5
519
100
AcDbEntity
8
0
100
AcDbLine
62
9
6
CONTINUOUS
10
-3.5885948646
20
-12.3575783765
11
-3.6009706229
21
-12.2754773657
0
LINE
5
51A
100
AcDbEntity
8
DEFAULT_3
100
AcDbLine
62
9
6
PHANTOM
10
-9.0190127187
20
-2.0677245296
11
-9.0221072263
21
-2.0471315947
0
LINE
5
51B
100
AcDbEntity
8
DEFAULT_3
100
AcDbLine
62
9
6
PHANTOM
10
3.1432240459
20
-8.1488434877
11
3.1401294467
21
-8.1282502808
0
LINE
5
51C
100
AcDbEntity
8
0
100
AcDbLine
62
9
6
CONTINUOUS
10
-1.7959416906
20
-12.8554543461
11
-1.7836939727
21
-12.9376368625
0
LINE
5
51D
100
AcDbEntity
8
0
100
AcDbLine
62
9
6
CONTINUOUS
10
-9.3806851422
20
-1.8891578295
11
-9.3757088192
21
-1.9232779017
0
LINE
5
51E
100
AcDbEntity
8
0
100
AcDbLine
62
0
6
CONTINUOUS
10
-1.8277575479
20
-12.8121135458
11
-1.8078228084
21
-12.9501284891
0
LINE
5
51F
100
AcDbEntity
8
0
100
AcDbLine
62
9
6
CONTINUOUS
10
4.8092188679
20
-22.5185558678
11
4.8160277028
21
-22.5657895271
0
LINE
5
520
100
AcDbEntity
8
0
100
AcDbLine
62
9
6
CONTINUOUS
10
-9.5917561150
20
-15.3643832685
11
-9.5986534697
21
-15.3164069260
0
LINE
5
521
100
AcDbEntity
8
0
100
AcDbLine
62
9
6
CONTINUOUS
10
-9.1001968042
20
-1.8642269069
11
-9.0971208152
21
-1.8859593662
0
LINE
5
522
100
AcDbEntity
8
DEFAULT_3
100
AcDbLine
62
9
6
PHANTOM
10
-9.1310993602
20
-1.9006539405
11
-9.1275821660
21
-1.9267621631
0
LINE
5
523
100
AcDbEntity
8
0
100
AcDbLine
62
0
6
CONTINUOUS
10
-8.2939834186
20
-0.9264624622
11
-8.2884073934
21
-0.9698427963
0
LINE
5
524
100
AcDbEntity
8
DEFAULT_3
100
AcDbLine
62
9
6
PHANTOM
10
-7.9731994394
20
-1.0188404993
11
-7.9773042710
21
-0.9860285205
0
LINE
5
525
100
AcDbEntity
8
0
100
AcDbLine
62
0
6
CONTINUOUS
10
-3.3705110972
20
-12.4336733216
11
-3.3771527096
21
-12.3805922742
0
LINE
5
526
100
AcDbEntity
8
0
100
AcDbLine
62
9
6
CONTINUOUS
10
-9.8414496178
20
-14.9384640093
11
-9.8381392150
21
-14.9665196506
0
LINE
5
527
100
AcDbEntity
8
DEFAULT_3
100
AcDbLine
62
9
6
PHANTOM
10
-9.0585362555
20
-1.9722851466
11
-9.0589748860
21
-1.9683892656
0
LINE
5
528
100
AcDbEntity
8
DEFAULT_3
100
AcDbLine
62
9
6
PHANTOM
10
-8.0998148183
20
-1.1945146916
11
-8.1041460419
21
-1.1558326734
0
LINE
5
529
100
AcDbEntity
8
0
100
AcDbLine
62
9
6
CONTINUOUS
10
5.9224235867
20
-22.4064935958
11
5.9248032864
21
-22.4281700394
0
LINE
5
52A
100
AcDbEntity
8
0
100
AcDbLine
62
9
6
CONTINUOUS
10
4.8042243028
20
-22.4720737106
11
4.8092188679
21
-22.5185558678
0
LINE
5
52B
100
AcDbEntity
8
0
100
AcDbLine
62
9
6
CONTINUOUS
10
-2.7303193752
20
-11.4988152566
11
-2.7288312309
21
-11.5126796302
0
LINE
5
52C
100
AcDbEntity
8
0
100
AcDbLine
62
9
6
CONTINUOUS
10
-3.6009706229
20
-12.2754773657
11
-3.6094900384
21
-12.1917497297
0
LINE
5
52D
100
AcDbEntity
8
0
100
AcDbLine
62
9
6
CONTINUOUS
10
-3.4601783675
20
-12.2618434859
11
-3.4679440493
21
-12.1851423110
0
LINE
5
52E
100
AcDbEntity
8
0
100
AcDbLine
62
9
6
CONTINUOUS
10
-1.7836939727
20
-12.9376368625
11
-1.7752730886
21
-13.0214206836
0
LINE
5
52F
100
AcDbEntity
8
DEFAULT_3
100
AcDbLine
62
9
6
PHANTOM
10
3.5241908177
20
-0.9298886320
11
3.5265649981
21
-0.9535903768
0
LINE
5
530
100
AcDbEntity
8
0
100
AcDbLine
62
9
6
CONTINUOUS
10
3.5840744300
20
-8.2689324789
11
3.5849014916
21
-8.2775488409
0
LINE
5
531
100
AcDbEntity
8
0
100
AcDbLine
62
0
6
CONTINUOUS
10
-8.2979640043
20
-0.8836745946
11
-8.2939834186
21
-0.9264624622
0
LINE
5
532
100
AcDbEntity
8
0
100
AcDbLine
62
0
6
CONTINUOUS
10
3.5794665784
20
-0.9016261399
11
3.5837670317
21
-0.9488045237
0
LINE
5
533
100
AcDbEntity
8
0
100
AcDbLine
62
9
6
CONTINUOUS
10
-9.1020600418
20
-1.8436885612
11
-9.1001968042
21
-1.8642269069
0
LINE
5
534
100
AcDbEntity
8
DEFAULT_3
100
AcDbLine
62
9
6
PHANTOM
10
3.1733426697
20
-0.9658710847
11
3.1736981109
21
-0.9698085604
0
LINE
5
535
100
AcDbEntity
8
0
100
AcDbLine
62
9
6
CONTINUOUS
10
-9.3835882343
20
-1.8567974678
11
-9.3806851422
21
-1.8891578295
0
LINE
5
536
100
AcDbEntity
8
0
100
AcDbLine
62
9
6
CONTINUOUS
10
3.5840722293
20
-0.9698456190
11
3.5849014905
21
-0.9792146286
0
LINE
5
537
100
AcDbEntity
8
0
100
AcDbLine
62
0
6
CONTINUOUS
10
-8.1559052063
20
-1.3977364692
11
-8.1550198088
21
-1.4084662596
0
LINE
5
538
100
AcDbEntity
8
0
100
AcDbLine
62
9
6
CONTINUOUS
10
6.4146462481
20
13.5746801491
11
6.4044633638
21
13.6984735992
0
LINE
5
539
100
AcDbEntity
8
0
100
AcDbLine
62
0
6
CONTINUOUS
10
-3.3771527096
20
-12.3805922742
11
-3.3813711147
21
-12.3281079653
0
LINE
5
53A
100
AcDbEntity
8
0
100
AcDbLine
62
9
6
CONTINUOUS
10
-9.8416228976
20
20.3049700186
11
-9.8381390936
21
20.2613001151
0
LINE
5
53B
100
AcDbEntity
8
DEFAULT_3
100
AcDbLine
62
9
6
PHANTOM
10
-7.9773042710
20
-0.9860285205
11
-7.9796972836
21
-0.9547311706
0
LINE
5
53C
100
AcDbEntity
8
0
100
AcDbLine
62
9
6
CONTINUOUS
10
4.8008722453
20
-22.4265267901
11
4.8042243028
21
-22.4720737106
0
LINE
5
53D
100
AcDbEntity
8
0
100
AcDbLine
62
9
6
CONTINUOUS
10
-9.6037135135
20
-15.2690629682
11
-9.6071052895
21
-15.2225380227
0
LINE
5
53E
100
AcDbEntity
8
0
100
AcDbLine
62
9
6
CONTINUOUS
10
-3.3589536484
20
-12.3427851882
11
-3.3557468831
21
-12.3898006207
0
LINE
5
53F
100
AcDbEntity
8
0
100
AcDbLine
62
9
6
CONTINUOUS
10
-2.0840627680
20
-12.8909429567
11
-2.0872695331
21
-12.8439275241
0
LINE
5
540
100
AcDbEntity
8
0
100
AcDbLine
62
9
6
CONTINUOUS
10
-1.9497912515
20
-12.8835294507
11
-1.9533210858
21
-12.8317774120
0
LINE
5
541
100
AcDbEntity
8
0
100
AcDbLine
62
9
6
CONTINUOUS
10
5.9209811710
20
-22.3850710770
11
5.9224235867
21
-22.4064935958
0
LINE
5
542
100
AcDbEntity
8
0
100
AcDbLine
62
9
6
CONTINUOUS
10
3.6425268110
20
-1.0092926822
11
3.6403502520
21
-0.9765690540
0
LINE
5
543
100
AcDbEntity
8
0
100
AcDbLine
62
9
6
CONTINUOUS
10
-8.9878739952
20
5.7289187888
11
-8.9896500316
21
5.7582816181
0
LINE
5
544
100
AcDbEntity
8
0
100
AcDbLine
62
9
6
CONTINUOUS
10
3.2613082444
20
-0.3956722261
11
3.2595322240
21
-0.3663095097
0
LINE
5
545
100
AcDbEntity
8
DEFAULT_3
100
AcDbLine
62
9
6
PHANTOM
10
-9.1323782536
20
-1.8760373487
11
-9.1320393687
21
-1.8819439443
0
LINE
5
546
100
AcDbEntity
8
0
100
AcDbLine
62
0
6
CONTINUOUS
10
-8.3003634434
20
-0.8413893097
11
-8.2979640043
21
-0.8836745946
0
LINE
5
547
100
AcDbEntity
8
0
100
AcDbLine
62
0
6
CONTINUOUS
10
-9.8414655111
20
-14.9381838838
11
-9.8414496178
21
-14.9384640093
0
LINE
5
548
100
AcDbEntity
8
DEFAULT_3
100
AcDbLine
62
9
6
PHANTOM
10
-9.0221072263
20
-2.0471315947
11
-9.0233121003
21
-2.0253203793
0
LINE
5
549
100
AcDbEntity
8
DEFAULT_3
100
AcDbLine
62
9
6
PHANTOM
10
3.1401294467
20
-8.1282502808
11
3.1389245361
21
-8.1064386975
0
LINE
5
54A
100
AcDbEntity
8
DEFAULT_3
100
AcDbLine
62
9
6
PHANTOM
10
-9.1323731403
20
-1.8760372972
11
-9.1310993602
21
-1.9006539405
0
LINE
5
54B
100
AcDbEntity
8
0
100
AcDbLine
62
0
6
CONTINUOUS
10
-10.0254957514
20
-11.2527751738
11
-9.8414655111
21
-14.9381838838
0
LINE
5
54C
100
AcDbEntity
8
0
100
AcDbLine
62
9
6
CONTINUOUS
10
-9.6071052895
20
-15.2225380227
11
-9.7967655990
21
-11.4081808099
0
LINE
5
54D
100
AcDbEntity
8
DEFAULT_3
100
AcDbLine
62
9
6
PHANTOM
10
-9.1323788552
20
5.2309775499
11
-9.1320392662
21
5.2238648709
0
LINE
5
54E
100
AcDbEntity
8
DEFAULT_3
100
AcDbLine
62
9
6
PHANTOM
10
-9.0589748860
20
-1.9683892656
11
-9.0591544326
21
-1.9645488217
0
LINE
5
54F
100
AcDbEntity
8
0
100
AcDbLine
62
0
6
CONTINUOUS
10
-1.8078228084
20
-12.9501284891
11
-1.8016937932
21
-13.0815442756
0
LINE
5
550
100
AcDbEntity
8
0
100
AcDbLine
62
9
6
CONTINUOUS
10
-3.4679440493
20
-12.1851423110
11
-3.4711743550
21
-12.1076133903
0
LINE
5
551
100
AcDbEntity
8
0
100
AcDbLine
62
9
6
CONTINUOUS
10
-9.1028290580
20
-1.8243851111
11
-9.1020600418
21
-1.8436885612
0
LINE
5
552
100
AcDbEntity
8
DEFAULT_3
100
AcDbLine
62
9
6
PHANTOM
10
-8.1041460419
20
-1.1558326734
11
-8.1056128265
21
-1.1168545388
0
LINE
5
553
100
AcDbEntity
8
0
100
AcDbLine
62
0
6
CONTINUOUS
10
-10.1704557208
20
-7.3767229656
11
-10.0254957514
21
-11.2527751738
0
LINE
5
554
100
AcDbEntity
8
0
100
AcDbLine
62
9
6
CONTINUOUS
10
-9.7967655990
20
-11.4081808099
11
-9.9390492752
21
-7.5661740816
0
LINE
5
555
100
AcDbEntity
8
0
100
AcDbLine
62
9
6
CONTINUOUS
10
-3.6094900384
20
-12.1917497297
11
-3.6124839686
21
-12.1079929633
0
LINE
5
556
100
AcDbEntity
8
0
100
AcDbLine
62
0
6
CONTINUOUS
10
-3.3813711147
20
-12.3281079653
11
-3.3831330507
21
-12.2763913369
0
LINE
5
557
100
AcDbEntity
8
DEFAULT_3
100
AcDbLine
62
9
6
PHANTOM
10
-8.6990627779
20
-0.4329336315
11
-8.6991500515
21
-0.4300687587
0
LINE
5
558
100
AcDbEntity
8
0
100
AcDbLine
62
9
6
CONTINUOUS
10
-9.3844183122
20
-1.8261969294
11
-9.3835882343
21
-1.8567974678
0
LINE
5
559
100
AcDbEntity
8
DEFAULT_3
100
AcDbLine
62
9
6
PHANTOM
10
-7.9796972836
20
-0.9547311706
11
-7.9804710577
21
-0.9251361013
0
LINE
5
55A
100
AcDbEntity
8
0
100
AcDbLine
62
0
6
CONTINUOUS
10
-10.2671437499
20
-3.4735607875
11
-10.1704557208
21
-7.3767229656
0
LINE
5
55B
100
AcDbEntity
8
0
100
AcDbLine
62
9
6
CONTINUOUS
10
-9.9390492752
20
-7.5661740816
11
-10.0339233659
21
-3.6973926217
0
LINE
5
55C
100
AcDbEntity
8
0
100
AcDbLine
62
0
6
CONTINUOUS
10
-8.3011817358
20
-0.7996066074
11
-8.3003634434
21
-0.8413893097
0
LINE
5
55D
100
AcDbEntity
8
0
100
AcDbLine
62
0
6
CONTINUOUS
10
-10.3155314747
20
0.4556950245
11
-10.2671437499
21
-3.4735607875
0
LINE
5
55E
100
AcDbEntity
8
0
100
AcDbLine
62
9
6
CONTINUOUS
10
-10.0339233659
20
-3.6973926217
11
-10.0813659008
21
0.1972826556
0
LINE
5
55F
100
AcDbEntity
8
0
100
AcDbLine
62
9
6
CONTINUOUS
10
-9.3928045573
20
-1.0143220743
11
-9.3844183122
21
-1.8261969294
0
LINE
5
560
100
AcDbEntity
8
0
100
AcDbLine
62
0
6
CONTINUOUS
10
5.9214139943
20
-23.2413692689
11
6.0680358789
21
-23.2009325517
0
LINE
5
561
100
AcDbEntity
8
0
100
AcDbLine
62
9
6
CONTINUOUS
10
6.3200298363
20
-22.7445910544
11
6.3404068120
21
-22.7393013693
0
LINE
5
562
100
AcDbEntity
8
0
100
AcDbLine
62
9
6
CONTINUOUS
10
-2.4025724519
20
-13.4537668297
11
-2.3708792512
21
-13.4456975255
0
LINE
5
563
100
AcDbEntity
8
0
100
AcDbLine
62
9
6
CONTINUOUS
10
-3.0404439707
20
-11.7799613184
11
-3.0721371706
21
-11.7880306222
0
LINE
5
564
100
AcDbEntity
8
0
100
AcDbLine
62
9
6
CONTINUOUS
10
-3.0025238287
20
-11.6606210637
11
-3.0374099839
21
-11.6695033227
0
LINE
5
565
100
AcDbEntity
8
DEFAULT_3
100
AcDbLine
62
9
6
PHANTOM
10
3.4640547153
20
-8.1019696653
11
3.4401503773
21
-8.1075799760
0
LINE
5
566
100
AcDbEntity
8
DEFAULT_3
100
AcDbLine
62
9
6
PHANTOM
10
3.5479916444
20
-7.1553404582
11
3.5131716211
21
-7.1633971970
0
LINE
5
567
100
AcDbEntity
8
0
100
AcDbLine
62
9
6
CONTINUOUS
10
5.6939181113
20
-22.4778108889
11
5.5639506535
21
-22.5078354331
0
LINE
5
568
100
AcDbEntity
8
DEFAULT_3
100
AcDbLine
62
9
6
PHANTOM
10
3.3761291097
20
-8.2644428155
11
3.4014411323
21
-8.2587117432
0
LINE
5
569
100
AcDbEntity
8
0
100
AcDbLine
62
0
6
CONTINUOUS
10
-2.2941165475
20
-13.5032673350
11
-2.3242254098
21
-13.5099035411
0
LINE
5
56A
100
AcDbEntity
8
0
100
AcDbLine
62
9
6
CONTINUOUS
10
-3.2338611699
20
-11.4320642588
11
-3.1413679038
21
-11.4121007842
0
LINE
5
56B
100
AcDbEntity
8
DEFAULT_3
100
AcDbLine
62
9
6
PHANTOM
10
3.5479916438
20
-7.1553404584
11
3.5427976602
21
-7.1564488155
0
LINE
5
56C
100
AcDbEntity
8
0
100
AcDbLine
62
9
6
CONTINUOUS
10
-2.1493160345
20
-13.7790580360
11
-2.2413771268
21
-13.7985695097
0
LINE
5
56D
100
AcDbEntity
8
DEFAULT_3
100
AcDbLine
62
9
6
PHANTOM
10
3.4640557750
20
-0.9987308432
11
3.4401517535
21
-1.0037623871
0
LINE
5
56E
100
AcDbEntity
8
0
100
AcDbLine
62
9
6
CONTINUOUS
10
-2.1167875501
20
-13.6498376665
11
-2.2012352809
21
-13.6672224929
0
LINE
5
56F
100
AcDbEntity
8
0
100
AcDbLine
62
9
6
CONTINUOUS
10
3.5139290735
20
-8.3961909269
11
3.5306045389
21
-8.3927990652
0
LINE
5
570
100
AcDbEntity
8
0
100
AcDbLine
62
9
6
CONTINUOUS
10
3.4400548322
20
-8.6547746286
11
3.4665832590
21
-8.6494507336
0
LINE
5
571
100
AcDbEntity
8
DEFAULT_3
100
AcDbLine
62
9
6
PHANTOM
10
-8.5836952869
20
-0.3396027371
11
-8.5621641580
21
-0.3353517513
0
LINE
5
572
100
AcDbEntity
8
0
100
AcDbLine
62
9
6
CONTINUOUS
10
-9.1597147335
20
-1.8448010452
11
-9.1923649282
21
-1.8510086482
0
LINE
5
573
100
AcDbEntity
8
DEFAULT_3
100
AcDbLine
62
9
6
PHANTOM
10
-8.3815615924
20
-0.4250113486
11
-8.3968525939
21
-0.4278856592
0
LINE
5
574
100
AcDbEntity
8
DEFAULT_3
100
AcDbLine
62
9
6
PHANTOM
10
-8.3968525939
20
4.5950616827
11
-8.3815615924
21
4.5979359934
0
LINE
5
575
100
AcDbEntity
8
DEFAULT_3
100
AcDbLine
62
9
6
PHANTOM
10
3.4401503773
20
-8.1075799760
11
3.4152644265
21
-8.1118985255
0
LINE
5
576
100
AcDbEntity
8
0
100
AcDbLine
62
9
6
CONTINUOUS
10
-9.1597147350
20
5.4514759861
11
-9.1923649296
21
5.4460337955
0
LINE
5
577
100
AcDbEntity
8
DEFAULT_3
100
AcDbLine
62
9
6
PHANTOM
10
-8.3658620823
20
-0.4226301514
11
-8.3815615924
21
-0.4250113486
0
LINE
5
578
100
AcDbEntity
8
DEFAULT_3
100
AcDbLine
62
9
6
PHANTOM
10
-8.3815615924
20
4.5979359934
11
-8.3658620823
21
4.6003171905
0
LINE
5
579
100
AcDbEntity
8
DEFAULT_3
100
AcDbLine
62
9
6
PHANTOM
10
3.4401517535
20
-1.0037623871
11
3.4152660697
21
-1.0075286018
0
LINE
5
57A
100
AcDbEntity
8
0
100
AcDbLine
62
0
6
CONTINUOUS
10
-9.0033145489
20
5.6633223187
11
-8.9981699848
21
5.6640678610
0
LINE
5
57B
100
AcDbEntity
8
DEFAULT_3
100
AcDbLine
62
9
6
PHANTOM
10
-8.9526886275
20
5.4887659009
11
-8.9362541777
21
5.4910344406
0
LINE
5
57C
100
AcDbEntity
8
DEFAULT_3
100
AcDbLine
62
9
6
PHANTOM
10
-9.0410304319
20
5.1716903662
11
-9.0382695815
21
5.1720696620
0
LINE
5
57D
100
AcDbEntity
8
DEFAULT_3
100
AcDbLine
62
9
6
PHANTOM
10
-8.5621641580
20
-0.3353517513
11
-8.5395002735
21
-0.3323153665
0
LINE
5
57E
100
AcDbEntity
8
0
100
AcDbLine
62
9
6
CONTINUOUS
10
5.6939181135
20
12.7103899620
11
5.5639506603
21
12.6950866657
0
LINE
5
57F
100
AcDbEntity
8
DEFAULT_3
100
AcDbLine
62
9
6
PHANTOM
10
-8.3658620823
20
4.6003171905
11
-8.3499543163
21
4.6021749012
0
LINE
5
580
100
AcDbEntity
8
0
100
AcDbLine
62
0
6
CONTINUOUS
10
-4.8715159342
20
23.9620315535
11
-4.8057173657
21
23.9691839910
0
LINE
5
581
100
AcDbEntity
8
0
100
AcDbLine
62
9
6
CONTINUOUS
10
-9.1445540426
20
5.7960594983
11
-9.1715922238
21
5.7934464944
0
LINE
5
582
100
AcDbEntity
8
0
100
AcDbLine
62
9
6
CONTINUOUS
10
-8.8622304654
20
21.8093450657
11
-8.7720589876
21
21.8161358387
0
LINE
5
583
100
AcDbEntity
8
0
100
AcDbLine
62
0
6
CONTINUOUS
10
10.5232414436
20
15.8464207829
11
10.5376332184
21
15.7507329657
0
LINE
5
584
100
AcDbEntity
8
0
100
AcDbLine
62
9
6
CONTINUOUS
10
3.6403502520
20
-0.9765690540
11
3.6361239010
21
-0.9420739958
0
LINE
5
585
100
AcDbEntity
8
0
100
AcDbLine
62
9
6
CONTINUOUS
10
-3.3557468831
20
-12.3898006207
11
-3.3503858742
21
-12.4375822988
0
LINE
5
586
100
AcDbEntity
8
0
100
AcDbLine
62
9
6
CONTINUOUS
10
-2.0872695331
20
-12.8439275241
11
-2.0926305419
21
-12.7961458459
0
LINE
5
587
100
AcDbEntity
8
0
100
AcDbLine
62
9
6
CONTINUOUS
10
-1.9533210858
20
-12.8317774120
11
-1.9592221944
21
-12.7791819318
0
LINE
5
588
100
AcDbEntity
8
0
100
AcDbLine
62
0
6
CONTINUOUS
10
10.5376332184
20
15.7507329657
11
10.5432139828
21
15.6548822706
0
LINE
5
589
100
AcDbEntity
8
0
100
AcDbLine
62
9
6
CONTINUOUS
10
4.6044902345
20
-18.6088087266
11
4.8008722453
21
-22.4265267901
0
LINE
5
58A
100
AcDbEntity
8
0
100
AcDbLine
62
9
6
CONTINUOUS
10
5.7250782844
20
-18.5761234067
11
5.9209811710
21
-22.3850710770
0
LINE
5
58B
100
AcDbEntity
8
0
100
AcDbLine
62
9
6
CONTINUOUS
10
4.4571652825
20
-14.7642813604
11
4.6044902345
21
-18.6088087266
0
LINE
5
58C
100
AcDbEntity
8
0
100
AcDbLine
62
9
6
CONTINUOUS
10
5.5781510202
20
-14.7421683401
11
5.7250782844
21
-18.5761234067
0
LINE
5
58D
100
AcDbEntity
8
0
100
AcDbLine
62
9
6
CONTINUOUS
10
-1.7752730886
20
-13.0214206836
11
-1.7723438588
21
-13.1052011027
0
LINE
5
58E
100
AcDbEntity
8
DEFAULT_3
100
AcDbLine
62
9
6
PHANTOM
10
3.5265649981
20
-0.9535903768
11
3.5273297352
21
-0.9766610486
0
LINE
5
58F
100
AcDbEntity
8
0
100
AcDbLine
62
9
6
CONTINUOUS
10
4.3589303415
20
-10.8938194754
11
4.4571652825
21
-14.7642813604
0
LINE
5
590
100
AcDbEntity
8
0
100
AcDbLine
62
9
6
CONTINUOUS
10
5.4801993783
20
-10.8832058772
11
5.5781510202
21
-14.7421683401
0
LINE
5
591
100
AcDbEntity
8
DEFAULT_3
100
AcDbLine
62
9
6
PHANTOM
10
3.1736981109
20
-0.9698085604
11
3.1737928819
21
-0.9736913920
0
LINE
5
592
100
AcDbEntity
8
0
100
AcDbLine
62
9
6
CONTINUOUS
10
-3.3599945747
20
-12.2967031672
11
-3.3589536484
21
-12.3427851882
0
LINE
5
593
100
AcDbEntity
8
0
100
AcDbLine
62
9
6
CONTINUOUS
10
-2.0830218420
20
-12.9370249779
11
-2.0840627680
21
-12.8909429567
0
LINE
5
594
100
AcDbEntity
8
0
100
AcDbLine
62
9
6
CONTINUOUS
10
-1.9486454544
20
-12.9342540414
11
-1.9497912515
21
-12.8835294507
0
LINE
5
595
100
AcDbEntity
8
0
100
AcDbLine
62
0
6
CONTINUOUS
10
3.5837670317
20
-0.9488045237
11
3.5840722293
21
-0.9698456190
0
LINE
5
596
100
AcDbEntity
8
0
100
AcDbLine
62
9
6
CONTINUOUS
10
4.3098073822
20
-6.9983039859
11
4.3589303415
21
-10.8938194754
0
LINE
5
597
100
AcDbEntity
8
0
100
AcDbLine
62
9
6
CONTINUOUS
10
5.4312232265
20
-6.9983320373
11
5.4801993783
21
-10.8832058772
0
LINE
5
598
100
AcDbEntity
8
0
100
AcDbLine
62
9
6
CONTINUOUS
10
-9.1111938695
20
-1.0130318010
11
-9.1028290580
21
-1.8243851111
0
LINE
5
599
100
AcDbEntity
8
0
100
AcDbLine
62
0
6
CONTINUOUS
10
3.5770698337
20
-7.5932944169
11
3.5840738430
21
-8.2688832018
0
LINE
5
59A
100
AcDbEntity
8
0
100
AcDbLine
62
9
6
CONTINUOUS
10
3.6426533610
20
-8.3397327661
11
3.6344115810
21
-7.5279000194
0
LINE
5
59B
100
AcDbEntity
8
DEFAULT_3
100
AcDbLine
62
9
6
PHANTOM
10
-9.1402180486
20
-1.0902949668
11
-9.1323785068
21
-1.8760151431
0
LINE
5
59C
100
AcDbEntity
8
DEFAULT_3
100
AcDbLine
62
9
6
PHANTOM
10
-9.0591544326
20
-1.9645488217
11
-9.0669944086
21
-1.1787828630
0
LINE
5
59D
100
AcDbEntity
8
DEFAULT_3
100
AcDbLine
62
9
6
PHANTOM
10
3.1659529059
20
-7.2952565202
11
3.1737928819
21
-8.0810224790
0
LINE
5
59E
100
AcDbEntity
8
DEFAULT_3
100
AcDbLine
62
9
6
PHANTOM
10
3.5194963357
20
-7.2929463057
11
3.5273297352
21
-8.0780693597
0
LINE
5
59F
100
AcDbEntity
8
0
100
AcDbLine
62
0
6
CONTINUOUS
10
3.5703507398
20
-6.7500123081
11
3.5770698337
21
-7.5932944169
0
LINE
5
5A0
100
AcDbEntity
8
0
100
AcDbLine
62
9
6
CONTINUOUS
10
-9.3990719646
20
-0.2026268215
11
-9.3928045573
21
-1.0143220743
0
LINE
5
5A1
100
AcDbEntity
8
0
100
AcDbLine
62
9
6
CONTINUOUS
10
-9.1174603069
20
-0.2018828125
11
-9.1111938695
21
-1.0130318010
0
LINE
5
5A2
100
AcDbEntity
8
DEFAULT_3
100
AcDbLine
62
9
6
PHANTOM
10
-9.1460977560
20
-0.3035714010
11
-9.1402180486
21
-1.0902949668
0
LINE
5
5A3
100
AcDbEntity
8
DEFAULT_3
100
AcDbLine
62
9
6
PHANTOM
10
-9.0669944086
20
-1.1787828630
11
-9.0728743563
21
-0.3920196377
0
LINE
5
5A4
100
AcDbEntity
8
DEFAULT_3
100
AcDbLine
62
9
6
PHANTOM
10
3.1600729582
20
-6.5084932950
11
3.1659529059
21
-7.2952565202
0
LINE
5
5A5
100
AcDbEntity
8
DEFAULT_3
100
AcDbLine
62
9
6
PHANTOM
10
3.5136212860
20
-6.5068412897
11
3.5194963357
21
-7.2929463057
0
LINE
5
5A6
100
AcDbEntity
8
0
100
AcDbLine
62
9
6
CONTINUOUS
10
3.6344115810
20
-7.5279000194
11
3.6282525342
21
-6.7162362161
0
LINE
5
5A7
100
AcDbEntity
8
0
100
AcDbLine
62
0
6
CONTINUOUS
10
3.5658652087
20
-5.9055730244
11
3.5703507398
21
-6.7500123081
0
LINE
5
5A8
100
AcDbEntity
8
0
100
AcDbLine
62
9
6
CONTINUOUS
10
-9.4032300665
20
0.6088759391
11
-9.3990719646
21
-0.2026268215
0
LINE
5
5A9
100
AcDbEntity
8
0
100
AcDbLine
62
9
6
CONTINUOUS
10
-9.1216283703
20
0.6090618545
11
-9.1174603069
21
-0.2018828125
0
LINE
5
5AA
100
AcDbEntity
8
0
100
AcDbLine
62
9
6
CONTINUOUS
10
3.6282525342
20
-6.7162362161
11
3.6241666297
21
-5.9047542766
0
LINE
5
5AB
100
AcDbEntity
8
DEFAULT_3
100
AcDbLine
62
9
6
PHANTOM
10
-9.1500175843
20
0.4841482935
11
-9.1460977560
21
-0.3035714010
0
LINE
5
5AC
100
AcDbEntity
8
DEFAULT_3
100
AcDbLine
62
9
6
PHANTOM
10
-9.0728743563
20
-0.3920196377
11
-9.0767942832
21
0.3957335531
0
LINE
5
5AD
100
AcDbEntity
8
DEFAULT_3
100
AcDbLine
62
9
6
PHANTOM
10
3.1561530313
20
-5.7207401042
11
3.1600729582
21
-6.5084932950
0
LINE
5
5AE
100
AcDbEntity
8
DEFAULT_3
100
AcDbLine
62
9
6
PHANTOM
10
3.5097045860
20
-5.7197543116
11
3.5136212860
21
-6.5068412897
0
LINE
5
5AF
100
AcDbEntity
8
0
100
AcDbLine
62
9
6
CONTINUOUS
10
3.6426533610
20
-1.0402449845
11
3.6425268110
21
-1.0092926822
0
LINE
5
5B0
100
AcDbEntity
8
0
100
AcDbLine
62
0
6
CONTINUOUS
10
3.5636133010
20
-5.0599867276
11
3.5658652087
21
-5.9055730244
0
LINE
5
5B1
100
AcDbEntity
8
0
100
AcDbLine
62
9
6
CONTINUOUS
10
-9.4052883118
20
1.4201677324
11
-9.4032300665
21
0.6088759391
0
LINE
5
5B2
100
AcDbEntity
8
DEFAULT_3
100
AcDbLine
62
9
6
PHANTOM
10
-9.1519775067
20
1.2728568427
11
-9.1500175843
21
0.4841482935
0
LINE
5
5B3
100
AcDbEntity
8
0
100
AcDbLine
62
9
6
CONTINUOUS
10
-9.1236884981
20
1.4198097095
11
-9.1216283703
21
0.6090618545
0
LINE
5
5B4
100
AcDbEntity
8
DEFAULT_3
100
AcDbLine
62
9
6
PHANTOM
10
-9.0767942832
20
0.3957335531
11
-9.0787542079
21
1.1844638687
0
LINE
5
5B5
100
AcDbEntity
8
DEFAULT_3
100
AcDbLine
62
9
6
PHANTOM
10
3.1541931067
20
-4.9320097885
11
3.1561530313
21
-5.7207401042
0
LINE
5
5B6
100
AcDbEntity
8
DEFAULT_3
100
AcDbLine
62
9
6
PHANTOM
10
3.5077462357
20
-4.9316835267
11
3.5097045860
21
-5.7197543116
0
LINE
5
5B7
100
AcDbEntity
8
0
100
AcDbLine
62
9
6
CONTINUOUS
10
3.6241666297
20
-5.9047542766
11
3.6221441941
21
-5.0934726232
0
LINE
5
5B8
100
AcDbEntity
8
0
100
AcDbLine
62
0
6
CONTINUOUS
10
-10.3156178649
20
4.4101858429
11
-10.3155314747
21
0.4556950245
0
LINE
5
5B9
100
AcDbEntity
8
0
100
AcDbLine
62
9
6
CONTINUOUS
10
-10.0813659008
20
0.1972826556
11
-10.0813659012
21
4.1169653002
0
LINE
5
5BA
100
AcDbEntity
8
0
100
AcDbLine
62
9
6
CONTINUOUS
10
-9.4052563633
20
2.2312414507
11
-9.4052883118
21
1.4201677324
0
LINE
5
5BB
100
AcDbEntity
8
DEFAULT_3
100
AcDbLine
62
9
6
PHANTOM
10
-9.1519775146
20
2.0625469725
11
-9.1519775067
21
1.2728568427
0
LINE
5
5BC
100
AcDbEntity
8
DEFAULT_3
100
AcDbLine
62
9
6
PHANTOM
10
-9.0787542079
20
1.1844638687
11
-9.0787542082
21
1.9741695078
0
LINE
5
5BD
100
AcDbEntity
8
0
100
AcDbLine
62
0
6
CONTINUOUS
10
-8.7660463469
20
4.5431782825
11
-8.7660463469
21
-0.5663715998
0
LINE
5
5BE
100
AcDbEntity
8
DEFAULT_3
100
AcDbLine
62
9
6
PHANTOM
10
-8.6991716346
20
4.5767456666
11
-8.6991716346
21
-0.4302335158
0
LINE
5
5BF
100
AcDbEntity
8
DEFAULT_3
100
AcDbLine
62
9
6
PHANTOM
10
-8.6475280262
20
4.4831802912
11
-8.6475280262
21
-0.5397670507
0
LINE
5
5C0
100
AcDbEntity
8
DEFAULT_3
100
AcDbLine
62
9
6
PHANTOM
10
-8.3376884669
20
4.6746068020
11
-8.3376884669
21
-0.3483405400
0
LINE
5
5C1
100
AcDbEntity
8
0
100
AcDbLine
62
0
6
CONTINUOUS
10
-8.3011817358
20
5.0893661383
11
-8.3011817358
21
-0.7996066074
0
LINE
5
5C2
100
AcDbEntity
8
DEFAULT_3
100
AcDbLine
62
9
6
PHANTOM
10
-8.1056128265
20
-1.1168545388
11
-8.1056128265
21
4.5989131390
0
LINE
5
5C3
100
AcDbEntity
8
DEFAULT_3
100
AcDbLine
62
9
6
PHANTOM
10
-7.9804710577
20
4.7906315636
11
-7.9804710577
21
-0.9251361013
0
LINE
5
5C4
100
AcDbEntity
8
DEFAULT_3
100
AcDbLine
62
9
6
PHANTOM
10
3.1541931063
20
-4.1423041494
11
3.1541931067
21
-4.9320097885
0
LINE
5
5C5
100
AcDbEntity
8
DEFAULT_3
100
AcDbLine
62
9
6
PHANTOM
10
3.5077462351
20
-4.1426307797
11
3.5077462357
21
-4.9316835267
0
LINE
5
5C6
100
AcDbEntity
8
0
100
AcDbLine
62
0
6
CONTINUOUS
10
3.5635950184
20
-4.2132619142
11
3.5636133010
21
-5.0599867276
0
LINE
5
5C7
100
AcDbEntity
8
0
100
AcDbLine
62
9
6
CONTINUOUS
10
3.6221441941
20
-5.0934726232
11
3.6221756725
21
-4.2823984762
0
LINE
5
5C8
100
AcDbEntity
8
0
100
AcDbLine
62
9
6
CONTINUOUS
10
4.3098073828
20
-3.0786213418
11
4.3098073822
21
-6.9983039859
0
LINE
5
5C9
100
AcDbEntity
8
0
100
AcDbLine
62
9
6
CONTINUOUS
10
5.4312226969
20
-3.0884508011
11
5.4312232265
21
-6.9983320373
0
LINE
5
5CA
100
AcDbEntity
8
0
100
AcDbLine
62
0
6
CONTINUOUS
10
10.5432139828
20
-20.8049982685
11
10.5432139828
21
15.6548822706
0
LINE
5
5CB
100
AcDbEntity
8
0
100
AcDbLine
62
9
6
CONTINUOUS
10
-9.1236502518
20
2.2303532429
11
-9.1236884981
21
1.4198097095
0
LINE
5
5CC
100
AcDbEntity
8
DEFAULT_3
100
AcDbLine
62
9
6
PHANTOM
10
-9.1500176172
20
2.8532114091
11
-9.1519775146
21
2.0625469725
0
LINE
5
5CD
100
AcDbEntity
8
DEFAULT_3
100
AcDbLine
62
9
6
PHANTOM
10
-9.0787542082
20
1.9741695078
11
-9.0767942842
21
2.7648597770
0
LINE
5
5CE
100
AcDbEntity
8
DEFAULT_3
100
AcDbLine
62
9
6
PHANTOM
10
3.1561530304
20
-3.3516138803
11
3.1541931063
21
-4.1423041494
0
LINE
5
5CF
100
AcDbEntity
8
DEFAULT_3
100
AcDbLine
62
9
6
PHANTOM
10
3.5097045847
20
-3.3526016050
11
3.5077462351
21
-4.1426307797
0
LINE
5
5D0
100
AcDbEntity
8
0
100
AcDbLine
62
9
6
CONTINUOUS
10
-9.4031439542
20
3.0421014250
11
-9.4052563633
21
2.2312414507
0
LINE
5
5D1
100
AcDbEntity
8
0
100
AcDbLine
62
9
6
CONTINUOUS
10
-9.1215423162
20
3.0406699261
11
-9.1236502518
21
2.2303532429
0
LINE
5
5D2
100
AcDbEntity
8
0
100
AcDbLine
62
0
6
CONTINUOUS
10
3.5658103511
20
-3.3654064174
11
3.5635950184
21
-4.2132619142
0
LINE
5
5D3
100
AcDbEntity
8
0
100
AcDbLine
62
9
6
CONTINUOUS
10
3.6221756725
20
-4.2823984762
11
3.6242517714
21
-3.4715277824
0
LINE
5
5D4
100
AcDbEntity
8
0
100
AcDbLine
62
9
6
CONTINUOUS
10
3.6425307485
20
-8.3705794746
11
3.6426533610
21
-8.3397327661
0
LINE
5
5D5
100
AcDbEntity
8
DEFAULT_3
100
AcDbLine
62
9
6
PHANTOM
10
-9.1460978416
20
3.6448428604
11
-9.1500176172
21
2.8532114091
0
LINE
5
5D6
100
AcDbEntity
8
DEFAULT_3
100
AcDbLine
62
9
6
PHANTOM
10
-9.0767942842
20
2.7648597770
11
-9.0728743576
21
3.5565329528
0
LINE
5
5D7
100
AcDbEntity
8
DEFAULT_3
100
AcDbLine
62
9
6
PHANTOM
10
3.1600729570
20
-2.5599407045
11
3.1561530304
21
-3.3516138803
0
LINE
5
5D8
100
AcDbEntity
8
DEFAULT_3
100
AcDbLine
62
9
6
PHANTOM
10
3.5136212846
20
-2.5615978473
11
3.5097045847
21
-3.3526016050
0
LINE
5
5D9
100
AcDbEntity
8
0
100
AcDbLine
62
9
6
CONTINUOUS
10
3.6242517714
20
-3.4715277824
11
3.6283631252
21
-2.6608675214
0
LINE
5
5DA
100
AcDbEntity
8
0
100
AcDbLine
62
9
6
CONTINUOUS
10
-9.3989605579
20
3.8527407874
11
-9.4031439542
21
3.0421014250
0
LINE
5
5DB
100
AcDbEntity
8
0
100
AcDbLine
62
9
6
CONTINUOUS
10
-9.1173742529
20
3.8507522494
11
-9.1215423162
21
3.0406699261
0
LINE
5
5DC
100
AcDbEntity
8
0
100
AcDbLine
62
0
6
CONTINUOUS
10
3.5702592784
20
-2.5164287132
11
3.5658103511
21
-3.3654064174
0
LINE
5
5DD
100
AcDbEntity
8
DEFAULT_3
100
AcDbLine
62
9
6
PHANTOM
10
-9.1402182332
20
4.4374340163
11
-9.1460978416
21
3.6448428604
0
LINE
5
5DE
100
AcDbEntity
8
DEFAULT_3
100
AcDbLine
62
9
6
PHANTOM
10
-9.0728743576
20
3.5565329528
11
-9.0669944096
21
4.3491762134
0
LINE
5
5DF
100
AcDbEntity
8
DEFAULT_3
100
AcDbLine
62
9
6
PHANTOM
10
3.1659529049
20
-1.7672974439
11
3.1600729570
21
-2.5599407045
0
LINE
5
5E0
100
AcDbEntity
8
DEFAULT_3
100
AcDbLine
62
9
6
PHANTOM
10
3.5194963348
20
-1.7696176618
11
3.5136212846
21
-2.5615978473
0
LINE
5
5E1
100
AcDbEntity
8
0
100
AcDbLine
62
9
6
CONTINUOUS
10
-9.3927155315
20
4.6631413988
11
-9.3989605579
21
3.8527407874
0
LINE
5
5E2
100
AcDbEntity
8
0
100
AcDbLine
62
9
6
CONTINUOUS
10
-9.1111365001
20
4.6606077225
11
-9.1173742529
21
3.8507522494
0
LINE
5
5E3
100
AcDbEntity
8
0
100
AcDbLine
62
9
6
CONTINUOUS
10
3.6283631252
20
-2.6608675214
11
3.6345001534
21
-1.8504357772
0
LINE
5
5E4
100
AcDbEntity
8
0
100
AcDbLine
62
0
6
CONTINUOUS
10
3.5769417218
20
-1.6663389925
11
3.5702592784
21
-2.5164287132
0
LINE
5
5E5
100
AcDbEntity
8
DEFAULT_3
100
AcDbLine
62
9
6
PHANTOM
10
-9.1323788552
20
5.2309775499
11
-9.1402182332
21
4.4374340163
0
LINE
5
5E6
100
AcDbEntity
8
DEFAULT_3
100
AcDbLine
62
9
6
PHANTOM
10
-9.0669944096
20
4.3491762134
11
-9.0591544326
21
5.1427822652
0
LINE
5
5E7
100
AcDbEntity
8
DEFAULT_3
100
AcDbLine
62
9
6
PHANTOM
10
3.1737928819
20
-0.9736913920
11
3.1659529049
21
-1.7672974439
0
LINE
5
5E8
100
AcDbEntity
8
DEFAULT_3
100
AcDbLine
62
9
6
PHANTOM
10
3.5273297352
20
-0.9766610486
11
3.5194963348
21
-1.7696176618
0
LINE
5
5E9
100
AcDbEntity
8
0
100
AcDbLine
62
9
6
CONTINUOUS
10
3.6345001534
20
-1.8504357772
11
3.6426533610
21
-1.0402449845
0
LINE
5
5EA
100
AcDbEntity
8
0
100
AcDbLine
62
9
6
CONTINUOUS
10
-9.3844183122
20
5.4732908521
11
-9.3927155315
21
4.6631413988
0
LINE
5
5EB
100
AcDbEntity
8
0
100
AcDbLine
62
9
6
CONTINUOUS
10
-9.1028290580
20
5.4702363453
11
-9.1111365001
21
4.6606077225
0
LINE
5
5EC
100
AcDbEntity
8
0
100
AcDbLine
62
0
6
CONTINUOUS
10
3.5840735425
20
-0.9697134583
11
3.5769417218
21
-1.6663389925
0
LINE
5
5ED
100
AcDbEntity
8
0
100
AcDbLine
62
9
6
CONTINUOUS
10
-10.0813659012
20
4.1169653002
11
-10.0339233669
21
8.0607635360
0
LINE
5
5EE
100
AcDbEntity
8
0
100
AcDbLine
62
0
6
CONTINUOUS
10
-10.2674068958
20
8.3891160225
11
-10.3156178649
21
4.4101858429
0
LINE
5
5EF
100
AcDbEntity
8
0
100
AcDbLine
62
9
6
CONTINUOUS
10
4.3589303429
20
0.8643366811
11
4.3098073828
21
-3.0786213418
0
LINE
5
5F0
100
AcDbEntity
8
0
100
AcDbLine
62
9
6
CONTINUOUS
10
5.4801981869
20
0.8437258889
11
5.4312226969
21
-3.0884508011
0
LINE
5
5F1
100
AcDbEntity
8
0
100
AcDbLine
62
0
6
CONTINUOUS
10
-3.3831330507
20
-12.2763913369
11
-3.3824132922
21
-12.2256552450
0
LINE
5
5F2
100
AcDbEntity
8
0
100
AcDbLine
62
0
6
CONTINUOUS
10
-8.3003634434
20
5.1303305482
11
-8.3011817358
21
5.0893661383
0
LINE
5
5F3
100
AcDbEntity
8
0
100
AcDbLine
62
9
6
CONTINUOUS
10
-3.4711743550
20
-12.1076133903
11
-3.4693350280
21
-12.0300339862
0
LINE
5
5F4
100
AcDbEntity
8
0
100
AcDbLine
62
9
6
CONTINUOUS
10
-10.0339233669
20
8.0607635360
11
-9.9390492761
21
12.0277799346
0
LINE
5
5F5
100
AcDbEntity
8
0
100
AcDbLine
62
0
6
CONTINUOUS
10
-10.1709078219
20
12.3916198668
11
-10.2674068958
21
8.3891160225
0
LINE
5
5F6
100
AcDbEntity
8
DEFAULT_3
100
AcDbLine
62
9
6
PHANTOM
10
-7.9804710577
20
4.7906315636
11
-7.9798266713
21
4.8166575933
0
LINE
5
5F7
100
AcDbEntity
8
0
100
AcDbLine
62
9
6
CONTINUOUS
10
-3.3588655924
20
-12.2516940503
11
-3.3599945747
21
-12.2967031672
0
LINE
5
5F8
100
AcDbEntity
8
0
100
AcDbLine
62
9
6
CONTINUOUS
10
-2.0841508250
20
-12.9820340951
11
-2.0830218420
21
-12.9370249779
0
LINE
5
5F9
100
AcDbEntity
8
0
100
AcDbLine
62
9
6
CONTINUOUS
10
-1.9498881736
20
-12.9837976389
11
-1.9486454544
21
-12.9342540414
0
LINE
5
5FA
100
AcDbEntity
8
DEFAULT_3
100
AcDbLine
62
9
6
PHANTOM
10
3.1737928819
20
-8.0810224790
11
3.1736981109
21
-8.0847257640
0
LINE
5
5FB
100
AcDbEntity
8
0
100
AcDbLine
62
9
6
CONTINUOUS
10
-9.3835752596
20
5.5044977807
11
-9.3844183122
21
5.4732908521
0
LINE
5
5FC
100
AcDbEntity
8
0
100
AcDbLine
62
9
6
CONTINUOUS
10
-3.6124839686
20
-12.1079929633
11
-3.6100361141
21
-12.0238676976
0
LINE
5
5FD
100
AcDbEntity
8
0
100
AcDbLine
62
9
6
CONTINUOUS
10
-1.7723438588
20
-13.1052011027
11
-1.7748183216
21
-13.1893155128
0
LINE
5
5FE
100
AcDbEntity
8
0
100
AcDbLine
62
9
6
CONTINUOUS
10
-2.6505231160
20
-13.7113339825
11
-2.6499871716
21
-13.6955268610
0
LINE
5
5FF
100
AcDbEntity
8
0
100
AcDbLine
62
9
6
CONTINUOUS
10
-9.9390492761
20
12.0277799346
11
-9.7967655996
21
16.0171116112
0
LINE
5
600
100
AcDbEntity
8
0
100
AcDbLine
62
0
6
CONTINUOUS
10
-10.0261572090
20
16.4166461096
11
-10.1709078219
21
12.3916198668
0
LINE
5
601
100
AcDbEntity
8
DEFAULT_3
100
AcDbLine
62
9
6
PHANTOM
10
-8.1056128265
20
4.5989131428
11
-8.1042149718
21
4.6366486759
0
LINE
5
602
100
AcDbEntity
8
0
100
AcDbLine
62
9
6
CONTINUOUS
10
-9.1020305953
20
5.4897452819
11
-9.1028290580
21
5.4702363453
0
LINE
5
603
100
AcDbEntity
8
0
100
AcDbLine
62
9
6
CONTINUOUS
10
-9.7967655996
20
16.0171116112
11
-9.6071052895
21
20.0278508296
0
LINE
5
604
100
AcDbEntity
8
0
100
AcDbLine
62
0
6
CONTINUOUS
10
-9.8415996202
20
20.3054228562
11
-10.0261572090
21
16.4166461096
0
LINE
5
605
100
AcDbEntity
8
DEFAULT_3
100
AcDbLine
62
9
6
PHANTOM
10
-9.0591544326
20
5.1427822652
11
-9.0589748860
21
5.1465279381
0
LINE
5
606
100
AcDbEntity
8
DEFAULT_3
100
AcDbLine
62
9
6
PHANTOM
10
-9.1312479807
20
5.2538582265
11
-9.1323731806
21
5.2310175218
0
LINE
5
607
100
AcDbEntity
8
DEFAULT_3
100
AcDbLine
62
9
6
PHANTOM
10
-9.0221071897
20
5.1917019710
11
-9.0233121003
21
5.1686854770
0
LINE
5
608
100
AcDbEntity
8
0
100
AcDbLine
62
9
6
CONTINUOUS
10
-8.9878740112
20
-2.4631700956
11
-8.9896500316
21
-2.4943088324
0
LINE
5
609
100
AcDbEntity
8
0
100
AcDbLine
62
0
6
CONTINUOUS
10
-8.2979640043
20
5.1702163940
11
-8.3003634434
21
5.1303305482
0
LINE
5
60A
100
AcDbEntity
8
0
100
AcDbLine
62
9
6
CONTINUOUS
10
-9.6071052895
20
20.0278508296
11
-9.6041004125
21
20.0730153134
0
LINE
5
60B
100
AcDbEntity
8
0
100
AcDbLine
62
0
6
CONTINUOUS
10
-9.8353315142
20
20.3859753980
11
-9.8416228976
21
20.3049700186
0
LINE
5
60C
100
AcDbEntity
8
DEFAULT_3
100
AcDbLine
62
9
6
PHANTOM
10
3.1590915390
20
-8.1087881097
11
3.1565120820
21
-8.1095089795
0
LINE
5
60D
100
AcDbEntity
8
DEFAULT_3
100
AcDbLine
62
9
6
PHANTOM
10
3.4867162369
20
-0.9924890965
11
3.4640557750
21
-0.9987308432
0
LINE
5
60E
100
AcDbEntity
8
DEFAULT_3
100
AcDbLine
62
9
6
PHANTOM
10
-8.6040481179
20
-0.3451171569
11
-8.5836952869
21
-0.3396027371
0
LINE
5
60F
100
AcDbEntity
8
0
100
AcDbLine
62
9
6
CONTINUOUS
10
-9.1295674825
20
5.4596251264
11
-9.1597147350
21
5.4514759861
0
LINE
5
610
100
AcDbEntity
8
DEFAULT_3
100
AcDbLine
62
9
6
PHANTOM
10
-8.4117298539
20
-0.4312594001
11
-8.4261986053
21
-0.4351262545
0
LINE
5
611
100
AcDbEntity
8
DEFAULT_3
100
AcDbLine
62
9
6
PHANTOM
10
-8.4261986053
20
4.5878210875
11
-8.4117298539
21
4.5916879418
0
LINE
5
612
100
AcDbEntity
8
DEFAULT_3
100
AcDbLine
62
9
6
PHANTOM
10
-8.3968525939
20
-0.4278856592
11
-8.4117298539
21
-0.4312594001
0
LINE
5
613
100
AcDbEntity
8
DEFAULT_3
100
AcDbLine
62
9
6
PHANTOM
10
-8.4117298539
20
4.5916879418
11
-8.3968525939
21
4.5950616827
0
LINE
5
614
100
AcDbEntity
8
0
100
AcDbLine
62
9
6
CONTINUOUS
10
5.8141189222
20
12.7360542010
11
5.6939181135
21
12.7103899620
0
LINE
5
615
100
AcDbEntity
8
0
100
AcDbLine
62
9
6
CONTINUOUS
10
-9.1715922238
20
5.7934464944
11
-9.1986013989
21
5.7878822253
0
LINE
5
616
100
AcDbEntity
8
0
100
AcDbLine
62
9
6
CONTINUOUS
10
4.4571652840
20
4.8296726546
11
4.3589303429
21
0.8643366811
0
LINE
5
617
100
AcDbEntity
8
0
100
AcDbLine
62
9
6
CONTINUOUS
10
5.5781498288
20
4.7972940516
11
5.4801981869
21
0.8437258889
0
LINE
5
618
100
AcDbEntity
8
DEFAULT_3
100
AcDbLine
62
9
6
PHANTOM
10
3.5273297352
20
-8.0780693597
11
3.5265649981
21
-8.1002900373
0
LINE
5
619
100
AcDbEntity
8
0
100
AcDbLine
62
0
6
CONTINUOUS
10
3.5840744276
20
-8.2689324789
11
3.5829092010
21
-8.3018867046
0
LINE
5
61A
100
AcDbEntity
8
0
100
AcDbLine
62
9
6
CONTINUOUS
10
4.6044902355
20
8.8164836936
11
4.4571652840
21
4.8296726546
0
LINE
5
61B
100
AcDbEntity
8
0
100
AcDbLine
62
9
6
CONTINUOUS
10
5.7250774902
20
8.7731576681
11
5.5781498288
21
4.7972940516
0
LINE
5
61C
100
AcDbEntity
8
0
100
AcDbLine
62
9
6
CONTINUOUS
10
4.8008722453
20
12.8238620622
11
4.6044902355
21
8.8164836936
0
LINE
5
61D
100
AcDbEntity
8
0
100
AcDbLine
62
9
6
CONTINUOUS
10
5.9209811710
20
12.7713167383
11
5.7250774902
21
8.7731576681
0
LINE
5
61E
100
AcDbEntity
8
DEFAULT_3
100
AcDbLine
62
9
6
PHANTOM
10
3.1401294086
20
-0.8894167525
11
3.1389245361
21
-0.9124328412
0
LINE
5
61F
100
AcDbEntity
8
0
100
AcDbLine
62
9
6
CONTINUOUS
10
3.2613082600
20
-8.5877610947
11
3.2595322240
21
-8.6188999602
0
LINE
5
620
100
AcDbEntity
8
0
100
AcDbLine
62
0
6
CONTINUOUS
10
10.5432139828
20
-20.8049982685
11
10.5376332184
21
-20.8952681992
0
LINE
5
621
100
AcDbEntity
8
0
100
AcDbLine
62
9
6
CONTINUOUS
10
5.9223213116
20
12.7929437745
11
5.9209811710
21
12.7713167383
0
LINE
5
622
100
AcDbEntity
8
0
100
AcDbLine
62
0
6
CONTINUOUS
10
-1.8016937932
20
-13.0815442756
11
-1.8095099148
21
-13.2054913407
0
LINE
5
623
100
AcDbEntity
8
0
100
AcDbLine
62
0
6
CONTINUOUS
10
-3.3824132922
20
-12.2256552450
11
-3.3791925890
21
-12.1760058676
0
LINE
5
624
100
AcDbEntity
8
0
100
AcDbLine
62
9
6
CONTINUOUS
10
4.8040177347
20
12.8701933058
11
4.8008722453
21
12.8238620622
0
LINE
5
625
100
AcDbEntity
8
0
100
AcDbLine
62
9
6
CONTINUOUS
10
-3.3555700406
20
-12.2079284345
11
-3.3588655924
21
-12.2516940503
0
LINE
5
626
100
AcDbEntity
8
0
100
AcDbLine
62
9
6
CONTINUOUS
10
-2.0874463776
20
-13.0257997113
11
-2.0841508250
21
-12.9820340951
0
LINE
5
627
100
AcDbEntity
8
0
100
AcDbLine
62
9
6
CONTINUOUS
10
-1.9535157341
20
-13.0319724589
11
-1.9498881736
21
-12.9837976389
0
LINE
5
628
100
AcDbEntity
8
0
100
AcDbLine
62
9
6
CONTINUOUS
10
3.6402334399
20
-8.4011125986
11
3.6425307485
21
-8.3705794746
0
LINE
5
629
100
AcDbEntity
8
DEFAULT_3
100
AcDbLine
62
9
6
PHANTOM
10
-7.9798266713
20
4.8166575933
11
-7.9779705313
21
4.8408882274
0
LINE
5
62A
100
AcDbEntity
8
DEFAULT_3
100
AcDbLine
62
9
6
PHANTOM
10
-8.6991500515
20
-0.4300687587
11
-8.6984105742
21
-0.4215179415
0
LINE
5
62B
100
AcDbEntity
8
0
100
AcDbLine
62
9
6
CONTINUOUS
10
6.4146462481
20
-22.7117076644
11
6.4044633640
21
-22.8284453783
0
LINE
5
62C
100
AcDbEntity
8
0
100
AcDbLine
62
9
6
CONTINUOUS
10
-9.6041004125
20
20.0730153134
11
-9.5996722154
21
20.1208892199
0
LINE
5
62D
100
AcDbEntity
8
0
100
AcDbLine
62
9
6
CONTINUOUS
10
-1.7748183216
20
-13.1893155128
11
-1.7827795681
21
-13.2734238063
0
LINE
5
62E
100
AcDbEntity
8
0
100
AcDbLine
62
9
6
CONTINUOUS
10
-3.6100361141
20
-12.0238676976
11
-3.6020578995
21
-11.9397106256
0
LINE
5
62F
100
AcDbEntity
8
0
100
AcDbLine
62
9
6
CONTINUOUS
10
4.8086741480
20
12.9191606555
11
4.8040177347
21
12.8701933058
0
LINE
5
630
100
AcDbEntity
8
0
100
AcDbLine
62
9
6
CONTINUOUS
10
-3.4693350280
20
-12.0300339862
11
-3.4618833695
21
-11.9531775236
0
LINE
5
631
100
AcDbEntity
8
0
100
AcDbLine
62
9
6
CONTINUOUS
10
5.9245419389
20
12.8157834530
11
5.9223213116
21
12.7929437745
0
LINE
5
632
100
AcDbEntity
8
0
100
AcDbLine
62
9
6
CONTINUOUS
10
-9.3805330200
20
5.5354033702
11
-9.3835752596
21
5.5044977807
0
LINE
5
633
100
AcDbEntity
8
0
100
AcDbLine
62
9
6
CONTINUOUS
10
-9.1000816010
20
5.5094651058
11
-9.1020305953
21
5.4897452819
0
LINE
5
634
100
AcDbEntity
8
DEFAULT_3
100
AcDbLine
62
9
6
PHANTOM
10
3.1736981109
20
-8.0847257640
11
3.1733426697
21
-8.0882246092
0
LINE
5
635
100
AcDbEntity
8
0
100
AcDbLine
62
0
6
CONTINUOUS
10
-8.2939834186
20
5.2090236758
11
-8.2979640043
21
5.1702163940
0
LINE
5
636
100
AcDbEntity
8
DEFAULT_3
100
AcDbLine
62
9
6
PHANTOM
10
-8.1042149718
20
4.6366486759
11
-8.1000751673
21
4.6735780513
0
LINE
5
637
100
AcDbEntity
8
0
100
AcDbLine
62
0
6
CONTINUOUS
10
-3.3791925890
20
-12.1760058676
11
-3.3734586701
21
-12.1276360379
0
LINE
5
638
100
AcDbEntity
8
0
100
AcDbLine
62
9
6
CONTINUOUS
10
-9.5996722154
20
20.1208892199
11
-9.5936411836
21
20.1714778602
0
LINE
5
639
100
AcDbEntity
8
DEFAULT_3
100
AcDbLine
62
9
6
PHANTOM
10
-9.0589748860
20
5.1465279381
11
-9.0585362554
21
5.1500683779
0
LINE
5
63A
100
AcDbEntity
8
DEFAULT_3
100
AcDbLine
62
9
6
PHANTOM
10
-9.1280462216
20
5.2785043372
11
-9.1312479807
21
5.2538582265
0
LINE
5
63B
100
AcDbEntity
8
DEFAULT_3
100
AcDbLine
62
9
6
PHANTOM
10
-9.0190125904
20
5.2153897771
11
-9.0221071897
21
5.1917019710
0
LINE
5
63C
100
AcDbEntity
8
DEFAULT_3
100
AcDbLine
62
9
6
PHANTOM
10
-7.9779705313
20
4.8408882274
11
-7.9750352851
21
4.8631788892
0
LINE
5
63D
100
AcDbEntity
8
0
100
AcDbLine
62
9
6
CONTINUOUS
10
-9.5936411836
20
20.1714778602
11
-9.5857982429
21
20.2249152294
0
LINE
5
63E
100
AcDbEntity
8
0
100
AcDbLine
62
0
6
CONTINUOUS
10
-8.2884073934
20
5.2468279848
11
-8.2939834186
21
5.2090236758
0
LINE
5
63F
100
AcDbEntity
8
0
100
AcDbLine
62
0
6
CONTINUOUS
10
-9.8086482436
20
20.5591211557
11
-9.8353315142
21
20.3859753980
0
LINE
5
640
100
AcDbEntity
8
DEFAULT_3
100
AcDbLine
62
9
6
PHANTOM
10
-9.0436557818
20
5.1709465500
11
-9.0410304319
21
5.1716903662
0
LINE
5
641
100
AcDbEntity
8
DEFAULT_3
100
AcDbLine
62
9
6
PHANTOM
10
-8.9683181952
20
5.4843800574
11
-8.9526886275
21
5.4887659009
0
LINE
5
642
100
AcDbEntity
8
DEFAULT_3
100
AcDbLine
62
9
6
PHANTOM
10
3.5265649981
20
-8.1002900373
11
3.5241908177
21
-8.1215341641
0
LINE
5
643
100
AcDbEntity
8
0
100
AcDbLine
62
9
6
CONTINUOUS
10
4.8150179289
20
12.9707639166
11
4.8086741480
21
12.9191606555
0
LINE
5
644
100
AcDbEntity
8
0
100
AcDbLine
62
9
6
CONTINUOUS
10
-3.3501279090
20
-12.1656090148
11
-3.3555700406
21
-12.2079284345
0
LINE
5
645
100
AcDbEntity
8
0
100
AcDbLine
62
9
6
CONTINUOUS
10
-2.0928885098
20
-13.0681191314
11
-2.0874463776
21
-13.0257997113
0
LINE
5
646
100
AcDbEntity
8
0
100
AcDbLine
62
9
6
CONTINUOUS
10
-1.9595061339
20
-13.0785553849
11
-1.9535157341
21
-13.0319724589
0
LINE
5
647
100
AcDbEntity
8
0
100
AcDbLine
62
9
6
CONTINUOUS
10
5.9276430531
20
12.8398357737
11
5.9245419389
21
12.8157834530
0
LINE
5
648
100
AcDbEntity
8
DEFAULT_3
100
AcDbLine
62
9
6
PHANTOM
10
3.1432239148
20
-0.8657293107
11
3.1401294086
21
-0.8894167525
0
LINE
5
649
100
AcDbEntity
8
0
100
AcDbLine
62
0
6
CONTINUOUS
10
3.5829092010
20
-8.3018867046
11
3.5787303473
21
-8.3313162451
0
LINE
5
64A
100
AcDbEntity
8
0
100
AcDbLine
62
9
6
CONTINUOUS
10
3.6357616728
20
-8.4313320146
11
3.6402334399
21
-8.4011125986
0
LINE
5
64B
100
AcDbEntity
8
0
100
AcDbLine
62
9
6
CONTINUOUS
10
4.8232520125
20
13.0251305280
11
4.8150179289
21
12.9707639166
0
LINE
5
64C
100
AcDbEntity
8
0
100
AcDbLine
62
9
6
CONTINUOUS
10
5.9315593869
20
12.8651952088
11
5.9276430531
21
12.8398357737
0
LINE
5
64D
100
AcDbEntity
8
0
100
AcDbLine
62
9
6
CONTINUOUS
10
-9.0968509509
20
5.5292177271
11
-9.1000816010
21
5.5094651058
0
LINE
5
64E
100
AcDbEntity
8
0
100
AcDbLine
62
9
6
CONTINUOUS
10
-2.6499871716
20
-13.6955268610
11
-2.6471904893
21
-13.6789573658
0
LINE
5
64F
100
AcDbEntity
8
0
100
AcDbLine
62
9
6
CONTINUOUS
10
-9.3752913558
20
5.5660077347
11
-9.3805330200
21
5.5354033702
0
LINE
5
650
100
AcDbEntity
8
0
100
AcDbLine
62
9
6
CONTINUOUS
10
-9.5857982429
20
20.2249152294
11
-9.5759710203
21
20.2810311480
0
LINE
5
651
100
AcDbEntity
8
0
100
AcDbLine
62
0
6
CONTINUOUS
10
-3.3734586701
20
-12.1276360379
11
-3.3652367203
21
-12.0808541827
0
LINE
5
652
100
AcDbEntity
8
0
100
AcDbLine
62
9
6
CONTINUOUS
10
5.9363562074
20
12.8917672861
11
5.9315593869
21
12.8651952088
0
LINE
5
653
100
AcDbEntity
8
0
100
AcDbLine
62
9
6
CONTINUOUS
10
4.8335463238
20
13.0820847635
11
4.8232520125
21
13.0251305280
0
LINE
5
654
100
AcDbEntity
8
0
100
AcDbLine
62
9
6
CONTINUOUS
10
-3.4618833695
20
-11.9531775236
11
-3.4481253131
21
-11.8774835354
0
LINE
5
655
100
AcDbEntity
8
0
100
AcDbLine
62
9
6
CONTINUOUS
10
-3.3425747160
20
-12.1249123303
11
-3.3501279090
21
-12.1656090148
0
LINE
5
656
100
AcDbEntity
8
0
100
AcDbLine
62
9
6
CONTINUOUS
10
-2.1004417031
20
-13.1088158160
11
-2.0928885098
21
-13.0681191314
0
LINE
5
657
100
AcDbEntity
8
0
100
AcDbLine
62
9
6
CONTINUOUS
10
-1.9678202775
20
-13.1233520908
11
-1.9595061339
21
-13.0785553849
0
LINE
5
658
100
AcDbEntity
8
0
100
AcDbLine
62
9
6
CONTINUOUS
10
-8.9818168356
20
-2.4307339617
11
-8.9878740112
21
-2.4631700956
0
LINE
5
659
100
AcDbEntity
8
0
100
AcDbLine
62
9
6
CONTINUOUS
10
-1.7827795681
20
-13.2734238063
11
-1.7981509793
21
-13.3549061195
0
LINE
5
65A
100
AcDbEntity
8
DEFAULT_3
100
AcDbLine
62
9
6
PHANTOM
10
-8.1000751673
20
4.6735780513
11
-8.0932869300
21
4.7095122311
0
LINE
5
65B
100
AcDbEntity
8
0
100
AcDbLine
62
9
6
CONTINUOUS
10
-3.6020578995
20
-11.9397106256
11
-3.5866237384
21
-11.8581344253
0
LINE
5
65C
100
AcDbEntity
8
DEFAULT_3
100
AcDbLine
62
9
6
PHANTOM
10
-7.9750352851
20
4.8631788892
11
-7.9711895343
21
4.8833461343
0
LINE
5
65D
100
AcDbEntity
8
0
100
AcDbLine
62
0
6
CONTINUOUS
10
-8.2812502216
20
5.2835537297
11
-8.2884073934
21
5.2468279848
0
LINE
5
65E
100
AcDbEntity
8
0
100
AcDbLine
62
9
6
CONTINUOUS
10
-9.5759710203
20
20.2810311480
11
-9.5640688177
21
20.3393397862
0
LINE
5
65F
100
AcDbEntity
8
DEFAULT_3
100
AcDbLine
62
9
6
PHANTOM
10
-9.0140616132
20
5.2394939176
11
-9.0190125904
21
5.2153897771
0
LINE
5
660
100
AcDbEntity
8
DEFAULT_3
100
AcDbLine
62
9
6
PHANTOM
10
-9.0585362554
20
5.1500683779
11
-9.0578385436
21
5.1534035835
0
LINE
5
661
100
AcDbEntity
8
DEFAULT_3
100
AcDbLine
62
9
6
PHANTOM
10
-9.1228317525
20
5.3024976104
11
-9.1280462216
21
5.2785043372
0
LINE
5
662
100
AcDbEntity
8
0
100
AcDbLine
62
9
6
CONTINUOUS
10
-9.5640688177
20
20.3393397862
11
-9.5499413673
21
20.3997659475
0
LINE
5
663
100
AcDbEntity
8
0
100
AcDbLine
62
0
6
CONTINUOUS
10
10.5376332184
20
-20.8952681992
11
10.5232414436
21
-20.9765642416
0
LINE
5
664
100
AcDbEntity
8
0
100
AcDbLine
62
9
6
CONTINUOUS
10
3.2673654763
20
-8.5553248616
11
3.2613082600
21
-8.5877610947
0
LINE
5
665
100
AcDbEntity
8
DEFAULT_3
100
AcDbLine
62
9
6
PHANTOM
10
3.1733426697
20
-8.0882246092
11
3.1727265558
21
-8.0915190157
0
LINE
5
666
100
AcDbEntity
8
0
100
AcDbLine
62
0
6
CONTINUOUS
10
-1.8095099148
20
-13.2054913407
11
-1.8316271399
21
-13.3199506843
0
LINE
5
667
100
AcDbEntity
8
DEFAULT_3
100
AcDbLine
62
9
6
PHANTOM
10
3.5241908177
20
-8.1215341641
11
3.5202256608
21
-8.1416399293
0
LINE
5
668
100
AcDbEntity
8
DEFAULT_3
100
AcDbLine
62
9
6
PHANTOM
10
3.1481747601
20
-0.8416254782
11
3.1432239148
21
-0.8657293107
0
LINE
5
669
100
AcDbEntity
8
0
100
AcDbLine
62
9
6
CONTINUOUS
10
4.8459927222
20
13.1411365673
11
4.8335463238
21
13.0820847635
0
LINE
5
66A
100
AcDbEntity
8
0
100
AcDbLine
62
9
6
CONTINUOUS
10
5.9422293167
20
12.9192685893
11
5.9363562074
21
12.8917672861
0
LINE
5
66B
100
AcDbEntity
8
0
100
AcDbLine
62
9
6
CONTINUOUS
10
3.6292294674
20
-8.4616913121
11
3.6357616728
21
-8.4313320146
0
LINE
5
66C
100
AcDbEntity
8
0
100
AcDbLine
62
9
6
CONTINUOUS
10
-9.0921902540
20
5.5488734088
11
-9.0968509509
21
5.5292177271
0
LINE
5
66D
100
AcDbEntity
8
0
100
AcDbLine
62
0
6
CONTINUOUS
10
-3.3652367203
20
-12.0808541827
11
-3.3545353653
21
-12.0357384705
0
LINE
5
66E
100
AcDbEntity
8
0
100
AcDbLine
62
9
6
CONTINUOUS
10
-9.3679542585
20
5.5967694782
11
-9.3752913558
21
5.5660077347
0
LINE
5
66F
100
AcDbEntity
8
0
100
AcDbLine
62
9
6
CONTINUOUS
10
4.8607364595
20
13.2022052525
11
4.8459927222
21
13.1411365673
0
LINE
5
670
100
AcDbEntity
8
0
100
AcDbLine
62
9
6
CONTINUOUS
10
5.9492081980
20
12.9477289233
11
5.9422293167
21
12.9192685893
0
LINE
5
671
100
AcDbEntity
8
0
100
AcDbLine
62
0
6
CONTINUOUS
10
-8.2734718771
20
5.3152383985
11
-8.2812502216
21
5.2835537297
0
LINE
5
672
100
AcDbEntity
8
0
100
AcDbLine
62
9
6
CONTINUOUS
10
-3.3329402380
20
-12.0859273092
11
-3.3425747160
21
-12.1249123303
0
LINE
5
673
100
AcDbEntity
8
0
100
AcDbLine
62
9
6
CONTINUOUS
10
-2.1100761814
20
-13.1478008373
11
-2.1004417031
21
-13.1088158160
0
LINE
5
674
100
AcDbEntity
8
0
100
AcDbLine
62
9
6
CONTINUOUS
10
-1.9784253874
20
-13.1662646900
11
-1.9678202775
21
-13.1233520908
0
LINE
5
675
100
AcDbEntity
8
DEFAULT_3
100
AcDbLine
62
9
6
PHANTOM
10
-7.9711895343
20
4.8833461343
11
-7.9665910804
21
4.9014014115
0
LINE
5
676
100
AcDbEntity
8
0
100
AcDbLine
62
0
6
CONTINUOUS
10
-9.7651036958
20
20.7292819054
11
-9.8086482436
21
20.5591211557
0
LINE
5
677
100
AcDbEntity
8
0
100
AcDbLine
62
9
6
CONTINUOUS
10
-9.5499413673
20
20.3997659475
11
-9.5334396201
21
20.4622144600
0
LINE
5
678
100
AcDbEntity
8
DEFAULT_3
100
AcDbLine
62
9
6
PHANTOM
10
-8.0932869300
20
4.7095122311
11
-8.0839896089
21
4.7441849056
0
LINE
5
679
100
AcDbEntity
8
DEFAULT_3
100
AcDbLine
62
9
6
PHANTOM
10
-9.0073075506
20
5.2637549332
11
-9.0140616132
21
5.2394939176
0
LINE
5
67A
100
AcDbEntity
8
0
100
AcDbLine
62
9
6
CONTINUOUS
10
-9.5334396201
20
20.4622144600
11
-9.5145590123
21
20.5261298645
0
LINE
5
67B
100
AcDbEntity
8
DEFAULT_3
100
AcDbLine
62
9
6
PHANTOM
10
-8.6984105742
20
-0.4215179415
11
-8.6950079332
21
-0.4100691963
0
LINE
5
67C
100
AcDbEntity
8
0
100
AcDbLine
62
9
6
CONTINUOUS
10
6.4044633640
20
-22.8284453783
11
6.3777108187
21
-22.9328981190
0
LINE
5
67D
100
AcDbEntity
8
0
100
AcDbLine
62
0
6
CONTINUOUS
10
3.5787303473
20
-8.3313162451
11
3.5725785059
21
-8.3540670618
0
LINE
5
67E
100
AcDbEntity
8
0
100
AcDbLine
62
9
6
CONTINUOUS
10
4.8779184862
20
13.2651892487
11
4.8607364595
21
13.2022052525
0
LINE
5
67F
100
AcDbEntity
8
0
100
AcDbLine
62
9
6
CONTINUOUS
10
5.9572633679
20
12.9771184833
11
5.9492081980
21
12.9477289233
0
LINE
5
680
100
AcDbEntity
8
DEFAULT_3
100
AcDbLine
62
9
6
PHANTOM
10
3.1549286679
20
-0.8173647030
11
3.1481747601
21
-0.8416254782
0
LINE
5
681
100
AcDbEntity
8
0
100
AcDbLine
62
9
6
CONTINUOUS
10
-3.4481253131
20
-11.8774835354
11
-3.4275124820
21
-11.8041212115
0
LINE
5
682
100
AcDbEntity
8
DEFAULT_3
100
AcDbLine
62
9
6
PHANTOM
10
3.1727265558
20
-8.0915190157
11
3.1718413300
21
-8.0946340500
0
LINE
5
683
100
AcDbEntity
8
0
100
AcDbLine
62
9
6
CONTINUOUS
10
-1.7981509793
20
-13.3549061195
11
-1.8209141334
21
-13.4342315320
0
LINE
5
684
100
AcDbEntity
8
0
100
AcDbLine
62
9
6
CONTINUOUS
10
-3.5866237384
20
-11.8581344253
11
-3.5637462907
21
-11.7786662714
0
LINE
5
685
100
AcDbEntity
8
0
100
AcDbLine
62
9
6
CONTINUOUS
10
3.6205233835
20
-8.4917366003
11
3.6292294674
21
-8.4616913121
0
LINE
5
686
100
AcDbEntity
8
DEFAULT_3
100
AcDbLine
62
9
6
PHANTOM
10
3.5202256608
20
-8.1416399293
11
3.5147003218
21
-8.1604542097
0
LINE
5
687
100
AcDbEntity
8
0
100
AcDbLine
62
9
6
CONTINUOUS
10
-2.6471904893
20
-13.6789573658
11
-2.6422232694
21
-13.6621599096
0
LINE
5
688
100
AcDbEntity
8
0
100
AcDbLine
62
0
6
CONTINUOUS
10
-3.3545353653
20
-12.0357384705
11
-3.3413862276
21
-11.9924606439
0
LINE
5
689
100
AcDbEntity
8
0
100
AcDbLine
62
9
6
CONTINUOUS
10
4.8975387981
20
13.3295283293
11
4.8779184862
21
13.2651892487
0
LINE
5
68A
100
AcDbEntity
8
DEFAULT_3
100
AcDbLine
62
9
6
PHANTOM
10
-9.0578385436
20
5.1534035835
11
-9.0568726521
21
5.1565589506
0
LINE
5
68B
100
AcDbEntity
8
DEFAULT_3
100
AcDbLine
62
9
6
PHANTOM
10
-9.1156995468
20
5.3256368147
11
-9.1228317525
21
5.3024976104
0
LINE
5
68C
100
AcDbEntity
8
0
100
AcDbLine
62
9
6
CONTINUOUS
10
5.9665021782
20
13.0070644378
11
5.9572633679
21
12.9771184833
0
LINE
5
68D
100
AcDbEntity
8
0
100
AcDbLine
62
9
6
CONTINUOUS
10
-8.9716642255
20
-2.3979949634
11
-8.9818168356
21
-2.4307339617
0
LINE
5
68E
100
AcDbEntity
8
0
100
AcDbLine
62
9
6
CONTINUOUS
10
3.2775181360
20
-8.5225858051
11
3.2673654763
21
-8.5553248616
0
LINE
5
68F
100
AcDbEntity
8
0
100
AcDbLine
62
9
6
CONTINUOUS
10
-9.3584171566
20
5.6272302754
11
-9.3679542585
21
5.5967694782
0
LINE
5
690
100
AcDbEntity
8
0
100
AcDbLine
62
9
6
CONTINUOUS
10
-3.3212446220
20
-12.0487191020
11
-3.3329402380
21
-12.0859273092
0
LINE
5
691
100
AcDbEntity
8
0
100
AcDbLine
62
9
6
CONTINUOUS
10
-2.1217717979
20
-13.1850090447
11
-2.1100761814
21
-13.1478008373
0
LINE
5
692
100
AcDbEntity
8
0
100
AcDbLine
62
9
6
CONTINUOUS
10
-1.9912992851
20
-13.2072214705
11
-1.9784253874
21
-13.1662646900
0
LINE
5
693
100
AcDbEntity
8
0
100
AcDbLine
62
9
6
CONTINUOUS
10
-9.0859863191
20
5.5681273911
11
-9.0921902540
21
5.5488734088
0
LINE
5
694
100
AcDbEntity
8
DEFAULT_3
100
AcDbLine
62
9
6
PHANTOM
10
-7.9665910804
20
4.9014014115
11
-7.9613721964
21
4.9174317866
0
LINE
5
695
100
AcDbEntity
8
0
100
AcDbLine
62
9
6
CONTINUOUS
10
-9.5145590123
20
20.5261298645
11
-9.4931988918
21
20.5913879236
0
LINE
5
696
100
AcDbEntity
8
0
100
AcDbLine
62
9
6
CONTINUOUS
10
4.9196917512
20
13.3950938879
11
4.8975387981
21
13.3295283293
0
LINE
5
697
100
AcDbEntity
8
DEFAULT_3
100
AcDbLine
62
9
6
PHANTOM
10
-8.0839896089
20
4.7441849056
11
-8.0722896208
21
4.7775474472
0
LINE
5
698
100
AcDbEntity
8
DEFAULT_3
100
AcDbLine
62
9
6
PHANTOM
10
-8.9988231042
20
5.2879116761
11
-9.0073075506
21
5.2637549332
0
LINE
5
699
100
AcDbEntity
8
0
100
AcDbLine
62
0
6
CONTINUOUS
10
-9.7048283252
20
20.8974514700
11
-9.7651036958
21
20.7292819054
0
LINE
5
69A
100
AcDbEntity
8
0
100
AcDbLine
62
9
6
CONTINUOUS
10
-9.4931988918
20
20.5913879236
11
-9.4692714009
21
20.6578229095
0
LINE
5
69B
100
AcDbEntity
8
0
100
AcDbLine
62
9
6
CONTINUOUS
10
-9.4692714009
20
20.6578229095
11
-9.4428880251
21
20.7247958314
0
LINE
5
69C
100
AcDbEntity
8
0
100
AcDbLine
62
0
6
CONTINUOUS
10
10.5232414436
20
-20.9765642416
11
10.5000386586
21
-21.0488863959
0
LINE
5
69D
100
AcDbEntity
8
0
100
AcDbLine
62
9
6
CONTINUOUS
10
5.9769636772
20
13.0375936915
11
5.9665021782
21
13.0070644378
0
LINE
5
69E
100
AcDbEntity
8
DEFAULT_3
100
AcDbLine
62
9
6
PHANTOM
10
3.1634129532
20
-0.7932081242
11
3.1549286679
21
-0.8173647030
0
LINE
5
69F
100
AcDbEntity
8
0
100
AcDbLine
62
0
6
CONTINUOUS
10
-1.8316271399
20
-13.3199506843
11
-1.8676865317
21
-13.4210103594
0
LINE
5
6A0
100
AcDbEntity
8
0
100
AcDbLine
62
9
6
CONTINUOUS
10
4.9444552872
20
13.4617161418
11
4.9196917512
21
13.3950938879
0
LINE
5
6A1
100
AcDbEntity
8
0
100
AcDbLine
62
9
6
CONTINUOUS
10
5.9886088166
20
13.0686793398
11
5.9769636772
21
13.0375936915
0
LINE
5
6A2
100
AcDbEntity
8
0
100
AcDbLine
62
0
6
CONTINUOUS
10
-3.3413862276
20
-11.9924606439
11
-3.3259278246
21
-11.9514068133
0
LINE
5
6A3
100
AcDbEntity
8
0
100
AcDbLine
62
9
6
CONTINUOUS
10
-3.3075162955
20
-12.0133928920
11
-3.3212446220
21
-12.0487191020
0
LINE
5
6A4
100
AcDbEntity
8
0
100
AcDbLine
62
9
6
CONTINUOUS
10
-2.1355001254
20
-13.2203352552
11
-2.1217717979
21
-13.1850090447
0
LINE
5
6A5
100
AcDbEntity
8
0
100
AcDbLine
62
9
6
CONTINUOUS
10
-2.0064106779
20
-13.2461066540
11
-1.9912992851
21
-13.2072214705
0
LINE
5
6A6
100
AcDbEntity
8
0
100
AcDbLine
62
9
6
CONTINUOUS
10
-1.8209141334
20
-13.4342315320
11
-1.8510851485
21
-13.5109296623
0
LINE
5
6A7
100
AcDbEntity
8
DEFAULT_3
100
AcDbLine
62
9
6
PHANTOM
10
3.1718413300
20
-8.0946340500
11
3.1706954271
21
-8.0975446480
0
LINE
5
6A8
100
AcDbEntity
8
0
100
AcDbLine
62
9
6
CONTINUOUS
10
-3.5637462907
20
-11.7786662714
11
-3.5334105709
21
-11.7017777306
0
LINE
5
6A9
100
AcDbEntity
8
0
100
AcDbLine
62
9
6
CONTINUOUS
10
3.6093020836
20
-8.5201067341
11
3.6205233835
21
-8.4917366003
0
LINE
5
6AA
100
AcDbEntity
8
0
100
AcDbLine
62
9
6
CONTINUOUS
10
-3.4275124820
20
-11.8041212115
11
-3.3994974989
21
-11.7342642587
0
LINE
5
6AB
100
AcDbEntity
8
DEFAULT_3
100
AcDbLine
62
9
6
PHANTOM
10
-9.1067307897
20
5.3478355739
11
-9.1156995468
21
5.3256368147
0
LINE
5
6AC
100
AcDbEntity
8
DEFAULT_3
100
AcDbLine
62
9
6
PHANTOM
10
-7.9613721964
20
4.9174317866
11
-7.9557185806
21
4.9313610274
0
LINE
5
6AD
100
AcDbEntity
8
0
100
AcDbLine
62
9
6
CONTINUOUS
10
4.9717071885
20
13.5287536508
11
4.9444552872
21
13.4617161418
0
LINE
5
6AE
100
AcDbEntity
8
0
100
AcDbLine
62
9
6
CONTINUOUS
10
6.0014278026
20
13.0998678382
11
5.9886088166
21
13.0686793398
0
LINE
5
6AF
100
AcDbEntity
8
DEFAULT_3
100
AcDbLine
62
9
6
PHANTOM
10
-9.0568726521
20
5.1565589506
11
-9.0556476838
21
5.1595090813
0
LINE
5
6B0
100
AcDbEntity
8
0
100
AcDbLine
62
9
6
CONTINUOUS
10
-9.3463673523
20
5.6560146614
11
-9.3584171566
21
5.6272302754
0
LINE
5
6B1
100
AcDbEntity
8
0
100
AcDbLine
62
9
6
CONTINUOUS
10
-9.0782128846
20
5.5865448361
11
-9.0859863191
21
5.5681273911
0
LINE
5
6B2
100
AcDbEntity
8
DEFAULT_3
100
AcDbLine
62
9
6
PHANTOM
10
-8.9886996012
20
5.3117041210
11
-8.9988231042
21
5.2879116761
0
LINE
5
6B3
100
AcDbEntity
8
0
100
AcDbLine
62
9
6
CONTINUOUS
10
-9.4428880251
20
20.7247958314
11
-9.4140141433
21
20.7921439184
0
LINE
5
6B4
100
AcDbEntity
8
0
100
AcDbLine
62
9
6
CONTINUOUS
10
-8.9577274726
20
-2.3659569198
11
-8.9716642255
21
-2.3979949634
0
LINE
5
6B5
100
AcDbEntity
8
DEFAULT_3
100
AcDbLine
62
9
6
PHANTOM
10
-8.0722896208
20
4.7775474472
11
-8.0582076006
21
4.8096937341
0
LINE
5
6B6
100
AcDbEntity
8
0
100
AcDbLine
62
9
6
CONTINUOUS
10
-9.4140141433
20
20.7921439184
11
-9.3826354039
21
20.8596611189
0
LINE
5
6B7
100
AcDbEntity
8
0
100
AcDbLine
62
0
6
CONTINUOUS
10
-9.6284276429
20
21.0612617531
11
-9.7048283252
21
20.8974514700
0
LINE
5
6B8
100
AcDbEntity
8
DEFAULT_3
100
AcDbLine
62
9
6
PHANTOM
10
3.5147003218
20
-8.1604542097
11
3.5076569843
21
-8.1778336903
0
LINE
5
6B9
100
AcDbEntity
8
0
100
AcDbLine
62
9
6
CONTINUOUS
10
-2.6422232694
20
-13.6621599096
11
-2.6352457184
21
-13.6456762576
0
LINE
5
6BA
100
AcDbEntity
8
0
100
AcDbLine
62
0
6
CONTINUOUS
10
3.5725785059
20
-8.3540670618
11
3.5660316495
21
-8.3694811345
0
LINE
5
6BB
100
AcDbEntity
8
DEFAULT_3
100
AcDbLine
62
9
6
PHANTOM
10
3.1735363055
20
-0.7694157611
11
3.1634129532
21
-0.7932081242
0
LINE
5
6BC
100
AcDbEntity
8
0
100
AcDbLine
62
9
6
CONTINUOUS
10
3.2914549299
20
-8.4905477529
11
3.2775181360
21
-8.5225858051
0
LINE
5
6BD
100
AcDbEntity
8
0
100
AcDbLine
62
9
6
CONTINUOUS
10
5.0014750346
20
13.5960414900
11
4.9717071885
21
13.5287536508
0
LINE
5
6BE
100
AcDbEntity
8
0
100
AcDbLine
62
9
6
CONTINUOUS
10
6.0154649889
20
13.1311724403
11
6.0014278026
21
13.0998678382
0
LINE
5
6BF
100
AcDbEntity
8
0
100
AcDbLine
62
0
6
CONTINUOUS
10
-3.3259278246
20
-11.9514068133
11
-3.3082899043
21
-11.9127562004
0
LINE
5
6C0
100
AcDbEntity
8
0
100
AcDbLine
62
9
6
CONTINUOUS
10
-3.2918066543
20
-11.9800935034
11
-3.3075162955
21
-12.0133928920
0
LINE
5
6C1
100
AcDbEntity
8
0
100
AcDbLine
62
9
6
CONTINUOUS
10
-2.1512097678
20
-13.2536346445
11
-2.1355001254
21
-13.2203352552
0
LINE
5
6C2
100
AcDbEntity
8
0
100
AcDbLine
62
9
6
CONTINUOUS
10
-2.0237029935
20
-13.2827608246
11
-2.0064106779
21
-13.2461066540
0
LINE
5
6C3
100
AcDbEntity
8
0
100
AcDbLine
62
9
6
CONTINUOUS
10
5.0337628863
20
13.6633737684
11
5.0014750346
21
13.5960414900
0
LINE
5
6C4
100
AcDbEntity
8
0
100
AcDbLine
62
9
6
CONTINUOUS
10
6.0306760218
20
13.1625798926
11
6.0154649889
21
13.1311724403
0
LINE
5
6C5
100
AcDbEntity
8
DEFAULT_3
100
AcDbLine
62
9
6
PHANTOM
10
-7.9557185806
20
4.9313610274
11
-7.9498608702
21
4.9431028591
0
LINE
5
6C6
100
AcDbEntity
8
0
100
AcDbLine
62
9
6
CONTINUOUS
10
-9.3826354039
20
20.8596611189
11
-9.3489991539
21
20.9266521049
0
LINE
5
6C7
100
AcDbEntity
8
DEFAULT_3
100
AcDbLine
62
9
6
PHANTOM
10
-8.9770460119
20
5.3348761637
11
-8.9886996012
21
5.3117041210
0
LINE
5
6C8
100
AcDbEntity
8
DEFAULT_3
100
AcDbLine
62
9
6
PHANTOM
10
-9.0959695974
20
5.3690549707
11
-9.1067307897
21
5.3478355739
0
LINE
5
6C9
100
AcDbEntity
8
DEFAULT_3
100
AcDbLine
62
9
6
PHANTOM
10
-8.0582076006
20
4.8096937341
11
-8.0418593462
21
4.8404283391
0
LINE
5
6CA
100
AcDbEntity
8
0
100
AcDbLine
62
9
6
CONTINUOUS
10
-9.3489991539
20
20.9266521049
11
-9.3131466355
21
20.9929386203
0
LINE
5
6CB
100
AcDbEntity
8
0
100
AcDbLine
62
9
6
CONTINUOUS
10
-9.0687705866
20
5.6039676160
11
-9.0782128846
21
5.5865448361
0
LINE
5
6CC
100
AcDbEntity
8
0
100
AcDbLine
62
9
6
CONTINUOUS
10
-9.3315585579
20
5.6831033562
11
-9.3463673523
21
5.6560146614
0
LINE
5
6CD
100
AcDbEntity
8
0
100
AcDbLine
62
9
6
CONTINUOUS
10
6.3777108187
20
-22.9328981190
11
6.3352011604
21
-23.0218933705
0
LINE
5
6CE
100
AcDbEntity
8
DEFAULT_3
100
AcDbLine
62
9
6
PHANTOM
10
3.1851897704
20
-0.7462437164
11
3.1735363055
21
-0.7694157611
0
LINE
5
6CF
100
AcDbEntity
8
0
100
AcDbLine
62
0
6
CONTINUOUS
10
10.5000386586
20
-21.0488863959
11
10.4673365647
21
-21.1131218083
0
LINE
5
6D0
100
AcDbEntity
8
0
100
AcDbLine
62
9
6
CONTINUOUS
10
5.0683078079
20
13.7300588818
11
5.0337628863
21
13.6633737684
0
LINE
5
6D1
100
AcDbEntity
8
0
100
AcDbLine
62
9
6
CONTINUOUS
10
6.0469180471
20
13.1935968894
11
6.0306760218
21
13.1625798926
0
LINE
5
6D2
100
AcDbEntity
8
0
100
AcDbLine
62
9
6
CONTINUOUS
10
3.5953215166
20
-8.5467813152
11
3.6093020836
21
-8.5201067341
0
LINE
5
6D3
100
AcDbEntity
8
DEFAULT_3
100
AcDbLine
62
9
6
PHANTOM
10
3.1706954271
20
-8.0975446480
11
3.1693141521
21
-8.1001756174
0
LINE
5
6D4
100
AcDbEntity
8
DEFAULT_3
100
AcDbLine
62
9
6
PHANTOM
10
-8.6950079332
20
-0.4100691963
11
-8.6889351636
21
-0.3987372541
0
LINE
5
6D5
100
AcDbEntity
8
DEFAULT_3
100
AcDbLine
62
9
6
PHANTOM
10
3.5076569843
20
-8.1778336903
11
3.4991490163
21
-8.1936460741
0
LINE
5
6D6
100
AcDbEntity
8
0
100
AcDbLine
62
0
6
CONTINUOUS
10
-3.3082899043
20
-11.9127562004
11
-3.2885181560
21
-11.8764718851
0
LINE
5
6D7
100
AcDbEntity
8
DEFAULT_3
100
AcDbLine
62
9
6
PHANTOM
10
-9.0556476838
20
5.1595090813
11
-9.0541909455
21
5.1621777823
0
LINE
5
6D8
100
AcDbEntity
8
0
100
AcDbLine
62
9
6
CONTINUOUS
10
-3.3994974989
20
-11.7342642587
11
-3.3632220376
21
-11.6687523728
0
LINE
5
6D9
100
AcDbEntity
8
0
100
AcDbLine
62
9
6
CONTINUOUS
10
5.1050616993
20
13.7959198662
11
5.0683078079
21
13.7300588818
0
LINE
5
6DA
100
AcDbEntity
8
0
100
AcDbLine
62
9
6
CONTINUOUS
10
-2.6352457184
20
-13.6456762576
11
-2.6264828812
21
-13.6300380541
0
LINE
5
6DB
100
AcDbEntity
8
0
100
AcDbLine
62
9
6
CONTINUOUS
10
-1.8510851485
20
-13.5109296623
11
-1.8906434947
21
-13.5809738288
0
LINE
5
6DC
100
AcDbEntity
8
0
100
AcDbLine
62
9
6
CONTINUOUS
10
6.0642319292
20
13.2242138283
11
6.0469180471
21
13.1935968894
0
LINE
5
6DD
100
AcDbEntity
8
0
100
AcDbLine
62
9
6
CONTINUOUS
10
-3.5334105709
20
-11.7017777306
11
-3.4936537990
21
-11.6315004278
0
LINE
5
6DE
100
AcDbEntity
8
0
100
AcDbLine
62
9
6
CONTINUOUS
10
-3.2741720071
20
-11.9489429453
11
-3.2918066543
21
-11.9800935034
0
LINE
5
6DF
100
AcDbEntity
8
0
100
AcDbLine
62
9
6
CONTINUOUS
10
-2.1688444163
20
-13.2847852031
11
-2.1512097678
21
-13.2536346445
0
LINE
5
6E0
100
AcDbEntity
8
0
100
AcDbLine
62
9
6
CONTINUOUS
10
-2.0431142525
20
-13.3170496792
11
-2.0237029935
21
-13.2827608246
0
LINE
5
6E1
100
AcDbEntity
8
0
100
AcDbLine
62
9
6
CONTINUOUS
10
-8.9404338955
20
-2.3356021576
11
-8.9577274726
21
-2.3659569198
0
LINE
5
6E2
100
AcDbEntity
8
0
100
AcDbLine
62
9
6
CONTINUOUS
10
-9.3131466355
20
20.9929386203
11
-9.2751352445
21
21.0583201482
0
LINE
5
6E3
100
AcDbEntity
8
0
100
AcDbLine
62
0
6
CONTINUOUS
10
-9.5385699079
20
21.2152559151
11
-9.6284276429
21
21.0612617531
0
LINE
5
6E4
100
AcDbEntity
8
DEFAULT_3
100
AcDbLine
62
9
6
PHANTOM
10
-8.9639877768
20
5.3571783782
11
-8.9770460119
21
5.3348761637
0
LINE
5
6E5
100
AcDbEntity
8
0
100
AcDbLine
62
9
6
CONTINUOUS
10
5.1439584016
20
13.8607611734
11
5.1050616993
21
13.7959198662
0
LINE
5
6E6
100
AcDbEntity
8
DEFAULT_3
100
AcDbLine
62
9
6
PHANTOM
10
-7.9498608702
20
4.9431028591
11
-7.9440487980
21
4.9526420154
0
LINE
5
6E7
100
AcDbEntity
8
DEFAULT_3
100
AcDbLine
62
9
6
PHANTOM
10
-9.0835445168
20
5.3890919626
11
-9.0959695974
21
5.3690549707
0
LINE
5
6E8
100
AcDbEntity
8
0
100
AcDbLine
62
9
6
CONTINUOUS
10
-9.2751352445
20
21.0583201482
11
-9.2353394375
21
21.1221150479
0
LINE
5
6E9
100
AcDbEntity
8
0
100
AcDbLine
62
9
6
CONTINUOUS
10
-9.2353394375
20
21.1221150479
11
-9.1938711970
21
21.1841652476
0
LINE
5
6EA
100
AcDbEntity
8
0
100
AcDbLine
62
9
6
CONTINUOUS
10
3.3087485271
20
-8.4601930253
11
3.2914549299
21
-8.4905477529
0
LINE
5
6EB
100
AcDbEntity
8
0
100
AcDbLine
62
0
6
CONTINUOUS
10
-1.8676865317
20
-13.4210103594
11
-1.9162034975
21
-13.5053104796
0
LINE
5
6EC
100
AcDbEntity
8
DEFAULT_3
100
AcDbLine
62
9
6
PHANTOM
10
3.1982479202
20
-0.7239414228
11
3.1851897704
21
-0.7462437164
0
LINE
5
6ED
100
AcDbEntity
8
0
100
AcDbLine
62
9
6
CONTINUOUS
10
6.0825768037
20
13.2544403119
11
6.0642319292
21
13.2242138283
0
LINE
5
6EE
100
AcDbEntity
8
0
100
AcDbLine
62
0
6
CONTINUOUS
10
3.5660316495
20
-8.3694811345
11
3.5606507625
21
-8.3781833865
0
LINE
5
6EF
100
AcDbEntity
8
DEFAULT_3
100
AcDbLine
62
9
6
PHANTOM
10
-8.0418593462
20
4.8404283391
11
-8.0233814619
21
4.8695758401
0
LINE
5
6F0
100
AcDbEntity
8
0
100
AcDbLine
62
9
6
CONTINUOUS
10
5.1846061950
20
13.9239132909
11
5.1439584016
21
13.8607611734
0
LINE
5
6F1
100
AcDbEntity
8
0
100
AcDbLine
62
0
6
CONTINUOUS
10
-3.2885181560
20
-11.8764718851
11
-3.2666730633
21
-11.8425845639
0
LINE
5
6F2
100
AcDbEntity
8
0
100
AcDbLine
62
9
6
CONTINUOUS
10
6.1016872227
20
13.2838118421
11
6.0825768037
21
13.2544403119
0
LINE
5
6F3
100
AcDbEntity
8
DEFAULT_3
100
AcDbLine
62
9
6
PHANTOM
10
-8.9496654558
20
5.3783707015
11
-8.9639877768
21
5.3571783782
0
LINE
5
6F4
100
AcDbEntity
8
0
100
AcDbLine
62
9
6
CONTINUOUS
10
-9.3142373094
20
5.7085155190
11
-9.3315585579
21
5.6831033562
0
LINE
5
6F5
100
AcDbEntity
8
0
100
AcDbLine
62
9
6
CONTINUOUS
10
5.2268877590
20
13.9852235367
11
5.1846061950
21
13.9239132909
0
LINE
5
6F6
100
AcDbEntity
8
0
100
AcDbLine
62
9
6
CONTINUOUS
10
-9.0576433730
20
5.6200891491
11
-9.0687705866
21
5.6039676160
0
LINE
5
6F7
100
AcDbEntity
8
DEFAULT_3
100
AcDbLine
62
9
6
PHANTOM
10
-9.0541909455
20
5.1621777823
11
-9.0524970194
21
5.1645558414
0
LINE
5
6F8
100
AcDbEntity
8
0
100
AcDbLine
62
0
6
CONTINUOUS
10
-9.4360532584
20
21.3585974716
11
-9.5385699079
21
21.2152559151
0
LINE
5
6F9
100
AcDbEntity
8
0
100
AcDbLine
62
9
6
CONTINUOUS
10
-9.1938711970
20
21.1841652476
11
-9.1508421194
21
21.2443222682
0
LINE
5
6FA
100
AcDbEntity
8
0
100
AcDbLine
62
9
6
CONTINUOUS
10
-9.1508421194
20
21.2443222682
11
-9.1067114604
21
21.3020032771
0
LINE
5
6FB
100
AcDbEntity
8
0
100
AcDbLine
62
9
6
CONTINUOUS
10
3.5788254852
20
-8.5717808694
11
3.5953215166
21
-8.5467813152
0
LINE
5
6FC
100
AcDbEntity
8
0
100
AcDbLine
62
9
6
CONTINUOUS
10
-3.2546712895
20
-11.9200457133
11
-3.2741720071
21
-11.9489429453
0
LINE
5
6FD
100
AcDbEntity
8
0
100
AcDbLine
62
9
6
CONTINUOUS
10
-2.1883451346
20
-13.3136824356
11
-2.1688444163
21
-13.2847852031
0
LINE
5
6FE
100
AcDbEntity
8
0
100
AcDbLine
62
9
6
CONTINUOUS
10
-2.0645795828
20
-13.3488581923
11
-2.0431142525
21
-13.3170496792
0
LINE
5
6FF
100
AcDbEntity
8
DEFAULT_3
100
AcDbLine
62
9
6
PHANTOM
10
3.2125702037
20
-0.7027489553
11
3.1982479202
21
-0.7239414228
0
LINE
5
700
100
AcDbEntity
8
DEFAULT_3
100
AcDbLine
62
9
6
PHANTOM
10
3.1693141521
20
-8.1001756174
11
3.1676919323
21
-8.1025178233
0
LINE
5
701
100
AcDbEntity
8
0
100
AcDbLine
62
9
6
CONTINUOUS
10
6.1215908807
20
13.3122945222
11
6.1016872227
21
13.2838118421
0
LINE
5
702
100
AcDbEntity
8
DEFAULT_3
100
AcDbLine
62
9
6
PHANTOM
10
3.4991490163
20
-8.1936460741
11
3.4892418680
21
-8.2077707792
0
LINE
5
703
100
AcDbEntity
8
0
100
AcDbLine
62
9
6
CONTINUOUS
10
-2.6264828812
20
-13.6300380541
11
-2.6162173827
21
-13.6157496751
0
LINE
5
704
100
AcDbEntity
8
0
100
AcDbLine
62
9
6
CONTINUOUS
10
-8.9203137369
20
-2.3078613922
11
-8.9404338955
21
-2.3356021576
0
LINE
5
705
100
AcDbEntity
8
0
100
AcDbLine
62
9
6
CONTINUOUS
10
3.3288686822
20
-8.4324523189
11
3.3087485271
21
-8.4601930253
0
LINE
5
706
100
AcDbEntity
8
0
100
AcDbLine
62
9
6
CONTINUOUS
10
5.2706858469
20
14.0445520911
11
5.2268877590
21
13.9852235367
0
LINE
5
707
100
AcDbEntity
8
DEFAULT_3
100
AcDbLine
62
9
6
PHANTOM
10
-7.9440487980
20
4.9526420154
11
-7.9385608369
21
4.9600143223
0
LINE
5
708
100
AcDbEntity
8
DEFAULT_3
100
AcDbLine
62
9
6
PHANTOM
10
-9.0695788132
20
5.4078287245
11
-9.0835445168
21
5.3890919626
0
LINE
5
709
100
AcDbEntity
8
DEFAULT_3
100
AcDbLine
62
9
6
PHANTOM
10
-8.0233814619
20
4.8695758401
11
-8.0027725209
21
4.8971732787
0
LINE
5
70A
100
AcDbEntity
8
0
100
AcDbLine
62
9
6
CONTINUOUS
10
6.1422600833
20
13.3399222490
11
6.1215908807
21
13.3122945222
0
LINE
5
70B
100
AcDbEntity
8
0
100
AcDbLine
62
9
6
CONTINUOUS
10
-3.3632220376
20
-11.6687523728
11
-3.3181849293
21
-11.6091853929
0
LINE
5
70C
100
AcDbEntity
8
0
100
AcDbLine
62
0
6
CONTINUOUS
10
-3.2666730633
20
-11.8425845639
11
-3.2428244997
21
-11.8111496144
0
LINE
5
70D
100
AcDbEntity
8
DEFAULT_3
100
AcDbLine
62
9
6
PHANTOM
10
-8.9342332157
20
5.3982250173
11
-8.9496654558
21
5.3783707015
0
LINE
5
70E
100
AcDbEntity
8
DEFAULT_3
100
AcDbLine
62
9
6
PHANTOM
10
-8.6889351636
20
-0.3987372541
11
-8.6804331920
21
-0.3879716896
0
LINE
5
70F
100
AcDbEntity
8
0
100
AcDbLine
62
9
6
CONTINUOUS
10
5.3155257158
20
14.1013352076
11
5.2706858469
21
14.0445520911
0
LINE
5
710
100
AcDbEntity
8
0
100
AcDbLine
62
9
6
CONTINUOUS
10
6.1633462987
20
13.3663322156
11
6.1422600833
21
13.3399222490
0
LINE
5
711
100
AcDbEntity
8
0
100
AcDbLine
62
9
6
CONTINUOUS
10
-9.1067114604
20
21.3020032771
11
-9.0616383466
21
21.3571093230
0
LINE
5
712
100
AcDbEntity
8
0
100
AcDbLine
62
0
6
CONTINUOUS
10
-9.3209633673
20
21.4906401241
11
-9.4360532584
21
21.3585974716
0
LINE
5
713
100
AcDbEntity
8
0
100
AcDbLine
62
9
6
CONTINUOUS
10
-9.0616383466
20
21.3571093230
11
-9.0157616003
21
21.4095745225
0
LINE
5
714
100
AcDbEntity
8
0
100
AcDbLine
62
0
6
CONTINUOUS
10
10.4673365647
20
-21.1131218083
11
10.4258234605
21
-21.1683833325
0
LINE
5
715
100
AcDbEntity
8
0
100
AcDbLine
62
9
6
CONTINUOUS
10
-3.4936537990
20
-11.6315004278
11
-3.4441696003
21
-11.5672695443
0
LINE
5
716
100
AcDbEntity
8
0
100
AcDbLine
62
9
6
CONTINUOUS
10
-1.8906434947
20
-13.5809738288
11
-1.9399240112
21
-13.6449349474
0
LINE
5
717
100
AcDbEntity
8
DEFAULT_3
100
AcDbLine
62
9
6
PHANTOM
10
3.2280024635
20
-0.6828944405
11
3.2125702037
21
-0.7027489553
0
LINE
5
718
100
AcDbEntity
8
0
100
AcDbLine
62
9
6
CONTINUOUS
10
-3.2333706916
20
-11.8935002510
11
-3.2546712895
21
-11.9200457133
0
LINE
5
719
100
AcDbEntity
8
0
100
AcDbLine
62
9
6
CONTINUOUS
10
-2.2096457332
20
-13.3402278982
11
-2.1883451346
21
-13.3136824356
0
LINE
5
71A
100
AcDbEntity
8
0
100
AcDbLine
62
9
6
CONTINUOUS
10
-2.0880261245
20
-13.3780780043
11
-2.0645795828
21
-13.3488581923
0
LINE
5
71B
100
AcDbEntity
8
0
100
AcDbLine
62
9
6
CONTINUOUS
10
5.3612456155
20
14.1554827717
11
5.3155257158
21
14.1013352076
0
LINE
5
71C
100
AcDbEntity
8
0
100
AcDbLine
62
9
6
CONTINUOUS
10
3.5602035657
20
-8.5938060878
11
3.5788254852
21
-8.5717808694
0
LINE
5
71D
100
AcDbEntity
8
0
100
AcDbLine
62
9
6
CONTINUOUS
10
6.1848590656
20
13.3914743656
11
6.1633462987
21
13.3663322156
0
LINE
5
71E
100
AcDbEntity
8
0
100
AcDbLine
62
9
6
CONTINUOUS
10
-9.2948310109
20
5.7309329268
11
-9.3142373094
21
5.7085155190
0
LINE
5
71F
100
AcDbEntity
8
DEFAULT_3
100
AcDbLine
62
9
6
PHANTOM
10
-8.0027725209
20
4.8971732787
11
-7.9801157934
21
4.9230932091
0
LINE
5
720
100
AcDbEntity
8
0
100
AcDbLine
62
9
6
CONTINUOUS
10
-9.0450829411
20
5.6343902746
11
-9.0576433730
21
5.6200891491
0
LINE
5
721
100
AcDbEntity
8
DEFAULT_3
100
AcDbLine
62
9
6
PHANTOM
10
-9.0540827184
20
5.4252848514
11
-9.0695788132
21
5.4078287245
0
LINE
5
722
100
AcDbEntity
8
DEFAULT_3
100
AcDbLine
62
9
6
PHANTOM
10
-8.9178571706
20
5.4165276120
11
-8.9342332157
21
5.3982250173
0
LINE
5
723
100
AcDbEntity
8
0
100
AcDbLine
62
9
6
CONTINUOUS
10
5.4077046639
20
14.2069389937
11
5.3612456155
21
14.1554827717
0
LINE
5
724
100
AcDbEntity
8
DEFAULT_3
100
AcDbLine
62
9
6
PHANTOM
10
-7.9385608369
20
4.9600143223
11
-7.9336383722
21
4.9653891984
0
LINE
5
725
100
AcDbEntity
8
0
100
AcDbLine
62
9
6
CONTINUOUS
10
6.2067888453
20
13.4153987554
11
6.1848590656
21
13.3914743656
0
LINE
5
726
100
AcDbEntity
8
DEFAULT_3
100
AcDbLine
62
9
6
PHANTOM
10
-9.0524970194
20
5.1645558414
11
-9.0505713336
21
5.1666524658
0
LINE
5
727
100
AcDbEntity
8
0
100
AcDbLine
62
9
6
CONTINUOUS
10
-8.8979839064
20
-2.2835851904
11
-8.9203137369
21
-2.3078613922
0
LINE
5
728
100
AcDbEntity
8
0
100
AcDbLine
62
9
6
CONTINUOUS
10
-9.0157616003
20
21.4095745225
11
-8.9695670188
21
21.4589749105
0
LINE
5
729
100
AcDbEntity
8
0
100
AcDbLine
62
9
6
CONTINUOUS
10
-8.9695670188
20
21.4589749105
11
-8.9232252298
21
21.5052985969
0
LINE
5
72A
100
AcDbEntity
8
0
100
AcDbLine
62
9
6
CONTINUOUS
10
6.3352011604
20
-23.0218933705
11
6.2782255238
21
-23.0927281029
0
LINE
5
72B
100
AcDbEntity
8
0
100
AcDbLine
62
0
6
CONTINUOUS
10
-3.2428244997
20
-11.8111496144
11
-3.2170877554
21
-11.7822712222
0
LINE
5
72C
100
AcDbEntity
8
0
100
AcDbLine
62
0
6
CONTINUOUS
10
-1.9162034975
20
-13.5053104796
11
-1.9751691109
21
-13.5712754092
0
LINE
5
72D
100
AcDbEntity
8
DEFAULT_3
100
AcDbLine
62
9
6
PHANTOM
10
3.2443785900
20
-0.6645916088
11
3.2280024635
21
-0.6828944405
0
LINE
5
72E
100
AcDbEntity
8
DEFAULT_3
100
AcDbLine
62
9
6
PHANTOM
10
3.1676919323
20
-8.1025178233
11
3.1658343303
21
-8.1045804058
0
LINE
5
72F
100
AcDbEntity
8
DEFAULT_3
100
AcDbLine
62
9
6
PHANTOM
10
3.4892418680
20
-8.2077707792
11
3.4780111830
21
-8.2201007683
0
LINE
5
730
100
AcDbEntity
8
0
100
AcDbLine
62
0
6
CONTINUOUS
10
3.5606507625
20
-8.3781833865
11
3.5568398310
21
-8.3823627531
0
LINE
5
731
100
AcDbEntity
8
0
100
AcDbLine
62
9
6
CONTINUOUS
10
-2.6162173827
20
-13.6157496751
11
-2.6047803135
21
-13.6032719620
0
LINE
5
732
100
AcDbEntity
8
0
100
AcDbLine
62
9
6
CONTINUOUS
10
3.3511984848
20
-8.4081761875
11
3.3288686822
21
-8.4324523189
0
LINE
5
733
100
AcDbEntity
8
0
100
AcDbLine
62
9
6
CONTINUOUS
10
-3.2103501706
20
-11.8694040163
11
-3.2333706916
21
-11.8935002510
0
LINE
5
734
100
AcDbEntity
8
0
100
AcDbLine
62
9
6
CONTINUOUS
10
-2.2326662553
20
-13.3643241334
11
-2.2096457332
21
-13.3402278982
0
LINE
5
735
100
AcDbEntity
8
0
100
AcDbLine
62
9
6
CONTINUOUS
10
-2.1133658629
20
-13.4046018430
11
-2.0880261245
21
-13.3780780043
0
LINE
5
736
100
AcDbEntity
8
0
100
AcDbLine
62
9
6
CONTINUOUS
10
5.4544050270
20
14.2553013961
11
5.4077046639
21
14.2069389937
0
LINE
5
737
100
AcDbEntity
8
0
100
AcDbLine
62
9
6
CONTINUOUS
10
6.2287584898
20
13.4378927472
11
6.2067888453
21
13.4153987554
0
LINE
5
738
100
AcDbEntity
8
DEFAULT_3
100
AcDbLine
62
9
6
PHANTOM
10
-7.9801157934
20
4.9230932091
11
-7.9556204586
21
4.9470987954
0
LINE
5
739
100
AcDbEntity
8
0
100
AcDbLine
62
9
6
CONTINUOUS
10
5.5011765185
20
14.3005684913
11
5.4544050270
21
14.2553013961
0
LINE
5
73A
100
AcDbEntity
8
DEFAULT_3
100
AcDbLine
62
9
6
PHANTOM
10
-8.9007135940
20
5.4330814749
11
-8.9178571706
21
5.4165276120
0
LINE
5
73B
100
AcDbEntity
8
0
100
AcDbLine
62
9
6
CONTINUOUS
10
6.2507617464
20
13.4589030187
11
6.2287584898
21
13.4378927472
0
LINE
5
73C
100
AcDbEntity
8
DEFAULT_3
100
AcDbLine
62
9
6
PHANTOM
10
-9.0371956392
20
5.4413047177
11
-9.0540827184
21
5.4252848514
0
LINE
5
73D
100
AcDbEntity
8
0
100
AcDbLine
62
0
6
CONTINUOUS
10
-9.1963059649
20
21.6074836676
11
-9.3209633673
21
21.4906401241
0
LINE
5
73E
100
AcDbEntity
8
0
100
AcDbLine
62
9
6
CONTINUOUS
10
-8.9232252298
20
21.5052985969
11
-8.8768762210
21
21.5485698377
0
LINE
5
73F
100
AcDbEntity
8
0
100
AcDbLine
62
9
6
CONTINUOUS
10
-8.8768762210
20
21.5485698377
11
-8.8309868176
21
21.5885359216
0
LINE
5
740
100
AcDbEntity
8
0
100
AcDbLine
62
9
6
CONTINUOUS
10
-3.4441696003
20
-11.5672695443
11
-3.3852674085
21
-11.5096516062
0
LINE
5
741
100
AcDbEntity
8
0
100
AcDbLine
62
9
6
CONTINUOUS
10
-1.9399240112
20
-13.6449349474
11
-1.9985949206
21
-13.7022437806
0
LINE
5
742
100
AcDbEntity
8
DEFAULT_3
100
AcDbLine
62
9
6
PHANTOM
10
3.2615223061
20
-0.6480374949
11
3.2443785900
21
-0.6645916088
0
LINE
5
743
100
AcDbEntity
8
0
100
AcDbLine
62
9
6
CONTINUOUS
10
-3.3181849293
20
-11.6091853929
11
-3.2640295454
21
-11.5573310303
0
LINE
5
744
100
AcDbEntity
8
0
100
AcDbLine
62
0
6
CONTINUOUS
10
-3.2170877554
20
-11.7822712222
11
-3.1896122767
21
-11.7560572570
0
LINE
5
745
100
AcDbEntity
8
DEFAULT_3
100
AcDbLine
62
9
6
PHANTOM
10
-8.6804331920
20
-0.3879716896
11
-8.6694043523
21
-0.3777952741
0
LINE
5
746
100
AcDbEntity
8
0
100
AcDbLine
62
9
6
CONTINUOUS
10
5.5478800184
20
14.3427739273
11
5.5011765185
21
14.3005684913
0
LINE
5
747
100
AcDbEntity
8
0
100
AcDbLine
62
9
6
CONTINUOUS
10
6.2728048679
20
13.4784828921
11
6.2507617464
21
13.4589030187
0
LINE
5
748
100
AcDbEntity
8
0
100
AcDbLine
62
9
6
CONTINUOUS
10
-9.0311637513
20
5.6467513886
11
-9.0450829411
21
5.6343902746
0
LINE
5
749
100
AcDbEntity
8
0
100
AcDbLine
62
9
6
CONTINUOUS
10
-9.2731472255
20
5.7500579373
11
-9.2948310109
21
5.7309329268
0
LINE
5
74A
100
AcDbEntity
8
DEFAULT_3
100
AcDbLine
62
9
6
PHANTOM
10
-7.9336383722
20
4.9653891984
11
-7.9294660111
21
4.9690438364
0
LINE
5
74B
100
AcDbEntity
8
0
100
AcDbLine
62
9
6
CONTINUOUS
10
5.5940394595
20
14.3816840486
11
5.5478800184
21
14.3427739273
0
LINE
5
74C
100
AcDbEntity
8
0
100
AcDbLine
62
9
6
CONTINUOUS
10
-8.8741290646
20
-2.2635178911
11
-8.8979839064
21
-2.2835851904
0
LINE
5
74D
100
AcDbEntity
8
DEFAULT_3
100
AcDbLine
62
9
6
PHANTOM
10
-7.9556204586
20
4.9470987954
11
-7.9294660107
21
4.9690438366
0
LINE
5
74E
100
AcDbEntity
8
DEFAULT_3
100
AcDbLine
62
9
6
PHANTOM
10
-9.0505713336
20
5.1666524658
11
-9.0484574684
21
5.1684190898
0
LINE
5
74F
100
AcDbEntity
8
0
100
AcDbLine
62
9
6
CONTINUOUS
10
6.2945294643
20
13.4965796968
11
6.2728048679
21
13.4784828921
0
LINE
5
750
100
AcDbEntity
8
DEFAULT_3
100
AcDbLine
62
9
6
PHANTOM
10
-8.8829870208
20
5.4477084186
11
-8.9007135940
21
5.4330814749
0
LINE
5
751
100
AcDbEntity
8
0
100
AcDbLine
62
9
6
CONTINUOUS
10
-8.8309868176
20
21.5885359216
11
-8.7857044087
21
21.6252799136
0
LINE
5
752
100
AcDbEntity
8
0
100
AcDbLine
62
0
6
CONTINUOUS
10
-9.0634616420
20
21.7078364715
11
-9.1963059649
21
21.6074836676
0
LINE
5
753
100
AcDbEntity
8
0
100
AcDbLine
62
9
6
CONTINUOUS
10
-8.7857044087
20
21.6252799136
11
-8.7411516968
21
21.6589062923
0
LINE
5
754
100
AcDbEntity
8
0
100
AcDbLine
62
0
6
CONTINUOUS
10
10.4258234605
20
-21.1683833325
11
10.3775642412
21
-21.2120095295
0
LINE
5
755
100
AcDbEntity
8
0
100
AcDbLine
62
9
6
CONTINUOUS
10
3.5392572042
20
-8.6125623864
11
3.5602035657
21
-8.5938060878
0
LINE
5
756
100
AcDbEntity
8
0
100
AcDbLine
62
9
6
CONTINUOUS
10
-3.1857063024
20
-11.8478495999
11
-3.2103501706
21
-11.8694040163
0
LINE
5
757
100
AcDbEntity
8
0
100
AcDbLine
62
9
6
CONTINUOUS
10
-2.2573101260
20
-13.3858785511
11
-2.2326662553
21
-13.3643241334
0
LINE
5
758
100
AcDbEntity
8
0
100
AcDbLine
62
9
6
CONTINUOUS
10
-2.1404924893
20
-13.4283277970
11
-2.1133658629
21
-13.4046018430
0
LINE
5
759
100
AcDbEntity
8
DEFAULT_3
100
AcDbLine
62
9
6
PHANTOM
10
3.1658343303
20
-8.1045804058
11
3.1637833495
21
-8.1063155876
0
LINE
5
75A
100
AcDbEntity
8
0
100
AcDbLine
62
9
6
CONTINUOUS
10
3.3750532711
20
-8.3881089604
11
3.3511984848
21
-8.4081761875
0
LINE
5
75B
100
AcDbEntity
8
0
100
AcDbLine
62
9
6
CONTINUOUS
10
-2.6047803135
20
-13.6032719620
11
-2.5925405514
21
-13.5930073572
0
LINE
5
75C
100
AcDbEntity
8
DEFAULT_3
100
AcDbLine
62
9
6
PHANTOM
10
3.4780111830
20
-8.2201007683
11
3.4655414183
21
-8.2305431445
0
LINE
5
75D
100
AcDbEntity
8
DEFAULT_3
100
AcDbLine
62
9
6
PHANTOM
10
3.2792490736
20
-0.6334103057
11
3.2615223061
21
-0.6480374949
0
LINE
5
75E
100
AcDbEntity
8
0
100
AcDbLine
62
0
6
CONTINUOUS
10
-3.1896122767
20
-11.7560572570
11
-3.1605441803
21
-11.7325772727
0
LINE
5
75F
100
AcDbEntity
8
DEFAULT_3
100
AcDbLine
62
9
6
PHANTOM
10
-9.0190667749
20
5.4557587372
11
-9.0371956392
21
5.4413047177
0
LINE
5
760
100
AcDbEntity
8
0
100
AcDbLine
62
9
6
CONTINUOUS
10
5.6395102262
20
14.4173916527
11
5.5940394595
21
14.3816840486
0
LINE
5
761
100
AcDbEntity
8
0
100
AcDbLine
62
9
6
CONTINUOUS
10
6.3159207014
20
13.5131473793
11
6.2945294643
21
13.4965796968
0
LINE
5
762
100
AcDbEntity
8
0
100
AcDbLine
62
9
6
CONTINUOUS
10
5.6841723057
20
14.4500087008
11
5.6395102262
21
14.4173916527
0
LINE
5
763
100
AcDbEntity
8
0
100
AcDbLine
62
9
6
CONTINUOUS
10
6.3369934134
20
13.5282319931
11
6.3159207014
21
13.5131473793
0
LINE
5
764
100
AcDbEntity
8
0
100
AcDbLine
62
9
6
CONTINUOUS
10
-8.7411516968
20
21.6589062923
11
-8.6977615622
21
21.6893067341
0
LINE
5
765
100
AcDbEntity
8
0
100
AcDbLine
62
9
6
CONTINUOUS
10
-8.6977615622
20
21.6893067341
11
-8.6557465358
21
21.7165781201
0
LINE
5
766
100
AcDbEntity
8
0
100
AcDbLine
62
9
6
CONTINUOUS
10
-3.1595086151
20
-11.8288898687
11
-3.1857063024
21
-11.8478495999
0
LINE
5
767
100
AcDbEntity
8
0
100
AcDbLine
62
9
6
CONTINUOUS
10
-2.2835078163
20
-13.4048382838
11
-2.2573101260
21
-13.3858785511
0
LINE
5
768
100
AcDbEntity
8
0
100
AcDbLine
62
9
6
CONTINUOUS
10
-2.1693294752
20
-13.4491976666
11
-2.1404924893
21
-13.4283277970
0
LINE
5
769
100
AcDbEntity
8
DEFAULT_3
100
AcDbLine
62
9
6
PHANTOM
10
-8.6694043523
20
-0.3777952741
11
-8.6559463106
21
-0.3681852364
0
LINE
5
76A
100
AcDbEntity
8
DEFAULT_3
100
AcDbLine
62
9
6
PHANTOM
10
-8.8648682615
20
5.4602509973
11
-8.8829870208
21
5.4477084186
0
LINE
5
76B
100
AcDbEntity
8
DEFAULT_3
100
AcDbLine
62
9
6
PHANTOM
10
3.2973680804
20
-0.6208675033
11
3.2792490736
21
-0.6334103057
0
LINE
5
76C
100
AcDbEntity
8
0
100
AcDbLine
62
0
6
CONTINUOUS
10
-1.9751691109
20
-13.5712754092
11
-2.0496298059
21
-13.6225028598
0
LINE
5
76D
100
AcDbEntity
8
0
100
AcDbLine
62
9
6
CONTINUOUS
10
3.5161837992
20
-8.6283449474
11
3.5392572042
21
-8.6125623864
0
LINE
5
76E
100
AcDbEntity
8
0
100
AcDbLine
62
9
6
CONTINUOUS
10
-9.0159642911
20
5.6570727523
11
-9.0311637513
21
5.6467513886
0
LINE
5
76F
100
AcDbEntity
8
0
100
AcDbLine
62
9
6
CONTINUOUS
10
-9.2493795455
20
5.7661876359
11
-9.2731472255
21
5.7500579373
0
LINE
5
770
100
AcDbEntity
8
0
100
AcDbLine
62
0
6
CONTINUOUS
10
-3.1605441803
20
-11.7325772727
11
-3.1300104092
21
-11.7118650835
0
LINE
5
771
100
AcDbEntity
8
0
100
AcDbLine
62
9
6
CONTINUOUS
10
5.7275847405
20
14.4794407900
11
5.6841723057
21
14.4500087008
0
LINE
5
772
100
AcDbEntity
8
0
100
AcDbLine
62
9
6
CONTINUOUS
10
6.3574337129
20
13.5419190280
11
6.3369934134
21
13.5282319931
0
LINE
5
773
100
AcDbEntity
8
DEFAULT_3
100
AcDbLine
62
9
6
PHANTOM
10
-8.9996808670
20
5.4686472115
11
-9.0190667749
21
5.4557587372
0
LINE
5
774
100
AcDbEntity
8
0
100
AcDbLine
62
9
6
CONTINUOUS
10
5.7695348505
20
14.5057933353
11
5.7275847405
21
14.4794407900
0
LINE
5
775
100
AcDbEntity
8
0
100
AcDbLine
62
9
6
CONTINUOUS
10
6.3771369705
20
13.5542369806
11
6.3574337129
21
13.5419190280
0
LINE
5
776
100
AcDbEntity
8
DEFAULT_3
100
AcDbLine
62
9
6
PHANTOM
10
-9.0484574684
20
5.1684190898
11
-9.0461507089
21
5.1698478230
0
LINE
5
777
100
AcDbEntity
8
0
100
AcDbLine
62
0
6
CONTINUOUS
10
-8.9455108570
20
21.7791241722
11
-9.0634616420
21
21.7078364715
0
LINE
5
778
100
AcDbEntity
8
0
100
AcDbLine
62
9
6
CONTINUOUS
10
-8.6557465358
20
21.7165781201
11
-8.6150906625
21
21.7409685878
0
LINE
5
779
100
AcDbEntity
8
0
100
AcDbLine
62
9
6
CONTINUOUS
10
-8.6150906625
20
21.7409685878
11
-8.5758688086
21
21.7626524806
0
LINE
5
77A
100
AcDbEntity
8
0
100
AcDbLine
62
9
6
CONTINUOUS
10
6.2782255238
20
-23.0927281029
11
6.2085144152
21
-23.1432508713
0
LINE
5
77B
100
AcDbEntity
8
0
100
AcDbLine
62
9
6
CONTINUOUS
10
-3.2640295454
20
-11.5573310303
11
-3.2000724512
21
-11.5147476801
0
LINE
5
77C
100
AcDbEntity
8
0
100
AcDbLine
62
9
6
CONTINUOUS
10
-3.3852674085
20
-11.5096516062
11
-3.3159154589
21
-11.4643792708
0
LINE
5
77D
100
AcDbEntity
8
0
100
AcDbLine
62
9
6
CONTINUOUS
10
-1.9985949206
20
-13.7022437806
11
-2.0676431165
21
-13.7471675050
0
LINE
5
77E
100
AcDbEntity
8
DEFAULT_3
100
AcDbLine
62
9
6
PHANTOM
10
3.1637833495
20
-8.1063155876
11
3.1615341395
21
-8.1077155460
0
LINE
5
77F
100
AcDbEntity
8
DEFAULT_3
100
AcDbLine
62
9
6
PHANTOM
10
3.4655414183
20
-8.2305431445
11
3.4519276020
21
-8.2390183673
0
LINE
5
780
100
AcDbEntity
8
0
100
AcDbLine
62
9
6
CONTINUOUS
10
-8.8494806311
20
-2.2482747831
11
-8.8741290646
21
-2.2635178911
0
LINE
5
781
100
AcDbEntity
8
0
100
AcDbLine
62
9
6
CONTINUOUS
10
3.3997016244
20
-8.3728659109
11
3.3750532711
21
-8.3881089604
0
LINE
5
782
100
AcDbEntity
8
0
100
AcDbLine
62
0
6
CONTINUOUS
10
3.5568398310
20
-8.3823627531
11
3.5554288875
21
-8.3832292280
0
LINE
5
783
100
AcDbEntity
8
0
100
AcDbLine
62
9
6
CONTINUOUS
10
-2.5925405514
20
-13.5930073572
11
-2.5798928633
21
-13.5852869244
0
LINE
5
784
100
AcDbEntity
8
0
100
AcDbLine
62
9
6
CONTINUOUS
10
-3.1317986471
20
-11.8125606368
11
-3.1595086151
21
-11.8288898687
0
LINE
5
785
100
AcDbEntity
8
0
100
AcDbLine
62
9
6
CONTINUOUS
10
-2.3112177856
20
-13.4211675163
11
-2.2835078163
21
-13.4048382838
0
LINE
5
786
100
AcDbEntity
8
0
100
AcDbLine
62
9
6
CONTINUOUS
10
-2.1998311055
20
-13.4671720111
11
-2.1693294752
21
-13.4491976666
0
LINE
5
787
100
AcDbEntity
8
0
100
AcDbLine
62
9
6
CONTINUOUS
10
5.8100460148
20
14.5293181682
11
5.7695348505
21
14.5057933353
0
LINE
5
788
100
AcDbEntity
8
0
100
AcDbLine
62
9
6
CONTINUOUS
10
6.3962078156
20
13.5651573543
11
6.3771369705
21
13.5542369806
0
LINE
5
789
100
AcDbEntity
8
DEFAULT_3
100
AcDbLine
62
9
6
PHANTOM
10
-8.6559463106
20
-0.3681852364
11
-8.6405929908
21
-0.3595228377
0
LINE
5
78A
100
AcDbEntity
8
DEFAULT_3
100
AcDbLine
62
9
6
PHANTOM
10
-8.8465523481
20
5.4705742016
11
-8.8648682615
21
5.4602509973
0
LINE
5
78B
100
AcDbEntity
8
DEFAULT_3
100
AcDbLine
62
9
6
PHANTOM
10
3.3156842883
20
-0.6105441166
11
3.2973680804
21
-0.6208675033
0
LINE
5
78C
100
AcDbEntity
8
DEFAULT_3
100
AcDbLine
62
9
6
PHANTOM
10
-8.9807729858
20
5.4790596966
11
-8.9996808670
21
5.4686472115
0
LINE
5
78D
100
AcDbEntity
8
0
100
AcDbLine
62
0
6
CONTINUOUS
10
-8.9458552931
20
21.7789386603
11
-4.9551444798
21
23.9320186977
0
LINE
5
78E
100
AcDbEntity
8
0
100
AcDbLine
62
9
6
CONTINUOUS
10
-8.5758688086
20
21.7626524806
11
-4.5889572912
21
23.9136827107
0
LINE
5
78F
100
AcDbEntity
8
0
100
AcDbLine
62
0
6
CONTINUOUS
10
-9.0066539281
20
5.6620547380
11
-9.0060417550
21
5.6623827671
0
LINE
5
790
100
AcDbEntity
8
0
100
AcDbLine
62
9
6
CONTINUOUS
10
-9.0066403549
20
5.6620671636
11
-9.0159642911
21
5.6570727523
0
LINE
5
791
100
AcDbEntity
8
0
100
AcDbLine
62
9
6
CONTINUOUS
10
5.8490469798
20
14.5501945864
11
5.8100460148
21
14.5293181682
0
LINE
5
792
100
AcDbEntity
8
0
100
AcDbLine
62
9
6
CONTINUOUS
10
6.4146462481
20
13.5746801491
11
6.3962078156
21
13.5651573543
0
LINE
5
793
100
AcDbEntity
8
0
100
AcDbLine
62
9
6
CONTINUOUS
10
-9.2245350817
20
5.7788955724
11
-9.2493795455
21
5.7661876359
0
LINE
5
794
100
AcDbEntity
8
0
100
AcDbLine
62
0
6
CONTINUOUS
10
-4.9553176872
20
23.9317214543
11
-4.9335844336
21
23.9422228418
0
LINE
5
795
100
AcDbEntity
8
0
100
AcDbLine
62
0
6
CONTINUOUS
10
10.3775642412
20
-21.2120095295
11
10.3272246403
21
-21.2412300723
0
LINE
5
796
100
AcDbEntity
8
0
100
AcDbLine
62
0
6
CONTINUOUS
10
-3.1300104092
20
-11.7118650835
11
-3.0981580490
21
-11.6939553409
0
LINE
5
797
100
AcDbEntity
8
0
100
AcDbLine
62
9
6
CONTINUOUS
10
-3.2000724512
20
-11.5147476801
11
-3.1888041181
21
-11.5088720425
0
LINE
5
798
100
AcDbEntity
8
0
100
AcDbLine
62
9
6
CONTINUOUS
10
3.3997016244
20
-8.3728659109
11
3.5874227937
21
-8.2753286234
0
LINE
5
799
100
AcDbEntity
8
DEFAULT_3
100
AcDbLine
62
9
6
PHANTOM
10
3.4519276020
20
-8.2390183673
11
3.4500175044
21
-8.2400031501
0
LINE
5
79A
100
AcDbEntity
8
0
100
AcDbLine
62
9
6
CONTINUOUS
10
3.5554112460
20
-8.3832439304
11
3.5560050850
21
-8.3829383113
0
LINE
5
79B
100
AcDbEntity
8
0
100
AcDbLine
62
9
6
CONTINUOUS
10
3.4919661943
20
-8.6407394545
11
3.5161837992
21
-8.6283449474
0
LINE
5
79C
100
AcDbEntity
8
0
100
AcDbLine
62
9
6
CONTINUOUS
10
-2.2091553989
20
-13.4719214491
11
-2.1998311055
21
-13.4671720111
0
LINE
5
79D
100
AcDbEntity
8
0
100
AcDbLine
62
0
6
CONTINUOUS
10
-3.0981580526
20
-11.6939553428
11
-2.7622653263
21
-11.5232188951
0
LINE
5
79E
100
AcDbEntity
8
0
100
AcDbLine
62
9
6
CONTINUOUS
10
9.9776147145
20
16.6303967079
11
5.8490469798
21
14.5501945864
0
LINE
5
79F
100
AcDbEntity
8
0
100
AcDbLine
62
9
6
CONTINUOUS
10
10.5432139828
20
15.6548822706
11
6.4146462481
21
13.5746801491
0
LINE
5
7A0
100
AcDbEntity
8
0
100
AcDbLine
62
0
6
CONTINUOUS
10
-3.1888041181
20
-11.5088720425
11
-3.1887340529
21
-11.5088368560
0
LINE
5
7A1
100
AcDbEntity
8
0
100
AcDbLine
62
0
6
CONTINUOUS
10
-8.7660463469
20
4.5431782825
11
-8.3011817358
21
4.7765144479
0
LINE
5
7A2
100
AcDbEntity
8
0
100
AcDbLine
62
9
6
CONTINUOUS
10
-8.1740872234
20
-1.3582083939
11
-9.1028290580
21
-1.8243851111
0
LINE
5
7A3
100
AcDbEntity
8
0
100
AcDbLine
62
9
6
CONTINUOUS
10
-7.9122824297
20
-1.7778534404
11
-8.8494806311
21
-2.2482747831
0
LINE
5
7A4
100
AcDbEntity
8
DEFAULT_3
100
AcDbLine
62
9
6
PHANTOM
10
-8.9808296678
20
5.4790381173
11
-8.7909504912
21
5.5739777056
0
LINE
5
7A5
100
AcDbEntity
8
DEFAULT_3
100
AcDbLine
62
9
6
PHANTOM
10
-8.8465523481
20
5.4705742016
11
-8.7153479157
21
5.5361764178
0
LINE
5
7A6
100
AcDbEntity
8
DEFAULT_3
100
AcDbLine
62
9
6
PHANTOM
10
-8.4779584311
20
4.5679650888
11
-8.6475280262
21
4.4831802912
0
LINE
5
7A7
100
AcDbEntity
8
DEFAULT_3
100
AcDbLine
62
9
6
PHANTOM
10
-8.4779584311
20
-0.4549822532
11
-8.6475280262
21
-0.5397670507
0
LINE
5
7A8
100
AcDbEntity
8
DEFAULT_3
100
AcDbLine
62
9
6
PHANTOM
10
3.4164705564
20
-0.5601509825
11
3.3156842883
21
-0.6105441166
0
LINE
5
7A9
100
AcDbEntity
8
DEFAULT_3
100
AcDbLine
62
9
6
PHANTOM
10
3.5837354619
20
-0.9484581853
11
3.5273297352
21
-0.9766610486
0
LINE
5
7AA
100
AcDbEntity
8
DEFAULT_3
100
AcDbLine
62
9
6
PHANTOM
10
3.5273297352
20
-8.0780693597
11
3.5818132026
21
-8.0508276259
0
LINE
5
7AB
100
AcDbEntity
8
DEFAULT_3
100
AcDbLine
62
9
6
PHANTOM
10
3.4497384165
20
-8.2401431813
11
3.5830846694
21
-8.1734700548
0
LINE
5
7AC
100
AcDbEntity
8
0
100
AcDbLine
62
0
6
CONTINUOUS
10
-8.3011817358
20
0.0833307320
11
-8.7660463469
21
-0.1481817991
0
LINE
5
7AD
100
AcDbEntity
8
0
100
AcDbLine
62
0
6
CONTINUOUS
10
-9.0059151478
20
5.6624176351
11
-9.0066403549
21
5.6620671636
0
LINE
5
7AE
100
AcDbEntity
8
0
100
AcDbLine
62
9
6
CONTINUOUS
10
-9.1028290580
20
5.4702363453
11
-8.8380522315
21
5.5975285758
0
LINE
5
7AF
100
AcDbEntity
8
0
100
AcDbLine
62
0
6
CONTINUOUS
10
-8.7660463469
20
-0.5663715998
11
-8.3011817358
21
-0.3428865842
0
LINE
5
7B0
100
AcDbEntity
8
DEFAULT_3
100
AcDbLine
62
9
6
PHANTOM
10
-8.4779584311
20
4.5679650888
11
-8.4659234480
21
4.5735906638
0
LINE
5
7B1
100
AcDbEntity
8
DEFAULT_3
100
AcDbLine
62
9
6
PHANTOM
10
-8.4659234480
20
-0.4493566781
11
-8.4779584311
21
-0.4549822532
0
LINE
5
7B2
100
AcDbEntity
8
DEFAULT_3
100
AcDbLine
62
9
6
PHANTOM
10
-8.6405929908
20
-0.3595228377
11
-8.6232681934
21
-0.3518461778
0
LINE
5
7B3
100
AcDbEntity
8
DEFAULT_3
100
AcDbLine
62
9
6
PHANTOM
10
-9.0461507089
20
5.1698478230
11
-9.0436557818
21
5.1709465500
0
LINE
5
7B4
100
AcDbEntity
8
DEFAULT_3
100
AcDbLine
62
9
6
PHANTOM
10
-8.9807450072
20
5.4790804063
11
-8.9683181952
21
5.4843800574
0
LINE
5
7B5
100
AcDbEntity
8
0
100
AcDbLine
62
9
6
CONTINUOUS
10
6.2085144152
20
-23.1432508713
11
6.1943425199
21
-23.1502577984
0
LINE
5
7B6
100
AcDbEntity
8
0
100
AcDbLine
62
0
6
CONTINUOUS
10
-2.2091711310
20
-13.4719291858
11
-1.8244361410
21
-13.2827363859
0
LINE
5
7B7
100
AcDbEntity
8
0
100
AcDbLine
62
9
6
CONTINUOUS
10
5.9209811710
20
-22.3850710770
11
5.8141189224
21
-22.4364800377
0
LINE
5
7B8
100
AcDbEntity
8
0
100
AcDbLine
62
9
6
CONTINUOUS
10
-3.1026349064
20
-11.7989159608
11
-3.1317986471
21
-11.8125606368
0
LINE
5
7B9
100
AcDbEntity
8
0
100
AcDbLine
62
9
6
CONTINUOUS
10
-2.3403815217
20
-13.4348121900
11
-2.3112177856
21
-13.4211675163
0
LINE
5
7BA
100
AcDbEntity
8
DEFAULT_3
100
AcDbLine
62
9
6
PHANTOM
10
3.5273297352
20
-8.0780693597
11
3.5078845132
21
-8.0871330865
0
LINE
5
7BB
100
AcDbEntity
8
0
100
AcDbLine
62
9
6
CONTINUOUS
10
3.5466986917
20
-8.3872875657
11
3.5554112460
21
-8.3832439304
0
LINE
5
7BC
100
AcDbEntity
8
0
100
AcDbLine
62
9
6
CONTINUOUS
10
6.4146462481
20
-22.7117076644
11
10.5432139828
21
-20.8049982685
0
LINE
5
7BD
100
AcDbEntity
8
0
100
AcDbLine
62
0
6
CONTINUOUS
10
6.1943425199
20
-23.1502577984
11
10.3267399991
21
-21.2417796996
0
LINE
5
7BE
100
AcDbEntity
8
0
100
AcDbLine
62
9
6
CONTINUOUS
10
-3.0709802592
20
-11.6814852634
11
-3.0981580513
21
-11.6939553422
0
LINE
5
7BF
100
AcDbEntity
8
0
100
AcDbLine
62
0
6
CONTINUOUS
10
-2.2091711278
20
-13.4719291842
11
-2.2365125798
21
-13.4842246390
0
LINE
5
7C0
100
AcDbEntity
8
0
100
AcDbLine
62
0
6
CONTINUOUS
10
-3.1886705219
20
-11.5088445837
11
-3.1577358389
21
-11.4950802791
0
LINE
5
7C1
100
AcDbEntity
8
DEFAULT_3
100
AcDbLine
62
9
6
PHANTOM
10
3.4260956919
20
-8.2505656744
11
3.4500452003
21
-8.2399827179
0
LINE
5
7C2
100
AcDbEntity
8
DEFAULT_3
100
AcDbLine
62
9
6
PHANTOM
10
3.1615341395
20
-8.1077155460
11
3.1590915390
21
-8.1087881097
0
LINE
5
7C3
100
AcDbEntity
8
DEFAULT_3
100
AcDbLine
62
9
6
PHANTOM
10
3.5273297352
20
-0.9766610486
11
3.5078848662
21
-0.9851055330
0
LINE
5
7C4
100
AcDbEntity
8
0
100
AcDbLine
62
9
6
CONTINUOUS
10
-9.1028290566
20
-1.8243851119
11
-9.1295674809
21
-1.8358367445
0
LINE
5
7C5
100
AcDbEntity
8
DEFAULT_3
100
AcDbLine
62
9
6
PHANTOM
10
-8.4659234480
20
4.5735906638
11
-8.4532954023
21
4.5787724485
0
LINE
5
7C6
100
AcDbEntity
8
DEFAULT_3
100
AcDbLine
62
9
6
PHANTOM
10
-8.4532954023
20
-0.4441748935
11
-8.4659234480
21
-0.4493566781
0
LINE
5
7C7
100
AcDbEntity
8
0
100
AcDbLine
62
9
6
CONTINUOUS
10
-9.1028290580
20
5.4702363453
11
-9.1295674825
21
5.4596251264
0
LINE
5
7C8
100
AcDbEntity
8
0
100
AcDbLine
62
9
6
CONTINUOUS
10
-8.9455108698
20
21.7791241963
11
-8.8622304654
21
21.8093450657
0
LINE
5
7C9
100
AcDbEntity
8
DEFAULT_3
100
AcDbLine
62
9
6
PHANTOM
10
-8.4532954023
20
4.5787724485
11
-8.4400742941
21
4.5835104427
0
LINE
5
7CA
100
AcDbEntity
8
DEFAULT_3
100
AcDbLine
62
9
6
PHANTOM
10
-8.4400742941
20
-0.4394368993
11
-8.4532954023
21
-0.4441748935
0
LINE
5
7CB
100
AcDbEntity
8
0
100
AcDbLine
62
9
6
CONTINUOUS
10
-9.1986013989
20
5.7878822253
11
-9.2245350817
21
5.7788955724
0
LINE
5
7CC
100
AcDbEntity
8
0
100
AcDbLine
62
0
6
CONTINUOUS
10
-9.0060417550
20
5.6623827671
11
-9.0033145489
21
5.6633223187
0
LINE
5
7CD
100
AcDbEntity
8
0
100
AcDbLine
62
9
6
CONTINUOUS
10
5.9209811710
20
12.7713167383
11
5.8141189222
21
12.7360542010
0
LINE
5
7CE
100
AcDbEntity
8
0
100
AcDbLine
62
0
6
CONTINUOUS
10
-4.9335844336
20
23.9422228418
11
-4.8715159342
21
23.9620315535
0
LINE
5
7CF
100
AcDbEntity
8
0
100
AcDbLine
62
9
6
CONTINUOUS
10
6.3971564106
20
-22.7195980527
11
6.4146462481
21
-22.7117076644
0
LINE
5
7D0
100
AcDbEntity
8
0
100
AcDbLine
62
9
6
CONTINUOUS
10
-2.0524820085
20
-13.6239912221
11
-2.1167875501
21
-13.6498376665
0
LINE
5
7D1
100
AcDbEntity
8
0
100
AcDbLine
62
0
6
CONTINUOUS
10
6.0680358789
20
-23.2009325517
11
6.1926696237
21
-23.1510239004
0
LINE
5
7D2
100
AcDbEntity
8
0
100
AcDbLine
62
9
6
CONTINUOUS
10
6.3789700991
20
-22.7268048684
11
6.3971564106
21
-22.7195980527
0
LINE
5
7D3
100
AcDbEntity
8
0
100
AcDbLine
62
9
6
CONTINUOUS
10
-3.3159154589
20
-11.4643792708
11
-3.2338611699
21
-11.4320642588
0
LINE
5
7D4
100
AcDbEntity
8
0
100
AcDbLine
62
9
6
CONTINUOUS
10
-2.0676431165
20
-13.7471675050
11
-2.1493160345
21
-13.7790580360
0
LINE
5
7D5
100
AcDbEntity
8
DEFAULT_3
100
AcDbLine
62
9
6
PHANTOM
10
3.5078845132
20
-8.0871330865
11
3.4867155234
21
-8.0951290554
0
LINE
5
7D6
100
AcDbEntity
8
0
100
AcDbLine
62
0
6
CONTINUOUS
10
-2.2365125798
20
-13.4842246390
11
-2.2648488450
21
-13.4946894681
0
LINE
5
7D7
100
AcDbEntity
8
0
100
AcDbLine
62
9
6
CONTINUOUS
10
-3.0374099839
20
-11.6695033227
11
-3.0709802592
21
-11.6814852634
0
LINE
5
7D8
100
AcDbEntity
8
0
100
AcDbLine
62
9
6
CONTINUOUS
10
-3.0721371706
20
-11.7880306222
11
-3.1026349064
21
-11.7989159608
0
LINE
5
7D9
100
AcDbEntity
8
0
100
AcDbLine
62
9
6
CONTINUOUS
10
-2.3708792512
20
-13.4456975255
11
-2.3403815217
21
-13.4348121900
0
LINE
5
7DA
100
AcDbEntity
8
DEFAULT_3
100
AcDbLine
62
9
6
PHANTOM
10
-8.6232681934
20
-0.3518461778
11
-8.6040481179
21
-0.3451171569
0
LINE
5
7DB
100
AcDbEntity
8
DEFAULT_3
100
AcDbLine
62
9
6
PHANTOM
10
3.5078848662
20
-0.9851055330
11
3.4867162369
21
-0.9924890965
0
LINE
5
7DC
100
AcDbEntity
8
0
100
AcDbLine
62
9
6
CONTINUOUS
10
3.4665832590
20
-8.6494507336
11
3.4919661943
21
-8.6407394545
0
LINE
5
7DD
100
AcDbEntity
8
0
100
AcDbLine
62
9
6
CONTINUOUS
10
3.5306045389
20
-8.3927990652
11
3.5466986917
21
-8.3872875657
0
LINE
5
7DE
100
AcDbEntity
8
DEFAULT_3
100
AcDbLine
62
9
6
PHANTOM
10
3.4014411323
20
-8.2587117432
11
3.4260956919
21
-8.2505656744
0
LINE
5
7DF
100
AcDbEntity
8
DEFAULT_3
100
AcDbLine
62
9
6
PHANTOM
10
-8.4400742941
20
4.5835104427
11
-8.4261986053
21
4.5878210875
0
LINE
5
7E0
100
AcDbEntity
8
DEFAULT_3
100
AcDbLine
62
9
6
PHANTOM
10
-8.4261986053
20
-0.4351262545
11
-8.4400742941
21
-0.4394368993
0
LINE
5
7E1
100
AcDbEntity
8
0
100
AcDbLine
62
9
6
CONTINUOUS
10
-9.1295674809
20
-1.8358367445
11
-9.1597147335
21
-1.8448010452
0
LINE
5
7E2
100
AcDbEntity
8
0
100
AcDbLine
62
9
6
CONTINUOUS
10
6.3600873137
20
-22.7333281116
11
6.3789700991
21
-22.7268048684
0
LINE
5
7E3
100
AcDbEntity
8
0
100
AcDbLine
62
9
6
CONTINUOUS
10
5.8141189224
20
-22.4364800377
11
5.6939181113
21
-22.4778108889
0
LINE
5
7E4
100
AcDbEntity
8
0
100
AcDbLine
62
9
6
CONTINUOUS
10
6.3404068120
20
-22.7393013693
11
6.3600873137
21
-22.7333281116
0
LINE
5
7E5
100
AcDbEntity
8
DEFAULT_3
100
AcDbLine
62
9
6
PHANTOM
10
3.4867155234
20
-8.0951290554
11
3.4640547153
21
-8.1019696653
0
LINE
5
7E6
100
AcDbEntity
8
0
100
AcDbLine
62
0
6
CONTINUOUS
10
-2.2648488450
20
-13.4946894681
11
-2.2941165475
21
-13.5032673350
0
LINE
5
7E7
100
AcDbEntity
8
0
100
AcDbLine
62
0
6
CONTINUOUS
10
-3.1577358389
20
-11.4950802791
11
-3.0910508681
21
-11.4760407921
0
ENDSEC
0
SECTION
2
OBJECTS
0
DICTIONARY
5
C
100
AcDbDictionary
280
0
281
1
3
ACAD_GROUP
350
D
3
ACAD_MLINESTYLE
350
17
3
ACAD_LAYOUT
350
1A
3
ACAD_PLOTSETTINGS
350
19
3
ACAD_PLOTSTYLENAME
350
E
0
DICTIONARY
5
D
102
{ACAD_REACTORS
330
C
102
}
100
AcDbDictionary
280
0
281
1
0
ACDBDICTIONARYWDFLT
5
E
102
{ACAD_REACTORS
330
C
102
}
100
AcDbDictionary
281
1
3
Normal
350
F
100
AcDbDictionaryWithDefault
340
F
0
DICTIONARY
5
17
102
{ACAD_REACTORS
330
C
102
}
100
AcDbDictionary
280
0
281
1
3
Standard
350
18
0
DICTIONARY
5
19
102
{ACAD_REACTORS
330
C
102
}
100
AcDbDictionary
281
1
0
DICTIONARY
5
1A
102
{ACAD_REACTORS
330
C
102
}
100
AcDbDictionary
281
1
3
Layout1
350
1E
3
Model
350
22
0
ACDBPLACEHOLDER
5
F
102
{ACAD_REACTORS
330
E
102
}
0
MLINESTYLE
5
18
102
{ACAD_REACTORS
330
17
102
}
100
AcDbMlineStyle
2
STANDARD
70
0
3

62
256
51
90.0
52
90.0
71
2
49
0.5
62
256
6
BYLAYER
49
-0.5
62
256
6
BYLAYER
0
LAYOUT
5
1E
102
{ACAD_REACTORS
330
1A
102
}
100
AcDbPlotSettings
1

2

4

6

40
0.0
41
0.0
42
0.0
43
0.0
44
0.0
45
0.0
46
0.0
47
0.0
48
0.0
49
0.0
140
0.0
141
0.0
142
1.0
143
1.0
70
0
72
0
73
0
74
0
7

75
0
147
1.0
148
0.0
149
0.0
100
AcDbLayout
1
Layout1
70
0
71
0
10
0.0
20
0.0
11
0.0
21
0.0
12
0.0
22
0.0
32
0.0
14
0.0
24
0.0
34
0.0
15
0.0
25
0.0
35
0.0
146
0.0
13
0.0
23
0.0
33
0.0
16
0.0
26
0.0
36
0.0
17
0.0
27
0.0
37
0.0
76
0
330
1B
331
0
345
0
346
0
0
LAYOUT
5
22
102
{ACAD_REACTORS
330
1A
102
}
100
AcDbPlotSettings
1

2

4

6

40
0.0
41
0.0
42
0.0
43
0.0
44
0.0
45
0.0
46
0.0
47
0.0
48
0.0
49
0.0
140
0.0
141
0.0
142
1.0
143
1.0
70
0
72
0
73
0
74
0
7

75
0
147
1.0
148
0.0
149
0.0
100
AcDbLayout
1
Model
70
0
71
0
10
0.0
20
0.0
11
0.0
21
0.0
12
0.0
22
0.0
32
0.0
14
0.0
24
0.0
34
0.0
15
0.0
25
0.0
35
0.0
146
0.0
13
0.0
23
0.0
33
0.0
16
0.0
26
0.0
36
0.0
17
0.0
27
0.0
37
0.0
76
0
330
1F
331
0
345
0
346
0
0
ENDSEC
0
EOF
