0
SECTION
2
HEADER
9
$ACADVER
1
AC1014
9
$HANDSEED
5
       34D
9
$EXTMAX
10
297.0000000000
20
210.0000000000
9
$EXTMIN
10
0.0000000000
20
0.0000000000
9
$LIMMIN
10
0.0000000000
20
0.0000000000
9
$LIMMAX
10
297.0000000000
20
210.0000000000
9
$VIEWCTR
10
148.5000000000
20
105.0000000000
9
$VIEWSIZE
40
210.0000000000
9
$CLAYER
8
0
9
$LTSCALE
40
16.3350000000
9
$CELTYPE
6
BYLAYER
9
$DIMSCALE
40
1
9
$DIMASZ
40
3.0000000000
9
$DIMEXO
40
1.8562500000
9
$DIMDLI
40
11.2860000000
9
$DIMEXE
40
5.3460000000
9
$DIMCEN
40
2.6730000000
9
$DIMLFAC
40
1.0000000000
9
$DIMTXT
40
3.0000000000
9
$DIMTOL
70
1
9
$DIMLIM
70
0
9
$DIMTFAC
40
1.0000000000
9
$DIMTP
40
0.0100000000
9
$DIMTM
40
0.0100000000
9
$MEASUREMENT
70
1
0
ENDSEC
0
SECTION
2
CLASSES
0
ENDSEC
0
SECTION
2
TABLES
0
TABLE
2
VPORT
5
8
100
AcDbSymbolTable
70
2
0
VPORT
5
1F4
100
AcDbSymbolTableRecord
100
AcDbViewportTableRecord
2
*ACTIVE
70
0
10
0.0
20
0.0
11
1.0
21
1.0
12
148.5000000000
22
105.0000000000
13
0.0
23
0.0
14
1.0
24
1.0
15
0.0
25
0.0
16
0.0
26
0.0
36
1.0
17
0.0
27
0.0
37
0.0
40
210.0000000000
41
1.4142857143
42
50.0
43
0.0
44
0.0
50
0.0
51
0.0
71
0
72
100
73
1
74
1
75
0
76
0
77
0
78
0
0
ENDTAB
0
TABLE
2
LTYPE
5
5
100
AcDbSymbolTable
70
6
0
LTYPE
5
14
100
AcDbSymbolTableRecord
100
AcDbLinetypeTableRecord
2
BYBLOCK
70
0
3

72
65
73
0
40
0.0
0
LTYPE
5
15
100
AcDbSymbolTableRecord
100
AcDbLinetypeTableRecord
2
BYLAYER
70
0
3

72
65
73
0
40
0.0
0
LTYPE
5
16
100
AcDbSymbolTableRecord
100
AcDbLinetypeTableRecord
2
CONTINUOUS
70
64
3
Solid line
72
65
73
0
40
0
0
LTYPE
5
1F5
100
AcDbSymbolTableRecord
100
AcDbLinetypeTableRecord
2
CENTER
70
64
3
____ _ ____ _ ____ _ ____ _ ____ _ ____ _ ____
72
65
73
4
40
0.6
49
0.375
74
0
49
-0.075
74
0
49
0.075
74
0
49
-0.075
74
0
0
LTYPE
5
1F6
100
AcDbSymbolTableRecord
100
AcDbLinetypeTableRecord
2
HIDDEN
70
64
3
- - - - - - - - - - - - - - - - - - - -
72
65
73
2
40
0.2
49
0.1
74
0
49
-0.1
74
0
0
LTYPE
5
1F7
100
AcDbSymbolTableRecord
100
AcDbLinetypeTableRecord
2
PHANTOM
70
64
3
_____ _ _ _____ _ _ _____ _ _ _____
72
65
73
6
40
0.8
49
0.45
74
0
49
-0.05
74
0
49
0.1
74
0
49
-0.05
74
0
49
0.1
74
0
49
-0.05
74
0
0
LTYPE
5
1F8
100
AcDbSymbolTableRecord
100
AcDbLinetypeTableRecord
2
DOT
70
64
3
. . . . . . . . . . . . . . . . . . . .
72
65
73
2
40
0.2
49
0.1
74
0
49
-0.1
74
0
0
LTYPE
5
1F9
100
AcDbSymbolTableRecord
100
AcDbLinetypeTableRecord
2
DASHED
70
64
3
- - - - - - - - - - - - - - - - - - - -
72
65
73
2
40
0.2
49
0.1
74
0
49
-0.1
74
0
0
ENDTAB
0
TABLE
2
LAYER
5
2
100
AcDbSymbolTable
70
36
0
LAYER
5
10
100
AcDbSymbolTableRecord
100
AcDbLayerTableRecord
2
0
70
0
62
7
6
CONTINUOUS
0
LAYER
5
1FA
100
AcDbSymbolTableRecord
100
AcDbLayerTableRecord
2
DEFAULT_1
70
0
62
7
6
CENTER
0
LAYER
5
1FB
100
AcDbSymbolTableRecord
100
AcDbLayerTableRecord
2
DEFAULT_2
70
0
62
8
6
HIDDEN
0
LAYER
5
1FC
100
AcDbSymbolTableRecord
100
AcDbLayerTableRecord
2
DEFAULT_3
70
0
62
7
6
PHANTOM
0
LAYER
5
1FD
100
AcDbSymbolTableRecord
100
AcDbLayerTableRecord
2
ASSI
70
0
62
7
6
CONTINUOUS
0
LAYER
5
1FE
100
AcDbSymbolTableRecord
100
AcDbLayerTableRecord
2
COORDINATE
70
0
62
7
6
CONTINUOUS
0
LAYER
5
1FF
100
AcDbSymbolTableRecord
100
AcDbLayerTableRecord
2
COORD_ORIGINE
70
0
62
7
6
CONTINUOUS
0
LAYER
5
200
100
AcDbSymbolTableRecord
100
AcDbLayerTableRecord
2
CURVE
70
0
62
7
6
CONTINUOUS
0
LAYER
5
201
100
AcDbSymbolTableRecord
100
AcDbLayerTableRecord
2
DRAFT
70
0
62
7
6
CONTINUOUS
0
LAYER
5
202
100
AcDbSymbolTableRecord
100
AcDbLayerTableRecord
2
IGES-IMPORTATI
70
0
62
7
6
CONTINUOUS
0
LAYER
5
203
100
AcDbSymbolTableRecord
100
AcDbLayerTableRecord
2
INTF_1
70
0
62
7
6
CONTINUOUS
0
LAYER
5
204
100
AcDbSymbolTableRecord
100
AcDbLayerTableRecord
2
NOTE
70
0
62
7
6
CONTINUOUS
0
LAYER
5
205
100
AcDbSymbolTableRecord
100
AcDbLayerTableRecord
2
PIANI
70
0
62
7
6
CONTINUOUS
0
LAYER
5
206
100
AcDbSymbolTableRecord
100
AcDbLayerTableRecord
2
PIANI_ORIGINE
70
0
62
7
6
CONTINUOUS
0
LAYER
5
207
100
AcDbSymbolTableRecord
100
AcDbLayerTableRecord
2
PIANI_RIFERIMENTO
70
0
62
7
6
CONTINUOUS
0
LAYER
5
208
100
AcDbSymbolTableRecord
100
AcDbLayerTableRecord
2
PUNTI
70
0
62
7
6
CONTINUOUS
0
LAYER
5
209
100
AcDbSymbolTableRecord
100
AcDbLayerTableRecord
2
RACCORDO
70
0
62
7
6
CONTINUOUS
0
LAYER
5
20A
100
AcDbSymbolTableRecord
100
AcDbLayerTableRecord
2
RGB____0____0____0__
70
0
62
7
6
CONTINUOUS
0
LAYER
5
20B
100
AcDbSymbolTableRecord
100
AcDbLayerTableRecord
2
SMUSSO
70
0
62
7
6
CONTINUOUS
0
LAYER
5
20C
100
AcDbSymbolTableRecord
100
AcDbLayerTableRecord
2
SUPERFICI
70
0
62
7
6
CONTINUOUS
0
LAYER
5
20D
100
AcDbSymbolTableRecord
100
AcDbLayerTableRecord
2
TRASH
70
0
62
7
6
CONTINUOUS
0
ENDTAB
0
TABLE
2
STYLE
5
3
100
AcDbSymbolTable
70
1
0
STYLE
5
11
100
AcDbSymbolTableRecord
100
AcDbTextStyleTableRecord
2
STANDARD
70
0
40
0.0
41
0.8000000000
50
0.0
71
0
42
0.2
3
txt
4

0
ENDTAB
0
TABLE
2
VIEW
5
6
100
AcDbSymbolTable
70
0
0
ENDTAB
0
TABLE
2
UCS
5
7
100
AcDbSymbolTable
70
0
0
ENDTAB
0
TABLE
2
APPID
5
9
100
AcDbSymbolTable
70
1
0
APPID
5
20E
100
AcDbSymbolTableRecord
100
AcDbRegAppTableRecord
2
ACAD
70
0
0
ENDTAB
0
TABLE
2
DIMSTYLE
5
A
100
AcDbSymbolTable
70
1
0
DIMSTYLE
105
20F
100
AcDbSymbolTableRecord
100
AcDbDimStyleTableRecord
2
STANDARD
70
0
3

4

5

6

7

40
1.0
41
3.0000000000
42
0.0625
43
0.38
44
0.18
45
0.0
46
0.0
47
0.0100000000
48
0.0100000000
140
3.0000000000
141
0.09
142
0.0
143
25.4
144
1.0000000000
145
0.0
146
1.0000000000
147
0.09
71
1
72
0
73
0
74
0
75
0
76
0
77
1
78
8
170
0
171
2
172
0
173
0
174
0
175
0
176
0
177
0
178
0
270
2
271
2
272
2
273
2
274
2
340
11
275
0
280
0
281
0
282
0
283
1
284
8
285
0
286
0
287
3
288
0
0
ENDTAB
0
TABLE
2
BLOCK_RECORD
5
1
100
AcDbSymbolTable
70
0
0
BLOCK_RECORD
5
1B
100
AcDbSymbolTableRecord
100
AcDbBlockTableRecord
2
*MODEL_SPACE
0
BLOCK_RECORD
5
1C
100
AcDbSymbolTableRecord
100
AcDbBlockTableRecord
2
*PAPER_SPACE
0
ENDTAB
0
ENDSEC
0
SECTION
2
BLOCKS
0
BLOCK
5
1E
100
AcDbEntity
8
0
100
AcDbBlockBegin
2
*MODEL_SPACE
70
0
10
0.0
20
0.0
30
0.0
3
*MODEL_SPACE
1

0
ENDBLK
5
1F
100
AcDbEntity
8
0
100
AcDbBlockEnd
0
BLOCK
5
20
100
AcDbEntity
8
0
100
AcDbBlockBegin
2
*PAPER_SPACE
70
0
10
0.0
20
0.0
30
0.0
3
*PAPER_SPACE
1

0
ENDBLK
5
21
100
AcDbEntity
8
0
100
AcDbBlockEnd
0
ENDSEC
0
SECTION
2
ENTITIES
0
LINE
5
210
100
AcDbEntity
8
0
100
AcDbLine
62
7
6
CONTINUOUS
10
-6.9746926515
20
26.2079541142
11
-8.5578643465
21
25.3957570669
0
LINE
5
211
100
AcDbEntity
8
0
100
AcDbLine
62
9
6
CONTINUOUS
10
-6.8620220772
20
26.2012931891
11
-8.4447786803
21
25.3893090918
0
LINE
5
212
100
AcDbEntity
8
0
100
AcDbLine
62
7
6
CONTINUOUS
10
-6.9729542660
20
26.2088233470
11
-6.9746906778
21
26.2079551267
0
LINE
5
213
100
AcDbEntity
8
0
100
AcDbLine
62
7
6
CONTINUOUS
10
-6.4380843096
20
26.4693754467
11
-6.9729515004
21
26.2088246942
0
LINE
5
214
100
AcDbEntity
8
0
100
AcDbLine
62
9
6
CONTINUOUS
10
-6.3275721985
20
26.4616406557
11
-6.8620220772
21
26.2012931891
0
LINE
5
215
100
AcDbEntity
8
0
100
AcDbLine
62
7
6
CONTINUOUS
10
-12.5797321136
20
21.3719108026
11
-7.9907572867
21
24.0477034445
0
LINE
5
216
100
AcDbEntity
8
0
100
AcDbLine
62
9
6
CONTINUOUS
10
-7.9907572867
20
23.9028692681
11
-12.3463780660
21
21.3631434095
0
LINE
5
217
100
AcDbEntity
8
0
100
AcDbLine
62
9
6
CONTINUOUS
10
-5.5185132097
20
25.5295387554
11
-7.1197940005
21
24.7268167519
0
LINE
5
218
100
AcDbEntity
8
0
100
AcDbLine
62
9
6
CONTINUOUS
10
-5.3417395060
20
25.2246492165
11
-6.9430202968
21
24.4219272130
0
LINE
5
219
100
AcDbEntity
8
0
100
AcDbLine
62
9
6
CONTINUOUS
10
-4.9902460379
20
25.7929775754
11
-5.5185132097
21
25.5295387554
0
LINE
5
21A
100
AcDbEntity
8
0
100
AcDbLine
62
9
6
CONTINUOUS
10
-4.8134723343
20
25.4880880366
11
-5.3417395060
21
25.2246492165
0
LINE
5
21B
100
AcDbEntity
8
0
100
AcDbLine
62
7
6
CONTINUOUS
10
-5.3417395060
20
23.6224985556
11
-6.2317996887
21
23.1258176343
0
LINE
5
21C
100
AcDbEntity
8
0
100
AcDbLine
62
7
6
CONTINUOUS
10
-2.9729197876
20
23.2923801423
11
-2.6193783984
21
23.4737535671
0
LINE
5
21D
100
AcDbEntity
8
0
100
AcDbLine
62
7
6
CONTINUOUS
10
2.3808435556
20
26.7628025846
11
-3.9336967710
21
23.6180262801
0
LINE
5
21E
100
AcDbEntity
8
0
100
AcDbLine
62
7
6
CONTINUOUS
10
-2.6193783984
20
23.4737535671
11
2.7168450075
21
26.0731970326
0
LINE
5
21F
100
AcDbEntity
8
0
100
AcDbLine
62
7
6
CONTINUOUS
10
3.3223754422
20
25.7704318152
11
-1.2758755142
21
23.5040705177
0
LINE
5
220
100
AcDbEntity
8
0
100
AcDbLine
62
7
6
CONTINUOUS
10
-0.0477946911
20
22.8900301062
11
3.3712514737
21
24.5630097853
0
LINE
5
221
100
AcDbEntity
8
0
100
AcDbLine
62
7
6
CONTINUOUS
10
5.4478094995
20
25.2293196126
11
0.3057586995
21
22.7132534109
0
LINE
5
222
100
AcDbEntity
8
0
100
AcDbLine
62
9
6
CONTINUOUS
10
8.5508458302
20
-22.8412067018
11
8.0225786584
21
-22.7327044247
0
LINE
5
223
100
AcDbEntity
8
0
100
AcDbLine
62
9
6
CONTINUOUS
10
8.4614320348
20
-22.5216398958
11
8.0225786584
21
-22.4315025691
0
LINE
5
224
100
AcDbEntity
8
0
100
AcDbLine
62
7
6
CONTINUOUS
10
1.8793707925
20
-24.1769233056
11
-12.9545279216
21
-16.7599739486
0
LINE
5
225
100
AcDbEntity
8
0
100
AcDbLine
62
7
6
CONTINUOUS
10
1.8792792351
20
-24.1768775168
11
1.8793704659
21
-24.1769231423
0
LINE
5
226
100
AcDbEntity
8
0
100
AcDbLine
62
9
6
CONTINUOUS
10
1.4859020016
20
-23.4163236528
11
-13.3389440760
21
-16.0039006140
0
LINE
5
227
100
AcDbEntity
8
0
100
AcDbLine
62
9
6
CONTINUOUS
10
-5.3417395060
20
24.4976043641
11
-4.8134723343
21
25.1405565198
0
LINE
5
228
100
AcDbEntity
8
0
100
AcDbLine
62
7
6
CONTINUOUS
10
-5.3417395060
20
24.4080738977
11
-4.7981117619
21
25.0697213533
0
LINE
5
229
100
AcDbEntity
8
0
100
AcDbLine
62
7
6
CONTINUOUS
10
4.7888137482
20
24.3692467988
11
0.8912928359
21
22.4204863427
0
LINE
5
22A
100
AcDbEntity
8
0
100
AcDbLine
62
7
6
CONTINUOUS
10
4.8087645245
20
-23.7119972632
11
6.1337492044
21
-24.3744896031
0
LINE
5
22B
100
AcDbEntity
8
0
100
AcDbLine
62
9
6
CONTINUOUS
10
4.7437912281
20
-23.5767788130
11
6.0687759079
21
-24.2392711530
0
LINE
5
22C
100
AcDbEntity
8
0
100
AcDbLine
62
7
6
CONTINUOUS
10
6.0687759079
20
-23.7742972188
11
4.9822776477
21
-23.2310480887
0
LINE
5
22D
100
AcDbEntity
8
0
100
AcDbLine
62
7
6
CONTINUOUS
10
3.2454821267
20
20.1831791851
11
3.6031612760
21
20.3624837299
0
LINE
5
22E
100
AcDbEntity
8
0
100
AcDbLine
62
7
6
CONTINUOUS
10
3.6031612760
20
20.3624837299
11
8.8776533451
21
22.9927928638
0
LINE
5
22F
100
AcDbEntity
8
0
100
AcDbLine
62
7
6
CONTINUOUS
10
8.2721229105
20
23.2955580811
11
3.6738719541
21
21.0291967836
0
LINE
5
230
100
AcDbEntity
8
0
100
AcDbLine
62
7
6
CONTINUOUS
10
9.6904501866
20
23.1079992691
11
9.0515894101
21
22.7953971440
0
LINE
5
231
100
AcDbEntity
8
0
100
AcDbLine
62
7
6
CONTINUOUS
10
6.7799965160
20
-22.9228007417
11
6.2946934878
21
-22.6801492276
0
LINE
5
232
100
AcDbEntity
8
0
100
AcDbLine
62
9
6
CONTINUOUS
10
8.0225786584
20
-22.3022132076
11
8.4614320348
21
-22.5216398958
0
LINE
5
233
100
AcDbEntity
8
0
100
AcDbLine
62
7
6
CONTINUOUS
10
8.0225786584
20
-22.2985930580
11
8.4848470860
21
-22.5297272718
0
LINE
5
234
100
AcDbEntity
8
0
100
AcDbLine
62
7
6
CONTINUOUS
10
3.6031612760
20
19.1500481646
11
3.2454821267
21
18.9504522127
0
LINE
5
235
100
AcDbEntity
8
0
100
AcDbLine
62
7
6
CONTINUOUS
10
6.3896255129
20
19.5257950320
11
4.8064538180
21
18.7135979847
0
LINE
5
236
100
AcDbEntity
8
0
100
AcDbLine
62
9
6
CONTINUOUS
10
6.5022960873
20
19.5191341069
11
4.9195394841
21
18.7071500096
0
LINE
5
237
100
AcDbEntity
8
0
100
AcDbLine
62
7
6
CONTINUOUS
10
6.3913638984
20
19.5266642648
11
6.3896274866
21
19.5257960445
0
LINE
5
238
100
AcDbEntity
8
0
100
AcDbLine
62
7
6
CONTINUOUS
10
3.6031612760
20
19.1500481646
11
8.9279953462
21
21.7863795965
0
LINE
5
239
100
AcDbEntity
8
0
100
AcDbLine
62
7
6
CONTINUOUS
10
6.9262338548
20
19.7872163645
11
6.3913666640
21
19.5266656120
0
LINE
5
23A
100
AcDbEntity
8
0
100
AcDbLine
62
9
6
CONTINUOUS
10
7.0367459659
20
19.7794815735
11
6.5022960873
21
19.5191341069
0
LINE
5
23B
100
AcDbEntity
8
0
100
AcDbLine
62
7
6
CONTINUOUS
10
12.7574161306
20
21.5745162971
11
8.0738792510
21
19.3228923018
0
LINE
5
23C
100
AcDbEntity
8
0
100
AcDbLine
62
7
6
CONTINUOUS
10
13.6389515891
20
20.8406581058
11
8.1474082609
21
17.8778444949
0
LINE
5
23D
100
AcDbEntity
8
0
100
AcDbLine
62
9
6
CONTINUOUS
10
7.8458049547
20
18.8473796731
11
6.2445241639
21
18.0446576696
0
LINE
5
23E
100
AcDbEntity
8
0
100
AcDbLine
62
9
6
CONTINUOUS
10
8.0225786584
20
18.5424901343
11
6.4212978676
21
17.7397681308
0
LINE
5
23F
100
AcDbEntity
8
0
100
AcDbLine
62
9
6
CONTINUOUS
10
8.3740721265
20
19.1108184932
11
7.8458049547
21
18.8473796731
0
LINE
5
240
100
AcDbEntity
8
0
100
AcDbLine
62
9
6
CONTINUOUS
10
8.5508458302
20
18.8059289544
11
8.0225786584
21
18.5424901343
0
LINE
5
241
100
AcDbEntity
8
0
100
AcDbLine
62
9
6
CONTINUOUS
10
8.7295777295
20
17.2863890298
11
8.0225786584
21
16.9524453974
0
LINE
5
242
100
AcDbEntity
8
0
100
AcDbLine
62
9
6
CONTINUOUS
10
2.5018403948
20
13.9390341791
11
7.0208715332
21
16.4061061074
0
LINE
5
243
100
AcDbEntity
8
0
100
AcDbLine
62
9
6
CONTINUOUS
10
8.3653624073
20
16.3373819032
11
2.8676731348
21
13.3360317334
0
LINE
5
244
100
AcDbEntity
8
0
100
AcDbLine
62
7
6
CONTINUOUS
10
13.6389515891
20
20.2639064623
11
8.3015667067
21
17.5003945412
0
LINE
5
245
100
AcDbEntity
8
0
100
AcDbLine
62
9
6
CONTINUOUS
10
9.0832388302
20
16.6764633392
11
8.3653624073
21
16.3373819032
0
LINE
5
246
100
AcDbEntity
8
0
100
AcDbLine
62
7
6
CONTINUOUS
10
-8.6937502410
20
25.1733206244
11
-8.6937502410
21
24.8333466903
0
LINE
5
247
100
AcDbEntity
8
0
100
AcDbLine
62
9
6
CONTINUOUS
10
-8.6205269363
20
25.0849322768
11
-8.6205269363
21
24.7449583427
0
LINE
5
248
100
AcDbEntity
8
0
100
AcDbLine
62
7
6
CONTINUOUS
10
-7.9907572867
20
24.3273417160
11
-7.9907572867
21
23.8733846214
0
LINE
5
249
100
AcDbEntity
8
0
100
AcDbLine
62
9
6
CONTINUOUS
10
-7.9175339820
20
24.2907300636
11
-7.9175339820
21
23.7816559195
0
LINE
5
24A
100
AcDbEntity
8
0
100
AcDbLine
62
7
6
CONTINUOUS
10
13.2677737547
20
-15.4029834656
11
13.6328350796
21
-15.5855141280
0
LINE
5
24B
100
AcDbEntity
8
0
100
AcDbLine
62
9
6
CONTINUOUS
10
-7.2955422565
20
24.0824660028
11
-7.2955422565
21
24.4224399369
0
LINE
5
24C
100
AcDbEntity
8
0
100
AcDbLine
62
9
6
CONTINUOUS
10
-6.9430202968
20
24.0819532789
11
-6.9430202968
21
24.4219272130
0
LINE
5
24D
100
AcDbEntity
8
0
100
AcDbLine
62
9
6
CONTINUOUS
10
-6.5843216484
20
23.8038703756
11
-6.5843216484
21
23.1150497527
0
LINE
5
24E
100
AcDbEntity
8
0
100
AcDbLine
62
9
6
CONTINUOUS
10
-6.2317996887
20
23.9334497560
11
-6.2317996887
21
23.1258176343
0
LINE
5
24F
100
AcDbEntity
8
0
100
AcDbLine
62
9
6
CONTINUOUS
10
9.0832388302
20
-12.9535922580
11
10.1632068674
21
-13.4935762766
0
LINE
5
250
100
AcDbEntity
8
0
100
AcDbLine
62
7
6
CONTINUOUS
10
9.0832388302
20
-12.8306567739
11
10.3852834298
21
-13.4816790737
0
LINE
5
251
100
AcDbEntity
8
0
100
AcDbLine
62
7
6
CONTINUOUS
10
-5.3417395060
20
23.6224985556
11
-5.3417395060
21
25.2246492165
0
LINE
5
252
100
AcDbEntity
8
0
100
AcDbLine
62
9
6
CONTINUOUS
10
-4.8134723343
20
25.4880880366
11
-4.8134723343
21
25.1405565198
0
LINE
5
253
100
AcDbEntity
8
0
100
AcDbLine
62
7
6
CONTINUOUS
10
-4.7412744773
20
25.5759606688
11
-4.7412744773
21
25.2284291520
0
LINE
5
254
100
AcDbEntity
8
0
100
AcDbLine
62
9
6
CONTINUOUS
10
8.0225786584
20
17.8154452819
11
8.5508458302
21
18.4583974376
0
LINE
5
255
100
AcDbEntity
8
0
100
AcDbLine
62
7
6
CONTINUOUS
10
8.0225786584
20
17.7259148155
11
8.6219388602
21
18.4553940534
0
LINE
5
256
100
AcDbEntity
8
0
100
AcDbLine
62
7
6
CONTINUOUS
10
-3.1173155016
20
23.1082231411
11
-3.1173155016
21
21.8680341084
0
LINE
5
257
100
AcDbEntity
8
0
100
AcDbLine
62
9
6
CONTINUOUS
10
-2.9708688922
20
22.7651533101
11
-2.9708688922
21
21.6845699993
0
LINE
5
258
100
AcDbEntity
8
0
100
AcDbLine
62
9
6
CONTINUOUS
10
2.5404382074
20
18.9289164494
11
2.5404382074
21
20.0094997603
0
LINE
5
259
100
AcDbEntity
8
0
100
AcDbLine
62
9
6
CONTINUOUS
10
3.2454821267
20
18.9504522127
11
3.2454821267
21
20.1831791851
0
LINE
5
25A
100
AcDbEntity
8
0
100
AcDbLine
62
9
6
CONTINUOUS
10
3.3712514737
20
24.5630097853
11
3.3712514737
21
25.7903603823
0
LINE
5
25B
100
AcDbEntity
8
0
100
AcDbLine
62
7
6
CONTINUOUS
10
3.4966009809
20
24.7120379437
11
3.4966009809
21
25.7996720014
0
LINE
5
25C
100
AcDbEntity
8
0
100
AcDbLine
62
7
6
CONTINUOUS
10
3.6031612760
20
20.3624837299
11
3.6031612760
21
19.1500481646
0
LINE
5
25D
100
AcDbEntity
8
0
100
AcDbLine
62
7
6
CONTINUOUS
10
4.6705679234
20
18.4911615422
11
4.6705679234
21
18.1511876081
0
LINE
5
25E
100
AcDbEntity
8
0
100
AcDbLine
62
7
6
CONTINUOUS
10
4.6705679234
20
-23.3618911698
11
4.6705679234
21
-23.4883904654
0
LINE
5
25F
100
AcDbEntity
8
0
100
AcDbLine
62
9
6
CONTINUOUS
10
4.7437912281
20
18.4027731946
11
4.7437912281
21
18.0627992605
0
LINE
5
260
100
AcDbEntity
8
0
100
AcDbLine
62
9
6
CONTINUOUS
10
4.7437912281
20
-23.3311550007
11
4.7437912281
21
-23.5767788130
0
LINE
5
261
100
AcDbEntity
8
0
100
AcDbLine
62
7
6
CONTINUOUS
10
5.3735608777
20
17.1912104409
11
5.3735608777
21
17.6451826338
0
LINE
5
262
100
AcDbEntity
8
0
100
AcDbLine
62
9
6
CONTINUOUS
10
5.4467841824
20
17.0994968373
11
5.4467841824
21
17.6085709814
0
LINE
5
263
100
AcDbEntity
8
0
100
AcDbLine
62
9
6
CONTINUOUS
10
6.0687759079
20
-24.2392711530
11
6.0687759079
21
-23.7742972188
0
LINE
5
264
100
AcDbEntity
8
0
100
AcDbLine
62
9
6
CONTINUOUS
10
6.0687759079
20
17.4003069206
11
6.0687759079
21
17.7402808547
0
LINE
5
265
100
AcDbEntity
8
0
100
AcDbLine
62
7
6
CONTINUOUS
10
6.1487456883
20
24.7137952788
11
6.1487456883
21
24.4429949862
0
LINE
5
266
100
AcDbEntity
8
0
100
AcDbLine
62
9
6
CONTINUOUS
10
6.4212978676
20
-24.2397838768
11
6.4212978676
21
-23.8998099427
0
LINE
5
267
100
AcDbEntity
8
0
100
AcDbLine
62
9
6
CONTINUOUS
10
6.4212978676
20
17.3997941967
11
6.4212978676
21
17.7397681308
0
LINE
5
268
100
AcDbEntity
8
0
100
AcDbLine
62
9
6
CONTINUOUS
10
6.7799965160
20
-22.9228007417
11
6.7799965160
21
-22.4764387287
0
LINE
5
269
100
AcDbEntity
8
0
100
AcDbLine
62
9
6
CONTINUOUS
10
6.7799965160
20
16.4328906704
11
6.7799965160
21
17.1217112934
0
LINE
5
26A
100
AcDbEntity
8
0
100
AcDbLine
62
9
6
CONTINUOUS
10
7.1325184757
20
-23.0483134655
11
7.1325184757
21
-22.3284643289
0
LINE
5
26B
100
AcDbEntity
8
0
100
AcDbLine
62
9
6
CONTINUOUS
10
7.1325184757
20
16.4427898499
11
7.1325184757
21
17.2512906738
0
LINE
5
26C
100
AcDbEntity
8
0
100
AcDbLine
62
7
6
CONTINUOUS
10
8.0225786584
20
-21.9548532172
11
8.0225786584
21
-23.4597492772
0
LINE
5
26D
100
AcDbEntity
8
0
100
AcDbLine
62
7
6
CONTINUOUS
10
8.0225786584
20
16.9400709778
11
8.0225786584
21
18.5424901343
0
LINE
5
26E
100
AcDbEntity
8
0
100
AcDbLine
62
9
6
CONTINUOUS
10
8.5508458302
20
18.8059289544
11
8.5508458302
21
18.4583974376
0
LINE
5
26F
100
AcDbEntity
8
0
100
AcDbLine
62
9
6
CONTINUOUS
10
8.5508458302
20
-22.8412067018
11
8.5508458302
21
-23.1887382185
0
LINE
5
270
100
AcDbEntity
8
0
100
AcDbLine
62
7
6
CONTINUOUS
10
8.6230436872
20
18.8938015865
11
8.6230436872
21
18.4585571076
0
LINE
5
271
100
AcDbEntity
8
0
100
AcDbLine
62
7
6
CONTINUOUS
10
8.6230436872
20
-22.7533340696
11
8.6230436872
21
-23.1008655863
0
LINE
5
272
100
AcDbEntity
8
0
100
AcDbLine
62
9
6
CONTINUOUS
10
8.9279953462
20
21.7863795965
11
8.9279953462
21
23.0134295637
0
LINE
5
273
100
AcDbEntity
8
0
100
AcDbLine
62
7
6
CONTINUOUS
10
9.0515894101
20
21.9345432173
11
9.0515894101
21
23.0222197063
0
LINE
5
274
100
AcDbEntity
8
0
100
AcDbLine
62
7
6
CONTINUOUS
10
9.0832388302
20
-21.2401690914
11
9.0832388302
21
16.6764633392
0
LINE
5
275
100
AcDbEntity
8
0
100
AcDbLine
62
9
6
CONTINUOUS
10
1.4859020016
20
12.1989162148
11
-13.3389440760
21
19.6113392536
0
LINE
5
276
100
AcDbEntity
8
0
100
AcDbLine
62
9
6
CONTINUOUS
10
13.1811363264
20
-15.5705626586
11
13.1811363264
21
-13.9489076728
0
LINE
5
277
100
AcDbEntity
8
0
100
AcDbLine
62
9
6
CONTINUOUS
10
13.1811363264
20
19.0076442338
11
13.1811363264
21
20.0268656709
0
LINE
5
278
100
AcDbEntity
8
0
100
AcDbLine
62
7
6
CONTINUOUS
10
13.2677737547
20
-15.4651155000
11
13.2677737547
21
-13.8434605107
0
LINE
5
279
100
AcDbEntity
8
0
100
AcDbLine
62
7
6
CONTINUOUS
10
13.2677737547
20
19.1130913924
11
13.2677737547
21
20.0717235126
0
LINE
5
27A
100
AcDbEntity
8
0
100
AcDbLine
62
9
6
CONTINUOUS
10
13.6389515891
20
20.8406581058
11
13.6389515891
21
20.2639064623
0
LINE
5
27B
100
AcDbEntity
8
0
100
AcDbLine
62
9
6
CONTINUOUS
10
13.6389515891
20
-15.9359554159
11
13.6389515891
21
-16.5127070594
0
LINE
5
27C
100
AcDbEntity
8
0
100
AcDbLine
62
7
6
CONTINUOUS
10
13.7792816890
20
21.1411626144
11
13.7792816890
21
20.4375710549
0
LINE
5
27D
100
AcDbEntity
8
0
100
AcDbLine
62
7
6
CONTINUOUS
10
13.7792816890
20
-15.7622908233
11
13.7792816890
21
-16.4658823829
0
LINE
5
27E
100
AcDbEntity
8
0
100
AcDbLine
62
9
6
CONTINUOUS
10
2.5018403948
20
13.9390341791
11
-12.3463780660
21
21.3631434095
0
LINE
5
27F
100
AcDbEntity
8
0
100
AcDbLine
62
7
6
CONTINUOUS
10
6.1944543741
20
17.2439730359
11
6.8188596235
21
17.1135966405
0
LINE
5
280
100
AcDbEntity
8
0
100
AcDbLine
62
9
6
CONTINUOUS
10
6.4212978676
20
17.3997941967
11
7.1325184757
21
17.2512906738
0
LINE
5
281
100
AcDbEntity
8
0
100
AcDbLine
62
7
6
CONTINUOUS
10
6.7799965160
20
16.4328906704
11
5.4467841824
21
17.0994968373
0
LINE
5
282
100
AcDbEntity
8
0
100
AcDbLine
62
7
6
CONTINUOUS
10
-6.5843216484
20
23.1150497527
11
-7.9175339820
21
23.7816559195
0
LINE
5
283
100
AcDbEntity
8
0
100
AcDbLine
62
7
6
CONTINUOUS
10
-2.9708688922
20
21.6845699993
11
2.5404382074
21
18.9289164494
0
LINE
5
284
100
AcDbEntity
8
0
100
AcDbLine
62
7
6
CONTINUOUS
10
-8.5555536399
20
24.6097398926
11
-7.2305689601
21
23.9472475527
0
LINE
5
285
100
AcDbEntity
8
0
100
AcDbLine
62
7
6
CONTINUOUS
10
4.8087645245
20
17.9275808104
11
6.1337492044
21
17.2650884704
0
LINE
5
286
100
AcDbEntity
8
0
100
AcDbLine
62
9
6
CONTINUOUS
10
-8.6205269363
20
24.7449583427
11
-7.2955422565
21
24.0824660028
0
LINE
5
287
100
AcDbEntity
8
0
100
AcDbLine
62
9
6
CONTINUOUS
10
4.7437912281
20
18.0627992605
11
6.0687759079
21
17.4003069206
0
LINE
5
288
100
AcDbEntity
8
0
100
AcDbLine
62
9
6
CONTINUOUS
10
6.7794822877
20
-22.9225436275
11
6.0682616796
21
-23.7740401046
0
LINE
5
289
100
AcDbEntity
8
0
100
AcDbLine
62
9
6
CONTINUOUS
10
7.1325184757
20
-23.0483134655
11
6.4212978676
21
-23.8998099427
0
LINE
5
28A
100
AcDbEntity
8
0
100
AcDbLine
62
7
6
CONTINUOUS
10
13.1811363264
20
-15.5705626586
11
9.0832388302
21
-17.6434917907
0
LINE
5
28B
100
AcDbEntity
8
0
100
AcDbLine
62
9
6
CONTINUOUS
10
6.0687759079
20
17.7402808547
11
4.7437912281
21
18.4027731946
0
LINE
5
28C
100
AcDbEntity
8
0
100
AcDbLine
62
9
6
CONTINUOUS
10
-7.2955422565
20
24.4224399369
11
-8.6205269363
21
25.0849322768
0
LINE
5
28D
100
AcDbEntity
8
0
100
AcDbLine
62
7
6
CONTINUOUS
10
-5.3417395060
20
23.6224985556
11
-3.1173155016
21
22.5102865534
0
LINE
5
28E
100
AcDbEntity
8
0
100
AcDbLine
62
7
6
CONTINUOUS
10
3.6031612760
20
19.1500481646
11
4.6971018766
21
18.6030778643
0
LINE
5
28F
100
AcDbEntity
8
0
100
AcDbLine
62
9
6
CONTINUOUS
10
6.2445241639
20
18.0446576696
11
4.9195394841
21
18.7071500096
0
LINE
5
290
100
AcDbEntity
8
0
100
AcDbLine
62
9
6
CONTINUOUS
10
-7.1197940005
20
24.7268167519
11
-8.4447786803
21
25.3893090918
0
LINE
5
291
100
AcDbEntity
8
0
100
AcDbLine
62
9
6
CONTINUOUS
10
2.5404382074
20
20.0094997603
11
-2.9708688922
21
22.7651533101
0
LINE
5
292
100
AcDbEntity
8
0
100
AcDbLine
62
9
6
CONTINUOUS
10
2.9632605873
20
20.1118893247
11
-3.1124940625
21
23.1497666496
0
LINE
5
293
100
AcDbEntity
8
0
100
AcDbLine
62
7
6
CONTINUOUS
10
-5.3417395060
20
24.3220476476
11
-3.9336967710
21
23.6180262801
0
LINE
5
294
100
AcDbEntity
8
0
100
AcDbLine
62
7
6
CONTINUOUS
10
8.0225786584
20
17.6398885653
11
8.7295777295
21
17.2863890298
0
LINE
5
295
100
AcDbEntity
8
0
100
AcDbLine
62
7
6
CONTINUOUS
10
-2.6193783984
20
23.4737535671
11
3.6031612760
21
20.3624837299
0
LINE
5
296
100
AcDbEntity
8
0
100
AcDbLine
62
7
6
CONTINUOUS
10
-6.8620220772
20
26.2012931891
11
-5.5185132097
21
25.5295387554
0
LINE
5
297
100
AcDbEntity
8
0
100
AcDbLine
62
7
6
CONTINUOUS
10
6.5022960873
20
19.5191341069
11
7.8458049547
21
18.8473796731
0
LINE
5
298
100
AcDbEntity
8
0
100
AcDbLine
62
7
6
CONTINUOUS
10
13.6389515891
20
-15.9359554159
11
9.0832388302
21
-18.2947447473
0
LINE
5
299
100
AcDbEntity
8
0
100
AcDbLine
62
7
6
CONTINUOUS
10
12.7574161306
20
-17.0721361035
11
9.0832388302
21
-18.9163686428
0
LINE
5
29A
100
AcDbEntity
8
0
100
AcDbLine
62
7
6
CONTINUOUS
10
13.6389515891
20
-16.5127070594
11
9.0832388302
21
-18.7723741730
0
LINE
5
29B
100
AcDbEntity
8
0
100
AcDbLine
62
7
6
CONTINUOUS
10
-7.1698637904
20
23.9261321181
11
-6.5454577059
21
23.7957555484
0
LINE
5
29C
100
AcDbEntity
8
0
100
AcDbLine
62
9
6
CONTINUOUS
10
-6.9430202968
20
24.0819532789
11
-6.2317996887
21
23.9334497560
0
LINE
5
29D
100
AcDbEntity
8
0
100
AcDbLine
62
7
6
CONTINUOUS
10
-1.2758755142
20
23.5040705177
11
3.6738719541
21
21.0291967836
0
LINE
5
29E
100
AcDbEntity
8
0
100
AcDbLine
62
9
6
CONTINUOUS
10
-6.3275721985
20
26.4616406557
11
-4.9902460379
21
25.7929775754
0
LINE
5
29F
100
AcDbEntity
8
0
100
AcDbLine
62
9
6
CONTINUOUS
10
7.0367459659
20
19.7794815735
11
8.3740721265
21
19.1108184932
0
LINE
5
2A0
100
AcDbEntity
8
0
100
AcDbLine
62
7
6
CONTINUOUS
10
-6.2167972389
20
26.4682305468
11
-4.8794710784
21
25.7995674665
0
LINE
5
2A1
100
AcDbEntity
8
0
100
AcDbLine
62
7
6
CONTINUOUS
10
7.1475209255
20
19.7860714646
11
8.4848470860
21
19.1174083843
0
LINE
5
2A2
100
AcDbEntity
8
0
100
AcDbLine
62
9
6
CONTINUOUS
10
8.3653624073
20
-21.5943328587
11
9.0832388302
21
-21.2401690914
0
LINE
5
2A3
100
AcDbEntity
8
0
100
AcDbLine
62
7
6
CONTINUOUS
10
8.2307179882
20
-21.8671078135
11
8.9523641730
21
-21.5110842372
0
LINE
5
2A4
100
AcDbEntity
8
0
100
AcDbLine
62
7
6
CONTINUOUS
10
8.2307174665
20
-21.8671080709
11
8.2203036696
21
-21.8718562744
0
LINE
5
2A5
100
AcDbEntity
8
0
100
AcDbLine
62
9
6
CONTINUOUS
10
2.8676731348
20
-23.9020395067
11
8.3653624073
21
-21.5943328587
0
LINE
5
2A6
100
AcDbEntity
8
0
100
AcDbLine
62
7
6
CONTINUOUS
10
2.7138658894
20
-24.1832352051
11
8.2203135018
21
-21.8718521617
0
LINE
5
2A7
100
AcDbEntity
8
0
100
AcDbLine
62
7
6
CONTINUOUS
10
4.7888137482
20
24.3692467988
11
6.1487456883
21
24.4429949862
0
LINE
5
2A8
100
AcDbEntity
8
0
100
AcDbLine
62
7
6
CONTINUOUS
10
7.5993633951
20
22.9639719753
11
4.7888137482
21
24.3692467988
0
LINE
5
2A9
100
AcDbEntity
8
0
100
AcDbLine
62
9
6
CONTINUOUS
10
8.5508458302
20
-23.1887382185
11
8.0225786584
21
-23.4597492772
0
LINE
5
2AA
100
AcDbEntity
8
0
100
AcDbLine
62
7
6
CONTINUOUS
10
8.4871577926
20
-23.3233020288
11
7.9584755291
21
-23.5945260374
0
LINE
5
2AB
100
AcDbEntity
8
0
100
AcDbLine
62
7
6
CONTINUOUS
10
7.9567371419
20
-23.5953952710
11
7.9584735594
21
-23.5945270479
0
LINE
5
2AC
100
AcDbEntity
8
0
100
AcDbLine
62
9
6
CONTINUOUS
10
8.0225786584
20
-23.4597492772
11
6.4212978676
21
-24.2397838768
0
LINE
5
2AD
100
AcDbEntity
8
0
100
AcDbLine
62
7
6
CONTINUOUS
10
7.9567343780
20
-23.5953966174
11
6.3550362750
21
-24.3756345030
0
LINE
5
2AE
100
AcDbEntity
8
0
100
AcDbLine
62
9
6
CONTINUOUS
10
2.7168450075
20
26.0731970326
11
3.3223754422
21
25.7704318152
0
LINE
5
2AF
100
AcDbEntity
8
0
100
AcDbLine
62
9
6
CONTINUOUS
10
8.2721229105
20
23.2955580811
11
8.8776533451
21
22.9927928638
0
LINE
5
2B0
100
AcDbEntity
8
0
100
AcDbLine
62
7
6
CONTINUOUS
10
6.1487456883
20
24.4429949862
11
8.3846065599
21
23.3250645504
0
LINE
5
2B1
100
AcDbEntity
8
0
100
AcDbLine
62
7
6
CONTINUOUS
10
9.0515894101
20
22.9915731253
11
9.2498848096
21
22.8924254255
0
LINE
5
2B2
100
AcDbEntity
8
0
100
AcDbLine
62
7
6
CONTINUOUS
10
2.9931170286
20
26.0590157638
11
3.4895235132
21
25.8108125215
0
LINE
5
2B3
100
AcDbEntity
8
0
100
AcDbLine
62
7
6
CONTINUOUS
10
8.5480724206
20
23.2815380678
11
9.0444791906
21
23.0333346828
0
LINE
5
2B4
100
AcDbEntity
8
0
100
AcDbLine
62
9
6
CONTINUOUS
10
2.3808435556
20
26.7628025846
11
5.4478094995
21
25.2293196126
0
LINE
5
2B5
100
AcDbEntity
8
0
100
AcDbLine
62
9
6
CONTINUOUS
10
9.6904501866
20
23.1079992691
11
12.7574161306
21
21.5745162971
0
LINE
5
2B6
100
AcDbEntity
8
0
100
AcDbLine
62
7
6
CONTINUOUS
10
2.6616738123
20
26.8682584244
11
5.8888525026
21
25.2546690792
0
LINE
5
2B7
100
AcDbEntity
8
0
100
AcDbLine
62
7
6
CONTINUOUS
10
10.1314931897
20
23.1333487357
11
13.3586718800
21
21.5197593905
0
SPLINE
5
2B8
100
AcDbEntity
8
0
100
AcDbSpline
62
7
6
CONTINUOUS
70
0
71
3
72
13
73
9
74
7
42
0.0000001000
43
0.0000001000
44
0.0000000001
12
0.2357421997
22
0.2238656835
32
0.0000000000
13
0.0000095708
23
0.3248133282
33
0.0000000000
40
0.0000000000
40
0.0000000000
40
0.0000000000
40
0.0000000000
40
0.1019828971
40
0.2712070989
40
0.4446053602
40
0.6235775377
40
0.8090784794
40
1.0000000000
40
1.0000000000
40
1.0000000000
40
1.0000000000
10
13.1483918631
20
18.8203378752
30
0.0000000000
10
13.1564057540
20
18.8279480322
30
0.0000000000
10
13.1767903571
20
18.8491643359
30
0.0000000000
10
13.2058192377
20
18.8877846263
30
0.0000000000
10
13.2327984001
20
18.9376276622
30
0.0000000000
10
13.2527970379
20
18.9925411142
30
0.0000000000
10
13.2650884912
20
19.0516004110
30
0.0000000000
10
13.2677730004
20
19.0924165773
30
0.0000000000
10
13.2677736095
20
19.1130878622
30
0.0000000000
11
13.1483918631
21
18.8203378752
31
0.0000000000
11
13.1713577840
21
18.8442352500
31
0.0000000000
11
13.2044127640
21
18.8881487681
31
0.0000000000
11
13.2312691458
21
18.9376526472
31
0.0000000000
11
13.2512316457
21
18.9922474997
31
0.0000000000
11
13.2635973617
21
19.0512154472
31
0.0000000000
11
13.2677736095
21
19.1130878622
31
0.0000000000
0
SPLINE
5
2B9
100
AcDbEntity
8
0
100
AcDbSpline
62
7
6
CONTINUOUS
70
0
71
3
72
19
73
15
74
13
42
0.0000001000
43
0.0000001000
44
0.0000000001
12
0.0000027004
22
0.7468253940
32
0.0000000000
13
-0.7461029060
23
-0.0400534971
33
0.0000000000
40
0.0000000000
40
0.0000000000
40
0.0000000000
40
0.0000000000
40
0.0683114755
40
0.1577905410
40
0.2475003706
40
0.3374717088
40
0.4273603691
40
0.5163477351
40
0.6037208116
40
0.6887073803
40
0.7707984505
40
0.8499578885
40
0.9269193606
40
1.0000000000
40
1.0000000000
40
1.0000000000
40
1.0000000000
10
13.2677735081
20
-13.8434765289
30
0.0000000000
10
13.2677735696
20
-13.8264709474
30
0.0000000000
10
13.2656491293
20
-13.7871602431
30
0.0000000000
10
13.2550831729
20
-13.7263292725
30
0.0000000000
10
13.2353692495
20
-13.6621452492
30
0.0000000000
10
13.2079157835
20
-13.6007670652
30
0.0000000000
10
13.1732204146
20
-13.5433729716
30
0.0000000000
10
13.1319165649
20
-13.4913408580
30
0.0000000000
10
13.0849095871
20
-13.4461143080
30
0.0000000000
10
13.0333929936
20
-13.4089370717
30
0.0000000000
10
12.9787925849
20
-13.3806462250
30
0.0000000000
10
12.9224505169
20
-13.3615263118
30
0.0000000000
10
12.8660633126
20
-13.3516083681
30
0.0000000000
10
12.8285984046
20
-13.3507829048
30
0.0000000000
10
12.8104231788
20
-13.3517586165
30
0.0000000000
11
13.2677735081
21
-13.8434765289
31
0.0000000000
11
13.2650697710
21
-13.7925328690
31
0.0000000000
11
13.2537279175
21
-13.7267131088
31
0.0000000000
11
13.2341074451
21
-13.6626900335
31
0.0000000000
11
13.2066827168
21
-13.6013876587
31
0.0000000000
11
13.1719260437
21
-13.5439961489
31
0.0000000000
11
13.1305556518
21
-13.4920300292
31
0.0000000000
11
13.0834794533
21
-13.4468947031
31
0.0000000000
11
13.0319734171
21
-13.4098634359
31
0.0000000000
11
12.9775247809
21
-13.3817565854
31
0.0000000000
11
12.9215495485
21
-13.3628346623
31
0.0000000000
11
12.8649632888
21
-13.3529314545
31
0.0000000000
11
12.8104231788
21
-13.3517586165
31
0.0000000000
0
SPLINE
5
2BA
100
AcDbEntity
8
0
100
AcDbSpline
62
7
6
CONTINUOUS
70
0
71
3
72
8
73
4
74
2
42
0.0000001000
43
0.0000001000
44
0.0000000001
12
-3.7272225037
22
-0.1996767320
32
0.0000000000
13
-3.7272225037
23
-0.1996767320
33
0.0000000000
40
0.0000000000
40
0.0000000000
40
0.0000000000
40
0.0000000000
40
1.0000000000
40
1.0000000000
40
1.0000000000
40
1.0000000000
10
12.8104613339
20
-13.3517561625
30
0.0000000000
10
11.5680538326
20
-13.4183150732
30
0.0000000000
10
10.3256463314
20
-13.4848739838
30
0.0000000000
10
9.0832388302
20
-13.5514328945
30
0.0000000000
11
12.8104613339
21
-13.3517561625
31
0.0000000000
11
9.0832388302
21
-13.5514328945
31
0.0000000000
0
SPLINE
5
2BB
100
AcDbEntity
8
0
100
AcDbSpline
62
7
6
CONTINUOUS
70
0
71
3
72
8
73
4
74
2
42
0.0000001000
43
0.0000001000
44
0.0000000001
12
4.0651469517
22
3.8599945253
32
0.0000000000
13
4.0651469517
23
3.8599945253
33
0.0000000000
40
0.0000000000
40
0.0000000000
40
0.0000000000
40
0.0000000000
40
1.0000000000
40
1.0000000000
40
1.0000000000
40
1.0000000000
10
9.0832388302
20
14.9603360005
30
0.0000000000
10
10.4382878141
20
16.2470008422
30
0.0000000000
10
11.7933367980
20
17.5336656840
30
0.0000000000
10
13.1483857819
20
18.8203305258
30
0.0000000000
11
9.0832388302
21
14.9603360005
31
0.0000000000
11
13.1483857819
21
18.8203305258
31
0.0000000000
0
SPLINE
5
2BC
100
AcDbEntity
8
0
100
AcDbSpline
62
7
6
CONTINUOUS
70
0
71
3
72
15
73
11
74
9
42
0.0000001000
43
0.0000001000
44
0.0000000001
12
0.0000000000
22
-0.2765187015
32
0.0000000000
13
0.2476701277
23
-0.1238065108
33
0.0000000000
40
0.0000000000
40
0.0000000000
40
0.0000000000
40
0.0000000000
40
0.1372038061
40
0.2753693855
40
0.4143226051
40
0.5538334203
40
0.6936450402
40
0.8334813200
40
0.9730599772
40
1.0000000000
40
1.0000000000
40
1.0000000000
40
1.0000000000
10
-8.6937502410
20
24.8333466903
30
0.0000000000
10
-8.6937502410
20
24.8207002176
30
0.0000000000
10
-8.6918169350
20
24.7952766061
30
0.0000000000
10
-8.6831368076
20
24.7579407348
30
0.0000000000
10
-8.6687722122
20
24.7221610277
30
0.0000000000
10
-8.6490058997
20
24.6888815584
30
0.0000000000
10
-8.6242979837
20
24.6589795050
30
0.0000000000
10
-8.5952677348
20
24.6332400600
30
0.0000000000
10
-8.5714158449
20
24.6179258699
30
0.0000000000
10
-8.5577711963
20
24.6108489080
30
0.0000000000
10
-8.5555471167
20
24.6097371246
30
0.0000000000
11
-8.6937502410
21
24.8333466903
31
0.0000000000
11
-8.6908714421
21
24.7955166497
31
0.0000000000
11
-8.6822214179
21
24.7583033843
31
0.0000000000
11
-8.6679054030
21
24.7226468107
31
0.0000000000
11
-8.6482055675
21
24.6894786276
31
0.0000000000
11
-8.6235794209
21
24.6596761227
31
0.0000000000
11
-8.5946473535
21
24.6340226792
31
0.0000000000
11
-8.5621683639
21
24.6131714234
31
0.0000000000
11
-8.5555471167
21
24.6097371246
31
0.0000000000
0
SPLINE
5
2BD
100
AcDbEntity
8
0
100
AcDbSpline
62
7
6
CONTINUOUS
70
0
71
3
72
14
73
10
74
8
42
0.0000001000
43
0.0000001000
44
0.0000000001
12
0.2472867605
22
-0.1236433802
32
0.0000000000
13
0.0000162066
23
-0.2767915247
33
0.0000000000
40
0.0000000000
40
0.0000000000
40
0.0000000000
40
0.0000000000
40
0.1437525298
40
0.2886119094
40
0.4331946815
40
0.5818895261
40
0.7310838435
40
0.8800925955
40
1.0000000000
40
1.0000000000
40
1.0000000000
40
1.0000000000
10
-4.8794710784
20
25.7995674665
30
0.0000000000
10
-4.8676217126
20
25.7936427836
30
0.0000000000
10
-4.8447380788
20
25.7798273181
30
0.0000000000
10
-4.8141565665
20
25.7539101873
30
0.0000000000
10
-4.7877965648
20
25.7230945668
30
0.0000000000
10
-4.7665520370
20
25.6880718934
30
0.0000000000
10
-4.7511924179
20
25.6496555511
30
0.0000000000
10
-4.7429241181
20
25.6118413368
30
0.0000000000
10
-4.7412752580
20
25.5870305725
30
0.0000000000
10
-4.7412746102
20
25.5759674547
30
0.0000000000
11
-4.8794710784
21
25.7995674665
31
0.0000000000
11
-4.8454482843
21
25.7790240122
31
0.0000000000
11
-4.8148933098
21
25.7531320089
31
0.0000000000
11
-4.7889100276
21
25.7227551833
31
0.0000000000
11
-4.7675887036
21
25.6876059762
31
0.0000000000
11
-4.7522753899
21
25.6493053088
31
0.0000000000
11
-4.7434751631
21
25.6090590058
31
0.0000000000
11
-4.7412746102
21
25.5759674547
31
0.0000000000
0
SPLINE
5
2BE
100
AcDbEntity
8
0
100
AcDbSpline
62
7
6
CONTINUOUS
70
0
71
3
72
12
73
8
74
6
42
0.0000001000
43
0.0000001000
44
0.0000000001
12
0.1090316425
22
0.1327020367
32
0.0000000000
13
-0.0000090362
23
0.1719527056
33
0.0000000000
40
0.0000000000
40
0.0000000000
40
0.0000000000
40
0.0000000000
40
0.2419534870
40
0.4852361377
40
0.7286233895
40
0.9719522926
40
1.0000000000
40
1.0000000000
40
1.0000000000
40
1.0000000000
10
-4.7981117619
20
25.0697213533
30
0.0000000000
10
-4.7893182332
20
25.0804239268
30
0.0000000000
10
-4.7734399297
20
25.1034029461
30
0.0000000000
10
-4.7556820452
20
25.1413533388
30
0.0000000000
10
-4.7444670351
20
25.1818182050
30
0.0000000000
10
-4.7414239036
20
25.2112685801
30
0.0000000000
10
-4.7412745498
20
25.2268231824
30
0.0000000000
10
-4.7412746342
20
25.2284308087
30
0.0000000000
11
-4.7981117619
21
25.0697213533
31
0.0000000000
11
-4.7744909342
21
25.1039104969
31
0.0000000000
11
-4.7567801985
21
25.1417548582
31
0.0000000000
11
-4.7456164455
21
25.1820380815
31
0.0000000000
11
-4.7413209639
21
25.2236082461
31
0.0000000000
11
-4.7412746342
21
25.2284308087
31
0.0000000000
0
SPLINE
5
2BF
100
AcDbEntity
8
0
100
AcDbSpline
62
7
6
CONTINUOUS
70
0
71
3
72
13
73
9
74
7
42
0.0000001000
43
0.0000001000
44
0.0000000001
12
-0.2048013009
22
0.1024006505
32
0.0000000000
13
-0.2060921486
23
-0.1004031776
33
0.0000000000
40
0.0000000000
40
0.0000000000
40
0.0000000000
40
0.0000000000
40
0.1780417675
40
0.3605922599
40
0.5441907093
40
0.7285502135
40
0.9149400794
40
1.0000000000
40
1.0000000000
40
1.0000000000
40
1.0000000000
10
-6.2167972389
20
26.4682305468
30
0.0000000000
10
-6.2289516341
20
26.4743077444
30
0.0000000000
10
-6.2546226834
20
26.4846234917
30
0.0000000000
10
-6.2953689433
20
26.4935921461
30
0.0000000000
10
-6.3375372750
20
26.4956536480
30
0.0000000000
10
-6.3797438434
20
26.4905694299
30
0.0000000000
10
-6.4132455083
20
26.4805769231
30
0.0000000000
10
-6.4322473645
20
26.4722185829
30
0.0000000000
10
-6.4380907584
20
26.4693718208
30
0.0000000000
11
-6.2167972389
21
26.4682305468
31
0.0000000000
11
-6.2546255197
21
26.4834284431
31
0.0000000000
11
-6.2954473783
21
26.4924157210
31
0.0000000000
11
-6.3374366975
21
26.4944675483
31
0.0000000000
11
-6.3793474151
21
26.4894191015
31
0.0000000000
11
-6.4202455095
21
26.4772204332
31
0.0000000000
11
-6.4380907584
21
26.4693718208
31
0.0000000000
0
SPLINE
5
2C0
100
AcDbEntity
8
0
100
AcDbSpline
62
7
6
CONTINUOUS
70
0
71
3
72
14
73
10
74
8
42
0.0000001000
43
0.0000001000
44
0.0000000001
12
0.0000000000
22
0.2738582159
32
0.0000000000
13
0.2439931792
23
0.1251474837
33
0.0000000000
40
0.0000000000
40
0.0000000000
40
0.0000000000
40
0.0000000000
40
0.1562679989
40
0.3143610164
40
0.4733409827
40
0.6327902268
40
0.7925669787
40
0.9524347924
40
1.0000000000
40
1.0000000000
40
1.0000000000
40
1.0000000000
10
-8.6937502410
20
25.1733206244
30
0.0000000000
10
-8.6937502410
20
25.1875857162
30
0.0000000000
10
-8.6912821301
20
25.2163427728
30
0.0000000000
10
-8.6801983229
20
25.2583208983
30
0.0000000000
10
-8.6618939599
20
25.2980284077
30
0.0000000000
10
-8.6368807725
20
25.3340762153
30
0.0000000000
10
-8.6059128071
20
25.3652757248
30
0.0000000000
10
-8.5783706719
20
25.3846829680
30
0.0000000000
10
-8.5617254367
20
25.3937759698
30
0.0000000000
10
-8.5578569080
20
25.3957601918
30
0.0000000000
11
-8.6937502410
21
25.1733206244
31
0.0000000000
11
-8.6900873698
21
25.2159588581
31
0.0000000000
11
-8.6790370037
21
25.2578199694
31
0.0000000000
11
-8.6608091873
21
25.2973585776
31
0.0000000000
11
-8.6359157224
21
25.3332344380
31
0.0000000000
11
-8.6050908707
21
25.3642897351
31
0.0000000000
11
-8.5693019195
21
25.3895075251
31
0.0000000000
11
-8.5578569080
21
25.3957601918
31
0.0000000000
0
SPLINE
5
2C1
100
AcDbEntity
8
0
100
AcDbSpline
62
7
6
CONTINUOUS
70
0
71
3
72
9
73
5
74
3
42
0.0000001000
43
0.0000001000
44
0.0000000001
12
0.0576442133
22
-0.0288194541
32
0.0000000000
13
0.0630899563
23
-0.0131749282
33
0.0000000000
40
0.0000000000
40
0.0000000000
40
0.0000000000
40
0.0000000000
40
0.5477730968
40
1.0000000000
40
1.0000000000
40
1.0000000000
40
1.0000000000
10
-7.2305688439
20
23.9472476035
30
0.0000000000
10
-7.2200435275
20
23.9419854296
30
0.0000000000
10
-7.2001480714
20
23.9337355804
30
0.0000000000
10
-7.1793739988
20
23.9281182940
30
0.0000000000
10
-7.1698636736
20
23.9261322750
30
0.0000000000
11
-7.2305688439
21
23.9472476035
31
0.0000000000
11
-7.1979835027
21
23.9337372533
31
0.0000000000
11
-7.1698636736
21
23.9261322750
31
0.0000000000
0
SPLINE
5
2C2
100
AcDbEntity
8
0
100
AcDbSpline
62
7
6
CONTINUOUS
70
0
71
3
72
8
73
4
74
2
42
0.0000001000
43
0.0000001000
44
0.0000000001
12
-0.0002831542
22
-0.0031036624
32
0.0000000000
13
-0.0016127229
23
-0.0025258849
33
0.0000000000
40
0.0000000000
40
0.0000000000
40
0.0000000000
40
0.0000000000
40
1.0000000000
40
1.0000000000
40
1.0000000000
40
1.0000000000
10
8.6228955411
20
18.4583956989
30
0.0000000000
10
8.6228011564
20
18.4573611448
30
0.0000000000
10
8.6224768757
20
18.4563322120
30
0.0000000000
10
8.6219393014
20
18.4554902504
30
0.0000000000
11
8.6228955411
21
18.4583956989
31
0.0000000000
11
8.6219393014
21
18.4554902504
31
0.0000000000
0
SPLINE
5
2C3
100
AcDbEntity
8
0
100
AcDbSpline
62
7
6
CONTINUOUS
70
0
71
3
72
14
73
10
74
8
42
0.0000001000
43
0.0000001000
44
0.0000000001
12
0.0000000000
22
0.2764437653
32
0.0000000000
13
-0.2475925103
23
0.1237730878
33
0.0000000000
40
0.0000000000
40
0.0000000000
40
0.0000000000
40
0.0000000000
40
0.1550886622
40
0.3119188690
40
0.4696359821
40
0.6278490431
40
0.7864071094
40
0.9450859973
40
1.0000000000
40
1.0000000000
40
1.0000000000
40
1.0000000000
10
8.6230436872
20
18.8938015865
30
0.0000000000
10
8.6230436872
20
18.9080926845
30
0.0000000000
10
8.6205670731
20
18.9368959667
30
0.0000000000
10
8.6094478357
20
18.9789344548
30
0.0000000000
10
8.5910893415
20
19.0186885898
30
0.0000000000
10
8.5660018425
20
19.0547707928
30
0.0000000000
10
8.5349400415
20
19.0859874707
30
0.0000000000
10
8.5067322645
20
19.1057979477
30
0.0000000000
10
8.4893717598
20
19.1151456641
30
0.0000000000
10
8.4848396612
20
19.1174112894
30
0.0000000000
11
8.6230436872
21
18.8938015865
31
0.0000000000
11
8.6193674485
21
18.9365169770
31
0.0000000000
11
8.6082837052
21
18.9784309782
31
0.0000000000
11
8.5900031489
21
19.0180134698
31
0.0000000000
11
8.5650355992
21
19.0539237453
31
0.0000000000
11
8.5341185777
21
19.0849948909
31
0.0000000000
11
8.4982210185
21
19.1102054583
31
0.0000000000
11
8.4848396612
21
19.1174112894
31
0.0000000000
0
SPLINE
5
2C4
100
AcDbEntity
8
0
100
AcDbSpline
62
7
6
CONTINUOUS
70
0
71
3
72
13
73
9
74
7
42
0.0000001000
43
0.0000001000
44
0.0000000001
12
0.2058509839
22
0.1002765354
32
0.0000000000
13
0.2050420785
23
-0.1025286694
33
0.0000000000
40
0.0000000000
40
0.0000000000
40
0.0000000000
40
0.0000000000
40
0.1774292252
40
0.3593739775
40
0.5423737539
40
0.7260526449
40
0.9117680367
40
1.0000000000
40
1.0000000000
40
1.0000000000
40
1.0000000000
10
6.9262338548
20
19.7872163645
30
0.0000000000
10
6.9384085150
20
19.7931470272
30
0.0000000000
10
6.9640942464
20
19.8031695337
30
0.0000000000
10
7.0047866076
20
19.8117215537
30
0.0000000000
10
7.0468261892
20
19.8133995410
30
0.0000000000
10
7.0888388661
20
19.8079816500
30
0.0000000000
10
7.1223943527
20
19.7976893873
30
0.0000000000
10
7.1414963154
20
19.7890835105
30
0.0000000000
10
7.1475267371
20
19.7860680752
30
0.0000000000
11
6.9262338548
21
19.7872163645
31
0.0000000000
11
6.9640827374
21
19.8019817998
31
0.0000000000
11
7.0048526760
21
19.8105520728
31
0.0000000000
11
7.0467219310
21
19.8122223556
31
0.0000000000
11
7.0884345904
21
19.8068432894
31
0.0000000000
11
7.1290895313
21
19.7943734177
31
0.0000000000
11
7.1475267371
21
19.7860680752
31
0.0000000000
0
SPLINE
5
2C5
100
AcDbEntity
8
0
100
AcDbSpline
62
7
6
CONTINUOUS
70
0
71
3
72
15
73
11
74
9
42
0.0000001000
43
0.0000001000
44
0.0000000001
12
-0.2439506743
22
-0.1251622805
32
0.0000000000
13
0.0000014006
23
-0.2741811328
33
0.0000000000
40
0.0000000000
40
0.0000000000
40
0.0000000000
40
0.0000000000
40
0.0876383217
40
0.2288023631
40
0.3706945820
40
0.5134369001
40
0.6570527615
40
0.8015692219
40
0.9468110568
40
1.0000000000
40
1.0000000000
40
1.0000000000
40
1.0000000000
10
4.8064482529
20
18.7135951712
30
0.0000000000
10
4.7993217771
20
18.7099388338
30
0.0000000000
10
4.7811775903
20
18.6995003794
30
0.0000000000
10
4.7540735763
20
18.6790010989
30
0.0000000000
10
4.7269563083
20
18.6509243276
30
0.0000000000
10
4.7044025194
20
18.6187876059
30
0.0000000000
10
4.6870457924
20
18.5833011021
30
0.0000000000
10
4.6754213119
20
18.5453050726
30
0.0000000000
10
4.6710965716
20
18.5141570102
30
0.0000000000
10
4.6705679035
20
18.4960223410
30
0.0000000000
10
4.6705679283
20
18.4911612061
30
0.0000000000
11
4.8064482529
21
18.7135951712
31
0.0000000000
11
4.7856297981
21
18.7016174814
31
0.0000000000
11
4.7547907764
21
18.6782923455
31
0.0000000000
11
4.7277899890
21
18.6503365026
31
0.0000000000
11
4.7053295758
21
18.6183325047
31
0.0000000000
11
4.6880455378
21
18.5829947616
31
0.0000000000
11
4.6764651813
21
18.5451416432
31
0.0000000000
11
4.6709931259
21
18.5057361930
31
0.0000000000
11
4.6705679283
21
18.4911612061
31
0.0000000000
0
SPLINE
5
2C6
100
AcDbEntity
8
0
100
AcDbSpline
62
7
6
CONTINUOUS
70
0
71
3
72
15
73
11
74
9
42
0.0000001000
43
0.0000001000
44
0.0000000001
12
0.0000000000
22
-0.2765187015
32
0.0000000000
13
0.2476701277
23
-0.1238065108
33
0.0000000000
40
0.0000000000
40
0.0000000000
40
0.0000000000
40
0.0000000000
40
0.1372038061
40
0.2753693855
40
0.4143226051
40
0.5538334203
40
0.6936450402
40
0.8334813200
40
0.9730599772
40
1.0000000000
40
1.0000000000
40
1.0000000000
40
1.0000000000
10
4.6705679234
20
18.1511876081
30
0.0000000000
10
4.6705679234
20
18.1385411353
30
0.0000000000
10
4.6725012294
20
18.1131175239
30
0.0000000000
10
4.6811813569
20
18.0757816526
30
0.0000000000
10
4.6955459523
20
18.0400019455
30
0.0000000000
10
4.7153122648
20
18.0067224762
30
0.0000000000
10
4.7400201807
20
17.9768204228
30
0.0000000000
10
4.7690504296
20
17.9510809777
30
0.0000000000
10
4.7929023195
20
17.9357667877
30
0.0000000000
10
4.8065469681
20
17.9286898258
30
0.0000000000
10
4.8087710478
20
17.9275780424
30
0.0000000000
11
4.6705679234
21
18.1511876081
31
0.0000000000
11
4.6734467223
21
18.1133575674
31
0.0000000000
11
4.6820967465
21
18.0761443021
31
0.0000000000
11
4.6964127614
21
18.0404877285
31
0.0000000000
11
4.7161125969
21
18.0073195454
31
0.0000000000
11
4.7407387435
21
17.9775170405
31
0.0000000000
11
4.7696708109
21
17.9518635969
31
0.0000000000
11
4.8021498005
21
17.9310123412
31
0.0000000000
11
4.8087710478
21
17.9275780424
31
0.0000000000
0
SPLINE
5
2C7
100
AcDbEntity
8
0
100
AcDbSpline
62
7
6
CONTINUOUS
70
0
71
3
72
9
73
5
74
3
42
0.0000001000
43
0.0000001000
44
0.0000000001
12
0.0576442133
22
-0.0288194541
32
0.0000000000
13
0.0630899563
23
-0.0131749282
33
0.0000000000
40
0.0000000000
40
0.0000000000
40
0.0000000000
40
0.0000000000
40
0.5477730968
40
1.0000000000
40
1.0000000000
40
1.0000000000
40
1.0000000000
10
6.1337493205
20
17.2650885213
30
0.0000000000
10
6.1442746369
20
17.2598263474
30
0.0000000000
10
6.1641700931
20
17.2515764981
30
0.0000000000
10
6.1849441656
20
17.2459592118
30
0.0000000000
10
6.1944544908
20
17.2439731928
30
0.0000000000
11
6.1337493205
21
17.2650885213
31
0.0000000000
11
6.1663346617
21
17.2515781711
31
0.0000000000
11
6.1944544908
21
17.2439731928
31
0.0000000000
0
SPLINE
5
2C8
100
AcDbEntity
8
0
100
AcDbSpline
62
7
6
CONTINUOUS
70
0
71
3
72
15
73
11
74
9
42
0.0000001000
43
0.0000001000
44
0.0000000001
12
0.0000000000
22
0.2765187015
32
0.0000000000
13
-0.2476701277
23
0.1238065108
33
0.0000000000
40
0.0000000000
40
0.0000000000
40
0.0000000000
40
0.0000000000
40
0.1372038061
40
0.2753693855
40
0.4143226051
40
0.5538334203
40
0.6936450402
40
0.8334813200
40
0.9730599772
40
1.0000000000
40
1.0000000000
40
1.0000000000
40
1.0000000000
10
8.6230436872
20
-22.7533340696
30
0.0000000000
10
8.6230436872
20
-22.7406875968
30
0.0000000000
10
8.6211103812
20
-22.7152639853
30
0.0000000000
10
8.6124302537
20
-22.6779281141
30
0.0000000000
10
8.5980656583
20
-22.6421484070
30
0.0000000000
10
8.5782993458
20
-22.6088689377
30
0.0000000000
10
8.5535914299
20
-22.5789668842
30
0.0000000000
10
8.5245611810
20
-22.5532274392
30
0.0000000000
10
8.5007092911
20
-22.5379132492
30
0.0000000000
10
8.4870646425
20
-22.5308362873
30
0.0000000000
10
8.4848405628
20
-22.5297245039
30
0.0000000000
11
8.6230436872
21
-22.7533340696
31
0.0000000000
11
8.6201648882
21
-22.7155040289
31
0.0000000000
11
8.6115148641
21
-22.6782907635
31
0.0000000000
11
8.5971988492
21
-22.6426341900
31
0.0000000000
11
8.5774990136
21
-22.6094660069
31
0.0000000000
11
8.5528728671
21
-22.5796635020
31
0.0000000000
11
8.5239407997
21
-22.5540100584
31
0.0000000000
11
8.4914618101
21
-22.5331588027
31
0.0000000000
11
8.4848405628
21
-22.5297245039
31
0.0000000000
0
SPLINE
5
2C9
100
AcDbEntity
8
0
100
AcDbSpline
62
7
6
CONTINUOUS
70
0
71
3
72
15
73
11
74
9
42
0.0000001000
43
0.0000001000
44
0.0000000001
12
0.2439506743
22
0.1251622805
32
0.0000000000
13
-0.0000014006
23
0.2741811328
33
0.0000000000
40
0.0000000000
40
0.0000000000
40
0.0000000000
40
0.0000000000
40
0.0876383217
40
0.2288023631
40
0.3706945820
40
0.5134369001
40
0.6570527615
40
0.8015692219
40
0.9468110568
40
1.0000000000
40
1.0000000000
40
1.0000000000
40
1.0000000000
10
8.4871633576
20
-23.3232992153
30
0.0000000000
10
8.4942898335
20
-23.3196428779
30
0.0000000000
10
8.5124340203
20
-23.3092044235
30
0.0000000000
10
8.5395380343
20
-23.2887051430
30
0.0000000000
10
8.5666553022
20
-23.2606283717
30
0.0000000000
10
8.5892090912
20
-23.2284916500
30
0.0000000000
10
8.6065658182
20
-23.1930051462
30
0.0000000000
10
8.6181902986
20
-23.1550091167
30
0.0000000000
10
8.6225150390
20
-23.1238610543
30
0.0000000000
10
8.6230437071
20
-23.1057263851
30
0.0000000000
10
8.6230436823
20
-23.1008652502
30
0.0000000000
11
8.4871633576
21
-23.3232992153
31
0.0000000000
11
8.5079818125
21
-23.3113215255
31
0.0000000000
11
8.5388208342
21
-23.2879963896
31
0.0000000000
11
8.5658216216
21
-23.2600405467
31
0.0000000000
11
8.5882820348
21
-23.2280365488
31
0.0000000000
11
8.6055660728
21
-23.1926988057
31
0.0000000000
11
8.6171464293
21
-23.1548456873
31
0.0000000000
11
8.6226184847
21
-23.1154402371
31
0.0000000000
11
8.6230436823
21
-23.1008652502
31
0.0000000000
0
SPLINE
5
2CA
100
AcDbEntity
8
0
100
AcDbSpline
62
7
6
CONTINUOUS
70
0
71
3
72
13
73
9
74
7
42
0.0000001000
43
0.0000001000
44
0.0000000001
12
-0.2058509839
22
-0.1002765354
32
0.0000000000
13
-0.2050420785
23
0.1025286694
33
0.0000000000
40
0.0000000000
40
0.0000000000
40
0.0000000000
40
0.0000000000
40
0.1774292252
40
0.3593739775
40
0.5423737539
40
0.7260526449
40
0.9117680367
40
1.0000000000
40
1.0000000000
40
1.0000000000
40
1.0000000000
10
6.3550362750
20
-24.3756345030
30
0.0000000000
10
6.3428616148
20
-24.3815651657
30
0.0000000000
10
6.3171758834
20
-24.3915876722
30
0.0000000000
10
6.2764835222
20
-24.4001396922
30
0.0000000000
10
6.2344439407
20
-24.4018176795
30
0.0000000000
10
6.1924312638
20
-24.3963997885
30
0.0000000000
10
6.1588757771
20
-24.3861075258
30
0.0000000000
10
6.1397738145
20
-24.3775016490
30
0.0000000000
10
6.1337433927
20
-24.3744862137
30
0.0000000000
11
6.3550362750
21
-24.3756345030
31
0.0000000000
11
6.3171873924
21
-24.3903999383
31
0.0000000000
11
6.2764174538
21
-24.3989702113
31
0.0000000000
11
6.2345481989
21
-24.4006404940
31
0.0000000000
11
6.1928355395
21
-24.3952614279
31
0.0000000000
11
6.1521805985
21
-24.3827915562
31
0.0000000000
11
6.1337433927
21
-24.3744862137
31
0.0000000000
0
SPLINE
5
2CB
100
AcDbEntity
8
0
100
AcDbSpline
62
7
6
CONTINUOUS
70
0
71
3
72
14
73
10
74
8
42
0.0000001000
43
0.0000001000
44
0.0000000001
12
-0.2472867605
22
0.1236433802
32
0.0000000000
13
-0.0000162066
23
0.2767915247
33
0.0000000000
40
0.0000000000
40
0.0000000000
40
0.0000000000
40
0.0000000000
40
0.1437525298
40
0.2886119094
40
0.4331946815
40
0.5818895261
40
0.7310838435
40
0.8800925955
40
1.0000000000
40
1.0000000000
40
1.0000000000
40
1.0000000000
10
4.8087645245
20
-23.7119972632
30
0.0000000000
10
4.7969151587
20
-23.7060725803
30
0.0000000000
10
4.7740315250
20
-23.6922571147
30
0.0000000000
10
4.7434500127
20
-23.6663399839
30
0.0000000000
10
4.7170900109
20
-23.6355243635
30
0.0000000000
10
4.6958454831
20
-23.6005016900
30
0.0000000000
10
4.6804858640
20
-23.5620853478
30
0.0000000000
10
4.6722175643
20
-23.5242711334
30
0.0000000000
10
4.6705687041
20
-23.4994603692
30
0.0000000000
10
4.6705680564
20
-23.4883972514
30
0.0000000000
11
4.8087645245
21
-23.7119972632
31
0.0000000000
11
4.7747417304
21
-23.6914538088
31
0.0000000000
11
4.7441867560
21
-23.6655618056
31
0.0000000000
11
4.7182034737
21
-23.6351849799
31
0.0000000000
11
4.6968821498
21
-23.6000357728
31
0.0000000000
11
4.6815688360
21
-23.5617351054
31
0.0000000000
11
4.6727686093
21
-23.5214888025
31
0.0000000000
11
4.6705680564
21
-23.4883972514
31
0.0000000000
0
SPLINE
5
2CC
100
AcDbEntity
8
0
100
AcDbSpline
62
7
6
CONTINUOUS
70
0
71
3
72
13
73
9
74
7
42
0.0000001000
43
0.0000001000
44
0.0000000001
12
0.0000479300
22
-0.2349708594
32
0.0000000000
13
-0.2079358975
23
-0.1076619626
33
0.0000000000
40
0.0000000000
40
0.0000000000
40
0.0000000000
40
0.0000000000
40
0.0660782003
40
0.2203620644
40
0.3869269828
40
0.5704434049
40
0.7747229397
40
1.0000000000
40
1.0000000000
40
1.0000000000
40
1.0000000000
10
13.7792722993
20
20.4375657232
30
0.0000000000
10
13.7792733550
20
20.4323902394
30
0.0000000000
10
13.7782186934
20
20.4151321422
30
0.0000000000
10
13.7701236208
20
20.3856486655
30
0.0000000000
10
13.7503020324
20
20.3512275327
30
0.0000000000
10
13.7212039386
20
20.3188623986
30
0.0000000000
10
13.6835434141
20
20.2890549115
30
0.0000000000
10
13.6545659850
20
20.2719910524
30
0.0000000000
10
13.6389515891
20
20.2639064623
30
0.0000000000
11
13.7792722993
21
20.4375657232
31
0.0000000000
11
13.7783211368
21
20.4220821112
31
0.0000000000
11
13.7690170631
21
20.3871744693
31
0.0000000000
11
13.7499229727
21
20.3531661053
31
0.0000000000
11
13.7215174151
21
20.3209224773
31
0.0000000000
11
13.6842474934
21
20.2909399725
31
0.0000000000
11
13.6389515891
21
20.2639064623
31
0.0000000000
0
SPLINE
5
2CD
100
AcDbEntity
8
0
100
AcDbSpline
62
7
6
CONTINUOUS
70
0
71
3
72
8
73
4
74
2
42
0.0000001000
43
0.0000001000
44
0.0000000001
12
0.0000075722
22
0.0718432513
32
0.0000000000
13
-0.0075338391
23
0.0713991650
33
0.0000000000
40
0.0000000000
40
0.0000000000
40
0.0000000000
40
0.0000000000
40
1.0000000000
40
1.0000000000
40
1.0000000000
40
1.0000000000
10
13.7792816802
20
21.1410222627
30
0.0000000000
10
13.7792842042
20
21.1649700131
30
0.0000000000
10
13.7779023855
20
21.1889146122
30
0.0000000000
10
13.7753911058
20
21.2127143338
30
0.0000000000
11
13.7792816802
21
21.1410222627
31
0.0000000000
11
13.7753911058
21
21.2127143338
31
0.0000000000
0
SPLINE
5
2CE
100
AcDbEntity
8
0
100
AcDbSpline
62
7
6
CONTINUOUS
70
0
71
3
72
13
73
9
74
7
42
0.0000001000
43
0.0000001000
44
0.0000000001
12
-0.0000493358
22
0.2418626376
32
0.0000000000
13
-0.2155771372
23
0.1077885686
33
0.0000000000
40
0.0000000000
40
0.0000000000
40
0.0000000000
40
0.0000000000
40
0.0824118099
40
0.2333349650
40
0.3970029920
40
0.5776265293
40
0.7786277820
40
1.0000000000
40
1.0000000000
40
1.0000000000
40
1.0000000000
10
13.7792722993
20
-15.7622961550
30
0.0000000000
10
13.7792709440
20
-15.7556520424
30
0.0000000000
10
13.7777864846
20
-15.7368383331
30
0.0000000000
10
13.7681975377
20
-15.7060167007
30
0.0000000000
10
13.7471946965
20
-15.6718260678
30
0.0000000000
10
13.7169987590
20
-15.6397504909
30
0.0000000000
10
13.6783263079
20
-15.6102888240
30
0.0000000000
10
13.6487426759
20
-15.5934679262
30
0.0000000000
10
13.6328350796
20
-15.5855141280
30
0.0000000000
11
13.7792722993
21
-15.7622961550
31
0.0000000000
11
13.7777044920
21
-15.7424495191
31
0.0000000000
11
13.7671833906
21
-15.7076283830
31
0.0000000000
11
13.7469051528
21
-15.6737918176
31
0.0000000000
11
13.7173784636
21
-15.6418009731
31
0.0000000000
11
13.6790676846
21
-15.6121482597
31
0.0000000000
11
13.6328350796
21
-15.5855141280
31
0.0000000000
0
SPLINE
5
2CF
100
AcDbEntity
8
0
100
AcDbSpline
62
7
6
CONTINUOUS
70
0
71
3
72
15
73
11
74
9
42
0.0000001000
43
0.0000001000
44
0.0000000001
12
0.7705270650
22
-0.3853542639
32
0.0000000000
13
0.7940192165
23
0.3332752263
33
0.0000000000
40
0.0000000000
40
0.0000000000
40
0.0000000000
40
0.0000000000
40
0.0705277847
40
0.1949331015
40
0.3216321179
40
0.4513086541
40
0.5846519790
40
0.7225437846
40
0.8660743936
40
1.0000000000
40
1.0000000000
40
1.0000000000
40
1.0000000000
10
1.8792791903
20
-24.1768757464
30
0.0000000000
10
1.8973937126
20
-24.1859351405
30
0.0000000000
10
1.9483296735
20
-24.2092711666
30
0.0000000000
10
2.0356973613
20
-24.2397029058
30
0.0000000000
10
2.1427129859
20
-24.2631051759
30
0.0000000000
10
2.2543039376
20
-24.2738507728
30
0.0000000000
10
2.3695946403
20
-24.2713449899
30
0.0000000000
10
2.4877693726
20
-24.2550494315
30
0.0000000000
10
2.6035129304
20
-24.2255962165
30
0.0000000000
10
2.6784093816
20
-24.1981172871
30
0.0000000000
10
2.7138558833
20
-24.1832392582
30
0.0000000000
11
1.8792791903
21
-24.1768757464
31
0.0000000000
11
1.9345153107
21
-24.2021809332
31
0.0000000000
11
2.0356539132
21
-24.2374422093
31
0.0000000000
11
2.1422076848
21
-24.2608004550
31
0.0000000000
11
2.2533329136
21
-24.2715872245
31
0.0000000000
11
2.3681127722
21
-24.2692076343
31
0.0000000000
11
2.4857403038
21
-24.2531343443
31
0.0000000000
11
2.6055415650
21
-24.2228267097
31
0.0000000000
11
2.7138558833
21
-24.1832392582
31
0.0000000000
0
SPLINE
5
2D0
100
AcDbEntity
8
0
100
AcDbSpline
62
7
6
CONTINUOUS
70
0
71
3
72
16
73
12
74
10
42
0.0000001000
43
0.0000001000
44
0.0000000001
12
0.0378911318
22
-1.1277322746
32
0.0000000000
13
1.0099004801
23
-0.5048060521
33
0.0000000000
40
0.0000000000
40
0.0000000000
40
0.0000000000
40
0.0000000000
40
0.1238980173
40
0.2543398441
40
0.3792945857
40
0.4989213466
40
0.6132997264
40
0.7231215824
40
0.8296936827
40
0.9342176132
40
1.0000000000
40
1.0000000000
40
1.0000000000
40
1.0000000000
10
-13.4854077799
20
-15.8262531512
30
0.0000000000
10
-13.4838429012
20
-15.8728277488
30
0.0000000000
10
-13.4762446569
20
-15.9683565967
30
0.0000000000
10
-13.4501790127
20
-16.1088895227
30
0.0000000000
10
-13.4084286559
20
-16.2439592696
30
0.0000000000
10
-13.3528601241
20
-16.3673769727
30
0.0000000000
10
-13.2849055242
20
-16.4778137478
30
0.0000000000
10
-13.2061123451
20
-16.5745409967
30
0.0000000000
10
-13.1177965090
20
-16.6573350671
30
0.0000000000
10
-13.0326731765
20
-16.7178275781
30
0.0000000000
10
-12.9765491130
20
-16.7489640933
30
0.0000000000
10
-12.9544045584
20
-16.7600332090
30
0.0000000000
11
-13.4854077799
21
-15.8262531512
31
0.0000000000
11
-13.4740955330
21
-15.9655919270
31
0.0000000000
11
-13.4469634299
21
-16.1102331634
31
0.0000000000
11
-13.4050600086
21
-16.2448348868
31
0.0000000000
11
-13.3494279263
21
-16.3677980479
31
0.0000000000
11
-13.2816377700
21
-16.4775985136
31
0.0000000000
11
-13.2032766795
21
-16.5735719507
31
0.0000000000
11
-13.1154981510
21
-16.6557376628
31
0.0000000000
11
-13.0193442356
21
-16.7240046295
31
0.0000000000
11
-12.9544045584
21
-16.7600332090
31
0.0000000000
0
SPLINE
5
2D1
100
AcDbEntity
8
0
100
AcDbSpline
62
7
6
CONTINUOUS
70
0
71
3
72
14
73
10
74
8
42
0.0000001000
43
0.0000001000
44
0.0000000001
12
-1.1557659343
22
-35.6002163908
32
0.0000000000
13
1.1959283496
23
-35.5988900200
33
0.0000000000
40
0.0000000000
40
0.0000000000
40
0.0000000000
40
0.0000000000
40
0.1446706530
40
0.2890281420
40
0.4326996159
40
0.5756779816
40
0.7179559884
40
0.8595271083
40
1.0000000000
40
1.0000000000
40
1.0000000000
40
1.0000000000
10
-13.4854264990
20
19.7863828027
30
0.0000000000
10
-13.5411616364
20
18.0696139525
30
0.0000000000
10
-13.6369351547
20
14.6392656685
30
0.0000000000
10
-13.7330605351
20
9.5026567734
30
0.0000000000
10
-13.7812235055
20
4.3854620382
30
0.0000000000
10
-13.7813349326
20
-0.7072692226
30
0.0000000000
10
-13.7333935877
20
-5.7748390232
30
0.0000000000
10
-13.6374920468
20
-10.8119712750
30
0.0000000000
10
-13.5414063819
20
-14.1593606445
30
0.0000000000
10
-13.4854078774
20
-15.8262536524
30
0.0000000000
11
-13.4854264990
21
19.7863828027
31
0.0000000000
11
-13.6291305308
21
14.6353669699
31
0.0000000000
11
-13.7252248763
21
9.4943997099
31
0.0000000000
11
-13.7732729601
21
4.3771951633
31
0.0000000000
11
-13.7732671045
21
-0.7155471555
31
0.0000000000
11
-13.7252061811
21
-5.7831155101
31
0.0000000000
11
-13.6290956104
21
-10.8248171759
31
0.0000000000
11
-13.4854078774
21
-15.8262536524
31
0.0000000000
0
SPLINE
5
2D2
100
AcDbEntity
8
0
100
AcDbSpline
62
7
6
CONTINUOUS
70
0
71
3
72
19
73
15
74
13
42
0.0000001000
43
0.0000001000
44
0.0000000001
12
-1.6392347846
22
-0.9558296695
32
0.0000000000
13
-0.0615554043
23
-1.8965056930
33
0.0000000000
40
0.0000000000
40
0.0000000000
40
0.0000000000
40
0.0000000000
40
0.0733645946
40
0.1551723665
40
0.2382787289
40
0.3226670944
40
0.4081597521
40
0.4944600840
40
0.5811961316
40
0.6679534606
40
0.7543206176
40
0.8399333161
40
0.9245205508
40
1.0000000000
40
1.0000000000
40
1.0000000000
40
1.0000000000
10
-12.5797224153
20
21.3719162713
30
0.0000000000
10
-12.6198096804
20
21.3485415859
30
0.0000000000
10
-12.7021207577
20
21.2947346785
30
0.0000000000
10
-12.8197811754
20
21.2002207316
30
0.0000000000
10
-12.9330982520
20
21.0902802545
30
0.0000000000
10
-13.0379663677
20
20.9691926005
30
0.0000000000
10
-13.1337835636
20
20.8383297765
30
0.0000000000
10
-13.2198417325
20
20.6991156389
30
0.0000000000
10
-13.2953822156
20
20.5530288550
30
0.0000000000
10
-13.3596291612
20
20.4015877323
30
0.0000000000
10
-13.4118136854
20
20.2463221973
30
0.0000000000
10
-13.4511795052
20
20.0887194418
30
0.0000000000
10
-13.4761607480
20
19.9351814195
30
0.0000000000
10
-13.4838780832
20
19.8340895111
30
0.0000000000
10
-13.4854268059
20
19.7863737761
30
0.0000000000
11
-12.5797224153
21
21.3719162713
31
0.0000000000
11
-12.6963706128
21
21.2959316480
31
0.0000000000
11
-12.8175468311
21
21.1989364494
31
0.0000000000
11
-12.9308654155
21
21.0892935623
31
0.0000000000
11
-13.0358109372
21
20.9683717542
31
0.0000000000
11
-13.1317309589
21
20.8375653588
31
0.0000000000
11
-13.2178844219
21
20.6983244611
31
0.0000000000
11
-13.2934882423
21
20.5521536185
31
0.0000000000
11
-13.3577454074
21
20.4006077151
31
0.0000000000
11
-13.4098728232
21
20.2452541968
31
0.0000000000
11
-13.4491082456
21
20.0876296938
31
0.0000000000
11
-13.4746967758
21
19.9291940874
31
0.0000000000
11
-13.4854268059
21
19.7863737761
31
0.0000000000
0
SPLINE
5
2D3
100
AcDbEntity
8
0
100
AcDbSpline
62
7
6
CONTINUOUS
70
0
71
3
72
10
73
6
74
4
42
0.0000001000
43
0.0000001000
44
0.0000000001
12
-0.0009473905
22
0.0129284418
32
0.0000000000
13
-0.0113269603
23
0.0063928555
33
0.0000000000
40
0.0000000000
40
0.0000000000
40
0.0000000000
40
0.0000000000
40
0.0987828997
40
0.8567589871
40
1.0000000000
40
1.0000000000
40
1.0000000000
40
1.0000000000
10
3.4967031542
20
25.7999649802
30
0.0000000000
10
3.4966719589
20
25.8003906831
30
0.0000000000
10
3.4962176330
20
25.8040799814
30
0.0000000000
10
3.4936633065
20
25.8083300445
30
0.0000000000
10
3.4903901055
20
25.8104850773
30
0.0000000000
10
3.4898492770
20
25.8107903170
30
0.0000000000
11
3.4967031542
21
25.7999649802
31
0.0000000000
11
3.4965441400
21
25.8012407848
31
0.0000000000
11
3.4914060671
21
25.8097577084
31
0.0000000000
11
3.4898492770
21
25.8107903170
31
0.0000000000
0
SPLINE
5
2D4
100
AcDbEntity
8
0
100
AcDbSpline
62
7
6
CONTINUOUS
70
0
71
3
72
10
73
6
74
4
42
0.0000001000
43
0.0000001000
44
0.0000000001
12
-0.0009920622
22
0.0129891822
32
0.0000000000
13
-0.0113660186
23
0.0063151626
33
0.0000000000
40
0.0000000000
40
0.0000000000
40
0.0000000000
40
0.0000000000
40
0.0811237922
40
0.8361333356
40
1.0000000000
40
1.0000000000
40
1.0000000000
40
1.0000000000
10
9.0516750967
20
23.0224651610
30
0.0000000000
10
9.0516482701
20
23.0228164049
30
0.0000000000
10
9.0512251318
20
23.0264371739
30
0.0000000000
10
9.0487832789
20
23.0307567044
30
0.0000000000
10
9.0454587105
20
23.0329624775
30
0.0000000000
10
9.0448378733
20
23.0333074257
30
0.0000000000
11
9.0516750967
21
23.0224651610
31
0.0000000000
11
9.0515509259
21
23.0235189121
31
0.0000000000
11
9.0466101033
21
23.0321196704
31
0.0000000000
11
9.0448378733
21
23.0333074257
31
0.0000000000
0
SPLINE
5
2D5
100
AcDbEntity
8
0
100
AcDbSpline
62
7
6
CONTINUOUS
70
0
71
3
72
15
73
11
74
9
42
0.0000001000
43
0.0000001000
44
0.0000000001
12
0.0548220266
22
0.1975428018
32
0.0000000000
13
0.1824057236
23
0.0935775889
33
0.0000000000
40
0.0000000000
40
0.0000000000
40
0.0000000000
40
0.0000000000
40
0.1029198789
40
0.2104743227
40
0.3238712058
40
0.4440050730
40
0.5714710306
40
0.7065956722
40
0.8494731528
40
1.0000000000
40
1.0000000000
40
1.0000000000
40
1.0000000000
10
-3.1124940625
20
23.1497666496
30
0.0000000000
10
-3.1106133037
20
23.1565436767
30
0.0000000000
10
-3.1056969953
20
23.1701246887
30
0.0000000000
10
-3.0953091332
20
23.1897369569
30
0.0000000000
10
-3.0818606707
20
23.2088433939
30
0.0000000000
10
-3.0654512079
20
23.2273249765
30
0.0000000000
10
-3.0461909029
20
23.2450758709
30
0.0000000000
10
-3.0242039574
20
23.2619911098
30
0.0000000000
10
-2.9996312107
20
23.2779687049
30
0.0000000000
10
-2.9820721071
20
23.2876848291
30
0.0000000000
10
-2.9729197876
20
23.2923801423
30
0.0000000000
11
-3.1124940625
21
23.1497666496
31
0.0000000000
11
-3.1053666112
21
23.1696258435
31
0.0000000000
11
-3.0951114824
21
23.1891455152
31
0.0000000000
11
-3.0817944068
21
23.2082005738
31
0.0000000000
11
-3.0655007359
21
23.2266689081
31
0.0000000000
11
-3.0463348949
21
23.2444321676
31
0.0000000000
11
-3.0244197098
21
23.2613765233
31
0.0000000000
11
-2.9998956220
21
23.2773933941
31
0.0000000000
11
-2.9729197876
21
23.2923801423
31
0.0000000000
0
SPLINE
5
2D6
100
AcDbEntity
8
0
100
AcDbSpline
62
7
6
CONTINUOUS
70
0
71
3
72
9
73
5
74
3
42
0.0000001000
43
0.0000001000
44
0.0000000001
12
-0.0110755293
22
-0.0399089786
32
0.0000000000
13
0.0000076398
23
-0.0414526487
33
0.0000000000
40
0.0000000000
40
0.0000000000
40
0.0000000000
40
0.0000000000
40
0.7184555853
40
1.0000000000
40
1.0000000000
40
1.0000000000
40
1.0000000000
10
-3.1124940625
20
23.1497666496
30
0.0000000000
10
-3.1151464878
20
23.1402090400
30
0.0000000000
10
-3.1169602529
20
23.1263941661
30
0.0000000000
10
-3.1173183997
20
23.1125699946
30
0.0000000000
10
-3.1173176827
20
23.1086797407
30
0.0000000000
11
-3.1124940625
21
23.1497666496
31
0.0000000000
11
-3.1170013484
21
23.1203534941
31
0.0000000000
11
-3.1173176827
21
23.1086797407
31
0.0000000000
0
SPLINE
5
2D7
100
AcDbEntity
8
0
100
AcDbSpline
62
7
6
CONTINUOUS
70
0
71
3
72
13
73
9
74
7
42
0.0000001000
43
0.0000001000
44
0.0000000001
12
0.4109068760
22
0.2010615886
32
0.0000000000
13
0.4098481622
23
-0.2048837263
33
0.0000000000
40
0.0000000000
40
0.0000000000
40
0.0000000000
40
0.0000000000
40
0.2005143800
40
0.3892497752
40
0.5669911938
40
0.7362259433
40
0.8992258387
40
1.0000000000
40
1.0000000000
40
1.0000000000
40
1.0000000000
10
9.6904501866
20
23.1079992691
30
0.0000000000
10
9.7179144325
20
23.1214378490
30
0.0000000000
10
9.7728041999
20
23.1444992194
30
0.0000000000
10
9.8565365059
20
23.1671419686
30
0.0000000000
10
9.9380536201
20
23.1763910705
30
0.0000000000
10
10.0161049279
20
23.1719718529
30
0.0000000000
10
10.0805958841
20
23.1560259120
30
0.0000000000
10
10.1177380038
20
23.1402201823
30
0.0000000000
10
10.1315053721
20
23.1333378537
30
0.0000000000
11
9.6904501866
21
23.1079992691
31
0.0000000000
11
9.7751535426
21
23.1432024443
31
0.0000000000
11
9.8585962796
21
23.1653775341
31
0.0000000000
11
9.9394284349
21
23.1741769687
31
0.0000000000
11
10.0167046775
21
23.1694902507
31
0.0000000000
11
10.0890450392
21
23.1514080637
31
0.0000000000
11
10.1315053721
21
23.1333378537
31
0.0000000000
0
SPLINE
5
2D8
100
AcDbEntity
8
0
100
AcDbSpline
62
7
6
CONTINUOUS
70
0
71
3
72
11
73
7
74
5
42
0.0000001000
43
0.0000001000
44
0.0000000001
12
-0.3714534514
22
0.3656050754
32
0.0000000000
13
-0.4665225503
23
0.2329349302
33
0.0000000000
40
0.0000000000
40
0.0000000000
40
0.0000000000
40
0.0000000000
40
0.3313178509
40
0.6331039431
40
0.9049039262
40
1.0000000000
40
1.0000000000
40
1.0000000000
40
1.0000000000
10
13.7753911058
20
21.2127143338
30
0.0000000000
10
13.7343680527
20
21.2530914965
30
0.0000000000
10
13.6527944108
20
21.3271132386
30
0.0000000000
10
13.5273376424
20
21.4221972775
30
0.0000000000
10
13.4284384812
20
21.4834951043
30
0.0000000000
10
13.3719540130
20
21.5131305121
30
0.0000000000
10
13.3571658587
20
21.5205142446
30
0.0000000000
11
13.7753911058
21
21.2127143338
31
0.0000000000
11
13.6472912129
21
21.3285127481
31
0.0000000000
11
13.5217099237
21
21.4232193599
31
0.0000000000
11
13.4010853832
21
21.4974994913
31
0.0000000000
11
13.3571658587
21
21.5205142446
31
0.0000000000
0
SPLINE
5
2D9
100
AcDbEntity
8
0
100
AcDbSpline
62
7
6
CONTINUOUS
70
0
71
3
72
14
73
10
74
8
42
0.0000001000
43
0.0000001000
44
0.0000000001
12
0.2708906112
22
0.1349093253
32
0.0000000000
13
0.2717712229
23
-0.1267148392
33
0.0000000000
40
0.0000000000
40
0.0000000000
40
0.0000000000
40
0.0000000000
40
0.2329202022
40
0.4399164115
40
0.6194083446
40
0.7700461865
40
0.8880329346
40
0.9699863429
40
1.0000000000
40
1.0000000000
40
1.0000000000
40
1.0000000000
10
2.3808435556
20
26.7628025846
30
0.0000000000
10
2.4018755209
20
26.7732769537
30
0.0000000000
10
2.4417695195
20
26.7927339902
30
0.0000000000
10
2.4984726629
20
26.8189361189
30
0.0000000000
10
2.5484185904
20
26.8401604546
30
0.0000000000
10
2.5904101812
20
26.8563316876
30
0.0000000000
10
2.6250570413
20
26.8662397187
30
0.0000000000
10
2.6464325260
20
26.8710459096
30
0.0000000000
10
2.6597461916
20
26.8690993620
30
0.0000000000
10
2.6624651410
20
26.8678316368
30
0.0000000000
11
2.3808435556
21
26.7628025846
31
0.0000000000
11
2.4442263368
21
26.7936429283
31
0.0000000000
11
2.5011505269
21
26.8197905986
31
0.0000000000
11
2.5511718718
21
26.8409661222
31
0.0000000000
11
2.5939024004
21
26.8568489525
31
0.0000000000
11
2.6282092801
21
26.8667455599
31
0.0000000000
11
2.6528173145
21
26.8698349134
31
0.0000000000
11
2.6624651410
21
26.8678316368
31
0.0000000000
0
SPLINE
5
2DA
100
AcDbEntity
8
0
100
AcDbSpline
62
7
6
CONTINUOUS
70
0
71
3
72
15
73
11
74
9
42
0.0000001000
43
0.0000001000
44
0.0000000001
12
0.0000000000
22
0.6311300022
32
0.0000000000
13
-0.5654420458
23
0.2826653478
33
0.0000000000
40
0.0000000000
40
0.0000000000
40
0.0000000000
40
0.0000000000
40
0.1606293349
40
0.3126800366
40
0.4557227302
40
0.5905083928
40
0.7175351878
40
0.8389320932
40
0.9563750069
40
1.0000000000
40
1.0000000000
40
1.0000000000
40
1.0000000000
10
6.1487456883
20
24.7137952788
30
0.0000000000
10
6.1487456883
20
24.7475879430
30
0.0000000000
10
6.1456106077
20
24.8134292867
30
0.0000000000
10
6.1306793825
20
24.9083383353
30
0.0000000000
10
6.1058043530
20
24.9955501807
30
0.0000000000
10
6.0712870983
20
25.0737479186
30
0.0000000000
10
6.0274855654
20
25.1418625712
30
0.0000000000
10
5.9749881852
20
25.1987333176
30
0.0000000000
10
5.9268886882
20
25.2342604171
30
0.0000000000
10
5.8970871534
20
25.2505477726
30
0.0000000000
10
5.8888646850
20
25.2546581972
30
0.0000000000
11
6.1487456883
21
24.7137952788
31
0.0000000000
11
6.1436483493
21
24.8150450417
31
0.0000000000
11
6.1284176533
21
24.9097924379
31
0.0000000000
11
6.1033091399
21
24.9965090830
31
0.0000000000
11
6.0686102576
21
25.0741777957
31
0.0000000000
11
6.0249463522
21
25.1414143916
31
0.0000000000
11
5.9727673623
21
25.1975174469
31
0.0000000000
11
5.9130563912
21
25.2414336537
31
0.0000000000
11
5.8888646850
21
25.2546581972
31
0.0000000000
0
SPLINE
5
2DB
100
AcDbEntity
8
0
100
AcDbSpline
62
7
6
CONTINUOUS
70
0
71
3
72
17
73
13
74
11
42
0.0000001000
43
0.0000001000
44
0.0000000001
12
1.0551396127
22
0.5296213678
32
0.0000000000
13
0.9898942831
23
0.6433721347
33
0.0000000000
40
0.0000000000
40
0.0000000000
40
0.0000000000
40
0.0000000000
40
0.0675213051
40
0.1418306670
40
0.2230260770
40
0.3118684727
40
0.4084188083
40
0.5131016756
40
0.6257109067
40
0.7455368430
40
0.8710698098
40
1.0000000000
40
1.0000000000
40
1.0000000000
40
1.0000000000
10
12.7574161306
20
-17.0721361035
30
0.0000000000
10
12.7811642651
20
-17.0602158615
30
0.0000000000
10
12.8308306444
20
-17.0347429357
30
0.0000000000
10
12.9083664673
20
-16.9936108795
30
0.0000000000
10
12.9927645719
20
-16.9475251844
30
0.0000000000
10
13.0842915381
20
-16.8962454368
30
0.0000000000
10
13.1833116196
20
-16.8394414109
30
0.0000000000
10
13.2898431376
20
-16.7769464601
30
0.0000000000
10
13.4036286545
20
-16.7087262381
30
0.0000000000
10
13.5237465070
20
-16.6351231762
30
0.0000000000
10
13.6485634178
20
-16.5569095288
30
0.0000000000
10
13.7328486864
20
-16.5028310482
30
0.0000000000
10
13.7753911058
20
-16.4751810176
30
0.0000000000
11
12.7574161306
21
-17.0721361035
31
0.0000000000
11
12.8283723605
21
-17.0358069416
31
0.0000000000
11
12.9058925692
21
-16.9947324125
31
0.0000000000
11
12.9900428248
21
-16.9488221359
31
0.0000000000
11
13.0815614210
21
-16.8975804038
31
0.0000000000
11
13.1804467039
21
-16.8408809299
31
0.0000000000
11
13.2870558415
21
-16.7783616974
31
0.0000000000
11
13.4010853832
21
-16.7100093003
31
0.0000000000
11
13.5217099237
21
-16.6361004364
31
0.0000000000
11
13.6472912129
21
-16.5573993380
31
0.0000000000
11
13.7753911058
21
-16.4751810176
31
0.0000000000
0
SPLINE
5
2DC
100
AcDbEntity
8
0
100
AcDbSpline
62
7
6
CONTINUOUS
70
0
71
3
72
8
73
4
74
2
42
0.0000001000
43
0.0000001000
44
0.0000000001
12
0.0055971906
22
0.0084399740
32
0.0000000000
13
-0.0019635754
23
0.0093247255
33
0.0000000000
40
0.0000000000
40
0.0000000000
40
0.0000000000
40
0.0000000000
40
1.0000000000
40
1.0000000000
40
1.0000000000
40
1.0000000000
10
13.7753911058
20
-16.4751810176
30
0.0000000000
10
13.7772568360
20
-16.4723676929
30
0.0000000000
10
13.7799854172
20
-16.4688970710
30
0.0000000000
10
13.7793308920
20
-16.4657888292
30
0.0000000000
11
13.7753911058
21
-16.4751810176
31
0.0000000000
11
13.7793308920
21
-16.4657888292
31
0.0000000000
0
SPLINE
5
2DD
100
AcDbEntity
8
0
100
AcDbSpline
62
7
6
CONTINUOUS
70
0
71
3
72
18
73
14
74
12
42
0.0000001000
43
0.0000001000
44
0.0000000001
12
0.6585649027
22
-0.3292824513
32
0.0000000000
13
-0.0000000000
23
-0.7362979450
33
0.0000000000
40
0.0000000000
40
0.0000000000
40
0.0000000000
40
0.0000000000
40
0.0792653594
40
0.1637066815
40
0.2524724019
40
0.3451271580
40
0.4401120866
40
0.5368851972
40
0.6335836001
40
0.7296003675
40
0.8232033591
40
0.9137385471
40
1.0000000000
40
1.0000000000
40
1.0000000000
40
1.0000000000
10
8.7295777295
20
17.2863890298
30
0.0000000000
10
8.7469781907
20
17.2776887992
30
0.0000000000
10
8.7816497631
20
17.2571155876
30
0.0000000000
10
8.8308035670
20
17.2191800195
30
0.0000000000
10
8.8779285234
20
17.1738762199
30
0.0000000000
10
8.9220136000
20
17.1221795395
30
0.0000000000
10
8.9622650475
20
17.0650336131
30
0.0000000000
10
8.9977980035
20
17.0036947678
30
0.0000000000
10
9.0279719006
20
16.9392714217
30
0.0000000000
10
9.0521235611
20
16.8731819218
30
0.0000000000
10
9.0698091322
20
16.8066317410
30
0.0000000000
10
9.0806495853
20
16.7410543055
30
0.0000000000
10
9.0832388302
20
16.6976347160
30
0.0000000000
10
9.0832388302
20
16.6764633392
30
0.0000000000
11
8.7295777295
21
17.2863890298
31
0.0000000000
11
8.7798972117
21
17.2568224899
31
0.0000000000
11
8.8292438614
21
17.2190003938
31
0.0000000000
11
8.8764678650
21
17.1738167249
31
0.0000000000
11
8.9208198080
21
17.1219796812
31
0.0000000000
11
8.9611490084
21
17.0648415273
31
0.0000000000
11
8.9968898665
21
17.0031998116
31
0.0000000000
11
9.0270784001
21
16.9387178250
31
0.0000000000
11
9.0512952344
21
16.8722979223
31
0.0000000000
11
9.0689066515
21
16.8056663855
31
0.0000000000
11
9.0796412367
21
16.7398754996
31
0.0000000000
11
9.0832388302
21
16.6764633392
31
0.0000000000
0
SPLINE
5
2DE
100
AcDbEntity
8
0
100
AcDbSpline
62
7
6
CONTINUOUS
70
0
71
3
72
14
73
10
74
8
42
0.0000001000
43
0.0000001000
44
0.0000000001
12
0.0000000000
22
-0.3164868317
32
0.0000000000
13
-0.2844942199
23
-0.1402506731
33
0.0000000000
40
0.0000000000
40
0.0000000000
40
0.0000000000
40
0.0000000000
40
0.1893369747
40
0.3665734988
40
0.5311546098
40
0.6848972396
40
0.8292569482
40
0.9687228975
40
1.0000000000
40
1.0000000000
40
1.0000000000
40
1.0000000000
10
9.0832388302
20
-21.2401690914
30
0.0000000000
10
9.0832388302
20
-21.2601433112
30
0.0000000000
10
9.0810624043
20
-21.2988680766
30
0.0000000000
10
9.0705801138
20
-21.3540954335
30
0.0000000000
10
9.0531230248
20
-21.4036194368
30
0.0000000000
10
9.0289616644
20
-21.4463643083
30
0.0000000000
10
8.9984229346
20
-21.4814469984
30
0.0000000000
10
8.9713178545
20
-21.5012058213
30
0.0000000000
10
8.9553378935
20
-21.5096155618
30
0.0000000000
10
8.9523718419
20
-21.5110777733
30
0.0000000000
11
9.0832388302
21
-21.2401690914
31
0.0000000000
11
9.0796412367
21
-21.2999836583
31
0.0000000000
11
9.0689066515
21
-21.3550399590
31
0.0000000000
11
9.0512952344
21
-21.4040600788
31
0.0000000000
11
9.0270784001
21
-21.4462631471
31
0.0000000000
11
8.9968898665
21
-21.4805566002
31
0.0000000000
11
8.9611490084
21
-21.5064574577
31
0.0000000000
11
8.9523718419
21
-21.5110777733
31
0.0000000000
0
SPLINE
5
2DF
100
AcDbEntity
8
0
100
AcDbSpline
62
7
6
CONTINUOUS
70
0
71
3
72
9
73
5
74
3
42
0.0000001000
43
0.0000001000
44
0.0000000001
12
-0.0524116030
22
-0.0162835663
32
0.0000000000
13
-0.0493400830
23
-0.0240351174
33
0.0000000000
40
0.0000000000
40
0.0000000000
40
0.0000000000
40
0.0000000000
40
0.4899934872
40
1.0000000000
40
1.0000000000
40
1.0000000000
40
1.0000000000
10
2.7677761988
20
26.0935391375
30
0.0000000000
10
2.7592157508
20
26.0908795236
30
0.0000000000
10
2.7419645831
20
26.0847257106
30
0.0000000000
10
2.7252329287
20
26.0772830547
30
0.0000000000
10
2.7168450075
20
26.0731970326
30
0.0000000000
11
2.7677761988
21
26.0935391375
31
0.0000000000
11
2.7424345630
21
26.0845394241
31
0.0000000000
11
2.7168450075
21
26.0731970326
31
0.0000000000
0
SPLINE
5
2E0
100
AcDbEntity
8
0
100
AcDbSpline
62
7
6
CONTINUOUS
70
0
71
3
72
9
73
5
74
3
42
0.0000001000
43
0.0000001000
44
0.0000000001
12
-0.0502803636
22
-0.0161753641
32
0.0000000000
13
-0.0473762501
23
-0.0233505524
33
0.0000000000
40
0.0000000000
40
0.0000000000
40
0.0000000000
40
0.0000000000
40
0.4902123986
40
1.0000000000
40
1.0000000000
40
1.0000000000
40
1.0000000000
10
8.3209989420
20
23.3154866482
30
0.0000000000
10
8.3127829228
20
23.3128435268
30
0.0000000000
10
8.2962329168
20
23.3067812968
30
0.0000000000
10
8.2801735188
20
23.2995260218
30
0.0000000000
10
8.2721229105
20
23.2955580811
30
0.0000000000
11
8.3209989420
21
23.3154866482
31
0.0000000000
11
8.2966747837
21
23.3066132677
31
0.0000000000
11
8.2721229105
21
23.2955580811
31
0.0000000000
0
SPLINE
5
2E1
100
AcDbEntity
8
0
100
AcDbSpline
62
7
6
CONTINUOUS
70
0
71
3
72
12
73
8
74
6
42
0.0000001000
43
0.0000001000
44
0.0000000001
12
0.2232195028
22
0.0718104737
32
0.0000000000
13
0.2099080423
23
-0.1048629522
33
0.0000000000
40
0.0000000000
40
0.0000000000
40
0.0000000000
40
0.0000000000
40
0.1665047016
40
0.3506519844
40
0.5559548999
40
0.7852900837
40
1.0000000000
40
1.0000000000
40
1.0000000000
40
1.0000000000
10
8.3209989420
20
23.3154866482
30
0.0000000000
10
8.3333879742
20
23.3194722420
30
0.0000000000
10
8.3604288453
20
23.3250932322
30
0.0000000000
10
8.4040965746
20
23.3257687190
30
0.0000000000
10
8.4521006227
20
23.3183857095
30
0.0000000000
10
8.5007458762
20
23.3033663475
30
0.0000000000
10
8.5325430613
20
23.2892967819
30
0.0000000000
10
8.5475661741
20
23.2817917433
30
0.0000000000
11
8.3209989420
21
23.3154866482
31
0.0000000000
11
8.3591813397
21
23.3236390836
31
0.0000000000
11
8.4023506459
21
23.3245983261
31
0.0000000000
11
8.4499779203
21
23.3175864724
31
0.0000000000
11
8.5014499381
21
23.3020147655
31
0.0000000000
11
8.5475661741
21
23.2817917433
31
0.0000000000
0
SPLINE
5
2E2
100
AcDbEntity
8
0
100
AcDbSpline
62
7
6
CONTINUOUS
70
0
71
3
72
12
73
8
74
6
42
0.0000001000
43
0.0000001000
44
0.0000000001
12
0.2221403376
22
0.0690159568
32
0.0000000000
13
0.2082362667
23
-0.1040158412
33
0.0000000000
40
0.0000000000
40
0.0000000000
40
0.0000000000
40
0.0000000000
40
0.1675752984
40
0.3529382434
40
0.5596034574
40
0.7905636802
40
1.0000000000
40
1.0000000000
40
1.0000000000
40
1.0000000000
10
2.7677761988
20
26.0935391375
30
0.0000000000
10
2.7801846099
20
26.0973942606
30
0.0000000000
10
2.8072307639
20
26.1027595004
30
0.0000000000
10
2.8508333110
20
26.1031211820
30
0.0000000000
10
2.8987329430
20
26.0954874443
30
0.0000000000
10
2.9467564926
20
26.0804446769
30
0.0000000000
10
2.9780176177
20
26.0665590051
30
0.0000000000
10
2.9925550301
20
26.0592974401
30
0.0000000000
11
2.7677761988
21
26.0935391375
31
0.0000000000
11
2.8059699488
21
26.1013310070
31
0.0000000000
11
2.8490832315
21
26.1019768128
31
0.0000000000
11
2.8966044916
21
26.0947121324
31
0.0000000000
11
2.9479622553
21
26.0789411290
31
0.0000000000
11
2.9925550301
21
26.0592974401
31
0.0000000000
0
SPLINE
5
2E3
100
AcDbEntity
8
0
100
AcDbSpline
62
9
6
CONTINUOUS
70
0
71
3
72
13
73
9
74
7
42
0.0000001000
43
0.0000001000
44
0.0000000001
12
0.1441195947
22
0.1366244388
32
0.0000000000
13
-0.0404013215
23
0.1937587923
33
0.0000000000
40
0.0000000000
40
0.0000000000
40
0.0000000000
40
0.0000000000
40
0.0171931954
40
0.1768606471
40
0.3502180887
40
0.5435080745
40
0.7598596069
40
1.0000000000
40
1.0000000000
40
1.0000000000
40
1.0000000000
10
13.1483858779
20
18.8203336556
30
0.0000000000
10
13.1492118367
20
18.8211166591
30
0.0000000000
10
13.1575753277
20
18.8293092505
30
0.0000000000
10
13.1713196855
20
18.8482685091
30
0.0000000000
10
13.1838167477
20
18.8810133013
30
0.0000000000
10
13.1896736407
20
18.9192594001
30
0.0000000000
10
13.1889516501
20
18.9622792085
30
0.0000000000
10
13.1843701692
20
18.9921345388
30
0.0000000000
10
13.1811361727
20
19.0076443097
30
0.0000000000
11
13.1483858779
21
18.8203336556
31
0.0000000000
11
13.1508244768
21
18.8227225749
31
0.0000000000
11
13.1695958131
21
18.8481459052
31
0.0000000000
11
13.1822206576
21
18.8800508251
31
0.0000000000
11
13.1884243710
21
18.9178016131
31
0.0000000000
11
13.1880629110
21
18.9606217000
31
0.0000000000
11
13.1811361727
21
19.0076443097
31
0.0000000000
0
SPLINE
5
2E4
100
AcDbEntity
8
0
100
AcDbSpline
62
9
6
CONTINUOUS
70
0
71
3
72
15
73
11
74
9
42
0.0000001000
43
0.0000001000
44
0.0000000001
12
-0.7966349767
22
0.3983059990
32
0.0000000000
13
-0.0300482500
23
0.8890653807
33
0.0000000000
40
0.0000000000
40
0.0000000000
40
0.0000000000
40
0.0000000000
40
0.1087666220
40
0.2188776777
40
0.3329552854
40
0.4524698734
40
0.5784815937
40
0.7116327681
40
0.8521632193
40
1.0000000000
40
1.0000000000
40
1.0000000000
40
1.0000000000
10
-12.9545276027
20
-16.7599741026
30
0.0000000000
10
-12.9834100345
20
-16.7455333033
30
0.0000000000
10
-13.0389487691
20
-16.7113098987
30
0.0000000000
10
-13.1132088768
20
-16.6455495831
30
0.0000000000
10
-13.1778628276
20
-16.5662345622
30
0.0000000000
10
-13.2324244825
20
-16.4742065621
30
0.0000000000
10
-13.2763730461
20
-16.3705506832
30
0.0000000000
10
-13.3093006509
20
-16.2564310944
30
0.0000000000
10
-13.3309040184
20
-16.1331106295
30
0.0000000000
10
-13.3374633305
20
-16.0477128019
30
0.0000000000
10
-13.3389440760
20
-16.0039006140
30
0.0000000000
11
-12.9545276027
21
-16.7599741026
31
0.0000000000
11
-13.0369477762
21
-16.7092961819
31
0.0000000000
11
-13.1104354922
21
-16.6445341918
31
0.0000000000
11
-13.1748131537
21
-16.5660881565
31
0.0000000000
11
-13.2293636088
21
-16.4748327884
31
0.0000000000
11
-13.2734811294
21
-16.3717828106
31
0.0000000000
11
-13.3066760567
21
-16.2580816565
31
0.0000000000
11
-13.3285774024
21
-16.1350030008
31
0.0000000000
11
-13.3389440760
21
-16.0039006140
31
0.0000000000
0
SPLINE
5
2E5
100
AcDbEntity
8
0
100
AcDbSpline
62
7
6
CONTINUOUS
70
0
71
3
72
9
73
5
74
3
42
0.0000001000
43
0.0000001000
44
0.0000000001
12
-0.0518542419
22
-0.0166023986
32
0.0000000000
13
-0.0487246985
23
-0.0242982675
33
0.0000000000
40
0.0000000000
40
0.0000000000
40
0.0000000000
40
0.0000000000
40
0.4897603159
40
1.0000000000
40
1.0000000000
40
1.0000000000
40
1.0000000000
10
8.9279953462
20
23.0134295637
30
0.0000000000
10
8.9195299629
20
23.0107191651
30
0.0000000000
10
8.9024705399
20
23.0044619848
30
0.0000000000
10
8.8859404367
20
22.9969255105
30
0.0000000000
10
8.8776533451
20
22.9927928638
30
0.0000000000
11
8.9279953462
21
23.0134295637
31
0.0000000000
11
8.9029468715
21
23.0042832698
31
0.0000000000
11
8.8776533451
21
22.9927928638
31
0.0000000000
0
SPLINE
5
2E6
100
AcDbEntity
8
0
100
AcDbSpline
62
7
6
CONTINUOUS
70
0
71
3
72
9
73
5
74
3
42
0.0000001000
43
0.0000001000
44
0.0000000001
12
-0.0038588150
22
-0.0060437679
32
0.0000000000
13
-0.0074305183
23
-0.0014562581
33
0.0000000000
40
0.0000000000
40
0.0000000000
40
0.0000000000
40
0.0000000000
40
0.0719497757
40
1.0000000000
40
1.0000000000
40
1.0000000000
40
1.0000000000
10
8.6219393014
20
18.4554902504
30
0.0000000000
10
8.6218467544
20
18.4553453012
30
0.0000000000
10
8.6204726218
20
18.4534077299
30
0.0000000000
10
8.6178937112
20
18.4527193429
30
0.0000000000
10
8.6155950798
20
18.4522688494
30
0.0000000000
11
8.6219393014
21
18.4554902504
31
0.0000000000
11
8.6216427805
21
18.4550729523
31
0.0000000000
11
8.6155950798
21
18.4522688494
31
0.0000000000
0
SPLINE
5
2E7
100
AcDbEntity
8
0
100
AcDbSpline
62
7
6
CONTINUOUS
70
0
71
3
72
11
73
7
74
5
42
0.0000001000
43
0.0000001000
44
0.0000000001
12
-0.0675890104
22
-0.0132463231
32
0.0000000000
13
-0.0640010296
23
0.0131465066
33
0.0000000000
40
0.0000000000
40
0.0000000000
40
0.0000000000
40
0.0000000000
40
0.1615209064
40
0.3849533613
40
0.6664082617
40
1.0000000000
40
1.0000000000
40
1.0000000000
40
1.0000000000
10
8.6155950798
20
18.4522688494
30
0.0000000000
10
8.6119560671
20
18.4515556633
30
0.0000000000
10
8.6038490201
20
18.4509810629
30
0.0000000000
10
8.5891835374
20
18.4519629486
30
0.0000000000
10
8.5711478110
20
18.4544518061
30
0.0000000000
10
8.5579625684
20
18.4569355823
30
0.0000000000
10
8.5508458302
20
18.4583974376
30
0.0000000000
11
8.6155950798
21
18.4522688494
31
0.0000000000
11
8.6050886902
21
18.4512744898
31
0.0000000000
11
8.5905095361
21
18.4520252705
31
0.0000000000
11
8.5722785834
21
18.4544348693
31
0.0000000000
11
8.5508458302
21
18.4583974376
31
0.0000000000
0
SPLINE
5
2E8
100
AcDbEntity
8
0
100
AcDbSpline
62
7
6
CONTINUOUS
70
0
71
3
72
9
73
5
74
3
42
0.0000001000
43
0.0000001000
44
0.0000000001
12
-0.0502803636
22
-0.0161753641
32
0.0000000000
13
-0.0473762501
23
-0.0233505524
33
0.0000000000
40
0.0000000000
40
0.0000000000
40
0.0000000000
40
0.0000000000
40
0.4902123986
40
1.0000000000
40
1.0000000000
40
1.0000000000
40
1.0000000000
10
3.3712514737
20
25.7903603823
30
0.0000000000
10
3.3630354545
20
25.7877172610
30
0.0000000000
10
3.3464854485
20
25.7816550309
30
0.0000000000
10
3.3304260505
20
25.7743997559
30
0.0000000000
10
3.3223754422
20
25.7704318152
30
0.0000000000
11
3.3712514737
21
25.7903603823
31
0.0000000000
11
3.3469273154
21
25.7814870018
31
0.0000000000
11
3.3223754422
21
25.7704318152
31
0.0000000000
0
SPLINE
5
2E9
100
AcDbEntity
8
0
100
AcDbSpline
62
9
6
CONTINUOUS
70
0
71
3
72
9
73
5
74
3
42
0.0000001000
43
0.0000001000
44
0.0000000001
12
-0.0222190764
22
0.0111115533
32
0.0000000000
13
-0.0242595856
23
0.0050243247
33
0.0000000000
40
0.0000000000
40
0.0000000000
40
0.0000000000
40
0.0000000000
40
0.0704920348
40
1.0000000000
40
1.0000000000
40
1.0000000000
40
1.0000000000
10
8.4848407272
20
-22.5297241750
30
0.0000000000
10
8.4843186379
20
-22.5294630830
30
0.0000000000
10
8.4768769565
20
-22.5258288579
30
0.0000000000
10
8.4689485275
20
-22.5231966124
30
0.0000000000
10
8.4614320348
20
-22.5216398958
30
0.0000000000
11
8.4848407272
21
-22.5297241750
31
0.0000000000
11
8.4832670607
21
-22.5289556941
31
0.0000000000
11
8.4614320348
21
-22.5216398958
31
0.0000000000
0
SPLINE
5
2EA
100
AcDbEntity
8
0
100
AcDbSpline
62
9
6
CONTINUOUS
70
0
71
3
72
12
73
8
74
6
42
0.0000001000
43
0.0000001000
44
0.0000000001
12
-0.0000227722
22
-0.1197212051
32
0.0000000000
13
-0.1064692941
23
-0.0538576921
33
0.0000000000
40
0.0000000000
40
0.0000000000
40
0.0000000000
40
0.0000000000
40
0.1619863906
40
0.3382910533
40
0.5341892806
40
0.7543267983
40
1.0000000000
40
1.0000000000
40
1.0000000000
40
1.0000000000
10
8.6230436460
20
-23.1008655831
30
0.0000000000
10
8.6230424164
20
-23.1073299850
30
0.0000000000
10
8.6208909013
20
-23.1208323588
30
0.0000000000
10
8.6114607956
20
-23.1401637959
30
0.0000000000
10
8.5961925721
20
-23.1583457292
30
0.0000000000
10
8.5756319708
20
-23.1749701103
30
0.0000000000
10
8.5595647143
20
-23.1843277546
30
0.0000000000
10
8.5508458302
20
-23.1887382185
30
0.0000000000
11
8.6230436460
21
-23.1008655831
31
0.0000000000
11
8.6201060090
21
-23.1199719276
31
0.0000000000
11
8.6111283184
21
-23.1389959822
31
0.0000000000
11
8.5963288625
21
-23.1570877583
31
0.0000000000
11
8.5760694982
21
-23.1738048077
31
0.0000000000
11
8.5508458302
21
-23.1887382185
31
0.0000000000
0
SPLINE
5
2EB
100
AcDbEntity
8
0
100
AcDbSpline
62
9
6
CONTINUOUS
70
0
71
3
72
12
73
8
74
6
42
0.0000001000
43
0.0000001000
44
0.0000000001
12
-0.0000215680
22
-0.1197211386
32
0.0000000000
13
-0.1064693987
23
-0.0538577450
33
0.0000000000
40
0.0000000000
40
0.0000000000
40
0.0000000000
40
0.0000000000
40
0.1621342377
40
0.3384131525
40
0.5342805221
40
0.7543772349
40
1.0000000000
40
1.0000000000
40
1.0000000000
40
1.0000000000
10
8.6230436503
20
-22.7533340696
30
0.0000000000
10
8.6230424847
20
-22.7598043681
30
0.0000000000
10
8.6208880377
20
-22.7733114945
30
0.0000000000
10
8.6114524653
20
-22.7926441532
30
0.0000000000
10
8.5961847650
20
-22.8108212908
30
0.0000000000
10
8.5756271405
20
-22.8274415212
30
0.0000000000
10
8.5595629329
20
-22.8367971390
30
0.0000000000
10
8.5508458302
20
-22.8412067018
30
0.0000000000
11
8.6230436503
21
-22.7533340696
31
0.0000000000
11
8.6201007825
21
-22.7724572991
31
0.0000000000
11
8.6111204566
21
-22.7914767354
31
0.0000000000
11
8.5963211457
21
-22.8095639027
31
0.0000000000
11
8.5760645689
21
-22.8262767210
31
0.0000000000
11
8.5508458302
21
-22.8412067018
31
0.0000000000
0
SPLINE
5
2EC
100
AcDbEntity
8
0
100
AcDbSpline
62
9
6
CONTINUOUS
70
0
71
3
72
13
73
9
74
7
42
0.0000001000
43
0.0000001000
44
0.0000000001
12
0.1395220714
22
0.0716304567
32
0.0000000000
13
-0.0007403311
23
0.1563941952
33
0.0000000000
40
0.0000000000
40
0.0000000000
40
0.0000000000
40
0.0000000000
40
0.0921946367
40
0.2497146983
40
0.4163695893
40
0.5959673754
40
0.7904363276
40
1.0000000000
40
1.0000000000
40
1.0000000000
40
1.0000000000
10
8.4871616893
20
-23.3232959655
30
0.0000000000
10
8.4914494181
20
-23.3210946509
30
0.0000000000
10
8.5026091926
20
-23.3142450460
30
0.0000000000
10
8.5185537011
20
-23.2991919763
30
0.0000000000
10
8.5330572757
20
-23.2770466311
30
0.0000000000
10
8.5434907624
20
-23.2506821807
30
0.0000000000
10
8.5496911999
20
-23.2207684867
30
0.0000000000
10
8.5508975457
20
-23.1996630658
30
0.0000000000
10
8.5508458302
20
-23.1887382185
30
0.0000000000
11
8.4871616893
21
-23.3232959655
31
0.0000000000
11
8.4994720851
21
-23.3157399743
31
0.0000000000
11
8.5174764323
21
-23.2989247637
31
0.0000000000
11
8.5319230773
21
-23.2772306552
31
0.0000000000
11
8.5424560756
21
-23.2511919870
31
0.0000000000
11
8.5488158907
21
-23.2214502043
31
0.0000000000
11
8.5508458302
21
-23.1887382185
31
0.0000000000
0
SPLINE
5
2ED
100
AcDbEntity
8
0
100
AcDbSpline
62
9
6
CONTINUOUS
70
0
71
3
72
12
73
8
74
6
42
0.0000001000
43
0.0000001000
44
0.0000000001
12
-0.1029828724
22
0.0515261895
32
0.0000000000
13
-0.1030059359
23
-0.0507690139
33
0.0000000000
40
0.0000000000
40
0.0000000000
40
0.0000000000
40
0.0000000000
40
0.0701535190
40
0.2815617197
40
0.5035609336
40
0.7419467138
40
1.0000000000
40
1.0000000000
40
1.0000000000
40
1.0000000000
10
8.4848386084
20
19.1174091858
30
0.0000000000
10
8.4824304048
20
19.1186141003
30
0.0000000000
10
8.4725589389
20
19.1230357057
30
0.0000000000
10
8.4536718889
20
19.1278057911
30
0.0000000000
10
8.4277354233
20
19.1279711890
30
0.0000000000
10
8.4006425814
20
19.1223504547
30
0.0000000000
10
8.3829324666
20
19.1151855301
30
0.0000000000
10
8.3740721265
20
19.1108184932
30
0.0000000000
11
8.4848386084
21
19.1174091858
31
0.0000000000
11
8.4774685068
21
19.1207085457
31
0.0000000000
11
8.4539556069
21
19.1267540188
31
0.0000000000
11
8.4284641029
21
19.1271032978
31
0.0000000000
11
8.4016173713
21
19.1217477763
31
0.0000000000
11
8.3740721265
21
19.1108184932
31
0.0000000000
0
SPLINE
5
2EE
100
AcDbEntity
8
0
100
AcDbSpline
62
7
6
CONTINUOUS
70
0
71
3
72
8
73
4
74
2
42
0.0000001000
43
0.0000001000
44
0.0000000001
12
0.0031252547
22
0.0016020349
32
0.0000000000
13
0.0030623916
23
0.0017186206
33
0.0000000000
40
0.0000000000
40
0.0000000000
40
0.0000000000
40
0.0000000000
40
1.0000000000
40
1.0000000000
40
1.0000000000
40
1.0000000000
10
7.9584732188
20
-23.5945263836
30
0.0000000000
10
7.9595149704
20
-23.5939923719
30
0.0000000000
10
7.9605466510
20
-23.5934388198
30
0.0000000000
10
7.9615674482
20
-23.5928659462
30
0.0000000000
11
7.9584732188
21
-23.5945263836
31
0.0000000000
11
7.9615674482
21
-23.5928659462
31
0.0000000000
0
SPLINE
5
2EF
100
AcDbEntity
8
0
100
AcDbSpline
62
7
6
CONTINUOUS
70
0
71
3
72
13
73
9
74
7
42
0.0000001000
43
0.0000001000
44
0.0000000001
12
0.1339245570
22
0.0751587447
32
0.0000000000
13
0.0000000000
23
0.1532497058
33
0.0000000000
40
0.0000000000
40
0.0000000000
40
0.0000000000
40
0.0000000000
40
0.1437253460
40
0.2929995974
40
0.4514947733
40
0.6216146730
40
0.8044628653
40
1.0000000000
40
1.0000000000
40
1.0000000000
40
1.0000000000
10
7.9615674482
20
-23.5928659462
30
0.0000000000
10
7.9679835660
20
-23.5892652074
30
0.0000000000
10
7.9801869855
20
-23.5803686137
30
0.0000000000
10
7.9954445854
20
-23.5628385961
30
0.0000000000
10
8.0075270986
20
-23.5414603034
30
0.0000000000
10
8.0162504205
20
-23.5167093441
30
0.0000000000
10
8.0214907560
20
-23.4890935734
30
0.0000000000
10
8.0225786584
20
-23.4697379466
30
0.0000000000
10
8.0225786584
20
-23.4597492772
30
0.0000000000
11
7.9615674482
21
-23.5928659462
31
0.0000000000
11
7.9794019822
21
-23.5799404592
31
0.0000000000
11
7.9945168134
21
-23.5627688544
31
0.0000000000
11
8.0066042480
21
-23.5417007288
31
0.0000000000
11
8.0154182418
21
-23.5171650118
31
0.0000000000
11
8.0207794069
21
-23.4896612204
31
0.0000000000
11
8.0225786584
21
-23.4597492772
31
0.0000000000
0
SPLINE
5
2F0
100
AcDbEntity
8
0
100
AcDbSpline
62
9
6
CONTINUOUS
70
0
71
3
72
12
73
8
74
6
42
0.0000001000
43
0.0000001000
44
0.0000000001
12
-0.0000215680
22
-0.1197211386
32
0.0000000000
13
-0.1064693987
23
-0.0538577450
33
0.0000000000
40
0.0000000000
40
0.0000000000
40
0.0000000000
40
0.0000000000
40
0.1621342377
40
0.3384131525
40
0.5342805221
40
0.7543772349
40
1.0000000000
40
1.0000000000
40
1.0000000000
40
1.0000000000
10
8.6230436503
20
18.8938015865
30
0.0000000000
10
8.6230424847
20
18.8873312880
30
0.0000000000
10
8.6208880377
20
18.8738241617
30
0.0000000000
10
8.6114524653
20
18.8544915029
30
0.0000000000
10
8.5961847650
20
18.8363143653
30
0.0000000000
10
8.5756271405
20
18.8196941350
30
0.0000000000
10
8.5595629329
20
18.8103385171
30
0.0000000000
10
8.5508458302
20
18.8059289544
30
0.0000000000
11
8.6230436503
21
18.8938015865
31
0.0000000000
11
8.6201007825
21
18.8746783570
31
0.0000000000
11
8.6111204566
21
18.8556589207
31
0.0000000000
11
8.5963211457
21
18.8375717534
31
0.0000000000
11
8.5760645689
21
18.8208589351
31
0.0000000000
11
8.5508458302
21
18.8059289544
31
0.0000000000
0
SPLINE
5
2F1
100
AcDbEntity
8
0
100
AcDbSpline
62
9
6
CONTINUOUS
70
0
71
3
72
13
73
9
74
7
42
0.0000001000
43
0.0000001000
44
0.0000000001
12
0.1432602364
22
0.0698555072
32
0.0000000000
13
0.0007575955
23
0.1589430906
33
0.0000000000
40
0.0000000000
40
0.0000000000
40
0.0000000000
40
0.0000000000
40
0.1029995317
40
0.2582084770
40
0.4228143965
40
0.6004233616
40
0.7927869796
40
1.0000000000
40
1.0000000000
40
1.0000000000
40
1.0000000000
10
6.3550349791
20
-24.3756318454
30
0.0000000000
10
6.3599535582
20
-24.3732334839
30
0.0000000000
10
6.3717619477
20
-24.3661438050
30
0.0000000000
10
6.3882131412
20
-24.3506084905
30
0.0000000000
10
6.4028086522
20
-24.3284185825
30
0.0000000000
10
6.4134094723
20
-24.3019804876
30
0.0000000000
10
6.4198466603
20
-24.2719616830
30
0.0000000000
10
6.4212455397
20
-24.2507622361
30
0.0000000000
10
6.4212978676
20
-24.2397838768
30
0.0000000000
11
6.3550349791
21
-24.3756318454
31
0.0000000000
11
6.3690939643
21
-24.3671958215
31
0.0000000000
11
6.3871269208
21
-24.3503611822
31
0.0000000000
11
6.4016739977
21
-24.3286149344
31
0.0000000000
11
6.4123770130
21
-24.3024925200
31
0.0000000000
11
6.4189724344
21
-24.2726371317
31
0.0000000000
11
6.4212978676
21
-24.2397838768
31
0.0000000000
0
SPLINE
5
2F2
100
AcDbEntity
8
0
100
AcDbSpline
62
9
6
CONTINUOUS
70
0
71
3
72
12
73
8
74
6
42
0.0000001000
43
0.0000001000
44
0.0000000001
12
-0.1029861430
22
0.0515381947
32
0.0000000000
13
-0.1030131708
23
-0.0507725798
33
0.0000000000
40
0.0000000000
40
0.0000000000
40
0.0000000000
40
0.0000000000
40
0.0706737044
40
0.2820803272
40
0.5040720840
40
0.7424554046
40
1.0000000000
40
1.0000000000
40
1.0000000000
40
1.0000000000
10
7.1475195380
20
19.7860686963
30
0.0000000000
10
7.1450934006
20
19.7872828281
30
0.0000000000
10
7.1352018576
20
19.7917106277
30
0.0000000000
10
7.1162917374
20
19.7964754353
30
0.0000000000
10
7.0903540041
20
19.7966283419
30
0.0000000000
10
7.0632811306
20
19.7910006044
30
0.0000000000
10
7.0455894611
20
19.7838403080
30
0.0000000000
10
7.0367459659
20
19.7794815735
30
0.0000000000
11
7.1475195380
21
19.7860686963
31
0.0000000000
11
7.1400935031
21
19.7893909831
31
0.0000000000
11
7.1165758509
21
19.7954240788
31
0.0000000000
11
7.0910832480
21
19.7957611344
31
0.0000000000
11
7.0642370376
21
19.7903946267
31
0.0000000000
11
7.0367459659
21
19.7794815735
31
0.0000000000
0
SPLINE
5
2F3
100
AcDbEntity
8
0
100
AcDbSpline
62
7
6
CONTINUOUS
70
0
71
3
72
13
73
9
74
7
42
0.0000001000
43
0.0000001000
44
0.0000000001
12
0.0001621197
22
-0.2053015825
32
0.0000000000
13
-0.1837351430
23
-0.0899037760
33
0.0000000000
40
0.0000000000
40
0.0000000000
40
0.0000000000
40
0.0000000000
40
0.0400211980
40
0.1970867995
40
0.3665716191
40
0.5547424593
40
0.7657022224
40
1.0000000000
40
1.0000000000
40
1.0000000000
40
1.0000000000
10
3.4965946606
20
24.7120189309
30
0.0000000000
10
3.4965968234
20
24.7092801258
30
0.0000000000
10
3.4960808400
20
24.6957953818
30
0.0000000000
10
3.4901962764
20
24.6711247721
30
0.0000000000
10
3.4728293440
20
24.6402006855
30
0.0000000000
10
3.4465785934
20
24.6113184402
30
0.0000000000
10
3.4121668289
20
24.5849278836
30
0.0000000000
10
3.3856010523
20
24.5700312036
30
0.0000000000
10
3.3712514737
20
24.5630097853
30
0.0000000000
11
3.4965946606
21
24.7120189309
31
0.0000000000
11
3.4962780846
21
24.7038126958
31
0.0000000000
11
3.4890594213
21
24.6725061635
31
0.0000000000
11
3.4724618549
21
24.6420690768
31
0.0000000000
11
3.4469067560
21
24.6132860181
31
0.0000000000
11
3.4129011921
21
24.5867204883
31
0.0000000000
11
3.3712514737
21
24.5630097853
31
0.0000000000
0
SPLINE
5
2F4
100
AcDbEntity
8
0
100
AcDbSpline
62
7
6
CONTINUOUS
70
0
71
3
72
13
73
9
74
7
42
0.0000001000
43
0.0000001000
44
0.0000000001
12
0.0001642299
22
-0.2033186216
32
0.0000000000
13
-0.1815612064
23
-0.0898911607
33
0.0000000000
40
0.0000000000
40
0.0000000000
40
0.0000000000
40
0.0000000000
40
0.0343386883
40
0.1926287897
40
0.3631221672
40
0.5522760236
40
0.7643520725
40
1.0000000000
40
1.0000000000
40
1.0000000000
40
1.0000000000
10
9.0515844144
20
21.9345240864
30
0.0000000000
10
9.0515862942
20
21.9321968548
30
0.0000000000
10
9.0511620839
20
21.9191440956
30
0.0000000000
10
9.0456714928
20
21.8948704902
30
0.0000000000
10
9.0286653483
20
21.8638759551
30
0.0000000000
10
9.0027470518
20
21.8349055316
30
0.0000000000
10
8.9686405824
20
21.8084102523
30
0.0000000000
10
8.9422568536
20
21.7934404850
30
0.0000000000
10
8.9279953462
20
21.7863795965
30
0.0000000000
11
9.0515844144
21
21.9345240864
31
0.0000000000
11
9.0513559746
21
21.9275487894
31
0.0000000000
11
9.0445060841
21
21.8962200515
31
0.0000000000
11
9.0282678169
21
21.8657338042
31
0.0000000000
11
9.0030532816
21
21.8368758787
31
0.0000000000
11
8.9693628752
21
21.8102112602
31
0.0000000000
11
8.9279953462
21
21.7863795965
31
0.0000000000
0
SPLINE
5
2F5
100
AcDbEntity
8
0
100
AcDbSpline
62
9
6
CONTINUOUS
70
0
71
3
72
12
73
8
74
6
42
0.0000001000
43
0.0000001000
44
0.0000000001
12
0.1277490334
22
0.0646220926
32
0.0000000000
13
0.0000573613
23
0.1436493774
33
0.0000000000
40
0.0000000000
40
0.0000000000
40
0.0000000000
40
0.0000000000
40
0.2456502356
40
0.4657715495
40
0.6616607949
40
0.8379593836
40
1.0000000000
40
1.0000000000
40
1.0000000000
40
1.0000000000
10
13.1811363264
20
-13.9489076728
30
0.0000000000
10
13.1915968531
20
-13.9436161953
30
0.0000000000
10
13.2108739079
20
-13.9323894495
30
0.0000000000
10
13.2355430621
20
-13.9124451649
30
0.0000000000
10
13.2538643023
20
-13.8906325918
30
0.0000000000
10
13.2651846170
20
-13.8674382449
30
0.0000000000
10
13.2677706076
20
-13.8512355402
30
0.0000000000
10
13.2677737059
20
-13.8434765289
30
0.0000000000
11
13.1811363264
21
-13.9489076728
31
0.0000000000
11
13.2113988224
21
-13.9309916881
31
0.0000000000
11
13.2357067191
21
-13.9109362978
31
0.0000000000
11
13.2534658915
21
-13.8892316895
31
0.0000000000
11
13.2642422773
21
-13.8664083603
31
0.0000000000
11
13.2677737059
21
-13.8434765289
31
0.0000000000
0
SPLINE
5
2F6
100
AcDbEntity
8
0
100
AcDbSpline
62
9
6
CONTINUOUS
70
0
71
3
72
8
73
4
74
2
42
0.0000001000
43
0.0000001000
44
0.0000000001
12
-0.0085260589
22
-0.0001362424
32
0.0000000000
13
-0.0085147419
23
-0.0004550279
33
0.0000000000
40
0.0000000000
40
0.0000000000
40
0.0000000000
40
0.0000000000
40
1.0000000000
40
1.0000000000
40
1.0000000000
40
1.0000000000
10
12.8189801466
20
-13.3514616684
30
0.0000000000
10
12.8161381270
20
-13.3515070825
30
0.0000000000
10
12.8132970150
20
-13.3516052959
30
0.0000000000
10
12.8104587677
20
-13.3517569719
30
0.0000000000
11
12.8189801466
21
-13.3514616684
31
0.0000000000
11
12.8104587677
21
-13.3517569719
31
0.0000000000
0
SPLINE
5
2F7
100
AcDbEntity
8
0
100
AcDbSpline
62
9
6
CONTINUOUS
70
0
71
3
72
8
73
4
74
2
42
0.0000001000
43
0.0000001000
44
0.0000000001
12
4.0978974961
22
0.2667099176
32
0.0000000000
13
4.0978974961
23
0.2667099176
33
0.0000000000
40
0.0000000000
40
0.0000000000
40
0.0000000000
40
0.0000000000
40
1.0000000000
40
1.0000000000
40
1.0000000000
40
1.0000000000
10
9.0832388302
20
-14.2156175904
30
0.0000000000
10
10.4492046623
20
-14.1267142845
30
0.0000000000
10
11.8151704943
20
-14.0378109786
30
0.0000000000
10
13.1811363264
20
-13.9489076728
30
0.0000000000
11
9.0832388302
21
-14.2156175904
31
0.0000000000
11
13.1811363264
21
-13.9489076728
31
0.0000000000
0
SPLINE
5
2F8
100
AcDbEntity
8
0
100
AcDbSpline
62
9
6
CONTINUOUS
70
0
71
3
72
8
73
4
74
2
42
0.0000001000
43
0.0000001000
44
0.0000000001
12
-4.0978974961
22
-3.8791483465
32
0.0000000000
13
-4.0978974961
23
-3.8791483465
33
0.0000000000
40
0.0000000000
40
0.0000000000
40
0.0000000000
40
0.0000000000
40
1.0000000000
40
1.0000000000
40
1.0000000000
40
1.0000000000
10
13.1811363264
20
19.0076442338
30
0.0000000000
10
11.8151704943
20
17.7145947849
30
0.0000000000
10
10.4492046623
20
16.4215453361
30
0.0000000000
10
9.0832388302
20
15.1284958872
30
0.0000000000
11
13.1811363264
21
19.0076442338
31
0.0000000000
11
9.0832388302
21
15.1284958872
31
0.0000000000
0
SPLINE
5
2F9
100
AcDbEntity
8
0
100
AcDbSpline
62
7
6
CONTINUOUS
70
0
71
3
72
16
73
12
74
10
42
0.0000001000
43
0.0000001000
44
0.0000000001
12
0.0000699534
22
-0.3795606888
32
0.0000000000
13
0.2340882352
23
-0.2983680849
33
0.0000000000
40
0.0000000000
40
0.0000000000
40
0.0000000000
40
0.0000000000
40
0.0597108165
40
0.1596350220
40
0.2670631249
40
0.3804958614
40
0.4987285191
40
0.6207319988
40
0.7455653644
40
0.8723118181
40
1.0000000000
40
1.0000000000
40
1.0000000000
40
1.0000000000
10
-3.1173176827
20
23.1086797407
30
0.0000000000
10
-3.1173162904
20
23.1011251145
30
0.0000000000
10
-3.1162887322
20
23.0809468513
30
0.0000000000
10
-3.1112016502
20
23.0475012719
30
0.0000000000
10
-3.1013205688
20
23.0081233414
30
0.0000000000
10
-3.0875857105
20
22.9674749225
30
0.0000000000
10
-3.0703105371
20
22.9262030550
30
0.0000000000
10
-3.0497748674
20
22.8848413414
30
0.0000000000
10
-3.0262397170
20
22.8438659082
30
0.0000000000
10
-2.9999681419
20
22.8037303355
30
0.0000000000
10
-2.9808323260
20
22.7778526695
30
0.0000000000
10
-2.9708688922
20
22.7651533101
30
0.0000000000
11
-3.1173176827
21
23.1086797407
31
0.0000000000
11
-3.1162659142
21
23.0860560047
31
0.0000000000
11
-3.1107785563
21
23.0485604353
31
0.0000000000
11
-3.1009985722
21
23.0090109879
31
0.0000000000
11
-3.0873168611
21
22.9682267855
31
0.0000000000
11
-3.0700637944
21
22.9268408300
31
0.0000000000
11
-3.0495271920
21
22.8853800159
31
0.0000000000
11
-3.0259718149
21
22.8443147377
31
0.0000000000
11
-2.9996583306
21
22.8040899498
31
0.0000000000
11
-2.9708688922
21
22.7651533101
31
0.0000000000
0
SPLINE
5
2FA
100
AcDbEntity
8
0
100
AcDbSpline
62
7
6
CONTINUOUS
70
0
71
3
72
13
73
9
74
7
42
0.0000001000
43
0.0000001000
44
0.0000000001
12
-0.2206694136
22
0.1103347068
32
0.0000000000
13
-0.0000090274
23
0.2474874123
33
0.0000000000
40
0.0000000000
40
0.0000000000
40
0.0000000000
40
0.0000000000
40
0.2181056656
40
0.4173085111
40
0.5980290005
40
0.7641011752
40
0.9198313393
40
1.0000000000
40
1.0000000000
40
1.0000000000
40
1.0000000000
10
-2.9708688922
20
21.6845699993
30
0.0000000000
10
-2.9869119754
20
21.6925915408
30
0.0000000000
10
-3.0167756613
20
21.7097292714
30
0.0000000000
10
-3.0556713272
20
21.7401444879
30
0.0000000000
10
-3.0859424115
20
21.7736736298
30
0.0000000000
10
-3.1068201902
20
21.8097584804
30
0.0000000000
10
-3.1159580791
20
21.8419211181
30
0.0000000000
10
-3.1173071179
20
21.8613812939
30
0.0000000000
10
-3.1173073591
20
21.8679948720
30
0.0000000000
11
-2.9708688922
21
21.6845699993
31
0.0000000000
11
-3.0173848405
21
21.7116217526
31
0.0000000000
11
-3.0558709598
21
21.7421864069
31
0.0000000000
11
-3.0854458530
21
21.7755524419
31
0.0000000000
11
-3.1056374773
21
21.8112043156
31
0.0000000000
11
-3.1159266514
21
21.8482220743
31
0.0000000000
11
-3.1173073591
21
21.8679948720
31
0.0000000000
0
SPLINE
5
2FB
100
AcDbEntity
8
0
100
AcDbSpline
62
7
6
CONTINUOUS
70
0
71
3
72
17
73
13
74
11
42
0.0000001000
43
0.0000001000
44
0.0000000001
12
-0.4345868483
22
-0.0321613807
32
0.0000000000
13
-0.4202201649
23
-0.1153910576
33
0.0000000000
40
0.0000000000
40
0.0000000000
40
0.0000000000
40
0.0000000000
40
0.1190594671
40
0.2358227810
40
0.3491116527
40
0.4582120724
40
0.5626289027
40
0.6619448783
40
0.7557608845
40
0.8436671436
40
0.9252339727
40
1.0000000000
40
1.0000000000
40
1.0000000000
40
1.0000000000
10
2.9632605873
20
20.1118893247
30
0.0000000000
10
2.9460133611
20
20.1106129524
30
0.0000000000
10
2.9119606203
20
20.1065488257
30
0.0000000000
10
2.8620376035
20
20.0975526746
30
0.0000000000
10
2.8139422430
20
20.0868346183
30
0.0000000000
10
2.7679184616
20
20.0751841856
30
0.0000000000
10
2.7240948757
20
20.0631583504
30
0.0000000000
10
2.6825670249
20
20.0511753487
30
0.0000000000
10
2.6434282984
20
20.0395693017
30
0.0000000000
10
2.6067833173
20
20.0286229535
30
0.0000000000
10
2.5727542603
20
20.0185878513
30
0.0000000000
10
2.5509109382
20
20.0123755372
30
0.0000000000
10
2.5404382074
20
20.0094997603
30
0.0000000000
11
2.9632605873
21
20.1118893247
31
0.0000000000
11
2.9117131833
21
20.1059962283
31
0.0000000000
11
2.8616112672
21
20.0971174141
31
0.0000000000
11
2.8134049135
21
20.0864687005
31
0.0000000000
11
2.7673002911
21
20.0748615562
31
0.0000000000
11
2.7234081226
21
20.0628642936
31
0.0000000000
11
2.6818148240
21
20.0509015208
31
0.0000000000
11
2.6426093101
21
20.0393117648
31
0.0000000000
11
2.6058943616
21
20.0283816494
31
0.0000000000
11
2.5717898582
21
20.0183658553
31
0.0000000000
11
2.5404382074
21
20.0094997603
31
0.0000000000
0
SPLINE
5
2FC
100
AcDbEntity
8
0
100
AcDbSpline
62
7
6
CONTINUOUS
70
0
71
3
72
14
73
10
74
8
42
0.0000001000
43
0.0000001000
44
0.0000000001
12
-0.5575549069
22
0.2783874290
32
0.0000000000
13
-0.5613902463
23
-0.2698899959
33
0.0000000000
40
0.0000000000
40
0.0000000000
40
0.0000000000
40
0.0000000000
40
0.1238265934
40
0.3054769581
40
0.4682472532
40
0.6158055794
40
0.7510618594
40
0.8780877179
40
1.0000000000
40
1.0000000000
40
1.0000000000
40
1.0000000000
10
13.3571658587
20
21.5205142446
30
0.0000000000
10
13.3341524838
20
21.5320048336
30
0.0000000000
10
13.2764954650
20
21.5585744676
30
0.0000000000
10
13.1848184986
20
21.5915637023
30
0.0000000000
10
13.0850272423
20
21.6145832228
30
0.0000000000
10
12.9926616475
20
21.6235555188
30
0.0000000000
10
12.9073396999
20
21.6197101715
30
0.0000000000
10
12.8288236802
20
21.6039138899
30
0.0000000000
10
12.7802295859
20
21.5854839322
30
0.0000000000
10
12.7574161306
20
21.5745162971
30
0.0000000000
11
13.3571658587
21
21.5205142446
31
0.0000000000
11
13.2870558415
21
21.5527156499
31
0.0000000000
11
13.1804467039
21
21.5906268480
31
0.0000000000
11
13.0815614210
21
21.6130194422
31
0.0000000000
11
12.9900428248
21
21.6215306457
31
0.0000000000
11
12.9058925692
21
21.6174195774
31
0.0000000000
11
12.8283723605
21
21.6015699165
31
0.0000000000
11
12.7574161306
21
21.5745162971
31
0.0000000000
0
SPLINE
5
2FD
100
AcDbEntity
8
0
100
AcDbSpline
62
7
6
CONTINUOUS
70
0
71
3
72
18
73
14
74
12
42
0.0000001000
43
0.0000001000
44
0.0000000001
12
-0.6362934147
22
-0.3550712700
32
0.0000000000
13
-0.6517330228
23
0.3258665114
33
0.0000000000
40
0.0000000000
40
0.0000000000
40
0.0000000000
40
0.0000000000
40
0.0824711995
40
0.1703927471
40
0.2624911810
40
0.3579786781
40
0.4549885733
40
0.5527374323
40
0.6491673466
40
0.7435257574
40
0.8339975930
40
0.9198803357
40
1.0000000000
40
1.0000000000
40
1.0000000000
40
1.0000000000
10
3.2454821267
20
18.9504522127
30
0.0000000000
10
3.2279901664
20
18.9406911615
30
0.0000000000
10
3.1906456383
20
18.9226383373
30
0.0000000000
10
3.1307179502
20
18.9006342654
30
0.0000000000
10
3.0660393507
20
18.8831583343
30
0.0000000000
10
2.9979951794
20
18.8705864246
30
0.0000000000
10
2.9278244240
20
18.8631427732
30
0.0000000000
10
2.8570644011
20
18.8609886698
30
0.0000000000
10
2.7869857201
20
18.8641593667
30
0.0000000000
10
2.7191184167
20
18.8725804703
30
0.0000000000
10
2.6546840885
20
18.8860997681
30
0.0000000000
10
2.5950526623
20
18.9044236779
30
0.0000000000
10
2.5578437511
20
18.9202136776
30
0.0000000000
10
2.5404382074
20
18.9289164494
30
0.0000000000
11
3.2454821267
21
18.9504522127
31
0.0000000000
11
3.1914754879
21
18.9240987661
31
0.0000000000
11
3.1313942344
21
18.9018602279
31
0.0000000000
11
3.0666392337
21
18.8842440653
31
0.0000000000
11
2.9982325945
21
18.8715313057
31
0.0000000000
11
2.9279431016
21
18.8640435022
31
0.0000000000
11
2.8567502056
21
18.8618836457
31
0.0000000000
11
2.7865595352
21
18.8651058094
31
0.0000000000
11
2.7183386045
21
18.8736602131
31
0.0000000000
11
2.6538476617
21
18.8873270962
31
0.0000000000
11
2.5940840721
21
18.9058872963
31
0.0000000000
11
2.5404382074
21
18.9289164494
31
0.0000000000
0
SPLINE
5
2FE
100
AcDbEntity
8
0
100
AcDbSpline
62
7
6
CONTINUOUS
70
0
71
3
72
15
73
11
74
9
42
0.0000001000
43
0.0000001000
44
0.0000000001
12
0.2920381734
22
0.0216121378
32
0.0000000000
13
0.2617849119
23
0.1312327670
33
0.0000000000
40
0.0000000000
40
0.0000000000
40
0.0000000000
40
0.0000000000
40
0.1351030000
40
0.2684611539
40
0.3994593402
40
0.5275107863
40
0.6520655064
40
0.7726194425
40
0.8887245171
40
1.0000000000
40
1.0000000000
40
1.0000000000
40
1.0000000000
10
2.9632605873
20
20.1118893247
30
0.0000000000
10
2.9764123317
20
20.1128626129
30
0.0000000000
10
3.0025100047
20
20.1153279608
30
0.0000000000
10
3.0411538012
20
20.1206107034
30
0.0000000000
10
3.0788589301
20
20.1274263890
30
0.0000000000
10
3.1153842208
20
20.1357314183
30
0.0000000000
10
3.1504971499
20
20.1454727558
30
0.0000000000
10
3.1839748336
20
20.1565886426
30
0.0000000000
10
3.2156030078
20
20.1690077567
30
0.0000000000
10
3.2357720459
20
20.1783115219
30
0.0000000000
10
3.2454821267
20
20.1831791851
30
0.0000000000
11
2.9632605873
21
20.1118893247
31
0.0000000000
11
3.0026475434
21
20.1156187662
31
0.0000000000
11
3.0413381310
21
20.1209207085
31
0.0000000000
11
3.0790844036
21
20.1277611686
31
0.0000000000
11
3.1156444704
21
20.1360963049
31
0.0000000000
11
3.1507840439
21
20.1458726982
31
0.0000000000
11
3.1842779458
21
20.1570276955
31
0.0000000000
11
3.2159115438
21
20.1694898112
31
0.0000000000
11
3.2454821267
21
20.1831791851
31
0.0000000000
0
SPLINE
5
2FF
100
AcDbEntity
8
0
100
AcDbSpline
62
7
6
CONTINUOUS
70
0
71
3
72
13
73
9
74
7
42
0.0000001000
43
0.0000001000
44
0.0000000001
12
-0.1103075893
22
0.0551537946
32
0.0000000000
13
0.0000555049
23
0.1236898856
33
0.0000000000
40
0.0000000000
40
0.0000000000
40
0.0000000000
40
0.0000000000
40
0.2283605529
40
0.4360928621
40
0.6234281536
40
0.7955910661
40
0.9576329960
40
1.0000000000
40
1.0000000000
40
1.0000000000
40
1.0000000000
10
-7.9175339820
20
23.7816559195
30
0.0000000000
10
-7.9259306161
20
23.7858542365
30
0.0000000000
10
-7.9415127248
20
23.7948504625
30
0.0000000000
10
-7.9616183142
20
23.8109282751
30
0.0000000000
10
-7.9769507500
20
23.8287111777
30
0.0000000000
10
-7.9870541667
20
23.8478699888
30
0.0000000000
10
-7.9904483437
20
23.8631832877
30
0.0000000000
10
-7.9907556869
20
23.8716097049
30
0.0000000000
10
-7.9907549031
20
23.8733564949
30
0.0000000000
11
-7.9175339820
21
23.7816559195
31
0.0000000000
11
-7.9418335192
21
23.7958930698
31
0.0000000000
11
-7.9617059774
21
23.8120617261
31
0.0000000000
11
-7.9766132772
21
23.8297124935
31
0.0000000000
11
-7.9863315185
21
23.8485903242
31
0.0000000000
11
-7.9905623381
21
23.8681215896
31
0.0000000000
11
-7.9907549031
21
23.8733564949
31
0.0000000000
0
SPLINE
5
300
100
AcDbEntity
8
0
100
AcDbSpline
62
9
6
CONTINUOUS
70
0
71
3
72
13
73
9
74
7
42
0.0000001000
43
0.0000001000
44
0.0000000001
12
-0.1077462308
22
0.0538731154
32
0.0000000000
13
0.0000217754
23
0.1208726378
33
0.0000000000
40
0.0000000000
40
0.0000000000
40
0.0000000000
40
0.0000000000
40
0.2442126372
40
0.4631472823
40
0.6579815541
40
0.8331752334
40
0.9969917700
40
1.0000000000
40
1.0000000000
40
1.0000000000
40
1.0000000000
10
-8.6205269363
20
25.0849322768
30
0.0000000000
10
-8.6292979334
20
25.0893177753
30
0.0000000000
10
-8.6454735007
20
25.0986290100
30
0.0000000000
10
-8.6662188452
20
25.1151859240
30
0.0000000000
10
-8.6816916726
20
25.1333102387
30
0.0000000000
10
-8.6914052342
20
25.1527119635
30
0.0000000000
10
-8.6937313733
20
25.1664779229
30
0.0000000000
10
-8.6937502260
20
25.1731994202
30
0.0000000000
10
-8.6937502042
20
25.1733206244
30
0.0000000000
11
-8.6205269363
21
25.0849322768
31
0.0000000000
11
-8.6459189655
21
25.0997886470
31
0.0000000000
11
-8.6663696608
21
25.1164422588
31
0.0000000000
11
-8.6813791739
21
25.1344860707
31
0.0000000000
11
-8.6905806478
21
25.1534790626
31
0.0000000000
11
-8.6937491833
21
25.1729570147
31
0.0000000000
11
-8.6937502042
21
25.1733206244
31
0.0000000000
0
SPLINE
5
301
100
AcDbEntity
8
0
100
AcDbSpline
62
9
6
CONTINUOUS
70
0
71
3
72
13
73
9
74
7
42
0.0000001000
43
0.0000001000
44
0.0000000001
12
-0.1077462308
22
0.0538731154
32
0.0000000000
13
0.0000217754
23
0.1208726378
33
0.0000000000
40
0.0000000000
40
0.0000000000
40
0.0000000000
40
0.0000000000
40
0.2442126372
40
0.4631472823
40
0.6579815541
40
0.8331752334
40
0.9969917700
40
1.0000000000
40
1.0000000000
40
1.0000000000
40
1.0000000000
10
-8.6205269363
20
24.7449583427
30
0.0000000000
10
-8.6292979334
20
24.7493438412
30
0.0000000000
10
-8.6454735007
20
24.7586550759
30
0.0000000000
10
-8.6662188452
20
24.7752119899
30
0.0000000000
10
-8.6816916726
20
24.7933363045
30
0.0000000000
10
-8.6914052342
20
24.8127380293
30
0.0000000000
10
-8.6937313733
20
24.8265039887
30
0.0000000000
10
-8.6937502260
20
24.8332254861
30
0.0000000000
10
-8.6937502042
20
24.8333466903
30
0.0000000000
11
-8.6205269363
21
24.7449583427
31
0.0000000000
11
-8.6459189655
21
24.7598147128
31
0.0000000000
11
-8.6663696608
21
24.7764683247
31
0.0000000000
11
-8.6813791739
21
24.7945121366
31
0.0000000000
11
-8.6905806478
21
24.8135051285
31
0.0000000000
11
-8.6937491833
21
24.8329830806
31
0.0000000000
11
-8.6937502042
21
24.8333466903
31
0.0000000000
0
SPLINE
5
302
100
AcDbEntity
8
0
100
AcDbSpline
62
9
6
CONTINUOUS
70
0
71
3
72
12
73
8
74
6
42
0.0000001000
43
0.0000001000
44
0.0000000001
12
0.0398505572
22
-0.0648748895
32
0.0000000000
13
-0.0493064793
23
-0.0592862726
33
0.0000000000
40
0.0000000000
40
0.0000000000
40
0.0000000000
40
0.0000000000
40
0.3177076214
40
0.5780259757
40
0.7827656111
40
0.9437531326
40
1.0000000000
40
1.0000000000
40
1.0000000000
40
1.0000000000
10
-4.8134723343
20
25.1405565198
30
0.0000000000
10
-4.8092520590
20
25.1336861042
30
0.0000000000
10
-4.8021048629
20
25.1208374662
30
0.0000000000
10
-4.7948338851
20
25.1022526585
30
0.0000000000
10
-4.7921114614
20
25.0864541861
30
0.0000000000
10
-4.7940888974
20
25.0754989687
30
0.0000000000
10
-4.7972217262
20
25.0708615261
30
0.0000000000
10
-4.7981461712
20
25.0697499704
30
0.0000000000
11
-4.8134723343
21
25.1405565198
31
0.0000000000
11
-4.8019324031
21
25.1192974043
31
0.0000000000
11
-4.7950374861
21
25.1007155517
31
0.0000000000
11
-4.7929567321
21
25.0852668193
31
0.0000000000
11
-4.7957411869
21
25.0733302014
31
0.0000000000
11
-4.7981461712
21
25.0697499704
31
0.0000000000
0
SPLINE
5
303
100
AcDbEntity
8
0
100
AcDbSpline
62
7
6
CONTINUOUS
70
0
71
3
72
18
73
14
74
12
42
0.0000001000
43
0.0000001000
44
0.0000000001
12
0.0000000000
22
0.3680541714
32
0.0000000000
13
-0.3291976587
23
0.1645988293
33
0.0000000000
40
0.0000000000
40
0.0000000000
40
0.0000000000
40
0.0000000000
40
0.0862976154
40
0.1767716919
40
0.2704937047
40
0.3663768358
40
0.4632356557
40
0.5598417779
40
0.6549778366
40
0.7474918948
40
0.8363544548
40
0.9207205835
40
1.0000000000
40
1.0000000000
40
1.0000000000
40
1.0000000000
10
-5.3417395060
20
25.2246492165
30
0.0000000000
10
-5.3417395060
20
25.2352366157
30
0.0000000000
10
-5.3430337029
20
25.2569377760
30
0.0000000000
10
-5.3484531161
20
25.2897295380
30
0.0000000000
10
-5.3572907010
20
25.3229873908
30
0.0000000000
10
-5.3693683825
20
25.3560406729
30
0.0000000000
10
-5.3844436479
20
25.3882289419
30
0.0000000000
10
-5.4022138931
20
25.4189058885
30
0.0000000000
10
-5.4223230739
20
25.4474562727
30
0.0000000000
10
-5.4443685938
20
25.4733076075
30
0.0000000000
10
-5.4679144397
20
25.4959438547
30
0.0000000000
10
-5.4924889185
20
25.5149086390
30
0.0000000000
10
-5.5098136769
20
25.5251889890
30
0.0000000000
10
-5.5185132097
20
25.5295387554
30
0.0000000000
11
-5.3417395060
21
25.2246492165
31
0.0000000000
11
-5.3435387575
21
25.2563604113
31
0.0000000000
11
-5.3488999226
21
25.2892253678
31
0.0000000000
11
-5.3577139164
21
25.3225750786
31
0.0000000000
11
-5.3698013511
21
25.3557306389
31
0.0000000000
11
-5.3849161823
21
25.3880170748
31
0.0000000000
11
-5.4027507162
21
25.4187770958
31
0.0000000000
11
-5.4229418768
21
25.4473844881
31
0.0000000000
11
-5.4450786039
21
25.4732568752
31
0.0000000000
11
-5.4687102308
21
25.4958675824
31
0.0000000000
11
-5.4933556689
21
25.5147563609
31
0.0000000000
11
-5.5185132097
21
25.5295387554
31
0.0000000000
0
SPLINE
5
304
100
AcDbEntity
8
0
100
AcDbSpline
62
9
6
CONTINUOUS
70
0
71
3
72
17
73
13
74
11
42
0.0000001000
43
0.0000001000
44
0.0000000001
12
-0.0017609283
22
0.3677011443
32
0.0000000000
13
-0.3281085688
23
0.1659879499
33
0.0000000000
40
0.0000000000
40
0.0000000000
40
0.0000000000
40
0.0000000000
40
0.0949037743
40
0.1950106697
40
0.2988560415
40
0.4049423265
40
0.5116330326
40
0.6172719431
40
0.7202542280
40
0.8191214814
40
0.9126578051
40
1.0000000000
40
1.0000000000
40
1.0000000000
40
1.0000000000
10
-6.9430202968
20
24.4219272130
30
0.0000000000
10
-6.9430760031
20
24.4335592885
30
0.0000000000
10
-6.9447506473
20
24.4574710324
30
0.0000000000
10
-6.9514059520
20
24.4935580026
30
0.0000000000
10
-6.9621231984
20
24.5300836120
30
0.0000000000
10
-6.9766386696
20
24.5661382029
30
0.0000000000
10
-6.9946011812
20
24.6008523780
30
0.0000000000
10
-7.0155758987
20
24.6333843448
30
0.0000000000
10
-7.0390557072
20
24.6629470864
30
0.0000000000
10
-7.0644798841
20
24.6888284429
30
0.0000000000
10
-7.0912338913
20
24.7103997403
30
0.0000000000
10
-7.1102414263
20
24.7219841679
30
0.0000000000
10
-7.1197940005
20
24.7268167519
30
0.0000000000
11
-6.9430202968
21
24.4219272130
31
0.0000000000
11
-6.9453378716
21
24.4567467965
31
0.0000000000
11
-6.9519269826
21
24.4929620984
31
0.0000000000
11
-6.9626250320
21
24.5296173541
31
0.0000000000
11
-6.9771698939
21
24.5658127921
31
0.0000000000
11
-6.9952024243
21
24.6006535609
31
0.0000000000
11
-7.0162789504
21
24.6332823196
31
0.0000000000
11
-7.0398801605
21
24.6628948682
31
0.0000000000
11
-7.0654246965
21
24.6887616691
31
0.0000000000
11
-7.0922832598
21
24.7102454208
31
0.0000000000
11
-7.1197940005
21
24.7268167519
31
0.0000000000
0
SPLINE
5
305
100
AcDbEntity
8
0
100
AcDbSpline
62
9
6
CONTINUOUS
70
0
71
3
72
17
73
13
74
11
42
0.0000001000
43
0.0000001000
44
0.0000000001
12
0.0017352843
22
0.3683326427
32
0.0000000000
13
-0.3302054118
23
0.1632064119
33
0.0000000000
40
0.0000000000
40
0.0000000000
40
0.0000000000
40
0.0000000000
40
0.0952855389
40
0.1954450498
40
0.2992254493
40
0.4051614696
40
0.5116692082
40
0.6171330614
40
0.7199975207
40
0.8188410132
40
0.9125015613
40
1.0000000000
40
1.0000000000
40
1.0000000000
40
1.0000000000
10
-4.8134723343
20
25.4880880366
30
0.0000000000
10
-4.8134172184
20
25.4997869614
30
0.0000000000
10
-4.8148909263
20
25.5238089262
30
0.0000000000
10
-4.8213217215
20
25.5600490923
30
0.0000000000
10
-4.8318756675
20
25.5966720912
30
0.0000000000
10
-4.8462961558
20
25.6327866108
30
0.0000000000
10
-4.8642336328
20
25.6675217885
30
0.0000000000
10
-4.8852543242
20
25.7000366199
30
0.0000000000
10
-4.9088495763
20
25.7295438767
30
0.0000000000
10
-4.9344564191
20
25.7553331895
30
0.0000000000
10
-4.9614408633
20
25.7767658696
30
0.0000000000
10
-4.9806152186
20
25.7882174733
30
0.0000000000
10
-4.9902460379
20
25.7929775754
30
0.0000000000
11
-4.8134723343
21
25.4880880366
31
0.0000000000
11
-4.8155022737
21
25.5231264477
31
0.0000000000
11
-4.8218620888
21
25.5594665620
31
0.0000000000
11
-4.8323950872
21
25.5962128977
31
0.0000000000
11
-4.8468417321
21
25.6324601706
31
0.0000000000
11
-4.8648460793
21
25.6673154752
31
0.0000000000
11
-4.8859643081
21
25.6999198999
31
0.0000000000
11
-4.9096767278
21
25.7294711974
31
0.0000000000
11
-4.9353969133
21
25.7552392369
31
0.0000000000
11
-4.9624933126
21
25.7765919868
31
0.0000000000
11
-4.9902460379
21
25.7929775754
31
0.0000000000
0
SPLINE
5
306
100
AcDbEntity
8
0
100
AcDbSpline
62
9
6
CONTINUOUS
70
0
71
3
72
12
73
8
74
6
42
0.0000001000
43
0.0000001000
44
0.0000000001
12
-0.1023063762
22
0.0517475861
32
0.0000000000
13
-0.1033358100
23
-0.0503876481
33
0.0000000000
40
0.0000000000
40
0.0000000000
40
0.0000000000
40
0.0000000000
40
0.2587066551
40
0.4980489301
40
0.7208658535
40
0.9330787874
40
1.0000000000
40
1.0000000000
40
1.0000000000
40
1.0000000000
10
-6.3275721985
20
26.4616406557
30
0.0000000000
10
-6.3363946453
20
26.4661031373
30
0.0000000000
10
-6.3540590001
20
26.4734606823
30
0.0000000000
10
-6.3811450315
20
26.4793520925
30
0.0000000000
10
-6.4071412860
20
26.4794065731
30
0.0000000000
10
-6.4259723007
20
26.4747914286
30
0.0000000000
10
-6.4357778874
20
26.4704967768
30
0.0000000000
10
-6.4380830067
20
26.4693727759
30
0.0000000000
11
-6.3275721985
21
26.4616406557
31
0.0000000000
11
-6.3550289691
21
26.4728598151
31
0.0000000000
11
-6.3818867525
21
26.4784841566
31
0.0000000000
11
-6.4074321456
21
26.4783489063
31
0.0000000000
11
-6.4310378947
21
26.4724566932
31
0.0000000000
11
-6.4380830067
21
26.4693727759
31
0.0000000000
0
SPLINE
5
307
100
AcDbEntity
8
0
100
AcDbSpline
62
7
6
CONTINUOUS
70
0
71
3
72
12
73
8
74
6
42
0.0000001000
43
0.0000001000
44
0.0000000001
12
-0.1029117008
22
0.0514558504
32
0.0000000000
13
-0.1036858895
23
-0.0504661476
33
0.0000000000
40
0.0000000000
40
0.0000000000
40
0.0000000000
40
0.0000000000
40
0.2365135992
40
0.4564779312
40
0.6620569350
40
0.8571721465
40
1.0000000000
40
1.0000000000
40
1.0000000000
40
1.0000000000
10
-6.8620220772
20
26.2012931891
30
0.0000000000
10
-6.8701354161
20
26.2053498586
30
0.0000000000
10
-6.8863534758
20
26.2121426205
30
0.0000000000
10
-6.9111622160
20
26.2181017121
30
0.0000000000
10
-6.9350954036
20
26.2192873629
30
0.0000000000
10
-6.9558365976
20
26.2158865446
30
0.0000000000
10
-6.9680172433
20
26.2112247473
30
0.0000000000
10
-6.9729536543
20
26.2088220902
30
0.0000000000
11
-6.8620220772
21
26.2012931891
31
0.0000000000
11
-6.8871796179
21
26.2116683355
31
0.0000000000
11
-6.9118250561
21
26.2174249950
31
0.0000000000
11
-6.9354566830
21
26.2184459148
31
0.0000000000
11
-6.9575934100
21
26.2147102547
31
0.0000000000
11
-6.9729536543
21
26.2088220902
31
0.0000000000
0
SPLINE
5
308
100
AcDbEntity
8
0
100
AcDbSpline
62
9
6
CONTINUOUS
70
0
71
3
72
12
73
8
74
6
42
0.0000001000
43
0.0000001000
44
0.0000000001
12
-0.1051788256
22
0.0519767254
32
0.0000000000
13
-0.1046705139
23
-0.0537184034
33
0.0000000000
40
0.0000000000
40
0.0000000000
40
0.0000000000
40
0.0000000000
40
0.2551656286
40
0.4908310022
40
0.7100613736
40
0.9184212323
40
1.0000000000
40
1.0000000000
40
1.0000000000
40
1.0000000000
10
-8.4447786803
20
25.3893090918
30
0.0000000000
10
-8.4537246874
20
25.3937299830
30
0.0000000000
10
-8.4716000193
20
25.4009954925
30
0.0000000000
10
-8.4989352633
20
25.4067560501
30
0.0000000000
10
-8.5250934997
20
25.4067121378
30
0.0000000000
10
-8.5446309606
20
25.4018969663
30
0.0000000000
10
-8.5550092478
20
25.3972182967
30
0.0000000000
10
-8.5578555450
20
25.3957575364
30
0.0000000000
11
-8.4447786803
21
25.3893090918
31
0.0000000000
11
-8.4725859070
21
25.4003967444
31
0.0000000000
11
-8.4996829867
21
25.4058908142
31
0.0000000000
11
-8.5254021918
21
25.4056558839
31
0.0000000000
11
-8.5491099214
21
25.3996978051
31
0.0000000000
11
-8.5578555450
21
25.3957575364
31
0.0000000000
0
SPLINE
5
309
100
AcDbEntity
8
0
100
AcDbSpline
62
9
6
CONTINUOUS
70
0
71
3
72
17
73
13
74
11
42
0.0000001000
43
0.0000001000
44
0.0000000001
12
0.0000000000
22
0.3668786628
32
0.0000000000
13
0.3272083604
23
0.1659356566
33
0.0000000000
40
0.0000000000
40
0.0000000000
40
0.0000000000
40
0.0000000000
40
0.0949365385
40
0.1949784340
40
0.2986958379
40
0.4046250491
40
0.5111655508
40
0.6166961316
40
0.7196450137
40
0.8185830339
40
0.9123176468
40
1.0000000000
40
1.0000000000
40
1.0000000000
40
1.0000000000
10
-7.2955422565
20
24.4224399369
30
0.0000000000
10
-7.2955422565
20
24.4340500003
30
0.0000000000
10
-7.2939829382
20
24.4579120452
30
0.0000000000
10
-7.2874944313
20
24.4939264078
30
0.0000000000
10
-7.2769397061
20
24.5303664795
30
0.0000000000
10
-7.2625766774
20
24.5663315372
30
0.0000000000
10
-7.2447504000
20
24.6009607801
30
0.0000000000
10
-7.2238892055
20
24.6334207008
30
0.0000000000
10
-7.2004936985
20
24.6629317159
30
0.0000000000
10
-7.1751184882
20
24.6887878758
30
0.0000000000
10
-7.1483725673
20
24.7103653022
30
0.0000000000
10
-7.1293574669
20
24.7219668756
30
0.0000000000
10
-7.1197940005
20
24.7268167519
30
0.0000000000
11
-7.2955422565
21
24.4224399369
31
0.0000000000
11
-7.2933893063
21
24.4572035236
31
0.0000000000
11
-7.2869672184
21
24.4933405459
31
0.0000000000
11
-7.2764330109
21
24.5299050442
31
0.0000000000
11
-7.2620429620
21
24.5660059066
31
0.0000000000
11
-7.2441497481
21
24.6007573183
31
0.0000000000
11
-7.2231903808
21
24.6333104240
31
0.0000000000
11
-7.1996774809
21
24.6628687971
31
0.0000000000
11
-7.1741859769
21
24.6887095801
31
0.0000000000
11
-7.1473392454
21
24.7102007902
31
0.0000000000
11
-7.1197940005
21
24.7268167519
31
0.0000000000
0
SPLINE
5
30A
100
AcDbEntity
8
0
100
AcDbSpline
62
9
6
CONTINUOUS
70
0
71
3
72
17
73
13
74
11
42
0.0000001000
43
0.0000001000
44
0.0000000001
12
0.0000000000
22
0.3668786628
32
0.0000000000
13
0.3272083604
23
0.1659356566
33
0.0000000000
40
0.0000000000
40
0.0000000000
40
0.0000000000
40
0.0000000000
40
0.0949365385
40
0.1949784340
40
0.2986958379
40
0.4046250491
40
0.5111655508
40
0.6166961316
40
0.7196450137
40
0.8185830339
40
0.9123176468
40
1.0000000000
40
1.0000000000
40
1.0000000000
40
1.0000000000
10
-8.6205269363
20
25.0849322768
30
0.0000000000
10
-8.6205269363
20
25.0965423402
30
0.0000000000
10
-8.6189676180
20
25.1204043851
30
0.0000000000
10
-8.6124791111
20
25.1564187477
30
0.0000000000
10
-8.6019243859
20
25.1928588194
30
0.0000000000
10
-8.5875613572
20
25.2288238771
30
0.0000000000
10
-8.5697350798
20
25.2634531200
30
0.0000000000
10
-8.5488738853
20
25.2959130407
30
0.0000000000
10
-8.5254783783
20
25.3254240559
30
0.0000000000
10
-8.5001031680
20
25.3512802157
30
0.0000000000
10
-8.4733572471
20
25.3728576421
30
0.0000000000
10
-8.4543421467
20
25.3844592155
30
0.0000000000
10
-8.4447786803
20
25.3893090918
30
0.0000000000
11
-8.6205269363
21
25.0849322768
31
0.0000000000
11
-8.6183739861
21
25.1196958635
31
0.0000000000
11
-8.6119518982
21
25.1558328858
31
0.0000000000
11
-8.6014176907
21
25.1923973841
31
0.0000000000
11
-8.5870276418
21
25.2284982465
31
0.0000000000
11
-8.5691344280
21
25.2632496582
31
0.0000000000
11
-8.5481750607
21
25.2958027639
31
0.0000000000
11
-8.5246621607
21
25.3253611370
31
0.0000000000
11
-8.4991706567
21
25.3512019200
31
0.0000000000
11
-8.4723239252
21
25.3726931301
31
0.0000000000
11
-8.4447786803
21
25.3893090918
31
0.0000000000
0
SPLINE
5
30B
100
AcDbEntity
8
0
100
AcDbSpline
62
9
6
CONTINUOUS
70
0
71
3
72
17
73
13
74
11
42
0.0000001000
43
0.0000001000
44
0.0000000001
12
0.3245266357
22
-0.1622633178
32
0.0000000000
13
0.3252757263
23
0.1607564103
33
0.0000000000
40
0.0000000000
40
0.0000000000
40
0.0000000000
40
0.0000000000
40
0.0890537733
40
0.1850803105
40
0.2866692718
40
0.3921274525
40
0.4995824897
40
0.6070742397
40
0.7126409721
40
0.8144054754
40
0.9106661329
40
1.0000000000
40
1.0000000000
40
1.0000000000
40
1.0000000000
10
-7.2955422565
20
24.0824660028
30
0.0000000000
10
-7.2859088160
20
24.0776492825
30
0.0000000000
10
-7.2652287667
20
24.0689299172
30
0.0000000000
10
-7.2320043880
20
24.0588470910
30
0.0000000000
10
-7.1960553932
20
24.0514472201
30
0.0000000000
10
-7.1582481207
20
24.0469116925
30
0.0000000000
10
-7.1194890614
20
24.0453497857
30
0.0000000000
10
-7.0807125637
20
24.0467999511
30
0.0000000000
10
-7.0428534281
20
24.0512264667
30
0.0000000000
10
-7.0068195532
20
24.0585226565
30
0.0000000000
10
-6.9734794795
20
24.0685096155
30
0.0000000000
10
-6.9527063430
20
24.0771662816
30
0.0000000000
10
-6.9430202968
20
24.0819532789
30
0.0000000000
11
-7.2955422565
21
24.0824660028
31
0.0000000000
11
-7.2658295161
21
24.0697699882
31
0.0000000000
11
-7.2325222925
21
24.0595446405
31
0.0000000000
11
-7.1964346686
21
24.0520398840
31
0.0000000000
11
-7.1584486848
21
24.0474391470
31
0.0000000000
11
-7.1194927807
21
24.0458548793
31
0.0000000000
11
-7.0805191021
21
24.0473258027
31
0.0000000000
11
-7.0424802295
21
24.0518159657
31
0.0000000000
11
-7.0063058949
21
24.0592156212
31
0.0000000000
11
-6.9728802583
21
24.0693439096
31
0.0000000000
11
-6.9430202968
21
24.0819532789
31
0.0000000000
0
SPLINE
5
30C
100
AcDbEntity
8
0
100
AcDbSpline
62
9
6
CONTINUOUS
70
0
71
3
72
17
73
13
74
11
42
0.0000001000
43
0.0000001000
44
0.0000000001
12
0.3245266357
22
-0.1622633178
32
0.0000000000
13
0.3252757263
23
0.1607564103
33
0.0000000000
40
0.0000000000
40
0.0000000000
40
0.0000000000
40
0.0000000000
40
0.0890537733
40
0.1850803105
40
0.2866692718
40
0.3921274525
40
0.4995824897
40
0.6070742397
40
0.7126409721
40
0.8144054754
40
0.9106661329
40
1.0000000000
40
1.0000000000
40
1.0000000000
40
1.0000000000
10
-7.2955422565
20
24.4224399369
30
0.0000000000
10
-7.2859088160
20
24.4176232166
30
0.0000000000
10
-7.2652287667
20
24.4089038514
30
0.0000000000
10
-7.2320043880
20
24.3988210251
30
0.0000000000
10
-7.1960553932
20
24.3914211542
30
0.0000000000
10
-7.1582481207
20
24.3868856266
30
0.0000000000
10
-7.1194890614
20
24.3853237199
30
0.0000000000
10
-7.0807125637
20
24.3867738852
30
0.0000000000
10
-7.0428534281
20
24.3912004008
30
0.0000000000
10
-7.0068195532
20
24.3984965906
30
0.0000000000
10
-6.9734794795
20
24.4084835496
30
0.0000000000
10
-6.9527063430
20
24.4171402158
30
0.0000000000
10
-6.9430202968
20
24.4219272130
30
0.0000000000
11
-7.2955422565
21
24.4224399369
31
0.0000000000
11
-7.2658295161
21
24.4097439223
31
0.0000000000
11
-7.2325222925
21
24.3995185746
31
0.0000000000
11
-7.1964346686
21
24.3920138181
31
0.0000000000
11
-7.1584486848
21
24.3874130812
31
0.0000000000
11
-7.1194927807
21
24.3858288134
31
0.0000000000
11
-7.0805191021
21
24.3872997369
31
0.0000000000
11
-7.0424802295
21
24.3917898998
31
0.0000000000
11
-7.0063058949
21
24.3991895553
31
0.0000000000
11
-6.9728802583
21
24.4093178437
31
0.0000000000
11
-6.9430202968
21
24.4219272130
31
0.0000000000
0
SPLINE
5
30D
100
AcDbEntity
8
0
100
AcDbSpline
62
7
6
CONTINUOUS
70
0
71
3
72
17
73
13
74
11
42
0.0000001000
43
0.0000001000
44
0.0000000001
12
-0.3181250359
22
-0.1775235416
32
0.0000000000
13
-0.3258443141
23
0.1629221571
33
0.0000000000
40
0.0000000000
40
0.0000000000
40
0.0000000000
40
0.0000000000
40
0.0909700039
40
0.1886105471
40
0.2907022515
40
0.3966963028
40
0.5038835773
40
0.6107295677
40
0.7156871758
40
0.8161327365
40
0.9115989935
40
1.0000000000
40
1.0000000000
40
1.0000000000
40
1.0000000000
10
-6.2317996887
20
23.1258176343
30
0.0000000000
10
-6.2414463006
20
23.1204345285
30
0.0000000000
10
-6.2621814375
20
23.1105623842
30
0.0000000000
10
-6.2955416346
20
23.0988521457
30
0.0000000000
10
-6.3316291652
20
23.0899147561
30
0.0000000000
10
-6.3694994565
20
23.0839867808
30
0.0000000000
10
-6.4083064462
20
23.0812006516
30
0.0000000000
10
-6.4470855583
20
23.0816217474
30
0.0000000000
10
-6.4848781813
20
23.0852392540
30
0.0000000000
10
-6.5208442027
20
23.0919692382
30
0.0000000000
10
-6.5540500764
20
23.1016311081
30
0.0000000000
10
-6.5747199933
20
23.1102489251
30
0.0000000000
10
-6.5843216484
20
23.1150497527
30
0.0000000000
11
-6.2317996887
21
23.1258176343
31
0.0000000000
11
-6.2616596320
21
23.1114406274
31
0.0000000000
11
-6.2951874609
21
23.0995588575
31
0.0000000000
11
-6.3312727389
21
23.0905512899
31
0.0000000000
11
-6.3694163358
21
23.0845413198
31
0.0000000000
11
-6.4083642889
21
23.0817358669
31
0.0000000000
11
-6.4472863136
21
23.0821775291
31
0.0000000000
11
-6.4853442052
21
23.0858698442
31
0.0000000000
11
-6.5212979691
21
23.0926787700
31
0.0000000000
11
-6.5546583526
21
23.1025099592
31
0.0000000000
11
-6.5843216484
21
23.1150497527
31
0.0000000000
0
SPLINE
5
30E
100
AcDbEntity
8
0
100
AcDbSpline
62
9
6
CONTINUOUS
70
0
71
3
72
16
73
12
74
10
42
0.0000001000
43
0.0000001000
44
0.0000000001
12
-0.1071013126
22
-0.2788208586
32
0.0000000000
13
-0.2929014228
23
0.0611244404
33
0.0000000000
40
0.0000000000
40
0.0000000000
40
0.0000000000
40
0.0000000000
40
0.1289394256
40
0.2552269787
40
0.3778356690
40
0.4961472378
40
0.6098996248
40
0.7192818507
40
0.8249559230
40
0.9280345409
40
1.0000000000
40
1.0000000000
40
1.0000000000
40
1.0000000000
10
-6.9430202968
20
24.0819532789
30
0.0000000000
10
-6.9476234907
20
24.0699696118
30
0.0000000000
10
-6.9582023472
20
24.0467793665
30
0.0000000000
10
-6.9781019147
20
24.0147349155
30
0.0000000000
10
-7.0014548874
20
23.9864517061
30
0.0000000000
10
-7.0277041768
20
23.9626368287
30
0.0000000000
10
-7.0562343823
20
23.9438812472
30
0.0000000000
10
-7.0863703127
20
23.9306705899
30
0.0000000000
10
-7.1173829952
20
23.9233692678
30
0.0000000000
10
-7.1454974536
20
23.9223179386
30
0.0000000000
10
-7.1628373232
20
23.9246664171
30
0.0000000000
10
-7.1698635850
20
23.9261326999
30
0.0000000000
11
-6.9430202968
21
24.0819532789
31
0.0000000000
11
-6.9590430283
21
24.0469325547
31
0.0000000000
11
-6.9789959568
21
24.0149219542
31
0.0000000000
11
-7.0023779680
21
23.9867369893
31
0.0000000000
11
-7.0286174604
21
23.9630675567
31
0.0000000000
11
-7.0570689644
21
23.9444966941
31
0.0000000000
11
-7.0870345708
21
23.9314800122
31
0.0000000000
11
-7.1177787886
21
23.9243370663
31
0.0000000000
11
-7.1485472180
21
23.9232431295
31
0.0000000000
11
-7.1698635850
21
23.9261326999
31
0.0000000000
0
SPLINE
5
30F
100
AcDbEntity
8
0
100
AcDbSpline
62
7
6
CONTINUOUS
70
0
71
3
72
17
73
13
74
11
42
0.0000001000
43
0.0000001000
44
0.0000000001
12
-0.2293550453
22
-0.2745954237
32
0.0000000000
13
-0.3507160826
23
0.0730796552
33
0.0000000000
40
0.0000000000
40
0.0000000000
40
0.0000000000
40
0.0000000000
40
0.1021387792
40
0.2069864708
40
0.3136189946
40
0.4210326509
40
0.5281801696
40
0.6340088688
40
0.7375134601
40
0.8378124364
40
0.9342621822
40
1.0000000000
40
1.0000000000
40
1.0000000000
40
1.0000000000
10
-6.2317996887
20
23.9334497560
30
0.0000000000
10
-6.2396083702
20
23.9241008089
30
0.0000000000
10
-6.2563032389
20
23.9058653744
30
0.0000000000
10
-6.2839145977
20
23.8805684368
30
0.0000000000
10
-6.3141430694
20
23.8574067931
30
0.0000000000
10
-6.3465619143
20
23.8369025269
30
0.0000000000
10
-6.3806791156
20
23.8195660484
30
0.0000000000
10
-6.4159329928
20
23.8058944645
30
0.0000000000
10
-6.4516934657
20
23.7963637442
30
0.0000000000
10
-6.4872599814
20
23.7914183876
30
0.0000000000
10
-6.5186835941
20
23.7914657876
30
0.0000000000
10
-6.5378940607
20
23.7941771464
30
0.0000000000
10
-6.5455791640
20
23.7957785120
30
0.0000000000
11
-6.2317996887
21
23.9334497560
31
0.0000000000
11
-6.2564569220
21
23.9064789253
31
0.0000000000
11
-6.2841083619
21
23.8811298234
31
0.0000000000
11
-6.3143952313
21
23.8579306532
31
0.0000000000
11
-6.3468874411
21
23.8374085985
31
0.0000000000
11
-6.3810840608
21
23.8200828920
31
0.0000000000
11
-6.4164112382
21
23.8064584518
31
0.0000000000
11
-6.4522193768
21
23.7970173050
31
0.0000000000
11
-6.4877803722
21
23.7922063744
31
0.0000000000
11
-6.5222874825
21
23.7924198336
31
0.0000000000
11
-6.5455791640
21
23.7957785120
31
0.0000000000
0
SPLINE
5
310
100
AcDbEntity
8
0
100
AcDbSpline
62
9
6
CONTINUOUS
70
0
71
3
72
13
73
9
74
7
42
0.0000001000
43
0.0000001000
44
0.0000000001
12
0.0000000000
22
-0.1577052419
32
0.0000000000
13
0.1414334405
23
-0.0707430069
33
0.0000000000
40
0.0000000000
40
0.0000000000
40
0.0000000000
40
0.0000000000
40
0.1984713040
40
0.3837230347
40
0.5554551366
40
0.7150768613
40
0.8655112998
40
1.0000000000
40
1.0000000000
40
1.0000000000
40
1.0000000000
10
-8.6205269363
20
24.7449583427
30
0.0000000000
10
-8.6205269363
20
24.7345250210
30
0.0000000000
10
-8.6193414945
20
24.7143226924
30
0.0000000000
10
-8.6136079973
20
24.6855857152
30
0.0000000000
10
-8.6040537033
20
24.6600183524
30
0.0000000000
10
-8.5908262408
20
24.6382191508
30
0.0000000000
10
-8.5745484096
20
24.6211636849
30
0.0000000000
10
-8.5618940042
20
24.6129113366
30
0.0000000000
10
-8.5555536044
20
24.6097399583
30
0.0000000000
11
-8.6205269363
21
24.7449583427
31
0.0000000000
11
-8.6185581718
21
24.7137203566
31
0.0000000000
11
-8.6126828202
21
24.6851020697
31
0.0000000000
11
-8.6030322012
21
24.6597967877
31
0.0000000000
11
-8.5898211171
21
24.6383688531
31
0.0000000000
11
-8.5733452720
21
24.6212987354
31
0.0000000000
11
-8.5555536044
21
24.6097399583
31
0.0000000000
0
SPLINE
5
311
100
AcDbEntity
8
0
100
AcDbSpline
62
9
6
CONTINUOUS
70
0
71
3
72
13
73
9
74
7
42
0.0000001000
43
0.0000001000
44
0.0000000001
12
0.0000000000
22
-0.1577052419
32
0.0000000000
13
0.1414334405
23
-0.0707430069
33
0.0000000000
40
0.0000000000
40
0.0000000000
40
0.0000000000
40
0.0000000000
40
0.1984713040
40
0.3837230347
40
0.5554551366
40
0.7150768613
40
0.8655112998
40
1.0000000000
40
1.0000000000
40
1.0000000000
40
1.0000000000
10
-7.2955422565
20
24.0824660028
30
0.0000000000
10
-7.2955422565
20
24.0720326811
30
0.0000000000
10
-7.2943568147
20
24.0518303525
30
0.0000000000
10
-7.2886233175
20
24.0230933753
30
0.0000000000
10
-7.2790690235
20
23.9975260125
30
0.0000000000
10
-7.2658415610
20
23.9757268109
30
0.0000000000
10
-7.2495637298
20
23.9586713450
30
0.0000000000
10
-7.2369093244
20
23.9504189967
30
0.0000000000
10
-7.2305689246
20
23.9472476184
30
0.0000000000
11
-7.2955422565
21
24.0824660028
31
0.0000000000
11
-7.2935734919
21
24.0512280167
31
0.0000000000
11
-7.2876981404
21
24.0226097298
31
0.0000000000
11
-7.2780475214
21
23.9973044478
31
0.0000000000
11
-7.2648364373
21
23.9758765132
31
0.0000000000
11
-7.2483605922
21
23.9588063955
31
0.0000000000
11
-7.2305689246
21
23.9472476184
31
0.0000000000
0
SPLINE
5
312
100
AcDbEntity
8
0
100
AcDbSpline
62
9
6
CONTINUOUS
70
0
71
3
72
17
73
13
74
11
42
0.0000001000
43
0.0000001000
44
0.0000000001
12
0.0000000000
22
0.3668786876
32
0.0000000000
13
0.3272083824
23
0.1659356678
33
0.0000000000
40
0.0000000000
40
0.0000000000
40
0.0000000000
40
0.0000000000
40
0.0951260700
40
0.1951871607
40
0.2989216269
40
0.4048562768
40
0.5113989431
40
0.6169244000
40
0.7198650762
40
0.8187836095
40
0.9124975085
40
1.0000000000
40
1.0000000000
40
1.0000000000
40
1.0000000000
10
6.0687759079
20
17.7402808547
30
0.0000000000
10
6.0687759079
20
17.7519140973
30
0.0000000000
10
6.0703399837
20
17.7758017593
30
0.0000000000
10
6.0768411406
20
17.8118418859
30
0.0000000000
10
6.0874049731
20
17.8482846547
30
0.0000000000
10
6.1017766051
20
17.8842495210
30
0.0000000000
10
6.1196102270
20
17.9188753337
30
0.0000000000
10
6.1404775868
20
17.9513296742
30
0.0000000000
10
6.1638771730
20
17.9808323590
30
0.0000000000
10
6.1892542995
20
18.0066783174
30
0.0000000000
10
6.2159846985
20
18.0282321896
30
0.0000000000
10
6.2349803144
20
18.0398177415
30
0.0000000000
10
6.2445241639
20
18.0446576696
30
0.0000000000
11
6.0687759079
21
17.7402808547
31
0.0000000000
11
6.0709372222
21
17.7751135938
31
0.0000000000
11
6.0773683758
21
17.8112561593
31
0.0000000000
11
6.0879120798
21
17.8478244378
31
0.0000000000
11
6.1023104393
21
17.8839241375
31
0.0000000000
11
6.1202113006
21
17.9186725068
31
0.0000000000
11
6.1411766267
21
17.9512195422
31
0.0000000000
11
6.1646942790
21
17.9807702900
31
0.0000000000
11
6.1901868818
21
18.0065999485
31
0.0000000000
11
6.2170330922
21
18.0280796512
31
0.0000000000
11
6.2445241639
21
18.0446576696
31
0.0000000000
0
SPLINE
5
313
100
AcDbEntity
8
0
100
AcDbSpline
62
9
6
CONTINUOUS
70
0
71
3
72
17
73
13
74
11
42
0.0000001000
43
0.0000001000
44
0.0000000001
12
0.0000000000
22
0.3668786542
32
0.0000000000
13
0.3272083526
23
0.1659356527
33
0.0000000000
40
0.0000000000
40
0.0000000000
40
0.0000000000
40
0.0000000000
40
0.0951043724
40
0.1951411062
40
0.2988504059
40
0.4047604858
40
0.5112804371
40
0.6167872853
40
0.7197115413
40
0.8186252806
40
0.9123372168
40
1.0000000000
40
1.0000000000
40
1.0000000000
40
1.0000000000
10
4.7437912281
20
18.4027731946
30
0.0000000000
10
4.7437912281
20
18.4144037826
30
0.0000000000
10
4.7453545808
20
18.4382858005
30
0.0000000000
10
4.7518528368
20
18.4743175545
30
0.0000000000
10
4.7624120457
20
18.5107521833
30
0.0000000000
10
4.7767776325
20
18.5467098799
30
0.0000000000
10
4.7946042251
20
18.5813302011
30
0.0000000000
10
4.8154639316
20
18.6137810180
30
0.0000000000
10
4.8388562186
20
18.6432832021
30
0.0000000000
10
4.8642268570
20
18.6691315213
30
0.0000000000
10
4.8909673105
20
18.6907026916
30
0.0000000000
10
4.9099781525
20
18.7023012158
30
0.0000000000
10
4.9195394841
20
18.7071500096
30
0.0000000000
11
4.7437912281
21
18.4027731946
31
0.0000000000
11
4.7459515837
21
18.4375980143
31
0.0000000000
11
4.7523798478
21
18.4737320141
31
0.0000000000
11
4.7629189033
21
18.5102920201
31
0.0000000000
11
4.7773111582
21
18.5463844460
31
0.0000000000
11
4.7952048425
21
18.5811271338
31
0.0000000000
11
4.8161626053
21
18.6136709157
31
0.0000000000
11
4.8396722045
21
18.6432203684
31
0.0000000000
11
4.8651590273
21
18.6690532550
31
0.0000000000
11
4.8920001340
21
18.6905381776
31
0.0000000000
11
4.9195394841
21
18.7071500096
31
0.0000000000
0
SPLINE
5
314
100
AcDbEntity
8
0
100
AcDbSpline
62
9
6
CONTINUOUS
70
0
71
3
72
17
73
13
74
11
42
0.0000001000
43
0.0000001000
44
0.0000000001
12
0.3245266357
22
-0.1622633178
32
0.0000000000
13
0.3252757263
23
0.1607564103
33
0.0000000000
40
0.0000000000
40
0.0000000000
40
0.0000000000
40
0.0000000000
40
0.0890537733
40
0.1850803105
40
0.2866692718
40
0.3921274525
40
0.4995824897
40
0.6070742397
40
0.7126409721
40
0.8144054754
40
0.9106661329
40
1.0000000000
40
1.0000000000
40
1.0000000000
40
1.0000000000
10
6.0687759079
20
17.4003069206
30
0.0000000000
10
6.0784093484
20
17.3954902003
30
0.0000000000
10
6.0990893978
20
17.3867708350
30
0.0000000000
10
6.1323137764
20
17.3766880088
30
0.0000000000
10
6.1682627712
20
17.3692881379
30
0.0000000000
10
6.2060700437
20
17.3647526102
30
0.0000000000
10
6.2448291030
20
17.3631907035
30
0.0000000000
10
6.2836056007
20
17.3646408688
30
0.0000000000
10
6.3214647363
20
17.3690673845
30
0.0000000000
10
6.3574986112
20
17.3763635743
30
0.0000000000
10
6.3908386849
20
17.3863505333
30
0.0000000000
10
6.4116118214
20
17.3950071994
30
0.0000000000
10
6.4212978676
20
17.3997941967
30
0.0000000000
11
6.0687759079
21
17.4003069206
31
0.0000000000
11
6.0984886483
21
17.3876109060
31
0.0000000000
11
6.1317958719
21
17.3773855583
31
0.0000000000
11
6.1678834958
21
17.3698808017
31
0.0000000000
11
6.2058694796
21
17.3652800648
31
0.0000000000
11
6.2448253837
21
17.3636957970
31
0.0000000000
11
6.2837990623
21
17.3651667205
31
0.0000000000
11
6.3218379349
21
17.3696568835
31
0.0000000000
11
6.3580122695
21
17.3770565390
31
0.0000000000
11
6.3914379061
21
17.3871848273
31
0.0000000000
11
6.4212978676
21
17.3997941967
31
0.0000000000
0
SPLINE
5
315
100
AcDbEntity
8
0
100
AcDbSpline
62
9
6
CONTINUOUS
70
0
71
3
72
17
73
13
74
11
42
0.0000001000
43
0.0000001000
44
0.0000000001
12
0.3245266519
22
-0.1622633259
32
0.0000000000
13
0.3252757425
23
0.1607564183
33
0.0000000000
40
0.0000000000
40
0.0000000000
40
0.0000000000
40
0.0000000000
40
0.0890743650
40
0.1851250120
40
0.2867396756
40
0.3922235448
40
0.4997027408
40
0.6072145441
40
0.7127988709
40
0.8145684647
40
0.9108304184
40
1.0000000000
40
1.0000000000
40
1.0000000000
40
1.0000000000
10
6.0687759079
20
17.7402808547
30
0.0000000000
10
6.0784115764
20
17.7354630204
30
0.0000000000
10
6.0990967712
20
17.7267418421
30
0.0000000000
10
6.1323296727
20
17.7166576704
30
0.0000000000
10
6.1682880115
20
17.7092577525
30
0.0000000000
10
6.2061046739
20
17.7047235662
30
0.0000000000
10
6.2448723297
20
17.7031643705
30
0.0000000000
10
6.2836561850
20
17.7046184809
30
0.0000000000
10
6.3215199858
20
17.7090499121
30
0.0000000000
10
6.3575557197
20
17.7163516049
30
0.0000000000
10
6.3908759242
20
17.7263385603
30
0.0000000000
10
6.4116296336
20
17.7349899366
30
0.0000000000
10
6.4212978676
20
17.7397681308
30
0.0000000000
11
6.0687759079
21
17.7402808547
31
0.0000000000
11
6.0984956817
21
17.7275822820
31
0.0000000000
11
6.1318116090
21
17.7173554720
31
0.0000000000
11
6.1679087383
21
17.7098506114
31
0.0000000000
11
6.2059042735
21
17.7052512033
31
0.0000000000
11
6.2448690635
21
17.7036696696
31
0.0000000000
11
6.2838498742
21
17.7051445904
31
0.0000000000
11
6.3218945697
21
17.7096398948
31
0.0000000000
11
6.3580696889
21
17.7170449381
31
0.0000000000
11
6.3914940835
21
17.7271789512
31
0.0000000000
11
6.4212978676
21
17.7397681308
31
0.0000000000
0
SPLINE
5
316
100
AcDbEntity
8
0
100
AcDbSpline
62
7
6
CONTINUOUS
70
0
71
3
72
18
73
14
74
12
42
0.0000001000
43
0.0000001000
44
0.0000000001
12
0.0000000000
22
0.3680541714
32
0.0000000000
13
-0.3291976587
23
0.1645988293
33
0.0000000000
40
0.0000000000
40
0.0000000000
40
0.0000000000
40
0.0000000000
40
0.0862976154
40
0.1767716919
40
0.2704937047
40
0.3663768358
40
0.4632356557
40
0.5598417779
40
0.6549778366
40
0.7474918948
40
0.8363544548
40
0.9207205835
40
1.0000000000
40
1.0000000000
40
1.0000000000
40
1.0000000000
10
8.0225786584
20
18.5424901343
30
0.0000000000
10
8.0225786584
20
18.5530775334
30
0.0000000000
10
8.0212844615
20
18.5747786938
30
0.0000000000
10
8.0158650484
20
18.6075704558
30
0.0000000000
10
8.0070274634
20
18.6408283086
30
0.0000000000
10
7.9949497819
20
18.6738815907
30
0.0000000000
10
7.9798745166
20
18.7060698597
30
0.0000000000
10
7.9621042713
20
18.7367468063
30
0.0000000000
10
7.9419950905
20
18.7652971905
30
0.0000000000
10
7.9199495706
20
18.7911485253
30
0.0000000000
10
7.8964037247
20
18.8137847725
30
0.0000000000
10
7.8718292459
20
18.8327495568
30
0.0000000000
10
7.8545044875
20
18.8430299068
30
0.0000000000
10
7.8458049547
20
18.8473796731
30
0.0000000000
11
8.0225786584
21
18.5424901343
31
0.0000000000
11
8.0207794069
21
18.5742013291
31
0.0000000000
11
8.0154182418
21
18.6070662856
31
0.0000000000
11
8.0066042480
21
18.6404159964
31
0.0000000000
11
7.9945168134
21
18.6735715566
31
0.0000000000
11
7.9794019822
21
18.7058579926
31
0.0000000000
11
7.9615674482
21
18.7366180136
31
0.0000000000
11
7.9413762876
21
18.7652254059
31
0.0000000000
11
7.9192395606
21
18.7910977930
31
0.0000000000
11
7.8956079336
21
18.8137085002
31
0.0000000000
11
7.8709624955
21
18.8325972787
31
0.0000000000
11
7.8458049547
21
18.8473796731
31
0.0000000000
0
SPLINE
5
317
100
AcDbEntity
8
0
100
AcDbSpline
62
9
6
CONTINUOUS
70
0
71
3
72
17
73
13
74
11
42
0.0000001000
43
0.0000001000
44
0.0000000001
12
-0.0017609283
22
0.3677011356
32
0.0000000000
13
-0.3281085610
23
0.1659879460
33
0.0000000000
40
0.0000000000
40
0.0000000000
40
0.0000000000
40
0.0000000000
40
0.0950752777
40
0.1951772889
40
0.2990147184
40
0.4050813897
40
0.5117509338
40
0.6173654056
40
0.7203223727
40
0.8191647087
40
0.9126778229
40
1.0000000000
40
1.0000000000
40
1.0000000000
40
1.0000000000
10
6.4212978676
20
17.7397681308
30
0.0000000000
10
6.4212420607
20
17.7514212267
30
0.0000000000
10
6.4195631912
20
17.7753534525
30
0.0000000000
10
6.4128978428
20
17.8114582869
30
0.0000000000
10
6.4021760200
20
17.8479783906
30
0.0000000000
10
6.3876579574
20
17.8840254537
30
0.0000000000
10
6.3696951756
20
17.9187304513
30
0.0000000000
10
6.3487220366
20
17.9512530501
30
0.0000000000
10
6.3252455723
20
17.9808067113
30
0.0000000000
10
6.2998261081
20
18.0066800154
30
0.0000000000
10
6.2730777159
20
18.0282448929
30
0.0000000000
10
6.2540745485
20
18.0398261934
30
0.0000000000
10
6.2445241639
20
18.0446576696
30
0.0000000000
11
6.4212978676
21
17.7397681308
31
0.0000000000
11
6.4189724344
21
17.7746503925
31
0.0000000000
11
6.4123770130
21
17.8108627193
31
0.0000000000
11
6.4016739977
21
17.8475134820
31
0.0000000000
11
6.3871269208
21
17.8837002559
31
0.0000000000
11
6.3690939643
21
17.9185320410
31
0.0000000000
11
6.3480191403
21
17.9511511998
31
0.0000000000
11
6.3244213586
21
17.9807545751
31
0.0000000000
11
6.2988816499
21
18.0066132648
31
0.0000000000
11
6.2720288595
21
18.0280905696
31
0.0000000000
11
6.2445241639
21
18.0446576696
31
0.0000000000
0
SPLINE
5
318
100
AcDbEntity
8
0
100
AcDbSpline
62
9
6
CONTINUOUS
70
0
71
3
72
17
73
13
74
11
42
0.0000001000
43
0.0000001000
44
0.0000000001
12
0.0017352842
22
0.3683326171
32
0.0000000000
13
-0.3302053889
23
0.1632064006
33
0.0000000000
40
0.0000000000
40
0.0000000000
40
0.0000000000
40
0.0000000000
40
0.0950922099
40
0.1952326481
40
0.2989961559
40
0.4049274728
40
0.5114338416
40
0.6169036358
40
0.7197770578
40
0.8186406362
40
0.9123223783
40
1.0000000000
40
1.0000000000
40
1.0000000000
40
1.0000000000
10
8.5508458302
20
18.8059289544
30
0.0000000000
10
8.5509008342
20
18.8176041419
30
0.0000000000
10
8.5494319160
20
18.8415999091
30
0.0000000000
10
8.5430140628
20
18.8778137924
30
0.0000000000
10
8.5324694497
20
18.9144342558
30
0.0000000000
10
8.5180577292
20
18.9505492433
30
0.0000000000
10
8.5001276692
20
18.9852882223
30
0.0000000000
10
8.4791131471
20
19.0178090146
30
0.0000000000
10
8.4555219148
20
19.0473249598
30
0.0000000000
10
8.4299168756
20
19.0731247829
30
0.0000000000
10
8.4029167052
20
19.0945811154
30
0.0000000000
10
8.3837226675
20
19.1060486435
30
0.0000000000
10
8.3740721265
20
19.1108184932
30
0.0000000000
11
8.5508458302
21
18.8059289544
31
0.0000000000
11
8.5488242102
21
18.8408965152
31
0.0000000000
11
8.5424737150
21
18.8772311250
31
0.0000000000
11
8.5319504581
21
18.9139737770
31
0.0000000000
11
8.5175122667
21
18.9502225502
31
0.0000000000
11
8.4995156405
21
18.9850812711
31
0.0000000000
11
8.4784033676
21
19.0176921564
31
0.0000000000
11
8.4546956380
21
19.0472514453
31
0.0000000000
11
8.4289764329
21
19.0730309116
31
0.0000000000
11
8.4018793532
21
19.0943954050
31
0.0000000000
11
8.3740721265
21
19.1108184932
31
0.0000000000
0
SPLINE
5
319
100
AcDbEntity
8
0
100
AcDbSpline
62
9
6
CONTINUOUS
70
0
71
3
72
12
73
8
74
6
42
0.0000001000
43
0.0000001000
44
0.0000000001
12
-0.1023063227
22
0.0517475591
32
0.0000000000
13
-0.1033354543
23
-0.0503876774
33
0.0000000000
40
0.0000000000
40
0.0000000000
40
0.0000000000
40
0.0000000000
40
0.2591427862
40
0.4984240280
40
0.7211919206
40
0.9333519805
40
1.0000000000
40
1.0000000000
40
1.0000000000
40
1.0000000000
10
7.0367459659
20
19.7794815735
30
0.0000000000
10
7.0279086508
20
19.7839515757
30
0.0000000000
10
7.0102296760
20
19.7913126739
30
0.0000000000
10
6.9831294371
20
19.7971976995
30
0.0000000000
10
6.9571394031
20
19.7972427980
30
0.0000000000
10
6.9383241789
20
19.7926243428
30
0.0000000000
10
6.9285308519
20
19.7883331198
30
0.0000000000
10
6.9262351507
20
19.7872137069
30
0.0000000000
11
7.0367459659
21
19.7794815735
31
0.0000000000
11
7.0092412703
21
19.7907155955
31
0.0000000000
11
6.9823884800
21
19.7963295638
31
0.0000000000
11
6.9568487712
21
19.7961852499
31
0.0000000000
11
6.9332509895
21
19.7902862070
31
0.0000000000
11
6.9262351507
21
19.7872137069
31
0.0000000000
0
SPLINE
5
31A
100
AcDbEntity
8
0
100
AcDbSpline
62
7
6
CONTINUOUS
70
0
71
3
72
12
73
8
74
6
42
0.0000001000
43
0.0000001000
44
0.0000000001
12
-0.1029117008
22
0.0514558504
32
0.0000000000
13
-0.1036858895
23
-0.0504661476
33
0.0000000000
40
0.0000000000
40
0.0000000000
40
0.0000000000
40
0.0000000000
40
0.2365135992
40
0.4564779312
40
0.6620569350
40
0.8571721465
40
1.0000000000
40
1.0000000000
40
1.0000000000
40
1.0000000000
10
6.5022960873
20
19.5191341069
30
0.0000000000
10
6.4941827483
20
19.5231907763
30
0.0000000000
10
6.4779646886
20
19.5299835383
30
0.0000000000
10
6.4531559484
20
19.5359426299
30
0.0000000000
10
6.4292227609
20
19.5371282807
30
0.0000000000
10
6.4084815669
20
19.5337274624
30
0.0000000000
10
6.3963009212
20
19.5290656651
30
0.0000000000
10
6.3913645102
20
19.5266630080
30
0.0000000000
11
6.5022960873
21
19.5191341069
31
0.0000000000
11
6.4771385465
21
19.5295092532
31
0.0000000000
11
6.4524931083
21
19.5352659128
31
0.0000000000
11
6.4288614814
21
19.5362868326
31
0.0000000000
11
6.4067247544
21
19.5325511725
31
0.0000000000
11
6.3913645102
21
19.5266630080
31
0.0000000000
0
SPLINE
5
31B
100
AcDbEntity
8
0
100
AcDbSpline
62
9
6
CONTINUOUS
70
0
71
3
72
12
73
8
74
6
42
0.0000001000
43
0.0000001000
44
0.0000000001
12
-0.1051861438
22
0.0519803419
32
0.0000000000
13
-0.1046736161
23
-0.0537305865
33
0.0000000000
40
0.0000000000
40
0.0000000000
40
0.0000000000
40
0.0000000000
40
0.2546644038
40
0.4903262845
40
0.7095488276
40
0.9179069590
40
1.0000000000
40
1.0000000000
40
1.0000000000
40
1.0000000000
10
4.9195394841
20
18.7071500096
30
0.0000000000
10
4.9106104286
20
18.7115625238
30
0.0000000000
10
4.8927536852
20
18.7188233089
30
0.0000000000
10
4.8654386187
20
18.7245907590
30
0.0000000000
10
4.8392792507
20
18.7245593835
30
0.0000000000
10
4.8197184717
20
18.7197499409
30
0.0000000000
10
4.8093197996
20
18.7150650746
30
0.0000000000
10
4.8064554745
20
18.7135947722
30
0.0000000000
11
4.9195394841
21
18.7071500096
31
0.0000000000
11
4.8917867588
21
18.7182211916
31
0.0000000000
11
4.8646903595
21
18.7237262251
31
0.0000000000
11
4.8389701739
21
18.7235035787
31
0.0000000000
11
4.8152577542
21
18.7175580303
31
0.0000000000
11
4.8064554745
21
18.7135947722
31
0.0000000000
0
SPLINE
5
31C
100
AcDbEntity
8
0
100
AcDbSpline
62
9
6
CONTINUOUS
70
0
71
3
72
13
73
9
74
7
42
0.0000001000
43
0.0000001000
44
0.0000000001
12
-0.1077459496
22
0.0538729748
32
0.0000000000
13
0.0000223307
23
0.1208725076
33
0.0000000000
40
0.0000000000
40
0.0000000000
40
0.0000000000
40
0.0000000000
40
0.2438157914
40
0.4628197782
40
0.6577128337
40
0.8329640122
40
0.9968194048
40
1.0000000000
40
1.0000000000
40
1.0000000000
40
1.0000000000
10
4.7437912281
20
18.4027731946
30
0.0000000000
10
4.7350345068
20
18.4071515553
30
0.0000000000
10
4.7188698346
20
18.4164545488
30
0.0000000000
10
4.6981283824
20
18.4329987970
30
0.0000000000
10
4.6826447596
20
18.4511235473
30
0.0000000000
10
4.6729210911
20
18.4705271534
30
0.0000000000
10
4.6705879343
20
18.4843030592
30
0.0000000000
10
4.6705679409
20
18.4910330572
30
0.0000000000
10
4.6705679646
20
18.4911612061
30
0.0000000000
11
4.7437912281
21
18.4027731946
31
0.0000000000
11
4.7184387669
21
18.4176023754
31
0.0000000000
11
4.6979769060
21
18.4342553937
31
0.0000000000
11
4.6829568979
21
18.4522996053
31
0.0000000000
11
4.6737454290
21
18.4712953887
31
0.0000000000
11
4.6705691079
21
18.4907767631
31
0.0000000000
11
4.6705679646
21
18.4911612061
31
0.0000000000
0
SPLINE
5
31D
100
AcDbEntity
8
0
100
AcDbSpline
62
9
6
CONTINUOUS
70
0
71
3
72
13
73
9
74
7
42
0.0000001000
43
0.0000001000
44
0.0000000001
12
-0.1077462308
22
0.0538731154
32
0.0000000000
13
0.0000217754
23
0.1208726378
33
0.0000000000
40
0.0000000000
40
0.0000000000
40
0.0000000000
40
0.0000000000
40
0.2442126372
40
0.4631472823
40
0.6579815541
40
0.8331752334
40
0.9969917700
40
1.0000000000
40
1.0000000000
40
1.0000000000
40
1.0000000000
10
4.7437912281
20
18.0627992605
30
0.0000000000
10
4.7350202311
20
18.0671847590
30
0.0000000000
10
4.7188446637
20
18.0764959937
30
0.0000000000
10
4.6980993192
20
18.0930529077
30
0.0000000000
10
4.6826264919
20
18.1111772223
30
0.0000000000
10
4.6729129302
20
18.1305789471
30
0.0000000000
10
4.6705867911
20
18.1443449065
30
0.0000000000
10
4.6705679384
20
18.1510664039
30
0.0000000000
10
4.6705679602
20
18.1511876081
30
0.0000000000
11
4.7437912281
21
18.0627992605
31
0.0000000000
11
4.7183991989
21
18.0776556306
31
0.0000000000
11
4.6979485036
21
18.0943092424
31
0.0000000000
11
4.6829389905
21
18.1123530544
31
0.0000000000
11
4.6737375167
21
18.1313460463
31
0.0000000000
11
4.6705689811
21
18.1508239984
31
0.0000000000
11
4.6705679602
21
18.1511876081
31
0.0000000000
0
SPLINE
5
31E
100
AcDbEntity
8
0
100
AcDbSpline
62
7
6
CONTINUOUS
70
0
71
3
72
13
73
9
74
7
42
0.0000001000
43
0.0000001000
44
0.0000000001
12
-0.1102935773
22
0.0551467886
32
0.0000000000
13
0.0000035654
23
0.1236934328
33
0.0000000000
40
0.0000000000
40
0.0000000000
40
0.0000000000
40
0.0000000000
40
0.2387871820
40
0.4551702042
40
0.6490863712
40
0.8273924715
40
0.9964896319
40
1.0000000000
40
1.0000000000
40
1.0000000000
40
1.0000000000
10
5.4467841824
20
17.0994968373
30
0.0000000000
10
5.4380052849
20
17.1038862860
30
0.0000000000
10
5.4217624417
20
17.1133214516
30
0.0000000000
10
5.4010100116
20
17.1303041122
30
0.0000000000
10
5.3855328696
20
17.1491502412
30
0.0000000000
10
5.3758649772
20
17.1694853263
30
0.0000000000
10
5.3735829688
20
17.1839452453
30
0.0000000000
10
5.3735608662
20
17.1910620849
30
0.0000000000
10
5.3735608704
20
17.1912068213
30
0.0000000000
11
5.4467841824
21
17.0994968373
31
0.0000000000
11
5.4214281300
21
17.1144667178
31
0.0000000000
11
5.4009395594
21
17.1315600057
31
0.0000000000
11
5.3859745221
21
17.1502104805
31
0.0000000000
11
5.3767398408
21
17.1701644519
31
0.0000000000
11
5.3735622203
21
17.1907726123
31
0.0000000000
11
5.3735608704
21
17.1912068213
31
0.0000000000
0
SPLINE
5
31F
100
AcDbEntity
8
0
100
AcDbSpline
62
9
6
CONTINUOUS
70
0
71
3
72
13
73
9
74
7
42
0.0000001000
43
0.0000001000
44
0.0000000001
12
0.0000000000
22
-0.1577052419
32
0.0000000000
13
0.1414334405
23
-0.0707430069
33
0.0000000000
40
0.0000000000
40
0.0000000000
40
0.0000000000
40
0.0000000000
40
0.1984713040
40
0.3837230347
40
0.5554551366
40
0.7150768613
40
0.8655112998
40
1.0000000000
40
1.0000000000
40
1.0000000000
40
1.0000000000
10
4.7437912281
20
18.0627992605
30
0.0000000000
10
4.7437912281
20
18.0523659388
30
0.0000000000
10
4.7449766699
20
18.0321636102
30
0.0000000000
10
4.7507101671
20
18.0034266330
30
0.0000000000
10
4.7602644611
20
17.9778592702
30
0.0000000000
10
4.7734919236
20
17.9560600686
30
0.0000000000
10
4.7897697548
20
17.9390046027
30
0.0000000000
10
4.8024241602
20
17.9307522544
30
0.0000000000
10
4.8087645601
20
17.9275808761
30
0.0000000000
11
4.7437912281
21
18.0627992605
31
0.0000000000
11
4.7457599927
21
18.0315612744
31
0.0000000000
11
4.7516353442
21
18.0029429875
31
0.0000000000
11
4.7612859632
21
17.9776377055
31
0.0000000000
11
4.7744970473
21
17.9562097709
31
0.0000000000
11
4.7909728924
21
17.9391396532
31
0.0000000000
11
4.8087645601
21
17.9275808761
31
0.0000000000
0
SPLINE
5
320
100
AcDbEntity
8
0
100
AcDbSpline
62
9
6
CONTINUOUS
70
0
71
3
72
13
73
9
74
7
42
0.0000001000
43
0.0000001000
44
0.0000000001
12
0.0000000000
22
-0.1577052419
32
0.0000000000
13
0.1414334405
23
-0.0707430069
33
0.0000000000
40
0.0000000000
40
0.0000000000
40
0.0000000000
40
0.0000000000
40
0.1984713040
40
0.3837230347
40
0.5554551366
40
0.7150768613
40
0.8655112998
40
1.0000000000
40
1.0000000000
40
1.0000000000
40
1.0000000000
10
6.0687759079
20
17.4003069206
30
0.0000000000
10
6.0687759079
20
17.3898735989
30
0.0000000000
10
6.0699613497
20
17.3696712703
30
0.0000000000
10
6.0756948470
20
17.3409342931
30
0.0000000000
10
6.0852491409
20
17.3153669303
30
0.0000000000
10
6.0984766034
20
17.2935677287
30
0.0000000000
10
6.1147544346
20
17.2765122628
30
0.0000000000
10
6.1274088400
20
17.2682599145
30
0.0000000000
10
6.1337492399
20
17.2650885362
30
0.0000000000
11
6.0687759079
21
17.4003069206
31
0.0000000000
11
6.0707446725
21
17.3690689345
31
0.0000000000
11
6.0766200240
21
17.3404506476
31
0.0000000000
11
6.0862706430
21
17.3151453656
31
0.0000000000
11
6.0994817271
21
17.2937174309
31
0.0000000000
11
6.1159575722
21
17.2766473133
31
0.0000000000
11
6.1337492399
21
17.2650885362
31
0.0000000000
0
SPLINE
5
321
100
AcDbEntity
8
0
100
AcDbSpline
62
7
6
CONTINUOUS
70
0
71
3
72
14
73
10
74
8
42
0.0000001000
43
0.0000001000
44
0.0000000001
12
-0.2424152710
22
-0.0419951076
32
0.0000000000
13
-0.2200522714
23
0.1100261357
33
0.0000000000
40
0.0000000000
40
0.0000000000
40
0.0000000000
40
0.0000000000
40
0.1502520783
40
0.3021346675
40
0.4524318522
40
0.5999254049
40
0.7411746963
40
0.8753095783
40
1.0000000000
40
1.0000000000
40
1.0000000000
40
1.0000000000
10
7.0208715332
20
16.4061061074
30
0.0000000000
10
7.0087304004
20
16.4040028233
30
0.0000000000
10
6.9841303272
20
16.4007856726
30
0.0000000000
10
6.9470383597
20
16.3989011030
30
0.0000000000
10
6.9101362999
20
16.3999426452
30
0.0000000000
10
6.8743056257
20
16.4038832261
30
0.0000000000
10
6.8402427371
20
16.4106456503
30
0.0000000000
10
6.8087612748
20
16.4200643630
30
0.0000000000
10
6.7891426529
20
16.4283176020
30
0.0000000000
10
6.7799965160
20
16.4328906704
30
0.0000000000
11
7.0208715332
21
16.4061061074
31
0.0000000000
11
6.9842210428
21
16.4012874217
31
0.0000000000
11
6.9469022292
21
16.3993893059
31
0.0000000000
11
6.9099405657
21
16.4004542821
31
0.0000000000
11
6.8738759752
21
16.4044678673
31
0.0000000000
11
6.8398045143
21
16.4113064802
31
0.0000000000
11
6.8082190168
21
16.4208668018
31
0.0000000000
11
6.7799965160
21
16.4328906704
31
0.0000000000
0
SPLINE
5
322
100
AcDbEntity
8
0
100
AcDbSpline
62
7
6
CONTINUOUS
70
0
71
3
72
11
73
7
74
5
42
0.0000001000
43
0.0000001000
44
0.0000000001
12
-0.1030364129
22
-0.0575901614
32
0.0000000000
13
-0.1163063543
23
-0.0201484743
33
0.0000000000
40
0.0000000000
40
0.0000000000
40
0.0000000000
40
0.0000000000
40
0.2315549567
40
0.4767646435
40
0.7337478709
40
1.0000000000
40
1.0000000000
40
1.0000000000
40
1.0000000000
10
7.1325184757
20
16.4427898499
30
0.0000000000
10
7.1245656117
20
16.4383447541
30
0.0000000000
10
7.1076544461
20
16.4301315050
30
0.0000000000
10
7.0805470569
20
16.4200920538
30
0.0000000000
10
7.0513856272
20
16.4119924066
30
0.0000000000
10
7.0311938047
20
16.4078942988
30
0.0000000000
10
7.0208715332
20
16.4061061074
30
0.0000000000
11
7.1325184757
21
16.4427898499
31
0.0000000000
11
7.1079731261
21
16.4307653698
31
0.0000000000
11
7.0808617004
21
16.4206293517
31
0.0000000000
11
7.0516563763
21
16.4124319029
31
0.0000000000
11
7.0208715332
21
16.4061061074
31
0.0000000000
0
SPLINE
5
323
100
AcDbEntity
8
0
100
AcDbSpline
62
9
6
CONTINUOUS
70
0
71
3
72
16
73
12
74
10
42
0.0000001000
43
0.0000001000
44
0.0000000001
12
-0.1071013126
22
-0.2788208586
32
0.0000000000
13
-0.2929014228
23
0.0611244404
33
0.0000000000
40
0.0000000000
40
0.0000000000
40
0.0000000000
40
0.0000000000
40
0.1289394256
40
0.2552269787
40
0.3778356690
40
0.4961472378
40
0.6098996248
40
0.7192818507
40
0.8249559230
40
0.9280345409
40
1.0000000000
40
1.0000000000
40
1.0000000000
40
1.0000000000
10
6.4212978676
20
17.3997941967
30
0.0000000000
10
6.4166946737
20
17.3878105296
30
0.0000000000
10
6.4061158173
20
17.3646202843
30
0.0000000000
10
6.3862162497
20
17.3325758333
30
0.0000000000
10
6.3628632770
20
17.3042926238
30
0.0000000000
10
6.3366139876
20
17.2804777465
30
0.0000000000
10
6.3080837821
20
17.2617221650
30
0.0000000000
10
6.2779478517
20
17.2485115077
30
0.0000000000
10
6.2469351692
20
17.2412101856
30
0.0000000000
10
6.2188207108
20
17.2401588564
30
0.0000000000
10
6.2014808412
20
17.2425073349
30
0.0000000000
10
6.1944545794
20
17.2439736177
30
0.0000000000
11
6.4212978676
21
17.3997941967
31
0.0000000000
11
6.4052751361
21
17.3647734725
31
0.0000000000
11
6.3853222077
21
17.3327628719
31
0.0000000000
11
6.3619401965
21
17.3045779071
31
0.0000000000
11
6.3357007040
21
17.2809084745
31
0.0000000000
11
6.3072492000
21
17.2623376119
31
0.0000000000
11
6.2772835936
21
17.2493209299
31
0.0000000000
11
6.2465393759
21
17.2421779841
31
0.0000000000
11
6.2157709464
21
17.2410840472
31
0.0000000000
11
6.1944545794
21
17.2439736177
31
0.0000000000
0
SPLINE
5
324
100
AcDbEntity
8
0
100
AcDbSpline
62
9
6
CONTINUOUS
70
0
71
3
72
17
73
13
74
11
42
0.0000001000
43
0.0000001000
44
0.0000000001
12
0.1279716299
22
0.3378013546
32
0.0000000000
13
-0.3232575311
23
0.1612174365
33
0.0000000000
40
0.0000000000
40
0.0000000000
40
0.0000000000
40
0.0000000000
40
0.1079910110
40
0.2163717187
40
0.3240308943
40
0.4300053495
40
0.5334387342
40
0.6336780368
40
0.7303326621
40
0.8233384017
40
0.9129992442
40
1.0000000000
40
1.0000000000
40
1.0000000000
40
1.0000000000
10
8.5508458302
20
-22.8412067018
30
0.0000000000
10
8.5554524254
20
-22.8290468652
30
0.0000000000
10
8.5631669953
20
-22.8040800460
30
0.0000000000
10
8.5700623419
20
-22.7655835522
30
0.0000000000
10
8.5721738718
20
-22.7267663921
30
0.0000000000
10
8.5694419329
20
-22.6885818392
30
0.0000000000
10
8.5619254018
20
-22.6519479656
30
0.0000000000
10
8.5497925418
20
-22.6177502380
30
0.0000000000
10
8.5333186371
20
-22.5868191735
30
0.0000000000
10
8.5128735956
20
-22.5599143202
30
0.0000000000
10
8.4889431907
20
-22.5377226796
30
0.0000000000
10
8.4708065846
20
-22.5263152420
30
0.0000000000
10
8.4614320348
20
-22.5216398958
30
0.0000000000
11
8.5508458302
21
-22.8412067018
31
0.0000000000
11
8.5623783492
21
-22.8039408713
31
0.0000000000
11
8.5692772058
21
-22.7654032349
31
0.0000000000
11
8.5713616925
21
-22.7265695077
31
0.0000000000
11
8.5685802846
21
-22.6883896250
31
0.0000000000
11
8.5610008948
21
-22.6518033155
31
0.0000000000
11
8.5488093979
21
-22.6177080819
31
0.0000000000
11
8.5323049846
21
-22.5869408205
31
0.0000000000
11
8.5118926394
21
-22.5602564964
31
0.0000000000
11
8.4880735830
21
-22.5383101488
31
0.0000000000
11
8.4614320348
21
-22.5216398958
31
0.0000000000
0
SPLINE
5
325
100
AcDbEntity
8
0
100
AcDbSpline
62
7
6
CONTINUOUS
70
0
71
3
72
18
73
14
74
12
42
0.0000001000
43
0.0000001000
44
0.0000000001
12
-0.3676287117
22
0.0767677769
32
0.0000000000
13
-0.3359097036
23
0.1679548518
33
0.0000000000
40
0.0000000000
40
0.0000000000
40
0.0000000000
40
0.0000000000
40
0.0673230704
40
0.1433568521
40
0.2271917001
40
0.3177060342
40
0.4135703182
40
0.5132425120
40
0.6149605633
40
0.7167344977
40
0.8163457076
40
0.9113713369
40
1.0000000000
40
1.0000000000
40
1.0000000000
40
1.0000000000
10
7.1325184757
20
-23.0483134655
30
0.0000000000
10
7.1242685112
20
-23.0465907181
30
0.0000000000
10
7.1067709259
20
-23.0425858144
30
0.0000000000
10
7.0792356691
20
-23.0354531624
30
0.0000000000
10
7.0490880911
20
-23.0268640530
30
0.0000000000
10
7.0167578711
20
-23.0169053163
30
0.0000000000
10
6.9827458571
20
-23.0056952269
30
0.0000000000
10
6.9476260905
20
-22.9933864096
30
0.0000000000
10
6.9120485558
20
-22.9801668275
30
0.0000000000
10
6.8767385309
20
-22.9662680136
30
0.0000000000
10
6.8425032516
20
-22.9519490167
30
0.0000000000
10
6.8101033109
20
-22.9375250771
30
0.0000000000
10
6.7894060303
20
-22.9275054988
30
0.0000000000
10
6.7794822877
20
-22.9225436275
30
0.0000000000
11
7.1325184757
21
-23.0483134655
31
0.0000000000
11
7.1078612424
21
-23.0427198252
31
0.0000000000
11
7.0802098026
21
-23.0355928801
31
0.0000000000
11
7.0499229331
21
-23.0269903433
31
0.0000000000
11
7.0174307233
21
-23.0169998873
31
0.0000000000
11
6.9832341036
21
-23.0057401567
31
0.0000000000
11
6.9479069262
21
-22.9933627468
31
0.0000000000
11
6.9120987877
21
-22.9800548782
31
0.0000000000
11
6.8765377922
21
-22.9660426809
31
0.0000000000
11
6.8420306819
21
-22.9515943261
31
0.0000000000
11
6.8094543821
21
-22.9370205426
31
0.0000000000
11
6.7794822877
21
-22.9225436275
31
0.0000000000
0
SPLINE
5
326
100
AcDbEntity
8
0
100
AcDbSpline
62
9
6
CONTINUOUS
70
0
71
3
72
17
73
13
74
11
42
0.0000001000
43
0.0000001000
44
0.0000000001
12
0.3245266519
22
-0.1622633259
32
0.0000000000
13
0.3252757425
23
0.1607564183
33
0.0000000000
40
0.0000000000
40
0.0000000000
40
0.0000000000
40
0.0000000000
40
0.0890743650
40
0.1851250120
40
0.2867396756
40
0.3922235448
40
0.4997027408
40
0.6072145441
40
0.7127988709
40
0.8145684647
40
0.9108304184
40
1.0000000000
40
1.0000000000
40
1.0000000000
40
1.0000000000
10
6.0687759079
20
-24.2392711530
30
0.0000000000
10
6.0784115764
20
-24.2440889872
30
0.0000000000
10
6.0990967712
20
-24.2528101655
30
0.0000000000
10
6.1323296727
20
-24.2628943373
30
0.0000000000
10
6.1682880115
20
-24.2702942551
30
0.0000000000
10
6.2061046739
20
-24.2748284414
30
0.0000000000
10
6.2448723297
20
-24.2763876372
30
0.0000000000
10
6.2836561850
20
-24.2749335268
30
0.0000000000
10
6.3215199858
20
-24.2705020956
30
0.0000000000
10
6.3575557197
20
-24.2632004028
30
0.0000000000
10
6.3908759242
20
-24.2532134473
30
0.0000000000
10
6.4116296336
20
-24.2445620710
30
0.0000000000
10
6.4212978676
20
-24.2397838768
30
0.0000000000
11
6.0687759079
21
-24.2392711530
31
0.0000000000
11
6.0984956817
21
-24.2519697256
31
0.0000000000
11
6.1318116090
21
-24.2621965356
31
0.0000000000
11
6.1679087383
21
-24.2697013963
31
0.0000000000
11
6.2059042735
21
-24.2743008044
31
0.0000000000
11
6.2448690635
21
-24.2758823381
31
0.0000000000
11
6.2838498742
21
-24.2744074173
31
0.0000000000
11
6.3218945697
21
-24.2699121128
31
0.0000000000
11
6.3580696889
21
-24.2625070695
31
0.0000000000
11
6.3914940835
21
-24.2523730565
31
0.0000000000
11
6.4212978676
21
-24.2397838768
31
0.0000000000
0
SPLINE
5
327
100
AcDbEntity
8
0
100
AcDbSpline
62
7
6
CONTINUOUS
70
0
71
3
72
18
73
14
74
12
42
0.0000001000
43
0.0000001000
44
0.0000000001
12
0.3353955161
22
-0.1676977581
32
0.0000000000
13
0.3670659709
23
-0.0766502660
33
0.0000000000
40
0.0000000000
40
0.0000000000
40
0.0000000000
40
0.0000000000
40
0.0874747542
40
0.1827740860
40
0.2825387408
40
0.3843626605
40
0.4860661331
40
0.5857057676
40
0.6815642338
40
0.7721350640
40
0.8561099964
40
0.9323726426
40
1.0000000000
40
1.0000000000
40
1.0000000000
40
1.0000000000
10
6.0687759079
20
-23.7742972188
30
0.0000000000
10
6.0785554547
20
-23.7791869922
30
0.0000000000
10
6.0991284107
20
-23.7891300114
30
0.0000000000
10
6.1313955199
20
-23.8034951294
30
0.0000000000
10
6.1656350117
20
-23.8178115584
30
0.0000000000
10
6.2009136894
20
-23.8316957927
30
0.0000000000
10
6.2364375618
20
-23.8448940144
30
0.0000000000
10
6.2714973168
20
-23.8571817862
30
0.0000000000
10
6.3054590526
20
-23.8683765134
30
0.0000000000
10
6.3377619430
20
-23.8783290468
30
0.0000000000
10
6.3679137866
20
-23.8869221465
30
0.0000000000
10
6.3954877252
20
-23.8940674477
30
0.0000000000
10
6.4130233004
20
-23.8980820577
30
0.0000000000
10
6.4212978676
20
-23.8998099427
30
0.0000000000
11
6.0687759079
21
-23.7742972188
31
0.0000000000
11
6.0983165363
21
-23.7885554112
31
0.0000000000
11
6.1309378850
21
-23.8031460523
31
0.0000000000
11
6.1654464568
21
-23.8175916281
31
0.0000000000
11
6.2009713441
21
-23.8315869955
31
0.0000000000
11
6.2367199960
21
-23.8448713772
31
0.0000000000
11
6.2719815797
21
-23.8572257886
31
0.0000000000
11
6.3061234041
21
-23.8684687475
31
0.0000000000
11
6.3385854822
21
-23.8784522322
31
0.0000000000
11
6.3688757744
21
-23.8870585820
31
0.0000000000
11
6.3965673579
21
-23.8941984961
31
0.0000000000
11
6.4212978676
21
-23.8998099427
31
0.0000000000
0
SPLINE
5
328
100
AcDbEntity
8
0
100
AcDbSpline
62
9
6
CONTINUOUS
70
0
71
3
72
13
73
9
74
7
42
0.0000001000
43
0.0000001000
44
0.0000000001
12
0.0000000000
22
-0.1576823212
32
0.0000000000
13
0.1413986342
23
-0.0707615977
33
0.0000000000
40
0.0000000000
40
0.0000000000
40
0.0000000000
40
0.0000000000
40
0.2076061952
40
0.4003564674
40
0.5783993510
40
0.7435357712
40
0.8994054561
40
1.0000000000
40
1.0000000000
40
1.0000000000
40
1.0000000000
10
4.7437912281
20
-23.5767788130
30
0.0000000000
10
4.7437912281
20
-23.5876907553
30
0.0000000000
10
4.7450840152
20
-23.6087694094
30
0.0000000000
10
4.7513551842
20
-23.6386401466
30
0.0000000000
10
4.7617936024
20
-23.6649767728
30
0.0000000000
10
4.7762352561
20
-23.6871180871
30
0.0000000000
10
4.7924443444
20
-23.7025523016
30
0.0000000000
10
4.8040245937
20
-23.7096217629
30
0.0000000000
10
4.8087659041
20
-23.7119945065
30
0.0000000000
11
4.7437912281
21
-23.5767788130
31
0.0000000000
11
4.7459515837
21
-23.6094432772
31
0.0000000000
11
4.7523798478
21
-23.6391490129
31
0.0000000000
11
4.7629189033
21
-23.6651699634
31
0.0000000000
11
4.7773111582
21
-23.6868701343
31
0.0000000000
11
4.7952048425
21
-23.7037191379
31
0.0000000000
11
4.8087659041
21
-23.7119945065
31
0.0000000000
0
SPLINE
5
329
100
AcDbEntity
8
0
100
AcDbSpline
62
9
6
CONTINUOUS
70
0
71
3
72
13
73
9
74
7
42
0.0000001000
43
0.0000001000
44
0.0000000001
12
0.0000000000
22
-0.1576755195
32
0.0000000000
13
0.1413879418
23
-0.0707685051
33
0.0000000000
40
0.0000000000
40
0.0000000000
40
0.0000000000
40
0.0000000000
40
0.2076596021
40
0.4004572497
40
0.5785401848
40
0.7437113101
40
0.8996143597
40
1.0000000000
40
1.0000000000
40
1.0000000000
40
1.0000000000
10
6.0687759079
20
-24.2392711530
30
0.0000000000
10
6.0687759079
20
-24.2501854315
30
0.0000000000
10
6.0700692387
20
-24.2712685004
30
0.0000000000
10
6.0763431744
20
-24.3011449741
30
0.0000000000
10
6.0867862196
20
-24.3274855058
30
0.0000000000
10
6.1012341665
20
-24.3496283571
30
0.0000000000
10
6.1174410324
20
-24.3650528695
30
0.0000000000
10
6.1290134801
20
-24.3721157820
30
0.0000000000
10
6.1337445864
20
-24.3744838292
30
0.0000000000
11
6.0687759079
21
-24.2392711530
31
0.0000000000
11
6.0709372222
21
-24.2719425779
31
0.0000000000
11
6.0773683758
21
-24.3016539897
31
0.0000000000
11
6.0879120798
21
-24.3276785642
31
0.0000000000
11
6.1023104393
21
-24.3493799044
31
0.0000000000
11
6.1202113006
21
-24.3662274124
31
0.0000000000
11
6.1337445864
21
-24.3744838292
31
0.0000000000
0
SPLINE
5
32A
100
AcDbEntity
8
0
100
AcDbSpline
62
9
6
CONTINUOUS
70
0
71
3
72
13
73
9
74
7
42
0.0000001000
43
0.0000001000
44
0.0000000001
12
-0.1077402002
22
0.0538701001
32
0.0000000000
13
0.0000095318
23
0.1208660442
33
0.0000000000
40
0.0000000000
40
0.0000000000
40
0.0000000000
40
0.0000000000
40
0.2438288023
40
0.4628444760
40
0.6577479316
40
0.8330084621
40
0.9968725987
40
1.0000000000
40
1.0000000000
40
1.0000000000
40
1.0000000000
10
4.7437912281
20
-23.5767788130
30
0.0000000000
10
4.7350345068
20
-23.5724004524
30
0.0000000000
10
4.7188698346
20
-23.5630974589
30
0.0000000000
10
4.6981283824
20
-23.5465532107
30
0.0000000000
10
4.6826447596
20
-23.5284284604
30
0.0000000000
10
4.6729210911
20
-23.5090248543
30
0.0000000000
10
4.6705882981
20
-23.4952510960
30
0.0000000000
10
4.6705679538
20
-23.4885232503
30
0.0000000000
10
4.6705679637
20
-23.4883972514
30
0.0000000000
11
4.7437912281
21
-23.5767788130
31
0.0000000000
11
4.7184387669
21
-23.5619496322
31
0.0000000000
11
4.6979769060
21
-23.5452966139
31
0.0000000000
11
4.6829568979
21
-23.5272524023
31
0.0000000000
11
4.6737454290
21
-23.5082566189
31
0.0000000000
11
4.6705691079
21
-23.4887752446
31
0.0000000000
11
4.6705679637
21
-23.4883972514
31
0.0000000000
0
SPLINE
5
32B
100
AcDbEntity
8
0
100
AcDbSpline
62
7
6
CONTINUOUS
70
0
71
3
72
13
73
9
74
7
42
0.0000001000
43
0.0000001000
44
0.0000000001
12
-0.4098481622
22
0.2048837263
32
0.0000000000
13
-0.4109068760
23
-0.2010615886
33
0.0000000000
40
0.0000000000
40
0.0000000000
40
0.0000000000
40
0.0000000000
40
0.1007741613
40
0.2637740567
40
0.4330088062
40
0.6107502248
40
0.7994856200
40
1.0000000000
40
1.0000000000
40
1.0000000000
40
1.0000000000
10
5.8888646850
20
25.2546581972
30
0.0000000000
10
5.8750973167
20
25.2615405258
30
0.0000000000
10
5.8379551970
20
25.2773462556
30
0.0000000000
10
5.7734642408
20
25.2932921965
30
0.0000000000
10
5.6954129330
20
25.2977114140
30
0.0000000000
10
5.6138958188
20
25.2884623122
30
0.0000000000
10
5.5301635128
20
25.2658195629
30
0.0000000000
10
5.4752737453
20
25.2427581926
30
0.0000000000
10
5.4478094995
20
25.2293196126
30
0.0000000000
11
5.8888646850
21
25.2546581972
31
0.0000000000
11
5.8464043521
21
25.2727284072
31
0.0000000000
11
5.7740639904
21
25.2908105942
31
0.0000000000
11
5.6967877478
21
25.2954973122
31
0.0000000000
11
5.6159555925
21
25.2866978776
31
0.0000000000
11
5.5325128555
21
25.2645227879
31
0.0000000000
11
5.4478094995
21
25.2293196126
31
0.0000000000
0
SPLINE
5
32C
100
AcDbEntity
8
0
100
AcDbSpline
62
7
6
CONTINUOUS
70
0
71
3
72
12
73
8
74
6
42
0.0000001000
43
0.0000001000
44
0.0000000001
12
-0.1036473351
22
0.0575883075
32
0.0000000000
13
-0.1140958085
23
-0.0365305522
33
0.0000000000
40
0.0000000000
40
0.0000000000
40
0.0000000000
40
0.0000000000
40
0.0896567935
40
0.2460014419
40
0.4536088281
40
0.7075585950
40
1.0000000000
40
1.0000000000
40
1.0000000000
40
1.0000000000
10
9.0448378733
20
23.0333074257
30
0.0000000000
10
9.0417403108
20
23.0350284867
30
0.0000000000
10
9.0313318167
20
23.0364438263
30
0.0000000000
10
9.0135457127
20
23.0355361842
30
0.0000000000
10
8.9891000955
20
23.0309262730
30
0.0000000000
10
8.9600013757
20
23.0233859740
30
0.0000000000
10
8.9391174591
20
23.0169905791
30
0.0000000000
10
8.9279953462
20
23.0134295637
30
0.0000000000
11
9.0448378733
21
23.0333074257
31
0.0000000000
11
9.0342547380
21
23.0358067659
31
0.0000000000
11
9.0155320901
21
23.0352720779
31
0.0000000000
11
8.9910240643
21
23.0310348420
31
0.0000000000
11
8.9615306540
21
23.0235697391
31
0.0000000000
11
8.9279953462
21
23.0134295637
31
0.0000000000
0
SPLINE
5
32D
100
AcDbEntity
8
0
100
AcDbSpline
62
7
6
CONTINUOUS
70
0
71
3
72
12
73
8
74
6
42
0.0000001000
43
0.0000001000
44
0.0000000001
12
-0.1050141181
22
0.0592692178
32
0.0000000000
13
-0.1158177379
23
-0.0372589604
33
0.0000000000
40
0.0000000000
40
0.0000000000
40
0.0000000000
40
0.0000000000
40
0.0920800339
40
0.2482692595
40
0.4555035979
40
0.7087319974
40
1.0000000000
40
1.0000000000
40
1.0000000000
40
1.0000000000
10
3.4898492770
20
25.8107903170
30
0.0000000000
10
3.4866260425
20
25.8126094876
30
0.0000000000
10
3.4759645210
20
25.8139436730
30
0.0000000000
10
3.4578197894
20
25.8129428753
30
0.0000000000
10
3.4330670036
20
25.8081814906
30
0.0000000000
10
3.4036199822
20
25.8004846407
30
0.0000000000
10
3.3824961408
20
25.7939778300
30
0.0000000000
10
3.3712514737
20
25.7903603823
30
0.0000000000
11
3.4898492770
21
25.8107903170
31
0.0000000000
11
3.4788237610
21
25.8133405914
31
0.0000000000
11
3.4598325912
21
25.8126842101
31
0.0000000000
11
3.4350035449
21
25.8083018275
31
0.0000000000
11
3.4051544925
21
25.8006725839
31
0.0000000000
11
3.3712514737
21
25.7903603823
31
0.0000000000
0
SPLINE
5
32E
100
AcDbEntity
8
0
100
AcDbSpline
62
7
6
CONTINUOUS
70
0
71
3
72
15
73
11
74
9
42
0.0000001000
43
0.0000001000
44
0.0000000001
12
0.3062164604
22
0.1652108055
32
0.0000000000
13
0.0000366968
23
0.3481724997
33
0.0000000000
40
0.0000000000
40
0.0000000000
40
0.0000000000
40
0.0000000000
40
0.1139539270
40
0.2311612393
40
0.3544660466
40
0.4887041879
40
0.6374071998
40
0.8045195132
40
0.9932614312
40
1.0000000000
40
1.0000000000
40
1.0000000000
40
1.0000000000
10
13.6389515891
20
20.8406581058
30
0.0000000000
10
13.6505831119
20
20.8469335791
30
0.0000000000
10
13.6730786285
20
20.8618333758
30
0.0000000000
10
13.7028511768
20
20.8904845115
30
0.0000000000
10
13.7285977271
20
20.9257592069
30
0.0000000000
10
13.7499163670
20
20.9679916549
30
0.0000000000
10
13.7662692866
20
21.0177480119
30
0.0000000000
10
13.7768341103
20
21.0754737912
30
0.0000000000
10
13.7792363782
20
21.1175531272
30
0.0000000000
10
13.7792815978
20
21.1402402013
30
0.0000000000
10
13.7792816802
20
21.1410222627
30
0.0000000000
11
13.6389515891
21
20.8406581058
31
0.0000000000
11
13.6720136268
21
20.8625434124
31
0.0000000000
11
13.7014657305
21
20.8907512994
31
0.0000000000
11
13.7268886654
21
20.9253103412
31
0.0000000000
11
13.7481292653
21
20.9669081757
31
0.0000000000
11
13.7645223374
21
21.0159824668
31
0.0000000000
11
13.7752579216
21
21.0731280687
31
0.0000000000
11
13.7792769949
21
21.1386760732
31
0.0000000000
11
13.7792816802
21
21.1410222627
31
0.0000000000
0
SPLINE
5
32F
100
AcDbEntity
8
0
100
AcDbSpline
62
7
6
CONTINUOUS
70
0
71
3
72
15
73
11
74
9
42
0.0000001000
43
0.0000001000
44
0.0000000001
12
-0.0296530563
22
0.1408179220
32
0.0000000000
13
-0.1370097288
23
-0.0679578355
33
0.0000000000
40
0.0000000000
40
0.0000000000
40
0.0000000000
40
0.0000000000
40
0.0016125503
40
0.0406221323
40
0.1108236727
40
0.2212611171
40
0.3685290421
40
0.5483905742
40
0.7598644468
40
1.0000000000
40
1.0000000000
40
1.0000000000
40
1.0000000000
10
13.7793308920
20
-16.4657888292
30
0.0000000000
10
13.7793149530
20
-16.4657131372
30
0.0000000000
10
13.7788628895
20
-16.4638117760
30
0.0000000000
10
13.7740500320
20
-16.4590221043
30
0.0000000000
10
13.7621983511
20
-16.4618731585
30
0.0000000000
10
13.7463437367
20
-16.4654027210
30
0.0000000000
10
13.7252307748
20
-16.4733596648
30
0.0000000000
10
13.6999350721
20
-16.4838155594
30
0.0000000000
10
13.6706289887
20
-16.4972273995
30
0.0000000000
10
13.6499185581
20
-16.5072673620
30
0.0000000000
10
13.6389515891
20
-16.5127070594
30
0.0000000000
11
13.7793308920
21
-16.4657888292
31
0.0000000000
11
13.7792769949
21
-16.4655624126
31
0.0000000000
11
13.7752579216
21
-16.4611532605
31
0.0000000000
11
13.7645223374
21
-16.4612904317
31
0.0000000000
11
13.7481292653
21
-16.4653574759
31
0.0000000000
11
13.7268886654
21
-16.4728484094
31
0.0000000000
11
13.7014657305
21
-16.4833528236
31
0.0000000000
11
13.6720136268
21
-16.4967169335
31
0.0000000000
11
13.6389515891
21
-16.5127070594
31
0.0000000000
0
SPLINE
5
330
100
AcDbEntity
8
0
100
AcDbSpline
62
7
6
CONTINUOUS
70
0
71
3
72
13
73
9
74
7
42
0.0000001000
43
0.0000001000
44
0.0000000001
12
0.2079358975
22
0.1076619626
32
0.0000000000
13
-0.0000479300
23
0.2349708594
33
0.0000000000
40
0.0000000000
40
0.0000000000
40
0.0000000000
40
0.0000000000
40
0.2252770603
40
0.4295565951
40
0.6130730172
40
0.7796379356
40
0.9339217997
40
1.0000000000
40
1.0000000000
40
1.0000000000
40
1.0000000000
10
13.6389515891
20
-15.9359554159
30
0.0000000000
10
13.6545659850
20
-15.9278708258
30
0.0000000000
10
13.6835434141
20
-15.9108069667
30
0.0000000000
10
13.7212039386
20
-15.8809994796
30
0.0000000000
10
13.7503020324
20
-15.8486343455
30
0.0000000000
10
13.7701236208
20
-15.8142132127
30
0.0000000000
10
13.7782186934
20
-15.7847297359
30
0.0000000000
10
13.7792733550
20
-15.7674716388
30
0.0000000000
10
13.7792722993
20
-15.7622961550
30
0.0000000000
11
13.6389515891
21
-15.9359554159
31
0.0000000000
11
13.6842474934
21
-15.9089219057
31
0.0000000000
11
13.7215174151
21
-15.8789394009
31
0.0000000000
11
13.7499229727
21
-15.8466957729
31
0.0000000000
11
13.7690170631
21
-15.8126874089
31
0.0000000000
11
13.7783211368
21
-15.7777797670
31
0.0000000000
11
13.7792722993
21
-15.7622961550
31
0.0000000000
0
SPLINE
5
331
100
AcDbEntity
8
0
100
AcDbSpline
62
9
6
CONTINUOUS
70
0
71
3
72
14
73
10
74
8
42
0.0000001000
43
0.0000001000
44
0.0000000001
12
-0.0143836992
22
-0.3374192641
32
0.0000000000
13
-0.3120967205
23
-0.1310012098
33
0.0000000000
40
0.0000000000
40
0.0000000000
40
0.0000000000
40
0.0000000000
40
0.1814597712
40
0.3519887890
40
0.5113357285
40
0.6601982272
40
0.8003674891
40
0.9347434728
40
1.0000000000
40
1.0000000000
40
1.0000000000
40
1.0000000000
10
2.8676731348
20
-23.9020395067
30
0.0000000000
10
2.8668031139
20
-23.9224488476
30
0.0000000000
10
2.8629174752
20
-23.9619955860
30
0.0000000000
10
2.8499930101
20
-24.0182657166
30
0.0000000000
10
2.8303454837
20
-24.0686874662
30
0.0000000000
10
2.8042821072
20
-24.1122306016
30
0.0000000000
10
2.7722225377
20
-24.1479484335
30
0.0000000000
10
2.7409344644
20
-24.1705048446
30
0.0000000000
10
2.7206528359
20
-24.1803812693
30
0.0000000000
10
2.7138640532
20
-24.1832308307
30
0.0000000000
11
2.8676731348
21
-23.9020395067
31
0.0000000000
11
2.8614649943
21
-23.9630078768
31
0.0000000000
11
2.8483206728
21
-24.0190798754
31
0.0000000000
11
2.8285074403
21
-24.0691153629
31
0.0000000000
11
2.8024281690
21
-24.1120969435
31
0.0000000000
11
2.7706131413
21
-24.1471506516
31
0.0000000000
11
2.7337092679
21
-24.1735637231
31
0.0000000000
11
2.7138640532
21
-24.1832308307
31
0.0000000000
0
SPLINE
5
332
100
AcDbEntity
8
0
100
AcDbSpline
62
9
6
CONTINUOUS
70
0
71
3
72
18
73
14
74
12
42
0.0000001000
43
0.0000001000
44
0.0000000001
12
-0.6380970541
22
-0.3397256877
32
0.0000000000
13
-0.6467990319
23
0.3228504385
33
0.0000000000
40
0.0000000000
40
0.0000000000
40
0.0000000000
40
0.0000000000
40
0.0824426685
40
0.1702426490
40
0.2623898961
40
0.3576875551
40
0.4548144350
40
0.5523807492
40
0.6489805901
40
0.7432436847
40
0.8338887642
40
0.9197813557
40
1.0000000000
40
1.0000000000
40
1.0000000000
40
1.0000000000
10
2.1864854755
20
-23.4017238386
30
0.0000000000
10
2.1689500009
20
-23.4110598027
30
0.0000000000
10
2.1316130477
20
-23.4282661252
30
0.0000000000
10
2.0718389483
20
-23.4491177492
30
0.0000000000
10
2.0074936065
20
-23.4655148567
30
0.0000000000
10
1.9398441606
20
-23.4771317212
30
0.0000000000
10
1.8702146690
20
-23.4837409717
30
0.0000000000
10
1.7999749041
20
-23.4852117490
30
0.0000000000
10
1.7305059604
20
-23.4815152480
30
0.0000000000
10
1.6631737773
20
-23.4727252566
30
0.0000000000
10
1.5992940923
20
-23.4590133119
30
0.0000000000
10
1.5401233867
20
-23.4406516976
30
0.0000000000
10
1.5031973099
20
-23.4249564206
30
0.0000000000
10
1.4859021960
20
-23.4163235458
30
0.0000000000
11
2.1864854755
21
-23.4017238386
31
0.0000000000
11
2.1324490240
21
-23.4268622509
31
0.0000000000
11
2.0725735973
21
-23.4479199772
31
0.0000000000
11
2.0080512172
21
-23.4644777926
31
0.0000000000
11
1.9401664187
21
-23.4762060583
31
0.0000000000
11
1.8702706771
21
-23.4828712835
31
0.0000000000
11
1.7997555021
21
-23.4843407747
31
0.0000000000
11
1.7300247356
21
-23.4805852765
31
0.0000000000
11
1.6624666029
21
-23.4716795548
31
0.0000000000
11
1.5984260760
21
-23.4578009080
31
0.0000000000
11
1.5391780970
21
-23.4392256373
31
0.0000000000
11
1.4859021960
21
-23.4163235458
31
0.0000000000
0
SPLINE
5
333
100
AcDbEntity
8
0
100
AcDbSpline
62
9
6
CONTINUOUS
70
0
71
3
72
15
73
11
74
9
42
0.0000001000
43
0.0000001000
44
0.0000000001
12
0.0310425266
22
-0.8977018143
32
0.0000000000
13
0.8042792446
23
-0.4023116243
33
0.0000000000
40
0.0000000000
40
0.0000000000
40
0.0000000000
40
0.0000000000
40
0.1465677001
40
0.2861266119
40
0.4186567336
40
0.5444423650
40
0.6641545578
40
0.7788571626
40
0.8899895366
40
1.0000000000
40
1.0000000000
40
1.0000000000
40
1.0000000000
10
1.4859020016
20
-23.4163236528
30
0.0000000000
10
1.4874186122
20
-23.4601816829
30
0.0000000000
10
1.4941442130
20
-23.5457356664
30
0.0000000000
10
1.5162740158
20
-23.6693376568
30
0.0000000000
10
1.5500020814
20
-23.7838682013
30
0.0000000000
10
1.5950161713
20
-23.8880542837
30
0.0000000000
10
1.6508929209
20
-23.9807200154
30
0.0000000000
10
1.7170881009
20
-24.0607694220
30
0.0000000000
10
1.7930657926
20
-24.1273364311
30
0.0000000000
10
1.8497861917
20
-24.1621246861
30
0.0000000000
10
1.8792792358
20
-24.1768775155
30
0.0000000000
11
1.4859020016
21
-23.4163236528
31
0.0000000000
11
1.4965127810
21
-23.5475480925
31
0.0000000000
11
1.5189298426
21
-23.6708846062
31
0.0000000000
11
1.5529064261
21
-23.7849765883
31
0.0000000000
11
1.5980627971
21
-23.8885459913
31
0.0000000000
11
1.6538977766
21
-23.9804436217
31
0.0000000000
11
1.7197913677
21
-24.0596476218
31
0.0000000000
11
1.7950095339
21
-24.1252748370
31
0.0000000000
11
1.8792792358
21
-24.1768775155
31
0.0000000000
0
SPLINE
5
334
100
AcDbEntity
8
0
100
AcDbSpline
62
9
6
CONTINUOUS
70
0
71
3
72
21
73
17
74
15
42
0.0000001000
43
0.0000001000
44
0.0000000001
12
0.0358352395
22
-1.0301967536
32
0.0000000000
13
0.9504865147
23
0.3989547602
33
0.0000000000
40
0.0000000000
40
0.0000000000
40
0.0000000000
40
0.0000000000
40
0.0851234649
40
0.1662595423
40
0.2433528894
40
0.3165752430
40
0.3863214243
40
0.4532113677
40
0.5180787890
40
0.5819316198
40
0.6458710758
40
0.7109883635
40
0.7782694729
40
0.8485202178
40
0.9223197416
40
1.0000000000
40
1.0000000000
40
1.0000000000
40
1.0000000000
10
2.1864854755
20
-23.4017238386
30
0.0000000000
10
2.1875022821
20
-23.4309551444
30
0.0000000000
10
2.1920109667
20
-23.4880047193
30
0.0000000000
10
2.2068464017
20
-23.5704437327
30
0.0000000000
10
2.2294632886
20
-23.6468739455
30
0.0000000000
10
2.2596498859
20
-23.7164271840
30
0.0000000000
10
2.2971209117
20
-23.7783174536
30
0.0000000000
10
2.3415098243
20
-23.8318120865
30
0.0000000000
10
2.3923489023
20
-23.8762402440
30
0.0000000000
10
2.4490515602
20
-23.9110185607
30
0.0000000000
10
2.5109148982
20
-23.9356943308
30
0.0000000000
10
2.5771546812
20
-23.9499806329
30
0.0000000000
10
2.6469536483
20
-23.9537595781
30
0.0000000000
10
2.7194965855
20
-23.9470541208
30
0.0000000000
10
2.7939538149
20
-23.9300107973
30
0.0000000000
10
2.8430617888
20
-23.9123698097
30
0.0000000000
10
2.8676731348
20
-23.9020395067
30
0.0000000000
11
2.1864854755
21
-23.4017238386
31
0.0000000000
11
2.1935941165
21
-23.4891823739
31
0.0000000000
11
2.2086220259
21
-23.5714578606
31
0.0000000000
11
2.2314016061
21
-23.6475924023
31
0.0000000000
11
2.2616785507
21
-23.7167327971
31
0.0000000000
11
2.2991167461
21
-23.7781117829
31
0.0000000000
11
2.3433005025
21
-23.8310466697
31
0.0000000000
11
2.3937376032
21
-23.8749470602
31
0.0000000000
11
2.4498674130
21
-23.9093246317
31
0.0000000000
11
2.5110659163
21
-23.9337966373
31
0.0000000000
11
2.5766506395
21
-23.9480900325
31
0.0000000000
11
2.6458924214
21
-23.9520460735
31
0.0000000000
11
2.7180226324
21
-23.9456203803
31
0.0000000000
11
2.7922331510
21
-23.9288855579
31
0.0000000000
11
2.8676731348
21
-23.9020395067
31
0.0000000000
0
SPLINE
5
335
100
AcDbEntity
8
0
100
AcDbSpline
62
9
6
CONTINUOUS
70
0
71
3
72
18
73
14
74
12
42
0.0000001000
43
0.0000001000
44
0.0000000001
12
-0.6598811159
22
-0.2859158686
32
0.0000000000
13
-0.6430024739
23
0.3220850659
33
0.0000000000
40
0.0000000000
40
0.0000000000
40
0.0000000000
40
0.0000000000
40
0.0801802321
40
0.1664109950
40
0.2576286248
40
0.3525680072
40
0.4498271329
40
0.5479234206
40
0.6453460048
40
0.7406067501
40
0.8322922827
40
0.9191197082
40
1.0000000000
40
1.0000000000
40
1.0000000000
40
1.0000000000
10
2.1864854755
20
12.1779007891
30
0.0000000000
10
2.1688490018
20
12.1702591889
30
0.0000000000
10
2.1313342802
20
12.1564590705
30
0.0000000000
10
2.0715937916
20
12.1405292792
30
0.0000000000
10
2.0072829840
20
12.1288485608
30
0.0000000000
10
1.9396677483
20
12.1216515617
30
0.0000000000
10
1.8700722672
20
12.1190808874
30
0.0000000000
10
1.7998672363
20
12.1211887885
30
0.0000000000
10
1.7304351951
20
12.1279338215
30
0.0000000000
10
1.6631437332
20
12.1391816551
30
0.0000000000
10
1.5993112282
20
12.1547102984
30
0.0000000000
10
1.5401944056
20
12.1742093214
30
0.0000000000
10
1.5032374110
20
12.1902327702
30
0.0000000000
10
1.4859020017
20
12.1989162149
30
0.0000000000
11
2.1864854755
21
12.1779007891
31
0.0000000000
11
2.1324490230
21
12.1577758016
31
0.0000000000
11
2.0725735889
21
12.1416316916
31
0.0000000000
11
2.0080511956
21
12.1297898618
31
0.0000000000
11
1.9401663794
21
12.1224860641
31
0.0000000000
11
1.8702706164
21
12.1198657051
31
0.0000000000
11
1.7997554177
21
12.1219809518
31
0.0000000000
11
1.7300246264
21
12.1287896932
31
0.0000000000
11
1.6624664691
21
12.1401563784
31
0.0000000000
11
1.5984259191
21
12.1558547150
31
0.0000000000
11
1.5391779195
21
12.1755721746
31
0.0000000000
11
1.4859020017
21
12.1989162149
31
0.0000000000
0
SPLINE
5
336
100
AcDbEntity
8
0
100
AcDbSpline
62
9
6
CONTINUOUS
70
0
71
3
72
14
73
10
74
8
42
0.0000001000
43
0.0000001000
44
0.0000000001
12
-1.1975571066
22
-35.6018976942
32
0.0000000000
13
1.2377174634
23
-35.6005241244
33
0.0000000000
40
0.0000000000
40
0.0000000000
40
0.0000000000
40
0.0000000000
40
0.1448613000
40
0.2890652005
40
0.4326050301
40
0.5754743923
40
0.7176671754
40
0.8591775541
40
1.0000000000
40
1.0000000000
40
1.0000000000
40
1.0000000000
10
1.4859020016
20
12.1989162148
30
0.0000000000
10
1.4280754418
20
10.4798038205
30
0.0000000000
10
1.3288636791
20
7.0488135688
30
0.0000000000
10
1.2293777588
20
1.9129452391
30
0.0000000000
10
1.1795726550
20
-3.1999976467
30
0.0000000000
10
1.1794555177
20
-8.2893025467
30
0.0000000000
10
1.2290264616
20
-13.3542700936
30
0.0000000000
10
1.3282785085
20
-18.3941936624
30
0.0000000000
10
1.4278025348
20
-21.7452060258
30
0.0000000000
10
1.4859020016
20
-23.4163236528
30
0.0000000000
11
1.4859020016
21
12.1989162148
31
0.0000000000
11
1.3368592184
21
7.0408149881
31
0.0000000000
11
1.2374859288
21
1.9049401205
31
0.0000000000
11
1.1877958535
21
-3.2079990313
31
0.0000000000
11
1.1877958535
21
-8.2972962205
31
0.0000000000
11
1.2374859288
21
-13.3622485486
31
0.0000000000
11
1.3368592184
21
-18.4021563948
31
0.0000000000
11
1.4859020016
21
-23.4163236528
31
0.0000000000
0
SPLINE
5
337
100
AcDbEntity
8
0
100
AcDbSpline
62
9
6
CONTINUOUS
70
0
71
3
72
14
73
10
74
8
42
0.0000001000
43
0.0000001000
44
0.0000000001
12
-1.1963802517
22
-35.5662953330
32
0.0000000000
13
1.2365004073
23
-35.5649231149
33
0.0000000000
40
0.0000000000
40
0.0000000000
40
0.0000000000
40
0.0000000000
40
0.1448612482
40
0.2890651338
40
0.4326049597
40
0.5754743298
40
0.7176671330
40
0.8591775443
40
1.0000000000
40
1.0000000000
40
1.0000000000
40
1.0000000000
10
2.1864854755
20
12.1779007891
30
0.0000000000
10
2.1287157633
20
10.4605081437
30
0.0000000000
10
2.0296014993
20
7.0329496989
30
0.0000000000
10
1.9302133616
20
1.9022180697
30
0.0000000000
10
1.8804572057
20
-3.2056117745
30
0.0000000000
10
1.8803401874
20
-8.2898276937
30
0.0000000000
10
1.9298624217
20
-13.3497310197
30
0.0000000000
10
2.0290169207
20
-18.3846154082
30
0.0000000000
10
2.1284431342
20
-21.7322772359
30
0.0000000000
10
2.1864854755
20
-23.4017238386
30
0.0000000000
11
2.1864854755
21
12.1779007891
31
0.0000000000
11
2.0375891952
21
7.0249595473
31
0.0000000000
11
1.9383135654
21
1.8942210849
31
0.0000000000
11
1.8886723242
21
-3.2136050210
31
0.0000000000
11
1.8886723260
21
-8.2978132290
31
0.0000000000
11
1.9383135711
21
-13.3577013429
31
0.0000000000
11
2.0375892044
21
-18.3925704415
31
0.0000000000
11
2.1864854755
21
-23.4017238386
31
0.0000000000
0
SPLINE
5
338
100
AcDbEntity
8
0
100
AcDbSpline
62
9
6
CONTINUOUS
70
0
71
3
72
18
73
14
74
12
42
0.0000001000
43
0.0000001000
44
0.0000000001
12
-0.0325473819
22
0.7320804071
32
0.0000000000
13
-0.6504608184
23
0.3374933752
33
0.0000000000
40
0.0000000000
40
0.0000000000
40
0.0000000000
40
0.0000000000
40
0.0850838874
40
0.1748243511
40
0.2682332118
40
0.3641524152
40
0.4613158132
40
0.5584058358
40
0.6541079076
40
0.7471649932
40
0.8364346813
40
0.9209517436
40
1.0000000000
40
1.0000000000
40
1.0000000000
40
1.0000000000
10
2.8676731348
20
13.3360317334
30
0.0000000000
10
2.8667500489
20
13.3567944824
30
0.0000000000
10
2.8623534882
20
13.3993699588
30
0.0000000000
10
2.8490939042
20
13.4636295321
30
0.0000000000
10
2.8292405019
20
13.5289368298
30
0.0000000000
10
2.8031917967
20
13.5939766797
30
0.0000000000
10
2.7714694816
20
13.6574502092
30
0.0000000000
10
2.7347099082
20
13.7180834725
30
0.0000000000
10
2.6936498576
20
13.7746609889
30
0.0000000000
10
2.6491122012
20
13.8260491641
30
0.0000000000
10
2.6019798971
20
13.8712238695
30
0.0000000000
10
2.5531978149
20
13.9092779060
30
0.0000000000
10
2.5189796593
20
13.9301414248
30
0.0000000000
10
2.5018403948
20
13.9390341791
30
0.0000000000
11
2.8676731348
21
13.3360317334
31
0.0000000000
11
2.8614649976
21
13.3980716683
31
0.0000000000
11
2.8483206831
21
13.4625067899
31
0.0000000000
11
2.8285074594
21
13.5280269086
31
0.0000000000
11
2.8024281968
21
13.5932997728
31
0.0000000000
11
2.7706131759
21
13.6569981576
31
0.0000000000
11
2.7337093060
21
13.7178268519
31
0.0000000000
11
2.6924669707
21
13.7745489950
31
0.0000000000
11
2.6477247705
21
13.8260112261
31
0.0000000000
11
2.6003924706
21
13.8711671366
31
0.0000000000
11
2.5514325026
21
13.9090985474
31
0.0000000000
11
2.5018403948
21
13.9390341791
31
0.0000000000
0
SPLINE
5
339
100
AcDbEntity
8
0
100
AcDbSpline
62
9
6
CONTINUOUS
70
0
71
3
72
21
73
17
74
15
42
0.0000001000
43
0.0000001000
44
0.0000000001
12
-1.8337293975
22
-1.0121395857
32
0.0000000000
13
-0.0700199895
23
-2.0933435565
33
0.0000000000
40
0.0000000000
40
0.0000000000
40
0.0000000000
40
0.0000000000
40
0.0631223844
40
0.1290866059
40
0.1976521805
40
0.2684835318
40
0.3411863670
40
0.4153149582
40
0.4903848712
40
0.5658906133
40
0.6413161779
40
0.7161454033
40
0.7898790638
40
0.8620461618
40
0.9322092616
40
1.0000000000
40
1.0000000000
40
1.0000000000
40
1.0000000000
10
2.5018403948
20
13.9390341791
30
0.0000000000
10
2.4632572708
20
13.9177379578
30
0.0000000000
10
2.3864995338
20
13.8702082691
30
0.0000000000
10
2.2759864788
20
13.7873064047
30
0.0000000000
10
2.1686141472
20
13.6920595798
30
0.0000000000
10
2.0655684907
20
13.5855243217
30
0.0000000000
10
1.9679751548
20
13.4688736779
30
0.0000000000
10
1.8769076663
20
13.3433938752
30
0.0000000000
10
1.7933686076
20
13.2104691319
30
0.0000000000
10
1.7182792174
20
13.0715667535
30
0.0000000000
10
1.6524679998
20
12.9282202282
30
0.0000000000
10
1.5966611437
20
12.7820112147
30
0.0000000000
10
1.5514742815
20
12.6345524675
30
0.0000000000
10
1.5174070271
20
12.4874660104
30
0.0000000000
10
1.4948362398
20
12.3423801554
30
0.0000000000
10
1.4874842372
20
12.2462193166
30
0.0000000000
10
1.4859020016
20
12.1989162148
30
0.0000000000
11
2.5018403948
21
13.9390341791
31
0.0000000000
11
2.3892848950
21
13.8696732540
31
0.0000000000
11
2.2786145066
21
13.7869624283
31
0.0000000000
11
2.1710470025
21
13.6918124602
31
0.0000000000
11
2.0677873203
21
13.5852886622
31
0.0000000000
11
1.9699813937
21
13.4685739509
31
0.0000000000
11
1.8787164806
21
13.3429656844
31
0.0000000000
11
1.7950097716
21
13.2098640935
31
0.0000000000
11
1.7197915677
21
13.0707491566
31
0.0000000000
11
1.6538979533
21
12.9271675169
31
0.0000000000
11
1.5980629629
21
12.7807194960
31
0.0000000000
11
1.5529065449
21
12.6330325327
31
0.0000000000
11
1.5189299296
21
12.4857456400
31
0.0000000000
11
1.4965128426
21
12.3405078539
31
0.0000000000
11
1.4859020016
21
12.1989162148
31
0.0000000000
0
SPLINE
5
33A
100
AcDbEntity
8
0
100
AcDbSpline
62
9
6
CONTINUOUS
70
0
71
3
72
21
73
17
74
15
42
0.0000001000
43
0.0000001000
44
0.0000000001
12
-1.2263237937
22
-0.6695161646
32
0.0000000000
13
-0.0469924029
23
-1.3963930878
33
0.0000000000
40
0.0000000000
40
0.0000000000
40
0.0000000000
40
0.0000000000
40
0.0632329430
40
0.1293136257
40
0.1979656031
40
0.2688548057
40
0.3415889336
40
0.4157248017
40
0.4907809467
40
0.5662552419
40
0.6416352654
40
0.7164086220
40
0.7900805152
40
0.8621847151
40
0.9322889534
40
1.0000000000
40
1.0000000000
40
1.0000000000
40
1.0000000000
10
2.8676731348
20
13.3360317334
30
0.0000000000
10
2.8418251139
20
13.3219199076
30
0.0000000000
10
2.7903837396
20
13.2904003000
30
0.0000000000
10
2.7162900204
20
13.2353552111
30
0.0000000000
10
2.6442878596
20
13.1720623190
30
0.0000000000
10
2.5751869226
20
13.1012332563
30
0.0000000000
10
2.5097419936
20
13.0236483749
30
0.0000000000
10
2.4486731967
20
12.9401631823
30
0.0000000000
10
2.3926529429
20
12.8516987875
30
0.0000000000
10
2.3422991681
20
12.7592318686
30
0.0000000000
10
2.2981676436
20
12.6637835689
30
0.0000000000
10
2.2607455227
20
12.5664073501
30
0.0000000000
10
2.2304456115
20
12.4681775989
30
0.0000000000
10
2.2076032519
20
12.3701748211
30
0.0000000000
10
2.1924726500
20
12.2734981330
30
0.0000000000
10
2.1875461104
20
12.2094178683
30
0.0000000000
10
2.1864854755
20
12.1779007891
30
0.0000000000
11
2.8676731348
21
13.3360317334
31
0.0000000000
11
2.7922440543
21
13.2900336018
31
0.0000000000
11
2.7180337253
21
13.2351057102
31
0.0000000000
11
2.6459035886
21
13.1718777292
31
0.0000000000
11
2.5766617700
21
13.1010573364
31
0.0000000000
11
2.5110768030
21
13.0234311052
31
0.0000000000
11
2.4498779021
21
12.9398619450
31
0.0000000000
11
2.3937472962
21
12.8512815441
31
0.0000000000
11
2.3433089538
21
12.7586749514
31
0.0000000000
11
2.2991237422
21
12.6630720605
31
0.0000000000
11
2.2616841204
21
12.5655390118
31
0.0000000000
11
2.2314057819
21
12.4671598602
31
0.0000000000
11
2.2086248537
21
12.3690265743
31
0.0000000000
11
2.1935957357
21
12.2722379781
31
0.0000000000
11
2.1864854755
21
12.1779007891
31
0.0000000000
0
SPLINE
5
33B
100
AcDbEntity
8
0
100
AcDbSpline
62
7
6
CONTINUOUS
70
0
71
3
72
10
73
6
74
4
42
0.0000001000
43
0.0000001000
44
0.0000000001
12
0.8899815397
22
0.4974375475
32
0.0000000000
13
0.8901386879
23
0.4971562843
33
0.0000000000
40
0.0000000000
40
0.0000000000
40
0.0000000000
40
0.0000000000
40
0.3330127956
40
0.6663150956
40
1.0000000000
40
1.0000000000
40
1.0000000000
40
1.0000000000
10
7.1325184757
20
16.4427898499
30
0.0000000000
10
7.2313102226
20
16.4980075393
30
0.0000000000
10
7.4289854274
20
16.6084804975
30
0.0000000000
10
7.7256721545
20
16.7742461057
30
0.0000000000
10
7.9235700441
20
16.8847888117
30
0.0000000000
10
8.0225786584
20
16.9400866607
30
0.0000000000
11
7.1325184757
21
16.4427898499
31
0.0000000000
11
7.4289024478
21
16.6084272953
31
0.0000000000
11
7.7255615472
21
16.7741774806
31
0.0000000000
11
8.0225786584
21
16.9400866607
31
0.0000000000
0
SPLINE
5
33C
100
AcDbEntity
8
0
100
AcDbSpline
62
7
6
CONTINUOUS
70
0
71
3
72
19
73
15
74
13
42
0.0000001000
43
0.0000001000
44
0.0000000001
12
0.6274176198
22
-0.3540982572
32
0.0000000000
13
0.0132648680
23
-0.7203211011
33
0.0000000000
40
0.0000000000
40
0.0000000000
40
0.0000000000
40
0.0000000000
40
0.0737301764
40
0.1523825260
40
0.2346017262
40
0.3194320527
40
0.4069395039
40
0.4966528261
40
0.5867439860
40
0.6755159765
40
0.7616763982
40
0.8447126847
40
0.9243093786
40
1.0000000000
40
1.0000000000
40
1.0000000000
40
1.0000000000
10
8.0224734171
20
16.9400200316
30
0.0000000000
10
8.0378932877
20
16.9313174559
30
0.0000000000
10
8.0686798015
20
16.9113708198
30
0.0000000000
10
8.1126139754
20
16.8759645888
30
0.0000000000
10
8.1548598373
20
16.8346512211
30
0.0000000000
10
8.1947478052
20
16.7882342126
30
0.0000000000
10
8.2317913577
20
16.7372787395
30
0.0000000000
10
8.2654024534
20
16.6825115301
30
0.0000000000
10
8.2948589799
20
16.6250623268
30
0.0000000000
10
8.3195294100
20
16.5663261973
30
0.0000000000
10
8.3390862273
20
16.5074781739
30
0.0000000000
10
8.3534087630
20
16.4494048083
30
0.0000000000
10
8.3624588582
20
16.3928249150
30
0.0000000000
10
8.3650277319
20
16.3555557537
30
0.0000000000
10
8.3653624073
20
16.3373819032
30
0.0000000000
11
8.0224734171
21
16.9400200316
31
0.0000000000
11
8.0671586902
21
16.9113008488
31
0.0000000000
11
8.1113564340
21
16.8758405758
31
0.0000000000
11
8.1537940071
21
16.8345156359
31
0.0000000000
11
8.1936879538
21
16.7882169390
31
0.0000000000
11
8.2308044935
21
16.7372568820
31
0.0000000000
11
8.2646360225
21
16.6821851262
31
0.0000000000
11
8.2942508978
21
16.6244296790
31
0.0000000000
11
8.3189942156
21
16.5654548268
31
0.0000000000
11
8.3385226544
21
16.5065329856
31
0.0000000000
11
8.3527760613
21
16.4484328704
31
0.0000000000
11
8.3617328040
21
16.3917917704
31
0.0000000000
11
8.3653624073
21
16.3373819032
31
0.0000000000
0
SPLINE
5
33D
100
AcDbEntity
8
0
100
AcDbSpline
62
7
6
CONTINUOUS
70
0
71
3
72
14
73
10
74
8
42
0.0000001000
43
0.0000001000
44
0.0000000001
12
-0.0057788785
22
-0.3193905886
32
0.0000000000
13
-0.2869840828
23
-0.1415769231
33
0.0000000000
40
0.0000000000
40
0.0000000000
40
0.0000000000
40
0.0000000000
40
0.1650267205
40
0.3218437865
40
0.4702492848
40
0.6110082444
40
0.7453354189
40
0.8743373476
40
1.0000000000
40
1.0000000000
40
1.0000000000
40
1.0000000000
10
8.3653624073
20
-21.5943328587
30
0.0000000000
10
8.3650445175
20
-21.6119021858
30
0.0000000000
10
8.3627785736
20
-21.6461696755
30
0.0000000000
10
8.3539773258
20
-21.6955746596
30
0.0000000000
10
8.3398522751
20
-21.7410619244
30
0.0000000000
10
8.3203931407
20
-21.7819369166
30
0.0000000000
10
8.2956351484
20
-21.8174017866
30
0.0000000000
10
8.2657960435
20
-21.8465204762
30
0.0000000000
10
8.2427385262
20
-21.8611777592
30
0.0000000000
10
8.2307174659
20
-21.8671080697
30
0.0000000000
11
8.3653624073
21
-21.5943328587
31
0.0000000000
11
8.3617328040
21
-21.6469243672
31
0.0000000000
11
8.3527760613
21
-21.6962112305
31
0.0000000000
11
8.3385226544
21
-21.7414248499
31
0.0000000000
11
8.3189942156
21
-21.7819272130
31
0.0000000000
11
8.2942508978
21
-21.8169846528
31
0.0000000000
11
8.2646360225
21
-21.8456398420
31
0.0000000000
11
8.2307174659
21
-21.8671080697
31
0.0000000000
0
SPLINE
5
33E
100
AcDbEntity
8
0
100
AcDbSpline
62
7
6
CONTINUOUS
70
0
71
3
72
17
73
13
74
11
42
0.0000001000
43
0.0000001000
44
0.0000000001
12
0.3507708942
22
-0.0730903754
32
0.0000000000
13
0.2293790543
23
0.2746241685
33
0.0000000000
40
0.0000000000
40
0.0000000000
40
0.0000000000
40
0.0000000000
40
0.0661931432
40
0.1626365575
40
0.2628288026
40
0.3661562656
40
0.4717775083
40
0.5787329409
40
0.6860161352
40
0.7926218728
40
0.8975823973
40
1.0000000000
40
1.0000000000
40
1.0000000000
40
1.0000000000
10
6.8187048024
20
17.1136325227
30
0.0000000000
10
6.8264443451
20
17.1120198288
30
0.0000000000
10
6.8457060284
20
17.1092938426
30
0.0000000000
10
6.8771765211
20
17.1092703179
30
0.0000000000
10
6.9127092256
20
17.1142236334
30
0.0000000000
10
6.9484147711
20
17.1237477169
30
0.0000000000
10
6.9836078525
20
17.1373954119
30
0.0000000000
10
7.0176750239
20
17.1546990992
30
0.0000000000
10
7.0500678319
20
17.1751737680
30
0.0000000000
10
7.0803030616
20
17.1983244135
30
0.0000000000
10
7.1079569554
20
17.2236453514
30
0.0000000000
10
7.1246876581
20
17.2419152242
30
0.0000000000
10
7.1325184757
20
17.2512906738
30
0.0000000000
11
6.8187048024
21
17.1136325227
31
0.0000000000
11
6.8421584930
21
17.1102500203
31
0.0000000000
11
6.8766670649
21
17.1100559951
31
0.0000000000
11
6.9121919522
21
17.1148769605
31
0.0000000000
11
6.9479406041
21
17.1243103300
31
0.0000000000
11
6.9832021878
21
17.1379095694
31
0.0000000000
11
7.0173440122
21
17.1552002290
31
0.0000000000
11
7.0498060903
21
17.1756901033
31
0.0000000000
11
7.0800963825
21
17.1988756072
31
0.0000000000
11
7.1077879660
21
17.2242464741
31
0.0000000000
11
7.1325184757
21
17.2512906738
31
0.0000000000
0
SPLINE
5
33F
100
AcDbEntity
8
0
100
AcDbSpline
62
9
6
CONTINUOUS
70
0
71
3
72
12
73
8
74
6
42
0.0000001000
43
0.0000001000
44
0.0000000001
12
-0.1029857849
22
0.0515382536
32
0.0000000000
13
-0.1030131196
23
-0.0507725545
33
0.0000000000
40
0.0000000000
40
0.0000000000
40
0.0000000000
40
0.0000000000
40
0.0703997960
40
0.2817532383
40
0.5036958317
40
0.7420180863
40
1.0000000000
40
1.0000000000
40
1.0000000000
40
1.0000000000
10
-4.8794724579
20
25.7995647098
30
0.0000000000
10
-4.8818891840
20
25.8007741373
30
0.0000000000
10
-4.8917684223
20
25.8051984074
30
0.0000000000
10
-4.9106626548
20
25.8099664516
30
0.0000000000
10
-4.9365940646
20
25.8101286756
30
0.0000000000
10
-4.9636811432
20
25.8045074332
30
0.0000000000
10
-4.9813875307
20
25.7973437090
30
0.0000000000
10
-4.9902460379
20
25.7929775754
30
0.0000000000
11
-4.8794724579
21
25.7995647098
31
0.0000000000
11
-4.8868691591
21
25.8028753604
31
0.0000000000
11
-4.9103787584
21
25.8089152138
31
0.0000000000
11
-4.9358655811
21
25.8092612776
31
0.0000000000
11
-4.9627066878
21
25.8039050935
31
0.0000000000
11
-4.9902460379
21
25.7929775754
31
0.0000000000
0
SPLINE
5
340
100
AcDbEntity
8
0
100
AcDbSpline
62
9
6
CONTINUOUS
70
0
71
3
72
14
73
10
74
8
42
0.0000001000
43
0.0000001000
44
0.0000000001
12
-1.1960367375
22
35.6014909398
32
0.0000000000
13
1.1558713647
23
35.6028176189
33
0.0000000000
40
0.0000000000
40
0.0000000000
40
0.0000000000
40
0.0000000000
40
0.1407483867
40
0.2822109274
40
0.4243811696
40
0.5672523671
40
0.7108174905
40
0.8550692288
40
1.0000000000
40
1.0000000000
40
1.0000000000
40
1.0000000000
10
-13.3389440760
20
-16.0039006140
30
0.0000000000
10
-13.3950574898
20
-14.3336164759
30
0.0000000000
10
-13.4911758345
20
-10.9840001630
30
0.0000000000
10
-13.5870209721
20
-5.9457960190
30
0.0000000000
10
-13.6348883410
20
-0.8816966364
30
0.0000000000
10
-13.6347712053
20
4.2075919560
30
0.0000000000
10
-13.5866696642
20
9.3213701684
30
0.0000000000
10
-13.4905905991
20
14.4589257944
30
0.0000000000
10
-13.3947845188
20
17.8913579823
30
0.0000000000
10
-13.3389440760
20
19.6113392536
30
0.0000000000
11
-13.3389440760
21
-16.0039006140
31
0.0000000000
11
-13.4828780449
21
-10.9922877632
31
0.0000000000
11
-13.5788450664
21
-5.9540830510
31
0.0000000000
11
-13.6268318900
21
-0.8899823487
31
0.0000000000
11
-13.6268318900
21
4.1993148404
31
0.0000000000
11
-13.5788450664
21
9.3131056181
31
0.0000000000
11
-13.4828780449
21
14.4506836197
31
0.0000000000
11
-13.3389440760
21
19.6113392536
31
0.0000000000
0
SPLINE
5
341
100
AcDbEntity
8
0
100
AcDbSpline
62
9
6
CONTINUOUS
70
0
71
3
72
21
73
17
74
15
42
0.0000001000
43
0.0000001000
44
0.0000000001
12
0.0682266941
22
2.0885788966
32
0.0000000000
13
1.8102163674
23
1.0439987511
33
0.0000000000
40
0.0000000000
40
0.0000000000
40
0.0000000000
40
0.0000000000
40
0.0679967665
40
0.1384065408
40
0.2108394439
40
0.2848375953
40
0.3599107799
40
0.4355417890
40
0.5111977555
40
0.5863473153
40
0.6604710416
40
0.7330721178
40
0.8036941773
40
0.8719342921
40
0.9374507760
40
1.0000000000
40
1.0000000000
40
1.0000000000
40
1.0000000000
10
-13.3389440760
20
19.6113392536
30
0.0000000000
10
-13.3373976778
20
19.6586781242
30
0.0000000000
10
-13.3302111209
20
19.7549393848
30
0.0000000000
10
-13.3081612462
20
19.9002634268
30
0.0000000000
10
-13.2748819715
20
20.0477223939
30
0.0000000000
10
-13.2307408837
20
20.1956840265
30
0.0000000000
10
-13.1762257908
20
20.3425200985
30
0.0000000000
10
-13.1119379474
20
20.4866105679
30
0.0000000000
10
-13.0385867694
20
20.6263652422
30
0.0000000000
10
-12.9569816903
20
20.7602410435
30
0.0000000000
10
-12.8680227640
20
20.8867601383
30
0.0000000000
10
-12.7726894982
20
21.0045270512
30
0.0000000000
10
-12.6720305390
20
21.1122435849
30
0.0000000000
10
-12.5671452399
20
21.2087246441
30
0.0000000000
10
-12.4591913137
20
21.2929005849
30
0.0000000000
10
-12.3841206090
20
21.3413763056
30
0.0000000000
10
-12.3463780660
20
21.3631434095
30
0.0000000000
11
-13.3389440760
21
19.6113392536
31
0.0000000000
11
-13.3285773442
21
19.7530529473
31
0.0000000000
11
-13.3066759712
21
19.8985485904
31
0.0000000000
11
-13.2734810166
21
20.0462263135
31
0.0000000000
11
-13.2293634511
21
20.1944327030
31
0.0000000000
11
-13.1748129880
21
20.3415229876
31
0.0000000000
11
-13.1104353060
21
20.4858625934
31
0.0000000000
11
-13.0369475551
21
20.6258427568
31
0.0000000000
11
-12.9551665837
21
20.7599072166
31
0.0000000000
11
-12.8660012890
21
20.8865652923
31
0.0000000000
11
-12.7704454653
21
21.0044050551
31
0.0000000000
11
-12.6695613411
21
21.1121166320
31
0.0000000000
11
-12.5644685317
21
21.2085039474
31
0.0000000000
11
-12.4563441447
21
21.2924877738
31
0.0000000000
11
-12.3463780660
21
21.3631434095
31
0.0000000000
0
SPLINE
5
342
100
AcDbEntity
8
0
100
AcDbSpline
62
9
6
CONTINUOUS
70
0
71
3
72
12
73
8
74
6
42
0.0000001000
43
0.0000001000
44
0.0000000001
12
-0.0000209833
22
-0.1197211810
32
0.0000000000
13
-0.1064694074
23
-0.0538577494
33
0.0000000000
40
0.0000000000
40
0.0000000000
40
0.0000000000
40
0.0000000000
40
0.1622418716
40
0.3385502066
40
0.5344404995
40
0.7545638407
40
1.0000000000
40
1.0000000000
40
1.0000000000
40
1.0000000000
10
-4.7412745120
20
25.2284291508
30
0.0000000000
10
-4.7412756468
20
25.2219545546
30
0.0000000000
10
-4.7434325199
20
25.2084420080
30
0.0000000000
10
-4.7528746099
20
25.1891053796
30
0.0000000000
10
-4.7681473020
20
25.1709283859
30
0.0000000000
10
-4.7887028854
20
25.1543143744
30
0.0000000000
10
-4.8047618534
20
25.1449627329
30
0.0000000000
10
-4.8134723343
20
25.1405565198
30
0.0000000000
11
-4.7412745120
21
25.2284291508
31
0.0000000000
11
-4.7442211984
21
25.2092935999
31
0.0000000000
11
-4.7532065687
21
25.1902726620
31
0.0000000000
11
-4.7680106099
21
25.1721858290
31
0.0000000000
11
-4.7882719197
21
25.1554737519
31
0.0000000000
11
-4.8134723343
21
25.1405565198
31
0.0000000000
0
SPLINE
5
343
100
AcDbEntity
8
0
100
AcDbSpline
62
9
6
CONTINUOUS
70
0
71
3
72
12
73
8
74
6
42
0.0000001000
43
0.0000001000
44
0.0000000001
12
-0.0000227722
22
-0.1197212051
32
0.0000000000
13
-0.1064692941
23
-0.0538576921
33
0.0000000000
40
0.0000000000
40
0.0000000000
40
0.0000000000
40
0.0000000000
40
0.1619863906
40
0.3382910533
40
0.5341892806
40
0.7543267983
40
1.0000000000
40
1.0000000000
40
1.0000000000
40
1.0000000000
10
-4.7412745185
20
25.5759606720
30
0.0000000000
10
-4.7412757481
20
25.5694962701
30
0.0000000000
10
-4.7434272631
20
25.5559938963
30
0.0000000000
10
-4.7528573688
20
25.5366624591
30
0.0000000000
10
-4.7681255923
20
25.5184805259
30
0.0000000000
10
-4.7886861936
20
25.5018561448
30
0.0000000000
10
-4.8047534501
20
25.4924985005
30
0.0000000000
10
-4.8134723343
20
25.4880880366
30
0.0000000000
11
-4.7412745185
21
25.5759606720
31
0.0000000000
11
-4.7442121554
21
25.5568543275
31
0.0000000000
11
-4.7531898460
21
25.5378302728
31
0.0000000000
11
-4.7679893019
21
25.5197384968
31
0.0000000000
11
-4.7882486662
21
25.5030214474
31
0.0000000000
11
-4.8134723343
21
25.4880880366
31
0.0000000000
0
SPLINE
5
344
100
AcDbEntity
8
0
100
AcDbSpline
62
9
6
CONTINUOUS
70
0
71
3
72
13
73
9
74
7
42
0.0000001000
43
0.0000001000
44
0.0000000001
12
0.0080751904
22
-0.2417710549
32
0.0000000000
13
0.2156181964
23
-0.1079921320
33
0.0000000000
40
0.0000000000
40
0.0000000000
40
0.0000000000
40
0.0000000000
40
0.0675610517
40
0.2247009877
40
0.3924610560
40
0.5760093709
40
0.7782297887
40
1.0000000000
40
1.0000000000
40
1.0000000000
40
1.0000000000
10
-13.4854000047
20
-15.8262533895
30
0.0000000000
10
-13.4852181485
20
-15.8316981584
30
0.0000000000
10
-13.4835522057
20
-15.8497701214
30
0.0000000000
10
-13.4744642165
20
-15.8803549591
30
0.0000000000
10
-13.4534728872
20
-15.9158282338
30
0.0000000000
10
-13.4232632383
20
-15.9488481555
30
0.0000000000
10
-13.3845451044
20
-15.9789144846
30
0.0000000000
10
-13.3548833068
20
-15.9959174679
30
0.0000000000
10
-13.3389440758
20
-16.0039006139
30
0.0000000000
11
-13.4854000047
21
-15.8262533895
31
0.0000000000
11
-13.4838965626
21
-15.8425148862
31
0.0000000000
11
-13.4733323306
21
-15.8789069073
31
0.0000000000
11
-13.4530599280
21
-15.9139164698
31
0.0000000000
11
-13.4234829456
21
-15.9468465902
31
0.0000000000
11
-13.3851902128
21
-15.9770416833
31
0.0000000000
11
-13.3389440758
21
-16.0039006139
31
0.0000000000
0
SPLINE
5
345
100
AcDbEntity
8
0
100
AcDbSpline
62
7
6
CONTINUOUS
70
0
71
3
72
12
73
8
74
6
42
0.0000001000
43
0.0000001000
44
0.0000000001
12
-0.0000225794
22
-0.1436670695
32
0.0000000000
13
-0.1277647717
23
-0.0646300493
33
0.0000000000
40
0.0000000000
40
0.0000000000
40
0.0000000000
40
0.0000000000
40
0.1621493694
40
0.3384231622
40
0.5342895302
40
0.7543811142
40
1.0000000000
40
1.0000000000
40
1.0000000000
40
1.0000000000
10
13.2677737108
20
-15.4651138187
30
0.0000000000
10
13.2677724904
20
-15.4728789936
30
0.0000000000
10
13.2651871146
20
-15.4890882697
30
0.0000000000
10
13.2538639819
20
-15.5122880406
30
0.0000000000
10
13.2355428021
20
-15.5341003900
30
0.0000000000
10
13.2108737109
20
-15.5540445538
30
0.0000000000
10
13.1915968066
20
-15.5652712050
30
0.0000000000
10
13.1811363264
20
-15.5705626586
30
0.0000000000
11
13.2677737108
21
-15.4651138187
31
0.0000000000
11
13.2642420412
21
-15.4880641118
31
0.0000000000
11
13.2534657014
21
-15.5108869748
31
0.0000000000
11
13.2357063412
21
-15.5325916608
31
0.0000000000
11
13.2113986940
21
-15.5526467644
31
0.0000000000
11
13.1811363264
21
-15.5705626586
31
0.0000000000
0
SPLINE
5
346
100
AcDbEntity
8
0
100
AcDbSpline
62
9
6
CONTINUOUS
70
0
71
3
72
13
73
9
74
7
42
0.0000001000
43
0.0000001000
44
0.0000000001
12
-0.0076204881
22
-0.2409153407
32
0.0000000000
13
0.2148666629
23
-0.1072382489
33
0.0000000000
40
0.0000000000
40
0.0000000000
40
0.0000000000
40
0.0000000000
40
0.0939896824
40
0.2396228738
40
0.3993021429
40
0.5780561394
40
0.7782162658
40
1.0000000000
40
1.0000000000
40
1.0000000000
40
1.0000000000
10
-13.4854180000
20
19.7863734974
30
0.0000000000
10
-13.4856567491
20
19.7788256453
30
0.0000000000
10
-13.4843442331
20
19.7595127940
30
0.0000000000
10
-13.4742432982
20
19.7287585156
30
0.0000000000
10
-13.4531733823
20
19.6958507770
30
0.0000000000
10
-13.4229826577
20
19.6647558263
30
0.0000000000
10
-13.3843260725
20
19.6358987741
30
0.0000000000
10
-13.3548286032
20
19.6192672057
30
0.0000000000
10
-13.3389439595
20
19.6113393060
30
0.0000000000
11
-13.4854180000
21
19.7863734974
31
0.0000000000
11
-13.4838964473
21
19.7638069625
31
0.0000000000
11
-13.4733322074
21
19.7304681992
31
0.0000000000
11
-13.4530598010
21
19.6979196115
31
0.0000000000
11
-13.4234828186
21
19.6668091885
31
0.0000000000
11
-13.3851900895
21
19.6377562881
31
0.0000000000
11
-13.3389439595
21
19.6113393060
31
0.0000000000
0
SPLINE
5
347
100
AcDbEntity
8
0
100
AcDbSpline
62
9
6
CONTINUOUS
70
0
71
3
72
13
73
9
74
7
42
0.0000001000
43
0.0000001000
44
0.0000000001
12
0.2101880802
22
0.1225987668
32
0.0000000000
13
0.2187270215
23
-0.1053810134
33
0.0000000000
40
0.0000000000
40
0.0000000000
40
0.0000000000
40
0.0000000000
40
0.0115971600
40
0.1876377996
40
0.3702885620
40
0.5646105608
40
0.7739750574
40
1.0000000000
40
1.0000000000
40
1.0000000000
40
1.0000000000
10
-12.5797223328
20
21.3719161299
30
0.0000000000
10
-12.5789098045
20
21.3723900624
30
0.0000000000
10
-12.5657020278
20
21.3799525833
30
0.0000000000
10
-12.5377203870
20
21.3914604128
30
0.0000000000
10
-12.4931578768
20
21.3985393366
30
0.0000000000
10
-12.4454682304
20
21.3961035360
30
0.0000000000
10
-12.3956401585
20
21.3843751851
30
0.0000000000
10
-12.3628573201
20
21.3710829887
30
0.0000000000
10
-12.3463780660
20
21.3631434095
30
0.0000000000
11
-12.5797223328
21
21.3719161299
31
0.0000000000
11
-12.5772734512
21
21.3733182694
31
0.0000000000
11
-12.5377866832
21
21.3896758510
31
0.0000000000
11
-12.4940316685
21
21.3968894639
31
0.0000000000
11
-12.4468980990
21
21.3948124304
31
0.0000000000
11
-12.3973443647
21
21.3834869836
31
0.0000000000
11
-12.3463780660
21
21.3631434095
31
0.0000000000
0
SPLINE
5
348
100
AcDbEntity
8
0
100
AcDbSpline
62
9
6
CONTINUOUS
70
0
71
3
72
12
73
8
74
6
42
0.0000001000
43
0.0000001000
44
0.0000000001
12
-0.1029857849
22
0.0515382536
32
0.0000000000
13
-0.1030131196
23
-0.0507725545
33
0.0000000000
40
0.0000000000
40
0.0000000000
40
0.0000000000
40
0.0000000000
40
0.0703997960
40
0.2817532383
40
0.5036958317
40
0.7420180863
40
1.0000000000
40
1.0000000000
40
1.0000000000
40
1.0000000000
10
-6.2167986185
20
26.4682277901
30
0.0000000000
10
-6.2192153446
20
26.4694372176
30
0.0000000000
10
-6.2290945829
20
26.4738614877
30
0.0000000000
10
-6.2479888153
20
26.4786295318
30
0.0000000000
10
-6.2739202251
20
26.4787917559
30
0.0000000000
10
-6.3010073037
20
26.4731705135
30
0.0000000000
10
-6.3187136912
20
26.4660067893
30
0.0000000000
10
-6.3275721985
20
26.4616406557
30
0.0000000000
11
-6.2167986185
21
26.4682277901
31
0.0000000000
11
-6.2241953197
21
26.4715384406
31
0.0000000000
11
-6.2477049189
21
26.4775782941
31
0.0000000000
11
-6.2731917417
21
26.4779243579
31
0.0000000000
11
-6.3000328484
21
26.4725681738
31
0.0000000000
11
-6.3275721985
21
26.4616406557
31
0.0000000000
0
ENDSEC
0
SECTION
2
OBJECTS
0
DICTIONARY
5
349
100
AcDbDictionary
3
ACAD_GROUP
350
34A
3
ACAD_MLINESTYLE
350
34B
0
DICTIONARY
5
34A
102
{ACAD_REACTORS
330
349
102
}
100
AcDbDictionary
0
DICTIONARY
5
34B
102
{ACAD_REACTORS
330
349
102
}
100
AcDbDictionary
3
STANDARD
350
34C
0
MLINESTYLE
5
34C
102
{ACAD_REACTORS
330
34B
102
}
100
AcDbMlineStyle
2
STANDARD
70
0
3

62
256
51
90.0
52
90.0
71
2
49
0.5
62
256
6
BYLAYER
49
-0.5
62
256
6
BYLAYER
0
ENDSEC
0
EOF
