  0
SECTION
  2
HEADER
  9
$ACADVER
  1
AC1015
  9
$DWGCODEPAGE
  3
ANSI_1252
  9
$EXTMAX
 10
297.0
 20
210.0
 30
0.0
  9
$EXTMIN
 10
0.0
 20
0.0
 30
0.0
  9
$LIMMIN
 10
0.0
 20
0.0
  9
$LIMMAX
 10
297.0
 20
210.0
  9
$VIEWCTR
 10
148.5
 20
105.0
  9
$VIEWSIZE
 40
210.0
  9
$CLAYER
  8
0
  9
$LTSCALE
 40
16.335
  9
$CELTYPE
  6
BYLAYER
  9
$DIMSCALE
 40
1.0
  9
$DIMASZ
 40
3.0
  9
$DIMEXO
 40
1.85625
  9
$DIMDLI
 40
11.286
  9
$DIMEXE
 40
5.346
  9
$DIMCEN
 40
2.673
  9
$DIMLFAC
 40
1.0
  9
$DIMBLK
  1
_FILLED
  9
$DIMTXT
 40
3.0
  9
$DIMTOL
 70
1
  9
$DIMLIM
 70
0
  9
$DIMTFAC
 40
1.0
  9
$DIMTP
 40
0.01
  9
$DIMTM
 40
0.01
  9
$PDMODE
 70
3
  9
$PDSIZE
 40
3.0
  9
$HANDSEED
  5
3DD
  9
$TILEMODE
 70
1
  9
$MEASUREMENT
 70
1
  9
$INSUNITS
 70
4
  0
ENDSEC
  0
SECTION
  2
CLASSES
  0
CLASS
  1
ACDBDICTIONARYWDFLT
  2
AcDbDictionaryWithDefault
  3
AutoCAD 2000
 90
0
280
0
281
0
  0
CLASS
  1
ACDBPLACEHOLDER
  2
AcDbPlaceHolder
  3
AutoCAD 2000
 90
0
280
0
281
0
  0
CLASS
  1
LAYOUT
  2
AcDbLayout
  3
AutoCAD 2000
 90
0
280
0
281
0
  0
ENDSEC
  0
SECTION
  2
TABLES
  0
TABLE
  2
VPORT
  5
8
100
AcDbSymbolTable
 70
2
  0
VPORT
  5
1F4
100
AcDbSymbolTableRecord
100
AcDbViewportTableRecord
  2
*ACTIVE
 70
0
 10
0.0
 20
0.0
 11
1.0
 21
1.0
 12
148.5
 22
105.0
 13
0.0
 23
0.0
 14
1.0
 24
1.0
 15
0.0
 25
0.0
 16
0.0
 26
0.0
 36
1.0
 17
0.0
 27
0.0
 37
0.0
 40
210.0
 41
1.4142857143
 42
50.0
 43
0.0
 44
0.0
 50
0.0
 51
0.0
 71
0
 72
100
 73
1
 74
1
 75
0
 76
0
 77
0
 78
0
  0
ENDTAB
  0
TABLE
  2
LTYPE
  5
5
100
AcDbSymbolTable
 70
6
  0
LTYPE
  5
14
100
AcDbSymbolTableRecord
100
AcDbLinetypeTableRecord
  2
BYBLOCK
 70
0
  3

 72
65
 73
0
 40
0.0
  0
LTYPE
  5
15
100
AcDbSymbolTableRecord
100
AcDbLinetypeTableRecord
  2
BYLAYER
 70
0
  3

 72
65
 73
0
 40
0.0
  0
LTYPE
  5
16
100
AcDbSymbolTableRecord
100
AcDbLinetypeTableRecord
  2
CONTINUOUS
 70
64
  3
Solid line
 72
65
 73
0
 40
0.0
  0
LTYPE
  5
1F5
100
AcDbSymbolTableRecord
100
AcDbLinetypeTableRecord
  2
CENTER
 70
64
  3
____ _ ____ _ ____ _ ____ _ ____ _ ____ _ ____
 72
65
 73
4
 40
0.6
 49
0.375
 74
0
 49
-0.075
 74
0
 49
0.075
 74
0
 49
-0.075
 74
0
  0
LTYPE
  5
1F6
100
AcDbSymbolTableRecord
100
AcDbLinetypeTableRecord
  2
HIDDEN
 70
64
  3
- - - - - - - - - - - - - - - - - - - -
 72
65
 73
2
 40
0.2
 49
0.1
 74
0
 49
-0.1
 74
0
  0
LTYPE
  5
1F7
100
AcDbSymbolTableRecord
100
AcDbLinetypeTableRecord
  2
PHANTOM
 70
64
  3
_____ _ _ _____ _ _ _____ _ _ _____
 72
65
 73
6
 40
0.8
 49
0.45
 74
0
 49
-0.05
 74
0
 49
0.1
 74
0
 49
-0.05
 74
0
 49
0.1
 74
0
 49
-0.05
 74
0
  0
LTYPE
  5
1F8
100
AcDbSymbolTableRecord
100
AcDbLinetypeTableRecord
  2
DOT
 70
64
  3
. . . . . . . . . . . . . . . . . . . .
 72
65
 73
2
 40
0.2
 49
0.1
 74
0
 49
-0.1
 74
0
  0
LTYPE
  5
1F9
100
AcDbSymbolTableRecord
100
AcDbLinetypeTableRecord
  2
DASHED
 70
64
  3
- - - - - - - - - - - - - - - - - - - -
 72
65
 73
2
 40
0.2
 49
0.1
 74
0
 49
-0.1
 74
0
  0
ENDTAB
  0
TABLE
  2
LAYER
  5
2
100
AcDbSymbolTable
 70
36
  0
LAYER
  5
10
100
AcDbSymbolTableRecord
100
AcDbLayerTableRecord
  2
0
 70
0
 62
7
  6
CONTINUOUS
370
-3
390
F
  0
LAYER
  5
1FA
100
AcDbSymbolTableRecord
100
AcDbLayerTableRecord
  2
DEFAULT_1
 70
0
 62
7
  6
CENTER
370
-3
390
F
  0
LAYER
  5
1FB
100
AcDbSymbolTableRecord
100
AcDbLayerTableRecord
  2
DEFAULT_2
 70
0
 62
7
  6
HIDDEN
370
-3
390
F
  0
LAYER
  5
1FC
100
AcDbSymbolTableRecord
100
AcDbLayerTableRecord
  2
DEFAULT_3
 70
0
 62
7
  6
PHANTOM
370
-3
390
F
  0
LAYER
  5
1FD
100
AcDbSymbolTableRecord
100
AcDbLayerTableRecord
  2
ASSI
 70
0
 62
7
  6
CONTINUOUS
370
-3
390
F
  0
LAYER
  5
1FE
100
AcDbSymbolTableRecord
100
AcDbLayerTableRecord
  2
COORDINATE
 70
0
 62
7
  6
CONTINUOUS
370
-3
390
F
  0
LAYER
  5
1FF
100
AcDbSymbolTableRecord
100
AcDbLayerTableRecord
  2
COORD_ORIGINE
 70
0
 62
7
  6
CONTINUOUS
370
-3
390
F
  0
LAYER
  5
200
100
AcDbSymbolTableRecord
100
AcDbLayerTableRecord
  2
CURVE
 70
0
 62
7
  6
CONTINUOUS
370
-3
390
F
  0
LAYER
  5
201
100
AcDbSymbolTableRecord
100
AcDbLayerTableRecord
  2
DRAFT
 70
0
 62
7
  6
CONTINUOUS
370
-3
390
F
  0
LAYER
  5
202
100
AcDbSymbolTableRecord
100
AcDbLayerTableRecord
  2
IMPORT_AI
 70
0
 62
7
  6
CONTINUOUS
370
-3
390
F
  0
LAYER
  5
203
100
AcDbSymbolTableRecord
100
AcDbLayerTableRecord
  2
NOTE
 70
0
 62
7
  6
CONTINUOUS
370
-3
390
F
  0
LAYER
  5
204
100
AcDbSymbolTableRecord
100
AcDbLayerTableRecord
  2
PIANI
 70
0
 62
7
  6
CONTINUOUS
370
-3
390
F
  0
LAYER
  5
205
100
AcDbSymbolTableRecord
100
AcDbLayerTableRecord
  2
PIANI_ORIGINE
 70
0
 62
7
  6
CONTINUOUS
370
-3
390
F
  0
LAYER
  5
206
100
AcDbSymbolTableRecord
100
AcDbLayerTableRecord
  2
PIANI_RIFERIMENTO
 70
0
 62
7
  6
CONTINUOUS
370
-3
390
F
  0
LAYER
  5
207
100
AcDbSymbolTableRecord
100
AcDbLayerTableRecord
  2
PUNTI
 70
0
 62
7
  6
CONTINUOUS
370
-3
390
F
  0
LAYER
  5
208
100
AcDbSymbolTableRecord
100
AcDbLayerTableRecord
  2
RACCORDO
 70
0
 62
7
  6
CONTINUOUS
370
-3
390
F
  0
LAYER
  5
209
100
AcDbSymbolTableRecord
100
AcDbLayerTableRecord
  2
SMUSSO
 70
0
 62
7
  6
CONTINUOUS
370
-3
390
F
  0
LAYER
  5
20A
100
AcDbSymbolTableRecord
100
AcDbLayerTableRecord
  2
SNAPLINE
 70
0
 62
7
  6
CONTINUOUS
370
-3
390
F
  0
LAYER
  5
20B
100
AcDbSymbolTableRecord
100
AcDbLayerTableRecord
  2
SUPERFICI
 70
0
 62
7
  6
CONTINUOUS
370
-3
390
F
  0
LAYER
  5
20C
100
AcDbSymbolTableRecord
100
AcDbLayerTableRecord
  2
TRASH
 70
0
 62
7
  6
CONTINUOUS
370
-3
390
F
  0
LAYER
  5
20D
100
AcDbSymbolTableRecord
100
AcDbLayerTableRecord
  2
XSEC_DATUMS
 70
0
 62
7
  6
CONTINUOUS
370
-3
390
F
  0
ENDTAB
  0
TABLE
  2
STYLE
  5
3
100
AcDbSymbolTable
 70
1
  0
STYLE
  5
11
100
AcDbSymbolTableRecord
100
AcDbTextStyleTableRecord
  2
STANDARD
 70
0
 40
0.0
 41
0.8
 50
0.0
 71
0
 42
0.2
  3
txt
  4

  0
STYLE
  5
20E
100
AcDbSymbolTableRecord
100
AcDbTextStyleTableRecord
  2
TEXTSTYLE_1
 70
0
 40
0.0
 41
0.8
 50
0.0
 71
0
 42
0.2
  3
gdt
  4

  0
ENDTAB
  0
TABLE
  2
VIEW
  5
6
100
AcDbSymbolTable
 70
0
  0
ENDTAB
  0
TABLE
  2
UCS
  5
7
100
AcDbSymbolTable
 70
0
  0
ENDTAB
  0
TABLE
  2
APPID
  5
9
100
AcDbSymbolTable
 70
1
  0
APPID
  5
20F
100
AcDbSymbolTableRecord
100
AcDbRegAppTableRecord
  2
ACAD
 70
0
  0
ENDTAB
  0
TABLE
  2
BLOCK_RECORD
  5
1
100
AcDbSymbolTable
 70
0
  0
BLOCK_RECORD
  5
210
100
AcDbSymbolTableRecord
100
AcDbBlockTableRecord
  2
*Model_Space
  0
BLOCK_RECORD
  5
211
100
AcDbSymbolTableRecord
100
AcDbBlockTableRecord
  2
*Paper_Space
  0
ENDTAB
  0
TABLE
  2
DIMSTYLE
  5
A
100
AcDbSymbolTable
 70
1
100
AcDbDimStyleTable
 71
0
  0
DIMSTYLE
105
212
100
AcDbSymbolTableRecord
100
AcDbDimStyleTableRecord
  2
STANDARD
 70
0
  3

  4

 40
1.0
 41
3.0
 42
0.0625
 43
0.38
 44
0.18
 45
0.0
 46
0.0
 47
0.01
 48
0.01
140
3.0
141
0.09
142
0.0
143
25.4
144
1.0
145
0.0
146
1.0
147
0.09
 71
1.0
 72
0.0
 73
0
 74
0
 75
0
 76
0
 77
1
 78
8
170
0
171
2
172
0
173
0
174
0
175
0
176
0
177
0
178
0
270
2
271
2
272
2
273
2
274
2
275
0
280
0
281
0
282
0
283
1
284
8
285
0
286
0
287
3
288
0
340
11
  0
ENDTAB
  0
ENDSEC
  0
SECTION
  2
BLOCKS
  0
BLOCK
  5
20
100
AcDbEntity
  8
0
100
AcDbBlockBegin
  2
*Model_Space
 70
0
 10
0.0
 20
0.0
 30
0.0
  3
*Model_Space
  1

  0
ENDBLK
  5
21
100
AcDbEntity
  8
0
100
AcDbBlockEnd
  0
BLOCK
  5
1C
100
AcDbEntity
  8
0
100
AcDbBlockBegin
  2
*Paper_Space
 70
0
 10
0.0
 20
0.0
 30
0.0
  3
*Paper_Space
  1

  0
ENDBLK
  5
1D
100
AcDbEntity
  8
0
100
AcDbBlockEnd
  0
ENDSEC
  0
SECTION
  2
ENTITIES
  0
LWPOLYLINE
  5
213
100
AcDbEntity
  8
0
100
AcDbPolyline
 62
7
  6
CONTINUOUS
 90
40
 70
0
 10
-18.0436319963
 20
25.8663867834
 10
-18.0767559008
 20
25.8504898919
 10
-18.1221101965
 20
25.8274417334
 10
-18.1669348633
 20
25.803180532
 10
-18.2111943779
 20
25.7777458494
 10
-18.2548659838
 20
25.7511687508
 10
-18.2979310961
 20
25.7234756244
 10
-18.3403579992
 20
25.6946991756
 10
-18.3821137927
 20
25.6648715064
 10
-18.4231729805
 20
25.6340192017
 10
-18.4635021382
 20
25.6021722929
 10
-18.503068364
 20
25.569360744
 10
-18.541843411
 20
25.5356082652
 10
-18.5797940884
 20
25.5009423878
 10
-18.6168839133
 20
25.4653920141
 10
-18.6530800536
 20
25.4289819865
 10
-18.6883475924
 20
25.3917379127
 10
-18.7226482811
 20
25.3536873335
 10
-18.7559458201
 20
25.3148554956
 10
-18.7882067507
 20
25.2752612123
 10
-18.8193873536
 20
25.2349356319
 10
-18.8494370965
 20
25.1939174687
 10
-18.8783214758
 20
25.152224665
 10
-18.9059950876
 20
25.1098872226
 10
-18.9323992156
 20
25.0669574118
 10
-18.9575135346
 20
25.0234234332
 10
-18.9812744191
 20
24.9793426281
 10
-19.0035760761
 20
24.9348679863
 10
-19.0244003484
 20
24.8899928865
 10
-19.0436983856
 20
24.8447729817
 10
-19.0613520345
 20
24.7994551337
 10
-19.077348492
 20
24.7540672956
 10
-19.0916736053
 20
24.7086354559
 10
-19.1042550771
 20
24.6634054852
 10
-19.1151012758
 20
24.6184035476
 10
-19.1242176472
 20
24.5736608148
 10
-19.13157739
 20
24.52943287
 10
-19.1372032045
 20
24.4858248856
 10
-19.1411412278
 20
24.4427918967
 10
-19.1427745727
 20
24.415903496
  0
LINE
  5
214
100
AcDbEntity
  8
0
100
AcDbLine
 62
7
  6
CONTINUOUS
 10
-18.0436351739
 20
25.8663853631
 11
-12.8523765304
 21
28.2964084099
  0
LINE
  5
215
100
AcDbEntity
  8
0
100
AcDbLine
 62
253
  6
CONTINUOUS
 10
-17.8543159534
 20
25.7573626205
 11
-12.7356245459
 21
28.1534170157
  0
LINE
  5
216
100
AcDbEntity
  8
0
100
AcDbLine
 62
7
  6
CONTINUOUS
 10
-13.1870877578
 20
29.4184698735
 11
-10.3794202104
 21
30.5906374086
  0
LINE
  5
217
100
AcDbEntity
  8
0
100
AcDbLine
 62
253
  6
CONTINUOUS
 10
-13.0919060997
 20
29.364079446
 11
-10.2847019028
 21
30.5360535378
  0
LINE
  5
218
100
AcDbEntity
  8
0
100
AcDbLine
 62
253
  6
CONTINUOUS
 10
-12.2214266424
 20
28.297964195
 11
-9.3971984758
 21
29.4490882673
  0
LINE
  5
219
100
AcDbEntity
  8
0
100
AcDbLine
 62
253
  6
CONTINUOUS
 10
-12.0964283558
 20
27.9680989126
 11
-9.2722001893
 21
29.1192229848
  0
LINE
  5
21A
100
AcDbEntity
  8
0
100
AcDbLine
 62
7
  6
CONTINUOUS
 10
-10.1408436109
 20
28.0424272329
 11
-9.2722001893
 21
28.8010225101
  0
LINE
  5
21B
100
AcDbEntity
  8
0
100
AcDbLine
 62
7
  6
CONTINUOUS
 10
-10.1408436109
 20
27.4253706907
 11
-11.2277849342
 21
26.9406074776
  0
LINE
  5
21C
100
AcDbEntity
  8
0
100
AcDbLine
 62
7
  6
CONTINUOUS
 10
-8.6195716532
 20
25.8711329811
 11
-7.3222001893
 21
26.4127700109
  0
LINE
  5
21D
100
AcDbEntity
  8
0
100
AcDbLine
 62
7
  6
CONTINUOUS
 10
-7.3222001893
 20
26.4127700109
 11
-1.6714698258
 21
28.6677745821
  0
LINE
  5
21E
100
AcDbEntity
  8
0
100
AcDbLine
 62
7
  6
CONTINUOUS
 10
-0.0771786614
 20
30.6192493279
 11
-8.7751091042
 21
27.1627940934
  0
LINE
  5
21F
100
AcDbEntity
  8
0
100
AcDbLine
 62
7
  6
CONTINUOUS
 10
-0.0546610868
 20
30.7144122974
 11
-8.8352902586
 21
27.2365006536
  0
LINE
  5
220
100
AcDbEntity
  8
0
100
AcDbLine
 62
7
  6
CONTINUOUS
 10
10.5466563891
 20
-30.1362684976
 11
11.4152998107
 21
-30.1941698013
  0
LINE
  5
221
100
AcDbEntity
  8
0
100
AcDbLine
 62
7
  6
CONTINUOUS
 10
-6.8722001893
 20
25.8616348188
 11
-1.2668858159
 21
28.172262391
  0
LINE
  5
222
100
AcDbEntity
  8
0
100
AcDbLine
 62
7
  6
CONTINUOUS
 10
-6.2431589323
 20
25.0912197653
 11
-1.1855883216
 21
27.1736412477
  0
LINE
  5
223
100
AcDbEntity
  8
0
100
AcDbLine
 62
7
  6
CONTINUOUS
 10
1.9994324275
 20
28.075930547
 11
-5.9931589323
 21
24.7850335475
  0
LINE
  5
224
100
AcDbEntity
  8
0
100
AcDbLine
 62
7
  6
CONTINUOUS
 10
-5.7134900242
 20
24.4425104866
 11
0.9059252563
 21
27.1522090707
  0
LINE
  5
225
100
AcDbEntity
  8
DRAFT
100
AcDbLine
 62
7
  6
CONTINUOUS
 10
19.3040792523
 20
-21.400424975
 11
12.5612802794
 21
-23.2332410374
  0
LINE
  5
226
100
AcDbEntity
  8
DRAFT
100
AcDbLine
 62
7
  6
CONTINUOUS
 10
18.9040792523
 20
-20.9105270264
 11
12.5612802794
 21
-22.5867887053
  0
LINE
  5
227
100
AcDbEntity
  8
0
100
AcDbLine
 62
7
  6
CONTINUOUS
 10
-3.3722001893
 20
21.5750277689
 11
2.2898845176
 21
23.8161261663
  0
LWPOLYLINE
  5
228
100
AcDbEntity
  8
0
100
AcDbPolyline
 62
7
  6
CONTINUOUS
 90
18
 70
0
 10
-19.1427221019
 20
-4.6135108613
 10
-19.1412247488
 20
-4.6374904798
 10
-19.1376987688
 20
-4.6754869972
 10
-19.1327894153
 20
-4.7130074972
 10
-19.1265058061
 20
-4.7500232957
 10
-19.1188619851
 20
-4.7864917092
 10
-19.1098797638
 20
-4.8223511416
 10
-19.0995787933
 20
-4.8575651353
 10
-19.0879818249
 20
-4.8920966096
 10
-19.0751253293
 20
-4.9258801254
 10
-19.0610406236
 20
-4.9588776629
 10
-19.0457602912
 20
-4.9910558441
 10
-19.0293334835
 20
-5.0223571384
 10
-19.0118010421
 20
-5.0527503302
 10
-18.993205452
 20
-5.0822061406
 10
-18.9736082953
 20
-5.1106745927
 10
-18.9530647271
 20
-5.1381255173
 10
-18.9408154592
 20
-5.1534755947
  0
LWPOLYLINE
  5
229
100
AcDbEntity
  8
0
100
AcDbPolyline
 62
7
  6
CONTINUOUS
 90
22
 70
0
 10
-19.142775543
 20
24.4158863851
 10
-19.2078503002
 20
23.0160196016
 10
-19.2668887108
 20
21.6080537974
 10
-19.3193690851
 20
20.2026899099
 10
-19.365290459
 20
18.7999520241
 10
-19.4046522186
 20
17.3998610197
 10
-19.4374538387
 20
16.0024364771
 10
-19.4636948015
 20
14.6076990381
 10
-19.4833747525
 20
13.2156701208
 10
-19.4964933857
 20
11.8263704791
 10
-19.5030504324
 20
10.4398210417
 10
-19.5030458239
 20
9.0560433752
 10
-19.4964795537
 20
7.675059191
 10
-19.4833516767
 20
6.2968900015
 10
-19.4636624479
 20
4.9215565169
 10
-19.4374121602
 20
3.5490792452
 10
-19.4046011547
 20
2.1794793092
 10
-19.3652299357
 20
0.8127769268
 10
-19.3192990161
 20
-0.5510087396
 10
-19.266808997
 20
-1.9118573185
 10
-19.2077608292
 20
-3.269745541
 10
-19.1427232796
 20
-4.6134905213
  0
LINE
  5
22A
100
AcDbEntity
  8
0
100
AcDbLine
 62
7
  6
CONTINUOUS
 10
-3.7908436109
 20
19.6482407573
 11
-4.2274394144
 21
19.4535240969
  0
LINE
  5
22B
100
AcDbEntity
  8
0
100
AcDbLine
 62
7
  6
CONTINUOUS
 10
-3.7495877578
 20
17.8599401498
 11
-0.9419202104
 21
19.0321076848
  0
LINE
  5
22C
100
AcDbEntity
  8
0
100
AcDbLine
 62
253
  6
CONTINUOUS
 10
-3.6544060997
 20
17.8055497223
 11
-0.8472019028
 21
18.977523814
  0
LINE
  5
22D
100
AcDbEntity
  8
0
100
AcDbLine
 62
7
  6
CONTINUOUS
 10
-2.9222001893
 20
21.0238925768
 11
2.6944685275
 21
23.3206139752
  0
LINE
  5
22E
100
AcDbEntity
  8
0
100
AcDbLine
 62
7
  6
CONTINUOUS
 10
2.6959471718
 20
22.6444091322
 11
0.7160084578
 21
21.836102537
  0
LINE
  5
22F
100
AcDbEntity
  8
0
100
AcDbLine
 62
7
  6
CONTINUOUS
 10
-3.7856075753
 20
19.6418279496
 11
2.7747133143
 21
22.321293918
  0
LINE
  5
230
100
AcDbEntity
  8
0
100
AcDbLine
 62
7
  6
CONTINUOUS
 10
-4.2274394144
 20
20.4918915473
 11
-2.9222001893
 21
21.0238925768
  0
LINE
  5
231
100
AcDbEntity
  8
0
100
AcDbLine
 62
7
  6
CONTINUOUS
 10
5.0867518759
 20
24.2947518861
 11
2.9421395908
 21
23.446910851
  0
LWPOLYLINE
  5
232
100
AcDbEntity
  8
0
100
AcDbPolyline
 62
7
  6
CONTINUOUS
 90
36
 70
0
 10
2.7610562988
 20
-31.7327317307
 10
2.7740185841
 20
-31.7482445517
 10
2.7973358699
 20
-31.7744384081
 10
2.8217355318
 20
-31.7997508794
 10
2.8472046873
 20
-31.8241573975
 10
2.8737635639
 20
-31.8476602893
 10
2.9013882913
 20
-31.8702188764
 10
2.930050038
 20
-31.8917917792
 10
2.9597699041
 20
-31.9123736164
 10
2.9905222916
 20
-31.9319228583
 10
3.0222794203
 20
-31.950400315
 10
3.0550686335
 20
-31.9677968564
 10
3.0888794135
 20
-31.9840775886
 10
3.1236713237
 20
-31.9991959752
 10
3.1594351997
 20
-32.0131215115
 10
3.1961596187
 20
-32.025821429
 10
3.2338045072
 20
-32.037255277
 10
3.2723231472
 20
-32.0473848734
 10
3.311689961
 20
-32.0561803914
 10
3.3518784707
 20
-32.0636139963
 10
3.3928456825
 20
-32.0696566276
 10
3.4345925657
 20
-32.0742861401
 10
3.4770693906
 20
-32.0774754905
 10
3.5201602344
 20
-32.0791995028
 10
3.5638546553
 20
-32.0794445235
 10
3.6081133568
 20
-32.0781969739
 10
3.6527761982
 20
-32.0754534247
 10
3.6978159908
 20
-32.0712138625
 10
3.7432083052
 20
-32.0654771779
 10
3.7887930807
 20
-32.0582646154
 10
3.8345431913
 20
-32.0495871142
 10
3.8804310679
 20
-32.0394536289
 10
3.926291718
 20
-32.0279095596
 10
3.9720519596
 20
-32.0149884051
 10
4.0177286712
 20
-32.0006988525
 10
4.0500424248
 20
-31.989750586
  0
LINE
  5
233
100
AcDbEntity
  8
0
100
AcDbLine
 62
7
  6
CONTINUOUS
 10
2.7611185185
 20
-31.7328079639
 11
-18.9408848301
 21
-5.1533906637
  0
LINE
  5
234
100
AcDbEntity
  8
0
100
AcDbLine
 62
253
  6
CONTINUOUS
 10
2.6241511693
 20
-31.3563918744
 11
-19.0760170542
 21
-4.7792221343
  0
LINE
  5
235
100
AcDbEntity
  8
0
100
AcDbLine
 62
7
  6
CONTINUOUS
 10
-2.9222001893
 20
21.0238925768
 11
-3.4520931588
 21
20.5543895213
  0
LINE
  5
236
100
AcDbEntity
  8
0
100
AcDbLine
 62
7
  6
CONTINUOUS
 10
-2.9222001893
 20
21.0238925768
 11
-3.7908436109
 21
20.2652972996
  0
LINE
  5
237
100
AcDbEntity
  8
0
100
AcDbLine
 62
7
  6
CONTINUOUS
 10
0.4702479128
 20
17.249690238
 11
8.011908415
 21
20.5082201303
  0
LINE
  5
238
100
AcDbEntity
  8
0
100
AcDbLine
 62
7
  6
CONTINUOUS
 10
8.011908415
 20
20.8349226703
 11
0.2591145316
 21
17.5082747639
  0
LINE
  5
239
100
AcDbEntity
  8
0
100
AcDbLine
 62
7
  6
CONTINUOUS
 10
-1.9370877578
 20
15.6400900704
 11
0.8705797896
 21
16.8122576054
  0
LINE
  5
23A
100
AcDbEntity
  8
0
100
AcDbLine
 62
253
  6
CONTINUOUS
 10
-1.8419060997
 20
15.5856996429
 11
0.9652980972
 21
16.7576737346
  0
LINE
  5
23B
100
AcDbEntity
  8
0
100
AcDbLine
 62
7
  6
CONTINUOUS
 10
7.1633629648
 20
21.7514331051
 11
-0.5365976894
 21
18.5971128967
  0
LINE
  5
23C
100
AcDbEntity
  8
0
100
AcDbLine
 62
253
  6
CONTINUOUS
 10
-2.7839266424
 20
16.7394344713
 11
0.0403015242
 21
17.8905585435
  0
LINE
  5
23D
100
AcDbEntity
  8
0
100
AcDbLine
 62
253
  6
CONTINUOUS
 10
-2.6589283558
 20
16.4095691888
 11
0.1652998107
 21
17.5606932611
  0
LINE
  5
23E
100
AcDbEntity
  8
0
100
AcDbLine
 62
7
  6
CONTINUOUS
 10
-13.3407724802
 20
29.1877679721
 11
-13.3407724802
 21
28.9836673344
  0
LINE
  5
23F
100
AcDbEntity
  8
0
100
AcDbLine
 62
253
  6
CONTINUOUS
 10
-13.3072788312
 20
29.0993796245
 11
-13.3072788312
 21
28.8952789867
  0
LINE
  5
240
100
AcDbEntity
  8
0
100
AcDbLine
 62
253
  6
CONTINUOUS
 10
-12.4367993739
 20
27.8291637357
 11
-12.4367993739
 21
28.0332643735
  0
LINE
  5
241
100
AcDbEntity
  8
0
100
AcDbLine
 62
253
  6
CONTINUOUS
 10
-12.0964283558
 20
27.7639982748
 11
-12.0964283558
 21
27.9680989126
  0
LINE
  5
242
100
AcDbEntity
  8
0
100
AcDbLine
 62
7
  6
CONTINUOUS
 10
0.1652998107
 20
17.2424927863
 11
-0.7033436109
 21
16.4838975092
  0
LINE
  5
243
100
AcDbEntity
  8
DRAFT
100
AcDbLine
 62
7
  6
CONTINUOUS
 10
8.0540792523
 20
20.2379620069
 11
1.2441715439
 21
16.4161249111
  0
LINE
  5
244
100
AcDbEntity
  8
0
100
AcDbLine
 62
7
  6
CONTINUOUS
 10
1.1091563891
 20
13.6469908875
 11
0.0222150658
 21
13.1622276745
  0
LINE
  5
245
100
AcDbEntity
  8
0
100
AcDbLine
 62
253
  6
CONTINUOUS
 10
-0.9714266424
 20
14.5195843919
 11
1.8528015242
 21
15.6707084641
  0
LINE
  5
246
100
AcDbEntity
  8
0
100
AcDbLine
 62
253
  6
CONTINUOUS
 10
-0.8464283558
 20
14.1897191094
 11
1.9777998107
 21
15.3408431817
  0
LINE
  5
247
100
AcDbEntity
  8
0
100
AcDbLine
 62
7
  6
CONTINUOUS
 10
7.5553284955
 20
-30.7643312249
 11
8.2735578097
 21
-31.643978894
  0
LINE
  5
248
100
AcDbEntity
  8
0
100
AcDbLine
 62
253
  6
CONTINUOUS
 10
7.5818357328
 20
-30.7550645109
 11
8.2507006261
 21
-31.5742533586
  0
LINE
  5
249
100
AcDbEntity
  8
0
100
AcDbLine
 62
253
  6
CONTINUOUS
 10
8.2507006261
 20
-31.3701527209
 11
7.7114780358
 21
-30.7097426189
  0
LINE
  5
24A
100
AcDbEntity
  8
0
100
AcDbLine
 62
253
  6
CONTINUOUS
 10
8.3589538016
 20
-31.1728654381
 11
7.9210074208
 21
-30.6364928544
  0
LINE
  5
24B
100
AcDbEntity
  8
0
100
AcDbLine
 62
253
  6
CONTINUOUS
 10
9.0104363678
 20
-30.6039189802
 11
8.7892120269
 21
-30.3329756033
  0
LINE
  5
24C
100
AcDbEntity
  8
0
100
AcDbLine
 62
253
  6
CONTINUOUS
 10
9.1193440477
 20
-30.4074332985
 11
8.9987414119
 21
-30.2597258388
  0
LINE
  5
24D
100
AcDbEntity
  8
0
100
AcDbLine
 62
253
  6
CONTINUOUS
 10
-11.5681559523
 20
26.996556973
 11
-11.5681559523
 21
27.5671382868
  0
LINE
  5
24E
100
AcDbEntity
  8
0
100
AcDbLine
 62
253
  6
CONTINUOUS
 10
-11.2277849342
 20
26.9406074776
 11
-11.2277849342
 21
27.5019728259
  0
LINE
  5
24F
100
AcDbEntity
  8
0
100
AcDbLine
 62
7
  6
CONTINUOUS
 10
-10.1408436109
 20
27.4253706907
 11
-10.1408436109
 21
28.0424272329
  0
LINE
  5
250
100
AcDbEntity
  8
0
100
AcDbLine
 62
7
  6
CONTINUOUS
 10
-9.2722001893
 20
29.1192229848
 11
-9.2722001893
 21
28.8010225101
  0
LINE
  5
251
100
AcDbEntity
  8
0
100
AcDbLine
 62
7
  6
CONTINUOUS
 10
-8.8673078413
 20
25.5288747717
 11
-8.8673078413
 21
24.5115813576
  0
LINE
  5
252
100
AcDbEntity
  8
0
100
AcDbLine
 62
253
  6
CONTINUOUS
 10
-8.8003205432
 20
25.2465755287
 11
-8.8003205432
 21
24.33230048
  0
LINE
  5
253
100
AcDbEntity
  8
0
100
AcDbLine
 62
7
  6
CONTINUOUS
 10
1.1091563891
 20
14.2640474298
 11
1.9777998107
 21
15.0226427069
  0
LINE
  5
254
100
AcDbEntity
  8
0
100
AcDbLine
 62
7
  6
CONTINUOUS
 10
2.6304283468
 20
12.092753178
 11
3.9277998107
 21
12.6343902077
  0
LINE
  5
255
100
AcDbEntity
  8
0
100
AcDbLine
 62
7
  6
CONTINUOUS
 10
9.9831141841
 20
14.3938825879
 11
4.3777998107
 21
12.0832550156
  0
LINE
  5
256
100
AcDbEntity
  8
0
100
AcDbLine
 62
7
  6
CONTINUOUS
 10
3.9277998107
 20
12.6343902077
 11
9.5785301742
 21
14.889394779
  0
LINE
  5
257
100
AcDbEntity
  8
0
100
AcDbLine
 62
7
  6
CONTINUOUS
 10
11.1728213386
 20
16.8408695247
 11
3.3441782121
 21
13.7298588433
  0
LINE
  5
258
100
AcDbEntity
  8
0
100
AcDbLine
 62
7
  6
CONTINUOUS
 10
11.1953389132
 20
16.9360324942
 11
3.2846938031
 21
13.8027120681
  0
LINE
  5
259
100
AcDbEntity
  8
0
100
AcDbLine
 62
7
  6
CONTINUOUS
 10
11.4152998107
 20
-30.1941698013
 11
10.9128564798
 21
-29.5788049086
  0
LINE
  5
25A
100
AcDbEntity
  8
0
100
AcDbLine
 62
7
  6
CONTINUOUS
 10
5.0068410677
 20
11.3128399622
 11
10.0644116784
 21
13.3952614445
  0
LINE
  5
25B
100
AcDbEntity
  8
0
100
AcDbLine
 62
7
  6
CONTINUOUS
 10
13.2494324275
 20
14.2975507438
 11
5.2568410677
 21
11.0066537443
  0
LINE
  5
25C
100
AcDbEntity
  8
0
100
AcDbLine
 62
7
  6
CONTINUOUS
 10
5.5365099758
 20
10.6641306834
 11
12.1559252563
 21
13.3738292675
  0
LINE
  5
25D
100
AcDbEntity
  8
0
100
AcDbLine
 62
253
  6
CONTINUOUS
 10
-4.9081814506
 20
19.5654230876
 11
-4.9081814506
 21
20.4796981363
  0
LINE
  5
25E
100
AcDbEntity
  8
0
100
AcDbLine
 62
253
  6
CONTINUOUS
 10
-4.2274394144
 20
19.4535240969
 11
-4.2274394144
 21
20.4918915473
  0
LINE
  5
25F
100
AcDbEntity
  8
0
100
AcDbLine
 62
7
  6
CONTINUOUS
 10
-3.9032724802
 20
17.6292382484
 11
-3.9032724802
 21
17.4251376106
  0
LINE
  5
260
100
AcDbEntity
  8
0
100
AcDbLine
 62
253
  6
CONTINUOUS
 10
-3.8697788312
 20
17.5408499007
 11
-3.8697788312
 21
17.336749263
  0
LINE
  5
261
100
AcDbEntity
  8
0
100
AcDbLine
 62
7
  6
CONTINUOUS
 10
-3.7908436109
 20
19.6482407573
 11
-3.7908436109
 21
20.2652972996
  0
LINE
  5
262
100
AcDbEntity
  8
0
100
AcDbLine
 62
7
  6
CONTINUOUS
 10
-3.7856075753
 20
19.6418279496
 11
-3.7856075753
 21
20.000409831
  0
LINE
  5
263
100
AcDbEntity
  8
0
100
AcDbLine
 62
253
  6
CONTINUOUS
 10
-2.9992993739
 20
16.270634012
 11
-2.9992993739
 21
16.4747346497
  0
LINE
  5
264
100
AcDbEntity
  8
0
100
AcDbLine
 62
253
  6
CONTINUOUS
 10
-2.6589283558
 20
16.2054685511
 11
-2.6589283558
 21
16.4095691888
  0
LINE
  5
265
100
AcDbEntity
  8
0
100
AcDbLine
 62
7
  6
CONTINUOUS
 10
8.3277998107
 20
7.2455127736
 11
13.9444685275
 21
9.542234172
  0
LINE
  5
266
100
AcDbEntity
  8
0
100
AcDbLine
 62
7
  6
CONTINUOUS
 10
13.9459471718
 20
8.8660293291
 11
11.9660084578
 21
8.0577227339
  0
LINE
  5
267
100
AcDbEntity
  8
0
100
AcDbLine
 62
7
  6
CONTINUOUS
 10
7.0225605856
 20
6.7135117441
 11
8.3277998107
 21
7.2455127736
  0
LINE
  5
268
100
AcDbEntity
  8
0
100
AcDbLine
 62
7
  6
CONTINUOUS
 10
13.5398845176
 20
10.0377463631
 11
7.8777998107
 21
7.7966479657
  0
LINE
  5
269
100
AcDbEntity
  8
0
100
AcDbLine
 62
7
  6
CONTINUOUS
 10
16.3367518759
 20
10.5163720829
 11
14.1921395908
 21
9.6685310478
  0
LINE
  5
26A
100
AcDbEntity
  8
0
100
AcDbLine
 62
7
  6
CONTINUOUS
 10
12.5350983467
 20
-0.4901709162
 11
10.8117744069
 21
-0.9586018764
  0
LINE
  5
26B
100
AcDbEntity
  8
0
100
AcDbLine
 62
7
  6
CONTINUOUS
 10
12.5612802794
 20
-0.522237104
 11
10.8117744069
 21
-0.9586018764
  0
LINE
  5
26C
100
AcDbEntity
  8
0
100
AcDbLine
 62
253
  6
CONTINUOUS
 10
-2.1306559523
 20
15.4380272492
 11
-2.1306559523
 21
16.008608563
  0
LINE
  5
26D
100
AcDbEntity
  8
0
100
AcDbLine
 62
7
  6
CONTINUOUS
 10
-2.0907724802
 20
15.409388169
 11
-2.0907724802
 21
15.2052875312
  0
LINE
  5
26E
100
AcDbEntity
  8
0
100
AcDbLine
 62
253
  6
CONTINUOUS
 10
-2.0572788312
 20
15.3209998213
 11
-2.0572788312
 21
15.1168991836
  0
LINE
  5
26F
100
AcDbEntity
  8
0
100
AcDbLine
 62
253
  6
CONTINUOUS
 10
-1.7902849342
 20
15.7013784889
 11
-1.7902849342
 21
15.9434431021
  0
LINE
  5
270
100
AcDbEntity
  8
0
100
AcDbLine
 62
253
  6
CONTINUOUS
 10
-1.1867993739
 20
14.0507839326
 11
-1.1867993739
 21
14.2548845703
  0
LINE
  5
271
100
AcDbEntity
  8
0
100
AcDbLine
 62
253
  6
CONTINUOUS
 10
-1.1855883216
 20
27.1736412477
 11
-1.1855883216
 21
28.1990600895
  0
LINE
  5
272
100
AcDbEntity
  8
0
100
AcDbLine
 62
7
  6
CONTINUOUS
 10
-0.9866636325
 20
27.4183247333
 11
-0.9866636325
 21
28.258472367
  0
LINE
  5
273
100
AcDbEntity
  8
0
100
AcDbLine
 62
253
  6
CONTINUOUS
 10
-0.8464283558
 20
13.9856184717
 11
-0.8464283558
 21
14.1897191094
  0
LINE
  5
274
100
AcDbEntity
  8
0
100
AcDbLine
 62
7
  6
CONTINUOUS
 10
-0.7033436109
 20
16.1551634582
 11
-0.7033436109
 21
16.4838975092
  0
LINE
  5
275
100
AcDbEntity
  8
0
100
AcDbLine
 62
253
  6
CONTINUOUS
 10
-0.3181559523
 20
13.2181771698
 11
-0.3181559523
 21
13.7887584836
  0
LINE
  5
276
100
AcDbEntity
  8
0
100
AcDbLine
 62
253
  6
CONTINUOUS
 10
0.0222150658
 20
13.1622276745
 11
0.0222150658
 21
13.7235930227
  0
LINE
  5
277
100
AcDbEntity
  8
0
100
AcDbLine
 62
7
  6
CONTINUOUS
 10
0.1652998107
 20
17.5606932611
 11
0.1652998107
 21
17.2424927863
  0
LINE
  5
278
100
AcDbEntity
  8
0
100
AcDbLine
 62
7
  6
CONTINUOUS
 10
8.3277998107
 20
7.2455127736
 11
7.7979068412
 21
6.7760097182
  0
LINE
  5
279
100
AcDbEntity
  8
0
100
AcDbLine
 62
7
  6
CONTINUOUS
 10
8.3277998107
 20
7.2455127736
 11
7.4591563891
 21
6.4869174964
  0
LINE
  5
27A
100
AcDbEntity
  8
0
100
AcDbLine
 62
7
  6
CONTINUOUS
 10
7.4591563891
 20
5.8698609542
 11
7.0225605856
 21
5.6751442938
  0
LINE
  5
27B
100
AcDbEntity
  8
0
100
AcDbLine
 62
7
  6
CONTINUOUS
 10
7.5004122422
 20
4.0815603466
 11
10.3080797896
 21
5.2537278817
  0
LINE
  5
27C
100
AcDbEntity
  8
0
100
AcDbLine
 62
253
  6
CONTINUOUS
 10
7.5955939003
 20
4.0271699191
 11
10.4027980972
 21
5.1991440109
  0
LINE
  5
27D
100
AcDbEntity
  8
0
100
AcDbLine
 62
7
  6
CONTINUOUS
 10
18.4133629648
 20
7.973053302
 11
10.7134023106
 21
4.8187330935
  0
LINE
  5
27E
100
AcDbEntity
  8
0
100
AcDbLine
 62
7
  6
CONTINUOUS
 10
7.4643924247
 20
5.8634481464
 11
14.0247133143
 21
8.5429141148
  0
LINE
  5
27F
100
AcDbEntity
  8
0
100
AcDbLine
 62
7
  6
CONTINUOUS
 10
1.1091563891
 20
13.6469908875
 11
1.1091563891
 21
14.2640474298
  0
LINE
  5
280
100
AcDbEntity
  8
0
100
AcDbLine
 62
7
  6
CONTINUOUS
 10
1.9777998107
 20
15.3408431817
 11
1.9777998107
 21
15.0226427069
  0
LINE
  5
281
100
AcDbEntity
  8
0
100
AcDbLine
 62
7
  6
CONTINUOUS
 10
2.3826921587
 20
11.7504949686
 11
2.3826921587
 21
10.7332015545
  0
LINE
  5
282
100
AcDbEntity
  8
0
100
AcDbLine
 62
253
  6
CONTINUOUS
 10
2.4496794568
 20
11.4681957255
 11
2.4496794568
 21
10.5539206769
  0
LINE
  5
283
100
AcDbEntity
  8
0
100
AcDbLine
 62
253
  6
CONTINUOUS
 10
2.7747133143
 20
22.321293918
 11
2.7747133143
 21
23.3469081011
  0
LINE
  5
284
100
AcDbEntity
  8
0
100
AcDbLine
 62
7
  6
CONTINUOUS
 10
2.8560814795
 20
27.725645247
 11
2.8560814795
 21
27.38200058
  0
LINE
  5
285
100
AcDbEntity
  8
0
100
AcDbLine
 62
7
  6
CONTINUOUS
 10
2.9748541598
 20
22.5664762485
 11
2.9748541598
 21
23.4066159343
  0
LINE
  5
286
100
AcDbEntity
  8
0
100
AcDbLine
 62
7
  6
CONTINUOUS
 10
10.5466563891
 20
2.0884611637
 11
9.4597150658
 21
1.6036979507
  0
LINE
  5
287
100
AcDbEntity
  8
0
100
AcDbLine
 62
253
  6
CONTINUOUS
 10
10.5619647068
 20
2.0697123802
 11
3.8623792429
 21
-0.8400484446
  0
LINE
  5
288
100
AcDbEntity
  8
0
100
AcDbLine
 62
253
  6
CONTINUOUS
 10
10.8117744069
 20
1.4100440177
 11
4.1274399262
 21
-1.4930930072
  0
LINE
  5
289
100
AcDbEntity
  8
0
100
AcDbLine
 62
7
  6
CONTINUOUS
 10
19.261908415
 20
6.7298403272
 11
11.1330005143
 21
3.2175780902
  0
LINE
  5
28A
100
AcDbEntity
  8
0
100
AcDbLine
 62
7
  6
CONTINUOUS
 10
19.261908415
 20
7.0565428672
 11
11.4152998107
 21
3.6896399831
  0
LINE
  5
28B
100
AcDbEntity
  8
0
100
AcDbLine
 62
253
  6
CONTINUOUS
 10
11.4234395499
 20
2.4247252198
 11
10.56177758
 21
2.0699415628
  0
LINE
  5
28C
100
AcDbEntity
  8
0
100
AcDbLine
 62
253
  6
CONTINUOUS
 10
11.6734363768
 20
1.7650014639
 11
10.8117744069
 21
1.4102178069
  0
LINE
  5
28D
100
AcDbEntity
  8
0
100
AcDbLine
 62
253
  6
CONTINUOUS
 10
8.4660733576
 20
2.9610546681
 11
11.2903015242
 21
4.1121787404
  0
LINE
  5
28E
100
AcDbEntity
  8
0
100
AcDbLine
 62
253
  6
CONTINUOUS
 10
8.5910716442
 20
2.6311893857
 11
11.4152998107
 21
3.7823134579
  0
LINE
  5
28F
100
AcDbEntity
  8
0
100
AcDbLine
 62
7
  6
CONTINUOUS
 10
11.6734363768
 20
1.312873443
 11
11.802552747
 21
1.3634813388
  0
LINE
  5
290
100
AcDbEntity
  8
0
100
AcDbLine
 62
7
  6
CONTINUOUS
 10
9.1020621515
 20
2.2877701318
 11
8.4505795853
 21
2.3311961096
  0
LINE
  5
291
100
AcDbEntity
  8
0
100
AcDbLine
 62
253
  6
CONTINUOUS
 10
9.2425542104
 20
2.3836627701
 11
8.5910716442
 21
2.4270887479
  0
LWPOLYLINE
  5
292
100
AcDbEntity
  8
0
100
AcDbPolyline
 62
7
  6
CONTINUOUS
 90
6
 70
0
 10
9.1020695612
 20
2.2877695382
 10
9.1048018741
 20
2.2875472068
 10
9.1078828405
 20
2.2871874599
 10
9.110319505
 20
2.2867996948
 10
9.1121215408
 20
2.2864331487
 10
9.1123278637
 20
2.2863854515
  0
LINE
  5
293
100
AcDbEntity
  8
0
100
AcDbLine
 62
253
  6
CONTINUOUS
 10
-19.0760170542
 20
24.2294114258
 11
2.6241511693
 21
-2.3477583144
  0
LINE
  5
294
100
AcDbEntity
  8
DRAFT
100
AcDbLine
 62
7
  6
CONTINUOUS
 10
19.4374020795
 20
-22.4801186625
 11
19.3040792523
 21
-22.3168322138
  0
LINE
  5
295
100
AcDbEntity
  8
DRAFT
100
AcDbLine
 62
7
  6
CONTINUOUS
 10
12.5612802794
 20
-13.3543485485
 11
18.7616153247
 21
-20.948177096
  0
LINE
  5
296
100
AcDbEntity
  8
DRAFT
100
AcDbLine
 62
7
  6
CONTINUOUS
 10
18.9040792523
 20
-20.9105270264
 11
19.3040792523
 21
-21.400424975
  0
LINE
  5
297
100
AcDbEntity
  8
0
100
AcDbLine
 62
253
  6
CONTINUOUS
 10
-17.8543159534
 20
25.7573626205
 11
3.8623792429
 21
-0.8400484446
  0
LINE
  5
298
100
AcDbEntity
  8
0
100
AcDbLine
 62
253
  6
CONTINUOUS
 10
6.3418185494
 20
5.7870432844
 11
6.3418185494
 21
6.7013183331
  0
LINE
  5
299
100
AcDbEntity
  8
0
100
AcDbLine
 62
7
  6
CONTINUOUS
 10
11.4152998107
 20
3.4641129832
 11
10.5466563891
 21
2.705517706
  0
LINE
  5
29A
100
AcDbEntity
  8
DRAFT
100
AcDbLine
 62
7
  6
CONTINUOUS
 10
19.3040792523
 20
6.4595822037
 11
11.5901593951
 21
2.130397973
  0
LINE
  5
29B
100
AcDbEntity
  8
0
100
AcDbLine
 62
7
  6
CONTINUOUS
 10
11.6734363768
 20
-0.5581782261
 11
12.5350983467
 21
-0.1931099148
  0
LINE
  5
29C
100
AcDbEntity
  8
0
100
AcDbLine
 62
7
  6
CONTINUOUS
 10
11.6734363768
 20
0.8759486828
 11
12.0688252145
 21
1.0373654998
  0
LINE
  5
29D
100
AcDbEntity
  8
0
100
AcDbLine
 62
253
  6
CONTINUOUS
 10
7.0225605856
 20
5.6751442938
 11
7.0225605856
 21
6.7135117441
  0
LINE
  5
29E
100
AcDbEntity
  8
0
100
AcDbLine
 62
7
  6
CONTINUOUS
 10
7.3467275198
 20
3.8508584452
 11
7.3467275198
 21
3.6467578075
  0
LINE
  5
29F
100
AcDbEntity
  8
0
100
AcDbLine
 62
253
  6
CONTINUOUS
 10
7.3802211688
 20
3.7624700976
 11
7.3802211688
 21
3.5583694598
  0
LINE
  5
2A0
100
AcDbEntity
  8
0
100
AcDbLine
 62
7
  6
CONTINUOUS
 10
7.4591563891
 20
5.8698609542
 11
7.4591563891
 21
6.4869174964
  0
LINE
  5
2A1
100
AcDbEntity
  8
0
100
AcDbLine
 62
7
  6
CONTINUOUS
 10
7.4643924247
 20
5.8634481464
 11
7.4643924247
 21
6.2220300279
  0
LINE
  5
2A2
100
AcDbEntity
  8
0
100
AcDbLine
 62
253
  6
CONTINUOUS
 10
8.011908415
 20
20.8349226703
 11
8.011908415
 21
20.5082201303
  0
LINE
  5
2A3
100
AcDbEntity
  8
DRAFT
100
AcDbLine
 62
7
  6
CONTINUOUS
 10
8.0540792523
 20
20.5286673483
 11
8.0540792523
 21
20.2379620069
  0
LINE
  5
2A4
100
AcDbEntity
  8
0
100
AcDbLine
 62
253
  6
CONTINUOUS
 10
8.2507006261
 20
-31.5742533586
 11
8.2507006261
 21
-31.3701527209
  0
LINE
  5
2A5
100
AcDbEntity
  8
0
100
AcDbLine
 62
253
  6
CONTINUOUS
 10
8.2507006261
 20
2.4922542088
 11
8.2507006261
 21
2.6963548466
  0
LINE
  5
2A6
100
AcDbEntity
  8
0
100
AcDbLine
 62
7
  6
CONTINUOUS
 10
8.2543893776
 20
21.2734449961
 11
8.2543893776
 21
20.813888257
  0
LINE
  5
2A7
100
AcDbEntity
  8
0
100
AcDbLine
 62
253
  6
CONTINUOUS
 10
8.5910716442
 20
-31.6394188195
 11
8.5910716442
 21
-31.4353181818
  0
LINE
  5
2A8
100
AcDbEntity
  8
0
100
AcDbLine
 62
253
  6
CONTINUOUS
 10
8.5910716442
 20
2.4270887479
 11
8.5910716442
 21
2.6311893857
  0
LINE
  5
2A9
100
AcDbEntity
  8
0
100
AcDbLine
 62
253
  6
CONTINUOUS
 10
9.1193440477
 20
-30.4074332985
 11
9.1193440477
 21
-30.2175641407
  0
LINE
  5
2AA
100
AcDbEntity
  8
0
100
AcDbLine
 62
253
  6
CONTINUOUS
 10
9.1193440477
 20
1.659647446
 11
9.1193440477
 21
2.2302287599
  0
LINE
  5
2AB
100
AcDbEntity
  8
0
100
AcDbLine
 62
253
  6
CONTINUOUS
 10
9.4597150658
 20
-30.4725987594
 11
9.4597150658
 21
-30.0985732082
  0
LINE
  5
2AC
100
AcDbEntity
  8
0
100
AcDbLine
 62
253
  6
CONTINUOUS
 10
9.4597150658
 20
1.6036979507
 11
9.4597150658
 21
2.165063299
  0
LINE
  5
2AD
100
AcDbEntity
  8
0
100
AcDbLine
 62
7
  6
CONTINUOUS
 10
-13.2844216476
 20
28.8255534514
 11
-12.4139421903
 21
27.7594382004
  0
LINE
  5
2AE
100
AcDbEntity
  8
0
100
AcDbLine
 62
7
  6
CONTINUOUS
 10
-3.8469216476
 20
17.2670237276
 11
-2.9764421903
 21
16.2009084766
  0
LINE
  5
2AF
100
AcDbEntity
  8
0
100
AcDbLine
 62
7
  6
CONTINUOUS
 10
-2.0344216476
 20
15.0471736482
 11
-1.1639421903
 21
13.9810583972
  0
LINE
  5
2B0
100
AcDbEntity
  8
0
100
AcDbLine
 62
7
  6
CONTINUOUS
 10
7.4030783524
 20
3.4886439245
 11
8.2735578097
 21
2.4225286735
  0
LINE
  5
2B1
100
AcDbEntity
  8
0
100
AcDbLine
 62
253
  6
CONTINUOUS
 10
-13.3072788312
 20
28.8952789867
 11
-12.4367993739
 21
27.8291637357
  0
LINE
  5
2B2
100
AcDbEntity
  8
0
100
AcDbLine
 62
253
  6
CONTINUOUS
 10
-3.8697788312
 20
17.336749263
 11
-2.9992993739
 21
16.270634012
  0
LINE
  5
2B3
100
AcDbEntity
  8
0
100
AcDbLine
 62
253
  6
CONTINUOUS
 10
-2.0572788312
 20
15.1168991836
 11
-1.1867993739
 21
14.0507839326
  0
LINE
  5
2B4
100
AcDbEntity
  8
0
100
AcDbLine
 62
253
  6
CONTINUOUS
 10
7.3802211688
 20
3.5583694598
 11
8.2507006261
 21
2.4922542088
  0
LINE
  5
2B5
100
AcDbEntity
  8
0
100
AcDbLine
 62
253
  6
CONTINUOUS
 10
8.2507006261
 20
2.6963548466
 11
7.3802211688
 21
3.7624700976
  0
LINE
  5
2B6
100
AcDbEntity
  8
0
100
AcDbLine
 62
253
  6
CONTINUOUS
 10
-1.1867993739
 20
14.2548845703
 11
-2.0572788312
 21
15.3209998213
  0
LINE
  5
2B7
100
AcDbEntity
  8
0
100
AcDbLine
 62
253
  6
CONTINUOUS
 10
-2.9992993739
 20
16.4747346497
 11
-3.8697788312
 21
17.5408499007
  0
LINE
  5
2B8
100
AcDbEntity
  8
0
100
AcDbLine
 62
253
  6
CONTINUOUS
 10
-12.4367993739
 20
28.0332643735
 11
-13.3072788312
 21
29.0993796245
  0
LINE
  5
2B9
100
AcDbEntity
  8
0
100
AcDbLine
 62
7
  6
CONTINUOUS
 10
-12.1095404413
 20
27.6596148493
 11
-11.5681559523
 21
26.996556973
  0
LINE
  5
2BA
100
AcDbEntity
  8
0
100
AcDbLine
 62
7
  6
CONTINUOUS
 10
-2.6720404413
 20
16.1010851255
 11
-2.1306559523
 21
15.4380272492
  0
LINE
  5
2BB
100
AcDbEntity
  8
0
100
AcDbLine
 62
7
  6
CONTINUOUS
 10
9.1193440477
 20
1.659647446
 11
8.5779595587
 21
2.3227053223
  0
LINE
  5
2BC
100
AcDbEntity
  8
0
100
AcDbLine
 62
7
  6
CONTINUOUS
 10
-0.3181559523
 20
13.2181771698
 11
-0.8595404413
 21
13.8812350461
  0
LINE
  5
2BD
100
AcDbEntity
  8
0
100
AcDbLine
 62
253
  6
CONTINUOUS
 10
8.4660733576
 20
2.9610546681
 11
7.5955939003
 21
4.0271699191
  0
LINE
  5
2BE
100
AcDbEntity
  8
0
100
AcDbLine
 62
253
  6
CONTINUOUS
 10
-0.9714266424
 20
14.5195843919
 11
-1.8419060997
 21
15.5856996429
  0
LINE
  5
2BF
100
AcDbEntity
  8
0
100
AcDbLine
 62
253
  6
CONTINUOUS
 10
-2.7839266424
 20
16.7394344713
 11
-3.6544060997
 21
17.8055497223
  0
LINE
  5
2C0
100
AcDbEntity
  8
0
100
AcDbLine
 62
253
  6
CONTINUOUS
 10
-12.2214266424
 20
28.297964195
 11
-13.0919060997
 21
29.364079446
  0
LINE
  5
2C1
100
AcDbEntity
  8
0
100
AcDbLine
 62
253
  6
CONTINUOUS
 10
-11.6168477822
 20
27.6267733557
 11
-11.5681559523
 21
27.5671382868
  0
LINE
  5
2C2
100
AcDbEntity
  8
0
100
AcDbLine
 62
253
  6
CONTINUOUS
 10
-2.1793477822
 20
16.068243632
 11
-2.1306559523
 21
16.008608563
  0
LINE
  5
2C3
100
AcDbEntity
  8
0
100
AcDbLine
 62
253
  6
CONTINUOUS
 10
-0.3668477822
 20
13.8483935526
 11
-0.3181559523
 21
13.7887584836
  0
LINE
  5
2C4
100
AcDbEntity
  8
0
100
AcDbLine
 62
253
  6
CONTINUOUS
 10
9.0706522178
 20
2.2898638288
 11
9.1193440477
 21
2.2302287599
  0
LINE
  5
2C5
100
AcDbEntity
  8
0
100
AcDbLine
 62
7
  6
CONTINUOUS
 10
-8.8003205432
 20
24.33230048
 11
-4.9081814506
 21
19.5654230876
  0
LINE
  5
2C6
100
AcDbEntity
  8
0
100
AcDbLine
 62
7
  6
CONTINUOUS
 10
2.4496794568
 20
10.5539206769
 11
6.3418185494
 21
5.7870432844
  0
LINE
  5
2C7
100
AcDbEntity
  8
0
100
AcDbLine
 62
253
  6
CONTINUOUS
 10
6.3418185494
 20
6.7013183331
 11
2.4496794568
 21
11.4681957255
  0
LINE
  5
2C8
100
AcDbEntity
  8
0
100
AcDbLine
 62
253
  6
CONTINUOUS
 10
-4.9081814506
 20
20.4796981363
 11
-8.8003205432
 21
25.2465755287
  0
LINE
  5
2C9
100
AcDbEntity
  8
0
100
AcDbLine
 62
7
  6
CONTINUOUS
 10
12.5612802794
 20
-0.522237104
 11
12.5350983467
 21
-0.4901709162
  0
LINE
  5
2CA
100
AcDbEntity
  8
0
100
AcDbLine
 62
253
  6
CONTINUOUS
 10
6.7137229644
 20
6.6686114842
 11
2.4223714124
 21
11.9244222889
  0
LINE
  5
2CB
100
AcDbEntity
  8
0
100
AcDbLine
 62
253
  6
CONTINUOUS
 10
-4.5362770356
 20
20.4469912874
 11
-8.8276285876
 21
25.7028020921
  0
LINE
  5
2CC
100
AcDbEntity
  8
0
100
AcDbLine
 62
7
  6
CONTINUOUS
 10
-10.1408436109
 20
27.4253706907
 11
-8.782631961
 21
25.7619079382
  0
LINE
  5
2CD
100
AcDbEntity
  8
0
100
AcDbLine
 62
7
  6
CONTINUOUS
 10
-3.7908436109
 20
19.6482407573
 11
-2.6914109708
 21
18.30171627
  0
LINE
  5
2CE
100
AcDbEntity
  8
0
100
AcDbLine
 62
7
  6
CONTINUOUS
 10
1.1091563891
 20
13.6469908875
 11
2.467368039
 21
11.983528135
  0
LINE
  5
2CF
100
AcDbEntity
  8
0
100
AcDbLine
 62
7
  6
CONTINUOUS
 10
7.4591563891
 20
5.8698609542
 11
8.5585890292
 21
4.5233364668
  0
LINE
  5
2D0
100
AcDbEntity
  8
0
100
AcDbLine
 62
7
  6
CONTINUOUS
 10
10.5466563891
 20
2.0884611637
 11
10.5619647068
 21
2.0697123802
  0
LINE
  5
2D1
100
AcDbEntity
  8
0
100
AcDbLine
 62
253
  6
CONTINUOUS
 10
-12.4139695935
 20
27.7594717782
 11
-12.4139422162
 21
27.7594382321
  0
LINE
  5
2D2
100
AcDbEntity
  8
0
100
AcDbLine
 62
253
  6
CONTINUOUS
 10
-2.9764695935
 20
16.2009420544
 11
-2.9764422162
 21
16.2009085084
  0
LINE
  5
2D3
100
AcDbEntity
  8
0
100
AcDbLine
 62
253
  6
CONTINUOUS
 10
-1.1639695935
 20
13.981091975
 11
-1.1639422162
 21
13.981058429
  0
LINE
  5
2D4
100
AcDbEntity
  8
0
100
AcDbLine
 62
253
  6
CONTINUOUS
 10
8.2735304065
 20
2.4225622513
 11
8.2735577838
 21
2.4225287052
  0
LINE
  5
2D5
100
AcDbEntity
  8
0
100
AcDbLine
 62
253
  6
CONTINUOUS
 10
10.0644116784
 20
13.3952614445
 11
10.0644116784
 21
14.4206802864
  0
LINE
  5
2D6
100
AcDbEntity
  8
0
100
AcDbLine
 62
7
  6
CONTINUOUS
 10
10.2633363675
 20
13.6399449302
 11
10.2633363675
 21
14.4800925638
  0
LINE
  5
2D7
100
AcDbEntity
  8
0
100
AcDbLine
 62
7
  6
CONTINUOUS
 10
10.5466563891
 20
-30.1362684976
 11
10.5466563891
 21
-29.7185873844
  0
LINE
  5
2D8
100
AcDbEntity
  8
0
100
AcDbLine
 62
7
  6
CONTINUOUS
 10
10.5466563891
 20
2.0884611637
 11
10.5466563891
 21
2.705517706
  0
LINE
  5
2D9
100
AcDbEntity
  8
0
100
AcDbLine
 62
7
  6
CONTINUOUS
 10
10.8117744069
 20
1.4102178069
 11
10.8117744069
 21
-0.9586018764
  0
LINE
  5
2DA
100
AcDbEntity
  8
0
100
AcDbLine
 62
7
  6
CONTINUOUS
 10
10.8117744069
 20
-29.4903724637
 11
10.8117744069
 21
-27.1215527803
  0
LINE
  5
2DB
100
AcDbEntity
  8
0
100
AcDbLine
 62
7
  6
CONTINUOUS
 10
11.4152998107
 20
3.7823134579
 11
11.4152998107
 21
3.4641129832
  0
LINE
  5
2DC
100
AcDbEntity
  8
0
100
AcDbLine
 62
7
  6
CONTINUOUS
 10
11.4152998107
 20
-30.1941698013
 11
11.4152998107
 21
-30.512370276
  0
LINE
  5
2DD
100
AcDbEntity
  8
0
100
AcDbLine
 62
7
  6
CONTINUOUS
 10
11.6734363768
 20
-29.1273611529
 11
11.6734363768
 21
-26.8041814629
  0
LINE
  5
2DE
100
AcDbEntity
  8
0
100
AcDbLine
 62
7
  6
CONTINUOUS
 10
11.6734363768
 20
-0.5581782261
 11
11.6734363768
 21
1.7650014639
  0
LINE
  5
2DF
100
AcDbEntity
  8
0
100
AcDbLine
 62
7
  6
CONTINUOUS
 10
12.5350983467
 20
-0.1931099148
 11
12.5350983467
 21
-0.4901709162
  0
LINE
  5
2E0
100
AcDbEntity
  8
0
100
AcDbLine
 62
7
  6
CONTINUOUS
 10
12.5350983467
 20
-26.200453965
 11
12.5350983467
 21
-26.4514548064
  0
LINE
  5
2E1
100
AcDbEntity
  8
0
100
AcDbLine
 62
7
  6
CONTINUOUS
 10
12.1559252563
 20
13.3738292675
 11
14.1060814795
 21
13.6036207769
  0
LINE
  5
2E2
100
AcDbEntity
  8
0
100
AcDbLine
 62
7
  6
CONTINUOUS
 10
7.5091213377
 20
6.4257231819
 11
7.4591563891
 21
6.4869174964
  0
LINE
  5
2E3
100
AcDbEntity
  8
0
100
AcDbLine
 62
7
  6
CONTINUOUS
 10
-3.7408786623
 20
20.2041029851
 11
-3.7908436109
 21
20.2652972996
  0
LINE
  5
2E4
100
AcDbEntity
  8
0
100
AcDbLine
 62
7
  6
CONTINUOUS
 10
11.802552747
 20
1.3634813388
 11
12.0688252145
 21
1.0373654998
  0
LINE
  5
2E5
100
AcDbEntity
  8
0
100
AcDbLine
 62
7
  6
CONTINUOUS
 10
-9.7628539417
 20
28.3725295174
 11
-8.7751091042
 21
27.1627940934
  0
LINE
  5
2E6
100
AcDbEntity
  8
0
100
AcDbLine
 62
7
  6
CONTINUOUS
 10
10.9246460583
 20
3.0356199905
 11
11.4234395499
 21
2.4247252198
  0
LINE
  5
2E7
100
AcDbEntity
  8
0
100
AcDbLine
 62
7
  6
CONTINUOUS
 10
-7.3222001893
 20
26.4127700109
 11
-2.9222001893
 21
21.0238925768
  0
LINE
  5
2E8
100
AcDbEntity
  8
0
100
AcDbLine
 62
7
  6
CONTINUOUS
 10
3.9277998107
 20
12.6343902077
 11
8.3277998107
 21
7.2455127736
  0
LINE
  5
2E9
100
AcDbEntity
  8
0
100
AcDbLine
 62
7
  6
CONTINUOUS
 10
3.3441782121
 20
13.7298588433
 11
1.9696941066
 21
15.4132512023
  0
LINE
  5
2EA
100
AcDbEntity
  8
0
100
AcDbLine
 62
7
  6
CONTINUOUS
 10
0.8383847332
 20
16.7988165554
 11
0.1571941066
 21
17.6331012817
  0
LINE
  5
2EB
100
AcDbEntity
  8
0
100
AcDbLine
 62
7
  6
CONTINUOUS
 10
-10.2847019028
 20
30.5360535378
 11
-9.3971984758
 21
29.4490882673
  0
LINE
  5
2EC
100
AcDbEntity
  8
0
100
AcDbLine
 62
7
  6
CONTINUOUS
 10
0.9652980972
 20
16.7576737346
 11
1.8528015242
 21
15.6707084641
  0
LINE
  5
2ED
100
AcDbEntity
  8
0
100
AcDbLine
 62
7
  6
CONTINUOUS
 10
11.2903015242
 20
4.1121787404
 11
10.4027980972
 21
5.1991440109
  0
LINE
  5
2EE
100
AcDbEntity
  8
0
100
AcDbLine
 62
7
  6
CONTINUOUS
 10
0.0403015242
 20
17.8905585435
 11
-0.8472019028
 21
18.977523814
  0
LINE
  5
2EF
100
AcDbEntity
  8
0
100
AcDbLine
 62
7
  6
CONTINUOUS
 10
12.0688252145
 20
1.0373654998
 11
12.5350983467
 21
-0.1931099148
  0
LINE
  5
2F0
100
AcDbEntity
  8
0
100
AcDbLine
 62
7
  6
CONTINUOUS
 10
12.5612802794
 20
-0.522237104
 11
12.5612802794
 21
-26.1864599929
  0
LINE
  5
2F1
100
AcDbEntity
  8
0
100
AcDbLine
 62
253
  6
CONTINUOUS
 10
14.0247133143
 20
8.5429141148
 11
14.0247133143
 21
9.568528298
  0
LINE
  5
2F2
100
AcDbEntity
  8
0
100
AcDbLine
 62
7
  6
CONTINUOUS
 10
14.1060814795
 20
13.9472654438
 11
14.1060814795
 21
13.6036207769
  0
LINE
  5
2F3
100
AcDbEntity
  8
0
100
AcDbLine
 62
7
  6
CONTINUOUS
 10
14.2248541598
 20
8.7880964454
 11
14.2248541598
 21
9.6282361311
  0
LINE
  5
2F4
100
AcDbEntity
  8
0
100
AcDbLine
 62
7
  6
CONTINUOUS
 10
-0.3354378485
 20
13.8462998556
 11
-0.9869204147
 21
13.8897258334
  0
LINE
  5
2F5
100
AcDbEntity
  8
0
100
AcDbLine
 62
253
  6
CONTINUOUS
 10
-0.1949457896
 20
13.9421924939
 11
-0.8464283558
 21
13.9856184717
  0
LWPOLYLINE
  5
2F6
100
AcDbEntity
  8
0
100
AcDbPolyline
 62
7
  6
CONTINUOUS
 90
6
 70
0
 10
-0.3354304388
 20
13.8462992619
 10
-0.3326981259
 20
13.8460769305
 10
-0.3296171595
 20
13.8457171836
 10
-0.327180495
 20
13.8453294185
 10
-0.3253784592
 20
13.8449628725
 10
-0.3251721363
 20
13.8449151752
  0
LINE
  5
2F7
100
AcDbEntity
  8
0
100
AcDbLine
 62
7
  6
CONTINUOUS
 10
-2.1479378485
 20
16.066149935
 11
-2.7994204147
 21
16.1095759128
  0
LINE
  5
2F8
100
AcDbEntity
  8
0
100
AcDbLine
 62
253
  6
CONTINUOUS
 10
-2.0074457896
 20
16.1620425733
 11
-2.6589283558
 21
16.2054685511
  0
LWPOLYLINE
  5
2F9
100
AcDbEntity
  8
0
100
AcDbPolyline
 62
7
  6
CONTINUOUS
 90
6
 70
0
 10
-2.1479304388
 20
16.0661493413
 10
-2.1451981259
 20
16.0659270099
 10
-2.1421171595
 20
16.065567263
 10
-2.139680495
 20
16.0651794979
 10
-2.1378784592
 20
16.0648129519
 10
-2.1376721363
 20
16.0647652546
  0
LINE
  5
2FA
100
AcDbEntity
  8
0
100
AcDbLine
 62
7
  6
CONTINUOUS
 10
-1.6714698258
 20
28.6677745821
 11
-1.2668858159
 21
28.172262391
  0
LINE
  5
2FB
100
AcDbEntity
  8
0
100
AcDbLine
 62
7
  6
CONTINUOUS
 10
2.2898845176
 20
23.8161261663
 11
2.6944685275
 21
23.3206139752
  0
LINE
  5
2FC
100
AcDbEntity
  8
0
100
AcDbLine
 62
7
  6
CONTINUOUS
 10
9.5785301742
 20
14.889394779
 11
9.9831141841
 21
14.3938825879
  0
LINE
  5
2FD
100
AcDbEntity
  8
0
100
AcDbLine
 62
7
  6
CONTINUOUS
 10
13.5398845176
 20
10.0377463631
 11
13.9444685275
 21
9.542234172
  0
LINE
  5
2FE
100
AcDbEntity
  8
0
100
AcDbLine
 62
7
  6
CONTINUOUS
 10
-1.1861470637
 20
28.5030087588
 11
-0.9868393724
 21
28.258907686
  0
LINE
  5
2FF
100
AcDbEntity
  8
0
100
AcDbLine
 62
7
  6
CONTINUOUS
 10
2.7753659151
 20
23.6511660551
 11
2.9746736123
 21
23.407064975
  0
LINE
  5
300
100
AcDbEntity
  8
0
100
AcDbLine
 62
7
  6
CONTINUOUS
 10
10.0638529363
 20
14.7246289556
 11
10.2631606276
 21
14.4805278828
  0
LINE
  5
301
100
AcDbEntity
  8
0
100
AcDbLine
 62
7
  6
CONTINUOUS
 10
14.0253659151
 20
9.8727862519
 11
14.2246736123
 21
9.6286851718
  0
LINE
  5
302
100
AcDbEntity
  8
0
100
AcDbLine
 62
7
  6
CONTINUOUS
 10
14.9399143892
 20
9.9641528549
 11
12.1559252563
 21
13.3738292675
  0
LINE
  5
303
100
AcDbEntity
  8
0
100
AcDbLine
 62
7
  6
CONTINUOUS
 10
3.6899143892
 20
23.742532658
 11
0.9059252563
 21
27.1522090707
  0
LINE
  5
304
100
AcDbEntity
  8
0
100
AcDbLine
 62
253
  6
CONTINUOUS
 10
19.261908415
 20
-23.2836207375
 11
19.261908415
 21
-22.9569181975
  0
LINE
  5
305
100
AcDbEntity
  8
0
100
AcDbLine
 62
253
  6
CONTINUOUS
 10
19.261908415
 20
6.7298403272
 11
19.261908415
 21
7.0565428672
  0
LINE
  5
306
100
AcDbEntity
  8
DRAFT
100
AcDbLine
 62
7
  6
CONTINUOUS
 10
19.3040792523
 20
6.7502875452
 11
19.3040792523
 21
6.4595822037
  0
LINE
  5
307
100
AcDbEntity
  8
DRAFT
100
AcDbLine
 62
7
  6
CONTINUOUS
 10
19.3040792523
 20
-21.400424975
 11
19.3040792523
 21
-22.3168322138
  0
LINE
  5
308
100
AcDbEntity
  8
0
100
AcDbLine
 62
7
  6
CONTINUOUS
 10
19.5043893776
 20
-23.1160342523
 11
19.5043893776
 21
-22.6564775132
  0
LINE
  5
309
100
AcDbEntity
  8
0
100
AcDbLine
 62
7
  6
CONTINUOUS
 10
19.5043893776
 20
7.0355084539
 11
19.5043893776
 21
7.495065193
  0
LINE
  5
30A
100
AcDbEntity
  8
0
100
AcDbLine
 62
7
  6
CONTINUOUS
 10
19.5037811237
 20
-23.1562494201
 11
19.5043420312
 21
-23.1159775533
  0
LINE
  5
30B
100
AcDbEntity
  8
0
100
AcDbLine
 62
253
  6
CONTINUOUS
 10
-0.0771786614
 20
30.6192493279
 11
1.9994324275
 21
28.075930547
  0
LINE
  5
30C
100
AcDbEntity
  8
0
100
AcDbLine
 62
253
  6
CONTINUOUS
 10
5.0867518759
 20
24.2947518861
 11
7.1633629648
 21
21.7514331051
  0
LINE
  5
30D
100
AcDbEntity
  8
0
100
AcDbLine
 62
253
  6
CONTINUOUS
 10
11.1728213386
 20
16.8408695247
 11
13.2494324275
 21
14.2975507438
  0
LINE
  5
30E
100
AcDbEntity
  8
0
100
AcDbLine
 62
253
  6
CONTINUOUS
 10
16.3367518759
 20
10.5163720829
 11
18.4133629648
 21
7.973053302
  0
LINE
  5
30F
100
AcDbEntity
  8
0
100
AcDbLine
 62
7
  6
CONTINUOUS
 10
2.8560814795
 20
27.38200058
 11
5.3224191053
 21
24.3613662217
  0
LINE
  5
310
100
AcDbEntity
  8
0
100
AcDbLine
 62
7
  6
CONTINUOUS
 10
14.1060814795
 20
13.6036207769
 11
16.5724191053
 21
10.5829864186
  0
LINE
  5
311
100
AcDbEntity
  8
0
100
AcDbLine
 62
7
  6
CONTINUOUS
 10
0.4211443804
 20
30.8747472389
 11
2.7651170207
 21
28.0039787691
  0
LINE
  5
312
100
AcDbEntity
  8
0
100
AcDbLine
 62
7
  6
CONTINUOUS
 10
5.8601840149
 20
24.2133113413
 11
8.2041566552
 21
21.3425428714
  0
LINE
  5
313
100
AcDbEntity
  8
0
100
AcDbLine
 62
7
  6
CONTINUOUS
 10
11.6711443804
 20
17.0963674358
 11
14.0151170207
 21
14.2255989659
  0
LINE
  5
314
100
AcDbEntity
  8
0
100
AcDbLine
 62
7
  6
CONTINUOUS
 10
17.1101840149
 20
10.4349315381
 11
19.4541566552
 21
7.5641630683
  0
LINE
  5
315
100
AcDbEntity
  8
0
100
AcDbLine
 62
7
  6
CONTINUOUS
 10
0.9059252563
 20
27.1522090707
 11
2.8560814795
 21
27.38200058
  0
LINE
  5
316
100
AcDbEntity
  8
0
100
AcDbLine
 62
7
  6
CONTINUOUS
 10
-11.5854378485
 20
27.6246796587
 11
-12.2369204147
 21
27.6681056366
  0
LINE
  5
317
100
AcDbEntity
  8
0
100
AcDbLine
 62
253
  6
CONTINUOUS
 10
-11.4449457896
 20
27.720572297
 11
-12.0964283558
 21
27.7639982748
  0
LWPOLYLINE
  5
318
100
AcDbEntity
  8
0
100
AcDbPolyline
 62
7
  6
CONTINUOUS
 90
6
 70
0
 10
-11.5854304388
 20
27.6246790651
 10
-11.5826981259
 20
27.6244567337
 10
-11.5796171595
 20
27.6240969868
 10
-11.577180495
 20
27.6237092217
 10
-11.5753784592
 20
27.6233426756
 10
-11.5751721363
 20
27.6232949784
  0
LINE
  5
319
100
AcDbEntity
  8
0
100
AcDbLine
 62
253
  6
CONTINUOUS
 10
8.3589538016
 20
-31.1728654381
 11
9.0104363678
 21
-30.6039189802
  0
LINE
  5
31A
100
AcDbEntity
  8
0
100
AcDbLine
 62
253
  6
CONTINUOUS
 10
8.5910716442
 20
-31.4353181818
 11
9.2425542104
 21
-30.8663717239
  0
LINE
  5
31B
100
AcDbEntity
  8
0
100
AcDbLine
 62
7
  6
CONTINUOUS
 10
10.8117744069
 20
-27.1215527803
 11
12.5612802794
 21
-26.1864599929
  0
LINE
  5
31C
100
AcDbEntity
  8
0
100
AcDbLine
 62
7
  6
CONTINUOUS
 10
19.261908415
 20
-23.2836207375
 11
12.5612802794
 21
-26.102273686
  0
LINE
  5
31D
100
AcDbEntity
  8
0
100
AcDbLine
 62
7
  6
CONTINUOUS
 10
19.261908415
 20
-22.9569181975
 11
12.5612802794
 21
-25.7556005171
  0
LINE
  5
31E
100
AcDbEntity
  8
DRAFT
100
AcDbLine
 62
7
  6
CONTINUOUS
 10
19.3040792523
 20
-22.3168322138
 11
12.5612802794
 21
-25.0770386754
  0
LINE
  5
31F
100
AcDbEntity
  8
0
100
AcDbLine
 62
7
  6
CONTINUOUS
 10
11.6734363768
 20
-26.8041814629
 11
12.5350983467
 21
-26.4514548064
  0
LINE
  5
320
100
AcDbEntity
  8
0
100
AcDbLine
 62
253
  6
CONTINUOUS
 10
10.8117744069
 20
-29.4903724637
 11
11.6734363768
 21
-29.1273611529
  0
LINE
  5
321
100
AcDbEntity
  8
0
100
AcDbLine
 62
7
  6
CONTINUOUS
 10
10.7506769209
 20
-29.6471298623
 11
11.6130676693
 21
-29.283811523
  0
LINE
  5
322
100
AcDbEntity
  8
0
100
AcDbLine
 62
253
  6
CONTINUOUS
 10
8.5910716442
 20
-31.6394188195
 11
11.4152998107
 21
-30.512370276
  0
LINE
  5
323
100
AcDbEntity
  8
0
100
AcDbLine
 62
7
  6
CONTINUOUS
 10
8.5598673128
 20
-31.7180590294
 11
11.3845623406
 21
-30.5908241783
  0
LINE
  5
324
100
AcDbEntity
  8
0
100
AcDbLine
 62
253
  6
CONTINUOUS
 10
4.1274399262
 20
-31.8269875054
 11
10.8117744069
 21
-29.4901986745
  0
LINE
  5
325
100
AcDbEntity
  8
0
100
AcDbLine
 62
7
  6
CONTINUOUS
 10
4.0500386968
 20
-31.9897519567
 11
10.7469040643
 21
-29.6485824299
  0
ARC
  5
326
100
AcDbEntity
  8
0
100
AcDbCircle
 62
7
  6
CONTINUOUS
 10
8.4672069828
 20
-31.4858651006
 40
0.2499999146
100
AcDbArc
 50
219.2316582741
 51
291.7551824068
  0
ARC
  5
327
100
AcDbEntity
  8
0
100
AcDbCircle
 62
7
  6
CONTINUOUS
 10
-13.0907734841
 20
29.1877691563
 40
0.2499985205
100
AcDbArc
 50
112.6598435147
 51
180.0004886311
  0
ARC
  5
328
100
AcDbEntity
  8
0
100
AcDbCircle
 62
7
  6
CONTINUOUS
 10
-3.6532734841
 20
17.6292394326
 40
0.2499985205
100
AcDbArc
 50
112.6598435147
 51
180.0004886311
  0
ARC
  5
329
100
AcDbEntity
  8
0
100
AcDbCircle
 62
7
  6
CONTINUOUS
 10
-1.8407734841
 20
15.4093893532
 40
0.2499985205
100
AcDbArc
 50
112.6598435147
 51
180.0004886311
  0
ARC
  5
32A
100
AcDbEntity
  8
0
100
AcDbCircle
 62
7
  6
CONTINUOUS
 10
7.5967265159
 20
3.8508596294
 40
0.2499985205
100
AcDbArc
 50
112.6598435147
 51
180.0004886311
  0
ARC
  5
32B
100
AcDbEntity
  8
0
100
AcDbCircle
 62
7
  6
CONTINUOUS
 10
-13.0907770422
 20
28.9836650551
 40
0.2499950518
100
AcDbArc
 50
179.9998534402
 51
219.231394224
  0
ARC
  5
32C
100
AcDbEntity
  8
0
100
AcDbCircle
 62
7
  6
CONTINUOUS
 10
-3.6532770422
 20
17.4251353313
 40
0.2499950518
100
AcDbArc
 50
179.9998534402
 51
219.231394224
  0
ARC
  5
32D
100
AcDbEntity
  8
0
100
AcDbCircle
 62
7
  6
CONTINUOUS
 10
-1.8407770422
 20
15.2052852519
 40
0.2499950518
100
AcDbArc
 50
179.9998534402
 51
219.231394224
  0
ARC
  5
32E
100
AcDbEntity
  8
0
100
AcDbCircle
 62
7
  6
CONTINUOUS
 10
7.5967229578
 20
3.6467555282
 40
0.2499950518
100
AcDbArc
 50
179.9998534402
 51
219.231394224
  0
ARC
  5
32F
100
AcDbEntity
  8
0
100
AcDbCircle
 62
7
  6
CONTINUOUS
 10
-12.2202956449
 20
27.9175463045
 40
0.249993804
100
AcDbArc
 50
219.2209414676
 51
266.18830397
  0
ARC
  5
330
100
AcDbEntity
  8
0
100
AcDbCircle
 62
7
  6
CONTINUOUS
 10
-2.7827956449
 20
16.3590165807
 40
0.249993804
100
AcDbArc
 50
219.2209414676
 51
266.18830397
  0
ARC
  5
331
100
AcDbEntity
  8
0
100
AcDbCircle
 62
7
  6
CONTINUOUS
 10
-0.9702956449
 20
14.1391665013
 40
0.249993804
100
AcDbArc
 50
219.2209414676
 51
266.18830397
  0
ARC
  5
332
100
AcDbEntity
  8
0
100
AcDbCircle
 62
7
  6
CONTINUOUS
 10
8.4672043551
 20
2.5806367776
 40
0.249993804
100
AcDbArc
 50
219.2209414676
 51
266.18830397
  0
ARC
  5
333
100
AcDbEntity
  8
0
100
AcDbCircle
 62
253
  6
CONTINUOUS
 10
-0.4169049795
 20
13.7972231173
 40
0.0975518725
100
AcDbArc
 50
25.0496954861
 51
30.0529433221
  0
ARC
  5
334
100
AcDbEntity
  8
0
100
AcDbCircle
 62
253
  6
CONTINUOUS
 10
9.0205950205
 20
2.2386933935
 40
0.0975518725
100
AcDbArc
 50
25.0496954861
 51
30.0529433221
  0
ARC
  5
335
100
AcDbEntity
  8
0
100
AcDbCircle
 62
253
  6
CONTINUOUS
 10
-11.6669049795
 20
27.5756029204
 40
0.0975518725
100
AcDbArc
 50
25.0496954862
 51
30.052943322
  0
ARC
  5
336
100
AcDbEntity
  8
0
100
AcDbCircle
 62
253
  6
CONTINUOUS
 10
-2.2294049795
 20
16.0170731967
 40
0.0975518725
100
AcDbArc
 50
25.0496954861
 51
30.0529433221
  0
ARC
  5
337
100
AcDbEntity
  8
0
100
AcDbCircle
 62
7
  6
CONTINUOUS
 10
10.7262712018
 20
-29.5894358455
 40
0.0626417942
100
AcDbArc
 50
289.2364808225
 51
292.9203366837
  0
SPLINE
  5
338
100
AcDbEntity
  8
0
100
AcDbSpline
 62
7
  6
CONTINUOUS
 70
0
 71
3
 72
20
 73
16
 74
14
 42
0.0000001
 43
0.0000001
 44
0.0000000001
 12
0.1740656936
 22
-0.4776158803
 32
0.0
 13
-0.4721634321
 23
-0.193670349
 33
0.0
 40
0.0
 40
0.0
 40
0.0
 40
0.0
 40
0.1120293125
 40
0.221539218
 40
0.3272848637
 40
0.4280948254
 40
0.5228994963
 40
0.6107640103
 40
0.6909295393
 40
0.7628700504
 40
0.8263774524
 40
0.8816970415
 40
0.9297404325
 40
0.9723639961
 40
1.0
 40
1.0
 40
1.0
 40
1.0
 10
13.9399478196
 20
9.3457355959
 30
0.0
 10
13.9464479729
 20
9.3278999363
 30
0.0
 10
13.9585848436
 20
9.2923630005
 30
0.0
 10
13.9742745595
 20
9.2391532931
 30
0.0
 10
13.9871087245
 20
9.1871367797
 30
0.0
 10
13.9969203647
 20
9.1370005352
 30
0.0
 10
14.0035842394
 20
9.0894029802
 30
0.0
 10
14.0070177444
 20
9.0449652584
 30
0.0
 10
14.0071811795
 20
9.004259527
 30
0.0
 10
14.0040753698
 20
8.967796794
 30
0.0
 10
13.9977307908
 20
8.9360123626
 30
0.0
 10
13.988185029
 20
8.9092591844
 30
0.0
 10
13.9754190917
 20
8.8878268441
 30
0.0
 10
13.9608977885
 20
8.8736117171
 30
0.0
 10
13.9503090483
 20
8.8678265386
 30
0.0
 10
13.9459594781
 20
8.8660424471
 30
0.0
 11
13.9399478196
 21
9.3457355959
 31
0.0
 11
13.9583350711
 21
9.2918359327
 31
0.0
 11
13.9740464752
 21
9.2384301056
 31
0.0
 11
13.9868734446
 21
9.1862275112
 31
0.0
 11
13.996645695
 21
9.1359215277
 31
0.0
 11
14.0032335008
 21
9.0881803216
 31
0.0
 11
14.0065494119
 21
9.0436379897
 31
0.0
 11
14.0065494119
 21
9.0028861527
 31
0.0
 11
14.0032335008
 21
8.9664661111
 31
0.0
 11
13.996645695
 21
8.9348616677
 31
0.0
 11
13.9868734446
 21
8.9084927115
 31
0.0
 11
13.9740464752
 21
8.8877096469
 31
0.0
 11
13.9583350711
 21
8.872788743
 31
0.0
 11
13.9459594781
 21
8.8660424471
 31
0.0
  0
SPLINE
  5
339
100
AcDbEntity
  8
0
100
AcDbSpline
 62
7
  6
CONTINUOUS
 70
0
 71
3
 72
20
 73
16
 74
14
 42
0.0000001
 43
0.0000001
 44
0.0000000001
 12
0.1740656936
 22
-0.4776158803
 32
0.0
 13
-0.4721634321
 23
-0.193670349
 33
0.0
 40
0.0
 40
0.0
 40
0.0
 40
0.0
 40
0.1120293125
 40
0.221539218
 40
0.3272848637
 40
0.4280948254
 40
0.5228994963
 40
0.6107640103
 40
0.6909295393
 40
0.7628700504
 40
0.8263774524
 40
0.8816970415
 40
0.9297404325
 40
0.9723639961
 40
1.0
 40
1.0
 40
1.0
 40
1.0
 10
2.6899478196
 20
23.1241153991
 30
0.0
 10
2.6964479729
 20
23.1062797395
 30
0.0
 10
2.7085848436
 20
23.0707428037
 30
0.0
 10
2.7242745595
 20
23.0175330963
 30
0.0
 10
2.7371087245
 20
22.9655165829
 30
0.0
 10
2.7469203647
 20
22.9153803383
 30
0.0
 10
2.7535842394
 20
22.8677827834
 30
0.0
 10
2.7570177444
 20
22.8233450615
 30
0.0
 10
2.7571811795
 20
22.7826393301
 30
0.0
 10
2.7540753698
 20
22.7461765971
 30
0.0
 10
2.7477307908
 20
22.7143921657
 30
0.0
 10
2.738185029
 20
22.6876389875
 30
0.0
 10
2.7254190917
 20
22.6662066473
 30
0.0
 10
2.7108977885
 20
22.6519915203
 30
0.0
 10
2.7003090483
 20
22.6462063418
 30
0.0
 10
2.6959594781
 20
22.6444222503
 30
0.0
 11
2.6899478196
 21
23.1241153991
 31
0.0
 11
2.7083350711
 21
23.0702157359
 31
0.0
 11
2.7240464752
 21
23.0168099087
 31
0.0
 11
2.7368734446
 21
22.9646073144
 31
0.0
 11
2.746645695
 21
22.9143013309
 31
0.0
 11
2.7532335008
 21
22.8665601247
 31
0.0
 11
2.7565494119
 21
22.8220177929
 31
0.0
 11
2.7565494119
 21
22.7812659559
 31
0.0
 11
2.7532335008
 21
22.7448459142
 31
0.0
 11
2.746645695
 21
22.7132414709
 31
0.0
 11
2.7368734446
 21
22.6868725147
 31
0.0
 11
2.7240464752
 21
22.6660894501
 31
0.0
 11
2.7083350711
 21
22.6511685462
 31
0.0
 11
2.6959594781
 21
22.6444222503
 31
0.0
  0
SPLINE
  5
33A
100
AcDbEntity
  8
0
100
AcDbSpline
 62
7
  6
CONTINUOUS
 70
0
 71
3
 72
12
 73
8
 74
6
 42
0.0000001
 43
0.0000001
 44
0.0000000001
 12
-0.0924293648
 22
-0.1548222089
 32
0.0
 13
0.0000204894
 23
-0.1803605252
 33
0.0
 40
0.0
 40
0.0
 40
0.0
 40
0.0
 40
0.1901023088
 40
0.3895906679
 40
0.5965270388
 40
0.8094429691
 40
1.0
 40
1.0
 40
1.0
 40
1.0
 10
2.4223714124
 20
11.9244222889
 30
0.0
 10
2.4165144005
 20
11.9146116024
 30
0.0
 10
2.4062754346
 20
11.8934295511
 30
0.0
 10
2.395120912
 20
11.8592730184
 30
0.0
 10
2.3875329478
 20
11.8227611908
 30
0.0
 10
2.3834854378
 20
11.7862497627
 30
0.0
 10
2.382690792
 20
11.7619918546
 30
0.0
 10
2.3826920934
 20
11.7505355325
 30
0.0
 11
2.4223714124
 21
11.9244222889
 31
0.0
 11
2.4072254498
 21
11.8936718868
 31
0.0
 11
2.3958914912
 21
11.8595336379
 31
0.0
 11
2.3881795056
 21
11.8230257905
 31
0.0
 11
2.3838609117
 21
11.7848777556
 31
0.0
 11
2.3826920934
 21
11.7505355325
 31
0.0
  0
SPLINE
  5
33B
100
AcDbEntity
  8
0
100
AcDbSpline
 62
7
  6
CONTINUOUS
 70
0
 71
3
 72
17
 73
13
 74
11
 42
0.0000001
 43
0.0000001
 44
0.0000000001
 12
0.4560913791
 22
0.1071570319
 32
0.0
 13
0.2965780272
 23
-0.3629126181
 33
0.0
 40
0.0
 40
0.0
 40
0.0
 40
0.0
 40
0.0776576971
 40
0.1586930344
 40
0.2448785648
 40
0.3383857149
 40
0.4404667897
 40
0.5524308421
 40
0.6751383855
 40
0.8098238
 40
0.9574951866
 40
1.0
 40
1.0
 40
1.0
 40
1.0
 10
13.6220053888
 20
10.0635356351
 30
0.0
 10
13.6338117242
 20
10.0663094912
 30
0.0
 10
13.6583881041
 20
10.0702064282
 30
0.0
 10
13.6967423445
 20
10.0708111907
 30
0.0
 10
13.7372866911
 20
10.0659057483
 30
0.0
 10
13.78002663
 20
10.0549414927
 30
0.0
 10
13.8248158166
 20
10.0372722948
 30
0.0
 10
13.8712238318
 20
10.0122872509
 30
0.0
 10
13.9187445025
 20
9.979391551
 30
0.0
 10
13.9667497144
 20
9.9380221638
 30
0.0
 10
14.0016996383
 20
9.9011321867
 30
0.0
 10
14.0208014753
 20
9.8783725258
 30
0.0
 10
14.0250034732
 20
9.8732306814
 30
0.0
 11
13.6220053888
 21
10.0635356351
 31
0.0
 11
13.6579318312
 21
10.0692841336
 31
0.0
 11
13.6958916641
 21
10.0699626519
 31
0.0
 11
13.7359901321
 21
10.0652127454
 31
0.0
 11
13.7784556345
 21
10.0544463274
 31
0.0
 11
13.8229958031
 21
10.0370249676
 31
0.0
 11
13.8692543457
 21
10.0122901174
 31
0.0
 11
13.916609971
 21
9.9796938448
 31
0.0
 11
13.964508605
 21
9.938614385
 31
0.0
 11
14.0121950264
 21
9.8884880513
 31
0.0
 11
14.0250034732
 21
9.8732306814
 31
0.0
  0
SPLINE
  5
33C
100
AcDbEntity
  8
0
100
AcDbSpline
 62
7
  6
CONTINUOUS
 70
0
 71
3
 72
17
 73
13
 74
11
 42
0.0000001
 43
0.0000001
 44
0.0000000001
 12
0.4567575318
 22
0.1097664021
 32
0.0
 13
0.297373695
 23
-0.3638804222
 33
0.0
 40
0.0
 40
0.0
 40
0.0
 40
0.0
 40
0.077588374
 40
0.1585086762
 40
0.2445174249
 40
0.3378059446
 40
0.4396479875
 40
0.5513806116
 40
0.6738864699
 40
0.8084083175
 40
0.9559486329
 40
1.0
 40
1.0
 40
1.0
 40
1.0
 10
9.6592615965
 20
14.9150929008
 30
0.0
 10
9.6710746212
 20
14.9179317663
 30
0.0
 10
9.6956696201
 20
14.9219536359
 30
0.0
 10
9.7340676032
 20
14.9227231954
 30
0.0
 10
9.7746596338
 20
14.9179658207
 30
0.0
 10
9.817453443
 20
14.9071355284
 30
0.0
 10
9.8623114408
 20
14.8895832331
 30
0.0
 10
9.9088098321
 20
14.8646901103
 30
0.0
 10
9.9564447984
 20
14.8318515072
 30
0.0
 10
10.0045841541
 20
14.7904966491
 30
0.0
 10
10.0398076388
 20
14.7534076735
 30
0.0
 10
10.0591151932
 20
14.7304272509
 30
0.0
 10
10.0634817658
 20
14.7250841076
 30
0.0
 11
9.6592615965
 21
14.9150929008
 31
0.0
 11
9.695223671
 21
14.9210249822
 31
0.0
 11
9.733227617
 21
14.9218665675
 31
0.0
 11
9.7733682109
 21
14.9172638196
 31
0.0
 11
9.8158823812
 21
14.9066320823
 31
0.0
 11
9.8604854863
 21
14.8893297176
 31
0.0
 11
9.9068300923
 21
14.864689556
 31
0.0
 11
9.9542978424
 21
14.83215265
 31
0.0
 11
10.0023306774
 21
14.7910889226
 31
0.0
 11
10.0501634018
 21
14.7409317708
 31
0.0
 11
10.0634817658
 21
14.7250841076
 31
0.0
  0
SPLINE
  5
33D
100
AcDbEntity
  8
0
100
AcDbSpline
 62
7
  6
CONTINUOUS
 70
0
 71
3
 72
17
 73
13
 74
11
 42
0.0000001
 43
0.0000001
 44
0.0000000001
 12
0.4567575318
 22
0.1097664021
 32
0.0
 13
0.297373695
 23
-0.3638804222
 33
0.0
 40
0.0
 40
0.0
 40
0.0
 40
0.0
 40
0.077588374
 40
0.1585086762
 40
0.2445174249
 40
0.3378059446
 40
0.4396479875
 40
0.5513806116
 40
0.6738864699
 40
0.8084083175
 40
0.9559486329
 40
1.0
 40
1.0
 40
1.0
 40
1.0
 10
-1.5907384035
 20
28.6934727039
 30
0.0
 10
-1.5789253788
 20
28.6963115695
 30
0.0
 10
-1.5543303799
 20
28.7003334391
 30
0.0
 10
-1.5159323968
 20
28.7011029985
 30
0.0
 10
-1.4753403662
 20
28.6963456239
 30
0.0
 10
-1.432546557
 20
28.6855153316
 30
0.0
 10
-1.3876885592
 20
28.6679630363
 30
0.0
 10
-1.3411901679
 20
28.6430699135
 30
0.0
 10
-1.2935552016
 20
28.6102313103
 30
0.0
 10
-1.2454158459
 20
28.5688764523
 30
0.0
 10
-1.2101923612
 20
28.5317874767
 30
0.0
 10
-1.1908848068
 20
28.5088070541
 30
0.0
 10
-1.1865182342
 20
28.5034639108
 30
0.0
 11
-1.5907384035
 21
28.6934727039
 31
0.0
 11
-1.554776329
 21
28.6994047854
 31
0.0
 11
-1.516772383
 21
28.7002463707
 31
0.0
 11
-1.4766317891
 21
28.6956436228
 31
0.0
 11
-1.4341176188
 21
28.6850118854
 31
0.0
 11
-1.3895145137
 21
28.6677095208
 31
0.0
 11
-1.3431699077
 21
28.6430693591
 31
0.0
 11
-1.2957021576
 21
28.6105324531
 31
0.0
 11
-1.2476693226
 21
28.5694687257
 31
0.0
 11
-1.1998365982
 21
28.519311574
 31
0.0
 11
-1.1865182342
 21
28.5034639108
 31
0.0
  0
SPLINE
  5
33E
100
AcDbEntity
  8
0
100
AcDbSpline
 62
7
  6
CONTINUOUS
 70
0
 71
3
 72
17
 73
13
 74
11
 42
0.0000001
 43
0.0000001
 44
0.0000000001
 12
0.4560913791
 22
0.1071570319
 32
0.0
 13
0.2965780272
 23
-0.3629126181
 33
0.0
 40
0.0
 40
0.0
 40
0.0
 40
0.0
 40
0.0776576971
 40
0.1586930344
 40
0.2448785648
 40
0.3383857149
 40
0.4404667897
 40
0.5524308421
 40
0.6751383855
 40
0.8098238
 40
0.9574951866
 40
1.0
 40
1.0
 40
1.0
 40
1.0
 10
2.3720053888
 20
23.8419154382
 30
0.0
 10
2.3838117242
 20
23.8446892943
 30
0.0
 10
2.4083881041
 20
23.8485862314
 30
0.0
 10
2.4467423445
 20
23.8491909939
 30
0.0
 10
2.4872866911
 20
23.8442855515
 30
0.0
 10
2.53002663
 20
23.8333212959
 30
0.0
 10
2.5748158166
 20
23.8156520979
 30
0.0
 10
2.6212238318
 20
23.7906670541
 30
0.0
 10
2.6687445025
 20
23.7577713542
 30
0.0
 10
2.7167497144
 20
23.716401967
 30
0.0
 10
2.7516996383
 20
23.6795119898
 30
0.0
 10
2.7708014753
 20
23.6567523289
 30
0.0
 10
2.7750034732
 20
23.6516104846
 30
0.0
 11
2.3720053888
 21
23.8419154382
 31
0.0
 11
2.4079318312
 21
23.8476639367
 31
0.0
 11
2.4458916641
 21
23.848342455
 31
0.0
 11
2.4859901321
 21
23.8435925486
 31
0.0
 11
2.5284556345
 21
23.8328261306
 31
0.0
 11
2.5729958031
 21
23.8154047707
 31
0.0
 11
2.6192543457
 21
23.7906699206
 31
0.0
 11
2.666609971
 21
23.7580736479
 31
0.0
 11
2.714508605
 21
23.7169941882
 31
0.0
 11
2.7621950264
 21
23.6668678545
 31
0.0
 11
2.7750034732
 21
23.6516104846
 31
0.0
  0
SPLINE
  5
33F
100
AcDbEntity
  8
0
100
AcDbSpline
 62
7
  6
CONTINUOUS
 70
0
 71
3
 72
12
 73
8
 74
6
 42
0.0000001
 43
0.0000001
 44
0.0000000001
 12
-0.0924293648
 22
-0.1548222089
 32
0.0
 13
0.0000204894
 23
-0.1803605252
 33
0.0
 40
0.0
 40
0.0
 40
0.0
 40
0.0
 40
0.1901023088
 40
0.3895906679
 40
0.5965270388
 40
0.8094429691
 40
1.0
 40
1.0
 40
1.0
 40
1.0
 10
-8.8276285876
 20
25.7028020921
 30
0.0
 10
-8.8334855995
 20
25.6929914056
 30
0.0
 10
-8.8437245654
 20
25.6718093543
 30
0.0
 10
-8.854879088
 20
25.6376528215
 30
0.0
 10
-8.8624670522
 20
25.6011409939
 30
0.0
 10
-8.8665145622
 20
25.5646295659
 30
0.0
 10
-8.867309208
 20
25.5403716577
 30
0.0
 10
-8.8673079066
 20
25.5289153357
 30
0.0
 11
-8.8276285876
 21
25.7028020921
 31
0.0
 11
-8.8427745502
 21
25.67205169
 31
0.0
 11
-8.8541085088
 21
25.6379134411
 31
0.0
 11
-8.8618204944
 21
25.6014055937
 31
0.0
 11
-8.8661390883
 21
25.5632575587
 31
0.0
 11
-8.8673079066
 21
25.5289153357
 31
0.0
  0
SPLINE
  5
340
100
AcDbEntity
  8
0
100
AcDbSpline
 62
253
  6
CONTINUOUS
 70
0
 71
3
 72
14
 73
10
 74
8
 42
0.0000001
 43
0.0000001
 44
0.0000000001
 12
-0.0865954326
 22
-0.1570249254
 32
0.0
 13
-0.1792790147
 23
0.0119008558
 33
0.0
 40
0.0
 40
0.0
 40
0.0
 40
0.0
 40
0.1742300835
 40
0.3390785851
 40
0.494252604
 40
0.6402592987
 40
0.7785159482
 40
0.9113606249
 40
1.0
 40
1.0
 40
1.0
 40
1.0
 10
-2.0074457896
 20
16.1620425733
 30
0.0
 10
-2.0124749661
 20
16.1529230847
 30
0.0
 10
-2.0232741627
 20
16.1357034386
 30
0.0
 10
-2.0420854997
 20
16.1128111668
 30
0.0
 10
-2.0627491154
 20
16.0939680955
 30
0.0
 10
-2.0848791302
 20
16.0795774379
 30
0.0
 10
-2.1080564396
 20
16.0699735831
 30
0.0
 10
-2.1293315347
 20
16.0658939165
 30
0.0
 10
-2.1426332713
 20
16.0657993335
 30
0.0
 10
-2.1479303312
 20
16.0661509617
 30
0.0
 11
-2.0074457896
 21
16.1620425733
 31
0.0
 11
-2.0241290413
 21
16.1356268901
 31
0.0
 11
-2.0429869485
 21
16.1128626951
 31
0.0
 11
-2.063636894
 21
16.0942118619
 31
0.0
 11
-2.0856598986
 21
16.0800528076
 31
0.0
 11
-2.1086091194
 21
16.0706728127
 31
0.0
 11
-2.132018924
 21
16.0662621864
 31
0.0
 11
-2.1479303312
 21
16.0661509617
 31
0.0
  0
SPLINE
  5
341
100
AcDbEntity
  8
0
100
AcDbSpline
 62
253
  6
CONTINUOUS
 70
0
 71
3
 72
14
 73
10
 74
8
 42
0.0000001
 43
0.0000001
 44
0.0000000001
 12
-0.0865954326
 22
-0.1570249254
 32
0.0
 13
-0.1792790147
 23
0.0119008558
 33
0.0
 40
0.0
 40
0.0
 40
0.0
 40
0.0
 40
0.1742300835
 40
0.3390785851
 40
0.494252604
 40
0.6402592987
 40
0.7785159482
 40
0.9113606249
 40
1.0
 40
1.0
 40
1.0
 40
1.0
 10
-11.4449457896
 20
27.720572297
 30
0.0
 10
-11.4499749661
 20
27.7114528084
 30
0.0
 10
-11.4607741627
 20
27.6942331623
 30
0.0
 10
-11.4795854997
 20
27.6713408906
 30
0.0
 10
-11.5002491154
 20
27.6524978193
 30
0.0
 10
-11.5223791302
 20
27.6381071617
 30
0.0
 10
-11.5455564396
 20
27.6285033069
 30
0.0
 10
-11.5668315347
 20
27.6244236403
 30
0.0
 10
-11.5801332713
 20
27.6243290573
 30
0.0
 10
-11.5854303312
 20
27.6246806854
 30
0.0
 11
-11.4449457896
 21
27.720572297
 31
0.0
 11
-11.4616290413
 21
27.6941566139
 31
0.0
 11
-11.4804869485
 21
27.6713924188
 31
0.0
 11
-11.501136894
 21
27.6527415856
 31
0.0
 11
-11.5231598986
 21
27.6385825314
 31
0.0
 11
-11.5461091194
 21
27.6292025365
 31
0.0
 11
-11.569518924
 21
27.6247919101
 31
0.0
 11
-11.5854303312
 21
27.6246806854
 31
0.0
  0
SPLINE
  5
342
100
AcDbEntity
  8
0
100
AcDbSpline
 62
253
  6
CONTINUOUS
 70
0
 71
3
 72
18
 73
14
 74
12
 42
0.0000001
 43
0.0000001
 44
0.0000000001
 12
0.2326303204
 22
-0.2849127993
 32
0.0
 13
0.3411203749
 23
0.1375829167
 33
0.0
 40
0.0
 40
0.0
 40
0.0
 40
0.0
 40
0.0783407093
 40
0.1606873782
 40
0.2469591454
 40
0.3367897315
 40
0.4295835154
 40
0.524571531
 40
0.6208652693
 40
0.7175082442
 40
0.813526158
 40
0.9079767
 40
1.0
 40
1.0
 40
1.0
 40
1.0
 10
-2.1306559537
 20
16.0086085647
 30
0.0
 10
-2.1245811456
 20
16.0011684745
 30
0.0
 10
-2.1108439924
 20
15.9869179489
 30
0.0
 10
-2.0868217408
 20
15.9683385156
 30
0.0
 10
-2.0593558225
 20
15.9523653337
 30
0.0
 10
-2.0290020246
 20
15.9393107958
 30
0.0
 10
-1.9963623347
 20
15.9294233297
 30
0.0
 10
-1.9620862844
 20
15.9228953665
 30
0.0
 10
-1.9268555895
 20
15.9198541471
 30
0.0
 10
-1.8913721827
 20
15.920359115
 30
0.0
 10
-1.8563411321
 20
15.9244009949
 30
0.0
 10
-1.8224655798
 20
15.9318983773
 30
0.0
 10
-1.8007486085
 20
15.9392228241
 30
0.0
 10
-1.7902849342
 20
15.9434431021
 30
0.0
 11
-2.1306559537
 21
16.0086085647
 31
0.0
 11
-2.1107364529
 21
15.9877869986
 31
0.0
 11
-2.0868416126
 21
15.9691738508
 31
0.0
 11
-2.059454622
 21
15.9531455099
 31
0.0
 11
-2.0291292886
 21
15.9400260989
 31
0.0
 11
-1.9964788395
 21
15.930080919
 31
0.0
 11
-1.9621635214
 21
15.9235110849
 31
0.0
 11
-1.9268772505
 21
15.9204494568
 31
0.0
 11
-1.8913335876
 21
15.9209579526
 31
0.0
 11
-1.8562513041
 21
15.9250262923
 31
0.0
 11
-1.8223398347
 21
15.9325722064
 31
0.0
 11
-1.7902849342
 21
15.9434431021
 31
0.0
  0
SPLINE
  5
343
100
AcDbEntity
  8
0
100
AcDbSpline
 62
253
  6
CONTINUOUS
 70
0
 71
3
 72
18
 73
14
 74
12
 42
0.0000001
 43
0.0000001
 44
0.0000000001
 12
0.2326303204
 22
-0.2849127993
 32
0.0
 13
0.3411203749
 23
0.1375829167
 33
0.0
 40
0.0
 40
0.0
 40
0.0
 40
0.0
 40
0.0783407093
 40
0.1606873782
 40
0.2469591454
 40
0.3367897315
 40
0.4295835154
 40
0.524571531
 40
0.6208652693
 40
0.7175082442
 40
0.813526158
 40
0.9079767
 40
1.0
 40
1.0
 40
1.0
 40
1.0
 10
-11.5681559537
 20
27.5671382885
 30
0.0
 10
-11.5620811456
 20
27.5596981982
 30
0.0
 10
-11.5483439924
 20
27.5454476726
 30
0.0
 10
-11.5243217408
 20
27.5268682394
 30
0.0
 10
-11.4968558225
 20
27.5108950574
 30
0.0
 10
-11.4665020246
 20
27.4978405195
 30
0.0
 10
-11.4338623347
 20
27.4879530535
 30
0.0
 10
-11.3995862844
 20
27.4814250902
 30
0.0
 10
-11.3643555895
 20
27.4783838709
 30
0.0
 10
-11.3288721827
 20
27.4788888388
 30
0.0
 10
-11.2938411321
 20
27.4829307186
 30
0.0
 10
-11.2599655798
 20
27.4904281011
 30
0.0
 10
-11.2382486085
 20
27.4977525479
 30
0.0
 10
-11.2277849342
 20
27.5019728259
 30
0.0
 11
-11.5681559537
 21
27.5671382885
 31
0.0
 11
-11.5482364529
 21
27.5463167223
 31
0.0
 11
-11.5243416126
 21
27.5277035746
 31
0.0
 11
-11.496954622
 21
27.5116752337
 31
0.0
 11
-11.4666292886
 21
27.4985558226
 31
0.0
 11
-11.4339788395
 21
27.4886106428
 31
0.0
 11
-11.3996635214
 21
27.4820408086
 31
0.0
 11
-11.3643772505
 21
27.4789791805
 31
0.0
 11
-11.3288335876
 21
27.4794876763
 31
0.0
 11
-11.2937513041
 21
27.483556016
 31
0.0
 11
-11.2598398347
 21
27.4911019301
 31
0.0
 11
-11.2277849342
 21
27.5019728259
 31
0.0
  0
SPLINE
  5
344
100
AcDbEntity
  8
0
100
AcDbSpline
 62
253
  6
CONTINUOUS
 70
0
 71
3
 72
13
 73
9
 74
7
 42
0.0000001
 43
0.0000001
 44
0.0000000001
 12
0.0830073974
 22
0.0330805662
 32
0.0
 13
0.0005708553
 23
0.088982374
 33
0.0
 40
0.0
 40
0.0
 40
0.0
 40
0.0
 40
0.0024950072
 40
0.1470856709
 40
0.3102962218
 40
0.504035955
 40
0.7336352776
 40
1.0
 40
1.0
 40
1.0
 40
1.0
 10
8.5598672895
 20
-31.7180589709
 30
0.0
 10
8.5599363242
 20
-31.7180314588
 30
0.0
 10
8.563999961
 20
-31.7163943859
 30
0.0
 10
8.5718000447
 20
-31.7110483999
 30
0.0
 10
8.5804389015
 20
-31.6986575898
 30
0.0
 10
8.5865590291
 20
-31.6822417381
 30
0.0
 10
8.5902490541
 20
-31.662045113
 30
0.0
 10
8.5910209589
 20
-31.647319408
 30
0.0
 10
8.5910716442
 20
-31.6394188195
 30
0.0
 11
8.5598672895
 21
-31.7180589709
 31
0.0
 11
8.5600740814
 21
-31.7179756615
 31
0.0
 11
8.5707945262
 21
-31.7108613548
 31
0.0
 11
8.5794063006
 21
-31.6991669309
 31
0.0
 11
8.5857341
 21
-31.6831304463
 31
0.0
 11
8.5896491131
 21
-31.6630783463
 31
0.0
 11
8.5910716442
 21
-31.6394188195
 31
0.0
  0
SPLINE
  5
345
100
AcDbEntity
  8
0
100
AcDbSpline
 62
253
  6
CONTINUOUS
 70
0
 71
3
 72
11
 73
7
 74
5
 42
0.0000001
 43
0.0000001
 44
0.0000000001
 12
-0.0608940262
 22
0.0745796463
 32
0.0
 13
-0.0000150596
 23
0.0964447193
 33
0.0
 40
0.0
 40
0.0
 40
0.0
 40
0.0
 40
0.2849684425
 40
0.5579639242
 40
0.822690833
 40
1.0
 40
1.0
 40
1.0
 40
1.0
 10
-3.8697788312
 20
17.336749263
 30
0.0
 10
-3.8755631231
 20
17.3438335448
 30
0.0
 10
-3.885823804
 20
17.3586312051
 30
0.0
 10
-3.8968668622
 20
17.3827738825
 30
0.0
 10
-3.9022988944
 20
17.4052243277
 30
0.0
 10
-3.9032704675
 20
17.4194357934
 30
0.0
 10
-3.9032713575
 20
17.425135971
 30
0.0
 11
-3.8697788312
 21
17.336749263
 31
0.0
 11
-3.8853211612
 21
17.3593599181
 31
0.0
 11
-3.8961703624
 21
17.3833009112
 31
0.0
 11
-3.9021070486
 21
17.4080883055
 31
0.0
 11
-3.9032713575
 21
17.425135971
 31
0.0
  0
SPLINE
  5
346
100
AcDbEntity
  8
0
100
AcDbSpline
 62
253
  6
CONTINUOUS
 70
0
 71
3
 72
11
 73
7
 74
5
 42
0.0000001
 43
0.0000001
 44
0.0000000001
 12
0.0
 22
-0.0746969153
 32
0.0
 13
0.0473046375
 23
-0.0579970132
 33
0.0
 40
0.0
 40
0.0
 40
0.0
 40
0.0
 40
0.2993995542
 40
0.5826617323
 40
0.8549338458
 40
1.0
 40
1.0
 40
1.0
 40
1.0
 10
-2.9992993739
 20
16.270634012
 30
0.0
 10
-2.9992993739
 20
16.2631792709
 30
0.0
 10
-2.998173408
 20
16.2486331391
 30
0.0
 10
-2.9926873611
 20
16.2279339433
 30
0.0
 10
-2.9848721445
 20
16.2121947323
 30
0.0
 10
-2.9787557105
 20
16.2037475964
 30
0.0
 10
-2.9764682766
 20
16.2009431285
 30
0.0
 11
-2.9992993739
 21
16.270634012
 31
0.0
 11
-2.9974523056
 21
16.2483461943
 31
0.0
 11
-2.9919325007
 21
16.2279200583
 31
0.0
 11
-2.9828313104
 21
16.2097322057
 31
0.0
 11
-2.9764682766
 21
16.2009431285
 31
0.0
  0
SPLINE
  5
347
100
AcDbEntity
  8
0
100
AcDbSpline
 62
253
  6
CONTINUOUS
 70
0
 71
3
 72
18
 73
14
 74
12
 42
0.0000001
 43
0.0000001
 44
0.0000000001
 12
-0.3411203728
 22
-0.1375829158
 32
0.0
 13
-0.2326303226
 23
0.2849127945
 33
0.0
 40
0.0
 40
0.0
 40
0.0
 40
0.0
 40
0.0920231778
 40
0.1864735922
 40
0.2824913767
 40
0.3791342354
 40
0.4754279036
 40
0.5704159142
 40
0.663209752
 40
0.753040439
 40
0.839312338
 40
0.9216591526
 40
1.0
 40
1.0
 40
1.0
 40
1.0
 10
-2.6589283558
 20
16.2054685511
 30
0.0
 10
-2.6693920161
 20
16.2012482787
 30
0.0
 10
-2.6911089574
 20
16.1939238402
 30
0.0
 10
-2.7249844624
 20
16.1864264607
 30
0.0
 10
-2.7600154657
 20
16.1823845744
 30
0.0
 10
-2.7954988332
 20
16.1818795909
 30
0.0
 10
-2.8307295061
 20
16.1849207885
 30
0.0
 10
-2.8650055577
 20
16.1914487298
 30
0.0
 10
-2.8976452713
 20
16.2013361802
 30
0.0
 10
-2.9279991094
 20
16.2143907134
 30
0.0
 10
-2.9554650762
 20
16.2303639044
 30
0.0
 10
-2.9794873752
 20
16.24894336
 30
0.0
 10
-2.993224555
 20
16.2631939087
 30
0.0
 10
-2.9992993739
 20
16.270634012
 30
0.0
 11
-2.6589283558
 21
16.2054685511
 31
0.0
 11
-2.6909832127
 21
16.1945976675
 31
0.0
 11
-2.7248946345
 21
16.1870517566
 31
0.0
 11
-2.7599768692
 21
16.1829834106
 31
0.0
 11
-2.7955204889
 21
16.1824748991
 31
0.0
 11
-2.8308067356
 21
16.1855365052
 31
0.0
 11
-2.8651220558
 21
16.1921063174
 31
0.0
 11
-2.8977725302
 21
16.2020514819
 31
0.0
 11
-2.9280979053
 21
16.2151708891
 31
0.0
 11
-2.9554849459
 21
16.2311992402
 31
0.0
 11
-2.9793798351
 21
16.2498124121
 31
0.0
 11
-2.9992993739
 21
16.270634012
 31
0.0
  0
SPLINE
  5
348
100
AcDbEntity
  8
0
100
AcDbSpline
 62
253
  6
CONTINUOUS
 70
0
 71
3
 72
11
 73
7
 74
5
 42
0.0000001
 43
0.0000001
 44
0.0000000001
 12
-0.0608940262
 22
0.0745796463
 32
0.0
 13
-0.0000150596
 23
0.0964447193
 33
0.0
 40
0.0
 40
0.0
 40
0.0
 40
0.0
 40
0.2849684425
 40
0.5579639242
 40
0.822690833
 40
1.0
 40
1.0
 40
1.0
 40
1.0
 10
-13.3072788312
 20
28.8952789867
 30
0.0
 10
-13.3130631231
 20
28.9023632686
 30
0.0
 10
-13.323323804
 20
28.9171609289
 30
0.0
 10
-13.3343668622
 20
28.9413036062
 30
0.0
 10
-13.3397988944
 20
28.9637540514
 30
0.0
 10
-13.3407704675
 20
28.9779655171
 30
0.0
 10
-13.3407713575
 20
28.9836656947
 30
0.0
 11
-13.3072788312
 21
28.8952789867
 31
0.0
 11
-13.3228211612
 21
28.9178896418
 31
0.0
 11
-13.3336703624
 21
28.941830635
 31
0.0
 11
-13.3396070486
 21
28.9666180293
 31
0.0
 11
-13.3407713575
 21
28.9836656947
 31
0.0
  0
SPLINE
  5
349
100
AcDbEntity
  8
0
100
AcDbSpline
 62
253
  6
CONTINUOUS
 70
0
 71
3
 72
11
 73
7
 74
5
 42
0.0000001
 43
0.0000001
 44
0.0000000001
 12
0.0
 22
-0.0746969153
 32
0.0
 13
0.0473046375
 23
-0.0579970132
 33
0.0
 40
0.0
 40
0.0
 40
0.0
 40
0.0
 40
0.2993995542
 40
0.5826617323
 40
0.8549338458
 40
1.0
 40
1.0
 40
1.0
 40
1.0
 10
-12.4367993739
 20
27.8291637357
 30
0.0
 10
-12.4367993739
 20
27.8217089947
 30
0.0
 10
-12.435673408
 20
27.8071628629
 30
0.0
 10
-12.4301873611
 20
27.786463667
 30
0.0
 10
-12.4223721445
 20
27.7707244561
 30
0.0
 10
-12.4162557105
 20
27.7622773202
 30
0.0
 10
-12.4139682766
 20
27.7594728523
 30
0.0
 11
-12.4367993739
 21
27.8291637357
 31
0.0
 11
-12.4349523056
 21
27.8068759181
 31
0.0
 11
-12.4294325007
 21
27.786449782
 31
0.0
 11
-12.4203313104
 21
27.7682619295
 31
0.0
 11
-12.4139682766
 21
27.7594728523
 31
0.0
  0
SPLINE
  5
34A
100
AcDbEntity
  8
0
100
AcDbSpline
 62
253
  6
CONTINUOUS
 70
0
 71
3
 72
18
 73
14
 74
12
 42
0.0000001
 43
0.0000001
 44
0.0000000001
 12
-0.3411203728
 22
-0.1375829158
 32
0.0
 13
-0.2326303226
 23
0.2849127945
 33
0.0
 40
0.0
 40
0.0
 40
0.0
 40
0.0
 40
0.0920231778
 40
0.1864735922
 40
0.2824913767
 40
0.3791342354
 40
0.4754279036
 40
0.5704159142
 40
0.663209752
 40
0.753040439
 40
0.839312338
 40
0.9216591526
 40
1.0
 40
1.0
 40
1.0
 40
1.0
 10
-12.0964283558
 20
27.7639982748
 30
0.0
 10
-12.1068920161
 20
27.7597780025
 30
0.0
 10
-12.1286089574
 20
27.7524535639
 30
0.0
 10
-12.1624844624
 20
27.7449561845
 30
0.0
 10
-12.1975154657
 20
27.7409142982
 30
0.0
 10
-12.2329988332
 20
27.7404093147
 30
0.0
 10
-12.2682295061
 20
27.7434505123
 30
0.0
 10
-12.3025055577
 20
27.7499784536
 30
0.0
 10
-12.3351452713
 20
27.7598659039
 30
0.0
 10
-12.3654991094
 20
27.7729204372
 30
0.0
 10
-12.3929650762
 20
27.7888936281
 30
0.0
 10
-12.4169873752
 20
27.8074730837
 30
0.0
 10
-12.430724555
 20
27.8217236325
 30
0.0
 10
-12.4367993739
 20
27.8291637357
 30
0.0
 11
-12.0964283558
 21
27.7639982748
 31
0.0
 11
-12.1284832127
 21
27.7531273913
 31
0.0
 11
-12.1623946345
 21
27.7455814804
 31
0.0
 11
-12.1974768692
 21
27.7415131344
 31
0.0
 11
-12.2330204889
 21
27.7410046229
 31
0.0
 11
-12.2683067356
 21
27.7440662289
 31
0.0
 11
-12.3026220558
 21
27.7506360411
 31
0.0
 11
-12.3352725302
 21
27.7605812057
 31
0.0
 11
-12.3655979053
 21
27.7737006128
 31
0.0
 11
-12.3929849459
 21
27.7897289639
 31
0.0
 11
-12.4168798351
 21
27.8083421359
 31
0.0
 11
-12.4367993739
 21
27.8291637357
 31
0.0
  0
SPLINE
  5
34B
100
AcDbEntity
  8
0
100
AcDbSpline
 62
253
  6
CONTINUOUS
 70
0
 71
3
 72
18
 73
14
 74
12
 42
0.0000001
 43
0.0000001
 44
0.0000000001
 12
0.0
 22
0.3583018378
 32
0.0
 13
0.3312253062
 23
0.1366382212
 33
0.0
 40
0.0
 40
0.0
 40
0.0
 40
0.0
 40
0.0727437589
 40
0.1509052981
 40
0.2344513511
 40
0.3229598407
 40
0.4157062208
 40
0.5117402482
 40
0.6099524192
 40
0.7091370902
 40
0.8080379591
 40
0.9054226942
 40
1.0
 40
1.0
 40
1.0
 40
1.0
 10
-3.8697788312
 20
17.5408499007
 30
0.0
 10
-3.8697788312
 20
17.5495379749
 30
0.0
 10
-3.8681517308
 20
17.5675829149
 30
0.0
 10
-3.8614717629
 20
17.5948620166
 30
0.0
 10
-3.8506279985
 20
17.6227911602
 30
0.0
 10
-3.835844794
 20
17.6508194981
 30
0.0
 10
-3.8174190477
 20
17.6784035797
 30
0.0
 10
-3.7957179052
 20
17.7049987707
 30
0.0
 10
-3.7711733825
 20
17.7300782143
 30
0.0
 10
-3.7442754413
 20
17.7531422291
 30
0.0
 10
-3.7155592552
 20
17.7737317976
 30
0.0
 10
-3.6856138859
 20
17.7914272948
 30
0.0
 10
-3.664848232
 20
17.8012420973
 30
0.0
 10
-3.6544060997
 20
17.8055497223
 30
0.0
 11
-3.8697788312
 21
17.5408499007
 31
0.0
 11
-3.8675891389
 21
17.5668219808
 31
0.0
 11
-3.861064316
 21
17.5940567088
 31
0.0
 11
-3.8503363611
 21
17.6220030414
 31
0.0
 11
-3.8356223065
 21
17.6500956631
 31
0.0
 11
-3.8172198539
 21
17.6777662664
 31
0.0
 11
-3.7955013063
 21
17.7044551324
 31
0.0
 11
-3.7709061602
 21
17.7296223101
 31
0.0
 11
-3.743931437
 21
17.7527592352
 31
0.0
 11
-3.7151245975
 21
17.7733966241
 31
0.0
 11
-3.6850668468
 21
17.7911184219
 31
0.0
 11
-3.6544060997
 21
17.8055497223
 31
0.0
  0
SPLINE
  5
34C
100
AcDbEntity
  8
0
100
AcDbSpline
 62
253
  6
CONTINUOUS
 70
0
 71
3
 72
14
 73
10
 74
8
 42
0.0000001
 43
0.0000001
 44
0.0000000001
 12
-0.0737534555
 22
0.0892439089
 32
0.0
 13
-0.1072612032
 23
-0.044851791
 33
0.0
 40
0.0
 40
0.0
 40
0.0
 40
0.0
 40
0.231576016
 40
0.4363039156
 40
0.6127352132
 40
0.7615460614
 40
0.8868108256
 40
0.9976737105
 40
1.0
 40
1.0
 40
1.0
 40
1.0
 10
-3.6544060997
 20
17.8055497223
 30
0.0
 10
-3.6600992768
 20
17.8124386386
 30
0.0
 10
-3.6713205519
 20
17.8250258129
 30
0.0
 10
-3.6887426387
 20
17.8410828609
 30
0.0
 10
-3.7054878088
 20
17.8529563147
 30
0.0
 10
-3.721319641
 20
17.8604287057
 30
0.0
 10
-3.7361337172
 20
17.8632677193
 30
0.0
 10
-3.7454499685
 20
17.8616486427
 30
0.0
 10
-3.7495045481
 20
17.8599748427
 30
0.0
 10
-3.7495877216
 20
17.8599400632
 30
0.0
 11
-3.6544060997
 21
17.8055497223
 31
0.0
 11
-3.6723446877
 21
17.8254753831
 31
0.0
 11
-3.6898950341
 21
17.8414063611
 31
0.0
 11
-3.7066998769
 21
17.8530183586
 31
0.0
 11
-3.7224171298
 21
17.8600749971
 31
0.0
 11
-3.7367268462
 21
17.8624326288
 31
0.0
 11
-3.7493377315
 21
17.8600432609
 31
0.0
 11
-3.7495877216
 21
17.8599400632
 31
0.0
  0
SPLINE
  5
34D
100
AcDbEntity
  8
0
100
AcDbSpline
 62
253
  6
CONTINUOUS
 70
0
 71
3
 72
18
 73
14
 74
12
 42
0.0000001
 43
0.0000001
 44
0.0000000001
 12
0.2326303393
 22
-0.284912815
 32
0.0
 13
0.3411203973
 23
0.1375829257
 33
0.0
 40
0.0
 40
0.0
 40
0.0
 40
0.0
 40
0.0782452937
 40
0.1605932996
 40
0.2468673005
 40
0.3367058677
 40
0.4295081535
 40
0.5245068092
 40
0.6208126228
 40
0.717468695
 40
0.813500141
 40
0.9079641615
 40
1.0
 40
1.0
 40
1.0
 40
1.0
 10
-2.9992993739
 20
16.4747346497
 30
0.0
 10
-2.9932319641
 20
16.4673036208
 30
0.0
 10
-2.9795044332
 20
16.453060229
 30
0.0
 10
-2.9554940033
 20
16.4344838344
 30
0.0
 10
-2.9280290038
 20
16.4185062153
 30
0.0
 10
-2.8976745385
 20
16.4054473179
 30
0.0
 10
-2.8650325586
 20
16.3955558406
 30
0.0
 10
-2.8307532193
 20
16.3890245362
 30
0.0
 10
-2.7955183105
 20
16.3859807691
 30
0.0
 10
-2.7600301085
 20
16.3864841052
 30
0.0
 10
-2.7249940054
 20
16.3905253314
 30
0.0
 10
-2.6911135306
 20
16.3980230327
 30
0.0
 10
-2.6693934564
 20
16.4053483355
 30
0.0
 10
-2.6589283558
 20
16.4095691888
 30
0.0
 11
-2.9992993739
 21
16.4747346497
 31
0.0
 11
-2.9794060283
 21
16.4539366289
 31
0.0
 11
-2.9555137758
 21
16.435319356
 31
0.0
 11
-2.9281282623
 21
16.4192868611
 31
0.0
 11
-2.8978017328
 21
16.4061628167
 31
0.0
 11
-2.8651492248
 21
16.3962136567
 31
0.0
 11
-2.830830567
 21
16.3896404416
 31
0.0
 11
-2.7955400587
 21
16.3865762428
 31
0.0
 11
-2.759991552
 21
16.3870830972
 31
0.0
 11
-2.7249041801
 21
16.3911507876
 31
0.0
 11
-2.6909877071
 21
16.3986970505
 31
0.0
 11
-2.6589283558
 21
16.4095691888
 31
0.0
  0
SPLINE
  5
34E
100
AcDbEntity
  8
0
100
AcDbSpline
 62
253
  6
CONTINUOUS
 70
0
 71
3
 72
18
 73
14
 74
12
 42
0.0000001
 43
0.0000001
 44
0.0000000001
 12
-0.3312253144
 22
-0.1366382245
 32
0.0
 13
0.0
 23
-0.3583018466
 33
0.0
 40
0.0
 40
0.0
 40
0.0
 40
0.0
 40
0.0946953643
 40
0.1920756754
 40
0.2909703876
 40
0.390141996
 40
0.4883409917
 40
0.5843603524
 40
0.677091691
 40
0.7655854174
 40
0.849117671
 40
0.9272667789
 40
1.0
 40
1.0
 40
1.0
 40
1.0
 10
-2.7839266424
 20
16.7394344713
 30
0.0
 10
-2.7943818096
 20
16.7351214691
 30
0.0
 10
-2.8151592442
 20
16.7252995175
 30
0.0
 10
-2.8451137574
 20
16.7075942928
 30
0.0
 10
-2.8738256356
 20
16.6870035708
 30
0.0
 10
-2.9007185873
 20
16.6639397069
 30
0.0
 10
-2.9252576942
 20
16.6388618172
 30
0.0
 10
-2.9469536872
 20
16.6122690543
 30
0.0
 10
-2.9653747201
 20
16.584688232
 30
0.0
 10
-2.9801539465
 20
16.5566637065
 30
0.0
 10
-2.990994687
 20
16.5287386694
 30
0.0
 10
-2.9976727564
 20
16.5014636558
 30
0.0
 10
-2.9992993739
 20
16.4834214656
 30
0.0
 10
-2.9992993739
 20
16.4747346497
 30
0.0
 11
-2.7839266424
 21
16.7394344713
 31
0.0
 11
-2.8146248145
 21
16.724983353
 31
0.0
 11
-2.8446792886
 21
16.7072591177
 31
0.0
 11
-2.8734823076
 21
16.6866201824
 31
0.0
 11
-2.9004514208
 21
16.6634839046
 31
0.0
 11
-2.9250412627
 21
16.638318143
 31
0.0
 11
-2.946754581
 21
16.6116317958
 31
0.0
 11
-2.9651522921
 21
16.5839645107
 31
0.0
 11
-2.9798623601
 21
16.5558757714
 31
0.0
 11
-2.9905873202
 21
16.5279335845
 31
0.0
 11
-2.9971102936
 21
16.5007029929
 31
0.0
 11
-2.9992993739
 21
16.4747346497
 31
0.0
  0
SPLINE
  5
34F
100
AcDbEntity
  8
0
100
AcDbSpline
 62
253
  6
CONTINUOUS
 70
0
 71
3
 72
18
 73
14
 74
12
 42
0.0000001
 43
0.0000001
 44
0.0000000001
 12
-0.0023079417
 22
0.3578899509
 32
0.0
 13
-0.2247007344
 23
0.2785679873
 33
0.0
 40
0.0
 40
0.0
 40
0.0
 40
0.0
 40
0.0745930705
 40
0.1570293702
 40
0.2460660845
 40
0.3402352369
 40
0.437910186
 40
0.5373624679
 40
0.6368131546
 40
0.7344858271
 40
0.8286463204
 40
0.9176740146
 40
1.0
 40
1.0
 40
1.0
 40
1.0
 10
-2.6589283558
 20
16.4095691888
 30
0.0
 10
-2.6589857413
 20
16.4184678923
 30
0.0
 10
-2.6600775258
 20
16.4371990087
 30
0.0
 10
-2.6640679808
 20
16.4663040728
 30
0.0
 10
-2.6704297237
 20
16.4973709038
 30
0.0
 10
-2.6790393557
 20
16.5297719639
 30
0.0
 10
-2.6897268434
 20
16.5628551373
 30
0.0
 10
-2.7022779055
 20
16.5959510075
 30
0.0
 10
-2.7164393205
 20
16.6283902786
 30
0.0
 10
-2.7319237272
 20
16.6595163496
 30
0.0
 10
-2.748417104
 20
16.6887022329
 30
0.0
 10
-2.765576191
 20
16.7153489337
 30
0.0
 10
-2.7777604059
 20
16.7317900099
 30
0.0
 10
-2.7839266424
 20
16.7394344713
 30
0.0
 11
-2.6589283558
 21
16.4095691888
 31
0.0
 11
-2.6603512607
 21
16.4362279076
 31
0.0
 11
-2.6642673548
 21
16.4654705936
 31
0.0
 11
-2.6705968871
 21
16.4967016596
 31
0.0
 11
-2.6792109564
 21
16.5292851352
 31
0.0
 11
-2.6899341206
 21
16.5625574693
 31
0.0
 11
-2.7025479954
 21
16.5958411368
 31
0.0
 11
-2.7167956311
 21
16.628458258
 31
0.0
 11
-2.7323871918
 21
16.6597453278
 31
0.0
 11
-2.749004154
 21
16.6890634579
 31
0.0
 11
-2.7663090153
 21
16.7158174949
 31
0.0
 11
-2.7839266424
 21
16.7394344713
 31
0.0
  0
SPLINE
  5
350
100
AcDbEntity
  8
0
100
AcDbSpline
 62
253
  6
CONTINUOUS
 70
0
 71
3
 72
18
 73
14
 74
12
 42
0.0000001
 43
0.0000001
 44
0.0000000001
 12
0.2326303393
 22
-0.284912815
 32
0.0
 13
0.3411203973
 23
0.1375829257
 33
0.0
 40
0.0
 40
0.0
 40
0.0
 40
0.0
 40
0.0782452937
 40
0.1605932996
 40
0.2468673005
 40
0.3367058677
 40
0.4295081535
 40
0.5245068092
 40
0.6208126228
 40
0.717468695
 40
0.813500141
 40
0.9079641615
 40
1.0
 40
1.0
 40
1.0
 40
1.0
 10
-12.4367993739
 20
28.0332643735
 30
0.0
 10
-12.4307319641
 20
28.0258333445
 30
0.0
 10
-12.4170044332
 20
28.0115899527
 30
0.0
 10
-12.3929940033
 20
27.9930135581
 30
0.0
 10
-12.3655290038
 20
27.9770359391
 30
0.0
 10
-12.3351745385
 20
27.9639770417
 30
0.0
 10
-12.3025325586
 20
27.9540855643
 30
0.0
 10
-12.2682532193
 20
27.9475542599
 30
0.0
 10
-12.2330183105
 20
27.9445104929
 30
0.0
 10
-12.1975301085
 20
27.945013829
 30
0.0
 10
-12.1624940054
 20
27.9490550552
 30
0.0
 10
-12.1286135306
 20
27.9565527564
 30
0.0
 10
-12.1068934564
 20
27.9638780593
 30
0.0
 10
-12.0964283558
 20
27.9680989126
 30
0.0
 11
-12.4367993739
 21
28.0332643735
 31
0.0
 11
-12.4169060283
 21
28.0124663526
 31
0.0
 11
-12.3930137758
 21
27.9938490797
 31
0.0
 11
-12.3656282623
 21
27.9778165849
 31
0.0
 11
-12.3353017328
 21
27.9646925404
 31
0.0
 11
-12.3026492248
 21
27.9547433805
 31
0.0
 11
-12.268330567
 21
27.9481701653
 31
0.0
 11
-12.2330400587
 21
27.9451059666
 31
0.0
 11
-12.197491552
 21
27.9456128209
 31
0.0
 11
-12.1624041801
 21
27.9496805114
 31
0.0
 11
-12.1284877071
 21
27.9572267743
 31
0.0
 11
-12.0964283558
 21
27.9680989126
 31
0.0
  0
SPLINE
  5
351
100
AcDbEntity
  8
0
100
AcDbSpline
 62
253
  6
CONTINUOUS
 70
0
 71
3
 72
18
 73
14
 74
12
 42
0.0000001
 43
0.0000001
 44
0.0000000001
 12
-0.3312253144
 22
-0.1366382245
 32
0.0
 13
0.0
 23
-0.3583018466
 33
0.0
 40
0.0
 40
0.0
 40
0.0
 40
0.0
 40
0.0946953643
 40
0.1920756754
 40
0.2909703876
 40
0.390141996
 40
0.4883409917
 40
0.5843603524
 40
0.677091691
 40
0.7655854174
 40
0.849117671
 40
0.9272667789
 40
1.0
 40
1.0
 40
1.0
 40
1.0
 10
-12.2214266424
 20
28.297964195
 30
0.0
 10
-12.2318818096
 20
28.2936511929
 30
0.0
 10
-12.2526592442
 20
28.2838292413
 30
0.0
 10
-12.2826137574
 20
28.2661240166
 30
0.0
 10
-12.3113256356
 20
28.2455332946
 30
0.0
 10
-12.3382185873
 20
28.2224694307
 30
0.0
 10
-12.3627576942
 20
28.197391541
 30
0.0
 10
-12.3844536872
 20
28.1707987781
 30
0.0
 10
-12.4028747201
 20
28.1432179558
 30
0.0
 10
-12.4176539465
 20
28.1151934303
 30
0.0
 10
-12.428494687
 20
28.0872683932
 30
0.0
 10
-12.4351727564
 20
28.0599933796
 30
0.0
 10
-12.4367993739
 20
28.0419511893
 30
0.0
 10
-12.4367993739
 20
28.0332643735
 30
0.0
 11
-12.2214266424
 21
28.297964195
 31
0.0
 11
-12.2521248145
 21
28.2835130767
 31
0.0
 11
-12.2821792886
 21
28.2657888415
 31
0.0
 11
-12.3109823076
 21
28.2451499061
 31
0.0
 11
-12.3379514208
 21
28.2220136284
 31
0.0
 11
-12.3625412627
 21
28.1968478667
 31
0.0
 11
-12.384254581
 21
28.1701615196
 31
0.0
 11
-12.4026522921
 21
28.1424942344
 31
0.0
 11
-12.4173623601
 21
28.1144054952
 31
0.0
 11
-12.4280873202
 21
28.0864633083
 31
0.0
 11
-12.4346102936
 21
28.0592327167
 31
0.0
 11
-12.4367993739
 21
28.0332643735
 31
0.0
  0
SPLINE
  5
352
100
AcDbEntity
  8
0
100
AcDbSpline
 62
253
  6
CONTINUOUS
 70
0
 71
3
 72
18
 73
14
 74
12
 42
0.0000001
 43
0.0000001
 44
0.0000000001
 12
-0.0023079417
 22
0.3578899509
 32
0.0
 13
-0.2247007344
 23
0.2785679873
 33
0.0
 40
0.0
 40
0.0
 40
0.0
 40
0.0
 40
0.0745930705
 40
0.1570293702
 40
0.2460660845
 40
0.3402352369
 40
0.437910186
 40
0.5373624679
 40
0.6368131546
 40
0.7344858271
 40
0.8286463204
 40
0.9176740146
 40
1.0
 40
1.0
 40
1.0
 40
1.0
 10
-12.0964283558
 20
27.9680989126
 30
0.0
 10
-12.0964857413
 20
27.976997616
 30
0.0
 10
-12.0975775258
 20
27.9957287325
 30
0.0
 10
-12.1015679808
 20
28.0248337965
 30
0.0
 10
-12.1079297237
 20
28.0559006276
 30
0.0
 10
-12.1165393557
 20
28.0883016876
 30
0.0
 10
-12.1272268434
 20
28.1213848611
 30
0.0
 10
-12.1397779055
 20
28.1544807313
 30
0.0
 10
-12.1539393205
 20
28.1869200023
 30
0.0
 10
-12.1694237272
 20
28.2180460733
 30
0.0
 10
-12.185917104
 20
28.2472319567
 30
0.0
 10
-12.203076191
 20
28.2738786574
 30
0.0
 10
-12.2152604059
 20
28.2903197337
 30
0.0
 10
-12.2214266424
 20
28.297964195
 30
0.0
 11
-12.0964283558
 21
27.9680989126
 31
0.0
 11
-12.0978512607
 21
27.9947576314
 31
0.0
 11
-12.1017673548
 21
28.0240003174
 31
0.0
 11
-12.1080968871
 21
28.0552313833
 31
0.0
 11
-12.1167109564
 21
28.0878148589
 31
0.0
 11
-12.1274341206
 21
28.1210871931
 31
0.0
 11
-12.1400479954
 21
28.1543708605
 31
0.0
 11
-12.1542956311
 21
28.1869879817
 31
0.0
 11
-12.1698871918
 21
28.2182750516
 31
0.0
 11
-12.186504154
 21
28.2475931817
 31
0.0
 11
-12.2038090153
 21
28.2743472187
 31
0.0
 11
-12.2214266424
 21
28.297964195
 31
0.0
  0
SPLINE
  5
353
100
AcDbEntity
  8
0
100
AcDbSpline
 62
253
  6
CONTINUOUS
 70
0
 71
3
 72
18
 73
14
 74
12
 42
0.0000001
 43
0.0000001
 44
0.0000000001
 12
0.0
 22
0.3583018378
 32
0.0
 13
0.3312253062
 23
0.1366382212
 33
0.0
 40
0.0
 40
0.0
 40
0.0
 40
0.0
 40
0.0727437589
 40
0.1509052981
 40
0.2344513511
 40
0.3229598407
 40
0.4157062208
 40
0.5117402482
 40
0.6099524192
 40
0.7091370902
 40
0.8080379591
 40
0.9054226942
 40
1.0
 40
1.0
 40
1.0
 40
1.0
 10
-13.3072788312
 20
29.0993796245
 30
0.0
 10
-13.3072788312
 20
29.1080676986
 30
0.0
 10
-13.3056517308
 20
29.1261126387
 30
0.0
 10
-13.2989717629
 20
29.1533917404
 30
0.0
 10
-13.2881279985
 20
29.181320884
 30
0.0
 10
-13.273344794
 20
29.2093492219
 30
0.0
 10
-13.2549190477
 20
29.2369333034
 30
0.0
 10
-13.2332179052
 20
29.2635284944
 30
0.0
 10
-13.2086733825
 20
29.2886079381
 30
0.0
 10
-13.1817754413
 20
29.3116719528
 30
0.0
 10
-13.1530592552
 20
29.3322615214
 30
0.0
 10
-13.1231138859
 20
29.3499570185
 30
0.0
 10
-13.102348232
 20
29.3597718211
 30
0.0
 10
-13.0919060997
 20
29.364079446
 30
0.0
 11
-13.3072788312
 21
29.0993796245
 31
0.0
 11
-13.3050891389
 21
29.1253517045
 31
0.0
 11
-13.298564316
 21
29.1525864326
 31
0.0
 11
-13.2878363611
 21
29.1805327652
 31
0.0
 11
-13.2731223065
 21
29.2086253869
 31
0.0
 11
-13.2547198539
 21
29.2362959902
 31
0.0
 11
-13.2330013063
 21
29.2629848562
 31
0.0
 11
-13.2084061602
 21
29.2881520339
 31
0.0
 11
-13.181431437
 21
29.3112889589
 31
0.0
 11
-13.1526245975
 21
29.3319263478
 31
0.0
 11
-13.1225668468
 21
29.3496481457
 31
0.0
 11
-13.0919060997
 21
29.364079446
 31
0.0
  0
SPLINE
  5
354
100
AcDbEntity
  8
0
100
AcDbSpline
 62
253
  6
CONTINUOUS
 70
0
 71
3
 72
14
 73
10
 74
8
 42
0.0000001
 43
0.0000001
 44
0.0000000001
 12
-0.0737534555
 22
0.0892439089
 32
0.0
 13
-0.1072612032
 23
-0.044851791
 33
0.0
 40
0.0
 40
0.0
 40
0.0
 40
0.0
 40
0.231576016
 40
0.4363039156
 40
0.6127352132
 40
0.7615460614
 40
0.8868108256
 40
0.9976737105
 40
1.0
 40
1.0
 40
1.0
 40
1.0
 10
-13.0919060997
 20
29.364079446
 30
0.0
 10
-13.0975992768
 20
29.3709683623
 30
0.0
 10
-13.1088205519
 20
29.3835555366
 30
0.0
 10
-13.1262426387
 20
29.3996125846
 30
0.0
 10
-13.1429878088
 20
29.4114860385
 30
0.0
 10
-13.158819641
 20
29.4189584294
 30
0.0
 10
-13.1736337172
 20
29.421797443
 30
0.0
 10
-13.1829499685
 20
29.4201783664
 30
0.0
 10
-13.1870045481
 20
29.4185045664
 30
0.0
 10
-13.1870877216
 20
29.418469787
 30
0.0
 11
-13.0919060997
 21
29.364079446
 31
0.0
 11
-13.1098446877
 21
29.3840051069
 31
0.0
 11
-13.1273950341
 21
29.3999360848
 31
0.0
 11
-13.1441998769
 21
29.4115480823
 31
0.0
 11
-13.1599171298
 21
29.4186047209
 31
0.0
 11
-13.1742268462
 21
29.4209623526
 31
0.0
 11
-13.1868377315
 21
29.4185729847
 31
0.0
 11
-13.1870877216
 21
29.418469787
 31
0.0
  0
SPLINE
  5
355
100
AcDbEntity
  8
0
100
AcDbSpline
 62
7
  6
CONTINUOUS
 70
0
 71
3
 72
14
 73
10
 74
8
 42
0.0000001
 43
0.0000001
 44
0.0000000001
 12
0.1743926798
 22
0.1276446962
 32
0.0
 13
-0.0198261845
 23
0.2152043161
 33
0.0
 40
0.0
 40
0.0
 40
0.0
 40
0.0
 40
0.0963152198
 40
0.2044388928
 40
0.3281660009
 40
0.4694269285
 40
0.6288155044
 40
0.8059999646
 40
1.0
 40
1.0
 40
1.0
 40
1.0
 10
7.4643924247
 20
6.2220300279
 30
0.0
 10
7.4699913145
 20
6.2261280702
 30
0.0
 10
7.4805413439
 20
6.2367177422
 30
0.0
 10
7.4927098214
 20
6.2571793877
 30
0.0
 10
7.5019722945
 20
6.2825390589
 30
0.0
 10
7.508304797
 20
6.3125259687
 30
0.0
 10
7.5116818506
 20
6.3468376259
 30
0.0
 10
7.5120702768
 20
6.3850960156
 30
0.0
 10
7.5104034312
 20
6.4118066336
 30
0.0
 10
7.5091213377
 20
6.4257231819
 30
0.0
 11
7.4643924247
 21
6.2220300279
 31
0.0
 11
7.4792729045
 21
6.2365849232
 31
0.0
 11
7.4915132861
 21
6.2564896951
 31
0.0
 11
7.5009649186
 21
6.2815028969
 31
0.0
 11
7.5075129827
 21
6.3113210832
 31
0.0
 11
7.5110778852
 21
6.3455824843
 31
0.0
 11
7.5116162367
 21
6.383871035
 31
0.0
 11
7.5091213377
 21
6.4257231819
 31
0.0
  0
SPLINE
  5
356
100
AcDbEntity
  8
0
100
AcDbSpline
 62
253
  6
CONTINUOUS
 70
0
 71
3
 72
15
 73
11
 74
9
 42
0.0000001
 43
0.0000001
 44
0.0000000001
 12
0.2097363487
 22
0.0987404714
 32
0.0
 13
0.149438983
 23
-0.1756951633
 33
0.0
 40
0.0
 40
0.0
 40
0.0
 40
0.0
 40
0.020012112
 40
0.1082454113
 40
0.2079930185
 40
0.3251898348
 40
0.4627467157
 40
0.6215198275
 40
0.8010502015
 40
1.0
 40
1.0
 40
1.0
 40
1.0
 10
-18.0436282874
 20
25.8663789055
 30
0.0
 10
-18.0422291983
 20
25.8670375739
 30
0.0
 10
-18.0345118808
 20
25.8702712009
 30
0.0
 10
-18.0183751978
 20
25.8728099938
 30
0.0
 10
-17.9949375192
 20
25.8690086448
 30
0.0
 10
-17.9695573227
 20
25.8586398392
 30
0.0
 10
-17.9423723859
 20
25.8419602326
 30
0.0
 10
-17.913649132
 20
25.819193134
 30
0.0
 10
-17.8837476363
 20
25.7906307137
 30
0.0
 10
-17.8642323742
 20
25.7690112542
 30
0.0
 10
-17.854322089
 20
25.7573597484
 30
0.0
 11
-18.0436282874
 21
25.8663789055
 31
0.0
 11
-18.0393524208
 21
25.868167858
 31
0.0
 11
-18.0193009258
 21
25.8716480733
 31
0.0
 11
-17.9965163802
 21
25.8684558373
 31
0.0
 11
-17.9713306482
 21
25.858637646
 31
0.0
 11
-17.944110568
 21
25.8423365045
 31
0.0
 11
-17.9152526089
 21
25.819789844
 31
0.0
 11
-17.8851770961
 21
25.791326064
 31
0.0
 11
-17.854322089
 21
25.7573597484
 31
0.0
  0
SPLINE
  5
357
100
AcDbEntity
  8
0
100
AcDbSpline
 62
7
  6
CONTINUOUS
 70
0
 71
3
 72
14
 73
10
 74
8
 42
0.0000001
 43
0.0000001
 44
0.0000000001
 12
0.1743926798
 22
0.1276446962
 32
0.0
 13
-0.0198261845
 23
0.2152043161
 33
0.0
 40
0.0
 40
0.0
 40
0.0
 40
0.0
 40
0.0963152198
 40
0.2044388928
 40
0.3281660009
 40
0.4694269285
 40
0.6288155044
 40
0.8059999646
 40
1.0
 40
1.0
 40
1.0
 40
1.0
 10
-3.7856075753
 20
20.000409831
 30
0.0
 10
-3.7800086855
 20
20.0045078734
 30
0.0
 10
-3.7694586561
 20
20.0150975453
 30
0.0
 10
-3.7572901786
 20
20.0355591909
 30
0.0
 10
-3.7480277055
 20
20.060918862
 30
0.0
 10
-3.741695203
 20
20.0909057719
 30
0.0
 10
-3.7383181494
 20
20.125217429
 30
0.0
 10
-3.7379297232
 20
20.1634758187
 30
0.0
 10
-3.7395965688
 20
20.1901864368
 30
0.0
 10
-3.7408786623
 20
20.2041029851
 30
0.0
 11
-3.7856075753
 21
20.000409831
 31
0.0
 11
-3.7707270955
 21
20.0149647263
 31
0.0
 11
-3.7584867139
 21
20.0348694982
 31
0.0
 11
-3.7490350814
 21
20.0598827001
 31
0.0
 11
-3.7424870173
 21
20.0897008863
 31
0.0
 11
-3.7389221148
 21
20.1239622874
 31
0.0
 11
-3.7383837633
 21
20.1622508381
 31
0.0
 11
-3.7408786623
 21
20.2041029851
 31
0.0
  0
SPLINE
  5
358
100
AcDbEntity
  8
0
100
AcDbSpline
 62
253
  6
CONTINUOUS
 70
0
 71
3
 72
12
 73
8
 74
6
 42
0.0000001
 43
0.0000001
 44
0.0000000001
 12
-0.0098513823
 22
-0.2024570907
 32
0.0
 13
0.1281051193
 23
-0.1567558261
 33
0.0
 40
0.0
 40
0.0
 40
0.0
 40
0.0
 40
0.1361696369
 40
0.3422810463
 40
0.5534230932
 40
0.7720567972
 40
1.0
 40
1.0
 40
1.0
 40
1.0
 10
-19.1427741603
 20
24.4158863178
 30
0.0
 10
-19.1432213134
 20
24.4066968149
 30
0.0
 10
-19.1430152664
 20
24.3835322689
 30
0.0
 10
-19.1372932718
 20
24.3464454161
 30
0.0
 10
-19.1237523662
 20
24.3055285179
 30
0.0
 10
-19.1033393225
 20
24.2659358671
 30
0.0
 10
-19.0857501883
 20
24.241327796
 30
0.0
 10
-19.0760166246
 20
24.229417321
 30
0.0
 11
-19.1427741603
 21
24.4158863178
 31
0.0
 11
-19.1425298779
 21
24.3883016552
 31
0.0
 11
-19.1362298975
 21
24.3470541136
 31
0.0
 11
-19.1229013929
 21
24.306440982
 31
0.0
 11
-19.1027344373
 21
24.2670414301
 31
0.0
 11
-19.0760166246
 21
24.229417321
 31
0.0
  0
SPLINE
  5
359
100
AcDbEntity
  8
0
100
AcDbSpline
 62
7
  6
CONTINUOUS
 70
0
 71
3
 72
19
 73
15
 74
13
 42
0.0000001
 43
0.0000001
 44
0.0000000001
 12
-0.3728545271
 22
0.0313550034
 32
0.0
 13
-0.3552895139
 23
0.1173584081
 33
0.0
 40
0.0
 40
0.0
 40
0.0
 40
0.0
 40
0.114263247
 40
0.2234339839
 40
0.3269834104
 40
0.4247186646
 40
0.516626896
 40
0.602735489
 40
0.6830832553
 40
0.757709917
 40
0.8266539795
 40
0.8899584982
 40
0.947701635
 40
1.0
 40
1.0
 40
1.0
 40
1.0
 10
6.7137229644
 20
6.6686114842
 30
0.0
 10
6.6995217747
 20
6.6698057257
 30
0.0
 10
6.6717112463
 20
6.6716552279
 30
0.0
 10
6.6309713856
 20
6.6735371261
 30
0.0
 10
6.5922759084
 20
6.6749518265
 30
0.0
 10
6.5557303289
 20
6.67623226
 30
0.0
 10
6.5213649822
 20
6.6776145891
 30
0.0
 10
6.4891824541
 20
6.6792725012
 30
0.0
 10
6.4591827431
 20
6.6813384977
 30
0.0
 10
6.4313707238
 20
6.6839174709
 30
0.0
 10
6.4057597659
 20
6.687094919
 30
0.0
 10
6.3823694953
 20
6.6909423934
 30
0.0
 10
6.3612289084
 20
6.6955192387
 30
0.0
 10
6.3480122363
 20
6.6992724488
 30
0.0
 10
6.3418185494
 20
6.7013183331
 30
0.0
 11
6.7137229644
 21
6.6686114842
 31
0.0
 11
6.6710701197
 21
6.6715499948
 31
0.0
 11
6.6302683223
 21
6.6735023305
 31
0.0
 11
6.5915509119
 21
6.6749682181
 31
0.0
 11
6.5550051572
 21
6.676290233
 31
0.0
 11
6.5206451314
 21
6.6777102842
 31
0.0
 11
6.4884704481
 21
6.6794053587
 31
0.0
 11
6.4584804583
 21
6.6815103226
 31
0.0
 11
6.4306806966
 21
6.6841319436
 31
0.0
 11
6.4050862877
 21
6.6873573487
 31
0.0
 11
6.3817230951
 21
6.6912586931
 31
0.0
 11
6.3606209334
 21
6.6958964372
 31
0.0
 11
6.3418185494
 21
6.7013183331
 31
0.0
  0
SPLINE
  5
35A
100
AcDbEntity
  8
0
100
AcDbSpline
 62
253
  6
CONTINUOUS
 70
0
 71
3
 72
12
 73
8
 74
6
 42
0.0000001
 43
0.0000001
 44
0.0000000001
 12
0.0092328938
 22
-0.1814879459
 32
0.0
 13
0.1147511462
 23
-0.1406474478
 33
0.0
 40
0.0
 40
0.0
 40
0.0
 40
0.0
 40
0.0184596626
 40
0.2562944848
 40
0.4974200699
 40
0.7445810173
 40
1.0
 40
1.0
 40
1.0
 40
1.0
 10
-19.1427221278
 20
-4.6135108627
 30
0.0
 10
-19.1426653158
 20
-4.6146275981
 30
0.0
 10
-19.1417762868
 20
-4.6301272404
 30
0.0
 10
-19.1373453141
 20
-4.6600357632
 30
0.0
 10
-19.1238397971
 20
-4.7020453251
 30
0.0
 10
-19.1034459265
 20
-4.7423473973
 30
0.0
 10
-19.0857866425
 20
-4.7672530584
 30
0.0
 10
-19.0760167688
 20
-4.7792277344
 30
0.0
 11
-19.1427221278
 21
-4.6135108627
 31
0.0
 11
-19.1425300191
 21
-4.6168598644
 31
0.0
 11
-19.1362300437
 21
-4.659569509
 31
0.0
 11
-19.1229015412
 21
-4.701259888
 31
0.0
 11
-19.102734585
 21
-4.7413364693
 31
0.0
 11
-19.0760167688
 21
-4.7792277344
 31
0.0
  0
SPLINE
  5
35B
100
AcDbEntity
  8
0
100
AcDbSpline
 62
253
  6
CONTINUOUS
 70
0
 71
3
 72
11
 73
7
 74
5
 42
0.0000001
 43
0.0000001
 44
0.0000000001
 12
0.0000145168
 22
-0.0964454177
 32
0.0
 13
0.0608944517
 23
-0.0745801674
 33
0.0
 40
0.0
 40
0.0
 40
0.0
 40
0.0
 40
0.1772622916
 40
0.4420023591
 40
0.7150146245
 40
1.0
 40
1.0
 40
1.0
 40
1.0
 10
-2.0907713564
 20
15.4093872213
 30
0.0
 10
-2.0907704987
 20
15.4036885094
 30
0.0
 10
-2.0897993264
 20
15.3894780201
 30
0.0
 10
-2.0843681318
 20
15.3670277476
 30
0.0
 10
-2.073324811
 20
15.3428832963
 30
0.0
 10
-2.0630635072
 20
15.3280845737
 30
0.0
 10
-2.0572788312
 20
15.3209998213
 30
0.0
 11
-2.0907713564
 21
15.4093872213
 31
0.0
 11
-2.0896077395
 21
15.3923439067
 31
0.0
 11
-2.0836715469
 21
15.3675549083
 31
0.0
 11
-2.0728220632
 21
15.3436120674
 31
0.0
 11
-2.0572788312
 21
15.3209998213
 31
0.0
  0
SPLINE
  5
35C
100
AcDbEntity
  8
0
100
AcDbSpline
 62
253
  6
CONTINUOUS
 70
0
 71
3
 72
12
 73
8
 74
6
 42
0.0000001
 43
0.0000001
 44
0.0000000001
 12
-0.2559536191
 22
0.3135184262
 32
0.0
 13
-0.0206055194
 23
0.4038660003
 33
0.0
 40
0.0
 40
0.0
 40
0.0
 40
0.0
 40
0.1694278781
 40
0.3680614343
 40
0.5714031619
 40
0.7814878066
 40
1.0
 40
1.0
 40
1.0
 40
1.0
 10
-18.9408810741
 20
-5.1533946151
 30
0.0
 10
-18.9553363003
 20
-5.1356883612
 30
0.0
 10
-18.9843592815
 20
-5.0952798346
 30
0.0
 10
-19.0207628465
 20
-5.0271181053
 30
0.0
 10
-19.0494276801
 20
-4.9494917204
 30
0.0
 10
-19.0684554024
 20
-4.8662432446
 30
0.0
 10
-19.0745162003
 20
-4.8086386847
 30
0.0
 10
-19.0760170527
 20
-4.7792221361
 30
0.0
 11
-18.9408810741
 21
-5.1533946151
 31
0.0
 11
-18.9808751548
 21
-5.09774526
 31
0.0
 11
-19.0188064844
 21
-5.0269396824
 31
0.0
 11
-19.0474393458
 21
-4.9498561498
 31
0.0
 11
-19.0665572046
 21
-4.867078748
 31
0.0
 11
-19.0760170527
 21
-4.7792221361
 31
0.0
  0
SPLINE
  5
35D
100
AcDbEntity
  8
0
100
AcDbSpline
 62
253
  6
CONTINUOUS
 70
0
 71
3
 72
11
 73
7
 74
5
 42
0.0000001
 43
0.0000001
 44
0.0000000001
 12
0.0000145168
 22
-0.0964454177
 32
0.0
 13
0.0608944517
 23
-0.0745801674
 33
0.0
 40
0.0
 40
0.0
 40
0.0
 40
0.0
 40
0.1772622916
 40
0.4420023591
 40
0.7150146245
 40
1.0
 40
1.0
 40
1.0
 40
1.0
 10
7.3467286436
 20
3.8508574976
 30
0.0
 10
7.3467295013
 20
3.8451587857
 30
0.0
 10
7.3477006736
 20
3.8309482963
 30
0.0
 10
7.3531318682
 20
3.8084980238
 30
0.0
 10
7.364175189
 20
3.7843535725
 30
0.0
 10
7.3744364928
 20
3.7695548499
 30
0.0
 10
7.3802211688
 20
3.7624700976
 30
0.0
 11
7.3467286436
 21
3.8508574976
 31
0.0
 11
7.3478922605
 21
3.833814183
 31
0.0
 11
7.3538284531
 21
3.8090251845
 31
0.0
 11
7.3646779368
 21
3.7850823437
 31
0.0
 11
7.3802211688
 21
3.7624700976
 31
0.0
  0
SPLINE
  5
35E
100
AcDbEntity
  8
0
100
AcDbSpline
 62
253
  6
CONTINUOUS
 70
0
 71
3
 72
14
 73
10
 74
8
 42
0.0000001
 43
0.0000001
 44
0.0000000001
 12
0.1792805165
 22
-0.0119036427
 32
0.0
 13
0.0865962286
 23
0.1570263689
 33
0.0
 40
0.0
 40
0.0
 40
0.0
 40
0.0
 40
0.0886996576
 40
0.2215557236
 40
0.3598249141
 40
0.5058462066
 40
0.6610270766
 40
0.8258826056
 40
1.0
 40
1.0
 40
1.0
 40
1.0
 10
-0.9869145452
 20
13.8897269683
 30
0.0
 10
-0.9816138384
 20
13.8893750186
 30
0.0
 10
-0.9683076229
 20
13.889470115
 30
0.0
 10
-0.9470277139
 20
13.8935527568
 30
0.0
 10
-0.9238490133
 20
13.9031599269
 30
0.0
 10
-0.9017185639
 20
13.9175541104
 30
0.0
 10
-0.8810553386
 20
13.9364004991
 30
0.0
 10
-0.8622495972
 20
13.9592900549
 30
0.0
 10
-0.8514543257
 20
13.9765047976
 30
0.0
 10
-0.8464283558
 20
13.9856184717
 30
0.0
 11
-0.9869145452
 21
13.8897269683
 31
0.0
 11
-0.9709921888
 21
13.8898388329
 31
0.0
 11
-0.9475805656
 21
13.8942520197
 31
0.0
 11
-0.9246299867
 21
13.9036352381
 31
0.0
 11
-0.902606026
 21
13.9177980905
 31
0.0
 11
-0.8819567946
 21
13.9364519288
 31
0.0
 11
-0.8630999173
 21
13.9592189661
 31
0.0
 11
-0.8464283558
 21
13.9856184717
 31
0.0
  0
SPLINE
  5
35F
100
AcDbEntity
  8
0
100
AcDbSpline
 62
253
  6
CONTINUOUS
 70
0
 71
3
 72
11
 73
7
 74
5
 42
0.0000001
 43
0.0000001
 44
0.0000000001
 12
-0.0473567098
 22
0.0580082152
 32
0.0
 13
-0.0
 23
0.0747384001
 33
0.0
 40
0.0
 40
0.0
 40
0.0
 40
0.0
 40
0.1450465283
 40
0.4171466395
 40
0.7002986143
 40
1.0
 40
1.0
 40
1.0
 40
1.0
 10
-2.0344213865
 20
15.0471760179
 30
0.0
 10
-2.0367110286
 20
15.049980648
 30
0.0
 10
-2.042831611
 20
15.058426038
 30
0.0
 10
-2.050653938
 20
15.0741641805
 30
0.0
 10
-2.056150087
 20
15.0948736062
 30
0.0
 10
-2.0572788312
 20
15.1094327829
 30
0.0
 10
-2.0572788312
 20
15.1168991836
 30
0.0
 11
-2.0344213865
 21
15.0471760179
 31
0.0
 11
-2.0407907713
 21
15.0559661207
 31
0.0
 11
-2.0498982615
 21
15.0741490747
 31
0.0
 11
-2.055425794
 21
15.094576762
 31
0.0
 11
-2.0572788312
 21
15.1168991836
 31
0.0
  0
SPLINE
  5
360
100
AcDbEntity
  8
0
100
AcDbSpline
 62
7
  6
CONTINUOUS
 70
0
 71
3
 72
19
 73
15
 74
13
 42
0.0000001
 43
0.0000001
 44
0.0000000001
 12
-0.3728545271
 22
0.0313550034
 32
0.0
 13
-0.3552895139
 23
0.1173584081
 33
0.0
 40
0.0
 40
0.0
 40
0.0
 40
0.0
 40
0.114263247
 40
0.2234339839
 40
0.3269834104
 40
0.4247186646
 40
0.516626896
 40
0.602735489
 40
0.6830832553
 40
0.757709917
 40
0.8266539795
 40
0.8899584982
 40
0.947701635
 40
1.0
 40
1.0
 40
1.0
 40
1.0
 10
-4.5362770356
 20
20.4469912874
 30
0.0
 10
-4.5504782253
 20
20.4481855289
 30
0.0
 10
-4.5782887537
 20
20.450035031
 30
0.0
 10
-4.6190286144
 20
20.4519169293
 30
0.0
 10
-4.6577240916
 20
20.4533316297
 30
0.0
 10
-4.6942696711
 20
20.4546120632
 30
0.0
 10
-4.7286350178
 20
20.4559943922
 30
0.0
 10
-4.7608175459
 20
20.4576523043
 30
0.0
 10
-4.7908172569
 20
20.4597183009
 30
0.0
 10
-4.8186292762
 20
20.462297274
 30
0.0
 10
-4.8442402341
 20
20.4654747222
 30
0.0
 10
-4.8676305047
 20
20.4693221966
 30
0.0
 10
-4.8887710916
 20
20.4738990418
 30
0.0
 10
-4.9019877637
 20
20.477652252
 30
0.0
 10
-4.9081814506
 20
20.4796981363
 30
0.0
 11
-4.5362770356
 21
20.4469912874
 31
0.0
 11
-4.5789298803
 21
20.449929798
 31
0.0
 11
-4.6197316777
 21
20.4518821337
 31
0.0
 11
-4.6584490881
 21
20.4533480213
 31
0.0
 11
-4.6949948428
 21
20.4546700362
 31
0.0
 11
-4.7293548686
 21
20.4560900874
 31
0.0
 11
-4.7615295519
 21
20.4577851619
 31
0.0
 11
-4.7915195417
 21
20.4598901258
 31
0.0
 11
-4.8193193034
 21
20.4625117468
 31
0.0
 11
-4.8449137123
 21
20.4657371518
 31
0.0
 11
-4.8682769049
 21
20.4696384963
 31
0.0
 11
-4.8893790666
 21
20.4742762404
 31
0.0
 11
-4.9081814506
 21
20.4796981363
 31
0.0
  0
SPLINE
  5
361
100
AcDbEntity
  8
0
100
AcDbSpline
 62
253
  6
CONTINUOUS
 70
0
 71
3
 72
14
 73
10
 74
8
 42
0.0000001
 43
0.0000001
 44
0.0000000001
 12
0.1792805165
 22
-0.0119036427
 32
0.0
 13
0.0865962286
 23
0.1570263689
 33
0.0
 40
0.0
 40
0.0
 40
0.0
 40
0.0
 40
0.0886996576
 40
0.2215557236
 40
0.3598249141
 40
0.5058462066
 40
0.6610270766
 40
0.8258826056
 40
1.0
 40
1.0
 40
1.0
 40
1.0
 10
8.4505854548
 20
2.3311972445
 30
0.0
 10
8.4558861616
 20
2.3308452949
 30
0.0
 10
8.4691923771
 20
2.3309403913
 30
0.0
 10
8.4904722861
 20
2.335023033
 30
0.0
 10
8.5136509867
 20
2.3446302031
 30
0.0
 10
8.5357814361
 20
2.3590243866
 30
0.0
 10
8.5564446614
 20
2.3778707753
 30
0.0
 10
8.5752504028
 20
2.4007603311
 30
0.0
 10
8.5860456743
 20
2.4179750739
 30
0.0
 10
8.5910716442
 20
2.4270887479
 30
0.0
 11
8.4505854548
 21
2.3311972445
 31
0.0
 11
8.4665078112
 21
2.3313091091
 31
0.0
 11
8.4899194344
 21
2.3357222959
 31
0.0
 11
8.5128700133
 21
2.3451055143
 31
0.0
 11
8.534893974
 21
2.3592683667
 31
0.0
 11
8.5555432054
 21
2.377922205
 31
0.0
 11
8.5744000827
 21
2.4006892424
 31
0.0
 11
8.5910716442
 21
2.4270887479
 31
0.0
  0
SPLINE
  5
362
100
AcDbEntity
  8
0
100
AcDbSpline
 62
253
  6
CONTINUOUS
 70
0
 71
3
 72
14
 73
10
 74
8
 42
0.0000001
 43
0.0000001
 44
0.0000000001
 12
-1.4434928676
 22
-28.9849204434
 32
0.0
 13
1.5019846996
 23
-28.9819482908
 33
0.0
 40
0.0
 40
0.0
 40
0.0
 40
0.0
 40
0.1453164064
 40
0.2897968838
 40
0.4334504075
 40
0.5762867705
 40
0.7183163902
 40
0.8595503075
 40
1.0
 40
1.0
 40
1.0
 40
1.0
 10
2.6241511693
 20
-2.3477583144
 30
0.0
 10
2.5542301039
 20
-3.7517531409
 30
0.0
 10
2.4342364658
 20
-6.5526755994
 30
0.0
 10
2.3138241256
 20
-10.7441120568
 30
0.0
 10
2.253527849
 20
-14.9128617871
 30
0.0
 10
2.2533569092
 20
-19.0583384265
 30
0.0
 10
2.3133118364
 20
-23.1799783939
 30
0.0
 10
2.4333842248
 20
-27.2772003001
 30
0.0
 10
2.5538334062
 20
-29.9995566322
 30
0.0
 10
2.6241511693
 20
-31.3563918744
 30
0.0
 11
2.6241511693
 21
-2.3477583144
 31
0.0
 11
2.4438194212
 21
-6.5611054773
 31
0.0
 11
2.3235842954
 21
-10.7523263592
 31
0.0
 11
2.263462602
 21
-14.9208390683
 31
0.0
 11
2.263462602
 21
-19.066070627
 31
0.0
 11
2.3235842954
 21
-23.1874513171
 31
0.0
 11
2.4438194212
 21
-27.2844146369
 31
0.0
 11
2.6241511693
 21
-31.3563918744
 31
0.0
  0
SPLINE
  5
363
100
AcDbEntity
  8
0
100
AcDbSpline
 62
253
  6
CONTINUOUS
 70
0
 71
3
 72
14
 73
10
 74
8
 42
0.0000001
 43
0.0000001
 44
0.0000000001
 12
-1.4739569318
 22
28.9829052287
 32
0.0
 13
1.4130491055
 23
28.985938604
 33
0.0
 40
0.0
 40
0.0
 40
0.0
 40
0.0
 40
0.1402950269
 40
0.2814277768
 40
0.4234085811
 40
0.5662473134
 40
0.7099532055
 40
0.8545348481
 40
1.0
 40
1.0
 40
1.0
 40
1.0
 10
-19.0760170542
 20
-4.7792221343
 30
0.0
 10
-19.1449466634
 20
-3.4238363119
 30
0.0
 10
-19.2630093928
 20
-0.7039021586
 30
0.0
 10
-19.3806763122
 20
3.3903679451
 30
0.0
 10
-19.4394248977
 20
7.5105230658
 30
0.0
 10
-19.439246934
 20
11.6559825326
 30
0.0
 10
-19.3801429405
 20
15.8261825787
 30
0.0
 10
-19.2621219798
 20
20.0205371784
 30
0.0
 10
-19.1445335218
 20
22.8239301048
 30
0.0
 10
-19.0760170542
 20
24.2294114258
 30
0.0
 11
-19.0760170542
 21
-4.7792221343
 31
0.0
 11
-19.2527539739
 21
-0.7116476445
 31
0.0
 11
-19.3705922696
 21
3.38238017
 31
0.0
 11
-19.4295154656
 21
7.5022930065
 31
0.0
 11
-19.4295154656
 21
11.6475245653
 31
0.0
 11
-19.3705922696
 21
15.8175051279
 31
0.0
 11
-19.2527539739
 21
20.0116615151
 31
0.0
 11
-19.0760170542
 21
24.2294114258
 31
0.0
  0
SPLINE
  5
364
100
AcDbEntity
  8
0
100
AcDbSpline
 62
253
  6
CONTINUOUS
 70
0
 71
3
 72
12
 73
8
 74
6
 42
0.0000001
 43
0.0000001
 44
0.0000000001
 12
0.0210038931
 22
-0.4065208007
 32
0.0
 13
0.2575877532
 23
-0.3156266272
 33
0.0
 40
0.0
 40
0.0
 40
0.0
 40
0.0
 40
0.2174946532
 40
0.427102026
 40
0.6305335146
 40
0.8298198597
 40
1.0
 40
1.0
 40
1.0
 40
1.0
 10
2.6241511678
 20
-31.3563918726
 30
0.0
 10
2.6256739127
 20
-31.3858639061
 30
0.0
 10
2.6318318394
 20
-31.4436415787
 30
0.0
 10
2.6511328702
 20
-31.5272122282
 30
0.0
 10
2.6802011511
 20
-31.605310483
 30
0.0
 10
2.7170855846
 20
-31.6740210968
 30
0.0
 10
2.746442921
 20
-31.714825067
 30
0.0
 10
2.7610550277
 20
-31.7327295283
 30
0.0
 11
2.6241511678
 21
-31.3563918726
 31
0.0
 11
2.6337389898
 21
-31.4444052197
 31
0.0
 11
2.6531154702
 21
-31.5274993671
 31
0.0
 11
2.6821356708
 21
-31.6050572913
 31
0.0
 11
2.7205801264
 21
-31.6764913174
 31
0.0
 11
2.7610550277
 21
-31.7327295283
 31
0.0
  0
SPLINE
  5
365
100
AcDbEntity
  8
0
100
AcDbSpline
 62
253
  6
CONTINUOUS
 70
0
 71
3
 72
24
 73
20
 74
18
 42
0.0000001
 43
0.0000001
 44
0.0000000001
 12
-1.866186545
 22
-0.8208574229
 32
0.0
 13
-0.1010575896
 23
-2.0362334083
 33
0.0
 40
0.0
 40
0.0
 40
0.0
 40
0.0
 40
0.0614273105
 40
0.123898349
 40
0.1871450089
 40
0.2508776551
 40
0.3148003423
 40
0.378615178
 40
0.442024127
 40
0.5047367543
 40
0.5664737692
 40
0.6269737881
 40
0.6859964222
 40
0.7433296124
 40
0.798794511
 40
0.8522546233
 40
0.9036204833
 40
0.9528570444
 40
1.0
 40
1.0
 40
1.0
 40
1.0
 10
3.8623792219
 20
-0.840048419
 30
0.0
 10
3.8241676151
 20
-0.8568561069
 30
0.0
 10
3.7480907129
 20
-0.8930666107
 30
0.0
 10
3.6364930985
 20
-0.9541950737
 30
0.0
 10
3.5271074266
 20
-1.0222187865
 30
0.0
 10
3.4207572114
 20
-1.096626448
 30
0.0
 10
3.3182396446
 20
-1.176859498
 30
0.0
 10
3.2203247587
 20
-1.2623153452
 30
0.0
 10
3.1277474113
 20
-1.3523526091
 30
0.0
 10
3.0412030738
 20
-1.4462950503
 30
0.0
 10
2.9613409124
 20
-1.5434383949
 30
0.0
 10
2.8887600435
 20
-1.6430548974
 30
0.0
 10
2.8240047676
 20
-1.7443996444
 30
0.0
 10
2.767561453
 20
-1.8467151861
 30
0.0
 10
2.7198543178
 20
-1.9492396855
 30
0.0
 10
2.6812436595
 20
-2.0512101926
 30
0.0
 10
2.6520243919
 20
-2.1518749324
 30
0.0
 10
2.6324247482
 20
-2.2504775394
 30
0.0
 10
2.625739219
 20
-2.3157602921
 30
0.0
 10
2.6241511678
 20
-2.3477583125
 30
0.0
 11
3.8623792219
 21
-0.840048419
 31
0.0
 11
3.7492709613
 21
-0.8938085232
 31
0.0
 11
3.6375433131
 21
-0.9549481779
 31
0.0
 11
3.5280272445
 21
-1.0230117448
 31
0.0
 11
3.4215525999
 21
-1.0974836481
 31
0.0
 11
3.3189231521
 21
-1.1778014255
 31
0.0
 11
3.2209118952
 21
-1.2633600619
 31
0.0
 11
3.1282599504
 21
-1.3535125481
 31
0.0
 11
3.0416664124
 21
-1.4475784168
 31
0.0
 11
2.961785229
 21
-1.5448469632
 31
0.0
 11
2.8892181762
 21
-1.64458518
 31
0.0
 11
2.8245132971
 21
-1.7460396828
 31
0.0
 11
2.7681586923
 21
-1.8484449235
 31
0.0
 11
2.7205801264
 21
-1.9510267141
 31
0.0
 11
2.6821356708
 21
-2.0530125755
 31
0.0
 11
2.6531154702
 21
-2.153632872
 31
0.0
 11
2.6337389898
 21
-2.2521255221
 31
0.0
 11
2.6241511678
 21
-2.3477583125
 31
0.0
  0
SPLINE
  5
366
100
AcDbEntity
  8
0
100
AcDbSpline
 62
253
  6
CONTINUOUS
 70
0
 71
3
 72
24
 73
20
 74
18
 42
0.0000001
 43
0.0000001
 44
0.0000000001
 12
0.0997462922
 22
2.038663582
 32
0.0
 13
1.8526477588
 23
0.8566182378
 33
0.0
 40
0.0
 40
0.0
 40
0.0
 40
0.0
 40
0.047158589
 40
0.0964662042
 40
0.1479439251
 40
0.2015426889
 40
0.2571599155
 40
0.3146470262
 40
0.3738141483
 40
0.4344392505
 40
0.4962729883
 40
0.5590460046
 40
0.6224719795
 40
0.6862543699
 40
0.7500899382
 40
0.8136764869
 40
0.8767146698
 40
0.9389123929
 40
1.0
 40
1.0
 40
1.0
 40
1.0
 10
-19.0760170527
 20
24.2294114239
 30
0.0
 10
-19.0744490879
 20
24.2614582566
 30
0.0
 10
-19.0678454597
 20
24.3268810806
 30
0.0
 10
-19.0485067569
 20
24.4257868395
 30
0.0
 10
-19.0196794683
 20
24.5269136321
 30
0.0
 10
-18.9815879188
 20
24.6295020721
 30
0.0
 10
-18.9345224194
 20
24.7327954477
 30
0.0
 10
-18.8788379762
 20
24.8360247455
 30
0.0
 10
-18.8149528333
 20
24.9384209224
 30
0.0
 10
-18.7433466711
 20
25.0392183124
 30
0.0
 10
-18.6645564156
 20
25.1376628656
 30
0.0
 10
-18.5791731295
 20
25.233016845
 30
0.0
 10
-18.4878372914
 20
25.3245652135
 30
0.0
 10
-18.3912350761
 20
25.4116202463
 30
0.0
 10
-18.2900915398
 20
25.4935284954
 30
0.0
 10
-18.1851663953
 20
25.5696747028
 30
0.0
 10
-18.0772462193
 20
25.6394873776
 30
0.0
 10
-17.9671433399
 20
25.702441576
 30
0.0
 10
-17.8920405385
 20
25.7399196754
 30
0.0
 10
-17.8543159324
 20
25.7573625948
 30
0.0
 11
-19.0760170527
 21
24.2294114239
 31
0.0
 11
-19.0665572046
 21
24.3252009497
 31
0.0
 11
-19.0474393458
 21
24.4240103453
 31
0.0
 11
-19.0188064844
 21
24.5251050335
 31
0.0
 11
-18.9808751548
 21
24.6277193433
 31
0.0
 11
-18.9339316314
 21
24.731078899
 31
0.0
 11
-18.878329205
 21
24.8344053662
 31
0.0
 11
-18.8144879579
 21
24.936917598
 31
0.0
 11
-18.7428894761
 21
25.037842067
 31
0.0
 11
-18.6640744875
 21
25.1364164301
 31
0.0
 11
-18.5786367364
 21
25.2318978428
 31
0.0
 11
-18.4872214418
 21
25.3235649101
 31
0.0
 11
-18.3905183667
 21
25.4107257355
 31
0.0
 11
-18.2892587425
 21
25.4927211973
 31
0.0
 11
-18.1842052389
 21
25.5689336358
 31
0.0
 11
-18.0761509198
 21
25.6387874727
 31
0.0
 11
-17.965914507
 21
25.7017535104
 31
0.0
 11
-17.8543159324
 21
25.7573625948
 31
0.0
  0
SPLINE
  5
367
100
AcDbEntity
  8
0
100
AcDbSpline
 62
253
  6
CONTINUOUS
 70
0
 71
3
 72
14
 73
10
 74
8
 42
0.0000001
 43
0.0000001
 44
0.0000000001
 12
-0.0119657687
 22
-0.1893091976
 32
0.0
 13
-0.1797075774
 23
-0.0627079068
 33
0.0
 40
0.0
 40
0.0
 40
0.0
 40
0.0
 40
0.2193515482
 40
0.4150665418
 40
0.5872004494
 40
0.7375194639
 40
0.8702216274
 40
0.9925395982
 40
1.0
 40
1.0
 40
1.0
 40
1.0
 10
4.1274399262
 20
-31.8269875054
 30
0.0
 10
4.1265650229
 20
-31.8408292606
 30
0.0
 10
4.1238403005
 20
-31.866977506
 30
0.0
 10
4.1160989667
 20
-31.9033752072
 30
0.0
 10
4.1050025574
 20
-31.9343372546
 30
0.0
 10
4.0906002413
 20
-31.959475903
 30
0.0
 10
4.072869557
 20
-31.9783938189
 30
0.0
 10
4.0582355423
 20
-31.9868031793
 30
0.0
 10
4.0504891655
 20
-31.9895941963
 30
0.0
 10
4.0500422686
 20
-31.9897501383
 30
0.0
 11
4.1274399262
 21
-31.8269875054
 31
0.0
 11
4.1229178631
 21
-31.8683491752
 31
0.0
 11
4.114930962
 21
-31.9046044419
 31
0.0
 11
4.1035955546
 21
-31.9352252359
 31
0.0
 11
4.0890767448
 21
-31.9597655557
 31
0.0
 11
4.0715860036
 21
-31.9778679636
 31
0.0
 11
4.0513780892
 21
-31.9892687923
 31
0.0
 11
4.0500422686
 21
-31.9897501383
 31
0.0
  0
SPLINE
  5
368
100
AcDbEntity
  8
0
100
AcDbSpline
 62
253
  6
CONTINUOUS
 70
0
 71
3
 72
20
 73
16
 74
14
 42
0.0000001
 43
0.0000001
 44
0.0000000001
 12
-0.6710166568
 22
-0.2852864848
 32
0.0
 13
-0.4613613765
 23
0.5646214771
 33
0.0
 40
0.0
 40
0.0
 40
0.0
 40
0.0
 40
0.0787077579
 40
0.1589717385
 40
0.240292441
 40
0.3221304278
 40
0.403927174
 40
0.4851256654
 40
0.5651910175
 40
0.6436313832
 40
0.7200193805
 40
0.7940141618
 40
0.8653839863
 40
0.9340286307
 40
1.0
 40
1.0
 40
1.0
 40
1.0
 10
3.2992044372
 20
-31.4744900464
 30
0.0
 10
3.2815996984
 20
-31.4819747996
 30
0.0
 10
3.2452926694
 20
-31.495384477
 30
0.0
 10
3.1888242607
 20
-31.5105754726
 30
0.0
 10
3.1304871157
 20
-31.5208753626
 30
0.0
 10
3.0711107533
 20
-31.5261373601
 30
0.0
 10
3.0115310744
 20
-31.5262883568
 30
0.0
 10
2.9525890769
 20
-31.5213255286
 30
0.0
 10
2.8951158841
 20
-31.5113174523
 30
0.0
 10
2.8399217942
 20
-31.4964025416
 30
0.0
 10
2.7877845099
 20
-31.4767862059
 30
0.0
 10
2.7394398746
 20
-31.4527385056
 30
0.0
 10
2.6955690627
 20
-31.4245848458
 30
0.0
 10
2.656804411
 20
-31.3927180665
 30
0.0
 10
2.6342971512
 20
-31.3688137009
 30
0.0
 10
2.624151604
 20
-31.3563974169
 30
0.0
 11
3.2992044372
 21
-31.4744900464
 31
0.0
 11
3.2453904293
 21
-31.4944296501
 31
0.0
 11
3.1888869956
 21
-31.5096751553
 31
0.0
 11
3.1304999117
 21
-31.520009151
 31
0.0
 11
3.0710618156
 21
-31.5252842677
 31
0.0
 11
3.011420333
 21
-31.5254252789
 31
0.0
 11
2.9524259903
 21
-31.5204301737
 31
0.0
 11
2.8949200852
 21
-31.5103701855
 31
0.0
 11
2.8397226893
 21
-31.4953887763
 31
0.0
 11
2.7876209533
 21
-31.4756995907
 31
0.0
 11
2.7393578819
 21
-31.4515834093
 31
0.0
 11
2.6956217379
 21
-31.4233841445
 31
0.0
 11
2.6570362271
 21
-31.3915039362
 31
0.0
 11
2.624151604
 21
-31.3563974169
 31
0.0
  0
SPLINE
  5
369
100
AcDbEntity
  8
0
100
AcDbSpline
 62
253
  6
CONTINUOUS
 70
0
 71
3
 72
20
 73
16
 74
14
 42
0.0000001
 43
0.0000001
 44
0.0000000001
 12
-0.687649924
 22
-0.2466982161
 32
0.0
 13
-0.461800898
 23
0.5660939484
 33
0.0
 40
0.0
 40
0.0
 40
0.0
 40
0.0
 40
0.0770381336
 40
0.1560591943
 40
0.2365559041
 40
0.3179664147
 40
0.3996962839
 40
0.4811398825
 40
0.5617016041
 40
0.6408172525
 40
0.7179759767
 40
0.7927430955
 40
0.8647840439
 40
0.9338893668
 40
1.0
 40
1.0
 40
1.0
 40
1.0
 10
3.2992044372
 20
-2.49485369
 30
0.0
 10
3.281546015
 20
-2.5011887467
 30
0.0
 10
3.2451310833
 20
-2.5122885539
 30
0.0
 10
3.188668065
 20
-2.5240584496
 30
0.0
 10
3.1303409636
 20
-2.5310366629
 30
0.0
 10
3.0709788035
 20
-2.5331240663
 30
0.0
 10
3.0114170199
 20
-2.5302926325
 30
0.0
 10
2.9524964333
 20
-2.5225821502
 30
0.0
 10
2.8950480545
 20
-2.5101007075
 30
0.0
 10
2.8398820059
 20
-2.4930227013
 30
0.0
 10
2.7877755231
 20
-2.4715855659
 30
0.0
 10
2.7394632932
 20
-2.4460868695
 30
0.0
 10
2.6956244179
 20
-2.416874669
 30
0.0
 10
2.6568870112
 20
-2.3843575895
 30
0.0
 10
2.6343281095
 20
-2.3602274225
 30
0.0
 10
2.6241514596
 20
-2.3477524793
 30
0.0
 11
3.2992044372
 21
-2.49485369
 31
0.0
 11
3.2453904234
 21
-2.5113348092
 31
0.0
 11
3.1888869812
 21
-2.5231711492
 31
0.0
 11
3.1304998869
 21
-2.530193916
 31
0.0
 11
3.0710617786
 21
-2.5323029603
 31
0.0
 11
3.0114202826
 21
-2.5294682058
 31
0.0
 11
2.9524259259
 21
-2.5217300781
 31
0.0
 11
2.8949200065
 21
-2.5091989277
 31
0.0
 11
2.8397225965
 21
-2.4920534572
 31
0.0
 11
2.7876208472
 21
-2.4705381721
 31
0.0
 11
2.7393577635
 21
-2.4449598946
 31
0.0
 11
2.6956216088
 21
-2.4156833877
 31
0.0
 11
2.6570360893
 21
-2.3831261534
 31
0.0
 11
2.6241514596
 21
-2.3477524793
 31
0.0
  0
SPLINE
  5
36A
100
AcDbEntity
  8
0
100
AcDbSpline
 62
253
  6
CONTINUOUS
 70
0
 71
3
 72
20
 73
16
 74
14
 42
0.0000001
 43
0.0000001
 44
0.0000000001
 12
-0.0473001832
 22
0.7112521816
 32
0.0
 13
-0.4395186814
 23
0.5611954221
 33
0.0
 40
0.0
 40
0.0
 40
0.0
 40
0.0
 40
0.0616393019
 40
0.129310768
 40
0.2022560296
 40
0.2795936457
 40
0.3603488087
 40
0.4434783242
 40
0.5278932439
 40
0.6124803692
 40
0.6961232779
 40
0.7777232944
 40
0.8562207926
 40
0.9306173855
 40
1.0
 40
1.0
 40
1.0
 40
1.0
 10
4.1274399262
 20
-1.4930930072
 30
0.0
 10
4.1264680761
 20
-1.4784793113
 30
0.0
 10
4.1231941096
 20
-1.4478989734
 30
0.0
 10
4.1151203679
 20
-1.4005010055
 30
0.0
 10
4.1037434562
 20
-1.3499563439
 30
0.0
 10
4.0892224412
 20
-1.2969973296
 30
0.0
 10
4.0717628688
 20
-1.2423887141
 30
0.0
 10
4.0516151345
 20
-1.186922535
 30
0.0
 10
4.0290699046
 20
-1.1314035271
 30
0.0
 10
4.0044537669
 20
-1.0766375202
 30
0.0
 10
3.9781241713
 20
-1.0234190168
 30
0.0
 10
3.9504642541
 20
-0.9725195754
 30
0.0
 10
3.9218764109
 20
-0.9246748799
 30
0.0
 10
3.8927784779
 20
-0.8805773399
 30
0.0
 10
3.8725379673
 20
-0.8530302323
 30
0.0
 10
3.8623729823
 20
-0.8400511637
 30
0.0
 11
4.1274399262
 21
-1.4930930072
 31
0.0
 11
4.1229178639
 21
-1.4493884036
 31
0.0
 11
4.1149309642
 21
-1.4018164141
 31
0.0
 11
4.1035955587
 21
-1.3510699396
 31
0.0
 11
4.0890767508
 21
-1.2978881181
 31
0.0
 11
4.0715860113
 21
-1.2430455597
 31
0.0
 11
4.0513780983
 21
-1.1873410635
 31
0.0
 11
4.0287473463
 21
-1.1315859833
 31
0.0
 11
4.0040233792
 21
-1.0765924098
 31
0.0
 11
3.9775663095
 21
-1.0231613421
 31
0.0
 11
3.9497614929
 21
-0.9720710211
 31
0.0
 11
3.9210139154
 21
-0.924065594
 31
0.0
 11
3.891742295
 21
-0.8798442755
 31
0.0
 11
3.8623729823
 21
-0.8400511637
 31
0.0
  0
SPLINE
  5
36B
100
AcDbEntity
  8
0
100
AcDbSpline
 62
7
  6
CONTINUOUS
 70
0
 71
3
 72
20
 73
16
 74
14
 42
0.0000001
 43
0.0000001
 44
0.0000000001
 12
0.0
 22
0.7158345048
 32
0.0
 13
-0.4527334926
 23
0.5544830232
 33
0.0
 40
0.0
 40
0.0
 40
0.0
 40
0.0
 40
0.0629347361
 40
0.1312252054
 40
0.2044963123
 40
0.2820883617
 40
0.3627802798
 40
0.4458917567
 40
0.5300002066
 40
0.6144157556
 40
0.69769832
 40
0.7790961304
 40
0.8571995169
 40
0.9311998432
 40
1.0
 40
1.0
 40
1.0
 40
1.0
 10
10.8117744069
 20
1.4100440177
 30
0.0
 10
10.8117744069
 20
1.4250609696
 30
0.0
 10
10.8112073392
 20
1.4564055948
 30
0.0
 10
10.8054019831
 20
1.5049174413
 30
0.0
 10
10.7961704801
 20
1.5564080949
 30
0.0
 10
10.7833846622
 20
1.6101888965
 30
0.0
 10
10.7673986299
 20
1.6655453316
 30
0.0
 10
10.74847827
 20
1.7216121778
 30
0.0
 10
10.726912572
 20
1.7776668007
 30
0.0
 10
10.703061753
 20
1.8328319234
 30
0.0
 10
10.6772618667
 20
1.8863972981
 30
0.0
 10
10.6499300052
 20
1.9374928076
 30
0.0
 10
10.6215306123
 20
1.9854590131
 30
0.0
 10
10.5923489041
 20
2.0293615803
 30
0.0
 10
10.5723474186
 20
2.0569962072
 30
0.0
 10
10.5619647068
 20
2.0697123802
 30
0.0
 11
10.8117744069
 21
1.4100440177
 31
0.0
 11
10.81050406
 21
1.4550769591
 31
0.0
 11
10.8050908962
 21
1.5036610001
 31
0.0
 11
10.7958865356
 21
1.5552970421
 31
0.0
 11
10.7831371922
 21
1.6093570685
 31
0.0
 11
10.767157566
 21
1.664864789
 31
0.0
 11
10.7481667554
 21
1.7212464582
 31
0.0
 11
10.7265603927
 21
1.7774437528
 31
0.0
 11
10.7025781509
 21
1.8329085382
 31
0.0
 11
10.6766874731
 21
1.8866095981
 31
0.0
 11
10.6491833192
 21
1.9379769701
 31
0.0
 11
10.6206113852
 21
1.9860339357
 31
0.0
 11
10.5913565331
 21
2.030194835
 31
0.0
 11
10.5619647068
 21
2.0697123802
 31
0.0
  0
SPLINE
  5
36C
100
AcDbEntity
  8
0
100
AcDbSpline
 62
253
  6
CONTINUOUS
 70
0
 71
3
 72
11
 73
7
 74
5
 42
0.0000001
 43
0.0000001
 44
0.0000000001
 12
-0.0473567098
 22
0.0580082152
 32
0.0
 13
0.0
 23
0.0747384001
 33
0.0
 40
0.0
 40
0.0
 40
0.0
 40
0.0
 40
0.1450465283
 40
0.4171466395
 40
0.7002986143
 40
1.0
 40
1.0
 40
1.0
 40
1.0
 10
7.4030786135
 20
3.4886462942
 30
0.0
 10
7.4007889714
 20
3.4914509243
 30
0.0
 10
7.394668389
 20
3.4998963142
 30
0.0
 10
7.386846062
 20
3.5156344567
 30
0.0
 10
7.381349913
 20
3.5363438825
 30
0.0
 10
7.3802211688
 20
3.5509030591
 30
0.0
 10
7.3802211688
 20
3.5583694598
 30
0.0
 11
7.4030786135
 21
3.4886462942
 31
0.0
 11
7.3967092287
 21
3.4974363969
 31
0.0
 11
7.3876017385
 21
3.5156193509
 31
0.0
 11
7.382074206
 21
3.5360470382
 31
0.0
 11
7.3802211688
 21
3.5583694598
 31
0.0
  0
SPLINE
  5
36D
100
AcDbEntity
  8
0
100
AcDbSpline
 62
253
  6
CONTINUOUS
 70
0
 71
3
 72
10
 73
6
 74
4
 42
0.0000001
 43
0.0000001
 44
0.0000000001
 12
0.0217240598
 22
-0.046428161
 32
0.0
 13
-0.000000002
 23
-0.0511891396
 33
0.0
 40
0.0
 40
0.0
 40
0.0
 40
0.0
 40
0.2406888586
 40
0.6123555498
 40
1.0
 40
1.0
 40
1.0
 40
1.0
 10
-0.3285287494
 20
13.8385269887
 30
0.0
 10
-0.3267858364
 20
13.834802075
 30
0.0
 10
-0.3229355454
 20
13.8250512166
 30
0.0
 10
-0.3190535298
 20
13.8083559088
 30
0.0
 10
-0.3181559525
 20
13.7953738802
 30
0.0
 10
-0.3181559527
 20
13.7887594849
 30
0.0
 11
-0.3285287494
 21
13.8385269887
 31
0.0
 11
-0.3239866752
 21
13.8270638317
 31
0.0
 11
-0.3196067334
 21
13.8085495648
 31
0.0
 11
-0.3181559527
 21
13.7887594849
 31
0.0
  0
SPLINE
  5
36E
100
AcDbEntity
  8
0
100
AcDbSpline
 62
7
  6
CONTINUOUS
 70
0
 71
3
 72
13
 73
9
 74
7
 42
0.0000001
 43
0.0000001
 44
0.0000000001
 12
-0.0
 22
-0.177195016
 32
0.0
 13
-0.163838646
 23
-0.0692412129
 33
0.0
 40
0.0
 40
0.0
 40
0.0
 40
0.0
 40
0.225838992
 40
0.4274466355
 40
0.6039125226
 40
0.7572113282
 40
0.8913370137
 40
1.0
 40
1.0
 40
1.0
 40
1.0
 10
10.8117744069
 20
-29.4903724637
 30
0.0
 10
10.8117744069
 20
-29.503711645
 30
0.0
 10
10.8114934143
 20
-29.5290044863
 30
0.0
 10
10.8061651681
 20
-29.5643925034
 30
0.0
 10
10.7972536885
 20
-29.594616649
 30
0.0
 10
10.7846652435
 20
-29.6191880176
 30
0.0
 10
10.7690239174
 20
-29.6370013537
 30
0.0
 10
10.7566015034
 20
-29.644623911
 30
0.0
 10
10.7506671045
 20
-29.6471318966
 30
0.0
 11
10.8117744069
 21
-29.4903724637
 31
0.0
 11
10.8105031714
 21
-29.5303698108
 31
0.0
 11
10.8050888983
 21
-29.565681006
 31
0.0
 11
10.7958862833
 21
-29.5955650228
 31
0.0
 11
10.7831349461
 21
-29.6195499051
 31
0.0
 11
10.7671532623
 21
-29.6371404621
 31
0.0
 11
10.7506671045
 21
-29.6471318966
 31
0.0
  0
SPLINE
  5
36F
100
AcDbEntity
  8
0
100
AcDbSpline
 62
253
  6
CONTINUOUS
 70
0
 71
3
 72
10
 73
6
 74
4
 42
0.0000001
 43
0.0000001
 44
0.0000000001
 12
0.0217240598
 22
-0.046428161
 32
0.0
 13
-0.000000002
 23
-0.0511891396
 33
0.0
 40
0.0
 40
0.0
 40
0.0
 40
0.0
 40
0.2406888586
 40
0.6123555498
 40
1.0
 40
1.0
 40
1.0
 40
1.0
 10
9.1089712506
 20
2.2799972649
 30
0.0
 10
9.1107141636
 20
2.2762723512
 30
0.0
 10
9.1145644546
 20
2.2665214929
 30
0.0
 10
9.1184464702
 20
2.249826185
 30
0.0
 10
9.1193440475
 20
2.2368441564
 30
0.0
 10
9.1193440473
 20
2.2302297611
 30
0.0
 11
9.1089712506
 21
2.2799972649
 31
0.0
 11
9.1135133248
 21
2.2685341079
 31
0.0
 11
9.1178932666
 21
2.250019841
 31
0.0
 11
9.1193440473
 21
2.2302297611
 31
0.0
  0
SPLINE
  5
370
100
AcDbEntity
  8
0
100
AcDbSpline
 62
253
  6
CONTINUOUS
 70
0
 71
3
 72
18
 73
14
 74
12
 42
0.0000001
 43
0.0000001
 44
0.0000000001
 12
-0.3411203749
 22
-0.1375829166
 32
0.0
 13
-0.2326303204
 23
0.2849127992
 33
0.0
 40
0.0
 40
0.0
 40
0.0
 40
0.0
 40
0.0920232999
 40
0.1864738419
 40
0.2824917555
 40
0.3791347304
 40
0.4754284686
 40
0.5704164841
 40
0.6632102681
 40
0.7530408543
 40
0.8393126216
 40
0.9216592906
 40
1.0
 40
1.0
 40
1.0
 40
1.0
 10
9.4597150658
 20
-30.4725987594
 30
0.0
 10
9.4492513916
 20
-30.4768190374
 30
0.0
 10
9.4275344203
 20
-30.4841434842
 30
0.0
 10
9.393658868
 20
-30.4916408666
 30
0.0
 10
9.3586278174
 20
-30.4956827465
 30
0.0
 10
9.3231444106
 20
-30.4961877143
 30
0.0
 10
9.2879137157
 20
-30.493146495
 30
0.0
 10
9.2536376654
 20
-30.4866185318
 30
0.0
 10
9.2209979755
 20
-30.4767310658
 30
0.0
 10
9.1906441776
 20
-30.4636765278
 30
0.0
 10
9.1631782593
 20
-30.4477033459
 30
0.0
 10
9.1391560076
 20
-30.4291239127
 30
0.0
 10
9.1254188544
 20
-30.414873387
 30
0.0
 10
9.1193440463
 20
-30.4074332967
 30
0.0
 11
9.4597150658
 21
-30.4725987594
 31
0.0
 11
9.4276601653
 21
-30.4834696551
 31
0.0
 11
9.393748696
 21
-30.4910155692
 31
0.0
 11
9.3586664125
 21
-30.4950839089
 31
0.0
 11
9.3231227496
 21
-30.4955924047
 31
0.0
 11
9.2878364788
 21
-30.4925307766
 31
0.0
 11
9.2535211606
 21
-30.4859609425
 31
0.0
 11
9.2208707115
 21
-30.4760157627
 31
0.0
 11
9.1905453782
 21
-30.4628963516
 31
0.0
 11
9.1631583875
 21
-30.4468680107
 31
0.0
 11
9.1392635471
 21
-30.4282548629
 31
0.0
 11
9.1193440463
 21
-30.4074332967
 31
0.0
  0
SPLINE
  5
371
100
AcDbEntity
  8
0
100
AcDbSpline
 62
253
  6
CONTINUOUS
 70
0
 71
3
 72
14
 73
10
 74
8
 42
0.0000001
 43
0.0000001
 44
0.0000000001
 12
-0.0865954326
 22
-0.1570249254
 32
0.0
 13
-0.1792790147
 23
0.0119008558
 33
0.0
 40
0.0
 40
0.0
 40
0.0
 40
0.0
 40
0.1742300835
 40
0.3390785851
 40
0.494252604
 40
0.6402592987
 40
0.7785159482
 40
0.9113606249
 40
1.0
 40
1.0
 40
1.0
 40
1.0
 10
9.2425542104
 20
2.3836627701
 30
0.0
 10
9.2375250339
 20
2.3745432815
 30
0.0
 10
9.2267258373
 20
2.3573236354
 30
0.0
 10
9.2079145003
 20
2.3344313637
 30
0.0
 10
9.1872508846
 20
2.3155882924
 30
0.0
 10
9.1651208698
 20
2.3011976347
 30
0.0
 10
9.1419435604
 20
2.29159378
 30
0.0
 10
9.1206684653
 20
2.2875141134
 30
0.0
 10
9.1073667287
 20
2.2874195304
 30
0.0
 10
9.1020696688
 20
2.2877711585
 30
0.0
 11
9.2425542104
 21
2.3836627701
 31
0.0
 11
9.2258709587
 21
2.357247087
 31
0.0
 11
9.2070130515
 21
2.3344828919
 31
0.0
 11
9.186363106
 21
2.3158320587
 31
0.0
 11
9.1643401014
 21
2.3016730045
 31
0.0
 11
9.1413908806
 21
2.2922930096
 31
0.0
 11
9.117981076
 21
2.2878823832
 31
0.0
 11
9.1020696688
 21
2.2877711585
 31
0.0
  0
SPLINE
  5
372
100
AcDbEntity
  8
0
100
AcDbSpline
 62
253
  6
CONTINUOUS
 70
0
 71
3
 72
14
 73
10
 74
8
 42
0.0000001
 43
0.0000001
 44
0.0000000001
 12
-0.0865954326
 22
-0.1570249254
 32
0.0
 13
-0.1792790147
 23
0.0119008558
 33
0.0
 40
0.0
 40
0.0
 40
0.0
 40
0.0
 40
0.1742300835
 40
0.3390785851
 40
0.494252604
 40
0.6402592987
 40
0.7785159482
 40
0.9113606249
 40
1.0
 40
1.0
 40
1.0
 40
1.0
 10
-0.1949457896
 20
13.9421924939
 30
0.0
 10
-0.1999749661
 20
13.9330730053
 30
0.0
 10
-0.2107741627
 20
13.9158533592
 30
0.0
 10
-0.2295854997
 20
13.8929610874
 30
0.0
 10
-0.2502491154
 20
13.8741180161
 30
0.0
 10
-0.2723791302
 20
13.8597273585
 30
0.0
 10
-0.2955564396
 20
13.8501235037
 30
0.0
 10
-0.3168315347
 20
13.8460438371
 30
0.0
 10
-0.3301332713
 20
13.8459492541
 30
0.0
 10
-0.3354303312
 20
13.8463008823
 30
0.0
 11
-0.1949457896
 21
13.9421924939
 31
0.0
 11
-0.2116290413
 21
13.9157768107
 31
0.0
 11
-0.2304869485
 21
13.8930126157
 31
0.0
 11
-0.251136894
 21
13.8743617825
 31
0.0
 11
-0.2731598986
 21
13.8602027282
 31
0.0
 11
-0.2961091194
 21
13.8508227333
 31
0.0
 11
-0.319518924
 21
13.846412107
 31
0.0
 11
-0.3354303312
 21
13.8463008823
 31
0.0
  0
SPLINE
  5
373
100
AcDbEntity
  8
0
100
AcDbSpline
 62
253
  6
CONTINUOUS
 70
0
 71
3
 72
16
 73
12
 74
10
 42
0.0000001
 43
0.0000001
 44
0.0000000001
 12
0.0000024503
 22
0.3436441362
 32
0.0
 13
-0.3428832575
 23
0.022855285
 33
0.0
 40
0.0
 40
0.0
 40
0.0
 40
0.0
 40
0.1153966848
 40
0.2260351152
 40
0.3328972586
 40
0.4372604187
 40
0.5414839429
 40
0.6483487609
 40
0.759893109
 40
0.877079729
 40
1.0
 40
1.0
 40
1.0
 40
1.0
 10
-11.2277849342
 20
27.5019728259
 30
0.0
 10
-11.22778484
 20
27.5151912906
 30
0.0
 10
-11.2295712794
 20
27.5411346497
 30
0.0
 10
-11.2382240889
 20
27.5784504816
 30
0.0
 10
-11.252794298
 20
27.6125440718
 30
0.0
 10
-11.2730727638
 20
27.6427154299
 30
0.0
 10
-11.2987184917
 20
27.6684783395
 30
0.0
 10
-11.3293649427
 20
27.689493438
 30
0.0
 10
-11.3645336584
 20
27.7054572686
 30
0.0
 10
-11.4035219174
 20
27.7161438615
 30
0.0
 10
-11.4308966887
 20
27.7196358378
 30
0.0
 10
-11.4449457896
 20
27.720572297
 30
0.0
 11
-11.2277849342
 21
27.5019728259
 31
0.0
 11
-11.2306745656
 21
27.5415227982
 31
0.0
 11
-11.2394070808
 21
27.5785266145
 31
0.0
 11
-11.2539355012
 21
27.6122530226
 31
0.0
 11
-11.2739701517
 21
27.6419990151
 31
0.0
 11
-11.2992082517
 21
27.6674118081
 31
0.0
 11
-11.3294331827
 21
27.6882700596
 31
0.0
 11
-11.3642729488
 21
27.7042544044
 31
0.0
 11
-11.4030657382
 21
27.7150633006
 31
0.0
 11
-11.4449457896
 21
27.720572297
 31
0.0
  0
SPLINE
  5
374
100
AcDbEntity
  8
0
100
AcDbSpline
 62
253
  6
CONTINUOUS
 70
0
 71
3
 72
18
 73
14
 74
12
 42
0.0000001
 43
0.0000001
 44
0.0000000001
 12
0.2326303204
 22
-0.2849127993
 32
0.0
 13
0.3411203749
 23
0.1375829167
 33
0.0
 40
0.0
 40
0.0
 40
0.0
 40
0.0
 40
0.0783407093
 40
0.1606873782
 40
0.2469591454
 40
0.3367897315
 40
0.4295835154
 40
0.524571531
 40
0.6208652693
 40
0.7175082442
 40
0.813526158
 40
0.9079767
 40
1.0
 40
1.0
 40
1.0
 40
1.0
 10
9.1193440463
 20
2.2302287616
 30
0.0
 10
9.1254188544
 20
2.2227886713
 30
0.0
 10
9.1391560076
 20
2.2085381457
 30
0.0
 10
9.1631782592
 20
2.1899587125
 30
0.0
 10
9.1906441775
 20
2.1739855305
 30
0.0
 10
9.2209979754
 20
2.1609309926
 30
0.0
 10
9.2536376653
 20
2.1510435266
 30
0.0
 10
9.2879137156
 20
2.1445155633
 30
0.0
 10
9.3231444105
 20
2.141474344
 30
0.0
 10
9.3586278173
 20
2.1419793119
 30
0.0
 10
9.3936588679
 20
2.1460211917
 30
0.0
 10
9.4275344202
 20
2.1535185742
 30
0.0
 10
9.4492513915
 20
2.1608430209
 30
0.0
 10
9.4597150658
 20
2.165063299
 30
0.0
 11
9.1193440463
 21
2.2302287616
 31
0.0
 11
9.1392635471
 21
2.2094071954
 31
0.0
 11
9.1631583874
 21
2.1907940476
 31
0.0
 11
9.190545378
 21
2.1747657068
 31
0.0
 11
9.2208707114
 21
2.1616462957
 31
0.0
 11
9.2535211605
 21
2.1517011158
 31
0.0
 11
9.2878364786
 21
2.1451312817
 31
0.0
 11
9.3231227495
 21
2.1420696536
 31
0.0
 11
9.3586664124
 21
2.1425781494
 31
0.0
 11
9.3937486959
 21
2.1466464891
 31
0.0
 11
9.4276601653
 21
2.1541924032
 31
0.0
 11
9.4597150658
 21
2.165063299
 31
0.0
  0
SPLINE
  5
375
100
AcDbEntity
  8
0
100
AcDbSpline
 62
253
  6
CONTINUOUS
 70
0
 71
3
 72
18
 73
14
 74
12
 42
0.0000001
 43
0.0000001
 44
0.0000000001
 12
0.2201069751
 22
-0.2727470133
 32
0.0
 13
0.2470042842
 23
-0.2486501505
 33
0.0
 40
0.0
 40
0.0
 40
0.0
 40
0.0
 40
0.0845598253
 40
0.1762544707
 40
0.2732306491
 40
0.3735267942
 40
0.4751133896
 40
0.5759345221
 40
0.6739499213
 40
0.7671766962
 40
0.853730062
 40
0.9318623776
 40
1.0
 40
1.0
 40
1.0
 40
1.0
 10
9.0104363674
 20
-30.6039189798
 30
0.0
 10
9.0166404366
 20
-30.6116067931
 30
0.0
 10
9.029666822
 20
-30.6275547076
 30
0.0
 10
9.0500890242
 20
-30.6520883097
 30
0.0
 10
9.0718982136
 20
-30.6778579195
 30
0.0
 10
9.0946524637
 20
-30.7043403425
 30
0.0
 10
9.1178904951
 20
-30.7309981267
 30
0.0
 10
9.1411409173
 20
-30.757290459
 30
0.0
 10
9.1639318639
 20
-30.7826841611
 30
0.0
 10
9.1858005538
 20
-30.8066645072
 30
0.0
 10
9.2063024978
 20
-30.8287460385
 30
0.0
 10
9.2250206639
 20
-30.8484819821
 30
0.0
 10
9.2369441155
 20
-30.8607242472
 30
0.0
 10
9.2425542104
 20
-30.8663717239
 30
0.0
 11
9.0104363674
 21
-30.6039189798
 31
0.0
 11
9.029173457
 21
-30.6268810789
 31
0.0
 11
9.0497267734
 21
-30.6515867847
 31
0.0
 11
9.0716793072
 21
-30.677534839
 31
0.0
 11
9.094585659
 21
-30.7041987759
 31
0.0
 11
9.1179810758
 21
-30.7310376036
 31
0.0
 11
9.1413908805
 21
-30.7575067794
 31
0.0
 11
9.1643401013
 21
-30.7830692583
 31
0.0
 11
9.1863631059
 21
-30.8072063851
 31
0.0
 11
9.2070130515
 21
-30.8294284215
 31
0.0
 11
9.2258709587
 21
-30.8492844909
 31
0.0
 11
9.2425542104
 21
-30.8663717239
 31
0.0
  0
SPLINE
  5
376
100
AcDbEntity
  8
0
100
AcDbSpline
 62
253
  6
CONTINUOUS
 70
0
 71
3
 72
16
 73
12
 74
10
 42
0.0000001
 43
0.0000001
 44
0.0000000001
 12
0.0000000088
 22
-0.2309734545
 32
0.0
 13
-0.1745154158
 23
-0.1513046805
 33
0.0
 40
0.0
 40
0.0
 40
0.0
 40
0.0
 40
0.09090371
 40
0.1880411753
 40
0.291228069
 40
0.3995440358
 40
0.5125737719
 40
0.6302390536
 40
0.7517824945
 40
0.8756342834
 40
1.0
 40
1.0
 40
1.0
 40
1.0
 10
9.1193440473
 20
-30.4074342999
 30
0.0
 10
9.1193440475
 20
-30.4144330812
 30
0.0
 10
9.1182841521
 20
-30.4289240291
 30
0.0
 10
9.1138193555
 20
-30.4509481454
 30
0.0
 10
9.1064746103
 20
-30.4735964937
 30
0.0
 10
9.0963718337
 20
-30.4964913791
 30
0.0
 10
9.0836618649
 20
-30.5193274631
 30
0.0
 10
9.0684913262
 20
-30.5418432131
 30
0.0
 10
9.0510583372
 20
-30.5637297272
 30
0.0
 10
9.0316712117
 20
-30.5846104737
 30
0.0
 10
9.0176708733
 20
-30.5976466716
 30
0.0
 10
9.0104362951
 20
-30.6039190433
 30
0.0
 11
9.1193440473
 21
-30.4074342999
 31
0.0
 11
9.1178932666
 21
-30.4283804617
 31
0.0
 11
9.1135133248
 21
-30.4503849634
 31
0.0
 11
9.1062275007
 21
-30.473077458
 31
0.0
 11
9.0961814076
 21
-30.4959899436
 31
0.0
 11
9.0835267728
 21
-30.5188247592
 31
0.0
 11
9.0683719808
 21
-30.5413847207
 31
0.0
 11
9.0509034082
 21
-30.5633610629
 31
0.0
 11
9.0314526975
 21
-30.5843372469
 31
0.0
 11
9.0104362951
 21
-30.6039190433
 31
0.0
  0
SPLINE
  5
377
100
AcDbEntity
  8
0
100
AcDbSpline
 62
253
  6
CONTINUOUS
 70
0
 71
3
 72
18
 73
14
 74
12
 42
0.0000001
 43
0.0000001
 44
0.0000000001
 12
0.2326303204
 22
-0.2849127993
 32
0.0
 13
0.3411203749
 23
0.1375829167
 33
0.0
 40
0.0
 40
0.0
 40
0.0
 40
0.0
 40
0.0783407093
 40
0.1606873782
 40
0.2469591454
 40
0.3367897315
 40
0.4295835154
 40
0.524571531
 40
0.6208652693
 40
0.7175082442
 40
0.813526158
 40
0.9079767
 40
1.0
 40
1.0
 40
1.0
 40
1.0
 10
-0.3181559537
 20
13.7887584853
 30
0.0
 10
-0.3120811456
 20
13.7813183951
 30
0.0
 10
-0.2983439924
 20
13.7670678695
 30
0.0
 10
-0.2743217408
 20
13.7484884362
 30
0.0
 10
-0.2468558225
 20
13.7325152543
 30
0.0
 10
-0.2165020246
 20
13.7194607164
 30
0.0
 10
-0.1838623347
 20
13.7095732503
 30
0.0
 10
-0.1495862844
 20
13.7030452871
 30
0.0
 10
-0.1143555895
 20
13.7000040677
 30
0.0
 10
-0.0788721827
 20
13.7005090356
 30
0.0
 10
-0.0438411321
 20
13.7045509155
 30
0.0
 10
-0.0099655798
 20
13.7120482979
 30
0.0
 10
0.0117513915
 20
13.7193727447
 30
0.0
 10
0.0222150658
 20
13.7235930227
 30
0.0
 11
-0.3181559537
 21
13.7887584853
 31
0.0
 11
-0.2982364529
 21
13.7679369192
 31
0.0
 11
-0.2743416126
 21
13.7493237714
 31
0.0
 11
-0.246954622
 21
13.7332954305
 31
0.0
 11
-0.2166292886
 21
13.7201760195
 31
0.0
 11
-0.1839788395
 21
13.7102308396
 31
0.0
 11
-0.1496635214
 21
13.7036610055
 31
0.0
 11
-0.1143772505
 21
13.7005993774
 31
0.0
 11
-0.0788335876
 21
13.7011078732
 31
0.0
 11
-0.0437513041
 21
13.7051762129
 31
0.0
 11
-0.0098398347
 21
13.712722127
 31
0.0
 11
0.0222150658
 21
13.7235930227
 31
0.0
  0
SPLINE
  5
378
100
AcDbEntity
  8
0
100
AcDbSpline
 62
253
  6
CONTINUOUS
 70
0
 71
3
 72
11
 73
7
 74
5
 42
0.0000001
 43
0.0000001
 44
0.0000000001
 12
-0.0608940262
 22
0.0745796463
 32
0.0
 13
-0.0000150596
 23
0.0964447193
 33
0.0
 40
0.0
 40
0.0
 40
0.0
 40
0.0
 40
0.2849684425
 40
0.5579639242
 40
0.822690833
 40
1.0
 40
1.0
 40
1.0
 40
1.0
 10
7.3802211688
 20
3.5583694598
 30
0.0
 10
7.3744368769
 20
3.5654537417
 30
0.0
 10
7.364176196
 20
3.580251402
 30
0.0
 10
7.3531331378
 20
3.6043940793
 30
0.0
 10
7.3477011056
 20
3.6268445245
 30
0.0
 10
7.3467295325
 20
3.6410559902
 30
0.0
 10
7.3467286425
 20
3.6467561678
 30
0.0
 11
7.3802211688
 21
3.5583694598
 31
0.0
 11
7.3646788388
 21
3.5809801149
 31
0.0
 11
7.3538296376
 21
3.6049211081
 31
0.0
 11
7.3478929514
 21
3.6297085024
 31
0.0
 11
7.3467286425
 21
3.6467561678
 31
0.0
  0
SPLINE
  5
379
100
AcDbEntity
  8
0
100
AcDbSpline
 62
253
  6
CONTINUOUS
 70
0
 71
3
 72
11
 73
7
 74
5
 42
0.0000001
 43
0.0000001
 44
0.0000000001
 12
0.0
 22
-0.0746969153
 32
0.0
 13
0.0473046375
 23
-0.0579970132
 33
0.0
 40
0.0
 40
0.0
 40
0.0
 40
0.0
 40
0.2993995542
 40
0.5826617323
 40
0.8549338458
 40
1.0
 40
1.0
 40
1.0
 40
1.0
 10
8.2507006261
 20
2.4922542088
 30
0.0
 10
8.2507006261
 20
2.4847994678
 30
0.0
 10
8.251826592
 20
2.470253336
 30
0.0
 10
8.2573126389
 20
2.4495541401
 30
0.0
 10
8.2651278555
 20
2.4338149292
 30
0.0
 10
8.2712442895
 20
2.4253677933
 30
0.0
 10
8.2735317234
 20
2.4225633254
 30
0.0
 11
8.2507006261
 21
2.4922542088
 31
0.0
 11
8.2525476944
 21
2.4699663912
 31
0.0
 11
8.2580674993
 21
2.4495402551
 31
0.0
 11
8.2671686896
 21
2.4313524025
 31
0.0
 11
8.2735317234
 21
2.4225633254
 31
0.0
  0
SPLINE
  5
37A
100
AcDbEntity
  8
0
100
AcDbSpline
 62
253
  6
CONTINUOUS
 70
0
 71
3
 72
18
 73
14
 74
12
 42
0.0000001
 43
0.0000001
 44
0.0000000001
 12
-0.3411203728
 22
-0.1375829158
 32
0.0
 13
-0.2326303226
 23
0.2849127945
 33
0.0
 40
0.0
 40
0.0
 40
0.0
 40
0.0
 40
0.0920231778
 40
0.1864735922
 40
0.2824913767
 40
0.3791342354
 40
0.4754279036
 40
0.5704159142
 40
0.663209752
 40
0.753040439
 40
0.839312338
 40
0.9216591526
 40
1.0
 40
1.0
 40
1.0
 40
1.0
 10
8.5910716442
 20
2.4270887479
 30
0.0
 10
8.5806079839
 20
2.4228684756
 30
0.0
 10
8.5588910426
 20
2.415544037
 30
0.0
 10
8.5250155376
 20
2.4080466576
 30
0.0
 10
8.4899845343
 20
2.4040047713
 30
0.0
 10
8.4545011668
 20
2.4034997878
 30
0.0
 10
8.4192704939
 20
2.4065409854
 30
0.0
 10
8.3849944423
 20
2.4130689267
 30
0.0
 10
8.3523547287
 20
2.422956377
 30
0.0
 10
8.3220008906
 20
2.4360109103
 30
0.0
 10
8.2945349238
 20
2.4519841012
 30
0.0
 10
8.2705126248
 20
2.4705635568
 30
0.0
 10
8.256775445
 20
2.4848141056
 30
0.0
 10
8.2507006261
 20
2.4922542088
 30
0.0
 11
8.5910716442
 21
2.4270887479
 31
0.0
 11
8.5590167873
 21
2.4162178644
 31
0.0
 11
8.5251053655
 21
2.4086719535
 31
0.0
 11
8.4900231308
 21
2.4046036075
 31
0.0
 11
8.4544795111
 21
2.404095096
 31
0.0
 11
8.4191932644
 21
2.407156702
 31
0.0
 11
8.3848779442
 21
2.4137265142
 31
0.0
 11
8.3522274698
 21
2.4236716787
 31
0.0
 11
8.3219020947
 21
2.4367910859
 31
0.0
 11
8.2945150541
 21
2.452819437
 31
0.0
 11
8.2706201649
 21
2.4714326089
 31
0.0
 11
8.2507006261
 21
2.4922542088
 31
0.0
  0
SPLINE
  5
37B
100
AcDbEntity
  8
0
100
AcDbSpline
 62
253
  6
CONTINUOUS
 70
0
 71
3
 72
18
 73
14
 74
12
 42
0.0000001
 43
0.0000001
 44
0.0000000001
 12
-0.2470042838
 22
0.2486501501
 32
0.0
 13
-0.2201069748
 23
0.2727470128
 33
0.0
 40
0.0
 40
0.0
 40
0.0
 40
0.0
 40
0.0681375267
 40
0.1462697225
 40
0.2328229509
 40
0.3260495893
 40
0.4240648925
 40
0.5248859979
 40
0.6264726364
 40
0.7267688854
 40
0.82374521
 40
0.9154400197
 40
1.0
 40
1.0
 40
1.0
 40
1.0
 10
8.5910716442
 20
-31.4353181818
 30
0.0
 10
8.5854615572
 20
-31.429670713
 30
0.0
 10
8.5735381231
 20
-31.4174284662
 30
0.0
 10
8.5548199848
 20
-31.397692553
 30
0.0
 10
8.5343180714
 20
-31.375611056
 30
0.0
 10
8.5124494098
 20
-31.3516307428
 30
0.0
 10
8.4896584824
 20
-31.3262370642
 30
0.0
 10
8.4664080654
 20
-31.29994474
 30
0.0
 10
8.4431700237
 20
-31.2732869462
 30
0.0
 10
8.4204157503
 20
-31.2468044981
 30
0.0
 10
8.3986065288
 20
-31.2210348521
 30
0.0
 10
8.3781842913
 20
-31.1965012087
 30
0.0
 10
8.3651578821
 20
-31.1805532655
 30
0.0
 10
8.3589538016
 20
-31.1728654381
 30
0.0
 11
8.5910716442
 21
-31.4353181818
 31
0.0
 11
8.5743884158
 21
-31.418230973
 31
0.0
 11
8.5555305371
 21
-31.3983749345
 31
0.0
 11
8.5348806236
 21
-31.3761529341
 31
0.0
 11
8.5128576503
 21
-31.3520158435
 31
0.0
 11
8.4899084509
 21
-31.3264533906
 31
0.0
 11
8.4664986515
 21
-31.299984223
 31
0.0
 11
8.4431032236
 21
-31.273145385
 31
0.0
 11
8.4201968471
 21
-31.2464814213
 31
0.0
 11
8.3982442794
 21
-31.2205333287
 31
0.0
 11
8.3776909256
 21
-31.1958275791
 31
0.0
 11
8.3589538016
 21
-31.1728654381
 31
0.0
  0
SPLINE
  5
37C
100
AcDbEntity
  8
0
100
AcDbSpline
 62
253
  6
CONTINUOUS
 70
0
 71
3
 72
18
 73
14
 74
12
 42
0.0000001
 43
0.0000001
 44
0.0000000001
 12
0.2326303211
 22
-0.2849127927
 32
0.0
 13
0.3411203707
 23
0.1375829149
 33
0.0
 40
0.0
 40
0.0
 40
0.0
 40
0.0
 40
0.0783466114
 40
0.1606997691
 40
0.2469794678
 40
0.336818428
 40
0.4296208027
 40
0.5246173823
 40
0.6209187673
 40
0.7175688557
 40
0.8135874331
 40
0.9080379743
 40
1.0
 40
1.0
 40
1.0
 40
1.0
 10
8.2507006261
 20
-31.3701527209
 30
0.0
 10
8.2567758919
 20
-31.3775933715
 30
0.0
 10
8.2705142014
 20
-31.3918449201
 30
0.0
 10
8.2945387311
 20
-31.41042551
 30
0.0
 10
8.3220074683
 20
-31.426399441
 30
0.0
 10
8.3523645018
 20
-31.4394542212
 30
0.0
 10
8.3850075852
 20
-31.4493413297
 30
0.0
 10
8.4192869333
 20
-31.4558683022
 30
0.0
 10
8.4545206477
 20
-31.4589079298
 30
0.0
 10
8.4900059289
 20
-31.4584008328
 30
0.0
 10
8.5250376661
 20
-31.4543565847
 30
0.0
 10
8.5589054582
 20
-31.4468584991
 30
0.0
 10
8.5806149374
 20
-31.4395356496
 30
0.0
 10
8.5910716442
 20
-31.4353181818
 30
0.0
 11
8.2507006261
 21
-31.3701527209
 31
0.0
 11
8.270621745
 21
-31.3909757429
 31
0.0
 11
8.2945187529
 21
-31.4095899913
 31
0.0
 11
8.3219086439
 21
-31.4256191514
 31
0.0
 11
8.3522372205
 21
-31.4387388219
 31
0.0
 11
8.3848910782
 21
-31.4486836543
 31
0.0
 11
8.4192097897
 21
-31.455252514
 31
0.0
 11
8.4544990226
 21
-31.4583125365
 31
0.0
 11
8.490045271
 21
-31.4578018867
 31
0.0
 11
8.5251275326
 21
-31.4537312439
 31
0.0
 11
8.5590384842
 21
-31.446183007
 31
0.0
 11
8.5910716442
 21
-31.4353181818
 31
0.0
  0
SPLINE
  5
37D
100
AcDbEntity
  8
0
100
AcDbSpline
 62
253
  6
CONTINUOUS
 70
0
 71
3
 72
15
 73
11
 74
9
 42
0.0000001
 43
0.0000001
 44
0.0000000001
 12
-0.1736189134
 22
-0.1527243653
 32
0.0
 13
0.0
 23
-0.2312320454
 33
0.0
 40
0.0
 40
0.0
 40
0.0
 40
0.0
 40
0.1405308764
 40
0.2790858633
 40
0.4141025727
 40
0.544267689
 40
0.6685438136
 40
0.7861307731
 40
0.8966088723
 40
1.0
 40
1.0
 40
1.0
 40
1.0
 10
8.3589538016
 20
-31.1728654381
 30
0.0
 10
8.3508208622
 20
-31.1800196011
 30
0.0
 10
8.3352279088
 20
-31.194878156
 30
0.0
 10
8.3139686276
 20
-31.2187327033
 30
0.0
 10
8.2952891153
 20
-31.2436719971
 30
0.0
 10
8.2795172325
 20
-31.269265269
 30
0.0
 10
8.2669213625
 20
-31.2950818665
 30
0.0
 10
8.2577166819
 20
-31.3206974031
 30
0.0
 10
8.2520658265
 20
-31.3456812443
 30
0.0
 10
8.2507006261
 20
-31.3621836069
 30
0.0
 10
8.2507006261
 20
-31.3701527209
 30
0.0
 11
8.3589538016
 21
-31.1728654381
 31
0.0
 11
8.3354383042
 21
-31.1952922554
 31
0.0
 11
8.3141428738
 21
-31.2192288531
 31
0.0
 11
8.2954612673
 21
-31.2442428059
 31
0.0
 11
8.2797208769
 21
-31.269897251
 31
0.0
 11
8.267188686
 21
-31.2957572135
 31
0.0
 11
8.2580811958
 21
-31.3213764021
 31
0.0
 11
8.2525536633
 21
-31.3463173008
 31
0.0
 11
8.2507006261
 21
-31.3701527209
 31
0.0
  0
SPLINE
  5
37E
100
AcDbEntity
  8
0
100
AcDbSpline
 62
253
  6
CONTINUOUS
 70
0
 71
3
 72
24
 73
20
 74
18
 42
0.0000001
 43
0.0000001
 44
0.0000000001
 12
0.0549791331
 22
-1.0605446039
 32
0.0
 13
1.0024783041
 23
0.3504494424
 33
0.0
 40
0.0
 40
0.0
 40
0.0
 40
0.0
 40
0.055579017
 40
0.1092025563
 40
0.1612811233
 40
0.2123342236
 40
0.2629461395
 40
0.3137305165
 40
0.3652883497
 40
0.4181724894
 40
0.4728570823
 40
0.529721005
 40
0.5890386878
 40
0.6509830656
 40
0.7156309773
 40
0.7829752554
 40
0.8529319963
 40
0.9253497197
 40
1.0
 40
1.0
 40
1.0
 40
1.0
 10
3.2992044372
 20
-31.4744900464
 30
0.0
 10
3.3002229993
 20
-31.4941380552
 30
0.0
 10
3.3043426851
 20
-31.5326771175
 30
0.0
 10
3.3172514369
 20
-31.5884380302
 30
0.0
 10
3.3366959079
 20
-31.6405857819
 30
0.0
 10
3.3625421921
 20
-31.6886782469
 30
0.0
 10
3.3945933276
 20
-31.7323176527
 30
0.0
 10
3.432587573
 20
-31.7711412592
 30
0.0
 10
3.4762053618
 20
-31.8048376437
 30
0.0
 10
3.525081859
 20
-31.8331515897
 30
0.0
 10
3.5788198347
 20
-31.855883391
 30
0.0
 10
3.6369966338
 20
-31.8728826802
 30
0.0
 10
3.699167133
 20
-31.8840430911
 30
0.0
 10
3.7648634001
 20
-31.8892990122
 30
0.0
 10
3.8335959942
 20
-31.8886247925
 30
0.0
 10
3.9048541851
 20
-31.8820351385
 30
0.0
 10
3.9781091172
 20
-31.8695850919
 30
0.0
 10
4.0528035482
 20
-31.8513756547
 30
0.0
 10
4.1024948307
 20
-31.8357078885
 30
0.0
 10
4.1274399262
 20
-31.8269875054
 30
0.0
 11
3.2992044372
 21
-31.4744900464
 31
0.0
 11
3.3056133876
 21
-31.5331642387
 31
0.0
 11
3.3185721839
 21
-31.5886167039
 31
0.0
 11
3.337982056
 21
-31.640404631
 31
0.0
 11
3.3636964157
 21
-31.6881354661
 31
0.0
 11
3.3955211458
 21
-31.7314490119
 31
0.0
 11
3.4332167686
 21
-31.7700189232
 31
0.0
 11
3.4764984919
 21
-31.803553416
 31
0.0
 11
3.5250398236
 21
-31.8317993179
 31
0.0
 11
3.578474164
 21
-31.8545431654
 31
0.0
 11
3.6363989608
 21
-31.8716134053
 31
0.0
 11
3.6983766099
 21
-31.8828808382
 31
0.0
 11
3.7639392791
 21
-31.8882602798
 31
0.0
 11
3.8325911421
 21
-31.887711051
 31
0.0
 11
3.9038150534
 21
-31.8812372833
 31
0.0
 11
3.9770732901
 21
-31.8688876763
 31
0.0
 11
4.0518106807
 21
-31.8507560356
 31
0.0
 11
4.1274399262
 21
-31.8269875054
 31
0.0
  0
SPLINE
  5
37F
100
AcDbEntity
  8
0
100
AcDbSpline
 62
253
  6
CONTINUOUS
 70
0
 71
3
 72
14
 73
10
 74
8
 42
0.0000001
 43
0.0000001
 44
0.0000000001
 12
-1.4420652765
 22
-28.9559464329
 32
0.0
 13
1.5004973995
 23
-28.9529772845
 33
0.0
 40
0.0
 40
0.0
 40
0.0
 40
0.0
 40
0.1453164589
 40
0.2897968377
 40
0.4334502874
 40
0.5762866017
 40
0.7183161984
 40
0.8595501192
 40
1.0
 40
1.0
 40
1.0
 40
1.0
 10
3.2992044372
 20
-2.49485369
 30
0.0
 10
3.2293524974
 20
-3.8974455566
 30
0.0
 10
3.109477508
 20
-6.6955677211
 30
0.0
 10
2.9891843365
 20
-10.8828132373
 30
0.0
 10
2.9289477516
 20
-15.047393752
 30
0.0
 10
2.9287769884
 20
-19.1887251801
 30
0.0
 10
2.9886725775
 20
-23.306244503
 30
0.0
 10
3.1086261437
 20
-27.3993724377
 30
0.0
 10
3.2289562102
 20
-30.1190093102
 30
0.0
 10
3.2992044372
 20
-31.4744900464
 30
0.0
 11
3.2992044372
 21
-2.49485369
 31
0.0
 11
3.1190509511
 21
-6.7039906396
 31
0.0
 11
2.9989348495
 21
-10.8910190947
 31
0.0
 11
2.9388726733
 21
-15.0553628167
 31
0.0
 11
2.9388726756
 21
-19.1964494005
 31
0.0
 11
2.9989348563
 21
-23.3137096969
 31
0.0
 11
3.1190509623
 21
-27.4065777709
 31
0.0
 11
3.2992044372
 21
-31.4744900464
 31
0.0
  0
SPLINE
  5
380
100
AcDbEntity
  8
0
100
AcDbSpline
 62
253
  6
CONTINUOUS
 70
0
 71
3
 72
24
 73
20
 74
18
 42
0.0000001
 43
0.0000001
 44
0.0000000001
 12
-1.2463178913
 22
-0.5413111425
 32
0.0
 13
-0.0676059798
 23
-1.3571129175
 33
0.0
 40
0.0
 40
0.0
 40
0.0
 40
0.0
 40
0.0614914184
 40
0.1240353486
 40
0.1873387808
 40
0.2511126418
 40
0.3150617596
 40
0.3788892507
 40
0.4422983163
 40
0.5049998619
 40
0.5667161733
 40
0.6271878386
 40
0.6861767035
 40
0.7434732167
 40
0.7989013187
 40
0.8523275957
 40
0.9036659096
 40
0.9528848667
 40
1.0
 40
1.0
 40
1.0
 40
1.0
 10
4.1274399262
 20
-1.4930930072
 30
0.0
 10
4.1018939746
 20
-1.5041883372
 30
0.0
 10
4.0510219498
 20
-1.5281131113
 30
0.0
 10
3.9763807683
 20
-1.5685561898
 30
0.0
 10
3.903208842
 20
-1.6136081301
 30
0.0
 10
3.8320672551
 20
-1.6629250657
 30
0.0
 10
3.7634892868
 20
-1.7161366916
 30
0.0
 10
3.6979901201
 20
-1.7728433817
 30
0.0
 10
3.636061429
 20
-1.8326194739
 30
0.0
 10
3.5781685806
 20
-1.895015913
 30
0.0
 10
3.5247459409
 20
-1.9595648111
 30
0.0
 10
3.4761943361
 20
-2.0257825379
 30
0.0
 10
3.4328778857
 20
-2.0931739295
 30
0.0
 10
3.3951219469
 20
-2.1612353094
 30
0.0
 10
3.3632103635
 20
-2.229459933
 30
0.0
 10
3.3373841091
 20
-2.2973400793
 30
0.0
 10
3.3178407904
 20
-2.3643754058
 30
0.0
 10
3.3047347692
 20
-2.4300514202
 30
0.0
 10
3.3002661921
 20
-2.4735401714
 30
0.0
 10
3.2992044372
 20
-2.49485369
 30
0.0
 11
4.1274399262
 21
-1.4930930072
 31
0.0
 11
4.0518106807
 21
-1.5286111032
 31
0.0
 11
3.9770732901
 21
-1.5690669533
 31
0.0
 11
3.9038150534
 21
-1.6141453116
 31
0.0
 11
3.8325911421
 21
-1.6635047784
 31
0.0
 11
3.7639392791
 21
-1.7167725262
 31
0.0
 11
3.6983766099
 21
-1.7735472901
 31
0.0
 11
3.6363989608
 21
-1.8333997074
 31
0.0
 11
3.578474164
 21
-1.8958778546
 31
0.0
 11
3.5250398236
 21
-1.9605094895
 31
0.0
 11
3.4764984919
 21
-2.0268074936
 31
0.0
 11
3.4332167686
 21
-2.0942710217
 31
0.0
 11
3.3955211458
 21
-2.1623909608
 31
0.0
 11
3.3636964157
 21
-2.2306522745
 31
0.0
 11
3.337982056
 21
-2.2985408889
 31
0.0
 11
3.3185721839
 21
-2.3655444356
 31
0.0
 11
3.3056133876
 21
-2.4311554486
 31
0.0
 11
3.2992044372
 21
-2.49485369
 31
0.0
  0
SPLINE
  5
381
100
AcDbEntity
  8
0
100
AcDbSpline
 62
7
  6
CONTINUOUS
 70
0
 71
3
 72
15
 73
11
 74
9
 42
0.0000001
 43
0.0000001
 44
0.0000000001
 12
0.0000332282
 22
-0.2924951562
 32
0.0
 13
0.1247915049
 23
-0.2644546707
 33
0.0
 40
0.0
 40
0.0
 40
0.0
 40
0.0
 40
0.0168120983
 40
0.1535981325
 40
0.2923693001
 40
0.4326756726
 40
0.5740730246
 40
0.7160929699
 40
0.8582552328
 40
1.0
 40
1.0
 40
1.0
 40
1.0
 10
-8.8673079066
 20
25.5289153357
 30
0.0
 10
-8.8673077204
 20
25.5272761832
 30
0.0
 10
-8.8672355823
 20
25.5123007054
 30
0.0
 10
-8.8658933101
 20
25.4838100817
 30
0.0
 10
-8.8612154682
 20
25.4435156674
 30
0.0
 10
-8.8538879528
 20
25.403164023
 30
0.0
 10
-8.8440447141
 20
25.3630272937
 30
0.0
 10
-8.8318132428
 20
25.323364478
 30
0.0
 10
-8.8173236636
 20
25.2844359724
 30
0.0
 10
-8.8062167241
 20
25.2590705506
 30
0.0
 10
-8.8003205432
 20
25.2465755287
 30
0.0
 11
-8.8673079066
 21
25.5289153357
 31
0.0
 11
-8.8672843446
 21
25.5239979912
 31
0.0
 11
-8.8654503786
 21
25.484041147
 31
0.0
 11
-8.860806413
 21
25.4437283516
 31
0.0
 11
-8.8535014033
 21
25.4033555838
 31
0.0
 11
-8.843670454
 21
25.3631939631
 31
0.0
 11
-8.8314427168
 21
25.3235054988
 31
0.0
 11
-8.8169462132
 21
25.2845439603
 31
0.0
 11
-8.8003205432
 21
25.2465755287
 31
0.0
  0
SPLINE
  5
382
100
AcDbEntity
  8
0
100
AcDbSpline
 62
7
  6
CONTINUOUS
 70
0
 71
3
 72
16
 73
12
 74
10
 42
0.0000001
 43
0.0000001
 44
0.0000000001
 12
0.0576585702
 22
-0.0276045021
 32
0.0
 13
-0.2023460159
 23
-0.0504248832
 33
0.0
 40
0.0
 40
0.0
 40
0.0
 40
0.0
 40
0.0253538584
 40
0.0824151285
 40
0.1652921743
 40
0.269856737
 40
0.3919703333
 40
0.5282023077
 40
0.6754713139
 40
0.8329259327
 40
1.0
 40
1.0
 40
1.0
 40
1.0
 10
2.9747456318
 20
23.4066021028
 30
0.0
 10
2.9752329209
 20
23.4063688092
 30
0.0
 10
2.9649841835
 20
23.4028900071
 30
0.0
 10
2.9580356555
 20
23.4000778499
 30
0.0
 10
2.9400849378
 20
23.3941246769
 30
0.0
 10
2.9203101303
 20
23.3877227068
 30
0.0
 10
2.8959639624
 20
23.3802174796
 30
0.0
 10
2.8690032659
 20
23.372239741
 30
0.0
 10
2.8394882782
 20
23.3638793098
 30
0.0
 10
2.807835529
 20
23.3553228598
 30
0.0
 10
2.7859822383
 20
23.3497163312
 30
0.0
 10
2.7747133143
 20
23.3469081011
 30
0.0
 11
2.9747456318
 21
23.4066021028
 31
0.0
 11
2.9695692145
 21
23.4044249341
 31
0.0
 11
2.9583907821
 21
23.4003463987
 31
0.0
 11
2.9420266058
 21
23.3947870951
 31
0.0
 11
2.9212766145
 21
23.3880856665
 31
0.0
 11
2.8969467311
 21
23.3805678932
 31
0.0
 11
2.8697064172
 21
23.3725031998
 31
0.0
 11
2.8401589749
 21
23.3641310707
 31
0.0
 11
2.8084618814
 21
23.3555630103
 31
0.0
 11
2.7747133143
 21
23.3469081011
 31
0.0
  0
SPLINE
  5
383
100
AcDbEntity
  8
0
100
AcDbSpline
 62
7
  6
CONTINUOUS
 70
0
 71
3
 72
16
 73
12
 74
10
 42
0.0000001
 43
0.0000001
 44
0.0000000001
 12
0.0561770092
 22
-0.0265371143
 32
0.0
 13
-0.2011433359
 23
-0.0502315428
 33
0.0
 40
0.0
 40
0.0
 40
0.0
 40
0.0
 40
0.0251086734
 40
0.0819137762
 40
0.1646264785
 40
0.2691366595
 40
0.3913061772
 40
0.527676735
 40
0.67512512
 40
0.8327489481
 40
1.0
 40
1.0
 40
1.0
 40
1.0
 10
-0.986763836
 20
28.2584655216
 30
0.0
 10
-0.9862936593
 20
28.2582434177
 30
0.0
 10
-0.9963454911
 20
28.2547826505
 30
0.0
 10
-1.0032753667
 20
28.252011357
 30
0.0
 10
-1.0210629803
 20
28.2460907503
 30
0.0
 10
-1.0407186588
 20
28.2397274242
 30
0.0
 10
-1.0649278015
 20
28.2322551614
 30
0.0
 10
-1.0917547465
 20
28.2243090046
 30
0.0
 10
-1.1211273797
 20
28.2159782573
 30
0.0
 10
-1.1526277822
 20
28.2074501822
 30
0.0
 10
-1.1743745101
 20
28.2018605156
 30
0.0
 10
-1.1855883216
 20
28.1990600895
 30
0.0
 11
-0.986763836
 21
28.2584655216
 31
0.0
 11
-0.9918354767
 21
28.2563173958
 31
0.0
 11
-1.0028970864
 21
28.2522756795
 31
0.0
 11
-1.0191320329
 21
28.246754615
 31
0.0
 11
-1.039748672
 21
28.2400899172
 31
0.0
 11
-1.0639459401
 21
28.2326057252
 31
0.0
 11
-1.0910528667
 21
28.2245717388
 31
0.0
 11
-1.1204613499
 21
28.2162284402
 31
0.0
 11
-1.1520045562
 21
28.2076890117
 31
0.0
 11
-1.1855883216
 21
28.1990600895
 31
0.0
  0
SPLINE
  5
384
100
AcDbEntity
  8
0
100
AcDbSpline
 62
7
  6
CONTINUOUS
 70
0
 71
3
 72
16
 73
12
 74
10
 42
0.0000001
 43
0.0000001
 44
0.0000000001
 12
0.0561770092
 22
-0.0265371143
 32
0.0
 13
-0.2011433359
 23
-0.0502315428
 33
0.0
 40
0.0
 40
0.0
 40
0.0
 40
0.0
 40
0.0251086734
 40
0.0819137762
 40
0.1646264785
 40
0.2691366595
 40
0.3913061772
 40
0.527676735
 40
0.67512512
 40
0.8327489481
 40
1.0
 40
1.0
 40
1.0
 40
1.0
 10
10.263236164
 20
14.4800857184
 30
0.0
 10
10.2637063407
 20
14.4798636145
 30
0.0
 10
10.2536545089
 20
14.4764028474
 30
0.0
 10
10.2467246333
 20
14.4736315538
 30
0.0
 10
10.2289370197
 20
14.4677109472
 30
0.0
 10
10.2092813412
 20
14.4613476211
 30
0.0
 10
10.1850721985
 20
14.4538753583
 30
0.0
 10
10.1582452535
 20
14.4459292014
 30
0.0
 10
10.1288726203
 20
14.4375984541
 30
0.0
 10
10.0973722178
 20
14.429070379
 30
0.0
 10
10.0756254899
 20
14.4234807125
 30
0.0
 10
10.0644116784
 20
14.4206802864
 30
0.0
 11
10.263236164
 21
14.4800857184
 31
0.0
 11
10.2581645233
 21
14.4779375927
 31
0.0
 11
10.2471029136
 21
14.4738958763
 31
0.0
 11
10.2308679671
 21
14.4683748119
 31
0.0
 11
10.210251328
 21
14.4617101141
 31
0.0
 11
10.1860540599
 21
14.454225922
 31
0.0
 11
10.1589471333
 21
14.4461919357
 31
0.0
 11
10.1295386501
 21
14.4378486371
 31
0.0
 11
10.0979954438
 21
14.4293092086
 31
0.0
 11
10.0644116784
 21
14.4206802864
 31
0.0
  0
SPLINE
  5
385
100
AcDbEntity
  8
0
100
AcDbSpline
 62
7
  6
CONTINUOUS
 70
0
 71
3
 72
16
 73
12
 74
10
 42
0.0000001
 43
0.0000001
 44
0.0000000001
 12
0.0576585701
 22
-0.0276045021
 32
0.0
 13
-0.2023460159
 23
-0.0504248832
 33
0.0
 40
0.0
 40
0.0
 40
0.0
 40
0.0
 40
0.0253538584
 40
0.0824151285
 40
0.1652921743
 40
0.269856737
 40
0.3919703333
 40
0.5282023077
 40
0.6754713139
 40
0.8329259327
 40
1.0
 40
1.0
 40
1.0
 40
1.0
 10
14.2247456318
 20
9.6282222996
 30
0.0
 10
14.2252329209
 20
9.6279890061
 30
0.0
 10
14.2149841835
 20
9.624510204
 30
0.0
 10
14.2080356555
 20
9.6216980468
 30
0.0
 10
14.1900849378
 20
9.6157448738
 30
0.0
 10
14.1703101303
 20
9.6093429037
 30
0.0
 10
14.1459639624
 20
9.6018376764
 30
0.0
 10
14.1190032659
 20
9.5938599378
 30
0.0
 10
14.0894882782
 20
9.5854995067
 30
0.0
 10
14.057835529
 20
9.5769430566
 30
0.0
 10
14.0359822383
 20
9.5713365281
 30
0.0
 10
14.0247133143
 20
9.568528298
 30
0.0
 11
14.2247456318
 21
9.6282222996
 31
0.0
 11
14.2195692145
 21
9.6260451309
 31
0.0
 11
14.2083907821
 21
9.6219665955
 31
0.0
 11
14.1920266058
 21
9.6164072919
 31
0.0
 11
14.1712766145
 21
9.6097058633
 31
0.0
 11
14.1469467311
 21
9.60218809
 31
0.0
 11
14.1197064172
 21
9.5941233967
 31
0.0
 11
14.0901589749
 21
9.5857512676
 31
0.0
 11
14.0584618814
 21
9.5771832071
 31
0.0
 11
14.0247133143
 21
9.568528298
 31
0.0
  0
SPLINE
  5
386
100
AcDbEntity
  8
0
100
AcDbSpline
 62
7
  6
CONTINUOUS
 70
0
 71
3
 72
15
 73
11
 74
9
 42
0.0000001
 43
0.0000001
 44
0.0000000001
 12
0.0000332282
 22
-0.2924951562
 32
0.0
 13
0.1247915049
 23
-0.2644546707
 33
0.0
 40
0.0
 40
0.0
 40
0.0
 40
0.0
 40
0.0168120983
 40
0.1535981325
 40
0.2923693001
 40
0.4326756726
 40
0.5740730246
 40
0.7160929699
 40
0.8582552328
 40
1.0
 40
1.0
 40
1.0
 40
1.0
 10
2.3826920934
 20
11.7505355325
 30
0.0
 10
2.3826922796
 20
11.7488963801
 30
0.0
 10
2.3827644177
 20
11.7339209023
 30
0.0
 10
2.3841066899
 20
11.7054302785
 30
0.0
 10
2.3887845318
 20
11.6651358643
 30
0.0
 10
2.3961120472
 20
11.6247842199
 30
0.0
 10
2.4059552859
 20
11.5846474906
 30
0.0
 10
2.4181867572
 20
11.5449846748
 30
0.0
 10
2.4326763364
 20
11.5060561693
 30
0.0
 10
2.4437832759
 20
11.4806907475
 30
0.0
 10
2.4496794568
 20
11.4681957255
 30
0.0
 11
2.3826920934
 21
11.7505355325
 31
0.0
 11
2.3827156554
 21
11.7456181881
 31
0.0
 11
2.3845496214
 21
11.7056613438
 31
0.0
 11
2.389193587
 21
11.6653485485
 31
0.0
 11
2.3964985967
 21
11.6249757807
 31
0.0
 11
2.406329546
 21
11.58481416
 31
0.0
 11
2.4185572832
 21
11.5451256957
 31
0.0
 11
2.4330537868
 21
11.5061641571
 31
0.0
 11
2.4496794568
 21
11.4681957255
 31
0.0
  0
SPLINE
  5
387
100
AcDbEntity
  8
0
100
AcDbSpline
 62
253
  6
CONTINUOUS
 70
0
 71
3
 72
11
 73
7
 74
5
 42
0.0000001
 43
0.0000001
 44
0.0000000001
 12
0.0000145168
 22
-0.0964454177
 32
0.0
 13
0.0608944517
 23
-0.0745801674
 33
0.0
 40
0.0
 40
0.0
 40
0.0
 40
0.0
 40
0.1772622916
 40
0.4420023591
 40
0.7150146245
 40
1.0
 40
1.0
 40
1.0
 40
1.0
 10
-13.3407713564
 20
29.1877670245
 30
0.0
 10
-13.3407704987
 20
29.1820683126
 30
0.0
 10
-13.3397993264
 20
29.1678578232
 30
0.0
 10
-13.3343681318
 20
29.1454075507
 30
0.0
 10
-13.323324811
 20
29.1212630995
 30
0.0
 10
-13.3130635072
 20
29.1064643768
 30
0.0
 10
-13.3072788312
 20
29.0993796245
 30
0.0
 11
-13.3407713564
 21
29.1877670245
 31
0.0
 11
-13.3396077395
 21
29.1707237099
 31
0.0
 11
-13.3336715469
 21
29.1459347115
 31
0.0
 11
-13.3228220632
 21
29.1219918706
 31
0.0
 11
-13.3072788312
 21
29.0993796245
 31
0.0
  0
SPLINE
  5
388
100
AcDbEntity
  8
0
100
AcDbSpline
 62
253
  6
CONTINUOUS
 70
0
 71
3
 72
16
 73
12
 74
10
 42
0.0000001
 43
0.0000001
 44
0.0000000001
 12
0.3481532425
 22
0.3040459031
 32
0.0
 13
-0.0000032997
 23
0.4622278566
 33
0.0
 40
0.0
 40
0.0
 40
0.0
 40
0.0
 40
0.1242379703
 40
0.24809144
 40
0.3696594971
 40
0.4873658717
 40
0.6004447022
 40
0.7088075502
 40
0.8120284894
 40
0.9091779718
 40
1.0
 40
1.0
 40
1.0
 40
1.0
 10
9.2425542104
 20
-30.8663717239
 30
0.0
 10
9.2569721611
 20
-30.8537803753
 30
0.0
 10
9.2848852577
 20
-30.8276091136
 30
0.0
 10
9.3235394535
 20
-30.785711101
 30
0.0
 10
9.3583072842
 20
-30.7418040007
 30
0.0
 10
9.3885624326
 20
-30.6966542733
 30
0.0
 10
9.4139097619
 20
-30.6508819668
 30
0.0
 10
9.4340566851
 20
-30.6050119659
 30
0.0
 10
9.448702076
 20
-30.5596563674
 30
0.0
 10
9.4576023212
 20
-30.5155807525
 30
0.0
 10
9.4597151656
 20
-30.4865922498
 30
0.0
 10
9.4597150658
 20
-30.4725987594
 30
0.0
 11
9.2425542104
 21
-30.8663717239
 31
0.0
 11
9.284434262
 21
-30.8270800512
 31
0.0
 11
9.3232270511
 21
-30.784978828
 31
0.0
 11
9.3580668174
 21
-30.7408908754
 31
0.0
 11
9.3882917482
 21
-30.6956515873
 31
0.0
 11
9.4135298484
 21
-30.6498804009
 31
0.0
 11
9.4335644988
 21
-30.603973394
 31
0.0
 11
9.4480929193
 21
-30.5585275894
 31
0.0
 11
9.4568254342
 21
-30.5144796621
 31
0.0
 11
9.4597150658
 21
-30.4725987594
 31
0.0
  0
SPLINE
  5
389
100
AcDbEntity
  8
0
100
AcDbSpline
 62
253
  6
CONTINUOUS
 70
0
 71
3
 72
16
 73
12
 74
10
 42
0.0000001
 43
0.0000001
 44
0.0000000001
 12
0.0000024503
 22
0.3436441362
 32
0.0
 13
-0.3428832575
 23
0.022855285
 33
0.0
 40
0.0
 40
0.0
 40
0.0
 40
0.0
 40
0.1153966848
 40
0.2260351152
 40
0.3328972586
 40
0.4372604187
 40
0.5414839429
 40
0.6483487609
 40
0.759893109
 40
0.877079729
 40
1.0
 40
1.0
 40
1.0
 40
1.0
 10
9.4597150658
 20
2.165063299
 30
0.0
 10
9.45971516
 20
2.1782817636
 30
0.0
 10
9.4579287206
 20
2.2042251228
 30
0.0
 10
9.4492759111
 20
2.2415409547
 30
0.0
 10
9.434705702
 20
2.2756345449
 30
0.0
 10
9.4144272362
 20
2.305805903
 30
0.0
 10
9.3887815083
 20
2.3315688125
 30
0.0
 10
9.3581350573
 20
2.3525839111
 30
0.0
 10
9.3229663416
 20
2.3685477417
 30
0.0
 10
9.2839780826
 20
2.3792343346
 30
0.0
 10
9.2566033113
 20
2.3827263108
 30
0.0
 10
9.2425542104
 20
2.3836627701
 30
0.0
 11
9.4597150658
 21
2.165063299
 31
0.0
 11
9.4568254344
 21
2.2046132713
 31
0.0
 11
9.4480929192
 21
2.2416170876
 31
0.0
 11
9.4335644988
 21
2.2753434957
 31
0.0
 11
9.4135298483
 21
2.3050894882
 31
0.0
 11
9.3882917483
 21
2.3305022811
 31
0.0
 11
9.3580668173
 21
2.3513605327
 31
0.0
 11
9.3232270512
 21
2.3673448775
 31
0.0
 11
9.2844342618
 21
2.3781537736
 31
0.0
 11
9.2425542104
 21
2.3836627701
 31
0.0
  0
SPLINE
  5
38A
100
AcDbEntity
  8
0
100
AcDbSpline
 62
253
  6
CONTINUOUS
 70
0
 71
3
 72
16
 73
12
 74
10
 42
0.0000001
 43
0.0000001
 44
0.0000000001
 12
0.0000024503
 22
0.3436441362
 32
0.0
 13
-0.3428832575
 23
0.022855285
 33
0.0
 40
0.0
 40
0.0
 40
0.0
 40
0.0
 40
0.1153966848
 40
0.2260351152
 40
0.3328972586
 40
0.4372604187
 40
0.5414839429
 40
0.6483487609
 40
0.759893109
 40
0.877079729
 40
1.0
 40
1.0
 40
1.0
 40
1.0
 10
0.0222150658
 20
13.7235930227
 30
0.0
 10
0.02221516
 20
13.7368114874
 30
0.0
 10
0.0204287206
 20
13.7627548466
 30
0.0
 10
0.0117759111
 20
13.8000706785
 30
0.0
 10
-0.002794298
 20
13.8341642687
 30
0.0
 10
-0.0230727638
 20
13.8643356268
 30
0.0
 10
-0.0487184917
 20
13.8900985363
 30
0.0
 10
-0.0793649427
 20
13.9111136349
 30
0.0
 10
-0.1145336584
 20
13.9270774655
 30
0.0
 10
-0.1535219174
 20
13.9377640584
 30
0.0
 10
-0.1808966887
 20
13.9412560346
 30
0.0
 10
-0.1949457896
 20
13.9421924939
 30
0.0
 11
0.0222150658
 21
13.7235930227
 31
0.0
 11
0.0193254344
 21
13.763142995
 31
0.0
 11
0.0105929192
 21
13.8001468114
 31
0.0
 11
-0.0039355012
 21
13.8338732195
 31
0.0
 11
-0.0239701517
 21
13.863619212
 31
0.0
 11
-0.0492082517
 21
13.8890320049
 31
0.0
 11
-0.0794331827
 21
13.9098902565
 31
0.0
 11
-0.1142729488
 21
13.9258746012
 31
0.0
 11
-0.1530657382
 21
13.9366834974
 31
0.0
 11
-0.1949457896
 21
13.9421924939
 31
0.0
  0
SPLINE
  5
38B
100
AcDbEntity
  8
0
100
AcDbSpline
 62
253
  6
CONTINUOUS
 70
0
 71
3
 72
11
 73
7
 74
5
 42
0.0000001
 43
0.0000001
 44
0.0000000001
 12
-0.0608940262
 22
0.0745796463
 32
0.0
 13
-0.0000150596
 23
0.0964447193
 33
0.0
 40
0.0
 40
0.0
 40
0.0
 40
0.0
 40
0.2849684425
 40
0.5579639242
 40
0.822690833
 40
1.0
 40
1.0
 40
1.0
 40
1.0
 10
-2.0572788312
 20
15.1168991836
 30
0.0
 10
-2.0630631231
 20
15.1239834655
 30
0.0
 10
-2.073323804
 20
15.1387811257
 30
0.0
 10
-2.0843668622
 20
15.1629238031
 30
0.0
 10
-2.0897988944
 20
15.1853742483
 30
0.0
 10
-2.0907704675
 20
15.199585714
 30
0.0
 10
-2.0907713575
 20
15.2052858916
 30
0.0
 11
-2.0572788312
 21
15.1168991836
 31
0.0
 11
-2.0728211612
 21
15.1395098387
 31
0.0
 11
-2.0836703624
 21
15.1634508318
 31
0.0
 11
-2.0896070486
 21
15.1882382261
 31
0.0
 11
-2.0907713575
 21
15.2052858916
 31
0.0
  0
SPLINE
  5
38C
100
AcDbEntity
  8
0
100
AcDbSpline
 62
253
  6
CONTINUOUS
 70
0
 71
3
 72
11
 73
7
 74
5
 42
0.0000001
 43
0.0000001
 44
0.0000000001
 12
0.0000145168
 22
-0.0964454177
 32
0.0
 13
0.0608944517
 23
-0.0745801674
 33
0.0
 40
0.0
 40
0.0
 40
0.0
 40
0.0
 40
0.1772622916
 40
0.4420023591
 40
0.7150146245
 40
1.0
 40
1.0
 40
1.0
 40
1.0
 10
-3.9032713564
 20
17.6292373007
 30
0.0
 10
-3.9032704987
 20
17.6235385888
 30
0.0
 10
-3.9022993264
 20
17.6093280994
 30
0.0
 10
-3.8968681318
 20
17.586877827
 30
0.0
 10
-3.885824811
 20
17.5627333757
 30
0.0
 10
-3.8755635072
 20
17.5479346531
 30
0.0
 10
-3.8697788312
 20
17.5408499007
 30
0.0
 11
-3.9032713564
 21
17.6292373007
 31
0.0
 11
-3.9021077395
 21
17.6121939861
 31
0.0
 11
-3.8961715469
 21
17.5874049877
 31
0.0
 11
-3.8853220632
 21
17.5634621468
 31
0.0
 11
-3.8697788312
 21
17.5408499007
 31
0.0
  0
SPLINE
  5
38D
100
AcDbEntity
  8
0
100
AcDbSpline
 62
253
  6
CONTINUOUS
 70
0
 71
3
 72
18
 73
14
 74
12
 42
0.0000001
 43
0.0000001
 44
0.0000000001
 12
-0.3411203728
 22
-0.1375829158
 32
0.0
 13
-0.2326303226
 23
0.2849127945
 33
0.0
 40
0.0
 40
0.0
 40
0.0
 40
0.0
 40
0.0920231778
 40
0.1864735922
 40
0.2824913767
 40
0.3791342354
 40
0.4754279036
 40
0.5704159142
 40
0.663209752
 40
0.753040439
 40
0.839312338
 40
0.9216591526
 40
1.0
 40
1.0
 40
1.0
 40
1.0
 10
-0.8464283558
 20
13.9856184717
 30
0.0
 10
-0.8568920161
 20
13.9813981993
 30
0.0
 10
-0.8786089574
 20
13.9740737608
 30
0.0
 10
-0.9124844624
 20
13.9665763813
 30
0.0
 10
-0.9475154657
 20
13.962534495
 30
0.0
 10
-0.9829988332
 20
13.9620295115
 30
0.0
 10
-1.0182295061
 20
13.9650707091
 30
0.0
 10
-1.0525055577
 20
13.9715986504
 30
0.0
 10
-1.0851452713
 20
13.9814861008
 30
0.0
 10
-1.1154991094
 20
13.994540634
 30
0.0
 10
-1.1429650762
 20
14.010513825
 30
0.0
 10
-1.1669873752
 20
14.0290932806
 30
0.0
 10
-1.180724555
 20
14.0433438293
 30
0.0
 10
-1.1867993739
 20
14.0507839326
 30
0.0
 11
-0.8464283558
 21
13.9856184717
 31
0.0
 11
-0.8784832127
 21
13.9747475881
 31
0.0
 11
-0.9123946345
 21
13.9672016772
 31
0.0
 11
-0.9474768692
 21
13.9631333312
 31
0.0
 11
-0.9830204889
 21
13.9626248198
 31
0.0
 11
-1.0183067356
 21
13.9656864258
 31
0.0
 11
-1.0526220558
 21
13.972256238
 31
0.0
 11
-1.0852725302
 21
13.9822014025
 31
0.0
 11
-1.1155979053
 21
13.9953208097
 31
0.0
 11
-1.1429849459
 21
14.0113491608
 31
0.0
 11
-1.1668798351
 21
14.0299623327
 31
0.0
 11
-1.1867993739
 21
14.0507839326
 31
0.0
  0
SPLINE
  5
38E
100
AcDbEntity
  8
0
100
AcDbSpline
 62
253
  6
CONTINUOUS
 70
0
 71
3
 72
14
 73
10
 74
8
 42
0.0000001
 43
0.0000001
 44
0.0000000001
 12
0.1792805165
 22
-0.0119036427
 32
0.0
 13
0.0865962286
 23
0.1570263689
 33
0.0
 40
0.0
 40
0.0
 40
0.0
 40
0.0
 40
0.0886996576
 40
0.2215557236
 40
0.3598249141
 40
0.5058462066
 40
0.6610270766
 40
0.8258826056
 40
1.0
 40
1.0
 40
1.0
 40
1.0
 10
-12.2369145452
 20
27.6681067715
 30
0.0
 10
-12.2316138384
 20
27.6677548218
 30
0.0
 10
-12.2183076229
 20
27.6678499182
 30
0.0
 10
-12.1970277139
 20
27.6719325599
 30
0.0
 10
-12.1738490133
 20
27.68153973
 30
0.0
 10
-12.1517185639
 20
27.6959339135
 30
0.0
 10
-12.1310553386
 20
27.7147803022
 30
0.0
 10
-12.1122495972
 20
27.7376698581
 30
0.0
 10
-12.1014543257
 20
27.7548846008
 30
0.0
 10
-12.0964283558
 20
27.7639982748
 30
0.0
 11
-12.2369145452
 21
27.6681067715
 31
0.0
 11
-12.2209921888
 21
27.668218636
 31
0.0
 11
-12.1975805656
 21
27.6726318228
 31
0.0
 11
-12.1746299867
 21
27.6820150412
 31
0.0
 11
-12.152606026
 21
27.6961778936
 31
0.0
 11
-12.1319567946
 21
27.7148317319
 31
0.0
 11
-12.1130999173
 21
27.7375987693
 31
0.0
 11
-12.0964283558
 21
27.7639982748
 31
0.0
  0
SPLINE
  5
38F
100
AcDbEntity
  8
0
100
AcDbSpline
 62
253
  6
CONTINUOUS
 70
0
 71
3
 72
11
 73
7
 74
5
 42
0.0000001
 43
0.0000001
 44
0.0000000001
 12
-0.0473567098
 22
0.0580082152
 32
0.0
 13
0.0
 23
0.0747384001
 33
0.0
 40
0.0
 40
0.0
 40
0.0
 40
0.0
 40
0.1450465283
 40
0.4171466395
 40
0.7002986143
 40
1.0
 40
1.0
 40
1.0
 40
1.0
 10
-13.2844213865
 20
28.8255558211
 30
0.0
 10
-13.2867110286
 20
28.8283604512
 30
0.0
 10
-13.292831611
 20
28.8368058411
 30
0.0
 10
-13.300653938
 20
28.8525439836
 30
0.0
 10
-13.306150087
 20
28.8732534094
 30
0.0
 10
-13.3072788312
 20
28.887812586
 30
0.0
 10
-13.3072788312
 20
28.8952789867
 30
0.0
 11
-13.2844213865
 21
28.8255558211
 31
0.0
 11
-13.2907907713
 21
28.8343459238
 31
0.0
 11
-13.2998982615
 21
28.8525288778
 31
0.0
 11
-13.305425794
 21
28.8729565651
 31
0.0
 11
-13.3072788312
 21
28.8952789867
 31
0.0
  0
SPLINE
  5
390
100
AcDbEntity
  8
0
100
AcDbSpline
 62
253
  6
CONTINUOUS
 70
0
 71
3
 72
11
 73
7
 74
5
 42
0.0000001
 43
0.0000001
 44
0.0000000001
 12
0.0
 22
-0.0746969153
 32
0.0
 13
0.0473046375
 23
-0.0579970132
 33
0.0
 40
0.0
 40
0.0
 40
0.0
 40
0.0
 40
0.2993995542
 40
0.5826617323
 40
0.8549338458
 40
1.0
 40
1.0
 40
1.0
 40
1.0
 10
-1.1867993739
 20
14.0507839326
 30
0.0
 10
-1.1867993739
 20
14.0433291915
 30
0.0
 10
-1.185673408
 20
14.0287830597
 30
0.0
 10
-1.1801873611
 20
14.0080838639
 30
0.0
 10
-1.1723721445
 20
13.9923446529
 30
0.0
 10
-1.1662557105
 20
13.983897517
 30
0.0
 10
-1.1639682766
 20
13.9810930491
 30
0.0
 11
-1.1867993739
 21
14.0507839326
 31
0.0
 11
-1.1849523056
 21
14.0284961149
 31
0.0
 11
-1.1794325007
 21
14.0080699789
 31
0.0
 11
-1.1703313104
 21
13.9898821263
 31
0.0
 11
-1.1639682766
 21
13.9810930491
 31
0.0
  0
SPLINE
  5
391
100
AcDbEntity
  8
0
100
AcDbSpline
 62
253
  6
CONTINUOUS
 70
0
 71
3
 72
18
 73
14
 74
12
 42
0.0000001
 43
0.0000001
 44
0.0000000001
 12
0.0
 22
0.3583018378
 32
0.0
 13
0.3312253062
 23
0.1366382212
 33
0.0
 40
0.0
 40
0.0
 40
0.0
 40
0.0
 40
0.0727437589
 40
0.1509052981
 40
0.2344513511
 40
0.3229598407
 40
0.4157062208
 40
0.5117402482
 40
0.6099524192
 40
0.7091370902
 40
0.8080379591
 40
0.9054226942
 40
1.0
 40
1.0
 40
1.0
 40
1.0
 10
7.3802211688
 20
3.7624700976
 30
0.0
 10
7.3802211688
 20
3.7711581717
 30
0.0
 10
7.3818482692
 20
3.7892031118
 30
0.0
 10
7.3885282371
 20
3.8164822135
 30
0.0
 10
7.3993720015
 20
3.8444113571
 30
0.0
 10
7.414155206
 20
3.872439695
 30
0.0
 10
7.4325809523
 20
3.9000237765
 30
0.0
 10
7.4542820948
 20
3.9266189675
 30
0.0
 10
7.4788266175
 20
3.9516984112
 30
0.0
 10
7.5057245587
 20
3.9747624259
 30
0.0
 10
7.5344407448
 20
3.9953519945
 30
0.0
 10
7.5643861141
 20
4.0130474916
 30
0.0
 10
7.585151768
 20
4.0228622942
 30
0.0
 10
7.5955939003
 20
4.0271699191
 30
0.0
 11
7.3802211688
 21
3.7624700976
 31
0.0
 11
7.3824108611
 21
3.7884421776
 31
0.0
 11
7.388935684
 21
3.8156769056
 31
0.0
 11
7.3996636389
 21
3.8436232383
 31
0.0
 11
7.4143776935
 21
3.87171586
 31
0.0
 11
7.4327801461
 21
3.8993864633
 31
0.0
 11
7.4544986937
 21
3.9260753293
 31
0.0
 11
7.4790938398
 21
3.951242507
 31
0.0
 11
7.506068563
 21
3.974379432
 31
0.0
 11
7.5348754025
 21
3.9950168209
 31
0.0
 11
7.5649331532
 21
4.0127386188
 31
0.0
 11
7.5955939003
 21
4.0271699191
 31
0.0
  0
SPLINE
  5
392
100
AcDbEntity
  8
0
100
AcDbSpline
 62
253
  6
CONTINUOUS
 70
0
 71
3
 72
14
 73
10
 74
8
 42
0.0000001
 43
0.0000001
 44
0.0000000001
 12
-0.0737534555
 22
0.0892439089
 32
0.0
 13
-0.1072612032
 23
-0.044851791
 33
0.0
 40
0.0
 40
0.0
 40
0.0
 40
0.0
 40
0.231576016
 40
0.4363039156
 40
0.6127352132
 40
0.7615460614
 40
0.8868108256
 40
0.9976737105
 40
1.0
 40
1.0
 40
1.0
 40
1.0
 10
7.5955939003
 20
4.0271699191
 30
0.0
 10
7.5899007232
 20
4.0340588354
 30
0.0
 10
7.5786794481
 20
4.0466460097
 30
0.0
 10
7.5612573613
 20
4.0627030577
 30
0.0
 10
7.5445121912
 20
4.0745765116
 30
0.0
 10
7.528680359
 20
4.0820489025
 30
0.0
 10
7.5138662828
 20
4.0848879161
 30
0.0
 10
7.5045500315
 20
4.0832688395
 30
0.0
 10
7.5004954519
 20
4.0815950395
 30
0.0
 10
7.5004122784
 20
4.0815602601
 30
0.0
 11
7.5955939003
 21
4.0271699191
 31
0.0
 11
7.5776553123
 21
4.04709558
 31
0.0
 11
7.5601049659
 21
4.0630265579
 31
0.0
 11
7.5433001231
 21
4.0746385554
 31
0.0
 11
7.5275828702
 21
4.0816951939
 31
0.0
 11
7.5132731538
 21
4.0840528257
 31
0.0
 11
7.5006622685
 21
4.0816634578
 31
0.0
 11
7.5004122784
 21
4.0815602601
 31
0.0
  0
SPLINE
  5
393
100
AcDbEntity
  8
0
100
AcDbSpline
 62
253
  6
CONTINUOUS
 70
0
 71
3
 72
14
 73
10
 74
8
 42
0.0000001
 43
0.0000001
 44
0.0000000001
 12
0.1792805165
 22
-0.0119036427
 32
0.0
 13
0.0865962286
 23
0.1570263689
 33
0.0
 40
0.0
 40
0.0
 40
0.0
 40
0.0
 40
0.0886996576
 40
0.2215557236
 40
0.3598249141
 40
0.5058462066
 40
0.6610270766
 40
0.8258826056
 40
1.0
 40
1.0
 40
1.0
 40
1.0
 10
-2.7994145452
 20
16.1095770477
 30
0.0
 10
-2.7941138384
 20
16.109225098
 30
0.0
 10
-2.7808076229
 20
16.1093201944
 30
0.0
 10
-2.7595277139
 20
16.1134028362
 30
0.0
 10
-2.7363490133
 20
16.1230100063
 30
0.0
 10
-2.7142185639
 20
16.1374041898
 30
0.0
 10
-2.6935553386
 20
16.1562505785
 30
0.0
 10
-2.6747495972
 20
16.1791401343
 30
0.0
 10
-2.6639543257
 20
16.196354877
 30
0.0
 10
-2.6589283558
 20
16.2054685511
 30
0.0
 11
-2.7994145452
 21
16.1095770477
 31
0.0
 11
-2.7834921888
 21
16.1096889123
 31
0.0
 11
-2.7600805656
 21
16.114102099
 31
0.0
 11
-2.7371299867
 21
16.1234853175
 31
0.0
 11
-2.715106026
 21
16.1376481699
 31
0.0
 11
-2.6944567946
 21
16.1563020082
 31
0.0
 11
-2.6755999173
 21
16.1790690455
 31
0.0
 11
-2.6589283558
 21
16.2054685511
 31
0.0
  0
SPLINE
  5
394
100
AcDbEntity
  8
0
100
AcDbSpline
 62
253
  6
CONTINUOUS
 70
0
 71
3
 72
11
 73
7
 74
5
 42
0.0000001
 43
0.0000001
 44
0.0000000001
 12
0.0
 22
-0.074719409
 32
0.0
 13
0.0473807622
 23
-0.0579913565
 33
0.0
 40
0.0
 40
0.0
 40
0.0
 40
0.0
 40
0.3249909447
 40
0.6309122894
 40
0.9251127905
 40
1.0
 40
1.0
 40
1.0
 40
1.0
 10
8.2507006261
 20
-31.5742533586
 30
0.0
 10
8.2507006261
 20
-31.5823477357
 30
0.0
 10
8.2520253747
 20
-31.5981123986
 30
0.0
 10
8.2585263856
 20
-31.620392007
 30
0.0
 10
8.2667602482
 20
-31.6352221784
 30
0.0
 10
8.2723761646
 20
-31.6425304053
 30
0.0
 10
8.2735589023
 20
-31.6439780089
 30
0.0
 11
8.2507006261
 21
-31.5742533586
 31
0.0
 11
8.2528903184
 21
-31.5984375625
 31
0.0
 11
8.2594151413
 21
-31.6203447948
 31
0.0
 11
8.2701430962
 21
-31.639531789
 31
0.0
 11
8.2735589023
 21
-31.6439780089
 31
0.0
  0
SPLINE
  5
395
100
AcDbEntity
  8
0
100
AcDbSpline
 62
253
  6
CONTINUOUS
 70
0
 71
3
 72
18
 73
14
 74
12
 42
0.0000001
 43
0.0000001
 44
0.0000000001
 12
-0.3411203687
 22
-0.1375829141
 32
0.0
 13
-0.2326303198
 23
0.2849127911
 33
0.0
 40
0.0
 40
0.0
 40
0.0
 40
0.0
 40
0.0919086493
 40
0.1863633972
 40
0.2823869008
 40
0.3790419978
 40
0.4753479376
 40
0.5703497165
 40
0.6631578445
 40
0.7530028098
 40
0.8392883843
 40
0.9216479257
 40
1.0
 40
1.0
 40
1.0
 40
1.0
 10
8.5910716442
 20
-31.6394188195
 30
0.0
 10
8.5806210067
 20
-31.6436338395
 30
0.0
 10
8.5589175639
 20
-31.6509554622
 30
0.0
 10
8.5250554819
 20
-31.6584543064
 30
0.0
 10
8.4900222145
 20
-31.662500484
 30
0.0
 10
8.4545351689
 20
-31.6630091444
 30
0.0
 10
8.4192995263
 20
-31.6599707283
 30
0.0
 10
8.3850180734
 20
-31.6534446036
 30
0.0
 10
8.352372682
 20
-31.6435579122
 30
0.0
 10
8.3220133003
 20
-31.6305030925
 30
0.0
 10
8.2945422671
 20
-31.6145286286
 30
0.0
 10
8.2705157275
 20
-31.5959470571
 30
0.0
 10
8.2567763155
 20
-31.581694528
 30
0.0
 10
8.2507006261
 20
-31.5742533586
 30
0.0
 11
8.5910716442
 21
-31.6394188195
 31
0.0
 11
8.559057422
 21
-31.6502783556
 31
0.0
 11
8.5251453931
 21
-31.6578288734
 31
0.0
 11
8.4900615342
 21
-31.6619014692
 31
0.0
 11
8.4545134663
 21
-31.6624136938
 31
0.0
 11
8.4192224453
 21
-31.6593549022
 31
0.0
 11
8.3849016242
 21
-31.6527868923
 31
0.0
 11
8.3522454308
 21
-31.6428424662
 31
0.0
 11
8.3219144746
 21
-31.6297227337
 31
0.0
 11
8.2945223723
 21
-31.6136930738
 31
0.0
 11
8.2706232426
 21
-31.5950777285
 31
0.0
 11
8.2507006261
 21
-31.5742533586
 31
0.0
  0
SPLINE
  5
396
100
AcDbEntity
  8
0
100
AcDbSpline
 62
253
  6
CONTINUOUS
 70
0
 71
3
 72
11
 73
7
 74
5
 42
0.0000001
 43
0.0000001
 44
0.0000000001
 12
-0.0473567098
 22
0.0580082152
 32
0.0
 13
0.0
 23
0.0747384001
 33
0.0
 40
0.0
 40
0.0
 40
0.0
 40
0.0
 40
0.1450465283
 40
0.4171466395
 40
0.7002986143
 40
1.0
 40
1.0
 40
1.0
 40
1.0
 10
-3.8469213865
 20
17.2670260973
 30
0.0
 10
-3.8492110286
 20
17.2698307274
 30
0.0
 10
-3.855331611
 20
17.2782761174
 30
0.0
 10
-3.863153938
 20
17.2940142599
 30
0.0
 10
-3.868650087
 20
17.3147236856
 30
0.0
 10
-3.8697788312
 20
17.3292828623
 30
0.0
 10
-3.8697788312
 20
17.336749263
 30
0.0
 11
-3.8469213865
 21
17.2670260973
 31
0.0
 11
-3.8532907713
 21
17.2758162001
 31
0.0
 11
-3.8623982615
 21
17.2939991541
 31
0.0
 11
-3.867925794
 21
17.3144268414
 31
0.0
 11
-3.8697788312
 21
17.336749263
 31
0.0
  0
SPLINE
  5
397
100
AcDbEntity
  8
0
100
AcDbSpline
 62
253
  6
CONTINUOUS
 70
0
 71
3
 72
10
 73
6
 74
4
 42
0.0000001
 43
0.0000001
 44
0.0000000001
 12
0.0217240598
 22
-0.046428161
 32
0.0
 13
-0.000000002
 23
-0.0511891396
 33
0.0
 40
0.0
 40
0.0
 40
0.0
 40
0.0
 40
0.2406888586
 40
0.6123555498
 40
1.0
 40
1.0
 40
1.0
 40
1.0
 10
-11.5785287494
 20
27.6169067919
 30
0.0
 10
-11.5767858364
 20
27.6131818782
 30
0.0
 10
-11.5729355454
 20
27.6034310198
 30
0.0
 10
-11.5690535298
 20
27.586735712
 30
0.0
 10
-11.5681559525
 20
27.5737536833
 30
0.0
 10
-11.5681559527
 20
27.567139288
 30
0.0
 11
-11.5785287494
 21
27.6169067919
 31
0.0
 11
-11.5739866752
 21
27.6054436348
 31
0.0
 11
-11.5696067334
 21
27.5869293679
 31
0.0
 11
-11.5681559527
 21
27.567139288
 31
0.0
  0
SPLINE
  5
398
100
AcDbEntity
  8
0
100
AcDbSpline
 62
253
  6
CONTINUOUS
 70
0
 71
3
 72
18
 73
14
 74
12
 42
0.0000001
 43
0.0000001
 44
0.0000000001
 12
-0.0023079417
 22
0.3578899509
 32
0.0
 13
-0.2247007344
 23
0.2785679873
 33
0.0
 40
0.0
 40
0.0
 40
0.0
 40
0.0
 40
0.0745930705
 40
0.1570293702
 40
0.2460660845
 40
0.3402352369
 40
0.437910186
 40
0.5373624679
 40
0.6368131546
 40
0.7344858271
 40
0.8286463204
 40
0.9176740146
 40
1.0
 40
1.0
 40
1.0
 40
1.0
 10
8.5910716442
 20
2.6311893857
 30
0.0
 10
8.5910142587
 20
2.6400880891
 30
0.0
 10
8.5899224742
 20
2.6588192056
 30
0.0
 10
8.5859320192
 20
2.6879242696
 30
0.0
 10
8.5795702763
 20
2.7189911007
 30
0.0
 10
8.5709606443
 20
2.7513921607
 30
0.0
 10
8.5602731566
 20
2.7844753342
 30
0.0
 10
8.5477220945
 20
2.8175712043
 30
0.0
 10
8.5335606795
 20
2.8500104754
 30
0.0
 10
8.5180762728
 20
2.8811365464
 30
0.0
 10
8.501582896
 20
2.9103224298
 30
0.0
 10
8.484423809
 20
2.9369691305
 30
0.0
 10
8.4722395941
 20
2.9534102068
 30
0.0
 10
8.4660733576
 20
2.9610546681
 30
0.0
 11
8.5910716442
 21
2.6311893857
 31
0.0
 11
8.5896487393
 21
2.6578481045
 31
0.0
 11
8.5857326452
 21
2.6870907905
 31
0.0
 11
8.5794031129
 21
2.7183218564
 31
0.0
 11
8.5707890436
 21
2.750905332
 31
0.0
 11
8.5600658794
 21
2.7841776661
 31
0.0
 11
8.5474520046
 21
2.8174613336
 31
0.0
 11
8.5332043689
 21
2.8500784548
 31
0.0
 11
8.5176128082
 21
2.8813655246
 31
0.0
 11
8.500995846
 21
2.9106836547
 31
0.0
 11
8.4836909847
 21
2.9374376918
 31
0.0
 11
8.4660733576
 21
2.9610546681
 31
0.0
  0
SPLINE
  5
399
100
AcDbEntity
  8
0
100
AcDbSpline
 62
253
  6
CONTINUOUS
 70
0
 71
3
 72
18
 73
14
 74
12
 42
0.0000001
 43
0.0000001
 44
0.0000000001
 12
0.2326303393
 22
-0.284912815
 32
0.0
 13
0.3411203973
 23
0.1375829257
 33
0.0
 40
0.0
 40
0.0
 40
0.0
 40
0.0
 40
0.0782452937
 40
0.1605932996
 40
0.2468673005
 40
0.3367058677
 40
0.4295081535
 40
0.5245068092
 40
0.6208126228
 40
0.717468695
 40
0.813500141
 40
0.9079641615
 40
1.0
 40
1.0
 40
1.0
 40
1.0
 10
8.2507006261
 20
2.6963548466
 30
0.0
 10
8.2567680359
 20
2.6889238176
 30
0.0
 10
8.2704955668
 20
2.6746804258
 30
0.0
 10
8.2945059967
 20
2.6561040312
 30
0.0
 10
8.3219709962
 20
2.6401264122
 30
0.0
 10
8.3523254615
 20
2.6270675148
 30
0.0
 10
8.3849674414
 20
2.6171760374
 30
0.0
 10
8.4192467807
 20
2.610644733
 30
0.0
 10
8.4544816895
 20
2.607600966
 30
0.0
 10
8.4899698915
 20
2.6081043021
 30
0.0
 10
8.5250059946
 20
2.6121455283
 30
0.0
 10
8.5588864694
 20
2.6196432295
 30
0.0
 10
8.5806065436
 20
2.6269685324
 30
0.0
 10
8.5910716442
 20
2.6311893857
 30
0.0
 11
8.2507006261
 21
2.6963548466
 31
0.0
 11
8.2705939717
 21
2.6755568257
 31
0.0
 11
8.2944862242
 21
2.6569395528
 31
0.0
 11
8.3218717377
 21
2.640907058
 31
0.0
 11
8.3521982672
 21
2.6277830135
 31
0.0
 11
8.3848507752
 21
2.6178338536
 31
0.0
 11
8.419169433
 21
2.6112606384
 31
0.0
 11
8.4544599413
 21
2.6081964397
 31
0.0
 11
8.490008448
 21
2.608703294
 31
0.0
 11
8.5250958199
 21
2.6127709844
 31
0.0
 11
8.5590122929
 21
2.6203172474
 31
0.0
 11
8.5910716442
 21
2.6311893857
 31
0.0
  0
SPLINE
  5
39A
100
AcDbEntity
  8
0
100
AcDbSpline
 62
253
  6
CONTINUOUS
 70
0
 71
3
 72
18
 73
14
 74
12
 42
0.0000001
 43
0.0000001
 44
0.0000000001
 12
-0.3312253144
 22
-0.1366382245
 32
0.0
 13
0.0
 23
-0.3583018466
 33
0.0
 40
0.0
 40
0.0
 40
0.0
 40
0.0
 40
0.0946953643
 40
0.1920756754
 40
0.2909703876
 40
0.390141996
 40
0.4883409917
 40
0.5843603524
 40
0.677091691
 40
0.7655854174
 40
0.849117671
 40
0.9272667789
 40
1.0
 40
1.0
 40
1.0
 40
1.0
 10
8.4660733576
 20
2.9610546681
 30
0.0
 10
8.4556181904
 20
2.956741666
 30
0.0
 10
8.4348407558
 20
2.9469197144
 30
0.0
 10
8.4048862426
 20
2.9292144897
 30
0.0
 10
8.3761743644
 20
2.9086237677
 30
0.0
 10
8.3492814127
 20
2.8855599038
 30
0.0
 10
8.3247423058
 20
2.8604820141
 30
0.0
 10
8.3030463128
 20
2.8338892511
 30
0.0
 10
8.2846252799
 20
2.8063084289
 30
0.0
 10
8.2698460535
 20
2.7782839034
 30
0.0
 10
8.259005313
 20
2.7503588663
 30
0.0
 10
8.2523272436
 20
2.7230838527
 30
0.0
 10
8.2507006261
 20
2.7050416624
 30
0.0
 10
8.2507006261
 20
2.6963548466
 30
0.0
 11
8.4660733576
 21
2.9610546681
 31
0.0
 11
8.4353751855
 21
2.9466035498
 31
0.0
 11
8.4053207114
 21
2.9288793145
 31
0.0
 11
8.3765176924
 21
2.9082403792
 31
0.0
 11
8.3495485792
 21
2.8851041015
 31
0.0
 11
8.3249587373
 21
2.8599383398
 31
0.0
 11
8.303245419
 21
2.8332519927
 31
0.0
 11
8.2848477079
 21
2.8055847075
 31
0.0
 11
8.2701376399
 21
2.7774959683
 31
0.0
 11
8.2594126798
 21
2.7495537814
 31
0.0
 11
8.2528897064
 21
2.7223231898
 31
0.0
 11
8.2507006261
 21
2.6963548466
 31
0.0
  0
SPLINE
  5
39B
100
AcDbEntity
  8
0
100
AcDbSpline
 62
253
  6
CONTINUOUS
 70
0
 71
3
 72
18
 73
14
 74
12
 42
0.0000001
 43
0.0000001
 44
0.0000000001
 12
-0.0023079417
 22
0.3578899509
 32
0.0
 13
-0.2247007344
 23
0.2785679873
 33
0.0
 40
0.0
 40
0.0
 40
0.0
 40
0.0
 40
0.0745930705
 40
0.1570293702
 40
0.2460660845
 40
0.3402352369
 40
0.437910186
 40
0.5373624679
 40
0.6368131546
 40
0.7344858271
 40
0.8286463204
 40
0.9176740146
 40
1.0
 40
1.0
 40
1.0
 40
1.0
 10
-0.8464283558
 20
14.1897191094
 30
0.0
 10
-0.8464857413
 20
14.1986178129
 30
0.0
 10
-0.8475775258
 20
14.2173489294
 30
0.0
 10
-0.8515679808
 20
14.2464539934
 30
0.0
 10
-0.8579297237
 20
14.2775208244
 30
0.0
 10
-0.8665393557
 20
14.3099218845
 30
0.0
 10
-0.8772268434
 20
14.3430050579
 30
0.0
 10
-0.8897779055
 20
14.3761009281
 30
0.0
 10
-0.9039393205
 20
14.4085401992
 30
0.0
 10
-0.9194237272
 20
14.4396662702
 30
0.0
 10
-0.935917104
 20
14.4688521535
 30
0.0
 10
-0.953076191
 20
14.4954988543
 30
0.0
 10
-0.9652604059
 20
14.5119399305
 30
0.0
 10
-0.9714266424
 20
14.5195843919
 30
0.0
 11
-0.8464283558
 21
14.1897191094
 31
0.0
 11
-0.8478512607
 21
14.2163778282
 31
0.0
 11
-0.8517673548
 21
14.2456205142
 31
0.0
 11
-0.8580968871
 21
14.2768515802
 31
0.0
 11
-0.8667109564
 21
14.3094350558
 31
0.0
 11
-0.8774341206
 21
14.3427073899
 31
0.0
 11
-0.8900479954
 21
14.3759910574
 31
0.0
 11
-0.9042956311
 21
14.4086081786
 31
0.0
 11
-0.9198871918
 21
14.4398952484
 31
0.0
 11
-0.936504154
 21
14.4692133785
 31
0.0
 11
-0.9538090153
 21
14.4959674156
 31
0.0
 11
-0.9714266424
 21
14.5195843919
 31
0.0
  0
SPLINE
  5
39C
100
AcDbEntity
  8
0
100
AcDbSpline
 62
253
  6
CONTINUOUS
 70
0
 71
3
 72
18
 73
14
 74
12
 42
0.0000001
 43
0.0000001
 44
0.0000000001
 12
0.2326303393
 22
-0.284912815
 32
0.0
 13
0.3411203973
 23
0.1375829257
 33
0.0
 40
0.0
 40
0.0
 40
0.0
 40
0.0
 40
0.0782452937
 40
0.1605932996
 40
0.2468673005
 40
0.3367058677
 40
0.4295081535
 40
0.5245068092
 40
0.6208126228
 40
0.717468695
 40
0.813500141
 40
0.9079641615
 40
1.0
 40
1.0
 40
1.0
 40
1.0
 10
-1.1867993739
 20
14.2548845703
 30
0.0
 10
-1.1807319641
 20
14.2474535414
 30
0.0
 10
-1.1670044332
 20
14.2332101496
 30
0.0
 10
-1.1429940033
 20
14.214633755
 30
0.0
 10
-1.1155290038
 20
14.1986561359
 30
0.0
 10
-1.0851745385
 20
14.1855972385
 30
0.0
 10
-1.0525325586
 20
14.1757057612
 30
0.0
 10
-1.0182532193
 20
14.1691744568
 30
0.0
 10
-0.9830183105
 20
14.1661306897
 30
0.0
 10
-0.9475301085
 20
14.1666340258
 30
0.0
 10
-0.9124940054
 20
14.170675252
 30
0.0
 10
-0.8786135306
 20
14.1781729533
 30
0.0
 10
-0.8568934564
 20
14.1854982561
 30
0.0
 10
-0.8464283558
 20
14.1897191094
 30
0.0
 11
-1.1867993739
 21
14.2548845703
 31
0.0
 11
-1.1669060283
 21
14.2340865495
 31
0.0
 11
-1.1430137758
 21
14.2154692766
 31
0.0
 11
-1.1156282623
 21
14.1994367817
 31
0.0
 11
-1.0853017328
 21
14.1863127373
 31
0.0
 11
-1.0526492248
 21
14.1763635773
 31
0.0
 11
-1.018330567
 21
14.1697903622
 31
0.0
 11
-0.9830400587
 21
14.1667261635
 31
0.0
 11
-0.947491552
 21
14.1672330178
 31
0.0
 11
-0.9124041801
 21
14.1713007082
 31
0.0
 11
-0.8784877071
 21
14.1788469711
 31
0.0
 11
-0.8464283558
 21
14.1897191094
 31
0.0
  0
SPLINE
  5
39D
100
AcDbEntity
  8
0
100
AcDbSpline
 62
253
  6
CONTINUOUS
 70
0
 71
3
 72
18
 73
14
 74
12
 42
0.0000001
 43
0.0000001
 44
0.0000000001
 12
-0.3312253144
 22
-0.1366382245
 32
0.0
 13
0.0
 23
-0.3583018466
 33
0.0
 40
0.0
 40
0.0
 40
0.0
 40
0.0
 40
0.0946953643
 40
0.1920756754
 40
0.2909703876
 40
0.390141996
 40
0.4883409917
 40
0.5843603524
 40
0.677091691
 40
0.7655854174
 40
0.849117671
 40
0.9272667789
 40
1.0
 40
1.0
 40
1.0
 40
1.0
 10
-0.9714266424
 20
14.5195843919
 30
0.0
 10
-0.9818818096
 20
14.5152713897
 30
0.0
 10
-1.0026592442
 20
14.5054494381
 30
0.0
 10
-1.0326137574
 20
14.4877442134
 30
0.0
 10
-1.0613256356
 20
14.4671534914
 30
0.0
 10
-1.0882185873
 20
14.4440896275
 30
0.0
 10
-1.1127576942
 20
14.4190117378
 30
0.0
 10
-1.1344536872
 20
14.3924189749
 30
0.0
 10
-1.1528747201
 20
14.3648381527
 30
0.0
 10
-1.1676539465
 20
14.3368136271
 30
0.0
 10
-1.178494687
 20
14.30888859
 30
0.0
 10
-1.1851727564
 20
14.2816135764
 30
0.0
 10
-1.1867993739
 20
14.2635713862
 30
0.0
 10
-1.1867993739
 20
14.2548845703
 30
0.0
 11
-0.9714266424
 21
14.5195843919
 31
0.0
 11
-1.0021248145
 21
14.5051332736
 31
0.0
 11
-1.0321792886
 21
14.4874090383
 31
0.0
 11
-1.0609823076
 21
14.466770103
 31
0.0
 11
-1.0879514208
 21
14.4436338252
 31
0.0
 11
-1.1125412627
 21
14.4184680636
 31
0.0
 11
-1.134254581
 21
14.3917817164
 31
0.0
 11
-1.1526522921
 21
14.3641144313
 31
0.0
 11
-1.1673623601
 21
14.336025692
 31
0.0
 11
-1.1780873202
 21
14.3080835051
 31
0.0
 11
-1.1846102936
 21
14.2808529135
 31
0.0
 11
-1.1867993739
 21
14.2548845703
 31
0.0
  0
SPLINE
  5
39E
100
AcDbEntity
  8
0
100
AcDbSpline
 62
253
  6
CONTINUOUS
 70
0
 71
3
 72
10
 73
6
 74
4
 42
0.0000001
 43
0.0000001
 44
0.0000000001
 12
0.0217240598
 22
-0.046428161
 32
0.0
 13
-0.000000002
 23
-0.0511891396
 33
0.0
 40
0.0
 40
0.0
 40
0.0
 40
0.0
 40
0.2406888586
 40
0.6123555498
 40
1.0
 40
1.0
 40
1.0
 40
1.0
 10
-2.1410287494
 20
16.0583770681
 30
0.0
 10
-2.1392858364
 20
16.0546521544
 30
0.0
 10
-2.1354355454
 20
16.044901296
 30
0.0
 10
-2.1315535298
 20
16.0282059882
 30
0.0
 10
-2.1306559525
 20
16.0152239596
 30
0.0
 10
-2.1306559527
 20
16.0086095643
 30
0.0
 11
-2.1410287494
 21
16.0583770681
 31
0.0
 11
-2.1364866752
 21
16.0469139111
 31
0.0
 11
-2.1321067334
 21
16.0283996442
 31
0.0
 11
-2.1306559527
 21
16.0086095643
 31
0.0
  0
SPLINE
  5
39F
100
AcDbEntity
  8
0
100
AcDbSpline
 62
253
  6
CONTINUOUS
 70
0
 71
3
 72
18
 73
14
 74
12
 42
0.0000001
 43
0.0000001
 44
0.0000000001
 12
0.0
 22
0.3583018378
 32
0.0
 13
0.3312253062
 23
0.1366382212
 33
0.0
 40
0.0
 40
0.0
 40
0.0
 40
0.0
 40
0.0727437589
 40
0.1509052981
 40
0.2344513511
 40
0.3229598407
 40
0.4157062208
 40
0.5117402482
 40
0.6099524192
 40
0.7091370902
 40
0.8080379591
 40
0.9054226942
 40
1.0
 40
1.0
 40
1.0
 40
1.0
 10
-2.0572788312
 20
15.3209998213
 30
0.0
 10
-2.0572788312
 20
15.3296878955
 30
0.0
 10
-2.0556517308
 20
15.3477328355
 30
0.0
 10
-2.0489717629
 20
15.3750119372
 30
0.0
 10
-2.0381279985
 20
15.4029410808
 30
0.0
 10
-2.023344794
 20
15.4309694188
 30
0.0
 10
-2.0049190477
 20
15.4585535003
 30
0.0
 10
-1.9832179052
 20
15.4851486913
 30
0.0
 10
-1.9586733825
 20
15.5102281349
 30
0.0
 10
-1.9317754413
 20
15.5332921497
 30
0.0
 10
-1.9030592552
 20
15.5538817182
 30
0.0
 10
-1.8731138859
 20
15.5715772154
 30
0.0
 10
-1.852348232
 20
15.5813920179
 30
0.0
 10
-1.8419060997
 20
15.5856996429
 30
0.0
 11
-2.0572788312
 21
15.3209998213
 31
0.0
 11
-2.0550891389
 21
15.3469719014
 31
0.0
 11
-2.048564316
 21
15.3742066294
 31
0.0
 11
-2.0378363611
 21
15.402152962
 31
0.0
 11
-2.0231223065
 21
15.4302455837
 31
0.0
 11
-2.0047198539
 21
15.457916187
 31
0.0
 11
-1.9830013063
 21
15.484605053
 31
0.0
 11
-1.9584061602
 21
15.5097722307
 31
0.0
 11
-1.931431437
 21
15.5329091558
 31
0.0
 11
-1.9026245975
 21
15.5535465447
 31
0.0
 11
-1.8725668468
 21
15.5712683425
 31
0.0
 11
-1.8419060997
 21
15.5856996429
 31
0.0
  0
SPLINE
  5
3A0
100
AcDbEntity
  8
0
100
AcDbSpline
 62
253
  6
CONTINUOUS
 70
0
 71
3
 72
14
 73
10
 74
8
 42
0.0000001
 43
0.0000001
 44
0.0000000001
 12
-0.0737534555
 22
0.0892439089
 32
0.0
 13
-0.1072612032
 23
-0.044851791
 33
0.0
 40
0.0
 40
0.0
 40
0.0
 40
0.0
 40
0.231576016
 40
0.4363039156
 40
0.6127352132
 40
0.7615460614
 40
0.8868108256
 40
0.9976737105
 40
1.0
 40
1.0
 40
1.0
 40
1.0
 10
-1.8419060997
 20
15.5856996429
 30
0.0
 10
-1.8475992768
 20
15.5925885592
 30
0.0
 10
-1.8588205519
 20
15.6051757335
 30
0.0
 10
-1.8762426387
 20
15.6212327815
 30
0.0
 10
-1.8929878088
 20
15.6331062353
 30
0.0
 10
-1.908819641
 20
15.6405786263
 30
0.0
 10
-1.9236337172
 20
15.6434176399
 30
0.0
 10
-1.9329499685
 20
15.6417985633
 30
0.0
 10
-1.9370045481
 20
15.6401247633
 30
0.0
 10
-1.9370877216
 20
15.6400899838
 30
0.0
 11
-1.8419060997
 21
15.5856996429
 31
0.0
 11
-1.8598446877
 21
15.6056253037
 31
0.0
 11
-1.8773950341
 21
15.6215562817
 31
0.0
 11
-1.8941998769
 21
15.6331682792
 31
0.0
 11
-1.9099171298
 21
15.6402249177
 31
0.0
 11
-1.9242268462
 21
15.6425825494
 31
0.0
 11
-1.9368377315
 21
15.6401931815
 31
0.0
 11
-1.9370877216
 21
15.6400899838
 31
0.0
  0
SPLINE
  5
3A1
100
AcDbEntity
  8
0
100
AcDbSpline
 62
253
  6
CONTINUOUS
 70
0
 71
3
 72
16
 73
12
 74
10
 42
0.0000001
 43
0.0000001
 44
0.0000000001
 12
0.0000024503
 22
0.3436441362
 32
0.0
 13
-0.3428832575
 23
0.022855285
 33
0.0
 40
0.0
 40
0.0
 40
0.0
 40
0.0
 40
0.1153966848
 40
0.2260351152
 40
0.3328972586
 40
0.4372604187
 40
0.5414839429
 40
0.6483487609
 40
0.759893109
 40
0.877079729
 40
1.0
 40
1.0
 40
1.0
 40
1.0
 10
-1.7902849342
 20
15.9434431021
 30
0.0
 10
-1.79028484
 20
15.9566615668
 30
0.0
 10
-1.7920712794
 20
15.982604926
 30
0.0
 10
-1.8007240889
 20
16.0199207579
 30
0.0
 10
-1.815294298
 20
16.0540143481
 30
0.0
 10
-1.8355727638
 20
16.0841857062
 30
0.0
 10
-1.8612184917
 20
16.1099486157
 30
0.0
 10
-1.8918649427
 20
16.1309637143
 30
0.0
 10
-1.9270336584
 20
16.1469275449
 30
0.0
 10
-1.9660219174
 20
16.1576141377
 30
0.0
 10
-1.9933966887
 20
16.161106114
 30
0.0
 10
-2.0074457896
 20
16.1620425733
 30
0.0
 11
-1.7902849342
 21
15.9434431021
 31
0.0
 11
-1.7931745656
 21
15.9829930744
 31
0.0
 11
-1.8019070808
 21
16.0199968908
 31
0.0
 11
-1.8164355012
 21
16.0537232989
 31
0.0
 11
-1.8364701517
 21
16.0834692914
 31
0.0
 11
-1.8617082517
 21
16.1088820843
 31
0.0
 11
-1.8919331827
 21
16.1297403359
 31
0.0
 11
-1.9267729488
 21
16.1457246806
 31
0.0
 11
-1.9655657382
 21
16.1565335768
 31
0.0
 11
-2.0074457896
 21
16.1620425733
 31
0.0
  0
ELLIPSE
  5
3A2
100
AcDbEntity
  8
0
100
AcDbEllipse
 62
7
  6
CONTINUOUS
 10
11.4234268572
 20
2.0711813911
 30
0.0
 11
-0.1889882442
 21
0.4629096965
 31
0.0
 40
0.3535700877
 41
-2.4278610135
 42
-0.8571154554
  0
ELLIPSE
  5
3A3
100
AcDbEntity
  8
0
100
AcDbEllipse
 62
7
  6
CONTINUOUS
 10
11.4234268572
 20
-28.8211453263
 30
0.0
 11
-0.1889950269
 21
0.4629340652
 31
0.0
 40
0.3535345573
 41
-3.1376841378
 42
-2.4279024556
  0
ELLIPSE
  5
3A4
100
AcDbEntity
  8
0
100
AcDbEllipse
 62
7
  6
CONTINUOUS
 10
11.2902980972
 20
-30.3592702221
 30
0.0
 11
-0.0944933292
 21
0.2314614874
 31
0.0
 40
0.3535437974
 41
-3.1443760599
 42
-2.4278794646
  0
ELLIPSE
  5
3A5
100
AcDbEntity
  8
0
100
AcDbEllipse
 62
7
  6
CONTINUOUS
 10
11.2902980972
 20
3.935403819
 30
0.0
 11
-0.0944914978
 21
0.2314549079
 31
0.0
 40
0.3535629841
 41
-2.4278570848
 42
-0.8570881733
  0
ELLIPSE
  5
3A6
100
AcDbEntity
  8
0
100
AcDbEllipse
 62
7
  6
CONTINUOUS
 10
1.8527980972
 20
15.4939335427
 30
0.0
 11
-0.0944914978
 21
0.2314549079
 31
0.0
 40
0.3535629841
 41
-2.4278570848
 42
-0.8570881733
  0
ELLIPSE
  5
3A7
100
AcDbEntity
  8
0
100
AcDbEllipse
 62
7
  6
CONTINUOUS
 10
-9.3972019028
 20
29.2723133459
 30
0.0
 11
-0.0944914978
 21
0.2314549079
 31
0.0
 40
0.3535629841
 41
-2.4278570848
 42
-0.8570881733
  0
ELLIPSE
  5
3A8
100
AcDbEntity
  8
0
100
AcDbEllipse
 62
7
  6
CONTINUOUS
 10
0.0402980972
 20
17.7137836221
 30
0.0
 11
-0.0944914978
 21
0.2314549079
 31
0.0
 40
0.3535629841
 41
-2.4278570848
 42
-0.8570881733
  0
ELLIPSE
  5
3A9
100
AcDbEntity
  8
0
100
AcDbEllipse
 62
7
  6
CONTINUOUS
 10
11.4377437233
 20
16.9803834264
 30
0.0
 11
0.4998026032
 21
0.1741991198
 31
0.0
 40
0.080645694
 41
1.0684276451
 42
2.048841294
  0
ELLIPSE
  5
3AA
100
AcDbEntity
  8
0
100
AcDbEllipse
 62
7
  6
CONTINUOUS
 10
19.0043893776
 20
-23.3341420271
 30
0.0
 11
0.499745758
 21
0.1820436403
 31
0.0
 40
0.0875775764
 41
-1.0616355459
 42
-0.081221897
  0
ELLIPSE
  5
3AB
100
AcDbEntity
  8
0
100
AcDbEllipse
 62
7
  6
CONTINUOUS
 10
0.1877437233
 20
30.7587632296
 30
0.0
 11
0.4998026032
 21
0.1741991198
 31
0.0
 40
0.080645694
 41
1.0684276451
 42
2.048841294
  0
ELLIPSE
  5
3AC
100
AcDbEntity
  8
0
100
AcDbEllipse
 62
7
  6
CONTINUOUS
 10
19.0043893776
 20
7.0328408848
 30
0.0
 11
0.4999853442
 21
0.0053907705
 31
0.0
 40
0.7101512765
 41
-1.0374008586
 42
-0.0076406844
  0
ELLIPSE
  5
3AD
100
AcDbEntity
  8
0
100
AcDbEllipse
 62
7
  6
CONTINUOUS
 10
2.8826921587
 20
11.7875064466
 30
0.0
 11
0.4999947784
 21
0.0032232023
 31
0.0
 40
0.7089433455
 41
2.0950609386
 42
2.7359466198
  0
ELLIPSE
  5
3AE
100
AcDbEntity
  8
0
100
AcDbEllipse
 62
7
  6
CONTINUOUS
 10
-8.3673078413
 20
25.5658862497
 30
0.0
 11
0.4999947784
 21
0.0032232023
 31
0.0
 40
0.7089433455
 41
2.0950609386
 42
2.7359466198
  0
ELLIPSE
  5
3AF
100
AcDbEntity
  8
0
100
AcDbEllipse
 62
7
  6
CONTINUOUS
 10
-10.2846984758
 20
30.3592702221
 30
0.0
 11
-0.0944933292
 21
0.2314614874
 31
0.0
 40
0.3535437974
 41
-0.8570557225
 42
0.0027817624
  0
ELLIPSE
  5
3B0
100
AcDbEntity
  8
0
100
AcDbEllipse
 62
7
  6
CONTINUOUS
 10
-0.8471984758
 20
18.8007404983
 30
0.0
 11
-0.0944933292
 21
0.2314614874
 31
0.0
 40
0.3535437974
 41
-0.8570557225
 42
0.0027817624
  0
ELLIPSE
  5
3B1
100
AcDbEntity
  8
0
100
AcDbEllipse
 62
7
  6
CONTINUOUS
 10
9.573982051
 20
14.5340263949
 30
0.0
 11
0.3891758465
 21
0.3139230219
 31
0.0
 40
0.6142101335
 41
0.9131652553
 42
1.1003284629
  0
ELLIPSE
  5
3B2
100
AcDbEntity
  8
0
100
AcDbEllipse
 62
7
  6
CONTINUOUS
 10
-1.676017949
 20
28.3124061981
 30
0.0
 11
0.3891758465
 21
0.3139230219
 31
0.0
 40
0.6142101335
 41
0.9131652553
 42
1.1003284629
  0
ELLIPSE
  5
3B3
100
AcDbEntity
  8
0
100
AcDbEllipse
 62
7
  6
CONTINUOUS
 10
0.9653015242
 20
16.5808904189
 30
0.0
 11
-0.0944933292
 21
0.2314614874
 31
0.0
 40
0.3535437974
 41
-0.8570557225
 42
0.0027817624
  0
ELLIPSE
  5
3B4
100
AcDbEntity
  8
0
100
AcDbEllipse
 62
7
  6
CONTINUOUS
 10
10.4028015242
 20
5.0223606952
 30
0.0
 11
-0.0944933292
 21
0.2314614874
 31
0.0
 40
0.3535437974
 41
-0.8570557225
 42
0.0027817624
  0
ELLIPSE
  5
3B5
100
AcDbEntity
  8
0
100
AcDbEllipse
 62
7
  6
CONTINUOUS
 10
5.0816881875
 20
23.5856312832
 30
0.0
 11
0.7808643633
 21
0.6247496634
 31
0.0
 40
0.6154201267
 41
0.0061273779
 42
1.1074439462
  0
ELLIPSE
  5
3B6
100
AcDbEntity
  8
0
100
AcDbEllipse
 62
7
  6
CONTINUOUS
 10
13.5353272556
 20
9.6823891718
 30
0.0
 11
0.3904321817
 21
0.3123748317
 31
0.0
 40
0.6154201267
 41
0.9127497513
 42
1.1027897349
  0
ELLIPSE
  5
3B7
100
AcDbEntity
  8
0
100
AcDbEllipse
 62
7
  6
CONTINUOUS
 10
2.2853272556
 20
23.460768975
 30
0.0
 11
0.3904321817
 21
0.3123748317
 31
0.0
 40
0.6154201267
 41
0.9127497513
 42
1.1027897349
  0
ELLIPSE
  5
3B8
100
AcDbEntity
  8
0
100
AcDbEllipse
 62
7
  6
CONTINUOUS
 10
7.7543893776
 20
20.8112206879
 30
0.0
 11
0.4999853442
 21
0.0053907705
 31
0.0
 40
0.7101512765
 41
-1.0374008586
 42
-0.0076406844
  0
ELLIPSE
  5
3B9
100
AcDbEntity
  8
0
100
AcDbEllipse
 62
7
  6
CONTINUOUS
 10
16.3316881875
 20
9.8072514801
 30
0.0
 11
0.7808643633
 21
0.6247496634
 31
0.0
 40
0.6154201267
 41
0.0061273779
 42
1.1074439462
  0
ELLIPSE
  5
3BA
100
AcDbEntity
  8
0
100
AcDbEllipse
 62
7
  6
CONTINUOUS
 10
-1.9141496014
 20
15.5356800709
 30
0.0
 11
0.2497008669
 21
0.0168853507
 31
0.0
 40
0.7240643587
 41
-2.666917715
 42
-2.404530583
  0
ELLIPSE
  5
3BB
100
AcDbEntity
  8
0
100
AcDbEllipse
 62
7
  6
CONTINUOUS
 10
-11.3516496014
 20
27.0942097946
 30
0.0
 11
0.2497008669
 21
0.0168853507
 31
0.0
 40
0.7240643587
 41
-2.666917715
 42
-1.101357376
  0
ELLIPSE
  5
3BC
100
AcDbEntity
  8
0
100
AcDbEllipse
 62
7
  6
CONTINUOUS
 10
74.2866626604
 20
34.0400849975
 30
0.0
 11
82.4484841318
 21
34.0682356199
 31
0.0
 40
0.0036627946
 41
2.39043524
 42
2.507367457
  0
ELLIPSE
  5
3BD
100
AcDbEntity
  8
0
100
AcDbEllipse
 62
7
  6
CONTINUOUS
 10
7.6583521003
 20
20.4298753707
 30
0.0
 11
-0.4639649443
 21
1.3333008873
 31
0.0
 40
0.6598824178
 41
5.1561221374
 42
6.3187889287
  0
ELLIPSE
  5
3BE
100
AcDbEntity
  8
0
100
AcDbEllipse
 62
7
  6
CONTINUOUS
 10
13.9399478196
 20
9.1868322112
 30
0.0
 11
0.3854293163
 21
0.3185117039
 31
0.0
 40
0.6105078759
 41
0.9059100632
 42
1.0930732708
  0
ELLIPSE
  5
3BF
100
AcDbEntity
  8
0
100
AcDbEllipse
 62
7
  6
CONTINUOUS
 10
1.9944195096
 20
27.3667477631
 30
0.0
 11
0.7683761526
 21
0.6400458166
 31
0.0
 40
0.6092501263
 41
5.8135587199
 42
7.3785372825
  0
ELLIPSE
  5
3C0
100
AcDbEntity
  8
0
100
AcDbEllipse
 62
7
  6
CONTINUOUS
 10
7.1527998107
 20
6.6328002569
 30
0.0
 11
0.7455819255
 21
0.6649164069
 31
0.0
 40
0.3953628258
 41
-1.4422086448
 42
-0.9553125763
  0
ELLIPSE
  5
3C1
100
AcDbEntity
  8
0
100
AcDbEllipse
 62
7
  6
CONTINUOUS
 10
-4.0972001893
 20
20.4111800601
 30
0.0
 11
0.7455819255
 21
0.6649164069
 31
0.0
 40
0.3953628258
 41
-1.4422086448
 42
-0.9553125763
  0
ELLIPSE
  5
3C2
100
AcDbEntity
  8
0
100
AcDbEllipse
 62
7
  6
CONTINUOUS
 10
2.8826921587
 20
10.7492263202
 30
0.0
 11
0.4994017339
 21
0.0337707014
 31
0.0
 40
0.7240643587
 41
3.0926521168
 42
3.6162675922
  0
ELLIPSE
  5
3C3
100
AcDbEntity
  8
0
100
AcDbEllipse
 62
7
  6
CONTINUOUS
 10
6.7748312513
 20
5.9823489278
 30
0.0
 11
0.4994017339
 21
0.0337707014
 31
0.0
 40
0.7240643587
 41
-2.666917715
 42
-1.101357376
  0
ELLIPSE
  5
3C4
100
AcDbEntity
  8
0
100
AcDbEllipse
 62
7
  6
CONTINUOUS
 10
9.978602615
 20
14.0384694344
 30
0.0
 11
0.3841880763
 21
0.3200229083
 31
0.0
 40
0.6092501263
 41
0.9006577804
 42
1.090697764
  0
ELLIPSE
  5
3C5
100
AcDbEntity
  8
0
100
AcDbEllipse
 62
7
  6
CONTINUOUS
 10
-1.271397385
 20
27.8168492375
 30
0.0
 11
0.3841880763
 21
0.3200229083
 31
0.0
 40
0.6092501263
 41
0.9006577804
 42
1.090697764
  0
ELLIPSE
  5
3C6
100
AcDbEntity
  8
0
100
AcDbEllipse
 62
7
  6
CONTINUOUS
 10
63.0366626604
 20
47.8184648007
 30
0.0
 11
82.4484841318
 21
34.0682356199
 31
0.0
 40
0.0036627946
 41
-2.5172673706
 42
-2.4293337416
  0
ELLIPSE
  5
3C7
100
AcDbEntity
  8
0
100
AcDbEllipse
 62
7
  6
CONTINUOUS
 10
74.2866626604
 20
34.0400849975
 30
0.0
 11
82.4484841318
 21
34.0682356199
 31
0.0
 40
0.0036627946
 41
-2.5172673706
 42
-2.4293337416
  0
ELLIPSE
  5
3C8
100
AcDbEntity
  8
0
100
AcDbEllipse
 62
7
  6
CONTINUOUS
 10
10.6677555968
 20
16.7441238724
 30
0.0
 11
1.0049613849
 21
0.3496472548
 31
0.0
 40
0.079818817
 41
-1.0722123037
 42
0.0904544876
  0
ELLIPSE
  5
3C9
100
AcDbEntity
  8
0
100
AcDbEllipse
 62
7
  6
CONTINUOUS
 10
63.0366626604
 20
47.8184648007
 30
0.0
 11
82.4484841318
 21
34.0682356199
 31
0.0
 40
0.0036627946
 41
2.39043524
 42
2.507367457
  0
ELLIPSE
  5
3CA
100
AcDbEntity
  8
0
100
AcDbEllipse
 62
7
  6
CONTINUOUS
 10
13.2444195096
 20
13.5883679599
 30
0.0
 11
0.7683761526
 21
0.6400458166
 31
0.0
 40
0.6092501263
 41
5.8135587199
 42
7.3785372825
  0
ELLIPSE
  5
3CB
100
AcDbEntity
  8
0
100
AcDbEllipse
 62
7
  6
CONTINUOUS
 10
2.6899478196
 20
22.9652120144
 30
0.0
 11
0.3854293163
 21
0.3185117039
 31
0.0
 40
0.6105078759
 41
0.9059100632
 42
1.0930732708
  0
ELLIPSE
  5
3CC
100
AcDbEntity
  8
0
100
AcDbEllipse
 62
7
  6
CONTINUOUS
 10
18.9083521003
 20
6.6514955676
 30
0.0
 11
-0.4639649443
 21
1.3333008873
 31
0.0
 40
0.6598824178
 41
5.1561221374
 42
6.3187889287
  0
ELLIPSE
  5
3CD
100
AcDbEntity
  8
0
100
AcDbEllipse
 62
7
  6
CONTINUOUS
 10
-8.3673078413
 20
24.5276061234
 30
0.0
 11
0.4994017339
 21
0.0337707014
 31
0.0
 40
0.7240643587
 41
3.0926521168
 42
3.6162675922
  0
ELLIPSE
  5
3CE
100
AcDbEntity
  8
0
100
AcDbEllipse
 62
7
  6
CONTINUOUS
 10
-4.4751687487
 20
19.7607287309
 30
0.0
 11
0.4994017339
 21
0.0337707014
 31
0.0
 40
0.7240643587
 41
-2.666917715
 42
-1.101357376
  0
ELLIPSE
  5
3CF
100
AcDbEntity
  8
0
100
AcDbEllipse
 62
7
  6
CONTINUOUS
 10
-0.5822444032
 20
30.5225036756
 30
0.0
 11
1.0049613849
 21
0.3496472548
 31
0.0
 40
0.079818817
 41
-1.0722123037
 42
0.0904544876
  0
ELLIPSE
  5
3D0
100
AcDbEntity
  8
0
100
AcDbEllipse
 62
7
  6
CONTINUOUS
 10
9.3358503986
 20
1.7573002677
 30
0.0
 11
0.2497008669
 21
0.0168853507
 31
0.0
 40
0.7240643587
 41
-2.666917715
 42
-1.101357376
  0
ELLIPSE
  5
3D1
100
AcDbEntity
  8
0
100
AcDbEllipse
 62
7
  6
CONTINUOUS
 10
-0.1016496014
 20
13.3158299915
 30
0.0
 11
0.2497008669
 21
0.0168853507
 31
0.0
 40
0.7240643587
 41
-2.666917715
 42
-1.101357376
  0
ELLIPSE
  5
3D2
100
AcDbEntity
  8
0
100
AcDbEllipse
 62
7
  6
CONTINUOUS
 10
19.0043893776
 20
7.7131729678
 30
0.0
 11
-0.241475643
 21
0.6629882704
 31
0.0
 40
0.6603791198
 41
-3.1045625826
 42
-2.1241489337
  0
ELLIPSE
  5
3D3
100
AcDbEntity
  8
0
100
AcDbEllipse
 62
7
  6
CONTINUOUS
 10
7.7543893776
 20
21.4915527709
 30
0.0
 11
-0.241475643
 21
0.6629882704
 31
0.0
 40
0.6603791198
 41
-3.1045625826
 42
-2.1241489337
  0
ELLIPSE
  5
3D4
100
AcDbEntity
  8
0
100
AcDbEllipse
 62
7
  6
CONTINUOUS
 10
2.5709146971
 20
22.5679128508
 30
0.0
 11
0.4039344247
 21
-0.0028614819
 31
0.0
 40
0.7050320741
 41
-1.0369671396
 42
0.0049697467
  0
ELLIPSE
  5
3D5
100
AcDbEntity
  8
0
100
AcDbEllipse
 62
7
  6
CONTINUOUS
 10
-1.3906030952
 20
27.4197614499
 30
0.0
 11
0.4039344247
 21
-0.0028614819
 31
0.0
 40
0.7050320741
 41
-1.0334764811
 42
0.0049670713
  0
ELLIPSE
  5
3D6
100
AcDbEntity
  8
0
100
AcDbEllipse
 62
7
  6
CONTINUOUS
 10
19.0043893776
 20
-22.6538099441
 30
0.0
 11
0.4999860917
 21
-0.0052975174
 31
0.0
 40
0.7039815063
 41
-1.0222854809
 42
0.5310575534
  0
ELLIPSE
  5
3D7
100
AcDbEntity
  8
0
100
AcDbEllipse
 62
7
  6
CONTINUOUS
 10
9.8593969048
 20
13.6413816467
 30
0.0
 11
0.4039344247
 21
-0.0028614819
 31
0.0
 40
0.7050320741
 41
-1.0334764811
 42
0.0049670713
  0
ELLIPSE
  5
3D8
100
AcDbEntity
  8
0
100
AcDbEllipse
 62
7
  6
CONTINUOUS
 10
13.8209146971
 20
8.7895330477
 30
0.0
 11
0.4039344247
 21
-0.0028614819
 31
0.0
 40
0.7050320741
 41
-1.0369671396
 42
0.0049697467
  0
ELLIPSE
  5
3D9
100
AcDbEntity
  8
0
100
AcDbEllipse
 62
7
  6
CONTINUOUS
 10
6.7748312513
 20
7.0206290541
 30
0.0
 11
0.4999947784
 21
0.0032232023
 31
0.0
 40
0.7089433455
 41
-1.6978893717
 42
-1.0570036905
  0
ELLIPSE
  5
3DA
100
AcDbEntity
  8
0
100
AcDbEllipse
 62
7
  6
CONTINUOUS
 10
-4.4751687487
 20
20.7990088573
 30
0.0
 11
0.4999947784
 21
0.0032232023
 31
0.0
 40
0.7089433455
 41
-1.6978893717
 42
-1.0570036905
  0
ENDSEC
  0
SECTION
  2
OBJECTS
  0
DICTIONARY
  5
C
100
AcDbDictionary
280
0
281
1
  3
ACAD_GROUP
350
D
  3
ACAD_MLINESTYLE
350
17
  3
ACAD_LAYOUT
350
1A
  3
ACAD_PLOTSETTINGS
350
19
  3
ACAD_PLOTSTYLENAME
350
E
  0
DICTIONARY
  5
D
102
{ACAD_REACTORS
330
C
102
}
100
AcDbDictionary
280
0
281
1
  0
ACDBDICTIONARYWDFLT
  5
E
102
{ACAD_REACTORS
330
C
102
}
100
AcDbDictionary
281
1
  3
Normal
350
F
100
AcDbDictionaryWithDefault
340
F
  0
DICTIONARY
  5
17
102
{ACAD_REACTORS
330
C
102
}
100
AcDbDictionary
280
0
281
1
  3
Standard
350
18
  0
DICTIONARY
  5
19
102
{ACAD_REACTORS
330
C
102
}
100
AcDbDictionary
281
1
  0
DICTIONARY
  5
1A
102
{ACAD_REACTORS
330
C
102
}
100
AcDbDictionary
281
1
  3
Model
350
3DB
  3
Layout1
350
3DC
  0
ACDBPLACEHOLDER
  5
F
102
{ACAD_REACTORS
330
E
102
}
  0
MLINESTYLE
  5
18
102
{ACAD_REACTORS
330
17
102
}
100
AcDbMlineStyle
  2
STANDARD
 70
0
  3

 62
256
 51
90.0
 52
90.0
 71
2
 49
0.5
 62
256
  6
BYLAYER
 49
-0.5
 62
256
  6
BYLAYER
  0
LAYOUT
  5
3DB
102
{ACAD_REACTORS
330
1A
102
}
100
AcDbPlotSettings
  1

  2
none_device
  4
ISO_A4_(297.00_x_210.00_MM)
  6

 40
0.0
 41
0.0
 42
0.0
 43
0.0
 44
297.0
 45
210.0
 46
0.0
 47
0.0
 48
0.0
 49
0.0
140
0.0
141
0.0
142
1.0
143
1.0
 70
1024
 72
1
 73
0
 74
0
  7

 75
0
147
1.0
148
0.0
149
0.0
100
AcDbLayout
  1
Model
 70
0
 71
0
 10
0.0
 20
0.0
 11
297.0
 21
210.0
 12
0.0
 22
0.0
 32
0.0
 14
0.0
 24
0.0
 34
0.0
 15
0.0
 25
0.0
 35
0.0
146
0.0
 13
0.0
 23
0.0
 33
0.0
 16
1.0
 26
0.0
 36
0.0
 17
0.0
 27
1.0
 37
0.0
 76
0
330
210
345
0
346
0
  0
LAYOUT
  5
3DC
102
{ACAD_REACTORS
330
1A
102
}
100
AcDbPlotSettings
  1

  2
none_device
  4
ISO_A4_(297.00_x_210.00_MM)
  6

 40
0.0
 41
0.0
 42
0.0
 43
0.0
 44
297.0
 45
210.0
 46
0.0
 47
0.0
 48
0.0
 49
0.0
140
0.0
141
0.0
142
1.0
143
1.0
 70
0
 72
1
 73
0
 74
0
  7

 75
0
147
1.0
148
0.0
149
0.0
100
AcDbLayout
  1
Layout1
 70
0
 71
1
 10
0.0
 20
0.0
 11
297.0
 21
210.0
 12
0.0
 22
0.0
 32
0.0
 14
0.0
 24
0.0
 34
0.0
 15
0.0
 25
0.0
 35
0.0
146
0.0
 13
0.0
 23
0.0
 33
0.0
 16
1.0
 26
0.0
 36
0.0
 17
0.0
 27
1.0
 37
0.0
 76
0
330
211
345
0
346
0
  0
ENDSEC
  0
EOF
