  0
SECTION
  2
HEADER
  9
$ACADVER
  1
AC1024
  9
$DWGCODEPAGE
  3
ANSI_1252
  9
$EXTMAX
 10
297.0
 20
210.0
 30
0.0
  9
$EXTMIN
 10
0.0
 20
0.0
 30
0.0
  9
$LIMMIN
 10
0.0
 20
0.0
  9
$LIMMAX
 10
297.0
 20
210.0
  9
$VIEWCTR
 10
148.5
 20
105.0
  9
$VIEWSIZE
 40
210.0
  9
$CLAYER
  8
0
  9
$LTSCALE
 40
16.335
  9
$CELTYPE
  6
BYLAYER
  9
$DIMSCALE
 40
1.0
  9
$DIMASZ
 40
3.0
  9
$DIMEXO
 40
0.5
  9
$DIMDLI
 40
11.286
  9
$DIMEXE
 40
1.5
  9
$DIMCEN
 40
2.673
  9
$DIMLFAC
 40
1.0
  9
$DIMBLK
  1
_FILLED
  9
$DIMALT
 70
0
  9
$DIMALTF
 40
0.0393700787
  9
$DIMTXT
 40
3.0
  9
$DIMTOL
 70
1
  9
$DIMLIM
 70
0
  9
$DIMTFAC
 40
1.0
  9
$DIMTP
 40
0.01
  9
$DIMTM
 40
0.01
  9
$DIMGAP
 40
0.625
  9
$DIMDSEP
 70
44
  9
$AUNITS
 70
0
  9
$PDMODE
 70
3
  9
$PDSIZE
 40
3.0
  9
$HANDSEED
  5
432
  9
$TILEMODE
 70
1
  9
$MEASUREMENT
 70
1
  9
$INSUNITS
 70
4
  0
ENDSEC
  0
SECTION
  2
CLASSES
  0
CLASS
  1
ACDBDICTIONARYWDFLT
  2
AcDbDictionaryWithDefault
  3
AutoCAD 2000
 90
0
 91
1
280
0
281
0
  0
CLASS
  1
ACDBPLACEHOLDER
  2
AcDbPlaceHolder
  3
AutoCAD 2000
 90
0
 91
1
280
0
281
0
  0
CLASS
  1
LAYOUT
  2
AcDbLayout
  3
AutoCAD 2000
 90
0
 91
0
280
0
281
0
  0
ENDSEC
  0
SECTION
  2
TABLES
  0
TABLE
  2
VPORT
  5
8
100
AcDbSymbolTable
 70
2
  0
VPORT
  5
1F4
100
AcDbSymbolTableRecord
100
AcDbViewportTableRecord
  2
*ACTIVE
 70
0
 10
0.0
 20
0.0
 11
1.0
 21
1.0
 12
148.5
 22
105.0
 13
0.0
 23
0.0
 14
1.0
 24
1.0
 15
0.0
 25
0.0
 16
0.0
 26
0.0
 36
1.0
 17
0.0
 27
0.0
 37
0.0
 40
210.0
 41
1.4142857143
 42
50.0
 43
0.0
 44
0.0
 50
0.0
 51
0.0
 71
0
 72
100
 73
1
 74
1
 75
0
 76
0
 77
0
 78
0
  0
ENDTAB
  0
TABLE
  2
LTYPE
  5
5
100
AcDbSymbolTable
 70
6
  0
LTYPE
  5
14
100
AcDbSymbolTableRecord
100
AcDbLinetypeTableRecord
  2
BYBLOCK
 70
0
  3

 72
65
 73
0
 40
0.0
  0
LTYPE
  5
15
100
AcDbSymbolTableRecord
100
AcDbLinetypeTableRecord
  2
BYLAYER
 70
0
  3

 72
65
 73
0
 40
0.0
  0
LTYPE
  5
16
100
AcDbSymbolTableRecord
100
AcDbLinetypeTableRecord
  2
CONTINUOUS
 70
64
  3
Solid line
 72
65
 73
0
 40
0.0
  0
LTYPE
  5
1F5
100
AcDbSymbolTableRecord
100
AcDbLinetypeTableRecord
  2
CENTER
 70
64
  3
____ _ ____ _ ____ _ ____ _ ____ _ ____ _ ____
 72
65
 73
4
 40
0.6
 49
0.375
 74
0
 49
-0.075
 74
0
 49
0.075
 74
0
 49
-0.075
 74
0
  0
LTYPE
  5
1F6
100
AcDbSymbolTableRecord
100
AcDbLinetypeTableRecord
  2
HIDDEN
 70
64
  3
- - - - - - - - - - - - - - - - - - - -
 72
65
 73
2
 40
0.2
 49
0.1
 74
0
 49
-0.1
 74
0
  0
LTYPE
  5
1F7
100
AcDbSymbolTableRecord
100
AcDbLinetypeTableRecord
  2
PHANTOM
 70
64
  3
_____ _ _ _____ _ _ _____ _ _ _____
 72
65
 73
6
 40
0.8
 49
0.45
 74
0
 49
-0.05
 74
0
 49
0.1
 74
0
 49
-0.05
 74
0
 49
0.1
 74
0
 49
-0.05
 74
0
  0
LTYPE
  5
1F8
100
AcDbSymbolTableRecord
100
AcDbLinetypeTableRecord
  2
DOT
 70
64
  3
. . . . . . . . . . . . . . . . . . . .
 72
65
 73
2
 40
0.2
 49
0.1
 74
0
 49
-0.1
 74
0
  0
LTYPE
  5
1F9
100
AcDbSymbolTableRecord
100
AcDbLinetypeTableRecord
  2
DASHED
 70
64
  3
- - - - - - - - - - - - - - - - - - - -
 72
65
 73
2
 40
0.2
 49
0.1
 74
0
 49
-0.1
 74
0
  0
ENDTAB
  0
TABLE
  2
LAYER
  5
2
100
AcDbSymbolTable
 70
36
  0
LAYER
  5
10
100
AcDbSymbolTableRecord
100
AcDbLayerTableRecord
  2
0
 70
0
 62
7
  6
CONTINUOUS
370
-3
390
F
  0
LAYER
  5
1FA
100
AcDbSymbolTableRecord
100
AcDbLayerTableRecord
  2
DEFAULT_1
 70
0
 62
7
  6
CENTER
370
-3
390
F
  0
LAYER
  5
1FB
100
AcDbSymbolTableRecord
100
AcDbLayerTableRecord
  2
DEFAULT_2
 70
0
 62
7
  6
HIDDEN
370
-3
390
F
  0
LAYER
  5
1FC
100
AcDbSymbolTableRecord
100
AcDbLayerTableRecord
  2
DEFAULT_3
 70
0
 62
7
  6
PHANTOM
370
-3
390
F
  0
LAYER
  5
1FD
100
AcDbSymbolTableRecord
100
AcDbLayerTableRecord
  2
ASSI
 70
0
 62
7
  6
CONTINUOUS
370
-3
390
F
  0
LAYER
  5
1FE
100
AcDbSymbolTableRecord
100
AcDbLayerTableRecord
  2
CASTELLO
 70
0
 62
7
  6
CONTINUOUS
370
-3
390
F
  0
LAYER
  5
1FF
100
AcDbSymbolTableRecord
100
AcDbLayerTableRecord
  2
COLORE_TOP
 70
0
 62
7
  6
CONTINUOUS
370
-3
390
F
  0
LAYER
  5
200
100
AcDbSymbolTableRecord
100
AcDbLayerTableRecord
  2
CONTATTO
 70
0
 62
7
  6
CONTINUOUS
370
-3
390
F
  0
LAYER
  5
201
100
AcDbSymbolTableRecord
100
AcDbLayerTableRecord
  2
CONT_MOBILE
 70
0
 62
7
  6
CONTINUOUS
370
-3
390
F
  0
LAYER
  5
202
100
AcDbSymbolTableRecord
100
AcDbLayerTableRecord
  2
COORDINATE
 70
0
 62
7
  6
CONTINUOUS
370
-3
390
F
  0
LAYER
  5
203
100
AcDbSymbolTableRecord
100
AcDbLayerTableRecord
  2
COORD_ORIGINE
 70
0
 62
7
  6
CONTINUOUS
370
-3
390
F
  0
LAYER
  5
204
100
AcDbSymbolTableRecord
100
AcDbLayerTableRecord
  2
COPERCHIO
 70
0
 62
7
  6
CONTINUOUS
370
-3
390
F
  0
LAYER
  5
205
100
AcDbSymbolTableRecord
100
AcDbLayerTableRecord
  2
COPY_PUBLISH
 70
0
 62
7
  6
CONTINUOUS
370
-3
390
F
  0
LAYER
  5
206
100
AcDbSymbolTableRecord
100
AcDbLayerTableRecord
  2
CORPO
 70
0
 62
7
  6
CONTINUOUS
370
-3
390
F
  0
LAYER
  5
207
100
AcDbSymbolTableRecord
100
AcDbLayerTableRecord
  2
COSMETICHE
 70
0
 62
7
  6
CONTINUOUS
370
-3
390
F
  0
LAYER
  5
208
100
AcDbSymbolTableRecord
100
AcDbLayerTableRecord
  2
COSMETICI
 70
0
 62
7
  6
CONTINUOUS
370
-3
390
F
  0
LAYER
  5
209
100
AcDbSymbolTableRecord
100
AcDbLayerTableRecord
  2
CURVE
 70
0
 62
7
  6
CONTINUOUS
370
-3
390
F
  0
LAYER
  5
20A
100
AcDbSymbolTableRecord
100
AcDbLayerTableRecord
  2
DRAFT
 70
0
 62
7
  6
CONTINUOUS
370
-3
390
F
  0
LAYER
  5
20B
100
AcDbSymbolTableRecord
100
AcDbLayerTableRecord
  2
IMPORTED
 70
0
 62
7
  6
CONTINUOUS
370
-3
390
F
  0
LAYER
  5
20C
100
AcDbSymbolTableRecord
100
AcDbLayerTableRecord
  2
IMPORT_IGES
 70
0
 62
7
  6
CONTINUOUS
370
-3
390
F
  0
LAYER
  5
20D
100
AcDbSymbolTableRecord
100
AcDbLayerTableRecord
  2
INCISIONI_LASER
 70
0
 62
7
  6
CONTINUOUS
370
-3
390
F
  0
LAYER
  5
20E
100
AcDbSymbolTableRecord
100
AcDbLayerTableRecord
  2
INTF_1
 70
0
 62
7
  6
CONTINUOUS
370
-3
390
F
  0
LAYER
  5
20F
100
AcDbSymbolTableRecord
100
AcDbLayerTableRecord
  2
INTF_11
 70
0
 62
7
  6
CONTINUOUS
370
-3
390
F
  0
LAYER
  5
210
100
AcDbSymbolTableRecord
100
AcDbLayerTableRecord
  2
INTF_12
 70
0
 62
7
  6
CONTINUOUS
370
-3
390
F
  0
LAYER
  5
211
100
AcDbSymbolTableRecord
100
AcDbLayerTableRecord
  2
INTF_16
 70
0
 62
7
  6
CONTINUOUS
370
-3
390
F
  0
LAYER
  5
212
100
AcDbSymbolTableRecord
100
AcDbLayerTableRecord
  2
INTF_2
 70
0
 62
7
  6
CONTINUOUS
370
-3
390
F
  0
LAYER
  5
213
100
AcDbSymbolTableRecord
100
AcDbLayerTableRecord
  2
MOLLA
 70
0
 62
7
  6
CONTINUOUS
370
-3
390
F
  0
LAYER
  5
214
100
AcDbSymbolTableRecord
100
AcDbLayerTableRecord
  2
NOTE
 70
0
 62
7
  6
CONTINUOUS
370
-3
390
F
  0
LAYER
  5
215
100
AcDbSymbolTableRecord
100
AcDbLayerTableRecord
  2
PERNO
 70
0
 62
7
  6
CONTINUOUS
370
-3
390
F
  0
LAYER
  5
216
100
AcDbSymbolTableRecord
100
AcDbLayerTableRecord
  2
PIANI
 70
0
 62
7
  6
CONTINUOUS
370
-3
390
F
  0
LAYER
  5
217
100
AcDbSymbolTableRecord
100
AcDbLayerTableRecord
  2
PIANI_ORIGINE
 70
0
 62
7
  6
CONTINUOUS
370
-3
390
F
  0
LAYER
  5
218
100
AcDbSymbolTableRecord
100
AcDbLayerTableRecord
  2
PIANI_RIFERIMENTO
 70
0
 62
7
  6
CONTINUOUS
370
-3
390
F
  0
LAYER
  5
219
100
AcDbSymbolTableRecord
100
AcDbLayerTableRecord
  2
PIANI_SFORMO
 70
0
 62
7
  6
CONTINUOUS
370
-3
390
F
  0
LAYER
  5
21A
100
AcDbSymbolTableRecord
100
AcDbLayerTableRecord
  2
POMELLO
 70
0
 62
7
  6
CONTINUOUS
370
-3
390
F
  0
LAYER
  5
21B
100
AcDbSymbolTableRecord
100
AcDbLayerTableRecord
  2
PUNTI
 70
0
 62
7
  6
CONTINUOUS
370
-3
390
F
  0
LAYER
  5
21C
100
AcDbSymbolTableRecord
100
AcDbLayerTableRecord
  2
RACCORDO
 70
0
 62
7
  6
CONTINUOUS
370
-3
390
F
  0
LAYER
  5
21D
100
AcDbSymbolTableRecord
100
AcDbLayerTableRecord
  2
RGB__255__255__255__
 70
0
 62
7
  6
CONTINUOUS
370
-3
390
F
  0
LAYER
  5
21E
100
AcDbSymbolTableRecord
100
AcDbLayerTableRecord
  2
SIMBOLI
 70
0
 62
7
  6
CONTINUOUS
370
-3
390
F
  0
LAYER
  5
21F
100
AcDbSymbolTableRecord
100
AcDbLayerTableRecord
  2
SMUSSO
 70
0
 62
7
  6
CONTINUOUS
370
-3
390
F
  0
LAYER
  5
220
100
AcDbSymbolTableRecord
100
AcDbLayerTableRecord
  2
SNAPLINE
 70
0
 62
7
  6
CONTINUOUS
370
-3
390
F
  0
LAYER
  5
221
100
AcDbSymbolTableRecord
100
AcDbLayerTableRecord
  2
SUPERFICI
 70
0
 62
7
  6
CONTINUOUS
370
-3
390
F
  0
LAYER
  5
222
100
AcDbSymbolTableRecord
100
AcDbLayerTableRecord
  2
SUPPORTO
 70
0
 62
7
  6
CONTINUOUS
370
-3
390
F
  0
LAYER
  5
223
100
AcDbSymbolTableRecord
100
AcDbLayerTableRecord
  2
TASTO
 70
0
 62
7
  6
CONTINUOUS
370
-3
390
F
  0
LAYER
  5
224
100
AcDbSymbolTableRecord
100
AcDbLayerTableRecord
  2
TRACCIABILITA
 70
0
 62
7
  6
CONTINUOUS
370
-3
390
F
  0
LAYER
  5
225
100
AcDbSymbolTableRecord
100
AcDbLayerTableRecord
  2
TRASH
 70
0
 62
7
  6
CONTINUOUS
370
-3
390
F
  0
LAYER
  5
226
100
AcDbSymbolTableRecord
100
AcDbLayerTableRecord
  2
TRECCIA
 70
0
 62
7
  6
CONTINUOUS
370
-3
390
F
  0
LAYER
  5
227
100
AcDbSymbolTableRecord
100
AcDbLayerTableRecord
  2
XSEC_DATUMS
 70
0
 62
7
  6
CONTINUOUS
370
-3
390
F
  0
ENDTAB
  0
TABLE
  2
STYLE
  5
3
100
AcDbSymbolTable
 70
1
  0
STYLE
  5
11
100
AcDbSymbolTableRecord
100
AcDbTextStyleTableRecord
  2
STANDARD
 70
0
 40
0.0
 41
0.8
 50
0.0
 71
0
 42
0.2
  3
txt
  4

  0
STYLE
  5
228
100
AcDbSymbolTableRecord
100
AcDbTextStyleTableRecord
  2
TEXTSTYLE_1
 70
0
 40
0.0
 41
0.8
 50
0.0
 71
0
 42
0.2
  3
gdt
  4

  0
ENDTAB
  0
TABLE
  2
VIEW
  5
6
100
AcDbSymbolTable
 70
0
  0
ENDTAB
  0
TABLE
  2
UCS
  5
7
100
AcDbSymbolTable
 70
0
  0
ENDTAB
  0
TABLE
  2
APPID
  5
9
100
AcDbSymbolTable
 70
1
  0
APPID
  5
229
100
AcDbSymbolTableRecord
100
AcDbRegAppTableRecord
  2
ACAD
 70
0
  0
ENDTAB
  0
TABLE
  2
BLOCK_RECORD
  5
1
100
AcDbSymbolTable
 70
0
  0
BLOCK_RECORD
  5
22A
100
AcDbSymbolTableRecord
100
AcDbBlockTableRecord
  2
*Model_Space
  0
BLOCK_RECORD
  5
22B
100
AcDbSymbolTableRecord
100
AcDbBlockTableRecord
  2
*Paper_Space
  0
BLOCK_RECORD
  5
22C
100
AcDbSymbolTableRecord
100
AcDbBlockTableRecord
  2
_FILLED
  0
ENDTAB
  0
TABLE
  2
DIMSTYLE
  5
A
100
AcDbSymbolTable
 70
1
100
AcDbDimStyleTable
 71
0
  0
DIMSTYLE
105
22D
100
AcDbSymbolTableRecord
100
AcDbDimStyleTableRecord
  2
STANDARD
 70
0
  3

  4

 40
1.0
 41
3.0
 42
0.5
 43
0.38
 44
1.5
 45
0.0
 46
0.0
 47
0.01
 48
0.01
140
3.0
141
0.09
142
0.0
143
25.4
144
1.0
145
0.0
146
1.0
147
0.625
 71
1
 72
0
 73
0
 74
0
 75
0
 76
0
 77
1
 78
8
 79
2
170
0
171
1
172
0
173
0
174
0
175
0
176
0
177
0
178
0
270
2
179
2
271
2
272
2
273
2
274
2
275
0
280
0
281
0
282
0
283
1
284
8
285
0
286
0
287
3
288
0
340
11
278
44
341
22C
342
22C
343
22C
344
22C
  0
ENDTAB
  0
ENDSEC
  0
SECTION
  2
BLOCKS
  0
BLOCK
  5
20
100
AcDbEntity
  8
0
100
AcDbBlockBegin
  2
*Model_Space
 70
0
 10
0.0
 20
0.0
 30
0.0
  3
*Model_Space
  1

  0
ENDBLK
  5
21
100
AcDbEntity
  8
0
100
AcDbBlockEnd
  0
BLOCK
  5
1C
100
AcDbEntity
  8
0
100
AcDbBlockBegin
  2
*Paper_Space
 70
0
 10
0.0
 20
0.0
 30
0.0
  3
*Paper_Space
  1

  0
ENDBLK
  5
1D
100
AcDbEntity
  8
0
100
AcDbBlockEnd
  0
BLOCK
  5
22E
100
AcDbEntity
  8
0
100
AcDbBlockBegin
  2
_FILLED
 70
64
 10
0.0
 20
0.0
  3
_FILLED
  1

  0
SOLID
  5
22F
100
AcDbEntity
  8
0
  6
BYBLOCK
 62
0
100
AcDbTrace
 10
0.0
 20
0.0
 11
-1.0
 21
0.3166666667
 12
-1.0
 22
-0.3166666667
 13
-1.0
 23
-0.3166666667
  0
ENDBLK
  5
230
100
AcDbEntity
  8
0
  6
BYBLOCK
 62
0
100
AcDbBlockEnd
  0
ENDSEC
  0
SECTION
  2
ENTITIES
  0
LWPOLYLINE
  5
231
100
AcDbEntity
  8
POMELLO
100
AcDbPolyline
 62
7
  6
CONTINUOUS
 90
49
 70
0
 10
-16.5914361935
 20
-38.1582173498
 10
-16.2342684246
 20
-38.3161207188
 10
-15.8642371371
 20
-38.4485707298
 10
-15.482121711
 20
-38.5550248084
 10
-15.0886399443
 20
-38.6350236023
 10
-14.6847168122
 20
-38.6881330448
 10
-14.2714740994
 20
-38.7140081731
 10
-13.8498213707
 20
-38.7124331448
 10
-13.4205754035
 20
-38.6832546312
 10
-12.9847123369
 20
-38.6263886472
 10
-12.542878779
 20
-38.5417572245
 10
-12.0961632646
 20
-38.4294023817
 10
-11.6462214273
 20
-38.2896566981
 10
-11.1940557771
 20
-38.1228175399
 10
-10.7404633344
 20
-37.9291564112
 10
-10.2868271189
 20
-37.7092644337
 10
-9.8340425131
 20
-37.4636069816
 10
-9.3830388475
 20
-37.1927105193
 10
-8.9352698419
 20
-36.8975103406
 10
-8.491787082
 20
-36.5788142426
 10
-8.053336127
 20
-36.237264685
 10
-7.6209142629
 20
-35.8737344281
 10
-7.1954547827
 20
-35.4891127179
 10
-6.7777621977
 20
-35.0842252101
 10
-6.3686406499
 20
-34.6599334915
 10
-5.968888932
 20
-34.2171333596
 10
-5.5793699573
 20
-33.7568424718
 10
-5.2009675339
 20
-33.2801756607
 10
-4.8345111486
 20
-32.7882601383
 10
-4.4806936602
 20
-32.2821040408
 10
-4.1401680937
 20
-31.7626975534
 10
-3.813623156
 20
-31.2311282556
 10
-3.5017628619
 20
-30.6885738816
 10
-3.205235147
 20
-30.1361901548
 10
-2.9246763845
 20
-29.5751865874
 10
-2.6606655187
 20
-29.0067384424
 10
-2.4137264001
 20
-28.4319713034
 10
-2.1843821826
 20
-27.8520772993
 10
-1.973146853
 20
-27.2683188107
 10
-1.7804855013
 20
-26.6819340322
 10
-1.6068279006
 20
-26.0941671793
 10
-1.4525669517
 20
-25.5062634561
 10
-1.3180559918
 20
-24.9194558177
 10
-1.2036211546
 20
-24.3350231221
 10
-1.109534711
 20
-23.7541632258
 10
-1.0360250713
 20
-23.1779663884
 10
-0.9833088492
 20
-22.6076028209
 10
-0.951576206
 20
-22.044331516
 10
-0.9409727181
 20
-21.4893571747
  0
LINE
  5
232
100
AcDbEntity
  8
POMELLO
100
AcDbLine
 62
7
  6
CONTINUOUS
 10
-18.4405168914
 20
-37.2590518634
 11
-16.5914361849
 21
-38.1582173539
  0
LINE
  5
233
100
AcDbEntity
  8
POMELLO
100
AcDbLine
 62
7
  6
CONTINUOUS
 10
-18.5404842952
 20
-37.2090681615
 11
-20.369265111
 21
-36.2693028909
  0
LWPOLYLINE
  5
234
100
AcDbEntity
  8
POMELLO
100
AcDbPolyline
 62
7
  6
CONTINUOUS
 90
21
 70
0
 10
-18.4403652828
 20
-37.2590106271
 10
-18.6445751074
 20
-37.1539512526
 10
-18.9686921895
 20
-36.9619417201
 10
-19.2793399154
 20
-36.7452516691
 10
-19.5765536508
 20
-36.5040884144
 10
-19.8583629635
 20
-36.2400672254
 10
-20.1245903034
 20
-35.9531261606
 10
-20.3754132206
 20
-35.6433271614
 10
-20.6093939325
 20
-35.3124713217
 10
-20.8264764082
 20
-34.9603897742
 10
-21.0267166787
 20
-34.5872513861
 10
-21.2088450536
 20
-34.1953638527
 10
-21.3727522092
 20
-33.7845548188
 10
-21.5185474693
 20
-33.3549966395
 10
-21.6452891149
 20
-32.9095140756
 10
-21.7528311328
 20
-32.4481345122
 10
-21.8413195363
 20
-31.9708305642
 10
-21.9102506466
 20
-31.4803448372
 10
-21.959456571
 20
-30.9775915331
 10
-21.9891052023
 20
-30.46165645
 10
-21.9991965405
 20
-29.9325395879
  0
LWPOLYLINE
  5
235
100
AcDbEntity
  8
POMELLO
100
AcDbPolyline
 62
250
  6
CONTINUOUS
 90
21
 70
0
 10
-16.5916826479
 20
-38.1580974963
 10
-16.8053022302
 20
-38.0478484005
 10
-17.1283596161
 20
-37.8553879332
 10
-17.4378090669
 20
-37.6386606178
 10
-17.7330361274
 20
-37.3981390736
 10
-18.013594751
 20
-37.1342011865
 10
-18.2789585664
 20
-36.8473146507
 10
-18.528506552
 20
-36.5381217723
 10
-18.7616816618
 20
-36.2073059174
 10
-18.9780056134
 20
-35.8555477924
 10
-19.1770289523
 20
-35.4835805533
 10
-19.3583078021
 20
-35.0922526744
 10
-19.5214618871
 20
-34.6824322494
 10
-19.6661873187
 20
-34.2549350205
 10
-19.7922137855
 20
-33.8105912104
 10
-19.8992878161
 20
-33.3503104596
 10
-19.9871894357
 20
-32.8750571033
 10
-20.0557455974
 20
-32.3857818631
 10
-20.1048162085
 20
-31.8834834584
 10
-20.1342987538
 20
-31.3692097887
 10
-20.1441329076
 20
-30.8440225654
  0
LWPOLYLINE
  5
236
100
AcDbEntity
  8
POMELLO
100
AcDbPolyline
 62
7
  6
CONTINUOUS
 90
22
 70
0
 10
-20.3692651042
 20
-36.2693028944
 10
-20.6783718425
 20
-36.0973699336
 10
-20.9770167469
 20
-35.9045434073
 10
-21.264544209
 20
-35.691070186
 10
-21.5402527121
 20
-35.4573051125
 10
-21.8036174093
 20
-35.2035261247
 10
-22.0542683704
 20
-34.9298679363
 10
-22.2917559385
 20
-34.6365235257
 10
-22.515410234
 20
-34.3240054751
 10
-22.7245884203
 20
-33.9929435139
 10
-22.9188932399
 20
-33.64369878
 10
-23.0978397614
 20
-33.2768476298
 10
-23.2608005165
 20
-32.8934755765
 10
-23.4074610316
 20
-32.4942161539
 10
-23.5375553103
 20
-32.0796604475
 10
-23.6506966688
 20
-31.6509904913
 10
-23.7467050839
 20
-31.2089652778
 10
-23.8254436286
 20
-30.7542793838
 10
-23.8867350421
 20
-30.2881510846
 10
-23.9305164674
 20
-29.8115516018
 10
-23.956784636
 20
-29.3251507707
 10
-23.965537271
 20
-28.8297804556
  0
LINE
  5
237
100
AcDbEntity
  8
CASTELLO
100
AcDbLine
 62
7
  6
CONTINUOUS
 10
-8.6061305858
 20
38.0548264621
 11
-10.1893022808
 21
37.2426294148
  0
LINE
  5
238
100
AcDbEntity
  8
CASTELLO
100
AcDbLine
 62
250
  6
CONTINUOUS
 10
-8.4934600115
 20
38.048165537
 11
-10.0762166146
 21
37.2361814397
  0
LINE
  5
239
100
AcDbEntity
  8
CASTELLO
100
AcDbLine
 62
250
  6
CONTINUOUS
 10
-7.149951144
 20
37.3764111033
 11
-8.7512319348
 21
36.5736890998
  0
LINE
  5
23A
100
AcDbEntity
  8
CASTELLO
100
AcDbLine
 62
250
  6
CONTINUOUS
 10
-6.9731774403
 20
37.0715215644
 11
-8.5744582312
 21
36.2687995609
  0
LINE
  5
23B
100
AcDbEntity
  8
CASTELLO
100
AcDbLine
 62
7
  6
CONTINUOUS
 10
-8.6043922003
 20
38.0556956949
 11
-8.6061286121
 21
38.0548274746
  0
LINE
  5
23C
100
AcDbEntity
  8
CASTELLO
100
AcDbLine
 62
250
  6
CONTINUOUS
 10
-6.6216839723
 20
37.6398499233
 11
-7.149951144
 21
37.3764111033
  0
LINE
  5
23D
100
AcDbEntity
  8
CASTELLO
100
AcDbLine
 62
250
  6
CONTINUOUS
 10
-6.4449102686
 20
37.3349603845
 11
-6.9731774403
 21
37.0715215644
  0
LINE
  5
23E
100
AcDbEntity
  8
CASTELLO
100
AcDbLine
 62
7
  6
CONTINUOUS
 10
-8.0695222439
 20
38.3162477946
 11
-8.6043894347
 21
38.0556970421
  0
LINE
  5
23F
100
AcDbEntity
  8
CASTELLO
100
AcDbLine
 62
250
  6
CONTINUOUS
 10
-7.9590101328
 20
38.3085130036
 11
-8.4934600115
 21
38.048165537
  0
LWPOLYLINE
  5
240
100
AcDbEntity
  8
CASTELLO
100
AcDbPolyline
 62
7
  6
CONTINUOUS
 90
37
 70
0
 10
-14.2111603316
 20
33.2187885883
 10
-14.2428416095
 20
33.1997393256
 10
-14.2857339937
 20
33.1720827637
 10
-14.3278085472
 20
33.1428039959
 10
-14.3690485852
 20
33.1119632721
 10
-14.4094452921
 20
33.0796141284
 10
-14.4489847654
 20
33.0458087973
 10
-14.487652697
 20
33.0105989109
 10
-14.5254339271
 20
32.9740329281
 10
-14.5623033498
 20
32.9361659102
 10
-14.5982440856
 20
32.8970457131
 10
-14.6332370713
 20
32.8567176562
 10
-14.6672488715
 20
32.8152441021
 10
-14.7002586586
 20
32.7726724493
 10
-14.7322445057
 20
32.7290474079
 10
-14.7631688932
 20
32.6844377067
 10
-14.7930082135
 20
32.6388908008
 10
-14.8217390106
 20
32.5924529191
 10
-14.8493223562
 20
32.545196809
 10
-14.8757334444
 20
32.4971699939
 10
-14.9009479038
 20
32.4484209602
 10
-14.9249261766
 20
32.3990259664
 10
-14.9476435586
 20
32.3490334693
 10
-14.9690753011
 20
32.2984924357
 10
-14.9891833417
 20
32.247480063
 10
-15.0079439288
 20
32.1960446966
 10
-15.0253313495
 20
32.1442350084
 10
-15.0413107575
 20
32.0921265447
 10
-15.0558582743
 20
32.0397663719
 10
-15.0689471145
 20
31.9872015224
 10
-15.0805461799
 20
31.9345020417
 10
-15.090629504
 20
31.8817142217
 10
-15.0991689297
 20
31.8288832
 10
-15.1061347102
 20
31.7760664354
 10
-15.1114966271
 20
31.7233081328
 10
-15.1152242739
 20
31.6706534148
 10
-15.1168646187
 20
31.63324612
  0
LINE
  5
241
100
AcDbEntity
  8
CASTELLO
100
AcDbLine
 62
7
  6
CONTINUOUS
 10
-14.2111700479
 20
33.2187831505
 11
-9.6221952211
 21
35.8945757924
  0
LINE
  5
242
100
AcDbEntity
  8
CASTELLO
100
AcDbLine
 62
250
  6
CONTINUOUS
 10
-9.6221952211
 20
35.749741616
 11
-13.9778160003
 21
33.2100157574
  0
LWPOLYLINE
  5
243
100
AcDbEntity
  8
CASTELLO
100
AcDbPolyline
 62
250
  6
CONTINUOUS
 90
17
 70
0
 10
-14.2111604305
 20
33.218788758
 10
-14.2087113856
 20
33.2201906173
 10
-14.1960749144
 20
33.2266423771
 10
-14.1829027235
 20
33.2320990199
 10
-14.1692246176
 20
33.2365481989
 10
-14.1550715457
 20
33.2399798471
 10
-14.1404755321
 20
33.2423861997
 10
-14.1254696028
 20
33.2437618118
 10
-14.1100877116
 20
33.244103571
 10
-14.094364663
 20
33.2434107039
 10
-14.0783360333
 20
33.2416847783
 10
-14.0620380903
 20
33.2389296993
 10
-14.0455077112
 20
33.2351517009
 10
-14.028782299
 20
33.2303593315
 10
-14.0118996983
 20
33.2245634348
 10
-13.9948981089
 20
33.217777125
 10
-13.9778160003
 20
33.2100157574
  0
LINE
  5
244
100
AcDbEntity
  8
CASTELLO
100
AcDbLine
 62
7
  6
CONTINUOUS
 10
-6.9731774403
 20
35.4693709035
 11
-7.8632376231
 21
34.9726899822
  0
LINE
  5
245
100
AcDbEntity
  8
CASTELLO
100
AcDbLine
 62
7
  6
CONTINUOUS
 10
-4.604357722
 20
35.1392524902
 11
-4.2508163328
 21
35.320625915
  0
LINE
  5
246
100
AcDbEntity
  8
CASTELLO
100
AcDbLine
 62
7
  6
CONTINUOUS
 10
0.7494056213
 20
38.6096749325
 11
-5.5651347053
 21
35.464898628
  0
LINE
  5
247
100
AcDbEntity
  8
CASTELLO
100
AcDbLine
 62
7
  6
CONTINUOUS
 10
1.6909375079
 20
37.6173041631
 11
-2.9073134485
 21
35.3509428656
  0
LINE
  5
248
100
AcDbEntity
  8
CASTELLO
100
AcDbLine
 62
7
  6
CONTINUOUS
 10
-4.2508163328
 20
35.320625915
 11
1.0854070732
 21
37.9200693805
  0
LWPOLYLINE
  5
249
100
AcDbEntity
  8
CASTELLO
100
AcDbPolyline
 62
7
  6
CONTINUOUS
 90
7
 70
0
 10
1.7398135394
 20
37.6372327302
 10
1.7317307882
 20
37.6345173596
 10
1.7236227355
 20
37.6315595661
 10
1.715489381
 20
37.6283593497
 10
1.707330725
 20
37.6249167104
 10
1.6991467672
 20
37.6212316482
 10
1.6909375079
 20
37.6173041631
  0
LINE
  5
24A
100
AcDbEntity
  8
CORPO
100
AcDbLine
 62
7
  6
CONTINUOUS
 10
0.9705253526
 20
34.9406007198
 11
0.8954862425
 21
34.9176731547
  0
LWPOLYLINE
  5
24B
100
AcDbEntity
  8
CORPO
100
AcDbPolyline
 62
7
  6
CONTINUOUS
 90
6
 70
0
 10
0.8256456527
 20
34.8915720175
 10
0.8388739272
 20
34.8955140425
 10
0.8546575474
 20
34.8968526779
 10
0.8712948799
 20
34.8949588527
 10
0.888483481
 20
34.8898576439
 10
0.9059181035
 20
34.8816320237
  0
LINE
  5
24C
100
AcDbEntity
  8
CASTELLO
100
AcDbLine
 62
7
  6
CONTINUOUS
 10
0.6989311356
 20
35.3404501981
 11
1.4060379167
 21
35.6940035887
  0
LINE
  5
24D
100
AcDbEntity
  8
CASTELLO
100
AcDbLine
 62
7
  6
CONTINUOUS
 10
3.1573758138
 20
36.2161191467
 11
1.7595913073
 21
35.5172268934
  0
LINE
  5
24E
100
AcDbEntity
  8
CASTELLO
100
AcDbLine
 62
7
  6
CONTINUOUS
 10
1.4060379167
 20
36.246561778
 11
1.7398135394
 21
36.4098821332
  0
LINE
  5
24F
100
AcDbEntity
  8
CASTELLO
100
AcDbLine
 62
7
  6
CONTINUOUS
 10
3.8163715652
 20
37.0761919605
 11
1.7595913073
 21
36.0697850827
  0
LINE
  5
250
100
AcDbEntity
  8
CORPO
100
AcDbLine
 62
7
  6
CONTINUOUS
 10
0.8223840971
 20
34.8901311104
 11
0.6842692949
 21
34.8248940251
  0
LINE
  5
251
100
AcDbEntity
  8
CORPO
100
AcDbLine
 62
250
  6
CONTINUOUS
 10
0.9059181035
 20
34.8816320237
 11
0.7696418145
 21
34.8172633409
  0
LWPOLYLINE
  5
252
100
AcDbEntity
  8
CORPO
100
AcDbPolyline
 62
250
  6
CONTINUOUS
 90
11
 70
0
 10
1.7393842265
 20
34.9354519969
 10
1.748476687
 20
34.939542448
 10
1.7575353613
 20
34.9428992332
 10
1.7665224829
 20
34.9455062053
 10
1.7754036705
 20
34.9473508095
 10
1.7841381349
 20
34.9484219551
 10
1.7926794833
 20
34.9487129692
 10
1.8009963087
 20
34.9482224751
 10
1.8090495327
 20
34.9469524627
 10
1.816785513
 20
34.9449149465
 10
1.8241591557
 20
34.9421315776
  0
LINE
  5
253
100
AcDbEntity
  8
CORPO
100
AcDbLine
 62
7
  6
CONTINUOUS
 10
0.8224376125
 20
34.8901563879
 11
0.8256456527
 21
34.8915720175
  0
LWPOLYLINE
  5
254
100
AcDbEntity
  8
CORPO
100
AcDbPolyline
 62
7
  6
CONTINUOUS
 90
5
 70
0
 10
0.6841508262
 20
34.8248371228
 10
0.688993991
 20
34.8268947471
 10
0.6964203508
 20
34.8292126096
 10
0.704566769
 20
34.8307449742
 10
0.713485104
 20
34.8313958879
  0
LINE
  5
255
100
AcDbEntity
  8
CORPO
100
AcDbLine
 62
7
  6
CONTINUOUS
 10
0.8954862425
 20
34.9176731547
 11
0.8256452913
 21
34.8915718473
  0
LWPOLYLINE
  5
256
100
AcDbEntity
  8
CASTELLO
100
AcDbPolyline
 62
7
  6
CONTINUOUS
 90
7
 70
0
 10
6.6895610077
 20
35.1623589961
 10
6.6814782566
 20
35.1596436255
 10
6.6733702038
 20
35.156685832
 10
6.6652368493
 20
35.1534856156
 10
6.6570781933
 20
35.1500429763
 10
6.6488942355
 20
35.1463579141
 10
6.6406849762
 20
35.142430429
  0
LINE
  5
257
100
AcDbEntity
  8
CASTELLO
100
AcDbLine
 62
7
  6
CONTINUOUS
 10
1.0503768897
 20
31.8977738687
 11
0.9627933088
 21
31.8717986632
  0
LWPOLYLINE
  5
258
100
AcDbEntity
  8
CASTELLO
100
AcDbPolyline
 62
7
  6
CONTINUOUS
 90
5
 70
0
 10
0.9627933088
 20
31.8717986632
 10
0.9403519239
 20
31.8652382033
 10
0.9295989694
 20
31.8621348594
 10
0.919149537
 20
31.8591747241
 10
0.9090002731
 20
31.8563721082
  0
LWPOLYLINE
  5
259
100
AcDbEntity
  8
CASTELLO
100
AcDbPolyline
 62
7
  6
CONTINUOUS
 90
16
 70
0
 10
6.6895610077
 20
35.1623589961
 10
6.7017188456
 20
35.1658487652
 10
6.7144488247
 20
35.1685715911
 10
6.7277434054
 20
35.1705114315
 10
6.7415991187
 20
35.1716652518
 10
6.7559993698
 20
35.1720033628
 10
6.7709127116
 20
35.171470674
 10
6.7863191908
 20
35.1700464277
 10
6.8022042838
 20
35.1677212357
 10
6.818539986
 20
35.1644588203
 10
6.8352674111
 20
35.1602555872
 10
6.8523982372
 20
35.1550886431
 10
6.8700120038
 20
35.1488871134
 10
6.8880993309
 20
35.1416303793
 10
6.9066200207
 20
35.1332985969
 10
6.9161296555
 20
35.1286669252
  0
LWPOLYLINE
  5
25A
100
AcDbEntity
  8
CASTELLO
100
AcDbPolyline
 62
7
  6
CONTINUOUS
 90
14
 70
0
 10
-6.4295496962
 20
36.9165937012
 10
-6.4210643285
 20
36.9275244715
 10
-6.4131810099
 20
36.9389321799
 10
-6.4059288686
 20
36.9507828448
 10
-6.3993316929
 20
36.9630470813
 10
-6.3934182432
 20
36.9756812994
 10
-6.3882181328
 20
36.9886272061
 10
-6.3837491744
 20
37.0018401411
 10
-6.3800236332
 20
37.0152835288
 10
-6.3770543798
 20
37.0289104294
 10
-6.3748495076
 20
37.0426827815
 10
-6.3734160943
 20
37.0565572694
 10
-6.3727588982
 20
37.070480594
 10
-6.3727124116
 20
37.0753031567
  0
LINE
  5
25B
100
AcDbEntity
  8
CASTELLO
100
AcDbLine
 62
250
  6
CONTINUOUS
 10
-6.9731774403
 20
36.344476712
 11
-6.4449102686
 21
36.9874288677
  0
LINE
  5
25C
100
AcDbEntity
  8
CASTELLO
100
AcDbLine
 62
7
  6
CONTINUOUS
 10
-6.9731774403
 20
36.2549462456
 11
-6.4295496962
 21
36.9165937012
  0
LWPOLYLINE
  5
25D
100
AcDbEntity
  8
CASTELLO
100
AcDbPolyline
 62
7
  6
CONTINUOUS
 90
30
 70
0
 10
-7.8632376231
 20
35.780322104
 10
-7.8711167461
 20
35.7711877007
 10
-7.8793369951
 20
35.7621902597
 10
-7.8878948563
 20
35.7533512732
 10
-7.8967932869
 20
35.7446947433
 10
-7.9060197219
 20
35.7362400641
 10
-7.9155462962
 20
35.7280021713
 10
-7.9253664845
 20
35.7200034177
 10
-7.9354723827
 20
35.7122655409
 10
-7.9458331657
 20
35.7048030011
 10
-7.9564396869
 20
35.6976382233
 10
-7.9672815984
 20
35.690792918
 10
-7.9783253754
 20
35.6842809464
 10
-7.9895592239
 20
35.6781244272
 10
-8.0009701747
 20
35.6723447634
 10
-8.0125219951
 20
35.6669552399
 10
-8.024200127
 20
35.6619772822
 10
-8.0359888585
 20
35.6574315849
 10
-8.0478491725
 20
35.6533307997
 10
-8.0597636202
 20
35.6496951743
 10
-8.0717136335
 20
35.6465441892
 10
-8.0836573111
 20
35.6438896529
 10
-8.0955741607
 20
35.6417500205
 10
-8.1074427279
 20
35.6401428831
 10
-8.1192183066
 20
35.6390787223
 10
-8.130877127
 20
35.638573417
 10
-8.1423950642
 20
35.6386417831
 10
-8.1537254169
 20
35.6392921815
 10
-8.1648306793
 20
35.6405355743
 10
-8.175695031
 20
35.6423830697
  0
LWPOLYLINE
  5
25E
100
AcDbEntity
  8
CORPO
100
AcDbPolyline
 62
250
  6
CONTINUOUS
 90
16
 70
0
 10
0.7947101618
 20
34.1082553388
 10
0.8358890811
 20
34.1378014687
 10
0.8790844534
 20
34.1644116048
 10
0.9242962788
 20
34.1880857472
 10
0.9720732468
 20
34.2089807152
 10
1.0218666679
 20
34.2269396895
 10
1.0720304731
 20
34.2414922117
 10
1.1225362641
 20
34.2525107098
 10
1.1734124391
 20
34.2601227558
 10
1.2230981245
 20
34.2642406077
 10
1.2714530788
 20
34.2647788031
 10
1.3186175435
 20
34.2618228044
 10
1.3634513685
 20
34.2555412563
 10
1.4055745038
 20
34.2459903735
 10
1.4453669995
 20
34.2331139413
 10
1.4828288556
 20
34.2169119596
  0
LINE
  5
25F
100
AcDbEntity
  8
CASTELLO
100
AcDbLine
 62
7
  6
CONTINUOUS
 10
1.6140441924
 20
32.030051533
 11
1.9717233417
 21
32.2093560778
  0
LINE
  5
260
100
AcDbEntity
  8
CASTELLO
100
AcDbLine
 62
7
  6
CONTINUOUS
 10
1.9717233417
 20
32.2093560778
 11
7.2462154108
 21
34.8396652117
  0
LINE
  5
261
100
AcDbEntity
  8
CASTELLO
100
AcDbLine
 62
7
  6
CONTINUOUS
 10
6.6406849762
 20
35.142430429
 11
2.0424340198
 21
32.8760691315
  0
LINE
  5
262
100
AcDbEntity
  8
CASTELLO
100
AcDbLine
 62
7
  6
CONTINUOUS
 10
8.0590122523
 20
34.954871617
 11
7.4201514758
 21
34.6422694919
  0
LWPOLYLINE
  5
263
100
AcDbEntity
  8
CASTELLO
100
AcDbPolyline
 62
7
  6
CONTINUOUS
 90
18
 70
0
 10
8.0590122523
 20
34.954871617
 10
8.0873867731
 20
34.9680535738
 10
8.1156212251
 20
34.9797879655
 10
8.1437156083
 20
34.9900747922
 10
8.1717199214
 20
34.9989269268
 10
8.1995841656
 20
35.0063314964
 10
8.2271583453
 20
35.012249882
 10
8.2544274739
 20
35.0166733033
 10
8.2814065379
 20
35.0196105406
 10
8.3079905006
 20
35.0210493166
 10
8.3341954594
 20
35.02098218
 10
8.3600053169
 20
35.019416582
 10
8.3852667432
 20
35.0163625986
 10
8.4099564965
 20
35.0118168142
 10
8.4340978186
 20
35.0057826444
 10
8.4576071049
 20
34.9982804116
 10
8.4805028851
 20
34.9892949969
 10
8.5000649694
 20
34.9802052639
  0
LINE
  5
264
100
AcDbEntity
  8
CORPO
100
AcDbLine
 62
7
  6
CONTINUOUS
 10
14.2883507232
 20
37.5237680399
 11
8.6348808327
 21
34.9128082949
  0
LINE
  5
265
100
AcDbEntity
  8
CORPO
100
AcDbLine
 62
250
  6
CONTINUOUS
 10
14.6768082058
 20
37.4915537042
 11
8.8548949554
 21
34.8028012336
  0
LWPOLYLINE
  5
266
100
AcDbEntity
  8
CORPO
100
AcDbPolyline
 62
250
  6
CONTINUOUS
 90
9
 70
0
 10
14.6768082058
 20
37.4915537042
 10
14.7308146073
 20
37.5145852202
 10
14.7845346804
 20
37.5318268567
 10
14.8375705249
 20
37.5430916283
 10
14.8895564502
 20
37.5482355449
 10
14.9400577
 20
37.5471474059
 10
14.9885858362
 20
37.5397920107
 10
15.0347681289
 20
37.5261978612
 10
15.0681792193
 20
37.5116879899
  0
LWPOLYLINE
  5
267
100
AcDbEntity
  8
CORPO
100
AcDbPolyline
 62
7
  6
CONTINUOUS
 90
12
 70
0
 10
14.2883507232
 20
37.5237680399
 10
14.3539781993
 20
37.5509876894
 10
14.4226770299
 20
37.5732634588
 10
14.4939845124
 20
37.5901628411
 10
14.5675411619
 20
37.6013271656
 10
14.6425691442
 20
37.6063988884
 10
14.7179551017
 20
37.6051780416
 10
14.7931406104
 20
37.5976279066
 10
14.8674980419
 20
37.5837812751
 10
14.9400194133
 20
37.5638716583
 10
15.0103714449
 20
37.5380822075
 10
15.0682115739
 20
37.5116718124
  0
LWPOLYLINE
  5
268
100
AcDbEntity
  8
CORPO
100
AcDbPolyline
 62
250
  6
CONTINUOUS
 90
9
 70
0
 10
14.2883507232
 20
37.5237680399
 10
14.3162633487
 20
37.5351670194
 10
14.3627777617
 20
37.5481460724
 10
14.4115967144
 20
37.5547236657
 10
14.4623488089
 20
37.5548497593
 10
14.5146479409
 20
37.5485233938
 10
14.5680962367
 20
37.5357926981
 10
14.62228708
 20
37.516754523
 10
14.6768082058
 20
37.4915537042
  0
LWPOLYLINE
  5
269
100
AcDbEntity
  8
POMELLO
100
AcDbPolyline
 62
250
  6
CONTINUOUS
 90
21
 70
0
 10
-23.8221624955
 20
-29.0050077715
 10
-23.8123285487
 20
-29.5301889043
 10
-23.7828462584
 20
-30.0444622332
 10
-23.7337753148
 20
-30.546765679
 10
-23.6652377185
 20
-31.0359269393
 10
-23.5773627257
 20
-31.5110782246
 10
-23.4702327409
 20
-31.9716177684
 10
-23.3439599752
 20
-32.4167474916
 10
-23.1988008312
 20
-32.8452951175
 10
-23.0350937318
 20
-33.2561291069
 10
-22.8531363684
 20
-33.6484209547
 10
-22.653305483
 20
-34.0212850863
 10
-22.4361876969
 20
-34.3736360141
 10
-22.2024130037
 20
-34.7045672566
 10
-21.9523575494
 20
-35.0136537981
 10
-21.6862705512
 20
-35.300580768
 10
-21.4044527252
 20
-35.5649084706
 10
-21.1076636571
 20
-35.8058152372
 10
-20.7968945216
 20
-36.0225008724
 10
-20.4731132661
 20
-36.2144036522
 10
-20.3692651048
 20
-36.269302894
  0
LWPOLYLINE
  5
26A
100
AcDbEntity
  8
CORPO
100
AcDbPolyline
 62
250
  6
CONTINUOUS
 90
16
 70
0
 10
0.9675172917
 20
33.8869359509
 10
0.9917466272
 20
33.9097989534
 10
1.0177879553
 20
33.9308182652
 10
1.0453431928
 20
33.9499172178
 10
1.0741121201
 20
33.9671480018
 10
1.1037698024
 20
33.9823540725
 10
1.1339676391
 20
33.9951748416
 10
1.1643823722
 20
34.0055688513
 10
1.1946991474
 20
34.0135832619
 10
1.2245870496
 20
34.0190224784
 10
1.2536987935
 20
34.0218993713
 10
1.281808951
 20
34.0223102356
 10
1.3087784205
 20
34.0201892953
 10
1.3343827936
 20
34.0155541076
 10
1.3583301332
 20
34.0085264922
 10
1.380388508
 20
33.9991963762
  0
LINE
  5
26B
100
AcDbEntity
  8
CORPO
100
AcDbLine
 62
7
  6
CONTINUOUS
 10
0.6695380964
 20
34.8152175939
 11
-0.2413882621
 21
34.0179802724
  0
LINE
  5
26C
100
AcDbEntity
  8
CORPO
100
AcDbLine
 62
250
  6
CONTINUOUS
 10
0.7689829401
 20
34.8175927781
 11
-0.1798272402
 21
33.9871997615
  0
LWPOLYLINE
  5
26D
100
AcDbEntity
  8
CORPO
100
AcDbPolyline
 62
7
  6
CONTINUOUS
 90
5
 70
0
 10
0.6694408575
 20
34.8151319955
 10
0.6705216608
 20
34.816063516
 10
0.6760700255
 20
34.8202462523
 10
0.6822244855
 20
34.823883901
 10
0.6841508262
 20
34.8248371228
  0
LINE
  5
26E
100
AcDbEntity
  8
CORPO
100
AcDbLine
 62
250
  6
CONTINUOUS
 10
0.3209017182
 20
33.7368352823
 11
0.7947101618
 21
34.1082553388
  0
LINE
  5
26F
100
AcDbEntity
  8
CORPO
100
AcDbLine
 62
250
  6
CONTINUOUS
 10
0.5987913812
 20
33.5978904508
 11
0.9675172917
 21
33.8869359509
  0
LINE
  5
270
100
AcDbEntity
  8
CASTELLO
100
AcDbLine
 62
7
  6
CONTINUOUS
 10
1.9717233417
 20
30.9969205125
 11
1.6140441924
 21
30.7973245606
  0
LWPOLYLINE
  5
271
100
AcDbEntity
  8
CORPO
100
AcDbPolyline
 62
7
  6
CONTINUOUS
 90
13
 70
0
 10
12.6321406507
 20
34.2930589342
 10
12.5031558326
 20
34.2227052158
 10
12.3842425483
 20
34.1480471672
 10
12.2759737148
 20
34.0694444863
 10
12.1788709648
 20
33.9872758761
 10
12.0934021335
 20
33.9019372199
 10
12.0199790044
 20
33.8138396743
 10
11.9589553258
 20
33.7234076878
 10
11.910625106
 20
33.6310769563
 10
11.8752211971
 20
33.5372923236
 10
11.8529141731
 20
33.4425056385
 10
11.8438115077
 20
33.3471735773
 10
11.8435793859
 20
33.3293086958
  0
LWPOLYLINE
  5
272
100
AcDbEntity
  8
CASTELLO
100
AcDbPolyline
 62
7
  6
CONTINUOUS
 90
22
 70
0
 10
3.1750103358
 20
30.5604674862
 10
3.1652035613
 20
30.5551565294
 10
3.1541919411
 20
30.5484898789
 10
3.1435282804
 20
30.5412582548
 10
3.1332415852
 20
30.5334790373
 10
3.1233529016
 20
30.5251647461
 10
3.113889712
 20
30.5163337647
 10
3.1048814533
 20
30.5070086725
 10
3.0963520985
 20
30.4972089035
 10
3.088327276
 20
30.4869575968
 10
3.0808327651
 20
30.4762810111
 10
3.0738916708
 20
30.4652049023
 10
3.0675266562
 20
30.4537575387
 10
3.0617589183
 20
30.4419684665
 10
3.0566076206
 20
30.4298671529
 10
3.0520904814
 20
30.4174836969
 10
3.0482250426
 20
30.4048530996
 10
3.0450272546
 20
30.3920140255
 10
3.042509668
 20
30.3790023808
 10
3.0406827181
 20
30.3658539098
 10
3.0395551929
 20
30.3526085641
 10
3.0391299891
 20
30.338033554
  0
LINE
  5
273
100
AcDbEntity
  8
CASTELLO
100
AcDbLine
 62
7
  6
CONTINUOUS
 10
4.7581875786
 20
31.3726673799
 11
3.1750158836
 21
30.5604703326
  0
LINE
  5
274
100
AcDbEntity
  8
CASTELLO
100
AcDbLine
 62
250
  6
CONTINUOUS
 10
4.8708581529
 20
31.3660064548
 11
3.2881015498
 21
30.5540223575
  0
LINE
  5
275
100
AcDbEntity
  8
CORPO
100
AcDbLine
 62
7
  6
CONTINUOUS
 10
16.6442966291
 20
36.3344587269
 11
12.6321406507
 21
34.2930589342
  0
LINE
  5
276
100
AcDbEntity
  8
CASTELLO
100
AcDbLine
 62
250
  6
CONTINUOUS
 10
6.2143670204
 20
30.694252021
 11
4.6130862296
 21
29.8915300175
  0
LINE
  5
277
100
AcDbEntity
  8
CASTELLO
100
AcDbLine
 62
250
  6
CONTINUOUS
 10
6.3911407241
 20
30.3893624822
 11
4.7898599333
 21
29.5866404787
  0
LINE
  5
278
100
AcDbEntity
  8
CASTELLO
100
AcDbLine
 62
7
  6
CONTINUOUS
 10
4.7599259641
 20
31.3735366127
 11
4.7581895523
 21
31.3726683924
  0
LINE
  5
279
100
AcDbEntity
  8
CASTELLO
100
AcDbLine
 62
250
  6
CONTINUOUS
 10
6.7426341922
 20
30.9576908411
 11
6.2143670204
 21
30.694252021
  0
LINE
  5
27A
100
AcDbEntity
  8
CASTELLO
100
AcDbLine
 62
250
  6
CONTINUOUS
 10
6.9194078958
 20
30.6528013023
 11
6.3911407241
 21
30.3893624822
  0
LINE
  5
27B
100
AcDbEntity
  8
CASTELLO
100
AcDbLine
 62
7
  6
CONTINUOUS
 10
1.9717233417
 20
30.9969205125
 11
7.2965574119
 21
33.6332519444
  0
LINE
  5
27C
100
AcDbEntity
  8
CASTELLO
100
AcDbLine
 62
7
  6
CONTINUOUS
 10
5.2947959205
 20
31.6340887124
 11
4.7599287297
 21
31.3735379599
  0
LINE
  5
27D
100
AcDbEntity
  8
CASTELLO
100
AcDbLine
 62
250
  6
CONTINUOUS
 10
5.4053080316
 20
31.6263539214
 11
4.8708581529
 21
31.3660064548
  0
LINE
  5
27E
100
AcDbEntity
  8
CORPO
100
AcDbLine
 62
7
  6
CONTINUOUS
 10
16.6442966291
 20
35.9266074596
 11
12.6321406507
 21
33.971734652
  0
LINE
  5
27F
100
AcDbEntity
  8
CASTELLO
100
AcDbLine
 62
7
  6
CONTINUOUS
 10
11.1259781962
 20
33.421388645
 11
6.4424413167
 21
31.1697646497
  0
LINE
  5
280
100
AcDbEntity
  8
CORPO
100
AcDbLine
 62
7
  6
CONTINUOUS
 10
15.6479670395
 20
37.0059742874
 11
12.217563139
 21
35.3686374744
  0
LWPOLYLINE
  5
281
100
AcDbEntity
  8
CASTELLO
100
AcDbPolyline
 62
7
  6
CONTINUOUS
 90
18
 70
0
 10
5.2947959205
 20
31.6340887124
 10
5.3070168803
 20
31.6396410786
 10
5.3196460039
 20
31.6445755187
 10
5.3326448031
 20
31.6488541477
 10
5.3459900536
 20
31.6524467215
 10
5.3596157829
 20
31.6553149487
 10
5.3734147417
 20
31.6574244207
 10
5.3873137238
 20
31.6587606688
 10
5.4012831451
 20
31.6593190564
 10
5.4152839967
 20
31.6590947035
 10
5.4292574609
 20
31.6580860971
 10
5.4431632162
 20
31.6562946297
 10
5.4569966561
 20
31.6537156373
 10
5.4707647175
 20
31.6503343752
 10
5.4843657665
 20
31.6461622767
 10
5.497651597
 20
31.6412457656
 10
5.5105857523
 20
31.6356089753
 10
5.5160889961
 20
31.6329408097
  0
LWPOLYLINE
  5
282
100
AcDbEntity
  8
POMELLO
100
AcDbPolyline
 62
7
  6
CONTINUOUS
 90
37
 70
0
 10
-23.965537271
 20
-28.8297804556
 10
-23.9548991658
 20
-28.2738930646
 10
-23.9230544624
 20
-27.7095680537
 10
-23.8701367134
 20
-27.1380117485
 10
-23.7963187409
 20
-26.5604465361
 10
-23.7018090666
 20
-25.9780866692
 10
-23.5868514666
 20
-25.3921501723
 10
-23.4517225026
 20
-24.803850822
 10
-23.2967502469
 20
-24.2144704589
 10
-23.1223234104
 20
-23.6253535719
 10
-22.9288596176
 20
-23.0377857189
 10
-22.7167931135
 20
-22.4529856942
 10
-22.4866046588
 20
-21.8722028441
 10
-22.2388259649
 20
-21.2967126021
 10
-21.9739896381
 20
-20.7276996867
 10
-21.6926208649
 20
-20.1662687187
 10
-21.3953033499
 20
-19.613585308
 10
-21.0826882639
 20
-19.0708681814
 10
-20.755438032
 20
-18.5392790042
 10
-20.4142664791
 20
-18.0199920907
 10
-20.0598706883
 20
-17.5140893017
 10
-19.6929162251
 20
-17.0225605334
 10
-19.3141051029
 20
-16.5464077441
 10
-18.9242722213
 20
-16.0867467297
 10
-18.5243075474
 20
-15.6446819334
 10
-18.1150755571
 20
-15.2212159607
 10
-17.6973822076
 20
-14.8172357974
 10
-17.2720454436
 20
-14.4335990779
 10
-16.8398784575
 20
-14.0711206511
 10
-16.4018096861
 20
-13.7306670778
 10
-15.9588286737
 20
-13.4130879135
 10
-15.5116794846
 20
-13.1190086753
 10
-15.0614114866
 20
-12.8492194501
 10
-14.6094677973
 20
-12.6046331597
 10
-14.1567887103
 20
-12.3857663862
 10
-13.7042485176
 20
-12.1930585627
 10
-13.6568083851
 20
-12.175600939
  0
LWPOLYLINE
  5
283
100
AcDbEntity
  8
CASTELLO
100
AcDbPolyline
 62
250
  6
CONTINUOUS
 90
27
 70
0
 10
-8.5744582312
 20
35.9288256268
 10
-8.579336731
 20
35.9168697252
 10
-8.5846823725
 20
35.9051854511
 10
-8.5904809627
 20
35.8938049026
 10
-8.5967176478
 20
35.8827583892
 10
-8.603375242
 20
35.8720774274
 10
-8.6104338911
 20
35.8617943021
 10
-8.6178735469
 20
35.851938071
 10
-8.625674583
 20
35.8425345948
 10
-8.6338159023
 20
35.8336093372
 10
-8.6422754377
 20
35.8251865745
 10
-8.6510299746
 20
35.8172895019
 10
-8.6600553948
 20
35.8099399046
 10
-8.6693269612
 20
35.8031579163
 10
-8.6788194304
 20
35.7969619919
 10
-8.6885068987
 20
35.791369042
 10
-8.6983629233
 20
35.78639434
 10
-8.7083605692
 20
35.7820514877
 10
-8.7184725051
 20
35.7783523601
 10
-8.7286711031
 20
35.775307063
 10
-8.7389285149
 20
35.7729239112
 10
-8.7492167229
 20
35.7712094142
 10
-8.7595076415
 20
35.7701682538
 10
-8.7697731464
 20
35.7698032769
 10
-8.7799851523
 20
35.7701154774
 10
-8.7901157375
 20
35.7711039894
 10
-8.8001372632
 20
35.7727661036
  0
LWPOLYLINE
  5
284
100
AcDbEntity
  8
CORPO
100
AcDbPolyline
 62
250
  6
CONTINUOUS
 90
10
 70
0
 10
1.7393842265
 20
34.9354519969
 10
1.744641354
 20
34.9409795024
 10
1.749875822
 20
34.94574246
 10
1.7550650284
 20
34.9497180885
 10
1.7601884664
 20
34.9528879895
 10
1.765221703
 20
34.9552343177
 10
1.7701368981
 20
34.9567431689
 10
1.7749150196
 20
34.957408631
 10
1.7795332232
 20
34.9572274513
 10
1.7815725381
 20
34.9568657843
  0
LINE
  5
285
100
AcDbEntity
  8
CORPO
100
AcDbLine
 62
250
  6
CONTINUOUS
 10
2.2923534012
 20
33.4097100631
 11
2.2592534764
 21
33.3759836815
  0
LWPOLYLINE
  5
286
100
AcDbEntity
  8
CORPO
100
AcDbPolyline
 62
250
  6
CONTINUOUS
 90
10
 70
0
 10
1.4828288556
 20
34.2169119596
 10
1.463787967
 20
34.1988523945
 10
1.4459399115
 20
34.1781419292
 10
1.4296516151
 20
34.1552063362
 10
1.4152579379
 20
34.1305171329
 10
1.4030547898
 20
34.1045818879
 10
1.3932930471
 20
34.0779337864
 10
1.3861733948
 20
34.0511206688
 10
1.3818422011
 20
34.0246937678
 10
1.380388508
 20
33.9991963762
  0
LWPOLYLINE
  5
287
100
AcDbEntity
  8
CORPO
100
AcDbPolyline
 62
250
  6
CONTINUOUS
 90
10
 70
0
 10
2.2412344542
 20
33.8377091603
 10
2.2221930017
 20
33.819648966
 10
2.2043446099
 20
33.7989379056
 10
2.1880561941
 20
33.7760018456
 10
2.1736625933
 20
33.751312397
 10
2.1614596538
 20
33.7253771602
 10
2.1516981677
 20
33.6987292791
 10
2.1445787595
 20
33.671916567
 10
2.1402477459
 20
33.6454902505
 10
2.1387941088
 20
33.6199935758
  0
LINE
  5
288
100
AcDbEntity
  8
CORPO
100
AcDbLine
 62
250
  6
CONTINUOUS
 10
2.2592534764
 20
33.3759836815
 11
1.8326344375
 21
32.9809689226
  0
LINE
  5
289
100
AcDbEntity
  8
CORPO
100
AcDbLine
 62
7
  6
CONTINUOUS
 10
2.1624531053
 20
33.3758234416
 11
1.7698894003
 21
33.0123414412
  0
LWPOLYLINE
  5
28A
100
AcDbEntity
  8
CASTELLO
100
AcDbPolyline
 62
250
  6
CONTINUOUS
 90
43
 70
0
 10
0.8704024605
 20
25.785906527
 10
0.8327506145
 20
25.7643209583
 10
0.7952168164
 20
25.7411909845
 10
0.7578469606
 20
25.7165456019
 10
0.7206867113
 20
25.6904162981
 10
0.6837815132
 20
25.6628351871
 10
0.6471765723
 20
25.6338347762
 10
0.6109158889
 20
25.6034504515
 10
0.575044617
 20
25.571720619
 10
0.5396090682
 20
25.5386848081
 10
0.5046529782
 20
25.5043845569
 10
0.4702186584
 20
25.4688622316
 10
0.436349386
 20
25.4321610101
 10
0.4030865422
 20
25.3943264578
 10
0.3704708395
 20
25.3554056975
 10
0.3385434594
 20
25.3154462988
 10
0.3073433759
 20
25.2744977595
 10
0.2769088268
 20
25.2326111046
 10
0.2472785462
 20
25.1898380323
 10
0.2184888842
 20
25.1462318077
 10
0.1905748994
 20
25.1018464731
 10
0.1635718373
 20
25.0567364414
 10
0.1375127505
 20
25.0109576944
 10
0.1124294571
 20
24.9645670746
 10
0.0883536333
 20
24.9176215045
 10
0.0653146929
 20
24.8701790597
 10
0.0433408396
 20
24.8222987617
 10
0.022460019
 20
24.7740398648
 10
0.0026978579
 20
24.7254623766
 10
-0.0159216284
 20
24.6766263844
 10
-0.0333749714
 20
24.6275918439
 10
-0.0496407662
 20
24.5784195882
 10
-0.0646992144
 20
24.5291705074
 10
-0.0785313894
 20
24.4799048806
 10
-0.091120438
 20
24.4306831767
 10
-0.1024508395
 20
24.3815669469
 10
-0.1125080047
 20
24.3326179879
 10
-0.121279471
 20
24.283897973
 10
-0.128754882
 20
24.235466136
 10
-0.1349250917
 20
24.1873802018
 10
-0.1397824185
 20
24.139698988
 10
-0.1433208387
 20
24.0924822848
 10
-0.1455359327
 20
24.0457885627
  0
LWPOLYLINE
  5
28B
100
AcDbEntity
  8
CASTELLO
100
AcDbPolyline
 62
250
  6
CONTINUOUS
 90
43
 70
0
 10
1.2362352005
 20
25.1829040813
 10
1.2109567568
 20
25.1685635663
 10
1.18581373
 20
25.1532308558
 10
1.1608061199
 20
25.1369059498
 10
1.1359020216
 20
25.119565527
 10
1.1111333401
 20
25.1012329086
 10
1.086595791
 20
25.0819780581
 10
1.062291349
 20
25.0617980863
 10
1.0382180395
 20
25.0406958824
 10
1.0144656543
 20
25.0187500771
 10
0.9910356596
 20
24.9959577485
 10
0.9679265893
 20
24.9723218185
 10
0.9452238357
 20
24.9479296843
 10
0.9229288552
 20
24.9227785185
 10
0.9010401916
 20
24.8968711486
 10
0.8796388686
 20
24.8703034531
 10
0.8587266266
 20
24.8430728849
 10
0.8383017252
 20
24.8151819911
 10
0.8184399678
 20
24.7867342929
 10
0.799143512
 20
24.7577278138
 10
0.7804102001
 20
24.7281645302
 10
0.7623093619
 20
24.698153892
 10
0.7448433345
 20
24.6676942382
 10
0.7280097808
 20
24.6367872298
 10
0.7118710195
 20
24.6055472993
 10
0.6964295841
 20
24.5739731043
 10
0.681682941
 20
24.5420659874
 10
0.6676858079
 20
24.5099444084
 10
0.6544410279
 20
24.477607704
 10
0.641945758
 20
24.4450565376
 10
0.6302461861
 20
24.4124113597
 10
0.6193452593
 20
24.3796718773
 10
0.6092400306
 20
24.3468383835
 10
0.5999678476
 20
24.3140322082
 10
0.591531737
 20
24.2812530972
 10
0.5839286721
 20
24.2485013047
 10
0.5771869194
 20
24.2158989222
 10
0.5713097142
 20
24.1834456573
 10
0.5662938212
 20
24.1511418023
 10
0.5621578014
 20
24.119110326
 10
0.5589078415
 20
24.0873922177
 10
0.5565377548
 20
24.0559464881
 10
0.5550475412
 20
24.024773137
  0
LWPOLYLINE
  5
28C
100
AcDbEntity
  8
CASTELLO
100
AcDbPolyline
 62
7
  6
CONTINUOUS
 90
3
 70
0
 10
5.5010805414
 20
28.2896621978
 10
6.2920952413
 20
28.7316382825
 10
6.3911407241
 20
28.7869590086
  0
LINE
  5
28D
100
AcDbEntity
  8
CASTELLO
100
AcDbLine
 62
250
  6
CONTINUOUS
 10
0.8704024605
 20
25.785906527
 11
5.3894335989
 21
28.2529784553
  0
LINE
  5
28E
100
AcDbEntity
  8
CASTELLO
100
AcDbLine
 62
250
  6
CONTINUOUS
 10
6.733924473
 20
28.1842542511
 11
1.2362352005
 21
25.1829040813
  0
LINE
  5
28F
100
AcDbEntity
  8
CASTELLO
100
AcDbLine
 62
7
  6
CONTINUOUS
 10
12.0075136548
 20
32.6875304537
 11
6.5159703266
 21
29.7247168428
  0
LWPOLYLINE
  5
290
100
AcDbEntity
  8
CASTELLO
100
AcDbPolyline
 62
7
  6
CONTINUOUS
 90
13
 70
0
 10
5.5010805414
 20
28.2896621978
 10
5.4932102498
 20
28.2854548896
 10
5.4850233807
 20
28.2814444803
 10
5.4765351918
 20
28.2776377177
 10
5.4677609686
 20
28.2740447931
 10
5.4587176117
 20
28.2706680196
 10
5.4494237661
 20
28.2675016996
 10
5.4398968613
 20
28.2645540806
 10
5.4301549287
 20
28.2618269834
 10
5.420218442
 20
28.2593042508
 10
5.4101069439
 20
28.2569829035
 10
5.3998388647
 20
28.2548732822
 10
5.3894335989
 20
28.2529784553
  0
LINE
  5
291
100
AcDbEntity
  8
CASTELLO
100
AcDbLine
 62
7
  6
CONTINUOUS
 10
12.0075136548
 20
32.1902004967
 11
6.6493623177
 21
29.3576501164
  0
LINE
  5
292
100
AcDbEntity
  8
CONTATTO
100
AcDbLine
 62
7
  6
CONTINUOUS
 10
12.3013097906
 20
33.0211568539
 11
12.9520834454
 21
33.36432267
  0
LINE
  5
293
100
AcDbEntity
  8
CONTATTO
100
AcDbLine
 62
250
  6
CONTINUOUS
 10
12.9519556633
 20
33.3642552831
 11
12.9520834454
 21
33.36432267
  0
LINE
  5
294
100
AcDbEntity
  8
CONTATTO
100
AcDbLine
 62
7
  6
CONTINUOUS
 10
13.0803708741
 20
33.1412309386
 11
13.575345621
 21
33.388718312
  0
LINE
  5
295
100
AcDbEntity
  8
TRECCIA
100
AcDbLine
 62
7
  6
CONTINUOUS
 10
-11.7727263789
 20
19.7858479631
 11
-7.9637104182
 21
21.6903559435
  0
LINE
  5
296
100
AcDbEntity
  8
CONTATTO
100
AcDbLine
 62
7
  6
CONTINUOUS
 10
16.0435235335
 20
33.5692181643
 11
14.7320592224
 21
32.9134860088
  0
LINE
  5
297
100
AcDbEntity
  8
CONTATTO
100
AcDbLine
 62
7
  6
CONTINUOUS
 10
16.8920542412
 20
33.1449553808
 11
16.01316159
 21
32.7055090552
  0
LINE
  5
298
100
AcDbEntity
  8
TRECCIA
100
AcDbLine
 62
7
  6
CONTINUOUS
 10
-11.0124632666
 20
18.2653217384
 11
-7.0785731289
 21
20.2322668073
  0
LINE
  5
299
100
AcDbEntity
  8
CORPO
100
AcDbLine
 62
7
  6
CONTINUOUS
 10
12.8100430704
 20
31.8624305688
 11
7.1408398372
 21
29.1086202713
  0
LINE
  5
29A
100
AcDbEntity
  8
CORPO
100
AcDbLine
 62
7
  6
CONTINUOUS
 10
21.1553020546
 20
34.2523067798
 11
13.5627371544
 21
30.5642253077
  0
LINE
  5
29B
100
AcDbEntity
  8
CORPO
100
AcDbLine
 62
7
  6
CONTINUOUS
 10
20.3496301186
 20
34.6551427478
 11
16.9284840488
 21
33.0131770195
  0
LINE
  5
29C
100
AcDbEntity
  8
CASTELLO
100
AcDbLine
 62
250
  6
CONTINUOUS
 10
7.0981397951
 20
29.1332613777
 11
6.3911407241
 21
28.7993177453
  0
LINE
  5
29D
100
AcDbEntity
  8
CASTELLO
100
AcDbLine
 62
250
  6
CONTINUOUS
 10
7.4518008959
 20
28.5233356871
 11
6.733924473
 21
28.1842542511
  0
LWPOLYLINE
  5
29E
100
AcDbEntity
  8
CONTATTO
100
AcDbPolyline
 62
7
  6
CONTINUOUS
 90
10
 70
0
 10
16.8920253453
 20
33.1449409328
 10
16.9034218096
 20
33.1501095881
 10
16.9146422121
 20
33.1541614845
 10
16.9256865528
 20
33.157096622
 10
16.9366498117
 20
33.1589151533
 10
16.9474370089
 20
33.1596169258
 10
16.9577632043
 20
33.1592014814
 10
16.967533418
 20
33.1576686675
 10
16.9768426301
 20
33.1550186368
 10
16.9856908404
 20
33.1512513892
  0
LWPOLYLINE
  5
29F
100
AcDbEntity
  8
CORPO
100
AcDbPolyline
 62
7
  6
CONTINUOUS
 90
9
 70
0
 10
21.1553020546
 20
34.2523067798
 10
21.2114479323
 20
34.2775698181
 10
21.2646806432
 20
34.2970223106
 10
21.3145511037
 20
34.3106519216
 10
21.3605218734
 20
34.318559609
 10
21.402313835
 20
34.3207925869
 10
21.4399067451
 20
34.3173355726
 10
21.4729410336
 20
34.3083989685
 10
21.4875029841
 20
34.3020259106
  0
LWPOLYLINE
  5
2A0
100
AcDbEntity
  8
TRECCIA
100
AcDbPolyline
 62
250
  6
CONTINUOUS
 90
8
 70
0
 10
-11.7727263789
 20
19.7858479631
 10
-11.7458777199
 20
19.7977611782
 10
-11.6931152047
 20
19.8133450418
 10
-11.6370601254
 20
19.8202980399
 10
-11.5783266331
 20
19.818543994
 10
-11.5175582242
 20
19.8081021218
 10
-11.4554206902
 20
19.7890868266
 10
-11.3925948227
 20
19.761706444
  0
LWPOLYLINE
  5
2A1
100
AcDbEntity
  8
CASTELLO
100
AcDbPolyline
 62
250
  6
CONTINUOUS
 90
34
 70
0
 10
0.5550475412
 20
24.024773137
 10
0.5377532099
 20
24.0176456704
 10
0.5197277484
 20
24.0109323839
 10
0.5010110887
 20
24.0046481495
 10
0.481644694
 20
23.9988068889
 10
0.461671467
 20
23.9934215421
 10
0.4411356545
 20
23.9885040395
 10
0.4200827499
 20
23.9840652747
 10
0.3985593918
 20
23.9801150812
 10
0.3766132613
 20
23.9766622097
 10
0.3542929759
 20
23.9737143096
 10
0.3316479819
 20
23.9712779112
 10
0.308728445
 20
23.969358412
 10
0.2855851393
 20
23.9679600643
 10
0.2622693344
 20
23.9670859658
 10
0.238832682
 20
23.966738053
 10
0.2153271017
 20
23.9669170965
 10
0.1918046657
 20
23.9676226998
 10
0.1683174834
 20
23.9688532997
 10
0.1449175863
 20
23.9706061701
 10
0.1216568126
 20
23.9728774277
 10
0.0985866921
 20
23.9756620411
 10
0.0757583322
 20
23.9789538415
 10
0.053222305
 20
23.9827455365
 10
0.0310285348
 20
23.9870287263
 10
0.0092261877
 20
23.9917939223
 10
-0.0121364373
 20
23.9970305681
 10
-0.0330120152
 20
24.0027270629
 10
-0.0533543003
 20
24.0088707872
 10
-0.0731182279
 20
24.0154481307
 10
-0.0922600148
 20
24.0224445226
 10
-0.110737256
 20
24.0298444636
 10
-0.1285090186
 20
24.0376315606
 10
-0.1455359326
 20
24.0457885628
  0
LWPOLYLINE
  5
2A2
100
AcDbEntity
  8
POMELLO
100
AcDbPolyline
 62
250
  6
CONTINUOUS
 90
51
 70
0
 10
-20.1441329076
 20
-30.8440225654
 10
-20.1342989837
 20
-30.3090074972
 10
-20.1048167055
 20
-29.7652518841
 10
-20.0557457632
 20
-29.2138774954
 10
-19.9872081505
 20
-28.6561786305
 10
-19.8993331302
 20
-28.0931523387
 10
-19.792203128
 20
-27.5254828014
 10
-19.6659303663
 20
-26.9540803144
 10
-19.5207712362
 20
-26.3803735516
 10
-19.3570641467
 20
-25.8058324677
 10
-19.1751067831
 20
-25.2315832564
 10
-18.9752758936
 20
-24.6588882374
 10
-18.7581581044
 20
-24.0894195219
 10
-18.5243834113
 20
-23.5247135862
 10
-18.2743279582
 20
-22.965571591
 10
-18.008240961
 20
-22.4125576235
 10
-17.7264231355
 20
-21.866412095
 10
-17.4296340679
 20
-21.3287162606
 10
-17.1188649326
 20
-20.8012614901
 10
-16.795083677
 20
-20.2855774547
 10
-16.4587180462
 20
-19.7822370597
 10
-16.1099886976
 20
-19.2915739513
 10
-15.7492326673
 20
-18.8141739057
 10
-15.3775133395
 20
-18.3515522817
 10
-14.9961760101
 20
-17.9053810564
 10
-14.6064548555
 20
-17.4769942727
 10
-14.2087795585
 20
-17.0667569667
 10
-13.8033200307
 20
-16.6748463204
 10
-13.3904339644
 20
-16.3017172239
 10
-12.9714150144
 20
-15.9486462939
 10
-12.5478527978
 20
-15.6169719764
 10
-12.1211378177
 20
-15.3076748318
 10
-11.691675628
 20
-15.0209416862
 10
-11.2595973123
 20
-14.7568608735
 10
-10.8252800256
 20
-14.5157711708
 10
-10.3901357027
 20
-14.298564413
 10
-9.9558447098
 20
-14.1060794484
 10
-9.5238208455
 20
-13.9388347985
 10
-9.0944390313
 20
-13.7968673029
 10
-8.6678242509
 20
-13.6802181488
 10
-8.2443762619
 20
-13.5891055484
 10
-7.825491752
 20
-13.5239401121
 10
-7.412771914
 20
-13.4849720794
 10
-7.0075191782
 20
-13.4722149854
 10
-6.6100808094
 20
-13.4855686681
 10
-6.2206098535
 20
-13.5250267999
 10
-5.8395127506
 20
-13.5906606023
 10
-5.4680491647
 20
-13.6823683624
 10
-5.107617181
 20
-13.7998034966
 10
-4.7591831856
 20
-13.9425443089
 10
-4.5372448837
 20
-14.0498347361
  0
LWPOLYLINE
  5
2A3
100
AcDbEntity
  8
POMELLO
100
AcDbPolyline
 62
250
  6
CONTINUOUS
 90
70
 70
0
 10
-19.5451818324
 20
-30.8826486068
 10
-19.5356176434
 20
-30.3622779628
 10
-19.5069426452
 20
-29.8334059107
 10
-19.4592148948
 20
-29.2971235502
 10
-19.3925528879
 20
-28.7546897709
 10
-19.3070825192
 20
-28.2070744032
 10
-19.202884444
 20
-27.6549429506
 10
-19.0800680671
 20
-27.0991807534
 10
-18.9388824906
 20
-26.5411773278
 10
-18.7796565558
 20
-25.9823623985
 10
-18.602679672
 20
-25.4238313698
 10
-18.4083184136
 20
-24.8668120116
 10
-18.1971434516
 20
-24.3129306501
 10
-17.9697675759
 20
-23.7636816876
 10
-17.7265565924
 20
-23.2198443623
 10
-17.4677528722
 20
-22.6819673289
 10
-17.1936488934
 20
-22.1507707367
 10
-16.9049834583
 20
-21.6277925562
 10
-16.6027206109
 20
-21.1147751255
 10
-16.2878018023
 20
-20.6132062481
 10
-15.9606430719
 20
-20.1236431471
 10
-15.6214590431
 20
-19.6464103311
 10
-15.2705775297
 20
-19.1820775384
 10
-14.9090328051
 20
-18.7321186527
 10
-14.5381333368
 20
-18.2981598925
 10
-14.1590795176
 20
-17.8814987903
 10
-13.7722892724
 20
-17.4824903872
 10
-13.3779278658
 20
-17.1013070099
 10
-12.9763432006
 20
-16.7383910934
 10
-12.56879352
 20
-16.3949843143
 10
-12.1568249289
 20
-16.0723884872
 10
-11.7417898692
 20
-15.771557335
 10
-11.3240827952
 20
-15.4926725682
 10
-10.9038312031
 20
-15.2358201014
 10
-10.4814019245
 20
-15.001329439
 10
-10.0581682472
 20
-14.7900680047
 10
-9.6357645431
 20
-14.6028516845
 10
-9.2155659129
 20
-14.4401848047
 10
-8.7979370151
 20
-14.3021031986
 10
-8.3829994124
 20
-14.1886469313
 10
-7.9711419206
 20
-14.1000282466
 10
-7.5637229982
 20
-14.0366465116
 10
-7.1623000104
 20
-13.9987451078
 10
-6.768139737
 20
-13.9863371936
 10
-6.3815799371
 20
-13.999325355
 10
-6.0027694687
 20
-14.0377034476
 10
-5.6321036486
 20
-14.1015407497
 10
-5.2708076614
 20
-14.1907383262
 10
-4.9202413225
 20
-14.3049590708
 10
-4.5813445651
 20
-14.4437928265
 10
-4.2545365829
 20
-14.6069606716
 10
-3.9403218327
 20
-14.7941531657
 10
-3.6393425438
 20
-15.0049482787
 10
-3.3521963537
 20
-15.238886331
 10
-3.0793171035
 20
-15.4955997909
 10
-2.8212167645
 20
-15.7746337826
 10
-2.5784993544
 20
-16.0753635619
 10
-2.3517066539
 20
-16.3971244267
 10
-2.141303826
 20
-16.739254252
 10
-1.9477280456
 20
-17.1010400095
 10
-1.771411102
 20
-17.4816565653
 10
-1.6127229476
 20
-17.8802597115
 10
-1.4719590796
 20
-18.2960558783
 10
-1.3493822267
 20
-18.7282372872
 10
-1.2452387541
 20
-19.1759190089
 10
-1.1597427651
 20
-19.6381633722
 10
-1.0930628653
 20
-20.1140460592
 10
-1.0453354201
 20
-20.6025957617
 10
-1.0166600436
 20
-21.1027931034
 10
-1.0070954108
 20
-21.613605396
  0
LINE
  5
2A4
100
AcDbEntity
  8
CORPO
100
AcDbLine
 62
250
  6
CONTINUOUS
 10
21.9138087495
 20
32.3569742719
 11
7.4518008959
 21
24.8690505066
  0
LINE
  5
2A5
100
AcDbEntity
  8
CORPO
100
AcDbLine
 62
250
  6
CONTINUOUS
 10
21.5748452656
 20
33.5287017783
 11
7.4518008959
 21
26.50684558
  0
LWPOLYLINE
  5
2A6
100
AcDbEntity
  8
CORPO
100
AcDbPolyline
 62
250
  6
CONTINUOUS
 90
32
 70
0
 10
22.0214680396
 20
26.81067715
 10
22.0415591446
 20
26.8166238354
 10
22.0608789443
 20
26.8204749416
 10
22.0794045635
 20
26.8222574817
 10
22.0970995634
 20
26.8218735782
 10
22.1139382958
 20
26.8194907258
 10
22.129915488
 20
26.8155313402
 10
22.1449552323
 20
26.8100701462
 10
22.1590688753
 20
26.8031027195
 10
22.1723914055
 20
26.794923016
 10
22.184906523
 20
26.7856281265
 10
22.1965623012
 20
26.7751987756
 10
22.2074424465
 20
26.7637540207
 10
22.2175461055
 20
26.7513699388
 10
22.2267948918
 20
26.7380670303
 10
22.2351531263
 20
26.7238868148
 10
22.2426016444
 20
26.7089067869
 10
22.2490697741
 20
26.6931669683
 10
22.2544399375
 20
26.67666047
 10
22.2586874496
 20
26.6595042538
 10
22.2617371911
 20
26.6417224938
 10
22.2633834851
 20
26.6231873869
 10
22.2636169361
 20
26.6040599752
 10
22.2623226875
 20
26.5843681929
 10
22.2591064566
 20
26.5638281759
 10
22.2539649283
 20
26.5426353029
 10
22.2467275721
 20
26.5208766926
 10
22.2367027945
 20
26.4981752235
 10
22.2238960506
 20
26.4748083109
 10
22.2080687422
 20
26.4509093618
 10
22.1881074184
 20
26.42597278
 10
22.1664029292
 20
26.4029330493
  0
LWPOLYLINE
  5
2A7
100
AcDbEntity
  8
CASTELLO
100
AcDbPolyline
 62
250
  6
CONTINUOUS
 90
17
 70
0
 10
-15.1166565165
 20
-3.9833293571
 10
-15.1153344969
 20
-3.9956425383
 10
-15.1129087938
 20
-4.0078825057
 10
-15.1093847809
 20
-4.0200221437
 10
-15.1047702649
 20
-4.0320345594
 10
-15.0990754685
 20
-4.0438931415
 10
-15.0923130073
 20
-4.0555716195
 10
-15.0844978624
 20
-4.0670441219
 10
-15.0756473467
 20
-4.0782852336
 10
-15.0657810669
 20
-4.089270052
 10
-15.0549208799
 20
-4.0999742423
 10
-15.0430908444
 20
-4.1103740913
 10
-15.0303171676
 20
-4.1204465603
 10
-15.0166281471
 20
-4.1301693354
 10
-15.0020541085
 20
-4.1395208777
 10
-14.9866273379
 20
-4.1484804707
 10
-14.9703820102
 20
-4.157028266
  0
LWPOLYLINE
  5
2A8
100
AcDbEntity
  8
CASTELLO
100
AcDbPolyline
 62
7
  6
CONTINUOUS
 90
27
 70
0
 10
-15.1168456447
 20
-3.979380801
 10
-15.1150822912
 20
-4.0175006281
 10
-15.1111720302
 20
-4.0685684716
 10
-15.1055334673
 20
-4.1187195791
 10
-15.0981776391
 20
-4.1679478386
 10
-15.0891226191
 20
-4.2161981483
 10
-15.0784013643
 20
-4.2633608155
 10
-15.0660355602
 20
-4.3094127987
 10
-15.0520489089
 20
-4.3543209019
 10
-15.0364979429
 20
-4.3979625389
 10
-15.0194181197
 20
-4.4403107
 10
-15.0008458473
 20
-4.4813380862
 10
-14.9808658606
 20
-4.5209257
 10
-14.9595475739
 20
-4.5590205771
 10
-14.9369308569
 20
-4.595630384
 10
-14.9130757043
 20
-4.6307261657
 10
-14.8880651155
 20
-4.664256592
 10
-14.8619438839
 20
-4.6962314035
 10
-14.8347146138
 20
-4.7266996028
 10
-14.8064409211
 20
-4.7556311498
 10
-14.7771847304
 20
-4.7830055842
 10
-14.7469360853
 20
-4.8088653149
 10
-14.7157585815
 20
-4.8331796153
 10
-14.6837144075
 20
-4.8559242236
 10
-14.6507821699
 20
-4.8771322816
 10
-14.6169940434
 20
-4.8967905558
 10
-14.5858434528
 20
-4.9131627818
  0
LWPOLYLINE
  5
2A9
100
AcDbEntity
  8
CASTELLO
100
AcDbPolyline
 62
250
  6
CONTINUOUS
 90
22
 70
0
 10
-14.9703820103
 20
-4.1570282661
 10
-15.0236885508
 20
-2.4894881213
 10
-15.0716667902
 20
-0.8189419551
 10
-15.1143159792
 20
0.8545845847
 10
-15.1516354432
 20
2.5310657975
 10
-15.1836246081
 20
4.2104759539
 10
-15.2102830007
 20
5.8927892969
 10
-15.2316102091
 20
7.5779800053
 10
-15.2476058959
 20
9.2660222061
 10
-15.2582698244
 20
10.9568899992
 10
-15.2636018324
 20
12.6505574291
 10
-15.2636018324
 20
14.3469985002
 10
-15.2582698244
 20
16.0461871883
 10
-15.2476058959
 20
17.748097419
 10
-15.2316102091
 20
19.4527030659
 10
-15.2102830007
 20
21.159977966
 10
-15.1836246081
 20
22.8698959176
 10
-15.1516354432
 20
24.582430679
 10
-15.1143159792
 20
26.2975559676
 10
-15.0716667902
 20
28.0152454628
 10
-15.0236885508
 20
29.7354728064
 10
-14.9703820103
 20
31.4582116015
  0
LWPOLYLINE
  5
2AA
100
AcDbEntity
  8
POMELLO
100
AcDbPolyline
 62
250
  6
CONTINUOUS
 90
26
 70
0
 10
-15.5856067212
 20
-29.6217766385
 10
-15.5834694152
 20
-29.4241170226
 10
-15.5767220057
 20
-29.2166287627
 10
-15.5648501286
 20
-28.9992370302
 10
-15.5473839788
 20
-28.7725613262
 10
-15.5237559471
 20
-28.5359390484
 10
-15.4931435726
 20
-28.2873752006
 10
-15.4547930036
 20
-28.0266269034
 10
-15.4080085922
 20
-27.754052627
 10
-15.3517963654
 20
-27.4685778001
 10
-15.2853557072
 20
-27.1705957004
 10
-15.2078053074
 20
-26.8602330069
 10
-15.1177788102
 20
-26.5361193397
 10
-15.0141486783
 20
-26.1983649031
 10
-14.8960357144
 20
-25.8480371419
 10
-14.7622656992
 20
-25.4854045116
 10
-14.6101991627
 20
-25.1075040803
 10
-14.440309794
 20
-24.7195431309
 10
-14.2571828663
 20
-24.3339643935
 10
-14.0625258548
 20
-23.9545778774
 10
-13.855325939
 20
-23.5796119624
 10
-13.637451936
 20
-23.2126545303
 10
-13.410125219
 20
-22.8555827389
 10
-13.173359987
 20
-22.5082474437
 10
-12.9274415422
 20
-22.1710476683
 10
-12.6727845511
 20
-21.8446038484
  0
LWPOLYLINE
  5
2AB
100
AcDbEntity
  8
POMELLO
100
AcDbPolyline
 62
250
  6
CONTINUOUS
 90
26
 70
0
 10
-15.5479463951
 20
-29.6045086957
 10
-15.5458218718
 20
-29.408032679
 10
-15.5391148599
 20
-29.2017868671
 10
-15.5273140752
 20
-28.9856968797
 10
-15.5099525321
 20
-28.7603785048
 10
-15.4864660142
 20
-28.5251731114
 10
-15.4560369665
 20
-28.2780976596
 10
-15.4179160412
 20
-28.0189107298
 10
-15.3714117663
 20
-27.7479686399
 10
-15.3155361331
 20
-27.4642032467
 10
-15.2494933235
 20
-27.1680054709
 10
-15.1724073009
 20
-26.8595012349
 10
-15.0829198929
 20
-26.5373283638
 10
-14.9799103216
 20
-26.2015963981
 10
-14.8625046468
 20
-25.8533663949
 10
-14.7295356597
 20
-25.4929052126
 10
-14.5783796797
 20
-25.1172676694
 10
-14.409507575
 20
-24.7316298587
 10
-14.2274771885
 20
-24.3483599898
 10
-14.0339857838
 20
-23.9712452513
 10
-13.8280265925
 20
-23.598524638
 10
-13.6114572291
 20
-23.2337645535
 10
-13.3854917485
 20
-22.8788309173
 10
-13.1501442693
 20
-22.5335754757
 10
-12.9056983867
 20
-22.1983948623
 10
-12.6525662846
 20
-21.8739057974
  0
LWPOLYLINE
  5
2AC
100
AcDbEntity
  8
CASTELLO
100
AcDbPolyline
 62
7
  6
CONTINUOUS
 90
22
 70
0
 10
-15.1168644333
 20
31.6332551506
 10
-15.1698196516
 20
29.9224113604
 10
-15.2178621805
 20
28.2010578841
 10
-15.2605684651
 20
26.4822393178
 10
-15.2979376796
 20
24.7659852727
 10
-15.329969284
 20
23.0523214688
 10
-15.3566628106
 20
21.3412720578
 10
-15.3780177993
 20
19.6328624622
 10
-15.3940339229
 20
17.9271190747
 10
-15.4047108944
 20
16.2240675112
 10
-15.4100484574
 20
14.5237335724
 10
-15.4100465194
 20
12.8261438605
 10
-15.4047050388
 20
11.1313251924
 10
-15.3940240243
 20
9.4393041166
 10
-15.3780036486
 20
7.7501062116
 10
-15.3566441154
 20
6.0637568378
 10
-15.329945668
 20
4.3802820942
 10
-15.2979086832
 20
2.6997069703
 10
-15.2605335448
 20
1.022055172
 10
-15.2178207087
 20
-0.6526481056
 10
-15.1697709167
 20
-2.3243740673
 10
-15.1168458117
 20
-3.9793813045
  0
LWPOLYLINE
  5
2AD
100
AcDbEntity
  8
CASTELLO
100
AcDbPolyline
 62
250
  6
CONTINUOUS
 90
43
 70
0
 10
-14.9703820103
 20
31.4582116015
 10
-14.9682181077
 20
31.5049309193
 10
-14.9647610572
 20
31.5521883073
 10
-14.9600152785
 20
31.5999252952
 10
-14.9539870047
 20
31.6480821974
 10
-14.946683708
 20
31.6966000914
 10
-14.9381139055
 20
31.7454209383
 10
-14.9282880685
 20
31.7944855614
 10
-14.9172185448
 20
31.8437322302
 10
-14.904918951
 20
31.8930986614
 10
-14.8914049098
 20
31.9425233551
 10
-14.8766931723
 20
31.9919457912
 10
-14.8608013855
 20
32.0413050509
 10
-14.8437494495
 20
32.090540295
 10
-14.8255586675
 20
32.1395906393
 10
-14.8062509223
 20
32.1883953355
 10
-14.7858503262
 20
32.2368943446
 10
-14.764382409
 20
32.2850276107
 10
-14.7418732403
 20
32.3327349414
 10
-14.7183511111
 20
32.3799573587
 10
-14.6938453479
 20
32.4266367435
 10
-14.6683854894
 20
32.4727151047
 10
-14.6420034343
 20
32.51813564
 10
-14.6147321548
 20
32.5628423272
 10
-14.5866045181
 20
32.6067795645
 10
-14.5576556568
 20
32.6498933463
 10
-14.527921847
 20
32.6921303709
 10
-14.4974392233
 20
32.7334376402
 10
-14.4662460841
 20
32.7737641593
 10
-14.4343813426
 20
32.8130604003
 10
-14.4018833997
 20
32.851277403
 10
-14.3687930153
 20
32.8883680684
 10
-14.3351515229
 20
32.9242868074
 10
-14.3009992754
 20
32.9589889799
 10
-14.2663786404
 20
32.9924322477
 10
-14.2313332975
 20
33.0245750447
 10
-14.195906466
 20
33.0553762953
 10
-14.160143302
 20
33.0847975948
 10
-14.1240878039
 20
33.1128035557
 10
-14.087782079
 20
33.1393601217
 10
-14.0512705392
 20
33.1644346623
 10
-14.0145998814
 20
33.1879962062
 10
-13.9778160003
 20
33.2100157574
  0
LWPOLYLINE
  5
2AE
100
AcDbEntity
  8
CASTELLO
100
AcDbPolyline
 62
7
  6
CONTINUOUS
 90
5
 70
0
 10
6.9905506788
 20
30.3023311138
 10
6.9902048462
 20
30.3019453002
 10
6.9887064218
 20
30.3008019549
 10
6.9866864994
 20
30.2998763489
 10
6.9841571455
 20
30.2991411973
  0
LWPOLYLINE
  5
2AF
100
AcDbEntity
  8
TRECCIA
100
AcDbPolyline
 62
250
  6
CONTINUOUS
 90
9
 70
0
 10
-13.6568083851
 20
16.586427262
 10
-13.6556434897
 20
16.5641844806
 10
-13.6463434746
 20
16.5199426144
 10
-13.6278453375
 20
16.4764291678
 10
-13.6003517476
 20
16.4341208835
 10
-13.5641639307
 20
16.3934812996
 10
-13.5196783679
 20
16.3549556721
 10
-13.4673824524
 20
16.3189660958
 10
-13.4078491491
 20
16.28590688
  0
LWPOLYLINE
  5
2B0
100
AcDbEntity
  8
CASTELLO
100
AcDbPolyline
 62
250
  6
CONTINUOUS
 90
18
 70
0
 10
-15.1168646187
 20
31.63324612
 10
-15.1166564046
 20
31.6218533092
 10
-15.1153343816
 20
31.6106793104
 10
-15.1129086754
 20
31.599519383
 10
-15.1093846599
 20
31.5883982497
 10
-15.1047701417
 20
31.5773405471
 10
-15.0990753436
 20
31.5663707717
 10
-15.0923128811
 20
31.5555132249
 10
-15.0844977353
 20
31.5447919594
 10
-15.0756472192
 20
31.5342307263
 10
-15.0657809395
 20
31.5238529219
 10
-15.0549207529
 20
31.5136815364
 10
-15.0430907182
 20
31.5037391025
 10
-15.0303170426
 20
31.4940476458
 10
-15.0166280238
 20
31.484628636
 10
-15.0020539872
 20
31.4755029389
 10
-14.9866272189
 20
31.466690771
 10
-14.9703818939
 20
31.4582116539
  0
LINE
  5
2B1
100
AcDbEntity
  8
TRECCIA
100
AcDbLine
 62
7
  6
CONTINUOUS
 10
-13.6568083851
 20
-14.1659476013
 11
-13.6568083851
 21
16.586427262
  0
LINE
  5
2B2
100
AcDbEntity
  8
TRECCIA
100
AcDbLine
 62
7
  6
CONTINUOUS
 10
-11.9568083851
 20
-13.3366611114
 11
-11.9568083851
 21
16.586427262
  0
LWPOLYLINE
  5
2B3
100
AcDbEntity
  8
POMELLO
100
AcDbPolyline
 62
7
  6
CONTINUOUS
 90
34
 70
0
 10
-11.9860977787
 20
-13.3366611114
 10
-11.9861107975
 20
-13.3389508695
 10
-11.9876792105
 20
-13.3602322673
 10
-11.9918539802
 20
-13.3814358951
 10
-11.9986199987
 20
-13.4024930809
 10
-12.0079500046
 20
-13.4233198898
 10
-12.0196434021
 20
-13.4436187625
 10
-12.0335189726
 20
-13.4632795815
 10
-12.0494686002
 20
-13.4823059592
 10
-12.0672729057
 20
-13.5005965314
 10
-12.086667093
 20
-13.5180415623
 10
-12.1075655094
 20
-13.5347004212
 10
-12.130049377
 20
-13.5507242764
 10
-12.1540292027
 20
-13.5660937393
 10
-12.1793825172
 20
-13.5807702825
 10
-12.2062347901
 20
-13.5948481325
 10
-12.2345127713
 20
-13.6082898547
 10
-12.2641396287
 20
-13.6210592744
 10
-12.2953023713
 20
-13.6332190913
 10
-12.3279237404
 20
-13.6447093817
 10
-12.3619631236
 20
-13.6554858366
 10
-12.3977191026
 20
-13.6655877254
 10
-12.4353209153
 20
-13.6749788354
 10
-12.4745373807
 20
-13.6835222811
 10
-12.5151292618
 20
-13.69109008
 10
-12.5571194262
 20
-13.6976367034
 10
-12.6002726701
 20
-13.7030646791
 10
-12.6439124023
 20
-13.7072313816
 10
-12.6878751501
 20
-13.7101249569
 10
-12.7320212687
 20
-13.71173636
 10
-12.7756841917
 20
-13.712026619
 10
-12.818547504
 20
-13.7110341862
 10
-12.8606486229
 20
-13.7088240982
 10
-12.9018639556
 20
-13.7054476739
  0
LWPOLYLINE
  5
2B4
100
AcDbEntity
  8
CASTELLO
100
AcDbPolyline
 62
7
  6
CONTINUOUS
 90
29
 70
0
 10
-11.812422205
 20
22.7083300718
 10
-11.8135519035
 20
22.6168438041
 10
-11.813384472
 20
22.5253654969
 10
-11.8119202291
 20
22.4338950041
 10
-11.8091610668
 20
22.3426569668
 10
-11.8051057966
 20
22.2514264207
 10
-11.7997497868
 20
22.1595289669
 10
-11.7931325038
 20
22.0669558228
 10
-11.7852144421
 20
21.9737157967
 10
-11.7758719001
 20
21.8791611644
 10
-11.7651186815
 20
21.7831599833
 10
-11.7529403302
 20
21.6858445109
 10
-11.7391703833
 20
21.5869634987
 10
-11.7237682162
 20
21.4862719059
 10
-11.7067735859
 20
21.384015191
 10
-11.6881407717
 20
21.2806777744
 10
-11.6678452055
 20
21.1762415702
 10
-11.6459111683
 20
21.0707248086
 10
-11.6223667429
 20
20.964666133
 10
-11.5971940738
 20
20.8580924731
 10
-11.5704112833
 20
20.7509767812
 10
-11.5421009049
 20
20.6437765048
 10
-11.5122308687
 20
20.5364572006
 10
-11.4808339117
 20
20.4290530033
 10
-11.4480902236
 20
20.3221240161
 10
-11.4139644211
 20
20.2156415
 10
-11.3784930014
 20
20.1096336716
 10
-11.3419644436
 20
20.0047458454
 10
-11.3408852529
 20
20.0017685261
  0
LWPOLYLINE
  5
2B5
100
AcDbEntity
  8
TRECCIA
100
AcDbPolyline
 62
7
  6
CONTINUOUS
 90
25
 70
0
 10
-11.9568083851
 20
16.586427262
 10
-11.955039493
 20
16.6549017967
 10
-11.9494942441
 20
16.7283610879
 10
-11.9398569268
 20
16.8063289123
 10
-11.9258604638
 20
16.8883224701
 10
-11.9073230971
 20
16.9736671342
 10
-11.8841716787
 20
17.0615419288
 10
-11.8563426803
 20
17.1513582848
 10
-11.823880833
 20
17.2423452071
 10
-11.7870373547
 20
17.3334133906
 10
-11.746013586
 20
17.4238546672
 10
-11.7010663821
 20
17.5129713266
 10
-11.6527074397
 20
17.5997369746
 10
-11.6013332351
 20
17.6835291178
 10
-11.5473931997
 20
17.7637454905
 10
-11.4916320445
 20
17.8394976886
 10
-11.434611916
 20
17.9103221904
 10
-11.3768858501
 20
17.9758594271
 10
-11.3193037183
 20
18.0355351413
 10
-11.2625372043
 20
18.0891143817
 10
-11.2071275588
 20
18.1365693605
 10
-11.1538120184
 20
18.1777841719
 10
-11.1032535668
 20
18.2128124841
 10
-11.0559672891
 20
18.2418918465
 10
-11.0124632666
 20
18.2653217384
  0
LWPOLYLINE
  5
2B6
100
AcDbEntity
  8
TRECCIA
100
AcDbPolyline
 62
7
  6
CONTINUOUS
 90
22
 70
0
 10
-13.6568083851
 20
16.586427262
 10
-13.6513422098
 20
16.7685121685
 10
-13.6352008829
 20
16.9517096208
 10
-13.6087543251
 20
17.1353909925
 10
-13.5723001982
 20
17.3191766781
 10
-13.5261713676
 20
17.5023267661
 10
-13.4708695065
 20
17.683635566
 10
-13.4068769559
 20
17.8622478918
 10
-13.3344787342
 20
18.0378614871
 10
-13.2539694322
 20
18.2100115143
 10
-13.1656715738
 20
18.3781186887
 10
-13.0699036989
 20
18.5415946877
 10
-12.9669158879
 20
18.6999400043
 10
-12.8568960943
 20
18.8526911736
 10
-12.7402063347
 20
18.9991104747
 10
-12.6173137636
 20
19.1383736685
 10
-12.4882494829
 20
19.270142265
 10
-12.3534913382
 20
19.3935644531
 10
-12.2141793746
 20
19.5073397665
 10
-12.0708889807
 20
19.6108448933
 10
-11.9236305449
 20
19.7038533595
 10
-11.7727263789
 20
19.7858479631
  0
LWPOLYLINE
  5
2B7
100
AcDbEntity
  8
CASTELLO
100
AcDbPolyline
 62
7
  6
CONTINUOUS
 90
5
 70
0
 10
-4.7439319968
 20
34.9966389975
 10
-4.7459685401
 20
34.9875175995
 10
-4.747482899
 20
34.977684002
 10
-4.7484392827
 20
34.967225842
 10
-4.7487710295
 20
34.9555520857
  0
LINE
  5
2B8
100
AcDbEntity
  8
CASTELLO
100
AcDbLine
 62
250
  6
CONTINUOUS
 10
6.3911407241
 20
29.6623176298
 11
6.9194078958
 21
30.3052697855
  0
LINE
  5
2B9
100
AcDbEntity
  8
CASTELLO
100
AcDbLine
 62
7
  6
CONTINUOUS
 10
6.3911407241
 20
29.5727871634
 11
6.9905009259
 21
30.3022664013
  0
LINE
  5
2BA
100
AcDbEntity
  8
POMELLO
100
AcDbLine
 62
7
  6
CONTINUOUS
 10
-6.6971445606
 20
-12.9548393313
 11
-6.4659946247
 21
-13.0601785638
  0
LWPOLYLINE
  5
2BB
100
AcDbEntity
  8
POMELLO
100
AcDbPolyline
 62
250
  6
CONTINUOUS
 90
12
 70
0
 10
-8.3150737963
 20
-12.1609202798
 10
-8.4477919428
 20
-12.0987444187
 10
-8.7965212915
 20
-11.9568106588
 10
-9.1572773217
 20
-11.8401666439
 10
-9.5289966495
 20
-11.7492643483
 10
-9.910333979
 20
-11.6844304529
 10
-10.3000551336
 20
-11.6457648236
 10
-10.6977304305
 20
-11.6332028143
 10
-11.1031899583
 20
-11.6467516957
 10
-11.5160760247
 20
-11.6865086657
 10
-11.9350949747
 20
-11.752456686
 10
-11.9568083851
 20
-11.7571672093
  0
LINE
  5
2BC
100
AcDbEntity
  8
POMELLO
100
AcDbLine
 62
7
  6
CONTINUOUS
 10
-6.3658924792
 20
-13.1102135778
 11
-6.6971445606
 21
-12.9548393313
  0
LINE
  5
2BD
100
AcDbEntity
  8
POMELLO
100
AcDbLine
 62
7
  6
CONTINUOUS
 10
-6.4659930976
 20
-13.0600857665
 11
-8.3150738037
 21
-12.1609202762
  0
LINE
  5
2BE
100
AcDbEntity
  8
POMELLO
100
AcDbLine
 62
7
  6
CONTINUOUS
 10
-6.3660256939
 20
-13.1100694684
 11
-4.5372448776
 21
-14.0498347392
  0
LWPOLYLINE
  5
2BF
100
AcDbEntity
  8
CASTELLO
100
AcDbPolyline
 62
7
  6
CONTINUOUS
 90
23
 70
0
 10
-10.3251881753
 20
36.6802190382
 10
-10.3248697673
 20
36.6676054859
 10
-10.3239111507
 20
36.6549825377
 10
-10.3223093764
 20
36.6423889976
 10
-10.3200652165
 20
36.6298679241
 10
-10.3171811764
 20
36.6174544991
 10
-10.3136593522
 20
36.6051757322
 10
-10.309505987
 20
36.5930688054
 10
-10.3047311322
 20
36.5811734381
 10
-10.2993433373
 20
36.5695191586
 10
-10.2933549768
 20
36.5581401838
 10
-10.2867829356
 20
36.547073789
 10
-10.2796435018
 20
36.5363509755
 10
-10.2719537088
 20
36.5260006061
 10
-10.263736389
 20
36.5160557929
 10
-10.2550173552
 20
36.5065484706
 10
-10.2458161392
 20
36.4975004078
 10
-10.2361596897
 20
36.4889386902
 10
-10.2260852879
 20
36.4808950271
 10
-10.2156127381
 20
36.4733834945
 10
-10.2047700481
 20
36.4664234858
 10
-10.1936062983
 20
36.4600437713
 10
-10.1869852483
 20
36.4566090778
  0
LWPOLYLINE
  5
2C0
100
AcDbEntity
  8
CASTELLO
100
AcDbPolyline
 62
250
  6
CONTINUOUS
 90
19
 70
0
 10
-10.2519648706
 20
36.5918306906
 10
-10.2517459994
 20
36.5811696984
 10
-10.2510894437
 20
36.5707482818
 10
-10.2499961061
 20
36.5605927045
 10
-10.2484676562
 20
36.5507268504
 10
-10.2465073376
 20
36.5411776537
 10
-10.2441207546
 20
36.5319744176
 10
-10.2413144218
 20
36.523141691
 10
-10.2380949047
 20
36.5146996502
 10
-10.2344701356
 20
36.5066691356
 10
-10.2304490524
 20
36.4990700503
 10
-10.2260416793
 20
36.4919214286
 10
-10.2212590515
 20
36.485241201
 10
-10.2161130786
 20
36.4790459999
 10
-10.2106165497
 20
36.4733512196
 10
-10.2047832064
 20
36.4681710833
 10
-10.1986276175
 20
36.463518492
 10
-10.1921650623
 20
36.4594049595
 10
-10.1869915721
 20
36.4566122394
  0
LINE
  5
2C1
100
AcDbEntity
  8
CASTELLO
100
AcDbLine
 62
7
  6
CONTINUOUS
 10
-10.3251881753
 20
37.0201929724
 11
-10.3251881753
 21
36.6802190382
  0
LINE
  5
2C2
100
AcDbEntity
  8
CASTELLO
100
AcDbLine
 62
250
  6
CONTINUOUS
 10
-10.2519648706
 20
36.9318046247
 11
-10.2519648706
 21
36.5918306906
  0
LINE
  5
2C3
100
AcDbEntity
  8
CASTELLO
100
AcDbLine
 62
7
  6
CONTINUOUS
 10
-9.6221952211
 20
36.1742140639
 11
-9.6221952211
 21
35.7202569693
  0
LINE
  5
2C4
100
AcDbEntity
  8
CASTELLO
100
AcDbLine
 62
250
  6
CONTINUOUS
 10
-9.5489719163
 20
36.1376024115
 11
-9.5489719163
 21
35.6285282674
  0
LINE
  5
2C5
100
AcDbEntity
  8
CASTELLO
100
AcDbLine
 62
250
  6
CONTINUOUS
 10
-8.9269801908
 20
35.9293383507
 11
-8.9269801908
 21
36.2693122848
  0
LWPOLYLINE
  5
2C6
100
AcDbEntity
  8
CASTELLO
100
AcDbPolyline
 62
250
  6
CONTINUOUS
 90
31
 70
0
 10
-10.2519648706
 20
36.9318046247
 10
-10.2517255157
 20
36.9431871248
 10
-10.2510075105
 20
36.9547853505
 10
-10.2498119204
 20
36.9665682114
 10
-10.2481407229
 20
36.9785064789
 10
-10.245997788
 20
36.9905655298
 10
-10.2433898326
 20
37.0027052338
 10
-10.2403246605
 20
37.0148899346
 10
-10.2368101063
 20
37.02708906
 10
-10.232855625
 20
37.039269732
 10
-10.2284718612
 20
37.0513990198
 10
-10.2236707816
 20
37.0634436837
 10
-10.2184655761
 20
37.0753705944
 10
-10.2128704871
 20
37.0871471459
 10
-10.2069006842
 20
37.0987414357
 10
-10.2005723623
 20
37.1101220061
 10
-10.1939027112
 20
37.1212579238
 10
-10.1869099037
 20
37.1321188273
 10
-10.179612995
 20
37.1426751118
 10
-10.1720318525
 20
37.1528980321
 10
-10.1641871012
 20
37.1627597725
 10
-10.156100095
 20
37.1722334849
 10
-10.1477928428
 20
37.1812933827
 10
-10.1392879561
 20
37.1899148024
 10
-10.130608591
 20
37.198074268
 10
-10.121778365
 20
37.2057495745
 10
-10.1128213187
 20
37.2129198236
 10
-10.1037618595
 20
37.219565478
 10
-10.094624656
 20
37.2256684467
 10
-10.0854345696
 20
37.231212129
 10
-10.0762166146
 20
37.2361814397
  0
LWPOLYLINE
  5
2C7
100
AcDbEntity
  8
CASTELLO
100
AcDbPolyline
 62
250
  6
CONTINUOUS
 90
31
 70
0
 10
-8.9269801908
 20
36.2693122848
 10
-8.9267408359
 20
36.2806947849
 10
-8.9260228307
 20
36.2922930106
 10
-8.9248272406
 20
36.3040758715
 10
-8.9231560431
 20
36.316014139
 10
-8.9210131082
 20
36.3280731899
 10
-8.9184051527
 20
36.3402128938
 10
-8.9153399807
 20
36.3523975947
 10
-8.9118254264
 20
36.3645967201
 10
-8.9078709452
 20
36.3767773921
 10
-8.9034871814
 20
36.3889066799
 10
-8.8986861018
 20
36.4009513438
 10
-8.8934808963
 20
36.4128782545
 10
-8.8878858073
 20
36.424654806
 10
-8.8819160044
 20
36.4362490958
 10
-8.8755876825
 20
36.4476296662
 10
-8.8689180314
 20
36.4587655838
 10
-8.8619252239
 20
36.4696264874
 10
-8.8546283152
 20
36.4801827719
 10
-8.8470471727
 20
36.4904056921
 10
-8.8392024214
 20
36.5002674325
 10
-8.8311154152
 20
36.509741145
 10
-8.822808163
 20
36.5188010428
 10
-8.8143032763
 20
36.5274224625
 10
-8.8056239112
 20
36.535581928
 10
-8.7967936852
 20
36.5432572346
 10
-8.7878366389
 20
36.5504274837
 10
-8.7787771797
 20
36.5570731381
 10
-8.7696399762
 20
36.5631761068
 10
-8.7604498898
 20
36.5687197891
 10
-8.7512319348
 20
36.5736890998
  0
LWPOLYLINE
  5
2C8
100
AcDbEntity
  8
CASTELLO
100
AcDbPolyline
 62
7
  6
CONTINUOUS
 90
20
 70
0
 10
-10.3251881753
 20
37.0201929724
 10
-10.3247843032
 20
37.0343975843
 10
-10.3235656916
 20
37.0486290083
 10
-10.3215253041
 20
37.062831206
 10
-10.3186605527
 20
37.0769486009
 10
-10.3149742304
 20
37.0909223701
 10
-10.310474938
 20
37.1046923174
 10
-10.3051763446
 20
37.1182003287
 10
-10.2990946031
 20
37.1313950926
 10
-10.2922471216
 20
37.1442309255
 10
-10.2846564512
 20
37.1566592368
 10
-10.2763500646
 20
37.1686311555
 10
-10.2673536567
 20
37.1801067859
 10
-10.2576923484
 20
37.1910503009
 10
-10.2474030759
 20
37.2014166683
 10
-10.236528805
 20
37.211162083
 10
-10.2250946414
 20
37.2202630884
 10
-10.2131424853
 20
37.2286842392
 10
-10.2007398538
 20
37.236379873
 10
-10.1892951228
 20
37.2426330866
  0
LWPOLYLINE
  5
2C9
100
AcDbEntity
  8
CASTELLO
100
AcDbPolyline
 62
7
  6
CONTINUOUS
 90
46
 70
0
 10
-9.7047672246
 20
21.0840727698
 10
-9.7007998432
 20
21.1404128371
 10
-9.6952535373
 20
21.1958180527
 10
-9.6881299815
 20
21.2502238567
 10
-9.6794265271
 20
21.3035784076
 10
-9.6691538752
 20
21.3558059366
 10
-9.6573399001
 20
21.4068109918
 10
-9.6440048274
 20
21.4565086219
 10
-9.6291565642
 20
21.5048724204
 10
-9.6128060093
 20
21.5518972185
 10
-9.5949541963
 20
21.5975568664
 10
-9.5756258895
 20
21.6417634862
 10
-9.5548701866
 20
21.6844236074
 10
-9.5327254619
 20
21.7254627232
 10
-9.5092020245
 20
21.7648654572
 10
-9.4843092036
 20
21.802630669
 10
-9.458050776
 20
21.838736652
 10
-9.4304683856
 20
21.8731105498
 10
-9.4016302702
 20
21.9056790119
 10
-9.371595462
 20
21.9363808935
 10
-9.3403715775
 20
21.9652124319
 10
-9.307949946
 20
21.9921874366
 10
-9.2743303707
 20
22.0172890215
 10
-9.2395723152
 20
22.04045565
 10
-9.203756449
 20
22.0616354313
 10
-9.1669152904
 20
22.0808059491
 10
-9.1290924931
 20
22.0979395173
 10
-9.0903949297
 20
22.112996864
 10
-9.0509000183
 20
22.1259595032
 10
-9.0106224205
 20
22.1368327735
 10
-8.9695778187
 20
22.1456214242
 10
-8.9278266449
 20
22.1523149567
 10
-8.8853989286
 20
22.156910975
 10
-8.8422591221
 20
22.1594115807
 10
-8.7984158306
 20
22.1598013781
 10
-8.7539464458
 20
22.1580645948
 10
-8.7089163979
 20
22.1541957283
 10
-8.6633460336
 20
22.1481851853
 10
-8.6173089927
 20
22.1400299092
 10
-8.5709549902
 20
22.1297541869
 10
-8.5243427944
 20
22.1173753269
 10
-8.4775168505
 20
22.1029076115
 10
-8.4306094537
 20
22.0863991752
 10
-8.383700138
 20
22.0678925265
 10
-8.3368141527
 20
22.0474120918
 10
-8.2900028774
 20
22.0249925771
  0
LWPOLYLINE
  5
2CA
100
AcDbEntity
  8
CASTELLO
100
AcDbPolyline
 62
250
  6
CONTINUOUS
 90
16
 70
0
 10
-8.2900028774
 20
22.0249925771
 10
-8.2645545503
 20
22.266477595
 10
-8.2363461009
 20
22.5088418791
 10
-8.2053823366
 20
22.7520271914
 10
-8.1716739878
 20
22.9959340972
 10
-8.1352225775
 20
23.2405450215
 10
-8.0960204227
 20
23.4859240873
 10
-8.0540698813
 20
23.7320560426
 10
-8.0093880243
 20
23.9788365501
 10
-7.9619868613
 20
24.2261965549
 10
-7.9118657889
 20
24.4741296297
 10
-7.8590453791
 20
24.7225218063
 10
-7.8035752472
 20
24.9711417673
 10
-7.7454850926
 20
25.2198714527
 10
-7.6847785646
 20
25.468706899
 10
-7.6214716724
 20
25.7175874169
  0
LWPOLYLINE
  5
2CB
100
AcDbEntity
  8
CONTATTO
100
AcDbPolyline
 62
250
  6
CONTINUOUS
 90
47
 70
0
 10
12.517302194
 20
32.9280641744
 10
12.5562349683
 20
32.9801061692
 10
12.6055181866
 20
33.0368868466
 10
12.6606518613
 20
33.092477461
 10
12.7211553396
 20
33.1464199833
 10
12.7870276912
 20
33.1986728827
 10
12.8582698465
 20
33.2492776902
 10
12.9344039442
 20
33.2979009687
 10
13.0154205732
 20
33.3445287112
 10
13.1013291446
 20
33.3891749248
 10
13.1916800303
 20
33.4315481939
 10
13.2867303105
 20
33.4717073919
 10
13.386222905
 20
33.5095936454
 10
13.4889369453
 20
33.5447389186
 10
13.5952778141
 20
33.5771166385
 10
13.7048401287
 20
33.606753378
 10
13.8151868731
 20
33.6332608202
 10
13.92629139
 20
33.6564602137
 10
14.0381803367
 20
33.6765303097
 10
14.1484966689
 20
33.6936190455
 10
14.2568871587
 20
33.7075929413
 10
14.363705034
 20
33.7185854769
 10
14.4676529332
 20
33.7271450282
 10
14.5684887676
 20
33.7332475977
 10
14.6664546258
 20
33.7369171829
 10
14.7609794122
 20
33.7387741517
 10
14.8519011523
 20
33.7388400206
 10
14.9393818205
 20
33.737093273
 10
15.0233362438
 20
33.7340897277
 10
15.1036403172
 20
33.729870927
 10
15.1804181458
 20
33.7243953285
 10
15.2539568723
 20
33.7180941229
 10
15.3242234059
 20
33.7110080891
 10
15.3912508375
 20
33.7030964482
 10
15.4554255817
 20
33.6946680541
 10
15.5167333285
 20
33.6857574135
 10
15.5751883879
 20
33.6763300197
 10
15.6312201044
 20
33.6665912059
 10
15.684824688
 20
33.6565696842
 10
15.7360059286
 20
33.6462367424
 10
15.7852045409
 20
33.6357115777
 10
15.8324236858
 20
33.6250170386
 10
15.8776602024
 20
33.6141302764
 10
15.9213453223
 20
33.6031019428
 10
15.9636227894
 20
33.5919489215
 10
16.0043488598
 20
33.5806543287
 10
16.0435235335
 20
33.5692181643
  0
LWPOLYLINE
  5
2CC
100
AcDbEntity
  8
CONTATTO
100
AcDbPolyline
 62
250
  6
CONTINUOUS
 90
10
 70
0
 10
12.4356483245
 20
32.9617218164
 10
12.4379430125
 20
32.9647818271
 10
12.4908056637
 20
33.0254989251
 10
12.5498845342
 20
33.0847581424
 10
12.6149773136
 20
33.1423660756
 10
12.6858531454
 20
33.1981395432
 10
12.7623462832
 20
33.2519674787
 10
12.8443376869
 20
33.3037686624
 10
12.9315862839
 20
33.3533863018
 10
12.9519556633
 20
33.3642552831
  0
LINE
  5
2CD
100
AcDbEntity
  8
CORPO
100
AcDbLine
 62
7
  6
CONTINUOUS
 10
22.1664029292
 20
26.3880128317
 11
23.2371260231
 21
27.0805474888
  0
LWPOLYLINE
  5
2CE
100
AcDbEntity
  8
POMELLO
100
AcDbPolyline
 62
7
  6
CONTINUOUS
 90
11
 70
0
 10
-11.9568083851
 20
-11.699547668
 10
-11.9180352296
 20
-11.6921436733
 10
-11.483198631
 20
-11.6356115668
 10
-11.0549108507
 20
-11.6066405822
 10
-10.634062034
 20
-11.6051579359
 10
-10.2214719114
 20
-11.631035668
 10
-9.8180516961
 20
-11.6840836905
 10
-9.4248463982
 20
-11.7640026585
 10
-9.0427676362
 20
-11.8704097108
 10
-8.6725773249
 20
-12.0028828198
 10
-8.3150737956
 20
-12.1609202801
  0
LINE
  5
2CF
100
AcDbEntity
  8
CASTELLO
100
AcDbLine
 62
250
  6
CONTINUOUS
 10
6.9194078958
 20
-10.9943343539
 11
6.3911407241
 21
-10.8858320768
  0
LINE
  5
2D0
100
AcDbEntity
  8
CASTELLO
100
AcDbLine
 62
250
  6
CONTINUOUS
 10
6.8299941005
 20
-10.6747675479
 11
6.3911407241
 21
-10.5846302212
  0
LWPOLYLINE
  5
2D1
100
AcDbEntity
  8
CASTELLO
100
AcDbPolyline
 62
7
  6
CONTINUOUS
 90
34
 70
0
 10
5.5010805414
 20
-11.2014411176
 10
5.4932014184
 20
-11.1997647888
 10
5.4849811693
 20
-11.1978968827
 10
5.4764233081
 20
-11.1958474773
 10
5.4675248776
 20
-11.1936370648
 10
5.4582984426
 20
-11.1912672261
 10
5.4487718683
 20
-11.1887205322
 10
5.43895168
 20
-11.1860101241
 10
5.4288457817
 20
-11.1831484904
 10
5.4184849988
 20
-11.1801179954
 10
5.4078784775
 20
-11.1769334635
 10
5.3970365661
 20
-11.1736091924
 10
5.385992789
 20
-11.1701275394
 10
5.3747589406
 20
-11.1665049326
 10
5.3633479898
 20
-11.162757463
 10
5.3517961693
 20
-11.1588678088
 10
5.3401180374
 20
-11.1548539073
 10
5.3283293059
 20
-11.1507336196
 10
5.3164689919
 20
-11.1464903989
 10
5.3045545443
 20
-11.1421435333
 10
5.2926045309
 20
-11.1377126238
 10
5.2806608533
 20
-11.1331825303
 10
5.2687440037
 20
-11.1285736442
 10
5.2568754365
 20
-11.1239072195
 10
5.2450998579
 20
-11.119170333
 10
5.2334410374
 20
-11.1143841658
 10
5.2219231003
 20
-11.1095713553
 10
5.2105927476
 20
-11.1047219782
 10
5.1994874852
 20
-11.0998641406
 10
5.1886231334
 20
-11.0950142062
 10
5.1780164478
 20
-11.0901481947
 10
5.1676943895
 20
-11.0852769873
 10
5.1576926929
 20
-11.0804426177
 10
5.1480443534
 20
-11.0756712796
  0
LWPOLYLINE
  5
2D2
100
AcDbEntity
  8
CASTELLO
100
AcDbPolyline
 62
250
  6
CONTINUOUS
 90
31
 70
0
 10
4.4373379736
 20
-12.3923988051
 10
4.446798123
 20
-12.3968882985
 10
4.4567137096
 20
-12.4011250006
 10
4.4670577474
 20
-12.4050973777
 10
4.4778020956
 20
-12.4087946193
 10
4.4889175012
 20
-12.4122066556
 10
4.5003736747
 20
-12.4153241877
 10
4.512139424
 20
-12.4181387289
 10
4.5241827313
 20
-12.4206426213
 10
4.5364708039
 20
-12.4228290484
 10
4.5489701915
 20
-12.4246920603
 10
4.5616468733
 20
-12.4262265881
 10
4.5744663392
 20
-12.4274284564
 10
4.5873937107
 20
-12.4282943968
 10
4.6003937859
 20
-12.4288220528
 10
4.6134311292
 20
-12.4290099902
 10
4.6264702006
 20
-12.4288577049
 10
4.6394755655
 20
-12.4283656191
 10
4.6524119399
 20
-12.4275350694
 10
4.665244279
 20
-12.4263682963
 10
4.6779374861
 20
-12.4248684816
 10
4.6904566354
 20
-12.4230397649
 10
4.702767432
 20
-12.4208871955
 10
4.7148366368
 20
-12.4184166255
 10
4.7266317545
 20
-12.4156347216
 10
4.7381231771
 20
-12.4125483424
 10
4.7492769936
 20
-12.4091664677
 10
4.7600561492
 20
-12.4055007086
 10
4.7704299152
 20
-12.4015624228
 10
4.7803732192
 20
-12.3973620702
 10
4.7898599333
 20
-12.3929115289
  0
LWPOLYLINE
  5
2D3
100
AcDbEntity
  8
CASTELLO
100
AcDbPolyline
 62
250
  6
CONTINUOUS
 90
31
 70
0
 10
4.4373379736
 20
-12.0524248709
 10
4.4467969439
 20
-12.0569138334
 10
4.4567112203
 20
-12.0611500578
 10
4.4670538241
 20
-12.0651220167
 10
4.4777965945
 20
-12.0688188961
 10
4.4889103137
 20
-12.0722306422
 10
4.5003647911
 20
-12.0753479842
 10
4.5121288965
 20
-12.078162443
 10
4.5241705869
 20
-12.0806663459
 10
4.5364570411
 20
-12.0828528656
 10
4.5489548055
 20
-12.0847160495
 10
4.5616298883
 20
-12.0862508307
 10
4.5744477967
 20
-12.0874530328
 10
4.5873736601
 20
-12.0883193846
 10
4.6003722932
 20
-12.0888475275
 10
4.6134082915
 20
-12.0890360243
 10
4.6264461594
 20
-12.088884365
 10
4.6394504387
 20
-12.0883929654
 10
4.6523857731
 20
-12.0875631627
 10
4.6652170787
 20
-12.0863972029
 10
4.6779093199
 20
-12.0848982651
 10
4.690427649
 20
-12.0830704775
 10
4.7027378134
 20
-12.0809188768
 10
4.7148065441
 20
-12.0784493135
 10
4.726601315
 20
-12.0756684569
 10
4.7380911775
 20
-12.0725835469
 10
4.7492436593
 20
-12.0692032432
 10
4.7600254692
 20
-12.0655378021
 10
4.7704066583
 20
-12.0615978041
 10
4.7803603704
 20
-12.0573938566
 10
4.7898599333
 20
-12.0529375948
  0
LWPOLYLINE
  5
2D4
100
AcDbEntity
  8
CASTELLO
100
AcDbPolyline
 62
7
  6
CONTINUOUS
 90
24
 70
0
 10
0.2478405569
 20
-12.3300047962
 10
0.2706939341
 20
-12.3410294392
 10
0.3030773763
 20
-12.3553085853
 10
0.3361417326
 20
-12.3683419735
 10
0.369857403
 20
-12.3801025792
 10
0.4042159789
 20
-12.3905698614
 10
0.4391774064
 20
-12.3997135976
 10
0.4746986884
 20
-12.4075063276
 10
0.5107697505
 20
-12.4139281071
 10
0.5473523534
 20
-12.418952459
 10
0.584400164
 20
-12.4225545988
 10
0.6218949793
 20
-12.4247148766
 10
0.6597938842
 20
-12.4254117124
 10
0.6980567321
 20
-12.4246251416
 10
0.7366748378
 20
-12.4223352864
 10
0.7756076719
 20
-12.4185240563
 10
0.8148167275
 20
-12.4131742569
 10
0.8543023695
 20
-12.4062619964
 10
0.8940318007
 20
-12.3977677282
 10
0.9339662409
 20
-12.3876744633
 10
0.9741036307
 20
-12.3759543618
 10
1.0144207241
 20
-12.3625831572
 10
1.0548672523
 20
-12.3475475273
 10
1.0824179519
 20
-12.3363669172
  0
LINE
  5
2D5
100
AcDbEntity
  8
CASTELLO
100
AcDbLine
 62
7
  6
CONTINUOUS
 10
0.2479328582
 20
-12.3300509577
 11
-11.9568083851
 21
-6.2276803361
  0
LINE
  5
2D6
100
AcDbEntity
  8
CASTELLO
100
AcDbLine
 62
7
  6
CONTINUOUS
 10
-13.6568083851
 20
-5.3776803361
 11
-14.5859658559
 21
-4.9131016007
  0
LINE
  5
2D7
100
AcDbEntity
  8
CASTELLO
100
AcDbLine
 62
7
  6
CONTINUOUS
 10
0.2478413008
 20
-12.3300051689
 11
0.2479325316
 21
-12.3300507944
  0
LINE
  5
2D8
100
AcDbEntity
  8
CASTELLO
100
AcDbLine
 62
250
  6
CONTINUOUS
 10
-0.1455359327
 20
-11.5694513049
 11
-11.9568083851
 21
-5.6638150787
  0
LINE
  5
2D9
100
AcDbEntity
  8
CASTELLO
100
AcDbLine
 62
250
  6
CONTINUOUS
 10
-13.6568083851
 20
-4.8138150787
 11
-14.9703820103
 21
-4.1570282661
  0
LINE
  5
2DA
100
AcDbEntity
  8
CASTELLO
100
AcDbLine
 62
7
  6
CONTINUOUS
 10
3.1773265902
 20
-11.8651249152
 11
4.50231127
 21
-12.5276172552
  0
LINE
  5
2DB
100
AcDbEntity
  8
CASTELLO
100
AcDbLine
 62
250
  6
CONTINUOUS
 10
3.1123532938
 20
-11.7299064651
 11
4.4373379736
 21
-12.3923988051
  0
LINE
  5
2DC
100
AcDbEntity
  8
CASTELLO
100
AcDbLine
 62
250
  6
CONTINUOUS
 10
4.4373379736
 20
-12.0524248709
 11
3.2149346033
 21
-11.4412231858
  0
LWPOLYLINE
  5
2DD
100
AcDbEntity
  8
CASTELLO
100
AcDbPolyline
 62
250
  6
CONTINUOUS
 90
16
 70
0
 10
3.1123532938
 20
-11.7299064651
 10
3.1033965925
 20
-11.7251887596
 10
3.0949378105
 20
-11.7202413634
 10
3.0870008326
 20
-11.7150772843
 10
3.079606739
 20
-11.70970904
 10
3.0727783495
 20
-11.7041519104
 10
3.0665389716
 20
-11.698424266
 10
3.0609067283
 20
-11.6925429723
 10
3.0558955492
 20
-11.6865228285
 10
3.0515189636
 20
-11.6803800544
 10
3.0477888694
 20
-11.6741312435
 10
3.0447155548
 20
-11.6677935066
 10
3.0423074946
 20
-11.661384271
 10
3.040571255
 20
-11.6549210623
 10
3.0395115219
 20
-11.6484213928
 10
3.0391299895
 20
-11.6415249035
  0
LWPOLYLINE
  5
2DE
100
AcDbEntity
  8
CASTELLO
100
AcDbPolyline
 62
7
  6
CONTINUOUS
 90
22
 70
0
 10
3.1773265902
 20
-11.8651249152
 10
3.1656700243
 20
-11.8589063309
 10
3.1543146416
 20
-11.852052725
 10
3.1433037961
 20
-11.8445814609
 10
3.132675234
 20
-11.8365101931
 10
3.1224737455
 20
-11.8278664375
 10
3.1127488217
 20
-11.8186894577
 10
3.1035743031
 20
-11.8090564336
 10
3.094936034
 20
-11.7989624176
 10
3.0867655394
 20
-11.788312632
 10
3.0790647435
 20
-11.7770636539
 10
3.0719312195
 20
-11.7653110672
 10
3.0654442155
 20
-11.7531634249
 10
3.0596405835
 20
-11.7406877329
 10
3.05452994
 20
-11.727905714
 10
3.0501309017
 20
-11.7148627575
 10
3.0464593104
 20
-11.7016092282
 10
3.0435243249
 20
-11.6881856394
 10
3.041330675
 20
-11.6746164546
 10
3.039884903
 20
-11.6609316937
 10
3.0391942185
 20
-11.6471847317
 10
3.0391299895
 20
-11.6415249035
  0
LWPOLYLINE
  5
2DF
100
AcDbEntity
  8
CASTELLO
100
AcDbPolyline
 62
250
  6
CONTINUOUS
 90
25
 70
0
 10
-14.5859655392
 20
-4.913101759
 10
-14.6147323835
 20
-4.8976340425
 10
-14.6420036606
 20
-4.8808413229
 10
-14.6683857105
 20
-4.862423834
 10
-14.6938455581
 20
-4.842404548
 10
-14.7183513084
 20
-4.8208084475
 10
-14.7418734266
 20
-4.7976618439
 10
-14.7643825869
 20
-4.7729934413
 10
-14.7858504971
 20
-4.7468340142
 10
-14.8062510881
 20
-4.7192158086
 10
-14.8255588317
 20
-4.6901732494
 10
-14.843749613
 20
-4.6597423633
 10
-14.8608015431
 20
-4.6279604405
 10
-14.8766933161
 20
-4.5948669688
 10
-14.8914050367
 20
-4.560502983
 10
-14.9049190637
 20
-4.5249104627
 10
-14.9172186473
 20
-4.4881330697
 10
-14.9282881622
 20
-4.4502167872
 10
-14.938113991
 20
-4.4112093086
 10
-14.946683789
 20
-4.3711598802
 10
-14.9539870795
 20
-4.3301173421
 10
-14.9600153367
 20
-4.2881306529
 10
-14.964761092
 20
-4.2452510798
 10
-14.9682181213
 20
-4.2015322663
 10
-14.9703820103
 20
-4.1570282661
  0
LWPOLYLINE
  5
2E0
100
AcDbEntity
  8
CASTELLO
100
AcDbPolyline
 62
7
  6
CONTINUOUS
 90
6
 70
0
 10
-9.7027324493
 20
20.8208449279
 10
-9.7047089019
 20
20.8506321541
 10
-9.7071110264
 20
20.9101084908
 10
-9.7079252076
 20
20.9688800308
 10
-9.707144631
 20
21.0268905339
 10
-9.7047672246
 20
21.0840727698
  0
LWPOLYLINE
  5
2E1
100
AcDbEntity
  8
CASTELLO
100
AcDbPolyline
 62
250
  6
CONTINUOUS
 90
31
 70
0
 10
-8.5744582312
 20
36.2687995609
 10
-8.5747519331
 20
36.2801977793
 10
-8.5755248616
 20
36.2918147604
 10
-8.5767758059
 20
36.3036191444
 10
-8.578502651
 20
36.3155814745
 10
-8.5807013432
 20
36.3276667778
 10
-8.5833649169
 20
36.3398344463
 10
-8.5864853354
 20
36.3520484387
 10
-8.5900545744
 20
36.3642779193
 10
-8.5940629663
 20
36.3764897021
 10
-8.5984996469
 20
36.3886505385
 10
-8.603352413
 20
36.4007268439
 10
-8.6086078282
 20
36.41268514
 10
-8.6142514039
 20
36.4244924873
 10
-8.6202677282
 20
36.4361166679
 10
-8.6266403586
 20
36.4475259088
 10
-8.633351857
 20
36.458688969
 10
-8.6403838007
 20
36.4695751871
 10
-8.6477168847
 20
36.4801546675
 10
-8.6553309945
 20
36.4903983876
 10
-8.6632052622
 20
36.5002782694
 10
-8.6713180949
 20
36.5097672162
 10
-8.6796472496
 20
36.5188392086
 10
-8.6881698872
 20
36.5274693669
 10
-8.6968626308
 20
36.535634017
 10
-8.7057016507
 20
36.5433107747
 10
-8.7146627043
 20
36.5504785833
 10
-8.7237211941
 20
36.5571177687
 10
-8.7328522719
 20
36.5632101237
 10
-8.7420309083
 20
36.5687389529
 10
-8.7512319348
 20
36.5736890998
  0
LWPOLYLINE
  5
2E2
100
AcDbEntity
  8
CASTELLO
100
AcDbPolyline
 62
250
  6
CONTINUOUS
 90
19
 70
0
 10
-8.9269801908
 20
35.9293383507
 10
-8.9267613196
 20
35.9186773584
 10
-8.9261047639
 20
35.9082559419
 10
-8.9250114263
 20
35.8981003646
 10
-8.9234829764
 20
35.8882345105
 10
-8.9215226578
 20
35.8786853138
 10
-8.9191360747
 20
35.8694820777
 10
-8.916329742
 20
35.8606493511
 10
-8.9131102249
 20
35.8522073103
 10
-8.9094854557
 20
35.8441767957
 10
-8.9054643726
 20
35.8365777104
 10
-8.9010569995
 20
35.8294290887
 10
-8.8962743716
 20
35.8227488611
 10
-8.8911283987
 20
35.81655366
 10
-8.8856318698
 20
35.8108588797
 10
-8.8797985265
 20
35.8056787434
 10
-8.8736429377
 20
35.8010261521
 10
-8.8671803825
 20
35.7969126195
 10
-8.8620068923
 20
35.7941198995
  0
LWPOLYLINE
  5
2E3
100
AcDbEntity
  8
CASTELLO
100
AcDbPolyline
 62
7
  6
CONTINUOUS
 90
34
 70
0
 10
-6.9731774403
 20
37.0715215644
 10
-6.9733774964
 20
37.0819233731
 10
-6.9739777338
 20
37.0925017411
 10
-6.9749766918
 20
37.1032327592
 10
-6.9763719274
 20
37.1140922124
 10
-6.9781602756
 20
37.1250555048
 10
-6.9803378569
 20
37.1360977157
 10
-6.9828996814
 20
37.1471938627
 10
-6.9858398557
 20
37.1583188561
 10
-6.9891518507
 20
37.1694474265
 10
-6.9928281278
 20
37.1805543843
 10
-6.9968602881
 20
37.1916146055
 10
-7.0012392854
 20
37.2026029868
 10
-7.0059551859
 20
37.2134946444
 10
-7.010997256
 20
37.2242649315
 10
-7.0163541166
 20
37.2348894227
 10
-7.0220136408
 20
37.2453440472
 10
-7.0279629788
 20
37.2556051373
 10
-7.0341886505
 20
37.2656494437
 10
-7.040676583
 20
37.2754541986
 10
-7.0474120719
 20
37.2849971958
 10
-7.0543798111
 20
37.294256836
 10
-7.0615640682
 20
37.3032121184
 10
-7.0689485838
 20
37.3118427504
 10
-7.0765165382
 20
37.3201292232
 10
-7.0842508597
 20
37.3280527305
 10
-7.0921340656
 20
37.3355953065
 10
-7.1001481651
 20
37.3427399303
 10
-7.1082750955
 20
37.3494703731
 10
-7.1164965065
 20
37.3557713616
 10
-7.1247936032
 20
37.3616287088
 10
-7.1331475966
 20
37.3670291456
 10
-7.1415397457
 20
37.3719603502
 10
-7.149951144
 20
37.3764111033
  0
LWPOLYLINE
  5
2E4
100
AcDbEntity
  8
CASTELLO
100
AcDbPolyline
 62
250
  6
CONTINUOUS
 90
31
 70
0
 10
-6.4449102686
 20
37.3349603845
 10
-6.4451005167
 20
37.3464410468
 10
-6.4457777812
 20
37.3581312017
 10
-6.446940208
 20
37.3699987956
 10
-6.4485846147
 20
37.3820112998
 10
-6.4507064942
 20
37.3941357647
 10
-6.4533000232
 20
37.4063389099
 10
-6.4563580866
 20
37.4185872655
 10
-6.4598722998
 20
37.4308472537
 10
-6.4638330215
 20
37.4430852456
 10
-6.4682293881
 20
37.4552676821
 10
-6.4730493433
 20
37.4673611612
 10
-6.4782796664
 20
37.4793325185
 10
-6.4839060202
 20
37.4911489429
 10
-6.4899129688
 20
37.5027780209
 10
-6.4962840136
 20
37.5141878231
 10
-6.5030016504
 20
37.5253470224
 10
-6.5100474799
 20
37.5362250744
 10
-6.5174022424
 20
37.5467922478
 10
-6.5250458748
 20
37.5570196957
 10
-6.5329573279
 20
37.5668792335
 10
-6.5411146621
 20
37.5763435453
 10
-6.5494953283
 20
37.5853865446
 10
-6.558076488
 20
37.5939836614
 10
-6.5668348476
 20
37.6021115848
 10
-6.5757483577
 20
37.609749644
 10
-6.5847906782
 20
37.6168750629
 10
-6.5939312469
 20
37.6234643347
 10
-6.6031429198
 20
37.6294992216
 10
-6.6124022836
 20
37.6349657022
 10
-6.6216839723
 20
37.6398499233
  0
LWPOLYLINE
  5
2E5
100
AcDbEntity
  8
CASTELLO
100
AcDbPolyline
 62
7
  6
CONTINUOUS
 90
49
 70
0
 10
-6.9292088231
 20
19.6962935691
 10
-6.9285853526
 20
19.6376086951
 10
-6.9295437805
 20
19.5796821107
 10
-6.932082336
 20
19.5225791295
 10
-6.936197003
 20
19.4663479695
 10
-6.9418835167
 20
19.4110675741
 10
-6.9491334635
 20
19.3568463124
 10
-6.9579282796
 20
19.3037766365
 10
-6.9682575625
 20
19.2518803102
 10
-6.980124275
 20
19.2011604285
 10
-6.9935264556
 20
19.1516374568
 10
-7.0084413756
 20
19.1034072005
 10
-7.0248382732
 20
19.0565845425
 10
-7.0426793595
 20
19.0112548415
 10
-7.0619522345
 20
18.9674271311
 10
-7.0826618718
 20
18.9251011943
 10
-7.1048026407
 20
18.8842966242
 10
-7.1283350955
 20
18.845092284
 10
-7.153212087
 20
18.8075760659
 10
-7.1793849835
 20
18.7718088296
 10
-7.2068356437
 20
18.737803189
 10
-7.2355595647
 20
18.7055723018
 10
-7.2655360893
 20
18.6751415405
 10
-7.2967194784
 20
18.6465585328
 10
-7.3290673663
 20
18.6198703749
 10
-7.3625409304
 20
18.5951065404
 10
-7.3971004999
 20
18.5722926284
 10
-7.4326980993
 20
18.551464032
 10
-7.4692763785
 20
18.5326478398
 10
-7.5068040792
 20
18.515853109
 10
-7.5452719286
 20
18.5010885375
 10
-7.584659551
 20
18.4883648477
 10
-7.6248984471
 20
18.4777063998
 10
-7.6659051637
 20
18.469138556
 10
-7.7075986847
 20
18.4626700262
 10
-7.7499582337
 20
18.4582955096
 10
-7.7929894706
 20
18.456017882
 10
-7.8366781693
 20
18.4558423642
 10
-7.8809389788
 20
18.457772987
 10
-7.9256698534
 20
18.4618079469
 10
-7.9707812806
 20
18.4679315727
 10
-8.0162535935
 20
18.4761330439
 10
-8.0620880854
 20
18.4864143265
 10
-8.1082598455
 20
18.4987728134
 10
-8.1546857572
 20
18.513188773
 10
-8.2012796002
 20
18.5296377912
 10
-8.247975167
 20
18.5480939328
 10
-8.2947271138
 20
18.5685341311
 10
-8.3414797491
 20
18.5909305982
  0
LINE
  5
2E6
100
AcDbEntity
  8
CASTELLO
100
AcDbLine
 62
250
  6
CONTINUOUS
 10
-8.5744582312
 20
35.9288256268
 11
-8.5744582312
 21
36.2687995609
  0
LINE
  5
2E7
100
AcDbEntity
  8
CASTELLO
100
AcDbLine
 62
250
  6
CONTINUOUS
 10
-8.2157595827
 20
35.6507427235
 11
-8.2157595827
 21
34.9619221006
  0
LINE
  5
2E8
100
AcDbEntity
  8
CASTELLO
100
AcDbLine
 62
250
  6
CONTINUOUS
 10
-7.8632376231
 20
35.780322104
 11
-7.8632376231
 21
34.9726899822
  0
LINE
  5
2E9
100
AcDbEntity
  8
CASTELLO
100
AcDbLine
 62
7
  6
CONTINUOUS
 10
-6.9731774403
 20
35.4693709035
 11
-6.9731774403
 21
37.0715215644
  0
LINE
  5
2EA
100
AcDbEntity
  8
CASTELLO
100
AcDbLine
 62
250
  6
CONTINUOUS
 10
-6.4449102686
 20
37.3349603845
 11
-6.4449102686
 21
36.9874288677
  0
LINE
  5
2EB
100
AcDbEntity
  8
CASTELLO
100
AcDbLine
 62
7
  6
CONTINUOUS
 10
-6.3727124116
 20
37.4228330167
 11
-6.3727124116
 21
37.0753014999
  0
LWPOLYLINE
  5
2EC
100
AcDbEntity
  8
CASTELLO
100
AcDbPolyline
 62
250
  6
CONTINUOUS
 90
16
 70
0
 10
-6.3727124116
 20
37.4228330199
 10
-6.3730136821
 20
37.4166981878
 10
-6.3739934007
 20
37.4101952396
 10
-6.3756500897
 20
37.4037266754
 10
-6.3779792412
 20
37.3973101087
 10
-6.3809745215
 20
37.3909629975
 10
-6.3846277803
 20
37.3847026207
 10
-6.3889290784
 20
37.3785460176
 10
-6.393866711
 20
37.3725099471
 10
-6.3994272363
 20
37.3666108447
 10
-6.4055955254
 20
37.3608647632
 10
-6.4123547867
 20
37.3552873476
 10
-6.4196866005
 20
37.3498937953
 10
-6.4275709987
 20
37.3446987909
 10
-6.4359865244
 20
37.3397164674
 10
-6.4449102686
 20
37.3349603845
  0
LWPOLYLINE
  5
2ED
100
AcDbEntity
  8
CASTELLO
100
AcDbPolyline
 62
250
  6
CONTINUOUS
 90
16
 70
0
 10
-6.3727124116
 20
37.0753014987
 10
-6.3730167281
 20
37.0691357547
 10
-6.3739995274
 20
37.062633615
 10
-6.3756591327
 20
37.0561659478
 10
-6.3779910523
 20
37.049750295
 10
-6.380988928
 20
37.0434041744
 10
-6.3846445031
 20
37.0371450099
 10
-6.3889477045
 20
37.0309899277
 10
-6.3938868311
 20
37.0249555623
 10
-6.3994485442
 20
37.0190581769
 10
-6.4056183644
 20
37.0133132456
 10
-6.4123789716
 20
37.0077370047
 10
-6.419709854
 20
37.0023460998
 10
-6.4275898499
 20
36.9971555052
 10
-6.435997745
 20
36.9921786492
 10
-6.4449102686
 20
36.9874288677
  0
LWPOLYLINE
  5
2EE
100
AcDbEntity
  8
CASTELLO
100
AcDbPolyline
 62
250
  6
CONTINUOUS
 90
27
 70
0
 10
4.7898599333
 20
29.2466665446
 10
4.7849814335
 20
29.234710643
 10
4.7796357919
 20
29.2230263689
 10
4.7738372018
 20
29.2116458204
 10
4.7676005166
 20
29.200599307
 10
4.7609429224
 20
29.1899183452
 10
4.7538842733
 20
29.1796352198
 10
4.7464446176
 20
29.1697789888
 10
4.7386435815
 20
29.1603755126
 10
4.7305022621
 20
29.151450255
 10
4.7220427267
 20
29.1430274923
 10
4.7132881899
 20
29.1351304197
 10
4.7042627697
 20
29.1277808224
 10
4.6949912033
 20
29.1209988341
 10
4.685498734
 20
29.1148029097
 10
4.6758112657
 20
29.1092099598
 10
4.6659552411
 20
29.1042352578
 10
4.6559575953
 20
29.0998924055
 10
4.6458456593
 20
29.0961932779
 10
4.6356470613
 20
29.0931479808
 10
4.6253896496
 20
29.090764829
 10
4.6151014415
 20
29.089050332
 10
4.604810523
 20
29.0880091716
 10
4.594545018
 20
29.0876441947
 10
4.5843330121
 20
29.0879563952
 10
4.574202427
 20
29.0889449071
 10
4.5641809012
 20
29.0906070214
  0
LWPOLYLINE
  5
2EF
100
AcDbEntity
  8
CORPO
100
AcDbPolyline
 62
7
  6
CONTINUOUS
 90
76
 70
0
 10
22.0214680396
 20
26.81067715
 10
22.0834814679
 20
26.8622953556
 10
22.1437913609
 20
26.9129259962
 10
22.2023977186
 20
26.9625690716
 10
22.2592613077
 20
27.0111936306
 10
22.3144213614
 20
27.0588306245
 10
22.3679955798
 20
27.1055729074
 10
22.4199908035
 20
27.151423423
 10
22.4704001918
 20
27.1963792275
 10
22.5193209224
 20
27.2405243434
 10
22.5667578589
 20
27.283859302
 10
22.6127061377
 20
27.3263835721
 10
22.6572483454
 20
27.3681795828
 10
22.7003902347
 20
27.4092473802
 10
22.742126053
 20
27.4495869182
 10
22.7825211287
 20
27.4892804884
 10
22.8215829497
 20
27.5283276118
 10
22.8593040281
 20
27.5667287674
 10
22.8957272291
 20
27.6045676836
 10
22.9308632539
 20
27.6418432773
 10
22.9647014012
 20
27.6785566316
 10
22.9972524315
 20
27.7147947236
 10
23.0285345099
 20
27.7505577538
 10
23.0585294713
 20
27.7858455218
 10
23.0871935813
 20
27.8207444035
 10
23.1145575919
 20
27.8552569844
 10
23.1405907512
 20
27.8893806791
 10
23.1651570684
 20
27.9231941067
 10
23.1883255212
 20
27.9567424723
 10
23.2100271319
 20
27.989980571
 10
23.2299189765
 20
28.0228514073
 10
23.2480772002
 20
28.0554720478
 10
23.2644256579
 20
28.0877254259
 10
23.2783929895
 20
28.1192033476
 10
23.289932436
 20
28.1499192052
 10
23.2990907565
 20
28.1798596063
 10
23.3054368685
 20
28.2085761788
 10
23.3088615242
 20
28.2360285552
 10
23.3094739714
 20
28.262257103
 10
23.3071708717
 20
28.2869345535
 10
23.3017867453
 20
28.3100231717
 10
23.293487072
 20
28.3315606926
 10
23.2826649534
 20
28.351333052
 10
23.2692441767
 20
28.3692112581
 10
23.2533009546
 20
28.3853243027
 10
23.2354570263
 20
28.3998450973
 10
23.2157925532
 20
28.4127231586
 10
23.1942273739
 20
28.4240089698
 10
23.1711427443
 20
28.4340268922
 10
23.1466129661
 20
28.4428053527
 10
23.1205637376
 20
28.4503159244
 10
23.0931534089
 20
28.4567976881
 10
23.0644173039
 20
28.4622822608
 10
23.0343200986
 20
28.4667380255
 10
23.002914172
 20
28.4703092128
 10
22.9702189051
 20
28.4730162042
 10
22.9362149167
 20
28.4748386181
 10
22.9008964421
 20
28.4758595402
 10
22.8642757009
 20
28.4760921328
 10
22.8263404735
 20
28.4755232337
 10
22.7870483359
 20
28.4741964415
 10
22.74640484
 20
28.4721203442
 10
22.704404434
 20
28.4692863537
 10
22.6609880384
 20
28.4657123047
 10
22.6161597908
 20
28.4614039158
 10
22.5699155536
 20
28.4563554683
 10
22.5221838339
 20
28.4505676405
 10
22.4729752413
 20
28.4440458465
 10
22.4222791662
 20
28.4367846722
 10
22.3699922873
 20
28.4287685538
 10
22.3161214982
 20
28.4200025344
 10
22.2606599054
 20
28.4104815709
 10
22.203483506
 20
28.4001749694
 10
22.1445509659
 20
28.3890724988
 10
22.0839036193
 20
28.3771843902
 10
22.0215414662
 20
28.3645106437
  0
LWPOLYLINE
  5
2F0
100
AcDbEntity
  8
CASTELLO
100
AcDbPolyline
 62
250
  6
CONTINUOUS
 90
5
 70
0
 10
6.8534028258
 20
-10.6828517613
 10
6.8518291263
 20
-10.6820833462
 10
6.8448014265
 20
-10.6790771407
 10
6.8375170449
 20
-10.6766365178
 10
6.8299941005
 20
-10.6747675479
  0
LINE
  5
2F1
100
AcDbEntity
  8
CASTELLO
100
AcDbLine
 62
250
  6
CONTINUOUS
 10
4.5257263213
 20
-11.8207306971
 11
3.5148916934
 21
-11.3153133832
  0
LINE
  5
2F2
100
AcDbEntity
  8
CASTELLO
100
AcDbLine
 62
7
  6
CONTINUOUS
 10
5.1485585817
 20
-11.0759283938
 11
4.6632555535
 21
-10.8332768797
  0
LINE
  5
2F3
100
AcDbEntity
  8
CASTELLO
100
AcDbLine
 62
250
  6
CONTINUOUS
 10
6.3911407241
 20
-10.4553408597
 11
6.8299941005
 21
-10.6747675479
  0
LINE
  5
2F4
100
AcDbEntity
  8
CASTELLO
100
AcDbLine
 62
7
  6
CONTINUOUS
 10
6.3911407241
 20
-10.4517207101
 11
6.8534091517
 21
-10.6828549239
  0
LWPOLYLINE
  5
2F5
100
AcDbEntity
  8
CASTELLO
100
AcDbPolyline
 62
7
  6
CONTINUOUS
 90
27
 70
0
 10
-4.7487710295
 20
34.9555520857
 10
-4.7484950326
 20
34.9447882027
 10
-4.7477038485
 20
34.9329283526
 10
-4.7463920781
 20
34.9207155361
 10
-4.7445393203
 20
34.908209731
 10
-4.7422164906
 20
34.8954327832
 10
-4.7394219543
 20
34.882427827
 10
-4.7361442563
 20
34.8692408484
 10
-4.7324365065
 20
34.8558833358
 10
-4.7282984914
 20
34.8423877721
 10
-4.7237242876
 20
34.8287903213
 10
-4.7187547955
 20
34.8150991334
 10
-4.7133903275
 20
34.8013399623
 10
-4.7076282828
 20
34.787541958
 10
-4.7015017287
 20
34.7737131779
 10
-4.6950111836
 20
34.7598748579
 10
-4.6881561379
 20
34.7460513238
 10
-4.6809651264
 20
34.7322523638
 10
-4.6734388281
 20
34.7184960776
 10
-4.6655781887
 20
34.7048034502
 10
-4.6574097492
 20
34.6911870856
 10
-4.648934221
 20
34.6776624281
 10
-4.6401539498
 20
34.6642484487
 10
-4.6310962649
 20
34.6509622977
 10
-4.6217714232
 20
34.6378200557
 10
-4.6121738259
 20
34.6248364055
 10
-4.6023068266
 20
34.612025658
  0
LINE
  5
2F6
100
AcDbEntity
  8
CASTELLO
100
AcDbLine
 62
7
  6
CONTINUOUS
 10
-4.748753436
 20
34.955095489
 11
-4.748753436
 21
33.7149064563
  0
LINE
  5
2F7
100
AcDbEntity
  8
CASTELLO
100
AcDbLine
 62
250
  6
CONTINUOUS
 10
-4.6023068266
 20
34.612025658
 11
-4.6023068266
 21
33.5314423472
  0
LWPOLYLINE
  5
2F8
100
AcDbEntity
  8
POMELLO
100
AcDbPolyline
 62
250
  6
CONTINUOUS
 90
73
 70
0
 10
-3.5633752331
 20
-23.6122231147
 10
-3.5654997454
 20
-23.8086991367
 10
-3.572206753
 20
-24.0149449505
 10
-3.58400754
 20
-24.2310349366
 10
-3.6013690963
 20
-24.4563533047
 10
-3.6248556341
 20
-24.691558688
 10
-3.6552846952
 20
-24.9386341329
 10
-3.6934056201
 20
-25.1978210627
 10
-3.7399098882
 20
-25.4687631557
 10
-3.7957855167
 20
-25.752528551
 10
-3.8618283264
 20
-26.0487263265
 10
-3.9389143514
 20
-26.357230561
 10
-4.0284017651
 20
-26.679403429
 10
-4.1314113505
 20
-27.0151353871
 10
-4.2488170429
 20
-27.3633653812
 10
-4.3817860367
 20
-27.7238265598
 10
-4.5329420016
 20
-28.0994641104
 10
-4.7018140803
 20
-28.485101934
 10
-4.883844448
 20
-28.8683718123
 10
-5.0773358499
 20
-29.2454865523
 10
-5.2832950456
 20
-29.6182071636
 10
-5.4998644123
 20
-29.9829672467
 10
-5.7258298919
 20
-30.3379008836
 10
-5.961177369
 20
-30.6831563265
 10
-6.2056232493
 20
-31.0183369411
 10
-6.4587553493
 20
-31.3428260073
 10
-6.7197695713
 20
-31.6555428989
 10
-6.9877781339
 20
-31.9554272913
 10
-7.2619481925
 20
-32.2415946275
 10
-7.5417263834
 20
-32.5135135356
 10
-7.8266150428
 20
-32.7707079391
 10
-8.1160179776
 20
-33.0126144155
 10
-8.4091015805
 20
-33.2385113457
 10
-8.7050018579
 20
-33.4477317912
 10
-9.0029064633
 20
-33.6397191352
 10
-9.3021354946
 20
-33.8140528424
 10
-9.6020134341
 20
-33.9703436735
 10
-9.9018087479
 20
-34.1082060116
 10
-10.2007504823
 20
-34.227280972
 10
-10.4981046775
 20
-34.3272722156
 10
-10.7931540355
 20
-34.4079303778
 10
-11.085128898
 20
-34.4690368329
 10
-11.3732272902
 20
-34.5104250016
 10
-11.6566566479
 20
-34.5319965689
 10
-11.934783397
 20
-34.5337190979
 10
-12.2070556531
 20
-34.5155819108
 10
-12.4728774222
 20
-34.477590354
 10
-12.7314748663
 20
-34.4198198073
 10
-12.9820555527
 20
-34.3424399882
 10
-13.2238674354
 20
-34.2457112375
 10
-13.4564441657
 20
-34.1298491777
 10
-13.6794374185
 20
-33.9950009075
 10
-13.893171724
 20
-33.8407392578
 10
-14.0960726688
 20
-33.6679577696
 10
-14.2853559119
 20
-33.4794539167
 10
-14.4617547128
 20
-33.2752696144
 10
-14.6243148172
 20
-33.0573247344
 10
-14.7691707712
 20
-32.8331579462
 10
-14.8959324499
 20
-32.6076864154
 10
-15.0073624274
 20
-32.3804683432
 10
-15.1051594463
 20
-32.1518376506
 10
-15.1902966863
 20
-31.923191594
 10
-15.2636621943
 20
-31.6960423908
 10
-15.3265230252
 20
-31.4703979164
 10
-15.3797061597
 20
-31.2472268652
 10
-15.4239794351
 20
-31.0276114281
 10
-15.4602869055
 20
-30.8114036877
 10
-15.4892833146
 20
-30.5995860895
 10
-15.5116762364
 20
-30.3926304034
 10
-15.5282401247
 20
-30.1893617388
 10
-15.5395067907
 20
-29.9896628935
 10
-15.5459150259
 20
-29.7945753327
 10
-15.5479463951
 20
-29.6045086957
  0
LWPOLYLINE
  5
2F9
100
AcDbEntity
  8
POMELLO
100
AcDbPolyline
 62
250
  6
CONTINUOUS
 90
73
 70
0
 10
-3.5288393475
 20
-23.5933929516
 10
-3.5309766755
 20
-23.7910525562
 10
-3.5377240937
 20
-23.9985408116
 10
-3.5495959661
 20
-24.2159325463
 10
-3.5670620891
 20
-24.4426082637
 10
-3.5906900804
 20
-24.6792305614
 10
-3.6213024277
 20
-24.9277944225
 10
-3.6596529973
 20
-25.1885427192
 10
-3.7064374224
 20
-25.4611169886
 10
-3.7626496583
 20
-25.7465918106
 10
-3.8290903161
 20
-26.0445739103
 10
-3.9066407108
 20
-26.354936606
 10
-3.9966671961
 20
-26.6790502788
 10
-4.1002972987
 20
-27.0168047298
 10
-4.2184102264
 20
-27.3671325086
 10
-4.3521802276
 20
-27.7297651456
 10
-4.5042467942
 20
-28.1076655617
 10
-4.6741362151
 20
-28.4956264848
 10
-4.8572631807
 20
-28.8812052034
 10
-5.0519201977
 20
-29.2605917168
 10
-5.2591201046
 20
-29.6355576365
 10
-5.476994101
 20
-30.0025150721
 10
-5.70432082
 20
-30.3595868627
 10
-5.9410860563
 20
-30.706922156
 10
-6.1870045057
 20
-31.0441219292
 10
-6.4416615012
 20
-31.3705657471
 10
-6.7042481016
 20
-31.6851664735
 10
-6.9738711763
 20
-31.986857397
 10
-7.2496928631
 20
-32.2747486321
 10
-7.5311564652
 20
-32.5483056057
 10
-7.8177613219
 20
-32.8070493729
 10
-8.1089076489
 20
-33.0504131166
 10
-8.4037568167
 20
-33.2776708712
 10
-8.7014396266
 20
-33.4881516804
 10
-9.0011388383
 20
-33.6812955745
 10
-9.3021704538
 20
-33.8566794849
 10
-9.6038548866
 20
-34.0139118273
 10
-9.9054561957
 20
-34.1526046617
 10
-10.2061987831
 20
-34.2723969416
 10
-10.5053442675
 20
-34.3729905427
 10
-10.8021710295
 20
-34.4541345985
 10
-11.0959047745
 20
-34.515609166
 10
-11.3857386972
 20
-34.5572466621
 10
-11.6708754596
 20
-34.5789481792
 10
-11.9506776701
 20
-34.5806810854
 10
-12.2245901185
 20
-34.5624346393
 10
-12.4920132191
 20
-34.5242142203
 10
-12.7521684734
 20
-34.4660956614
 10
-13.0042586779
 20
-34.3882497012
 10
-13.2475272575
 20
-34.2909382479
 10
-13.4815050527
 20
-34.1743782238
 10
-13.7058416373
 20
-34.0387176151
 10
-13.9208634975
 20
-33.8835266792
 10
-14.1249867344
 20
-33.7097043402
 10
-14.3154102281
 20
-33.5200649275
 10
-14.4928716454
 20
-33.3146506144
 10
-14.6564109934
 20
-33.0953928327
 10
-14.8021395566
 20
-32.8698756516
 10
-14.9296648758
 20
-32.6430458495
 10
-15.0417661511
 20
-32.4144589752
 10
-15.1401523343
 20
-32.1844509749
 10
-15.2258024577
 20
-31.9544275276
 10
-15.2996099279
 20
-31.7259099548
 10
-15.3628494374
 20
-31.4989061769
 10
-15.4163529467
 20
-31.2743907249
 10
-15.4608929206
 20
-31.0534523078
 10
-15.4974191117
 20
-30.8359421105
 10
-15.5265902176
 20
-30.6228484915
 10
-15.549118065
 20
-30.4146460685
 10
-15.565781755
 20
-30.2101528831
 10
-15.5771162963
 20
-30.0092510307
 10
-15.5835631298
 20
-29.8129882469
 10
-15.5856067212
 20
-29.6217766385
  0
LWPOLYLINE
  5
2FA
100
AcDbEntity
  8
CASTELLO
100
AcDbPolyline
 62
7
  6
CONTINUOUS
 90
85
 70
0
 10
-3.680694222
 20
18.6424660825
 10
-3.6795492282
 20
18.7342771447
 10
-3.6796776377
 20
18.8260735222
 10
-3.6810797824
 20
18.9178550555
 10
-3.6837558436
 20
19.0093981523
 10
-3.6877063694
 20
19.1009260557
 10
-3.6929319126
 20
19.1931090134
 10
-3.6993921667
 20
19.2859498678
 10
-3.7071274274
 20
19.3794457744
 10
-3.7162585323
 20
19.4742587408
 10
-3.7267693465
 20
19.5705182869
 10
-3.7386753657
 20
19.6680951839
 10
-3.7521444833
 20
19.7672634981
 10
-3.7672159711
 20
19.8682760024
 10
-3.783849679
 20
19.9708803255
 10
-3.8020945274
 20
20.0745927429
 10
-3.8219758396
 20
20.1794358188
 10
-3.843467995
 20
20.285387119
 10
-3.866544032
 20
20.3918951713
 10
-3.8912225912
 20
20.4989317599
 10
-3.9174853021
 20
20.6065249666
 10
-3.945250181
 20
20.7142075366
 10
-3.974549164
 20
20.8220103754
 10
-4.0053509933
 20
20.9299022546
 10
-4.0374793431
 20
21.0373225107
 10
-4.0709706941
 20
21.1442997321
 10
-4.105789688
 20
21.2508048031
 10
-4.1416527066
 20
21.3561902888
 10
-4.17857012
 20
21.4604024848
 10
-4.2165331209
 20
21.5634943663
 10
-4.2552296949
 20
21.6649783474
 10
-4.2945435843
 20
21.764559451
 10
-4.3345928484
 20
21.8625318168
 10
-4.3754169077
 20
21.9592915534
 10
-4.4169286869
 20
22.0547132069
 10
-4.4592165911
 20
22.1489216136
 10
-4.5025828381
 20
22.2426885121
 10
-4.5471184573
 20
22.3362589909
 10
-4.5927331307
 20
22.4293876303
 10
-4.6394567941
 20
22.5221105272
 10
-4.6873453665
 20
22.6145373968
 10
-4.7363436259
 20
22.7065582002
 10
-4.7863148624
 20
22.7978793733
 10
-4.8372729237
 20
22.8884937464
 10
-4.8892048077
 20
22.978408098
 10
-4.9419336639
 20
23.067349725
 10
-4.9953951489
 20
23.1552110159
 10
-5.0496545369
 20
23.2420991527
 10
-5.1047294387
 20
23.328063607
 10
-5.1604506135
 20
23.412887693
 10
-5.2169881563
 20
23.496787703
 10
-5.274868525
 20
23.5804626479
 10
-5.3341592713
 20
23.6640689836
 10
-5.3947933447
 20
23.7474500231
 10
-5.4570951432
 20
23.8308351355
 10
-5.5212661026
 20
23.9144942317
 10
-5.5871052197
 20
23.9981572016
 10
-5.654333329
 20
24.0812433389
 10
-5.7229967197
 20
24.1637608411
 10
-5.7930497717
 20
24.2457012038
 10
-5.8640756624
 20
24.326458574
 10
-5.9360682402
 20
24.4059806361
 10
-6.0090344587
 20
24.4843193385
 10
-6.0825772857
 20
24.5610251635
 10
-6.1566843952
 20
24.6360475833
 10
-6.2313689205
 20
24.7094367566
 10
-6.3062720681
 20
24.7808941732
 10
-6.3814252281
 20
24.8504108377
 10
-6.4567977331
 20
24.9179954156
 10
-6.5319377002
 20
24.9833758889
 10
-6.6068324698
 20
25.0465099285
 10
-6.6814953019
 20
25.1074395898
 10
-6.7555131573
 20
25.1660194478
 10
-6.8286868704
 20
25.2220913117
 10
-6.9012160557
 20
25.2758131678
 10
-6.9732857809
 20
25.3275138856
 10
-7.0447823476
 20
25.3771561815
 10
-7.115819736
 20
25.4247772108
 10
-7.1869244718
 20
25.4708175289
 10
-7.2580703679
 20
25.5153182082
 10
-7.3292837769
 20
25.5582381009
 10
-7.4011700015
 20
25.599894447
 10
-7.4739308369
 20
25.6403929806
 10
-7.5473645717
 20
25.6796279293
 10
-7.6214712274
 20
25.7175992834
  0
LWPOLYLINE
  5
2FB
100
AcDbEntity
  8
CORPO
100
AcDbPolyline
 62
7
  6
CONTINUOUS
 90
9
 70
0
 10
2.2263145212
 20
33.472705175
 10
2.2247315271
 20
33.4648880974
 10
2.2213091668
 20
33.4546164902
 10
2.2155454282
 20
33.4420601411
 10
2.2072266726
 20
33.4278187216
 10
2.1965480585
 20
33.4127594681
 10
2.1837335042
 20
33.3973900949
 10
2.1688902204
 20
33.3819395919
 10
2.1624532834
 20
33.3758232485
  0
LWPOLYLINE
  5
2FC
100
AcDbEntity
  8
CORPO
100
AcDbPolyline
 62
250
  6
CONTINUOUS
 90
28
 70
0
 10
21.9138087495
 20
26.6816192785
 10
21.9300872254
 20
26.6960851673
 10
21.946139852
 20
26.708239511
 10
21.9619334264
 20
26.7180854997
 10
21.9774645302
 20
26.7256730197
 10
21.9926649496
 20
26.730957538
 10
22.0074129489
 20
26.7337958244
 10
22.0217065065
 20
26.7340138815
 10
22.0354925059
 20
26.7317795685
 10
22.0486031857
 20
26.7274512793
 10
22.0609864009
 20
26.7209540663
 10
22.0726894771
 20
26.7123399403
 10
22.0837146213
 20
26.7021515001
 10
22.0940312038
 20
26.6904471066
 10
22.1036654618
 20
26.6771469126
 10
22.1126878756
 20
26.6625899722
 10
22.121077293
 20
26.6468238687
 10
22.128816097
 20
26.6297860279
 10
22.1359445781
 20
26.6116560452
 10
22.1424296774
 20
26.5924380012
 10
22.148225763
 20
26.5721147564
 10
22.1533207909
 20
26.550837107
 10
22.157660774
 20
26.5286029776
 10
22.1611910714
 20
26.5053967929
 10
22.1638684609
 20
26.4813492838
 10
22.1656196842
 20
26.4564763922
 10
22.1663769574
 20
26.4307350652
 10
22.1664025654
 20
26.4256744428
  0
LWPOLYLINE
  5
2FD
100
AcDbEntity
  8
CASTELLO
100
AcDbPolyline
 62
250
  6
CONTINUOUS
 90
13
 70
0
 10
-7.824841896
 20
15.6566101616
 10
-7.8885873807
 20
15.8849145632
 10
-7.9486274143
 20
16.1164284458
 10
-8.0049460986
 20
16.3510893519
 10
-8.057535948
 20
16.5888745114
 10
-8.1063713223
 20
16.8296823846
 10
-8.1514147103
 20
17.0733278121
 10
-8.1926482971
 20
17.3196963724
 10
-8.2300707464
 20
17.5687672318
 10
-8.2636741025
 20
17.8204919545
 10
-8.2934482987
 20
18.07481019
 10
-8.3193852503
 20
18.3316466265
 10
-8.3414797504
 20
18.5909305988
  0
LWPOLYLINE
  5
2FE
100
AcDbEntity
  8
CASTELLO
100
AcDbPolyline
 62
250
  6
CONTINUOUS
 90
43
 70
0
 10
0.5550475412
 20
-11.5548514907
 10
0.5565371694
 20
-11.5845802301
 10
0.5589067164
 20
-11.6137330752
 10
0.5621561821
 20
-11.642310026
 10
0.5662917739
 20
-11.6703465602
 10
0.5713072844
 20
-11.6978072001
 10
0.5771840916
 20
-11.7245855127
 10
0.583925407
 20
-11.7506776206
 10
0.5915280191
 20
-11.7760874012
 10
0.5999636718
 20
-11.8007200544
 10
0.6092353948
 20
-11.8245723972
 10
0.6193401583
 20
-11.8476476126
 10
0.6302406164
 20
-11.8698604492
 10
0.6419397162
 20
-11.8912077747
 10
0.6544345106
 20
-11.9116927215
 10
0.6676788118
 20
-11.931239435
 10
0.681675454
 20
-11.9498444971
 10
0.6964216031
 20
-11.9675113259
 10
0.7118625682
 20
-11.9841743218
 10
0.7280008834
 20
-11.9998297042
 10
0.7448340145
 20
-12.0144812538
 10
0.7622996689
 20
-12.0280747123
 10
0.780400194
 20
-12.0406061696
 10
0.7991332422
 20
-12.0520795359
 10
0.8184294787
 20
-12.0624522838
 10
0.8382910684
 20
-12.0717203502
 10
0.8587158463
 20
-12.0798877981
 10
0.879627982
 20
-12.0869242894
 10
0.9010292046
 20
-12.0928255906
 10
0.922917785
 20
-12.097595935
 10
0.9452127052
 20
-12.1012176846
 10
0.9679154271
 20
-12.1036866035
 10
0.9910244888
 20
-12.1050069276
 10
1.0144544871
 20
-12.1051737256
 10
1.0382068846
 20
-12.1041826648
 10
1.0622802187
 20
-12.102038078
 10
1.0865846981
 20
-12.0987480323
 10
1.111121905
 20
-12.0943078874
 10
1.1358902572
 20
-12.0887222836
 10
1.1607952167
 20
-12.08201321
 10
1.1858052707
 20
-12.0741879962
 10
1.210951932
 20
-12.0652393124
 10
1.2362352005
 20
-12.0551671588
  0
LWPOLYLINE
  5
2FF
100
AcDbEntity
  8
CASTELLO
100
AcDbPolyline
 62
250
  6
CONTINUOUS
 90
25
 70
0
 10
-0.1455359327
 20
-11.5694513049
 10
-0.143320854
 20
-11.6139809
 10
-0.1397824562
 20
-11.6577403977
 10
-0.1349251533
 20
-11.7006757446
 10
-0.1287549598
 20
-11.742733402
 10
-0.1212795539
 20
-11.7838619978
 10
-0.1125080917
 20
-11.8240122583
 10
-0.1024509358
 20
-11.8631354004
 10
-0.0911205449
 20
-11.9011821209
 10
-0.0785315082
 20
-11.9381042404
 10
-0.0646993482
 20
-11.9738558273
 10
-0.0496409174
 20
-12.0083931682
 10
-0.0333751372
 20
-12.0416736434
 10
-0.015921801
 20
-12.0736562693
 10
0.0026976837
 20
-12.1043015071
 10
0.0224598423
 20
-12.1335712738
 10
0.0433406567
 20
-12.1614295912
 10
0.0653145022
 20
-12.1878419858
 10
0.0883534333
 20
-12.2127752739
 10
0.112429245
 20
-12.2361987242
 10
0.1375125244
 20
-12.2580835893
 10
0.1635715996
 20
-12.2784024891
 10
0.1905746559
 20
-12.2971304812
 10
0.218488638
 20
-12.3142445533
 10
0.2478413008
 20
-12.3300051689
  0
LWPOLYLINE
  5
300
100
AcDbEntity
  8
POMELLO
100
AcDbPolyline
 62
7
  6
CONTINUOUS
 90
22
 70
0
 10
-0.9409727181
 20
-21.4893571747
 10
-0.9497353372
 20
-20.9937069349
 10
-0.9760266987
 20
-20.5071299418
 10
-1.0198343512
 20
-20.0304535495
 10
-1.081141491
 20
-19.5643642033
 10
-1.159876844
 20
-19.1098032279
 10
-1.2558682547
 20
-18.6679184495
 10
-1.3689809738
 20
-18.2393860242
 10
-1.4990293393
 20
-17.8249791615
 10
-1.6456292587
 20
-17.4258648083
 10
-1.8085122687
 20
-17.0426366046
 10
-1.9873648671
 20
-16.6759220717
 10
-2.1815721404
 20
-16.3267832606
 10
-2.3906506344
 20
-15.9957999575
 10
-2.6142066145
 20
-15.6833333304
 10
-2.851619504
 20
-15.3899922898
 10
-3.1022254335
 20
-15.1162960673
 10
-3.3655799648
 20
-14.8624451093
 10
-3.6413404864
 20
-14.6285639751
 10
-3.9289973983
 20
-14.4149379027
 10
-4.227848778
 20
-14.2219413533
 10
-4.5372448848
 20
-14.0498347355
  0
LWPOLYLINE
  5
301
100
AcDbEntity
  8
POMELLO
100
AcDbPolyline
 62
250
  6
CONTINUOUS
 90
70
 70
0
 10
-1.0070954108
 20
-21.613605396
 10
-1.0166598456
 20
-22.1339759171
 10
-1.0453349753
 20
-22.6628479035
 10
-1.093062743
 20
-23.1991302552
 10
-1.1597245816
 20
-23.7415641188
 10
-1.2451946677
 20
-24.2891796278
 10
-1.3493925606
 20
-24.8413111715
 10
-1.4722089726
 20
-25.3970733511
 10
-1.6133946845
 20
-25.955076709
 10
-1.772620717
 20
-26.5138915895
 10
-1.9495975989
 20
-27.0724226192
 10
-2.1439588176
 20
-27.6294419972
 10
-2.3551337503
 20
-28.1833233734
 10
-2.5825096268
 20
-28.7325723354
 10
-2.8257206213
 20
-29.2764096552
 10
-3.0845243513
 20
-29.8142866837
 10
-3.3586283349
 20
-30.3454832736
 10
-3.6472937736
 20
-30.8684614522
 10
-3.9495566229
 20
-31.3814788819
 10
-4.2644754307
 20
-31.8830477598
 10
-4.5916341585
 20
-32.3726108621
 10
-4.9308181866
 20
-32.8498436784
 10
-5.2816997036
 20
-33.3141764693
 10
-5.6432444336
 20
-33.7641353523
 10
-6.0141439055
 20
-34.1980941108
 10
-6.3931977242
 20
-34.6147552132
 10
-6.7799879669
 20
-35.0137636175
 10
-7.1743493723
 20
-35.3949469954
 10
-7.575934039
 20
-35.7578629112
 10
-7.9834837222
 20
-36.1012696889
 10
-8.3954523152
 20
-36.4238655151
 10
-8.8104873752
 20
-36.7246966672
 10
-9.2281944486
 20
-37.0035814343
 10
-9.6484460401
 20
-37.2604339014
 10
-10.0708753179
 20
-37.4949245642
 10
-10.4941089942
 20
-37.7061859989
 10
-10.916512698
 20
-37.8934023193
 10
-11.3367113293
 20
-38.0560691986
 10
-11.7543402286
 20
-38.1941508039
 10
-12.1692778316
 20
-38.3076070711
 10
-12.5811353204
 20
-38.3962257573
 10
-12.9885542385
 20
-38.4596074945
 10
-13.3899772236
 20
-38.4975088996
 10
-13.7841374984
 20
-38.5099168131
 10
-14.1706973014
 20
-38.4969286502
 10
-14.5495077708
 20
-38.4585505571
 10
-14.9201735872
 20
-38.3947132568
 10
-15.2814695686
 20
-38.3055156832
 10
-15.6320359031
 20
-38.1912949408
 10
-15.9709326587
 20
-38.052461186
 10
-16.2977406404
 20
-37.8892933411
 10
-16.6119553905
 20
-37.702100847
 10
-16.9129346808
 20
-37.4913057334
 10
-17.2000808726
 20
-37.2573676802
 10
-17.4729601203
 20
-37.0006542216
 10
-17.7310604453
 20
-36.7216202369
 10
-17.9737778372
 20
-36.4208904668
 10
-18.2005705331
 20
-36.0991296042
 10
-18.4109733948
 20
-35.756999762
 10
-18.6045492226
 20
-35.3952139808
 10
-18.7808661713
 20
-35.0145974224
 10
-18.9395542192
 20
-34.6159943295
 10
-19.0803179383
 20
-34.2001982372
 10
-19.2028947517
 20
-33.7680168479
 10
-19.3070384227
 20
-33.3203350271
 10
-19.3925347194
 20
-32.8580905099
 10
-19.459214803
 20
-32.3822077311
 10
-19.5069422304
 20
-31.8936580375
 10
-19.5356174652
 20
-31.3934607666
 10
-19.5451818324
 20
-30.8826486068
  0
LWPOLYLINE
  5
302
100
AcDbEntity
  8
CASTELLO
100
AcDbPolyline
 62
250
  6
CONTINUOUS
 90
22
 70
0
 10
-0.1455359327
 20
24.0457885627
 10
-0.2007345831
 20
22.3239958225
 10
-0.2504157606
 20
20.604619948
 10
-0.2945787159
 20
18.887687336
 10
-0.3332227918
 20
17.1732243533
 10
-0.3663473968
 20
15.461257312
 10
-0.3939520055
 20
13.7518124684
 10
-0.4160361972
 20
12.0449160599
 10
-0.4325996433
 20
10.3405942927
 10
-0.4436420809
 20
8.6388733166
 10
-0.4491633391
 20
6.9397792535
 10
-0.4491633391
 20
5.2433381824
 10
-0.4436420809
 20
3.5495761274
 10
-0.4325996433
 20
1.8585190798
 10
-0.4160361972
 20
0.1701929993
 10
-0.3939520055
 20
-1.5153762007
 10
-0.3663473968
 20
-3.1981626517
 10
-0.3332227918
 20
-4.8781405282
 10
-0.2945787159
 20
-6.5552840469
 10
-0.2504157606
 20
-8.2295674699
 10
-0.2007345831
 20
-9.9009651051
 10
-0.1455359327
 20
-11.5694513049
  0
LWPOLYLINE
  5
303
100
AcDbEntity
  8
CASTELLO
100
AcDbPolyline
 62
250
  6
CONTINUOUS
 90
22
 70
0
 10
0.5550475412
 20
24.024773137
 10
0.4999020421
 20
22.3046590809
 10
0.4502699487
 20
20.5870120003
 10
0.4061512608
 20
18.8718318952
 10
0.3675454698
 20
17.159092485
 10
0.3344530844
 20
15.4488200502
 10
0.3068756311
 20
13.7410934328
 10
0.2848133647
 20
12.0359127823
 10
0.2682660305
 20
10.3332779492
 10
0.2572343898
 20
8.6332673269
 10
0.2517186968
 20
6.9358810395
 10
0.2517186974
 20
5.2411189629
 10
0.2572343917
 20
3.5490591189
 10
0.2682660336
 20
1.859701629
 10
0.2848133691
 20
0.1730463717
 10
0.3068756367
 20
-1.510828995
 10
0.3344530918
 20
-3.1919243883
 10
0.3675454789
 20
-4.870239891
 10
0.4061512701
 20
-6.5456980936
 10
0.4502699563
 20
-8.2182731928
 10
0.4999020466
 20
-9.8879909918
 10
0.5550475412
 20
-11.5548514907
  0
LINE
  5
304
100
AcDbEntity
  8
CORPO
100
AcDbLine
 62
7
  6
CONTINUOUS
 10
2.2266571073
 20
33.4775755277
 11
2.2263145212
 21
33.472705175
  0
LWPOLYLINE
  5
305
100
AcDbEntity
  8
CASTELLO
100
AcDbPolyline
 62
250
  6
CONTINUOUS
 90
31
 70
0
 10
4.7898599333
 20
-12.0529375948
 10
4.7849759161
 20
-12.0453164976
 10
4.7796253127
 20
-12.0374734419
 10
4.7738227343
 20
-12.0294298453
 10
4.7675840267
 20
-12.0212076733
 10
4.7609262264
 20
-12.0128293788
 10
4.7538675144
 20
-12.0043178412
 10
4.7464271667
 20
-11.9956963038
 10
4.7386255012
 20
-11.9869883102
 10
4.7304838227
 20
-11.97821764
 10
4.7220243645
 20
-11.9694082442
 10
4.7132702274
 20
-11.9605841793
 10
4.7042453173
 20
-11.9517695421
 10
4.6949742792
 20
-11.9429884034
 10
4.6854824305
 20
-11.9342647427
 10
4.6757956913
 20
-11.9256223825
 10
4.6659405142
 20
-11.9170849233
 10
4.6559438116
 20
-11.9086756791
 10
4.6458328823
 20
-11.9004176138
 10
4.6356353373
 20
-11.8923332784
 10
4.6253790238
 20
-11.8844447495
 10
4.6150919497
 20
-11.8767735691
 10
4.6048022068
 20
-11.8693406856
 10
4.5945378943
 20
-11.8621663966
 10
4.5843270419
 20
-11.8552702935
 10
4.5741975333
 20
-11.8486712083
 10
4.56417703
 20
-11.8423871616
 10
4.554292896
 20
-11.8364353138
 10
4.5445721227
 20
-11.8308319182
 10
4.5350412555
 20
-11.8255922765
 10
4.5257263213
 20
-11.8207306971
  0
LWPOLYLINE
  5
306
100
AcDbEntity
  8
CASTELLO
100
AcDbPolyline
 62
7
  6
CONTINUOUS
 90
42
 70
0
 10
-10.6230993943
 20
18.4600036746
 10
-10.5813655183
 20
18.3891556259
 10
-10.5278017066
 20
18.3005451058
 10
-10.473506635
 20
18.2130067205
 10
-10.4184139552
 20
18.1264324842
 10
-10.3624995412
 20
18.0407643552
 10
-10.3059327582
 20
17.9562135626
 10
-10.2485450912
 20
17.8725684708
 10
-10.1898054355
 20
17.7891368173
 10
-10.1296427525
 20
17.705760255
 10
-10.0681285802
 20
17.6225968925
 10
-10.0049455263
 20
17.5394292239
 10
-9.9398907003
 20
17.4559900142
 10
-9.8731674282
 20
17.3725462901
 10
-9.8050677412
 20
17.2896818907
 10
-9.7355476693
 20
17.2073903156
 10
-9.6646518573
 20
17.1256777414
 10
-9.5928054654
 20
17.0451469222
 10
-9.5200165883
 20
16.965849857
 10
-9.4462779383
 20
16.8877341588
 10
-9.3719917353
 20
16.8112459381
 10
-9.2971723243
 20
16.7364353267
 10
-9.2218061715
 20
16.6632518021
 10
-9.1462537265
 20
16.5919904701
 10
-9.0704847674
 20
16.5226596474
 10
-8.9945302418
 20
16.4552506674
 10
-8.9188423493
 20
16.3900331621
 10
-8.8434353422
 20
16.3270489547
 10
-8.7682955705
 20
16.2662559313
 10
-8.6938333455
 20
16.2077978362
 10
-8.6202491264
 20
16.1518317883
 10
-8.5473429041
 20
16.0982004514
 10
-8.4749242236
 20
16.046575917
 10
-8.40310584
 20
15.9969948637
 10
-8.3317752808
 20
15.9494204766
 10
-8.2604041903
 20
15.9034146355
 10
-8.1890176667
 20
15.8589365555
 10
-8.1175907779
 20
15.8160269413
 10
-8.0455200904
 20
15.7743699242
 10
-7.9726044875
 20
15.733860201
 10
-7.89904517
 20
15.6946030343
 10
-7.8248421596
 20
15.6565984135
  0
LWPOLYLINE
  5
307
100
AcDbEntity
  8
CASTELLO
100
AcDbPolyline
 62
250
  6
CONTINUOUS
 90
34
 70
0
 10
1.2362352005
 20
25.1829040813
 10
1.2349472424
 20
25.2032387692
 10
1.2328763014
 20
25.2239343567
 10
1.2300270633
 20
25.2449440162
 10
1.2264059749
 20
25.2662202095
 10
1.2220212297
 20
25.2877147952
 10
1.2168827488
 20
25.3093791378
 10
1.211002159
 20
25.3311642177
 10
1.2043927661
 20
25.3530207421
 10
1.1970695251
 20
25.3748992565
 10
1.1890490061
 20
25.3967502568
 10
1.1803493571
 20
25.4185243008
 10
1.1709902624
 20
25.4401721207
 10
1.1609928989
 20
25.4616447344
 10
1.1503798873
 20
25.4828935558
 10
1.1391752416
 20
25.5038705055
 10
1.1274043143
 20
25.5245281192
 10
1.1150937393
 20
25.5448196552
 10
1.1022713717
 20
25.5646991998
 10
1.0889662243
 20
25.5841217719
 10
1.0752084027
 20
25.6030434243
 10
1.0610290364
 20
25.6214213429
 10
1.046460209
 20
25.6392139442
 10
1.0315348851
 20
25.6563809692
 10
1.0162868362
 20
25.672883574
 10
1.0007505638
 20
25.6886844183
 10
0.9849612216
 20
25.7037477497
 10
0.9689545363
 20
25.7180394845
 10
0.9527667257
 20
25.7315272848
 10
0.9364344181
 20
25.744180632
 10
0.9199945683
 20
25.7559708953
 10
0.9034843747
 20
25.766871397
 10
0.8869411948
 20
25.7768574728
 10
0.8704024605
 20
25.785906527
  0
LWPOLYLINE
  5
308
100
AcDbEntity
  8
CASTELLO
100
AcDbPolyline
 62
250
  6
CONTINUOUS
 90
18
 70
0
 10
3.1123532938
 20
-11.7299064651
 10
3.1125937693
 20
-11.7410753655
 10
3.1133145415
 20
-11.7519734036
 10
3.1145136494
 20
-11.7625709293
 10
3.1161878307
 20
-11.7728391103
 10
3.1183325304
 20
-11.7827500103
 10
3.1209419135
 20
-11.792276665
 10
3.1240088808
 20
-11.8013931555
 10
3.1275250881
 20
-11.8100746789
 10
3.1314809689
 20
-11.8182976155
 10
3.1358657606
 20
-11.8260395936
 10
3.1406675336
 20
-11.8332795498
 10
3.1458732239
 20
-11.8399977864
 10
3.1514686685
 20
-11.8461760255
 10
3.157438644
 20
-11.851797458
 10
3.1637669082
 20
-11.85684679
 10
3.1704362439
 20
-11.8613102838
 10
3.1773265902
 20
-11.8651249152
  0
LINE
  5
309
100
AcDbEntity
  8
CORPO
100
AcDbLine
 62
7
  6
CONTINUOUS
 10
2.2266620359
 20
33.477632655
 11
2.2266620714
 21
33.4775336787
  0
LINE
  5
30A
100
AcDbEntity
  8
CASTELLO
100
AcDbLine
 62
250
  6
CONTINUOUS
 10
0.6989311356
 20
35.3404501981
 11
0.6989311356
 21
34.8318193925
  0
LINE
  5
30B
100
AcDbEntity
  8
CASTELLO
100
AcDbLine
 62
250
  6
CONTINUOUS
 10
0.9090002731
 20
30.7757887974
 11
0.9090002731
 21
31.8563721082
  0
LINE
  5
30C
100
AcDbEntity
  8
CORPO
100
AcDbLine
 62
250
  6
CONTINUOUS
 10
0.9675172917
 20
33.8869359509
 11
0.9675172917
 21
33.4135274955
  0
LINE
  5
30D
100
AcDbEntity
  8
CORPO
100
AcDbLine
 62
250
  6
CONTINUOUS
 10
1.380388508
 20
33.9991963762
 11
1.380388508
 21
33.2070918874
  0
LINE
  5
30E
100
AcDbEntity
  8
CASTELLO
100
AcDbLine
 62
7
  6
CONTINUOUS
 10
1.4060379167
 20
35.6940035887
 11
1.4060379167
 21
36.246561778
  0
LINE
  5
30F
100
AcDbEntity
  8
CASTELLO
100
AcDbLine
 62
250
  6
CONTINUOUS
 10
1.6140441924
 20
30.7973245606
 11
1.6140441924
 21
32.030051533
  0
LINE
  5
310
100
AcDbEntity
  8
CASTELLO
100
AcDbLine
 62
250
  6
CONTINUOUS
 10
1.7398135394
 20
36.4098821332
 11
1.7398135394
 21
37.6372327302
  0
LINE
  5
311
100
AcDbEntity
  8
CASTELLO
100
AcDbLine
 62
7
  6
CONTINUOUS
 10
1.7595913073
 20
35.5172268934
 11
1.7595913073
 21
36.0697850827
  0
LINE
  5
312
100
AcDbEntity
  8
CASTELLO
100
AcDbLine
 62
7
  6
CONTINUOUS
 10
1.8651630466
 20
36.5589102916
 11
1.8651630466
 21
37.6465443493
  0
LINE
  5
313
100
AcDbEntity
  8
CASTELLO
100
AcDbLine
 62
7
  6
CONTINUOUS
 10
1.9717233417
 20
32.2093560778
 11
1.9717233417
 21
30.9969205125
  0
LINE
  5
314
100
AcDbEntity
  8
CASTELLO
100
AcDbLine
 62
250
  6
CONTINUOUS
 10
2.1131446979
 20
35.3404501981
 11
2.1131446979
 21
34.7977459548
  0
LINE
  5
315
100
AcDbEntity
  8
CORPO
100
AcDbLine
 62
250
  6
CONTINUOUS
 10
2.1387941067
 20
33.6199935768
 11
2.1387941067
 21
33.3539173916
  0
LINE
  5
316
100
AcDbEntity
  8
CASTELLO
100
AcDbLine
 62
7
  6
CONTINUOUS
 10
3.0391299891
 20
30.3380338901
 11
3.0391299891
 21
29.998059956
  0
LINE
  5
317
100
AcDbEntity
  8
CASTELLO
100
AcDbLine
 62
7
  6
CONTINUOUS
 10
3.0391299891
 20
-11.5150188219
 11
3.0391299891
 21
-11.6415181175
  0
LINE
  5
318
100
AcDbEntity
  8
CASTELLO
100
AcDbLine
 62
250
  6
CONTINUOUS
 10
3.1123532938
 20
30.2496455425
 11
3.1123532938
 21
29.9096716084
  0
LINE
  5
319
100
AcDbEntity
  8
CASTELLO
100
AcDbLine
 62
250
  6
CONTINUOUS
 10
3.1123532938
 20
-11.4842826528
 11
3.1123532938
 21
-11.7299064651
  0
LWPOLYLINE
  5
31A
100
AcDbEntity
  8
CASTELLO
100
AcDbPolyline
 62
250
  6
CONTINUOUS
 90
31
 70
0
 10
3.1123532938
 20
30.2496455425
 10
3.1125937693
 20
30.2610549184
 10
3.1133145415
 20
30.2726737286
 10
3.1145136494
 20
30.2844703622
 10
3.1161878307
 20
30.2964127245
 10
3.1183325304
 20
30.3084683242
 10
3.1209419135
 20
30.320604362
 10
3.1240088808
 20
30.3327878199
 10
3.1275250881
 20
30.3449855505
 10
3.1314809689
 20
30.357164368
 10
3.1358657606
 20
30.3692911378
 10
3.1406675336
 20
30.3813328669
 10
3.1458732239
 20
30.3932567939
 10
3.1514686685
 20
30.4050304775
 10
3.157438644
 20
30.4166218856
 10
3.1637669082
 20
30.4279994817
 10
3.1704362439
 20
30.4391323112
 10
3.177428506
 20
30.4499900853
 10
3.184724671
 20
30.4605432636
 10
3.1923048883
 20
30.4707631344
 10
3.2001485347
 20
30.4806218928
 10
3.2082342702
 20
30.4900927163
 10
3.2165400963
 20
30.499149838
 10
3.2250434154
 20
30.5077686165
 10
3.233721093
 20
30.5159256029
 10
3.2425495198
 20
30.5235986047
 10
3.2515046767
 20
30.5307667463
 10
3.2605621997
 20
30.5374105255
 10
3.2696974461
 20
30.5435118667
 10
3.2788855621
 20
30.5490541703
 10
3.2881015498
 20
30.5540223575
  0
LWPOLYLINE
  5
31B
100
AcDbEntity
  8
CASTELLO
100
AcDbPolyline
 62
250
  6
CONTINUOUS
 90
21
 70
0
 10
1.2362352005
 20
-12.0551671588
 10
1.2349472418
 20
-12.075959245
 10
1.2328762997
 20
-12.0962973746
 10
1.2300270599
 20
-12.1161355289
 10
1.2264059696
 20
-12.1354288204
 10
1.222021222
 20
-12.1541335943
 10
1.2168827385
 20
-12.1722075274
 10
1.2110021458
 20
-12.1896097243
 10
1.20439275
 20
-12.2063008091
 10
1.197069506
 20
-12.222243015
 10
1.189048984
 20
-12.2374002699
 10
1.180349332
 20
-12.2517382775
 10
1.1709902346
 20
-12.2652245956
 10
1.1609928686
 20
-12.2778287086
 10
1.1503798547
 20
-12.2895220975
 10
1.139175207
 20
-12.3002783037
 10
1.1274042781
 20
-12.3100729893
 10
1.115093702
 20
-12.318883992
 10
1.1022713336
 20
-12.3266913752
 10
1.0889661859
 20
-12.3334774732
 10
1.0824279551
 20
-12.3363628572
  0
LWPOLYLINE
  5
31C
100
AcDbEntity
  8
CASTELLO
100
AcDbPolyline
 62
7
  6
CONTINUOUS
 90
6
 70
0
 10
1.8651630154
 20
37.6468298386
 10
1.8651062057
 20
37.6481131327
 10
1.8642959793
 20
37.6515508067
 10
1.8625682996
 20
37.654372768
 10
1.8599681328
 20
37.6566300563
 10
1.8583512494
 20
37.6575561906
  0
LWPOLYLINE
  5
31D
100
AcDbEntity
  8
CASTELLO
100
AcDbPolyline
 62
250
  6
CONTINUOUS
 90
31
 70
0
 10
4.7898599333
 20
29.5866404787
 10
4.7895649564
 20
29.5980661864
 10
4.7887891032
 20
29.6097042395
 10
4.7875345001
 20
29.6215227404
 10
4.7858045858
 20
29.6334892967
 10
4.7836041016
 20
29.6455711103
 10
4.7809390787
 20
29.6577350672
 10
4.7778168214
 20
29.6699478284
 10
4.7742458872
 20
29.6821759209
 10
4.7702360634
 20
29.6943858299
 10
4.7657983401
 20
29.7065440902
 10
4.7609448804
 20
29.7186173784
 10
4.7556889865
 20
29.7305726038
 10
4.7500450641
 20
29.7423769995
 10
4.7440285819
 20
29.7539982117
 10
4.73765603
 20
29.7654043889
 10
4.7309448745
 20
29.7765642689
 10
4.7239135092
 20
29.7874472646
 10
4.716581206
 20
29.7980235477
 10
4.7089680612
 20
29.8082641307
 10
4.701094941
 20
29.818140946
 10
4.6929834243
 20
29.827626923
 10
4.6846557431
 20
29.8366960626
 10
4.676134722
 20
29.8453235079
 10
4.6674437156
 20
29.8534856127
 10
4.6586065443
 20
29.8611600063
 10
4.649647429
 20
29.8683256544
 10
4.6405909252
 20
29.8749629175
 10
4.6314618549
 20
29.881053604
 10
4.6222852393
 20
29.8865810206
 10
4.6130862296
 20
29.8915300175
  0
LWPOLYLINE
  5
31E
100
AcDbEntity
  8
CASTELLO
100
AcDbPolyline
 62
7
  6
CONTINUOUS
 90
23
 70
0
 10
3.0391299891
 20
29.998059956
 10
3.0394483971
 20
29.9854464037
 10
3.0404070138
 20
29.9728234555
 10
3.042008788
 20
29.9602299153
 10
3.044252948
 20
29.9477088419
 10
3.047136988
 20
29.9352954169
 10
3.0506588122
 20
29.92301665
 10
3.0548121774
 20
29.9109097232
 10
3.0595870322
 20
29.8990143559
 10
3.0649748271
 20
29.8873600764
 10
3.0709631876
 20
29.8759811016
 10
3.0775352288
 20
29.8649147068
 10
3.0846746626
 20
29.8541918933
 10
3.0923644556
 20
29.8438415239
 10
3.1005817755
 20
29.8338967107
 10
3.1093008092
 20
29.8243893884
 10
3.1185020252
 20
29.8153413256
 10
3.1281584747
 20
29.806779608
 10
3.1382328766
 20
29.7987359448
 10
3.1487054263
 20
29.7912244123
 10
3.1595481164
 20
29.7842644035
 10
3.1707118662
 20
29.7778846891
 10
3.1773329161
 20
29.7744499956
  0
LWPOLYLINE
  5
31F
100
AcDbEntity
  8
CASTELLO
100
AcDbPolyline
 62
250
  6
CONTINUOUS
 90
18
 70
0
 10
4.4373379736
 20
-12.3923988051
 10
4.4375785549
 20
-12.4035701332
 10
4.4382996461
 20
-12.4144704987
 10
4.4394992878
 20
-12.42507023
 10
4.4411742203
 20
-12.4353404841
 10
4.4433198869
 20
-12.4452532927
 10
4.4459304415
 20
-12.4547816418
 10
4.448998775
 20
-12.4638995905
 10
4.4525165363
 20
-12.4725823286
 10
4.4564741455
 20
-12.4808062163
 10
4.4608608274
 20
-12.48854887
 10
4.4656646404
 20
-12.4957892192
 10
4.470872505
 20
-12.5025075565
 10
4.4764702504
 20
-12.5086856058
 10
4.482442632
 20
-12.5143065466
 10
4.4887733663
 20
-12.5193550645
 10
4.4954451872
 20
-12.5238174113
 10
4.5023052651
 20
-12.5276142524
  0
LWPOLYLINE
  5
320
100
AcDbEntity
  8
CASTELLO
100
AcDbPolyline
 62
250
  6
CONTINUOUS
 90
19
 70
0
 10
3.1123532938
 20
29.9096716084
 10
3.112572165
 20
29.8990106161
 10
3.1132287207
 20
29.8885891996
 10
3.1143220584
 20
29.8784336223
 10
3.1158505082
 20
29.8685677682
 10
3.1178108268
 20
29.8590185715
 10
3.1201974099
 20
29.8498153354
 10
3.1230037426
 20
29.8409826088
 10
3.1262232597
 20
29.832540568
 10
3.1298480289
 20
29.8245100534
 10
3.133869112
 20
29.8169109681
 10
3.1382764851
 20
29.8097623464
 10
3.143059113
 20
29.8030821188
 10
3.1482050859
 20
29.7968869177
 10
3.1537016148
 20
29.7911921374
 10
3.1595349581
 20
29.7860120011
 10
3.1656905469
 20
29.7813594098
 10
3.1721531021
 20
29.7772458772
 10
3.1773265923
 20
29.7744531572
  0
LWPOLYLINE
  5
321
100
AcDbEntity
  8
CASTELLO
100
AcDbPolyline
 62
250
  6
CONTINUOUS
 90
19
 70
0
 10
4.4373379736
 20
29.2471792685
 10
4.4375568448
 20
29.2365182762
 10
4.4382134005
 20
29.2260968597
 10
4.4393067382
 20
29.2159412824
 10
4.440835188
 20
29.2060754283
 10
4.4427955066
 20
29.1965262316
 10
4.4451820897
 20
29.1873229955
 10
4.4479884225
 20
29.1784902689
 10
4.4512079395
 20
29.1700482281
 10
4.4548327087
 20
29.1620177135
 10
4.4588537918
 20
29.1544186282
 10
4.4632611649
 20
29.1472700065
 10
4.4680437928
 20
29.1405897788
 10
4.4731897657
 20
29.1343945778
 10
4.4786862946
 20
29.1286997975
 10
4.4845196379
 20
29.1235196612
 10
4.4906752267
 20
29.1188670699
 10
4.4971377819
 20
29.1147535373
 10
4.5023112721
 20
29.1119608173
  0
LWPOLYLINE
  5
322
100
AcDbEntity
  8
CASTELLO
100
AcDbPolyline
 62
7
  6
CONTINUOUS
 90
24
 70
0
 10
4.517307754
 20
36.5606676267
 10
4.5167345695
 20
36.5951400329
 10
4.5150354565
 20
36.6288899539
 10
4.512210415
 20
36.6619173896
 10
4.5082499804
 20
36.694278947
 10
4.5031636173
 20
36.7259180192
 10
4.4969797189
 20
36.7566647858
 10
4.4896971035
 20
36.7865003132
 10
4.4813169528
 20
36.815443535
 10
4.4718712056
 20
36.8433814309
 10
4.4613473471
 20
36.8703275937
 10
4.449757892
 20
36.8962684307
 10
4.4371723233
 20
36.9210501436
 10
4.4235971374
 20
36.9446474449
 10
4.4090258379
 20
36.9670856223
 10
4.3935084178
 20
36.9882867395
 10
4.3770251305
 20
37.0082638294
 10
4.3595957226
 20
37.0270038593
 10
4.341329428
 20
37.0443897948
 10
4.3222407721
 20
37.0603987212
 10
4.3023152294
 20
37.0750535532
 10
4.2816184569
 20
37.0883060016
 10
4.2601259423
 20
37.1001618629
 10
1.030235878
 20
38.7151307723
  0
LINE
  5
323
100
AcDbEntity
  8
CASTELLO
100
AcDbLine
 62
7
  6
CONTINUOUS
 10
3.7421229434
 20
29.0380827888
 11
3.7421229434
 21
29.4920549817
  0
LINE
  5
324
100
AcDbEntity
  8
CASTELLO
100
AcDbLine
 62
250
  6
CONTINUOUS
 10
3.8153462481
 20
28.9463691852
 11
3.8153462481
 21
29.4554433293
  0
LINE
  5
325
100
AcDbEntity
  8
CASTELLO
100
AcDbLine
 62
250
  6
CONTINUOUS
 10
4.4373379736
 20
-12.3923988051
 11
4.4373379736
 21
-12.0524248709
  0
LINE
  5
326
100
AcDbEntity
  8
CASTELLO
100
AcDbLine
 62
250
  6
CONTINUOUS
 10
4.4373379736
 20
29.2471792685
 11
4.4373379736
 21
29.5871532026
  0
LINE
  5
327
100
AcDbEntity
  8
CASTELLO
100
AcDbLine
 62
7
  6
CONTINUOUS
 10
4.517307754
 20
36.5606676267
 11
4.517307754
 21
36.2898673341
  0
LINE
  5
328
100
AcDbEntity
  8
CASTELLO
100
AcDbLine
 62
250
  6
CONTINUOUS
 10
4.7898599333
 20
-12.3929115289
 11
4.7898599333
 21
-12.0529375948
  0
LINE
  5
329
100
AcDbEntity
  8
CASTELLO
100
AcDbLine
 62
250
  6
CONTINUOUS
 10
4.7898599333
 20
29.2466665446
 11
4.7898599333
 21
29.5866404787
  0
LINE
  5
32A
100
AcDbEntity
  8
CASTELLO
100
AcDbLine
 62
250
  6
CONTINUOUS
 10
5.1485585817
 20
-11.0759283938
 11
5.1485585817
 21
-10.6295663807
  0
LINE
  5
32B
100
AcDbEntity
  8
CASTELLO
100
AcDbLine
 62
250
  6
CONTINUOUS
 10
5.1485585817
 20
28.2797630184
 11
5.1485585817
 21
28.9685836413
  0
LINE
  5
32C
100
AcDbEntity
  8
CASTELLO
100
AcDbLine
 62
250
  6
CONTINUOUS
 10
5.5010805414
 20
-11.2014411176
 11
5.5010805414
 21
-10.481591981
  0
LINE
  5
32D
100
AcDbEntity
  8
CASTELLO
100
AcDbLine
 62
250
  6
CONTINUOUS
 10
5.5010805414
 20
28.2896621978
 11
5.5010805414
 21
29.0981630217
  0
LINE
  5
32E
100
AcDbEntity
  8
CASTELLO
100
AcDbLine
 62
7
  6
CONTINUOUS
 10
6.3911407241
 20
-11.6128769293
 11
6.3911407241
 21
-10.1079808693
  0
LINE
  5
32F
100
AcDbEntity
  8
CASTELLO
100
AcDbLine
 62
7
  6
CONTINUOUS
 10
6.3911407241
 20
28.7869433257
 11
6.3911407241
 21
30.3893624822
  0
LWPOLYLINE
  5
330
100
AcDbEntity
  8
CASTELLO
100
AcDbPolyline
 62
250
  6
CONTINUOUS
 90
22
 70
0
 10
4.4373379736
 20
-12.0524248709
 10
4.4375578283
 20
-12.0415203597
 10
4.4382168455
 20
-12.030423116
 10
4.4393133863
 20
-12.0191607428
 10
4.4408447172
 20
-12.0077612933
 10
4.4428070325
 20
-11.9962530834
 10
4.4451954783
 20
-11.9846646172
 10
4.4480041484
 20
-11.9730246352
 10
4.4512260539
 20
-11.9613621726
 10
4.4548531515
 20
-11.9497063667
 10
4.4588764311
 20
-11.9380861762
 10
4.4632858737
 20
-11.9265305428
 10
4.4680704102
 20
-11.9150684409
 10
4.4732180437
 20
-11.9037285302
 10
4.4787160116
 20
-11.8925388498
 10
4.4845507453
 20
-11.8815269899
 10
4.4907089618
 20
-11.8707182584
 10
4.497174236
 20
-11.8601417105
 10
4.5039266028
 20
-11.8498293893
 10
4.5109474617
 20
-11.8398083212
 10
4.5182201826
 20
-11.8301009161
 10
4.5257263213
 20
-11.8207306971
  0
LWPOLYLINE
  5
331
100
AcDbEntity
  8
CASTELLO
100
AcDbPolyline
 62
250
  6
CONTINUOUS
 90
31
 70
0
 10
4.4373379736
 20
29.5871532026
 10
4.4375785549
 20
29.598565112
 10
4.4382996461
 20
29.6101865686
 10
4.4394992878
 20
29.6219859417
 10
4.4411742203
 20
29.6339311284
 10
4.4433198869
 20
29.6459896034
 10
4.4459304415
 20
29.6581285072
 10
4.448998775
 20
29.6703147893
 10
4.4525165363
 20
29.6825152888
 10
4.4564741455
 20
29.6946967857
 10
4.4608608274
 20
29.7068261213
 10
4.4656646404
 20
29.7188702835
 10
4.470872505
 20
29.7307964854
 10
4.4764702504
 20
29.7425722801
 10
4.482442632
 20
29.7541656025
 10
4.4887733663
 20
29.7655448547
 10
4.4954451872
 20
29.7766790225
 10
4.5024399556
 20
29.7875378541
 10
4.5097386924
 20
29.7980918901
 10
4.517321635
 20
29.8083125328
 10
4.5251680534
 20
29.8181718217
 10
4.5332563447
 20
29.8276426379
 10
4.5415643124
 20
29.836699066
 10
4.5500694848
 20
29.8453166826
 10
4.5587489475
 20
29.8534722964
 10
4.567581038
 20
29.861145345
 10
4.576539821
 20
29.8683130925
 10
4.5855951579
 20
29.8749519991
 10
4.5947203267
 20
29.8810437965
 10
4.6038923312
 20
29.8865744438
 10
4.6130862296
 20
29.8915300175
  0
LWPOLYLINE
  5
332
100
AcDbEntity
  8
CASTELLO
100
AcDbPolyline
 62
7
  6
CONTINUOUS
 90
4
 70
0
 10
6.9916057452
 20
30.3052545318
 10
6.991587644
 20
30.3048364442
 10
6.9911691162
 20
30.3032941286
 10
6.9905506788
 20
30.3023311138
  0
LWPOLYLINE
  5
333
100
AcDbEntity
  8
CASTELLO
100
AcDbPolyline
 62
250
  6
CONTINUOUS
 90
16
 70
0
 10
6.9916057528
 20
30.7406739344
 10
6.9913025318
 20
30.7345192902
 10
6.990321026
 20
30.7280177809
 10
6.9886628482
 20
30.7215507049
 10
6.9863325097
 20
30.7151356569
 10
6.9833363505
 20
30.70879009
 10
6.9796825223
 20
30.7025312686
 10
6.9753809659
 20
30.6963762207
 10
6.9704433844
 20
30.6903416923
 10
6.9648832113
 20
30.6844441013
 10
6.9587155741
 20
30.6786994931
 10
6.9519572528
 20
30.6731234969
 10
6.9446266346
 20
30.667731283
 10
6.9367436636
 20
30.662537522
 10
6.9283297869
 20
30.6575563444
 10
6.9194078958
 20
30.6528013023
  0
LWPOLYLINE
  5
334
100
AcDbEntity
  8
CORPO
100
AcDbPolyline
 62
7
  6
CONTINUOUS
 90
7
 70
0
 10
21.9138087495
 20
26.6816192785
 10
21.928806865
 20
26.7059033988
 10
21.9449830203
 20
26.7290777291
 10
21.9623372154
 20
26.7511422694
 10
21.9808694503
 20
26.7720970196
 10
22.0005797251
 20
26.7919419798
 10
22.0214680396
 20
26.81067715
  0
LWPOLYLINE
  5
335
100
AcDbEntity
  8
POMELLO
100
AcDbPolyline
 62
250
  6
CONTINUOUS
 90
48
 70
0
 10
-12.6727845511
 20
-21.8446038484
 10
-12.4101979553
 20
-21.5300031198
 10
-12.1405748843
 20
-21.2283121948
 10
-11.8647531992
 20
-20.940420959
 10
-11.5832895977
 20
-20.6668639853
 10
-11.2966847418
 20
-20.4081202179
 10
-11.0055384162
 20
-20.1647564736
 10
-10.7106892499
 20
-19.9374987185
 10
-10.413006441
 20
-19.727017909
 10
-10.1133072297
 20
-19.5338740148
 10
-9.812275614
 20
-19.3584901047
 10
-9.5105911807
 20
-19.2012577627
 10
-9.208989871
 20
-19.0625649287
 10
-8.9082472826
 20
-18.9427726494
 10
-8.6091017968
 20
-18.8421790492
 10
-8.3122750325
 20
-18.7610349947
 10
-8.0185412846
 20
-18.6995604287
 10
-7.7287073593
 20
-18.6579229339
 10
-7.4435705955
 20
-18.6362214176
 10
-7.1637683839
 20
-18.634488512
 10
-6.8898559327
 20
-18.6527349595
 10
-6.622432826
 20
-18.6909553816
 10
-6.362277564
 20
-18.7490739443
 10
-6.1101873538
 20
-18.8269199074
 10
-5.8669187727
 20
-18.9242313615
 10
-5.6329409778
 20
-19.0407913854
 10
-5.4086043918
 20
-19.1764519947
 10
-5.1935825296
 20
-19.3316429315
 10
-4.9894592889
 20
-19.5054652723
 10
-4.7990357815
 20
-19.6951046917
 10
-4.6215743268
 20
-19.9005190234
 10
-4.4580349314
 20
-20.1197768288
 10
-4.3123063443
 20
-20.3452940217
 10
-4.1847810471
 20
-20.5721238128
 10
-4.0726798172
 20
-20.8007106645
 10
-3.9742936694
 20
-21.0307186471
 10
-3.8886435577
 20
-21.2607420885
 10
-3.8148360894
 20
-21.4892596604
 10
-3.7515965783
 20
-21.7162634392
 10
-3.6980930611
 20
-21.9407788951
 10
-3.6535530759
 20
-22.161717318
 10
-3.6170268861
 20
-22.3792275146
 10
-3.5878558078
 20
-22.5923211199
 10
-3.5653280004
 20
-22.800523523
 10
-3.5486643374
 20
-23.0050166949
 10
-3.5373298014
 20
-23.2059185448
 10
-3.53088296
 20
-23.4021813326
 10
-3.5288393475
 20
-23.5933929516
  0
LWPOLYLINE
  5
336
100
AcDbEntity
  8
POMELLO
100
AcDbPolyline
 62
250
  6
CONTINUOUS
 90
48
 70
0
 10
-12.6525662846
 20
-21.8739057974
 10
-12.3915520603
 20
-21.5611889071
 10
-12.1235434961
 20
-21.2613045158
 10
-11.8493734367
 20
-20.9751371802
 10
-11.5695952456
 20
-20.7032182724
 10
-11.2847065859
 20
-20.4460238692
 10
-10.9953036505
 20
-20.2041173933
 10
-10.702220047
 20
-19.9782204635
 10
-10.4063197692
 20
-19.7690000184
 10
-10.1084151638
 20
-19.5770126746
 10
-9.8091861328
 20
-19.4026789675
 10
-9.5093081935
 20
-19.2463881363
 10
-9.2095128803
 20
-19.1085257981
 10
-8.9105711465
 20
-18.9894508375
 10
-8.6132169522
 20
-18.8894595936
 10
-8.3181675954
 20
-18.8088014309
 10
-8.0261927345
 20
-18.7476949751
 10
-7.7380943437
 20
-18.7063068057
 10
-7.4546649869
 20
-18.6847352381
 10
-7.1765382385
 20
-18.6830127087
 10
-6.9042659838
 20
-18.7011498952
 10
-6.6384442178
 20
-18.7391414504
 10
-6.3798467777
 20
-18.7969119952
 10
-6.1292660942
 20
-18.8742918128
 10
-5.8874542124
 20
-18.971020563
 10
-5.654877482
 20
-19.0868826228
 10
-5.43188423
 20
-19.2217308926
 10
-5.2181499255
 20
-19.3759925416
 10
-5.0152489827
 20
-19.5487740288
 10
-4.8259657464
 20
-19.7372778782
 10
-4.6495669639
 20
-19.9414621712
 10
-4.4870068828
 20
-20.1594070395
 10
-4.3421509405
 20
-20.3835738218
 10
-4.2153892509
 20
-20.609045358
 10
-4.1039592508
 20
-20.8362634415
 10
-4.0061622144
 20
-21.0648941429
 10
-3.9210249684
 20
-21.2935402024
 10
-3.8476594595
 20
-21.5206894062
 10
-3.7847986293
 20
-21.7463338803
 10
-3.7316154986
 20
-21.9695049295
 10
-3.6873422288
 20
-22.1891203639
 10
-3.6510347577
 20
-22.4053281047
 10
-3.622038335
 20
-22.6171457099
 10
-3.5996453933
 20
-22.8241014058
 10
-3.5830814916
 20
-23.0273700772
 10
-3.5718148231
 20
-23.2270689239
 10
-3.5654065918
 20
-23.4221564828
 10
-3.5633752331
 20
-23.6122231147
  0
LWPOLYLINE
  5
337
100
AcDbEntity
  8
POMELLO
100
AcDbPolyline
 62
7
  6
CONTINUOUS
 90
34
 70
0
 10
-12.9018639556
 20
-13.7054476739
 10
-13.3432539673
 20
-13.9643103676
 10
-13.7807993806
 20
-14.2456824094
 10
-14.2145001955
 20
-14.5495637992
 10
-14.6451870017
 20
-14.876631019
 10
-15.0720292094
 20
-15.2262075868
 10
-15.4925350497
 20
-15.596264057
 10
-15.9068132877
 20
-15.9870664851
 10
-16.3147551582
 20
-16.3983488156
 10
-16.7135425959
 20
-16.8272834364
 10
-17.1030228047
 20
-17.2739002363
 10
-17.4833485808
 20
-17.7381693266
 10
-17.8521602475
 20
-18.2171734285
 10
-18.2093654284
 20
-18.7109497652
 10
-18.5550564999
 20
-19.2194611135
 10
-18.8871509144
 20
-19.7396785259
 10
-19.2056659542
 20
-20.271861407
 10
-19.5105843371
 20
-20.8157503522
 10
-19.7997716687
 20
-21.3675382002
 10
-20.0730242399
 20
-21.927090169
 10
-20.3305457598
 20
-22.4945410406
 10
-20.5708129612
 20
-23.0664879993
 10
-20.7937534729
 20
-23.6430039518
 10
-20.9994396661
 20
-24.2240159914
 10
-21.1865653868
 20
-24.8059025825
 10
-21.3550367674
 20
-25.3887987263
 10
-21.5049476755
 20
-25.9725694216
 10
-21.6352735594
 20
-26.5531881286
 10
-21.7458468912
 20
-27.1304280731
 10
-21.836835199
 20
-27.7045160293
 10
-21.9077165145
 20
-28.2721057805
 10
-21.9583168487
 20
-28.8320819213
 10
-21.9888101907
 20
-29.3855598571
 10
-21.9991965405
 20
-29.9325395879
  0
LWPOLYLINE
  5
338
100
AcDbEntity
  8
POMELLO
100
AcDbPolyline
 62
250
  6
CONTINUOUS
 90
37
 70
0
 10
-13.6568083851
 20
-12.2768915644
 10
-14.0812299635
 20
-12.4657165517
 10
-14.5163742864
 20
-12.6836541167
 10
-14.9506652793
 20
-12.9254601449
 10
-15.3826891435
 20
-13.1902393595
 10
-15.8120709578
 20
-13.4776536783
 10
-16.2386857382
 20
-13.7876193047
 10
-16.6621337271
 20
-14.1199546928
 10
-17.081018237
 20
-14.4736737659
 10
-17.4937380751
 20
-14.847425571
 10
-17.8989908108
 20
-15.2399212128
 10
-18.2964291796
 20
-15.6507132647
 10
-18.6859001356
 20
-16.0796423526
 10
-19.0669972385
 20
-16.5263732574
 10
-19.4384608243
 20
-16.9895446027
 10
-19.798892808
 20
-17.4674117202
 10
-20.1473268034
 20
-17.9585865277
 10
-20.4833318204
 20
-18.4623512601
 10
-20.8063892062
 20
-18.9778691133
 10
-21.115838657
 20
-19.5040458795
 10
-21.4110657173
 20
-20.0397944841
 10
-21.6916243411
 20
-20.5842909949
 10
-21.9569881581
 20
-21.1365413469
 10
-22.2065361457
 20
-21.6952822119
 10
-22.4397112559
 20
-22.2592731769
 10
-22.6560352041
 20
-22.8273552517
 10
-22.8550585379
 20
-23.3983458272
 10
-23.0363373871
 20
-23.9709525556
 10
-23.199491483
 20
-24.543927071
 10
-23.3442169298
 20
-25.1161497391
 10
-23.4702434011
 20
-25.6865200182
 10
-23.5773174128
 20
-26.2538747902
 10
-23.6652190026
 20
-26.8170297511
 10
-23.7337751463
 20
-27.3748611441
 10
-23.7828457587
 20
-27.9262301606
 10
-23.812328317
 20
-28.469986382
 10
-23.8221624955
 20
-29.0050077715
  0
LWPOLYLINE
  5
339
100
AcDbEntity
  8
CASTELLO
100
AcDbPolyline
 62
7
  6
CONTINUOUS
 90
6
 70
0
 10
7.420151454
 20
34.8693309629
 10
7.4201129916
 20
34.87039126
 10
7.4193647543
 20
34.8738539514
 10
7.4177028868
 20
34.8767041528
 10
7.415172169
 20
34.8789920183
 10
7.4133356131
 20
34.8800639999
  0
LWPOLYLINE
  5
33A
100
AcDbEntity
  8
CASTELLO
100
AcDbPolyline
 62
7
  6
CONTINUOUS
 90
20
 70
0
 10
6.9916057528
 20
30.7406739344
 10
6.9912002855
 20
30.7549065502
 10
6.9899771015
 20
30.7691637909
 10
6.9879295142
 20
30.7833893249
 10
6.9850555165
 20
30.797526485
 10
6.9813582112
 20
30.811517132
 10
6.9768457708
 20
30.8253033261
 10
6.9715317678
 20
30.8388270167
 10
6.965432593
 20
30.8520361611
 10
6.9585652146
 20
30.8648858177
 10
6.9509521327
 20
30.8773271201
 10
6.9426210798
 20
30.8893105324
 10
6.9335976649
 20
30.9007960932
 10
6.9239075016
 20
30.9117472295
 10
6.913587712
 20
30.9221187075
 10
6.9026806434
 20
30.9318672388
 10
6.8912119329
 20
30.9409686942
 10
6.8792239034
 20
30.9493872417
 10
6.8667830842
 20
30.9570778062
 10
6.8534020496
 20
30.9642842829
  0
LWPOLYLINE
  5
33B
100
AcDbEntity
  8
CASTELLO
100
AcDbPolyline
 62
7
  6
CONTINUOUS
 90
23
 70
0
 10
6.9916057528
 20
-10.9064617217
 10
6.9912873449
 20
-10.8938481694
 10
6.9903287282
 20
-10.8812252212
 10
6.9887269539
 20
-10.868631681
 10
6.986482794
 20
-10.8561106076
 10
6.983598754
 20
-10.8436971826
 10
6.9800769298
 20
-10.8314184156
 10
6.9759235645
 20
-10.8193114889
 10
6.9711487097
 20
-10.8074161216
 10
6.9657609149
 20
-10.7957618421
 10
6.9597725543
 20
-10.7843828672
 10
6.9532005131
 20
-10.7733164725
 10
6.9460610793
 20
-10.7625936589
 10
6.9383712863
 20
-10.7522432896
 10
6.9301539665
 20
-10.7422984764
 10
6.9214349327
 20
-10.7327911541
 10
6.9122337167
 20
-10.7237430913
 10
6.9025772672
 20
-10.7151813737
 10
6.8925028654
 20
-10.7071377105
 10
6.8820303156
 20
-10.699626178
 10
6.8711876256
 20
-10.6926661692
 10
6.8600238758
 20
-10.6862864548
 10
6.8534028258
 20
-10.6828517613
  0
LWPOLYLINE
  5
33C
100
AcDbEntity
  8
CASTELLO
100
AcDbPolyline
 62
7
  6
CONTINUOUS
 90
34
 70
0
 10
6.3911407241
 20
30.3893624822
 10
6.3909406681
 20
30.3997642909
 10
6.3903404306
 20
30.4103426589
 10
6.3893414726
 20
30.421073677
 10
6.3879462371
 20
30.4319331301
 10
6.3861578888
 20
30.4428964226
 10
6.3839803075
 20
30.4539386335
 10
6.381418483
 20
30.4650347804
 10
6.3784783087
 20
30.4761597739
 10
6.3751663137
 20
30.4872883443
 10
6.3714900366
 20
30.4983953021
 10
6.3674578764
 20
30.5094555233
 10
6.363078879
 20
30.5204439045
 10
6.3583629785
 20
30.5313355622
 10
6.3533209085
 20
30.5421058493
 10
6.3479640479
 20
30.5527303405
 10
6.3423045236
 20
30.563184965
 10
6.3363551857
 20
30.5734460551
 10
6.3301295139
 20
30.5834903615
 10
6.3236415814
 20
30.5932951164
 10
6.3169060925
 20
30.6028381136
 10
6.3099383533
 20
30.6120977538
 10
6.3027540963
 20
30.6210530362
 10
6.2953695806
 20
30.6296836682
 10
6.2878016263
 20
30.6379701409
 10
6.2800673047
 20
30.6458936482
 10
6.2721840988
 20
30.6534362243
 10
6.2641699993
 20
30.6605808481
 10
6.256043069
 20
30.6673112908
 10
6.2478216579
 20
30.6736122794
 10
6.2395245612
 20
30.6794696266
 10
6.2311705678
 20
30.6848700634
 10
6.2227784187
 20
30.689801268
 10
6.2143670204
 20
30.694252021
  0
LWPOLYLINE
  5
33D
100
AcDbEntity
  8
CASTELLO
100
AcDbPolyline
 62
250
  6
CONTINUOUS
 90
31
 70
0
 10
6.9194078958
 20
30.6528013023
 10
6.9192187751
 20
30.6642518112
 10
6.9185445918
 20
30.6759181649
 10
6.9173862758
 20
30.6877688631
 10
6.9157456943
 20
30.6997743249
 10
6.9136266322
 20
30.7118994433
 10
6.9110357807
 20
30.7241034729
 10
6.9079809634
 20
30.7363502659
 10
6.9044700413
 20
30.748608905
 10
6.9005125237
 20
30.7608461249
 10
6.8961191354
 20
30.7730286075
 10
6.8913019591
 20
30.7851227078
 10
6.8860743324
 20
30.7970948981
 10
6.8804506675
 20
30.8089122009
 10
6.8744463222
 20
30.8205423709
 10
6.8680777061
 20
30.831953619
 10
6.8613622464
 20
30.8431146985
 10
6.8543183762
 20
30.8539949533
 10
6.8469654332
 20
30.8645645043
 10
6.8393235865
 20
30.8747943559
 10
6.8314137799
 20
30.8846564682
 10
6.8232577037
 20
30.8941237932
 10
6.8148777193
 20
30.9031703709
 10
6.8062968054
 20
30.911771391
 10
6.7975384985
 20
30.9199032595
 10
6.7886268083
 20
30.927543682
 10
6.7795861764
 20
30.9346717014
 10
6.7704414188
 20
30.9412677529
 10
6.7612176205
 20
30.9473137477
 10
6.7519400651
 20
30.9527931174
 10
6.7426341922
 20
30.9576908411
  0
LINE
  5
33E
100
AcDbEntity
  8
CASTELLO
100
AcDbLine
 62
250
  6
CONTINUOUS
 10
6.9194078958
 20
30.6528013023
 11
6.9194078958
 21
30.3052697855
  0
LINE
  5
33F
100
AcDbEntity
  8
CASTELLO
100
AcDbLine
 62
250
  6
CONTINUOUS
 10
6.9194078958
 20
-10.9943343539
 11
6.9194078958
 21
-11.3418658706
  0
LINE
  5
340
100
AcDbEntity
  8
CASTELLO
100
AcDbLine
 62
7
  6
CONTINUOUS
 10
6.9916057528
 20
30.7406739344
 11
6.9916057528
 21
30.3054294555
  0
LINE
  5
341
100
AcDbEntity
  8
CASTELLO
100
AcDbLine
 62
7
  6
CONTINUOUS
 10
6.9916057528
 20
-10.9064617217
 11
6.9916057528
 21
-11.2539932384
  0
LINE
  5
342
100
AcDbEntity
  8
CASTELLO
100
AcDbLine
 62
250
  6
CONTINUOUS
 10
7.2965574119
 20
33.6332519444
 11
7.2965574119
 21
34.8603019116
  0
LINE
  5
343
100
AcDbEntity
  8
CASTELLO
100
AcDbLine
 62
7
  6
CONTINUOUS
 10
7.4201514758
 20
33.7814155651
 11
7.4201514758
 21
34.8690920542
  0
LINE
  5
344
100
AcDbEntity
  8
CORPO
100
AcDbLine
 62
7
  6
CONTINUOUS
 10
7.4518008959
 20
-5.739011563
 11
7.4518008959
 21
24.8690505066
  0
LINE
  5
345
100
AcDbEntity
  8
CASTELLO
100
AcDbLine
 62
7
  6
CONTINUOUS
 10
7.4518008959
 20
-9.3932967435
 11
7.4518008959
 21
28.5233356871
  0
LWPOLYLINE
  5
346
100
AcDbEntity
  8
CASTELLO
100
AcDbPolyline
 62
7
  6
CONTINUOUS
 90
22
 70
0
 10
6.733924473
 20
-9.7474605108
 10
6.7333050191
 20
-9.765306382
 10
6.7320957923
 20
-9.7828473572
 10
6.7302948697
 20
-9.8000520193
 10
6.7279009738
 20
-9.8168870747
 10
6.7249148014
 20
-9.8333240925
 10
6.721338127
 20
-9.8493388825
 10
6.7171739171
 20
-9.8648955953
 10
6.7124235738
 20
-9.8799698812
 10
6.70708472
 20
-9.894552502
 10
6.7011586436
 20
-9.9086138091
 10
6.6946494406
 20
-9.9221206698
 10
6.6875562813
 20
-9.9350548651
 10
6.6798764901
 20
-9.9473943362
 10
6.6716212352
 20
-9.9590960866
 10
6.6628129635
 20
-9.9701123049
 10
6.6534582579
 20
-9.9804197909
 10
6.6435721592
 20
-9.9899877069
 10
6.6331980881
 20
-9.9987674941
 10
6.622352046
 20
-10.0067429588
 10
6.6110547565
 20
-10.0138962548
 10
6.5992795321
 20
-10.020235723
  0
LWPOLYLINE
  5
347
100
AcDbEntity
  8
CASTELLO
100
AcDbPolyline
 62
250
  6
CONTINUOUS
 90
16
 70
0
 10
6.9916057528
 20
-11.2539932352
 10
6.9913044823
 20
-11.2601280673
 10
6.9903247637
 20
-11.2666310155
 10
6.9886680747
 20
-11.2730995797
 10
6.9863389232
 20
-11.2795161464
 10
6.983343643
 20
-11.2858632576
 10
6.9796903841
 20
-11.2921236343
 10
6.975389086
 20
-11.2982802375
 10
6.9704514535
 20
-11.304316308
 10
6.9648909282
 20
-11.3102154104
 10
6.9587226391
 20
-11.3159614918
 10
6.9519633778
 20
-11.3215389075
 10
6.9446315639
 20
-11.3269324598
 10
6.9367471658
 20
-11.3321274642
 10
6.92833164
 20
-11.3371097877
 10
6.9194078958
 20
-11.3418658706
  0
LWPOLYLINE
  5
348
100
AcDbEntity
  8
CASTELLO
100
AcDbPolyline
 62
250
  6
CONTINUOUS
 90
16
 70
0
 10
6.9916057528
 20
-10.9064617217
 10
6.9913025318
 20
-10.9126163659
 10
6.990321026
 20
-10.9191178752
 10
6.9886628482
 20
-10.9255849512
 10
6.9863325097
 20
-10.9319999993
 10
6.9833363505
 20
-10.9383455661
 10
6.9796825223
 20
-10.9446043875
 10
6.9753809659
 20
-10.9507594354
 10
6.9704433844
 20
-10.9567939638
 10
6.9648832113
 20
-10.9626915548
 10
6.9587155741
 20
-10.968436163
 10
6.9519572528
 20
-10.9740121593
 10
6.9446266346
 20
-10.9794043731
 10
6.9367436636
 20
-10.9845981341
 10
6.9283297869
 20
-10.9895793117
 10
6.9194078958
 20
-10.9943343539
  0
LINE
  5
349
100
AcDbEntity
  8
CORPO
100
AcDbLine
 62
7
  6
CONTINUOUS
 10
21.1553020546
 20
0.6120863893
 11
13.5627371544
 21
-3.4029869989
  0
LINE
  5
34A
100
AcDbEntity
  8
CORPO
100
AcDbLine
 62
7
  6
CONTINUOUS
 10
12.8100430704
 20
-3.948498176
 11
7.4518008959
 21
-6.7820249019
  0
LINE
  5
34B
100
AcDbEntity
  8
CORPO
100
AcDbLine
 62
250
  6
CONTINUOUS
 10
21.5748452656
 20
0.9161481798
 11
7.4518008959
 21
-6.538026792
  0
LINE
  5
34C
100
AcDbEntity
  8
CORPO
100
AcDbLine
 62
250
  6
CONTINUOUS
 10
21.9138087495
 20
1.7489122023
 11
7.4518008959
 21
-5.739011563
  0
LINE
  5
34D
100
AcDbEntity
  8
POMELLO
100
AcDbLine
 62
7
  6
CONTINUOUS
 10
-11.9568083851
 20
-13.2370564852
 11
-11.5632560217
 21
-13.0743113948
  0
LWPOLYLINE
  5
34E
100
AcDbEntity
  8
POMELLO
100
AcDbPolyline
 62
7
  6
CONTINUOUS
 90
13
 70
0
 10
-11.5632560217
 20
-13.0743113948
 10
-11.1257106084
 20
-12.9181380233
 10
-10.6920097936
 20
-12.7883185983
 10
-10.2613229874
 20
-12.6846990119
 10
-9.8344807796
 20
-12.6074333719
 10
-9.4139749394
 20
-12.5569840018
 10
-8.9996967013
 20
-12.5335081919
 10
-8.5917548309
 20
-12.5368486519
 10
-8.1929673932
 20
-12.566995835
 10
-7.8034871843
 20
-12.6241324261
 10
-7.4231614082
 20
-12.7080757403
 10
-7.0543497415
 20
-12.8182681755
 10
-6.6971445606
 20
-12.9548393313
  0
LWPOLYLINE
  5
34F
100
AcDbEntity
  8
TRECCIA
100
AcDbPolyline
 62
250
  6
CONTINUOUS
 90
24
 70
0
 10
-13.4078491491
 20
16.28590688
 10
-13.3417307175
 20
16.2561402284
 10
-13.2697515649
 20
16.2299922706
 10
-13.1927003099
 20
16.2077494892
 10
-13.1114211422
 20
16.1896555808
 10
-13.0268045734
 20
16.1759087858
 10
-12.9397776804
 20
16.1666597173
 10
-12.8512939479
 20
16.1620097097
 10
-12.7623228223
 20
16.1620097097
 10
-12.6738390898
 20
16.1666597173
 10
-12.5868121968
 20
16.1759087858
 10
-12.502195628
 20
16.1896555808
 10
-12.4209164603
 20
16.2077494892
 10
-12.3438652053
 20
16.2299922706
 10
-12.2718860527
 20
16.2561402284
 10
-12.2057676211
 20
16.28590688
 10
-12.1462343179
 20
16.3189660958
 10
-12.0939384024
 20
16.3549556721
 10
-12.0494528396
 20
16.3934812996
 10
-12.0132650226
 20
16.4341208835
 10
-11.9857714328
 20
16.4764291678
 10
-11.9672732956
 20
16.5199426144
 10
-11.9579732806
 20
16.5641844806
 10
-11.9568083851
 20
16.586427262
  0
LWPOLYLINE
  5
350
100
AcDbEntity
  8
CASTELLO
100
AcDbPolyline
 62
250
  6
CONTINUOUS
 90
13
 70
0
 10
-11.8124222053
 20
22.7083300705
 10
-11.6639869506
 20
22.5657290459
 10
-11.5104061654
 20
22.4242487982
 10
-11.3517162697
 20
22.2839337043
 10
-11.1879165078
 20
22.1447971439
 10
-11.0190796205
 20
22.0069161332
 10
-10.8453626678
 20
21.8704280149
 10
-10.6668139392
 20
21.7353757708
 10
-10.4834808698
 20
21.601801712
 10
-10.2955385988
 20
21.4698362562
 10
-10.1030879225
 20
21.339547921
 10
-9.9061449832
 20
21.2109468609
 10
-9.7047672246
 20
21.0840727698
  0
LINE
  5
351
100
AcDbEntity
  8
CASTELLO
100
AcDbLine
 62
250
  6
CONTINUOUS
 10
12.0075136548
 20
32.6875304537
 11
12.0075136548
 21
32.1902004967
  0
LINE
  5
352
100
AcDbEntity
  8
CASTELLO
100
AcDbLine
 62
250
  6
CONTINUOUS
 10
12.0075136548
 20
-4.3728889507
 11
12.0075136548
 21
-4.6658347115
  0
LINE
  5
353
100
AcDbEntity
  8
CASTELLO
100
AcDbLine
 62
7
  6
CONTINUOUS
 10
12.1478437546
 20
32.9880349623
 11
12.1478437546
 21
32.3664645703
  0
LINE
  5
354
100
AcDbEntity
  8
CASTELLO
100
AcDbLine
 62
7
  6
CONTINUOUS
 10
12.1478437546
 20
-4.2986800823
 11
12.1478437546
 21
-4.619010035
  0
LWPOLYLINE
  5
355
100
AcDbEntity
  8
CASTELLO
100
AcDbPolyline
 62
250
  6
CONTINUOUS
 90
31
 70
0
 10
6.9194078958
 20
-10.9943343539
 10
6.9237510371
 20
-10.982110773
 10
6.9275988461
 20
-10.9696775826
 10
6.9309404148
 20
-10.9570685234
 10
6.9337664392
 20
-10.9443166796
 10
6.9360684391
 20
-10.9314579206
 10
6.9378392715
 20
-10.918530887
 10
6.9390740025
 20
-10.9055721935
 10
6.9397694654
 20
-10.8926159308
 10
6.9399237582
 20
-10.8796971598
 10
6.9395364084
 20
-10.8668509545
 10
6.9386084266
 20
-10.8541126226
 10
6.9371423503
 20
-10.8415172771
 10
6.9351422046
 20
-10.8290994328
 10
6.9326134417
 20
-10.8168928923
 10
6.9295629605
 20
-10.8049309676
 10
6.9259990832
 20
-10.7932463147
 10
6.9219315448
 20
-10.7818708703
 10
6.9173714635
 20
-10.770835734
 10
6.912331299
 20
-10.7601710556
 10
6.9068248143
 20
-10.7499059557
 10
6.9008670502
 20
-10.7400684726
 10
6.8944742698
 20
-10.7306854627
 10
6.887663943
 20
-10.7217825699
 10
6.8804547051
 20
-10.7133841485
 10
6.8728662756
 20
-10.7055131532
 10
6.8649193656
 20
-10.6981910495
 10
6.8566356487
 20
-10.6914378009
 10
6.8480377381
 20
-10.6852718439
 10
6.8391491294
 20
-10.6797100293
 10
6.8299941005
 20
-10.6747675479
  0
LINE
  5
356
100
AcDbEntity
  8
CASTELLO
100
AcDbLine
 62
250
  6
CONTINUOUS
 10
5.1480443534
 20
-11.0756712796
 11
4.5257263213
 21
-11.8207306971
  0
LINE
  5
357
100
AcDbEntity
  8
CASTELLO
100
AcDbLine
 62
250
  6
CONTINUOUS
 10
5.5010805414
 20
-11.2014411176
 11
4.7898599333
 21
-12.0529375948
  0
LINE
  5
358
100
AcDbEntity
  8
CORPO
100
AcDbLine
 62
7
  6
CONTINUOUS
 10
13.5627371544
 20
-3.4029869989
 11
12.8100430704
 21
-3.948498176
  0
LINE
  5
359
100
AcDbEntity
  8
CORPO
100
AcDbLine
 62
250
  6
CONTINUOUS
 10
21.5748452656
 20
0.9161481798
 11
21.1553020546
 21
0.6120863893
  0
LINE
  5
35A
100
AcDbEntity
  8
CORPO
100
AcDbLine
 62
7
  6
CONTINUOUS
 10
21.6419561002
 20
0.9578740993
 11
21.2255752607
 21
0.6561042213
  0
LWPOLYLINE
  5
35B
100
AcDbEntity
  8
CORPO
100
AcDbPolyline
 62
250
  6
CONTINUOUS
 90
3
 70
0
 10
21.6419561002
 20
0.9578740993
 10
21.6236676398
 20
0.9451694693
 10
21.5748452656
 20
0.9161481798
  0
LWPOLYLINE
  5
35C
100
AcDbEntity
  8
CORPO
100
AcDbPolyline
 62
7
  6
CONTINUOUS
 90
3
 70
0
 10
21.1553020546
 20
0.6120863893
 10
21.2116939
 20
0.6462784012
 10
21.2244282416
 20
0.6552731589
  0
LWPOLYLINE
  5
35D
100
AcDbEntity
  8
CASTELLO
100
AcDbPolyline
 62
250
  6
CONTINUOUS
 90
34
 70
0
 10
0.5550475412
 20
-11.5548514907
 10
0.5377532095
 20
-11.5636550469
 10
0.5197277483
 20
-11.5720407099
 10
0.5010110897
 20
-11.579989903
 10
0.4816446968
 20
-11.5874850161
 10
0.4616714723
 20
-11.5945094453
 10
0.441135663
 20
-11.6010476293
 10
0.4200827621
 20
-11.6070850839
 10
0.3985594085
 20
-11.6126084344
 10
0.3766132829
 20
-11.6176054447
 10
0.3542930029
 20
-11.6220650451
 10
0.3316480148
 20
-11.6259773559
 10
0.3087284844
 20
-11.6293337104
 10
0.2855851855
 20
-11.6321266731
 10
0.2622693877
 20
-11.6343500566
 10
0.2388327428
 20
-11.6359989356
 10
0.2153271701
 20
-11.6370696573
 10
0.191804742
 20
-11.6375598497
 10
0.1683175678
 20
-11.6374684268
 10
0.144917679
 20
-11.6367955911
 10
0.1216569135
 20
-11.6355428333
 10
0.0985868013
 20
-11.6337129286
 10
0.0757584497
 20
-11.6313099307
 10
0.0532224307
 20
-11.6283391631
 10
0.0310286686
 20
-11.6248072069
 10
0.0092263295
 20
-11.6207218866
 10
-0.0121362878
 20
-11.6160922523
 10
-0.0330118583
 20
-11.6109285601
 10
-0.0533541362
 20
-11.6052422493
 10
-0.0731180569
 20
-11.5990459168
 10
-0.0922598374
 20
-11.5923532894
 10
-0.1107370725
 20
-11.5851791933
 10
-0.1285088294
 20
-11.5775395213
 10
-0.1455357383
 20
-11.5694511979
  0
LINE
  5
35E
100
AcDbEntity
  8
CASTELLO
100
AcDbLine
 62
7
  6
CONTINUOUS
 10
11.1259781962
 20
-5.2252637556
 11
7.4518008959
 21
-7.0694962949
  0
LINE
  5
35F
100
AcDbEntity
  8
CASTELLO
100
AcDbLine
 62
7
  6
CONTINUOUS
 10
12.0075136548
 20
-4.6658347115
 11
7.4518008959
 21
-6.9255018251
  0
LINE
  5
360
100
AcDbEntity
  8
CASTELLO
100
AcDbLine
 62
250
  6
CONTINUOUS
 10
6.733924473
 20
-9.7474605108
 11
7.4518008959
 21
-9.3932967435
  0
LINE
  5
361
100
AcDbEntity
  8
CASTELLO
100
AcDbLine
 62
7
  6
CONTINUOUS
 10
6.5992800538
 20
-10.0202354656
 11
7.3209262387
 21
-9.6642118893
  0
LINE
  5
362
100
AcDbEntity
  8
CASTELLO
100
AcDbLine
 62
7
  6
CONTINUOUS
 10
6.5992795321
 20
-10.020235723
 11
6.5888657353
 21
-10.0249839265
  0
LINE
  5
363
100
AcDbEntity
  8
CASTELLO
100
AcDbLine
 62
250
  6
CONTINUOUS
 10
1.2362352005
 20
-12.0551671588
 11
6.733924473
 21
-9.7474605108
  0
LINE
  5
364
100
AcDbEntity
  8
CASTELLO
100
AcDbLine
 62
7
  6
CONTINUOUS
 10
1.0824279551
 20
-12.3363628572
 11
6.5888755674
 21
-10.0249798138
  0
LWPOLYLINE
  5
365
100
AcDbEntity
  8
CASTELLO
100
AcDbPolyline
 62
7
  6
CONTINUOUS
 90
85
 70
0
 10
-7.8248421596
 20
15.6565984135
 10
-7.7507115699
 20
15.6204300693
 10
-7.6771538154
 20
15.5861249534
 10
-7.6041688745
 20
15.5536830762
 10
-7.5319431168
 20
15.5231935097
 10
-7.4602900885
 20
15.4945672227
 10
-7.3886505113
 20
15.4675370811
 10
-7.3170009298
 20
15.4420420567
 10
-7.2453646332
 20
15.4181432581
 10
-7.1732524283
 20
15.3957567719
 10
-7.1005614453
 20
15.3748128181
 10
-7.0273942737
 20
15.3553813123
 10
-6.9535698525
 20
15.3375879113
 10
-6.878899614
 20
15.3213921117
 10
-6.8035716842
 20
15.3068346304
 10
-6.727969983
 20
15.2941629841
 10
-6.6520803935
 20
15.2834028057
 10
-6.5759164446
 20
15.274528746
 10
-6.4999034911
 20
15.2677118651
 10
-6.4240702719
 20
15.2629883543
 10
-6.3483873406
 20
15.2603223633
 10
-6.27319277
 20
15.2597768922
 10
-6.1984735146
 20
15.2613848257
 10
-6.124241827
 20
15.265113661
 10
-6.0508737687
 20
15.2709282963
 10
-5.9783579876
 20
15.2788691818
 10
-5.9067050378
 20
15.2888962511
 10
-5.8363239592
 20
15.3008535705
 10
-5.7672530066
 20
15.3147775141
 10
-5.6994532409
 20
15.3306320362
 10
-5.6332181009
 20
15.3481524806
 10
-5.5687347116
 20
15.3672856905
 10
-5.5058154807
 20
15.3880850463
 10
-5.4441918686
 20
15.41044565
 10
-5.3839414222
 20
15.4342869776
 10
-5.3249860814
 20
15.4596897983
 10
-5.2668237636
 20
15.4867912174
 10
-5.2093005777
 20
15.515624809
 10
-5.1525695787
 20
15.5461573989
 10
-5.0965889535
 20
15.5784260412
 10
-5.0412870923
 20
15.6124700223
 10
-4.9867346781
 20
15.6482504983
 10
-4.9331033614
 20
15.6856873169
 10
-4.8803985616
 20
15.7248053937
 10
-4.8286140052
 20
15.7655802197
 10
-4.7779039337
 20
15.8078574424
 10
-4.7283239189
 20
15.8515911565
 10
-4.6798176906
 20
15.8968275985
 10
-4.6323718083
 20
15.9435505892
 10
-4.5860982851
 20
15.9915977618
 10
-4.5408844269
 20
16.0411318051
 10
-4.4963794718
 20
16.0926242477
 10
-4.452494539
 20
16.1460996975
 10
-4.4093171843
 20
16.2015341753
 10
-4.3667608357
 20
16.2593265502
 10
-4.3246836013
 20
16.3196615937
 10
-4.283225505
 20
16.38235542
 10
-4.2427227751
 20
16.4472539469
 10
-4.203178053
 20
16.5144278701
 10
-4.164587058
 20
16.5838072681
 10
-4.1272760164
 20
16.6550269514
 10
-4.0912823394
 20
16.7280987665
 10
-4.0565674427
 20
16.8030114172
 10
-4.0233440598
 20
16.8793647612
 10
-3.9916480974
 20
16.9571569798
 10
-3.9614429617
 20
17.0363902097
 10
-3.9328331178
 20
17.1166700126
 10
-3.9058370901
 20
17.198043018
 10
-3.8804361001
 20
17.2804627082
 10
-3.8566791783
 20
17.3633946773
 10
-3.8345931902
 20
17.4468458663
 10
-3.8141516095
 20
17.530809165
 10
-3.7953239462
 20
17.614728823
 10
-3.7781622913
 20
17.6983893686
 10
-3.7626155123
 20
17.7820058124
 10
-3.7484984638
 20
17.8656680431
 10
-3.735802147
 20
17.949219488
 10
-3.7245362837
 20
18.0328163713
 10
-3.7145434041
 20
18.1170179673
 10
-3.7057821399
 20
18.2017730387
 10
-3.6982939139
 20
18.2871327901
 10
-3.6920447781
 20
18.3738104725
 10
-3.6870230344
 20
18.4620440135
 10
-3.6832396291
 20
18.5515958315
 10
-3.680694222
 20
18.6424660825
  0
LWPOLYLINE
  5
366
100
AcDbEntity
  8
TRECCIA
100
AcDbPolyline
 62
250
  6
CONTINUOUS
 90
25
 70
0
 10
-11.3925948227
 20
19.761706444
 10
-11.3297689553
 20
19.7262609592
 10
-11.2676314212
 20
19.6831387203
 10
-11.2068630123
 20
19.6328121836
 10
-11.14812952
 20
19.5758327372
 10
-11.0920744407
 20
19.5128246598
 10
-11.0393119256
 20
19.4444782811
 10
-10.9904200519
 20
19.3715424183
 10
-10.9459344891
 20
19.294816172
 10
-10.9063426303
 20
19.215140171
 10
-10.8720782524
 20
19.1333873622
 10
-10.8435167629
 20
19.0504534466
 10
-10.8209710876
 20
18.9672470654
 10
-10.8046882415
 20
18.8846798452
 10
-10.7948466229
 20
18.8036564098
 10
-10.7915540587
 20
18.7250644688
 10
-10.7948466229
 20
18.6497650919
 10
-10.8046882415
 20
18.578583275
 10
-10.8209710876
 20
18.512298901
 10
-10.8435167629
 20
18.4516381951
 10
-10.8720782524
 20
18.397265769
 10
-10.9063426303
 20
18.3497773382
 10
-10.9459344891
 20
18.3096931959
 10
-10.9904200519
 20
18.2774525124
 10
-11.0124632666
 20
18.2653217384
  0
LINE
  5
367
100
AcDbEntity
  8
CORPO
100
AcDbLine
 62
7
  6
CONTINUOUS
 10
11.8435793859
 20
33.3293086958
 11
11.8452536926
 21
33.2996472776
  0
LINE
  5
368
100
AcDbEntity
  8
CORPO
100
AcDbLine
 62
250
  6
CONTINUOUS
 10
12.6321406507
 20
34.2930589342
 11
12.6321406507
 21
33.971734652
  0
LINE
  5
369
100
AcDbEntity
  8
CORPO
100
AcDbLine
 62
7
  6
CONTINUOUS
 10
13.3148508486
 20
33.8713639532
 11
13.3148508486
 21
34.3043766551
  0
LINE
  5
36A
100
AcDbEntity
  8
CONTATTO
100
AcDbLine
 62
7
  6
CONTINUOUS
 10
14.2823145611
 20
33.035233842
 11
14.2823145611
 21
32.5693590755
  0
LINE
  5
36B
100
AcDbEntity
  8
CORPO
100
AcDbLine
 62
250
  6
CONTINUOUS
 10
14.699647742
 20
33.7643490657
 11
14.699647742
 21
34.2230806319
  0
LINE
  5
36C
100
AcDbEntity
  8
CONTATTO
100
AcDbLine
 62
7
  6
CONTINUOUS
 10
14.7320592224
 20
32.9134860088
 11
14.7320592224
 21
32.560300455
  0
LINE
  5
36D
100
AcDbEntity
  8
CORPO
100
AcDbLine
 62
250
  6
CONTINUOUS
 10
14.8406606634
 20
33.7652793439
 11
14.8406606634
 21
34.234076529
  0
LWPOLYLINE
  5
36E
100
AcDbEntity
  8
CORPO
100
AcDbPolyline
 62
250
  6
CONTINUOUS
 90
3
 70
0
 10
21.5748452656
 20
0.9161481798
 10
21.6266154169
 20
0.9579602565
 10
21.6746592862
 20
1.0056371093
  0
LWPOLYLINE
  5
36F
100
AcDbEntity
  8
CORPO
100
AcDbPolyline
 62
7
  6
CONTINUOUS
 90
13
 70
0
 10
21.6419561003
 20
0.9578740993
 10
21.7165108244
 20
1.0165976779
 10
21.7873036733
 20
1.0822120735
 10
21.8536791146
 20
1.1545336414
 10
21.9149397449
 20
1.233207938
 10
21.9705680202
 20
1.3179683901
 10
22.020211132
 20
1.4087790415
 10
22.063412302
 20
1.5054761959
 10
22.0995916236
 20
1.6075039706
 10
22.128320978
 20
1.7144274788
 10
22.1492568121
 20
1.8259539902
 10
22.1620616279
 20
1.9417670591
 10
22.1664029292
 20
2.061508469
  0
LWPOLYLINE
  5
370
100
AcDbEntity
  8
CASTELLO
100
AcDbPolyline
 62
7
  6
CONTINUOUS
 90
19
 70
0
 10
6.3301295139
 20
-11.7459935983
 10
6.3363551857
 20
-11.7421749885
 10
6.3423045236
 20
-11.7378632364
 10
6.3479640479
 20
-11.7330681113
 10
6.3533209085
 20
-11.7278004904
 10
6.3583629785
 20
-11.722072303
 10
6.363078879
 20
-11.7158965065
 10
6.3674578764
 20
-11.7092871171
 10
6.3714900366
 20
-11.7022591148
 10
6.3751663137
 20
-11.6948283809
 10
6.3784783087
 20
-11.6870117848
 10
6.381418483
 20
-11.6788270522
 10
6.3839803075
 20
-11.6702926639
 10
6.3861578888
 20
-11.6614279989
 10
6.3879462371
 20
-11.6522531674
 10
6.3893414726
 20
-11.6427888725
 10
6.3903404306
 20
-11.6330565581
 10
6.3909406681
 20
-11.623078359
 10
6.3911407241
 20
-11.6128769293
  0
LWPOLYLINE
  5
371
100
AcDbEntity
  8
CASTELLO
100
AcDbPolyline
 62
250
  6
CONTINUOUS
 90
18
 70
0
 10
6.8557254062
 20
-11.4764268345
 10
6.861316514
 20
-11.4733132034
 10
6.8680341508
 20
-11.4688676264
 10
6.8744051956
 20
-11.4638328304
 10
6.8804121442
 20
-11.4582226276
 10
6.886038498
 20
-11.4520524158
 10
6.8912688211
 20
-11.4453391186
 10
6.8960887763
 20
-11.4381011336
 10
6.9004851429
 20
-11.4303583073
 10
6.9044458646
 20
-11.4221318667
 10
6.9079600778
 20
-11.413444368
 10
6.9110181413
 20
-11.4043196391
 10
6.9136116702
 20
-11.3947826932
 10
6.9157335497
 20
-11.3848596861
 10
6.9173779564
 20
-11.3745778563
 10
6.9185403833
 20
-11.3639654098
 10
6.9192176478
 20
-11.3530514385
 10
6.9194078958
 20
-11.3418658706
  0
LWPOLYLINE
  5
372
100
AcDbEntity
  8
CASTELLO
100
AcDbPolyline
 62
250
  6
CONTINUOUS
 90
18
 70
0
 10
4.7235983407
 20
-12.5287621551
 10
4.7309448745
 20
-12.5247682118
 10
4.73765603
 20
-12.5203234736
 10
4.7440285819
 20
-12.515285862
 10
4.7500450641
 20
-12.5096691841
 10
4.7556889865
 20
-12.5034888343
 10
4.7609448804
 20
-12.4967617516
 10
4.7657983401
 20
-12.4895063738
 10
4.7702360634
 20
-12.4817425865
 10
4.7742458872
 20
-12.4734916688
 10
4.7778168214
 20
-12.4647762348
 10
4.7809390787
 20
-12.4556201721
 10
4.7836041016
 20
-12.4460485755
 10
4.7858045858
 20
-12.4360876791
 10
4.7875345001
 20
-12.4257647838
 10
4.7887891032
 20
-12.4151081828
 10
4.7895649564
 20
-12.4041470837
 10
4.7898599333
 20
-12.3929115289
  0
LWPOLYLINE
  5
373
100
AcDbEntity
  8
CASTELLO
100
AcDbPolyline
 62
7
  6
CONTINUOUS
 90
22
 70
0
 10
6.8557254062
 20
-11.4764268345
 10
6.8655321807
 20
-11.4711158777
 10
6.8765438008
 20
-11.4644492272
 10
6.8872074615
 20
-11.4572176031
 10
6.8974941567
 20
-11.4494383855
 10
6.9073828404
 20
-11.4411240944
 10
6.91684603
 20
-11.432293113
 10
6.9258542886
 20
-11.4229680208
 10
6.9343836435
 20
-11.4131682518
 10
6.9424084659
 20
-11.4029169451
 10
6.9499029769
 20
-11.3922403594
 10
6.9568440711
 20
-11.3811642506
 10
6.9632090858
 20
-11.369716887
 10
6.9689768236
 20
-11.3579278148
 10
6.9741281213
 20
-11.3458265012
 10
6.9786452605
 20
-11.3334430452
 10
6.9825106993
 20
-11.3208124479
 10
6.9857084873
 20
-11.3079733738
 10
6.9882260739
 20
-11.2949617291
 10
6.9900530239
 20
-11.281813258
 10
6.991180549
 20
-11.2685679124
 10
6.9916057528
 20
-11.2539929023
  0
LINE
  5
374
100
AcDbEntity
  8
CASTELLO
100
AcDbLine
 62
7
  6
CONTINUOUS
 10
6.327035625
 20
-11.7476547
 11
6.3301295139
 21
-11.7459935983
  0
LINE
  5
375
100
AcDbEntity
  8
CASTELLO
100
AcDbLine
 62
250
  6
CONTINUOUS
 10
6.9194078958
 20
-11.3418658706
 11
6.3911407241
 21
-11.6128769293
  0
LINE
  5
376
100
AcDbEntity
  8
CASTELLO
100
AcDbLine
 62
7
  6
CONTINUOUS
 10
6.8557198583
 20
-11.4764296809
 11
6.3270375948
 21
-11.7476536895
  0
LINE
  5
377
100
AcDbEntity
  8
CASTELLO
100
AcDbLine
 62
7
  6
CONTINUOUS
 10
6.3252992076
 20
-11.7485229231
 11
6.327035625
 21
-11.7476547
  0
LINE
  5
378
100
AcDbEntity
  8
CASTELLO
100
AcDbLine
 62
250
  6
CONTINUOUS
 10
6.3911407241
 20
-11.6128769293
 11
4.7898599333
 21
-12.3929115289
  0
LINE
  5
379
100
AcDbEntity
  8
CASTELLO
100
AcDbLine
 62
7
  6
CONTINUOUS
 10
6.3252964437
 20
-11.7485242695
 11
4.7235983407
 21
-12.5287621551
  0
LWPOLYLINE
  5
37A
100
AcDbEntity
  8
CASTELLO
100
AcDbPolyline
 62
7
  6
CONTINUOUS
 90
18
 70
0
 10
4.7235983407
 20
-12.5287621551
 10
4.7113773809
 20
-12.5343145213
 10
4.6987482573
 20
-12.5392489614
 10
4.6857494581
 20
-12.5435275904
 10
4.6724042076
 20
-12.5471201642
 10
4.6587784783
 20
-12.5499883914
 10
4.6449795195
 20
-12.5520978634
 10
4.6310805374
 20
-12.5534341114
 10
4.6171111161
 20
-12.5539924991
 10
4.6031102646
 20
-12.5537681461
 10
4.5891368003
 20
-12.5527595398
 10
4.575231045
 20
-12.5509680724
 10
4.5613976052
 20
-12.54838908
 10
4.5476295437
 20
-12.5450078178
 10
4.5340284947
 20
-12.5408357194
 10
4.5207426642
 20
-12.5359192083
 10
4.5078085089
 20
-12.530282418
 10
4.5023052651
 20
-12.5276142524
  0
LWPOLYLINE
  5
37B
100
AcDbEntity
  8
CASTELLO
100
AcDbPolyline
 62
250
  6
CONTINUOUS
 90
10
 70
0
 10
-7.3267308309
 20
20.0192863621
 10
-7.2958872663
 20
20.0046888441
 10
-7.2651024142
 20
19.9917676419
 10
-7.2344348753
 20
19.9805473517
 10
-7.2039430269
 20
19.971049332
 10
-7.1736849122
 20
19.9632916628
 10
-7.143718129
 20
19.9572891112
 10
-7.1140997209
 20
19.9530531036
 10
-7.0848860683
 20
19.9505917032
 10
-7.060181742
 20
19.9500056483
  0
LINE
  5
37C
100
AcDbEntity
  8
CASTELLO
100
AcDbLine
 62
250
  6
CONTINUOUS
 10
-7.0792434575
 20
20.1430300488
 11
-7.0661519256
 21
20.13676914
  0
LWPOLYLINE
  5
37D
100
AcDbEntity
  8
CASTELLO
100
AcDbPolyline
 62
7
  6
CONTINUOUS
 90
18
 70
0
 10
-8.3414797491
 20
18.5909305982
 10
-8.3882083948
 20
18.6152747981
 10
-8.4348894839
 20
18.6415513318
 10
-8.4814672556
 20
18.6697323885
 10
-8.5278966904
 20
18.6997961472
 10
-8.5741109751
 20
18.7317020657
 10
-8.6200224113
 20
18.7653869896
 10
-8.6655457774
 20
18.8007856495
 10
-8.7106579314
 20
18.837876862
 10
-8.7553644383
 20
18.8766631335
 10
-8.7996466055
 20
18.9171370311
 10
-8.8434131891
 20
18.9592234061
 10
-8.8865623072
 20
19.0028212372
 10
-8.929008944
 20
19.0478414673
 10
-8.9707377917
 20
19.0942638389
 10
-9.0117527695
 20
19.1420881834
 10
-9.0520296039
 20
19.1912948571
 10
-9.0825068746
 20
19.2302999344
  0
LWPOLYLINE
  5
37E
100
AcDbEntity
  8
CASTELLO
100
AcDbPolyline
 62
250
  6
CONTINUOUS
 90
4
 70
0
 10
-7.3267308309
 20
20.0192863621
 10
-7.3575743955
 20
20.0355324087
 10
-7.3883592476
 20
20.0533960586
 10
-7.4095011451
 20
20.0668027992
  0
LWPOLYLINE
  5
37F
100
AcDbEntity
  8
CASTELLO
100
AcDbPolyline
 62
250
  6
CONTINUOUS
 90
5
 70
0
 10
-7.1620672894
 20
20.190519727
 10
-7.1546703267
 20
20.1856845818
 10
-7.1294950483
 20
20.1703455192
 10
-7.1043419549
 20
20.1561250088
 10
-7.0792434575
 20
20.1430300488
  0
LWPOLYLINE
  5
380
100
AcDbEntity
  8
CASTELLO
100
AcDbPolyline
 62
250
  6
CONTINUOUS
 90
14
 70
0
 10
-6.4449102686
 20
36.9874288677
 10
-6.4405627075
 20
36.9800759986
 10
-6.4367125591
 20
36.9729831704
 10
-6.4333703374
 20
36.9661697522
 10
-6.4305451693
 20
36.9596543499
 10
-6.4282447696
 20
36.9534547558
 10
-6.4264754204
 20
36.9475878996
 10
-6.4252419534
 20
36.9420698025
 10
-6.4245477368
 20
36.9369155333
 10
-6.4243946664
 20
36.9321391672
 10
-6.4247831603
 20
36.9277537474
 10
-6.4257121575
 20
36.9237712497
 10
-6.4271791212
 20
36.9202025493
 10
-6.4291360138
 20
36.9171266029
  0
LINE
  5
381
100
AcDbEntity
  8
CORPO
100
AcDbLine
 62
7
  6
CONTINUOUS
 10
16.6442966291
 20
36.3344587269
 11
16.6442966291
 21
35.9266074596
  0
LWPOLYLINE
  5
382
100
AcDbEntity
  8
CORPO
100
AcDbPolyline
 62
250
  6
CONTINUOUS
 90
11
 70
0
 10
21.6746592862
 20
1.0056371093
 10
21.7187711978
 20
1.0589744819
 10
21.758762293
 20
1.1177438422
 10
21.7944614215
 20
1.1816934802
 10
21.8257158439
 20
1.2505496211
 10
21.852391716
 20
1.3240172027
 10
21.8743749299
 20
1.401781737
 10
21.8915715273
 20
1.4835109195
 10
21.9039078218
 20
1.5688550937
 10
21.9113308514
 20
1.6574486293
 10
21.9138087495
 20
1.7489122023
  0
LWPOLYLINE
  5
383
100
AcDbEntity
  8
CASTELLO
100
AcDbPolyline
 62
250
  6
CONTINUOUS
 90
13
 70
0
 10
-3.6806942217
 20
18.6424660787
 10
-3.9658962709
 20
18.7166837061
 10
-4.2488567663
 20
18.7934740987
 10
-4.5294869542
 20
18.8728190465
 10
-4.807760075
 20
18.9547189275
 10
-5.0835220963
 20
19.0391373711
 10
-5.356498333
 20
19.1259958475
 10
-5.6266028212
 20
19.2152702118
 10
-5.8937509388
 20
19.3069367465
 10
-6.1576818504
 20
19.400907882
 10
-6.4182585208
 20
19.4971332201
 10
-6.6754606409
 20
19.5956046898
 10
-6.9292088231
 20
19.6962935691
  0
LWPOLYLINE
  5
384
100
AcDbEntity
  8
CASTELLO
100
AcDbPolyline
 62
7
  6
CONTINUOUS
 90
74
 70
0
 10
-7.9975512242
 20
21.7087344889
 10
-7.986124748
 20
21.7028506104
 10
-7.9736024448
 20
21.6960337996
 10
-7.9600237888
 20
21.6882398806
 10
-7.9454252186
 20
21.6794249083
 10
-7.929857562
 20
21.6695558391
 10
-7.9133828535
 20
21.6586103912
 10
-7.8960623088
 20
21.6465701097
 10
-7.8779295652
 20
21.6334003181
 10
-7.8590009079
 20
21.6190535895
 10
-7.8393034619
 20
21.6034894827
 10
-7.8189058795
 20
21.5867017963
 10
-7.7978840782
 20
21.5686954158
 10
-7.7762884284
 20
21.5494578047
 10
-7.7541732582
 20
21.5289824257
 10
-7.7316204183
 20
21.5072924759
 10
-7.7086814006
 20
21.4843871046
 10
-7.6854136385
 20
21.4602741703
 10
-7.6619064357
 20
21.4349997783
 10
-7.6382217395
 20
21.4085875542
 10
-7.6144066064
 20
21.3810480795
 10
-7.5905254626
 20
21.3524152518
 10
-7.5666389169
 20
21.3227233799
 10
-7.5427925735
 20
21.2919919338
 10
-7.5190264135
 20
21.2602349887
 10
-7.4953760179
 20
21.2274615963
 10
-7.4719103136
 20
21.1937298387
 10
-7.4487162407
 20
21.159132609
 10
-7.4258444643
 20
21.1237179333
 10
-7.4033397278
 20
21.0875290551
 10
-7.3812743339
 20
21.0506600911
 10
-7.3596944964
 20
21.0131708101
 10
-7.3386372964
 20
20.975110126
 10
-7.3181556726
 20
20.9365614436
 10
-7.2982837695
 20
20.8975803376
 10
-7.2790578854
 20
20.8582317463
 10
-7.2605281074
 20
20.8186172703
 10
-7.2427190784
 20
20.7787936746
 10
-7.2256601051
 20
20.7388337963
 10
-7.2093996086
 20
20.6988668448
 10
-7.1939526696
 20
20.6589538715
 10
-7.1793365342
 20
20.6191679743
 10
-7.1655909721
 20
20.5796579317
 10
-7.1527290592
 20
20.5405166946
 10
-7.1407429247
 20
20.5017824685
 10
-7.1296322171
 20
20.4635216051
 10
-7.1193894588
 20
20.4257831795
 10
-7.1100123776
 20
20.3886432849
 10
-7.1015018201
 20
20.3522074787
 10
-7.0938416152
 20
20.3165266474
 10
-7.0870161319
 20
20.2816641003
 10
-7.0810163337
 20
20.2477394994
 10
-7.0758171902
 20
20.2148135872
 10
-7.071387366
 20
20.1829211577
 10
-7.0676987793
 20
20.1521368596
 10
-7.0647168659
 20
20.1225120743
 10
-7.0624023464
 20
20.0940712102
 10
-7.0607153834
 20
20.0668450068
 10
-7.0596150965
 20
20.0408803189
 10
-7.0590571203
 20
20.016189005
 10
-7.0589968414
 20
19.9927530876
 10
-7.0593906593
 20
19.9705823013
 10
-7.0601926824
 20
19.9497210796
 10
-7.0613537362
 20
19.9302077771
 10
-7.0628279776
 20
19.9120063881
 10
-7.0645592391
 20
19.8951953831
 10
-7.0664698834
 20
19.8799540884
 10
-7.0684740786
 20
19.8664037486
 10
-7.0705283086
 20
19.8543633171
 10
-7.072618331
 20
19.8435805484
 10
-7.0747071493
 20
19.8339981682
 10
-7.0767195984
 20
19.8257246057
 10
-7.0785801675
 20
19.8188233785
 10
-7.0796873955
 20
19.8150400677
  0
LWPOLYLINE
  5
385
100
AcDbEntity
  8
CASTELLO
100
AcDbPolyline
 62
7
  6
CONTINUOUS
 90
46
 70
0
 10
-8.2900028774
 20
22.0249925771
 10
-8.2431923302
 20
22.0006003058
 10
-8.1964560754
 20
21.974272238
 10
-8.14984493
 20
21.9460352517
 10
-8.1034011271
 20
21.9159123858
 10
-8.0571840359
 20
21.8839392823
 10
-8.0112696797
 20
21.8501676678
 10
-7.9657208581
 20
21.8146454198
 10
-7.9205739645
 20
21.7774019564
 10
-7.8758648925
 20
21.7384654631
 10
-7.8316227542
 20
21.697858056
 10
-7.7879167941
 20
21.6556392307
 10
-7.7448413553
 20
21.6118997049
 10
-7.7024673663
 20
21.5667178248
 10
-7.6608140616
 20
21.5201197902
 10
-7.6198971291
 20
21.47212256
 10
-7.5797638516
 20
21.4227804644
 10
-7.5404563237
 20
21.3721437274
 10
-7.501985565
 20
21.3202191869
 10
-7.4643668493
 20
21.2670159109
 10
-7.4276767014
 20
21.2126295125
 10
-7.3920153296
 20
21.1572017517
 10
-7.3574244897
 20
21.1008003628
 10
-7.3239386026
 20
21.0434833303
 10
-7.2916370104
 20
20.9853893526
 10
-7.2605798705
 20
20.9266438258
 10
-7.2307648858
 20
20.8672597757
 10
-7.2021776368
 20
20.8072090856
 10
-7.1748264485
 20
20.7465030086
 10
-7.1487688323
 20
20.6852619319
 10
-7.1240643968
 20
20.6236221689
 10
-7.100752931
 20
20.5616964027
 10
-7.0788395549
 20
20.4995120693
 10
-7.0583298387
 20
20.4370801182
 10
-7.0392355029
 20
20.374429239
 10
-7.0215925026
 20
20.3116695579
 10
-7.0054407196
 20
20.2489355754
 10
-6.9908030674
 20
20.1863354532
 10
-6.9776824846
 20
20.1239011779
 10
-6.9660861803
 20
20.0616547497
 10
-6.9560232006
 20
19.9996366884
 10
-6.9475110719
 20
19.9379461662
 10
-6.9405684561
 20
19.876694269
 10
-6.9352033937
 20
19.815963655
 10
-6.9314162632
 20
19.7558079138
 10
-6.9292088231
 20
19.6962935691
  0
LWPOLYLINE
  5
386
100
AcDbEntity
  8
CORPO
100
AcDbPolyline
 62
250
  6
CONTINUOUS
 90
10
 70
0
 10
22.1664029292
 20
32.6695705386
 10
22.1636965762
 20
32.6346989493
 10
22.1543463637
 20
32.5961599517
 10
22.1383876115
 20
32.558167314
 10
22.115939093
 20
32.5210037974
 10
22.0871678818
 20
32.4849459923
 10
22.0522881085
 20
32.4502622596
 10
22.0115593663
 20
32.4172107339
 10
21.9652847801
 20
32.3860374019
 10
21.9138087495
 20
32.3569742719
  0
LWPOLYLINE
  5
387
100
AcDbEntity
  8
CASTELLO
100
AcDbPolyline
 62
7
  6
CONTINUOUS
 90
12
 70
0
 10
-8.0383858157
 20
21.7270513564
 10
-8.040999282
 20
21.7275301599
 10
-8.0434390508
 20
21.7280414107
 10
-8.0441507017
 20
21.7282111258
 10
-8.0431725233
 20
21.7279373264
 10
-8.0406829323
 20
21.727168821
 10
-8.0367462202
 20
21.7258361351
 10
-8.0314036531
 20
21.7238682206
 10
-8.0247614078
 20
21.7212248606
 10
-8.0168794738
 20
21.7178568023
 10
-8.0077914844
 20
21.7137079415
 10
-7.9975512242
 20
21.7087344889
  0
LWPOLYLINE
  5
388
100
AcDbEntity
  8
CASTELLO
100
AcDbPolyline
 62
7
  6
CONTINUOUS
 90
85
 70
0
 10
-7.6214712274
 20
25.7175992834
 10
-7.6955541657
 20
25.7537287395
 10
-7.7690943252
 20
25.7879834354
 10
-7.8420916843
 20
25.8203633811
 10
-7.9143593923
 20
25.8507795064
 10
-7.9860842159
 20
25.8793209197
 10
-8.0578265382
 20
25.9062549077
 10
-8.1296090197
 20
25.9316431187
 10
-8.2014088341
 20
25.9554239799
 10
-8.2737181021
 20
25.9776799604
 10
-8.3466398716
 20
25.9984812685
 10
-8.4200708148
 20
26.0177578233
 10
-8.4941934334
 20
26.035381686
 10
-8.5691966291
 20
26.0513928465
 10
-8.6448910592
 20
26.0657515157
 10
-8.7208917995
 20
26.0782101132
 10
-8.7972125661
 20
26.0887428056
 10
-8.8738390563
 20
26.0973756939
 10
-8.950344284
 20
26.1039391143
 10
-9.026699305
 20
26.1083969773
 10
-9.1029323584
 20
26.1107856945
 10
-9.1787022284
 20
26.1110443561
 10
-9.2540220183
 20
26.1091399858
 10
-9.3288778352
 20
26.1051059208
 10
-9.4028880119
 20
26.0989807033
 10
-9.4760635784
 20
26.0907238431
 10
-9.5483927113
 20
26.0803761935
 10
-9.6194595824
 20
26.0680982569
 10
-9.68922398
 20
26.0538544194
 10
-9.7577254376
 20
26.0376806059
 10
-9.8246679348
 20
26.0198445403
 10
-9.8898600703
 20
26.0004018677
 10
-9.9534927825
 20
25.9792971561
 10
-10.0158436557
 20
25.9566314699
 10
-10.0768348962
 20
25.9324863489
 10
-10.1365437837
 20
25.9067804903
 10
-10.1954803759
 20
25.8793707581
 10
-10.2538023061
 20
25.850221734
 10
-10.3113511008
 20
25.8193692234
 10
-10.3681625073
 20
25.7867769944
 10
-10.4243074301
 20
25.7524055895
 10
-10.4797140364
 20
25.7162948945
 10
-10.534203994
 20
25.6785276809
 10
-10.5877701492
 20
25.6390799598
 10
-10.640418802
 20
25.597976115
 10
-10.691991932
 20
25.5553714166
 10
-10.7424307019
 20
25.5113144082
 10
-10.7917932503
 20
25.4657568707
 10
-10.8400970985
 20
25.4187088946
 10
-10.8872277384
 20
25.3703344621
 10
-10.9332989889
 20
25.3204699121
 10
-10.978670594
 20
25.2686339931
 10
-11.0234343642
 20
25.2147981536
 10
-11.0674971468
 20
25.1589915682
 10
-11.1109407769
 20
25.1008197891
 10
-11.1539072122
 20
25.0400972789
 10
-11.1962526176
 20
24.9770104473
 10
-11.2376300737
 20
24.911722797
 10
-11.2780335966
 20
24.8441672545
 10
-11.3174675316
 20
24.7744116577
 10
-11.3556008369
 20
24.7028216995
 10
-11.3923948977
 20
24.6293867392
 10
-11.4278871526
 20
24.5541179699
 10
-11.4618611378
 20
24.4774136042
 10
-11.4942810984
 20
24.3992736413
 10
-11.5251820933
 20
24.3196984133
 10
-11.5544543617
 20
24.239086409
 10
-11.5820793288
 20
24.1573898802
 10
-11.6080753106
 20
24.074656704
 10
-11.6323884087
 20
23.9914285634
 10
-11.6549910318
 20
23.9077017131
 10
-11.6759111149
 20
23.823479747
 10
-11.6951786179
 20
23.7393150924
 10
-11.7127411335
 20
23.6554281064
 10
-11.7286520281
 20
23.5715979928
 10
-11.74310009
 20
23.4877153711
 10
-11.7560959596
 20
23.4039336743
 10
-11.7676296978
 20
23.3200991493
 10
-11.7778588029
 20
23.2356418318
 10
-11.7868253481
 20
23.1506070831
 10
-11.794487283
 20
23.0649495386
 10
-11.8008752549
 20
22.9779634562
 10
-11.8059990919
 20
22.889413773
 10
-11.8098481926
 20
22.7995359218
 10
-11.812422205
 20
22.7083300718
  0
LINE
  5
389
100
AcDbEntity
  8
CASTELLO
100
AcDbLine
 62
250
  6
CONTINUOUS
 10
-0.1455359327
 20
24.0457885627
 11
-14.9703820103
 21
31.4582116015
  0
LWPOLYLINE
  5
38A
100
AcDbEntity
  8
CORPO
100
AcDbPolyline
 62
7
  6
CONTINUOUS
 90
10
 70
0
 10
22.1664029292
 20
32.6695705386
 10
22.1625980331
 20
32.783508235
 10
22.151451944
 20
32.896772432
 10
22.1333136189
 20
33.0091597054
 10
22.1083585177
 20
33.1208964822
 10
22.0768115183
 20
33.2315286497
 10
22.0391902521
 20
33.3398350388
 10
21.9958890166
 20
33.4453190098
 10
21.946936235
 20
33.5482458904
 10
21.8924041895
 20
33.6484903001
  0
LINE
  5
38B
100
AcDbEntity
  8
CORPO
100
AcDbLine
 62
7
  6
CONTINUOUS
 10
22.1664025654
 20
26.4256744428
 11
22.1664028909
 21
26.4252153751
  0
LINE
  5
38C
100
AcDbEntity
  8
CORPO
100
AcDbLine
 62
250
  6
CONTINUOUS
 10
21.9138087495
 20
32.3569742719
 11
21.9138087495
 21
28.3820819673
  0
LINE
  5
38D
100
AcDbEntity
  8
CORPO
100
AcDbLine
 62
250
  6
CONTINUOUS
 10
21.9138087495
 20
26.6816192785
 11
21.9138087495
 21
1.7489122023
  0
LINE
  5
38E
100
AcDbEntity
  8
CORPO
100
AcDbLine
 62
7
  6
CONTINUOUS
 10
22.1664029292
 20
32.6695705386
 11
22.1664029292
 21
29.263885092
  0
LINE
  5
38F
100
AcDbEntity
  8
CORPO
100
AcDbLine
 62
7
  6
CONTINUOUS
 10
22.1664029292
 20
26.4249244225
 11
22.1664029292
 21
2.061508469
  0
LINE
  5
390
100
AcDbEntity
  8
CORPO
100
AcDbLine
 62
7
  6
CONTINUOUS
 10
22.166402779
 20
29.2628665893
 11
22.1664026912
 21
29.2626190091
  0
LWPOLYLINE
  5
391
100
AcDbEntity
  8
CORPO
100
AcDbPolyline
 62
250
  6
CONTINUOUS
 90
29
 70
0
 10
22.1664026912
 20
29.2626190091
 10
22.1660743204
 20
29.2191647018
 10
22.1648680044
 20
29.1674387524
 10
22.1628370458
 20
29.1171216418
 10
22.1600306917
 20
29.0682221284
 10
22.156501488
 20
29.020756574
 10
22.1523005482
 20
28.9747262241
 10
22.1474512872
 20
28.9301163553
 10
22.1419952309
 20
28.8869421448
 10
22.1359688379
 20
28.8452006615
 10
22.1293625822
 20
28.8048511757
 10
22.1221995673
 20
28.7658663086
 10
22.114505614
 20
28.7282845869
 10
22.1062503408
 20
28.6921669283
 10
22.0974417263
 20
28.6574674437
 10
22.0880977702
 20
28.6242447218
 10
22.078183872
 20
28.5927196957
 10
22.0677026413
 20
28.5628614002
 10
22.056663504
 20
28.5347159528
 10
22.0450283757
 20
28.5086231942
 10
22.0327850644
 20
28.4845660968
 10
22.0199474193
 20
28.4625804572
 10
22.006510125
 20
28.4430874084
 10
21.9924606657
 20
28.4261503544
 10
21.9778151117
 20
28.4117258155
 10
21.9626149756
 20
28.4000735374
 10
21.946881132
 20
28.3912850048
 10
21.930609479
 20
28.3852850695
 10
21.9138087495
 20
28.3820819673
  0
LWPOLYLINE
  5
392
100
AcDbEntity
  8
CORPO
100
AcDbPolyline
 62
250
  6
CONTINUOUS
 90
11
 70
0
 10
22.1664029292
 20
2.061508469
 10
22.1656002895
 20
2.0425077638
 10
22.1596177362
 20
2.0063557073
 10
22.147830747
 20
1.9705620535
 10
22.130315918
 20
1.9353594027
 10
22.107187067
 20
1.9009765146
 10
22.0785944937
 20
1.8676368217
 10
22.0447240032
 20
1.8355569777
 10
22.0057956981
 20
1.8049454493
 10
21.9620625489
 20
1.7760011612
 10
21.9138087495
 20
1.7489122041
  0
LINE
  5
393
100
AcDbEntity
  8
CASTELLO
100
AcDbLine
 62
250
  6
CONTINUOUS
 10
0.8704024605
 20
25.785906527
 11
-13.9778160003
 21
33.2100157574
  0
LINE
  5
394
100
AcDbEntity
  8
CORPO
100
AcDbLine
 62
250
  6
CONTINUOUS
 10
12.217563139
 20
35.3686374744
 11
12.6321406507
 21
34.2930589342
  0
LINE
  5
395
100
AcDbEntity
  8
CONTATTO
100
AcDbLine
 62
7
  6
CONTINUOUS
 10
13.7768449789
 20
32.7929938862
 11
13.575345621
 21
33.388718312
  0
LWPOLYLINE
  5
396
100
AcDbEntity
  8
CORPO
100
AcDbPolyline
 62
7
  6
CONTINUOUS
 90
7
 70
0
 10
22.0215414662
 20
28.3645106437
 10
22.0005695201
 20
28.3616209116
 10
21.9808041714
 20
28.3610584939
 10
21.9622454199
 20
28.3628233907
 10
21.9448932658
 20
28.3669156018
 10
21.928747709
 20
28.3733351274
 10
21.9138087495
 20
28.3820819673
  0
LINE
  5
397
100
AcDbEntity
  8
CASTELLO
100
AcDbLine
 62
7
  6
CONTINUOUS
 10
5.1485585817
 20
28.2797630184
 11
3.8153462481
 21
28.9463691852
  0
LINE
  5
398
100
AcDbEntity
  8
CASTELLO
100
AcDbLine
 62
7
  6
CONTINUOUS
 10
-8.2157595827
 20
34.9619221006
 11
-9.5489719163
 21
35.6285282674
  0
LWPOLYLINE
  5
399
100
AcDbEntity
  8
CASTELLO
100
AcDbPolyline
 62
250
  6
CONTINUOUS
 90
16
 70
0
 10
-10.2519648706
 20
36.5918306906
 10
-10.2609419378
 20
36.5965596997
 10
-10.2694136305
 20
36.6015163182
 10
-10.2773568998
 20
36.6066870608
 10
-10.2847501349
 20
36.6120578595
 10
-10.2915732211
 20
36.6176141024
 10
-10.2978075951
 20
36.6233406726
 10
-10.3034362953
 20
36.62922199
 10
-10.3084440078
 20
36.6352420535
 10
-10.3128171082
 20
36.6413844845
 10
-10.3165436989
 20
36.6476325715
 10
-10.3196136409
 20
36.6539693156
 10
-10.3220185821
 20
36.6603774764
 10
-10.3237519793
 20
36.6668396196
 10
-10.3248091165
 20
36.6733381637
 10
-10.3251881753
 20
36.6802190382
  0
LINE
  5
39A
100
AcDbEntity
  8
CORPO
100
AcDbLine
 62
7
  6
CONTINUOUS
 10
13.5627371544
 20
30.5642253077
 11
12.8100430704
 21
31.8624305688
  0
LWPOLYLINE
  5
39B
100
AcDbEntity
  8
CASTELLO
100
AcDbPolyline
 62
7
  6
CONTINUOUS
 90
13
 70
0
 10
6.9841571455
 20
30.2991411973
 10
6.9811319311
 20
30.2986069629
 10
6.9776253996
 20
30.2982845647
 10
6.9736507559
 20
30.2981468377
 10
6.9692231597
 20
30.2982027804
 10
6.9643586755
 20
30.2984619732
 10
6.9590716018
 20
30.2988976184
 10
6.9533783876
 20
30.2995172824
 10
6.9472962934
 20
30.3003292264
 10
6.9408406491
 20
30.3013072172
 10
6.934028279
 20
30.3024469434
 10
6.926877911
 20
30.3037658609
 10
6.9194078958
 20
30.3052697855
  0
LWPOLYLINE
  5
39C
100
AcDbEntity
  8
CASTELLO
100
AcDbPolyline
 62
7
  6
CONTINUOUS
 90
31
 70
0
 10
5.1872659672
 20
28.9605005473
 10
5.1886845318
 20
28.9602114977
 10
5.1995797662
 20
28.9583698505
 10
5.2107205587
 20
28.9571223682
 10
5.2220587579
 20
28.9564743765
 10
5.2335711317
 20
28.9564220421
 10
5.2452291306
 20
28.956928343
 10
5.2569992788
 20
28.957992794
 10
5.2688492567
 20
28.9596131434
 10
5.2807540179
 20
28.9617493084
 10
5.2926828947
 20
28.964398398
 10
5.3046063355
 20
28.9675566802
 10
5.3165026697
 20
28.9711826779
 10
5.328344281
 20
28.9752716761
 10
5.3401044228
 20
28.9798186954
 10
5.3517642535
 20
28.9847819173
 10
5.3632991993
 20
28.9901552571
 10
5.3746853296
 20
28.9959326775
 10
5.3859060778
 20
29.0020725769
 10
5.3969398153
 20
29.0085678184
 10
5.4077654072
 20
29.015411482
 10
5.418368156
 20
29.0225624512
 10
5.4287292619
 20
29.030012745
 10
5.4388303671
 20
29.0377547325
 10
5.4486584482
 20
29.0457479551
 10
5.4581974281
 20
29.0539837161
 10
5.4674317285
 20
29.0624538575
 10
5.4763500317
 20
29.071118822
 10
5.4849396987
 20
29.0799595667
 10
5.493187079
 20
29.0889773584
 10
5.5010805414
 20
29.0981630217
  0
LINE
  5
39D
100
AcDbEntity
  8
CASTELLO
100
AcDbLine
 62
7
  6
CONTINUOUS
 10
4.5630164398
 20
29.0908453838
 11
5.1874216892
 21
28.9604689884
  0
LINE
  5
39E
100
AcDbEntity
  8
CASTELLO
100
AcDbLine
 62
250
  6
CONTINUOUS
 10
4.7898599333
 20
29.2466665446
 11
5.5010805414
 21
29.0981630217
  0
LWPOLYLINE
  5
39F
100
AcDbEntity
  8
CASTELLO
100
AcDbPolyline
 62
250
  6
CONTINUOUS
 90
15
 70
0
 10
3.2881015498
 20
30.5540223575
 10
3.2788198611
 20
30.5583152439
 10
3.2695604973
 20
30.5620093817
 10
3.2603488245
 20
30.5650935395
 10
3.2512082557
 20
30.5675585729
 10
3.2421659353
 20
30.5693958443
 10
3.2332524252
 20
30.570598573
 10
3.2244940655
 20
30.5711634081
 10
3.2159129058
 20
30.571089134
 10
3.2075322396
 20
30.5703759266
 10
3.1993749054
 20
30.5690256567
 10
3.1914634523
 20
30.5670419821
 10
3.1838198199
 20
30.5644303782
 10
3.1764650574
 20
30.5611980565
 10
3.1750158895
 20
30.5604703356
  0
LWPOLYLINE
  5
3A0
100
AcDbEntity
  8
CASTELLO
100
AcDbPolyline
 62
250
  6
CONTINUOUS
 90
15
 70
0
 10
-10.0762166146
 20
37.2361814397
 10
-10.0855224876
 20
37.2404847426
 10
-10.094800043
 20
37.2441840092
 10
-10.1040238413
 20
37.2472690923
 10
-10.1131685989
 20
37.2497315306
 10
-10.1222092308
 20
37.2515645647
 10
-10.131120921
 20
37.2527631621
 10
-10.1398792279
 20
37.2533240372
 10
-10.1484601418
 20
37.2532456546
 10
-10.1568401262
 20
37.2525282318
 10
-10.1649962024
 20
37.2511737395
 10
-10.172906009
 20
37.2491858949
 10
-10.1805478557
 20
37.246570153
 10
-10.1879007987
 20
37.2433336861
 10
-10.1892951228
 20
37.2426330866
  0
LWPOLYLINE
  5
3A1
100
AcDbEntity
  8
CASTELLO
100
AcDbPolyline
 62
7
  6
CONTINUOUS
 90
16
 70
0
 10
4.8708581529
 20
31.3660064548
 10
4.8624470775
 20
31.3699669386
 10
4.8540548599
 20
31.3734279174
 10
4.8457006122
 20
31.3763816011
 10
4.8374034382
 20
31.3788213892
 10
4.8291821398
 20
31.3807417554
 10
4.821055174
 20
31.3821382607
 10
4.8130410087
 20
31.3830077694
 10
4.8051578893
 20
31.383348356
 10
4.7974235471
 20
31.3831591805
 10
4.7898555396
 20
31.3824406887
 10
4.7824710826
 20
31.381194543
 10
4.7752868201
 20
31.3794235204
 10
4.7683190414
 20
31.3771316391
 10
4.7615835822
 20
31.374324116
 10
4.7599259641
 20
31.3735366127
  0
LWPOLYLINE
  5
3A2
100
AcDbEntity
  8
CASTELLO
100
AcDbPolyline
 62
250
  6
CONTINUOUS
 90
31
 70
0
 10
4.4373379736
 20
29.2471792685
 10
4.4467959918
 20
29.2426907348
 10
4.4567092288
 20
29.2384548885
 10
4.467050714
 20
29.2344832539
 10
4.4777923116
 20
29.2307866363
 10
4.4889047972
 20
29.2273750932
 10
4.5003579376
 20
29.2242579062
 10
4.5121205724
 20
29.2214435561
 10
4.5241606994
 20
29.2189396999
 10
4.5364455615
 20
29.2167531496
 10
4.5489417355
 20
29.2148898543
 10
4.5616152236
 20
29.2133548833
 10
4.5744315453
 20
29.2121524127
 10
4.5873558316
 20
29.2112857141
 10
4.6003529199
 20
29.2107571455
 10
4.6133874494
 20
29.210568145
 10
4.6264239574
 20
29.2107192266
 10
4.6394269759
 20
29.2112099795
 10
4.652361128
 20
29.2120390684
 10
4.6651912241
 20
29.2132042377
 10
4.6778823578
 20
29.2147023173
 10
4.6904000006
 20
29.2165292314
 10
4.7027100963
 20
29.2186800096
 10
4.7147791531
 20
29.2211488003
 10
4.7265743352
 20
29.2239288869
 10
4.7380635516
 20
29.2270127055
 10
4.7492155441
 20
29.2303918661
 10
4.7599999718
 20
29.2340571752
 10
4.7703874937
 20
29.2379986607
 10
4.780349849
 20
29.2422055991
 10
4.7898599333
 20
29.2466665446
  0
LWPOLYLINE
  5
3A3
100
AcDbEntity
  8
CASTELLO
100
AcDbPolyline
 62
250
  6
CONTINUOUS
 90
31
 70
0
 10
-8.9269801908
 20
35.9293383507
 10
-8.9175221726
 20
35.9248498171
 10
-8.9076089356
 20
35.9206139708
 10
-8.8972674505
 20
35.9166423361
 10
-8.8865258529
 20
35.9129457185
 10
-8.8754133672
 20
35.9095341754
 10
-8.8639602268
 20
35.9064169884
 10
-8.852197592
 20
35.9036026383
 10
-8.840157465
 20
35.9010987821
 10
-8.8278726029
 20
35.8989122319
 10
-8.8153764289
 20
35.8970489365
 10
-8.8027029408
 20
35.8955139655
 10
-8.7898866191
 20
35.8943114949
 10
-8.7769623328
 20
35.8934447963
 10
-8.7639652445
 20
35.8929162277
 10
-8.750930715
 20
35.8927272272
 10
-8.737894207
 20
35.8928783088
 10
-8.7248911885
 20
35.8933690617
 10
-8.7119570364
 20
35.8941981506
 10
-8.6991269403
 20
35.8953633199
 10
-8.6864358067
 20
35.8968613995
 10
-8.6739181638
 20
35.8986883136
 10
-8.6616080681
 20
35.9008390918
 10
-8.6495390113
 20
35.9033078825
 10
-8.6377438293
 20
35.9060879691
 10
-8.6262546128
 20
35.9091717877
 10
-8.6151026203
 20
35.9125509483
 10
-8.6043181927
 20
35.9162162575
 10
-8.5939306707
 20
35.9201577429
 10
-8.5839683154
 20
35.9243646813
 10
-8.5744582312
 20
35.9288256268
  0
LWPOLYLINE
  5
3A4
100
AcDbEntity
  8
CASTELLO
100
AcDbPolyline
 62
250
  6
CONTINUOUS
 90
31
 70
0
 10
4.4373379736
 20
29.5871532026
 10
4.446798123
 20
29.5826637091
 10
4.4567137096
 20
29.578427007
 10
4.4670577474
 20
29.5744546299
 10
4.4778020956
 20
29.5707573883
 10
4.4889175012
 20
29.5673453521
 10
4.5003736747
 20
29.5642278199
 10
4.512139424
 20
29.5614132787
 10
4.5241827313
 20
29.5589093864
 10
4.5364708039
 20
29.5567229593
 10
4.5489701915
 20
29.5548599474
 10
4.5616468733
 20
29.5533254195
 10
4.5744663392
 20
29.5521235512
 10
4.5873937107
 20
29.5512576108
 10
4.6003937859
 20
29.5507299548
 10
4.6134311292
 20
29.5505420175
 10
4.6264702006
 20
29.5506943027
 10
4.6394755655
 20
29.5511863886
 10
4.6524119399
 20
29.5520169383
 10
4.665244279
 20
29.5531837113
 10
4.6779374861
 20
29.5546835261
 10
4.6904566354
 20
29.5565122427
 10
4.702767432
 20
29.5586648122
 10
4.7148366368
 20
29.5611353821
 10
4.7266317545
 20
29.563917286
 10
4.7381231771
 20
29.5670036653
 10
4.7492769936
 20
29.57038554
 10
4.7600561492
 20
29.5740512991
 10
4.7704299152
 20
29.5779895849
 10
4.7803732192
 20
29.5821899374
 10
4.7898599333
 20
29.5866404787
  0
LWPOLYLINE
  5
3A5
100
AcDbEntity
  8
CASTELLO
100
AcDbPolyline
 62
250
  6
CONTINUOUS
 90
31
 70
0
 10
-8.9269801908
 20
36.2693122848
 10
-8.9175221726
 20
36.2648237512
 10
-8.9076089356
 20
36.2605879049
 10
-8.8972674505
 20
36.2566162702
 10
-8.8865258529
 20
36.2529196527
 10
-8.8754133672
 20
36.2495081096
 10
-8.8639602268
 20
36.2463909225
 10
-8.852197592
 20
36.2435765725
 10
-8.840157465
 20
36.2410727162
 10
-8.8278726029
 20
36.238886166
 10
-8.8153764289
 20
36.2370228707
 10
-8.8027029408
 20
36.2354878996
 10
-8.7898866191
 20
36.2342854291
 10
-8.7769623328
 20
36.2334187305
 10
-8.7639652445
 20
36.2328901619
 10
-8.750930715
 20
36.2327011613
 10
-8.737894207
 20
36.232852243
 10
-8.7248911885
 20
36.2333429959
 10
-8.7119570364
 20
36.2341720848
 10
-8.6991269403
 20
36.235337254
 10
-8.6864358067
 20
36.2368353336
 10
-8.6739181638
 20
36.2386622477
 10
-8.6616080681
 20
36.2408130259
 10
-8.6495390113
 20
36.2432818167
 10
-8.6377438293
 20
36.2460619032
 10
-8.6262546128
 20
36.2491457218
 10
-8.6151026203
 20
36.2525248825
 10
-8.6043181927
 20
36.2561901916
 10
-8.5939306707
 20
36.260131677
 10
-8.5839683154
 20
36.2643386154
 10
-8.5744582312
 20
36.2687995609
  0
LWPOLYLINE
  5
3A6
100
AcDbEntity
  8
CASTELLO
100
AcDbPolyline
 62
7
  6
CONTINUOUS
 90
7
 70
0
 10
4.5023113426
 20
29.1119607821
 10
4.5109618489
 20
29.1078408155
 10
4.522798154
 20
29.1028418244
 10
4.5348966526
 20
29.098450544
 10
4.5472281879
 20
29.0946813387
 10
4.5597592662
 20
29.0915481698
 10
4.5630165202
 20
29.090845367
  0
LWPOLYLINE
  5
3A7
100
AcDbEntity
  8
CASTELLO
100
AcDbPolyline
 62
7
  6
CONTINUOUS
 90
7
 70
0
 10
-8.8620068218
 20
35.7941198643
 10
-8.8533563155
 20
35.7899998977
 10
-8.8415200104
 20
35.7850009066
 10
-8.8294215119
 20
35.7806096262
 10
-8.8170899766
 20
35.7768404209
 10
-8.8045588983
 20
35.773707252
 10
-8.8013016442
 20
35.7730044492
  0
LINE
  5
3A8
100
AcDbEntity
  8
CASTELLO
100
AcDbLine
 62
7
  6
CONTINUOUS
 10
-4.6023068266
 20
33.5314423472
 11
0.9090002731
 21
30.7757887974
  0
LINE
  5
3A9
100
AcDbEntity
  8
CASTELLO
100
AcDbLine
 62
7
  6
CONTINUOUS
 10
-10.1869915742
 20
36.4566122405
 11
-8.8620068944
 21
35.7941199006
  0
LINE
  5
3AA
100
AcDbEntity
  8
CASTELLO
100
AcDbLine
 62
7
  6
CONTINUOUS
 10
3.1773265902
 20
29.7744531583
 11
4.50231127
 21
29.1119608184
  0
LINE
  5
3AB
100
AcDbEntity
  8
CASTELLO
100
AcDbLine
 62
250
  6
CONTINUOUS
 10
-10.2519648706
 20
36.5918306906
 11
-8.9269801908
 21
35.9293383507
  0
LINE
  5
3AC
100
AcDbEntity
  8
CASTELLO
100
AcDbLine
 62
250
  6
CONTINUOUS
 10
3.1123532938
 20
29.9096716084
 11
4.4373379736
 21
29.2471792685
  0
LINE
  5
3AD
100
AcDbEntity
  8
CASTELLO
100
AcDbLine
 62
250
  6
CONTINUOUS
 10
4.4373379736
 20
29.5871532026
 11
3.1123532938
 21
30.2496455425
  0
LINE
  5
3AE
100
AcDbEntity
  8
CASTELLO
100
AcDbLine
 62
250
  6
CONTINUOUS
 10
-8.9269801908
 20
36.2693122848
 11
-10.2519648706
 21
36.9318046247
  0
LINE
  5
3AF
100
AcDbEntity
  8
CASTELLO
100
AcDbLine
 62
7
  6
CONTINUOUS
 10
-6.9731774403
 20
35.4693709035
 11
-4.748753436
 21
34.3571589013
  0
LINE
  5
3B0
100
AcDbEntity
  8
CASTELLO
100
AcDbLine
 62
7
  6
CONTINUOUS
 10
1.9717233417
 20
30.9969205125
 11
3.0656639428
 21
30.4499502119
  0
LINE
  5
3B1
100
AcDbEntity
  8
CASTELLO
100
AcDbLine
 62
250
  6
CONTINUOUS
 10
4.6130862296
 20
29.8915300175
 11
3.2881015498
 21
30.5540223575
  0
LINE
  5
3B2
100
AcDbEntity
  8
CASTELLO
100
AcDbLine
 62
250
  6
CONTINUOUS
 10
-8.7512319348
 20
36.5736890998
 11
-10.0762166146
 21
37.2361814397
  0
LINE
  5
3B3
100
AcDbEntity
  8
CASTELLO
100
AcDbLine
 62
250
  6
CONTINUOUS
 10
0.9090002731
 20
31.8563721082
 11
-4.6023068266
 21
34.612025658
  0
LINE
  5
3B4
100
AcDbEntity
  8
CASTELLO
100
AcDbLine
 62
250
  6
CONTINUOUS
 10
1.3318226529
 20
31.9587616726
 11
-4.7439319968
 21
34.9966389975
  0
LINE
  5
3B5
100
AcDbEntity
  8
CASTELLO
100
AcDbLine
 62
7
  6
CONTINUOUS
 10
-6.9731774403
 20
36.1689199955
 11
-5.5651347053
 21
35.464898628
  0
LINE
  5
3B6
100
AcDbEntity
  8
CASTELLO
100
AcDbLine
 62
7
  6
CONTINUOUS
 10
6.3911407241
 20
29.4867609132
 11
7.0981397951
 21
29.1332613777
  0
LINE
  5
3B7
100
AcDbEntity
  8
CASTELLO
100
AcDbLine
 62
7
  6
CONTINUOUS
 10
-4.2508163328
 20
35.320625915
 11
1.9717233417
 21
32.2093560778
  0
LINE
  5
3B8
100
AcDbEntity
  8
CASTELLO
100
AcDbLine
 62
7
  6
CONTINUOUS
 10
-8.4934600115
 20
38.048165537
 11
-7.149951144
 21
37.3764111033
  0
LINE
  5
3B9
100
AcDbEntity
  8
CASTELLO
100
AcDbLine
 62
7
  6
CONTINUOUS
 10
4.8708581529
 20
31.3660064548
 11
6.2143670204
 21
30.694252021
  0
LINE
  5
3BA
100
AcDbEntity
  8
CASTELLO
100
AcDbLine
 62
7
  6
CONTINUOUS
 10
-2.9073134485
 20
35.3509428656
 11
2.0424340198
 21
32.8760691315
  0
LINE
  5
3BB
100
AcDbEntity
  8
CASTELLO
100
AcDbLine
 62
250
  6
CONTINUOUS
 10
-7.9590101328
 20
38.3085130036
 11
-6.6216839723
 21
37.6398499233
  0
LINE
  5
3BC
100
AcDbEntity
  8
CASTELLO
100
AcDbLine
 62
250
  6
CONTINUOUS
 10
5.4053080316
 20
31.6263539214
 11
6.7426341922
 21
30.9576908411
  0
LINE
  5
3BD
100
AcDbEntity
  8
CASTELLO
100
AcDbLine
 62
7
  6
CONTINUOUS
 10
-7.8482351733
 20
38.3151028947
 11
-6.5109090127
 21
37.6464398144
  0
LINE
  5
3BE
100
AcDbEntity
  8
CASTELLO
100
AcDbLine
 62
7
  6
CONTINUOUS
 10
5.5160829912
 20
31.6329438125
 11
6.8534091517
 21
30.9642807322
  0
LWPOLYLINE
  5
3BF
100
AcDbEntity
  8
CASTELLO
100
AcDbPolyline
 62
250
  6
CONTINUOUS
 90
16
 70
0
 10
-10.2519648706
 20
36.9318046247
 10
-10.2609419378
 20
36.9365336338
 10
-10.2694136305
 20
36.9414902523
 10
-10.2773568998
 20
36.9466609949
 10
-10.2847501349
 20
36.9520317937
 10
-10.2915732211
 20
36.9575880365
 10
-10.2978075951
 20
36.9633146067
 10
-10.3034362953
 20
36.9691959241
 10
-10.3084440078
 20
36.9752159876
 10
-10.3128171082
 20
36.9813584186
 10
-10.3165436989
 20
36.9876065057
 10
-10.3196136409
 20
36.9939432497
 10
-10.3220185821
 20
37.0003514105
 10
-10.3237519793
 20
37.0068135537
 10
-10.3248091165
 20
37.0133120979
 10
-10.3251881753
 20
37.0201929724
  0
LWPOLYLINE
  5
3C0
100
AcDbEntity
  8
CASTELLO
100
AcDbPolyline
 62
250
  6
CONTINUOUS
 90
16
 70
0
 10
3.1123532938
 20
29.9096716084
 10
3.1033762266
 20
29.9144006175
 10
3.094904534
 20
29.9193572359
 10
3.0869612646
 20
29.9245279785
 10
3.0795680296
 20
29.9298987773
 10
3.0727449433
 20
29.9354550202
 10
3.0665105693
 20
29.9411815903
 10
3.0608818691
 20
29.9470629078
 10
3.0558741566
 20
29.9530829713
 10
3.0515010562
 20
29.9592254023
 10
3.0477744655
 20
29.9654734893
 10
3.0447045235
 20
29.9718102334
 10
3.0422995823
 20
29.9782183942
 10
3.0405661852
 20
29.9846805374
 10
3.0395090479
 20
29.9911790815
 10
3.0391299891
 20
29.998059956
  0
LWPOLYLINE
  5
3C1
100
AcDbEntity
  8
CASTELLO
100
AcDbPolyline
 62
250
  6
CONTINUOUS
 90
16
 70
0
 10
3.1123532938
 20
30.2496455425
 10
3.1033965925
 20
30.2543632481
 10
3.0949378105
 20
30.2593106443
 10
3.0870008326
 20
30.2644747233
 10
3.079606739
 20
30.2698429676
 10
3.0727783495
 20
30.2754000972
 10
3.0665389716
 20
30.2811277416
 10
3.0609067283
 20
30.2870090353
 10
3.0558955492
 20
30.2930291792
 10
3.0515189636
 20
30.2991719532
 10
3.0477888694
 20
30.3054207641
 10
3.0447155548
 20
30.3117585011
 10
3.0423074946
 20
30.3181677366
 10
3.040571255
 20
30.3246309454
 10
3.0395115219
 20
30.3311306149
 10
3.0391299891
 20
30.338033554
  0
LWPOLYLINE
  5
3C2
100
AcDbEntity
  8
CASTELLO
100
AcDbPolyline
 62
7
  6
CONTINUOUS
 90
22
 70
0
 10
-6.5109090127
 20
37.6464398144
 10
-6.4992524468
 20
37.6402212301
 10
-6.4878970641
 20
37.6333676241
 10
-6.4768862186
 20
37.6258963601
 10
-6.4662576565
 20
37.6178250922
 10
-6.456056168
 20
37.6091813367
 10
-6.4463312441
 20
37.6000043568
 10
-6.4371567256
 20
37.5903713328
 10
-6.4285184565
 20
37.5802773167
 10
-6.4203479619
 20
37.5696275312
 10
-6.4126471659
 20
37.5583785531
 10
-6.405513642
 20
37.5466259663
 10
-6.3990266379
 20
37.5344783241
 10
-6.393223006
 20
37.5220026321
 10
-6.3881123624
 20
37.5092206132
 10
-6.3837133242
 20
37.4961776567
 10
-6.3800417328
 20
37.4829241273
 10
-6.3771067474
 20
37.4695005386
 10
-6.3749130975
 20
37.4559313537
 10
-6.3734673255
 20
37.4422465928
 10
-6.372776641
 20
37.4284996308
 10
-6.3727124119
 20
37.4228398027
  0
LWPOLYLINE
  5
3C3
100
AcDbEntity
  8
CORPO
100
AcDbPolyline
 62
250
  6
CONTINUOUS
 90
15
 70
0
 10
2.2412344542
 20
33.8377091603
 10
2.2748164306
 20
33.8184660343
 10
2.3041330187
 20
33.7968426315
 10
2.3291842184
 20
33.7728389517
 10
2.3501734104
 20
33.746206603
 10
2.3668972141
 20
33.7171939775
 10
2.3787454873
 20
33.686546251
 10
2.3856022809
 20
33.6541863034
 10
2.3875835439
 20
33.6201912549
 10
2.3844269811
 20
33.5855376427
 10
2.3759642418
 20
33.550171554
 10
2.3623636767
 20
33.5141469016
 10
2.3438680419
 20
33.4786019607
 10
2.3205582564
 20
33.4439161562
 10
2.2923534012
 20
33.4097100631
  0
LWPOLYLINE
  5
3C4
100
AcDbEntity
  8
CORPO
100
AcDbPolyline
 62
250
  6
CONTINUOUS
 90
9
 70
0
 10
2.1387941067
 20
33.6199935768
 10
2.1586752831
 20
33.6083795861
 10
2.1763370148
 20
33.594635104
 10
2.1915885898
 20
33.5788704186
 10
2.2042531735
 20
33.5611766562
 10
2.2141968693
 20
33.5417123711
 10
2.2213114825
 20
33.5206990191
 10
2.2254878991
 20
33.4982344059
 10
2.2266620359
 20
33.477632655
  0
LWPOLYLINE
  5
3C5
100
AcDbEntity
  8
CASTELLO
100
AcDbPolyline
 62
7
  6
CONTINUOUS
 90
37
 70
0
 10
6.3910354827
 20
28.7868923795
 10
6.405937767
 20
28.7780939712
 10
6.4208422157
 20
28.7685163171
 10
6.4357207559
 20
28.7581731967
 10
6.4505651703
 20
28.7470696846
 10
6.4653268499
 20
28.7352315474
 10
6.4799184997
 20
28.7227129237
 10
6.4942987726
 20
28.7095494721
 10
6.5084572654
 20
28.695760998
 10
6.5223560728
 20
28.6813879838
 10
6.5359520661
 20
28.6664835312
 10
6.5492427934
 20
28.6510590262
 10
6.5622500194
 20
28.6350892869
 10
6.5749573167
 20
28.6185909579
 10
6.5873318501
 20
28.6016033755
 10
6.5993665592
 20
28.5841292299
 10
6.6110547565
 20
28.5661690289
 10
6.622352046
 20
28.547780912
 10
6.6331980881
 20
28.5290574741
 10
6.6435721592
 20
28.5100387851
 10
6.6534582579
 20
28.4907576199
 10
6.6628129635
 20
28.4713020269
 10
6.6716212352
 20
28.4517189246
 10
6.6798764901
 20
28.4320387775
 10
6.6875562813
 20
28.4123271747
 10
6.6946494406
 20
28.3926387018
 10
6.7011586436
 20
28.3729936377
 10
6.70708472
 20
28.3534053335
 10
6.7124235738
 20
28.3339114638
 10
6.7171739171
 20
28.3145436686
 10
6.721338127
 20
28.2953052183
 10
6.7249148014
 20
28.2762225322
 10
6.7279009738
 20
28.2573348266
 10
6.7302948697
 20
28.2386641183
 10
6.7320957923
 20
28.2202385211
 10
6.7333050191
 20
28.2020919421
 10
6.733924473
 20
28.1842542511
  0
LWPOLYLINE
  5
3C6
100
AcDbEntity
  8
CORPO
100
AcDbPolyline
 62
250
  6
CONTINUOUS
 90
13
 70
0
 10
0.7947101618
 20
34.1082553388
 10
0.8124210975
 20
34.0971334628
 10
0.8304892109
 20
34.0837289747
 10
0.8486109721
 20
34.0682671067
 10
0.8664819575
 20
34.0510076473
 10
0.8838019771
 20
34.032240563
 10
0.9002801157
 20
34.0122811223
 10
0.9156395857
 20
33.9914646382
 10
0.9296224227
 20
33.9701407795
 10
0.9419938153
 20
33.9486676777
 10
0.9525459892
 20
33.9274060018
 10
0.9611017099
 20
33.9067129025
 10
0.9675172934
 20
33.8869359522
  0
LINE
  5
3C7
100
AcDbEntity
  8
CORPO
100
AcDbLine
 62
7
  6
CONTINUOUS
 10
16.6351811704
 20
36.358352528
 11
16.6442966291
 21
36.3344587269
  0
LWPOLYLINE
  5
3C8
100
AcDbEntity
  8
CORPO
100
AcDbPolyline
 62
250
  6
CONTINUOUS
 90
35
 70
0
 10
22.1664029292
 20
29.9548900936
 10
22.1780004555
 20
29.9180151731
 10
22.1979379629
 20
29.8451013016
 10
22.21425196
 20
29.7741295512
 10
22.2278477203
 20
29.7050632162
 10
22.2389054771
 20
29.6380843469
 10
22.2474328521
 20
29.5731608455
 10
22.2540325336
 20
29.5099092823
 10
22.2588449475
 20
29.448350594
 10
22.261864487
 20
29.3885557883
 10
22.263436625
 20
29.3301970834
 10
22.263652804
 20
29.273226354
 10
22.2625218569
 20
29.2177499607
 10
22.2602440289
 20
29.1636618588
 10
22.2568828833
 20
29.1109473453
 10
22.2524603072
 20
29.0596612209
 10
22.2471053901
 20
29.0097972844
 10
22.2408766507
 20
28.9613810408
 10
22.2337928825
 20
28.914415086
 10
22.2259187989
 20
28.8688560409
 10
22.2173121146
 20
28.8247194149
 10
22.207983079
 20
28.7820083047
 10
22.1979211606
 20
28.7406582765
 10
22.1871715689
 20
28.7006307196
 10
22.1757480141
 20
28.6619756836
 10
22.1635920448
 20
28.6247600075
 10
22.1507396013
 20
28.5889329572
 10
22.1372097136
 20
28.5545522713
 10
22.1229225211
 20
28.5218467085
 10
22.1079110632
 20
28.4907790636
 10
22.0921949649
 20
28.461391419
 10
22.0756798806
 20
28.4340315487
 10
22.0583516025
 20
28.4088172854
 10
22.0402707676
 20
28.3856363096
 10
22.0214549387
 20
28.3644917764
  0
LWPOLYLINE
  5
3C9
100
AcDbEntity
  8
CASTELLO
100
AcDbPolyline
 62
7
  6
CONTINUOUS
 90
18
 70
0
 10
1.3318226529
 20
31.9587616726
 10
1.314527985
 20
31.957269337
 10
1.2973335868
 20
31.9552757591
 10
1.280275249
 20
31.9528685762
 10
1.2633844155
 20
31.9501576226
 10
1.2466801528
 20
31.94720061
 10
1.2301733328
 20
31.943989762
 10
1.2138799259
 20
31.9405795341
 10
1.197810133
 20
31.9370350044
 10
1.1819669792
 20
31.9333410484
 10
1.1663581675
 20
31.9295377661
 10
1.1509890848
 20
31.9256741779
 10
1.1358623568
 20
31.9217339041
 10
1.1209813392
 20
31.9177478568
 10
1.1063488132
 20
31.9137537709
 10
1.0919701883
 20
31.9097366415
 10
1.0778466353
 20
31.9057214809
 10
1.0503768897
 20
31.8977738687
  0
LINE
  5
3CA
100
AcDbEntity
  8
CASTELLO
100
AcDbLine
 62
7
  6
CONTINUOUS
 10
-8.8013017247
 20
35.773004466
 11
-8.175695031
 21
35.6423830697
  0
LINE
  5
3CB
100
AcDbEntity
  8
CASTELLO
100
AcDbLine
 62
250
  6
CONTINUOUS
 10
-8.5744582312
 20
35.9288256268
 11
-7.8632376231
 21
35.780322104
  0
LWPOLYLINE
  5
3CC
100
AcDbEntity
  8
CORPO
100
AcDbPolyline
 62
250
  6
CONTINUOUS
 90
8
 70
0
 10
2.2592534764
 20
33.3759836815
 10
2.2404288033
 20
33.3831297421
 10
2.2225751429
 20
33.3876863938
 10
2.2059923989
 20
33.3895770945
 10
2.1909591261
 20
33.3887700846
 10
2.1777278515
 20
33.3852789201
 10
2.1665208324
 20
33.3791622451
 10
2.1624531053
 20
33.3758234416
  0
LWPOLYLINE
  5
3CD
100
AcDbEntity
  8
CASTELLO
100
AcDbPolyline
 62
250
  6
CONTINUOUS
 90
14
 70
0
 10
5.5160829894
 20
31.6329438133
 10
5.5086555688
 20
31.636263331
 10
5.5010726262
 20
31.6389010312
 10
5.4932262079
 20
31.6409139018
 10
5.4851379166
 20
31.6422964267
 10
5.4768299488
 20
31.643044887
 10
5.4683247764
 20
31.6431573312
 10
5.4596453137
 20
31.6426334823
 10
5.4508132232
 20
31.6414744403
 10
5.4418544402
 20
31.6396834049
 10
5.4327991033
 20
31.6372669746
 10
5.4236739345
 20
31.6342336032
 10
5.41450193
 20
31.630592246
 10
5.4053080316
 20
31.6263539214
  0
LWPOLYLINE
  5
3CE
100
AcDbEntity
  8
CASTELLO
100
AcDbPolyline
 62
250
  6
CONTINUOUS
 90
14
 70
0
 10
-6.5109090127
 20
37.6464398144
 10
-6.5183070934
 20
37.6497477083
 10
-6.5258873107
 20
37.6523873617
 10
-6.5337309572
 20
37.6544024737
 10
-6.5418166927
 20
37.6557875617
 10
-6.5501225187
 20
37.6565388574
 10
-6.5586258379
 20
37.6566543167
 10
-6.5673035155
 20
37.6561336255
 10
-6.5761319423
 20
37.6549782005
 10
-6.5850870992
 20
37.6531911852
 10
-6.5941446221
 20
37.6507774414
 10
-6.6032798686
 20
37.6477435362
 10
-6.6124679846
 20
37.6440977238
 10
-6.6216839723
 20
37.6398499233
  0
LWPOLYLINE
  5
3CF
100
AcDbEntity
  8
CASTELLO
100
AcDbPolyline
 62
250
  6
CONTINUOUS
 90
14
 70
0
 10
-7.8482351733
 20
38.3151028947
 10
-7.855633254
 20
38.3184107885
 10
-7.8632134713
 20
38.321050442
 10
-7.8710571177
 20
38.323065554
 10
-7.8791428532
 20
38.324450642
 10
-7.8874486793
 20
38.3252019376
 10
-7.8959519985
 20
38.325317397
 10
-7.904629676
 20
38.3247967058
 10
-7.9134581028
 20
38.3236412808
 10
-7.9224132597
 20
38.3218542655
 10
-7.9314707827
 20
38.3194405217
 10
-7.9406060291
 20
38.3164066165
 10
-7.9497941451
 20
38.3127608041
 10
-7.9590101328
 20
38.3085130036
  0
LWPOLYLINE
  5
3D0
100
AcDbEntity
  8
CASTELLO
100
AcDbPolyline
 62
250
  6
CONTINUOUS
 90
14
 70
0
 10
6.8534020496
 20
30.9642842829
 10
6.8460305725
 20
30.9675808936
 10
6.83844943
 20
30.9702226713
 10
6.8306046788
 20
30.9722396605
 10
6.8225176725
 20
30.9736263667
 10
6.8142104203
 20
30.9743790123
 10
6.8057055336
 20
30.9744955452
 10
6.7970261685
 20
30.9739756457
 10
6.7881959425
 20
30.9728207263
 10
6.7792388962
 20
30.971033929
 10
6.770179437
 20
30.9686201242
 10
6.7610422335
 20
30.9655858894
 10
6.7518521471
 20
30.9619394854
 10
6.7426341922
 20
30.9576908411
  0
LWPOLYLINE
  5
3D1
100
AcDbEntity
  8
CASTELLO
100
AcDbPolyline
 62
7
  6
CONTINUOUS
 90
18
 70
0
 10
-7.8482351733
 20
38.3151028947
 10
-7.8604409855
 20
38.3208000823
 10
-7.8730632642
 20
38.3258788903
 10
-7.886063454
 20
38.330300791
 10
-7.8994180353
 20
38.3340350637
 10
-7.9130610231
 20
38.3370426501
 10
-7.9268853126
 20
38.3392880689
 10
-7.9408164466
 20
38.3407560211
 10
-7.9548251353
 20
38.3414417309
 10
-7.9688746318
 20
38.3413398962
 10
-7.9829069441
 20
38.3404479748
 10
-7.9968794902
 20
38.3387666907
 10
-8.0107853494
 20
38.3362914494
 10
-8.0246302554
 20
38.3330078235
 10
-8.0383125141
 20
38.3289264867
 10
-8.0516834438
 20
38.3240927811
 10
-8.0647061649
 20
38.3185306645
 10
-8.0695288833
 20
38.31624456
  0
LINE
  5
3D2
100
AcDbEntity
  8
CORPO
100
AcDbLine
 62
250
  6
CONTINUOUS
 10
1.8241591557
 20
34.9421315776
 11
1.8275999852
 21
34.9405183107
  0
LWPOLYLINE
  5
3D3
100
AcDbEntity
  8
CASTELLO
100
AcDbPolyline
 62
7
  6
CONTINUOUS
 90
16
 70
0
 10
-8.4934600115
 20
38.048165537
 10
-8.5018710869
 20
38.0521260208
 10
-8.5102633045
 20
38.0555869996
 10
-8.5186175523
 20
38.0585406834
 10
-8.5269147262
 20
38.0609804714
 10
-8.5351360246
 20
38.0629008376
 10
-8.5432629904
 20
38.0642973429
 10
-8.5512771558
 20
38.0651668516
 10
-8.5591602751
 20
38.0655074382
 10
-8.5668946173
 20
38.0653182627
 10
-8.5744626249
 20
38.0645997709
 10
-8.5818470818
 20
38.0633536252
 10
-8.5890313444
 20
38.0615826026
 10
-8.595999123
 20
38.0592907214
 10
-8.6027345822
 20
38.0564831982
 10
-8.6043922003
 20
38.0556956949
  0
LWPOLYLINE
  5
3D4
100
AcDbEntity
  8
CASTELLO
100
AcDbPolyline
 62
250
  6
CONTINUOUS
 90
14
 70
0
 10
5.4053080316
 20
31.6263539214
 10
5.3961090219
 20
31.6307087581
 10
5.3869324063
 20
31.6344568564
 10
5.377803336
 20
31.6375879434
 10
5.3687468322
 20
31.6400934374
 10
5.359787717
 20
31.6419664714
 10
5.3509505456
 20
31.6432019117
 10
5.3422595392
 20
31.6437963722
 10
5.3337385182
 20
31.6437482236
 10
5.3254108369
 20
31.6430575978
 10
5.3172993202
 20
31.6417263878
 10
5.3094262
 20
31.639758242
 10
5.3018130552
 20
31.6371585549
 10
5.2947959205
 20
31.6340887124
  0
LWPOLYLINE
  5
3D5
100
AcDbEntity
  8
CASTELLO
100
AcDbPolyline
 62
250
  6
CONTINUOUS
 90
14
 70
0
 10
-7.9590101328
 20
38.3085130036
 10
-7.9681872403
 20
38.3128581806
 10
-7.9773478588
 20
38.3166016911
 10
-7.9864669034
 20
38.319732163
 10
-7.9955212086
 20
38.3222403282
 10
-8.0044838989
 20
38.3241174146
 10
-8.0133246869
 20
38.3253565045
 10
-8.0220174453
 20
38.3259541401
 10
-8.030540288
 20
38.3259090245
 10
-8.0388700799
 20
38.3252212542
 10
-8.0469841219
 20
38.3238926305
 10
-8.0548599851
 20
38.3219267508
 10
-8.0624758291
 20
38.3193290411
 10
-8.0695222434
 20
38.3162477949
  0
LWPOLYLINE
  5
3D6
100
AcDbEntity
  8
CASTELLO
100
AcDbPolyline
 62
7
  6
CONTINUOUS
 90
40
 70
0
 10
2.1131446979
 20
35.3404501981
 10
2.0840182776
 20
35.3544324242
 10
2.0538923697
 20
35.3677772109
 10
2.0227669743
 20
35.3804845581
 10
1.9905883944
 20
35.3925730283
 10
1.957410327
 20
35.4040240591
 10
1.9233938628
 20
35.414781963
 10
1.8885349013
 20
35.4248433576
 10
1.852837543
 20
35.4342116254
 10
1.8164751799
 20
35.4428412266
 10
1.7794449071
 20
35.4507285229
 10
1.7417496295
 20
35.4578771527
 10
1.7035714541
 20
35.464252491
 10
1.6649075687
 20
35.469850859
 10
1.6257607854
 20
35.4746759354
 10
1.5863216469
 20
35.4787041318
 10
1.5465888308
 20
35.4819315286
 10
1.5065636595
 20
35.4843620454
 10
1.4664406425
 20
35.4859838517
 10
1.4262193885
 20
35.4867930029
 10
1.3859002889
 20
35.4867934436
 10
1.3456790275
 20
35.4859851776
 10
1.3055560808
 20
35.4843642732
 10
1.2655309724
 20
35.481934662
 10
1.2257979566
 20
35.4787081425
 10
1.1863584544
 20
35.4746808405
 10
1.1472110449
 20
35.4698566301
 10
1.1085457194
 20
35.4642589323
 10
1.0703648226
 20
35.4578839867
 10
1.03266601
 20
35.4507355536
 10
0.9956322387
 20
35.4428483344
 10
0.9592667429
 20
35.4342187376
 10
0.9235662885
 20
35.4248503547
 10
0.8887041303
 20
35.4147886611
 10
0.8546843451
 20
35.4040302868
 10
0.8215028561
 20
35.3925786018
 10
0.7893206882
 20
35.3804891919
 10
0.7581915163
 20
35.3677805856
 10
0.7280616654
 20
35.3544342543
 10
0.6989311356
 20
35.3404501981
  0
LINE
  5
3D7
100
AcDbEntity
  8
CORPO
100
AcDbLine
 62
250
  6
CONTINUOUS
 10
1.380388508
 20
33.9991963762
 11
2.1387941067
 21
33.6199935768
  0
LINE
  5
3D8
100
AcDbEntity
  8
CORPO
100
AcDbLine
 62
250
  6
CONTINUOUS
 10
1.4828288556
 20
34.2169119596
 11
2.2412344542
 21
33.8377091603
  0
LINE
  5
3D9
100
AcDbEntity
  8
CORPO
100
AcDbLine
 62
7
  6
CONTINUOUS
 10
0.7696418145
 20
34.8172633409
 11
3.3565960001
 21
33.5237862481
  0
LINE
  5
3DA
100
AcDbEntity
  8
CORPO
100
AcDbLine
 62
250
  6
CONTINUOUS
 10
3.9639837166
 20
33.8231522519
 11
1.7393842265
 21
34.9354519969
  0
LINE
  5
3DB
100
AcDbEntity
  8
CORPO
100
AcDbLine
 62
7
  6
CONTINUOUS
 10
4.0135108084
 20
33.8475628996
 11
1.8275928271
 21
34.9405218902
  0
LINE
  5
3DC
100
AcDbEntity
  8
CASTELLO
100
AcDbLine
 62
7
  6
CONTINUOUS
 10
4.5601097646
 20
34.1169676648
 11
2.1131446979
 21
35.3404501981
  0
LINE
  5
3DD
100
AcDbEntity
  8
CASTELLO
100
AcDbLine
 62
7
  6
CONTINUOUS
 10
1.7595913073
 20
35.5172268934
 11
1.4060379167
 21
35.6940035887
  0
LINE
  5
3DE
100
AcDbEntity
  8
CASTELLO
100
AcDbLine
 62
7
  6
CONTINUOUS
 10
1.7595913073
 20
36.0697850827
 11
1.4060379167
 21
36.246561778
  0
LINE
  5
3DF
100
AcDbEntity
  8
CONTATTO
100
AcDbLine
 62
7
  6
CONTINUOUS
 10
13.7873398143
 20
32.7877464686
 11
14.0012322682
 21
32.5902132009
  0
LWPOLYLINE
  5
3E0
100
AcDbEntity
  8
CASTELLO
100
AcDbPolyline
 62
7
  6
CONTINUOUS
 90
16
 70
0
 10
1.1363382645
 20
37.9404114854
 10
1.1485073023
 20
37.9437762437
 10
1.16124109
 20
37.9463788005
 10
1.1745320145
 20
37.9482033549
 10
1.1883760249
 20
37.9492468193
 10
1.202757019
 20
37.9494800855
 10
1.2176452972
 20
37.9488491607
 10
1.2330205108
 20
37.9473339768
 10
1.2488689401
 20
37.9449247829
 10
1.2651665572
 20
37.9415844803
 10
1.2818561839
 20
37.9373095201
 10
1.2989487713
 20
37.9320766824
 10
1.316524321
 20
37.9258134769
 10
1.3345755469
 20
37.9184980319
 10
1.353060825
 20
37.9101113883
 10
1.3611184579
 20
37.9061725149
  0
LINE
  5
3E1
100
AcDbEntity
  8
CASTELLO
100
AcDbLine
 62
7
  6
CONTINUOUS
 10
3.1573758138
 20
36.2161191467
 11
4.517307754
 21
36.2898673341
  0
LWPOLYLINE
  5
3E2
100
AcDbEntity
  8
CORPO
100
AcDbPolyline
 62
7
  6
CONTINUOUS
 90
6
 70
0
 10
0.713485104
 20
34.8313958879
 10
0.7231651143
 20
34.8310584739
 10
0.7335763107
 20
34.8296036033
 10
0.7446973504
 20
34.8269263769
 10
0.7565137914
 20
34.8229492004
 10
0.7689829401
 20
34.8175927781
  0
LWPOLYLINE
  5
3E3
100
AcDbEntity
  8
CORPO
100
AcDbPolyline
 62
7
  6
CONTINUOUS
 90
10
 70
0
 10
1.7021557037
 20
34.9723986471
 10
1.6210332453
 20
34.9841190018
 10
1.5387596262
 20
34.992022253
 10
1.4559665647
 20
34.9961112165
 10
1.3730873939
 20
34.9964095137
 10
1.2903575639
 20
34.9929175183
 10
1.2083068177
 20
34.9856219207
 10
1.1274743861
 20
34.9745176217
 10
1.0480761828
 20
34.9595375689
 10
0.9705253526
 20
34.9406007198
  0
LWPOLYLINE
  5
3E4
100
AcDbEntity
  8
CORPO
100
AcDbPolyline
 62
250
  6
CONTINUOUS
 90
13
 70
0
 10
1.7393842265
 20
34.9354519969
 10
1.6696619966
 20
34.9490267416
 10
1.5989201977
 20
34.9592902428
 10
1.5271588298
 20
34.9662425003
 10
1.4537194535
 20
34.9698928749
 10
1.3792605083
 20
34.9702320059
 10
1.3057573125
 20
34.9672318113
 10
1.2332328023
 20
34.9607872496
 10
1.1616640416
 20
34.9510033623
 10
1.0929575403
 20
34.9381671918
 10
1.0277488019
 20
34.922374419
 10
0.965402323
 20
34.9035293629
 10
0.9059181035
 20
34.8816320237
  0
LINE
  5
3E5
100
AcDbEntity
  8
CORPO
100
AcDbLine
 62
7
  6
CONTINUOUS
 10
1.7815793958
 20
34.9568642599
 11
1.7021557037
 21
34.9723986471
  0
LWPOLYLINE
  5
3E6
100
AcDbEntity
  8
CORPO
100
AcDbPolyline
 62
7
  6
CONTINUOUS
 90
7
 70
0
 10
1.7815725381
 20
34.9568657843
 10
1.7894332209
 20
34.9549497789
 10
1.7985292738
 20
34.9523046358
 10
1.8074926575
 20
34.9492307238
 10
1.8163129405
 20
34.9457303727
 10
1.8249704019
 20
34.9418092471
 10
1.8276109601
 20
34.9405128207
  0
LWPOLYLINE
  5
3E7
100
AcDbEntity
  8
CONTATTO
100
AcDbPolyline
 62
7
  6
CONTINUOUS
 90
9
 70
0
 10
16.1251220212
 20
33.5803332386
 10
16.1190052806
 20
33.5819327363
 10
16.1092350669
 20
33.5834655501
 10
16.0989088714
 20
33.5838809945
 10
16.0881216743
 20
33.583179222
 10
16.0771584154
 20
33.5813606907
 10
16.0661140746
 20
33.5784255532
 10
16.0548936721
 20
33.5743736568
 10
16.0434972079
 20
33.5692050015
  0
LINE
  5
3E8
100
AcDbEntity
  8
CONTATTO
100
AcDbLine
 62
7
  6
CONTINUOUS
 10
14.7320592224
 20
32.9134860088
 11
14.2823145611
 21
33.035233842
  0
LWPOLYLINE
  5
3E9
100
AcDbEntity
  8
CONTATTO
100
AcDbPolyline
 62
7
  6
CONTINUOUS
 90
28
 70
0
 10
16.125111885
 20
33.5803092861
 10
16.0163965384
 20
33.6115951319
 10
15.9015414954
 20
33.6409488089
 10
15.7842800715
 20
33.6672758791
 10
15.6649069067
 20
33.6905379708
 10
15.543686535
 20
33.7107085236
 10
15.4208571655
 20
33.7277677989
 10
15.2967083681
 20
33.7416916405
 10
15.171524905
 20
33.7524623095
 10
15.0455443875
 20
33.7600697092
 10
14.9190580014
 20
33.7645030879
 10
14.7923552785
 20
33.7657576426
 10
14.665673533
 20
33.7638328695
 10
14.5393022632
 20
33.7587315345
 10
14.4135326727
 20
33.7504623224
 10
14.2886030733
 20
33.7390344469
 10
14.1648041987
 20
33.7244646146
 10
14.0424194463
 20
33.7067745931
 10
13.9216710101
 20
33.6859804177
 10
13.802836089
 20
33.6621088177
 10
13.6862002656
 20
33.6351937659
 10
13.5719886926
 20
33.6052589986
 10
13.4604735144
 20
33.5723418947
 10
13.351927318
 20
33.5364852599
 10
13.2465604264
 20
33.4977136423
 10
13.144613644
 20
33.456060834
 10
13.0463675065
 20
33.4115800594
 10
12.9520834454
 20
33.36432267
  0
LWPOLYLINE
  5
3EA
100
AcDbEntity
  8
CASTELLO
100
AcDbPolyline
 62
7
  6
CONTINUOUS
 90
16
 70
0
 10
1.8583512494
 20
37.6575561906
 10
1.8565426561
 20
37.6583398495
 10
1.8523391477
 20
37.6595182026
 10
1.8473858267
 20
37.6602129393
 10
1.8417264376
 20
37.6604419384
 10
1.8353974299
 20
37.6602122184
 10
1.8283946569
 20
37.659556558
 10
1.820728372
 20
37.6584870021
 10
1.8124410442
 20
37.6570151967
 10
1.8035656105
 20
37.6551741754
 10
1.7941292457
 20
37.6529665829
 10
1.7841646201
 20
37.6504072111
 10
1.7737165582
 20
37.6475449318
 10
1.7628227505
 20
37.6443990859
 10
1.75151104
 20
37.6409604181
 10
1.7398135394
 20
37.6372327302
  0
LWPOLYLINE
  5
3EB
100
AcDbEntity
  8
CASTELLO
100
AcDbPolyline
 62
7
  6
CONTINUOUS
 90
16
 70
0
 10
7.4133356131
 20
34.8800639999
 10
7.4118191276
 20
34.8807343644
 10
7.4076907913
 20
34.8819474831
 10
7.4028168036
 20
34.8826791138
 10
7.3972417771
 20
34.8829465354
 10
7.3910020494
 20
34.8827570281
 10
7.3840941558
 20
34.8821444258
 10
7.3765293505
 20
34.8811209534
 10
7.3683496735
 20
34.8796975826
 10
7.35958613
 20
34.8779071899
 10
7.3502652776
 20
34.8757527106
 10
7.3404197707
 20
34.8732484308
 10
7.3300927196
 20
34.870442087
 10
7.3193208094
 20
34.8673526868
 10
7.3081318305
 20
34.8639713495
 10
7.2965574119
 20
34.8603019116
  0
LWPOLYLINE
  5
3EC
100
AcDbEntity
  8
CASTELLO
100
AcDbPolyline
 62
7
  6
CONTINUOUS
 90
18
 70
0
 10
4.2574242823
 20
37.1015256074
 10
4.237862198
 20
37.1106153405
 10
4.2149664178
 20
37.1196007551
 10
4.1914571315
 20
37.1271029879
 10
4.1673158094
 20
37.1331371578
 10
4.142626056
 20
37.1376829421
 10
4.1173646298
 20
37.1407369256
 10
4.0915547723
 20
37.1423025235
 10
4.0653498134
 20
37.1423696601
 10
4.0387658508
 20
37.1409308842
 10
4.0117867868
 20
37.1379936468
 10
3.9845176582
 20
37.1335702256
 10
3.9569434785
 20
37.1276518399
 10
3.9290792342
 20
37.1202472704
 10
3.9010749212
 20
37.1113951358
 10
3.872980538
 20
37.1011083091
 10
3.844746086
 20
37.0893739173
 10
3.8163715652
 20
37.0761919605
  0
LINE
  5
3ED
100
AcDbEntity
  8
CASTELLO
100
AcDbLine
 62
7
  6
CONTINUOUS
 10
5.9679254608
 20
34.8108443232
 11
3.1573758138
 21
36.2161191467
  0
LINE
  5
3EE
100
AcDbEntity
  8
CORPO
100
AcDbLine
 62
7
  6
CONTINUOUS
 10
12.8100430704
 20
31.8624305688
 11
12.071269538
 21
32.231817335
  0
LINE
  5
3EF
100
AcDbEntity
  8
CASTELLO
100
AcDbLine
 62
250
  6
CONTINUOUS
 10
1.0854070732
 20
37.9200693805
 11
1.6909375079
 21
37.6173041631
  0
LINE
  5
3F0
100
AcDbEntity
  8
CASTELLO
100
AcDbLine
 62
250
  6
CONTINUOUS
 10
6.6406849762
 20
35.142430429
 11
7.2462154108
 21
34.8396652117
  0
LINE
  5
3F1
100
AcDbEntity
  8
CASTELLO
100
AcDbLine
 62
7
  6
CONTINUOUS
 10
4.517307754
 20
36.2898673341
 11
6.7531686256
 21
35.1719368983
  0
LINE
  5
3F2
100
AcDbEntity
  8
CASTELLO
100
AcDbLine
 62
7
  6
CONTINUOUS
 10
7.4201514758
 20
34.8384454732
 11
7.6184468753
 21
34.7392977734
  0
LINE
  5
3F3
100
AcDbEntity
  8
CASTELLO
100
AcDbLine
 62
7
  6
CONTINUOUS
 10
1.3616790943
 20
37.9058881117
 11
1.8580855788
 21
37.6576848694
  0
LINE
  5
3F4
100
AcDbEntity
  8
CASTELLO
100
AcDbLine
 62
7
  6
CONTINUOUS
 10
6.9166344863
 20
35.1284104157
 11
7.4130412563
 21
34.8802070307
  0
LINE
  5
3F5
100
AcDbEntity
  8
CASTELLO
100
AcDbLine
 62
250
  6
CONTINUOUS
 10
0.7494056213
 20
38.6096749325
 11
3.8163715652
 21
37.0761919605
  0
LINE
  5
3F6
100
AcDbEntity
  8
CASTELLO
100
AcDbLine
 62
250
  6
CONTINUOUS
 10
8.0590122523
 20
34.954871617
 11
11.1259781962
 21
33.421388645
  0
LINE
  5
3F7
100
AcDbEntity
  8
CASTELLO
100
AcDbLine
 62
7
  6
CONTINUOUS
 10
8.5000552554
 20
34.9802210836
 11
11.7272339457
 21
33.3666317384
  0
LINE
  5
3F8
100
AcDbEntity
  8
CONTATTO
100
AcDbLine
 62
7
  6
CONTINUOUS
 10
13.7873398143
 20
32.7877464686
 11
13.0803708741
 21
33.1412309386
  0
LINE
  5
3F9
100
AcDbEntity
  8
CONTATTO
100
AcDbLine
 62
7
  6
CONTINUOUS
 10
14.2823145611
 20
33.035233842
 11
13.575345621
 21
33.388718312
  0
LINE
  5
3FA
100
AcDbEntity
  8
CORPO
100
AcDbLine
 62
7
  6
CONTINUOUS
 10
13.3148508486
 20
33.8713639532
 11
12.8762403761
 21
34.0906691895
  0
LWPOLYLINE
  5
3FB
100
AcDbEntity
  8
CONTATTO
100
AcDbPolyline
 62
250
  6
CONTINUOUS
 90
5
 70
0
 10
16.9856908404
 20
33.1512513892
 10
17.0102138307
 20
33.1307470108
 10
17.0345795924
 20
33.1094687464
 10
17.0587163425
 20
33.0874064691
 10
17.0668651699
 20
33.0795924995
  0
LWPOLYLINE
  5
3FC
100
AcDbEntity
  8
CONTATTO
100
AcDbPolyline
 62
250
  6
CONTINUOUS
 90
4
 70
0
 10
16.8920542412
 20
33.1449553808
 10
16.9149146706
 20
33.1253766473
 10
16.9374922089
 20
33.1050236008
 10
16.9597868561
 20
33.0838962412
  0
LINE
  5
3FD
100
AcDbEntity
  8
CONTATTO
100
AcDbLine
 62
250
  6
CONTINUOUS
 10
16.9597868561
 20
33.0838962412
 11
16.9818323544
 21
33.0620663542
  0
LINE
  5
3FE
100
AcDbEntity
  8
CONTATTO
100
AcDbLine
 62
250
  6
CONTINUOUS
 10
16.9818323544
 20
33.0620663542
 11
16.9971653936
 21
33.0461403634
  0
LINE
  5
3FF
100
AcDbEntity
  8
CORPO
100
AcDbLine
 62
250
  6
CONTINUOUS
 10
21.1553020546
 20
34.2523067798
 11
21.5748452656
 21
33.5287017783
  0
LINE
  5
400
100
AcDbEntity
  8
CORPO
100
AcDbLine
 62
7
  6
CONTINUOUS
 10
21.545566419
 20
34.246696966
 11
21.8924041895
 21
33.6484903001
  0
LWPOLYLINE
  5
401
100
AcDbEntity
  8
CORPO
100
AcDbPolyline
 62
250
  6
CONTINUOUS
 90
13
 70
0
 10
21.5748452656
 20
33.5287017783
 10
21.626614515
 20
33.4351212609
 10
21.6746578655
 20
33.3394018063
 10
21.7187695879
 20
33.2419532999
 10
21.7587607891
 20
33.1431930307
 10
21.7944602203
 20
33.0435439058
 10
21.8257150107
 20
32.943432639
 10
21.8523913223
 20
32.8432879223
 10
21.8743749232
 20
32.7435385907
 10
21.891571676
 20
32.6446117873
 10
21.9039079418
 20
32.5469311321
 10
21.9113308949
 20
32.4509149082
 10
21.9138087495
 20
32.3569742719
  0
LWPOLYLINE
  5
402
100
AcDbEntity
  8
CONTATTO
100
AcDbPolyline
 62
7
  6
CONTINUOUS
 90
3
 70
0
 10
16.1371627029
 20
33.5755154579
 10
16.1283144926
 20
33.5792827055
 10
16.1251220212
 20
33.5803332386
  0
LINE
  5
403
100
AcDbEntity
  8
CORPO
100
AcDbLine
 62
7
  6
CONTINUOUS
 10
17.5447638286
 20
33.6316275786
 11
16.8182664399
 21
33.994876273
  0
LINE
  5
404
100
AcDbEntity
  8
CORPO
100
AcDbLine
 62
7
  6
CONTINUOUS
 10
17.3619341682
 20
33.7387022614
 11
17.0578147843
 21
33.8907619534
  0
LINE
  5
405
100
AcDbEntity
  8
CORPO
100
AcDbLine
 62
7
  6
CONTINUOUS
 10
19.756534202
 20
34.3704886732
 11
16.6442966291
 21
35.9266074596
  0
LINE
  5
406
100
AcDbEntity
  8
CONTATTO
100
AcDbLine
 62
7
  6
CONTINUOUS
 10
16.9856908404
 20
33.1512513892
 11
17.0984657256
 21
33.0947590631
  0
LWPOLYLINE
  5
407
100
AcDbEntity
  8
CONTATTO
100
AcDbPolyline
 62
7
  6
CONTINUOUS
 90
10
 70
0
 10
16.9477467731
 20
33.1639190442
 10
16.8502697194
 20
33.2139744759
 10
16.7546565176
 20
33.2629503515
 10
16.6609071676
 20
33.3108466711
 10
16.5690360863
 20
33.3576648589
 10
16.4790288569
 20
33.4034034906
 10
16.3908422289
 20
33.4480582937
 10
16.3044617855
 20
33.4916278438
 10
16.2199019435
 20
33.5341135652
 10
16.1371627029
 20
33.5755154579
  0
LWPOLYLINE
  5
408
100
AcDbEntity
  8
CORPO
100
AcDbPolyline
 62
7
  6
CONTINUOUS
 90
10
 70
0
 10
17.3619341682
 20
33.7387022614
 10
17.3305187138
 20
33.7567550737
 10
17.2985017365
 20
33.7745223761
 10
17.2658832364
 20
33.7920041687
 10
17.2326530456
 20
33.8092055353
 10
17.198821332
 20
33.8261213921
 10
17.1644185988
 20
33.8427364874
 10
17.1294550136
 20
33.8590457375
 10
17.0939204088
 20
33.8750542262
 10
17.0578147843
 20
33.8907619534
  0
LINE
  5
409
100
AcDbEntity
  8
CONTATTO
100
AcDbLine
 62
7
  6
CONTINUOUS
 10
16.9555052017
 20
33.1593325721
 11
16.9477467731
 21
33.1639190442
  0
LWPOLYLINE
  5
40A
100
AcDbEntity
  8
CORPO
100
AcDbPolyline
 62
7
  6
CONTINUOUS
 90
35
 70
0
 10
22.1664029292
 20
32.0369781654
 10
22.2831764579
 20
31.9598760591
 10
22.4229731314
 20
31.8553624129
 10
22.5597109871
 20
31.7408338158
 10
22.6925764307
 20
31.6171173114
 10
22.8209618839
 20
31.4849705363
 10
22.9445434841
 20
31.3449031303
 10
23.0629236454
 20
31.1974976266
 10
23.1756780285
 20
31.0433867371
 10
23.2823535945
 20
30.883279953
 10
23.3825106066
 20
30.7179241959
 10
23.4757265504
 20
30.5481064341
 10
23.561679673
 20
30.3744884035
 10
23.6400950546
 20
30.1976504448
 10
23.7106617296
 20
30.018259881
 10
23.773036312
 20
29.837125321
 10
23.826921048
 20
29.655030026
 10
23.8720577711
 20
29.472725443
 10
23.9082166739
 20
29.2909486059
 10
23.9351924178
 20
29.1104251461
 10
23.9528122232
 20
28.9317226938
 10
23.9608851243
 20
28.7557261781
 10
23.9592850625
 20
28.5835459373
 10
23.9479376904
 20
28.4156299619
 10
23.9268030882
 20
28.2528530256
 10
23.8960737341
 20
28.0967593852
 10
23.8559692417
 20
27.9480174205
 10
23.8066428936
 20
27.80692449
 10
23.7484477739
 20
27.6742584001
 10
23.6816393902
 20
27.5503610493
 10
23.6065706766
 20
27.4357019511
 10
23.5239809711
 20
27.3311043131
 10
23.4345418001
 20
27.2369769737
 10
23.3387174917
 20
27.1533964137
 10
23.2371260222
 20
27.0805474883
  0
LWPOLYLINE
  5
40B
100
AcDbEntity
  8
CORPO
100
AcDbPolyline
 62
250
  6
CONTINUOUS
 90
34
 70
0
 10
22.1664029292
 20
31.9583676444
 10
22.2444980199
 20
31.9028558409
 10
22.3816388898
 20
31.7934002317
 10
22.5161813815
 20
31.6738747582
 10
22.6474979603
 20
31.5448369094
 10
22.7749761189
 20
31.4068885611
 10
22.8980212557
 20
31.2606731505
 10
23.0160594511
 20
31.1068726718
 10
23.1285401456
 20
30.9462044897
 10
23.2349387002
 20
30.7794180023
 10
23.3347588432
 20
30.6072911468
 10
23.4275349846
 20
30.430626772
 10
23.5128343899
 20
30.2502488911
 10
23.5902591987
 20
30.0669988373
 10
23.6594482805
 20
29.8817313394
 10
23.7200789182
 20
29.6953105363
 10
23.7718683136
 20
29.5086059465
 10
23.8145749066
 20
29.3224884123
 10
23.8479995017
 20
29.137826038
 10
23.8719861972
 20
28.9554801402
 10
23.8864231125
 20
28.7763012312
 10
23.8912429098
 20
28.6011250512
 10
23.8864231082
 20
28.4307686708
 10
23.8719861886
 20
28.2660266796
 10
23.8479994888
 20
28.1076674802
 10
23.8145748895
 20
27.956429704
 10
23.7718682923
 20
27.8130187663
 10
23.7200788926
 20
27.6781035756
 10
23.6594482508
 20
27.5523134143
 10
23.5902591651
 20
27.4362350025
 10
23.5128343524
 20
27.3304097621
 10
23.4275349433
 20
27.2353312912
 10
23.3347587982
 20
27.1514430628
 10
23.2371260222
 20
27.0805474883
  0
LWPOLYLINE
  5
40C
100
AcDbEntity
  8
CORPO
100
AcDbPolyline
 62
250
  6
CONTINUOUS
 90
12
 70
0
 10
21.8924041895
 20
33.6484903001
 10
21.8910450528
 20
33.6500874141
 10
21.8831261347
 20
33.6526090172
 10
21.8694815422
 20
33.651740208
 10
21.8502128256
 20
33.6474874527
 10
21.8254633926
 20
33.6398824024
 10
21.7954174416
 20
33.6289816579
 10
21.7602985902
 20
33.6148663482
 10
21.7203682111
 20
33.5976415271
 10
21.6759234872
 20
33.5774353908
 10
21.6272951993
 20
33.5543983238
 10
21.5748452646
 20
33.5287017801
  0
LINE
  5
40D
100
AcDbEntity
  8
CORPO
100
AcDbLine
 62
250
  6
CONTINUOUS
 10
21.1553020546
 20
34.2523067798
 11
20.3496301186
 21
34.6551427478
  0
LINE
  5
40E
100
AcDbEntity
  8
CORPO
100
AcDbLine
 62
250
  6
CONTINUOUS
 10
15.6479670395
 20
37.0059742874
 11
14.6768082058
 21
37.4915537042
  0
LINE
  5
40F
100
AcDbEntity
  8
CORPO
100
AcDbLine
 62
7
  6
CONTINUOUS
 10
21.4855774322
 20
34.3029888839
 11
20.659818532
 21
34.715868334
  0
LINE
  5
410
100
AcDbEntity
  8
CORPO
100
AcDbLine
 62
7
  6
CONTINUOUS
 10
16.120549811
 20
36.9855026945
 11
15.0681937983
 21
37.5116807008
  0
LWPOLYLINE
  5
411
100
AcDbEntity
  8
CORPO
100
AcDbPolyline
 62
7
  6
CONTINUOUS
 90
4
 70
0
 10
21.4875029841
 20
34.3020259106
 10
21.5011464601
 20
34.2942111688
 10
21.5246821567
 20
34.2748388903
 10
21.5448602994
 20
34.2479610588
  0
ELLIPSE
  5
412
100
AcDbEntity
  8
CORPO
100
AcDbEllipse
 62
7
  6
CONTINUOUS
 10
14.5698405668
 20
34.1893837802
 30
0.0
 11
3.3311333813
 21
-0.0467042088
 31
0.0
 40
0.4892378494
 41
3.8524884811
 42
5.5059722822
  0
ELLIPSE
  5
413
100
AcDbEntity
  8
CORPO
100
AcDbEllipse
 62
7
  6
CONTINUOUS
 10
15.265330828
 20
32.8961239635
 30
0.0
 11
2.7583300471
 21
-0.038763314
 31
0.0
 40
0.4892375088
 41
0.4291477653
 42
0.6564870977
  0
ELLIPSE
  5
414
100
AcDbEntity
  8
CORPO
100
AcDbEllipse
 62
7
  6
CONTINUOUS
 10
14.5935793859
 20
33.0076216475
 30
0.0
 11
2.7499350056
 21
-0.0386453369
 31
0.0
 40
0.4892375088
 41
8.654981679
 42
9.2557292866
  0
ELLIPSE
  5
415
100
AcDbEntity
  8
CORPO
100
AcDbEllipse
 62
7
  6
CONTINUOUS
 10
15.265330828
 20
32.8961239635
 30
0.0
 11
2.7583300471
 21
-0.038763314
 31
0.0
 40
0.4892375088
 41
0.9280596999
 42
2.3630697256
  0
ELLIPSE
  5
416
100
AcDbEntity
  8
CORPO
100
AcDbEllipse
 62
7
  6
CONTINUOUS
 10
19.9710450591
 20
34.0540244806
 30
0.0
 11
0.716172246
 21
0.6416715914
 31
0.0
 40
0.2882345029
 41
0.1142323894
 42
0.7807533904
  0
ELLIPSE
  5
417
100
AcDbEntity
  8
CORPO
100
AcDbEllipse
 62
7
  6
CONTINUOUS
 10
15.265330828
 20
34.8408346748
 30
0.0
 11
2.7583515655
 21
-1.4175703156
 31
0.0
 40
0.0109499087
 41
-0.9155571536
 42
-0.85781018
  0
ELLIPSE
  5
418
100
AcDbEntity
  8
CORPO
100
AcDbEllipse
 62
7
  6
CONTINUOUS
 10
15.265330828
 20
34.8408346748
 30
0.0
 11
2.7583515655
 21
-1.4175703156
 31
0.0
 40
0.0109499087
 41
-0.7017315251
 42
-0.6439845515
  0
ELLIPSE
  5
419
100
AcDbEntity
  8
CORPO
100
AcDbEllipse
 62
7
  6
CONTINUOUS
 10
15.265330828
 20
33.3291366654
 30
0.0
 11
2.7583300471
 21
-0.038763314
 31
0.0
 40
0.4892375088
 41
0.1708839954
 42
2.3630697256
  0
ELLIPSE
  5
41A
100
AcDbEntity
  8
CORPO
100
AcDbEllipse
 62
7
  6
CONTINUOUS
 10
16.004338812
 20
36.0373776041
 30
0.0
 11
-0.2796057293
 21
0.9974617846
 31
0.0
 40
0.6760995073
 41
4.8467711056
 42
6.4001141399
  0
ELLIPSE
  5
41B
100
AcDbEntity
  8
CORPO
100
AcDbEllipse
 62
7
  6
CONTINUOUS
 10
14.5698405668
 20
34.1893837802
 30
0.0
 11
3.3311333813
 21
-0.0467042088
 31
0.0
 40
0.4892378494
 41
2.3616770883
 42
3.7059757983
  0
ELLIPSE
  5
41C
100
AcDbEntity
  8
CASTELLO
100
AcDbEllipse
 62
7
  6
CONTINUOUS
 10
11.6478437546
 20
32.3637991394
 30
0.0
 11
0.499996712
 21
0.0035883639
 31
0.0
 40
0.5053247124
 41
-0.7715714568
 42
-0.0036478305
  0
ELLIPSE
  5
41D
100
AcDbEntity
  8
CASTELLO
100
AcDbEllipse
 62
7
  6
CONTINUOUS
 10
1.083338228
 20
37.4860415505
 30
0.0
 11
0.2257019663
 21
0.4461636818
 31
0.0
 40
0.6159267166
 41
0.5380090616
 42
0.6817883054
  0
ELLIPSE
  5
41E
100
AcDbEntity
  8
CASTELLO
100
AcDbEllipse
 62
7
  6
CONTINUOUS
 10
-4.248753436
 20
34.9635218818
 30
0.0
 11
0.4999985559
 21
0.0023864752
 31
0.0
 40
0.5035541159
 41
2.3596088132
 42
3.0002042076
  0
ELLIPSE
  5
41F
100
AcDbEntity
  8
CASTELLO
100
AcDbEllipse
 62
7
  6
CONTINUOUS
 10
7.0981936492
 20
28.7002052604
 30
0.0
 11
-0.2237046003
 21
0.4472532382
 31
0.0
 40
0.6122950388
 41
-2.2557482655
 42
-0.6847996396
  0
ELLIPSE
  5
420
100
AcDbEntity
  8
CASTELLO
100
AcDbEllipse
 62
7
  6
CONTINUOUS
 10
7.0981936492
 20
-9.2165590701
 30
0.0
 11
-0.2236445579
 21
0.4471998343
 31
0.0
 40
0.6124778111
 41
-3.1448859382
 42
-2.255529033
  0
ELLIPSE
  5
421
100
AcDbEntity
  8
CASTELLO
100
AcDbEllipse
 62
7
  6
CONTINUOUS
 10
11.8268874605
 20
-4.715896552
 30
0.0
 11
0.9987332359
 21
0.6172510855
 31
0.0
 40
0.0815198604
 41
-2.3978073241
 42
-1.2985018509
  0
ELLIPSE
  5
422
100
AcDbEntity
  8
CASTELLO
100
AcDbEllipse
 62
7
  6
CONTINUOUS
 10
0.0361551721
 20
38.0941371365
 30
0.0
 11
0.9987332359
 21
0.6172510855
 31
0.0
 40
0.0815198604
 41
0.0509898783
 42
0.7263320369
  0
ELLIPSE
  5
423
100
AcDbEntity
  8
CASTELLO
100
AcDbEllipse
 62
7
  6
CONTINUOUS
 10
11.6478437546
 20
-4.9251168709
 30
0.0
 11
0.499366618
 21
0.3086255427
 31
0.0
 40
0.0815198604
 41
6.1080157147
 42
7.0007906979
  0
ELLIPSE
  5
424
100
AcDbEntity
  8
CASTELLO
100
AcDbEllipse
 62
7
  6
CONTINUOUS
 10
1.4371930589
 20
36.5611923734
 30
0.0
 11
0.4279673669
 21
-0.0030279657
 31
0.0
 40
0.4946372042
 41
-0.7818985079
 42
0.0034334386
  0
ELLIPSE
  5
425
100
AcDbEntity
  8
CASTELLO
100
AcDbEllipse
 62
7
  6
CONTINUOUS
 10
6.9921814881
 20
33.7836981589
 30
0.0
 11
0.4279673669
 21
-0.0030279657
 31
0.0
 40
0.4946372042
 41
-0.7760807437
 42
0.0034304302
  0
ELLIPSE
  5
426
100
AcDbEntity
  8
CASTELLO
100
AcDbEllipse
 62
7
  6
CONTINUOUS
 10
7.2441704988
 20
34.4056254151
 30
0.0
 11
0.221538876
 21
0.4482453432
 31
0.0
 40
0.6088015717
 41
0.5323082896
 42
0.6760875334
  0
ELLIPSE
  5
427
100
AcDbEntity
  8
CASTELLO
100
AcDbEllipse
 62
7
  6
CONTINUOUS
 10
-4.248753436
 20
33.7309122766
 30
0.0
 11
0.4998587701
 21
0.0223649649
 31
0.0
 40
0.5313301283
 41
3.1178197826
 42
3.9032222197
  0
ELLIPSE
  5
428
100
AcDbEntity
  8
CASTELLO
100
AcDbEllipse
 62
7
  6
CONTINUOUS
 10
1.2625536637
 20
30.9752587268
 30
0.0
 11
0.4998587701
 21
0.0223649649
 31
0.0
 40
0.5313301283
 41
-2.3799630874
 42
-0.8149845248
  0
ELLIPSE
  5
429
100
AcDbEntity
  8
CASTELLO
100
AcDbEllipse
 62
7
  6
CONTINUOUS
 10
1.2625536637
 20
32.207868332
 30
0.0
 11
0.4999985559
 21
0.0023864752
 31
0.0
 40
0.5035541159
 41
-1.4342147631
 42
-0.7936193687
  0
ELLIPSE
  5
42A
100
AcDbEntity
  8
CASTELLO
100
AcDbEllipse
 62
7
  6
CONTINUOUS
 10
11.8268874605
 20
32.1987709923
 30
0.0
 11
-0.7417913999
 21
1.2002436976
 31
0.0
 40
0.5587454355
 41
5.1248137075
 42
6.2241191807
  0
ELLIPSE
  5
42B
100
AcDbEntity
  8
CASTELLO
100
AcDbEllipse
 62
7
  6
CONTINUOUS
 10
-9.3721952211
 20
35.7282632321
 30
0.0
 11
0.249929385
 21
0.0111824824
 31
0.0
 40
0.5313301283
 41
3.1179086008
 42
3.9032222197
  0
ELLIPSE
  5
42C
100
AcDbEntity
  8
CASTELLO
100
AcDbEllipse
 62
7
  6
CONTINUOUS
 10
-8.0389828874
 20
35.0616570653
 30
0.0
 11
0.249929385
 21
0.0111824824
 31
0.0
 40
0.5313301283
 41
-2.3799630874
 42
-0.8149845248
  0
ELLIPSE
  5
42D
100
AcDbEntity
  8
CASTELLO
100
AcDbEllipse
 62
7
  6
CONTINUOUS
 10
11.6478437546
 20
33.2941417982
 30
0.0
 11
-0.3708957
 21
0.6001218488
 31
0.0
 40
0.5587454355
 41
-3.1744788413
 42
-2.2817038581
  0
ELLIPSE
  5
42E
100
AcDbEntity
  8
CASTELLO
100
AcDbEllipse
 62
7
  6
CONTINUOUS
 10
3.9921229434
 20
29.0461041499
 30
0.0
 11
0.249929385
 21
0.0111824824
 31
0.0
 40
0.5313301283
 41
3.1178369227
 42
3.9032222197
  0
ELLIPSE
  5
42F
100
AcDbEntity
  8
CASTELLO
100
AcDbEllipse
 62
7
  6
CONTINUOUS
 10
5.325335277
 20
28.3794979831
 30
0.0
 11
0.249929385
 21
0.0111824824
 31
0.0
 40
0.5313301283
 41
-2.3799630874
 42
-1.3352760237
  0
ENDSEC
  0
SECTION
  2
OBJECTS
  0
DICTIONARY
  5
C
100
AcDbDictionary
280
0
281
1
  3
ACAD_GROUP
350
D
  3
ACAD_MLINESTYLE
350
17
  3
ACAD_LAYOUT
350
1A
  3
ACAD_PLOTSETTINGS
350
19
  3
ACAD_PLOTSTYLENAME
350
E
  0
DICTIONARY
  5
D
102
{ACAD_REACTORS
330
C
102
}
100
AcDbDictionary
280
0
281
1
  0
ACDBDICTIONARYWDFLT
  5
E
102
{ACAD_REACTORS
330
C
102
}
100
AcDbDictionary
281
1
  3
Normal
350
F
100
AcDbDictionaryWithDefault
340
F
  0
DICTIONARY
  5
17
102
{ACAD_REACTORS
330
C
102
}
100
AcDbDictionary
280
0
281
1
  3
Standard
350
18
  0
DICTIONARY
  5
19
102
{ACAD_REACTORS
330
C
102
}
100
AcDbDictionary
281
1
  0
DICTIONARY
  5
1A
102
{ACAD_REACTORS
330
C
102
}
100
AcDbDictionary
281
1
  3
Model
350
430
  3
Layout1
350
431
  0
ACDBPLACEHOLDER
  5
F
102
{ACAD_REACTORS
330
E
102
}
  0
MLINESTYLE
  5
18
102
{ACAD_REACTORS
330
17
102
}
100
AcDbMlineStyle
  2
STANDARD
 70
0
  3

 62
256
 51
90.0
 52
90.0
 71
2
 49
0.5
 62
256
  6
BYLAYER
 49
-0.5
 62
256
  6
BYLAYER
  0
LAYOUT
  5
430
102
{ACAD_REACTORS
330
1A
102
}
100
AcDbPlotSettings
  1

  2
none_device
  4
ISO_A4_(297.00_x_210.00_MM)
  6

 40
0.0
 41
0.0
 42
0.0
 43
0.0
 44
297.0
 45
210.0
 46
0.0
 47
0.0
 48
0.0
 49
0.0
140
0.0
141
0.0
142
1.0
143
1.0
 70
1024
 72
1
 73
0
 74
0
  7

 75
0
147
1.0
148
0.0
149
0.0
100
AcDbLayout
  1
Model
 70
0
 71
0
 10
0.0
 20
0.0
 11
297.0
 21
210.0
 12
0.0
 22
0.0
 32
0.0
 14
0.0
 24
0.0
 34
0.0
 15
0.0
 25
0.0
 35
0.0
146
0.0
 13
0.0
 23
0.0
 33
0.0
 16
1.0
 26
0.0
 36
0.0
 17
0.0
 27
1.0
 37
0.0
 76
0
330
22A
345
0
346
0
  0
LAYOUT
  5
431
102
{ACAD_REACTORS
330
1A
102
}
100
AcDbPlotSettings
  1

  2
none_device
  4
ISO_A4_(297.00_x_210.00_MM)
  6

 40
0.0
 41
0.0
 42
0.0
 43
0.0
 44
297.0
 45
210.0
 46
0.0
 47
0.0
 48
0.0
 49
0.0
140
0.0
141
0.0
142
1.0
143
1.0
 70
0
 72
1
 73
0
 74
0
  7

 75
0
147
1.0
148
0.0
149
0.0
100
AcDbLayout
  1
Layout1
 70
0
 71
1
 10
0.0
 20
0.0
 11
297.0
 21
210.0
 12
0.0
 22
0.0
 32
0.0
 14
0.0
 24
0.0
 34
0.0
 15
0.0
 25
0.0
 35
0.0
146
0.0
 13
0.0
 23
0.0
 33
0.0
 16
1.0
 26
0.0
 36
0.0
 17
0.0
 27
1.0
 37
0.0
 76
0
330
22B
345
0
346
0
  0
ENDSEC
  0
EOF
