  0
SECTION
  2
HEADER
  9
$ACADVER
  1
AC1024
  9
$DWGCODEPAGE
  3
ANSI_1252
  9
$EXTMAX
 10
297.0
 20
210.0
 30
0.0
  9
$EXTMIN
 10
0.0
 20
0.0
 30
0.0
  9
$LIMMIN
 10
0.0
 20
0.0
  9
$LIMMAX
 10
297.0
 20
210.0
  9
$VIEWCTR
 10
148.5
 20
105.0
  9
$VIEWSIZE
 40
210.0
  9
$CLAYER
  8
0
  9
$LTSCALE
 40
16.335
  9
$CELTYPE
  6
BYLAYER
  9
$DIMSCALE
 40
1.0
  9
$DIMASZ
 40
3.0
  9
$DIMEXO
 40
0.5
  9
$DIMDLI
 40
11.286
  9
$DIMEXE
 40
1.5
  9
$DIMCEN
 40
2.673
  9
$DIMLFAC
 40
1.0
  9
$DIMBLK
  1
_FILLED
  9
$DIMALT
 70
0
  9
$DIMALTF
 40
0.0393700787
  9
$DIMTXT
 40
3.0
  9
$DIMTOL
 70
1
  9
$DIMLIM
 70
0
  9
$DIMTFAC
 40
1.0
  9
$DIMTP
 40
0.01
  9
$DIMTM
 40
0.01
  9
$DIMGAP
 40
0.625
  9
$DIMDSEP
 70
44
  9
$AUNITS
 70
0
  9
$PDMODE
 70
3
  9
$PDSIZE
 40
3.0
  9
$HANDSEED
  5
4DE
  9
$TILEMODE
 70
1
  9
$MEASUREMENT
 70
1
  9
$INSUNITS
 70
4
  0
ENDSEC
  0
SECTION
  2
CLASSES
  0
CLASS
  1
ACDBDICTIONARYWDFLT
  2
AcDbDictionaryWithDefault
  3
AutoCAD 2000
 90
0
 91
1
280
0
281
0
  0
CLASS
  1
ACDBPLACEHOLDER
  2
AcDbPlaceHolder
  3
AutoCAD 2000
 90
0
 91
1
280
0
281
0
  0
CLASS
  1
LAYOUT
  2
AcDbLayout
  3
AutoCAD 2000
 90
0
 91
0
280
0
281
0
  0
ENDSEC
  0
SECTION
  2
TABLES
  0
TABLE
  2
VPORT
  5
8
100
AcDbSymbolTable
 70
2
  0
VPORT
  5
1F4
100
AcDbSymbolTableRecord
100
AcDbViewportTableRecord
  2
*ACTIVE
 70
0
 10
0.0
 20
0.0
 11
1.0
 21
1.0
 12
148.5
 22
105.0
 13
0.0
 23
0.0
 14
1.0
 24
1.0
 15
0.0
 25
0.0
 16
0.0
 26
0.0
 36
1.0
 17
0.0
 27
0.0
 37
0.0
 40
210.0
 41
1.4142857143
 42
50.0
 43
0.0
 44
0.0
 50
0.0
 51
0.0
 71
0
 72
100
 73
1
 74
1
 75
0
 76
0
 77
0
 78
0
  0
ENDTAB
  0
TABLE
  2
LTYPE
  5
5
100
AcDbSymbolTable
 70
6
  0
LTYPE
  5
14
100
AcDbSymbolTableRecord
100
AcDbLinetypeTableRecord
  2
BYBLOCK
 70
0
  3

 72
65
 73
0
 40
0.0
  0
LTYPE
  5
15
100
AcDbSymbolTableRecord
100
AcDbLinetypeTableRecord
  2
BYLAYER
 70
0
  3

 72
65
 73
0
 40
0.0
  0
LTYPE
  5
16
100
AcDbSymbolTableRecord
100
AcDbLinetypeTableRecord
  2
CONTINUOUS
 70
64
  3
Solid line
 72
65
 73
0
 40
0.0
  0
LTYPE
  5
1F5
100
AcDbSymbolTableRecord
100
AcDbLinetypeTableRecord
  2
CENTER
 70
64
  3
____ _ ____ _ ____ _ ____ _ ____ _ ____ _ ____
 72
65
 73
4
 40
0.6
 49
0.375
 74
0
 49
-0.075
 74
0
 49
0.075
 74
0
 49
-0.075
 74
0
  0
LTYPE
  5
1F6
100
AcDbSymbolTableRecord
100
AcDbLinetypeTableRecord
  2
HIDDEN
 70
64
  3
- - - - - - - - - - - - - - - - - - - -
 72
65
 73
2
 40
0.2
 49
0.1
 74
0
 49
-0.1
 74
0
  0
LTYPE
  5
1F7
100
AcDbSymbolTableRecord
100
AcDbLinetypeTableRecord
  2
PHANTOM
 70
64
  3
_____ _ _ _____ _ _ _____ _ _ _____
 72
65
 73
6
 40
0.8
 49
0.45
 74
0
 49
-0.05
 74
0
 49
0.1
 74
0
 49
-0.05
 74
0
 49
0.1
 74
0
 49
-0.05
 74
0
  0
LTYPE
  5
1F8
100
AcDbSymbolTableRecord
100
AcDbLinetypeTableRecord
  2
DOT
 70
64
  3
. . . . . . . . . . . . . . . . . . . .
 72
65
 73
2
 40
0.2
 49
0.1
 74
0
 49
-0.1
 74
0
  0
LTYPE
  5
1F9
100
AcDbSymbolTableRecord
100
AcDbLinetypeTableRecord
  2
DASHED
 70
64
  3
- - - - - - - - - - - - - - - - - - - -
 72
65
 73
2
 40
0.2
 49
0.1
 74
0
 49
-0.1
 74
0
  0
ENDTAB
  0
TABLE
  2
LAYER
  5
2
100
AcDbSymbolTable
 70
36
  0
LAYER
  5
10
100
AcDbSymbolTableRecord
100
AcDbLayerTableRecord
  2
0
 70
0
 62
7
  6
CONTINUOUS
370
-3
390
F
  0
LAYER
  5
1FA
100
AcDbSymbolTableRecord
100
AcDbLayerTableRecord
  2
DEFAULT_1
 70
0
 62
7
  6
CENTER
370
-3
390
F
  0
LAYER
  5
1FB
100
AcDbSymbolTableRecord
100
AcDbLayerTableRecord
  2
DEFAULT_2
 70
0
 62
7
  6
HIDDEN
370
-3
390
F
  0
LAYER
  5
1FC
100
AcDbSymbolTableRecord
100
AcDbLayerTableRecord
  2
DEFAULT_3
 70
0
 62
7
  6
PHANTOM
370
-3
390
F
  0
LAYER
  5
1FD
100
AcDbSymbolTableRecord
100
AcDbLayerTableRecord
  2
218140580
 70
0
 62
7
  6
CONTINUOUS
370
-3
390
F
  0
LAYER
  5
1FE
100
AcDbSymbolTableRecord
100
AcDbLayerTableRecord
  2
268140580
 70
0
 62
7
  6
CONTINUOUS
370
-3
390
F
  0
LAYER
  5
1FF
100
AcDbSymbolTableRecord
100
AcDbLayerTableRecord
  2
ASSI
 70
0
 62
7
  6
CONTINUOUS
370
-3
390
F
  0
LAYER
  5
200
100
AcDbSymbolTableRecord
100
AcDbLayerTableRecord
  2
COLOR5
 70
0
 62
7
  6
CONTINUOUS
370
-3
390
F
  0
LAYER
  5
201
100
AcDbSymbolTableRecord
100
AcDbLayerTableRecord
  2
COORDINATE
 70
0
 62
7
  6
CONTINUOUS
370
-3
390
F
  0
LAYER
  5
202
100
AcDbSymbolTableRecord
100
AcDbLayerTableRecord
  2
COORD_ORIGINE
 70
0
 62
7
  6
CONTINUOUS
370
-3
390
F
  0
LAYER
  5
203
100
AcDbSymbolTableRecord
100
AcDbLayerTableRecord
  2
COPY-PUBBLISH
 70
0
 62
7
  6
CONTINUOUS
370
-3
390
F
  0
LAYER
  5
204
100
AcDbSymbolTableRecord
100
AcDbLayerTableRecord
  2
COSMETICHE
 70
0
 62
7
  6
CONTINUOUS
370
-3
390
F
  0
LAYER
  5
205
100
AcDbSymbolTableRecord
100
AcDbLayerTableRecord
  2
CURVA_CENTRALE
 70
0
 62
7
  6
CONTINUOUS
370
-3
390
F
  0
LAYER
  5
206
100
AcDbSymbolTableRecord
100
AcDbLayerTableRecord
  2
CURVE
 70
0
 62
7
  6
CONTINUOUS
370
-3
390
F
  0
LAYER
  5
207
100
AcDbSymbolTableRecord
100
AcDbLayerTableRecord
  2
DRAFT
 70
0
 62
7
  6
CONTINUOUS
370
-3
390
F
  0
LAYER
  5
208
100
AcDbSymbolTableRecord
100
AcDbLayerTableRecord
  2
IGES_INCISIONI
 70
0
 62
7
  6
CONTINUOUS
370
-3
390
F
  0
LAYER
  5
209
100
AcDbSymbolTableRecord
100
AcDbLayerTableRecord
  2
INCISIONI_LASER
 70
0
 62
7
  6
CONTINUOUS
370
-3
390
F
  0
LAYER
  5
20A
100
AcDbSymbolTableRecord
100
AcDbLayerTableRecord
  2
INTF_1
 70
0
 62
7
  6
CONTINUOUS
370
-3
390
F
  0
LAYER
  5
20B
100
AcDbSymbolTableRecord
100
AcDbLayerTableRecord
  2
INTF_11
 70
0
 62
7
  6
CONTINUOUS
370
-3
390
F
  0
LAYER
  5
20C
100
AcDbSymbolTableRecord
100
AcDbLayerTableRecord
  2
INTF_2
 70
0
 62
7
  6
CONTINUOUS
370
-3
390
F
  0
LAYER
  5
20D
100
AcDbSymbolTableRecord
100
AcDbLayerTableRecord
  2
INTF_RED
 70
0
 62
7
  6
CONTINUOUS
370
-3
390
F
  0
LAYER
  5
20E
100
AcDbSymbolTableRecord
100
AcDbLayerTableRecord
  2
INTF_YELLOW
 70
0
 62
7
  6
CONTINUOUS
370
-3
390
F
  0
LAYER
  5
20F
100
AcDbSymbolTableRecord
100
AcDbLayerTableRecord
  2
NOTE
 70
0
 62
7
  6
CONTINUOUS
370
-3
390
F
  0
LAYER
  5
210
100
AcDbSymbolTableRecord
100
AcDbLayerTableRecord
  2
PIANI
 70
0
 62
7
  6
CONTINUOUS
370
-3
390
F
  0
LAYER
  5
211
100
AcDbSymbolTableRecord
100
AcDbLayerTableRecord
  2
PIANI_CONTATTI
 70
0
 62
7
  6
CONTINUOUS
370
-3
390
F
  0
LAYER
  5
212
100
AcDbSymbolTableRecord
100
AcDbLayerTableRecord
  2
PIANI_ORIGINE
 70
0
 62
7
  6
CONTINUOUS
370
-3
390
F
  0
LAYER
  5
213
100
AcDbSymbolTableRecord
100
AcDbLayerTableRecord
  2
PIANI_RIFERIMENTO
 70
0
 62
7
  6
CONTINUOUS
370
-3
390
F
  0
LAYER
  5
214
100
AcDbSymbolTableRecord
100
AcDbLayerTableRecord
  2
PIANI_SFORMI
 70
0
 62
7
  6
CONTINUOUS
370
-3
390
F
  0
LAYER
  5
215
100
AcDbSymbolTableRecord
100
AcDbLayerTableRecord
  2
PUNTI
 70
0
 62
7
  6
CONTINUOUS
370
-3
390
F
  0
LAYER
  5
216
100
AcDbSymbolTableRecord
100
AcDbLayerTableRecord
  2
RACCORDO
 70
0
 62
7
  6
CONTINUOUS
370
-3
390
F
  0
LAYER
  5
217
100
AcDbSymbolTableRecord
100
AcDbLayerTableRecord
  2
RGB__255__255__255__
 70
0
 62
7
  6
CONTINUOUS
370
-3
390
F
  0
LAYER
  5
218
100
AcDbSymbolTableRecord
100
AcDbLayerTableRecord
  2
SMUSSO
 70
0
 62
7
  6
CONTINUOUS
370
-3
390
F
  0
LAYER
  5
219
100
AcDbSymbolTableRecord
100
AcDbLayerTableRecord
  2
SNAPLINE
 70
0
 62
7
  6
CONTINUOUS
370
-3
390
F
  0
LAYER
  5
21A
100
AcDbSymbolTableRecord
100
AcDbLayerTableRecord
  2
SUPERFICI
 70
0
 62
7
  6
CONTINUOUS
370
-3
390
F
  0
LAYER
  5
21B
100
AcDbSymbolTableRecord
100
AcDbLayerTableRecord
  2
TRACCIABILITA
 70
0
 62
7
  6
CONTINUOUS
370
-3
390
F
  0
LAYER
  5
21C
100
AcDbSymbolTableRecord
100
AcDbLayerTableRecord
  2
TRASH
 70
0
 62
7
  6
CONTINUOUS
370
-3
390
F
  0
LAYER
  5
21D
100
AcDbSymbolTableRecord
100
AcDbLayerTableRecord
  2
WHITE
 70
0
 62
7
  6
CONTINUOUS
370
-3
390
F
  0
LAYER
  5
21E
100
AcDbSymbolTableRecord
100
AcDbLayerTableRecord
  2
XSEC_DATUMS
 70
0
 62
7
  6
CONTINUOUS
370
-3
390
F
  0
ENDTAB
  0
TABLE
  2
STYLE
  5
3
100
AcDbSymbolTable
 70
1
  0
STYLE
  5
11
100
AcDbSymbolTableRecord
100
AcDbTextStyleTableRecord
  2
STANDARD
 70
0
 40
0.0
 41
0.8
 50
0.0
 71
0
 42
0.2
  3
txt
  4

  0
STYLE
  5
21F
100
AcDbSymbolTableRecord
100
AcDbTextStyleTableRecord
  2
TEXTSTYLE_1
 70
0
 40
0.0
 41
0.8
 50
0.0
 71
0
 42
0.2
  3
gdt
  4

  0
ENDTAB
  0
TABLE
  2
VIEW
  5
6
100
AcDbSymbolTable
 70
0
  0
ENDTAB
  0
TABLE
  2
UCS
  5
7
100
AcDbSymbolTable
 70
0
  0
ENDTAB
  0
TABLE
  2
APPID
  5
9
100
AcDbSymbolTable
 70
1
  0
APPID
  5
220
100
AcDbSymbolTableRecord
100
AcDbRegAppTableRecord
  2
ACAD
 70
0
  0
ENDTAB
  0
TABLE
  2
BLOCK_RECORD
  5
1
100
AcDbSymbolTable
 70
0
  0
BLOCK_RECORD
  5
221
100
AcDbSymbolTableRecord
100
AcDbBlockTableRecord
  2
*Model_Space
  0
BLOCK_RECORD
  5
222
100
AcDbSymbolTableRecord
100
AcDbBlockTableRecord
  2
*Paper_Space
  0
BLOCK_RECORD
  5
223
100
AcDbSymbolTableRecord
100
AcDbBlockTableRecord
  2
_FILLED
  0
ENDTAB
  0
TABLE
  2
DIMSTYLE
  5
A
100
AcDbSymbolTable
 70
1
100
AcDbDimStyleTable
 71
0
  0
DIMSTYLE
105
224
100
AcDbSymbolTableRecord
100
AcDbDimStyleTableRecord
  2
STANDARD
 70
0
  3

  4

 40
1.0
 41
3.0
 42
0.5
 43
0.38
 44
1.5
 45
0.0
 46
0.0
 47
0.01
 48
0.01
140
3.0
141
0.09
142
0.0
143
25.4
144
1.0
145
0.0
146
1.0
147
0.625
 71
1
 72
0
 73
0
 74
0
 75
0
 76
0
 77
1
 78
8
 79
2
170
0
171
1
172
0
173
0
174
0
175
0
176
0
177
0
178
0
270
2
179
2
271
2
272
2
273
2
274
2
275
0
280
0
281
0
282
0
283
1
284
8
285
0
286
0
287
3
288
0
340
11
278
44
341
223
342
223
343
223
344
223
  0
ENDTAB
  0
ENDSEC
  0
SECTION
  2
BLOCKS
  0
BLOCK
  5
20
100
AcDbEntity
  8
0
100
AcDbBlockBegin
  2
*Model_Space
 70
0
 10
0.0
 20
0.0
 30
0.0
  3
*Model_Space
  1

  0
ENDBLK
  5
21
100
AcDbEntity
  8
0
100
AcDbBlockEnd
  0
BLOCK
  5
1C
100
AcDbEntity
  8
0
100
AcDbBlockBegin
  2
*Paper_Space
 70
0
 10
0.0
 20
0.0
 30
0.0
  3
*Paper_Space
  1

  0
ENDBLK
  5
1D
100
AcDbEntity
  8
0
100
AcDbBlockEnd
  0
BLOCK
  5
225
100
AcDbEntity
  8
0
100
AcDbBlockBegin
  2
_FILLED
 70
64
 10
0.0
 20
0.0
  3
_FILLED
  1

  0
SOLID
  5
226
100
AcDbEntity
  8
0
  6
BYBLOCK
 62
0
100
AcDbTrace
 10
0.0
 20
0.0
 11
-1.0
 21
0.3166666667
 12
-1.0
 22
-0.3166666667
 13
-1.0
 23
-0.3166666667
  0
ENDBLK
  5
227
100
AcDbEntity
  8
0
  6
BYBLOCK
 62
0
100
AcDbBlockEnd
  0
ENDSEC
  0
SECTION
  2
ENTITIES
  0
LWPOLYLINE
  5
228
100
AcDbEntity
  8
ASSI
100
AcDbPolyline
 62
250
  6
CONTINUOUS
 90
4
 70
0
 10
-19.8970814413
 20
19.7488162768
 10
-19.8252463754
 20
19.8062527556
 10
-19.7524134387
 20
19.8578966419
 10
-19.6789471046
 20
19.9034928629
  0
LWPOLYLINE
  5
229
100
AcDbEntity
  8
RACCORDO
100
AcDbPolyline
 62
250
  6
CONTINUOUS
 90
4
 70
0
 10
-19.8970730553
 20
19.7488234582
 10
-19.8252391151
 20
19.8062582908
 10
-19.7524089699
 20
19.8578996429
 10
-19.6789471046
 20
19.9034928629
  0
LWPOLYLINE
  5
22A
100
AcDbEntity
  8
ASSI
100
AcDbPolyline
 62
7
  6
CONTINUOUS
 90
17
 70
0
 10
-19.944494343
 20
19.8928729107
 10
-20.0338564654
 20
19.8327035159
 10
-20.1197956676
 20
19.7654037544
 10
-20.202049862
 20
19.6914849715
 10
-20.2804602201
 20
19.6113922384
 10
-20.3547067833
 20
19.5256669813
 10
-20.4245991566
 20
19.4347281872
 10
-20.4898906703
 20
19.3390133911
 10
-20.5501108329
 20
19.2392699531
 10
-20.6050355866
 20
19.1359743973
 10
-20.6543987915
 20
19.0295809073
 10
-20.6977852891
 20
18.9209447761
 10
-20.7349759037
 20
18.8105625098
 10
-20.765712672
 20
18.6988960954
 10
-20.7896955642
 20
18.5866953577
 10
-20.8066803293
 20
18.4744428466
 10
-20.8164312283
 20
18.3625018113
  0
LINE
  5
22B
100
AcDbEntity
  8
ASSI
100
AcDbLine
 62
7
  6
CONTINUOUS
 10
-19.9121276948
 20
19.9123520223
 11
-19.944494343
 21
19.8928729107
  0
LWPOLYLINE
  5
22C
100
AcDbEntity
  8
RACCORDO
100
AcDbPolyline
 62
7
  6
CONTINUOUS
 90
18
 70
0
 10
-19.9121377727
 20
19.9123415517
 10
-19.9446507408
 20
19.8927788076
 10
-20.0343205807
 20
19.8323704389
 10
-20.1204028543
 20
19.7648929764
 10
-20.2027646075
 20
19.6907989336
 10
-20.2812498014
 20
19.610533689
 10
-20.3555332613
 20
19.5246501846
 10
-20.4254238279
 20
19.4335917597
 10
-20.4906754202
 20
19.337788844
 10
-20.5508332515
 20
19.2379946576
 10
-20.6056761812
 20
19.1346878614
 10
-20.6549389091
 20
19.0283225224
 10
-20.6982217797
 20
18.9197616796
 10
-20.7352995764
 20
18.8095051132
 10
-20.7659309478
 20
18.6980026147
 10
-20.7898256531
 20
18.5859848289
 10
-20.80673765
 20
18.4739325903
 10
-20.8164379378
 20
18.362347073
  0
LINE
  5
22D
100
AcDbEntity
  8
268140580
100
AcDbLine
 62
7
  6
CONTINUOUS
 10
-15.631703316
 20
22.4622146209
 11
-15.3009582144
 21
22.6550693091
  0
LINE
  5
22E
100
AcDbEntity
  8
ASSI
100
AcDbLine
 62
7
  6
CONTINUOUS
 10
-19.9123011517
 20
19.9122602563
 11
-17.7879536306
 21
21.1509494364
  0
LINE
  5
22F
100
AcDbEntity
  8
RACCORDO
100
AcDbLine
 62
7
  6
CONTINUOUS
 10
-19.9123011516
 20
19.9122602563
 11
-17.7879536306
 21
21.1509494364
  0
LINE
  5
230
100
AcDbEntity
  8
268140580
100
AcDbLine
 62
250
  6
CONTINUOUS
 10
-15.4445810959
 20
22.4554566732
 11
-15.3009582144
 21
22.5392019679
  0
LINE
  5
231
100
AcDbEntity
  8
ASSI
100
AcDbLine
 62
250
  6
CONTINUOUS
 10
-19.6789471046
 20
19.9034928629
 11
-17.5540508554
 21
21.1425020017
  0
LINE
  5
232
100
AcDbEntity
  8
RACCORDO
100
AcDbLine
 62
250
  6
CONTINUOUS
 10
-19.6789471046
 20
19.9034928629
 11
-17.5540508554
 21
21.1425020017
  0
LWPOLYLINE
  5
233
100
AcDbEntity
  8
268140580
100
AcDbPolyline
 62
250
  6
CONTINUOUS
 90
16
 70
0
 10
-12.1164650725
 20
24.0469391074
 10
-12.1074769292
 20
24.0516742651
 10
-12.0989901899
 20
24.0566408544
 10
-12.0910290323
 20
24.0618257381
 10
-12.0836147444
 20
24.0672163123
 10
-12.0767704841
 20
24.0727970958
 10
-12.0705199627
 20
24.0785493837
 10
-12.0648815148
 20
24.0844560612
 10
-12.0598691327
 20
24.0905022021
 10
-12.0554964391
 20
24.096671412
 10
-12.0517754096
 20
24.1029469137
 10
-12.0487163981
 20
24.1093113852
 10
-12.046327914
 20
24.1157471792
 10
-12.0446165198
 20
24.1222365606
 10
-12.0435868665
 20
24.1287618203
 10
-12.0432417678
 20
24.135327455
  0
LWPOLYLINE
  5
234
100
AcDbEntity
  8
268140580
100
AcDbPolyline
 62
250
  6
CONTINUOUS
 90
16
 70
0
 10
-12.1164650725
 20
23.7013016464
 10
-12.1074555614
 20
23.7060486682
 10
-12.0989552775
 20
23.7110249452
 10
-12.0909875192
 20
23.7162168375
 10
-12.0835741258
 20
23.7216101147
 10
-12.0767354169
 20
23.727189994
 10
-12.0704901368
 20
23.7329411816
 10
-12.0648554034
 20
23.7388479137
 10
-12.0598466612
 20
23.7448940003
 10
-12.0554776387
 20
23.7510628697
 10
-12.0517603112
 20
23.7573376134
 10
-12.0487048676
 20
23.7637010327
 10
-12.0463196827
 20
23.7701356859
 10
-12.044611294
 20
23.7766239361
 10
-12.0435843841
 20
23.7831479995
 10
-12.0432417678
 20
23.789689994
  0
LWPOLYLINE
  5
235
100
AcDbEntity
  8
268140580
100
AcDbPolyline
 62
250
  6
CONTINUOUS
 90
28
 70
0
 10
-15.7565223475
 20
23.9863612241
 10
-15.7668602823
 20
23.9809323618
 10
-15.7771681251
 20
23.9747787138
 10
-15.787410609
 20
23.967921334
 10
-15.7975526906
 20
23.960383684
 10
-15.80755967
 20
23.952191553
 10
-15.8173973096
 20
23.9433729693
 10
-15.8270319512
 20
23.9339581046
 10
-15.8364306311
 20
23.9239791707
 10
-15.8455611929
 20
23.9134703091
 10
-15.8543923975
 20
23.9024674748
 10
-15.8628940301
 20
23.8910083123
 10
-15.8710370033
 20
23.8791320279
 10
-15.8787934572
 20
23.8668792548
 10
-15.8861368538
 20
23.8542919142
 10
-15.8930420688
 20
23.8414130722
 10
-15.8994854768
 20
23.828286792
 10
-15.9054450324
 20
23.8149579836
 10
-15.9109003459
 20
23.8014722499
 10
-15.9158327526
 20
23.7878757305
 10
-15.9202253768
 20
23.7742149443
 10
-15.9240631898
 20
23.7605366298
 10
-15.9273330609
 20
23.7468875858
 10
-15.9300238028
 20
23.7333145106
 10
-15.9321262093
 20
23.7198638429
 10
-15.9336330873
 20
23.7065816024
 10
-15.9345392814
 20
23.6935132326
 10
-15.9348416909
 20
23.6807034453
  0
LINE
  5
236
100
AcDbEntity
  8
268140580
100
AcDbLine
 62
7
  6
CONTINUOUS
 10
-15.8679441731
 20
23.9936503964
 11
-13.7466238295
 21
25.0316375005
  0
LINE
  5
237
100
AcDbEntity
  8
268140580
100
AcDbLine
 62
250
  6
CONTINUOUS
 10
-15.7565223475
 20
23.9863612241
 11
-13.635202004
 21
25.0243483282
  0
LINE
  5
238
100
AcDbEntity
  8
268140580
100
AcDbLine
 62
250
  6
CONTINUOUS
 10
-12.2916991197
 20
24.3525968861
 11
-14.4130194633
 21
23.3146097819
  0
LINE
  5
239
100
AcDbEntity
  8
268140580
100
AcDbLine
 62
250
  6
CONTINUOUS
 10
-12.1164650725
 20
24.0469391074
 11
-14.2377854161
 21
23.0089520032
  0
LWPOLYLINE
  5
23A
100
AcDbEntity
  8
RACCORDO
100
AcDbPolyline
 62
250
  6
CONTINUOUS
 90
8
 70
0
 10
-19.912143795
 20
19.9123519016
 10
-19.8867097093
 20
19.9245650318
 10
-19.8562026494
 20
19.933456953
 10
-19.823553303
 20
19.9373900364
 10
-19.7891189679
 20
19.9363212403
 10
-19.7532764758
 20
19.9302622611
 10
-19.7164180682
 20
19.919279405
 10
-19.6789471046
 20
19.9034928629
  0
LWPOLYLINE
  5
23B
100
AcDbEntity
  8
ASSI
100
AcDbPolyline
 62
250
  6
CONTINUOUS
 90
8
 70
0
 10
-19.9121317136
 20
19.9123589289
 10
-19.8867097094
 20
19.9245650317
 10
-19.8562026495
 20
19.9334569529
 10
-19.8235533031
 20
19.9373900363
 10
-19.7891189681
 20
19.9363212402
 10
-19.7532764759
 20
19.930262261
 10
-19.7164180683
 20
19.919279405
 10
-19.6789471046
 20
19.9034928629
  0
LWPOLYLINE
  5
23C
100
AcDbEntity
  8
268140580
100
AcDbPolyline
 62
250
  6
CONTINUOUS
 90
31
 70
0
 10
-14.2377854161
 20
23.0089520032
 10
-14.2472794598
 20
23.0044472477
 10
-14.2572320136
 20
23.0001971057
 10
-14.2676157983
 20
22.9962132265
 10
-14.2784023526
 20
22.9925065298
 10
-14.2895621114
 20
22.9890871754
 10
-14.3010644864
 20
22.9859645353
 10
-14.3128779506
 20
22.9831471686
 10
-14.324970124
 20
22.9806427975
 10
-14.3373078628
 20
22.9784582863
 10
-14.3498573501
 20
22.9765996225
 10
-14.3625841887
 20
22.9750719007
 10
-14.3754534951
 20
22.9738793083
 10
-14.3884299956
 20
22.9730251139
 10
-14.4014781223
 20
22.972511659
 10
-14.4145621114
 20
22.9723403508
 10
-14.4276461004
 20
22.972511659
 10
-14.4406942272
 20
22.9730251139
 10
-14.4536707276
 20
22.9738793083
 10
-14.4665400341
 20
22.9750719007
 10
-14.4792668727
 20
22.9765996225
 10
-14.49181636
 20
22.9784582863
 10
-14.5041540988
 20
22.9806427975
 10
-14.5162462721
 20
22.9831471686
 10
-14.5280597363
 20
22.9859645353
 10
-14.5395621114
 20
22.9890871754
 10
-14.5507218701
 20
22.9925065298
 10
-14.5615084244
 20
22.9962132265
 10
-14.5718922091
 20
23.0001971057
 10
-14.581844763
 20
23.0044472477
 10
-14.5913388067
 20
23.0089520032
  0
LWPOLYLINE
  5
23D
100
AcDbEntity
  8
268140580
100
AcDbPolyline
 62
250
  6
CONTINUOUS
 90
31
 70
0
 10
-14.2377854161
 20
22.6406414746
 10
-14.2472687969
 20
22.6361415198
 10
-14.2572125789
 20
22.6318944468
 10
-14.2675899268
 20
22.6279120976
 10
-14.278373811
 20
22.6242052702
 10
-14.289534055
 20
22.6207847472
 10
-14.3010370765
 20
22.6176609908
 10
-14.3128501139
 20
22.6148428379
 10
-14.3249419478
 20
22.6123376778
 10
-14.3372797495
 20
22.6101523259
 10
-14.3498299289
 20
22.6082927686
 10
-14.3625578896
 20
22.6067641679
 10
-14.3754284232
 20
22.6055707658
 10
-14.3884061244
 20
22.6047158404
 10
-14.4014555326
 20
22.6042017229
 10
-14.4145409048
 20
22.6040298227
 10
-14.4276263886
 20
22.6042006143
 10
-14.440676088
 20
22.6047136324
 10
-14.4536541946
 20
22.6055674707
 10
-14.4665251176
 20
22.6067597871
 10
-14.4792535813
 20
22.6082873135
 10
-14.4918046897
 20
22.6101458619
 10
-14.5041440518
 20
22.6123303407
 10
-14.5162378193
 20
22.6148347584
 10
-14.5280527822
 20
22.6176522352
 10
-14.5395565193
 20
22.6207750325
 10
-14.5507175337
 20
22.6241945933
 10
-14.5615052796
 20
22.6279015555
 10
-14.5718901978
 20
22.6318857627
 10
-14.5818438025
 20
22.6361362867
 10
-14.5913388067
 20
22.6406414746
  0
LWPOLYLINE
  5
23E
100
AcDbEntity
  8
268140580
100
AcDbPolyline
 62
250
  6
CONTINUOUS
 90
13
 70
0
 10
-12.2916991197
 20
24.3525968861
 10
-12.2814804789
 20
24.357234737
 10
-12.2713011938
 20
24.3611300413
 10
-12.2611953263
 20
24.3642697646
 10
-12.2511966926
 20
24.3666434007
 10
-12.2413387502
 20
24.3682430069
 10
-12.2316544858
 20
24.3690632307
 10
-12.2221763049
 20
24.3691013274
 10
-12.2129359234
 20
24.3683571696
 10
-12.2039642614
 20
24.3668332472
 10
-12.19529134
 20
24.3645346598
 10
-12.1869461805
 20
24.3614690988
 10
-12.1814383689
 20
24.3589342528
  0
LWPOLYLINE
  5
23F
100
AcDbEntity
  8
268140580
100
AcDbPolyline
 62
250
  6
CONTINUOUS
 90
14
 70
0
 10
-13.7466238295
 20
25.0316375005
 10
-13.7394240979
 20
25.034798825
 10
-13.7317501033
 20
25.037430265
 10
-13.7238155719
 20
25.0394300485
 10
-13.7156422632
 20
25.0407926872
 10
-13.707252587
 20
25.0415144415
 10
-13.6986695499
 20
25.0415933285
 10
-13.6899166958
 20
25.0410291294
 10
-13.6810180201
 20
25.039823389
 10
-13.6719979306
 20
25.0379794124
 10
-13.6628811898
 20
25.035502263
 10
-13.6536928074
 20
25.0323987415
 10
-13.6444579708
 20
25.0286773603
 10
-13.635202004
 20
25.0243483282
  0
LWPOLYLINE
  5
240
100
AcDbEntity
  8
268140580
100
AcDbPolyline
 62
250
  6
CONTINUOUS
 90
14
 70
0
 10
-15.8679441731
 20
23.9936503964
 10
-15.8607237015
 20
23.9968198223
 10
-15.8530507108
 20
23.9994490145
 10
-15.8451173708
 20
24.0014468136
 10
-15.8369454263
 20
24.0028077437
 10
-15.8285572761
 20
24.0035280746
 10
-15.8199759114
 20
24.003605832
 10
-15.8112248532
 20
24.0030408027
 10
-15.8023280875
 20
24.0018345355
 10
-15.7933099997
 20
23.9999903365
 10
-15.7841953078
 20
23.9975132607
 10
-15.7750089946
 20
23.9944100975
 10
-15.7657762391
 20
23.9906893526
 10
-15.7565223475
 20
23.9863612241
  0
LINE
  5
241
100
AcDbEntity
  8
268140580
100
AcDbLine
 62
250
  6
CONTINUOUS
 10
-12.6467951584
 20
23.0611366034
 11
-12.1164650725
 21
23.7013016464
  0
LINE
  5
242
100
AcDbEntity
  8
268140580
100
AcDbLine
 62
7
  6
CONTINUOUS
 10
-12.6310528156
 20
22.9900369579
 11
-12.1007227297
 21
23.6302020009
  0
LINE
  5
243
100
AcDbEntity
  8
268140580
100
AcDbLine
 62
7
  6
CONTINUOUS
 10
-12.6504933318
 20
22.1832171203
 11
-13.5306786349
 21
21.686628755
  0
LINE
  5
244
100
AcDbEntity
  8
268140580
100
AcDbLine
 62
7
  6
CONTINUOUS
 10
-14.4333074172
 20
19.8264460325
 11
-14.6700969979
 21
19.7005250729
  0
LWPOLYLINE
  5
245
100
AcDbEntity
  8
268140580
100
AcDbPolyline
 62
250
  6
CONTINUOUS
 90
15
 70
0
 10
-12.8235718537
 20
22.5977482558
 10
-12.8135922545
 20
22.6030371352
 10
-12.8042445852
 20
22.6086071971
 10
-12.7955604749
 20
22.6144395939
 10
-12.7875693078
 20
22.6205145902
 10
-12.7802981228
 20
22.62681163
 10
-12.7737715229
 20
22.6333094058
 10
-12.7680115916
 20
22.6399859311
 10
-12.7630378182
 20
22.6468186144
 10
-12.7588670318
 20
22.653784336
 10
-12.7555133444
 20
22.660859526
 10
-12.7529881033
 20
22.668020244
 10
-12.7512998526
 20
22.6752422607
 10
-12.7504543042
 20
22.6825011388
 10
-12.750348549
 20
22.6861366034
  0
LWPOLYLINE
  5
246
100
AcDbEntity
  8
268140580
100
AcDbPolyline
 62
250
  6
CONTINUOUS
 90
11
 70
0
 10
-12.8235718537
 20
22.2701203116
 10
-12.8135922812
 20
22.2754091761
 10
-12.8042446328
 20
22.2809792229
 10
-12.7955605379
 20
22.2868116047
 10
-12.7875693809
 20
22.2928865867
 10
-12.7802982012
 20
22.2991836131
 10
-12.7737716022
 20
22.3056813766
 10
-12.7680116679
 20
22.3123578909
 10
-12.7630378881
 20
22.3191905648
 10
-12.7588670924
 20
22.3261562786
 10
-12.7555133936
 20
22.3332314627
  0
LWPOLYLINE
  5
247
100
AcDbEntity
  8
268140580
100
AcDbPolyline
 62
7
  6
CONTINUOUS
 90
47
 70
0
 10
-14.4333056638
 20
19.8264426045
 10
-14.4310822151
 20
19.8276058219
 10
-14.4168185733
 20
19.8342940571
 10
-14.4021363084
 20
19.8398916726
 10
-14.3870769628
 20
19.8443872948
 10
-14.3715989941
 20
19.8477922974
 10
-14.3557065112
 20
19.8501090888
 10
-14.3393622289
 20
19.8513463776
 10
-14.3226034324
 20
19.8514954553
 10
-14.3055460858
 20
19.8505326052
 10
-14.2881749304
 20
19.8484414015
 10
-14.2705052248
 20
19.84523827
 10
-14.2526987099
 20
19.8409487716
 10
-14.2347699016
 20
19.835564042
 10
-14.2167042838
 20
19.8290929454
 10
-14.1986200489
 20
19.8215876351
 10
-14.1805462082
 20
19.813063911
 10
-14.1624537504
 20
19.8035059731
 10
-14.1443738332
 20
19.7929185746
 10
-14.1262508272
 20
19.7812614111
 10
-14.1081403619
 20
19.768574787
 10
-14.0902404833
 20
19.7549843678
 10
-14.072551893
 20
19.7404631354
 10
-14.0550738894
 20
19.725038108
 10
-14.0380024139
 20
19.7089160058
 10
-14.0213753471
 20
19.6921153666
 10
-14.0051548083
 20
19.6746176528
 10
-13.9894230965
 20
19.656573971
 10
-13.974208338
 20
19.6380224286
 10
-13.9594824064
 20
19.6189249184
 10
-13.9452432215
 20
19.5993182249
 10
-13.9314629663
 20
19.5791666487
 10
-13.9181694579
 20
19.5585058893
 10
-13.9054440669
 20
19.5374798304
 10
-13.8932911835
 20
19.5160832772
 10
-13.8817064175
 20
19.4943214245
 10
-13.8707579693
 20
19.4723537415
 10
-13.8604615065
 20
19.4502084266
 10
-13.8508013615
 20
19.4278572814
 10
-13.8417987319
 20
19.4053751791
 10
-13.8334489965
 20
19.3827546188
 10
-13.8257567765
 20
19.3600031015
 10
-13.8187571331
 20
19.3372180032
 10
-13.8124478052
 20
19.3143802522
 10
-13.8068310539
 20
19.2915089203
 10
-13.8019487236
 20
19.2687585991
 10
-13.8014839687
 20
19.2662185584
  0
LINE
  5
248
100
AcDbEntity
  8
268140580
100
AcDbLine
 62
7
  6
CONTINUOUS
 10
-12.7904176584
 20
22.1134923285
 11
-12.6430919099
 21
22.1871552028
  0
LINE
  5
249
100
AcDbEntity
  8
268140580
100
AcDbLine
 62
7
  6
CONTINUOUS
 10
-4.7900787552
 20
25.3280131888
 11
-11.232581596
 21
22.1853035785
  0
LWPOLYLINE
  5
24A
100
AcDbEntity
  8
268140580
100
AcDbPolyline
 62
250
  6
CONTINUOUS
 90
13
 70
0
 10
-12.6821504975
 20
22.3444026043
 10
-12.6881628992
 20
22.3415530039
 10
-12.6941936486
 20
22.3390102022
 10
-12.7002314937
 20
22.3367835545
 10
-12.7062650689
 20
22.3348819161
 10
-12.7122824045
 20
22.3333137721
 10
-12.7182709614
 20
22.3320871052
 10
-12.7242258673
 20
22.3312082909
 10
-12.7301270987
 20
22.3306857519
 10
-12.7359401124
 20
22.3305254374
 10
-12.7416506402
 20
22.330728369
 10
-12.7472501616
 20
22.3312948841
 10
-12.7484354583
 20
22.3314960161
  0
LWPOLYLINE
  5
24B
100
AcDbEntity
  8
268140580
100
AcDbPolyline
 62
250
  6
CONTINUOUS
 90
28
 70
0
 10
-13.5306786349
 20
22.2441948652
 10
-13.5412563638
 20
22.239205079
 10
-13.5523964574
 20
22.2345312547
 10
-13.5640612211
 20
22.2301892073
 10
-13.5762111851
 20
22.2261936288
 10
-13.5888052378
 20
22.222558039
 10
-13.6018007648
 20
22.2192947395
 10
-13.6151537934
 20
22.2164147723
 10
-13.6288191412
 20
22.2139278824
 10
-13.6427505689
 20
22.2118424846
 10
-13.6569009371
 20
22.2101656351
 10
-13.6712223654
 20
22.208903008
 10
-13.6856663945
 20
22.2080588756
 10
-13.7001841505
 20
22.2076360941
 10
-13.7147265099
 20
22.2076360941
 10
-13.7292442659
 20
22.2080588756
 10
-13.743688295
 20
22.208903008
 10
-13.7580097233
 20
22.2101656351
 10
-13.7721600915
 20
22.2118424846
 10
-13.7860915192
 20
22.2139278824
 10
-13.799756867
 20
22.2164147723
 10
-13.8131098956
 20
22.2192947395
 10
-13.8261054226
 20
22.222558039
 10
-13.8386994753
 20
22.2261936288
 10
-13.8508494393
 20
22.2301892073
 10
-13.862514203
 20
22.2345312547
 10
-13.8736542966
 20
22.239205079
 10
-13.8842320255
 20
22.2441948652
  0
LINE
  5
24C
100
AcDbEntity
  8
RACCORDO
100
AcDbLine
 62
7
  6
CONTINUOUS
 10
-2.5316086216
 20
25.7755107243
 11
-3.8950583895
 21
25.1325115909
  0
LWPOLYLINE
  5
24D
100
AcDbEntity
  8
RACCORDO
100
AcDbPolyline
 62
250
  6
CONTINUOUS
 90
26
 70
0
 10
-2.0927238712
 20
25.7431077893
 10
-2.0734512667
 20
25.752010051
 10
-2.0542021545
 20
25.7602572456
 10
-2.034990848
 20
25.7678432392
 10
-2.0158316404
 20
25.7747623866
 10
-1.9967387704
 20
25.7810095446
 10
-1.9777264129
 20
25.7865800725
 10
-1.9588086856
 20
25.7914698289
 10
-1.9399996767
 20
25.7956751675
 10
-1.9213134099
 20
25.7991929509
 10
-1.9027637933
 20
25.8020205614
 10
-1.8843646073
 20
25.8041558993
 10
-1.8661295311
 20
25.8055973768
 10
-1.8480721229
 20
25.8063439218
 10
-1.8302058117
 20
25.8063949787
 10
-1.8125438852
 20
25.8057505094
 10
-1.7950994776
 20
25.8044109934
 10
-1.7778855597
 20
25.8023774264
 10
-1.7609149318
 20
25.7996513209
 10
-1.7442002132
 20
25.7962347038
 10
-1.7277538331
 20
25.7921301158
 10
-1.7115880208
 20
25.787340609
 10
-1.6957147973
 20
25.781869745
 10
-1.6801459659
 20
25.7757215918
 10
-1.6648931035
 20
25.7689007212
 10
-1.6578509906
 20
25.7654711189
  0
LWPOLYLINE
  5
24E
100
AcDbEntity
  8
ASSI
100
AcDbPolyline
 62
7
  6
CONTINUOUS
 90
11
 70
0
 10
-5.4014834054
 20
-25.5923577378
 10
-5.3439938042
 20
-25.6186710188
 10
-5.2689424709
 20
-25.6459718088
 10
-5.1909764267
 20
-25.6666887557
 10
-5.1104938339
 20
-25.6805870455
 10
-5.0276655437
 20
-25.6874612821
 10
-4.9429315804
 20
-25.6870850683
 10
-4.8567643846
 20
-25.6793004769
 10
-4.7692464888
 20
-25.6639059624
 10
-4.6806209814
 20
-25.6406631357
 10
-4.5914289569
 20
-25.6094693748
  0
LWPOLYLINE
  5
24F
100
AcDbEntity
  8
RACCORDO
100
AcDbPolyline
 62
7
  6
CONTINUOUS
 90
11
 70
0
 10
-5.401631646
 20
-25.5922837011
 10
-5.344204591
 20
-25.6185793651
 10
-5.2691851052
 20
-25.6458934335
 10
-5.1911619453
 20
-25.6666506759
 10
-5.1105502815
 20
-25.6805832681
 10
-5.0275936673
 20
-25.6874631992
 10
-4.9427412452
 20
-25.6870759528
 10
-4.8564605958
 20
-25.6792613108
 10
-4.7688926542
 20
-25.6638251
 10
-4.6803096886
 20
-25.6405642897
 10
-4.591342948
 20
-25.6094343962
  0
LINE
  5
250
100
AcDbEntity
  8
ASSI
100
AcDbLine
 62
7
  6
CONTINUOUS
 10
-20.2870966621
 20
-18.1495526858
 11
-5.4005241564
 21
-25.5928389386
  0
LINE
  5
251
100
AcDbEntity
  8
RACCORDO
100
AcDbLine
 62
7
  6
CONTINUOUS
 10
-5.4005245348
 20
-25.5928387495
 11
-20.2870964659
 21
-18.1495527839
  0
LINE
  5
252
100
AcDbEntity
  8
ASSI
100
AcDbLine
 62
250
  6
CONTINUOUS
 10
-20.6715166129
 20
-17.3933755683
 11
-5.7939964122
 21
-24.8321356686
  0
LINE
  5
253
100
AcDbEntity
  8
RACCORDO
100
AcDbLine
 62
250
  6
CONTINUOUS
 10
-5.7939964122
 20
-24.8321356686
 11
-20.6715166129
 21
-17.3933755683
  0
LINE
  5
254
100
AcDbEntity
  8
ASSI
100
AcDbLine
 62
7
  6
CONTINUOUS
 10
-5.4015187152
 20
-25.5923404576
 11
-5.4005243361
 21
-25.5928388488
  0
LINE
  5
255
100
AcDbEntity
  8
RACCORDO
100
AcDbLine
 62
7
  6
CONTINUOUS
 10
-20.355225432
 20
-18.1115296889
 11
-20.2862012894
 21
-18.149999031
  0
LINE
  5
256
100
AcDbEntity
  8
ASSI
100
AcDbLine
 62
7
  6
CONTINUOUS
 10
-20.3553585379
 20
-18.1114555235
 11
-20.2860356688
 21
-18.1500816209
  0
LWPOLYLINE
  5
257
100
AcDbEntity
  8
RACCORDO
100
AcDbPolyline
 62
250
  6
CONTINUOUS
 90
13
 70
0
 10
-20.2870965373
 20
-18.1495527482
 10
-20.3431836191
 20
-18.117260407
 10
-20.3949948147
 20
-18.0788400713
 10
-20.443007882
 20
-18.0341092745
 10
-20.4869906488
 20
-17.9832743167
 10
-20.5267083574
 20
-17.9265944653
 10
-20.5619571869
 20
-17.8643630064
 10
-20.5925586257
 20
-17.7969000897
 10
-20.6183654228
 20
-17.7245334754
 10
-20.6392570195
 20
-17.6476088773
 10
-20.6551300969
 20
-17.5665016584
 10
-20.6659015884
 20
-17.4816173331
 10
-20.6715166129
 20
-17.3933755683
  0
LWPOLYLINE
  5
258
100
AcDbEntity
  8
ASSI
100
AcDbPolyline
 62
250
  6
CONTINUOUS
 90
13
 70
0
 10
-20.2870966621
 20
-18.1495526858
 10
-20.343175579
 20
-18.1172657041
 10
-20.39498735
 20
-18.0788463277
 10
-20.443001533
 20
-18.0341159217
 10
-20.4869862384
 20
-17.9832800275
 10
-20.5267060298
 20
-17.9265981634
 10
-20.5619559074
 20
-17.8643654776
 10
-20.5925569521
 20
-17.7969041624
 10
-20.6183631086
 20
-17.7245408179
 10
-20.6392548728
 20
-17.6476181012
 10
-20.6551287788
 20
-17.566509916
 10
-20.6659011013
 20
-17.4816225769
 10
-20.6715166129
 20
-17.3933755683
  0
LWPOLYLINE
  5
259
100
AcDbEntity
  8
ASSI
100
AcDbPolyline
 62
7
  6
CONTINUOUS
 90
12
 70
0
 10
-20.816136302
 20
-17.2549688691
 10
-20.8061849322
 20
-17.3587109375
 10
-20.7891141779
 20
-17.4580917527
 10
-20.7651848849
 20
-17.5526262426
 10
-20.7346322774
 20
-17.6422183683
 10
-20.6976053486
 20
-17.7268155089
 10
-20.6543314646
 20
-17.8060899187
 10
-20.6050958153
 20
-17.8797306865
 10
-20.5501512859
 20
-17.9474799358
 10
-20.4898838215
 20
-18.0089232515
 10
-20.4247759573
 20
-18.0636823748
 10
-20.3553585379
 20
-18.1114555235
  0
LWPOLYLINE
  5
25A
100
AcDbEntity
  8
RACCORDO
100
AcDbPolyline
 62
250
  6
CONTINUOUS
 90
9
 70
0
 10
-20.8179787159
 20
-17.2157782845
 10
-20.8171302397
 20
-17.2270809142
 10
-20.8113114607
 20
-17.2539576453
 10
-20.8002098893
 20
-17.2802452681
 10
-20.7839444735
 20
-17.3056621236
 10
-20.7626894891
 20
-17.3299358828
 10
-20.7366726729
 20
-17.3528064644
 10
-20.7061727824
 20
-17.3740288212
 10
-20.6715166088
 20
-17.3933755661
  0
LWPOLYLINE
  5
25B
100
AcDbEntity
  8
ASSI
100
AcDbPolyline
 62
250
  6
CONTINUOUS
 90
9
 70
0
 10
-20.8179791338
 20
-17.2157659762
 10
-20.8171302411
 20
-17.2270809146
 10
-20.8113114622
 20
-17.2539576458
 10
-20.8002098908
 20
-17.2802452687
 10
-20.783944475
 20
-17.3056621243
 10
-20.7626894906
 20
-17.3299358836
 10
-20.7366726744
 20
-17.3528064652
 10
-20.7061727838
 20
-17.374028822
 10
-20.6715166102
 20
-17.3933755669
  0
LINE
  5
25C
100
AcDbEntity
  8
268140580
100
AcDbLine
 62
7
  6
CONTINUOUS
 10
-4.9746865825
 20
22.6626006558
 11
-3.6311836983
 21
23.334352098
  0
LINE
  5
25D
100
AcDbEntity
  8
268140580
100
AcDbLine
 62
7
  6
CONTINUOUS
 10
-4.0087607562
 20
22.7920101784
 11
-1.8634167453
 21
23.8646821838
  0
LINE
  5
25E
100
AcDbEntity
  8
268140580
100
AcDbLine
 62
7
  6
CONTINUOUS
 10
-3.9816517927
 20
24.3148379708
 11
-8.5809311666
 21
22.0643562399
  0
LINE
  5
25F
100
AcDbEntity
  8
268140580
100
AcDbLine
 62
7
  6
CONTINUOUS
 10
-10.421030856
 20
21.7963813556
 11
-4.5874849675
 21
24.6177545583
  0
LWPOLYLINE
  5
260
100
AcDbEntity
  8
268140580
100
AcDbPolyline
 62
7
  6
CONTINUOUS
 90
31
 70
0
 10
-4.9746865825
 20
22.6626006558
 10
-4.9496374118
 20
22.6747019304
 10
-4.9237691096
 20
22.6863506276
 10
-4.8970816759
 20
22.6975467472
 10
-4.8695206195
 20
22.7083118184
 10
-4.8411404316
 20
22.7186243121
 10
-4.812104586
 20
22.7284196412
 10
-4.7824150971
 20
22.7376891853
 10
-4.7520699506
 20
22.7464415648
 10
-4.7212265776
 20
22.7546380535
 10
-4.6899313471
 20
22.7622667351
 10
-4.6581378902
 20
22.7693395258
 10
-4.6258645319
 20
22.7758534488
 10
-4.5930736929
 20
22.7818168404
 10
-4.5598029526
 20
22.7872213642
 10
-4.5261833739
 20
22.7920390334
 10
-4.4921943961
 20
22.7962672911
 10
-4.45785658
 20
22.7999086943
 10
-4.4233626701
 20
22.8029429267
 10
-4.3887324813
 20
22.8053635581
 10
-4.3539461987
 20
22.8071770188
 10
-4.3191371231
 20
22.8083822837
 10
-4.2843199953
 20
22.8089778967
 10
-4.2494800745
 20
22.8089653138
 10
-4.2147064394
 20
22.808347878
 10
-4.1799870804
 20
22.8071244021
 10
-4.1453340071
 20
22.8052960732
 10
-4.1108723273
 20
22.802869796
 10
-4.0766437435
 20
22.7998478719
 10
-4.0426065531
 20
22.7962279993
 10
-4.0087607562
 20
22.7920101784
  0
LINE
  5
261
100
AcDbEntity
  8
RACCORDO
100
AcDbLine
 62
250
  6
CONTINUOUS
 10
-2.0927238712
 20
25.7431077893
 11
-3.6486808165
 21
25.0093228044
  0
LINE
  5
262
100
AcDbEntity
  8
268140580
100
AcDbLine
 62
250
  6
CONTINUOUS
 10
1.2478530919
 20
-24.2804615752
 11
0.717523006
 21
-24.1706266181
  0
LINE
  5
263
100
AcDbEntity
  8
268140580
100
AcDbLine
 62
250
  6
CONTINUOUS
 10
1.1594647443
 20
-23.9603790537
 11
0.6291346584
 21
-23.8505440967
  0
LWPOLYLINE
  5
264
100
AcDbEntity
  8
268140580
100
AcDbPolyline
 62
250
  6
CONTINUOUS
 90
25
 70
0
 10
0.717523006
 20
-24.1706266181
 10
0.7044965264
 20
-24.1674771836
 10
0.6918296514
 20
-24.1634627539
 10
0.679522381
 20
-24.1585833292
 10
0.6675437844
 20
-24.1528305129
 10
0.6559247924
 20
-24.1462127015
 10
0.6447581974
 20
-24.1387550845
 10
0.6340491205
 20
-24.1304490805
 10
0.6237924406
 20
-24.1213032708
 10
0.6140655863
 20
-24.1113685896
 10
0.6048740224
 20
-24.1006374404
 10
0.5962122842
 20
-24.0891174197
 10
0.5881414061
 20
-24.0768822508
 10
0.5806671494
 20
-24.0639255957
 10
0.5737837529
 20
-24.0502537925
 10
0.5675349671
 20
-24.035959579
 10
0.5619262751
 20
-24.0210329804
 10
0.5569521937
 20
-24.0054839717
 10
0.5526400242
 20
-23.9894352149
 10
0.5489979575
 20
-23.9728860543
 10
0.5460178027
 20
-23.9558371457
 10
0.5437022877
 20
-23.9384131195
 10
0.5420523221
 20
-23.9206555192
 10
0.5410669964
 20
-23.9025228013
 10
0.5407463107
 20
-23.8840149658
  0
LWPOLYLINE
  5
265
100
AcDbEntity
  8
268140580
100
AcDbPolyline
 62
250
  6
CONTINUOUS
 90
3
 70
0
 10
0.6291346584
 20
-23.8505440967
 10
0.6226356603
 20
-23.8489670405
 10
0.620561739
 20
-23.8483100553
  0
LWPOLYLINE
  5
266
100
AcDbEntity
  8
268140580
100
AcDbPolyline
 62
250
  6
CONTINUOUS
 90
4
 70
0
 10
1.1594647443
 20
-23.9603790537
 10
1.1682167778
 20
-23.9626146197
 10
1.176640119
 20
-23.9656266009
 10
1.1828418358
 20
-23.9684474607
  0
LWPOLYLINE
  5
267
100
AcDbEntity
  8
268140580
100
AcDbPolyline
 62
250
  6
CONTINUOUS
 90
17
 70
0
 10
-1.951805093
 20
-23.7975110881
 10
-1.9619342046
 20
-23.7926142135
 10
-1.9717299643
 20
-23.78821881
 10
-1.9811592263
 20
-23.7843397501
 10
-1.9901900851
 20
-23.7809901594
 10
-1.9987919831
 20
-23.7781813719
 10
-2.006935814
 20
-23.7759228916
 10
-2.0145940219
 20
-23.7742223604
 10
-2.0217406937
 20
-23.7730855325
 10
-2.0283516474
 20
-23.7725162545
 10
-2.0344045136
 20
-23.7725164526
 10
-2.0398788113
 20
-23.7730861262
 10
-2.0447560173
 20
-23.7742233477
 10
-2.0490196285
 20
-23.7759242692
 10
-2.0526552184
 20
-23.7781831351
 10
-2.0556504851
 20
-23.7809923022
 10
-2.0559357834
 20
-23.7813289211
  0
LINE
  5
268
100
AcDbEntity
  8
268140580
100
AcDbLine
 62
7
  6
CONTINUOUS
 10
-2.5055502301
 20
-25.1728992835
 11
-1.1620473458
 21
-25.8446507257
  0
LINE
  5
269
100
AcDbEntity
  8
268140580
100
AcDbLine
 62
250
  6
CONTINUOUS
 10
-2.5705235265
 20
-25.0376808334
 11
-1.2270206422
 21
-25.7094322756
  0
LINE
  5
26A
100
AcDbEntity
  8
268140580
100
AcDbLine
 62
250
  6
CONTINUOUS
 10
-1.2270206422
 20
-25.341121747
 11
-2.470335941
 21
-24.7194640976
  0
LINE
  5
26B
100
AcDbEntity
  8
268140580
100
AcDbLine
 62
250
  6
CONTINUOUS
 10
-1.1386322946
 20
-25.1094275732
 11
-2.251692468
 21
-24.5528974865
  0
LINE
  5
26C
100
AcDbEntity
  8
268140580
100
AcDbLine
 62
250
  6
CONTINUOUS
 10
-0.6083022087
 20
-24.4692625302
 11
-1.951805093
 21
-23.7975110881
  0
LWPOLYLINE
  5
26D
100
AcDbEntity
  8
268140580
100
AcDbPolyline
 62
250
  6
CONTINUOUS
 90
17
 70
0
 10
-1.1620521317
 20
-25.8446483326
 10
-1.1632159546
 20
-25.8440561706
 10
-1.1709724085
 20
-25.8395598513
 10
-1.1783158051
 20
-25.8343159073
 10
-1.1852210201
 20
-25.8283422803
 10
-1.1916644281
 20
-25.8216594081
 10
-1.1976239837
 20
-25.8142901554
 10
-1.2030792973
 20
-25.8062597352
 10
-1.2080117039
 20
-25.7975956224
 10
-1.2124043281
 20
-25.7883274604
 10
-1.2162421411
 20
-25.7784869589
 10
-1.2195120122
 20
-25.768107786
 10
-1.2222027541
 20
-25.7572254527
 10
-1.2243051606
 20
-25.7458771915
 10
-1.2258120387
 20
-25.734101829
 10
-1.2267182327
 20
-25.7219396533
 10
-1.2270206422
 20
-25.7094322756
  0
LWPOLYLINE
  5
26E
100
AcDbEntity
  8
268140580
100
AcDbPolyline
 62
250
  6
CONTINUOUS
 90
16
 70
0
 10
-2.5705235265
 20
-25.0376808334
 10
-2.5795349297
 20
-25.0329327609
 10
-2.5880369016
 20
-25.0279553241
 10
-2.5960061247
 20
-25.0227621703
 10
-2.6034207503
 20
-25.017367532
 10
-2.6102604325
 20
-25.0117862064
 10
-2.6165063912
 20
-25.0060335169
 10
-2.622141496
 20
-25.0001252437
 10
-2.6271503015
 20
-24.994077584
 10
-2.6315190705
 20
-24.9879071275
 10
-2.6352358263
 20
-24.9816307962
 10
-2.6382903811
 20
-24.9752658001
 10
-2.6406743615
 20
-24.9688295965
 10
-2.6423812365
 20
-24.9623398276
 10
-2.6434063272
 20
-24.9558142962
 10
-2.6437468312
 20
-24.9492924858
  0
LWPOLYLINE
  5
26F
100
AcDbEntity
  8
ASSI
100
AcDbPolyline
 62
250
  6
CONTINUOUS
 90
9
 70
0
 10
-20.8179921885
 20
18.3265017755
 10
-20.8171188033
 20
18.3085301536
 10
-20.8112993325
 20
18.2839978753
 10
-20.8001972734
 20
18.2597489114
 10
-20.7839315752
 20
18.2360430694
 10
-20.7626765115
 20
18.2131343377
 10
-20.7366598125
 20
18.1912681645
 10
-20.7061602256
 20
18.1706788275
 10
-20.6715045283
 20
18.1515869244
  0
LWPOLYLINE
  5
270
100
AcDbEntity
  8
RACCORDO
100
AcDbPolyline
 62
250
  6
CONTINUOUS
 90
9
 70
0
 10
-20.8179960318
 20
18.3264927857
 10
-20.8171226008
 20
18.3085293576
 10
-20.8113033656
 20
18.283996913
 10
-20.8002014756
 20
18.2597477819
 10
-20.7839358794
 20
18.2360417761
 10
-20.7626808512
 20
18.2131328884
 10
-20.7366641232
 20
18.1912665711
 10
-20.7061644457
 20
18.1706771057
 10
-20.6715086008
 20
18.1515850935
  0
LINE
  5
271
100
AcDbEntity
  8
ASSI
100
AcDbLine
 62
7
  6
CONTINUOUS
 10
-20.817971671
 20
-17.2157657217
 11
-20.816136302
 21
-17.2549688691
  0
LWPOLYLINE
  5
272
100
AcDbEntity
  8
RACCORDO
100
AcDbPolyline
 62
7
  6
CONTINUOUS
 90
13
 70
0
 10
-20.8179675438
 20
-17.215777903
 10
-20.8161271688
 20
-17.2551643306
 10
-20.8061125659
 20
-17.3592837483
 10
-20.7889603246
 20
-17.4588178895
 10
-20.7649432412
 20
-17.5534386384
 10
-20.7343059918
 20
-17.6430606058
 10
-20.6971991478
 20
-17.7276368326
 10
-20.6538717575
 20
-17.8068451318
 10
-20.6046168999
 20
-17.8803844878
 10
-20.5496759489
 20
-17.9480160511
 10
-20.4894403052
 20
-18.0093305641
 10
-20.4244011928
 20
-18.0639671726
 10
-20.355225432
 20
-18.1115296889
  0
LINE
  5
273
100
AcDbEntity
  8
ASSI
100
AcDbLine
 62
7
  6
CONTINUOUS
 10
-20.9322025225
 20
-13.3818743372
 11
-20.8179803635
 21
-17.215729442
  0
LINE
  5
274
100
AcDbEntity
  8
RACCORDO
100
AcDbLine
 62
7
  6
CONTINUOUS
 10
-20.9322025225
 20
-13.3818743372
 11
-20.8179803621
 21
-17.2157294403
  0
LWPOLYLINE
  5
275
100
AcDbEntity
  8
ASSI
100
AcDbPolyline
 62
250
  6
CONTINUOUS
 90
10
 70
0
 10
-20.6715166129
 20
-17.3933755683
 10
-20.7871519098
 20
-13.5053400913
 10
-20.8738869529
 20
-9.6011907617
 10
-20.9317143958
 20
-5.6812526098
 10
-20.960629341
 20
-1.7458519977
 10
-20.9606293409
 20
2.2046835248
 10
-20.9317143957
 20
6.170025249
 10
-20.8738869528
 20
10.1498431776
 10
-20.7871519098
 20
14.1438060509
 10
-20.6715166129
 20
18.1515814925
  0
LWPOLYLINE
  5
276
100
AcDbEntity
  8
RACCORDO
100
AcDbPolyline
 62
250
  6
CONTINUOUS
 90
10
 70
0
 10
-20.6715166129
 20
-17.3933755683
 10
-20.7871519098
 20
-13.5053400904
 10
-20.8738869528
 20
-9.6011907603
 10
-20.9317143957
 20
-5.6812526079
 10
-20.9606293409
 20
-1.7458519956
 10
-20.960629341
 20
2.204683527
 10
-20.9317143958
 20
6.170025251
 10
-20.8738869529
 20
10.1498431791
 10
-20.7871519098
 20
14.1438060518
 10
-20.6715166129
 20
18.1515814925
  0
LWPOLYLINE
  5
277
100
AcDbEntity
  8
ASSI
100
AcDbPolyline
 62
7
  6
CONTINUOUS
 90
8
 70
0
 10
-20.9323600074
 20
14.3689707187
 10
-21.0197160906
 20
10.3602493599
 10
-21.0779520109
 20
6.3657336625
 10
-21.107060099
 20
2.3858032052
 10
-21.1070386698
 20
-1.5792279532
 10
-21.0778871751
 20
-5.5290703294
 10
-21.0196062395
 20
-9.4634107639
 10
-20.9322025225
 20
-13.3818743372
  0
LWPOLYLINE
  5
278
100
AcDbEntity
  8
RACCORDO
100
AcDbPolyline
 62
7
  6
CONTINUOUS
 90
8
 70
0
 10
-20.9323599894
 20
14.3689713392
 10
-21.0197159916
 20
10.3602545294
 10
-21.0779519359
 20
6.3657399365
 10
-21.1070600745
 20
2.385809877
 10
-21.1070386944
 20
-1.5792213077
 10
-21.0778872501
 20
-5.5290641352
 10
-21.0196063384
 20
-9.463405701
 10
-20.9322025403
 20
-13.3818737393
  0
LINE
  5
279
100
AcDbEntity
  8
ASSI
100
AcDbLine
 62
7
  6
CONTINUOUS
 10
-20.8179988734
 20
18.3266292854
 11
-20.9323599894
 21
14.3689713392
  0
LINE
  5
27A
100
AcDbEntity
  8
RACCORDO
100
AcDbLine
 62
7
  6
CONTINUOUS
 10
-20.8179988745
 20
18.3266292929
 11
-20.9323599894
 21
14.3689713392
  0
LINE
  5
27B
100
AcDbEntity
  8
RACCORDO
100
AcDbLine
 62
7
  6
CONTINUOUS
 10
-20.8164379378
 20
18.362347073
 11
-20.8179960318
 21
18.3264927857
  0
LINE
  5
27C
100
AcDbEntity
  8
ASSI
100
AcDbLine
 62
7
  6
CONTINUOUS
 10
-20.8164312283
 20
18.3625018113
 11
-20.8179921885
 21
18.3265017755
  0
LWPOLYLINE
  5
27D
100
AcDbEntity
  8
RACCORDO
100
AcDbPolyline
 62
250
  6
CONTINUOUS
 90
19
 70
0
 10
-20.6715166129
 20
18.1515814925
 10
-20.6659011013
 20
18.2455793807
 10
-20.6551287788
 20
18.3414922456
 10
-20.6392548729
 20
18.4388453756
 10
-20.6183631086
 20
18.5371516697
 10
-20.5925569521
 20
18.6359308192
 10
-20.5619559074
 20
18.7347118467
 10
-20.5267060298
 20
18.8330238882
 10
-20.4869862384
 20
18.9303640407
 10
-20.443001533
 20
19.0262179654
 10
-20.39498735
 20
19.1200918023
 10
-20.343175579
 20
19.2115470256
 10
-20.2877954102
 20
19.3001656088
 10
-20.2291085401
 20
19.3855286158
 10
-20.1674185419
 20
19.4671922928
 10
-20.1030403904
 20
19.5447252178
 10
-20.0363071761
 20
19.6177366399
 10
-19.9675440242
 20
19.6858796708
 10
-19.8970730553
 20
19.7488234582
  0
LWPOLYLINE
  5
27E
100
AcDbEntity
  8
ASSI
100
AcDbPolyline
 62
250
  6
CONTINUOUS
 90
19
 70
0
 10
-20.6715166129
 20
18.1515814925
 10
-20.6659015884
 20
18.2455736185
 10
-20.6551300969
 20
18.3414826225
 10
-20.6392570195
 20
18.4388339564
 10
-20.6183654228
 20
18.5371420002
 10
-20.5925586257
 20
18.6359251112
 10
-20.5619571869
 20
18.7347081332
 10
-20.5267083574
 20
18.8330177961
 10
-20.4869906488
 20
18.9303536977
 10
-20.443007882
 20
19.0262046237
 10
-20.3949948147
 20
19.1200776702
 10
-20.3431836191
 20
19.2115332435
 10
-20.2878033521
 20
19.3001532396
 10
-20.2291149764
 20
19.3855194764
 10
-20.1674225372
 20
19.4671870924
 10
-20.1030429837
 20
19.54472212
 10
-20.0363112212
 20
19.6177323167
 10
-19.9675509636
 20
19.6858730343
 10
-19.8970814413
 20
19.7488162768
  0
LWPOLYLINE
  5
27F
100
AcDbEntity
  8
268140580
100
AcDbPolyline
 62
250
  6
CONTINUOUS
 90
27
 70
0
 10
-14.2377854161
 20
22.6406414746
 10
-14.2426535711
 20
22.6286366716
 10
-14.2479929155
 20
22.6169070393
 10
-14.2537888144
 20
22.6054847277
 10
-14.2600253818
 20
22.5944010446
 10
-14.2666855236
 20
22.5836863697
 10
-14.2737509849
 20
22.5733700711
 10
-14.2812023997
 20
22.563480425
 10
-14.2890193442
 20
22.5540445383
 10
-14.2971803927
 20
22.5450882741
 10
-14.3056631763
 20
22.5366361809
 10
-14.3144444443
 20
22.5287114253
 10
-14.3235001279
 20
22.5213357285
 10
-14.3328054061
 20
22.5145293068
 10
-14.3423347737
 20
22.5083108161
 10
-14.3520621114
 20
22.5026973008
 10
-14.3619607572
 20
22.4977041472
 10
-14.3720035798
 20
22.4933450413
 10
-14.3821630523
 20
22.4896319309
 10
-14.3924113284
 20
22.4865749935
 10
-14.4027203182
 20
22.484182608
 10
-14.4130617656
 20
22.4824613316
 10
-14.4234073253
 20
22.4814158824
 10
-14.4337286409
 20
22.4810491257
 10
-14.4439974223
 20
22.4813620669
 10
-14.4541855236
 20
22.4823538482
 10
-14.465262864
 20
22.4842249332
  0
LWPOLYLINE
  5
280
100
AcDbEntity
  8
268140580
100
AcDbPolyline
 62
250
  6
CONTINUOUS
 90
25
 70
0
 10
-13.7074553302
 20
22.5308065176
 10
-13.7128937536
 20
22.517484193
 10
-13.7189119339
 20
22.5045060307
 10
-13.7254895069
 20
22.4919159448
 10
-13.7326042158
 20
22.4797565358
 10
-13.740231986
 20
22.4680689474
 10
-13.7483470068
 20
22.456892727
 10
-13.7569218189
 20
22.4462656911
 10
-13.7659274074
 20
22.4362237978
 10
-13.7753332996
 20
22.4268010254
 10
-13.7851076684
 20
22.4180292572
 10
-13.7952174402
 20
22.4099381735
 10
-13.8056284064
 20
22.4025551513
 10
-13.8163053391
 20
22.3959051718
 10
-13.8272121109
 20
22.3900107357
 10
-13.8383118168
 20
22.384891787
 10
-13.8495668988
 20
22.3805656461
 10
-13.8609392732
 20
22.3770469506
 10
-13.87239046
 20
22.3743476056
 10
-13.8838817121
 20
22.3724767444
 10
-13.8953741468
 20
22.3714406967
 10
-13.9068288784
 20
22.3712429677
 10
-13.9182071477
 20
22.3718842259
 10
-13.9294704546
 20
22.3733623011
 10
-13.9349327781
 20
22.3743899762
  0
LINE
  5
281
100
AcDbEntity
  8
268140580
100
AcDbLine
 62
7
  6
CONTINUOUS
 10
-4.0087607562
 20
22.1857923957
 11
-2.5162419042
 21
22.9320518217
  0
LWPOLYLINE
  5
282
100
AcDbEntity
  8
RACCORDO
100
AcDbPolyline
 62
7
  6
CONTINUOUS
 90
6
 70
0
 10
-4.9040936779
 20
21.446722727
 10
-4.9113783172
 20
21.4431297537
 10
-4.9194596901
 20
21.438574407
 10
-4.9272612897
 20
21.4335489645
 10
-4.9347811602
 20
21.4280549298
 10
-4.9421029016
 20
21.4220160091
  0
LINE
  5
283
100
AcDbEntity
  8
RACCORDO
100
AcDbLine
 62
250
  6
CONTINUOUS
 10
-4.6311342458
 20
21.4554437584
 11
-4.5842040039
 21
21.4780913448
  0
LINE
  5
284
100
AcDbEntity
  8
RACCORDO
100
AcDbLine
 62
250
  6
CONTINUOUS
 10
-4.5842040039
 20
21.4780913448
 11
-4.5723685632
 21
21.4837280211
  0
LINE
  5
285
100
AcDbEntity
  8
RACCORDO
100
AcDbLine
 62
250
  6
CONTINUOUS
 10
-4.6415824639
 20
21.4504688374
 11
-4.6311342458
 21
21.4554437584
  0
LINE
  5
286
100
AcDbEntity
  8
RACCORDO
100
AcDbLine
 62
250
  6
CONTINUOUS
 10
-4.5723685632
 20
21.4837280211
 11
-4.5632473596
 21
21.4880191796
  0
LINE
  5
287
100
AcDbEntity
  8
RACCORDO
100
AcDbLine
 62
250
  6
CONTINUOUS
 10
-4.6493197282
 20
21.4468338052
 11
-4.6415824639
 21
21.4504688374
  0
LINE
  5
288
100
AcDbEntity
  8
RACCORDO
100
AcDbLine
 62
250
  6
CONTINUOUS
 10
-4.5632473596
 20
21.4880191796
 11
-4.5539002381
 21
21.4923593831
  0
LINE
  5
289
100
AcDbEntity
  8
RACCORDO
100
AcDbLine
 62
250
  6
CONTINUOUS
 10
-4.691897718
 20
21.4271569231
 11
-4.6493197282
 21
21.4468338052
  0
LINE
  5
28A
100
AcDbEntity
  8
RACCORDO
100
AcDbLine
 62
7
  6
CONTINUOUS
 10
-4.8528628702
 20
21.4703418188
 11
-4.9040947836
 21
21.4467222163
  0
LINE
  5
28B
100
AcDbEntity
  8
RACCORDO
100
AcDbLine
 62
250
  6
CONTINUOUS
 10
-4.5539002381
 20
21.4923593831
 11
-4.5443132499
 21
21.4967432857
  0
LWPOLYLINE
  5
28C
100
AcDbEntity
  8
RACCORDO
100
AcDbPolyline
 62
250
  6
CONTINUOUS
 90
17
 70
0
 10
-3.6999248789
 20
21.5544624584
 10
-3.6941114334
 20
21.5570983259
 10
-3.6883120025
 20
21.5594345822
 10
-3.6825364001
 20
21.5614672739
 10
-3.6767944001
 20
21.563192961
 10
-3.6710957194
 20
21.5646087234
 10
-3.6654500016
 20
21.5657121652
 10
-3.6598668007
 20
21.5665014191
 10
-3.6543555648
 20
21.5669751494
 10
-3.6489256205
 20
21.5671325546
 10
-3.6435861566
 20
21.5669733682
 10
-3.6383462087
 20
21.5664978596
 10
-3.6332146442
 20
21.5657068336
 10
-3.6282001471
 20
21.5646016287
 10
-3.623311203
 20
21.5631841153
 10
-3.6185560855
 20
21.561456692
 10
-3.6140201727
 20
21.5594563849
  0
LWPOLYLINE
  5
28D
100
AcDbEntity
  8
RACCORDO
100
AcDbPolyline
 62
250
  6
CONTINUOUS
 90
22
 70
0
 10
-4.8702484345
 20
21.462353582
 10
-4.8671201214
 20
21.4637635139
 10
-4.857871659
 20
21.467537408
 10
-4.8484120448
 20
21.4708198635
 10
-4.8387514044
 20
21.4736073667
 10
-4.8289000788
 20
21.4758969339
 10
-4.8188686128
 20
21.4776861143
 10
-4.8086677443
 20
21.4789729928
 10
-4.7983083924
 20
21.4797561918
 10
-4.7878016458
 20
21.4800348731
 10
-4.777158751
 20
21.4798087382
 10
-4.7663911004
 20
21.4790780293
 10
-4.7555102197
 20
21.4778435286
 10
-4.744527756
 20
21.4761065574
 10
-4.7334554649
 20
21.473868975
 10
-4.7223051983
 20
21.4711331766
 10
-4.7110888917
 20
21.4679020905
 10
-4.6998185511
 20
21.4641791754
 10
-4.6885062403
 20
21.4599684163
 10
-4.6771640682
 20
21.4552743204
 10
-4.6658041755
 20
21.4501019124
 10
-4.654438722
 20
21.4444567288
  0
LINE
  5
28E
100
AcDbEntity
  8
RACCORDO
100
AcDbLine
 62
250
  6
CONTINUOUS
 10
-4.5443132499
 20
21.4967432857
 11
-4.5377821382
 21
21.4996874521
  0
LINE
  5
28F
100
AcDbEntity
  8
RACCORDO
100
AcDbLine
 62
250
  6
CONTINUOUS
 10
-4.5377821382
 20
21.4996874521
 11
-4.5311336294
 21
21.5026467138
  0
LINE
  5
290
100
AcDbEntity
  8
RACCORDO
100
AcDbLine
 62
250
  6
CONTINUOUS
 10
-4.5311336294
 20
21.5026467138
 11
-4.5243645551
 21
21.5056198361
  0
LINE
  5
291
100
AcDbEntity
  8
RACCORDO
100
AcDbLine
 62
250
  6
CONTINUOUS
 10
-4.5243645551
 20
21.5056198361
 11
-4.5174700042
 21
21.5086050144
  0
LINE
  5
292
100
AcDbEntity
  8
RACCORDO
100
AcDbLine
 62
250
  6
CONTINUOUS
 10
-4.5174700042
 20
21.5086050144
 11
-4.5104459207
 21
21.5116000096
  0
LINE
  5
293
100
AcDbEntity
  8
RACCORDO
100
AcDbLine
 62
250
  6
CONTINUOUS
 10
-4.5104459207
 20
21.5116000096
 11
-4.5032895586
 21
21.5146033379
  0
LINE
  5
294
100
AcDbEntity
  8
RACCORDO
100
AcDbLine
 62
250
  6
CONTINUOUS
 10
-4.5032895586
 20
21.5146033379
 11
-4.495996859
 21
21.5176127324
  0
LINE
  5
295
100
AcDbEntity
  8
RACCORDO
100
AcDbLine
 62
250
  6
CONTINUOUS
 10
-4.495996859
 20
21.5176127324
 11
-4.488563803
 21
21.5206258543
  0
LINE
  5
296
100
AcDbEntity
  8
RACCORDO
100
AcDbLine
 62
250
  6
CONTINUOUS
 10
-4.488563803
 20
21.5206258543
 11
-4.4809877645
 21
21.5236411097
  0
LINE
  5
297
100
AcDbEntity
  8
RACCORDO
100
AcDbLine
 62
250
  6
CONTINUOUS
 10
-4.4809877645
 20
21.5236411097
 11
-4.4732649035
 21
21.5266560505
  0
LINE
  5
298
100
AcDbEntity
  8
RACCORDO
100
AcDbLine
 62
250
  6
CONTINUOUS
 10
-4.4732649035
 20
21.5266560505
 11
-4.4653912797
 21
21.5296682
  0
LINE
  5
299
100
AcDbEntity
  8
RACCORDO
100
AcDbLine
 62
250
  6
CONTINUOUS
 10
-4.4653912797
 20
21.5296682
 11
-4.4573643525
 21
21.5326758574
  0
LINE
  5
29A
100
AcDbEntity
  8
RACCORDO
100
AcDbLine
 62
250
  6
CONTINUOUS
 10
-4.4573643525
 20
21.5326758574
 11
-4.4491803449
 21
21.535676432
  0
LINE
  5
29B
100
AcDbEntity
  8
RACCORDO
100
AcDbLine
 62
250
  6
CONTINUOUS
 10
-4.4491803449
 20
21.535676432
 11
-4.4408359807
 21
21.5386670755
  0
LINE
  5
29C
100
AcDbEntity
  8
RACCORDO
100
AcDbLine
 62
250
  6
CONTINUOUS
 10
-4.4408359807
 20
21.5386670755
 11
-4.4323291427
 21
21.5416458525
  0
LINE
  5
29D
100
AcDbEntity
  8
RACCORDO
100
AcDbLine
 62
250
  6
CONTINUOUS
 10
-4.4323291427
 20
21.5416458525
 11
-4.423656775
 21
21.5446097945
  0
LINE
  5
29E
100
AcDbEntity
  8
RACCORDO
100
AcDbLine
 62
250
  6
CONTINUOUS
 10
-4.423656775
 20
21.5446097945
 11
-4.414816178
 21
21.5475557482
  0
LINE
  5
29F
100
AcDbEntity
  8
RACCORDO
100
AcDbLine
 62
250
  6
CONTINUOUS
 10
-4.414816178
 20
21.5475557482
 11
-4.405805672
 21
21.5504815606
  0
LINE
  5
2A0
100
AcDbEntity
  8
RACCORDO
100
AcDbLine
 62
250
  6
CONTINUOUS
 10
-4.405805672
 20
21.5504815606
 11
-4.3966229078
 21
21.5533839259
  0
LINE
  5
2A1
100
AcDbEntity
  8
RACCORDO
100
AcDbLine
 62
250
  6
CONTINUOUS
 10
-4.3966229078
 20
21.5533839259
 11
-4.3872659997
 21
21.5562593431
  0
LINE
  5
2A2
100
AcDbEntity
  8
RACCORDO
100
AcDbLine
 62
250
  6
CONTINUOUS
 10
-4.3872659997
 20
21.5562593431
 11
-4.3777336116
 21
21.5591054894
  0
LINE
  5
2A3
100
AcDbEntity
  8
RACCORDO
100
AcDbLine
 62
250
  6
CONTINUOUS
 10
-4.3777336116
 20
21.5591054894
 11
-4.3680234998
 21
21.5619189321
  0
LINE
  5
2A4
100
AcDbEntity
  8
268140580
100
AcDbLine
 62
250
  6
CONTINUOUS
 10
1.1828418358
 20
-23.9684474607
 11
1.1828797955
 21
-23.9684664298
  0
LINE
  5
2A5
100
AcDbEntity
  8
268140580
100
AcDbLine
 62
250
  6
CONTINUOUS
 10
-0.5199138611
 20
-24.2375683564
 11
-1.8634167453
 21
-23.5658169143
  0
LINE
  5
2A6
100
AcDbEntity
  8
268140580
100
AcDbLine
 62
7
  6
CONTINUOUS
 10
-0.5199138611
 20
-23.6686556291
 11
-0.3030676749
 21
-23.7770787222
  0
LINE
  5
2A7
100
AcDbEntity
  8
268140580
100
AcDbLine
 62
250
  6
CONTINUOUS
 10
0.6291346584
 20
-23.8505440967
 11
0.6198369527
 21
-23.8458952439
  0
LINE
  5
2A8
100
AcDbEntity
  8
268140580
100
AcDbLine
 62
250
  6
CONTINUOUS
 10
0.6139696154
 20
-23.6876314893
 11
1.1594647443
 21
-23.9603790537
  0
LINE
  5
2A9
100
AcDbEntity
  8
268140580
100
AcDbLine
 62
7
  6
CONTINUOUS
 10
0.6139696154
 20
-23.6840113398
 11
1.1828797955
 21
-23.9684664298
  0
LINE
  5
2AA
100
AcDbEntity
  8
268140580
100
AcDbLine
 62
7
  6
CONTINUOUS
 10
-0.0204402621
 20
-22.6008314849
 11
-1.1748238563
 21
-22.0236396878
  0
LINE
  5
2AB
100
AcDbEntity
  8
268140580
100
AcDbLine
 62
7
  6
CONTINUOUS
 10
-0.8150991683
 20
-21.8499486412
 11
0.1308228563
 21
-22.3229096535
  0
LWPOLYLINE
  5
2AC
100
AcDbEntity
  8
268140580
100
AcDbPolyline
 62
250
  6
CONTINUOUS
 90
15
 70
0
 10
-1.8634167453
 20
-23.5658169143
 10
-1.8733962932
 20
-23.5605280637
 10
-1.8827439211
 20
-23.5549580316
 10
-1.8914279995
 20
-23.5491256652
 10
-1.899419144
 20
-23.5430506992
 10
-1.9066903154
 20
-23.5367536893
 10
-1.9132169106
 20
-23.5302559417
 10
-1.9189768456
 20
-23.5235794426
 10
-1.9239506301
 20
-23.5167467831
 10
-1.9281214344
 20
-23.509781082
 10
-1.9314751452
 20
-23.502705909
 10
-1.9340004143
 20
-23.495545204
 10
-1.9356886962
 20
-23.4883231962
 10
-1.9365342779
 20
-23.4810643225
 10
-1.93664005
 20
-23.4774285666
  0
LWPOLYLINE
  5
2AD
100
AcDbEntity
  8
268140580
100
AcDbPolyline
 62
250
  6
CONTINUOUS
 90
5
 70
0
 10
-12.7555133936
 20
22.3332314627
 10
-12.7529881394
 20
22.3403921769
 10
-12.7512998745
 20
22.3476141914
 10
-12.7504543115
 20
22.3548730694
 10
-12.750348549
 20
22.3585086593
  0
LINE
  5
2AE
100
AcDbEntity
  8
RACCORDO
100
AcDbLine
 62
7
  6
CONTINUOUS
 10
-5.7980357493
 20
20.6729085313
 11
-4.9421025251
 21
21.4220161893
  0
LINE
  5
2AF
100
AcDbEntity
  8
RACCORDO
100
AcDbLine
 62
250
  6
CONTINUOUS
 10
-5.6441331945
 20
20.5959572539
 11
-4.6935026428
 21
21.4279434488
  0
LINE
  5
2B0
100
AcDbEntity
  8
268140580
100
AcDbLine
 62
7
  6
CONTINUOUS
 10
2.3792239418
 20
21.7433618403
 11
1.8660541666
 21
21.4867769527
  0
LINE
  5
2B1
100
AcDbEntity
  8
268140580
100
AcDbLine
 62
7
  6
CONTINUOUS
 10
-4.1928034928
 20
18.682267674
 11
1.5739288505
 21
21.5370476492
  0
LINE
  5
2B2
100
AcDbEntity
  8
268140580
100
AcDbLine
 62
7
  6
CONTINUOUS
 10
0.9680956756
 20
21.8399642367
 11
-3.6311836983
 21
19.5894825057
  0
LWPOLYLINE
  5
2B3
100
AcDbEntity
  8
268140580
100
AcDbPolyline
 62
7
  6
CONTINUOUS
 90
20
 70
0
 10
2.3792239418
 20
21.7433618403
 10
2.405601445
 20
21.755954586
 10
2.431916167
 20
21.7673072299
 10
2.4581681079
 20
21.7774197721
 10
2.4844146798
 20
21.7863112878
 10
2.5105984706
 20
21.7939627018
 10
2.536547244
 20
21.800316788
 10
2.5622466327
 20
21.8053568082
 10
2.5877110039
 20
21.8090995006
 10
2.6128112241
 20
21.8115378537
 10
2.6375107661
 20
21.8126700501
 10
2.6618461571
 20
21.8124979073
 10
2.685797844
 20
21.8110198662
 10
2.709403733
 20
21.8082324302
 10
2.732625918
 20
21.8041390958
 10
2.7553311278
 20
21.7987487937
 10
2.7775197206
 20
21.7920453975
 10
2.7991913383
 20
21.7840450335
 10
2.8202116347
 20
21.7748050107
 10
2.8264385785
 20
21.7717657103
  0
LWPOLYLINE
  5
2B4
100
AcDbEntity
  8
268140580
100
AcDbPolyline
 62
7
  6
CONTINUOUS
 90
17
 70
0
 10
0.9680956756
 20
21.8399642367
 10
0.983337681
 20
21.8470290351
 10
0.9985376569
 20
21.8532595045
 10
1.0136956034
 20
21.8586556448
 10
1.028857269
 20
21.8632327198
 10
1.0439769051
 20
21.8669754658
 10
1.0589172662
 20
21.8698380912
 10
1.0736715426
 20
21.8718046608
 10
1.0882465439
 20
21.8728911097
 10
1.1025254531
 20
21.8730994524
 10
1.1164801756
 20
21.8724259257
 10
1.1301388061
 20
21.8708742927
 10
1.1434688115
 20
21.868457857
 10
1.1564733148
 20
21.8651815348
 10
1.1691491929
 20
21.8610404099
 10
1.1814545442
 20
21.8560330367
 10
1.1886138583
 20
21.8526323369
  0
LWPOLYLINE
  5
2B5
100
AcDbEntity
  8
RACCORDO
100
AcDbPolyline
 62
250
  6
CONTINUOUS
 90
26
 70
0
 10
3.8118956604
 20
22.7907980235
 10
3.8311555726
 20
22.7996946346
 10
3.850392018
 20
22.8079370396
 10
3.8695907116
 20
22.8155191176
 10
3.8887373961
 20
22.8224352383
 10
3.9078178533
 20
22.8286802655
 10
3.9268179139
 20
22.8342495617
 10
3.9457234683
 20
22.8391389912
 10
3.9645204771
 20
22.843344923
 10
3.9831949817
 20
22.8468642338
 10
4.0017331141
 20
22.84969431
 10
4.0201211079
 20
22.8518330502
 10
4.0383453081
 20
22.853278866
 10
4.0563921812
 20
22.8540306837
 10
4.0742483256
 20
22.8540879451
 10
4.0919004812
 20
22.8534506077
 10
4.1093355393
 20
22.8521191447
 10
4.1265405527
 20
22.8500945448
 10
4.1435027448
 20
22.8473783116
 10
4.1602095194
 20
22.8439724622
 10
4.1766484699
 20
22.8398795257
 10
4.1928073887
 20
22.8351025416
 10
4.208674276
 20
22.8296450574
 10
4.2242373491
 20
22.8235111256
 10
4.2394850507
 20
22.8167053016
 10
4.246768541
 20
22.8131613531
  0
LINE
  5
2B6
100
AcDbEntity
  8
RACCORDO
100
AcDbLine
 62
250
  6
CONTINUOUS
 10
12.0486972679
 20
25.5922997351
 11
5.9145433879
 21
22.7593441944
  0
LWPOLYLINE
  5
2B7
100
AcDbEntity
  8
RACCORDO
100
AcDbPolyline
 62
7
  6
CONTINUOUS
 90
81
 70
0
 10
11.6170778429
 20
25.6280934414
 10
5.4802177893
 20
22.793897202
 10
5.4736019027
 20
22.7909378073
 10
5.4664593039
 20
22.7878511159
 10
5.4587824776
 20
22.7846476636
 10
5.4505687644
 20
22.7813399448
 10
5.4418208903
 20
22.7779423828
 10
5.4325351634
 20
22.7744664896
 10
5.4227094413
 20
22.7709241439
 10
5.412350858
 20
22.7673302307
 10
5.4014600964
 20
22.7636970041
 10
5.3900363919
 20
22.760035948
 10
5.3780866063
 20
22.7563605974
 10
5.3656131985
 20
22.752682736
 10
5.3526182586
 20
22.749013952
 10
5.3391092895
 20
22.7453669897
 10
5.3250902398
 20
22.7417531558
 10
5.3105661285
 20
22.738183851
 10
5.2955471954
 20
22.7346715428
 10
5.2800372289
 20
22.7312267293
 10
5.2640460184
 20
22.727860889
 10
5.247594403
 20
22.724587404
 10
5.2306887634
 20
22.7214162305
 10
5.2133418489
 20
22.7183581046
 10
5.1955863044
 20
22.715426451
 10
5.177434489
 20
22.7126306267
 10
5.1588990859
 20
22.7099796254
 10
5.1400155053
 20
22.7074848288
 10
5.1207990713
 20
22.7051540995
 10
5.1012644248
 20
22.7029949753
 10
5.0814476598
 20
22.7010165199
 10
5.0613659251
 20
22.6992248821
 10
5.0410359607
 20
22.69762602
 10
5.0204944531
 20
22.6962267123
 10
4.9997596664
 20
22.6950314025
 10
4.9788502022
 20
22.6940442705
 10
4.9578041087
 20
22.6932698367
 10
4.936639814
 20
22.6927108211
 10
4.9153778248
 20
22.6923695266
 10
4.8940598513
 20
22.6922480684
 10
4.872705574
 20
22.6923473455
 10
4.8513353525
 20
22.6926676598
 10
4.8299920704
 20
22.6932083748
 10
4.8086960215
 20
22.6939684727
 10
4.7874668837
 20
22.6949463336
 10
4.7663463307
 20
22.6961385668
 10
4.7453546981
 20
22.6975422094
 10
4.7245103726
 20
22.6991538526
 10
4.7038514289
 20
22.7009677253
 10
4.6833962075
 20
22.7029790982
 10
4.6631628601
 20
22.7051828493
 10
4.6431881674
 20
22.7075709237
 10
4.6234887352
 20
22.7101368192
 10
4.6040812918
 20
22.7128738076
 10
4.5850014429
 20
22.7157716212
 10
4.5662637382
 20
22.7188221525
 10
4.5478828706
 20
22.7220171139
 10
4.529892886
 20
22.725344113
 10
4.5123060799
 20
22.7287936832
 10
4.4951344035
 20
22.7323561054
 10
4.4784090978
 20
22.7360171408
 10
4.462142417
 20
22.739765624
 10
4.4463404324
 20
22.7435913466
 10
4.4310228348
 20
22.7474805189
 10
4.4161988161
 20
22.751421391
 10
4.4018719622
 20
22.7554032628
 10
4.3880519663
 20
22.7594133862
 10
4.3747432927
 20
22.7634403051
 10
4.3619495806
 20
22.7674725331
 10
4.3496780933
 20
22.7714969948
 10
4.3379306411
 20
22.7755020005
 10
4.3267090747
 20
22.7794757814
 10
4.3160195116
 20
22.7834046538
 10
4.3058606358
 20
22.7872771819
 10
4.2962327529
 20
22.7910810865
 10
4.2871424992
 20
22.7948012915
 10
4.2785873608
 20
22.7984259388
 10
4.2705631294
 20
22.8019436534
 10
4.2630718982
 20
22.8053400066
 10
4.2561105471
 20
22.808602637
 10
4.2496711855
 20
22.8117212115
  0
LWPOLYLINE
  5
2B8
100
AcDbEntity
  8
RACCORDO
100
AcDbPolyline
 62
250
  6
CONTINUOUS
 90
67
 70
0
 10
5.9145433879
 20
22.7593441944
 10
5.8891297589
 20
22.7478792906
 10
5.8631339398
 20
22.7367057988
 10
5.8365559305
 20
22.7258237191
 10
5.8093762751
 20
22.7152232717
 10
5.7816144295
 20
22.7049142364
 10
5.7533287621
 20
22.6949259522
 10
5.7245179753
 20
22.6852601187
 10
5.6951833667
 20
22.6759150363
 10
5.6653871966
 20
22.6669149456
 10
5.6351273132
 20
22.6582611906
 10
5.6044058683
 20
22.6499524273
 10
5.5732915777
 20
22.6420088633
 10
5.5417838017
 20
22.6344321666
 10
5.5098831799
 20
22.6272206692
 10
5.4776603476
 20
22.6203895753
 10
5.4451197567
 20
22.6139410461
 10
5.4122569552
 20
22.6078729204
 10
5.3791292224
 20
22.6021939185
 10
5.3457407727
 20
22.5969051777
 10
5.3120873917
 20
22.5920055607
 10
5.2782137151
 20
22.5875003757
 10
5.2441190665
 20
22.5833896829
 10
5.2098041223
 20
22.5796734222
 10
5.1753155476
 20
22.5763567216
 10
5.1406499894
 20
22.5734396966
 10
5.1058108008
 20
22.5709222318
 10
5.0708547059
 20
22.5688091087
 10
5.0357798419
 20
22.5671009768
 10
5.0005880717
 20
22.5657971867
 10
4.9653417086
 20
22.5649005715
 10
4.9300407919
 20
22.564411979
 10
4.8946852824
 20
22.5643305614
 10
4.8593373759
 20
22.5646566085
 10
4.8239970783
 20
22.5653909547
 10
4.7886643838
 20
22.5665327657
 10
4.7534014704
 20
22.5680798289
 10
4.7182083804
 20
22.5700329886
 10
4.6830850716
 20
22.5723914006
 10
4.6480935956
 20
22.5751503194
 10
4.6132359927
 20
22.5783103091
 10
4.5785102227
 20
22.5818708057
 10
4.5439722168
 20
22.5858253715
 10
4.5096253358
 20
22.590173992
 10
4.4754662188
 20
22.5949166818
 10
4.4415407149
 20
22.600047047
 10
4.4078491947
 20
22.6055651676
 10
4.3743912875
 20
22.6114709638
 10
4.3412117308
 20
22.6177578019
 10
4.3083060336
 20
22.6244270499
 10
4.2756786868
 20
22.6314773399
 10
4.2433879011
 20
22.6388979348
 10
4.2114294397
 20
22.646691161
 10
4.1798075395
 20
22.654854692
 10
4.1485931218
 20
22.6633708109
 10
4.1177872727
 20
22.6722410868
 10
4.0873889061
 20
22.6814639505
 10
4.0574656856
 20
22.6910169776
 10
4.0280198278
 20
22.7009014359
 10
3.999049116
 20
22.7111160576
 10
3.9706145638
 20
22.7216346141
 10
3.9427177298
 20
22.7324586628
 10
3.9153570554
 20
22.7435866464
 10
3.8885888775
 20
22.7549876643
 10
3.8624319752
 20
22.7666514164
 10
3.8368675695
 20
22.7785882028
 10
3.8118956604
 20
22.7907980235
  0
LWPOLYLINE
  5
2B9
100
AcDbEntity
  8
268140580
100
AcDbPolyline
 62
250
  6
CONTINUOUS
 90
16
 70
0
 10
-15.9348416909
 20
23.3123929167
 10
-15.9345426127
 20
23.2999537311
 10
-15.9336463902
 20
23.2878557139
 10
-15.9321560557
 20
23.2761398011
 10
-15.9300766522
 20
23.2648456354
 10
-15.9274152157
 20
23.254011433
 10
-15.9241807517
 20
23.2436738532
 10
-15.9203842046
 20
23.2338678751
 10
-15.9160384206
 20
23.2246266791
 10
-15.9111581046
 20
23.2159815345
 10
-15.9057597699
 20
23.2079616936
 10
-15.8998616829
 20
23.2005942931
 10
-15.8934838007
 20
23.193904262
 10
-15.8866477042
 20
23.1879142372
 10
-15.8793765245
 20
23.182644487
 10
-15.8718299027
 20
23.1781925054
  0
LWPOLYLINE
  5
2BA
100
AcDbEntity
  8
0
100
AcDbPolyline
 62
250
  6
CONTINUOUS
 90
3
 70
0
 10
-16.0751581911
 20
-3.2984252505
 10
-16.0760895587
 20
-1.7873926619
 10
-16.0751581912
 20
-1.1333618267
  0
LINE
  5
2BB
100
AcDbEntity
  8
268140580
100
AcDbLine
 62
7
  6
CONTINUOUS
 10
-16.0080649956
 20
23.4007812644
 11
-16.0080649956
 21
23.769091793
  0
LINE
  5
2BC
100
AcDbEntity
  8
268140580
100
AcDbLine
 62
250
  6
CONTINUOUS
 10
-15.9348416909
 20
23.3123929167
 11
-15.9348416909
 21
23.6807034453
  0
LINE
  5
2BD
100
AcDbEntity
  8
268140580
100
AcDbLine
 62
7
  6
CONTINUOUS
 10
-15.7272085087
 20
21.2792094358
 11
-15.7272085087
 21
22.2502016647
  0
LINE
  5
2BE
100
AcDbEntity
  8
268140580
100
AcDbLine
 62
7
  6
CONTINUOUS
 10
-15.3009582144
 20
22.4387452749
 11
-15.3009582144
 21
22.8927193766
  0
LINE
  5
2BF
100
AcDbEntity
  8
268140580
100
AcDbLine
 62
7
  6
CONTINUOUS
 10
-3.7055712496
 20
17.7107560792
 11
-4.1928034928
 21
17.432862679
  0
LWPOLYLINE
  5
2C0
100
AcDbEntity
  8
268140580
100
AcDbPolyline
 62
250
  6
CONTINUOUS
 90
28
 70
0
 10
-2.3922041831
 20
17.3042021419
 10
-2.4025421179
 20
17.2987732796
 10
-2.4128499607
 20
17.2926196316
 10
-2.4230924446
 20
17.2857622518
 10
-2.4332345261
 20
17.2782246018
 10
-2.4432415055
 20
17.2700324708
 10
-2.4530791452
 20
17.2612138871
 10
-2.4627137868
 20
17.2517990224
 10
-2.4721124667
 20
17.2418200885
 10
-2.4812430285
 20
17.2313112269
 10
-2.4900742331
 20
17.2203083925
 10
-2.4985758656
 20
17.2088492301
 10
-2.5067188389
 20
17.1969729457
 10
-2.5144752927
 20
17.1847201726
 10
-2.5218186894
 20
17.172132832
 10
-2.5287239044
 20
17.1592539899
 10
-2.5351673123
 20
17.1461277098
 10
-2.541126868
 20
17.1327989014
 10
-2.5465821815
 20
17.1193131677
 10
-2.5515145882
 20
17.1057166483
 10
-2.5559072124
 20
17.0920558621
 10
-2.5597450254
 20
17.0783775476
 10
-2.5630148965
 20
17.0647285036
 10
-2.5657056383
 20
17.0511554284
 10
-2.5678080448
 20
17.0377047607
 10
-2.5693149229
 20
17.0244225202
 10
-2.5702211169
 20
17.0113541504
 10
-2.5705235265
 20
16.9985443631
  0
LINE
  5
2C1
100
AcDbEntity
  8
268140580
100
AcDbLine
 62
7
  6
CONTINUOUS
 10
5.3058859517
 20
20.2800308353
 11
0.6986980509
 21
17.9188660428
  0
LINE
  5
2C2
100
AcDbEntity
  8
268140580
100
AcDbLine
 62
7
  6
CONTINUOUS
 10
-3.6982124573
 20
17.7147154765
 11
1.9223783713
 21
20.5575710632
  0
LINE
  5
2C3
100
AcDbEntity
  8
268140580
100
AcDbLine
 62
7
  6
CONTINUOUS
 10
-2.5036260087
 20
17.3114913142
 11
-0.3823056651
 21
18.3494784183
  0
LINE
  5
2C4
100
AcDbEntity
  8
268140580
100
AcDbLine
 62
250
  6
CONTINUOUS
 10
-2.3922041831
 20
17.3042021419
 11
-0.2708838395
 21
18.342189246
  0
LINE
  5
2C5
100
AcDbEntity
  8
0
100
AcDbLine
 62
7
  6
CONTINUOUS
 10
9.8038451443
 20
22.0640666224
 11
14.0464858314
 21
24.1400408307
  0
LINE
  5
2C6
100
AcDbEntity
  8
268140580
100
AcDbLine
 62
250
  6
CONTINUOUS
 10
1.0726190447
 20
17.6704378039
 11
-1.0487012988
 21
16.6324506997
  0
LINE
  5
2C7
100
AcDbEntity
  8
RACCORDO
100
AcDbLine
 62
7
  6
CONTINUOUS
 10
9.4609791263
 20
23.4245895511
 11
12.9981663745
 21
25.1175651818
  0
LINE
  5
2C8
100
AcDbEntity
  8
RACCORDO
100
AcDbLine
 62
7
  6
CONTINUOUS
 10
9.8038451443
 20
22.4925833981
 11
14.0416577161
 21
24.5208937216
  0
LWPOLYLINE
  5
2C9
100
AcDbEntity
  8
268140580
100
AcDbPolyline
 62
250
  6
CONTINUOUS
 90
13
 70
0
 10
1.0726190447
 20
17.6704378039
 10
1.0828376855
 20
17.6750756548
 10
1.0930169706
 20
17.6789709591
 10
1.1031228382
 20
17.6821106824
 10
1.1131214718
 20
17.6844843185
 10
1.1229794142
 20
17.6860839247
 10
1.1326636786
 20
17.6869041485
 10
1.1421418595
 20
17.6869422452
 10
1.1513822411
 20
17.6861980874
 10
1.160353903
 20
17.684674165
 10
1.1690268244
 20
17.6823755776
 10
1.1773719839
 20
17.6793100166
 10
1.1828797955
 20
17.6767751705
  0
LWPOLYLINE
  5
2CA
100
AcDbEntity
  8
268140580
100
AcDbPolyline
 62
250
  6
CONTINUOUS
 90
14
 70
0
 10
-0.3823056651
 20
18.3494784183
 10
-0.3751059335
 20
18.3526397427
 10
-0.3674319389
 20
18.3552711828
 10
-0.3594974075
 20
18.3572709663
 10
-0.3513240987
 20
18.358633605
 10
-0.3429344225
 20
18.3593553593
 10
-0.3343513855
 20
18.3594342462
 10
-0.3255985313
 20
18.3588700472
 10
-0.3166998557
 20
18.3576643068
 10
-0.3076797662
 20
18.3558203301
 10
-0.2985630254
 20
18.3533431808
 10
-0.2893746429
 20
18.3502396593
 10
-0.2801398064
 20
18.3465182781
 10
-0.2708838395
 20
18.342189246
  0
LWPOLYLINE
  5
2CB
100
AcDbEntity
  8
268140580
100
AcDbPolyline
 62
250
  6
CONTINUOUS
 90
14
 70
0
 10
-2.5036260087
 20
17.3114913142
 10
-2.4964055371
 20
17.3146607401
 10
-2.4887325464
 20
17.3172899323
 10
-2.4807992064
 20
17.3192877314
 10
-2.4726272619
 20
17.3206486615
 10
-2.4642391117
 20
17.3213689924
 10
-2.4556577469
 20
17.3214467498
 10
-2.4469066887
 20
17.3208817205
 10
-2.438009923
 20
17.3196754532
 10
-2.4289918353
 20
17.3178312543
 10
-2.4198771434
 20
17.3153541785
 10
-2.4106908302
 20
17.3122510153
 10
-2.4014580746
 20
17.3085302703
 10
-2.3922041831
 20
17.3042021419
  0
LWPOLYLINE
  5
2CC
100
AcDbEntity
  8
268140580
100
AcDbPolyline
 62
250
  6
CONTINUOUS
 90
16
 70
0
 10
-16.0080649956
 20
23.4007812644
 10
-16.0077223793
 20
23.3942392699
 10
-16.0066954695
 20
23.3877152065
 10
-16.0049870808
 20
23.3812269563
 10
-16.0026018958
 20
23.374792303
 10
-15.9995464522
 20
23.3684288838
 10
-15.9958291247
 20
23.3621541401
 10
-15.9914601023
 20
23.3559852707
 10
-15.98645136
 20
23.349939184
 10
-15.9808166267
 20
23.3440324519
 10
-15.9745713466
 20
23.3382812644
 10
-15.9677326376
 20
23.332701385
 10
-15.9603192442
 20
23.3273081079
 10
-15.952351486
 20
23.3221162155
 10
-15.943851202
 20
23.3171399386
 10
-15.9348416909
 20
23.3123929167
  0
LWPOLYLINE
  5
2CD
100
AcDbEntity
  8
268140580
100
AcDbPolyline
 62
250
  6
CONTINUOUS
 90
16
 70
0
 10
-16.0080649956
 20
23.769091793
 10
-16.0077244917
 20
23.7625699825
 10
-16.0066994009
 20
23.7560444511
 10
-16.0049925259
 20
23.7495546822
 10
-16.0026085455
 20
23.7431184786
 10
-15.9995539907
 20
23.7367534826
 10
-15.9958372349
 20
23.7304771512
 10
-15.9914684659
 20
23.7243066948
 10
-15.9864596604
 20
23.7182590351
 10
-15.9808245556
 20
23.7123507619
 10
-15.9745785969
 20
23.7065980724
 10
-15.9677389147
 20
23.7010167468
 10
-15.9603242892
 20
23.6956221084
 10
-15.952355066
 20
23.6904289546
 10
-15.9438530941
 20
23.6854515179
 10
-15.9348416909
 20
23.6807034453
  0
LWPOLYLINE
  5
2CE
100
AcDbEntity
  8
268140580
100
AcDbPolyline
 62
250
  6
CONTINUOUS
 90
31
 70
0
 10
-14.2377854161
 20
23.0089520032
 10
-14.2379459879
 20
23.0204165546
 10
-14.2385889082
 20
23.03209834
 10
-14.2397133273
 20
23.043965818
 10
-14.241317458
 20
23.0559893662
 10
-14.2433976171
 20
23.0681338255
 10
-14.2459472418
 20
23.0803583851
 10
-14.2489586335
 20
23.0926268439
 10
-14.2524240392
 20
23.1049082184
 10
-14.256334063
 20
23.1171691511
 10
-14.260678099
 20
23.1293762405
 10
-14.2654442023
 20
23.1414957907
 10
-14.2706191847
 20
23.1534942275
 10
-14.2761887816
 20
23.1653385069
 10
-14.2821377789
 20
23.1769963019
 10
-14.2884499193
 20
23.1884357499
 10
-14.2951079298
 20
23.1996255261
 10
-14.302093534
 20
23.2105348941
 10
-14.3093875547
 20
23.2211338953
 10
-14.3169699847
 20
23.231393453
 10
-14.3248200417
 20
23.2412854435
 10
-14.3329161975
 20
23.2507827346
 10
-14.3412362539
 20
23.2598592827
 10
-14.349757396
 20
23.2684901947
 10
-14.3584562503
 20
23.2766517934
 10
-14.3673089708
 20
23.2843217034
 10
-14.3762912753
 20
23.2914788841
 10
-14.3853785019
 20
23.2981036865
 10
-14.3945457209
 20
23.304177942
 10
-14.4037678042
 20
23.309685006
 10
-14.4130194633
 20
23.3146097819
  0
LWPOLYLINE
  5
2CF
100
AcDbEntity
  8
0
100
AcDbPolyline
 62
250
  6
CONTINUOUS
 90
3
 70
0
 10
-14.1295539199
 20
-4.7031794422
 10
-14.1317194256
 20
-3.1927658192
 10
-14.12955392
 20
-1.6720905749
  0
LINE
  5
2D0
100
AcDbEntity
  8
268140580
100
AcDbLine
 62
7
  6
CONTINUOUS
 10
-15.2592328115
 20
19.9950929798
 11
-15.2592328115
 21
21.0452215873
  0
LINE
  5
2D1
100
AcDbEntity
  8
268140580
100
AcDbLine
 62
250
  6
CONTINUOUS
 10
-15.2277349097
 20
22.3470335801
 11
-15.2277349097
 21
22.8561077243
  0
LINE
  5
2D2
100
AcDbEntity
  8
268140580
100
AcDbLine
 62
250
  6
CONTINUOUS
 10
-15.1713648459
 20
19.9511589969
 11
-15.1713648459
 21
21.0012876044
  0
LINE
  5
2D3
100
AcDbEntity
  8
268140580
100
AcDbLine
 62
250
  6
CONTINUOUS
 10
-14.5913388067
 20
23.0089520032
 11
-14.5913388067
 21
22.6406414746
  0
LINE
  5
2D4
100
AcDbEntity
  8
268140580
100
AcDbLine
 62
7
  6
CONTINUOUS
 10
-14.5728249145
 20
19.7522528307
 11
-14.5728249145
 21
20.7020176387
  0
LINE
  5
2D5
100
AcDbEntity
  8
268140580
100
AcDbLine
 62
250
  6
CONTINUOUS
 10
-14.2377854161
 20
23.0089520032
 11
-14.2377854161
 21
22.6406414746
  0
LINE
  5
2D6
100
AcDbEntity
  8
268140580
100
AcDbLine
 62
250
  6
CONTINUOUS
 10
-13.8842320255
 20
22.2441948652
 11
-13.8842320255
 21
21.675282138
  0
LINE
  5
2D7
100
AcDbEntity
  8
268140580
100
AcDbLine
 62
250
  6
CONTINUOUS
 10
-13.5306786349
 20
22.2441948652
 11
-13.5306786349
 21
21.686628755
  0
LWPOLYLINE
  5
2D8
100
AcDbEntity
  8
0
100
AcDbPolyline
 62
250
  6
CONTINUOUS
 90
3
 70
0
 10
-14.837721324
 20
-1.7520801681
 10
-14.8386526916
 20
-3.2640441243
 10
-14.8377213242
 20
-3.917143592
  0
LWPOLYLINE
  5
2D9
100
AcDbEntity
  8
268140580
100
AcDbPolyline
 62
7
  6
CONTINUOUS
 90
28
 70
0
 10
-12.750348549
 20
22.6861366034
 10
-12.7502201996
 20
22.6947375405
 10
-12.7498199499
 20
22.7038239788
 10
-12.7491262337
 20
22.7133756163
 10
-12.7481189511
 20
22.7233720992
 10
-12.7467803599
 20
22.7337853174
 10
-12.7450956773
 20
22.7445809699
 10
-12.7430506673
 20
22.7557341087
 10
-12.740634284
 20
22.7672108576
 10
-12.7378412424
 20
22.7789623825
 10
-12.734665055
 20
22.7909566921
 10
-12.7311020666
 20
22.8031575593
 10
-12.7271572028
 20
22.8155087031
 10
-12.7228319761
 20
22.8279745025
 10
-12.7181306306
 20
22.8405167483
 10
-12.713068578
 20
22.8530752227
 10
-12.707655393
 20
22.8656129214
 10
-12.7019029537
 20
22.8780920361
 10
-12.6958364693
 20
22.8904524932
 10
-12.6894729165
 20
22.9026586785
 10
-12.6828310873
 20
22.91467546
 10
-12.6759447876
 20
22.9264463603
 10
-12.6688373817
 20
22.9379395967
 10
-12.6615332565
 20
22.9491252449
 10
-12.6540728293
 20
22.9599539208
 10
-12.6464891754
 20
22.9703935145
 10
-12.6388061248
 20
22.9804281148
 10
-12.6310528156
 20
22.9900369579
  0
LWPOLYLINE
  5
2DA
100
AcDbEntity
  8
268140580
100
AcDbPolyline
 62
250
  6
CONTINUOUS
 90
25
 70
0
 10
-12.8235718537
 20
22.5977482558
 10
-12.8232527924
 20
22.6165487429
 10
-12.8222699225
 20
22.6356423934
 10
-12.8206232438
 20
22.6550292074
 10
-12.8183113544
 20
22.6747545753
 10
-12.8153356563
 20
22.6947731067
 10
-12.8117003555
 20
22.7149486302
 10
-12.8073986438
 20
22.7352821316
 10
-12.8024373293
 20
22.7557726251
 10
-12.7968410424
 20
22.7762809819
 10
-12.7906036192
 20
22.7968069279
 10
-12.7837312236
 20
22.8173507372
 10
-12.7762669775
 20
22.8377741032
 10
-12.7682053953
 20
22.8580755966
 10
-12.7595519626
 20
22.8782566468
 10
-12.7503662593
 20
22.8981832356
 10
-12.7406427269
 20
22.9178536201
 10
-12.7303869239
 20
22.9372695432
 10
-12.7196751055
 20
22.9563022158
 10
-12.7085025134
 20
22.9749478123
 10
-12.6968739059
 20
22.9932101582
 10
-12.6848798137
 20
23.0109719415
 10
-12.6725504134
 20
23.0281940581
 10
-12.6598555283
 20
23.0449156121
 10
-12.6467951584
 20
23.0611366034
  0
LWPOLYLINE
  5
2DB
100
AcDbEntity
  8
268140580
100
AcDbPolyline
 62
250
  6
CONTINUOUS
 90
28
 70
0
 10
-14.5913388067
 20
23.0089520032
 10
-14.5910363971
 20
23.0217617905
 10
-14.5901302031
 20
23.0348301603
 10
-14.588623325
 20
23.0481124008
 10
-14.5865209185
 20
23.0615630685
 10
-14.5838301767
 20
23.0751361436
 10
-14.5805603055
 20
23.0887851877
 10
-14.5767224926
 20
23.1024635022
 10
-14.5723298683
 20
23.1161242884
 10
-14.5673974617
 20
23.1297208078
 10
-14.5619421482
 20
23.1432065415
 10
-14.5559825925
 20
23.1565353499
 10
-14.5495391845
 20
23.16966163
 10
-14.5426339695
 20
23.1825404721
 10
-14.5352905729
 20
23.1951278127
 10
-14.5275341191
 20
23.2073805858
 10
-14.5193911458
 20
23.2192568702
 10
-14.5108895132
 20
23.2307160326
 10
-14.5020583086
 20
23.241718867
 10
-14.4929277469
 20
23.2522277285
 10
-14.483529067
 20
23.2622066625
 10
-14.4738944253
 20
23.2716215272
 10
-14.4640567857
 20
23.2804401109
 10
-14.4540498063
 20
23.2886322419
 10
-14.4439077247
 20
23.2961698918
 10
-14.4336652409
 20
23.3030272717
 10
-14.423357398
 20
23.3091809197
 10
-14.4130194633
 20
23.3146097819
  0
LWPOLYLINE
  5
2DC
100
AcDbEntity
  8
RACCORDO
100
AcDbPolyline
 62
250
  6
CONTINUOUS
 90
22
 70
0
 10
-4.7780544383
 20
12.4530465298
 10
-4.8532601882
 20
12.4083252521
 10
-4.9278023809
 20
12.3575399238
 10
-5.0013165319
 20
12.3009451965
 10
-5.0734437323
 20
12.2388295249
 10
-5.1438312788
 20
12.1714986912
 10
-5.2121334777
 20
12.0992717614
 10
-5.2780246601
 20
12.0224953519
 10
-5.3411722792
 20
11.9415604853
 10
-5.4012394181
 20
11.8568876127
 10
-5.4579210149
 20
11.7689197435
 10
-5.5109568618
 20
11.6780765581
 10
-5.5601002927
 20
11.5847673452
 10
-5.6051183231
 20
11.489430083
 10
-5.6457766116
 20
11.392559179
 10
-5.6818559672
 20
11.2946618766
 10
-5.7131756795
 20
11.1962401829
 10
-5.7395914846
 20
11.0977658577
 10
-5.760975062
 20
10.9997054701
 10
-5.7772200068
 20
10.9025378596
 10
-5.7882455326
 20
10.8067515964
 10
-5.7939964122
 20
10.7128213921
  0
LWPOLYLINE
  5
2DD
100
AcDbEntity
  8
ASSI
100
AcDbPolyline
 62
250
  6
CONTINUOUS
 90
22
 70
0
 10
-4.7780544383
 20
12.4530465298
 10
-4.8532648161
 20
12.4083223305
 10
-4.9278099098
 20
12.3575345228
 10
-5.0013252459
 20
12.3009381791
 10
-5.07345098
 20
12.2388230425
 10
-5.1438355626
 20
12.1714944874
 10
-5.2121362794
 20
12.0992687679
 10
-5.2780289277
 20
12.0224902876
 10
-5.3411790909
 20
11.9415515337
 10
-5.4012478019
 20
11.8568754645
 10
-5.4579294998
 20
11.7689061838
 10
-5.5109647375
 20
11.6780626316
 10
-5.5601069872
 20
11.5847541763
 10
-5.6051229553
 20
11.489419851
 10
-5.6457790055
 20
11.3925531202
 10
-5.6818572096
 20
11.2946581445
 10
-5.7131773149
 20
11.1962344558
 10
-5.7395938115
 20
11.0977561946
 10
-5.7609772573
 20
10.9996940753
 10
-5.7772213723
 20
10.9025282602
 10
-5.7882460509
 20
10.8067458498
 10
-5.7939964122
 20
10.7128213921
  0
LINE
  5
2DE
100
AcDbEntity
  8
268140580
100
AcDbLine
 62
7
  6
CONTINUOUS
 10
0.7138248326
 20
15.5010580381
 11
-0.1663604705
 21
15.0044696728
  0
LINE
  5
2DF
100
AcDbEntity
  8
268140580
100
AcDbLine
 62
250
  6
CONTINUOUS
 10
0.7685752558
 20
15.4736828265
 11
0.7694997399
 21
15.4742006927
  0
LINE
  5
2E0
100
AcDbEntity
  8
268140580
100
AcDbLine
 62
250
  6
CONTINUOUS
 10
0.7694997399
 20
15.4742006927
 11
0.7704245013
 21
15.474711286
  0
LINE
  5
2E1
100
AcDbEntity
  8
ASSI
100
AcDbLine
 62
250
  6
CONTINUOUS
 10
-2.5776599587
 20
13.6543065533
 11
-4.7780544383
 21
12.4530465298
  0
LINE
  5
2E2
100
AcDbEntity
  8
RACCORDO
100
AcDbLine
 62
250
  6
CONTINUOUS
 10
-2.5776599587
 20
13.6543065533
 11
-4.7780544383
 21
12.4530465298
  0
LINE
  5
2E3
100
AcDbEntity
  8
268140580
100
AcDbLine
 62
250
  6
CONTINUOUS
 10
0.7685809386
 20
15.4697444402
 11
-0.3030676749
 21
14.8846999627
  0
LINE
  5
2E4
100
AcDbEntity
  8
268140580
100
AcDbLine
 62
250
  6
CONTINUOUS
 10
0.7704245013
 20
15.474711286
 11
0.7713495007
 21
15.4752145843
  0
LINE
  5
2E5
100
AcDbEntity
  8
268140580
100
AcDbLine
 62
250
  6
CONTINUOUS
 10
0.7713495007
 20
15.4752145843
 11
0.7722746982
 21
15.4757105662
  0
LWPOLYLINE
  5
2E6
100
AcDbEntity
  8
268140580
100
AcDbPolyline
 62
250
  6
CONTINUOUS
 90
15
 70
0
 10
0.5407463107
 20
15.9155891736
 10
0.5507259099
 20
15.920878053
 10
0.5600735793
 20
15.9264481149
 10
0.5687576895
 20
15.9322805117
 10
0.5767488567
 20
15.938355508
 10
0.5840200417
 20
15.9446525477
 10
0.5905466415
 20
15.9511503236
 10
0.5963065728
 20
15.9578268489
 10
0.6012803462
 20
15.9646595322
 10
0.6054511326
 20
15.9716252538
 10
0.60880482
 20
15.9787004437
 10
0.6113300611
 20
15.9858611618
 10
0.6130183118
 20
15.9930831785
 10
0.6138638602
 20
16.0003420566
 10
0.6139696154
 20
16.0039775212
  0
LWPOLYLINE
  5
2E7
100
AcDbEntity
  8
268140580
100
AcDbPolyline
 62
250
  6
CONTINUOUS
 90
11
 70
0
 10
0.5407463107
 20
15.5879612294
 10
0.5507258832
 20
15.5932500939
 10
0.5600735317
 20
15.5988201407
 10
0.5687576265
 20
15.6046525225
 10
0.5767487835
 20
15.6107275045
 10
0.5840199632
 20
15.6170245309
 10
0.5905465622
 20
15.6235222944
 10
0.5963064965
 20
15.6301988087
 10
0.6012802763
 20
15.6370314826
 10
0.605451072
 20
15.6439971964
 10
0.6088047709
 20
15.6510723805
  0
LINE
  5
2E8
100
AcDbEntity
  8
0
100
AcDbLine
 62
7
  6
CONTINUOUS
 10
9.5151469386
 20
21.1391283163
 11
10.106892852
 21
21.4511676372
  0
LWPOLYLINE
  5
2E9
100
AcDbEntity
  8
268140580
100
AcDbPolyline
 62
250
  6
CONTINUOUS
 90
16
 70
0
 10
1.2478530919
 20
17.3647800251
 10
1.2568412352
 20
17.3695151829
 10
1.2653279745
 20
17.3744817722
 10
1.2732891322
 20
17.3796666558
 10
1.28070342
 20
17.38505723
 10
1.2875476804
 20
17.3906380135
 10
1.2937982017
 20
17.3963903014
 10
1.2994366496
 20
17.402296979
 10
1.3044490317
 20
17.4083431199
 10
1.3088217254
 20
17.4145123298
 10
1.3125427549
 20
17.4207878315
 10
1.3156017664
 20
17.427152303
 10
1.3179902504
 20
17.433588097
 10
1.3197016446
 20
17.4400774784
 10
1.320731298
 20
17.4466027381
 10
1.3210763966
 20
17.4531683728
  0
LWPOLYLINE
  5
2EA
100
AcDbEntity
  8
268140580
100
AcDbPolyline
 62
250
  6
CONTINUOUS
 90
16
 70
0
 10
1.2478530919
 20
17.0191425642
 10
1.256862603
 20
17.023889586
 10
1.265362887
 20
17.0288658629
 10
1.2733306452
 20
17.0340577553
 10
1.2807440386
 20
17.0394510325
 10
1.2875827476
 20
17.0450309118
 10
1.2938280277
 20
17.0507820994
 10
1.299462761
 20
17.0566888314
 10
1.3044715032
 20
17.0627349181
 10
1.3088405257
 20
17.0689037875
 10
1.3125578532
 20
17.0751785312
 10
1.3156132968
 20
17.0815419505
 10
1.3179984818
 20
17.0879766037
 10
1.3197068705
 20
17.0944648539
 10
1.3207337803
 20
17.1009889173
 10
1.3210763966
 20
17.1075309118
  0
LINE
  5
2EB
100
AcDbEntity
  8
DRAFT
100
AcDbLine
 62
7
  6
CONTINUOUS
 10
1.4256857159
 20
15.8561699225
 11
7.0129994046
 21
18.7912415142
  0
LINE
  5
2EC
100
AcDbEntity
  8
268140580
100
AcDbLine
 62
250
  6
CONTINUOUS
 10
0.7722746982
 20
15.4757105662
 11
0.7732000543
 21
15.4761992104
  0
LINE
  5
2ED
100
AcDbEntity
  8
268140580
100
AcDbLine
 62
250
  6
CONTINUOUS
 10
0.7732000543
 20
15.4761992104
 11
0.7741255294
 21
15.4766804959
  0
LINE
  5
2EE
100
AcDbEntity
  8
268140580
100
AcDbLine
 62
250
  6
CONTINUOUS
 10
0.7741255294
 20
15.4766804959
 11
0.7750510837
 21
15.4771544022
  0
LINE
  5
2EF
100
AcDbEntity
  8
268140580
100
AcDbLine
 62
7
  6
CONTINUOUS
 10
6.7369330503
 20
18.9725759616
 11
1.0152750842
 21
16.0613752384
  0
LINE
  5
2F0
100
AcDbEntity
  8
268140580
100
AcDbLine
 62
7
  6
CONTINUOUS
 10
6.7369330503
 20
19.3742836898
 11
0.7880925634
 21
16.3740601782
  0
LINE
  5
2F1
100
AcDbEntity
  8
268140580
100
AcDbLine
 62
250
  6
CONTINUOUS
 10
0.7750510837
 20
15.4771544022
 11
0.7759766777
 21
15.477620909
  0
LINE
  5
2F2
100
AcDbEntity
  8
0
100
AcDbLine
 62
7
  6
CONTINUOUS
 10
10.7301550276
 20
21.4755632793
 11
10.2351802808
 21
21.2280759059
  0
LINE
  5
2F3
100
AcDbEntity
  8
268140580
100
AcDbLine
 62
7
  6
CONTINUOUS
 10
0.573900506
 20
15.4313332463
 11
0.7212262546
 21
15.5049961206
  0
LINE
  5
2F4
100
AcDbEntity
  8
RACCORDO
100
AcDbLine
 62
7
  6
CONTINUOUS
 10
11.8868686291
 20
21.0003309761
 11
13.1983038853
 21
21.6560486042
  0
LINE
  5
2F5
100
AcDbEntity
  8
268140580
100
AcDbLine
 62
250
  6
CONTINUOUS
 10
1.2478530919
 20
17.3647800251
 11
-0.8734672517
 21
16.326792921
  0
LINE
  5
2F6
100
AcDbEntity
  8
268140580
100
AcDbLine
 62
250
  6
CONTINUOUS
 10
1.4952973804
 20
15.8213640903
 11
0.7833837825
 21
15.4776206052
  0
LWPOLYLINE
  5
2F7
100
AcDbEntity
  8
268140580
100
AcDbPolyline
 62
250
  6
CONTINUOUS
 90
31
 70
0
 10
-0.8734672517
 20
16.326792921
 10
-0.8829612954
 20
16.3222881654
 10
-0.8929138492
 20
16.3180380234
 10
-0.9032976339
 20
16.3140541443
 10
-0.9140841882
 20
16.3103474476
 10
-0.925243947
 20
16.3069280931
 10
-0.936746322
 20
16.3038054531
 10
-0.9485597862
 20
16.3009880864
 10
-0.9606519596
 20
16.2984837153
 10
-0.9729896984
 20
16.2962992041
 10
-0.9855391857
 20
16.2944405403
 10
-0.9982660242
 20
16.2929128185
 10
-1.0111353307
 20
16.291720226
 10
-1.0241118311
 20
16.2908660317
 10
-1.0371599579
 20
16.2903525768
 10
-1.050243947
 20
16.2901812686
 10
-1.063327936
 20
16.2903525768
 10
-1.0763760628
 20
16.2908660317
 10
-1.0893525632
 20
16.291720226
 10
-1.1022218697
 20
16.2929128185
 10
-1.1149487082
 20
16.2944405403
 10
-1.1274981955
 20
16.2962992041
 10
-1.1398359343
 20
16.2984837153
 10
-1.1519281077
 20
16.3009880864
 10
-1.1637415719
 20
16.3038054531
 10
-1.175243947
 20
16.3069280931
 10
-1.1864037057
 20
16.3103474476
 10
-1.19719026
 20
16.3140541443
 10
-1.2075740447
 20
16.3180380234
 10
-1.2175265985
 20
16.3222881654
 10
-1.2270206422
 20
16.326792921
  0
LWPOLYLINE
  5
2F8
100
AcDbEntity
  8
268140580
100
AcDbPolyline
 62
250
  6
CONTINUOUS
 90
31
 70
0
 10
-0.8734672517
 20
15.9584823924
 10
-0.8829506325
 20
15.9539824376
 10
-0.8928944145
 20
15.9497353646
 10
-0.9032717624
 20
15.9457530154
 10
-0.9140556466
 20
15.942046188
 10
-0.9252158906
 20
15.938625665
 10
-0.9367189121
 20
15.9355019086
 10
-0.9485319495
 20
15.9326837557
 10
-0.9606237834
 20
15.9301785956
 10
-0.972961585
 20
15.9279932437
 10
-0.9855117645
 20
15.9261336863
 10
-0.9982397252
 20
15.9246050857
 10
-1.0111102588
 20
15.9234116836
 10
-1.0240879599
 20
15.9225567582
 10
-1.0371373682
 20
15.9220426407
 10
-1.0502227404
 20
15.9218707405
 10
-1.0633082242
 20
15.9220415321
 10
-1.0763579236
 20
15.9225545502
 10
-1.0893360302
 20
15.9234083885
 10
-1.1022069532
 20
15.9246007049
 10
-1.1149354169
 20
15.9261282313
 10
-1.1274865252
 20
15.9279867797
 10
-1.1398258874
 20
15.9301712585
 10
-1.1519196549
 20
15.9326756762
 10
-1.1637346177
 20
15.9354931529
 10
-1.1752383548
 20
15.9386159503
 10
-1.1863993693
 20
15.942035511
 10
-1.1971871152
 20
15.9457424733
 10
-1.2075720334
 20
15.9497266805
 10
-1.2175256381
 20
15.9539772045
 10
-1.2270206422
 20
15.9584823924
  0
LWPOLYLINE
  5
2F9
100
AcDbEntity
  8
268140580
100
AcDbPolyline
 62
250
  6
CONTINUOUS
 90
13
 70
0
 10
0.682167667
 20
15.6622435221
 10
0.6761552653
 20
15.6593939217
 10
0.6701245158
 20
15.65685112
 10
0.6640866707
 20
15.6546244723
 10
0.6580530955
 20
15.6527228339
 10
0.65203576
 20
15.6511546899
 10
0.646047203
 20
15.6499280229
 10
0.6400922972
 20
15.6490492087
 10
0.6341910657
 20
15.6485266697
 10
0.628378052
 20
15.6483663552
 10
0.6226675242
 20
15.6485692868
 10
0.6170680029
 20
15.6491358019
 10
0.6158827061
 20
15.6493369339
  0
LWPOLYLINE
  5
2FA
100
AcDbEntity
  8
268140580
100
AcDbPolyline
 62
250
  6
CONTINUOUS
 90
28
 70
0
 10
-0.1663604705
 20
15.562035783
 10
-0.1769381994
 20
15.5570459967
 10
-0.1880782929
 20
15.5523721725
 10
-0.1997430567
 20
15.5480301251
 10
-0.2118930207
 20
15.5440345466
 10
-0.2244870733
 20
15.5403989568
 10
-0.2374826003
 20
15.5371356573
 10
-0.2508356289
 20
15.5342556901
 10
-0.2645009767
 20
15.5317688002
 10
-0.2784324045
 20
15.5296834024
 10
-0.2925827727
 20
15.5280065529
 10
-0.3069042009
 20
15.5267439258
 10
-0.3213482301
 20
15.5258997934
 10
-0.3358659861
 20
15.5254770119
 10
-0.3504083454
 20
15.5254770119
 10
-0.3649261015
 20
15.5258997934
 10
-0.3793701306
 20
15.5267439258
 10
-0.3936915588
 20
15.5280065529
 10
-0.407841927
 20
15.5296834024
 10
-0.4217733548
 20
15.5317688002
 10
-0.4354387026
 20
15.5342556901
 10
-0.4487917312
 20
15.5371356573
 10
-0.4617872582
 20
15.5403989567
 10
-0.4743813108
 20
15.5440345466
 10
-0.4865312749
 20
15.5480301251
 10
-0.4981960386
 20
15.5523721725
 10
-0.5093361322
 20
15.5570459967
 10
-0.5199138611
 20
15.562035783
  0
LWPOLYLINE
  5
2FB
100
AcDbEntity
  8
SMUSSO
100
AcDbPolyline
 62
7
  6
CONTINUOUS
 90
88
 70
0
 10
14.057173204
 20
21.1264925122
 10
14.0030703499
 20
21.1009698101
 10
13.9478025779
 20
21.0761128427
 10
13.8913698882
 20
21.0519216101
 10
13.8337406041
 20
21.028383946
 10
13.7749464021
 20
21.0055120166
 10
13.7150823122
 20
20.9833423207
 10
13.6541471321
 20
20.9618760491
 10
13.5921420641
 20
20.941112011
 10
13.5291657435
 20
20.9210831323
 10
13.4652145381
 20
20.9017899948
 10
13.4002920802
 20
20.8832320167
 10
13.3345079027
 20
20.865440379
 10
13.2678624964
 20
20.8484168655
 10
13.2003553704
 20
20.8321596924
 10
13.1320945852
 20
20.8166946898
 10
13.0630778259
 20
20.8020228728
 10
12.9933074074
 20
20.7881432263
 10
12.9228983341
 20
20.7750785344
 10
12.8518491844
 20
20.7628301388
 10
12.78016138
 20
20.7513966979
 10
12.7079541904
 20
20.7407969703
 10
12.6352292361
 20
20.7310325858
 10
12.5619848968
 20
20.7221019146
 10
12.4883355805
 20
20.7140188265
 10
12.4142757147
 20
20.7067842942
 10
12.3398108719
 20
20.7003973449
 10
12.2650721789
 20
20.6948689296
 10
12.1900667235
 20
20.6902008809
 10
12.1147874178
 20
20.6863913663
 10
12.0393441243
 20
20.6834458391
 10
11.9637267421
 20
20.6813654584
 10
11.887945372
 20
20.6801490652
 10
11.812140179
 20
20.6797986358
 10
11.7363230969
 20
20.6803155032
 10
11.660482192
 20
20.6816983344
 10
11.5847218279
 20
20.6839451074
 10
11.5090295912
 20
20.6870576502
 10
11.4334178954
 20
20.6910341347
 10
11.3580283441
 20
20.6958670542
 10
11.2828729762
 20
20.7015570209
 10
11.207939753
 20
20.7081034226
 10
11.1333341612
 20
20.7154969163
 10
11.0590466472
 20
20.72373987
 10
10.9850867648
 20
20.7328299156
 10
10.9115886616
 20
20.7427506053
 10
10.8385604846
 20
20.753502366
 10
10.7659940869
 20
20.7650847709
 10
10.6939991759
 20
20.7774800922
 10
10.622572726
 20
20.790690227
 10
10.5517177629
 20
20.8047132783
 10
10.4815530706
 20
20.8195258265
 10
10.4120799879
 20
20.8351292717
 10
10.343297176
 20
20.8515222139
 10
10.2753194025
 20
20.8686770328
 10
10.2081515219
 20
20.8865938918
 10
10.1417886796
 20
20.9052726276
 10
10.0763310793
 20
20.9246851292
 10
10.0117733349
 20
20.9448348398
 10
9.9481208324
 20
20.9657183162
 10
9.8854899339
 20
20.9872971179
 10
9.8238917965
 20
21.009568897
 10
9.7633152632
 20
21.0325360014
 10
9.7038432247
 20
21.0561670346
 10
9.6454664376
 20
21.0804676616
 10
9.5881941454
 20
21.1054322173
 10
9.5321369692
 20
21.1310123098
 10
9.4773086513
 20
21.1572033741
 10
9.4236954493
 20
21.184009975
 10
9.3713667579
 20
21.2113974155
 10
9.3203135477
 20
21.2393725162
 10
9.270544848
 20
21.2679284564
 10
9.2221571406
 20
21.2970100766
 10
9.1751618011
 20
21.3266127324
 10
9.1295474539
 20
21.3567410683
 10
9.0853764531
 20
21.3873538583
 10
9.0426442438
 20
21.4184566105
 10
9.0013553809
 20
21.4500438167
 10
8.9615858828
 20
21.4820577274
 10
8.9233426689
 20
21.5144956329
 10
8.8866188198
 20
21.5473602429
 10
8.8514695966
 20
21.5806019357
 10
8.8178954394
 20
21.6142230822
 10
8.7858959081
 20
21.6482213116
 10
8.7555249427
 20
21.6825398904
 10
8.726785434
 20
21.7171794428
 10
8.6996744912
 20
21.7521393445
 10
8.6760835751
 20
21.7847151939
  0
LWPOLYLINE
  5
2FC
100
AcDbEntity
  8
RACCORDO
100
AcDbPolyline
 62
7
  6
CONTINUOUS
 90
10
 70
0
 10
14.046834752
 20
21.2317859001
 10
14.0582312162
 20
21.2369545553
 10
14.0694516187
 20
21.2410064517
 10
14.0804959594
 20
21.2439415892
 10
14.0914592184
 20
21.2457601206
 10
14.1022464155
 20
21.246461893
 10
14.112572611
 20
21.2460464487
 10
14.1223428247
 20
21.2445136348
 10
14.1316520367
 20
21.2418636041
 10
14.140500247
 20
21.2380963565
  0
LWPOLYLINE
  5
2FD
100
AcDbEntity
  8
268140580
100
AcDbPolyline
 62
250
  6
CONTINUOUS
 90
16
 70
0
 10
0.7833837825
 20
15.4776206052
 10
0.7829707591
 20
15.4774598598
 10
0.7825291696
 20
15.4773214651
 10
0.7820590139
 20
15.4772054211
 10
0.7815536711
 20
15.4771114884
 10
0.781019762
 20
15.4770399064
 10
0.78047715
 20
15.4769913936
 10
0.7799258352
 20
15.47696595
 10
0.7793658174
 20
15.4769635755
 10
0.7788169599
 20
15.4769849885
 10
0.7782792628
 20
15.4770301892
 10
0.777752726
 20
15.4770991775
 10
0.7772572128
 20
15.4771926717
 10
0.7767993442
 20
15.4773109115
 10
0.7763724992
 20
15.4774536572
 10
0.7759766777
 20
15.477620909
  0
LINE
  5
2FE
100
AcDbEntity
  8
268140580
100
AcDbLine
 62
7
  6
CONTINUOUS
 10
-1.0271988939
 20
-15.4521463901
 11
-1.395669767
 21
-15.2679109535
  0
LINE
  5
2FF
100
AcDbEntity
  8
268140580
100
AcDbLine
 62
7
  6
CONTINUOUS
 10
-1.7927060672
 20
-14.1298330702
 11
-1.6077839964
 21
-14.2222941055
  0
LWPOLYLINE
  5
300
100
AcDbEntity
  8
268140580
100
AcDbPolyline
 62
250
  6
CONTINUOUS
 90
28
 70
0
 10
-0.3431371658
 20
-24.700956704
 10
-0.3485755693
 20
-24.6924746722
 10
-0.3545937274
 20
-24.6837222627
 10
-0.3611712765
 20
-24.6747290909
 10
-0.3682859602
 20
-24.6655255868
 10
-0.3759137048
 20
-24.6561428922
 10
-0.3840287003
 20
-24.6466127552
 10
-0.3926034882
 20
-24.6369674228
 10
-0.4016090541
 20
-24.6272395316
 10
-0.411014926
 20
-24.6174619978
 10
-0.4207892774
 20
-24.6076679054
 10
-0.430899035
 20
-24.5978903947
 10
-0.4413099907
 20
-24.5881625495
 10
-0.4519869169
 20
-24.5785172858
 10
-0.4628936864
 20
-24.5689872402
 10
-0.4739933942
 20
-24.5596046593
 10
-0.4852484823
 20
-24.5504012908
 10
-0.496620867
 20
-24.5414082759
 10
-0.5080720679
 20
-24.5326560442
 10
-0.5195633376
 20
-24.5241742105
 10
-0.5310557934
 20
-24.5159914746
 10
-0.5425105484
 20
-24.5081355243
 10
-0.5538888434
 20
-24.5006329417
 10
-0.5651521778
 20
-24.4935091131
 10
-0.5762624401
 20
-24.4867881432
 10
-0.5871820366
 20
-24.4804927738
 10
-0.5978740189
 20
-24.4746443063
 10
-0.6083022087
 20
-24.4692625302
  0
LWPOLYLINE
  5
301
100
AcDbEntity
  8
268140580
100
AcDbPolyline
 62
250
  6
CONTINUOUS
 90
31
 70
0
 10
-0.8734672517
 20
-25.341121747
 10
-0.8783298099
 20
-25.3335090455
 10
-0.8836641099
 20
-25.3256731896
 10
-0.8894559462
 20
-25.317635444
 10
-0.8956904457
 20
-25.3094168765
 10
-0.9023503671
 20
-25.3010406126
 10
-0.9094157551
 20
-25.2925319099
 10
-0.9168664567
 20
-25.2839149832
 10
-0.9246827521
 20
-25.2752125872
 10
-0.9328434274
 20
-25.2664483528
 10
-0.9413262833
 20
-25.2576461522
 10
-0.9501079535
 20
-25.2488302613
 10
-0.9591641526
 20
-25.2400250709
 10
-0.9684699658
 20
-25.2312548016
 10
-0.9779999632
 20
-25.2225434159
 10
-0.9877280422
 20
-25.2139147753
 10
-0.9976275509
 20
-25.2053925222
 10
-1.0076713345
 20
-25.1970000359
 10
-1.0178318336
 20
-25.1887603457
 10
-1.0280811841
 20
-25.1806960479
 10
-1.038391295
 20
-25.1728292442
 10
-1.0487339005
 20
-25.1651815023
 10
-1.0590806615
 20
-25.1577737776
 10
-1.069403196
 20
-25.1506263908
 10
-1.0796731565
 20
-25.1437589679
 10
-1.089862358
 20
-25.1371903517
 10
-1.0999428992
 20
-25.1309385244
 10
-1.1098871898
 20
-25.1250205956
 10
-1.119667982
 20
-25.1194527807
 10
-1.1292584475
 20
-25.1142503526
 10
-1.1386322946
 20
-25.1094275732
  0
LWPOLYLINE
  5
302
100
AcDbEntity
  8
0
100
AcDbPolyline
 62
250
  6
CONTINUOUS
 90
3
 70
0
 10
-12.3617869248
 20
-5.5870629398
 10
-12.3639524305
 20
-4.0766493167
 10
-12.3617869249
 20
-2.5559740725
  0
LINE
  5
303
100
AcDbEntity
  8
268140580
100
AcDbLine
 62
250
  6
CONTINUOUS
 10
-12.8235718537
 20
22.2701203116
 11
-12.8235718537
 21
22.5977482558
  0
LINE
  5
304
100
AcDbEntity
  8
268140580
100
AcDbLine
 62
7
  6
CONTINUOUS
 10
-12.750348549
 20
22.3585086593
 11
-12.750348549
 21
22.6861366034
  0
LINE
  5
305
100
AcDbEntity
  8
268140580
100
AcDbLine
 62
250
  6
CONTINUOUS
 10
-12.1164650725
 20
23.7013016464
 11
-12.1164650725
 21
24.0469391074
  0
LINE
  5
306
100
AcDbEntity
  8
268140580
100
AcDbLine
 62
7
  6
CONTINUOUS
 10
-12.0432417678
 20
23.789689994
 11
-12.0432417678
 21
24.135327455
  0
LWPOLYLINE
  5
307
100
AcDbEntity
  8
268140580
100
AcDbPolyline
 62
250
  6
CONTINUOUS
 90
16
 70
0
 10
0.7685809386
 20
15.4697444402
 10
0.7689017265
 20
15.4699740241
 10
0.7691779445
 20
15.4702173908
 10
0.7694095925
 20
15.4704745401
 10
0.7695971805
 20
15.4707490001
 10
0.7697401985
 20
15.4710372428
 10
0.769837117
 20
15.4713286843
 10
0.7698879361
 20
15.4716233245
 10
0.7698926557
 20
15.4719211634
 10
0.7698497463
 20
15.4722116171
 10
0.7697592079
 20
15.4724946856
 10
0.7696210405
 20
15.4727703689
 10
0.7694337145
 20
15.473028083
 10
0.7691967202
 20
15.4732643
 10
0.7689105673
 20
15.4734825478
 10
0.7685752558
 20
15.4736828265
  0
LWPOLYLINE
  5
308
100
AcDbEntity
  8
RACCORDO
100
AcDbPolyline
 62
250
  6
CONTINUOUS
 90
22
 70
0
 10
-4.4122216983
 20
11.8500440841
 10
-4.462808196
 20
11.8202446287
 10
-4.5125410661
 20
11.7867215285
 10
-4.5614203087
 20
11.7494747835
 10
-4.6096999112
 20
11.7082736391
 10
-4.6571258862
 20
11.66334885
 10
-4.7029362716
 20
11.6153926794
 10
-4.7470901833
 20
11.5643658481
 10
-4.7896285055
 20
11.5103076354
 10
-4.8299119279
 20
11.4540281427
 10
-4.8678996717
 20
11.3955053881
 10
-4.9036325157
 20
11.3347613535
 10
-4.9365934862
 20
11.2726720854
 10
-4.9667487159
 20
11.2092018186
 10
-4.9941320721
 20
11.1443863184
 10
-5.0183281821
 20
11.0792089273
 10
-5.0392848908
 20
11.0136518654
 10
-5.0570543533
 20
10.9477329126
 10
-5.0713776621
 20
10.8824887512
 10
-5.0821685146
 20
10.8182649419
 10
-5.0895132134
 20
10.7547159241
 10
-5.0934117585
 20
10.6918416978
  0
LWPOLYLINE
  5
309
100
AcDbEntity
  8
ASSI
100
AcDbPolyline
 62
250
  6
CONTINUOUS
 90
22
 70
0
 10
-4.4122216983
 20
11.8500440841
 10
-4.4628475259
 20
11.8202169201
 10
-4.5126122087
 20
11.786668319
 10
-4.5615157469
 20
11.7493982806
 10
-4.6098096603
 20
11.7081779017
 10
-4.657242429
 20
11.6632360856
 10
-4.703059493
 20
11.6152595419
 10
-4.74722447
 20
11.5642035717
 10
-4.7897737424
 20
11.5101128738
 10
-4.8300618967
 20
11.4538082552
 10
-4.8680452265
 20
11.3952706766
 10
-4.9037674383
 20
11.3345191771
 10
-4.9367142389
 20
11.2724316811
 10
-4.9668505308
 20
11.2089765559
 10
-4.9942114115
 20
11.1441854342
 10
-5.0183878806
 20
11.0790311381
 10
-5.0393304299
 20
11.013489151
 10
-5.0570885676
 20
10.9475839894
 10
-5.0714018169
 20
10.8823620261
 10
-5.0821833524
 20
10.8181720518
 10
-5.0895199996
 20
10.7546652757
 10
-5.0934117585
 20
10.6918416978
  0
LINE
  5
30A
100
AcDbEntity
  8
268140580
100
AcDbLine
 62
250
  6
CONTINUOUS
 10
1.0612471306
 20
14.9873424836
 11
-0.0204402621
 21
14.3968175414
  0
LINE
  5
30B
100
AcDbEntity
  8
ASSI
100
AcDbLine
 62
250
  6
CONTINUOUS
 10
-2.2243756928
 20
13.0444535268
 11
-4.4122216983
 21
11.8500440841
  0
LINE
  5
30C
100
AcDbEntity
  8
RACCORDO
100
AcDbLine
 62
250
  6
CONTINUOUS
 10
-2.2243756928
 20
13.0444535268
 11
-4.4122216983
 21
11.8500440841
  0
LINE
  5
30D
100
AcDbEntity
  8
268140580
100
AcDbLine
 62
7
  6
CONTINUOUS
 10
-1.8180271982
 20
13.5205863627
 11
-2.2717276769
 21
13.2847995674
  0
LINE
  5
30E
100
AcDbEntity
  8
RACCORDO
100
AcDbLine
 62
250
  6
CONTINUOUS
 10
18.7452626694
 20
21.859475219
 11
1.7781831778
 21
13.2274262346
  0
LINE
  5
30F
100
AcDbEntity
  8
ASSI
100
AcDbLine
 62
7
  6
CONTINUOUS
 10
-1.7927060672
 20
12.284383641
 11
-2.2243756928
 21
12.0668844673
  0
LINE
  5
310
100
AcDbEntity
  8
DRAFT
100
AcDbLine
 62
7
  6
CONTINUOUS
 10
-2.2243756928
 20
12.0668844673
 11
-1.7927060672
 21
12.284383641
  0
LINE
  5
311
100
AcDbEntity
  8
RACCORDO
100
AcDbLine
 62
7
  6
CONTINUOUS
 10
13.2928745475
 20
20.8548057978
 11
14.0468056017
 21
21.2317713249
  0
LINE
  5
312
100
AcDbEntity
  8
RACCORDO
100
AcDbLine
 62
250
  6
CONTINUOUS
 10
18.6383608297
 20
22.0438536187
 11
18.6756635278
 21
22.0622309996
  0
LINE
  5
313
100
AcDbEntity
  8
RACCORDO
100
AcDbLine
 62
250
  6
CONTINUOUS
 10
18.7452626694
 20
21.859475219
 11
18.7825413013
 21
21.8778408574
  0
LINE
  5
314
100
AcDbEntity
  8
268140580
100
AcDbLine
 62
250
  6
CONTINUOUS
 10
-1.1748238563
 20
12.8298210055
 11
-2.03793359
 21
12.4069974024
  0
LINE
  5
315
100
AcDbEntity
  8
RACCORDO
100
AcDbLine
 62
250
  6
CONTINUOUS
 10
7.7585263403
 20
17.5053977554
 11
18.1384369821
 21
22.547429878
  0
LINE
  5
316
100
AcDbEntity
  8
RACCORDO
100
AcDbLine
 62
250
  6
CONTINUOUS
 10
8.0961946741
 20
16.9230060283
 11
18.6383608297
 21
22.0438536187
  0
LWPOLYLINE
  5
317
100
AcDbEntity
  8
268140580
100
AcDbPolyline
 62
7
  6
CONTINUOUS
 90
51
 70
0
 10
-1.8180311303
 20
13.5205941122
 10
-1.8077264498
 20
13.5255931533
 10
-1.7934478904
 20
13.5314094501
 10
-1.7786397704
 20
13.5362053537
 10
-1.7633324286
 20
13.5399700144
 10
-1.7476393682
 20
13.5426606768
 10
-1.7315469947
 20
13.544261851
 10
-1.7150689027
 20
13.5447890271
 10
-1.698359379
 20
13.5442459201
 10
-1.6814530994
 20
13.5426288783
 10
-1.6643153882
 20
13.5399415535
 10
-1.6469965046
 20
13.536198616
 10
-1.6294810251
 20
13.5313981564
 10
-1.6117843732
 20
13.525542084
 10
-1.5940030794
 20
13.5186507975
 10
-1.5761130601
 20
13.5107030001
 10
-1.5581383988
 20
13.5017199884
 10
-1.5402478763
 20
13.4917860509
 10
-1.5224653152
 20
13.4809037227
 10
-1.5047668928
 20
13.4690704686
 10
-1.4872499213
 20
13.4563629709
 10
-1.4699302445
 20
13.4427950155
 10
-1.4527920186
 20
13.4283528164
 10
-1.435885024
 20
13.4130716987
 10
-1.4191745939
 20
13.3969134874
 10
-1.4026953952
 20
13.3799163574
 10
-1.3866012088
 20
13.3622301585
 10
-1.3709052181
 20
13.3438524992
 10
-1.3555942398
 20
13.3247857711
 10
-1.3407825052
 20
13.3051869982
 10
-1.3265005909
 20
13.2850975456
 10
-1.3127179202
 20
13.2644760482
 10
-1.2994569947
 20
13.2433554357
 10
-1.2866897024
 20
13.2216882506
 10
-1.2744441551
 20
13.1995219503
 10
-1.2628271903
 20
13.177031836
 10
-1.2518450183
 20
13.1542050833
 10
-1.2414914288
 20
13.1310545167
 10
-1.2318546278
 20
13.1077939106
 10
-1.222959183
 20
13.0844770377
 10
-1.2147805267
 20
13.0610501253
 10
-1.207333162
 20
13.03756563
 10
-1.2006061896
 20
13.0139912639
 10
-1.1946105089
 20
12.9903593149
 10
-1.1893933211
 20
12.9668191023
 10
-1.1849595858
 20
12.9433456555
 10
-1.1813043434
 20
12.9199639452
 10
-1.178459917
 20
12.896898202
 10
-1.1764370809
 20
12.8742231694
 10
-1.1752250606
 20
12.8518641039
 10
-1.1748238563
 20
12.8298210055
  0
LINE
  5
318
100
AcDbEntity
  8
268140580
100
AcDbLine
 62
250
  6
CONTINUOUS
 10
1.7781831778
 20
15.3335110301
 11
1.0612471306
 21
14.9873424836
  0
LINE
  5
319
100
AcDbEntity
  8
268140580
100
AcDbLine
 62
7
  6
CONTINUOUS
 10
-0.0204402621
 20
13.4258253125
 11
0.5513524018
 21
13.7019121911
  0
LWPOLYLINE
  5
31A
100
AcDbEntity
  8
RACCORDO
100
AcDbPolyline
 62
250
  6
CONTINUOUS
 90
31
 70
0
 10
18.6756635278
 20
22.0622309996
 10
18.7113319757
 20
22.079457948
 10
18.7285200072
 20
22.0876238611
 10
18.7452601156
 20
22.095483239
 10
18.7615398676
 20
22.1030302435
 10
18.7773471367
 20
22.1102592525
 10
18.7926701361
 20
22.1171648751
 10
18.8074974613
 20
22.1237419718
 10
18.8218180977
 20
22.1299856569
 10
18.8356213983
 20
22.1358912883
 10
18.8488970997
 20
22.1414544749
 10
18.8616353288
 20
22.1466710794
 10
18.8738266118
 20
22.1515372218
 10
18.8854618828
 20
22.1560492836
 10
18.8965324902
 20
22.1602039098
 10
18.907030202
 20
22.163998011
 10
18.9169472122
 20
22.1674287659
 10
18.9262761463
 20
22.1704936236
 10
18.9350100676
 20
22.1731903048
 10
18.9431424813
 20
22.1755168043
 10
18.9506673403
 20
22.1774713923
 10
18.9575790491
 20
22.1790526152
 10
18.9638724681
 20
22.1802592972
 10
18.9695429176
 20
22.1810905412
 10
18.974586181
 20
22.1815457288
 10
18.9789985081
 20
22.1816245218
 10
18.982776618
 20
22.1813268614
 10
18.9859177013
 20
22.1806529691
 10
18.9884194222
 20
22.1796033459
 10
18.9902799205
 20
22.1781787723
 10
18.9912040785
 20
22.1769519762
  0
LWPOLYLINE
  5
31B
100
AcDbEntity
  8
RACCORDO
100
AcDbPolyline
 62
250
  6
CONTINUOUS
 90
31
 70
0
 10
18.7825413013
 20
21.8778408574
 10
18.8181878611
 20
21.8950575917
 10
18.8353658329
 20
21.9032190038
 10
18.8520964831
 20
21.9110742906
 10
18.8683673875
 20
21.9186176186
 10
18.8841664631
 20
21.9258433864
 10
18.8994819776
 20
21.9327462278
 10
18.9143025574
 20
21.9393210168
 10
18.9286171968
 20
21.945562871
 10
18.9424152657
 20
21.9514671551
 10
18.9556865175
 20
21.9570294846
 10
18.9684210969
 20
21.9622457289
 10
18.9806095471
 20
21.9671120142
 10
18.992242817
 20
21.971624727
 10
19.0033122676
 20
21.975780516
 10
19.0138096786
 20
21.9795762952
 10
19.0237272547
 20
21.9830092457
 10
19.033057631
 20
21.9860768182
 10
19.0417938786
 20
21.9887767348
 10
19.0499295101
 20
21.9911069904
 10
19.0574584839
 20
21.9930658546
 10
19.0643752088
 20
21.9946518728
 10
19.0706745485
 20
21.9958638672
 10
19.0763518251
 20
21.9967009376
 10
19.0814028226
 20
21.9971624626
 10
19.0858237901
 20
21.9972480993
 10
19.0896114445
 20
21.9969577843
 10
19.0927629732
 20
21.996291733
 10
19.0952760357
 20
21.9952504401
 10
19.097148766
 20
21.9938346788
 10
19.0981059033
 20
21.9925736021
  0
LINE
  5
31C
100
AcDbEntity
  8
RACCORDO
100
AcDbLine
 62
7
  6
CONTINUOUS
 10
17.5943604523
 20
22.8194681429
 11
14.057173204
 21
21.1264925122
  0
LWPOLYLINE
  5
31D
100
AcDbEntity
  8
RACCORDO
100
AcDbPolyline
 62
250
  6
CONTINUOUS
 90
26
 70
0
 10
18.1384369821
 20
22.547429878
 10
18.1576968943
 20
22.5563264891
 10
18.1769333397
 20
22.5645688941
 10
18.1961320333
 20
22.5721509721
 10
18.2152787178
 20
22.5790670927
 10
18.234359175
 20
22.58531212
 10
18.2533592356
 20
22.5908814162
 10
18.27226479
 20
22.5957708457
 10
18.2910617988
 20
22.5999767775
 10
18.3097363034
 20
22.6034960883
 10
18.3282744358
 20
22.6063261645
 10
18.3466624296
 20
22.6084649047
 10
18.3648866298
 20
22.6099107204
 10
18.3829335029
 20
22.6106625382
 10
18.4007896473
 20
22.6107197996
 10
18.4184418029
 20
22.6100824622
 10
18.435876861
 20
22.6087509991
 10
18.4530818744
 20
22.6067263993
 10
18.4700440665
 20
22.6040101661
 10
18.4867508411
 20
22.6006043167
 10
18.5031897916
 20
22.5965113802
 10
18.5193487104
 20
22.5917343961
 10
18.5352155977
 20
22.5862769118
 10
18.5507786708
 20
22.5801429801
 10
18.5660263724
 20
22.5733371561
 10
18.5733098627
 20
22.5697932076
  0
LWPOLYLINE
  5
31E
100
AcDbEntity
  8
ASSI
100
AcDbPolyline
 62
250
  6
CONTINUOUS
 90
16
 70
0
 10
-5.0934117585
 20
10.6918416978
 10
-5.1324210153
 20
10.6767056219
 10
-5.174733769
 20
10.663658565
 10
-5.219896659
 20
10.6528403199
 10
-5.2674257871
 20
10.6443667986
 10
-5.3168119022
 20
10.6383287909
 10
-5.367525856
 20
10.634790991
 10
-5.4190242736
 20
10.6337913048
 10
-5.4707553746
 20
10.6353404433
 10
-5.5221648857
 20
10.6394218084
 10
-5.5727019791
 20
10.6459916702
 10
-5.6218251748
 20
10.6549796358
 10
-5.6690081416
 20
10.6662894038
 10
-5.7137453374
 20
10.6797997956
 10
-5.7555574249
 20
10.6953660539
 10
-5.7939964081
 20
10.712821394
  0
LWPOLYLINE
  5
31F
100
AcDbEntity
  8
RACCORDO
100
AcDbPolyline
 62
250
  6
CONTINUOUS
 90
16
 70
0
 10
-5.0934117585
 20
10.6918416978
 10
-5.1324210153
 20
10.6767056218
 10
-5.174733769
 20
10.6636585648
 10
-5.219896659
 20
10.6528403195
 10
-5.2674257872
 20
10.6443667982
 10
-5.3168119023
 20
10.6383287904
 10
-5.3675258563
 20
10.6347909905
 10
-5.419024274
 20
10.6337913043
 10
-5.4707553752
 20
10.6353404428
 10
-5.5221648864
 20
10.6394218079
 10
-5.57270198
 20
10.6459916697
 10
-5.6218251757
 20
10.6549796353
 10
-5.6690081427
 20
10.6662894033
 10
-5.7137453386
 20
10.6797997951
 10
-5.7555574262
 20
10.6953660534
 10
-5.7939964095
 20
10.7128213933
  0
LWPOLYLINE
  5
320
100
AcDbEntity
  8
268140580
100
AcDbPolyline
 62
7
  6
CONTINUOUS
 90
15
 70
0
 10
0.6240956462
 20
-23.8571711323
 10
0.6240791605
 20
-23.8571428818
 10
0.623744998
 20
-23.8565248117
 10
0.6231009979
 20
-23.8551817231
 10
0.6222276782
 20
-23.8531085435
 10
0.6212115599
 20
-23.8503467687
 10
0.6201127346
 20
-23.8469027546
 10
0.61898357
 20
-23.8427775909
 10
0.6178746548
 20
-23.8379833842
 10
0.6168308293
 20
-23.832527121
 10
0.6158944298
 20
-23.8264206651
 10
0.6151035429
 20
-23.8196653874
 10
0.614495374
 20
-23.8122669672
 10
0.6141062848
 20
-23.8042469464
 10
0.6139696154
 20
-23.7956266181
  0
LINE
  5
321
100
AcDbEntity
  8
268140580
100
AcDbLine
 62
7
  6
CONTINUOUS
 10
-10.5101241262
 20
21.6913224913
 11
-10.5101241262
 21
20.430594864
  0
LINE
  5
322
100
AcDbEntity
  8
268140580
100
AcDbLine
 62
250
  6
CONTINUOUS
 10
-10.4222561605
 20
21.5859205529
 11
-10.4222561605
 21
20.3205408302
  0
LINE
  5
323
100
AcDbEntity
  8
268140580
100
AcDbLine
 62
250
  6
CONTINUOUS
 10
0.717523006
 20
16.3789775212
 11
1.2478530919
 21
17.0191425642
  0
LINE
  5
324
100
AcDbEntity
  8
268140580
100
AcDbLine
 62
7
  6
CONTINUOUS
 10
0.7332653488
 20
16.3078778757
 11
1.2635954347
 21
16.9480429186
  0
LWPOLYLINE
  5
325
100
AcDbEntity
  8
268140580
100
AcDbPolyline
 62
250
  6
CONTINUOUS
 90
9
 70
0
 10
0.78469358
 20
15.472033885
 10
0.7858399187
 20
15.4732569924
 10
0.786197573
 20
15.4738900871
 10
0.7862780519
 20
15.4745809342
 10
0.7861457235
 20
15.4752946707
 10
0.7857895159
 20
15.4759619992
 10
0.7852074468
 20
15.4765605826
 10
0.7844050115
 20
15.4771134517
 10
0.7833837825
 20
15.4776206052
  0
LWPOLYLINE
  5
326
100
AcDbEntity
  8
RACCORDO
100
AcDbPolyline
 62
250
  6
CONTINUOUS
 90
30
 70
0
 10
19.159413145
 20
20.4278416444
 10
19.1780742836
 20
20.4377709874
 10
19.1961873786
 20
20.4479508854
 10
19.2137389792
 20
20.4583737787
 10
19.2307160514
 20
20.4690319272
 10
19.247105988
 20
20.4799174162
 10
19.2628966178
 20
20.491022162
 10
19.2780762144
 20
20.5023379181
 10
19.2926335055
 20
20.5138562815
 10
19.3065576807
 20
20.5255686985
 10
19.3198383999
 20
20.5374664714
 10
19.3324658007
 20
20.5495407649
 10
19.3444305059
 20
20.5617826125
 10
19.3557236306
 20
20.5741829233
 10
19.3663367883
 20
20.5867324889
 10
19.3762620977
 20
20.5994219899
 10
19.3854921881
 20
20.6122420028
 10
19.3940202054
 20
20.6251830077
 10
19.4018398164
 20
20.6382353943
 10
19.4089452144
 20
20.6513894699
 10
19.4153311227
 20
20.6646354662
 10
19.4209927993
 20
20.6779635467
 10
19.4259260397
 20
20.6913638138
 10
19.4301271805
 20
20.7048263165
 10
19.4335931019
 20
20.7183410575
 10
19.43632123
 20
20.7318980005
 10
19.4383095389
 20
20.7454870781
 10
19.4395565522
 20
20.7590981991
 10
19.4400613438
 20
20.7727212557
 10
19.4400733447
 20
20.7751693198
  0
LINE
  5
327
100
AcDbEntity
  8
RACCORDO
100
AcDbLine
 62
250
  6
CONTINUOUS
 10
19.159413145
 20
20.4278416444
 11
1.7781831778
 21
11.5850924511
  0
LINE
  5
328
100
AcDbEntity
  8
0
100
AcDbLine
 62
250
  6
CONTINUOUS
 10
-15.1902140285
 20
-4.172849388
 11
-15.7205441196
 21
-3.9076843424
  0
LINE
  5
329
100
AcDbEntity
  8
0
100
AcDbLine
 62
250
  6
CONTINUOUS
 10
-14.1316752468
 20
-2.9721892207
 11
-13.0710149908
 21
-3.5025193488
  0
LINE
  5
32A
100
AcDbEntity
  8
0
100
AcDbLine
 62
250
  6
CONTINUOUS
 10
-12.3639082517
 20
-3.8560727183
 11
-11.3032479957
 21
-4.3864028463
  0
LWPOLYLINE
  5
32B
100
AcDbEntity
  8
268140580
100
AcDbPolyline
 62
7
  6
CONTINUOUS
 90
25
 70
0
 10
-12.6821504975
 20
22.3444026043
 10
-12.6804055654
 20
22.3301990368
 10
-12.6791014603
 20
22.3163656521
 10
-12.6782381822
 20
22.3029024502
 10
-12.6777463674
 20
22.2898002766
 10
-12.6776953797
 20
22.2770682859
 10
-12.6782933101
 20
22.2647339412
 10
-12.6796011091
 20
22.2527891432
 10
-12.6815578262
 20
22.2412419913
 10
-12.6841887022
 20
22.2301442474
 10
-12.6875289415
 20
22.2195141126
 10
-12.6915433395
 20
22.2093333858
 10
-12.6961515236
 20
22.199599225
 10
-12.7013502415
 20
22.1903321055
 10
-12.7071427454
 20
22.1815115519
 10
-12.713458419
 20
22.1730732971
 10
-12.7203028276
 20
22.1650026361
 10
-12.7276704058
 20
22.1573142738
 10
-12.7354738413
 20
22.1499880571
 10
-12.7437157033
 20
22.1430210897
 10
-12.7523934226
 20
22.1364162679
 10
-12.7614119798
 20
22.1301621274
 10
-12.7707397015
 20
22.1242548466
 10
-12.7804082611
 20
22.1186982469
 10
-12.7904176584
 20
22.1134923285
  0
LWPOLYLINE
  5
32C
100
AcDbEntity
  8
ASSI
100
AcDbPolyline
 62
250
  6
CONTINUOUS
 90
22
 70
0
 10
-5.0934117585
 20
-24.817570406
 10
-5.0895132134
 20
-24.8766798512
 10
-5.0821685147
 20
-24.9331361758
 10
-5.0713776622
 20
-24.9869393799
 10
-5.0570543534
 20
-25.0383516828
 10
-5.0392848909
 20
-25.0871108651
 10
-5.0183281821
 20
-25.1324302687
 10
-4.9941320722
 20
-25.174241748
 10
-4.9667487159
 20
-25.2126134485
 10
-4.9365934862
 20
-25.2469631483
 10
-4.9036325157
 20
-25.2772223772
 10
-4.8678996717
 20
-25.3034596055
 10
-4.8299119279
 20
-25.3252980223
 10
-4.7896285055
 20
-25.3426762662
 10
-4.7470901833
 20
-25.3556556987
 10
-4.7029362715
 20
-25.364043593
 10
-4.6571258862
 20
-25.3677611886
 10
-4.6096999112
 20
-25.3668872462
 10
-4.5614203087
 20
-25.3614653203
 10
-4.5125410661
 20
-25.3515099295
 10
-4.462808196
 20
-25.3370065552
 10
-4.4122216983
 20
-25.3179551977
  0
LWPOLYLINE
  5
32D
100
AcDbEntity
  8
RACCORDO
100
AcDbPolyline
 62
250
  6
CONTINUOUS
 90
22
 70
0
 10
-5.0934117585
 20
-24.817570406
 10
-5.0895199996
 20
-24.876635756
 10
-5.0821833524
 20
-24.9330576143
 10
-5.0714018169
 20
-24.9868359808
 10
-5.0570885676
 20
-25.0382357999
 10
-5.03933043
 20
-25.0869921273
 10
-5.0183878806
 20
-25.1323101297
 10
-4.9942114116
 20
-25.1741174809
 10
-4.9668505308
 20
-25.2124865072
 10
-4.9367142389
 20
-25.2468393535
 10
-4.9037674382
 20
-25.277110494
 10
-4.8680452265
 20
-25.3033654546
 10
-4.8300618967
 20
-25.3252229581
 10
-4.7897737423
 20
-25.3426217583
 10
-4.74722447
 20
-25.3556231014
 10
-4.703059493
 20
-25.3640294491
 10
-4.657242429
 20
-25.3677609683
 10
-4.6098096603
 20
-25.3668974922
 10
-4.5615157468
 20
-25.361480981
 10
-4.5126122087
 20
-25.3515254215
 10
-4.4628475259
 20
-25.3370168271
 10
-4.4122216983
 20
-25.3179551977
  0
LWPOLYLINE
  5
32E
100
AcDbEntity
  8
ASSI
100
AcDbPolyline
 62
250
  6
CONTINUOUS
 90
13
 70
0
 10
-5.7939964122
 20
-24.8321356686
 10
-5.7882455326
 20
-24.9204503613
 10
-5.7772200068
 20
-25.0054643021
 10
-5.760975062
 20
-25.0867580066
 10
-5.7395914846
 20
-25.1639266299
 10
-5.7131756795
 20
-25.2365947987
 10
-5.6818559672
 20
-25.3044154477
 10
-5.6457766116
 20
-25.3670628725
 10
-5.6051183231
 20
-25.4242139851
 10
-5.5601002927
 20
-25.4755665419
 10
-5.5109568618
 20
-25.5208615718
 10
-5.4579210149
 20
-25.5598929862
 10
-5.4015187152
 20
-25.5923404576
  0
LWPOLYLINE
  5
32F
100
AcDbEntity
  8
RACCORDO
100
AcDbPolyline
 62
250
  6
CONTINUOUS
 90
13
 70
0
 10
-5.7939964122
 20
-24.8321356686
 10
-5.7882460509
 20
-24.9204451018
 10
-5.7772213723
 20
-25.0054560207
 10
-5.7609772573
 20
-25.0867487584
 10
-5.7395938115
 20
-25.1639192811
 10
-5.7131773149
 20
-25.2365907451
 10
-5.6818572096
 20
-25.3044129951
 10
-5.6457790055
 20
-25.3670591412
 10
-5.6051229553
 20
-25.4242081635
 10
-5.5601069872
 20
-25.475559722
 10
-5.5109647375
 20
-25.5208551099
 10
-5.4579294998
 20
-25.5598874666
 10
-5.401603743
 20
-25.5922977297
  0
LWPOLYLINE
  5
330
100
AcDbEntity
  8
268140580
100
AcDbPolyline
 62
250
  6
CONTINUOUS
 90
27
 70
0
 10
-0.8734672517
 20
15.9584823924
 10
-0.8783354067
 20
15.9464775894
 10
-0.883674751
 20
15.9347479571
 10
-0.88947065
 20
15.9233256455
 10
-0.8957072174
 20
15.9122419624
 10
-0.9023673592
 20
15.9015272875
 10
-0.9094328205
 20
15.8912109888
 10
-0.9168842353
 20
15.8813213428
 10
-0.9247011798
 20
15.8718854561
 10
-0.9328622282
 20
15.8629291919
 10
-0.9413450119
 20
15.8544770987
 10
-0.9501262799
 20
15.8465523431
 10
-0.9591819635
 20
15.8391766463
 10
-0.9684872416
 20
15.8323702246
 10
-0.9780166092
 20
15.8261517338
 10
-0.987743947
 20
15.8205382186
 10
-0.9976425928
 20
15.815545065
 10
-1.0076854154
 20
15.8111859591
 10
-1.0178448879
 20
15.8074728487
 10
-1.0280931639
 20
15.8044159113
 10
-1.0384021538
 20
15.8020235258
 10
-1.0487436011
 20
15.8003022494
 10
-1.0590891608
 20
15.7992568002
 10
-1.0694104764
 20
15.7988900435
 10
-1.0796792579
 20
15.7992029847
 10
-1.0898673592
 20
15.800194766
 10
-1.1009446995
 20
15.802065851
  0
LWPOLYLINE
  5
331
100
AcDbEntity
  8
RACCORDO
100
AcDbPolyline
 62
250
  6
CONTINUOUS
 90
8
 70
0
 10
9.6252022836
 20
21.0893006519
 10
9.6702411185
 20
21.1379879992
 10
9.7320851344
 20
21.196699786
 10
9.8001676881
 20
21.2539033824
 10
9.8741626383
 20
21.3092869755
 10
9.9540904203
 20
21.3628309946
 10
10.0392980875
 20
21.4140915679
 10
10.106892852
 20
21.4511676372
  0
LINE
  5
332
100
AcDbEntity
  8
RACCORDO
100
AcDbLine
 62
7
  6
CONTINUOUS
 10
-1.6077839964
 20
7.5151782297
 11
-1.7927060672
 21
7.4210891966
  0
LINE
  5
333
100
AcDbEntity
  8
268140580
100
AcDbLine
 62
250
  6
CONTINUOUS
 10
-0.8150991683
 20
8.1447238191
 11
-1.7927060672
 21
7.6932325564
  0
LINE
  5
334
100
AcDbEntity
  8
268140580
100
AcDbLine
 62
7
  6
CONTINUOUS
 10
-0.8961916693
 20
7.9809701504
 11
-1.7927060672
 21
7.566930092
  0
LINE
  5
335
100
AcDbEntity
  8
0
100
AcDbLine
 62
250
  6
CONTINUOUS
 10
-15.7205441196
 20
-0.8765954291
 11
-15.1902140285
 21
-1.1417604747
  0
LINE
  5
336
100
AcDbEntity
  8
0
100
AcDbLine
 62
250
  6
CONTINUOUS
 10
-14.1295539199
 20
-1.672090529
 11
-13.0688936638
 21
-2.202420657
  0
LINE
  5
337
100
AcDbEntity
  8
0
100
AcDbLine
 62
250
  6
CONTINUOUS
 10
-12.3617869248
 20
-2.5559740266
 11
-11.3011266687
 21
-3.0863041546
  0
LINE
  5
338
100
AcDbEntity
  8
268140580
100
AcDbLine
 62
250
  6
CONTINUOUS
 10
-4.9746865825
 20
22.6626006558
 11
-4.9746865825
 21
21.3934988164
  0
LINE
  5
339
100
AcDbEntity
  8
268140580
100
AcDbLine
 62
250
  6
CONTINUOUS
 10
-4.6182858291
 20
17.4185556645
 11
-4.6182858291
 21
18.6839353872
  0
LINE
  5
33A
100
AcDbEntity
  8
268140580
100
AcDbLine
 62
250
  6
CONTINUOUS
 10
-4.1928034928
 20
17.432862679
 11
-4.1928034928
 21
18.682267674
  0
LWPOLYLINE
  5
33B
100
AcDbEntity
  8
ASSI
100
AcDbPolyline
 62
250
  6
CONTINUOUS
 90
10
 70
0
 10
-5.7939964122
 20
10.7128213921
 10
-5.9137363759
 20
6.7070982839
 10
-6.003549919
 20
2.7146746607
 10
-6.0634296953
 20
-1.2641171012
 10
-6.0933708071
 20
-5.2289457421
 10
-6.093370807
 20
-9.1794812647
 10
-6.0634296952
 20
-13.1153949601
 10
-6.0035499189
 20
-17.0363592787
 10
-5.9137363758
 20
-20.9420478583
 10
-5.7939964122
 20
-24.8321356686
  0
LWPOLYLINE
  5
33C
100
AcDbEntity
  8
RACCORDO
100
AcDbPolyline
 62
250
  6
CONTINUOUS
 90
10
 70
0
 10
-5.7939964122
 20
10.7128213921
 10
-5.9137363758
 20
6.7070982848
 10
-6.0035499189
 20
2.7146746621
 10
-6.0634296952
 20
-1.2641170994
 10
-6.093370807
 20
-5.22894574
 10
-6.0933708071
 20
-9.1794812625
 10
-6.0634296953
 20
-13.1153949582
 10
-6.003549919
 20
-17.0363592772
 10
-5.9137363759
 20
-20.9420478574
 10
-5.7939964122
 20
-24.8321356686
  0
LWPOLYLINE
  5
33D
100
AcDbEntity
  8
ASSI
100
AcDbPolyline
 62
250
  6
CONTINUOUS
 90
10
 70
0
 10
-5.0934117585
 20
10.6918416978
 10
-5.2130421035
 20
6.689582888
 10
-5.3027648716
 20
2.7012682263
 10
-5.3625800626
 20
-1.2731022872
 10
-5.3924876891
 20
-5.2338593137
 10
-5.3924877385
 20
-9.1806721921
 10
-5.3625801739
 20
-13.1125489389
 10
-5.3027649828
 20
-17.0291588928
 10
-5.2130421777
 20
-20.9308327152
 10
-5.0934117585
 20
-24.817570406
  0
LWPOLYLINE
  5
33E
100
AcDbEntity
  8
RACCORDO
100
AcDbPolyline
 62
250
  6
CONTINUOUS
 90
10
 70
0
 10
-5.0934117585
 20
10.6918416978
 10
-5.2130421777
 20
6.6895782541
 10
-5.3027649828
 20
2.7012601259
 10
-5.3625801739
 20
-1.2731126866
 10
-5.3924877385
 20
-5.2338708328
 10
-5.3924876891
 20
-9.1806836635
 10
-5.3625800626
 20
-13.1125592309
 10
-5.3027648716
 20
-17.0291668858
 10
-5.2130421035
 20
-20.9308372775
 10
-5.0934117585
 20
-24.817570406
  0
LWPOLYLINE
  5
33F
100
AcDbEntity
  8
268140580
100
AcDbPolyline
 62
250
  6
CONTINUOUS
 90
5
 70
0
 10
0.6088047709
 20
15.6510723805
 10
0.6113300251
 20
15.6582330947
 10
0.6130182899
 20
15.6654551092
 10
0.6138638529
 20
15.6727139872
 10
0.6139696154
 20
15.6763495771
  0
LWPOLYLINE
  5
340
100
AcDbEntity
  8
268140580
100
AcDbPolyline
 62
250
  6
CONTINUOUS
 90
25
 70
0
 10
-0.3431371658
 20
15.8486474353
 10
-0.3485755892
 20
15.8353251108
 10
-0.3545937695
 20
15.8223469485
 10
-0.3611713425
 20
15.8097568625
 10
-0.3682860514
 20
15.7975974536
 10
-0.3759138216
 20
15.7859098652
 10
-0.3840288424
 20
15.7747336448
 10
-0.3926036544
 20
15.7641066089
 10
-0.4016092429
 20
15.7540647156
 10
-0.4110151351
 20
15.7446419432
 10
-0.420789504
 20
15.735870175
 10
-0.4308992758
 20
15.7277790913
 10
-0.4413102419
 20
15.7203960691
 10
-0.4519871747
 20
15.7137460896
 10
-0.4628939465
 20
15.7078516534
 10
-0.4739936524
 20
15.7027327048
 10
-0.4852487344
 20
15.6984065639
 10
-0.4966211088
 20
15.6948878683
 10
-0.5080722956
 20
15.6921885234
 10
-0.5195635477
 20
15.6903176622
 10
-0.5310559824
 20
15.6892816145
 10
-0.542510714
 20
15.6890838855
 10
-0.5538889833
 20
15.6897251437
 10
-0.5651522902
 20
15.6912032189
 10
-0.5706146136
 20
15.692230894
  0
LWPOLYLINE
  5
341
100
AcDbEntity
  8
RACCORDO
100
AcDbPolyline
 62
250
  6
CONTINUOUS
 90
35
 70
0
 10
9.7029940986
 20
21.0565205021
 10
9.7456501301
 20
21.1076574064
 10
9.7985665142
 20
21.1628026394
 10
9.8577280364
 20
21.2175489895
 10
9.9223994889
 20
21.2707077336
 10
9.9926513707
 20
21.3220927158
 10
10.0684131828
 20
21.3718900918
 10
10.1487382211
 20
21.4194696051
 10
10.2335157659
 20
21.4647005761
 10
10.3228565369
 20
21.5077136843
 10
10.4161459898
 20
21.5482707124
 10
10.5133958412
 20
21.5863686997
 10
10.6145943745
 20
21.622010607
 10
10.7190918958
 20
21.654967099
 10
10.8269749844
 20
21.685241641
 10
10.938157061
 20
21.7128307677
 10
11.051728694
 20
21.7374947479
 10
11.1677092448
 20
21.7592048676
 10
11.2860793519
 20
21.7779898407
 10
11.4058714996
 20
21.7936960777
 10
11.5270762857
 20
21.8062955512
 10
11.6497031125
 20
21.8158162886
 10
11.772812671
 20
21.8221887825
 10
11.8964094728
 20
21.8253900722
 10
12.0204890063
 20
21.8254431183
 10
12.1440984282
 20
21.8223472958
 10
12.2672401649
 20
21.8160782734
 10
12.38991179
 20
21.8066603824
 10
12.5111531802
 20
21.7941659914
 10
12.6309532742
 20
21.7785706782
 10
12.7493231334
 20
21.759898865
 10
12.8653358181
 20
21.7382961875
 10
12.9786823483
 20
21.7138111908
 10
13.0896717041
 20
21.6863953297
 10
13.1983038853
 20
21.6560486042
  0
LWPOLYLINE
  5
342
100
AcDbEntity
  8
RACCORDO
100
AcDbPolyline
 62
7
  6
CONTINUOUS
 90
10
 70
0
 10
21.0408001263
 20
17.1187440821
 10
21.0393710616
 20
17.1179533506
 10
21.0379140232
 20
17.1172599319
 10
21.0364286887
 20
17.1166640462
 10
21.0349188514
 20
17.1161630427
 10
21.0333801493
 20
17.115759995
 10
21.0317997117
 20
17.1154638597
 10
21.0301726813
 20
17.1152779489
 10
21.0285025685
 20
17.1151997709
 10
21.0267887334
 20
17.1152297374
  0
LINE
  5
343
100
AcDbEntity
  8
RACCORDO
100
AcDbLine
 62
7
  6
CONTINUOUS
 10
-1.6509400342
 20
4.1157212034
 11
-1.7927060672
 21
4.0435901218
  0
LINE
  5
344
100
AcDbEntity
  8
268140580
100
AcDbLine
 62
7
  6
CONTINUOUS
 10
-1.7466482699
 20
-5.8553528694
 11
-1.7927060672
 21
-5.8323239708
  0
LWPOLYLINE
  5
345
100
AcDbEntity
  8
RACCORDO
100
AcDbPolyline
 62
250
  6
CONTINUOUS
 90
16
 70
0
 10
-4.4122216983
 20
11.8500440841
 10
-4.4160882565
 20
11.8952518231
 10
-4.4237133792
 20
11.9419329426
 10
-4.4350136577
 20
11.989576616
 10
-4.449865466
 20
12.0376614802
 10
-4.4681063076
 20
12.0856613262
 10
-4.4895365899
 20
12.1330508575
 10
-4.5139218206
 20
12.1793114683
 10
-4.5409951624
 20
12.2239368915
 10
-4.5704603407
 20
12.2664387281
 10
-4.6019949182
 20
12.3063518435
 10
-4.6352538027
 20
12.3432394221
 10
-4.6698730023
 20
12.3766977322
 10
-4.7054736502
 20
12.4063605936
 10
-4.741666155
 20
12.4319033771
 10
-4.7780544364
 20
12.4530465309
  0
LWPOLYLINE
  5
346
100
AcDbEntity
  8
ASSI
100
AcDbPolyline
 62
250
  6
CONTINUOUS
 90
16
 70
0
 10
-4.4122216983
 20
11.8500440841
 10
-4.4160882944
 20
11.895252113
 10
-4.4237134921
 20
11.9419334898
 10
-4.4350138698
 20
11.9895773759
 10
-4.4498657878
 20
12.0376623978
 10
-4.468106737
 20
12.0856623423
 10
-4.4895371149
 20
12.1330519148
 10
-4.5139224182
 20
12.179312509
 10
-4.5409958013
 20
12.2239378627
 10
-4.5704609883
 20
12.2664395912
 10
-4.6019955368
 20
12.3063525666
 10
-4.6352543528
 20
12.343239984
 10
-4.6698734529
 20
12.3766981309
 10
-4.7054739751
 20
12.4063608392
 10
-4.7416663284
 20
12.4319034863
 10
-4.7780544368
 20
12.4530465306
  0
LWPOLYLINE
  5
347
100
AcDbEntity
  8
268140580
100
AcDbPolyline
 62
250
  6
CONTINUOUS
 90
17
 70
0
 10
-2.5705235265
 20
-25.0376808334
 10
-2.5702211169
 20
-25.0501882112
 10
-2.5693149229
 20
-25.0623503869
 10
-2.5678080448
 20
-25.0741257494
 10
-2.5657056383
 20
-25.0854740106
 10
-2.5630148965
 20
-25.0963563439
 10
-2.5597450254
 20
-25.1067355168
 10
-2.5559072124
 20
-25.1165760183
 10
-2.5515145882
 20
-25.1258441803
 10
-2.5465821815
 20
-25.134508293
 10
-2.541126868
 20
-25.1425387133
 10
-2.5351673123
 20
-25.149907966
 10
-2.5287239044
 20
-25.1565908381
 10
-2.5218186894
 20
-25.1625644652
 10
-2.5144752927
 20
-25.1678084091
 10
-2.5067188389
 20
-25.1723047284
 10
-2.5055559407
 20
-25.172896428
  0
LWPOLYLINE
  5
348
100
AcDbEntity
  8
268140580
100
AcDbPolyline
 62
250
  6
CONTINUOUS
 90
16
 70
0
 10
-2.5705235265
 20
16.6302338345
 10
-2.5702244483
 20
16.6177946489
 10
-2.5693282257
 20
16.6056966317
 10
-2.5678378913
 20
16.5939807188
 10
-2.5657584878
 20
16.5826865532
 10
-2.5630970513
 20
16.5718523508
 10
-2.5598625873
 20
16.5615147709
 10
-2.5560660401
 20
16.5517087929
 10
-2.5517202562
 20
16.5424675969
 10
-2.5468399401
 20
16.5338224522
 10
-2.5414416055
 20
16.5258026114
 10
-2.5355435184
 20
16.5184352109
 10
-2.5291656363
 20
16.5117451798
 10
-2.5223295398
 20
16.505755155
 10
-2.5150583601
 20
16.5004854048
 10
-2.5075117382
 20
16.4960334232
  0
LWPOLYLINE
  5
349
100
AcDbEntity
  8
268140580
100
AcDbPolyline
 62
7
  6
CONTINUOUS
 90
22
 70
0
 10
-3.6311836983
 20
24.0570758039
 10
-3.6315048868
 20
24.0755862385
 10
-3.6324902791
 20
24.0937196611
 10
-3.6341398752
 20
24.1114760715
 10
-3.6364595593
 20
24.1289086311
 10
-3.6394434471
 20
24.1459641787
 10
-3.6430738861
 20
24.1624832305
 10
-3.6473609157
 20
24.1784519572
 10
-3.6522944964
 20
24.1938841881
 10
-3.657826857
 20
24.2086619275
 10
-3.6639498884
 20
24.2227553054
 10
-3.6706716996
 20
24.2361941917
 10
-3.6779688468
 20
24.2489501999
 10
-3.6858388844
 20
24.2610288054
 10
-3.694284258
 20
24.2724245327
 10
-3.7032888604
 20
24.2830925688
 10
-3.7128745502
 20
24.2930484528
 10
-3.7230194688
 20
24.3022766456
 10
-3.7336419337
 20
24.3106857168
 10
-3.7447503907
 20
24.3182608986
 10
-3.7563363939
 20
24.3250169589
 10
-3.76113361
 20
24.3275060711
  0
LINE
  5
34A
100
AcDbEntity
  8
268140580
100
AcDbLine
 62
7
  6
CONTINUOUS
 10
-4.0087607562
 20
22.7920101784
 11
-4.0087607562
 21
22.1857923957
  0
LINE
  5
34B
100
AcDbEntity
  8
268140580
100
AcDbLine
 62
7
  6
CONTINUOUS
 10
-3.6311836983
 20
24.0570758039
 11
-3.6311836983
 21
23.334352098
  0
LINE
  5
34C
100
AcDbEntity
  8
268140580
100
AcDbLine
 62
250
  6
CONTINUOUS
 10
-3.5604730202
 20
22.0563828732
 11
-3.5604730202
 21
21.5326964831
  0
LINE
  5
34D
100
AcDbEntity
  8
268140580
100
AcDbLine
 62
7
  6
CONTINUOUS
 10
-2.6437468312
 20
-24.7922549456
 11
-2.6437468312
 21
-24.9492924858
  0
LINE
  5
34E
100
AcDbEntity
  8
268140580
100
AcDbLine
 62
7
  6
CONTINUOUS
 10
-2.6437468312
 20
16.7186221822
 11
-2.6437468312
 21
17.0869327107
  0
LINE
  5
34F
100
AcDbEntity
  8
268140580
100
AcDbLine
 62
250
  6
CONTINUOUS
 10
-2.5705235265
 20
-24.7615187766
 11
-2.5705235265
 21
-25.0376808334
  0
LINE
  5
350
100
AcDbEntity
  8
268140580
100
AcDbLine
 62
250
  6
CONTINUOUS
 10
-2.5705235265
 20
16.6302338345
 11
-2.5705235265
 21
16.9985443631
  0
LINE
  5
351
100
AcDbEntity
  8
RACCORDO
100
AcDbLine
 62
7
  6
CONTINUOUS
 10
-2.2243756928
 20
13.0444535268
 11
-2.2243756928
 21
12.0668844673
  0
LINE
  5
352
100
AcDbEntity
  8
ASSI
100
AcDbLine
 62
7
  6
CONTINUOUS
 10
-2.2243756928
 20
-24.3995863118
 11
-2.2243756928
 21
-23.4220172523
  0
LINE
  5
353
100
AcDbEntity
  8
RACCORDO
100
AcDbLine
 62
7
  6
CONTINUOUS
 10
-2.2243756928
 20
-23.4220172523
 11
-2.2243756928
 21
-24.3995863118
  0
LINE
  5
354
100
AcDbEntity
  8
ASSI
100
AcDbLine
 62
7
  6
CONTINUOUS
 10
-2.2243756928
 20
12.0668844673
 11
-2.2243756928
 21
13.0444535268
  0
LINE
  5
355
100
AcDbEntity
  8
268140580
100
AcDbLine
 62
7
  6
CONTINUOUS
 10
-1.93664005
 20
-23.2891313973
 11
-1.93664005
 21
-23.4774285666
  0
LINE
  5
356
100
AcDbEntity
  8
268140580
100
AcDbLine
 62
7
  6
CONTINUOUS
 10
-1.93664005
 20
15.7565861927
 11
-1.93664005
 21
16.2105602944
  0
LWPOLYLINE
  5
357
100
AcDbEntity
  8
ASSI
100
AcDbPolyline
 62
250
  6
CONTINUOUS
 90
10
 70
0
 10
-4.4122216983
 20
-25.3179551977
 10
-4.4160883643
 20
-25.3630944957
 10
-4.4237137065
 20
-25.4057717918
 10
-4.435014277
 20
-25.4455200478
 10
-4.4498664084
 20
-25.4819042794
 10
-4.4681075665
 20
-25.5145263162
 10
-4.4895381296
 20
-25.5430291597
 10
-4.5139235726
 20
-25.5671008894
 10
-4.5409970339
 20
-25.5864780767
 10
-4.5660289432
 20
-25.5991508958
  0
LWPOLYLINE
  5
358
100
AcDbEntity
  8
RACCORDO
100
AcDbPolyline
 62
250
  6
CONTINUOUS
 90
10
 70
0
 10
-4.4122216983
 20
-25.3179551977
 10
-4.4160883643
 20
-25.3630944957
 10
-4.4237137065
 20
-25.4057717918
 10
-4.4350142771
 20
-25.4455200478
 10
-4.4498664084
 20
-25.4819042794
 10
-4.4681075666
 20
-25.5145263163
 10
-4.4895381297
 20
-25.5430291597
 10
-4.5139235727
 20
-25.5671008894
 10
-4.540997034
 20
-25.5864780768
 10
-4.5660289433
 20
-25.5991508958
  0
LWPOLYLINE
  5
359
100
AcDbEntity
  8
RACCORDO
100
AcDbPolyline
 62
7
  6
CONTINUOUS
 90
21
 70
0
 10
21.0393710616
 20
16.3481511051
 10
21.046661363
 20
16.3527179397
 10
21.0522960722
 20
16.3564924069
 10
21.0576989099
 20
16.3603705996
 10
21.0628647538
 20
16.3643489871
 10
21.0677887175
 20
16.3684237343
 10
21.0724661537
 20
16.3725907059
 10
21.0768926456
 20
16.3768460863
 10
21.0810640141
 20
16.3811858999
 10
21.0849763291
 20
16.3856056736
 10
21.0886259115
 20
16.3901014056
 10
21.0920093317
 20
16.3946689477
 10
21.0951234153
 20
16.3993035265
 10
21.0979652516
 20
16.4040009884
 10
21.1005321902
 20
16.4087570489
 10
21.102821842
 20
16.4135666741
 10
21.1048320898
 20
16.4184255951
 10
21.1065610841
 20
16.4233294278
 10
21.1080072426
 20
16.42827292
 10
21.1091692593
 20
16.4332517249
 10
21.1100461
 20
16.4382613966
  0
LWPOLYLINE
  5
35A
100
AcDbEntity
  8
RACCORDO
100
AcDbPolyline
 62
7
  6
CONTINUOUS
 90
24
 70
0
 10
21.0408001263
 20
17.1187440821
 10
21.046661363
 20
17.1222858805
 10
21.0522960722
 20
17.1258977826
 10
21.0576989099
 20
17.1295762241
 10
21.0628647538
 20
17.1333174417
 10
21.0677887175
 20
17.1371178328
 10
21.0724661537
 20
17.14097396
 10
21.0768926456
 20
17.1448819177
 10
21.0810640141
 20
17.1488378202
 10
21.0849763291
 20
17.1528381621
 10
21.0886259115
 20
17.1568788527
 10
21.0920093317
 20
17.1609558327
 10
21.0951234153
 20
17.1650655624
 10
21.0979652516
 20
17.1692038014
 10
21.1005321902
 20
17.173366352
 10
21.102821842
 20
17.1775496754
 10
21.1048320898
 20
17.181749418
 10
21.1065610841
 20
17.1859612804
 10
21.1080072426
 20
17.1901817603
 10
21.1091692593
 20
17.1944064285
 10
21.1100461
 20
17.1986309214
 10
21.1106370032
 20
17.2028518094
 10
21.1109414833
 20
17.2070646261
 10
21.1109867933
 20
17.2094280033
  0
LINE
  5
35B
100
AcDbEntity
  8
268140580
100
AcDbLine
 62
7
  6
CONTINUOUS
 10
-1.5319750515
 20
3.7920570275
 11
-1.7927060672
 21
3.654574903
  0
LINE
  5
35C
100
AcDbEntity
  8
268140580
100
AcDbLine
 62
250
  6
CONTINUOUS
 10
-1.395669767
 20
3.7846479297
 11
-1.7927060672
 21
3.5752927293
  0
LINE
  5
35D
100
AcDbEntity
  8
268140580
100
AcDbLine
 62
250
  6
CONTINUOUS
 10
-1.7927060672
 20
3.2147073896
 11
-1.0271988939
 21
3.6004124932
  0
LINE
  5
35E
100
AcDbEntity
  8
268140580
100
AcDbLine
 62
250
  6
CONTINUOUS
 10
-1.7927060672
 20
2.7420218335
 11
-0.8150991683
 21
3.2345945792
  0
LWPOLYLINE
  5
35F
100
AcDbEntity
  8
268140580
100
AcDbPolyline
 62
250
  6
CONTINUOUS
 90
13
 70
0
 10
-12.7904129683
 20
22.1134946736
 10
-12.7956986387
 20
22.1245704025
 10
-12.8005307976
 20
22.1360555754
 10
-12.8049094449
 20
22.1479501925
 10
-12.8088392188
 20
22.1602849564
 10
-12.8123154811
 20
22.1730291643
 10
-12.8153243178
 20
22.1860907085
 10
-12.8178596728
 20
22.1994692384
 10
-12.8199276021
 20
22.2131651046
 10
-12.8215323595
 20
22.2270872506
 10
-12.8226753629
 20
22.2412053244
 10
-12.8233551943
 20
22.2555496781
 10
-12.8235718537
 20
22.2701203116
  0
LWPOLYLINE
  5
360
100
AcDbEntity
  8
268140580
100
AcDbPolyline
 62
250
  6
CONTINUOUS
 90
16
 70
0
 10
-2.6437468312
 20
16.7186221822
 10
-2.6434042149
 20
16.7120801876
 10
-2.642377305
 20
16.7055561243
 10
-2.6406689164
 20
16.699067874
 10
-2.6382837314
 20
16.6926332208
 10
-2.6352282878
 20
16.6862698015
 10
-2.6315109603
 20
16.6799950579
 10
-2.6271419378
 20
16.6738261885
 10
-2.6221331956
 20
16.6677801018
 10
-2.6164984623
 20
16.6618733697
 10
-2.6102531822
 20
16.6561221822
 10
-2.6034144732
 20
16.6505423028
 10
-2.5960010798
 20
16.6451490256
 10
-2.5880333216
 20
16.6399571333
 10
-2.5795330376
 20
16.6349808564
 10
-2.5705235265
 20
16.6302338345
  0
LWPOLYLINE
  5
361
100
AcDbEntity
  8
268140580
100
AcDbPolyline
 62
250
  6
CONTINUOUS
 90
16
 70
0
 10
-2.6437468312
 20
17.0869327107
 10
-2.6434063272
 20
17.0804109003
 10
-2.6423812365
 20
17.0738853689
 10
-2.6406743615
 20
17.0673956
 10
-2.6382903811
 20
17.0609593964
 10
-2.6352358263
 20
17.0545944004
 10
-2.6315190705
 20
17.048318069
 10
-2.6271503015
 20
17.0421476126
 10
-2.622141496
 20
17.0360999528
 10
-2.6165063912
 20
17.0301916796
 10
-2.6102604325
 20
17.0244389902
 10
-2.6034207503
 20
17.0188576646
 10
-2.5960061247
 20
17.0134630262
 10
-2.5880369016
 20
17.0082698724
 10
-2.5795349297
 20
17.0032924357
 10
-2.5705235265
 20
16.9985443631
  0
LWPOLYLINE
  5
362
100
AcDbEntity
  8
268140580
100
AcDbPolyline
 62
7
  6
CONTINUOUS
 90
25
 70
0
 10
-1.1563099641
 20
23.3522101707
 10
-1.1567965303
 20
23.3842703975
 10
-1.158269878
 20
23.4157603903
 10
-1.1607300073
 20
23.446680149
 10
-1.1641848027
 20
23.4770961245
 10
-1.1686263796
 20
23.506941866
 10
-1.1740310846
 20
23.5360180205
 10
-1.1804065538
 20
23.5643026629
 10
-1.1877451512
 20
23.5918177183
 10
-1.1960003152
 20
23.618429609
 10
-1.205158799
 20
23.6441009606
 10
-1.2152338494
 20
23.6688691476
 10
-1.2262186457
 20
23.6927127153
 10
-1.238131618
 20
23.7156688205
 10
-1.2509543362
 20
23.7377003064
 10
-1.26462469
 20
23.7586742485
 10
-1.279155772
 20
23.7785840788
 10
-1.2945344896
 20
23.7974363652
 10
-1.3106594536
 20
23.8151178869
 10
-1.327513482
 20
23.8316008726
 10
-1.345113757
 20
23.8469130935
 10
-1.3634104357
 20
23.8610246428
 10
-1.3824019317
 20
23.8739385473
 10
-1.4020898315
 20
23.8856517801
 10
-1.4162021086
 20
23.8930860539
  0
LWPOLYLINE
  5
363
100
AcDbEntity
  8
268140580
100
AcDbPolyline
 62
250
  6
CONTINUOUS
 90
31
 70
0
 10
-0.8734672517
 20
16.326792921
 10
-0.8736278234
 20
16.3382574724
 10
-0.8742707437
 20
16.3499392578
 10
-0.8753951629
 20
16.3618067358
 10
-0.8769992936
 20
16.373830284
 10
-0.8790794527
 20
16.3859747432
 10
-0.8816290774
 20
16.3981993029
 10
-0.8846404691
 20
16.4104677617
 10
-0.8881058748
 20
16.4227491362
 10
-0.8920158985
 20
16.4350100689
 10
-0.8963599345
 20
16.4472171582
 10
-0.9011260378
 20
16.4593367084
 10
-0.9063010202
 20
16.4713351452
 10
-0.9118706171
 20
16.4831794247
 10
-0.9178196145
 20
16.4948372197
 10
-0.9241317548
 20
16.5062766677
 10
-0.9307897654
 20
16.5174664439
 10
-0.9377753696
 20
16.5283758119
 10
-0.9450693903
 20
16.5389748131
 10
-0.9526518203
 20
16.5492343708
 10
-0.9605018772
 20
16.5591263613
 10
-0.968598033
 20
16.5686236524
 10
-0.9769180894
 20
16.5777002005
 10
-0.9854392315
 20
16.5863311125
 10
-0.9941380858
 20
16.5944927112
 10
-1.0029908064
 20
16.6021626211
 10
-1.0119731109
 20
16.6093198019
 10
-1.0210603375
 20
16.6159446043
 10
-1.0302275565
 20
16.6220188598
 10
-1.0394496397
 20
16.6275259238
 10
-1.0487012988
 20
16.6324506997
  0
LINE
  5
364
100
AcDbEntity
  8
268140580
100
AcDbLine
 62
250
  6
CONTINUOUS
 10
-1.8634167453
 20
-23.2553144486
 11
-1.8634167453
 21
-23.5658169143
  0
LINE
  5
365
100
AcDbEntity
  8
268140580
100
AcDbLine
 62
250
  6
CONTINUOUS
 10
-1.8634167453
 20
15.6648744979
 11
-1.8634167453
 21
16.173948642
  0
LINE
  5
366
100
AcDbEntity
  8
ASSI
100
AcDbLine
 62
7
  6
CONTINUOUS
 10
-1.7927060672
 20
12.284383641
 11
-1.7927060672
 21
-23.2226579142
  0
LINE
  5
367
100
AcDbEntity
  8
DRAFT
100
AcDbLine
 62
7
  6
CONTINUOUS
 10
-1.7927060672
 20
-23.2226579142
 11
-1.7927060672
 21
12.284383641
  0
LINE
  5
368
100
AcDbEntity
  8
268140580
100
AcDbLine
 62
7
  6
CONTINUOUS
 10
-1.6077839964
 20
-15.3004755227
 11
-1.6077839964
 21
-14.2222941055
  0
LINE
  5
369
100
AcDbEntity
  8
268140580
100
AcDbLine
 62
7
  6
CONTINUOUS
 10
-1.6077839964
 20
3.7520833605
 11
-1.6077839964
 21
4.0941431845
  0
LINE
  5
36A
100
AcDbEntity
  8
268140580
100
AcDbLine
 62
7
  6
CONTINUOUS
 10
-1.6077839964
 20
7.3417384487
 11
-1.6077839964
 21
7.6523332324
  0
LINE
  5
36B
100
AcDbEntity
  8
268140580
100
AcDbLine
 62
7
  6
CONTINUOUS
 10
-1.5345485443
 20
-2.146833888
 11
-1.5345485443
 21
-6.2211707834
  0
LINE
  5
36C
100
AcDbEntity
  8
268140580
100
AcDbLine
 62
250
  6
CONTINUOUS
 10
-1.2270206422
 20
16.326792921
 11
-1.2270206422
 21
15.9584823924
  0
LINE
  5
36D
100
AcDbEntity
  8
268140580
100
AcDbLine
 62
250
  6
CONTINUOUS
 10
-1.2270206422
 20
-25.341121747
 11
-1.2270206422
 21
-25.7094322756
  0
LINE
  5
36E
100
AcDbEntity
  8
268140580
100
AcDbLine
 62
7
  6
CONTINUOUS
 10
-1.1748238563
 20
14.0030171096
 11
-1.1748238563
 21
12.8298210055
  0
LINE
  5
36F
100
AcDbEntity
  8
268140580
100
AcDbLine
 62
7
  6
CONTINUOUS
 10
-1.1748238563
 20
-20.8504435837
 11
-1.1748238563
 21
-22.0236396878
  0
LINE
  5
370
100
AcDbEntity
  8
268140580
100
AcDbLine
 62
7
  6
CONTINUOUS
 10
-1.1563099641
 20
23.3522101707
 11
-1.1563099641
 21
23.0058000091
  0
LINE
  5
371
100
AcDbEntity
  8
268140580
100
AcDbLine
 62
250
  6
CONTINUOUS
 10
-0.8734672517
 20
16.326792921
 11
-0.8734672517
 21
15.9584823924
  0
LINE
  5
372
100
AcDbEntity
  8
268140580
100
AcDbLine
 62
250
  6
CONTINUOUS
 10
-0.8734672517
 20
-25.341121747
 11
-0.8734672517
 21
-25.7094322756
  0
LINE
  5
373
100
AcDbEntity
  8
268140580
100
AcDbLine
 62
7
  6
CONTINUOUS
 10
-0.8150991683
 20
13.8231547656
 11
-0.8150991683
 21
8.1447238191
  0
LINE
  5
374
100
AcDbEntity
  8
268140580
100
AcDbLine
 62
7
  6
CONTINUOUS
 10
-0.8150991683
 20
-15.8179643041
 11
-0.8150991683
 21
-21.8499486412
  0
LINE
  5
375
100
AcDbEntity
  8
268140580
100
AcDbLine
 62
7
  6
CONTINUOUS
 10
-0.8150991683
 20
-10.9078350642
 11
-0.8150991683
 21
3.2345945792
  0
LINE
  5
376
100
AcDbEntity
  8
268140580
100
AcDbLine
 62
250
  6
CONTINUOUS
 10
-0.5199138611
 20
15.562035783
 11
-0.5199138611
 21
14.9931230558
  0
LINE
  5
377
100
AcDbEntity
  8
268140580
100
AcDbLine
 62
250
  6
CONTINUOUS
 10
-0.5199138611
 20
-23.6686556291
 11
-0.5199138611
 21
-24.2375683564
  0
LINE
  5
378
100
AcDbEntity
  8
268140580
100
AcDbLine
 62
250
  6
CONTINUOUS
 10
-0.1663604705
 20
15.562035783
 11
-0.1663604705
 21
15.0044696728
  0
LINE
  5
379
100
AcDbEntity
  8
268140580
100
AcDbLine
 62
250
  6
CONTINUOUS
 10
-0.1663604705
 20
-23.802119339
 11
-0.1663604705
 21
-24.2375683564
  0
LINE
  5
37A
100
AcDbEntity
  8
268140580
100
AcDbLine
 62
7
  6
CONTINUOUS
 10
-0.0204402621
 20
-23.5718237137
 11
-0.0204402621
 21
-22.6008314849
  0
LINE
  5
37B
100
AcDbEntity
  8
268140580
100
AcDbLine
 62
7
  6
CONTINUOUS
 10
-0.0204402621
 20
13.4258253125
 11
-0.0204402621
 21
14.3968175414
  0
LINE
  5
37C
100
AcDbEntity
  8
268140580
100
AcDbLine
 62
250
  6
CONTINUOUS
 10
0.1308228563
 20
13.4988618603
 11
0.1308228563
 21
-22.3229096535
  0
LWPOLYLINE
  5
37D
100
AcDbEntity
  8
268140580
100
AcDbPolyline
 62
250
  6
CONTINUOUS
 90
18
 70
0
 10
-0.8734672517
 20
-25.7094322756
 10
-0.873628782
 20
-25.7206014099
 10
-0.8742744023
 20
-25.7314976641
 10
-0.8754023428
 20
-25.7420911722
 10
-0.877009512
 20
-25.7523528983
 10
-0.8790915048
 20
-25.7622547156
 10
-0.8816426145
 20
-25.771769484
 10
-0.8846558487
 20
-25.7808711241
 10
-0.8881229484
 20
-25.7895346889
 10
-0.8920344105
 20
-25.7977364323
 10
-0.896379514
 20
-25.8054538739
 10
-0.9011463491
 20
-25.8126658605
 10
-0.9063218504
 20
-25.8193526248
 10
-0.9118918322
 20
-25.8254958388
 10
-0.9178410275
 20
-25.8310786642
 10
-0.92415313
 20
-25.836085799
 10
-0.9308108387
 20
-25.8405035191
 10
-0.9365408476
 20
-25.8436907451
  0
LWPOLYLINE
  5
37E
100
AcDbEntity
  8
268140580
100
AcDbPolyline
 62
7
  6
CONTINUOUS
 90
28
 70
0
 10
-1.93664005
 20
-23.4774285666
 10
-1.9367683995
 20
-23.4860295037
 10
-1.9371686491
 20
-23.495115942
 10
-1.9378623653
 20
-23.5046675795
 10
-1.9388696479
 20
-23.5146640624
 10
-1.9402082391
 20
-23.5250772806
 10
-1.9418929217
 20
-23.5358729331
 10
-1.9439379318
 20
-23.5470260719
 10
-1.9463543151
 20
-23.5585028208
 10
-1.9491473566
 20
-23.5702543457
 10
-1.9523235441
 20
-23.5822486553
 10
-1.9558865324
 20
-23.5944495225
 10
-1.9598313963
 20
-23.6068006663
 10
-1.9641566229
 20
-23.6192664657
 10
-1.9688579684
 20
-23.6318087114
 10
-1.973920021
 20
-23.6443671859
 10
-1.979333206
 20
-23.6569048845
 10
-1.9850856454
 20
-23.6693839992
 10
-1.9911521297
 20
-23.6817444563
 10
-1.9975156825
 20
-23.6939506417
 10
-2.0041575117
 20
-23.7059674231
 10
-2.0110438114
 20
-23.7177383234
 10
-2.0181512173
 20
-23.7292315598
 10
-2.0254553425
 20
-23.7404172081
 10
-2.0329157697
 20
-23.751245884
 10
-2.0404994237
 20
-23.7616854777
 10
-2.0481824742
 20
-23.7717200779
 10
-2.0559357834
 20
-23.7813289211
  0
LWPOLYLINE
  5
37F
100
AcDbEntity
  8
268140580
100
AcDbPolyline
 62
250
  6
CONTINUOUS
 90
28
 70
0
 10
-1.8634167453
 20
-23.5658169143
 10
-1.8635463912
 20
-23.5741720879
 10
-1.8639359485
 20
-23.5826579727
 10
-1.8645860584
 20
-23.5912626044
 10
-1.8654962803
 20
-23.5999679071
 10
-1.8666668242
 20
-23.6087671286
 10
-1.8681002697
 20
-23.6176653506
 10
-1.8697999454
 20
-23.626663394
 10
-1.8717640606
 20
-23.6357348941
 10
-1.8739865054
 20
-23.6448437907
 10
-1.8764631302
 20
-23.6539708497
 10
-1.8791921786
 20
-23.6631075976
 10
-1.8821680842
 20
-23.6722337095
 10
-1.8853865145
 20
-23.6813351592
 10
-1.8888428004
 20
-23.6903980587
 10
-1.8925293105
 20
-23.6994024245
 10
-1.8964403748
 20
-23.708335015
 10
-1.9005695975
 20
-23.7171817949
 10
-1.9049067448
 20
-23.7259221124
 10
-1.9094445521
 20
-23.7345431789
 10
-1.914175324
 20
-23.7430321395
 10
-1.9190867242
 20
-23.7513691979
 10
-1.9241699336
 20
-23.7595422725
 10
-1.9294164139
 20
-23.7675404148
 10
-1.9348130762
 20
-23.7753468035
 10
-1.9403490784
 20
-23.7829494039
 10
-1.9460162731
 20
-23.7903405622
 10
-1.951805093
 20
-23.7975110881
  0
LWPOLYLINE
  5
380
100
AcDbEntity
  8
268140580
100
AcDbPolyline
 62
250
  6
CONTINUOUS
 90
25
 70
0
 10
-0.1663604705
 20
-24.2375683564
 10
-0.1666795317
 20
-24.2563688434
 10
-0.1676624017
 20
-24.275462494
 10
-0.1693090804
 20
-24.294849308
 10
-0.1716209698
 20
-24.3145746759
 10
-0.1745966679
 20
-24.3345932073
 10
-0.1782319687
 20
-24.3547687308
 10
-0.1825336804
 20
-24.3751022322
 10
-0.1874949949
 20
-24.3955927257
 10
-0.1930912818
 20
-24.4161010825
 10
-0.199328705
 20
-24.4366270285
 10
-0.2062011006
 20
-24.4571708378
 10
-0.2136653466
 20
-24.4775942038
 10
-0.2217269289
 20
-24.4978956972
 10
-0.2303803616
 20
-24.5180767474
 10
-0.2395660649
 20
-24.5380033362
 10
-0.2492895973
 20
-24.5576737206
 10
-0.2595454003
 20
-24.5770896438
 10
-0.2702572187
 20
-24.5961223164
 10
-0.2814298108
 20
-24.6147679129
 10
-0.2930584182
 20
-24.6330302588
 10
-0.3050525105
 20
-24.6507920421
 10
-0.3173819108
 20
-24.6680141587
 10
-0.3300767958
 20
-24.6847357127
 10
-0.3431371658
 20
-24.700956704
  0
LWPOLYLINE
  5
381
100
AcDbEntity
  8
268140580
100
AcDbPolyline
 62
250
  6
CONTINUOUS
 90
25
 70
0
 10
0.5407463107
 20
15.9155891736
 10
0.541065372
 20
15.9343896606
 10
0.5420482419
 20
15.9534833112
 10
0.5436949206
 20
15.9728701252
 10
0.54600681
 20
15.9925954931
 10
0.5489825081
 20
16.0126140245
 10
0.552617809
 20
16.0327895479
 10
0.5569195207
 20
16.0531230493
 10
0.5618808351
 20
16.0736135429
 10
0.567477122
 20
16.0941218997
 10
0.5737145452
 20
16.1146478457
 10
0.5805869409
 20
16.135191655
 10
0.5880511869
 20
16.155615021
 10
0.5961127692
 20
16.1759165144
 10
0.6047662018
 20
16.1960975646
 10
0.6139519051
 20
16.2160241534
 10
0.6236754375
 20
16.2356945378
 10
0.6339312406
 20
16.255110461
 10
0.6446430589
 20
16.2741431336
 10
0.655815651
 20
16.2927887301
 10
0.6674442585
 20
16.311051076
 10
0.6794383508
 20
16.3288128593
 10
0.691767751
 20
16.3460349759
 10
0.7044626361
 20
16.3627565299
 10
0.717523006
 20
16.3789775212
  0
LWPOLYLINE
  5
382
100
AcDbEntity
  8
268140580
100
AcDbPolyline
 62
250
  6
CONTINUOUS
 90
25
 70
0
 10
-0.5199138611
 20
-24.2375683564
 10
-0.5200771296
 20
-24.2469530121
 10
-0.5205687307
 20
-24.2565144327
 10
-0.5213908993
 20
-24.2662361678
 10
-0.5225456859
 20
-24.2761045071
 10
-0.5240338338
 20
-24.2860985938
 10
-0.525853665
 20
-24.2961901658
 10
-0.528003926
 20
-24.3063608297
 10
-0.5304825422
 20
-24.3165910455
 10
-0.5332835452
 20
-24.3268499482
 10
-0.5364023717
 20
-24.3371173039
 10
-0.539834112
 20
-24.3473737812
 10
-0.5435693638
 20
-24.3575896871
 10
-0.5476009087
 20
-24.3677450888
 10
-0.5519210828
 20
-24.3778205057
 10
-0.5565172986
 20
-24.3877874231
 10
-0.5613803013
 20
-24.3976274618
 10
-0.5664997878
 20
-24.4073213679
 10
-0.5718592742
 20
-24.4168405297
 10
-0.5774469848
 20
-24.4261675056
 10
-0.5832509834
 20
-24.4352856904
 10
-0.5892525116
 20
-24.4441696444
 10
-0.5954361323
 20
-24.4528014966
 10
-0.6017905374
 20
-24.461170264
 10
-0.6083022087
 20
-24.4692625302
  0
LWPOLYLINE
  5
383
100
AcDbEntity
  8
268140580
100
AcDbPolyline
 62
7
  6
CONTINUOUS
 90
21
 70
0
 10
-1.1748238563
 20
-20.8504435837
 10
-1.1752231659
 20
-20.8720519218
 10
-1.1764317421
 20
-20.8931699045
 10
-1.1784495849
 20
-20.9137975316
 10
-1.1812869527
 20
-20.9339986377
 10
-1.184933587
 20
-20.9537093883
 10
-1.1893587128
 20
-20.9727382803
 10
-1.194567579
 20
-20.9910563229
 10
-1.2005549367
 20
-21.008692507
 10
-1.2072742635
 20
-21.0255423013
 10
-1.2147150583
 20
-21.041584236
 10
-1.2228878223
 20
-21.0568397809
 10
-1.2317775368
 20
-21.0712688149
 10
-1.2414085448
 20
-21.084899832
 10
-1.2517565033
 20
-21.0977043382
 10
-1.2627333653
 20
-21.1095567299
 10
-1.274345436
 20
-21.1204380386
 10
-1.2865864102
 20
-21.1303672329
 10
-1.2993493249
 20
-21.1392756141
 10
-1.3126060524
 20
-21.1471437526
 10
-1.3236729992
 20
-21.1527435043
  0
LWPOLYLINE
  5
384
100
AcDbEntity
  8
268140580
100
AcDbPolyline
 62
250
  6
CONTINUOUS
 90
28
 70
0
 10
-1.2270206422
 20
16.326792921
 10
-1.2267182327
 20
16.3396027083
 10
-1.2258120387
 20
16.3526710781
 10
-1.2243051606
 20
16.3659533186
 10
-1.2222027541
 20
16.3794039863
 10
-1.2195120122
 20
16.3929770614
 10
-1.2162421411
 20
16.4066261055
 10
-1.2124043281
 20
16.4203044199
 10
-1.2080117039
 20
16.4339652062
 10
-1.2030792973
 20
16.4475617256
 10
-1.1976239837
 20
16.4610474593
 10
-1.1916644281
 20
16.4743762677
 10
-1.1852210201
 20
16.4875025478
 10
-1.1783158051
 20
16.5003813899
 10
-1.1709724085
 20
16.5129687304
 10
-1.1632159546
 20
16.5252215036
 10
-1.1550729814
 20
16.537097788
 10
-1.1465713488
 20
16.5485569504
 10
-1.1377401442
 20
16.5595597848
 10
-1.1286095824
 20
16.5700686463
 10
-1.1192109025
 20
16.5800475803
 10
-1.1095762609
 20
16.589462445
 10
-1.0997386213
 20
16.5982810287
 10
-1.0897316419
 20
16.6064731597
 10
-1.0795895603
 20
16.6140108096
 10
-1.0693470764
 20
16.6208681894
 10
-1.0590392336
 20
16.6270218374
 10
-1.0487012988
 20
16.6324506997
  0
LWPOLYLINE
  5
385
100
AcDbEntity
  8
268140580
100
AcDbPolyline
 62
250
  6
CONTINUOUS
 90
19
 70
0
 10
-1.2270206422
 20
-25.341121747
 10
-1.2267215641
 20
-25.3283834832
 10
-1.2258253415
 20
-25.3153892434
 10
-1.224335007
 20
-25.3021829961
 10
-1.2222556035
 20
-25.288809427
 10
-1.2195941671
 20
-25.275313788
 10
-1.216359703
 20
-25.2617417442
 10
-1.2125631559
 20
-25.248139219
 10
-1.2082173719
 20
-25.234552239
 10
-1.2033370559
 20
-25.2210267783
 10
-1.1979387212
 20
-25.2076086028
 10
-1.1920406342
 20
-25.1943431153
 10
-1.1856627521
 20
-25.1812752021
 10
-1.1788266556
 20
-25.1684490808
 10
-1.1715554759
 20
-25.1559081509
 10
-1.1638738164
 20
-25.143694847
 10
-1.1558076694
 20
-25.1318504951
 10
-1.1473843281
 20
-25.1204151726
 10
-1.1386322946
 20
-25.1094275732
  0
LWPOLYLINE
  5
386
100
AcDbEntity
  8
DRAFT
100
AcDbPolyline
 62
7
  6
CONTINUOUS
 90
43
 70
0
 10
19.159413145
 20
14.7459331052
 10
19.1686822147
 20
14.7528506229
 10
19.1777752
 20
14.7594118383
 10
19.186692415
 20
14.7656149755
 10
19.1954144096
 20
14.7714441877
 10
19.203962049
 20
14.7769115702
 10
19.2123934876
 20
14.7820584553
 10
19.220710002
 20
14.7868942764
 10
19.2289057764
 20
14.7914085004
 10
19.2370233078
 20
14.7956145573
 10
19.245052104
 20
14.7995181488
 10
19.2529936706
 20
14.8031139819
 10
19.2609026902
 20
14.8064010806
 10
19.2687742049
 20
14.8093910873
 10
19.2765962284
 20
14.8120750391
 10
19.2844061447
 20
14.8144231953
 10
19.2921879022
 20
14.8164450703
 10
19.2999331441
 20
14.8181352389
 10
19.3076830204
 20
14.8194436732
 10
19.3154248549
 20
14.8203810232
 10
19.3231350441
 20
14.8209426625
 10
19.3308298779
 20
14.8210575851
 10
19.3384885377
 20
14.820731177
 10
19.3460843905
 20
14.8199647228
 10
19.3536174111
 20
14.8186823187
 10
19.3610626997
 20
14.8168830027
 10
19.3683855401
 20
14.8145741397
 10
19.3755649967
 20
14.8116928153
 10
19.382565749
 20
14.8082347627
 10
19.3893537605
 20
14.8042086656
 10
19.3959042324
 20
14.7995710149
 10
19.4021698982
 20
14.7943229562
 10
19.4081171629
 20
14.7884648718
 10
19.4137296776
 20
14.7819525013
 10
19.418948003
 20
14.7747927643
 10
19.4237266871
 20
14.7669771567
 10
19.4280439461
 20
14.7584393098
 10
19.431833543
 20
14.7491421134
 10
19.4350058301
 20
14.7391163747
 10
19.4374819756
 20
14.7283966194
 10
19.4391805697
 20
14.7169204556
 10
19.4400066654
 20
14.7047314973
 10
19.4400733445
 20
14.7000924066
  0
LWPOLYLINE
  5
387
100
AcDbEntity
  8
RACCORDO
100
AcDbPolyline
 62
7
  6
CONTINUOUS
 90
9
 70
0
 10
21.0393710616
 20
16.3481511051
 10
21.0379140232
 20
16.3471467518
 10
21.0364286887
 20
16.3460379226
 10
21.0349188514
 20
16.344832333
 10
21.0333801493
 20
16.3435226902
 10
21.0317997117
 20
16.3420868524
 10
21.0301726813
 20
16.3405177654
 10
21.0285025685
 20
16.3388233036
 10
21.0267887334
 20
16.3370038789
  0
LWPOLYLINE
  5
388
100
AcDbEntity
  8
RACCORDO
100
AcDbPolyline
 62
7
  6
CONTINUOUS
 90
34
 70
0
 10
20.4046205103
 20
15.1877591376
 10
20.437433623
 20
15.2096918376
 10
20.4697110537
 20
15.2327031987
 10
20.501431988
 20
15.2567884274
 10
20.5325706862
 20
15.2819376726
 10
20.5631125216
 20
15.3081488407
 10
20.5930531634
 20
15.3354296069
 10
20.6223736964
 20
15.3637755993
 10
20.6510531967
 20
15.3931796337
 10
20.6790836034
 20
15.4236476364
 10
20.7064480635
 20
15.4551770991
 10
20.7331246626
 20
15.4877589542
 10
20.7590978124
 20
15.5213908249
 10
20.7843521095
 20
15.5560706246
 10
20.8088663777
 20
15.5917877179
 10
20.8326177831
 20
15.6285268349
 10
20.8555921308
 20
15.6662843258
 10
20.8777706881
 20
15.7050484999
 10
20.899126696
 20
15.7447903056
 10
20.9196476241
 20
15.7855033747
 10
20.9393180042
 20
15.8271749294
 10
20.9581107873
 20
15.8697632646
 10
20.9760154833
 20
15.9132582093
 10
20.9930204652
 20
15.9576461824
 10
21.0091018837
 20
16.0028765048
 10
21.0242516779
 20
16.0489348483
 10
21.0384620662
 20
16.0958069524
 10
21.0517147372
 20
16.1434381362
 10
21.0640043165
 20
16.1918104151
 10
21.0753264048
 20
16.2409086603
 10
21.0856689669
 20
16.2906785972
 10
21.0950274752
 20
16.3410890251
 10
21.103402526
 20
16.3921338126
 10
21.1101882677
 20
16.4392745219
  0
LINE
  5
389
100
AcDbEntity
  8
DRAFT
100
AcDbLine
 62
7
  6
CONTINUOUS
 10
20.4046205104
 20
15.1877591376
 11
19.4400733447
 21
14.5638981744
  0
LWPOLYLINE
  5
38A
100
AcDbEntity
  8
RACCORDO
100
AcDbPolyline
 62
7
  6
CONTINUOUS
 90
40
 70
0
 10
19.159413145
 20
4.8214259098
 10
19.242057875
 20
4.8440510398
 10
19.3223086871
 20
4.8657181038
 10
19.4001655813
 20
4.8864271017
 10
19.4755600908
 20
4.9061499264
 10
19.5485606823
 20
4.924914685
 10
19.6193727565
 20
4.9428056989
 10
19.6880046147
 20
4.9598261857
 10
19.7544479556
 20
4.9759729277
 10
19.8188832762
 20
4.9913205937
 10
19.8813159749
 20
5.0058715282
 10
19.9417406533
 20
5.0196233866
 10
20.0003216138
 20
5.0326438036
 10
20.0570634517
 20
5.0449348689
 10
20.1119615717
 20
5.0564944929
 10
20.1651664899
 20
5.0673840417
 10
20.2166822867
 20
5.0776054518
 10
20.2665048816
 20
5.0871567868
 10
20.314772549
 20
5.0960936028
 10
20.3614899264
 20
5.1044178671
 10
20.4066523762
 20
5.1121276124
 10
20.4503842601
 20
5.1192724937
 10
20.4926885579
 20
5.1258541509
 10
20.5335622898
 20
5.1318709442
 10
20.5731208782
 20
5.137367609
 10
20.6113677995
 20
5.1423458642
 10
20.6482995773
 20
5.146803991
 10
20.6840212056
 20
5.1507815679
 10
20.7185351245
 20
5.1542802366
 10
20.7518388938
 20
5.1572983556
 10
20.7840301872
 20
5.1598705789
 10
20.8151149174
 20
5.1619986852
 10
20.8450871716
 20
5.163680896
 10
20.8740268858
 20
5.1649465292
 10
20.901936741
 20
5.1657969011
 10
20.9288140562
 20
5.1662306954
 10
20.9547307237
 20
5.166273282
 10
20.9797107079
 20
5.1659331175
 10
21.0037300445
 20
5.1652017452
 10
21.0267887334
 20
5.1640791652
  0
LWPOLYLINE
  5
38B
100
AcDbEntity
  8
268140580
100
AcDbPolyline
 62
250
  6
CONTINUOUS
 90
34
 70
0
 10
1.0612471306
 20
14.9873424836
 10
1.0602167637
 20
15.0036102401
 10
1.05856001
 20
15.0201667161
 10
1.0562806182
 20
15.0369744495
 10
1.0533837459
 20
15.0539954096
 10
1.0498759478
 20
15.0711910832
 10
1.045765161
 20
15.088522562
 10
1.0410606869
 20
15.1059506301
 10
1.0357731702
 20
15.1234358533
 10
1.029914575
 20
15.140938668
 10
1.0234981575
 20
15.1584194707
 10
1.0165384359
 20
15.1758387079
 10
1.009051158
 20
15.1931569652
 10
1.0010532651
 20
15.2103350569
 10
0.992562854
 20
15.2273341142
 10
0.9835991358
 20
15.2441156736
 10
0.9741823927
 20
15.2606417637
 10
0.9643339318
 20
15.276874991
 10
0.9540760371
 20
15.2927786248
 10
0.943431919
 20
15.3083166801
 10
0.9324256618
 20
15.3234539993
 10
0.9210821693
 20
15.3381563311
 10
0.9094271082
 20
15.3523904089
 10
0.8974868504
 20
15.3661240254
 10
0.8852884129
 20
15.3793261056
 10
0.872859397
 20
15.3919667774
 10
0.8602279256
 20
15.4040174388
 10
0.8474225798
 20
15.4154508231
 10
0.8344723343
 20
15.4262410599
 10
0.8214064912
 20
15.4363637343
 10
0.8082546146
 20
15.445795942
 10
0.7950464631
 20
15.4545163406
 10
0.7818119225
 20
15.4625051988
 10
0.7685809386
 20
15.4697444402
  0
LWPOLYLINE
  5
38C
100
AcDbEntity
  8
268140580
100
AcDbPolyline
 62
250
  6
CONTINUOUS
 90
34
 70
0
 10
1.0612471306
 20
14.9873424836
 10
1.0609324296
 20
15.0039876599
 10
1.0599890258
 20
15.0209211963
 10
1.0584190363
 20
15.0381047436
 10
1.0562259893
 20
15.0554994429
 10
1.053414837
 20
15.0730658386
 10
1.0499919655
 20
15.0907639628
 10
1.0459651417
 20
15.1085536668
 10
1.0413434766
 20
15.1263947066
 10
1.0361374422
 20
15.1442466559
 10
1.030358833
 20
15.1620690701
 10
1.0240207388
 20
15.1798215789
 10
1.0171375172
 20
15.1974639671
 10
1.0097247609
 20
15.2149562691
 10
1.0017992625
 20
15.2322588581
 10
0.9933789763
 20
15.249332537
 10
0.9844829773
 20
15.2661386276
 10
0.9751314181
 20
15.2826390586
 10
0.9653454831
 20
15.2987964505
 10
0.9551473408
 20
15.3145742015
 10
0.9445600937
 20
15.3299365691
 10
0.9336077262
 20
15.3448487516
 10
0.9223150494
 20
15.3592769674
 10
0.9107076452
 20
15.373188532
 10
0.8988118078
 20
15.3865519313
 10
0.8866544831
 20
15.399336895
 10
0.8742632141
 20
15.411514458
 10
0.8616660786
 20
15.4230570274
 10
0.8488915733
 20
15.4339384897
 10
0.8359686766
 20
15.4441341582
 10
0.822926795
 20
15.453620846
 10
0.8097955196
 20
15.4623770575
 10
0.7966045548
 20
15.4703830143
 10
0.7833837825
 20
15.4776206052
  0
LINE
  5
38D
100
AcDbEntity
  8
268140580
100
AcDbLine
 62
250
  6
CONTINUOUS
 10
0.5407463107
 20
-23.8840149658
 11
0.5407463107
 21
-23.5563870216
  0
LINE
  5
38E
100
AcDbEntity
  8
268140580
100
AcDbLine
 62
250
  6
CONTINUOUS
 10
0.5407463107
 20
15.5879612294
 11
0.5407463107
 21
15.9155891736
  0
LINE
  5
38F
100
AcDbEntity
  8
268140580
100
AcDbLine
 62
250
  6
CONTINUOUS
 10
0.5513524018
 20
13.7019121911
 11
0.5513524018
 21
-22.3247446064
  0
LINE
  5
390
100
AcDbEntity
  8
268140580
100
AcDbLine
 62
7
  6
CONTINUOUS
 10
0.6139696154
 20
-23.7956266181
 11
0.6139696154
 21
-23.4788311474
  0
LINE
  5
391
100
AcDbEntity
  8
268140580
100
AcDbLine
 62
7
  6
CONTINUOUS
 10
0.6139696154
 20
15.6763495771
 11
0.6139696154
 21
16.0039775212
  0
LINE
  5
392
100
AcDbEntity
  8
268140580
100
AcDbLine
 62
250
  6
CONTINUOUS
 10
1.2478530919
 20
-24.6260990362
 11
1.2478530919
 21
-24.2804615752
  0
LINE
  5
393
100
AcDbEntity
  8
268140580
100
AcDbLine
 62
250
  6
CONTINUOUS
 10
1.2478530919
 20
17.0191425642
 11
1.2478530919
 21
17.3647800251
  0
LINE
  5
394
100
AcDbEntity
  8
268140580
100
AcDbLine
 62
7
  6
CONTINUOUS
 10
1.3210763966
 20
-24.5377106885
 11
1.3210763966
 21
-24.1920732276
  0
LINE
  5
395
100
AcDbEntity
  8
268140580
100
AcDbLine
 62
7
  6
CONTINUOUS
 10
1.3210763966
 20
17.1075309118
 11
1.3210763966
 21
17.4531683728
  0
LINE
  5
396
100
AcDbEntity
  8
RACCORDO
100
AcDbLine
 62
7
  6
CONTINUOUS
 10
1.7781831778
 20
11.5850924511
 11
1.7781831778
 21
-19.0231881574
  0
LINE
  5
397
100
AcDbEntity
  8
268140580
100
AcDbLine
 62
7
  6
CONTINUOUS
 10
1.7781831778
 20
-22.7716067364
 11
1.7781831778
 21
15.3335110301
  0
LINE
  5
398
100
AcDbEntity
  8
268140580
100
AcDbLine
 62
7
  6
CONTINUOUS
 10
1.9223783713
 20
21.2802947691
 11
1.9223783713
 21
20.5575710632
  0
LWPOLYLINE
  5
399
100
AcDbEntity
  8
268140580
100
AcDbPolyline
 62
250
  6
CONTINUOUS
 90
18
 70
0
 10
1.2478530919
 20
-24.6260990362
 10
1.247692545
 20
-24.6372412445
 10
1.2470496964
 20
-24.6481188696
 10
1.2459253743
 20
-24.6587016516
 10
1.2443213356
 20
-24.6689622
 10
1.2422412465
 20
-24.6788694438
 10
1.2396916895
 20
-24.6883895131
 10
1.2366803829
 20
-24.697494309
 10
1.2332150652
 20
-24.7061610439
 10
1.2293051172
 20
-24.7143661904
 10
1.2249611295
 20
-24.7220873623
 10
1.2201950508
 20
-24.7293031759
 10
1.2150200826
 20
-24.7359935997
 10
1.2094504954
 20
-24.7421402137
 10
1.2035014979
 20
-24.7477262607
 10
1.1971893487
 20
-24.7527364696
 10
1.1905313206
 20
-24.757157109
 10
1.1847794959
 20
-24.7603575057
  0
LWPOLYLINE
  5
39A
100
AcDbEntity
  8
268140580
100
AcDbPolyline
 62
250
  6
CONTINUOUS
 90
5
 70
0
 10
0.5407463107
 20
-23.5563870216
 10
0.5409637882
 20
-23.5416126558
 10
0.541641691
 20
-23.5266102113
 10
0.5427800192
 20
-23.5113796881
 10
0.5430673093
 20
-23.5085930555
  0
LWPOLYLINE
  5
39B
100
AcDbEntity
  8
268140580
100
AcDbPolyline
 62
7
  6
CONTINUOUS
 90
28
 70
0
 10
0.6139696154
 20
16.0039775212
 10
0.6140979649
 20
16.0125784583
 10
0.6144982145
 20
16.0216648966
 10
0.6151919307
 20
16.0312165341
 10
0.6161992133
 20
16.041213017
 10
0.6175378045
 20
16.0516262352
 10
0.6192224871
 20
16.0624218877
 10
0.6212674972
 20
16.0735750265
 10
0.6236838805
 20
16.0850517754
 10
0.626476922
 20
16.0968033003
 10
0.6296531095
 20
16.1087976099
 10
0.6332160978
 20
16.1209984771
 10
0.6371609617
 20
16.1333496209
 10
0.6414861883
 20
16.1458154203
 10
0.6461875338
 20
16.1583576661
 10
0.6512495864
 20
16.1709161405
 10
0.6566627714
 20
16.1834538392
 10
0.6624152108
 20
16.1959329538
 10
0.6684816951
 20
16.208293411
 10
0.6748452479
 20
16.2204995963
 10
0.6814870771
 20
16.2325163777
 10
0.6883733768
 20
16.244287278
 10
0.6954807827
 20
16.2557805144
 10
0.7027849079
 20
16.2669661627
 10
0.7102453351
 20
16.2777948386
 10
0.7178289891
 20
16.2882344323
 10
0.7255120396
 20
16.2982690326
 10
0.7332653488
 20
16.3078778757
  0
LWPOLYLINE
  5
39C
100
AcDbEntity
  8
268140580
100
AcDbPolyline
 62
250
  6
CONTINUOUS
 90
20
 70
0
 10
1.0612471306
 20
-23.1177752829
 10
1.0609324057
 20
-23.1340951885
 10
1.0599889439
 20
-23.150052217
 10
1.0584188824
 20
-23.1656102206
 10
1.056225778
 20
-23.1807339556
 10
1.0534145986
 20
-23.1953891617
 10
1.0499917127
 20
-23.2095426402
 10
1.045964874
 20
-23.2231623289
 10
1.0413432047
 20
-23.2362173749
 10
1.0361371743
 20
-23.2486782042
 10
1.0303585762
 20
-23.2605165891
 10
1.0240205008
 20
-23.2717057118
 10
1.0171373058
 20
-23.2822202254
 10
1.0097245838
 20
-23.2920363111
 10
1.0017991272
 20
-23.3011317324
 10
0.9933788896
 20
-23.309485885
 10
0.9844829455
 20
-23.3170798444
 10
0.9751314471
 20
-23.3238964075
 10
0.9653455786
 20
-23.3299201329
 10
0.9573084631
 20
-23.3341158811
  0
LWPOLYLINE
  5
39D
100
AcDbEntity
  8
268140580
100
AcDbPolyline
 62
250
  6
CONTINUOUS
 90
17
 70
0
 10
1.0612471306
 20
-23.1177752829
 10
1.0602168148
 20
-23.134408326
 10
1.0585601387
 20
-23.1506784043
 10
1.0562808308
 20
-23.1665486934
 10
1.0533840176
 20
-23.1819833227
 10
1.0498762407
 20
-23.1969473003
 10
1.0457654622
 20
-23.211406608
 10
1.0410609987
 20
-23.2253284843
 10
1.0357734817
 20
-23.2386814736
 10
1.029914878
 20
-23.2514353539
 10
1.0234984452
 20
-23.2635612641
 10
1.0165387009
 20
-23.2750317696
 10
1.0090513926
 20
-23.2858209161
 10
1.0010534617
 20
-23.2959042909
 10
0.9925630055
 20
-23.305259078
 10
0.9835992357
 20
-23.3138641095
 10
0.9741824349
 20
-23.3216999147
  0
LINE
  5
39E
100
AcDbEntity
  8
268140580
100
AcDbLine
 62
250
  6
CONTINUOUS
 10
-1.7927060672
 20
-2.2660595871
 11
-1.5345485443
 21
-2.146833888
  0
LINE
  5
39F
100
AcDbEntity
  8
268140580
100
AcDbLine
 62
7
  6
CONTINUOUS
 10
-1.7927060672
 20
-2.3923620515
 11
-1.6156410453
 21
-2.3105875567
  0
LWPOLYLINE
  5
3A0
100
AcDbEntity
  8
268140580
100
AcDbPolyline
 62
7
  6
CONTINUOUS
 90
15
 70
0
 10
-12.7448036762
 20
22.3159905521
 10
-12.7447227581
 20
22.3158551604
 10
-12.7443273099
 20
22.3151509891
 10
-12.7443299476
 20
22.3151633105
 10
-12.7446402121
 20
22.3158981288
 10
-12.7451584282
 20
22.3172999494
 10
-12.7458203949
 20
22.3193635695
 10
-12.7465712054
 20
22.3220923489
 10
-12.7473531231
 20
22.3254570132
 10
-12.7481199064
 20
22.3294472252
 10
-12.7488297832
 20
22.334056258
 10
-12.7494437254
 20
22.3392777068
 10
-12.7499248478
 20
22.3451057116
 10
-12.7502374503
 20
22.3515225378
 10
-12.750348549
 20
22.3585086593
  0
LWPOLYLINE
  5
3A1
100
AcDbEntity
  8
268140580
100
AcDbPolyline
 62
250
  6
CONTINUOUS
 90
15
 70
0
 10
-12.1164650725
 20
23.7013016464
 10
-12.1120859855
 20
23.6939306805
 10
-12.1082013216
 20
23.6868196426
 10
-12.1048221347
 20
23.6799882217
 10
-12.1019578647
 20
23.673454769
 10
-12.0996171411
 20
23.6672381041
 10
-12.097807262
 20
23.6613571557
 10
-12.0965332919
 20
23.6558285948
 10
-12.0957985103
 20
23.6506669557
 10
-12.0956049328
 20
23.6458862702
 10
-12.0959531416
 20
23.6414996019
 10
-12.0968422309
 20
23.6375190908
 10
-12.0982697611
 20
23.6339557651
 10
-12.1002317983
 20
23.6308194209
 10
-12.1007227297
 20
23.6302020009
  0
LWPOLYLINE
  5
3A2
100
AcDbEntity
  8
268140580
100
AcDbPolyline
 62
250
  6
CONTINUOUS
 90
13
 70
0
 10
-12.6467951584
 20
23.0611366034
 10
-12.6419549113
 20
23.0529536498
 10
-12.6377291983
 20
23.0450974629
 10
-12.6341323181
 20
23.0375946255
 10
-12.6311764414
 20
23.0304705249
 10
-12.6288715698
 20
23.0237492668
 10
-12.6272255023
 20
23.0174535938
 10
-12.6262438087
 20
23.0116048085
 10
-12.6259298108
 20
23.0062227013
 10
-12.626284571
 20
23.0013254835
 10
-12.6273068889
 20
22.9969297259
 10
-12.6289933053
 20
22.9930503021
 10
-12.6310528156
 20
22.9900369579
  0
LWPOLYLINE
  5
3A3
100
AcDbEntity
  8
RACCORDO
100
AcDbPolyline
 62
7
  6
CONTINUOUS
 90
40
 70
0
 10
21.0267887334
 20
16.3370038789
 10
21.0037300839
 20
16.3120033699
 10
20.9797107893
 20
16.2863992902
 10
20.9547308496
 20
16.2601916398
 10
20.9288142304
 20
16.2333967791
 10
20.901936966
 20
16.2059983477
 10
20.87402716
 20
16.1779472647
 10
20.8450874918
 20
16.1492449884
 10
20.815115282
 20
16.1198900605
 10
20.7840305963
 20
16.089829025
 10
20.7518393482
 20
16.0590662266
 10
20.7185356243
 20
16.0275973205
 10
20.6840217505
 20
15.9953558168
 10
20.6483001679
 20
15.9623426015
 10
20.6113684356
 20
15.9285567886
 10
20.5731215564
 20
15.8939292297
 10
20.5335630058
 20
15.8584618049
 10
20.4926893084
 20
15.8221526343
 10
20.4503850415
 20
15.7849269298
 10
20.4066531849
 20
15.7467861374
 10
20.3614907587
 20
15.7077288112
 10
20.3147734004
 20
15.6676758254
 10
20.2665057477
 20
15.6266300153
 10
20.2166831628
 20
15.5845885455
 10
20.16516737
 20
15.5414637842
 10
20.1119624497
 20
15.4972580202
 10
20.0570643214
 20
15.4519689647
 10
20.0003224677
 20
15.4055021189
 10
19.9417414837
 20
15.3578601518
 10
19.8813167744
 20
15.3090403945
 10
19.8188840365
 20
15.2589403415
 10
19.7544486683
 20
15.207563238
 10
19.6880052715
 20
15.1549058387
 10
19.6193733485
 20
15.1008559018
 10
19.5485612006
 20
15.0454188061
 10
19.4755605264
 20
14.9885891727
 10
19.400165924
 20
14.9302386238
 10
19.3223089259
 20
14.8703243665
 10
19.2420579996
 20
14.8088891937
 10
19.159413145
 20
14.7459331052
  0
LINE
  5
3A4
100
AcDbEntity
  8
268140580
100
AcDbLine
 62
250
  6
CONTINUOUS
 10
-1.7466482699
 20
-5.8553528694
 11
-1.7927060672
 21
-5.8785593502
  0
LINE
  5
3A5
100
AcDbEntity
  8
268140580
100
AcDbLine
 62
7
  6
CONTINUOUS
 10
-1.0271988939
 20
3.6004124932
 11
-1.395669767
 21
3.7846479297
  0
LINE
  5
3A6
100
AcDbEntity
  8
268140580
100
AcDbLine
 62
7
  6
CONTINUOUS
 10
-1.7927060672
 20
4.1866042199
 11
-1.6077839964
 21
4.0941431845
  0
LWPOLYLINE
  5
3A7
100
AcDbEntity
  8
268140580
100
AcDbPolyline
 62
7
  6
CONTINUOUS
 90
25
 70
0
 10
0.682167667
 20
15.6622435221
 10
0.6839125991
 20
15.6480399546
 10
0.6852167041
 20
15.6342065699
 10
0.6860799822
 20
15.620743368
 10
0.686571797
 20
15.6076411944
 10
0.6866227848
 20
15.5949092036
 10
0.6860248543
 20
15.582574859
 10
0.6847170554
 20
15.570630061
 10
0.6827603382
 20
15.5590829091
 10
0.6801294622
 20
15.5479851651
 10
0.676789223
 20
15.5373550304
 10
0.6727748249
 20
15.5271743036
 10
0.6681666409
 20
15.5174401428
 10
0.6629679229
 20
15.5081730232
 10
0.657175419
 20
15.4993524697
 10
0.6508597454
 20
15.4909142148
 10
0.6440153368
 20
15.4828435539
 10
0.6366477586
 20
15.4751551916
 10
0.6288443231
 20
15.4678289748
 10
0.6206024611
 20
15.4608620075
 10
0.6119247418
 20
15.4542571857
 10
0.6029061847
 20
15.4480030452
 10
0.5935784629
 20
15.4420957643
 10
0.5839099033
 20
15.4365391647
 10
0.573900506
 20
15.4313332463
  0
LINE
  5
3A8
100
AcDbEntity
  8
268140580
100
AcDbLine
 62
7
  6
CONTINUOUS
 10
6.7369330503
 20
-17.6289936448
 11
6.7369330503
 21
-17.4670382322
  0
LINE
  5
3A9
100
AcDbEntity
  8
268140580
100
AcDbLine
 62
7
  6
CONTINUOUS
 10
6.7369330503
 20
18.9725759616
 11
6.7369330503
 21
19.3742836898
  0
LWPOLYLINE
  5
3AA
100
AcDbEntity
  8
RACCORDO
100
AcDbPolyline
 62
7
  6
CONTINUOUS
 90
24
 70
0
 10
21.0408001263
 20
5.1675935099
 10
21.046661363
 20
5.1711353083
 10
21.0522960722
 20
5.1747472104
 10
21.0576989099
 20
5.1784256519
 10
21.0628647538
 20
5.1821668694
 10
21.0677887175
 20
5.1859672606
 10
21.0724661537
 20
5.1898233878
 10
21.0768926456
 20
5.1937313455
 10
21.0810640141
 20
5.197687248
 10
21.0849763291
 20
5.2016875898
 10
21.0886259115
 20
5.2057282804
 10
21.0920093317
 20
5.2098052605
 10
21.0951234153
 20
5.2139149902
 10
21.0979652516
 20
5.2180532292
 10
21.1005321902
 20
5.2222157798
 10
21.102821842
 20
5.2263991032
 10
21.1048320898
 20
5.2305988458
 10
21.1065610841
 20
5.2348107082
 10
21.1080072426
 20
5.239031188
 10
21.1091692593
 20
5.2432558563
 10
21.1100461
 20
5.2474803492
 10
21.1106370032
 20
5.2517012371
 10
21.1109414833
 20
5.2559140539
 10
21.1109867933
 20
5.258277431
  0
LWPOLYLINE
  5
3AB
100
AcDbEntity
  8
RACCORDO
100
AcDbPolyline
 62
7
  6
CONTINUOUS
 90
10
 70
0
 10
21.0408001263
 20
5.1675935099
 10
21.0393710616
 20
5.1668027784
 10
21.0379140232
 20
5.1661093596
 10
21.0364286887
 20
5.165513474
 10
21.0349188514
 20
5.1650124705
 10
21.0333801493
 20
5.1646094228
 10
21.0317997117
 20
5.1643132875
 10
21.0301726813
 20
5.1641273767
 10
21.0285025685
 20
5.1640491986
 10
21.0267887334
 20
5.1640791652
  0
LINE
  5
3AC
100
AcDbEntity
  8
268140580
100
AcDbLine
 62
250
  6
CONTINUOUS
 10
-1.5345485443
 20
-6.2211707834
 11
-1.7927060672
 21
-6.3512449063
  0
LINE
  5
3AD
100
AcDbEntity
  8
268140580
100
AcDbLine
 62
7
  6
CONTINUOUS
 10
-1.6077839964
 20
7.3417384487
 11
-1.7797101914
 21
7.4277015462
  0
LWPOLYLINE
  5
3AE
100
AcDbEntity
  8
SMUSSO
100
AcDbPolyline
 62
7
  6
CONTINUOUS
 90
35
 70
0
 10
8.9983887925
 20
21.5497632161
 10
8.9987519626
 20
21.5716256036
 10
9.0005358982
 20
21.6028989431
 10
9.003808182
 20
21.6341341711
 10
9.0085668632
 20
21.6653085047
 10
9.0148084956
 20
21.6964005816
 10
9.022530266
 20
21.7273972556
 10
9.0317298149
 20
21.7582880939
 10
9.0424041403
 20
21.7890589502
 10
9.054547437
 20
21.8196895581
 10
9.0681521926
 20
21.8501603734
 10
9.0832102741
 20
21.8804523796
 10
9.0997146549
 20
21.9105507092
 10
9.1176580861
 20
21.9404421756
 10
9.1370321167
 20
21.9701109873
 10
9.1578262606
 20
21.999539492
 10
9.1800292665
 20
22.0287118405
 10
9.2036294595
 20
22.0576114759
 10
9.2286146102
 20
22.0862222748
 10
9.2549713378
 20
22.1145292665
 10
9.2826852944
 20
22.1425160146
 10
9.3117422679
 20
22.170167187
 10
9.3421280707
 20
22.1974696811
 10
9.3738276978
 20
22.2244087659
 10
9.4068236029
 20
22.2509683291
 10
9.4410966582
 20
22.2771334903
 10
9.4766274149
 20
22.3028885566
 10
9.5133979696
 20
22.3282197305
 10
9.5513904524
 20
22.3531152914
 10
9.5905849469
 20
22.377561127
 10
9.6309603672
 20
22.4015430487
 10
9.6724963514
 20
22.4250494733
 10
9.7151712311
 20
22.4480675508
 10
9.7589619377
 20
22.470583214
 10
9.8038451443
 20
22.4925833981
  0
LWPOLYLINE
  5
3AF
100
AcDbEntity
  8
268140580
100
AcDbPolyline
 62
250
  6
CONTINUOUS
 90
28
 70
0
 10
0.717523006
 20
-24.1706266181
 10
0.7223632689
 20
-24.1570052133
 10
0.7265889922
 20
-24.1431308226
 10
0.7301858779
 20
-24.1290503929
 10
0.7331417556
 20
-24.1148115684
 10
0.735446624
 20
-24.1004625291
 10
0.7370926845
 20
-24.0860518286
 10
0.738074368
 20
-24.0716282283
 10
0.7383883532
 20
-24.0572405334
 10
0.7380335785
 20
-24.0429374275
 10
0.7370112447
 20
-24.0287673081
 10
0.7353248119
 20
-24.014778122
 10
0.7329799869
 20
-24.0010172042
 10
0.7299847046
 20
-23.9875311172
 10
0.7263491006
 20
-23.9743654932
 10
0.7220854771
 20
-23.9615648798
 10
0.7172082614
 20
-23.9491725901
 10
0.7117339569
 20
-23.9372305551
 10
0.7056810871
 20
-23.9257791818
 10
0.6990701334
 20
-23.9148572177
 10
0.6919234654
 20
-23.9045016186
 10
0.6842652649
 20
-23.8947474236
 10
0.676121445
 20
-23.8856276372
 10
0.667519562
 20
-23.8771731175
 10
0.6584887212
 20
-23.8694124707
 10
0.6490594799
 20
-23.8623719561
 10
0.6392637437
 20
-23.8560753963
 10
0.6291346584
 20
-23.8505440967
  0
LWPOLYLINE
  5
3B0
100
AcDbEntity
  8
RACCORDO
100
AcDbPolyline
 62
7
  6
CONTINUOUS
 90
9
 70
0
 10
21.0393710616
 20
4.3970005329
 10
21.0379140232
 20
4.3959961796
 10
21.0364286887
 20
4.3948873504
 10
21.0349188514
 20
4.3936817608
 10
21.0333801493
 20
4.392372118
 10
21.0317997117
 20
4.3909362802
 10
21.0301726813
 20
4.3893671931
 10
21.0285025685
 20
4.3876727314
 10
21.0267887334
 20
4.3858533067
  0
LWPOLYLINE
  5
3B1
100
AcDbEntity
  8
RACCORDO
100
AcDbPolyline
 62
7
  6
CONTINUOUS
 90
34
 70
0
 10
20.4046205104
 20
3.2366085654
 10
20.4374336371
 20
3.2585412751
 10
20.4697110671
 20
3.2815526363
 10
20.5014320006
 20
3.3056378651
 10
20.5325706982
 20
3.3307871104
 10
20.563112533
 20
3.3569982786
 10
20.5930531741
 20
3.3842790448
 10
20.6223737065
 20
3.4126250372
 10
20.6510532062
 20
3.4420290715
 10
20.6790836123
 20
3.4724970742
 10
20.7064480718
 20
3.5040265368
 10
20.7331246703
 20
3.5366083918
 10
20.7590978197
 20
3.5702402623
 10
20.7843521162
 20
3.6049200619
 10
20.8088663838
 20
3.6406371549
 10
20.8326177888
 20
3.6773762717
 10
20.855592136
 20
3.7151337623
 10
20.8777706928
 20
3.7538979361
 10
20.8991267003
 20
3.7936397415
 10
20.9196476278
 20
3.8343528102
 10
20.9393180076
 20
3.8760243646
 10
20.9581107903
 20
3.9186126993
 10
20.9760154859
 20
3.9621076436
 10
20.9930204674
 20
4.0064956162
 10
21.0091018856
 20
4.0517259381
 10
21.0242516794
 20
4.0977842811
 10
21.0384620675
 20
4.1446563847
 10
21.0517147382
 20
4.1922875679
 10
21.0640043173
 20
4.2406598461
 10
21.0753264054
 20
4.2897580907
 10
21.0856689673
 20
4.339528027
 10
21.0950274754
 20
4.3899384543
 10
21.1034025262
 20
4.4409832411
 10
21.1101882677
 20
4.4881239496
  0
LINE
  5
3B2
100
AcDbEntity
  8
DRAFT
100
AcDbLine
 62
7
  6
CONTINUOUS
 10
20.4046205104
 20
3.2366085654
 11
19.4400733447
 21
2.6127476022
  0
LWPOLYLINE
  5
3B3
100
AcDbEntity
  8
RACCORDO
100
AcDbPolyline
 62
7
  6
CONTINUOUS
 90
21
 70
0
 10
21.0393710616
 20
4.3970005329
 10
21.046661363
 20
4.4015673675
 10
21.0522960722
 20
4.4053418347
 10
21.0576989099
 20
4.4092200274
 10
21.0628647538
 20
4.4131984149
 10
21.0677887175
 20
4.4172731621
 10
21.0724661537
 20
4.4214401337
 10
21.0768926456
 20
4.4256955141
 10
21.0810640141
 20
4.4300353277
 10
21.0849763291
 20
4.4344551014
 10
21.0886259115
 20
4.4389508333
 10
21.0920093317
 20
4.4435183755
 10
21.0951234153
 20
4.4481529542
 10
21.0979652516
 20
4.4528504162
 10
21.1005321902
 20
4.4576064767
 10
21.102821842
 20
4.4624161018
 10
21.1048320898
 20
4.4672750229
 10
21.1065610841
 20
4.4721788555
 10
21.1080072426
 20
4.4771223478
 10
21.1091692593
 20
4.4821011527
 10
21.1100461
 20
4.4871108244
  0
LINE
  5
3B4
100
AcDbEntity
  8
ASSI
100
AcDbLine
 62
250
  6
CONTINUOUS
 10
-20.6715166129
 20
18.1515814925
 11
-5.7939964122
 21
10.7128213921
  0
LINE
  5
3B5
100
AcDbEntity
  8
RACCORDO
100
AcDbLine
 62
250
  6
CONTINUOUS
 10
-5.7939964122
 20
10.7128213921
 11
-20.6715166129
 21
18.1515814925
  0
LINE
  5
3B6
100
AcDbEntity
  8
ASSI
100
AcDbLine
 62
250
  6
CONTINUOUS
 10
-19.6789471046
 20
19.9034928629
 11
-4.7780544383
 21
12.4530465298
  0
LINE
  5
3B7
100
AcDbEntity
  8
RACCORDO
100
AcDbLine
 62
250
  6
CONTINUOUS
 10
-4.7780544383
 20
12.4530465298
 11
-19.6789471046
 21
19.9034928629
  0
LWPOLYLINE
  5
3B8
100
AcDbEntity
  8
268140580
100
AcDbPolyline
 62
250
  6
CONTINUOUS
 90
18
 70
0
 10
-13.930868347
 20
22.3674039192
 10
-13.9257489024
 20
22.3628357535
 10
-13.9208845756
 20
22.3578641807
 10
-13.916285789
 20
22.3524978251
 10
-13.9119620285
 20
22.346745607
 10
-13.9079262739
 20
22.3406235309
 10
-13.9041865191
 20
22.3341435689
 10
-13.9007499372
 20
22.3273179832
 10
-13.8976258128
 20
22.3201662126
 10
-13.8948187753
 20
22.3127009011
 10
-13.8923343286
 20
22.3049389616
 10
-13.8901797497
 20
22.296909368
 10
-13.8883573265
 20
22.2886321512
 10
-13.8868674356
 20
22.280122552
 10
-13.8857112073
 20
22.2714047407
 10
-13.884887871
 20
22.2624994245
 10
-13.8843955435
 20
22.2534232317
 10
-13.8842320255
 20
22.2441948652
  0
LWPOLYLINE
  5
3B9
100
AcDbEntity
  8
268140580
100
AcDbPolyline
 62
7
  6
CONTINUOUS
 90
15
 70
0
 10
0.6195144882
 20
15.6338314699
 10
0.6195954063
 20
15.6336960782
 10
0.6199908545
 20
15.6329919069
 10
0.6199882168
 20
15.6330042282
 10
0.6196779523
 20
15.6337390465
 10
0.6191597362
 20
15.6351408672
 10
0.6184977695
 20
15.6372044873
 10
0.6177469591
 20
15.6399332667
 10
0.6169650414
 20
15.643297931
 10
0.616198258
 20
15.647288143
 10
0.6154883813
 20
15.6518971758
 10
0.614874439
 20
15.6571186246
 10
0.6143933166
 20
15.6629466294
 10
0.6140807142
 20
15.6693634556
 10
0.6139696154
 20
15.6763495771
  0
LWPOLYLINE
  5
3BA
100
AcDbEntity
  8
268140580
100
AcDbPolyline
 62
250
  6
CONTINUOUS
 90
13
 70
0
 10
0.717523006
 20
16.3789775212
 10
0.7223632532
 20
16.3707945676
 10
0.7265889661
 20
16.3629383806
 10
0.7301858463
 20
16.3554355433
 10
0.7331417231
 20
16.3483114427
 10
0.7354465947
 20
16.3415901846
 10
0.7370926621
 20
16.3352945116
 10
0.7380743557
 20
16.3294457263
 10
0.7383883536
 20
16.3240636191
 10
0.7380335935
 20
16.3191664013
 10
0.7370112756
 20
16.3147706437
 10
0.7353248592
 20
16.3108912199
 10
0.7332653488
 20
16.3078778757
  0
LWPOLYLINE
  5
3BB
100
AcDbEntity
  8
268140580
100
AcDbPolyline
 62
250
  6
CONTINUOUS
 90
13
 70
0
 10
0.5739051961
 20
15.4313355914
 10
0.5686195257
 20
15.4424113202
 10
0.5637873668
 20
15.4538964932
 10
0.5594087195
 20
15.4657911103
 10
0.5554789456
 20
15.4781258742
 10
0.5520026833
 20
15.4908700821
 10
0.5489938467
 20
15.5039316263
 10
0.5464584916
 20
15.5173101562
 10
0.5443905623
 20
15.5310060224
 10
0.5427858049
 20
15.5449281684
 10
0.5416428015
 20
15.5590462422
 10
0.5409629702
 20
15.5733905959
 10
0.5407463107
 20
15.5879612294
  0
LINE
  5
3BC
100
AcDbEntity
  8
SMUSSO
100
AcDbLine
 62
250
  6
CONTINUOUS
 10
9.8038451443
 20
22.0640666224
 11
9.8038451443
 21
22.4925833981
  0
LINE
  5
3BD
100
AcDbEntity
  8
0
100
AcDbLine
 62
7
  6
CONTINUOUS
 10
10.4755965864
 20
22.3927625387
 11
10.4755965864
 21
21.9656619901
  0
LWPOLYLINE
  5
3BE
100
AcDbEntity
  8
268140580
100
AcDbPolyline
 62
250
  6
CONTINUOUS
 90
31
 70
0
 10
1.2478530919
 20
-24.2804615752
 10
1.2522367143
 20
-24.2682145059
 10
1.2561237888
 20
-24.2557587386
 10
1.2595036613
 20
-24.2431284138
 10
1.2623670678
 20
-24.2303581503
 10
1.2647061598
 20
-24.2174829505
 10
1.2665145261
 20
-24.2045381043
 10
1.2677872101
 20
-24.1915590929
 10
1.2685207234
 20
-24.1785814906
 10
1.2687130556
 20
-24.1656408682
 10
1.2683636794
 20
-24.1527726951
 10
1.2674735524
 20
-24.140012242
 10
1.2660451145
 20
-24.1273944845
 10
1.2640822809
 20
-24.1149540069
 10
1.2615904316
 20
-24.1027249077
 10
1.2585763966
 20
-24.0907407061
 10
1.2550484371
 20
-24.0790342498
 10
1.251016223
 20
-24.0676376256
 10
1.2464908064
 20
-24.0565820707
 10
1.2414845911
 20
-24.0458978876
 10
1.2360112987
 20
-24.0356143609
 10
1.2300859313
 20
-24.0257596772
 10
1.2237247297
 20
-24.0163608473
 10
1.2169451297
 20
-24.0074436328
 10
1.2097657137
 20
-23.9990324753
 10
1.2022061598
 20
-23.991150429
 10
1.1942871884
 20
-23.9838190981
 10
1.1860305048
 20
-23.9770585774
 10
1.1774587399
 20
-23.9708873968
 10
1.1685953885
 20
-23.9653224712
 10
1.1594647443
 20
-23.9603790537
  0
LWPOLYLINE
  5
3BF
100
AcDbEntity
  8
DRAFT
100
AcDbPolyline
 62
7
  6
CONTINUOUS
 90
43
 70
0
 10
19.159413145
 20
2.794782533
 10
19.1686822147
 20
2.8017000506
 10
19.1777752
 20
2.8082612661
 10
19.186692415
 20
2.8144644033
 10
19.1954144096
 20
2.8202936154
 10
19.203962049
 20
2.8257609979
 10
19.2123934876
 20
2.8309078831
 10
19.220710002
 20
2.8357437042
 10
19.2289057764
 20
2.8402579282
 10
19.2370233078
 20
2.8444639851
 10
19.245052104
 20
2.8483675765
 10
19.2529936706
 20
2.8519634096
 10
19.2609026902
 20
2.8552505083
 10
19.2687742049
 20
2.8582405151
 10
19.2765962284
 20
2.8609244668
 10
19.2844061447
 20
2.863272623
 10
19.2921879022
 20
2.865294498
 10
19.2999331441
 20
2.8669846667
 10
19.3076830204
 20
2.868293101
 10
19.3154248549
 20
2.869230451
 10
19.3231350441
 20
2.8697920903
 10
19.3308298779
 20
2.8699070129
 10
19.3384885377
 20
2.8695806047
 10
19.3460843905
 20
2.8688141506
 10
19.3536174111
 20
2.8675317465
 10
19.3610626997
 20
2.8657324304
 10
19.3683855401
 20
2.8634235674
 10
19.3755649967
 20
2.8605422431
 10
19.382565749
 20
2.8570841905
 10
19.3893537605
 20
2.8530580933
 10
19.3959042324
 20
2.8484204426
 10
19.4021698982
 20
2.843172384
 10
19.4081171629
 20
2.8373142996
 10
19.4137296776
 20
2.8308019291
 10
19.418948003
 20
2.8236421921
 10
19.4237266871
 20
2.8158265844
 10
19.4280439461
 20
2.8072887376
 10
19.431833543
 20
2.7979915412
 10
19.4350058301
 20
2.7879658025
 10
19.4374819756
 20
2.7772460472
 10
19.4391805697
 20
2.7657698834
 10
19.4400066654
 20
2.753580925
 10
19.4400733445
 20
2.7489418344
  0
LWPOLYLINE
  5
3C0
100
AcDbEntity
  8
RACCORDO
100
AcDbPolyline
 62
250
  6
CONTINUOUS
 90
33
 70
0
 10
18.9148971651
 20
-2.0444268214
 10
18.9217307382
 20
-2.0406481111
 10
18.9362706152
 20
-2.0319742997
 10
18.9504338331
 20
-2.0226418789
 10
18.9642096407
 20
-2.012657933
 10
18.9775875809
 20
-2.0020300407
 10
18.9905574986
 20
-1.9907662695
 10
19.0031095484
 20
-1.9788751697
 10
19.0152342023
 20
-1.9663657677
 10
19.0269222564
 20
-1.9532475592
 10
19.0381648385
 20
-1.9395305023
 10
19.0489534145
 20
-1.9252250093
 10
19.0592797948
 20
-1.9103419395
 10
19.0691361407
 20
-1.8948925905
 10
19.0785149704
 20
-1.8788886898
 10
19.0874091645
 20
-1.8623423857
 10
19.0958119714
 20
-1.8452662385
 10
19.1037170128
 20
-1.8276732105
 10
19.1111182878
 20
-1.8095766564
 10
19.1180101784
 20
-1.7909903131
 10
19.1243874529
 20
-1.7719282895
 10
19.1302452704
 20
-1.7524050552
 10
19.1355791842
 20
-1.7324354303
 10
19.1403851454
 20
-1.7120345735
 10
19.1446595059
 20
-1.6912179709
 10
19.1483990211
 20
-1.6700014243
 10
19.1516008522
 20
-1.6484010388
 10
19.1542625689
 20
-1.6264332113
 10
19.1563821506
 20
-1.6041146172
 10
19.1579579884
 20
-1.5814621985
 10
19.158988886
 20
-1.5584931504
 10
19.159474061
 20
-1.5352249086
 10
19.159413145
 20
-1.5116751356
  0
LINE
  5
3C1
100
AcDbEntity
  8
RACCORDO
100
AcDbLine
 62
250
  6
CONTINUOUS
 10
13.2357296001
 20
-4.7076383074
 11
19.159413145
 21
-1.5116751356
  0
LINE
  5
3C2
100
AcDbEntity
  8
RACCORDO
100
AcDbLine
 62
7
  6
CONTINUOUS
 10
12.9912136202
 20
-5.2403899932
 11
18.9148971651
 21
-2.0444268214
  0
LWPOLYLINE
  5
3C3
100
AcDbEntity
  8
RACCORDO
100
AcDbPolyline
 62
250
  6
CONTINUOUS
 90
30
 70
0
 10
19.159413145
 20
-1.5116751356
 10
19.1780742835
 20
-1.5017457926
 10
19.1961873785
 20
-1.4915658947
 10
19.213738979
 20
-1.4811430014
 10
19.2307160511
 20
-1.470484853
 10
19.2471059877
 20
-1.459599364
 10
19.2628966174
 20
-1.4484946183
 10
19.2780762139
 20
-1.4371788622
 10
19.292633505
 20
-1.4256604989
 10
19.3065576802
 20
-1.4139480819
 10
19.3198383993
 20
-1.4020503091
 10
19.3324658001
 20
-1.3899760157
 10
19.3444305054
 20
-1.3777341681
 10
19.35572363
 20
-1.3653338573
 10
19.3663367877
 20
-1.3527842918
 10
19.3762620971
 20
-1.3400947909
 10
19.3854921876
 20
-1.327274778
 10
19.3940202048
 20
-1.3143337732
 10
19.4018398159
 20
-1.3012813866
 10
19.4089452139
 20
-1.2881273111
 10
19.4153311223
 20
-1.2748813148
 10
19.4209927989
 20
-1.2615532343
 10
19.4259260394
 20
-1.2481529672
 10
19.4301271802
 20
-1.2346904645
 10
19.4335931016
 20
-1.2211757237
 10
19.4363212298
 20
-1.2076187807
 10
19.4383095388
 20
-1.194029703
 10
19.4395565521
 20
-1.1804185821
 10
19.4400613438
 20
-1.1667955255
 10
19.4400733447
 20
-1.1643459504
  0
LINE
  5
3C4
100
AcDbEntity
  8
268140580
100
AcDbLine
 62
250
  6
CONTINUOUS
 10
-0.8150991683
 20
-10.9078350642
 11
-1.7927060672
 21
-11.3593263268
  0
LINE
  5
3C5
100
AcDbEntity
  8
268140580
100
AcDbLine
 62
7
  6
CONTINUOUS
 10
-0.8961916693
 20
-11.0715887328
 11
-1.7927060672
 21
-11.4856287912
  0
LWPOLYLINE
  5
3C6
100
AcDbEntity
  8
RACCORDO
100
AcDbPolyline
 62
7
  6
CONTINUOUS
 90
40
 70
0
 10
19.159413145
 20
16.772576482
 10
19.242057875
 20
16.7952016121
 10
19.3223086871
 20
16.816868676
 10
19.4001655813
 20
16.8375776739
 10
19.4755600908
 20
16.8573004986
 10
19.5485606823
 20
16.8760652572
 10
19.6193727565
 20
16.8939562712
 10
19.6880046147
 20
16.9109767579
 10
19.7544479556
 20
16.9271235
 10
19.8188832762
 20
16.9424711659
 10
19.8813159749
 20
16.9570221004
 10
19.9417406533
 20
16.9707739588
 10
20.0003216138
 20
16.9837943759
 10
20.0570634517
 20
16.9960854411
 10
20.1119615717
 20
17.0076450651
 10
20.1651664899
 20
17.0185346139
 10
20.2166822867
 20
17.0287560241
 10
20.2665048816
 20
17.038307359
 10
20.314772549
 20
17.0472441751
 10
20.3614899264
 20
17.0555684393
 10
20.4066523762
 20
17.0632781846
 10
20.4503842601
 20
17.0704230659
 10
20.4926885579
 20
17.0770047232
 10
20.5335622898
 20
17.0830215164
 10
20.5731208782
 20
17.0885181812
 10
20.6113677995
 20
17.0934964364
 10
20.6482995773
 20
17.0979545632
 10
20.6840212056
 20
17.1019321402
 10
20.7185351245
 20
17.1054308089
 10
20.7518388938
 20
17.1084489278
 10
20.7840301872
 20
17.1110211511
 10
20.8151149174
 20
17.1131492575
 10
20.8450871716
 20
17.1148314682
 10
20.8740268858
 20
17.1160971014
 10
20.901936741
 20
17.1169474733
 10
20.9288140562
 20
17.1173812676
 10
20.9547307237
 20
17.1174238543
 10
20.9797107079
 20
17.1170836897
 10
21.0037300445
 20
17.1163523174
 10
21.0267887334
 20
17.1152297374
  0
LINE
  5
3C7
100
AcDbEntity
  8
DRAFT
100
AcDbLine
 62
7
  6
CONTINUOUS
 10
-2.2243756928
 20
12.5002184538
 11
-1.7927060672
 21
12.284383641
  0
LINE
  5
3C8
100
AcDbEntity
  8
ASSI
100
AcDbLine
 62
7
  6
CONTINUOUS
 10
-1.7927060672
 20
12.284383641
 11
-2.2243756928
 21
12.5002184538
  0
LINE
  5
3C9
100
AcDbEntity
  8
RACCORDO
100
AcDbLine
 62
7
  6
CONTINUOUS
 10
-17.5540508554
 20
21.1425020017
 11
-2.5776599587
 21
13.6543065533
  0
LINE
  5
3CA
100
AcDbEntity
  8
ASSI
100
AcDbLine
 62
7
  6
CONTINUOUS
 10
-2.5776599587
 20
13.6543065533
 11
-17.5540508554
 21
21.1425020017
  0
LWPOLYLINE
  5
3CB
100
AcDbEntity
  8
268140580
100
AcDbPolyline
 62
250
  6
CONTINUOUS
 90
18
 70
0
 10
-0.5665501826
 20
15.685244837
 10
-0.561430738
 20
15.6806766713
 10
-0.5565664112
 20
15.6757050985
 10
-0.5519676246
 20
15.6703387429
 10
-0.5476438641
 20
15.6645865248
 10
-0.5436081095
 20
15.6584644487
 10
-0.5398683547
 20
15.6519844867
 10
-0.5364317727
 20
15.645158901
 10
-0.5333076484
 20
15.6380071303
 10
-0.5305006109
 20
15.6305418189
 10
-0.5280161642
 20
15.6227798794
 10
-0.5258615853
 20
15.6147502857
 10
-0.5240391621
 20
15.606473069
 10
-0.5225492712
 20
15.5979634698
 10
-0.5213930429
 20
15.5892456585
 10
-0.5205697065
 20
15.5803403423
 10
-0.5200773791
 20
15.5712641495
 10
-0.5199138611
 20
15.562035783
  0
LWPOLYLINE
  5
3CC
100
AcDbEntity
  8
268140580
100
AcDbPolyline
 62
250
  6
CONTINUOUS
 90
15
 70
0
 10
1.2478530919
 20
17.0191425642
 10
1.2522321789
 20
17.0117715983
 10
1.2561168428
 20
17.0046605604
 10
1.2594960297
 20
16.9978291395
 10
1.2623602998
 20
16.9912956868
 10
1.2647010233
 20
16.9850790219
 10
1.2665109025
 20
16.9791980735
 10
1.2677848725
 20
16.9736695126
 10
1.2685196541
 20
16.9685078735
 10
1.2687132316
 20
16.963727188
 10
1.2683650228
 20
16.9593405197
 10
1.2674759335
 20
16.9553600085
 10
1.2660484033
 20
16.9517966829
 10
1.2640863662
 20
16.9486603387
 10
1.2635954347
 20
16.9480429186
  0
LWPOLYLINE
  5
3CD
100
AcDbEntity
  8
RACCORDO
100
AcDbPolyline
 62
250
  6
CONTINUOUS
 90
33
 70
0
 10
13.2357296001
 20
-4.7076383074
 10
13.2357905161
 20
-4.7311880804
 10
13.2353053411
 20
-4.7544563223
 10
13.2342744435
 20
-4.7774253704
 10
13.2326986057
 20
-4.8000777891
 10
13.230579024
 20
-4.8223963831
 10
13.2279173073
 20
-4.8443642106
 10
13.2247154762
 20
-4.8659645961
 10
13.220975961
 20
-4.8871811427
 10
13.2167016005
 20
-4.9079977453
 10
13.2118956393
 20
-4.9283986021
 10
13.2065617254
 20
-4.948368227
 10
13.200703908
 20
-4.9678914613
 10
13.1943266335
 20
-4.9869534849
 10
13.1874347429
 20
-5.0055398282
 10
13.1800334678
 20
-5.0236363823
 10
13.1721284265
 20
-5.0412294103
 10
13.1637256195
 20
-5.0583055575
 10
13.1548314254
 20
-5.0748518616
 10
13.1454525958
 20
-5.0908557624
 10
13.1355962498
 20
-5.1063051114
 10
13.1252698696
 20
-5.1211881811
 10
13.1144812936
 20
-5.1354936741
 10
13.1032387115
 20
-5.1492107311
 10
13.0915506574
 20
-5.1623289395
 10
13.0794260035
 20
-5.1748383415
 10
13.0668739537
 20
-5.1867294414
 10
13.053904036
 20
-5.1979932125
 10
13.0405260958
 20
-5.2086211049
 10
13.0267502882
 20
-5.2186050507
 10
13.0125870703
 20
-5.2279374715
 10
12.9980471933
 20
-5.236611283
 10
12.9912136202
 20
-5.2403899932
  0
LINE
  5
3CE
100
AcDbEntity
  8
0
100
AcDbLine
 62
7
  6
CONTINUOUS
 10
11.4371239677
 20
21.1220788092
 11
11.4371239677
 21
20.6908392291
  0
LINE
  5
3CF
100
AcDbEntity
  8
0
100
AcDbLine
 62
7
  6
CONTINUOUS
 10
11.8868686291
 20
21.0003309761
 11
11.8868686291
 21
20.6801440876
  0
LINE
  5
3D0
100
AcDbEntity
  8
DRAFT
100
AcDbLine
 62
7
  6
CONTINUOUS
 10
11.9251654878
 20
21.8522683591
 11
11.9251654878
 21
22.3340851375
  0
LINE
  5
3D1
100
AcDbEntity
  8
RACCORDO
100
AcDbLine
 62
250
  6
CONTINUOUS
 10
12.2117712809
 20
-13.5270084245
 11
12.2117712809
 21
-6.5366485031
  0
LWPOLYLINE
  5
3D2
100
AcDbEntity
  8
RACCORDO
100
AcDbPolyline
 62
7
  6
CONTINUOUS
 90
79
 70
0
 10
12.4924314806
 20
-13.1796792392
 10
12.4924493433
 20
-6.1845867201
 10
12.4925968083
 20
-6.1747899385
 10
12.4929041626
 20
-6.1645133393
 10
12.4933843117
 20
-6.1537605959
 10
12.4940496166
 20
-6.1425419027
 10
12.4949114757
 20
-6.1308742552
 10
12.4959811773
 20
-6.1187663555
 10
12.4972695743
 20
-6.1062273548
 10
12.4987860125
 20
-6.0932766277
 10
12.500539915
 20
-6.0799266408
 10
12.5025404515
 20
-6.066187905
 10
12.5047952642
 20
-6.0520780369
 10
12.5073121957
 20
-6.0376104687
 10
12.5100986464
 20
-6.0227984042
 10
12.5131605123
 20
-6.0076598731
 10
12.5165040237
 20
-5.9922088818
 10
12.5201346318
 20
-5.9764613495
 10
12.5240557808
 20
-5.9604388143
 10
12.5282722693
 20
-5.944154577
 10
12.532786993
 20
-5.9276282748
 10
12.5375985994
 20
-5.9108916115
 10
12.5427087843
 20
-5.8939617508
 10
12.5481184132
 20
-5.8768572662
 10
12.5538225181
 20
-5.8596126101
 10
12.5598200194
 20
-5.8422466682
 10
12.5661093225
 20
-5.8247781314
 10
12.5726824323
 20
-5.8072415082
 10
12.5795358322
 20
-5.7896560619
 10
12.5866653567
 20
-5.772040918
 10
12.5940599514
 20
-5.7544303648
 10
12.601713732
 20
-5.736843633
 10
12.6096201778
 20
-5.7192996665
 10
12.6177653314
 20
-5.7018319391
 10
12.6261412599
 20
-5.6844587899
 10
12.6347391512
 20
-5.6671988043
 10
12.6435419016
 20
-5.6500850615
 10
12.6525395427
 20
-5.6331347852
 10
12.6617213217
 20
-5.6163653548
 10
12.6710672272
 20
-5.5998088955
 10
12.6805652119
 20
-5.5834813961
 10
12.6902030941
 20
-5.5673980809
 10
12.6999590295
 20
-5.5515883222
 10
12.7098188092
 20
-5.5360670003
 10
12.7197695713
 20
-5.5208461457
 10
12.7297900769
 20
-5.5059490576
 10
12.7398656484
 20
-5.4913874115
 10
12.7499819534
 20
-5.4771717709
 10
12.7601171719
 20
-5.463321928
 10
12.7702560992
 20
-5.4498469017
 10
12.7803836717
 20
-5.4367547985
 10
12.7904775857
 20
-5.4240621075
 10
12.8005223055
 20
-5.4117752496
 10
12.8105025794
 20
-5.3998994631
 10
12.820396219
 20
-5.3884474439
 10
12.8301879372
 20
-5.3774226361
 10
12.8398625075
 20
-5.3668276194
 10
12.8493977538
 20
-5.3566716953
 10
12.8587775088
 20
-5.3469567458
 10
12.8679884242
 20
-5.337681027
 10
12.8770126789
 20
-5.3288466259
 10
12.885833627
 20
-5.3204537775
 10
12.8944397667
 20
-5.3124973033
 10
12.9028208992
 20
-5.3049705452
 10
12.9109631405
 20
-5.2978698665
 10
12.9188532266
 20
-5.2911907447
 10
12.9264812188
 20
-5.2849254768
 10
12.9338344141
 20
-5.2790682995
 10
12.9408990883
 20
-5.27361379
 10
12.9476630191
 20
-5.268554977
 10
12.9541144361
 20
-5.26388409
 10
12.9602394592
 20
-5.2595943438
 10
12.9660219836
 20
-5.2556798292
 10
12.9714500918
 20
-5.2521311767
 10
12.9765117826
 20
-5.2489385609
 10
12.981190403
 20
-5.2460943942
 10
12.9854725088
 20
-5.243588338
 10
12.9893485685
 20
-5.241407265
 10
12.9912111094
 20
-5.2403913323
  0
LWPOLYLINE
  5
3D3
100
AcDbEntity
  8
RACCORDO
100
AcDbPolyline
 62
250
  6
CONTINUOUS
 90
67
 70
0
 10
12.2117712809
 20
-6.5366485031
 10
12.2120485216
 20
-6.5062663212
 10
12.212897327
 20
-6.4755750028
 10
12.2143176971
 20
-6.4445745478
 10
12.2163087176
 20
-6.4132412905
 10
12.2188713027
 20
-6.3815988966
 10
12.2220081954
 20
-6.3497183636
 10
12.2257217418
 20
-6.3175994921
 10
12.2300095958
 20
-6.2852424815
 10
12.234867462
 20
-6.2527189274
 10
12.2402977262
 20
-6.2200278537
 10
12.2462980027
 20
-6.1871702366
 10
12.2528568384
 20
-6.1542206004
 10
12.2599763539
 20
-6.1211791604
 10
12.2676544287
 20
-6.0880457013
 10
12.2758732478
 20
-6.0548941013
 10
12.2846330203
 20
-6.0217297019
 10
12.2939335372
 20
-5.9885471616
 10
12.3037563567
 20
-5.9554043346
 10
12.3141005976
 20
-5.922306079
 10
12.3249671411
 20
-5.8892475365
 10
12.3363401889
 20
-5.8562719863
 10
12.3482200073
 20
-5.8233791686
 10
12.3606063301
 20
-5.7905693431
 10
12.3734825601
 20
-5.7578865683
 10
12.3868503699
 20
-5.725327947
 10
12.400708087
 20
-5.6928963764
 10
12.4150340972
 20
-5.6606446069
 10
12.4298299908
 20
-5.6285712987
 10
12.4450941775
 20
-5.5966777916
 10
12.4608002714
 20
-5.5650208547
 10
12.4769491413
 20
-5.5336010694
 10
12.4935399184
 20
-5.5024178544
 10
12.5105436104
 20
-5.4715262343
 10
12.5279610578
 20
-5.4409268141
 10
12.5457914202
 20
-5.4106189888
 10
12.5640031839
 20
-5.3806559673
 10
12.5825972197
 20
-5.351038336
 10
12.6015726568
 20
-5.3217655085
 10
12.6208953691
 20
-5.2928889337
 10
12.6405650734
 20
-5.264410687
 10
12.6605820529
 20
-5.2363286929
 10
12.680913031
 20
-5.2086881745
 10
12.7015564404
 20
-5.181492096
 10
12.7225138484
 20
-5.1547374932
 10
12.7437566802
 20
-5.1284606953
 10
12.7652846567
 20
-5.1026623273
 10
12.787098057
 20
-5.0773417644
 10
12.8091691442
 20
-5.0525334608
 10
12.8315011761
 20
-5.028234629
 10
12.8540908948
 20
-5.0044480565
 10
12.8769007909
 20
-4.9812165613
 10
12.8999352691
 20
-4.9585379007
 10
12.9231899245
 20
-4.9364143173
 10
12.946614033
 20
-4.9148953564
 10
12.970208948
 20
-4.893982788
 10
12.9939733161
 20
-4.8736748421
 10
13.0178523528
 20
-4.8540157546
 10
13.0418463276
 20
-4.8350083572
 10
13.0659549711
 20
-4.8166498183
 10
13.0901226907
 20
-4.7989758785
 10
13.1143505414
 20
-4.7819888958
 10
13.1386374682
 20
-4.7656865121
 10
13.1629247133
 20
-4.7500973947
 10
13.1871926906
 20
-4.7352310994
 10
13.2114609862
 20
-4.7210780703
 10
13.2357296001
 20
-4.7076383074
  0
LINE
  5
3D4
100
AcDbEntity
  8
268140580
100
AcDbLine
 62
7
  6
CONTINUOUS
 10
-2.0559357834
 20
-23.7813289211
 11
-2.2243756928
 21
-23.9846538779
  0
LWPOLYLINE
  5
3D5
100
AcDbEntity
  8
RACCORDO
100
AcDbPolyline
 62
7
  6
CONTINUOUS
 90
40
 70
0
 10
21.0267887334
 20
4.3858533067
 10
21.0037300839
 20
4.3608527977
 10
20.9797107893
 20
4.335248718
 10
20.9547308496
 20
4.3090410676
 10
20.9288142304
 20
4.2822462069
 10
20.901936966
 20
4.2548477755
 10
20.87402716
 20
4.2267966925
 10
20.8450874918
 20
4.1980944162
 10
20.815115282
 20
4.1687394883
 10
20.7840305963
 20
4.1386784528
 10
20.7518393482
 20
4.1079156543
 10
20.7185356243
 20
4.0764467483
 10
20.6840217505
 20
4.0442052446
 10
20.6483001679
 20
4.0111920293
 10
20.6113684356
 20
3.9774062163
 10
20.5731215564
 20
3.9427786575
 10
20.5335630058
 20
3.9073112327
 10
20.4926893084
 20
3.8710020621
 10
20.4503850415
 20
3.8337763576
 10
20.4066531849
 20
3.7956355652
 10
20.3614907587
 20
3.756578239
 10
20.3147734004
 20
3.7165252532
 10
20.2665057477
 20
3.6754794431
 10
20.2166831628
 20
3.6334379733
 10
20.16516737
 20
3.590313212
 10
20.1119624497
 20
3.546107448
 10
20.0570643214
 20
3.5008183924
 10
20.0003224677
 20
3.4543515466
 10
19.9417414837
 20
3.4067095796
 10
19.8813167744
 20
3.3578898223
 10
19.8188840365
 20
3.3077897692
 10
19.7544486683
 20
3.2564126658
 10
19.6880052715
 20
3.2037552665
 10
19.6193733485
 20
3.1497053296
 10
19.5485612006
 20
3.0942682339
 10
19.4755605264
 20
3.0374386005
 10
19.400165924
 20
2.9790880515
 10
19.3223089259
 20
2.9191737943
 10
19.2420579996
 20
2.8577386215
 10
19.159413145
 20
2.794782533
  0
LWPOLYLINE
  5
3D6
100
AcDbEntity
  8
RACCORDO
100
AcDbPolyline
 62
250
  6
CONTINUOUS
 90
30
 70
0
 10
12.2117712809
 20
-6.5366485031
 10
12.230432421
 20
-6.5267191593
 10
12.2485455173
 20
-6.5165392605
 10
12.2660971191
 20
-6.5061163663
 10
12.2830741924
 20
-6.495458217
 10
12.2994641299
 20
-6.4845727272
 10
12.3152547604
 20
-6.4734679806
 10
12.3304343576
 20
-6.4621522237
 10
12.3449916492
 20
-6.4506338596
 10
12.3589158248
 20
-6.4389214418
 10
12.3721965442
 20
-6.4270236682
 10
12.3848239452
 20
-6.4149493741
 10
12.3967886505
 20
-6.4027075258
 10
12.4080817751
 20
-6.3903072144
 10
12.4186949326
 20
-6.3777576482
 10
12.4286202417
 20
-6.3650681467
 10
12.4378503319
 20
-6.3522481333
 10
12.4463783487
 20
-6.339307128
 10
12.4541979593
 20
-6.326254741
 10
12.4613033567
 20
-6.313100665
 10
12.4676892645
 20
-6.2998546684
 10
12.4733509405
 20
-6.2865265876
 10
12.4782841802
 20
-6.2731263202
 10
12.4824853203
 20
-6.2596638174
 10
12.4859512409
 20
-6.2461490763
 10
12.4886793683
 20
-6.2325921332
 10
12.4906676765
 20
-6.2190030555
 10
12.491914689
 20
-6.2053919346
 10
12.4924194798
 20
-6.1917688781
 10
12.4924314806
 20
-6.1893193178
  0
LINE
  5
3D7
100
AcDbEntity
  8
268140580
100
AcDbLine
 62
7
  6
CONTINUOUS
 10
-1.5319750515
 20
-15.2605018557
 11
-1.7927060672
 21
-15.3979839802
  0
LINE
  5
3D8
100
AcDbEntity
  8
268140580
100
AcDbLine
 62
250
  6
CONTINUOUS
 10
-1.395669767
 20
-15.2679109535
 11
-1.7927060672
 21
-15.477266154
  0
LINE
  5
3D9
100
AcDbEntity
  8
RACCORDO
100
AcDbLine
 62
7
  6
CONTINUOUS
 10
-1.6078788556
 20
-14.2221076699
 11
-1.7927060672
 21
-14.3161484384
  0
LINE
  5
3DA
100
AcDbEntity
  8
268140580
100
AcDbLine
 62
250
  6
CONTINUOUS
 10
-1.7927060672
 20
-15.8378514937
 11
-1.0271988939
 21
-15.4521463901
  0
LINE
  5
3DB
100
AcDbEntity
  8
268140580
100
AcDbLine
 62
7
  6
CONTINUOUS
 10
-15.7272085087
 20
21.2792094358
 11
-14.5728249145
 21
20.7020176387
  0
LINE
  5
3DC
100
AcDbEntity
  8
268140580
100
AcDbLine
 62
7
  6
CONTINUOUS
 10
-0.0204402621
 20
13.4258253125
 11
-1.1748238563
 21
14.0030171096
  0
LINE
  5
3DD
100
AcDbEntity
  8
268140580
100
AcDbLine
 62
7
  6
CONTINUOUS
 10
-0.3030676749
 20
14.8846999627
 11
-0.5199138611
 21
14.9931230558
  0
LINE
  5
3DE
100
AcDbEntity
  8
268140580
100
AcDbLine
 62
7
  6
CONTINUOUS
 10
-1.8634167453
 20
15.6648744979
 11
-13.8842320255
 21
21.675282138
  0
LINE
  5
3DF
100
AcDbEntity
  8
268140580
100
AcDbLine
 62
7
  6
CONTINUOUS
 10
-15.2277349097
 20
22.3470335801
 11
-15.4445810959
 21
22.4554566732
  0
LINE
  5
3E0
100
AcDbEntity
  8
268140580
100
AcDbLine
 62
7
  6
CONTINUOUS
 10
-10.4222561605
 20
20.3205408302
 11
-4.6182858291
 21
17.4185556645
  0
LINE
  5
3E1
100
AcDbEntity
  8
268140580
100
AcDbLine
 62
7
  6
CONTINUOUS
 10
-15.8698683945
 20
23.1771744666
 11
-14.5263655103
 21
22.5054230245
  0
LINE
  5
3E2
100
AcDbEntity
  8
268140580
100
AcDbLine
 62
7
  6
CONTINUOUS
 10
-2.5055502301
 20
16.4950153844
 11
-1.1620473458
 21
15.8232639423
  0
LWPOLYLINE
  5
3E3
100
AcDbEntity
  8
268140580
100
AcDbPolyline
 62
250
  6
CONTINUOUS
 90
17
 70
0
 10
-14.5263756967
 20
22.5054281185
 10
-14.5281919808
 20
22.5063614005
 10
-14.5358736403
 20
22.5108930449
 10
-14.54314482
 20
22.5161627951
 10
-14.5499809165
 20
22.5221528199
 10
-14.5563587986
 20
22.528842851
 10
-14.5622568856
 20
22.5362102515
 10
-14.5676552203
 20
22.5442300923
 10
-14.5725355363
 20
22.552875237
 10
-14.5768813203
 20
22.562116433
 10
-14.5806778675
 20
22.571922411
 10
-14.5839123315
 20
22.5822599908
 10
-14.586573768
 20
22.5930941933
 10
-14.5886531715
 20
22.6043883589
 10
-14.5901435059
 20
22.6161042718
 10
-14.5910397285
 20
22.628202289
 10
-14.5913388067
 20
22.6406414746
  0
LWPOLYLINE
  5
3E4
100
AcDbEntity
  8
268140580
100
AcDbPolyline
 62
250
  6
CONTINUOUS
 90
17
 70
0
 10
-1.1620575323
 20
15.8232690363
 10
-1.1638738164
 20
15.8242023183
 10
-1.1715554759
 20
15.8287339627
 10
-1.1788266556
 20
15.8340037129
 10
-1.1856627521
 20
15.8399937377
 10
-1.1920406342
 20
15.8466837688
 10
-1.1979387212
 20
15.8540511693
 10
-1.2033370559
 20
15.8620710101
 10
-1.2082173719
 20
15.8707161548
 10
-1.2125631559
 20
15.8799573507
 10
-1.216359703
 20
15.8897633288
 10
-1.2195941671
 20
15.9001009086
 10
-1.2222556035
 20
15.9109351111
 10
-1.224335007
 20
15.9222292767
 10
-1.2258253415
 20
15.9339451896
 10
-1.2267215641
 20
15.9460432068
 10
-1.2270206422
 20
15.9584823924
  0
LINE
  5
3E5
100
AcDbEntity
  8
268140580
100
AcDbLine
 62
250
  6
CONTINUOUS
 10
-15.8718299027
 20
23.1781925054
 11
-15.8698683945
 21
23.1771744666
  0
LINE
  5
3E6
100
AcDbEntity
  8
268140580
100
AcDbLine
 62
250
  6
CONTINUOUS
 10
-2.5075117382
 20
16.4960334232
 11
-2.5055502301
 21
16.4950153844
  0
LWPOLYLINE
  5
3E7
100
AcDbEntity
  8
268140580
100
AcDbPolyline
 62
250
  6
CONTINUOUS
 90
4
 70
0
 10
-13.9432571664
 20
22.3761140135
 10
-13.9418102936
 20
22.375288821
 10
-13.9362261632
 20
22.3715567543
 10
-13.930868347
 20
22.3674039192
  0
LWPOLYLINE
  5
3E8
100
AcDbEntity
  8
268140580
100
AcDbPolyline
 62
250
  6
CONTINUOUS
 90
4
 70
0
 10
-0.578939002
 20
15.6939549313
 10
-0.5774921291
 20
15.6931297388
 10
-0.5719079988
 20
15.6893976721
 10
-0.5665501826
 20
15.685244837
  0
LWPOLYLINE
  5
3E9
100
AcDbEntity
  8
SMUSSO
100
AcDbPolyline
 62
7
  6
CONTINUOUS
 90
6
 70
0
 10
9.0065657509
 20
21.446057729
 10
9.0064887003
 20
21.4464838901
 10
9.002325242
 20
21.4777555343
 10
8.9996476178
 20
21.5090437263
 10
8.9984562793
 20
21.5403364068
 10
8.9983887925
 20
21.5497632161
  0
LWPOLYLINE
  5
3EA
100
AcDbEntity
  8
RACCORDO
100
AcDbPolyline
 62
7
  6
CONTINUOUS
 90
10
 70
0
 10
14.0464858314
 20
24.4222780157
 10
14.046426074
 20
24.4335021321
 10
14.0462470737
 20
24.4446609322
 10
14.0459488305
 20
24.4557544159
 10
14.0455312538
 20
24.4667844334
 10
14.0449944343
 20
24.4777491345
 10
14.0443386435
 20
24.4886429689
 10
14.0435639722
 20
24.4994640865
 10
14.0426703297
 20
24.5102143374
 10
14.0416577161
 20
24.5208937216
  0
LINE
  5
3EB
100
AcDbEntity
  8
RACCORDO
100
AcDbLine
 62
7
  6
CONTINUOUS
 10
14.0464858314
 20
24.4222780157
 11
14.0464858314
 21
24.1400408307
  0
LINE
  5
3EC
100
AcDbEntity
  8
268140580
100
AcDbLine
 62
250
  6
CONTINUOUS
 10
-1.951805093
 20
-23.7975110881
 11
-2.2243756928
 21
-24.1265329075
  0
LINE
  5
3ED
100
AcDbEntity
  8
268140580
100
AcDbLine
 62
250
  6
CONTINUOUS
 10
-0.6083022087
 20
-24.4692625302
 11
-1.1386322946
 21
-25.1094275732
  0
LINE
  5
3EE
100
AcDbEntity
  8
268140580
100
AcDbLine
 62
250
  6
CONTINUOUS
 10
-0.3431371658
 20
-24.700956704
 11
-0.8734672517
 21
-25.341121747
  0
LINE
  5
3EF
100
AcDbEntity
  8
268140580
100
AcDbLine
 62
250
  6
CONTINUOUS
 10
-1.7927060672
 20
-16.3105370498
 11
-0.8150991683
 21
-15.8179643041
  0
LINE
  5
3F0
100
AcDbEntity
  8
268140580
100
AcDbLine
 62
7
  6
CONTINUOUS
 10
-1.1009446995
 20
15.802065851
 11
-0.5706146136
 21
15.692230894
  0
LINE
  5
3F1
100
AcDbEntity
  8
268140580
100
AcDbLine
 62
250
  6
CONTINUOUS
 10
-0.8734672517
 20
15.9584823924
 11
-0.3431371658
 21
15.8486474353
  0
LWPOLYLINE
  5
3F2
100
AcDbEntity
  8
268140580
100
AcDbPolyline
 62
250
  6
CONTINUOUS
 90
25
 70
0
 10
-0.3431371658
 20
15.8486474353
 10
-0.3301106861
 20
15.8454980008
 10
-0.3174438111
 20
15.8414835711
 10
-0.3051365407
 20
15.8366041464
 10
-0.2931579441
 20
15.8308513301
 10
-0.2815389522
 20
15.8242335187
 10
-0.2703723572
 20
15.8167759017
 10
-0.2596632803
 20
15.8084698977
 10
-0.2494066003
 20
15.799324088
 10
-0.239679746
 20
15.7893894068
 10
-0.2304881821
 20
15.7786582576
 10
-0.2218264439
 20
15.7671382369
 10
-0.2137555658
 20
15.754903068
 10
-0.2062813092
 20
15.7419464129
 10
-0.1993979127
 20
15.7282746097
 10
-0.1931491268
 20
15.7139803962
 10
-0.1875404348
 20
15.6990537976
 10
-0.1825663535
 20
15.6835047888
 10
-0.178254184
 20
15.6674560321
 10
-0.1746121173
 20
15.6509068715
 10
-0.1716319624
 20
15.6338579629
 10
-0.1693164475
 20
15.6164339367
 10
-0.1676664819
 20
15.5986763364
 10
-0.1666811562
 20
15.5805436185
 10
-0.1663604705
 20
15.562035783
  0
LINE
  5
3F3
100
AcDbEntity
  8
268140580
100
AcDbLine
 62
250
  6
CONTINUOUS
 10
-0.5199138611
 20
15.562035783
 11
-0.9285769288
 21
15.7663673168
  0
LINE
  5
3F4
100
AcDbEntity
  8
268140580
100
AcDbLine
 62
250
  6
CONTINUOUS
 10
-13.8842320255
 20
22.2441948652
 11
-14.2928950932
 21
22.4485263991
  0
LINE
  5
3F5
100
AcDbEntity
  8
268140580
100
AcDbLine
 62
250
  6
CONTINUOUS
 10
-15.9348416909
 20
23.3123929167
 11
-14.5913388067
 21
22.6406414746
  0
LINE
  5
3F6
100
AcDbEntity
  8
268140580
100
AcDbLine
 62
250
  6
CONTINUOUS
 10
-2.5705235265
 20
16.6302338345
 11
-1.2270206422
 21
15.9584823924
  0
LINE
  5
3F7
100
AcDbEntity
  8
268140580
100
AcDbLine
 62
250
  6
CONTINUOUS
 10
-1.2270206422
 20
16.326792921
 11
-2.5705235265
 21
16.9985443631
  0
LINE
  5
3F8
100
AcDbEntity
  8
268140580
100
AcDbLine
 62
250
  6
CONTINUOUS
 10
-14.5913388067
 20
23.0089520032
 11
-15.9348416909
 21
23.6807034453
  0
LINE
  5
3F9
100
AcDbEntity
  8
268140580
100
AcDbLine
 62
250
  6
CONTINUOUS
 10
0.7685752558
 20
15.4736828265
 11
0.7138248326
 21
15.5010580381
  0
LINE
  5
3FA
100
AcDbEntity
  8
268140580
100
AcDbLine
 62
250
  6
CONTINUOUS
 10
-2.6286666858
 20
17.1723037973
 11
-3.7055712496
 21
17.7107560792
  0
LINE
  5
3FB
100
AcDbEntity
  8
268140580
100
AcDbLine
 62
250
  6
CONTINUOUS
 10
-10.5101241262
 20
21.1130325175
 11
-12.6504933318
 21
22.1832171203
  0
LINE
  5
3FC
100
AcDbEntity
  8
268140580
100
AcDbLine
 62
250
  6
CONTINUOUS
 10
0.7759766777
 20
15.477620909
 11
0.7212262546
 21
15.5049961206
  0
LINE
  5
3FD
100
AcDbEntity
  8
268140580
100
AcDbLine
 62
250
  6
CONTINUOUS
 10
-2.6261985407
 20
17.1787085182
 11
-3.6982124573
 21
17.7147154765
  0
LINE
  5
3FE
100
AcDbEntity
  8
268140580
100
AcDbLine
 62
250
  6
CONTINUOUS
 10
-10.5101241262
 20
21.1206713109
 11
-12.6430919099
 21
22.1871552028
  0
LINE
  5
3FF
100
AcDbEntity
  8
268140580
100
AcDbLine
 62
250
  6
CONTINUOUS
 10
0.682167667
 20
15.6622435221
 11
0.6139696154
 21
15.6963425478
  0
LINE
  5
400
100
AcDbEntity
  8
268140580
100
AcDbLine
 62
250
  6
CONTINUOUS
 10
-12.6821504975
 20
22.3444026043
 11
-12.750348549
 21
22.3785016301
  0
LINE
  5
401
100
AcDbEntity
  8
268140580
100
AcDbLine
 62
250
  6
CONTINUOUS
 10
-1.0487012988
 20
16.6324506997
 11
-2.3922041831
 21
17.3042021419
  0
LINE
  5
402
100
AcDbEntity
  8
268140580
100
AcDbLine
 62
250
  6
CONTINUOUS
 10
-14.4130194633
 20
23.3146097819
 11
-15.7565223475
 21
23.9863612241
  0
LINE
  5
403
100
AcDbEntity
  8
268140580
100
AcDbLine
 62
7
  6
CONTINUOUS
 10
-10.4222561605
 20
21.5859205529
 11
-4.6182858291
 21
18.6839353872
  0
LINE
  5
404
100
AcDbEntity
  8
268140580
100
AcDbLine
 62
7
  6
CONTINUOUS
 10
-12.6846702651
 20
22.9113479131
 11
-11.232581596
 21
22.1853035785
  0
LINE
  5
405
100
AcDbEntity
  8
268140580
100
AcDbLine
 62
7
  6
CONTINUOUS
 10
0.6796478993
 20
16.2291888309
 11
1.4952973804
 21
15.8213640903
  0
LWPOLYLINE
  5
406
100
AcDbEntity
  8
268140580
100
AcDbPolyline
 62
250
  6
CONTINUOUS
 90
15
 70
0
 10
0.7685809386
 20
15.4697444402
 10
0.7695915768
 20
15.4692322359
 10
0.7706854432
 20
15.4688347822
 10
0.7718636303
 20
15.4685534955
 10
0.7731694071
 20
15.4683953562
 10
0.7745604492
 20
15.4683550827
 10
0.7759083263
 20
15.4684154765
 10
0.7771564071
 20
15.4685987567
 10
0.778358893
 20
15.4688830841
 10
0.7795539354
 20
15.4691852645
 10
0.7808255732
 20
15.4694465148
 10
0.7820898065
 20
15.4697255014
 10
0.7831321916
 20
15.4701154382
 10
0.7838058874
 20
15.4706851315
 10
0.78469358
 20
15.472033885
  0
LWPOLYLINE
  5
407
100
AcDbEntity
  8
268140580
100
AcDbPolyline
 62
250
  6
CONTINUOUS
 90
31
 70
0
 10
-12.2916991197
 20
24.3525968861
 10
-12.2824494565
 20
24.3476732372
 10
-12.2732293742
 20
24.3421675633
 10
-12.2640641445
 20
24.336094955
 10
-12.2549788887
 20
24.3294720569
 10
-12.2459985087
 20
24.322317022
 10
-12.2371476192
 20
24.3146494617
 10
-12.2284504799
 20
24.3064903922
 10
-12.219930929
 20
24.2978621771
 10
-12.211612318
 20
24.2887884655
 10
-12.2035174477
 20
24.279294128
 10
-12.1956685055
 20
24.2694051878
 10
-12.1880870048
 20
24.2591487499
 10
-12.1807937261
 20
24.2485529264
 10
-12.1738086595
 20
24.2376467598
 10
-12.1671509509
 20
24.2264601431
 10
-12.1608388484
 20
24.215023738
 10
-12.1548896531
 20
24.2033688909
 10
-12.1493196713
 20
24.191527547
 10
-12.14414417
 20
24.1795321626
 10
-12.1393773348
 20
24.1674156161
 10
-12.1350322314
 20
24.1552111182
 10
-12.1311207693
 20
24.1429521206
 10
-12.1276536696
 20
24.1306722242
 10
-12.1246404353
 20
24.1184050876
 10
-12.1220893256
 20
24.106184334
 10
-12.1200073329
 20
24.0940434596
 10
-12.1184001637
 20
24.0820157418
 10
-12.1172722231
 20
24.0701341477
 10
-12.1166266029
 20
24.058431244
 10
-12.1164650725
 20
24.0469391074
  0
LINE
  5
408
100
AcDbEntity
  8
RACCORDO
100
AcDbLine
 62
7
  6
CONTINUOUS
 10
8.0961946741
 20
16.9230060283
 11
7.0129994046
 21
18.7912415142
  0
LINE
  5
409
100
AcDbEntity
  8
268140580
100
AcDbLine
 62
7
  6
CONTINUOUS
 10
6.7369330503
 20
19.3742836898
 11
6.7113726463
 21
19.4183688654
  0
LWPOLYLINE
  5
40A
100
AcDbEntity
  8
RACCORDO
100
AcDbPolyline
 62
250
  6
CONTINUOUS
 90
29
 70
0
 10
12.2304324194
 20
-13.5170790815
 10
12.2485455144
 20
-13.5068991836
 10
12.2660971149
 20
-13.4964762903
 10
12.283074187
 20
-13.4858181418
 10
12.2994641236
 20
-13.4749326529
 10
12.3152547533
 20
-13.4638279072
 10
12.3304343498
 20
-13.4525121511
 10
12.3449916409
 20
-13.4409937877
 10
12.3589158161
 20
-13.4292813708
 10
12.3721965352
 20
-13.417383598
 10
12.384823936
 20
-13.4053093045
 10
12.3967886413
 20
-13.393067457
 10
12.4080817659
 20
-13.3806671462
 10
12.4186949236
 20
-13.3681175807
 10
12.428620233
 20
-13.3554280798
 10
12.4378503235
 20
-13.3426080668
 10
12.4463783407
 20
-13.3296670621
 10
12.4541979518
 20
-13.3166146755
 10
12.4613033498
 20
-13.3034605999
 10
12.4676892582
 20
-13.2902146037
 10
12.4733509348
 20
-13.2768865232
 10
12.4782841753
 20
-13.2634862561
 10
12.4824853161
 20
-13.2500237534
 10
12.4859512375
 20
-13.2365090125
 10
12.4886793657
 20
-13.2229520695
 10
12.4906676747
 20
-13.2093629919
 10
12.491914688
 20
-13.1957518709
 10
12.4924194797
 20
-13.1821288144
 10
12.4924314806
 20
-13.1796802602
  0
LINE
  5
40B
100
AcDbEntity
  8
RACCORDO
100
AcDbLine
 62
250
  6
CONTINUOUS
 10
1.7781831778
 20
-19.0231881574
 11
12.2304324194
 21
-13.5170790815
  0
LWPOLYLINE
  5
40C
100
AcDbEntity
  8
268140580
100
AcDbPolyline
 62
250
  6
CONTINUOUS
 90
13
 70
0
 10
-0.1606230888
 20
18.3485266127
 10
-0.1661309003
 20
18.3510614587
 10
-0.1744760598
 20
18.3541270197
 10
-0.1831489812
 20
18.3564256071
 10
-0.1921206432
 20
18.3579495295
 10
-0.2013610247
 20
18.3586936873
 10
-0.2108392056
 20
18.3586555906
 10
-0.22052347
 20
18.3578353668
 10
-0.2303814124
 20
18.3562357606
 10
-0.2403800461
 20
18.3538621245
 10
-0.2504859136
 20
18.3507224012
 10
-0.2606651988
 20
18.3468270969
 10
-0.2708838395
 20
18.342189246
  0
LWPOLYLINE
  5
40D
100
AcDbEntity
  8
268140580
100
AcDbPolyline
 62
250
  6
CONTINUOUS
 90
13
 70
0
 10
-13.5249412532
 20
25.0306856949
 10
-13.5304490647
 20
25.0332205409
 10
-13.5387942242
 20
25.0362861019
 10
-13.5474671457
 20
25.0385846894
 10
-13.5564388076
 20
25.0401086117
 10
-13.5656791892
 20
25.0408527696
 10
-13.5751573701
 20
25.0408146729
 10
-13.5848416345
 20
25.0399944491
 10
-13.5946995768
 20
25.0383948428
 10
-13.6046982105
 20
25.0360212067
 10
-13.6148040781
 20
25.0328814834
 10
-13.6249833632
 20
25.0289861791
 10
-13.635202004
 20
25.0243483282
  0
LWPOLYLINE
  5
40E
100
AcDbEntity
  8
RACCORDO
100
AcDbPolyline
 62
7
  6
CONTINUOUS
 90
21
 70
0
 10
-4.6935026428
 20
21.4279434488
 10
-4.7052431429
 20
21.4333745456
 10
-4.7169186312
 20
21.4383571074
 10
-4.7285168635
 20
21.4428855566
 10
-4.7400248126
 20
21.4469549265
 10
-4.7514310846
 20
21.4505606118
 10
-4.7627259172
 20
21.453698225
 10
-4.773896978
 20
21.456364234
 10
-4.7849324314
 20
21.4585554723
 10
-4.795823316
 20
21.4602686226
 10
-4.8065575177
 20
21.4615016443
 10
-4.8171234072
 20
21.4622528146
 10
-4.8275128368
 20
21.462519832
 10
-4.8377138491
 20
21.4623021819
 10
-4.8477152675
 20
21.4615996402
 10
-4.8575102292
 20
21.4604108824
 10
-4.8670873257
 20
21.4587368856
 10
-4.8764355918
 20
21.4565789132
 10
-4.885549004
 20
21.4539366997
 10
-4.8944160638
 20
21.4508130285
 10
-4.9030269428
 20
21.4472106288
  0
LWPOLYLINE
  5
40F
100
AcDbEntity
  8
RACCORDO
100
AcDbPolyline
 62
7
  6
CONTINUOUS
 90
64
 70
0
 10
-3.6129469472
 20
21.5589334432
 10
-3.6240555748
 20
21.5643462524
 10
-3.6415016196
 20
21.5723025122
 10
-3.6594151879
 20
21.5798312784
 10
-3.6777652205
 20
21.5869264484
 10
-3.6965427097
 20
21.5935936022
 10
-3.7157598208
 20
21.5998457492
 10
-3.7353940832
 20
21.6056842263
 10
-3.7554234602
 20
21.6111122203
 10
-3.7758565685
 20
21.6161412901
 10
-3.7966423937
 20
21.6207683906
 10
-3.8177919764
 20
21.6250054577
 10
-3.8394052652
 20
21.6288769488
 10
-3.8614349574
 20
21.6323759632
 10
-3.8838988995
 20
21.6355066953
 10
-3.9069955221
 20
21.6382909097
 10
-3.930796186
 20
21.6407230491
 10
-3.9552062397
 20
21.6427793273
 10
-3.9801732223
 20
21.6444443574
 10
-4.0057976024
 20
21.6457116365
 10
-4.0319515692
 20
21.6465612408
 10
-4.0582369815
 20
21.6469785796
 10
-4.0846210453
 20
21.64697043
 10
-4.1111093271
 20
21.6465428486
 10
-4.1373619207
 20
21.6457133885
 10
-4.1632934415
 20
21.6445046404
 10
-4.1889706837
 20
21.6429318178
 10
-4.2142843109
 20
21.6410191281
 10
-4.2392141462
 20
21.6387868386
 10
-4.2637688365
 20
21.6362517773
 10
-4.2878834351
 20
21.6334381988
 10
-4.3115374328
 20
21.630366694
 10
-4.3347460338
 20
21.6270526466
 10
-4.3574981326
 20
21.6235141134
 10
-4.3797848792
 20
21.6197686337
 10
-4.4016134032
 20
21.6158306143
 10
-4.4229955433
 20
21.6117126761
 10
-4.4439316982
 20
21.6074288629
 10
-4.4644213632
 20
21.6029930579
 10
-4.4844733945
 20
21.5984166905
 10
-4.5040899944
 20
21.5937121794
 10
-4.5232696814
 20
21.588892603
 10
-4.5420141119
 20
21.5839701167
 10
-4.5603342119
 20
21.5789540951
 10
-4.5782199669
 20
21.5738594239
 10
-4.5956407933
 20
21.5687075596
 10
-4.612584474
 20
21.5635154854
 10
-4.6290661744
 20
21.5582918041
 10
-4.6450952027
 20
21.5530463705
 10
-4.660649952
 20
21.5477991946
 10
-4.6757538009
 20
21.5425552448
 10
-4.6904786962
 20
21.5373009572
 10
-4.7048232792
 20
21.5320472276
 10
-4.7187825255
 20
21.5268064369
 10
-4.7324151923
 20
21.5215663864
 10
-4.7457042754
 20
21.5163430011
 10
-4.7586499619
 20
21.5111459222
 10
-4.7713266216
 20
21.5059542119
 10
-4.7836969442
 20
21.5007918088
 10
-4.7957620156
 20
21.4956675601
 10
-4.8076360414
 20
21.4905412843
 10
-4.8192728468
 20
21.4854409497
 10
-4.8306395668
 20
21.4803902774
 10
-4.8528628702
 20
21.4703418188
  0
LINE
  5
410
100
AcDbEntity
  8
RACCORDO
100
AcDbLine
 62
250
  6
CONTINUOUS
 10
-3.6140201727
 20
21.5594563849
 11
-3.6129503025
 21
21.5589351242
  0
LINE
  5
411
100
AcDbEntity
  8
268140580
100
AcDbLine
 62
7
  6
CONTINUOUS
 10
-8.5809311666
 20
22.0643562399
 11
-3.6311836983
 21
19.5894825057
  0
LINE
  5
412
100
AcDbEntity
  8
268140580
100
AcDbLine
 62
250
  6
CONTINUOUS
 10
-13.635202004
 20
25.0243483282
 11
-12.2916991197
 21
24.3525968861
  0
LINE
  5
413
100
AcDbEntity
  8
268140580
100
AcDbLine
 62
250
  6
CONTINUOUS
 10
-0.2708838395
 20
18.342189246
 11
1.0726190447
 21
17.6704378039
  0
LINE
  5
414
100
AcDbEntity
  8
268140580
100
AcDbLine
 62
7
  6
CONTINUOUS
 10
-13.5249412532
 20
25.0306856949
 11
-12.1814383689
 21
24.3589342528
  0
LINE
  5
415
100
AcDbEntity
  8
268140580
100
AcDbLine
 62
7
  6
CONTINUOUS
 10
-0.1606230888
 20
18.3485266127
 11
1.1828797955
 21
17.6767751705
  0
LINE
  5
416
100
AcDbEntity
  8
RACCORDO
100
AcDbLine
 62
7
  6
CONTINUOUS
 10
-4.691897718
 20
21.4271569231
 11
-2.3097424804
 21
20.2360793044
  0
LINE
  5
417
100
AcDbEntity
  8
RACCORDO
100
AcDbLine
 62
250
  6
CONTINUOUS
 10
-1.6797166924
 20
20.5443583652
 11
-3.7024153891
 21
21.5556948064
  0
LINE
  5
418
100
AcDbEntity
  8
RACCORDO
100
AcDbLine
 62
7
  6
CONTINUOUS
 10
-1.6312385955
 20
20.5680792707
 11
-3.6129503025
 21
21.5589351242
  0
LWPOLYLINE
  5
419
100
AcDbEntity
  8
268140580
100
AcDbPolyline
 62
250
  6
CONTINUOUS
 90
31
 70
0
 10
1.0726190447
 20
17.6704378039
 10
1.081868708
 20
17.665514155
 10
1.0910887902
 20
17.6600084811
 10
1.1002540199
 20
17.6539358728
 10
1.1093392758
 20
17.6473129747
 10
1.1183196557
 20
17.6401579398
 10
1.1271705452
 20
17.6324903795
 10
1.1358676845
 20
17.62433131
 10
1.1443872354
 20
17.6157030949
 10
1.1527058464
 20
17.6066293833
 10
1.1608007167
 20
17.5971350458
 10
1.1686496589
 20
17.5872461056
 10
1.1762311596
 20
17.5769896677
 10
1.1835244384
 20
17.5663938442
 10
1.1905095049
 20
17.5554876776
 10
1.1971672135
 20
17.5443010609
 10
1.203479316
 20
17.5328646558
 10
1.2094285113
 20
17.5212098087
 10
1.2149984931
 20
17.5093684648
 10
1.2201739944
 20
17.4973730804
 10
1.2249408296
 20
17.4852565339
 10
1.229285933
 20
17.473052036
 10
1.2331973951
 20
17.4607930383
 10
1.2366644948
 20
17.448513142
 10
1.2396777291
 20
17.4362460054
 10
1.2422288388
 20
17.4240252517
 10
1.2443108316
 20
17.4118843774
 10
1.2459180008
 20
17.3998566596
 10
1.2470459413
 20
17.3879750655
 10
1.2476915616
 20
17.3762721617
 10
1.2478530919
 20
17.3647800251
  0
LINE
  5
41A
100
AcDbEntity
  8
SMUSSO
100
AcDbLine
 62
250
  6
CONTINUOUS
 10
9.4609791263
 20
23.4245895511
 11
9.8038451443
 21
22.4925833981
  0
LINE
  5
41B
100
AcDbEntity
  8
0
100
AcDbLine
 62
7
  6
CONTINUOUS
 10
10.7301550276
 20
21.4755632793
 11
10.9316543856
 21
20.8798388535
  0
LWPOLYLINE
  5
41C
100
AcDbEntity
  8
RACCORDO
100
AcDbPolyline
 62
7
  6
CONTINUOUS
 90
31
 70
0
 10
19.4400733368
 20
20.7751693198
 10
19.4397779942
 20
20.8101272394
 10
19.4386335701
 20
20.8525544241
 10
19.4366348348
 20
20.8950448049
 10
19.4337880972
 20
20.9376035837
 10
19.4301008163
 20
20.9802103718
 10
19.4255838953
 20
21.0228158804
 10
19.4202452662
 20
21.0654140249
 10
19.4140921505
 20
21.107997086
 10
19.4071390361
 20
21.150511213
 10
19.3993944884
 20
21.1929498556
 10
19.3908660013
 20
21.235306455
 10
19.3815718488
 20
21.2775255687
 10
19.3715215133
 20
21.3195984669
 10
19.3607226365
 20
21.3615209019
 10
19.3491953303
 20
21.403242777
 10
19.3369515836
 20
21.4447479283
 10
19.3239973677
 20
21.4860398294
 10
19.3103457237
 20
21.5270965622
 10
19.2960057075
 20
21.5679084598
 10
19.2809838336
 20
21.6084719654
 10
19.2652895621
 20
21.648773013
 10
19.2489296507
 20
21.6888045161
 10
19.2319099195
 20
21.728559556
 10
19.2142391197
 20
21.7680234424
 10
19.1959230808
 20
21.8071878572
 10
19.1769661302
 20
21.8460456214
 10
19.1573750269
 20
21.884584105
 10
19.1371541124
 20
21.9227942666
 10
19.1163066136
 20
21.9606684149
 10
19.0981058981
 20
21.9925735992
  0
LWPOLYLINE
  5
41D
100
AcDbEntity
  8
RACCORDO
100
AcDbPolyline
 62
250
  6
CONTINUOUS
 90
37
 70
0
 10
19.159413145
 20
20.4278416444
 10
19.159183216
 20
20.4658439205
 10
19.1582747325
 20
20.5041614733
 10
19.1566880863
 20
20.5427760435
 10
19.1544239611
 20
20.5816691416
 10
19.151483436
 20
20.6208223277
 10
19.1478679729
 20
20.6602172239
 10
19.1435792461
 20
20.6998351877
 10
19.1386192609
 20
20.7396572356
 10
19.1329904566
 20
20.7796643241
 10
19.1266955057
 20
20.8198373476
 10
19.1197373642
 20
20.8601572335
 10
19.1121193794
 20
20.9006048709
 10
19.1038451658
 20
20.9411610105
 10
19.0949186359
 20
20.9818063426
 10
19.0853440523
 20
21.0225215915
 10
19.0751259599
 20
21.0632874136
 10
19.0642692087
 20
21.1040843757
 10
19.0527789821
 20
21.1448930346
 10
19.0406607547
 20
21.1856939775
 10
19.0279202847
 20
21.2264677879
 10
19.0145636374
 20
21.2671950246
 10
19.0005971959
 20
21.3078562898
 10
18.9860275992
 20
21.3484322669
 10
18.9708617354
 20
21.3889036861
 10
18.9551068447
 20
21.4292513036
 10
18.9387704332
 20
21.4694559282
 10
18.9218602075
 20
21.5094984587
 10
18.9043842187
 20
21.5493599193
 10
18.8863508226
 20
21.5890212929
 10
18.8677685943
 20
21.6284635485
 10
18.848646475
 20
21.6676678291
 10
18.828993542
 20
21.706615612
 10
18.8088189603
 20
21.7452885388
 10
18.7881322886
 20
21.783668277
 10
18.7669434836
 20
21.8217365345
 10
18.7452626694
 20
21.859475219
  0
LINE
  5
41E
100
AcDbEntity
  8
DRAFT
100
AcDbLine
 62
250
  6
CONTINUOUS
 10
19.159413145
 20
-1.5116751356
 11
19.159413145
 21
2.794782533
  0
LINE
  5
41F
100
AcDbEntity
  8
DRAFT
100
AcDbLine
 62
250
  6
CONTINUOUS
 10
19.159413145
 20
4.8214259098
 11
19.159413145
 21
14.7459331052
  0
LINE
  5
420
100
AcDbEntity
  8
DRAFT
100
AcDbLine
 62
250
  6
CONTINUOUS
 10
19.159413145
 20
16.772576482
 11
19.159413145
 21
20.4278416444
  0
LINE
  5
421
100
AcDbEntity
  8
RACCORDO
100
AcDbLine
 62
7
  6
CONTINUOUS
 10
19.4400733447
 20
-1.1643459504
 11
19.4400733447
 21
2.7489631782
  0
LINE
  5
422
100
AcDbEntity
  8
RACCORDO
100
AcDbLine
 62
7
  6
CONTINUOUS
 10
19.4400733447
 20
5.5619036351
 11
19.4400733447
 21
14.7001137504
  0
LINE
  5
423
100
AcDbEntity
  8
RACCORDO
100
AcDbLine
 62
7
  6
CONTINUOUS
 10
19.4400733447
 20
17.5130542073
 11
19.4400733447
 21
20.7751708296
  0
LWPOLYLINE
  5
424
100
AcDbEntity
  8
DRAFT
100
AcDbPolyline
 62
7
  6
CONTINUOUS
 90
43
 70
0
 10
19.4400733445
 20
17.5130594702
 10
19.4400034208
 20
17.4964996601
 10
19.43916939
 20
17.4536344654
 10
19.4374640121
 20
17.4124834314
 10
19.4349822481
 20
17.3731870347
 10
19.4318055203
 20
17.3356235163
 10
19.4280124112
 20
17.299816431
 10
19.4236923268
 20
17.2658691469
 10
19.4189114741
 20
17.2336845753
 10
19.4136916263
 20
17.2029846137
 10
19.4080781908
 20
17.1737299558
 10
19.4021305467
 20
17.145961476
 10
19.3958650913
 20
17.1195223662
 10
19.3893154528
 20
17.0943880308
 10
19.382528827
 20
17.0705815211
 10
19.375529925
 20
17.048017894
 10
19.3683526047
 20
17.0266981974
 10
19.3610322887
 20
17.006616963
 10
19.3535902931
 20
16.9876794445
 10
19.3460615071
 20
16.9698970765
 10
19.3384707103
 20
16.953251994
 10
19.3308179188
 20
16.9376059903
 10
19.3231301246
 20
16.9229592146
 10
19.3154278324
 20
16.9093048202
 10
19.3076936369
 20
16.8964953876
 10
19.2999508881
 20
16.8845289116
 10
19.2922123491
 20
16.8734014097
 10
19.2844361323
 20
16.8629644728
 10
19.2766301512
 20
16.8532019104
 10
19.2688106709
 20
16.8441258916
 10
19.2609405399
 20
16.835632675
 10
19.2530316149
 20
16.8277156484
 10
19.2450888365
 20
16.8203787962
 10
19.2370579765
 20
16.8135363987
 10
19.2289374495
 20
16.8071749379
 10
19.2207377502
 20
16.8013075561
 10
19.2124170192
 20
16.7958905871
 10
19.2039810676
 20
16.790919058
 10
19.1954286159
 20
16.7863990495
 10
19.1867022133
 20
16.7823054977
 10
19.17778126
 20
16.7786317178
 10
19.168685
 20
16.775388124
 10
19.159413145
 20
16.772576482
  0
LWPOLYLINE
  5
425
100
AcDbEntity
  8
DRAFT
100
AcDbPolyline
 62
7
  6
CONTINUOUS
 90
43
 70
0
 10
19.4400733445
 20
5.5619088979
 10
19.4400034208
 20
5.5453490879
 10
19.43916939
 20
5.5024838932
 10
19.4374640121
 20
5.4613328592
 10
19.4349822481
 20
5.4220364625
 10
19.4318055203
 20
5.3844729441
 10
19.4280124112
 20
5.3486658587
 10
19.4236923268
 20
5.3147185747
 10
19.4189114741
 20
5.282534003
 10
19.4136916263
 20
5.2518340414
 10
19.4080781908
 20
5.2225793836
 10
19.4021305467
 20
5.1948109038
 10
19.3958650913
 20
5.168371794
 10
19.3893154528
 20
5.1432374585
 10
19.382528827
 20
5.1194309489
 10
19.375529925
 20
5.0968673218
 10
19.3683526047
 20
5.0755476251
 10
19.3610322887
 20
5.0554663908
 10
19.3535902931
 20
5.0365288723
 10
19.3460615071
 20
5.0187465043
 10
19.3384707103
 20
5.0021014218
 10
19.3308179188
 20
4.9864554181
 10
19.3231301246
 20
4.9718086424
 10
19.3154278324
 20
4.958154248
 10
19.3076936369
 20
4.9453448154
 10
19.2999508881
 20
4.9333783394
 10
19.2922123491
 20
4.9222508375
 10
19.2844361323
 20
4.9118139006
 10
19.2766301512
 20
4.9020513382
 10
19.2688106709
 20
4.8929753194
 10
19.2609405399
 20
4.8844821028
 10
19.2530316149
 20
4.8765650762
 10
19.2450888365
 20
4.8692282239
 10
19.2370579765
 20
4.8623858264
 10
19.2289374495
 20
4.8560243657
 10
19.2207377502
 20
4.8501569839
 10
19.2124170192
 20
4.8447400149
 10
19.2039810676
 20
4.8397684857
 10
19.1954286159
 20
4.8352484773
 10
19.1867022133
 20
4.8311549255
 10
19.17778126
 20
4.8274811456
 10
19.168685
 20
4.8242375518
 10
19.159413145
 20
4.8214259098
  0
LWPOLYLINE
  5
426
100
AcDbEntity
  8
RACCORDO
100
AcDbPolyline
 62
7
  6
CONTINUOUS
 90
4
 70
0
 10
21.1101882671
 20
16.439274673
 10
21.1106370032
 20
16.4432965092
 10
21.1109414833
 20
16.4483526755
 10
21.1109867933
 20
16.4512031216
  0
LWPOLYLINE
  5
427
100
AcDbEntity
  8
RACCORDO
100
AcDbPolyline
 62
250
  6
CONTINUOUS
 90
33
 70
0
 10
21.0408001263
 20
16.3490507624
 10
21.0336589948
 20
16.2990693521
 10
21.0255905244
 20
16.2497495329
 10
21.0165983585
 20
16.2011135678
 10
21.0066865599
 20
16.1531834232
 10
20.9958596021
 20
16.105980722
 10
20.9841223639
 20
16.0595267358
 10
20.9714801363
 20
16.0138424129
 10
20.9579386308
 20
15.9689484002
 10
20.9435039699
 20
15.924864996
 10
20.9281826779
 20
15.881612119
 10
20.9119816655
 20
15.839209273
 10
20.8949082356
 20
15.7976755718
 10
20.8769700872
 20
15.757029749
 10
20.8581753239
 20
15.7172901704
 10
20.8385324404
 20
15.6784747977
 10
20.8180503118
 20
15.640601165
 10
20.7967381781
 20
15.6036863546
 10
20.7746056497
 20
15.5677470132
 10
20.7516627108
 20
15.5327993551
 10
20.7279197236
 20
15.4988591672
 10
20.7033874149
 20
15.4659417833
 10
20.6780768648
 20
15.434062069
 10
20.651999494
 20
15.4032344077
 10
20.6251670676
 20
15.3734727073
 10
20.597591694
 20
15.3447903992
 10
20.5692858247
 20
15.3172004355
 10
20.5402622415
 20
15.2907152751
 10
20.5105340481
 20
15.2653468752
 10
20.4801146627
 20
15.2411066855
 10
20.449017816
 20
15.2180056477
 10
20.4172575461
 20
15.1960541901
 10
20.4046205103
 20
15.1877591376
  0
LWPOLYLINE
  5
428
100
AcDbEntity
  8
RACCORDO
100
AcDbPolyline
 62
250
  6
CONTINUOUS
 90
33
 70
0
 10
21.0408001263
 20
4.3979001902
 10
21.0336589947
 20
4.3479187794
 10
21.0255905242
 20
4.2985989596
 10
21.0165983582
 20
4.2499629939
 10
21.0066865595
 20
4.2020328488
 10
20.9958596014
 20
4.1548301472
 10
20.9841223631
 20
4.1083761606
 10
20.9714801353
 20
4.0626918372
 10
20.9579386296
 20
4.017797824
 10
20.9435039685
 20
3.9737144194
 10
20.9281826762
 20
3.930461542
 10
20.9119816635
 20
3.8880586957
 10
20.8949082333
 20
3.8465249942
 10
20.8769700846
 20
3.805879171
 10
20.8581753209
 20
3.7661395921
 10
20.8385324371
 20
3.7273242191
 10
20.8180503081
 20
3.6894505862
 10
20.796738174
 20
3.6525357756
 10
20.7746056453
 20
3.6165964339
 10
20.7516627059
 20
3.5816487757
 10
20.7279197183
 20
3.5477085876
 10
20.7033874092
 20
3.5147912036
 10
20.6780768585
 20
3.4829114892
 10
20.6519994873
 20
3.4520838278
 10
20.6251670604
 20
3.4223221273
 10
20.5975916863
 20
3.3936398192
 10
20.5692858164
 20
3.3660498555
 10
20.5402622327
 20
3.3395646952
 10
20.5105340388
 20
3.3141962953
 10
20.4801146529
 20
3.2899561057
 10
20.4490178056
 20
3.266855068
 10
20.4172575351
 20
3.2449036105
 10
20.4046205104
 20
3.2366085654
  0
LWPOLYLINE
  5
429
100
AcDbEntity
  8
RACCORDO
100
AcDbPolyline
 62
250
  6
CONTINUOUS
 90
34
 70
0
 10
11.8611770962
 20
-14.4932455493
 10
11.8813516779
 20
-14.4745659168
 10
11.9010046109
 20
-14.4551019901
 10
11.9201267302
 20
-14.4348628859
 10
11.9387089585
 20
-14.4138581836
 10
11.9567423546
 20
-14.3920979525
 10
11.9742183434
 20
-14.3695925825
 10
11.9911285691
 20
-14.3463528303
 10
12.0074649806
 20
-14.3223897415
 10
12.0232198713
 20
-14.2977146664
 10
12.0383857351
 20
-14.2723393512
 10
12.0529553318
 20
-14.2462758832
 10
12.0669217733
 20
-14.2195366166
 10
12.0802784206
 20
-14.1921342532
 10
12.0930188906
 20
-14.1640818562
 10
12.105137118
 20
-14.1353927926
 10
12.1166273446
 20
-14.1060807083
 10
12.1274840958
 20
-14.076159554
 10
12.1377021882
 20
-14.0456435983
 10
12.1472767718
 20
-14.0145473759
 10
12.1562033017
 20
-13.9828856613
 10
12.1644775153
 20
-13.9506734951
 10
12.1720955001
 20
-13.9179261907
 10
12.1790536416
 20
-13.884659322
 10
12.1853485925
 20
-13.8508886968
 10
12.1909773968
 20
-13.8166303106
 10
12.195937382
 20
-13.7819005016
 10
12.2002261088
 20
-13.7467159396
 10
12.2038415719
 20
-13.7110934493
 10
12.206782097
 20
-13.6750498651
 10
12.2090462223
 20
-13.6386021796
 10
12.2106328684
 20
-13.6017676607
 10
12.2115413519
 20
-13.5645638516
 10
12.2117712809
 20
-13.5270084245
  0
LWPOLYLINE
  5
42A
100
AcDbEntity
  8
RACCORDO
100
AcDbPolyline
 62
250
  6
CONTINUOUS
 90
4
 70
0
 10
11.7976208053
 20
-14.5444915235
 10
11.8193016195
 20
-14.5282167334
 10
11.8404904245
 20
-14.5111320209
 10
11.8611770962
 20
-14.4932455493
  0
LWPOLYLINE
  5
42B
100
AcDbEntity
  8
RACCORDO
100
AcDbPolyline
 62
7
  6
CONTINUOUS
 90
40
 70
0
 10
11.8721984715
 20
-14.4981220784
 10
11.8927647437
 20
-14.4829248781
 10
11.9208057831
 20
-14.4612347906
 10
11.9483555895
 20
-14.438777782
 10
11.9753862327
 20
-14.4155713781
 10
12.0018847215
 20
-14.3916216497
 10
12.0278523513
 20
-14.3669210403
 10
12.0532692814
 20
-14.3414808516
 10
12.0781162646
 20
-14.3153128089
 10
12.102394055
 20
-14.2884070357
 10
12.1260835053
 20
-14.2607744186
 10
12.1491648778
 20
-14.2324277551
 10
12.1716363685
 20
-14.2033572781
 10
12.1934794985
 20
-14.17357303
 10
12.214674396
 20
-14.1430886961
 10
12.2352157308
 20
-14.1118969489
 10
12.2550846972
 20
-14.0800092632
 10
12.2742629668
 20
-14.0474378973
 10
12.2927448123
 20
-14.0141737337
 10
12.3105107504
 20
-13.9802305012
 10
12.327544154
 20
-13.9456177519
 10
12.3438418688
 20
-13.9103166018
 10
12.3593876591
 20
-13.8743322567
 10
12.3741607034
 20
-13.8376810085
 10
12.388149594
 20
-13.8003570753
 10
12.4013420672
 20
-13.762353562
 10
12.4137137437
 20
-13.723697606
 10
12.425238125
 20
-13.6844325976
 10
12.4359012175
 20
-13.6445682376
 10
12.4456884792
 20
-13.6041159523
 10
12.4545790288
 20
-13.563120791
 10
12.4625622445
 20
-13.5215910579
 10
12.4696264776
 20
-13.479538698
 10
12.4757556344
 20
-13.4370133904
 10
12.4809415817
 20
-13.3940244606
 10
12.4851756813
 20
-13.3505818904
 10
12.4884469639
 20
-13.3067349427
 10
12.4907486345
 20
-13.2625051406
 10
12.4920753573
 20
-13.2178893161
 10
12.4924314727
 20
-13.1796802602
  0
LINE
  5
42C
100
AcDbEntity
  8
RACCORDO
100
AcDbLine
 62
7
  6
CONTINUOUS
 10
7.0129994046
 20
-17.3220178236
 11
8.0961946741
 21
-16.5369776073
  0
LINE
  5
42D
100
AcDbEntity
  8
268140580
100
AcDbLine
 62
7
  6
CONTINUOUS
 10
6.7113726463
 20
-17.6475184165
 11
6.7369330503
 21
-17.6289936448
  0
LINE
  5
42E
100
AcDbEntity
  8
RACCORDO
100
AcDbLine
 62
250
  6
CONTINUOUS
 10
11.6184177193
 20
-14.6743680409
 11
11.7976208053
 21
-14.5444915235
  0
LINE
  5
42F
100
AcDbEntity
  8
RACCORDO
100
AcDbLine
 62
7
  6
CONTINUOUS
 10
11.6929853134
 20
-14.6280059081
 11
11.8721883993
 21
-14.4981293907
  0
LWPOLYLINE
  5
430
100
AcDbEntity
  8
268140580
100
AcDbPolyline
 62
250
  6
CONTINUOUS
 90
4
 70
0
 10
0.9741824349
 20
-23.3216999147
 10
0.9643339107
 20
-23.3287487634
 10
0.9540759473
 20
-23.3349947061
 10
0.9434317557
 20
-23.34042361
  0
LWPOLYLINE
  5
431
100
AcDbEntity
  8
RACCORDO
100
AcDbPolyline
 62
250
  6
CONTINUOUS
 90
4
 70
0
 10
11.5736297894
 20
-14.7023027349
 10
11.5887777878
 20
-14.6938314379
 10
11.6038082189
 20
-14.6844660543
 10
11.6184177193
 20
-14.6743680409
  0
LWPOLYLINE
  5
432
100
AcDbEntity
  8
RACCORDO
100
AcDbPolyline
 62
250
  6
CONTINUOUS
 90
5
 70
0
 10
11.7976208053
 20
-14.5444915235
 10
11.8164573206
 20
-14.5341313156
 10
11.8348994374
 20
-14.5231430785
 10
11.8529334603
 20
-14.511534972
 10
11.8721883993
 20
-14.4981293907
  0
LWPOLYLINE
  5
433
100
AcDbEntity
  8
RACCORDO
100
AcDbPolyline
 62
250
  6
CONTINUOUS
 90
5
 70
0
 10
11.6184177193
 20
-14.6743680409
 10
11.6372542346
 20
-14.6640078331
 10
11.6556963513
 20
-14.653019596
 10
11.6737303742
 20
-14.6414114895
 10
11.6929853134
 20
-14.6280059081
  0
LINE
  5
434
100
AcDbEntity
  8
RACCORDO
100
AcDbLine
 62
250
  6
CONTINUOUS
 10
11.6184177193
 20
-14.6743680409
 11
8.0961946741
 21
-16.5369776073
  0
LINE
  5
435
100
AcDbEntity
  8
RACCORDO
100
AcDbLine
 62
7
  6
CONTINUOUS
 10
11.5736297894
 20
-14.7023027349
 11
8.0745025719
 21
-16.5526988471
  0
LINE
  5
436
100
AcDbEntity
  8
RACCORDO
100
AcDbLine
 62
250
  6
CONTINUOUS
 10
1.7781831778
 20
-19.8225060932
 11
11.7976208053
 21
-14.5444915235
  0
LINE
  5
437
100
AcDbEntity
  8
DRAFT
100
AcDbLine
 62
7
  6
CONTINUOUS
 10
1.7781831778
 20
-20.0719189838
 11
7.0129994046
 21
-17.3220178236
  0
LINE
  5
438
100
AcDbEntity
  8
268140580
100
AcDbLine
 62
7
  6
CONTINUOUS
 10
6.7369330503
 20
-17.6289936448
 11
1.7781831778
 21
-20.1741705174
  0
LINE
  5
439
100
AcDbEntity
  8
268140580
100
AcDbLine
 62
7
  6
CONTINUOUS
 10
5.3058859517
 20
-18.5179072542
 11
1.7781831778
 21
-20.3258403725
  0
LINE
  5
43A
100
AcDbEntity
  8
268140580
100
AcDbLine
 62
7
  6
CONTINUOUS
 10
-0.8150991683
 20
-21.8499486412
 11
-1.1748238563
 21
-22.0236396878
  0
LWPOLYLINE
  5
43B
100
AcDbEntity
  8
ASSI
100
AcDbPolyline
 62
250
  6
CONTINUOUS
 90
16
 70
0
 10
-5.0934117585
 20
-24.8175704059
 10
-5.1324209638
 20
-24.8363807632
 10
-5.1747335273
 20
-24.8530627441
 10
-5.2198961006
 20
-24.8674376131
 10
-5.2674247994
 20
-24.879351354
 10
-5.3168103882
 20
-24.8886763196
 10
-5.3675237361
 20
-24.8953125997
 10
-5.4190214864
 20
-24.8991890913
 10
-5.470751878
 20
-24.9002642607
 10
-5.5221606573
 20
-24.8985265882
 10
-5.5726970164
 20
-24.8939946915
 10
-5.6218194948
 20
-24.8867171269
 10
-5.6690017808
 20
-24.8767718681
 10
-5.7137383504
 20
-24.8642654715
 10
-5.7555498836
 20
-24.849331934
 10
-5.7939884001
 20
-24.8321312576
  0
LWPOLYLINE
  5
43C
100
AcDbEntity
  8
RACCORDO
100
AcDbPolyline
 62
250
  6
CONTINUOUS
 90
16
 70
0
 10
-5.0934117586
 20
-24.8175704059
 10
-5.1324209007
 20
-24.8363804454
 10
-5.1747333377
 20
-24.8530621169
 10
-5.219895727
 20
-24.8674366903
 10
-5.2674241912
 20
-24.8793501539
 10
-5.3168095023
 20
-24.8886748648
 10
-5.3675225378
 20
-24.8953109166
 10
-5.4190199499
 20
-24.8991872095
 10
-5.4707499864
 20
-24.9002622121
 10
-5.5221584033
 20
-24.8985244069
 10
-5.572694402
 20
-24.8939924127
 10
-5.6218165314
 20
-24.8867147863
 10
-5.6689984888
 20
-24.8767695015
 10
-5.7137347587
 20
-24.8642631138
 10
-5.7555460293
 20
-24.8493296186
 10
-5.7939843276
 20
-24.832129016
  0
LINE
  5
43D
100
AcDbEntity
  8
268140580
100
AcDbLine
 62
250
  6
CONTINUOUS
 10
-1.7927060672
 20
-21.1444349226
 11
-1.1748238563
 21
-20.8504435837
  0
LINE
  5
43E
100
AcDbEntity
  8
268140580
100
AcDbLine
 62
7
  6
CONTINUOUS
 10
-1.7927060672
 20
-21.3727310455
 11
-1.3236766926
 21
-21.1527359395
  0
LINE
  5
43F
100
AcDbEntity
  8
ASSI
100
AcDbLine
 62
7
  6
CONTINUOUS
 10
-2.2243756928
 20
-23.4220172523
 11
-1.7927060672
 21
-23.2226579142
  0
LINE
  5
440
100
AcDbEntity
  8
DRAFT
100
AcDbLine
 62
7
  6
CONTINUOUS
 10
-1.7927060672
 20
-23.2226579142
 11
-2.2243756928
 21
-23.4220172523
  0
LINE
  5
441
100
AcDbEntity
  8
268140580
100
AcDbLine
 62
7
  6
CONTINUOUS
 10
-14.465262864
 20
22.4842249332
 11
-13.9349327781
 21
22.3743899762
  0
LINE
  5
442
100
AcDbEntity
  8
268140580
100
AcDbLine
 62
250
  6
CONTINUOUS
 10
-14.2377854161
 20
22.6406414746
 11
-13.7074553302
 21
22.5308065176
  0
LWPOLYLINE
  5
443
100
AcDbEntity
  8
268140580
100
AcDbPolyline
 62
250
  6
CONTINUOUS
 90
25
 70
0
 10
-13.7074553302
 20
22.5308065176
 10
-13.6944288506
 20
22.527657083
 10
-13.6817619755
 20
22.5236426533
 10
-13.6694547051
 20
22.5187632286
 10
-13.6574761086
 20
22.5130104123
 10
-13.6458571166
 20
22.5063926009
 10
-13.6346905216
 20
22.4989349839
 10
-13.6239814447
 20
22.4906289799
 10
-13.6137247647
 20
22.4814831702
 10
-13.6039979105
 20
22.471548489
 10
-13.5948063466
 20
22.4608173398
 10
-13.5861446083
 20
22.4492973191
 10
-13.5780737303
 20
22.4370621502
 10
-13.5705994736
 20
22.4241054951
 10
-13.5637160771
 20
22.4104336919
 10
-13.5574672912
 20
22.3961394784
 10
-13.5518585992
 20
22.3812128799
 10
-13.5468845179
 20
22.3656638711
 10
-13.5425723484
 20
22.3496151143
 10
-13.5389302817
 20
22.3330659537
 10
-13.5359501268
 20
22.3160170451
 10
-13.5336346119
 20
22.2985930189
 10
-13.5319846463
 20
22.2808354186
 10
-13.5309993206
 20
22.2627027007
 10
-13.5306786349
 20
22.2441948652
  0
LINE
  5
444
100
AcDbEntity
  8
268140580
100
AcDbLine
 62
7
  6
CONTINUOUS
 10
-1.1018944767
 20
20.8270936014
 11
-3.5604730202
 21
22.0563828732
  0
LINE
  5
445
100
AcDbEntity
  8
268140580
100
AcDbLine
 62
7
  6
CONTINUOUS
 10
0.3109912157
 20
21.5184352618
 11
-2.5162419042
 21
22.9320518217
  0
LINE
  5
446
100
AcDbEntity
  8
DRAFT
100
AcDbLine
 62
7
  6
CONTINUOUS
 10
6.6940096646
 20
18.9507363842
 11
7.0129994046
 21
18.7912415142
  0
LINE
  5
447
100
AcDbEntity
  8
268140580
100
AcDbLine
 62
250
  6
CONTINUOUS
 10
-4.5874849675
 20
24.6177545583
 11
-3.9816517927
 21
24.3148379708
  0
LINE
  5
448
100
AcDbEntity
  8
268140580
100
AcDbLine
 62
250
  6
CONTINUOUS
 10
0.9680956756
 20
21.8399642367
 11
1.5739288505
 21
21.5370476492
  0
LINE
  5
449
100
AcDbEntity
  8
268140580
100
AcDbLine
 62
7
  6
CONTINUOUS
 10
-1.1563099641
 20
23.0058000091
 11
1.1097926544
 21
21.8727486999
  0
LINE
  5
44A
100
AcDbEntity
  8
268140580
100
AcDbLine
 62
7
  6
CONTINUOUS
 10
1.8562106654
 20
21.4995396944
 11
1.8738951577
 21
21.4906974482
  0
LINE
  5
44B
100
AcDbEntity
  8
268140580
100
AcDbLine
 62
7
  6
CONTINUOUS
 10
-4.3656933393
 20
24.6297942282
 11
-3.7611302911
 21
24.3275127041
  0
LINE
  5
44C
100
AcDbEntity
  8
268140580
100
AcDbLine
 62
7
  6
CONTINUOUS
 10
1.1886171772
 20
21.85263897
 11
1.7931802253
 21
21.5503574459
  0
LWPOLYLINE
  5
44D
100
AcDbEntity
  8
RACCORDO
100
AcDbPolyline
 62
250
  6
CONTINUOUS
 90
58
 70
0
 10
19.4400733447
 20
8.0737622336
 10
19.454147575
 20
8.0628872139
 10
19.4971785394
 20
8.0284565802
 10
19.5399757717
 20
7.9930260514
 10
19.582519974
 20
7.9566116015
 10
19.624791919
 20
7.9192296851
 10
19.6667724936
 20
7.8808972042
 10
19.7084427282
 20
7.8416314822
 10
19.7497838321
 20
7.8014502277
 10
19.7907771705
 20
7.7603715525
 10
19.8314042548
 20
7.718413982
 10
19.8716467279
 20
7.6755964724
 10
19.9114864001
 20
7.6319383771
 10
19.9509052735
 20
7.5874594211
 10
19.9898855685
 20
7.5421796678
 10
20.0284097082
 20
7.4961195349
 10
20.0664603131
 20
7.4492997998
 10
20.1040201948
 20
7.4017416111
 10
20.1410723828
 20
7.3534664562
 10
20.1776001432
 20
7.3044961393
 10
20.2135869956
 20
7.2548527554
 10
20.2490167058
 20
7.2045586997
 10
20.2838732858
 20
7.153636667
 10
20.3181409947
 20
7.1021096522
 10
20.3518043568
 20
7.0500009254
 10
20.3848481731
 20
6.9973340142
 10
20.4172575303
 20
6.9441326887
 10
20.4490178011
 20
6.8904209605
 10
20.4801146487
 20
6.8362230751
 10
20.5105340351
 20
6.7815634991
 10
20.5402622293
 20
6.726466905
 10
20.5692858131
 20
6.6709581609
 10
20.597591683
 20
6.6150623276
 10
20.6251670572
 20
6.5588046453
 10
20.6519994845
 20
6.5022105173
 10
20.6780768563
 20
6.4453054837
 10
20.7033874072
 20
6.388115218
 10
20.7279197164
 20
6.3306655251
 10
20.7516627038
 20
6.27298235
 10
20.7746056432
 20
6.2150917525
 10
20.7967381723
 20
6.1570198812
 10
20.818050307
 20
6.0987929352
 10
20.8385324363
 20
6.0404371724
 10
20.8581753201
 20
5.9819789159
 10
20.8769700835
 20
5.9234445742
 10
20.8949082322
 20
5.8648606026
 10
20.9119816627
 20
5.8062534699
 10
20.9281826759
 20
5.7476496093
 10
20.9435039685
 20
5.6890754386
 10
20.9579386295
 20
5.6305573733
 10
20.971480135
 20
5.5721218554
 10
20.9841223627
 20
5.5137953047
 10
20.9958596013
 20
5.4556040786
 10
21.0066865597
 20
5.3975744171
 10
21.0165983585
 20
5.3397324723
 10
21.0255905245
 20
5.2821043405
 10
21.0336589949
 20
5.224716051
 10
21.0408001263
 20
5.1675935099
  0
LWPOLYLINE
  5
44E
100
AcDbEntity
  8
SMUSSO
100
AcDbPolyline
 62
7
  6
CONTINUOUS
 90
49
 70
0
 10
8.6760835751
 20
21.7847151939
 10
8.6504779165
 20
21.8228428561
 10
8.6283922846
 20
21.858586466
 10
8.6080143195
 20
21.8945377764
 10
8.5893450713
 20
21.9307007623
 10
8.5723834899
 20
21.9670714486
 10
8.5571602588
 20
22.0035838675
 10
8.5436800092
 20
22.0402332945
 10
8.5319381099
 20
22.0770244541
 10
8.5219513511
 20
22.1139055507
 10
8.5137212468
 20
22.150882459
 10
8.5072462829
 20
22.1879493043
 10
8.5025387075
 20
22.2250366676
 10
8.4996019855
 20
22.2621384377
 10
8.498432652
 20
22.2992607257
 10
8.4990325597
 20
22.3363524454
 10
8.5014046935
 20
22.3734194044
 10
8.5055460685
 20
22.4104557952
 10
8.5114495838
 20
22.4473931094
 10
8.5191173872
 20
22.4842263816
 10
8.5285473309
 20
22.5209605772
 10
8.5397258698
 20
22.5575420841
 10
8.5526569039
 20
22.5939743289
 10
8.5673365331
 20
22.6302538849
 10
8.5837395125
 20
22.6663168605
 10
8.6018677086
 20
22.7021605087
 10
8.6217192548
 20
22.7377875764
 10
8.6432633068
 20
22.7731424121
 10
8.6665032305
 20
22.8082257726
 10
8.6914356599
 20
22.8430369011
 10
8.7180196524
 20
22.8775178752
 10
8.7462579192
 20
22.9116679704
 10
8.7761477492
 20
22.9454879112
 10
8.8076400662
 20
22.9789219492
 10
8.8407368947
 20
23.0119689302
 10
8.8754362103
 20
23.0446300085
 10
8.911682864
 20
23.0768528984
 10
8.9494805117
 20
23.1086378009
 10
8.9888254974
 20
23.1399845151
 10
9.0296517041
 20
23.170840152
 10
9.0719602413
 20
23.2012029224
 10
9.1157499995
 20
23.2310746154
 10
9.1609515335
 20
23.26040771
 10
9.2075672508
 20
23.2892015923
 10
9.2555947439
 20
23.3174568761
 10
9.3049573447
 20
23.3451278818
 10
9.3556294975
 20
23.372199383
 10
9.407636758
 20
23.3986866061
 10
9.4609791263
 20
23.4245895511
  0
LWPOLYLINE
  5
44F
100
AcDbEntity
  8
RACCORDO
100
AcDbPolyline
 62
7
  6
CONTINUOUS
 90
4
 70
0
 10
21.1109867933
 20
5.258277431
 10
21.1109593291
 20
5.2601144095
 10
21.1106906041
 20
5.2642989821
 10
21.1105564836
 20
5.2655310924
  0
LWPOLYLINE
  5
450
100
AcDbEntity
  8
RACCORDO
100
AcDbPolyline
 62
7
  6
CONTINUOUS
 90
4
 70
0
 10
21.1109867933
 20
17.2094280033
 10
21.1109593291
 20
17.2112649817
 10
21.1106906041
 20
17.2154495543
 10
21.1105564836
 20
17.2166816646
  0
LINE
  5
451
100
AcDbEntity
  8
RACCORDO
100
AcDbLine
 62
250
  6
CONTINUOUS
 10
21.0267887334
 20
17.1152297374
 11
21.0267887334
 21
16.3370038789
  0
LINE
  5
452
100
AcDbEntity
  8
RACCORDO
100
AcDbLine
 62
250
  6
CONTINUOUS
 10
21.0267887334
 20
5.1640791652
 11
21.0267887334
 21
4.3858533067
  0
LINE
  5
453
100
AcDbEntity
  8
RACCORDO
100
AcDbLine
 62
7
  6
CONTINUOUS
 10
21.1109867933
 20
17.2094280462
 11
21.1109867933
 21
16.4512030813
  0
LINE
  5
454
100
AcDbEntity
  8
RACCORDO
100
AcDbLine
 62
7
  6
CONTINUOUS
 10
21.1109867933
 20
5.258277474
 11
21.1109867933
 21
4.500052509
  0
LWPOLYLINE
  5
455
100
AcDbEntity
  8
RACCORDO
100
AcDbPolyline
 62
7
  6
CONTINUOUS
 90
4
 70
0
 10
21.1101882671
 20
4.4881241008
 10
21.1106370032
 20
4.492145937
 10
21.1109414833
 20
4.4972021032
 10
21.1109867933
 20
4.5000525493
  0
LWPOLYLINE
  5
456
100
AcDbEntity
  8
268140580
100
AcDbPolyline
 62
250
  6
CONTINUOUS
 90
13
 70
0
 10
0.5407463107
 20
-23.5563870216
 10
0.5507259039
 20
-23.5510981456
 10
0.5600735686
 20
-23.545528087
 10
0.5687576754
 20
-23.5396956936
 10
0.5767488403
 20
-23.5336207005
 10
0.5840200242
 20
-23.5273236637
 10
0.5905466239
 20
-23.5208258906
 10
0.5963065558
 20
-23.5141493677
 10
0.6012803307
 20
-23.5073166865
 10
0.6054511192
 20
-23.5003509665
 10
0.6088048092
 20
-23.4932757778
 10
0.6113300532
 20
-23.4861150605
 10
0.6129308472
 20
-23.4792671801
  0
LWPOLYLINE
  5
457
100
AcDbEntity
  8
268140580
100
AcDbPolyline
 62
250
  6
CONTINUOUS
 90
15
 70
0
 10
0.5407463107
 20
-23.8840149658
 10
0.5507258832
 20
-23.8787261013
 10
0.5600735317
 20
-23.8731560546
 10
0.5687576265
 20
-23.8673236727
 10
0.5767487835
 20
-23.8612486907
 10
0.5840199632
 20
-23.8549516644
 10
0.5905465622
 20
-23.8484539009
 10
0.5963064965
 20
-23.8417773866
 10
0.6012802763
 20
-23.8349447127
 10
0.605451072
 20
-23.8279789988
 10
0.6088047709
 20
-23.8209038147
 10
0.6113300251
 20
-23.8137431006
 10
0.6130182899
 20
-23.806521086
 10
0.6138638529
 20
-23.799262208
 10
0.6139696154
 20
-23.7956266181
  0
LWPOLYLINE
  5
458
100
AcDbEntity
  8
268140580
100
AcDbPolyline
 62
250
  6
CONTINUOUS
 90
16
 70
0
 10
1.2478530919
 20
-24.2804615752
 10
1.2568530015
 20
-24.2757198848
 10
1.2653471474
 20
-24.2707479938
 10
1.2733118459
 20
-24.2655593198
 10
1.2807255007
 20
-24.2601673777
 10
1.2875665468
 20
-24.2545872557
 10
1.2938140595
 20
-24.248835745
 10
1.2994503653
 20
-24.2429292263
 10
1.3044606855
 20
-24.2368833093
 10
1.3088313893
 20
-24.2307144085
 10
1.312550504
 20
-24.2244393188
 10
1.3156077053
 20
-24.2180753384
 10
1.3179945095
 20
-24.2116400716
 10
1.3197043603
 20
-24.2051512211
 10
1.3207325954
 20
-24.1986265169
 10
1.3210763955
 20
-24.1920851012
  0
LWPOLYLINE
  5
459
100
AcDbEntity
  8
268140580
100
AcDbPolyline
 62
250
  6
CONTINUOUS
 90
16
 70
0
 10
1.2478530919
 20
-24.6260990362
 10
1.256862603
 20
-24.6213520143
 10
1.265362887
 20
-24.6163757374
 10
1.2733306452
 20
-24.6111838451
 10
1.2807440386
 20
-24.6057905679
 10
1.2875827476
 20
-24.6002106885
 10
1.2938280277
 20
-24.594459501
 10
1.299462761
 20
-24.5885527689
 10
1.3044715032
 20
-24.5825066822
 10
1.3088405257
 20
-24.5763378128
 10
1.3125578532
 20
-24.5700630692
 10
1.3156132968
 20
-24.5636996499
 10
1.3179984818
 20
-24.5572649967
 10
1.3197068705
 20
-24.5507767464
 10
1.3207337803
 20
-24.5442526831
 10
1.3210763966
 20
-24.5377106885
  0
LINE
  5
45A
100
AcDbEntity
  8
268140580
100
AcDbLine
 62
250
  6
CONTINUOUS
 10
-0.8734672517
 20
-25.7094322756
 11
1.2478530919
 21
-24.6260990362
  0
LINE
  5
45B
100
AcDbEntity
  8
268140580
100
AcDbLine
 62
7
  6
CONTINUOUS
 10
0.5513524018
 20
-22.3247446064
 11
-0.0204402621
 21
-22.6008314849
  0
LINE
  5
45C
100
AcDbEntity
  8
268140580
100
AcDbLine
 62
250
  6
CONTINUOUS
 10
1.0612471306
 20
-23.1177752829
 11
1.7781831778
 21
-22.7716067364
  0
LINE
  5
45D
100
AcDbEntity
  8
268140580
100
AcDbLine
 62
7
  6
CONTINUOUS
 10
0.9573084631
 20
-23.3341158811
 11
1.672365793
 21
-22.9888544627
  0
LWPOLYLINE
  5
45E
100
AcDbEntity
  8
268140580
100
AcDbPolyline
 62
250
  6
CONTINUOUS
 90
31
 70
0
 10
-0.8734672517
 20
-25.341121747
 10
-0.8829612954
 20
-25.3456265025
 10
-0.8929138492
 20
-25.3498766445
 10
-0.9032976339
 20
-25.3538605236
 10
-0.9140841882
 20
-25.3575672203
 10
-0.925243947
 20
-25.3609865748
 10
-0.936746322
 20
-25.3641092149
 10
-0.9485597862
 20
-25.3669265815
 10
-0.9606519596
 20
-25.3694309526
 10
-0.9729896984
 20
-25.3716154639
 10
-0.9855391857
 20
-25.3734741276
 10
-0.9982660242
 20
-25.3750018494
 10
-1.0111353307
 20
-25.3761944419
 10
-1.0241118311
 20
-25.3770486363
 10
-1.0371599579
 20
-25.3775620912
 10
-1.050243947
 20
-25.3777333993
 10
-1.063327936
 20
-25.3775620912
 10
-1.0763760628
 20
-25.3770486363
 10
-1.0893525632
 20
-25.3761944419
 10
-1.1022218697
 20
-25.3750018494
 10
-1.1149487082
 20
-25.3734741276
 10
-1.1274981955
 20
-25.3716154639
 10
-1.1398359343
 20
-25.3694309526
 10
-1.1519281077
 20
-25.3669265815
 10
-1.1637415719
 20
-25.3641092149
 10
-1.175243947
 20
-25.3609865748
 10
-1.1864037057
 20
-25.3575672203
 10
-1.19719026
 20
-25.3538605236
 10
-1.2075740447
 20
-25.3498766445
 10
-1.2175265985
 20
-25.3456265025
 10
-1.2270206422
 20
-25.341121747
  0
LWPOLYLINE
  5
45F
100
AcDbEntity
  8
268140580
100
AcDbPolyline
 62
250
  6
CONTINUOUS
 90
28
 70
0
 10
-0.1663604705
 20
-24.2375683564
 10
-0.176938237
 20
-24.2425581594
 10
-0.1880783691
 20
-24.247231997
 10
-0.1997431715
 20
-24.2515740545
 10
-0.2118931737
 20
-24.25556964
 10
-0.2244872632
 20
-24.2592052338
 10
-0.2374828246
 20
-24.2624685344
 10
-0.2508358845
 20
-24.2653485
 10
-0.2645012598
 20
-24.2678353861
 10
-0.2784327107
 20
-24.2699207781
 10
-0.2925830971
 20
-24.27159762
 10
-0.3069045384
 20
-24.2728602383
 10
-0.3213485752
 20
-24.2737043611
 10
-0.3358663331
 20
-24.2741271325
 10
-0.3504086889
 20
-24.2741271225
 10
-0.364926436
 20
-24.2737043314
 10
-0.3793704511
 20
-24.2728601901
 10
-0.3936918604
 20
-24.2715975553
 10
-0.4078422058
 20
-24.2699206997
 10
-0.421773607
 20
-24.2678352974
 10
-0.4354389251
 20
-24.2653484051
 10
-0.4487919222
 20
-24.2624684376
 10
-0.4617874163
 20
-24.25920514
 10
-0.4743814351
 20
-24.2555695545
 10
-0.4865313659
 20
-24.2515739824
 10
-0.4981960977
 20
-24.2472319435
 10
-0.5093361608
 20
-24.2425581299
 10
-0.5199138611
 20
-24.2375683564
  0
LWPOLYLINE
  5
460
100
AcDbEntity
  8
268140580
100
AcDbPolyline
 62
7
  6
CONTINUOUS
 90
31
 70
0
 10
0.5513524018
 20
-22.3247446064
 10
0.5399614648
 20
-22.3299728375
 10
0.528069145
 20
-22.3348876591
 10
0.5156754425
 20
-22.3394890714
 10
0.5027261904
 20
-22.3437945021
 10
0.4892755555
 20
-22.3477865234
 10
0.4754860386
 20
-22.3514128516
 10
0.4613696008
 20
-22.3546625668
 10
0.4469142809
 20
-22.3575465889
 10
0.4322466961
 20
-22.3600453939
 10
0.4173974646
 20
-22.3621551268
 10
0.4023359683
 20
-22.3638796426
 10
0.3870969693
 20
-22.3652109819
 10
0.3716303989
 20
-22.3661509652
 10
0.3559863259
 20
-22.3666977719
 10
0.3403497186
 20
-22.3668379804
 10
0.3247209236
 20
-22.3665620731
 10
0.3090995943
 20
-22.3658795677
 10
0.2936696594
 20
-22.3648055959
 10
0.2784818237
 20
-22.3633426491
 10
0.2634853824
 20
-22.3614882358
 10
0.248712149
 20
-22.359250014
 10
0.2341298612
 20
-22.3566235846
 10
0.2197707814
 20
-22.3536133467
 10
0.2057635104
 20
-22.3502401554
 10
0.1920969231
 20
-22.346492853
 10
0.1787821445
 20
-22.3423825973
 10
0.1659811509
 20
-22.3379637167
 10
0.1537479344
 20
-22.3332543206
 10
0.1420285029
 20
-22.3282362995
 10
0.1308228563
 20
-22.3229096535
  0
LINE
  5
461
100
AcDbEntity
  8
268140580
100
AcDbLine
 62
250
  6
CONTINUOUS
 10
0.9434317557
 20
-23.34042361
 11
0.9382013343
 21
-23.3427318416
  0
LINE
  5
462
100
AcDbEntity
  8
ASSI
100
AcDbLine
 62
250
  6
CONTINUOUS
 10
-4.4122216983
 20
-25.3179551977
 11
-2.2243756928
 21
-24.3995863118
  0
LINE
  5
463
100
AcDbEntity
  8
RACCORDO
100
AcDbLine
 62
250
  6
CONTINUOUS
 10
-4.4122216983
 20
-25.3179551977
 11
-2.2243756928
 21
-24.3995863118
  0
LINE
  5
464
100
AcDbEntity
  8
268140580
100
AcDbLine
 62
250
  6
CONTINUOUS
 10
-0.0204402621
 20
-23.5718237137
 11
1.0612471306
 21
-23.1177752829
  0
LINE
  5
465
100
AcDbEntity
  8
268140580
100
AcDbLine
 62
7
  6
CONTINUOUS
 10
-0.1334528651
 20
-23.7925687454
 11
0.9382013343
 21
-23.3427318416
  0
LINE
  5
466
100
AcDbEntity
  8
RACCORDO
100
AcDbLine
 62
7
  6
CONTINUOUS
 10
-2.3656414465
 20
-24.6755176014
 11
-4.5662159699
 21
-25.5992292886
  0
LINE
  5
467
100
AcDbEntity
  8
ASSI
100
AcDbLine
 62
7
  6
CONTINUOUS
 10
-2.3656414465
 20
-24.6755176014
 11
-4.5662406018
 21
-25.5992395962
  0
LINE
  5
468
100
AcDbEntity
  8
ASSI
100
AcDbLine
 62
7
  6
CONTINUOUS
 10
-4.5914289569
 20
-25.6094693748
 11
-4.5662456091
 21
-25.5992276445
  0
LINE
  5
469
100
AcDbEntity
  8
RACCORDO
100
AcDbLine
 62
7
  6
CONTINUOUS
 10
-4.591342948
 20
-25.6094343962
 11
-4.5662193068
 21
-25.599221325
  0
LINE
  5
46A
100
AcDbEntity
  8
RACCORDO
100
AcDbLine
 62
250
  6
CONTINUOUS
 10
-4.3680234998
 20
21.5619189321
 11
-4.3581346487
 21
21.5646958219
  0
LINE
  5
46B
100
AcDbEntity
  8
RACCORDO
100
AcDbLine
 62
250
  6
CONTINUOUS
 10
-4.3581346487
 20
21.5646958219
 11
-4.3480665124
 21
21.5674335562
  0
LINE
  5
46C
100
AcDbEntity
  8
RACCORDO
100
AcDbLine
 62
250
  6
CONTINUOUS
 10
-4.3480665124
 20
21.5674335562
 11
-4.3378185746
 21
21.5701281349
  0
LWPOLYLINE
  5
46D
100
AcDbEntity
  8
RACCORDO
100
AcDbPolyline
 62
250
  6
CONTINUOUS
 90
3
 70
0
 10
-4.3378185746
 20
21.5701281349
 10
-4.3273907888
 20
21.5727754212
 10
-4.3221094355
 20
21.5740808158
  0
LWPOLYLINE
  5
46E
100
AcDbEntity
  8
RACCORDO
100
AcDbPolyline
 62
250
  6
CONTINUOUS
 90
3
 70
0
 10
-4.3221094355
 20
21.5740808158
 10
-4.3114122086
 20
21.5766508522
 10
-4.305996335
 20
21.5779154939
  0
LWPOLYLINE
  5
46F
100
AcDbEntity
  8
RACCORDO
100
AcDbPolyline
 62
250
  6
CONTINUOUS
 90
4
 70
0
 10
-4.305996335
 20
21.5779154939
 10
-4.2950317117
 20
21.580399489
 10
-4.289482962
 20
21.5816188424
 10
-4.2838903306
 20
21.5828216248
  0
LWPOLYLINE
  5
470
100
AcDbEntity
  8
RACCORDO
100
AcDbPolyline
 62
250
  6
CONTINUOUS
 90
125
 70
0
 10
-4.2838903306
 20
21.5828216248
 10
-4.2725729658
 20
21.5851775654
 10
-4.2668495657
 20
21.5863290684
 10
-4.2610825388
 20
21.5874625274
 10
-4.2552727351
 20
21.5885778048
 10
-4.2494238091
 20
21.5896728765
 10
-4.2435348044
 20
21.5907478403
 10
-4.2376066775
 20
21.5918025985
 10
-4.2316459515
 20
21.5928348351
 10
-4.2256508586
 20
21.593844698
 10
-4.2196231668
 20
21.5948320393
 10
-4.2135747031
 20
21.5957940989
 10
-4.2075047305
 20
21.5967307697
 10
-4.2014139861
 20
21.5976421588
 10
-4.195316508
 20
21.5985258279
 10
-4.1892113145
 20
21.5993816491
 10
-4.1830993874
 20
21.6002097502
 10
-4.1769977102
 20
21.6010080764
 10
-4.170910186
 20
21.6017759448
 10
-4.1648329119
 20
21.6025140382
 10
-4.1587711625
 20
21.60322235
 10
-4.1527263034
 20
21.6039006921
 10
-4.1466969691
 20
21.6045492527
 10
-4.1406843375
 20
21.6051685896
 10
-4.1346880529
 20
21.6057587352
 10
-4.1287084711
 20
21.6063196571
 10
-4.1227478372
 20
21.6068518172
 10
-4.1168061783
 20
21.6073551998
 10
-4.1108834673
 20
21.6078298205
 10
-4.104981868
 20
21.6082761872
 10
-4.0991014648
 20
21.6086942832
 10
-4.0932421733
 20
21.6090841252
 10
-4.0874059038
 20
21.609446271
 10
-4.0815926215
 20
21.6097807132
 10
-4.0758023612
 20
21.6100874592
 10
-4.0700371376
 20
21.6103670903
 10
-4.0642967561
 20
21.6106195986
 10
-4.0585814113
 20
21.610844992
 10
-4.0528937011
 20
21.6110438752
 10
-4.0472335822
 20
21.6112162252
 10
-4.041601098
 20
21.6113620649
 10
-4.0359989765
 20
21.6114820679
 10
-4.0304274448
 20
21.6115762092
 10
-4.0248862758
 20
21.6116445137
 10
-4.0193775163
 20
21.61168773
 10
-4.0139013492
 20
21.611705846
 10
-4.0084575916
 20
21.6116988737
 10
-4.0030477414
 20
21.611667598
 10
-3.9976718481
 20
21.6116120128
 10
-3.9923298621
 20
21.6115321241
 10
-3.9870231334
 20
21.6114287342
 10
-3.9817516672
 20
21.6113018369
 10
-3.9765154583
 20
21.6111514385
 10
-3.9713158399
 20
21.6109783606
 10
-3.966152852
 20
21.6107825976
 10
-3.9610264547
 20
21.6105641551
 10
-3.9559378618
 20
21.610323872
 10
-3.9508871261
 20
21.6100617442
 10
-3.9458741948
 20
21.6097777758
 10
-3.9409001226
 20
21.6094728168
 10
-3.9359649411
 20
21.6091468632
 10
-3.9310686188
 20
21.6087999191
 10
-3.9262121163
 20
21.6084328471
 10
-3.9213953629
 20
21.6080456321
 10
-3.9166184293
 20
21.6076382892
 10
-3.9118824883
 20
21.6072117257
 10
-3.9071877499
 20
21.6067659534
 10
-3.9025340041
 20
21.6063009605
 10
-3.8979217937
 20
21.605817619
 10
-3.8933512939
 20
21.6053159494
 10
-3.8888223295
 20
21.6047959311
 10
-3.8843349178
 20
21.6042583749
 10
-3.8798891048
 20
21.603703293
 10
-3.8754848444
 20
21.6031306731
 10
-3.8711220161
 20
21.6025412897
 10
-3.8668006296
 20
21.6019351507
 10
-3.8625206751
 20
21.6013122482
 10
-3.8582820032
 20
21.6006733326
 10
-3.8540846314
 20
21.6000184126
 10
-3.8499285422
 20
21.5993474797
 10
-3.8458135335
 20
21.5986612583
 10
-3.8417396447
 20
21.5979597616
 10
-3.8377068363
 20
21.5972429765
 10
-3.8337147882
 20
21.5965115886
 10
-3.8297635725
 20
21.59576562
 10
-3.8258531169
 20
21.5950050485
 10
-3.8219828847
 20
21.5942304928
 10
-3.8181529154
 20
21.5934419728
 10
-3.8143631694
 20
21.5926394687
 10
-3.810612991
 20
21.5918235399
 10
-3.8069023917
 20
21.5909942019
 10
-3.8032313599
 20
21.5901514393
 10
-3.7995992051
 20
21.5892957651
 10
-3.7960059548
 20
21.5884272
 10
-3.7924515816
 20
21.5875457234
 10
-3.7889353119
 20
21.5866517867
 10
-3.7854571642
 20
21.5857454103
 10
-3.7820171202
 20
21.5848265738
 10
-3.7786143516
 20
21.5838956675
 10
-3.7752488596
 20
21.5829527086
 10
-3.7719206431
 20
21.5819976798
 10
-3.7686288702
 20
21.5810309205
 10
-3.7653735503
 20
21.5800524512
 10
-3.7621546741
 20
21.5790622513
 10
-3.7589713811
 20
21.5780605981
 10
-3.7558236769
 20
21.577047513
 10
-3.7527115561
 20
21.5760229746
 10
-3.7496341414
 20
21.574987197
 10
-3.7465914249
 20
21.5739401981
 10
-3.7435834146
 20
21.5728819601
 10
-3.7406092578
 20
21.5718126431
 10
-3.737668932
 20
21.5707322598
 10
-3.7347624597
 20
21.5696407975
 10
-3.731889056
 20
21.5685383788
 10
-3.7290486894
 20
21.567425012
 10
-3.7262413915
 20
21.5663006888
 10
-3.7234664719
 20
21.5651655066
 10
-3.7207239096
 20
21.5640194758
 10
-3.7180137257
 20
21.5628625861
 10
-3.7153352935
 20
21.5616949044
 10
-3.7126886023
 20
21.5605164476
 10
-3.7100736628
 20
21.5593271989
 10
-3.7074898802
 20
21.558127174
 10
-3.7049370562
 20
21.5569163783
 10
-3.7024153891
 20
21.5556948064
  0
LWPOLYLINE
  5
471
100
AcDbEntity
  8
268140580
100
AcDbPolyline
 62
7
  6
CONTINUOUS
 90
16
 70
0
 10
-4.0087607562
 20
22.1857923957
 10
-3.9752911316
 20
22.1809942996
 10
-3.9422375421
 20
22.1756282161
 10
-3.9095999876
 20
22.1696941452
 10
-3.877352581
 20
22.163188743
 10
-3.8455212095
 20
22.1561153535
 10
-3.8141835349
 20
22.1484840084
 10
-3.7833109879
 20
22.1402847357
 10
-3.7529321379
 20
22.1315275074
 10
-3.723210355
 20
22.1222522722
 10
-3.6941457177
 20
22.112450855
 10
-3.6657381474
 20
22.1021314308
 10
-3.638150779
 20
22.0913584731
 10
-3.6114379908
 20
22.0801534732
 10
-3.5855454046
 20
22.0684949399
 10
-3.5604730202
 20
22.0563828732
  0
LWPOLYLINE
  5
472
100
AcDbEntity
  8
268140580
100
AcDbPolyline
 62
7
  6
CONTINUOUS
 90
17
 70
0
 10
-3.76113361
 20
24.3275060711
 10
-3.7682929241
 20
24.3309067709
 10
-3.7805982754
 20
24.335914144
 10
-3.7932741535
 20
24.340055269
 10
-3.8062786568
 20
24.3433315911
 10
-3.8196086622
 20
24.3457480269
 10
-3.8332672927
 20
24.3472996599
 10
-3.8472220152
 20
24.3479731866
 10
-3.8615009244
 20
24.3477648439
 10
-3.8760759258
 20
24.3466783949
 10
-3.8908302022
 20
24.3447118254
 10
-3.9057705632
 20
24.3418492
 10
-3.9208901993
 20
24.338106454
 10
-3.9360518649
 20
24.3335293789
 10
-3.9512098114
 20
24.3281332386
 10
-3.9664097873
 20
24.3219027693
 10
-3.9816517927
 20
24.3148379708
  0
LWPOLYLINE
  5
473
100
AcDbEntity
  8
268140580
100
AcDbPolyline
 62
7
  6
CONTINUOUS
 90
20
 70
0
 10
-1.4162021086
 20
23.8930860539
 10
-1.4224290524
 20
23.8961253543
 10
-1.4434493489
 20
23.905365377
 10
-1.4651209665
 20
23.913365741
 10
-1.4873095593
 20
23.9200691372
 10
-1.5100147691
 20
23.9254594394
 10
-1.5332369541
 20
23.9295527737
 10
-1.5568428431
 20
23.9323402097
 10
-1.5807945301
 20
23.9338182509
 10
-1.605129921
 20
23.9339903937
 10
-1.629829463
 20
23.9328581972
 10
-1.6549296832
 20
23.9304198441
 10
-1.6803940545
 20
23.9266771518
 10
-1.7060934431
 20
23.9216371316
 10
-1.7320422165
 20
23.9152830454
 10
-1.7582260073
 20
23.9076316314
 10
-1.7844725792
 20
23.8987401156
 10
-1.8107245201
 20
23.8886275735
 10
-1.8370392422
 20
23.8772749295
 10
-1.8634167453
 20
23.8646821838
  0
LWPOLYLINE
  5
474
100
AcDbEntity
  8
RACCORDO
100
AcDbPolyline
 62
250
  6
CONTINUOUS
 90
24
 70
0
 10
-2.0927238712
 20
25.7431077893
 10
-2.1131426302
 20
25.7530911957
 10
-2.1335545565
 20
25.7623285418
 10
-2.1539423853
 20
25.7708120144
 10
-2.1742888718
 20
25.778534438
 10
-2.1945768065
 20
25.7854892806
 10
-2.2147890293
 20
25.7916706597
 10
-2.234908444
 20
25.7970733469
 10
-2.2549180332
 20
25.8016927725
 10
-2.2748008721
 20
25.8055250292
 10
-2.2945401433
 20
25.8085668756
 10
-2.3141191508
 20
25.8108157388
 10
-2.333521334
 20
25.8122697167
 10
-2.3527302822
 20
25.8129275794
 10
-2.3717297477
 20
25.8127887705
 10
-2.3905036604
 20
25.8118534074
 10
-2.4090361407
 20
25.8101222813
 10
-2.4273115134
 20
25.8075968564
 10
-2.4453143206
 20
25.8042792688
 10
-2.463029335
 20
25.8001723246
 10
-2.4804415728
 20
25.7952794976
 10
-2.4975363062
 20
25.7896049261
 10
-2.514299076
 20
25.7831534101
 10
-2.5316086216
 20
25.7755107243
  0
LINE
  5
475
100
AcDbEntity
  8
268140580
100
AcDbLine
 62
250
  6
CONTINUOUS
 10
-4.7900787552
 20
25.3280131888
 11
-1.8634167453
 21
23.8646821838
  0
LINE
  5
476
100
AcDbEntity
  8
268140580
100
AcDbLine
 62
250
  6
CONTINUOUS
 10
2.3792239418
 20
21.7433618403
 11
5.3058859517
 21
20.2800308353
  0
LINE
  5
477
100
AcDbEntity
  8
268140580
100
AcDbLine
 62
7
  6
CONTINUOUS
 10
-4.4967300276
 20
25.43334741
 11
-1.4162031498
 21
23.8930839711
  0
LINE
  5
478
100
AcDbEntity
  8
268140580
100
AcDbLine
 62
7
  6
CONTINUOUS
 10
2.8264375373
 20
21.7717636275
 11
5.9069644151
 21
20.2315001886
  0
LINE
  5
479
100
AcDbEntity
  8
RACCORDO
100
AcDbLine
 62
250
  6
CONTINUOUS
 10
3.8118956604
 20
22.7907980235
 11
-2.0927238712
 21
25.7431077893
  0
LINE
  5
47A
100
AcDbEntity
  8
RACCORDO
100
AcDbLine
 62
7
  6
CONTINUOUS
 10
4.2496711855
 20
22.8117212115
 11
-1.6578509906
 21
25.7654711189
  0
LWPOLYLINE
  5
47B
100
AcDbEntity
  8
RACCORDO
100
AcDbPolyline
 62
7
  6
CONTINUOUS
 90
59
 70
0
 10
21.1105564841
 20
5.2655309651
 10
21.104168307
 20
5.3161584753
 10
21.096032782
 20
5.3737664285
 10
21.0869620075
 20
5.431515292
 10
21.0769631951
 20
5.4893812252
 10
21.066043685
 20
5.5473409352
 10
21.0542109794
 20
5.6053713286
 10
21.0414768237
 20
5.6634314745
 10
21.0278458886
 20
5.721514961
 10
21.0133130522
 20
5.7796501881
 10
20.9978755506
 20
5.837846142
 10
20.9815477001
 20
5.8960464696
 10
20.9643501725
 20
5.9541812524
 10
20.9462961134
 20
6.012213808
 10
20.9273910725
 20
6.0701333102
 10
20.9076472011
 20
6.127908504
 10
20.8870774974
 20
6.1855077942
 10
20.8656895831
 20
6.2429157058
 10
20.8434875972
 20
6.3001249682
 10
20.8204785619
 20
6.3571194857
 10
20.7966756373
 20
6.4138683262
 10
20.772092146
 20
6.4703418597
 10
20.7467405976
 20
6.5265136915
 10
20.7206308782
 20
6.5823639537
 10
20.6937728712
 20
6.6378729209
 10
20.6661775158
 20
6.6930189119
 10
20.637857187
 20
6.7477778887
 10
20.6088241347
 20
6.802126717
 10
20.5790924902
 20
6.8560394713
 10
20.5486728328
 20
6.9094972864
 10
20.5175720019
 20
6.9624876454
 10
20.4858023058
 20
7.0149884445
 10
20.4533764794
 20
7.066977342
 10
20.4203015227
 20
7.1184412598
 10
20.3865840244
 20
7.1693671295
 10
20.3522427169
 20
7.2197237099
 10
20.317303318
 20
7.2694714106
 10
20.2817856402
 20
7.3185811466
 10
20.2456979127
 20
7.3670405013
 10
20.2090489535
 20
7.4148357747
 10
20.1718568677
 20
7.4619412728
 10
20.1341318448
 20
7.508341859
 10
20.0958698512
 20
7.5540389185
 10
20.0570710708
 20
7.5990268563
 10
20.0177625546
 20
7.643268807
 10
19.9779805886
 20
7.6867200957
 10
19.9377442643
 20
7.7293571869
 10
19.8970644316
 20
7.7711657422
 10
19.8559658912
 20
7.8121175279
 10
19.8144790608
 20
7.8521804694
 10
19.7726045777
 20
7.8913520119
 10
19.7303215767
 20
7.9296472666
 10
19.6876219636
 20
7.9670663928
 10
19.6445427438
 20
8.0035696278
 10
19.601130126
 20
8.0391126413
 10
19.5573938957
 20
8.073683161
 10
19.5133552296
 20
8.10726
 10
19.4690785118
 20
8.1397916951
 10
19.4400733447
 20
8.1603075265
  0
LINE
  5
47C
100
AcDbEntity
  8
268140580
100
AcDbLine
 62
7
  6
CONTINUOUS
 10
-0.9365408476
 20
-25.8436907451
 11
1.1847794959
 21
-24.7603575057
  0
LWPOLYLINE
  5
47D
100
AcDbEntity
  8
268140580
100
AcDbPolyline
 62
250
  6
CONTINUOUS
 90
31
 70
0
 10
-0.8734672517
 20
-25.7094322756
 10
-0.8829381689
 20
-25.7139266182
 10
-0.8928718557
 20
-25.7181701665
 10
-0.9032420145
 20
-25.7221508414
 10
-0.9140233627
 20
-25.7258579924
 10
-0.9251849694
 20
-25.7292800727
 10
-0.9366895794
 20
-25.732405283
 10
-0.9485030357
 20
-25.7352244724
 10
-0.9605954167
 20
-25.7377306249
 10
-0.9729338879
 20
-25.7399169219
 10
-0.9854848636
 20
-25.7417773751
 10
-0.9982137261
 20
-25.7433068169
 10
-1.0110852221
 20
-25.7445009997
 10
-1.0240638958
 20
-25.7453566434
 10
-1.0371143165
 20
-25.7458714217
 10
-1.0502008165
 20
-25.746043926
 10
-1.0632875679
 20
-25.7458736759
 10
-1.0763386306
 20
-25.7453611305
 10
-1.0893181684
 20
-25.7445076931
 10
-1.1021905756
 20
-25.7433157028
 10
-1.1149205677
 20
-25.7417884254
 10
-1.1274732304
 20
-25.7399300476
 10
-1.1398141433
 20
-25.737745663
 10
-1.1519094628
 20
-25.7352412603
 10
-1.1637260092
 20
-25.7324237079
 10
-1.1752313881
 20
-25.7293007286
 10
-1.1863940393
 20
-25.7258808874
 10
-1.197183316
 20
-25.7221735747
 10
-1.2075696237
 20
-25.7181889631
 10
-1.2175244971
 20
-25.7139379772
 10
-1.2270206422
 20
-25.7094322756
  0
LINE
  5
47E
100
AcDbEntity
  8
268140580
100
AcDbLine
 62
7
  6
CONTINUOUS
 10
-2.5162419042
 20
22.9320518217
 11
-1.1563099641
 21
23.0058000091
  0
LWPOLYLINE
  5
47F
100
AcDbEntity
  8
RACCORDO
100
AcDbPolyline
 62
7
  6
CONTINUOUS
 90
9
 70
0
 10
13.2799314278
 20
21.6671782058
 10
13.2738146873
 20
21.6687777035
 10
13.2640444735
 20
21.6703105174
 10
13.2537182781
 20
21.6707259617
 10
13.2429310809
 20
21.6700241893
 10
13.231967822
 20
21.6682056579
 10
13.2209234813
 20
21.6652705204
 10
13.2097030788
 20
21.661218624
 10
13.1983066145
 20
21.6560499688
  0
LINE
  5
480
100
AcDbEntity
  8
0
100
AcDbLine
 62
7
  6
CONTINUOUS
 10
11.8868686291
 20
21.0003309761
 11
11.4371239677
 21
21.1220788092
  0
LWPOLYLINE
  5
481
100
AcDbEntity
  8
RACCORDO
100
AcDbPolyline
 62
7
  6
CONTINUOUS
 90
28
 70
0
 10
13.2799212916
 20
21.6671542534
 10
13.171205945
 20
21.6984400991
 10
13.0563509021
 20
21.7277937762
 10
12.9390894781
 20
21.7541208463
 10
12.8197163133
 20
21.7773829381
 10
12.6984959416
 20
21.7975534909
 10
12.5756665722
 20
21.8146127662
 10
12.4515177748
 20
21.8285366077
 10
12.3263343117
 20
21.8393072767
 10
12.2003537942
 20
21.8469146764
 10
12.0738674081
 20
21.8513480551
 10
11.9471646851
 20
21.8526026098
 10
11.8204829397
 20
21.8506778367
 10
11.6941116699
 20
21.8455765017
 10
11.5683420793
 20
21.8373072896
 10
11.44341248
 20
21.8258794141
 10
11.3196136054
 20
21.8113095819
 10
11.197228853
 20
21.7936195603
 10
11.0764804168
 20
21.7728253849
 10
10.9576454957
 20
21.7489537849
 10
10.8410096723
 20
21.7220387331
 10
10.7267980992
 20
21.6921039658
 10
10.615282921
 20
21.6591868619
 10
10.5067367246
 20
21.6233302271
 10
10.4013698331
 20
21.5845586095
 10
10.2994230506
 20
21.5429058012
 10
10.2011769132
 20
21.4984250267
 10
10.106892852
 20
21.4511676372
  0
LWPOLYLINE
  5
482
100
AcDbEntity
  8
RACCORDO
100
AcDbPolyline
 62
250
  6
CONTINUOUS
 90
25
 70
0
 10
5.9145433879
 20
22.7593441944
 10
5.8954014531
 20
22.7689144368
 10
5.8762646811
 20
22.777815438
 10
5.8571475985
 20
22.7860404413
 10
5.838064717
 20
22.7935832033
 10
5.8190305222
 20
22.8004379983
 10
5.8000594627
 20
22.8065996229
 10
5.7811659394
 20
22.8120633999
 10
5.7623642942
 20
22.8168251817
 10
5.7436687993
 20
22.8208813538
 10
5.7250936461
 20
22.8242288371
 10
5.7066529351
 20
22.8268650907
 10
5.6883606643
 20
22.8287881133
 10
5.6702307193
 20
22.8299964453
 10
5.6522768623
 20
22.8304891694
 10
5.634512722
 20
22.8302659116
 10
5.616951783
 20
22.8293268414
 10
5.5996073757
 20
22.8276726716
 10
5.5824926659
 20
22.825304658
 10
5.5656206454
 20
22.822224598
 10
5.5490041216
 20
22.8184348297
 10
5.5326557079
 20
22.81393823
 10
5.5165878143
 20
22.8087382121
 10
5.5008126377
 20
22.8028387234
 10
5.4853421529
 20
22.7962442421
  0
LINE
  5
483
100
AcDbEntity
  8
0
100
AcDbLine
 62
7
  6
CONTINUOUS
 10
10.2351802808
 20
21.2280759059
 11
10.9421492209
 21
20.8745914358
  0
LINE
  5
484
100
AcDbEntity
  8
0
100
AcDbLine
 62
7
  6
CONTINUOUS
 10
10.7301550276
 20
21.4755632793
 11
11.4371239677
 21
21.1220788092
  0
LINE
  5
485
100
AcDbEntity
  8
DRAFT
100
AcDbLine
 62
7
  6
CONTINUOUS
 10
10.0438817895
 20
22.1815193885
 11
10.4755965864
 21
21.9656619901
  0
LINE
  5
486
100
AcDbEntity
  8
0
100
AcDbLine
 62
7
  6
CONTINUOUS
 10
10.9421492209
 20
20.8745914358
 11
11.1118366087
 21
20.7178822879
  0
LWPOLYLINE
  5
487
100
AcDbEntity
  8
RACCORDO
100
AcDbPolyline
 62
7
  6
CONTINUOUS
 90
59
 70
0
 10
21.1105564841
 20
17.2166815373
 10
21.104168307
 20
17.2673090477
 10
21.0960327819
 20
17.3249170012
 10
21.0869620074
 20
17.382665865
 10
21.0769631949
 20
17.4405317985
 10
21.0660436848
 20
17.4984915087
 10
21.0542109791
 20
17.5565219024
 10
21.0414768233
 20
17.6145820486
 10
21.0278458881
 20
17.6726655353
 10
21.0133130516
 20
17.7308007627
 10
20.9978755499
 20
17.7889967169
 10
20.9815476992
 20
17.8471970447
 10
20.9643501715
 20
17.9053318278
 10
20.9462961123
 20
17.9633643836
 10
20.9273910713
 20
18.0212838861
 10
20.9076471998
 20
18.0790590802
 10
20.8870774958
 20
18.1366583706
 10
20.8656895814
 20
18.1940662824
 10
20.8434875954
 20
18.2512755451
 10
20.8204785599
 20
18.3082700628
 10
20.7966756351
 20
18.3650189036
 10
20.7720921436
 20
18.4214924373
 10
20.746740595
 20
18.4776642693
 10
20.7206308755
 20
18.5335145317
 10
20.6937728682
 20
18.5890234991
 10
20.6661775126
 20
18.6441694904
 10
20.6378571836
 20
18.6989284673
 10
20.6088241311
 20
18.7532772958
 10
20.5790924863
 20
18.8071900503
 10
20.5486728287
 20
18.8606478656
 10
20.5175719977
 20
18.9136382248
 10
20.4858023013
 20
18.9661390241
 10
20.4533764746
 20
19.0181279218
 10
20.4203015177
 20
19.0695918397
 10
20.3865840191
 20
19.1205177095
 10
20.3522427114
 20
19.17087429
 10
20.3173033122
 20
19.2206219908
 10
20.2817856342
 20
19.269731727
 10
20.2456979064
 20
19.3181910818
 10
20.2090489469
 20
19.3659863553
 10
20.1718568609
 20
19.4130918535
 10
20.1341318377
 20
19.4594924398
 10
20.0958698439
 20
19.5051894994
 10
20.0570710632
 20
19.5501774372
 10
20.0177625468
 20
19.594419388
 10
19.9779805804
 20
19.6378706767
 10
19.9377442558
 20
19.6805077679
 10
19.8970644229
 20
19.7223163232
 10
19.8559658822
 20
19.763268109
 10
19.8144790515
 20
19.8033310505
 10
19.7726045682
 20
19.842502593
 10
19.7303215669
 20
19.8807978475
 10
19.6876219535
 20
19.9182169738
 10
19.6445427334
 20
19.9547202087
 10
19.6011301153
 20
19.9902632221
 10
19.5573938847
 20
20.0248337417
 10
19.5133552184
 20
20.0584105806
 10
19.4690785004
 20
20.0909422756
 10
19.4400733447
 20
20.1114580986
  0
LWPOLYLINE
  5
488
100
AcDbEntity
  8
RACCORDO
100
AcDbPolyline
 62
7
  6
CONTINUOUS
 90
3
 70
0
 10
13.2919721096
 20
21.6623604252
 10
13.2831238993
 20
21.6661276728
 10
13.2799314278
 20
21.6671782058
  0
LINE
  5
489
100
AcDbEntity
  8
DRAFT
100
AcDbLine
 62
7
  6
CONTINUOUS
 10
14.1015200953
 20
22.060800386
 11
14.5961896045
 21
21.8134656314
  0
LINE
  5
48A
100
AcDbEntity
  8
RACCORDO
100
AcDbLine
 62
7
  6
CONTINUOUS
 10
14.140500247
 20
21.2380963565
 11
14.2137601422
 21
21.2014384656
  0
LWPOLYLINE
  5
48B
100
AcDbEntity
  8
RACCORDO
100
AcDbPolyline
 62
7
  6
CONTINUOUS
 90
6
 70
0
 10
13.723845493
 20
21.4445098261
 10
13.6338382636
 20
21.4902484579
 10
13.5456516356
 20
21.5349032609
 10
13.4592711921
 20
21.578472811
 10
13.3747113502
 20
21.6209585324
 10
13.2919721096
 20
21.6623604252
  0
LINE
  5
48C
100
AcDbEntity
  8
RACCORDO
100
AcDbLine
 62
7
  6
CONTINUOUS
 10
13.9094659242
 20
21.3497953187
 11
13.723845493
 21
21.4445098261
  0
LINE
  5
48D
100
AcDbEntity
  8
RACCORDO
100
AcDbLine
 62
7
  6
CONTINUOUS
 10
14.1025561797
 20
21.2507640114
 11
13.9094659242
 21
21.3497953187
  0
LINE
  5
48E
100
AcDbEntity
  8
RACCORDO
100
AcDbLine
 62
7
  6
CONTINUOUS
 10
14.1103146084
 20
21.2461775394
 11
14.1025561797
 21
21.2507640114
  0
LINE
  5
48F
100
AcDbEntity
  8
RACCORDO
100
AcDbLine
 62
250
  6
CONTINUOUS
 10
14.140500247
 20
21.2380963565
 11
14.1937424214
 21
21.191857544
  0
LWPOLYLINE
  5
490
100
AcDbEntity
  8
RACCORDO
100
AcDbPolyline
 62
250
  6
CONTINUOUS
 90
3
 70
0
 10
14.0468056017
 20
21.2317713249
 10
14.1074924618
 20
21.1774782772
 10
14.1255424655
 20
21.1592155448
  0
LWPOLYLINE
  5
491
100
AcDbEntity
  8
RACCORDO
100
AcDbPolyline
 62
250
  6
CONTINUOUS
 90
26
 70
0
 10
12.4835701485
 20
25.6146630647
 10
12.4762866582
 20
25.6182070131
 10
12.4610389566
 20
25.6250128372
 10
12.4454758835
 20
25.6311467689
 10
12.4296089962
 20
25.6366042532
 10
12.4134500774
 20
25.6413812373
 10
12.3970111269
 20
25.6454741738
 10
12.3803043524
 20
25.6488800232
 10
12.3633421603
 20
25.6515962564
 10
12.3461371469
 20
25.6536208562
 10
12.3287020887
 20
25.6549523192
 10
12.3110499331
 20
25.6555896567
 10
12.2931937887
 20
25.6555323953
 10
12.2751469156
 20
25.6547805775
 10
12.2569227154
 20
25.6533347618
 10
12.2385347216
 20
25.6511960216
 10
12.2199965892
 20
25.6483659453
 10
12.2013220847
 20
25.6448466346
 10
12.1825250758
 20
25.6406407028
 10
12.1636195214
 20
25.6357512733
 10
12.1446194609
 20
25.6301819771
 10
12.1255390037
 20
25.6239369498
 10
12.1063923191
 20
25.6170208292
 10
12.0871936256
 20
25.6094387512
 10
12.0679571802
 20
25.6011963462
 10
12.0486972679
 20
25.5922997351
  0
LINE
  5
492
100
AcDbEntity
  8
0
100
AcDbLine
 62
7
  6
CONTINUOUS
 10
14.0464858314
 20
24.1400408307
 11
17.1310920777
 21
22.5977377075
  0
LINE
  5
493
100
AcDbEntity
  8
RACCORDO
100
AcDbLine
 62
250
  6
CONTINUOUS
 10
18.1384369821
 20
22.547429878
 11
17.5943604523
 21
22.8194681429
  0
LWPOLYLINE
  5
494
100
AcDbEntity
  8
RACCORDO
100
AcDbPolyline
 62
250
  6
CONTINUOUS
 90
26
 70
0
 10
12.9981663745
 20
25.1175651818
 10
12.0295553357
 20
25.6018699762
 10
12.0104185661
 20
25.6107709764
 10
11.9913014859
 20
25.618995979
 10
11.9722186066
 20
25.6265387404
 10
11.9531844138
 20
25.633393535
 10
11.9342133563
 20
25.6395551594
 10
11.9153198349
 20
25.6450189364
 10
11.8965181913
 20
25.6497807184
 10
11.8778226979
 20
25.6538368908
 10
11.8592475463
 20
25.6571843746
 10
11.8408068365
 20
25.6598206287
 10
11.8225145669
 20
25.6617436521
 10
11.8043846229
 20
25.6629519849
 10
11.7864307668
 20
25.6634447099
 10
11.7686666273
 20
25.6632214531
 10
11.7511056889
 20
25.662282384
 10
11.733761282
 20
25.6606282154
 10
11.7166465726
 20
25.6582602029
 10
11.6997745523
 20
25.6551801442
 10
11.6831580286
 20
25.6513903772
 10
11.6668096149
 20
25.6468937787
 10
11.6507417211
 20
25.6416937621
 10
11.6349665443
 20
25.6357942747
 10
11.6194960592
 20
25.6291997946
 10
11.6170778429
 20
25.6280934414
  0
LINE
  5
495
100
AcDbEntity
  8
RACCORDO
100
AcDbLine
 62
7
  6
CONTINUOUS
 10
12.4835701485
 20
25.6146630647
 11
13.5206017506
 21
25.0961472636
  0
LINE
  5
496
100
AcDbEntity
  8
RACCORDO
100
AcDbLine
 62
7
  6
CONTINUOUS
 10
18.5733098627
 20
22.5697932076
 11
17.9416708373
 21
22.8856127203
  0
LWPOLYLINE
  5
497
100
AcDbEntity
  8
RACCORDO
100
AcDbPolyline
 62
250
  6
CONTINUOUS
 90
58
 70
0
 10
19.4400733447
 20
20.0249128057
 10
19.4541476018
 20
20.0140377651
 10
19.4971785655
 20
19.9796071312
 10
19.5399757973
 20
19.9441766021
 10
19.5825199989
 20
19.907762152
 10
19.6247919432
 20
19.8703802355
 10
19.6667725172
 20
19.8320477545
 10
19.7084427512
 20
19.7927820324
 10
19.7497838544
 20
19.7526007778
 10
19.7907771922
 20
19.7115221027
 10
19.8314042758
 20
19.6695645321
 10
19.8716467483
 20
19.6267470226
 10
19.9114864199
 20
19.5830889274
 10
19.9509052926
 20
19.5386099714
 10
19.989885587
 20
19.4933302183
 10
20.028409726
 20
19.4472700855
 10
20.0664603303
 20
19.4004503506
 10
20.1040202113
 20
19.3528921621
 10
20.1410723987
 20
19.3046170074
 10
20.1776001584
 20
19.2556466907
 10
20.2135870102
 20
19.2060033072
 10
20.2490167198
 20
19.1557092517
 10
20.2838732992
 20
19.1047872193
 10
20.3181410075
 20
19.0532602049
 10
20.351804369
 20
19.0011514785
 10
20.3848481847
 20
18.9484845677
 10
20.4172575413
 20
18.8952832426
 10
20.4490178115
 20
18.8415715148
 10
20.4801146586
 20
18.7873736298
 10
20.5105340444
 20
18.7327140543
 10
20.5402622381
 20
18.6776174606
 10
20.5692858214
 20
18.6221087171
 10
20.5975916907
 20
18.5662128843
 10
20.6251670644
 20
18.5099552025
 10
20.6519994912
 20
18.4533610751
 10
20.6780768625
 20
18.396456042
 10
20.703387413
 20
18.3392657769
 10
20.7279197217
 20
18.2818160845
 10
20.7516627087
 20
18.22413291
 10
20.7746056477
 20
18.1662423131
 10
20.7967381764
 20
18.1081704425
 10
20.8180503107
 20
18.049943497
 10
20.8385324397
 20
17.9915877349
 10
20.8581753231
 20
17.9331294791
 10
20.8769700862
 20
17.874595138
 10
20.8949082345
 20
17.8160111671
 10
20.9119816647
 20
17.757404035
 10
20.9281826776
 20
17.698800175
 10
20.9435039699
 20
17.640226005
 10
20.9579386307
 20
17.5817079403
 10
20.971480136
 20
17.5232724231
 10
20.9841223635
 20
17.464945873
 10
20.9958596019
 20
17.4067546476
 10
21.0066865601
 20
17.3487249868
 10
21.0165983588
 20
17.2908830426
 10
21.0255905247
 20
17.2332549115
 10
21.033658995
 20
17.1758666226
 10
21.0408001263
 20
17.1187440821
  0
LWPOLYLINE
  5
498
100
AcDbEntity
  8
RACCORDO
100
AcDbPolyline
 62
250
  6
CONTINUOUS
 90
27
 70
0
 10
18.6237513292
 20
22.0688479378
 10
18.6087208982
 20
22.0935094389
 10
18.5932822496
 20
22.1178172626
 10
18.5774484421
 20
22.1417508486
 10
18.5612328683
 20
22.1652899533
 10
18.5446492437
 20
22.1884146665
 10
18.5277115953
 20
22.2111054288
 10
18.5104342494
 20
22.2333430477
 10
18.4928318197
 20
22.255108714
 10
18.4749191947
 20
22.2763840177
 10
18.4567115256
 20
22.2971509635
 10
18.4382242128
 20
22.3173919862
 10
18.4194728934
 20
22.3370899653
 10
18.4004734278
 20
22.3562282397
 10
18.3812418864
 20
22.3747906218
 10
18.3617945356
 20
22.392761411
 10
18.3421478246
 20
22.410125407
 10
18.3223183712
 20
22.4268679229
 10
18.3023229476
 20
22.4429747974
 10
18.2821784666
 20
22.458432407
 10
18.2619019668
 20
22.473227677
 10
18.2415105988
 20
22.4873480933
 10
18.2210216101
 20
22.5007817123
 10
18.2004523309
 20
22.5135171717
 10
18.1798201592
 20
22.5255436993
 10
18.1591425464
 20
22.5368511228
 10
18.1384369821
 20
22.547429878
  0
LINE
  5
499
100
AcDbEntity
  8
RACCORDO
100
AcDbLine
 62
250
  6
CONTINUOUS
 10
18.7452626694
 20
21.859475219
 11
18.6237513292
 21
22.0688479378
  0
LINE
  5
49A
100
AcDbEntity
  8
RACCORDO
100
AcDbLine
 62
7
  6
CONTINUOUS
 10
19.0981059181
 20
21.9925735765
 11
18.9912040785
 21
22.1769519762
  0
ARC
  5
49B
100
AcDbEntity
  8
RACCORDO
100
AcDbCircle
 62
7
  6
CONTINUOUS
 10
12.036356553
 20
24.7202358737
 40
1.0
100
AcDbArc
 50
63.4349488229
 51
114.7894524371
  0
ARC
  5
49C
100
AcDbEntity
  8
RACCORDO
100
AcDbCircle
 62
7
  6
CONTINUOUS
 10
18.4400733447
 20
-1.1643459504
 40
1.0
100
AcDbArc
 50
298.3476707551
 51
360.0
  0
ARC
  5
49D
100
AcDbEntity
  8
RACCORDO
100
AcDbCircle
 62
7
  6
CONTINUOUS
 10
18.1260962672
 20
21.6753660166
 40
1.0
100
AcDbArc
 50
30.1049527557
 51
63.4349488229
  0
ARC
  5
49E
100
AcDbEntity
  8
RACCORDO
100
AcDbCircle
 62
7
  6
CONTINUOUS
 10
11.1061531568
 20
-13.8182973062
 40
1.0
100
AcDbArc
 50
297.8702635617
 51
305.9325291988
  0
ARC
  5
49F
100
AcDbEntity
  8
RACCORDO
100
AcDbCircle
 62
7
  6
CONTINUOUS
 10
-2.1050645861
 20
24.8710439279
 40
1.0
100
AcDbArc
 50
63.4349373369
 51
115.2504241015
  0
ARC
  5
4A0
100
AcDbEntity
  8
268140580
100
AcDbCircle
 62
7
  6
CONTINUOUS
 10
0.7833837825
 20
-22.9739073228
 40
0.4
100
AcDbArc
 50
292.7706722359
 51
295.7733104952
  0
ARC
  5
4A1
100
AcDbEntity
  8
268140580
100
AcDbCircle
 62
7
  6
CONTINUOUS
 10
-13.6367446521
 20
24.8070788971
 40
0.25
100
AcDbArc
 50
63.4349488229
 51
116.0730493911
  0
ARC
  5
4A2
100
AcDbEntity
  8
268140580
100
AcDbCircle
 62
7
  6
CONTINUOUS
 10
-15.7580649956
 20
23.769091793
 40
0.25
100
AcDbArc
 50
116.0730493911
 51
179.9983644966
  0
ARC
  5
4A3
100
AcDbEntity
  8
268140580
100
AcDbCircle
 62
7
  6
CONTINUOUS
 10
-15.7580649956
 20
23.4007812644
 40
0.25
100
AcDbArc
 50
180.0
 51
243.4365640263
  0
ARC
  5
4A4
100
AcDbEntity
  8
268140580
100
AcDbCircle
 62
7
  6
CONTINUOUS
 10
-14.4145621114
 20
22.7290298223
 40
0.25
100
AcDbArc
 50
243.4323386214
 51
258.2990804918
  0
ARC
  5
4A5
100
AcDbEntity
  8
268140580
100
AcDbCircle
 62
7
  6
CONTINUOUS
 10
-12.2932417678
 20
24.135327455
 40
0.25
100
AcDbArc
 50
0.0000683861
 51
63.4331826614
  0
ARC
  5
4A6
100
AcDbEntity
  8
268140580
100
AcDbCircle
 62
7
  6
CONTINUOUS
 10
-12.2932417678
 20
23.789689994
 40
0.25
100
AcDbArc
 50
320.360686548
 51
360.0
  0
ARC
  5
4A7
100
AcDbEntity
  8
268140580
100
AcDbCircle
 62
7
  6
CONTINUOUS
 10
-0.2724264876
 20
18.1249198149
 40
0.25
100
AcDbArc
 50
63.4349488229
 51
116.0730493911
  0
ARC
  5
4A8
100
AcDbEntity
  8
268140580
100
AcDbCircle
 62
7
  6
CONTINUOUS
 10
-2.3937468312
 20
17.0869327107
 40
0.25
100
AcDbArc
 50
116.0730493911
 51
179.9983644966
  0
ARC
  5
4A9
100
AcDbEntity
  8
268140580
100
AcDbCircle
 62
7
  6
CONTINUOUS
 10
-2.3937468312
 20
16.7186221822
 40
0.25
100
AcDbArc
 50
180.0
 51
243.4365640263
  0
ARC
  5
4AA
100
AcDbEntity
  8
268140580
100
AcDbCircle
 62
7
  6
CONTINUOUS
 10
-1.050243947
 20
16.04687074
 40
0.25
100
AcDbArc
 50
243.4323386214
 51
258.2990804918
  0
ARC
  5
4AB
100
AcDbEntity
  8
268140580
100
AcDbCircle
 62
7
  6
CONTINUOUS
 10
1.0710763966
 20
17.4531683728
 40
0.25
100
AcDbArc
 50
0.0000683861
 51
63.4331826614
  0
ARC
  5
4AC
100
AcDbEntity
  8
268140580
100
AcDbCircle
 62
7
  6
CONTINUOUS
 10
1.0710763966
 20
17.1075309118
 40
0.25
100
AcDbArc
 50
320.360686548
 51
360.0
  0
ARC
  5
4AD
100
AcDbEntity
  8
268140580
100
AcDbCircle
 62
7
  6
CONTINUOUS
 10
-2.3937468312
 20
-24.9492924858
 40
0.25
100
AcDbArc
 50
179.999777014
 51
243.4334855434
  0
ARC
  5
4AE
100
AcDbEntity
  8
268140580
100
AcDbCircle
 62
7
  6
CONTINUOUS
 10
1.0710763966
 20
-24.1920732276
 40
0.25
100
AcDbArc
 50
359.9972787629
 51
63.444674315
  0
ARC
  5
4AF
100
AcDbEntity
  8
268140580
100
AcDbCircle
 62
7
  6
CONTINUOUS
 10
1.0710763966
 20
-24.5377106885
 40
0.25
100
AcDbArc
 50
297.051035757
 51
360.0
  0
ARC
  5
4B0
100
AcDbEntity
  8
268140580
100
AcDbCircle
 62
7
  6
CONTINUOUS
 10
-1.050243947
 20
-25.6210439279
 40
0.25
100
AcDbArc
 50
243.433722507
 51
297.0528641899
  0
ELLIPSE
  5
4B1
100
AcDbEntity
  8
ASSI
100
AcDbEllipse
 62
7
  6
CONTINUOUS
 10
-17.5537278747
 20
20.7087335662
 30
0.0
 11
-0.2234618187
 21
0.4480306886
 31
0.0
 40
0.6116748051
 41
-0.6831523243
 42
0.0399382621
  0
ELLIPSE
  5
4B2
100
AcDbEntity
  8
ASSI
100
AcDbEllipse
 62
7
  6
CONTINUOUS
 10
-2.5779829395
 20
13.2208610986
 30
0.0
 11
-0.2230998035
 21
0.4477110033
 31
0.0
 40
0.6127700112
 41
-2.2535417632
 42
-0.6836588249
  0
ELLIPSE
  5
4B3
100
AcDbEntity
  8
ASSI
100
AcDbEllipse
 62
7
  6
CONTINUOUS
 10
-2.5779829395
 20
-24.2223866369
 30
0.0
 11
-0.2234618187
 21
0.4480306886
 31
0.0
 40
0.6116748051
 41
-3.1815309152
 42
-2.2548620396
  0
ELLIPSE
  5
4B4
100
AcDbEntity
  8
0
100
AcDbEllipse
 62
250
  6
CONTINUOUS
 10
339.5984479107
 20
173.4995891712
 30
0.0
 11
-370.8956999625
 21
600.1218488205
 31
0.0
 40
0.5587454355
 41
1.5169568395
 42
1.5179568439
  0
ELLIPSE
  5
4B5
100
AcDbEntity
  8
0
100
AcDbEllipse
 62
250
  6
CONTINUOUS
 10
336.5932439564
 20
175.0021911484
 30
0.0
 11
499.3666447733
 21
308.6255299306
 31
0.0
 40
0.0815198181
 41
2.3023549816
 42
2.303354986
  0
ELLIPSE
  5
4B6
100
AcDbEntity
  8
0
100
AcDbEllipse
 62
250
  6
CONTINUOUS
 10
336.5932440854
 20
175.0021910838
 30
0.0
 11
-370.8956999625
 21
600.1218488205
 31
0.0
 40
0.5587454355
 41
1.5229568492
 42
1.5239568537
  0
ELLIPSE
  5
4B7
100
AcDbEntity
  8
0
100
AcDbEllipse
 62
250
  6
CONTINUOUS
 10
339.5984477817
 20
173.4995892357
 30
0.0
 11
499.3665911324
 21
308.6255555532
 31
0.0
 40
0.0815199027
 41
2.3083550338
 42
2.3093550384
  0
ELLIPSE
  5
4B8
100
AcDbEntity
  8
RACCORDO
100
AcDbEllipse
 62
7
  6
CONTINUOUS
 10
-17.5537278747
 20
20.7087335662
 30
0.0
 11
-0.2234618187
 21
0.4480306886
 31
0.0
 40
0.6116748051
 41
-0.6831523243
 42
0.0399382621
  0
ELLIPSE
  5
4B9
100
AcDbEntity
  8
RACCORDO
100
AcDbEllipse
 62
7
  6
CONTINUOUS
 10
-2.5779829395
 20
13.2208610986
 30
0.0
 11
-0.2230998035
 21
0.4477110033
 31
0.0
 40
0.6127700112
 41
-2.2535417632
 42
-0.6836588249
  0
ELLIPSE
  5
4BA
100
AcDbEntity
  8
RACCORDO
100
AcDbEllipse
 62
7
  6
CONTINUOUS
 10
-2.5779829395
 20
-24.2223866369
 30
0.0
 11
-0.2234618187
 21
0.4480306886
 31
0.0
 40
0.6116748051
 41
-3.1815309152
 42
-2.2548620396
  0
ELLIPSE
  5
4BB
100
AcDbEntity
  8
268140580
100
AcDbEllipse
 62
7
  6
CONTINUOUS
 10
-4.590588034
 20
24.1832245812
 30
0.0
 11
0.2256808774
 21
0.4461742732
 31
0.0
 40
0.6158912572
 41
0.0028576383
 42
0.678850188
  0
ELLIPSE
  5
4BC
100
AcDbEntity
  8
268140580
100
AcDbEllipse
 62
7
  6
CONTINUOUS
 10
6.0129927329
 20
-18.005435241
 30
0.0
 11
0.9927147821
 21
0.620457446
 31
0.0
 40
0.0764819879
 41
-2.4101692607
 42
-0.8393729339
  0
ELLIPSE
  5
4BD
100
AcDbEntity
  8
268140580
100
AcDbEllipse
 62
7
  6
CONTINUOUS
 10
-5.4971855364
 20
24.8155411756
 30
0.0
 11
1.004787277
 21
0.6140102217
 31
0.0
 40
0.0864918533
 41
0.0540071275
 42
0.7387263463
  0
ELLIPSE
  5
4BE
100
AcDbEntity
  8
268140580
100
AcDbEllipse
 62
7
  6
CONTINUOUS
 10
1.4952973804
 20
-22.6301638377
 30
0.0
 11
-0.178948659
 21
0.3577665147
 31
0.0
 40
0.6123910759
 41
-3.1501448428
 42
-2.2556797026
  0
ELLIPSE
  5
4BF
100
AcDbEntity
  8
268140580
100
AcDbEllipse
 62
7
  6
CONTINUOUS
 10
1.4952973804
 20
15.4749539288
 30
0.0
 11
-0.178948659
 21
0.3577665147
 31
0.0
 40
0.6123910759
 41
-2.2556797026
 42
-0.6848833758
  0
ELLIPSE
  5
4C0
100
AcDbEntity
  8
268140580
100
AcDbEllipse
 62
7
  6
CONTINUOUS
 10
6.0129927329
 20
19.0604520409
 30
0.0
 11
-0.7356038977
 21
1.2035991204
 31
0.0
 40
0.5552491559
 41
4.67069225
 42
6.2414885768
  0
ELLIPSE
  5
4C1
100
AcDbEntity
  8
268140580
100
AcDbEllipse
 62
7
  6
CONTINUOUS
 10
-10.2101241262
 20
21.6897192633
 30
0.0
 11
0.2999981629
 21
-0.0021225547
 31
0.0
 40
0.4946372042
 41
2.3539345592
 42
3.9304904725
  0
ELLIPSE
  5
4C2
100
AcDbEntity
  8
268140580
100
AcDbEllipse
 62
7
  6
CONTINUOUS
 10
-1.3956484435
 20
-15.5277688124
 30
0.0
 11
-0.1341541638
 21
0.268382513
 31
0.0
 40
0.6122954976
 41
-0.6845448057
 42
0.0132925713
  0
ELLIPSE
  5
4C3
100
AcDbEntity
  8
268140580
100
AcDbEllipse
 62
7
  6
CONTINUOUS
 10
-0.3033260595
 20
-23.4300639738
 30
0.0
 11
-0.1787694549
 21
0.3584245509
 31
0.0
 40
0.6116748051
 41
2.4584403293
 42
4.0283232676
  0
ELLIPSE
  5
4C4
100
AcDbEntity
  8
268140580
100
AcDbEllipse
 62
7
  6
CONTINUOUS
 10
-3.6982124573
 20
17.5415103957
 30
0.0
 11
0.0886237691
 21
0.1792940454
 31
0.0
 40
0.6088373611
 41
0.6819330809
 42
0.7342929585
  0
ELLIPSE
  5
4C5
100
AcDbEntity
  8
268140580
100
AcDbEllipse
 62
7
  6
CONTINUOUS
 10
1.5708613245
 20
21.1024999019
 30
0.0
 11
0.2215594226
 21
0.4482351134
 31
0.0
 40
0.6088373611
 41
5.3943220613
 42
6.9563917418
  0
ELLIPSE
  5
4C6
100
AcDbEntity
  8
268140580
100
AcDbEllipse
 62
7
  6
CONTINUOUS
 10
-0.3431371658
 20
15.0928580205
 30
0.0
 11
0.249929385
 21
0.0111824824
 31
0.0
 40
0.5313301283
 41
-2.3799630874
 42
-0.8091667606
  0
ELLIPSE
  5
4C7
100
AcDbEntity
  8
268140580
100
AcDbEllipse
 62
7
  6
CONTINUOUS
 10
-1.3956484435
 20
3.5247900709
 30
0.0
 11
-0.1341541638
 21
0.268382513
 31
0.0
 40
0.6122954976
 41
-0.6845448057
 42
0.0132925713
  0
ELLIPSE
  5
4C8
100
AcDbEntity
  8
268140580
100
AcDbEllipse
 62
7
  6
CONTINUOUS
 10
-1.68664005
 20
15.7646094626
 30
0.0
 11
0.249929385
 21
0.0111824824
 31
0.0
 40
0.5313301283
 41
3.1178240563
 42
3.9032222197
  0
ELLIPSE
  5
4C9
100
AcDbEntity
  8
268140580
100
AcDbEllipse
 62
7
  6
CONTINUOUS
 10
-13.7074553302
 20
21.7750171027
 30
0.0
 11
0.249929385
 21
0.0111824824
 31
0.0
 40
0.5313301283
 41
-2.3799630874
 42
-0.8091667606
  0
ELLIPSE
  5
4CA
100
AcDbEntity
  8
268140580
100
AcDbEllipse
 62
7
  6
CONTINUOUS
 10
-15.4443227113
 20
22.1084419248
 30
0.0
 11
-0.1787694549
 21
0.3584245509
 31
0.0
 40
0.6116748051
 41
-0.6831523243
 42
0.886730614
  0
ELLIPSE
  5
4CB
100
AcDbEntity
  8
268140580
100
AcDbEllipse
 62
7
  6
CONTINUOUS
 10
-0.3033260595
 20
14.5379435988
 30
0.0
 11
-0.1784798428
 21
0.3581688027
 31
0.0
 40
0.6127700112
 41
-2.2535417632
 42
-0.6836588249
  0
ELLIPSE
  5
4CC
100
AcDbEntity
  8
268140580
100
AcDbEllipse
 62
7
  6
CONTINUOUS
 10
-15.0509582144
 20
22.4467685448
 30
0.0
 11
0.249929385
 21
0.0111824824
 31
0.0
 40
0.5313301283
 41
3.1178240563
 42
3.9032222197
  0
ELLIPSE
  5
4CD
100
AcDbEntity
  8
268140580
100
AcDbEllipse
 62
7
  6
CONTINUOUS
 10
-4.4061537947
 20
17.5382376221
 30
0.0
 11
0.2999152621
 21
0.0134189789
 31
0.0
 40
0.5313301283
 41
-2.3799630874
 42
-0.8034071741
  0
ELLIPSE
  5
4CE
100
AcDbEntity
  8
268140580
100
AcDbEllipse
 62
7
  6
CONTINUOUS
 10
-4.4061537947
 20
18.7877340976
 30
0.0
 11
0.2999981629
 21
-0.0021225547
 31
0.0
 40
0.4946372042
 41
-2.3526948347
 42
-0.7761389213
  0
ELLIPSE
  5
4CF
100
AcDbEntity
  8
268140580
100
AcDbEllipse
 62
7
  6
CONTINUOUS
 10
-10.2101241262
 20
20.4402227878
 30
0.0
 11
0.2999152621
 21
0.0134189789
 31
0.0
 40
0.5313301283
 41
3.1178240578
 42
3.9032222197
  0
ELLIPSE
  5
4D0
100
AcDbEntity
  8
268140580
100
AcDbEllipse
 62
7
  6
CONTINUOUS
 10
-1.0272635163
 20
8.250885139
 30
0.0
 11
-0.1342205464
 21
0.2684010681
 31
0.0
 40
0.6121897086
 41
-3.160608991
 42
-2.2557347926
  0
ELLIPSE
  5
4D1
100
AcDbEntity
  8
268140580
100
AcDbEllipse
 62
7
  6
CONTINUOUS
 10
-1.0272635163
 20
3.3405976073
 30
0.0
 11
-0.1341484654
 21
0.2683369961
 31
0.0
 40
0.6125552124
 41
-2.255296188
 42
-0.6848044477
  0
ELLIPSE
  5
4D2
100
AcDbEntity
  8
268140580
100
AcDbEllipse
 62
7
  6
CONTINUOUS
 10
-1.7467128923
 20
-2.040672568
 30
0.0
 11
-0.1342205464
 21
0.2684010681
 31
0.0
 40
0.6121897086
 41
-3.1606089912
 42
-2.2557347926
  0
ELLIPSE
  5
4D3
100
AcDbEntity
  8
268140580
100
AcDbEllipse
 62
7
  6
CONTINUOUS
 10
-1.7467128923
 20
-6.1151677553
 30
0.0
 11
-0.1341484654
 21
0.2683369961
 31
0.0
 40
0.6125552124
 41
-2.255296188
 42
-0.6848044477
  0
ELLIPSE
  5
4D4
100
AcDbEntity
  8
268140580
100
AcDbEllipse
 62
7
  6
CONTINUOUS
 10
-1.0272635163
 20
-10.8016737442
 30
0.0
 11
-0.1342205464
 21
0.2684010681
 31
0.0
 40
0.6121897086
 41
-3.160608991
 42
-2.2557347926
  0
ELLIPSE
  5
4D5
100
AcDbEntity
  8
268140580
100
AcDbEllipse
 62
7
  6
CONTINUOUS
 10
-1.0272635163
 20
-15.711961276
 30
0.0
 11
-0.1341484654
 21
0.2683369961
 31
0.0
 40
0.6125552124
 41
-2.255296188
 42
-0.6848044477
  0
ELLIPSE
  5
4D6
100
AcDbEntity
  8
DRAFT
100
AcDbEllipse
 62
7
  6
CONTINUOUS
 10
12.4201402347
 20
20.993390166
 30
0.0
 11
2.7499831596
 21
-0.0194567514
 31
0.0
 40
0.4946372042
 41
0.4291636923
 42
2.3596941457
  0
ELLIPSE
  5
4D7
100
AcDbEntity
  8
DRAFT
100
AcDbEllipse
 62
7
  6
CONTINUOUS
 10
11.7483887925
 20
21.0917947982
 30
0.0
 11
2.7499831596
 21
-0.0194567514
 31
0.0
 40
0.4946372042
 41
2.3596941457
 42
2.9254696648
  0
ELLIPSE
  5
4D8
100
AcDbEntity
  8
RACCORDO
100
AcDbEllipse
 62
7
  6
CONTINUOUS
 10
17.1737714469
 20
22.1515284268
 30
0.0
 11
0.7964780511
 21
0.7125399777
 31
0.0
 40
0.2888664458
 41
0.1139832129
 42
0.7812491238
  0
ELLIPSE
  5
4D9
100
AcDbEntity
  8
RACCORDO
100
AcDbEllipse
 62
7
  6
CONTINUOUS
 10
13.3940739501
 20
24.0413771752
 30
0.0
 11
-0.309899001
 21
1.1085475855
 31
0.0
 40
0.6753891016
 41
4.9647984111
 42
6.4012160802
  0
ELLIPSE
  5
4DA
100
AcDbEntity
  8
0
100
AcDbEllipse
 62
7
  6
CONTINUOUS
 10
12.4201402347
 20
21.4204907145
 30
0.0
 11
2.7499831596
 21
-0.0194567514
 31
0.0
 40
0.4946372042
 41
0.1760698615
 42
2.3596941457
  0
ELLIPSE
  5
4DB
100
AcDbEntity
  8
RACCORDO
100
AcDbEllipse
 62
7
  6
CONTINUOUS
 10
-5.8744953102
 20
20.44781191
 30
0.0
 11
1.2141619185
 21
0.9541526469
 31
0.0
 40
0.2329077568
 41
0.1095198182
 42
0.114024621
  0
ENDSEC
  0
SECTION
  2
OBJECTS
  0
DICTIONARY
  5
C
100
AcDbDictionary
280
0
281
1
  3
ACAD_GROUP
350
D
  3
ACAD_MLINESTYLE
350
17
  3
ACAD_LAYOUT
350
1A
  3
ACAD_PLOTSETTINGS
350
19
  3
ACAD_PLOTSTYLENAME
350
E
  0
DICTIONARY
  5
D
102
{ACAD_REACTORS
330
C
102
}
100
AcDbDictionary
280
0
281
1
  0
ACDBDICTIONARYWDFLT
  5
E
102
{ACAD_REACTORS
330
C
102
}
100
AcDbDictionary
281
1
  3
Normal
350
F
100
AcDbDictionaryWithDefault
340
F
  0
DICTIONARY
  5
17
102
{ACAD_REACTORS
330
C
102
}
100
AcDbDictionary
280
0
281
1
  3
Standard
350
18
  0
DICTIONARY
  5
19
102
{ACAD_REACTORS
330
C
102
}
100
AcDbDictionary
281
1
  0
DICTIONARY
  5
1A
102
{ACAD_REACTORS
330
C
102
}
100
AcDbDictionary
281
1
  3
Model
350
4DC
  3
Layout1
350
4DD
  0
ACDBPLACEHOLDER
  5
F
102
{ACAD_REACTORS
330
E
102
}
  0
MLINESTYLE
  5
18
102
{ACAD_REACTORS
330
17
102
}
100
AcDbMlineStyle
  2
STANDARD
 70
0
  3

 62
256
 51
90.0
 52
90.0
 71
2
 49
0.5
 62
256
  6
BYLAYER
 49
-0.5
 62
256
  6
BYLAYER
  0
LAYOUT
  5
4DC
102
{ACAD_REACTORS
330
1A
102
}
100
AcDbPlotSettings
  1

  2
none_device
  4
ISO_A4_(297.00_x_210.00_MM)
  6

 40
0.0
 41
0.0
 42
0.0
 43
0.0
 44
297.0
 45
210.0
 46
0.0
 47
0.0
 48
0.0
 49
0.0
140
0.0
141
0.0
142
1.0
143
1.0
 70
1024
 72
1
 73
0
 74
0
  7

 75
0
147
1.0
148
0.0
149
0.0
100
AcDbLayout
  1
Model
 70
0
 71
0
 10
0.0
 20
0.0
 11
297.0
 21
210.0
 12
0.0
 22
0.0
 32
0.0
 14
0.0
 24
0.0
 34
0.0
 15
0.0
 25
0.0
 35
0.0
146
0.0
 13
0.0
 23
0.0
 33
0.0
 16
1.0
 26
0.0
 36
0.0
 17
0.0
 27
1.0
 37
0.0
 76
0
330
221
345
0
346
0
  0
LAYOUT
  5
4DD
102
{ACAD_REACTORS
330
1A
102
}
100
AcDbPlotSettings
  1

  2
none_device
  4
ISO_A4_(297.00_x_210.00_MM)
  6

 40
0.0
 41
0.0
 42
0.0
 43
0.0
 44
297.0
 45
210.0
 46
0.0
 47
0.0
 48
0.0
 49
0.0
140
0.0
141
0.0
142
1.0
143
1.0
 70
0
 72
1
 73
0
 74
0
  7

 75
0
147
1.0
148
0.0
149
0.0
100
AcDbLayout
  1
Layout1
 70
0
 71
1
 10
0.0
 20
0.0
 11
297.0
 21
210.0
 12
0.0
 22
0.0
 32
0.0
 14
0.0
 24
0.0
 34
0.0
 15
0.0
 25
0.0
 35
0.0
146
0.0
 13
0.0
 23
0.0
 33
0.0
 16
1.0
 26
0.0
 36
0.0
 17
0.0
 27
1.0
 37
0.0
 76
0
330
222
345
0
346
0
  0
ENDSEC
  0
EOF
