  0
SECTION
  2
HEADER
  9
$ACADVER
  1
AC1024
  9
$DWGCODEPAGE
  3
ANSI_1252
  9
$EXTMAX
 10
297.0
 20
210.0
 30
0.0
  9
$EXTMIN
 10
0.0
 20
0.0
 30
0.0
  9
$LIMMIN
 10
0.0
 20
0.0
  9
$LIMMAX
 10
297.0
 20
210.0
  9
$VIEWCTR
 10
148.5
 20
105.0
  9
$VIEWSIZE
 40
210.0
  9
$CLAYER
  8
0
  9
$LTSCALE
 40
16.335
  9
$CELTYPE
  6
BYLAYER
  9
$DIMSCALE
 40
1.0
  9
$DIMASZ
 40
3.0
  9
$DIMEXO
 40
0.5
  9
$DIMDLI
 40
11.286
  9
$DIMEXE
 40
1.5
  9
$DIMCEN
 40
2.673
  9
$DIMLFAC
 40
1.0
  9
$DIMBLK
  1
_FILLED
  9
$DIMALT
 70
0
  9
$DIMALTF
 40
0.0393700787
  9
$DIMTXT
 40
3.0
  9
$DIMTOL
 70
1
  9
$DIMLIM
 70
0
  9
$DIMTFAC
 40
1.0
  9
$DIMTP
 40
0.01
  9
$DIMTM
 40
0.01
  9
$DIMGAP
 40
0.625
  9
$DIMDSEP
 70
44
  9
$AUNITS
 70
0
  9
$PDMODE
 70
3
  9
$PDSIZE
 40
3.0
  9
$HANDSEED
  5
528
  9
$TILEMODE
 70
1
  9
$MEASUREMENT
 70
1
  9
$INSUNITS
 70
4
  0
ENDSEC
  0
SECTION
  2
CLASSES
  0
CLASS
  1
ACDBDICTIONARYWDFLT
  2
AcDbDictionaryWithDefault
  3
AutoCAD 2000
 90
0
 91
1
280
0
281
0
  0
CLASS
  1
ACDBPLACEHOLDER
  2
AcDbPlaceHolder
  3
AutoCAD 2000
 90
0
 91
1
280
0
281
0
  0
CLASS
  1
LAYOUT
  2
AcDbLayout
  3
AutoCAD 2000
 90
0
 91
0
280
0
281
0
  0
ENDSEC
  0
SECTION
  2
TABLES
  0
TABLE
  2
VPORT
  5
8
100
AcDbSymbolTable
 70
2
  0
VPORT
  5
1F4
100
AcDbSymbolTableRecord
100
AcDbViewportTableRecord
  2
*ACTIVE
 70
0
 10
0.0
 20
0.0
 11
1.0
 21
1.0
 12
148.5
 22
105.0
 13
0.0
 23
0.0
 14
1.0
 24
1.0
 15
0.0
 25
0.0
 16
0.0
 26
0.0
 36
1.0
 17
0.0
 27
0.0
 37
0.0
 40
210.0
 41
1.4142857143
 42
50.0
 43
0.0
 44
0.0
 50
0.0
 51
0.0
 71
0
 72
100
 73
1
 74
1
 75
0
 76
0
 77
0
 78
0
  0
ENDTAB
  0
TABLE
  2
LTYPE
  5
5
100
AcDbSymbolTable
 70
6
  0
LTYPE
  5
14
100
AcDbSymbolTableRecord
100
AcDbLinetypeTableRecord
  2
BYBLOCK
 70
0
  3

 72
65
 73
0
 40
0.0
  0
LTYPE
  5
15
100
AcDbSymbolTableRecord
100
AcDbLinetypeTableRecord
  2
BYLAYER
 70
0
  3

 72
65
 73
0
 40
0.0
  0
LTYPE
  5
16
100
AcDbSymbolTableRecord
100
AcDbLinetypeTableRecord
  2
CONTINUOUS
 70
64
  3
Solid line
 72
65
 73
0
 40
0.0
  0
LTYPE
  5
1F5
100
AcDbSymbolTableRecord
100
AcDbLinetypeTableRecord
  2
CENTER
 70
64
  3
____ _ ____ _ ____ _ ____ _ ____ _ ____ _ ____
 72
65
 73
4
 40
0.6
 49
0.375
 74
0
 49
-0.075
 74
0
 49
0.075
 74
0
 49
-0.075
 74
0
  0
LTYPE
  5
1F6
100
AcDbSymbolTableRecord
100
AcDbLinetypeTableRecord
  2
HIDDEN
 70
64
  3
- - - - - - - - - - - - - - - - - - - -
 72
65
 73
2
 40
0.2
 49
0.1
 74
0
 49
-0.1
 74
0
  0
LTYPE
  5
1F7
100
AcDbSymbolTableRecord
100
AcDbLinetypeTableRecord
  2
PHANTOM
 70
64
  3
_____ _ _ _____ _ _ _____ _ _ _____
 72
65
 73
6
 40
0.8
 49
0.45
 74
0
 49
-0.05
 74
0
 49
0.1
 74
0
 49
-0.05
 74
0
 49
0.1
 74
0
 49
-0.05
 74
0
  0
LTYPE
  5
1F8
100
AcDbSymbolTableRecord
100
AcDbLinetypeTableRecord
  2
DOT
 70
64
  3
. . . . . . . . . . . . . . . . . . . .
 72
65
 73
2
 40
0.2
 49
0.1
 74
0
 49
-0.1
 74
0
  0
LTYPE
  5
1F9
100
AcDbSymbolTableRecord
100
AcDbLinetypeTableRecord
  2
DASHED
 70
64
  3
- - - - - - - - - - - - - - - - - - - -
 72
65
 73
2
 40
0.2
 49
0.1
 74
0
 49
-0.1
 74
0
  0
ENDTAB
  0
TABLE
  2
LAYER
  5
2
100
AcDbSymbolTable
 70
36
  0
LAYER
  5
10
100
AcDbSymbolTableRecord
100
AcDbLayerTableRecord
  2
0
 70
0
 62
7
  6
CONTINUOUS
370
-3
390
F
  0
LAYER
  5
1FA
100
AcDbSymbolTableRecord
100
AcDbLayerTableRecord
  2
DEFAULT_1
 70
0
 62
7
  6
CENTER
370
-3
390
F
  0
LAYER
  5
1FB
100
AcDbSymbolTableRecord
100
AcDbLayerTableRecord
  2
DEFAULT_2
 70
0
 62
7
  6
HIDDEN
370
-3
390
F
  0
LAYER
  5
1FC
100
AcDbSymbolTableRecord
100
AcDbLayerTableRecord
  2
DEFAULT_3
 70
0
 62
7
  6
PHANTOM
370
-3
390
F
  0
LAYER
  5
1FD
100
AcDbSymbolTableRecord
100
AcDbLayerTableRecord
  2
218140580
 70
0
 62
7
  6
CONTINUOUS
370
-3
390
F
  0
LAYER
  5
1FE
100
AcDbSymbolTableRecord
100
AcDbLayerTableRecord
  2
268140580
 70
0
 62
7
  6
CONTINUOUS
370
-3
390
F
  0
LAYER
  5
1FF
100
AcDbSymbolTableRecord
100
AcDbLayerTableRecord
  2
ASSI
 70
0
 62
7
  6
CONTINUOUS
370
-3
390
F
  0
LAYER
  5
200
100
AcDbSymbolTableRecord
100
AcDbLayerTableRecord
  2
COLOR5
 70
0
 62
7
  6
CONTINUOUS
370
-3
390
F
  0
LAYER
  5
201
100
AcDbSymbolTableRecord
100
AcDbLayerTableRecord
  2
COORDINATE
 70
0
 62
7
  6
CONTINUOUS
370
-3
390
F
  0
LAYER
  5
202
100
AcDbSymbolTableRecord
100
AcDbLayerTableRecord
  2
COORD_ORIGINE
 70
0
 62
7
  6
CONTINUOUS
370
-3
390
F
  0
LAYER
  5
203
100
AcDbSymbolTableRecord
100
AcDbLayerTableRecord
  2
COPY-PUBBLISH
 70
0
 62
7
  6
CONTINUOUS
370
-3
390
F
  0
LAYER
  5
204
100
AcDbSymbolTableRecord
100
AcDbLayerTableRecord
  2
COSMETICHE
 70
0
 62
7
  6
CONTINUOUS
370
-3
390
F
  0
LAYER
  5
205
100
AcDbSymbolTableRecord
100
AcDbLayerTableRecord
  2
CURVA_CENTRALE
 70
0
 62
7
  6
CONTINUOUS
370
-3
390
F
  0
LAYER
  5
206
100
AcDbSymbolTableRecord
100
AcDbLayerTableRecord
  2
CURVE
 70
0
 62
7
  6
CONTINUOUS
370
-3
390
F
  0
LAYER
  5
207
100
AcDbSymbolTableRecord
100
AcDbLayerTableRecord
  2
DRAFT
 70
0
 62
7
  6
CONTINUOUS
370
-3
390
F
  0
LAYER
  5
208
100
AcDbSymbolTableRecord
100
AcDbLayerTableRecord
  2
IGES_INCISIONI
 70
0
 62
7
  6
CONTINUOUS
370
-3
390
F
  0
LAYER
  5
209
100
AcDbSymbolTableRecord
100
AcDbLayerTableRecord
  2
INCISIONI_LASER
 70
0
 62
7
  6
CONTINUOUS
370
-3
390
F
  0
LAYER
  5
20A
100
AcDbSymbolTableRecord
100
AcDbLayerTableRecord
  2
INTF_1
 70
0
 62
7
  6
CONTINUOUS
370
-3
390
F
  0
LAYER
  5
20B
100
AcDbSymbolTableRecord
100
AcDbLayerTableRecord
  2
INTF_11
 70
0
 62
7
  6
CONTINUOUS
370
-3
390
F
  0
LAYER
  5
20C
100
AcDbSymbolTableRecord
100
AcDbLayerTableRecord
  2
INTF_2
 70
0
 62
7
  6
CONTINUOUS
370
-3
390
F
  0
LAYER
  5
20D
100
AcDbSymbolTableRecord
100
AcDbLayerTableRecord
  2
INTF_RED
 70
0
 62
7
  6
CONTINUOUS
370
-3
390
F
  0
LAYER
  5
20E
100
AcDbSymbolTableRecord
100
AcDbLayerTableRecord
  2
INTF_YELLOW
 70
0
 62
7
  6
CONTINUOUS
370
-3
390
F
  0
LAYER
  5
20F
100
AcDbSymbolTableRecord
100
AcDbLayerTableRecord
  2
NOTE
 70
0
 62
7
  6
CONTINUOUS
370
-3
390
F
  0
LAYER
  5
210
100
AcDbSymbolTableRecord
100
AcDbLayerTableRecord
  2
PIANI
 70
0
 62
7
  6
CONTINUOUS
370
-3
390
F
  0
LAYER
  5
211
100
AcDbSymbolTableRecord
100
AcDbLayerTableRecord
  2
PIANI_CONTATTI
 70
0
 62
7
  6
CONTINUOUS
370
-3
390
F
  0
LAYER
  5
212
100
AcDbSymbolTableRecord
100
AcDbLayerTableRecord
  2
PIANI_ORIGINE
 70
0
 62
7
  6
CONTINUOUS
370
-3
390
F
  0
LAYER
  5
213
100
AcDbSymbolTableRecord
100
AcDbLayerTableRecord
  2
PIANI_RIFERIMENTO
 70
0
 62
7
  6
CONTINUOUS
370
-3
390
F
  0
LAYER
  5
214
100
AcDbSymbolTableRecord
100
AcDbLayerTableRecord
  2
PIANI_SFORMI
 70
0
 62
7
  6
CONTINUOUS
370
-3
390
F
  0
LAYER
  5
215
100
AcDbSymbolTableRecord
100
AcDbLayerTableRecord
  2
PUNTI
 70
0
 62
7
  6
CONTINUOUS
370
-3
390
F
  0
LAYER
  5
216
100
AcDbSymbolTableRecord
100
AcDbLayerTableRecord
  2
RACCORDO
 70
0
 62
7
  6
CONTINUOUS
370
-3
390
F
  0
LAYER
  5
217
100
AcDbSymbolTableRecord
100
AcDbLayerTableRecord
  2
RGB__255__255__255__
 70
0
 62
7
  6
CONTINUOUS
370
-3
390
F
  0
LAYER
  5
218
100
AcDbSymbolTableRecord
100
AcDbLayerTableRecord
  2
SMUSSO
 70
0
 62
7
  6
CONTINUOUS
370
-3
390
F
  0
LAYER
  5
219
100
AcDbSymbolTableRecord
100
AcDbLayerTableRecord
  2
SNAPLINE
 70
0
 62
7
  6
CONTINUOUS
370
-3
390
F
  0
LAYER
  5
21A
100
AcDbSymbolTableRecord
100
AcDbLayerTableRecord
  2
SUPERFICI
 70
0
 62
7
  6
CONTINUOUS
370
-3
390
F
  0
LAYER
  5
21B
100
AcDbSymbolTableRecord
100
AcDbLayerTableRecord
  2
TRACCIABILITA
 70
0
 62
7
  6
CONTINUOUS
370
-3
390
F
  0
LAYER
  5
21C
100
AcDbSymbolTableRecord
100
AcDbLayerTableRecord
  2
TRASH
 70
0
 62
7
  6
CONTINUOUS
370
-3
390
F
  0
LAYER
  5
21D
100
AcDbSymbolTableRecord
100
AcDbLayerTableRecord
  2
WHITE
 70
0
 62
7
  6
CONTINUOUS
370
-3
390
F
  0
LAYER
  5
21E
100
AcDbSymbolTableRecord
100
AcDbLayerTableRecord
  2
XSEC_DATUMS
 70
0
 62
7
  6
CONTINUOUS
370
-3
390
F
  0
ENDTAB
  0
TABLE
  2
STYLE
  5
3
100
AcDbSymbolTable
 70
1
  0
STYLE
  5
11
100
AcDbSymbolTableRecord
100
AcDbTextStyleTableRecord
  2
STANDARD
 70
0
 40
0.0
 41
0.8
 50
0.0
 71
0
 42
0.2
  3
txt
  4

  0
STYLE
  5
21F
100
AcDbSymbolTableRecord
100
AcDbTextStyleTableRecord
  2
TEXTSTYLE_1
 70
0
 40
0.0
 41
0.8
 50
0.0
 71
0
 42
0.2
  3
gdt
  4

  0
ENDTAB
  0
TABLE
  2
VIEW
  5
6
100
AcDbSymbolTable
 70
0
  0
ENDTAB
  0
TABLE
  2
UCS
  5
7
100
AcDbSymbolTable
 70
0
  0
ENDTAB
  0
TABLE
  2
APPID
  5
9
100
AcDbSymbolTable
 70
1
  0
APPID
  5
220
100
AcDbSymbolTableRecord
100
AcDbRegAppTableRecord
  2
ACAD
 70
0
  0
ENDTAB
  0
TABLE
  2
BLOCK_RECORD
  5
1
100
AcDbSymbolTable
 70
0
  0
BLOCK_RECORD
  5
221
100
AcDbSymbolTableRecord
100
AcDbBlockTableRecord
  2
*Model_Space
  0
BLOCK_RECORD
  5
222
100
AcDbSymbolTableRecord
100
AcDbBlockTableRecord
  2
*Paper_Space
  0
BLOCK_RECORD
  5
223
100
AcDbSymbolTableRecord
100
AcDbBlockTableRecord
  2
_FILLED
  0
ENDTAB
  0
TABLE
  2
DIMSTYLE
  5
A
100
AcDbSymbolTable
 70
1
100
AcDbDimStyleTable
 71
0
  0
DIMSTYLE
105
224
100
AcDbSymbolTableRecord
100
AcDbDimStyleTableRecord
  2
STANDARD
 70
0
  3

  4

 40
1.0
 41
3.0
 42
0.5
 43
0.38
 44
1.5
 45
0.0
 46
0.0
 47
0.01
 48
0.01
140
3.0
141
0.09
142
0.0
143
25.4
144
1.0
145
0.0
146
1.0
147
0.625
 71
1
 72
0
 73
0
 74
0
 75
0
 76
0
 77
1
 78
8
 79
2
170
0
171
1
172
0
173
0
174
0
175
0
176
0
177
0
178
0
270
2
179
2
271
2
272
2
273
2
274
2
275
0
280
0
281
0
282
0
283
1
284
8
285
0
286
0
287
3
288
0
340
11
278
44
341
223
342
223
343
223
344
223
  0
ENDTAB
  0
ENDSEC
  0
SECTION
  2
BLOCKS
  0
BLOCK
  5
20
100
AcDbEntity
  8
0
100
AcDbBlockBegin
  2
*Model_Space
 70
0
 10
0.0
 20
0.0
 30
0.0
  3
*Model_Space
  1

  0
ENDBLK
  5
21
100
AcDbEntity
  8
0
100
AcDbBlockEnd
  0
BLOCK
  5
1C
100
AcDbEntity
  8
0
100
AcDbBlockBegin
  2
*Paper_Space
 70
0
 10
0.0
 20
0.0
 30
0.0
  3
*Paper_Space
  1

  0
ENDBLK
  5
1D
100
AcDbEntity
  8
0
100
AcDbBlockEnd
  0
BLOCK
  5
225
100
AcDbEntity
  8
0
100
AcDbBlockBegin
  2
_FILLED
 70
64
 10
0.0
 20
0.0
  3
_FILLED
  1

  0
SOLID
  5
226
100
AcDbEntity
  8
0
  6
BYBLOCK
 62
0
100
AcDbTrace
 10
0.0
 20
0.0
 11
-1.0
 21
0.3166666667
 12
-1.0
 22
-0.3166666667
 13
-1.0
 23
-0.3166666667
  0
ENDBLK
  5
227
100
AcDbEntity
  8
0
  6
BYBLOCK
 62
0
100
AcDbBlockEnd
  0
ENDSEC
  0
SECTION
  2
ENTITIES
  0
LWPOLYLINE
  5
228
100
AcDbEntity
  8
0
100
AcDbPolyline
 62
7
  6
CONTINUOUS
 90
19
 70
0
 10
-19.911046692
 20
19.9493308051
 10
-19.9625838897
 20
19.9177467416
 10
-20.049206354
 20
19.8575402023
 10
-20.1323832407
 20
19.7907485686
 10
-20.211969973
 20
19.7177945096
 10
-20.2878292987
 20
19.6390941801
 10
-20.3596837185
 20
19.5551429247
 10
-20.4273599539
 20
19.4663376358
 10
-20.4906360465
 20
19.3730856267
 10
-20.5491002997
 20
19.2760579671
 10
-20.6025490507
 20
19.1756945572
 10
-20.6507408944
 20
19.0724131723
 10
-20.6933078344
 20
18.9669755452
 10
-20.7300450274
 20
18.8598379177
 10
-20.76071633
 20
18.7514227752
 10
-20.7850481133
 20
18.6423938817
 10
-20.8028100486
 20
18.5331900311
 10
-20.8137821157
 20
18.4241596677
 10
-20.8168583139
 20
18.3636545386
  0
LWPOLYLINE
  5
229
100
AcDbEntity
  8
RACCORDO
100
AcDbPolyline
 62
7
  6
CONTINUOUS
 90
19
 70
0
 10
-19.911046692
 20
19.9493308051
 10
-19.9625838897
 20
19.9177467416
 10
-20.049206354
 20
19.8575402023
 10
-20.1323832407
 20
19.7907485686
 10
-20.211969973
 20
19.7177945096
 10
-20.2878292987
 20
19.6390941801
 10
-20.3596837185
 20
19.5551429247
 10
-20.4273599539
 20
19.4663376358
 10
-20.4906360465
 20
19.3730856267
 10
-20.5491002997
 20
19.2760579671
 10
-20.6025490507
 20
19.1756945572
 10
-20.6507408944
 20
19.0724131723
 10
-20.6933078344
 20
18.9669755452
 10
-20.7300450274
 20
18.8598379177
 10
-20.76071633
 20
18.7514227752
 10
-20.7850481133
 20
18.6423938817
 10
-20.8028100486
 20
18.5331900311
 10
-20.8137821157
 20
18.4241596677
 10
-20.8168583139
 20
18.3636545386
  0
LINE
  5
22A
100
AcDbEntity
  8
268140580
100
AcDbLine
 62
7
  6
CONTINUOUS
 10
-15.6317627084
 20
22.4622146209
 11
-15.3010176068
 21
22.6550693091
  0
LINE
  5
22B
100
AcDbEntity
  8
0
100
AcDbLine
 62
7
  6
CONTINUOUS
 10
-19.9111671234
 20
19.9492653044
 11
-17.9269658602
 21
21.1062363797
  0
LINE
  5
22C
100
AcDbEntity
  8
RACCORDO
100
AcDbLine
 62
7
  6
CONTINUOUS
 10
-19.9111671234
 20
19.9492653044
 11
-17.9269658602
 21
21.1062363797
  0
LINE
  5
22D
100
AcDbEntity
  8
268140580
100
AcDbLine
 62
250
  6
CONTINUOUS
 10
-15.4446404882
 20
22.4554566732
 11
-15.3010176068
 21
22.5392019679
  0
LINE
  5
22E
100
AcDbEntity
  8
0
100
AcDbLine
 62
250
  6
CONTINUOUS
 10
-19.677813076
 20
19.9404979112
 11
-17.693063085
 21
21.097788945
  0
LINE
  5
22F
100
AcDbEntity
  8
RACCORDO
100
AcDbLine
 62
250
  6
CONTINUOUS
 10
-19.677813076
 20
19.9404979112
 11
-17.693063085
 21
21.097788945
  0
LWPOLYLINE
  5
230
100
AcDbEntity
  8
268140580
100
AcDbPolyline
 62
250
  6
CONTINUOUS
 90
16
 70
0
 10
-12.1165244648
 20
24.0469391074
 10
-12.1075363215
 20
24.0516742651
 10
-12.0990495822
 20
24.0566408544
 10
-12.0910884246
 20
24.0618257381
 10
-12.0836741368
 20
24.0672163123
 10
-12.0768298764
 20
24.0727970958
 10
-12.0705793551
 20
24.0785493837
 10
-12.0649409071
 20
24.0844560612
 10
-12.059928525
 20
24.0905022021
 10
-12.0555558314
 20
24.096671412
 10
-12.0518348019
 20
24.1029469137
 10
-12.0487757904
 20
24.1093113852
 10
-12.0463873063
 20
24.1157471792
 10
-12.0446759121
 20
24.1222365606
 10
-12.0436462588
 20
24.1287618203
 10
-12.0433011601
 20
24.135327455
  0
LWPOLYLINE
  5
231
100
AcDbEntity
  8
268140580
100
AcDbPolyline
 62
250
  6
CONTINUOUS
 90
16
 70
0
 10
-12.1165244648
 20
23.7013016464
 10
-12.1075149538
 20
23.7060486682
 10
-12.0990146698
 20
23.7110249452
 10
-12.0910469115
 20
23.7162168375
 10
-12.0836335181
 20
23.7216101147
 10
-12.0767948092
 20
23.727189994
 10
-12.0705495291
 20
23.7329411816
 10
-12.0649147957
 20
23.7388479137
 10
-12.0599060535
 20
23.7448940003
 10
-12.0555370311
 20
23.7510628697
 10
-12.0518197036
 20
23.7573376134
 10
-12.0487642599
 20
23.7637010327
 10
-12.046379075
 20
23.7701356859
 10
-12.0446706863
 20
23.7766239361
 10
-12.0436437764
 20
23.7831479995
 10
-12.0433011601
 20
23.789689994
  0
LWPOLYLINE
  5
232
100
AcDbEntity
  8
268140580
100
AcDbPolyline
 62
250
  6
CONTINUOUS
 90
28
 70
0
 10
-15.7565817398
 20
23.9863612241
 10
-15.7669196746
 20
23.9809323618
 10
-15.7772275174
 20
23.9747787138
 10
-15.7874700013
 20
23.967921334
 10
-15.7976120829
 20
23.960383684
 10
-15.8076190623
 20
23.952191553
 10
-15.8174567019
 20
23.9433729693
 10
-15.8270913435
 20
23.9339581046
 10
-15.8364900234
 20
23.9239791707
 10
-15.8456205852
 20
23.9134703091
 10
-15.8544517898
 20
23.9024674748
 10
-15.8629534224
 20
23.8910083123
 10
-15.8710963956
 20
23.8791320279
 10
-15.8788528495
 20
23.8668792548
 10
-15.8861962461
 20
23.8542919142
 10
-15.8931014611
 20
23.8414130722
 10
-15.8995448691
 20
23.828286792
 10
-15.9055044247
 20
23.8149579836
 10
-15.9109597382
 20
23.8014722499
 10
-15.9158921449
 20
23.7878757305
 10
-15.9202847691
 20
23.7742149443
 10
-15.9241225821
 20
23.7605366298
 10
-15.9273924532
 20
23.7468875858
 10
-15.9300831951
 20
23.7333145106
 10
-15.9321856016
 20
23.7198638429
 10
-15.9336924796
 20
23.7065816024
 10
-15.9345986737
 20
23.6935132326
 10
-15.9349010832
 20
23.6807034453
  0
LINE
  5
233
100
AcDbEntity
  8
268140580
100
AcDbLine
 62
7
  6
CONTINUOUS
 10
-15.8680035654
 20
23.9936503964
 11
-13.7466832218
 21
25.0316375005
  0
LINE
  5
234
100
AcDbEntity
  8
268140580
100
AcDbLine
 62
250
  6
CONTINUOUS
 10
-15.7565817398
 20
23.9863612241
 11
-13.6352613963
 21
25.0243483282
  0
LINE
  5
235
100
AcDbEntity
  8
268140580
100
AcDbLine
 62
250
  6
CONTINUOUS
 10
-12.291758512
 20
24.3525968861
 11
-14.4130788556
 21
23.3146097819
  0
LINE
  5
236
100
AcDbEntity
  8
268140580
100
AcDbLine
 62
250
  6
CONTINUOUS
 10
-12.1165244648
 20
24.0469391074
 11
-14.2378448084
 21
23.0089520032
  0
LWPOLYLINE
  5
237
100
AcDbEntity
  8
0
100
AcDbPolyline
 62
250
  6
CONTINUOUS
 90
8
 70
0
 10
-19.9110487174
 20
19.9493342847
 10
-19.8855756811
 20
19.9615700798
 10
-19.8550686212
 20
19.9704620009
 10
-19.8224192749
 20
19.9743950843
 10
-19.7879849399
 20
19.9733262882
 10
-19.7521424476
 20
19.967267309
 10
-19.7152840399
 20
19.9562844531
 10
-19.677813076
 20
19.9404979112
  0
LWPOLYLINE
  5
238
100
AcDbEntity
  8
RACCORDO
100
AcDbPolyline
 62
250
  6
CONTINUOUS
 90
8
 70
0
 10
-19.9110487174
 20
19.9493342847
 10
-19.8855756811
 20
19.9615700798
 10
-19.8550686212
 20
19.9704620009
 10
-19.8224192749
 20
19.9743950843
 10
-19.7879849399
 20
19.9733262882
 10
-19.7521424476
 20
19.967267309
 10
-19.7152840399
 20
19.9562844531
 10
-19.677813076
 20
19.9404979112
  0
LWPOLYLINE
  5
239
100
AcDbEntity
  8
268140580
100
AcDbPolyline
 62
250
  6
CONTINUOUS
 90
31
 70
0
 10
-14.2378448084
 20
23.0089520032
 10
-14.2473388521
 20
23.0044472477
 10
-14.2572914059
 20
23.0001971057
 10
-14.2676751906
 20
22.9962132265
 10
-14.2784617449
 20
22.9925065298
 10
-14.2896215037
 20
22.9890871754
 10
-14.3011238788
 20
22.9859645353
 10
-14.3129373429
 20
22.9831471686
 10
-14.3250295163
 20
22.9806427975
 10
-14.3373672551
 20
22.9784582863
 10
-14.3499167424
 20
22.9765996225
 10
-14.362643581
 20
22.9750719007
 10
-14.3755128874
 20
22.9738793083
 10
-14.3884893879
 20
22.9730251139
 10
-14.4015375146
 20
22.972511659
 10
-14.4146215037
 20
22.9723403508
 10
-14.4277054927
 20
22.972511659
 10
-14.4407536195
 20
22.9730251139
 10
-14.4537301199
 20
22.9738793083
 10
-14.4665994264
 20
22.9750719007
 10
-14.479326265
 20
22.9765996225
 10
-14.4918757523
 20
22.9784582863
 10
-14.5042134911
 20
22.9806427975
 10
-14.5163056645
 20
22.9831471686
 10
-14.5281191286
 20
22.9859645353
 10
-14.5396215037
 20
22.9890871754
 10
-14.5507812624
 20
22.9925065298
 10
-14.5615678168
 20
22.9962132265
 10
-14.5719516014
 20
23.0001971057
 10
-14.5819041553
 20
23.0044472477
 10
-14.591398199
 20
23.0089520032
  0
LWPOLYLINE
  5
23A
100
AcDbEntity
  8
268140580
100
AcDbPolyline
 62
250
  6
CONTINUOUS
 90
31
 70
0
 10
-14.2378448084
 20
22.6406414746
 10
-14.2473281892
 20
22.6361415198
 10
-14.2572719712
 20
22.6318944468
 10
-14.2676493191
 20
22.6279120976
 10
-14.2784332033
 20
22.6242052702
 10
-14.2895934473
 20
22.6207847472
 10
-14.3010964688
 20
22.6176609908
 10
-14.3129095062
 20
22.6148428379
 10
-14.3250013402
 20
22.6123376778
 10
-14.3373391418
 20
22.6101523259
 10
-14.3498893212
 20
22.6082927686
 10
-14.3626172819
 20
22.6067641679
 10
-14.3754878155
 20
22.6055707658
 10
-14.3884655167
 20
22.6047158404
 10
-14.4015149249
 20
22.6042017229
 10
-14.4146002971
 20
22.6040298227
 10
-14.4276857809
 20
22.6042006143
 10
-14.4407354804
 20
22.6047136324
 10
-14.4537135869
 20
22.6055674707
 10
-14.4665845099
 20
22.6067597871
 10
-14.4793129737
 20
22.6082873135
 10
-14.491864082
 20
22.6101458619
 10
-14.5042034441
 20
22.6123303407
 10
-14.5162972116
 20
22.6148347584
 10
-14.5281121745
 20
22.6176522352
 10
-14.5396159116
 20
22.6207750325
 10
-14.5507769261
 20
22.6241945933
 10
-14.5615646719
 20
22.6279015555
 10
-14.5719495901
 20
22.6318857627
 10
-14.5819031949
 20
22.6361362867
 10
-14.591398199
 20
22.6406414746
  0
LWPOLYLINE
  5
23B
100
AcDbEntity
  8
268140580
100
AcDbPolyline
 62
250
  6
CONTINUOUS
 90
13
 70
0
 10
-12.291758512
 20
24.3525968861
 10
-12.2815398712
 20
24.357234737
 10
-12.2713605861
 20
24.3611300413
 10
-12.2612547186
 20
24.3642697646
 10
-12.2512560849
 20
24.3666434007
 10
-12.2413981425
 20
24.3682430069
 10
-12.2317138781
 20
24.3690632307
 10
-12.2222356972
 20
24.3691013274
 10
-12.2129953157
 20
24.3683571696
 10
-12.2040236537
 20
24.3668332472
 10
-12.1953507323
 20
24.3645346598
 10
-12.1870055728
 20
24.3614690988
 10
-12.1814977613
 20
24.3589342528
  0
LWPOLYLINE
  5
23C
100
AcDbEntity
  8
268140580
100
AcDbPolyline
 62
250
  6
CONTINUOUS
 90
14
 70
0
 10
-13.7466832218
 20
25.0316375005
 10
-13.7394834902
 20
25.034798825
 10
-13.7318094956
 20
25.037430265
 10
-13.7238749642
 20
25.0394300485
 10
-13.7157016555
 20
25.0407926872
 10
-13.7073119793
 20
25.0415144415
 10
-13.6987289422
 20
25.0415933285
 10
-13.6899760881
 20
25.0410291294
 10
-13.6810774124
 20
25.039823389
 10
-13.672057323
 20
25.0379794124
 10
-13.6629405821
 20
25.035502263
 10
-13.6537521997
 20
25.0323987415
 10
-13.6445173631
 20
25.0286773603
 10
-13.6352613963
 20
25.0243483282
  0
LWPOLYLINE
  5
23D
100
AcDbEntity
  8
268140580
100
AcDbPolyline
 62
250
  6
CONTINUOUS
 90
14
 70
0
 10
-15.8680035654
 20
23.9936503964
 10
-15.8607830939
 20
23.9968198223
 10
-15.8531101031
 20
23.9994490145
 10
-15.8451767631
 20
24.0014468136
 10
-15.8370048187
 20
24.0028077437
 10
-15.8286166684
 20
24.0035280746
 10
-15.8200353037
 20
24.003605832
 10
-15.8112842455
 20
24.0030408027
 10
-15.8023874798
 20
24.0018345355
 10
-15.793369392
 20
23.9999903365
 10
-15.7842547002
 20
23.9975132607
 10
-15.7750683869
 20
23.9944100975
 10
-15.7658356314
 20
23.9906893526
 10
-15.7565817398
 20
23.9863612241
  0
LINE
  5
23E
100
AcDbEntity
  8
268140580
100
AcDbLine
 62
250
  6
CONTINUOUS
 10
-12.6468545507
 20
23.0611366034
 11
-12.1165244648
 21
23.7013016464
  0
LINE
  5
23F
100
AcDbEntity
  8
268140580
100
AcDbLine
 62
7
  6
CONTINUOUS
 10
-12.6311122079
 20
22.9900369579
 11
-12.100782122
 21
23.6302020009
  0
LINE
  5
240
100
AcDbEntity
  8
268140580
100
AcDbLine
 62
7
  6
CONTINUOUS
 10
-12.6505527241
 20
22.1832171203
 11
-13.5307380272
 21
21.686628755
  0
LINE
  5
241
100
AcDbEntity
  8
268140580
100
AcDbLine
 62
7
  6
CONTINUOUS
 10
-14.4333668095
 20
19.8264460325
 11
-14.7808282482
 21
19.6416715266
  0
LWPOLYLINE
  5
242
100
AcDbEntity
  8
268140580
100
AcDbPolyline
 62
250
  6
CONTINUOUS
 90
15
 70
0
 10
-12.823631246
 20
22.5977482558
 10
-12.8136516468
 20
22.6030371352
 10
-12.8043039775
 20
22.6086071971
 10
-12.7956198673
 20
22.6144395939
 10
-12.7876287001
 20
22.6205145902
 10
-12.7803575151
 20
22.62681163
 10
-12.7738309152
 20
22.6333094058
 10
-12.7680709839
 20
22.6399859311
 10
-12.7630972105
 20
22.6468186144
 10
-12.7589264241
 20
22.653784336
 10
-12.7555727367
 20
22.660859526
 10
-12.7530474956
 20
22.668020244
 10
-12.7513592449
 20
22.6752422607
 10
-12.7505136965
 20
22.6825011388
 10
-12.7504079413
 20
22.6861366034
  0
LWPOLYLINE
  5
243
100
AcDbEntity
  8
268140580
100
AcDbPolyline
 62
250
  6
CONTINUOUS
 90
11
 70
0
 10
-12.823631246
 20
22.2701203116
 10
-12.8136516735
 20
22.2754091761
 10
-12.8043040251
 20
22.2809792229
 10
-12.7956199302
 20
22.2868116047
 10
-12.7876287732
 20
22.2928865867
 10
-12.7803575935
 20
22.2991836131
 10
-12.7738309946
 20
22.3056813766
 10
-12.7680710603
 20
22.3123578909
 10
-12.7630972804
 20
22.3191905648
 10
-12.7589264847
 20
22.3261562786
 10
-12.7555727859
 20
22.3332314627
  0
LWPOLYLINE
  5
244
100
AcDbEntity
  8
268140580
100
AcDbPolyline
 62
7
  6
CONTINUOUS
 90
52
 70
0
 10
-14.4333650561
 20
19.8264426045
 10
-14.4311416074
 20
19.8276058219
 10
-14.4168779656
 20
19.8342940571
 10
-14.4021957007
 20
19.8398916726
 10
-14.3871363551
 20
19.8443872948
 10
-14.3716583864
 20
19.8477922974
 10
-14.3557659035
 20
19.8501090888
 10
-14.3394216213
 20
19.8513463776
 10
-14.3226628247
 20
19.8514954553
 10
-14.3056054781
 20
19.8505326052
 10
-14.2882343227
 20
19.8484414015
 10
-14.2705646171
 20
19.84523827
 10
-14.2527581022
 20
19.8409487716
 10
-14.2348292939
 20
19.835564042
 10
-14.2167636762
 20
19.8290929454
 10
-14.1986794412
 20
19.8215876351
 10
-14.1806056005
 20
19.813063911
 10
-14.1625131427
 20
19.8035059731
 10
-14.1444332255
 20
19.7929185746
 10
-14.1263102195
 20
19.7812614111
 10
-14.1081997542
 20
19.768574787
 10
-14.0902998756
 20
19.7549843678
 10
-14.0726112853
 20
19.7404631354
 10
-14.0551332817
 20
19.725038108
 10
-14.0380618062
 20
19.7089160058
 10
-14.0214347394
 20
19.6921153666
 10
-14.0052142007
 20
19.6746176528
 10
-13.9894824888
 20
19.656573971
 10
-13.9742677303
 20
19.6380224286
 10
-13.9595417987
 20
19.6189249184
 10
-13.9453026138
 20
19.5993182249
 10
-13.9315223586
 20
19.5791666487
 10
-13.9182288502
 20
19.5585058893
 10
-13.9055034592
 20
19.5374798304
 10
-13.8933505758
 20
19.5160832772
 10
-13.8817658098
 20
19.4943214245
 10
-13.8708173616
 20
19.4723537415
 10
-13.8605208988
 20
19.4502084266
 10
-13.8508607538
 20
19.4278572814
 10
-13.8418581242
 20
19.4053751791
 10
-13.8335083888
 20
19.3827546188
 10
-13.8258161688
 20
19.3600031015
 10
-13.8188165254
 20
19.3372180032
 10
-13.8125071975
 20
19.3143802522
 10
-13.8068904462
 20
19.2915089203
 10
-13.8020081159
 20
19.2687585991
 10
-13.7978672488
 20
19.2461273744
 10
-13.7944608028
 20
19.2236171603
 10
-13.7918094951
 20
19.2013882916
 10
-13.7899202316
 20
19.1794942131
 10
-13.7887861066
 20
19.1578814799
 10
-13.788566855
 20
19.14554083
  0
LINE
  5
245
100
AcDbEntity
  8
268140580
100
AcDbLine
 62
7
  6
CONTINUOUS
 10
-12.7904770508
 20
22.1134923285
 11
-12.6431513022
 21
22.1871552028
  0
LINE
  5
246
100
AcDbEntity
  8
268140580
100
AcDbLine
 62
7
  6
CONTINUOUS
 10
-4.7901381476
 20
25.3280131888
 11
-11.2326409883
 21
22.1853035785
  0
LWPOLYLINE
  5
247
100
AcDbEntity
  8
268140580
100
AcDbPolyline
 62
250
  6
CONTINUOUS
 90
13
 70
0
 10
-12.6822098898
 20
22.3444026043
 10
-12.6882222915
 20
22.3415530039
 10
-12.6942530409
 20
22.3390102022
 10
-12.7002908861
 20
22.3367835545
 10
-12.7063244612
 20
22.3348819161
 10
-12.7123417968
 20
22.3333137721
 10
-12.7183303537
 20
22.3320871052
 10
-12.7242852596
 20
22.3312082909
 10
-12.730186491
 20
22.3306857519
 10
-12.7359995047
 20
22.3305254374
 10
-12.7417100325
 20
22.330728369
 10
-12.7473095539
 20
22.3312948841
 10
-12.7484948506
 20
22.3314960161
  0
LWPOLYLINE
  5
248
100
AcDbEntity
  8
268140580
100
AcDbPolyline
 62
250
  6
CONTINUOUS
 90
28
 70
0
 10
-13.5307380272
 20
22.2441948652
 10
-13.5413157561
 20
22.239205079
 10
-13.5524558497
 20
22.2345312547
 10
-13.5641206134
 20
22.2301892073
 10
-13.5762705774
 20
22.2261936288
 10
-13.5888646301
 20
22.222558039
 10
-13.6018601571
 20
22.2192947395
 10
-13.6152131857
 20
22.2164147723
 10
-13.6288785335
 20
22.2139278824
 10
-13.6428099612
 20
22.2118424846
 10
-13.6569603294
 20
22.2101656351
 10
-13.6712817577
 20
22.208903008
 10
-13.6857257868
 20
22.2080588756
 10
-13.7002435428
 20
22.2076360941
 10
-13.7147859022
 20
22.2076360941
 10
-13.7293036582
 20
22.2080588756
 10
-13.7437476873
 20
22.208903008
 10
-13.7580691156
 20
22.2101656351
 10
-13.7722194838
 20
22.2118424846
 10
-13.7861509115
 20
22.2139278824
 10
-13.7998162593
 20
22.2164147723
 10
-13.8131692879
 20
22.2192947395
 10
-13.8261648149
 20
22.222558039
 10
-13.8387588676
 20
22.2261936288
 10
-13.8509088316
 20
22.2301892073
 10
-13.8625735953
 20
22.2345312547
 10
-13.8737136889
 20
22.239205079
 10
-13.8842914178
 20
22.2441948652
  0
LINE
  5
249
100
AcDbEntity
  8
RACCORDO
100
AcDbLine
 62
7
  6
CONTINUOUS
 10
-2.5316680139
 20
25.7755107243
 11
-3.8951177818
 21
25.1325115909
  0
LWPOLYLINE
  5
24A
100
AcDbEntity
  8
RACCORDO
100
AcDbPolyline
 62
250
  6
CONTINUOUS
 90
26
 70
0
 10
-2.0927832635
 20
25.7431077893
 10
-2.073510659
 20
25.752010051
 10
-2.0542615468
 20
25.7602572456
 10
-2.0350502403
 20
25.7678432392
 10
-2.0158910327
 20
25.7747623866
 10
-1.9967981627
 20
25.7810095446
 10
-1.9777858052
 20
25.7865800725
 10
-1.9588680779
 20
25.7914698289
 10
-1.940059069
 20
25.7956751675
 10
-1.9213728022
 20
25.7991929509
 10
-1.9028231856
 20
25.8020205614
 10
-1.8844239996
 20
25.8041558993
 10
-1.8661889235
 20
25.8055973768
 10
-1.8481315152
 20
25.8063439218
 10
-1.830265204
 20
25.8063949787
 10
-1.8126032775
 20
25.8057505094
 10
-1.7951588699
 20
25.8044109934
 10
-1.777944952
 20
25.8023774264
 10
-1.7609743241
 20
25.7996513209
 10
-1.7442596055
 20
25.7962347038
 10
-1.7278132254
 20
25.7921301158
 10
-1.7116474131
 20
25.787340609
 10
-1.6957741896
 20
25.781869745
 10
-1.6802053582
 20
25.7757215918
 10
-1.6649524958
 20
25.7689007212
 10
-1.6579103829
 20
25.7654711189
  0
LWPOLYLINE
  5
24B
100
AcDbEntity
  8
RACCORDO
100
AcDbPolyline
 62
7
  6
CONTINUOUS
 90
12
 70
0
 10
-5.400458358
 20
-25.6280725788
 10
-5.3633936609
 20
-25.6456077678
 10
-5.2888938617
 20
-25.6748365567
 10
-5.2114500913
 20
-25.6974695878
 10
-5.1314502646
 20
-25.7132875823
 10
-5.0490163251
 20
-25.7221046567
 10
-4.9645950478
 20
-25.7236961331
 10
-4.8786688769
 20
-25.7178990745
 10
-4.7912760986
 20
-25.7045069681
 10
-4.7026577161
 20
-25.6832802221
 10
-4.6133882406
 20
-25.6541146984
 10
-4.5650110635
 20
-25.6350030866
  0
LWPOLYLINE
  5
24C
100
AcDbEntity
  8
0
100
AcDbPolyline
 62
7
  6
CONTINUOUS
 90
12
 70
0
 10
-5.400458358
 20
-25.6280725788
 10
-5.3633936609
 20
-25.6456077678
 10
-5.2888938617
 20
-25.6748365567
 10
-5.2114500913
 20
-25.6974695878
 10
-5.1314502646
 20
-25.7132875823
 10
-5.0490163251
 20
-25.7221046567
 10
-4.9645950478
 20
-25.7236961331
 10
-4.8786688769
 20
-25.7178990745
 10
-4.7912760986
 20
-25.7045069681
 10
-4.7026577161
 20
-25.6832802221
 10
-4.6133882406
 20
-25.6541146984
 10
-4.5650110635
 20
-25.6350030866
  0
LINE
  5
24D
100
AcDbEntity
  8
RACCORDO
100
AcDbLine
 62
7
  6
CONTINUOUS
 10
-5.3993480764
 20
-25.6286291891
 11
-20.2859624645
 21
-18.1853219951
  0
LINE
  5
24E
100
AcDbEntity
  8
0
100
AcDbLine
 62
7
  6
CONTINUOUS
 10
-5.3993480764
 20
-25.6286291891
 11
-20.2859624645
 21
-18.1853219951
  0
LINE
  5
24F
100
AcDbEntity
  8
RACCORDO
100
AcDbLine
 62
250
  6
CONTINUOUS
 10
-5.7928162621
 20
-24.8680337679
 11
-20.670378951
 21
-17.4292524235
  0
LINE
  5
250
100
AcDbEntity
  8
0
100
AcDbLine
 62
250
  6
CONTINUOUS
 10
-5.7928162621
 20
-24.8680337679
 11
-20.670378951
 21
-17.4292524235
  0
LWPOLYLINE
  5
251
100
AcDbEntity
  8
RACCORDO
100
AcDbPolyline
 62
250
  6
CONTINUOUS
 90
13
 70
0
 10
-20.2859625196
 20
-18.1853219675
 10
-20.3420158584
 20
-18.1530517752
 10
-20.3938293638
 20
-18.1146354769
 10
-20.441844016
 20
-18.0699095038
 10
-20.485826981
 20
-18.0190816156
 10
-20.5255448281
 20
-17.9624104672
 10
-20.5607946772
 20
-17.9001882898
 10
-20.5913981426
 20
-17.8327348467
 10
-20.6172078205
 20
-17.7603780275
 10
-20.6381032828
 20
-17.6834628078
 10
-20.6539811042
 20
-17.602364122
 10
-20.6647580072
 20
-17.5174874941
 10
-20.670378951
 20
-17.4292524235
  0
LWPOLYLINE
  5
252
100
AcDbEntity
  8
0
100
AcDbPolyline
 62
250
  6
CONTINUOUS
 90
13
 70
0
 10
-20.2859625196
 20
-18.1853219675
 10
-20.3420158584
 20
-18.1530517752
 10
-20.3938293638
 20
-18.1146354769
 10
-20.441844016
 20
-18.0699095038
 10
-20.485826981
 20
-18.0190816156
 10
-20.5255448281
 20
-17.9624104672
 10
-20.5607946772
 20
-17.9001882898
 10
-20.5913981426
 20
-17.8327348467
 10
-20.6172078205
 20
-17.7603780275
 10
-20.6381032828
 20
-17.6834628078
 10
-20.6539811042
 20
-17.602364122
 10
-20.6647580072
 20
-17.5174874941
 10
-20.670378951
 20
-17.4292524235
  0
LWPOLYLINE
  5
253
100
AcDbEntity
  8
RACCORDO
100
AcDbPolyline
 62
250
  6
CONTINUOUS
 90
9
 70
0
 10
-20.8168415369
 20
-17.251641517
 10
-20.8159929186
 20
-17.2629483335
 10
-20.8101740584
 20
-17.2898274314
 10
-20.7990724158
 20
-17.3161171122
 10
-20.7828069393
 20
-17.3415356948
 10
-20.7615519057
 20
-17.3658108318
 10
-20.7355350522
 20
-17.3886824268
 10
-20.7050351366
 20
-17.409905422
 10
-20.6703789506
 20
-17.4292524233
  0
LWPOLYLINE
  5
254
100
AcDbEntity
  8
0
100
AcDbPolyline
 62
250
  6
CONTINUOUS
 90
9
 70
0
 10
-20.8168415369
 20
-17.251641517
 10
-20.8159929186
 20
-17.2629483335
 10
-20.8101740584
 20
-17.2898274314
 10
-20.7990724158
 20
-17.3161171122
 10
-20.7828069393
 20
-17.3415356948
 10
-20.7615519057
 20
-17.3658108318
 10
-20.7355350522
 20
-17.3886824268
 10
-20.7050351366
 20
-17.409905422
 10
-20.6703789506
 20
-17.4292524233
  0
LINE
  5
255
100
AcDbEntity
  8
268140580
100
AcDbLine
 62
7
  6
CONTINUOUS
 10
-4.9747459748
 20
22.6626006558
 11
-3.6312430906
 21
23.334352098
  0
LINE
  5
256
100
AcDbEntity
  8
268140580
100
AcDbLine
 62
7
  6
CONTINUOUS
 10
-4.0088201486
 20
22.7920101784
 11
-1.8634761376
 21
23.8646821838
  0
LINE
  5
257
100
AcDbEntity
  8
268140580
100
AcDbLine
 62
7
  6
CONTINUOUS
 10
-3.981711185
 20
24.3148379708
 11
-8.5809905589
 21
22.0643562399
  0
LINE
  5
258
100
AcDbEntity
  8
268140580
100
AcDbLine
 62
7
  6
CONTINUOUS
 10
-10.4210902483
 20
21.7963813556
 11
-4.5875443599
 21
24.6177545583
  0
LWPOLYLINE
  5
259
100
AcDbEntity
  8
268140580
100
AcDbPolyline
 62
7
  6
CONTINUOUS
 90
31
 70
0
 10
-4.9747459748
 20
22.6626006558
 10
-4.9496968041
 20
22.6747019304
 10
-4.9238285019
 20
22.6863506276
 10
-4.8971410682
 20
22.6975467472
 10
-4.8695800118
 20
22.7083118184
 10
-4.8411998239
 20
22.7186243121
 10
-4.8121639783
 20
22.7284196412
 10
-4.7824744894
 20
22.7376891853
 10
-4.7521293429
 20
22.7464415648
 10
-4.7212859699
 20
22.7546380535
 10
-4.6899907394
 20
22.7622667351
 10
-4.6581972825
 20
22.7693395258
 10
-4.6259239242
 20
22.7758534488
 10
-4.5931330852
 20
22.7818168404
 10
-4.5598623449
 20
22.7872213642
 10
-4.5262427662
 20
22.7920390334
 10
-4.4922537885
 20
22.7962672911
 10
-4.4579159723
 20
22.7999086943
 10
-4.4234220625
 20
22.8029429267
 10
-4.3887918736
 20
22.8053635581
 10
-4.354005591
 20
22.8071770188
 10
-4.3191965155
 20
22.8083822837
 10
-4.2843793876
 20
22.8089778967
 10
-4.2495394668
 20
22.8089653138
 10
-4.2147658317
 20
22.808347878
 10
-4.1800464727
 20
22.8071244021
 10
-4.1453933994
 20
22.8052960732
 10
-4.1109317196
 20
22.802869796
 10
-4.0767031358
 20
22.7998478719
 10
-4.0426659455
 20
22.7962279993
 10
-4.0088201486
 20
22.7920101784
  0
LINE
  5
25A
100
AcDbEntity
  8
RACCORDO
100
AcDbLine
 62
250
  6
CONTINUOUS
 10
-2.0927832635
 20
25.7431077893
 11
-3.6487402088
 21
25.0093228044
  0
LINE
  5
25B
100
AcDbEntity
  8
268140580
100
AcDbLine
 62
250
  6
CONTINUOUS
 10
1.2477936996
 20
-24.2804615752
 11
0.7174636137
 21
-24.1706266181
  0
LINE
  5
25C
100
AcDbEntity
  8
268140580
100
AcDbLine
 62
250
  6
CONTINUOUS
 10
1.1594053519
 20
-23.9603790537
 11
0.6290752661
 21
-23.8505440967
  0
LWPOLYLINE
  5
25D
100
AcDbEntity
  8
268140580
100
AcDbPolyline
 62
250
  6
CONTINUOUS
 90
25
 70
0
 10
0.7174636137
 20
-24.1706266181
 10
0.7044371341
 20
-24.1674771836
 10
0.6917702591
 20
-24.1634627539
 10
0.6794629886
 20
-24.1585833292
 10
0.6674843921
 20
-24.1528305129
 10
0.6558654001
 20
-24.1462127015
 10
0.6446988051
 20
-24.1387550845
 10
0.6339897282
 20
-24.1304490805
 10
0.6237330483
 20
-24.1213032708
 10
0.614006194
 20
-24.1113685896
 10
0.6048146301
 20
-24.1006374404
 10
0.5961528919
 20
-24.0891174197
 10
0.5880820138
 20
-24.0768822508
 10
0.5806077571
 20
-24.0639255957
 10
0.5737243606
 20
-24.0502537925
 10
0.5674755748
 20
-24.035959579
 10
0.5618668827
 20
-24.0210329804
 10
0.5568928014
 20
-24.0054839717
 10
0.5525806319
 20
-23.9894352149
 10
0.5489385652
 20
-23.9728860543
 10
0.5459584103
 20
-23.9558371457
 10
0.5436428954
 20
-23.9384131195
 10
0.5419929298
 20
-23.9206555192
 10
0.5410076041
 20
-23.9025228013
 10
0.5406869184
 20
-23.8840149658
  0
LWPOLYLINE
  5
25E
100
AcDbEntity
  8
268140580
100
AcDbPolyline
 62
250
  6
CONTINUOUS
 90
3
 70
0
 10
0.6290752661
 20
-23.8505440967
 10
0.622576268
 20
-23.8489670405
 10
0.6205023467
 20
-23.8483100553
  0
LWPOLYLINE
  5
25F
100
AcDbEntity
  8
268140580
100
AcDbPolyline
 62
250
  6
CONTINUOUS
 90
4
 70
0
 10
1.1594053519
 20
-23.9603790537
 10
1.1681573855
 20
-23.9626146197
 10
1.1765807267
 20
-23.9656266009
 10
1.1827824434
 20
-23.9684474607
  0
LWPOLYLINE
  5
260
100
AcDbEntity
  8
268140580
100
AcDbPolyline
 62
250
  6
CONTINUOUS
 90
17
 70
0
 10
-1.9518644853
 20
-23.7975110881
 10
-1.9619935969
 20
-23.7926142135
 10
-1.9717893566
 20
-23.78821881
 10
-1.9812186187
 20
-23.7843397501
 10
-1.9902494774
 20
-23.7809901594
 10
-1.9988513754
 20
-23.7781813719
 10
-2.0069952063
 20
-23.7759228916
 10
-2.0146534142
 20
-23.7742223604
 10
-2.021800086
 20
-23.7730855325
 10
-2.0284110397
 20
-23.7725162545
 10
-2.0344639059
 20
-23.7725164526
 10
-2.0399382037
 20
-23.7730861262
 10
-2.0448154096
 20
-23.7742233477
 10
-2.0490790208
 20
-23.7759242692
 10
-2.0527146107
 20
-23.7781831351
 10
-2.0557098774
 20
-23.7809923022
 10
-2.0559951757
 20
-23.7813289211
  0
LINE
  5
261
100
AcDbEntity
  8
268140580
100
AcDbLine
 62
7
  6
CONTINUOUS
 10
-2.5056096224
 20
-25.1728992835
 11
-1.1621067381
 21
-25.8446507257
  0
LINE
  5
262
100
AcDbEntity
  8
268140580
100
AcDbLine
 62
250
  6
CONTINUOUS
 10
-2.5705829188
 20
-25.0376808334
 11
-1.2270800346
 21
-25.7094322756
  0
LINE
  5
263
100
AcDbEntity
  8
268140580
100
AcDbLine
 62
250
  6
CONTINUOUS
 10
-1.2270800346
 20
-25.341121747
 11
-2.4483251698
 21
-24.7304991794
  0
LINE
  5
264
100
AcDbEntity
  8
268140580
100
AcDbLine
 62
250
  6
CONTINUOUS
 10
-1.1386916869
 20
-25.1094275732
 11
-2.3676514903
 21
-24.4949476715
  0
LINE
  5
265
100
AcDbEntity
  8
268140580
100
AcDbLine
 62
250
  6
CONTINUOUS
 10
-0.608361601
 20
-24.4692625302
 11
-1.9518644853
 21
-23.7975110881
  0
LWPOLYLINE
  5
266
100
AcDbEntity
  8
268140580
100
AcDbPolyline
 62
250
  6
CONTINUOUS
 90
17
 70
0
 10
-1.162111524
 20
-25.8446483326
 10
-1.163275347
 20
-25.8440561706
 10
-1.1710318008
 20
-25.8395598513
 10
-1.1783751974
 20
-25.8343159073
 10
-1.1852804124
 20
-25.8283422803
 10
-1.1917238204
 20
-25.8216594081
 10
-1.1976833761
 20
-25.8142901554
 10
-1.2031386896
 20
-25.8062597352
 10
-1.2080710962
 20
-25.7975956224
 10
-1.2124637205
 20
-25.7883274604
 10
-1.2163015334
 20
-25.7784869589
 10
-1.2195714046
 20
-25.768107786
 10
-1.2222621464
 20
-25.7572254527
 10
-1.2243645529
 20
-25.7458771915
 10
-1.225871431
 20
-25.734101829
 10
-1.226777625
 20
-25.7219396533
 10
-1.2270800346
 20
-25.7094322756
  0
LWPOLYLINE
  5
267
100
AcDbEntity
  8
268140580
100
AcDbPolyline
 62
250
  6
CONTINUOUS
 90
16
 70
0
 10
-2.5705829188
 20
-25.0376808334
 10
-2.579594322
 20
-25.0329327609
 10
-2.5880962939
 20
-25.0279553241
 10
-2.596065517
 20
-25.0227621703
 10
-2.6034801426
 20
-25.017367532
 10
-2.6103198248
 20
-25.0117862064
 10
-2.6165657835
 20
-25.0060335169
 10
-2.6222008883
 20
-25.0001252437
 10
-2.6272096938
 20
-24.994077584
 10
-2.6315784628
 20
-24.9879071275
 10
-2.6352952186
 20
-24.9816307962
 10
-2.6383497734
 20
-24.9752658001
 10
-2.6407337538
 20
-24.9688295965
 10
-2.6424406288
 20
-24.9623398276
 10
-2.6434657195
 20
-24.9558142962
 10
-2.6438062235
 20
-24.9492924858
  0
LWPOLYLINE
  5
268
100
AcDbEntity
  8
0
100
AcDbPolyline
 62
250
  6
CONTINUOUS
 90
10
 70
0
 10
-21.1106311765
 20
0.7409318727
 10
-21.1083871258
 20
0.7196712209
 10
-21.1024462285
 20
0.6985588135
 10
-21.0928589528
 20
0.6777534989
 10
-21.0796790756
 20
0.6574111974
 10
-21.0630058515
 20
0.6376792464
 10
-21.042967775
 20
0.6187014784
 10
-21.0196941431
 20
0.6006195198
 10
-20.9933548846
 20
0.5835703056
 10
-20.9641922171
 20
0.5676870402
  0
LWPOLYLINE
  5
269
100
AcDbEntity
  8
RACCORDO
100
AcDbPolyline
 62
250
  6
CONTINUOUS
 90
10
 70
0
 10
-21.1106311765
 20
0.7409318727
 10
-21.1083871258
 20
0.7196712209
 10
-21.1024462285
 20
0.6985588135
 10
-21.0928589528
 20
0.6777534989
 10
-21.0796790756
 20
0.6574111974
 10
-21.0630058515
 20
0.6376792464
 10
-21.042967775
 20
0.6187014784
 10
-21.0196941431
 20
0.6006195198
 10
-20.9933548846
 20
0.5835703056
 10
-20.9641922171
 20
0.5676870402
  0
LWPOLYLINE
  5
26A
100
AcDbEntity
  8
0
100
AcDbPolyline
 62
250
  6
CONTINUOUS
 90
8
 70
0
 10
-20.9642028834
 20
0.5676817197
 10
-20.963032853
 20
0.5458963459
 10
-20.9595136712
 20
0.5256579642
 10
-20.9537042828
 20
0.5073055595
 10
-20.9457019929
 20
0.491146527
 10
-20.9356408364
 20
0.4774515237
 10
-20.9236893334
 20
0.4664499354
 10
-20.9122943997
 20
0.4594060034
  0
LWPOLYLINE
  5
26B
100
AcDbEntity
  8
RACCORDO
100
AcDbPolyline
 62
250
  6
CONTINUOUS
 90
8
 70
0
 10
-20.9642028834
 20
0.5676817197
 10
-20.963032853
 20
0.5458963459
 10
-20.9595136712
 20
0.5256579642
 10
-20.9537042828
 20
0.5073055595
 10
-20.9457019929
 20
0.491146527
 10
-20.9356408364
 20
0.4774515237
 10
-20.9236893334
 20
0.4664499354
 10
-20.9122943997
 20
0.4594060034
  0
LWPOLYLINE
  5
26C
100
AcDbEntity
  8
RACCORDO
100
AcDbPolyline
 62
7
  6
CONTINUOUS
 90
15
 70
0
 10
-20.8168354594
 20
-17.2516413094
 10
-20.8137960114
 20
-17.3090942181
 10
-20.8033744978
 20
-17.4066490439
 10
-20.7866440062
 20
-17.5000911691
 10
-20.7638278898
 20
-17.5891471678
 10
-20.7351402158
 20
-17.6737322407
 10
-20.7007368539
 20
-17.75377882
 10
-20.6608307637
 20
-17.8290309534
 10
-20.6156783638
 20
-17.8992513286
 10
-20.565524935
 20
-17.9642281947
 10
-20.5107070392
 20
-18.0236451991
 10
-20.4516236461
 20
-18.0772200011
 10
-20.3887247731
 20
-18.1247207256
 10
-20.3225207869
 20
-18.1659314686
 10
-20.2850288896
 20
-18.1857874258
  0
LWPOLYLINE
  5
26D
100
AcDbEntity
  8
0
100
AcDbPolyline
 62
7
  6
CONTINUOUS
 90
15
 70
0
 10
-20.8168354594
 20
-17.2516413094
 10
-20.8137960114
 20
-17.3090942181
 10
-20.8033744978
 20
-17.4066490439
 10
-20.7866440062
 20
-17.5000911691
 10
-20.7638278898
 20
-17.5891471678
 10
-20.7351402158
 20
-17.6737322407
 10
-20.7007368539
 20
-17.75377882
 10
-20.6608307637
 20
-17.8290309534
 10
-20.6156783638
 20
-17.8992513286
 10
-20.565524935
 20
-17.9642281947
 10
-20.5107070392
 20
-18.0236451991
 10
-20.4516236461
 20
-18.0772200011
 10
-20.3887247731
 20
-18.1247207256
 10
-20.3225207869
 20
-18.1659314686
 10
-20.2850288896
 20
-18.1857874258
  0
LWPOLYLINE
  5
26E
100
AcDbEntity
  8
0
100
AcDbPolyline
 62
250
  6
CONTINUOUS
 90
9
 70
0
 10
-20.8168641565
 20
18.3636547259
 10
-20.8159866968
 20
18.3456357118
 10
-20.8101674662
 20
18.3211056518
 10
-20.7990655654
 20
18.2968585854
 10
-20.7827999437
 20
18.2731543035
 10
-20.7615448762
 20
18.2502467813
 10
-20.7355280964
 20
18.2283814573
 10
-20.7050283564
 20
18.2077926036
 10
-20.6703724402
 20
18.1887008158
  0
LWPOLYLINE
  5
26F
100
AcDbEntity
  8
RACCORDO
100
AcDbPolyline
 62
250
  6
CONTINUOUS
 90
9
 70
0
 10
-20.8168641565
 20
18.3636547259
 10
-20.8159866968
 20
18.3456357118
 10
-20.8101674662
 20
18.3211056518
 10
-20.7990655654
 20
18.2968585854
 10
-20.7827999437
 20
18.2731543035
 10
-20.7615448762
 20
18.2502467813
 10
-20.7355280964
 20
18.2283814573
 10
-20.7050283564
 20
18.2077926036
 10
-20.6703724402
 20
18.1887008158
  0
LWPOLYLINE
  5
270
100
AcDbEntity
  8
RACCORDO
100
AcDbPolyline
 62
250
  6
CONTINUOUS
 90
10
 70
0
 10
-20.670378951
 20
-17.4292524235
 10
-20.7309543328
 20
-15.5204479567
 10
-20.7845485264
 20
-13.6077552161
 10
-20.8311609326
 20
-11.6912129366
 10
-20.8707905257
 20
-9.7708895616
 10
-20.903437781
 20
-7.8467944467
 10
-20.9291035798
 20
-5.9188772835
 10
-20.9477871497
 20
-3.9871467715
 10
-20.9594871602
 20
-2.0516711937
 10
-20.9642028834
 20
-0.1124892171
  0
LWPOLYLINE
  5
271
100
AcDbEntity
  8
0
100
AcDbPolyline
 62
250
  6
CONTINUOUS
 90
10
 70
0
 10
-20.670378951
 20
-17.4292524235
 10
-20.7309543328
 20
-15.5204479567
 10
-20.7845485264
 20
-13.6077552161
 10
-20.8311609326
 20
-11.6912129366
 10
-20.8707905257
 20
-9.7708895616
 10
-20.903437781
 20
-7.8467944467
 10
-20.9291035798
 20
-5.9188772835
 10
-20.9477871497
 20
-3.9871467715
 10
-20.9594871602
 20
-2.0516711937
 10
-20.9642028834
 20
-0.1124892171
  0
LWPOLYLINE
  5
272
100
AcDbEntity
  8
0
100
AcDbPolyline
 62
7
  6
CONTINUOUS
 90
13
 70
0
 10
-21.1106502261
 20
0.7431940095
 10
-21.1106342688
 20
0.7400378582
 10
-21.1087002104
 20
0.7105084038
 10
-21.1035217291
 20
0.6810883283
 10
-21.0950650558
 20
0.6519832834
 10
-21.0833235495
 20
0.6234743899
 10
-21.0683517334
 20
0.5958938052
 10
-21.050173603
 20
0.5694352886
 10
-21.0288278958
 20
0.5442734942
 10
-21.0043820117
 20
0.5205903241
 10
-20.9767752735
 20
0.4984508549
 10
-20.94589523
 20
0.4779212566
 10
-20.9122907141
 20
0.4594133428
  0
LWPOLYLINE
  5
273
100
AcDbEntity
  8
RACCORDO
100
AcDbPolyline
 62
7
  6
CONTINUOUS
 90
13
 70
0
 10
-21.1106502261
 20
0.7431940095
 10
-21.1106342688
 20
0.7400378582
 10
-21.1087002104
 20
0.7105084038
 10
-21.1035217291
 20
0.6810883283
 10
-21.0950650558
 20
0.6519832834
 10
-21.0833235495
 20
0.6234743899
 10
-21.0683517334
 20
0.5958938052
 10
-21.050173603
 20
0.5694352886
 10
-21.0288278958
 20
0.5442734942
 10
-21.0043820117
 20
0.5205903241
 10
-20.9767752735
 20
0.4984508549
 10
-20.94589523
 20
0.4779212566
 10
-20.9122907141
 20
0.4594133428
  0
LWPOLYLINE
  5
274
100
AcDbEntity
  8
RACCORDO
100
AcDbPolyline
 62
7
  6
CONTINUOUS
 90
10
 70
0
 10
-21.1106502965
 20
0.0655775305
 10
-21.1060813698
 20
-1.8397039692
 10
-21.0944318095
 20
-3.7849656065
 10
-21.0757274559
 20
-5.7264986048
 10
-21.0499685796
 20
-7.6642585973
 10
-21.0171556807
 20
-9.5982086984
 10
-20.9772892726
 20
-11.5283146062
 10
-20.9303699934
 20
-13.4545391665
 10
-20.876398958
 20
-15.3768381048
 10
-20.816842754
 20
-17.2516054316
  0
LWPOLYLINE
  5
275
100
AcDbEntity
  8
0
100
AcDbPolyline
 62
7
  6
CONTINUOUS
 90
10
 70
0
 10
-21.1106502965
 20
0.0655775305
 10
-21.1060813698
 20
-1.8397039692
 10
-21.0944318095
 20
-3.7849656065
 10
-21.0757274559
 20
-5.7264986048
 10
-21.0499685796
 20
-7.6642585973
 10
-21.0171556807
 20
-9.5982086984
 10
-20.9772892726
 20
-11.5283146062
 10
-20.9303699934
 20
-13.4545391665
 10
-20.876398958
 20
-15.3768381048
 10
-20.816842754
 20
-17.2516054316
  0
LWPOLYLINE
  5
276
100
AcDbEntity
  8
0
100
AcDbPolyline
 62
250
  6
CONTINUOUS
 90
10
 70
0
 10
-20.9642028834
 20
0.5676817197
 10
-20.9594871602
 20
2.5117468516
 10
-20.9477871497
 20
4.4593377131
 10
-20.9291035798
 20
6.4104149095
 10
-20.903437781
 20
8.3649088327
 10
-20.8707905257
 20
10.3228100054
 10
-20.8311609326
 20
12.2841696013
 10
-20.7845485264
 20
14.248978735
 10
-20.7309543328
 20
16.2171679426
 10
-20.670378951
 20
18.18869789
  0
LWPOLYLINE
  5
277
100
AcDbEntity
  8
RACCORDO
100
AcDbPolyline
 62
250
  6
CONTINUOUS
 90
10
 70
0
 10
-20.9642028834
 20
0.5676817197
 10
-20.9594871602
 20
2.5117468516
 10
-20.9477871497
 20
4.4593377131
 10
-20.9291035798
 20
6.4104149095
 10
-20.903437781
 20
8.3649088327
 10
-20.8707905257
 20
10.3228100054
 10
-20.8311609326
 20
12.2841696013
 10
-20.7845485264
 20
14.248978735
 10
-20.7309543328
 20
16.2171679426
 10
-20.670378951
 20
18.18869789
  0
LWPOLYLINE
  5
278
100
AcDbEntity
  8
0
100
AcDbPolyline
 62
7
  6
CONTINUOUS
 90
10
 70
0
 10
-20.8168613794
 20
18.3637412883
 10
-20.876520478
 20
16.4237476767
 10
-20.930474048
 20
14.4457193585
 10
-20.9773768432
 20
12.4710485145
 10
-21.0172276189
 20
10.4997806292
 10
-21.050025607
 20
8.531953581
 10
-21.0757701634
 20
6.5676022819
 10
-21.0944606581
 20
4.6067642126
 10
-21.1060966906
 20
2.6494840938
 10
-21.1106502978
 20
0.7431653098
  0
LWPOLYLINE
  5
279
100
AcDbEntity
  8
RACCORDO
100
AcDbPolyline
 62
7
  6
CONTINUOUS
 90
10
 70
0
 10
-20.8168613794
 20
18.3637412883
 10
-20.876520478
 20
16.4237476767
 10
-20.930474048
 20
14.4457193585
 10
-20.9773768432
 20
12.4710485145
 10
-21.0172276189
 20
10.4997806292
 10
-21.050025607
 20
8.531953581
 10
-21.0757701634
 20
6.5676022819
 10
-21.0944606581
 20
4.6067642126
 10
-21.1060966906
 20
2.6494840938
 10
-21.1106502978
 20
0.7431653098
  0
LWPOLYLINE
  5
27A
100
AcDbEntity
  8
RACCORDO
100
AcDbPolyline
 62
250
  6
CONTINUOUS
 90
13
 70
0
 10
-20.9642028834
 20
-0.1124892171
 10
-20.9630327778
 20
-0.0895330779
 10
-20.9595133965
 20
-0.0657748524
 10
-20.9537037232
 20
-0.0416125109
 10
-20.9457010962
 20
-0.0174507654
 10
-20.9356395942
 20
0.0063056546
 10
-20.9236878031
 20
0.0292587862
 10
-20.9100459549
 20
0.0510241817
 10
-20.8949425736
 20
0.0712373162
 10
-20.8786306786
 20
0.0895596477
 10
-20.861383512
 20
0.1056843375
 10
-20.8434899559
 20
0.1193413806
 10
-20.8252497128
 20
0.1303021042
  0
LWPOLYLINE
  5
27B
100
AcDbEntity
  8
0
100
AcDbPolyline
 62
250
  6
CONTINUOUS
 90
13
 70
0
 10
-20.9642028834
 20
-0.1124892171
 10
-20.9630327778
 20
-0.0895330779
 10
-20.9595133965
 20
-0.0657748524
 10
-20.9537037232
 20
-0.0416125109
 10
-20.9457010962
 20
-0.0174507654
 10
-20.9356395942
 20
0.0063056546
 10
-20.9236878031
 20
0.0292587862
 10
-20.9100459549
 20
0.0510241817
 10
-20.8949425736
 20
0.0712373162
 10
-20.8786306786
 20
0.0895596477
 10
-20.861383512
 20
0.1056843375
 10
-20.8434899559
 20
0.1193413806
 10
-20.8252497128
 20
0.1303021042
  0
LWPOLYLINE
  5
27C
100
AcDbEntity
  8
0
100
AcDbPolyline
 62
250
  6
CONTINUOUS
 90
22
 70
0
 10
-20.670378951
 20
18.18869789
 10
-20.6647580072
 20
18.2826893927
 10
-20.6539811042
 20
18.3785962378
 10
-20.6381032828
 20
18.4759438848
 10
-20.6172078205
 20
18.5742464867
 10
-20.5913981426
 20
18.6730227294
 10
-20.5607946772
 20
18.7717983466
 10
-20.5255448281
 20
18.8700997934
 10
-20.485826981
 20
18.967427172
 10
-20.441844016
 20
19.0632712633
 10
-20.3938293638
 20
19.1571411181
 10
-20.3420158584
 20
19.2485950064
 10
-20.2866348571
 20
19.3372108766
 10
-20.2279491887
 20
19.4225685699
 10
-20.1662616356
 20
19.5042260201
 10
-20.1018868546
 20
19.5817524723
 10
-20.0351584142
 20
19.6547568463
 10
-19.9664009697
 20
19.7228930294
 10
-19.895934669
 20
19.7858320301
 10
-19.8241035428
 20
19.8432643868
 10
-19.7512748736
 20
19.8949046755
 10
-19.677813076
 20
19.9404979112
  0
LWPOLYLINE
  5
27D
100
AcDbEntity
  8
RACCORDO
100
AcDbPolyline
 62
250
  6
CONTINUOUS
 90
22
 70
0
 10
-20.670378951
 20
18.18869789
 10
-20.6647580072
 20
18.2826893927
 10
-20.6539811042
 20
18.3785962378
 10
-20.6381032828
 20
18.4759438848
 10
-20.6172078205
 20
18.5742464867
 10
-20.5913981426
 20
18.6730227294
 10
-20.5607946772
 20
18.7717983466
 10
-20.5255448281
 20
18.8700997934
 10
-20.485826981
 20
18.967427172
 10
-20.441844016
 20
19.0632712633
 10
-20.3938293638
 20
19.1571411181
 10
-20.3420158584
 20
19.2485950064
 10
-20.2866348571
 20
19.3372108766
 10
-20.2279491887
 20
19.4225685699
 10
-20.1662616356
 20
19.5042260201
 10
-20.1018868546
 20
19.5817524723
 10
-20.0351584142
 20
19.6547568463
 10
-19.9664009697
 20
19.7228930294
 10
-19.895934669
 20
19.7858320301
 10
-19.8241035428
 20
19.8432643868
 10
-19.7512748736
 20
19.8949046755
 10
-19.677813076
 20
19.9404979112
  0
LWPOLYLINE
  5
27E
100
AcDbEntity
  8
268140580
100
AcDbPolyline
 62
250
  6
CONTINUOUS
 90
27
 70
0
 10
-14.2378448084
 20
22.6406414746
 10
-14.2427129634
 20
22.6286366716
 10
-14.2480523078
 20
22.6169070393
 10
-14.2538482067
 20
22.6054847277
 10
-14.2600847741
 20
22.5944010446
 10
-14.266744916
 20
22.5836863697
 10
-14.2738103772
 20
22.5733700711
 10
-14.281261792
 20
22.563480425
 10
-14.2890787365
 20
22.5540445383
 10
-14.297239785
 20
22.5450882741
 10
-14.3057225686
 20
22.5366361809
 10
-14.3145038366
 20
22.5287114253
 10
-14.3235595202
 20
22.5213357285
 10
-14.3328647984
 20
22.5145293068
 10
-14.342394166
 20
22.5083108161
 10
-14.3521215037
 20
22.5026973008
 10
-14.3620201496
 20
22.4977041472
 10
-14.3720629721
 20
22.4933450413
 10
-14.3822224446
 20
22.4896319309
 10
-14.3924707207
 20
22.4865749935
 10
-14.4027797105
 20
22.484182608
 10
-14.4131211579
 20
22.4824613316
 10
-14.4234667176
 20
22.4814158824
 10
-14.4337880332
 20
22.4810491257
 10
-14.4440568146
 20
22.4813620669
 10
-14.454244916
 20
22.4823538482
 10
-14.4653222563
 20
22.4842249332
  0
LWPOLYLINE
  5
27F
100
AcDbEntity
  8
268140580
100
AcDbPolyline
 62
250
  6
CONTINUOUS
 90
25
 70
0
 10
-13.7075147225
 20
22.5308065176
 10
-13.7129531459
 20
22.517484193
 10
-13.7189713262
 20
22.5045060307
 10
-13.7255488992
 20
22.4919159448
 10
-13.7326636081
 20
22.4797565358
 10
-13.7402913783
 20
22.4680689474
 10
-13.7484063991
 20
22.456892727
 10
-13.7569812112
 20
22.4462656911
 10
-13.7659867997
 20
22.4362237978
 10
-13.7753926919
 20
22.4268010254
 10
-13.7851670607
 20
22.4180292572
 10
-13.7952768325
 20
22.4099381735
 10
-13.8056877987
 20
22.4025551513
 10
-13.8163647314
 20
22.3959051718
 10
-13.8272715032
 20
22.3900107357
 10
-13.8383712092
 20
22.384891787
 10
-13.8496262911
 20
22.3805656461
 10
-13.8609986655
 20
22.3770469506
 10
-13.8724498523
 20
22.3743476056
 10
-13.8839411044
 20
22.3724767444
 10
-13.8954335392
 20
22.3714406967
 10
-13.9068882707
 20
22.3712429677
 10
-13.91826654
 20
22.3718842259
 10
-13.9295298469
 20
22.3733623011
 10
-13.9349921704
 20
22.3743899762
  0
LINE
  5
280
100
AcDbEntity
  8
268140580
100
AcDbLine
 62
7
  6
CONTINUOUS
 10
-4.0088201486
 20
22.1857923957
 11
-2.5163012966
 21
22.9320518217
  0
LWPOLYLINE
  5
281
100
AcDbEntity
  8
RACCORDO
100
AcDbPolyline
 62
7
  6
CONTINUOUS
 90
6
 70
0
 10
-4.9041530702
 20
21.446722727
 10
-4.9114377095
 20
21.4431297537
 10
-4.9195190824
 20
21.438574407
 10
-4.927320682
 20
21.4335489645
 10
-4.9348405525
 20
21.4280549298
 10
-4.9421622939
 20
21.4220160091
  0
LINE
  5
282
100
AcDbEntity
  8
RACCORDO
100
AcDbLine
 62
250
  6
CONTINUOUS
 10
-4.6311936381
 20
21.4554437584
 11
-4.5842633962
 21
21.4780913448
  0
LINE
  5
283
100
AcDbEntity
  8
RACCORDO
100
AcDbLine
 62
250
  6
CONTINUOUS
 10
-4.5842633962
 20
21.4780913448
 11
-4.5724279555
 21
21.4837280211
  0
LINE
  5
284
100
AcDbEntity
  8
RACCORDO
100
AcDbLine
 62
250
  6
CONTINUOUS
 10
-4.6416418562
 20
21.4504688374
 11
-4.6311936381
 21
21.4554437584
  0
LINE
  5
285
100
AcDbEntity
  8
RACCORDO
100
AcDbLine
 62
250
  6
CONTINUOUS
 10
-4.5724279555
 20
21.4837280211
 11
-4.5633067519
 21
21.4880191796
  0
LINE
  5
286
100
AcDbEntity
  8
RACCORDO
100
AcDbLine
 62
250
  6
CONTINUOUS
 10
-4.6493791205
 20
21.4468338052
 11
-4.6416418562
 21
21.4504688374
  0
LINE
  5
287
100
AcDbEntity
  8
RACCORDO
100
AcDbLine
 62
250
  6
CONTINUOUS
 10
-4.5633067519
 20
21.4880191796
 11
-4.5539596304
 21
21.4923593831
  0
LINE
  5
288
100
AcDbEntity
  8
RACCORDO
100
AcDbLine
 62
250
  6
CONTINUOUS
 10
-4.6919571103
 20
21.4271569231
 11
-4.6493791205
 21
21.4468338052
  0
LINE
  5
289
100
AcDbEntity
  8
RACCORDO
100
AcDbLine
 62
7
  6
CONTINUOUS
 10
-4.8529222625
 20
21.4703418188
 11
-4.9041541759
 21
21.4467222163
  0
LINE
  5
28A
100
AcDbEntity
  8
RACCORDO
100
AcDbLine
 62
250
  6
CONTINUOUS
 10
-4.5539596304
 20
21.4923593831
 11
-4.5443726422
 21
21.4967432857
  0
LWPOLYLINE
  5
28B
100
AcDbEntity
  8
RACCORDO
100
AcDbPolyline
 62
250
  6
CONTINUOUS
 90
17
 70
0
 10
-3.6999842712
 20
21.5544624584
 10
-3.6941708258
 20
21.5570983259
 10
-3.6883713948
 20
21.5594345822
 10
-3.6825957925
 20
21.5614672739
 10
-3.6768537925
 20
21.563192961
 10
-3.6711551117
 20
21.5646087234
 10
-3.6655093939
 20
21.5657121652
 10
-3.659926193
 20
21.5665014191
 10
-3.6544149572
 20
21.5669751494
 10
-3.6489850128
 20
21.5671325546
 10
-3.6436455489
 20
21.5669733682
 10
-3.638405601
 20
21.5664978596
 10
-3.6332740365
 20
21.5657068336
 10
-3.6282595394
 20
21.5646016287
 10
-3.6233705953
 20
21.5631841153
 10
-3.6186154778
 20
21.561456692
 10
-3.614079565
 20
21.5594563849
  0
LWPOLYLINE
  5
28C
100
AcDbEntity
  8
RACCORDO
100
AcDbPolyline
 62
250
  6
CONTINUOUS
 90
22
 70
0
 10
-4.8703078268
 20
21.462353582
 10
-4.8671795138
 20
21.4637635139
 10
-4.8579310513
 20
21.467537408
 10
-4.8484714371
 20
21.4708198635
 10
-4.8388107967
 20
21.4736073667
 10
-4.8289594711
 20
21.4758969339
 10
-4.8189280051
 20
21.4776861143
 10
-4.8087271366
 20
21.4789729928
 10
-4.7983677847
 20
21.4797561918
 10
-4.7878610381
 20
21.4800348731
 10
-4.7772181434
 20
21.4798087382
 10
-4.7664504927
 20
21.4790780293
 10
-4.755569612
 20
21.4778435286
 10
-4.7445871483
 20
21.4761065574
 10
-4.7335148572
 20
21.473868975
 10
-4.7223645907
 20
21.4711331766
 10
-4.711148284
 20
21.4679020905
 10
-4.6998779434
 20
21.4641791754
 10
-4.6885656326
 20
21.4599684163
 10
-4.6772234605
 20
21.4552743204
 10
-4.6658635678
 20
21.4501019124
 10
-4.6544981143
 20
21.4444567288
  0
LINE
  5
28D
100
AcDbEntity
  8
RACCORDO
100
AcDbLine
 62
250
  6
CONTINUOUS
 10
-4.5443726422
 20
21.4967432857
 11
-4.5378415305
 21
21.4996874521
  0
LINE
  5
28E
100
AcDbEntity
  8
RACCORDO
100
AcDbLine
 62
250
  6
CONTINUOUS
 10
-4.5378415305
 20
21.4996874521
 11
-4.5311930217
 21
21.5026467138
  0
LINE
  5
28F
100
AcDbEntity
  8
RACCORDO
100
AcDbLine
 62
250
  6
CONTINUOUS
 10
-4.5311930217
 20
21.5026467138
 11
-4.5244239474
 21
21.5056198361
  0
LINE
  5
290
100
AcDbEntity
  8
RACCORDO
100
AcDbLine
 62
250
  6
CONTINUOUS
 10
-4.5244239474
 20
21.5056198361
 11
-4.5175293966
 21
21.5086050144
  0
LINE
  5
291
100
AcDbEntity
  8
RACCORDO
100
AcDbLine
 62
250
  6
CONTINUOUS
 10
-4.5175293966
 20
21.5086050144
 11
-4.510505313
 21
21.5116000096
  0
LINE
  5
292
100
AcDbEntity
  8
RACCORDO
100
AcDbLine
 62
250
  6
CONTINUOUS
 10
-4.510505313
 20
21.5116000096
 11
-4.503348951
 21
21.5146033379
  0
LINE
  5
293
100
AcDbEntity
  8
RACCORDO
100
AcDbLine
 62
250
  6
CONTINUOUS
 10
-4.503348951
 20
21.5146033379
 11
-4.4960562513
 21
21.5176127324
  0
LINE
  5
294
100
AcDbEntity
  8
RACCORDO
100
AcDbLine
 62
250
  6
CONTINUOUS
 10
-4.4960562513
 20
21.5176127324
 11
-4.4886231953
 21
21.5206258543
  0
LINE
  5
295
100
AcDbEntity
  8
RACCORDO
100
AcDbLine
 62
250
  6
CONTINUOUS
 10
-4.4886231953
 20
21.5206258543
 11
-4.4810471568
 21
21.5236411097
  0
LINE
  5
296
100
AcDbEntity
  8
RACCORDO
100
AcDbLine
 62
250
  6
CONTINUOUS
 10
-4.4810471568
 20
21.5236411097
 11
-4.4733242958
 21
21.5266560505
  0
LINE
  5
297
100
AcDbEntity
  8
RACCORDO
100
AcDbLine
 62
250
  6
CONTINUOUS
 10
-4.4733242958
 20
21.5266560505
 11
-4.465450672
 21
21.5296682
  0
LINE
  5
298
100
AcDbEntity
  8
RACCORDO
100
AcDbLine
 62
250
  6
CONTINUOUS
 10
-4.465450672
 20
21.5296682
 11
-4.4574237448
 21
21.5326758574
  0
LINE
  5
299
100
AcDbEntity
  8
RACCORDO
100
AcDbLine
 62
250
  6
CONTINUOUS
 10
-4.4574237448
 20
21.5326758574
 11
-4.4492397373
 21
21.535676432
  0
LINE
  5
29A
100
AcDbEntity
  8
RACCORDO
100
AcDbLine
 62
250
  6
CONTINUOUS
 10
-4.4492397373
 20
21.535676432
 11
-4.440895373
 21
21.5386670755
  0
LINE
  5
29B
100
AcDbEntity
  8
RACCORDO
100
AcDbLine
 62
250
  6
CONTINUOUS
 10
-4.440895373
 20
21.5386670755
 11
-4.432388535
 21
21.5416458525
  0
LINE
  5
29C
100
AcDbEntity
  8
RACCORDO
100
AcDbLine
 62
250
  6
CONTINUOUS
 10
-4.432388535
 20
21.5416458525
 11
-4.4237161673
 21
21.5446097945
  0
LINE
  5
29D
100
AcDbEntity
  8
RACCORDO
100
AcDbLine
 62
250
  6
CONTINUOUS
 10
-4.4237161673
 20
21.5446097945
 11
-4.4148755703
 21
21.5475557482
  0
LINE
  5
29E
100
AcDbEntity
  8
RACCORDO
100
AcDbLine
 62
250
  6
CONTINUOUS
 10
-4.4148755703
 20
21.5475557482
 11
-4.4058650643
 21
21.5504815606
  0
LINE
  5
29F
100
AcDbEntity
  8
RACCORDO
100
AcDbLine
 62
250
  6
CONTINUOUS
 10
-4.4058650643
 20
21.5504815606
 11
-4.3966823001
 21
21.5533839259
  0
LINE
  5
2A0
100
AcDbEntity
  8
RACCORDO
100
AcDbLine
 62
250
  6
CONTINUOUS
 10
-4.3966823001
 20
21.5533839259
 11
-4.387325392
 21
21.5562593431
  0
LINE
  5
2A1
100
AcDbEntity
  8
RACCORDO
100
AcDbLine
 62
250
  6
CONTINUOUS
 10
-4.387325392
 20
21.5562593431
 11
-4.377793004
 21
21.5591054894
  0
LINE
  5
2A2
100
AcDbEntity
  8
RACCORDO
100
AcDbLine
 62
250
  6
CONTINUOUS
 10
-4.377793004
 20
21.5591054894
 11
-4.3680828921
 21
21.5619189321
  0
LINE
  5
2A3
100
AcDbEntity
  8
268140580
100
AcDbLine
 62
250
  6
CONTINUOUS
 10
1.1827824434
 20
-23.9684474607
 11
1.1828204032
 21
-23.9684664298
  0
LINE
  5
2A4
100
AcDbEntity
  8
268140580
100
AcDbLine
 62
250
  6
CONTINUOUS
 10
-0.5199732534
 20
-24.2375683564
 11
-1.8634761376
 21
-23.5658169143
  0
LINE
  5
2A5
100
AcDbEntity
  8
268140580
100
AcDbLine
 62
7
  6
CONTINUOUS
 10
-0.5199732534
 20
-23.6686556291
 11
-0.3031270672
 21
-23.7770787222
  0
LINE
  5
2A6
100
AcDbEntity
  8
268140580
100
AcDbLine
 62
250
  6
CONTINUOUS
 10
0.6290752661
 20
-23.8505440967
 11
0.6197775604
 21
-23.8458952439
  0
LINE
  5
2A7
100
AcDbEntity
  8
268140580
100
AcDbLine
 62
250
  6
CONTINUOUS
 10
0.6139102231
 20
-23.6876314893
 11
1.1594053519
 21
-23.9603790537
  0
LINE
  5
2A8
100
AcDbEntity
  8
268140580
100
AcDbLine
 62
7
  6
CONTINUOUS
 10
0.6139102231
 20
-23.6840113398
 11
1.1828204032
 21
-23.9684664298
  0
LINE
  5
2A9
100
AcDbEntity
  8
CURVE
100
AcDbLine
 62
250
  6
CONTINUOUS
 10
-14.0850201215
 20
-15.7898458719
 11
-14.6153502126
 21
-15.5246808264
  0
LINE
  5
2AA
100
AcDbEntity
  8
268140580
100
AcDbLine
 62
7
  6
CONTINUOUS
 10
-0.0204996544
 20
-22.6008314849
 11
-1.1748832486
 21
-22.0236396878
  0
LINE
  5
2AB
100
AcDbEntity
  8
268140580
100
AcDbLine
 62
7
  6
CONTINUOUS
 10
-0.8151585606
 20
-21.8499486412
 11
0.130763464
 21
-22.3229096535
  0
LWPOLYLINE
  5
2AC
100
AcDbEntity
  8
268140580
100
AcDbPolyline
 62
250
  6
CONTINUOUS
 90
15
 70
0
 10
-1.8634761376
 20
-23.5658169143
 10
-1.8734556855
 20
-23.5605280637
 10
-1.8828033134
 20
-23.5549580316
 10
-1.8914873918
 20
-23.5491256652
 10
-1.8994785363
 20
-23.5430506992
 10
-1.9067497077
 20
-23.5367536893
 10
-1.9132763029
 20
-23.5302559417
 10
-1.9190362379
 20
-23.5235794426
 10
-1.9240100224
 20
-23.5167467831
 10
-1.9281808267
 20
-23.509781082
 10
-1.9315345376
 20
-23.502705909
 10
-1.9340598066
 20
-23.495545204
 10
-1.9357480886
 20
-23.4883231962
 10
-1.9365936702
 20
-23.4810643225
 10
-1.9366994423
 20
-23.4774285666
  0
LWPOLYLINE
  5
2AD
100
AcDbEntity
  8
268140580
100
AcDbPolyline
 62
250
  6
CONTINUOUS
 90
5
 70
0
 10
-12.7555727859
 20
22.3332314627
 10
-12.7530475317
 20
22.3403921769
 10
-12.7513592668
 20
22.3476141914
 10
-12.7505137038
 20
22.3548730694
 10
-12.7504079413
 20
22.3585086593
  0
LWPOLYLINE
  5
2AE
100
AcDbEntity
  8
RACCORDO
100
AcDbPolyline
 62
250
  6
CONTINUOUS
 90
7
 70
0
 10
-20.9037188514
 20
0.2758436294
 10
-20.8961807465
 20
0.2885757085
 10
-20.886481488
 20
0.3010451285
 10
-20.8748801147
 20
0.3129541623
 10
-20.8614629729
 20
0.3242035677
 10
-20.8461437164
 20
0.3348925869
 10
-20.8289223451
 20
0.34502122
  0
LWPOLYLINE
  5
2AF
100
AcDbEntity
  8
0
100
AcDbPolyline
 62
250
  6
CONTINUOUS
 90
7
 70
0
 10
-20.9037188514
 20
0.2758436294
 10
-20.8961807465
 20
0.2885757085
 10
-20.886481488
 20
0.3010451285
 10
-20.8748801147
 20
0.3129541623
 10
-20.8614629729
 20
0.3242035677
 10
-20.8461437164
 20
0.3348925869
 10
-20.8289223451
 20
0.34502122
  0
LINE
  5
2B0
100
AcDbEntity
  8
RACCORDO
100
AcDbLine
 62
7
  6
CONTINUOUS
 10
-5.7980951416
 20
20.6729085313
 11
-4.9421619174
 21
21.4220161893
  0
LINE
  5
2B1
100
AcDbEntity
  8
RACCORDO
100
AcDbLine
 62
250
  6
CONTINUOUS
 10
-5.6441925868
 20
20.5959572539
 11
-4.6935620351
 21
21.4279434488
  0
LINE
  5
2B2
100
AcDbEntity
  8
268140580
100
AcDbLine
 62
7
  6
CONTINUOUS
 10
2.3791645495
 20
21.7433618403
 11
1.8659947743
 21
21.4867769527
  0
LINE
  5
2B3
100
AcDbEntity
  8
268140580
100
AcDbLine
 62
7
  6
CONTINUOUS
 10
-4.1928628851
 20
18.682267674
 11
1.5738694582
 21
21.5370476492
  0
LINE
  5
2B4
100
AcDbEntity
  8
268140580
100
AcDbLine
 62
7
  6
CONTINUOUS
 10
0.9680362833
 20
21.8399642367
 11
-3.6312430906
 21
19.5894825057
  0
LWPOLYLINE
  5
2B5
100
AcDbEntity
  8
268140580
100
AcDbPolyline
 62
7
  6
CONTINUOUS
 90
20
 70
0
 10
2.3791645495
 20
21.7433618403
 10
2.4055420526
 20
21.755954586
 10
2.4318567747
 20
21.7673072299
 10
2.4581087156
 20
21.7774197721
 10
2.4843552875
 20
21.7863112878
 10
2.5105390783
 20
21.7939627018
 10
2.5364878517
 20
21.800316788
 10
2.5621872403
 20
21.8053568082
 10
2.5876516116
 20
21.8090995006
 10
2.6127518318
 20
21.8115378537
 10
2.6374513738
 20
21.8126700501
 10
2.6617867647
 20
21.8124979073
 10
2.6857384517
 20
21.8110198662
 10
2.7093443407
 20
21.8082324302
 10
2.7325665257
 20
21.8041390958
 10
2.7552717355
 20
21.7987487937
 10
2.7774603283
 20
21.7920453975
 10
2.7991319459
 20
21.7840450335
 10
2.8201522424
 20
21.7748050107
 10
2.8263875335
 20
21.7717589331
  0
LWPOLYLINE
  5
2B6
100
AcDbEntity
  8
268140580
100
AcDbPolyline
 62
7
  6
CONTINUOUS
 90
17
 70
0
 10
0.9680362833
 20
21.8399642367
 10
0.9832782887
 20
21.8470290351
 10
0.9984782646
 20
21.8532595045
 10
1.0136362111
 20
21.8586556448
 10
1.0287978767
 20
21.8632327198
 10
1.0439175128
 20
21.8669754658
 10
1.0588578738
 20
21.8698380912
 10
1.0736121502
 20
21.8718046608
 10
1.0881871515
 20
21.8728911097
 10
1.1024660608
 20
21.8730994524
 10
1.1164207833
 20
21.8724259257
 10
1.1300794138
 20
21.8708742927
 10
1.1434094192
 20
21.868457857
 10
1.1564139225
 20
21.8651815348
 10
1.1690898006
 20
21.8610404099
 10
1.1813951519
 20
21.8560330367
 10
1.1885673641
 20
21.85263418
  0
LWPOLYLINE
  5
2B7
100
AcDbEntity
  8
RACCORDO
100
AcDbPolyline
 62
250
  6
CONTINUOUS
 90
26
 70
0
 10
3.8118362681
 20
22.7907980235
 10
3.8310961803
 20
22.7996946346
 10
3.8503326257
 20
22.8079370396
 10
3.8695313192
 20
22.8155191176
 10
3.8886780038
 20
22.8224352383
 10
3.907758461
 20
22.8286802655
 10
3.9267585216
 20
22.8342495617
 10
3.945664076
 20
22.8391389912
 10
3.9644610848
 20
22.843344923
 10
3.9831355894
 20
22.8468642338
 10
4.0016737218
 20
22.84969431
 10
4.0200617156
 20
22.8518330502
 10
4.0382859158
 20
22.853278866
 10
4.0563327889
 20
22.8540306837
 10
4.0741889333
 20
22.8540879451
 10
4.0918410888
 20
22.8534506077
 10
4.109276147
 20
22.8521191447
 10
4.1264811604
 20
22.8500945448
 10
4.1434433525
 20
22.8473783116
 10
4.1601501271
 20
22.8439724622
 10
4.1765890776
 20
22.8398795257
 10
4.1927479963
 20
22.8351025416
 10
4.2086148837
 20
22.8296450574
 10
4.2241779568
 20
22.8235111256
 10
4.2394256584
 20
22.8167053016
 10
4.2467091487
 20
22.8131613531
  0
LINE
  5
2B8
100
AcDbEntity
  8
RACCORDO
100
AcDbLine
 62
250
  6
CONTINUOUS
 10
12.0486378756
 20
25.5922997351
 11
5.9144839956
 21
22.7593441944
  0
LWPOLYLINE
  5
2B9
100
AcDbEntity
  8
RACCORDO
100
AcDbPolyline
 62
7
  6
CONTINUOUS
 90
81
 70
0
 10
11.6170184506
 20
25.6280934414
 10
5.480158397
 20
22.793897202
 10
5.4735425104
 20
22.7909378073
 10
5.4663999115
 20
22.7878511159
 10
5.4587230853
 20
22.7846476636
 10
5.4505093721
 20
22.7813399448
 10
5.441761498
 20
22.7779423828
 10
5.4324757711
 20
22.7744664896
 10
5.4226500489
 20
22.7709241439
 10
5.4122914657
 20
22.7673302307
 10
5.401400704
 20
22.7636970041
 10
5.3899769996
 20
22.760035948
 10
5.378027214
 20
22.7563605974
 10
5.3655538062
 20
22.752682736
 10
5.3525588663
 20
22.749013952
 10
5.3390498972
 20
22.7453669897
 10
5.3250308475
 20
22.7417531558
 10
5.3105067362
 20
22.738183851
 10
5.2954878031
 20
22.7346715428
 10
5.2799778366
 20
22.7312267293
 10
5.2639866261
 20
22.727860889
 10
5.2475350107
 20
22.724587404
 10
5.2306293711
 20
22.7214162305
 10
5.2132824566
 20
22.7183581046
 10
5.1955269121
 20
22.715426451
 10
5.1773750967
 20
22.7126306267
 10
5.1588396936
 20
22.7099796254
 10
5.139956113
 20
22.7074848288
 10
5.120739679
 20
22.7051540995
 10
5.1012050325
 20
22.7029949753
 10
5.0813882675
 20
22.7010165199
 10
5.0613065328
 20
22.6992248821
 10
5.0409765684
 20
22.69762602
 10
5.0204350608
 20
22.6962267123
 10
4.9997002741
 20
22.6950314025
 10
4.9787908099
 20
22.6940442705
 10
4.9577447164
 20
22.6932698367
 10
4.9365804217
 20
22.6927108211
 10
4.9153184325
 20
22.6923695266
 10
4.894000459
 20
22.6922480684
 10
4.8726461817
 20
22.6923473455
 10
4.8512759602
 20
22.6926676598
 10
4.8299326781
 20
22.6932083748
 10
4.8086366292
 20
22.6939684727
 10
4.7874074914
 20
22.6949463336
 10
4.7662869384
 20
22.6961385668
 10
4.7452953058
 20
22.6975422094
 10
4.7244509803
 20
22.6991538526
 10
4.7037920366
 20
22.7009677253
 10
4.6833368152
 20
22.7029790982
 10
4.6631034677
 20
22.7051828493
 10
4.6431287751
 20
22.7075709237
 10
4.6234293428
 20
22.7101368192
 10
4.6040218994
 20
22.7128738076
 10
4.5849420506
 20
22.7157716212
 10
4.5662043459
 20
22.7188221525
 10
4.5478234783
 20
22.7220171139
 10
4.5298334937
 20
22.725344113
 10
4.5122466876
 20
22.7287936832
 10
4.4950750112
 20
22.7323561054
 10
4.4783497055
 20
22.7360171408
 10
4.4620830247
 20
22.739765624
 10
4.44628104
 20
22.7435913466
 10
4.4309634425
 20
22.7474805189
 10
4.4161394238
 20
22.751421391
 10
4.4018125699
 20
22.7554032628
 10
4.387992574
 20
22.7594133862
 10
4.3746839004
 20
22.7634403051
 10
4.3618901883
 20
22.7674725331
 10
4.349618701
 20
22.7714969948
 10
4.3378712487
 20
22.7755020005
 10
4.3266496824
 20
22.7794757814
 10
4.3159601193
 20
22.7834046538
 10
4.3058012435
 20
22.7872771819
 10
4.2961733606
 20
22.7910810865
 10
4.2870831068
 20
22.7948012915
 10
4.2785279685
 20
22.7984259388
 10
4.2705037371
 20
22.8019436534
 10
4.2630125059
 20
22.8053400066
 10
4.2560511548
 20
22.808602637
 10
4.2496117931
 20
22.8117212115
  0
LWPOLYLINE
  5
2BA
100
AcDbEntity
  8
RACCORDO
100
AcDbPolyline
 62
250
  6
CONTINUOUS
 90
67
 70
0
 10
5.9144839956
 20
22.7593441944
 10
5.8890703666
 20
22.7478792906
 10
5.8630745475
 20
22.7367057988
 10
5.8364965382
 20
22.7258237191
 10
5.8093168828
 20
22.7152232717
 10
5.7815550372
 20
22.7049142364
 10
5.7532693697
 20
22.6949259522
 10
5.724458583
 20
22.6852601187
 10
5.6951239744
 20
22.6759150363
 10
5.6653278043
 20
22.6669149456
 10
5.6350679209
 20
22.6582611906
 10
5.604346476
 20
22.6499524273
 10
5.5732321854
 20
22.6420088633
 10
5.5417244093
 20
22.6344321666
 10
5.5098237876
 20
22.6272206692
 10
5.4776009553
 20
22.6203895753
 10
5.4450603644
 20
22.6139410461
 10
5.4121975629
 20
22.6078729204
 10
5.37906983
 20
22.6021939185
 10
5.3456813804
 20
22.5969051777
 10
5.3120279994
 20
22.5920055607
 10
5.2781543228
 20
22.5875003757
 10
5.2440596742
 20
22.5833896829
 10
5.20974473
 20
22.5796734222
 10
5.1752561553
 20
22.5763567216
 10
5.1405905971
 20
22.5734396966
 10
5.1057514085
 20
22.5709222318
 10
5.0707953136
 20
22.5688091087
 10
5.0357204496
 20
22.5671009768
 10
5.0005286794
 20
22.5657971867
 10
4.9652823163
 20
22.5649005715
 10
4.9299813996
 20
22.564411979
 10
4.8946258901
 20
22.5643305614
 10
4.8592779835
 20
22.5646566085
 10
4.823937686
 20
22.5653909547
 10
4.7886049915
 20
22.5665327657
 10
4.7533420781
 20
22.5680798289
 10
4.7181489881
 20
22.5700329886
 10
4.6830256793
 20
22.5723914006
 10
4.6480342033
 20
22.5751503194
 10
4.6131766004
 20
22.5783103091
 10
4.5784508304
 20
22.5818708057
 10
4.5439128245
 20
22.5858253715
 10
4.5095659435
 20
22.590173992
 10
4.4754068265
 20
22.5949166818
 10
4.4414813226
 20
22.600047047
 10
4.4077898023
 20
22.6055651676
 10
4.3743318952
 20
22.6114709638
 10
4.3411523385
 20
22.6177578019
 10
4.3082466413
 20
22.6244270499
 10
4.2756192945
 20
22.6314773399
 10
4.2433285088
 20
22.6388979348
 10
4.2113700474
 20
22.646691161
 10
4.1797481472
 20
22.654854692
 10
4.1485337295
 20
22.6633708109
 10
4.1177278804
 20
22.6722410868
 10
4.0873295138
 20
22.6814639505
 10
4.0574062933
 20
22.6910169776
 10
4.0279604355
 20
22.7009014359
 10
3.9989897237
 20
22.7111160576
 10
3.9705551715
 20
22.7216346141
 10
3.9426583375
 20
22.7324586628
 10
3.9152976631
 20
22.7435866464
 10
3.8885294852
 20
22.7549876643
 10
3.8623725829
 20
22.7666514164
 10
3.8368081772
 20
22.7785882028
 10
3.8118362681
 20
22.7907980235
  0
LINE
  5
2BB
100
AcDbEntity
  8
CURVE
100
AcDbLine
 62
250
  6
CONTINUOUS
 10
-14.6794713457
 20
-12.5256524796
 11
-14.1491412545
 21
-12.7908175252
  0
LWPOLYLINE
  5
2BC
100
AcDbEntity
  8
268140580
100
AcDbPolyline
 62
250
  6
CONTINUOUS
 90
16
 70
0
 10
-15.9349010832
 20
23.3123929167
 10
-15.934602005
 20
23.2999537311
 10
-15.9337057825
 20
23.2878557139
 10
-15.932215448
 20
23.2761398011
 10
-15.9301360445
 20
23.2648456354
 10
-15.9274746081
 20
23.254011433
 10
-15.924240144
 20
23.2436738532
 10
-15.9204435969
 20
23.2338678751
 10
-15.9160978129
 20
23.2246266791
 10
-15.9112174969
 20
23.2159815345
 10
-15.9058191622
 20
23.2079616936
 10
-15.8999210752
 20
23.2005942931
 10
-15.893543193
 20
23.193904262
 10
-15.8867070965
 20
23.1879142372
 10
-15.8794359169
 20
23.182644487
 10
-15.871889295
 20
23.1781925054
  0
LWPOLYLINE
  5
2BD
100
AcDbEntity
  8
CURVE
100
AcDbPolyline
 62
250
  6
CONTINUOUS
 90
3
 70
0
 10
-14.9791255834
 20
-14.9200023841
 10
-15.0120218226
 20
-13.4254888613
 10
-15.0249262564
 20
-12.7778391416
  0
LINE
  5
2BE
100
AcDbEntity
  8
268140580
100
AcDbLine
 62
7
  6
CONTINUOUS
 10
-16.0081243879
 20
23.4007812644
 11
-16.0081243879
 21
23.769091793
  0
LINE
  5
2BF
100
AcDbEntity
  8
268140580
100
AcDbLine
 62
250
  6
CONTINUOUS
 10
-15.9349010832
 20
23.3123929167
 11
-15.9349010832
 21
23.6807034453
  0
LINE
  5
2C0
100
AcDbEntity
  8
268140580
100
AcDbLine
 62
7
  6
CONTINUOUS
 10
-15.727267901
 20
21.2792094358
 11
-15.727267901
 21
22.2502016647
  0
LINE
  5
2C1
100
AcDbEntity
  8
268140580
100
AcDbLine
 62
7
  6
CONTINUOUS
 10
-15.3010176068
 20
22.4387452749
 11
-15.3010176068
 21
22.8927193766
  0
LWPOLYLINE
  5
2C2
100
AcDbEntity
  8
CURVE
100
AcDbPolyline
 62
250
  6
CONTINUOUS
 90
3
 70
0
 10
-15.8380990526
 20
7.8937416377
 10
-15.8070669937
 20
9.420278463
 10
-15.7922983793
 20
10.0817055533
  0
LINE
  5
2C3
100
AcDbEntity
  8
268140580
100
AcDbLine
 62
7
  6
CONTINUOUS
 10
-3.7056306419
 20
17.7107560792
 11
-4.1928628851
 21
17.432862679
  0
LWPOLYLINE
  5
2C4
100
AcDbEntity
  8
268140580
100
AcDbPolyline
 62
250
  6
CONTINUOUS
 90
28
 70
0
 10
-2.3922635754
 20
17.3042021419
 10
-2.4026015102
 20
17.2987732796
 10
-2.412909353
 20
17.2926196316
 10
-2.4231518369
 20
17.2857622518
 10
-2.4332939184
 20
17.2782246018
 10
-2.4433008978
 20
17.2700324708
 10
-2.4531385375
 20
17.2612138871
 10
-2.4627731791
 20
17.2517990224
 10
-2.472171859
 20
17.2418200885
 10
-2.4813024208
 20
17.2313112269
 10
-2.4901336254
 20
17.2203083925
 10
-2.4986352579
 20
17.2088492301
 10
-2.5067782312
 20
17.1969729457
 10
-2.514534685
 20
17.1847201726
 10
-2.5218780817
 20
17.172132832
 10
-2.5287832967
 20
17.1592539899
 10
-2.5352267046
 20
17.1461277098
 10
-2.5411862603
 20
17.1327989014
 10
-2.5466415738
 20
17.1193131677
 10
-2.5515739805
 20
17.1057166483
 10
-2.5559666047
 20
17.0920558621
 10
-2.5598044177
 20
17.0783775476
 10
-2.5630742888
 20
17.0647285036
 10
-2.5657650306
 20
17.0511554284
 10
-2.5678674372
 20
17.0377047607
 10
-2.5693743152
 20
17.0244225202
 10
-2.5702805093
 20
17.0113541504
 10
-2.5705829188
 20
16.9985443631
  0
LINE
  5
2C5
100
AcDbEntity
  8
268140580
100
AcDbLine
 62
7
  6
CONTINUOUS
 10
5.3058265594
 20
20.2800308353
 11
0.6986386586
 21
17.9188660428
  0
LINE
  5
2C6
100
AcDbEntity
  8
268140580
100
AcDbLine
 62
7
  6
CONTINUOUS
 10
-3.6982718496
 20
17.7147154765
 11
1.922318979
 21
20.5575710632
  0
LINE
  5
2C7
100
AcDbEntity
  8
268140580
100
AcDbLine
 62
7
  6
CONTINUOUS
 10
-2.503685401
 20
17.3114913142
 11
-0.3823650574
 21
18.3494784183
  0
LINE
  5
2C8
100
AcDbEntity
  8
268140580
100
AcDbLine
 62
250
  6
CONTINUOUS
 10
-2.3922635754
 20
17.3042021419
 11
-0.2709432318
 21
18.342189246
  0
LINE
  5
2C9
100
AcDbEntity
  8
0
100
AcDbLine
 62
7
  6
CONTINUOUS
 10
9.803785752
 20
22.0640666224
 11
14.0464264391
 21
24.1400408307
  0
LINE
  5
2CA
100
AcDbEntity
  8
268140580
100
AcDbLine
 62
250
  6
CONTINUOUS
 10
1.0725596524
 20
17.6704378039
 11
-1.0487606912
 21
16.6324506997
  0
LINE
  5
2CB
100
AcDbEntity
  8
RACCORDO
100
AcDbLine
 62
7
  6
CONTINUOUS
 10
9.460919734
 20
23.4245895511
 11
12.9981069822
 21
25.1175651818
  0
LINE
  5
2CC
100
AcDbEntity
  8
RACCORDO
100
AcDbLine
 62
7
  6
CONTINUOUS
 10
9.803785752
 20
22.4925833981
 11
14.0415983238
 21
24.5208937216
  0
LWPOLYLINE
  5
2CD
100
AcDbEntity
  8
268140580
100
AcDbPolyline
 62
250
  6
CONTINUOUS
 90
13
 70
0
 10
1.0725596524
 20
17.6704378039
 10
1.0827782932
 20
17.6750756548
 10
1.0929575783
 20
17.6789709591
 10
1.1030634459
 20
17.6821106824
 10
1.1130620795
 20
17.6844843185
 10
1.1229200219
 20
17.6860839247
 10
1.1326042863
 20
17.6869041485
 10
1.1420824672
 20
17.6869422452
 10
1.1513228488
 20
17.6861980874
 10
1.1602945107
 20
17.684674165
 10
1.1689674321
 20
17.6823755776
 10
1.1773125916
 20
17.6793100166
 10
1.1828204032
 20
17.6767751705
  0
LWPOLYLINE
  5
2CE
100
AcDbEntity
  8
268140580
100
AcDbPolyline
 62
250
  6
CONTINUOUS
 90
14
 70
0
 10
-0.3823650574
 20
18.3494784183
 10
-0.3751653258
 20
18.3526397427
 10
-0.3674913312
 20
18.3552711828
 10
-0.3595567998
 20
18.3572709663
 10
-0.351383491
 20
18.358633605
 10
-0.3429938148
 20
18.3593553593
 10
-0.3344107778
 20
18.3594342462
 10
-0.3256579236
 20
18.3588700472
 10
-0.316759248
 20
18.3576643068
 10
-0.3077391585
 20
18.3558203301
 10
-0.2986224177
 20
18.3533431808
 10
-0.2894340352
 20
18.3502396593
 10
-0.2801991987
 20
18.3465182781
 10
-0.2709432318
 20
18.342189246
  0
LWPOLYLINE
  5
2CF
100
AcDbEntity
  8
268140580
100
AcDbPolyline
 62
250
  6
CONTINUOUS
 90
14
 70
0
 10
-2.503685401
 20
17.3114913142
 10
-2.4964649294
 20
17.3146607401
 10
-2.4887919387
 20
17.3172899323
 10
-2.4808585987
 20
17.3192877314
 10
-2.4726866542
 20
17.3206486615
 10
-2.464298504
 20
17.3213689924
 10
-2.4557171393
 20
17.3214467498
 10
-2.446966081
 20
17.3208817205
 10
-2.4380693153
 20
17.3196754532
 10
-2.4290512276
 20
17.3178312543
 10
-2.4199365357
 20
17.3153541785
 10
-2.4107502225
 20
17.3122510153
 10
-2.4015174669
 20
17.3085302703
 10
-2.3922635754
 20
17.3042021419
  0
LWPOLYLINE
  5
2D0
100
AcDbEntity
  8
268140580
100
AcDbPolyline
 62
250
  6
CONTINUOUS
 90
16
 70
0
 10
-16.0081243879
 20
23.4007812644
 10
-16.0077817716
 20
23.3942392699
 10
-16.0067548618
 20
23.3877152065
 10
-16.0050464731
 20
23.3812269563
 10
-16.0026612881
 20
23.374792303
 10
-15.9996058445
 20
23.3684288838
 10
-15.995888517
 20
23.3621541401
 10
-15.9915194946
 20
23.3559852707
 10
-15.9865107524
 20
23.349939184
 10
-15.980876019
 20
23.3440324519
 10
-15.9746307389
 20
23.3382812644
 10
-15.9677920299
 20
23.332701385
 10
-15.9603786365
 20
23.3273081079
 10
-15.9524108783
 20
23.3221162155
 10
-15.9439105943
 20
23.3171399386
 10
-15.9349010832
 20
23.3123929167
  0
LWPOLYLINE
  5
2D1
100
AcDbEntity
  8
268140580
100
AcDbPolyline
 62
250
  6
CONTINUOUS
 90
16
 70
0
 10
-16.0081243879
 20
23.769091793
 10
-16.007783884
 20
23.7625699825
 10
-16.0067587932
 20
23.7560444511
 10
-16.0050519182
 20
23.7495546822
 10
-16.0026679378
 20
23.7431184786
 10
-15.999613383
 20
23.7367534826
 10
-15.9958966272
 20
23.7304771512
 10
-15.9915278582
 20
23.7243066948
 10
-15.9865190527
 20
23.7182590351
 10
-15.9808839479
 20
23.7123507619
 10
-15.9746379892
 20
23.7065980724
 10
-15.967798307
 20
23.7010167468
 10
-15.9603836815
 20
23.6956221084
 10
-15.9524144583
 20
23.6904289546
 10
-15.9439124864
 20
23.6854515179
 10
-15.9349010832
 20
23.6807034453
  0
LWPOLYLINE
  5
2D2
100
AcDbEntity
  8
CURVE
100
AcDbPolyline
 62
250
  6
CONTINUOUS
 90
3
 70
0
 10
-13.0243600129
 20
-16.3201759262
 10
-13.0584904461
 20
-14.8263205629
 10
-13.0884811467
 20
-13.3211475386
  0
LWPOLYLINE
  5
2D3
100
AcDbEntity
  8
CURVE
100
AcDbPolyline
 62
250
  6
CONTINUOUS
 90
3
 70
0
 10
-13.7874893881
 20
-13.3965576376
 10
-13.7564573292
 20
-14.8920624041
 10
-13.7416887149
 20
-15.5387208799
  0
LWPOLYLINE
  5
2D4
100
AcDbEntity
  8
268140580
100
AcDbPolyline
 62
250
  6
CONTINUOUS
 90
31
 70
0
 10
-14.2378448084
 20
23.0089520032
 10
-14.2380053802
 20
23.0204165546
 10
-14.2386483005
 20
23.03209834
 10
-14.2397727196
 20
23.043965818
 10
-14.2413768503
 20
23.0559893662
 10
-14.2434570094
 20
23.0681338255
 10
-14.2460066341
 20
23.0803583851
 10
-14.2490180258
 20
23.0926268439
 10
-14.2524834315
 20
23.1049082184
 10
-14.2563934553
 20
23.1171691511
 10
-14.2607374913
 20
23.1293762405
 10
-14.2655035946
 20
23.1414957907
 10
-14.270678577
 20
23.1534942275
 10
-14.2762481739
 20
23.1653385069
 10
-14.2821971712
 20
23.1769963019
 10
-14.2885093116
 20
23.1884357499
 10
-14.2951673221
 20
23.1996255261
 10
-14.3021529263
 20
23.2105348941
 10
-14.3094469471
 20
23.2211338953
 10
-14.3170293771
 20
23.231393453
 10
-14.324879434
 20
23.2412854435
 10
-14.3329755898
 20
23.2507827346
 10
-14.3412956462
 20
23.2598592827
 10
-14.3498167883
 20
23.2684901947
 10
-14.3585156426
 20
23.2766517934
 10
-14.3673683631
 20
23.2843217034
 10
-14.3763506676
 20
23.2914788841
 10
-14.3854378942
 20
23.2981036865
 10
-14.3946051132
 20
23.304177942
 10
-14.4038271965
 20
23.309685006
 10
-14.4130788556
 20
23.3146097819
  0
LINE
  5
2D5
100
AcDbEntity
  8
268140580
100
AcDbLine
 62
7
  6
CONTINUOUS
 10
-15.2592922039
 20
19.8809035045
 11
-15.2592922039
 21
21.0452215873
  0
LINE
  5
2D6
100
AcDbEntity
  8
268140580
100
AcDbLine
 62
250
  6
CONTINUOUS
 10
-15.2277943021
 20
22.3470335801
 11
-15.2277943021
 21
22.8561077243
  0
LINE
  5
2D7
100
AcDbEntity
  8
268140580
100
AcDbLine
 62
250
  6
CONTINUOUS
 10
-15.1714242382
 20
19.8369695216
 11
-15.1714242382
 21
21.0012876044
  0
LINE
  5
2D8
100
AcDbEntity
  8
268140580
100
AcDbLine
 62
250
  6
CONTINUOUS
 10
-14.591398199
 20
23.0089520032
 11
-14.591398199
 21
22.6406414746
  0
LINE
  5
2D9
100
AcDbEntity
  8
268140580
100
AcDbLine
 62
7
  6
CONTINUOUS
 10
-14.5728843068
 20
19.7522528307
 11
-14.5728843068
 21
20.7020176387
  0
LINE
  5
2DA
100
AcDbEntity
  8
268140580
100
AcDbLine
 62
250
  6
CONTINUOUS
 10
-14.2378448084
 20
23.0089520032
 11
-14.2378448084
 21
22.6406414746
  0
LINE
  5
2DB
100
AcDbEntity
  8
268140580
100
AcDbLine
 62
250
  6
CONTINUOUS
 10
-13.8842914178
 20
22.2441948652
 11
-13.8842914178
 21
21.675282138
  0
LINE
  5
2DC
100
AcDbEntity
  8
268140580
100
AcDbLine
 62
250
  6
CONTINUOUS
 10
-13.5307380272
 20
22.2441948652
 11
-13.5307380272
 21
21.686628755
  0
LWPOLYLINE
  5
2DD
100
AcDbEntity
  8
268140580
100
AcDbPolyline
 62
7
  6
CONTINUOUS
 90
28
 70
0
 10
-12.7504079413
 20
22.6861366034
 10
-12.7502795919
 20
22.6947375405
 10
-12.7498793422
 20
22.7038239788
 10
-12.749185626
 20
22.7133756163
 10
-12.7481783434
 20
22.7233720992
 10
-12.7468397522
 20
22.7337853174
 10
-12.7451550697
 20
22.7445809699
 10
-12.7431100596
 20
22.7557341087
 10
-12.7406936763
 20
22.7672108576
 10
-12.7379006348
 20
22.7789623825
 10
-12.7347244473
 20
22.7909566921
 10
-12.7311614589
 20
22.8031575593
 10
-12.7272165951
 20
22.8155087031
 10
-12.7228913684
 20
22.8279745025
 10
-12.7181900229
 20
22.8405167483
 10
-12.7131279703
 20
22.8530752227
 10
-12.7077147853
 20
22.8656129214
 10
-12.701962346
 20
22.8780920361
 10
-12.6958958616
 20
22.8904524932
 10
-12.6895323088
 20
22.9026586785
 10
-12.6828904796
 20
22.91467546
 10
-12.67600418
 20
22.9264463603
 10
-12.668896774
 20
22.9379395967
 10
-12.6615926488
 20
22.9491252449
 10
-12.6541322216
 20
22.9599539208
 10
-12.6465485677
 20
22.9703935145
 10
-12.6388655171
 20
22.9804281148
 10
-12.6311122079
 20
22.9900369579
  0
LWPOLYLINE
  5
2DE
100
AcDbEntity
  8
268140580
100
AcDbPolyline
 62
250
  6
CONTINUOUS
 90
25
 70
0
 10
-12.823631246
 20
22.5977482558
 10
-12.8233121848
 20
22.6165487429
 10
-12.8223293148
 20
22.6356423934
 10
-12.8206826361
 20
22.6550292074
 10
-12.8183707467
 20
22.6747545753
 10
-12.8153950486
 20
22.6947731067
 10
-12.8117597478
 20
22.7149486302
 10
-12.8074580361
 20
22.7352821316
 10
-12.8024967216
 20
22.7557726251
 10
-12.7969004347
 20
22.7762809819
 10
-12.7906630115
 20
22.7968069279
 10
-12.7837906159
 20
22.8173507372
 10
-12.7763263699
 20
22.8377741032
 10
-12.7682647876
 20
22.8580755966
 10
-12.7596113549
 20
22.8782566468
 10
-12.7504256516
 20
22.8981832356
 10
-12.7407021192
 20
22.9178536201
 10
-12.7304463162
 20
22.9372695432
 10
-12.7197344978
 20
22.9563022158
 10
-12.7085619057
 20
22.9749478123
 10
-12.6969332983
 20
22.9932101582
 10
-12.684939206
 20
23.0109719415
 10
-12.6726098057
 20
23.0281940581
 10
-12.6599149206
 20
23.0449156121
 10
-12.6468545507
 20
23.0611366034
  0
LWPOLYLINE
  5
2DF
100
AcDbEntity
  8
CURVE
100
AcDbPolyline
 62
250
  6
CONTINUOUS
 90
3
 70
0
 10
-13.9016539443
 20
6.4844078645
 10
-13.8718559677
 20
8.0103649091
 10
-13.8375328103
 20
9.547557386
  0
LWPOLYLINE
  5
2E0
100
AcDbEntity
  8
CURVE
100
AcDbPolyline
 62
250
  6
CONTINUOUS
 90
3
 70
0
 10
-14.5548615136
 20
9.462987056
 10
-14.587757753
 20
7.935577294
 10
-14.6006621868
 20
7.2750231405
  0
LWPOLYLINE
  5
2E1
100
AcDbEntity
  8
268140580
100
AcDbPolyline
 62
250
  6
CONTINUOUS
 90
28
 70
0
 10
-14.591398199
 20
23.0089520032
 10
-14.5910957894
 20
23.0217617905
 10
-14.5901895954
 20
23.0348301603
 10
-14.5886827173
 20
23.0481124008
 10
-14.5865803108
 20
23.0615630685
 10
-14.583889569
 20
23.0751361436
 10
-14.5806196979
 20
23.0887851877
 10
-14.5767818849
 20
23.1024635022
 10
-14.5723892607
 20
23.1161242884
 10
-14.567456854
 20
23.1297208078
 10
-14.5620015405
 20
23.1432065415
 10
-14.5560419848
 20
23.1565353499
 10
-14.5495985768
 20
23.16966163
 10
-14.5426933619
 20
23.1825404721
 10
-14.5353499652
 20
23.1951278127
 10
-14.5275935114
 20
23.2073805858
 10
-14.5194505381
 20
23.2192568702
 10
-14.5109489055
 20
23.2307160326
 10
-14.5021177009
 20
23.241718867
 10
-14.4929871392
 20
23.2522277285
 10
-14.4835884593
 20
23.2622066625
 10
-14.4739538177
 20
23.2716215272
 10
-14.464116178
 20
23.2804401109
 10
-14.4541091986
 20
23.2886322419
 10
-14.443967117
 20
23.2961698918
 10
-14.4337246332
 20
23.3030272717
 10
-14.4234167904
 20
23.3091809197
 10
-14.4130788556
 20
23.3146097819
  0
LWPOLYLINE
  5
2E2
100
AcDbEntity
  8
0
100
AcDbPolyline
 62
250
  6
CONTINUOUS
 90
22
 70
0
 10
-4.7768780072
 20
12.4900303767
 10
-4.8520837931
 20
12.4453091353
 10
-4.9266245573
 20
12.3945248941
 10
-5.0001358853
 20
12.3379326382
 10
-5.0722583257
 20
12.2758217074
 10
-5.1426400167
 20
12.2084976475
 10
-5.2109373161
 20
12.1362777031
 10
-5.2768250531
 20
12.0595077289
 10
-5.3399701748
 20
11.9785790629
 10
-5.4000360758
 20
11.8939114859
 10
-5.4567184974
 20
11.8059463259
 10
-5.5097560874
 20
11.7151044799
 10
-5.5588999692
 20
11.6217992399
 10
-5.6039161723
 20
11.5264717676
 10
-5.6445724025
 20
11.4296135806
 10
-5.6806516718
 20
11.3317268439
 10
-5.7119738459
 20
11.2333105811
 10
-5.7383932695
 20
11.1348392112
 10
-5.7597806516
 20
11.0367825692
 10
-5.7760296129
 20
10.9396204921
 10
-5.78705983
 20
10.8438403041
 10
-5.7928162621
 20
10.7499165456
  0
LWPOLYLINE
  5
2E3
100
AcDbEntity
  8
RACCORDO
100
AcDbPolyline
 62
250
  6
CONTINUOUS
 90
22
 70
0
 10
-4.7768780072
 20
12.4900303767
 10
-4.8520837931
 20
12.4453091353
 10
-4.9266245573
 20
12.3945248941
 10
-5.0001358853
 20
12.3379326382
 10
-5.0722583257
 20
12.2758217074
 10
-5.1426400167
 20
12.2084976475
 10
-5.2109373161
 20
12.1362777031
 10
-5.2768250531
 20
12.0595077289
 10
-5.3399701748
 20
11.9785790629
 10
-5.4000360758
 20
11.8939114859
 10
-5.4567184974
 20
11.8059463259
 10
-5.5097560874
 20
11.7151044799
 10
-5.5588999692
 20
11.6217992399
 10
-5.6039161723
 20
11.5264717676
 10
-5.6445724025
 20
11.4296135806
 10
-5.6806516718
 20
11.3317268439
 10
-5.7119738459
 20
11.2333105811
 10
-5.7383932695
 20
11.1348392112
 10
-5.7597806516
 20
11.0367825692
 10
-5.7760296129
 20
10.9396204921
 10
-5.78705983
 20
10.8438403041
 10
-5.7928162621
 20
10.7499165456
  0
LINE
  5
2E4
100
AcDbEntity
  8
268140580
100
AcDbLine
 62
7
  6
CONTINUOUS
 10
0.7137654403
 20
15.5010580381
 11
-0.1664198628
 21
15.0044696728
  0
LINE
  5
2E5
100
AcDbEntity
  8
268140580
100
AcDbLine
 62
250
  6
CONTINUOUS
 10
0.7685158635
 20
15.4736828265
 11
0.7694403476
 21
15.4742006927
  0
LINE
  5
2E6
100
AcDbEntity
  8
268140580
100
AcDbLine
 62
250
  6
CONTINUOUS
 10
0.7694403476
 20
15.4742006927
 11
0.770365109
 21
15.474711286
  0
LINE
  5
2E7
100
AcDbEntity
  8
0
100
AcDbLine
 62
250
  6
CONTINUOUS
 10
-2.7216092262
 20
13.6120620156
 11
-4.7768780072
 21
12.4900303767
  0
LINE
  5
2E8
100
AcDbEntity
  8
RACCORDO
100
AcDbLine
 62
250
  6
CONTINUOUS
 10
-2.7216092262
 20
13.6120620156
 11
-4.7768780072
 21
12.4900303767
  0
LINE
  5
2E9
100
AcDbEntity
  8
268140580
100
AcDbLine
 62
250
  6
CONTINUOUS
 10
0.7685215463
 20
15.4697444402
 11
-0.3031270672
 21
14.8846999627
  0
LINE
  5
2EA
100
AcDbEntity
  8
268140580
100
AcDbLine
 62
250
  6
CONTINUOUS
 10
0.770365109
 20
15.474711286
 11
0.7712901084
 21
15.4752145843
  0
LINE
  5
2EB
100
AcDbEntity
  8
268140580
100
AcDbLine
 62
250
  6
CONTINUOUS
 10
0.7712901084
 20
15.4752145843
 11
0.7722153059
 21
15.4757105662
  0
LWPOLYLINE
  5
2EC
100
AcDbEntity
  8
268140580
100
AcDbPolyline
 62
250
  6
CONTINUOUS
 90
15
 70
0
 10
0.5406869184
 20
15.9155891736
 10
0.5506665176
 20
15.920878053
 10
0.560014187
 20
15.9264481149
 10
0.5686982972
 20
15.9322805117
 10
0.5766894644
 20
15.938355508
 10
0.5839606493
 20
15.9446525477
 10
0.5904872492
 20
15.9511503236
 10
0.5962471805
 20
15.9578268489
 10
0.6012209539
 20
15.9646595322
 10
0.6053917403
 20
15.9716252538
 10
0.6087454277
 20
15.9787004437
 10
0.6112706688
 20
15.9858611618
 10
0.6129589195
 20
15.9930831785
 10
0.6138044679
 20
16.0003420566
 10
0.6139102231
 20
16.0039775212
  0
LWPOLYLINE
  5
2ED
100
AcDbEntity
  8
268140580
100
AcDbPolyline
 62
250
  6
CONTINUOUS
 90
11
 70
0
 10
0.5406869184
 20
15.5879612294
 10
0.5506664909
 20
15.5932500939
 10
0.5600141393
 20
15.5988201407
 10
0.5686982342
 20
15.6046525225
 10
0.5766893912
 20
15.6107275045
 10
0.5839605709
 20
15.6170245309
 10
0.5904871699
 20
15.6235222944
 10
0.5962471042
 20
15.6301988087
 10
0.601220884
 20
15.6370314826
 10
0.6053916797
 20
15.6439971964
 10
0.6087453786
 20
15.6510723805
  0
LINE
  5
2EE
100
AcDbEntity
  8
0
100
AcDbLine
 62
7
  6
CONTINUOUS
 10
9.5150875462
 20
21.1391283163
 11
10.1068334597
 21
21.4511676372
  0
LWPOLYLINE
  5
2EF
100
AcDbEntity
  8
268140580
100
AcDbPolyline
 62
250
  6
CONTINUOUS
 90
16
 70
0
 10
1.2477936996
 20
17.3647800251
 10
1.2567818429
 20
17.3695151829
 10
1.2652685822
 20
17.3744817722
 10
1.2732297399
 20
17.3796666558
 10
1.2806440277
 20
17.38505723
 10
1.2874882881
 20
17.3906380135
 10
1.2937388094
 20
17.3963903014
 10
1.2993772573
 20
17.402296979
 10
1.3043896394
 20
17.4083431199
 10
1.3087623331
 20
17.4145123298
 10
1.3124833626
 20
17.4207878315
 10
1.3155423741
 20
17.427152303
 10
1.3179308581
 20
17.433588097
 10
1.3196422523
 20
17.4400774784
 10
1.3206719056
 20
17.4466027381
 10
1.3210170043
 20
17.4531683728
  0
LWPOLYLINE
  5
2F0
100
AcDbEntity
  8
268140580
100
AcDbPolyline
 62
250
  6
CONTINUOUS
 90
16
 70
0
 10
1.2477936996
 20
17.0191425642
 10
1.2568032107
 20
17.023889586
 10
1.2653034947
 20
17.0288658629
 10
1.2732712529
 20
17.0340577553
 10
1.2806846463
 20
17.0394510325
 10
1.2875233552
 20
17.0450309118
 10
1.2937686353
 20
17.0507820994
 10
1.2994033687
 20
17.0566888314
 10
1.3044121109
 20
17.0627349181
 10
1.3087811334
 20
17.0689037875
 10
1.3124984609
 20
17.0751785312
 10
1.3155539045
 20
17.0815419505
 10
1.3179390894
 20
17.0879766037
 10
1.3196474781
 20
17.0944648539
 10
1.320674388
 20
17.1009889173
 10
1.3210170043
 20
17.1075309118
  0
LINE
  5
2F1
100
AcDbEntity
  8
DRAFT
100
AcDbLine
 62
7
  6
CONTINUOUS
 10
1.4256263236
 20
15.8561699225
 11
7.0129400123
 21
18.7912415142
  0
LINE
  5
2F2
100
AcDbEntity
  8
268140580
100
AcDbLine
 62
250
  6
CONTINUOUS
 10
0.7722153059
 20
15.4757105662
 11
0.773140662
 21
15.4761992104
  0
LINE
  5
2F3
100
AcDbEntity
  8
268140580
100
AcDbLine
 62
250
  6
CONTINUOUS
 10
0.773140662
 20
15.4761992104
 11
0.7740661371
 21
15.4766804959
  0
LINE
  5
2F4
100
AcDbEntity
  8
268140580
100
AcDbLine
 62
250
  6
CONTINUOUS
 10
0.7740661371
 20
15.4766804959
 11
0.7749916914
 21
15.4771544022
  0
LINE
  5
2F5
100
AcDbEntity
  8
268140580
100
AcDbLine
 62
7
  6
CONTINUOUS
 10
6.736873658
 20
18.9725759616
 11
1.0152156919
 21
16.0613752384
  0
LINE
  5
2F6
100
AcDbEntity
  8
268140580
100
AcDbLine
 62
7
  6
CONTINUOUS
 10
6.736873658
 20
19.3742836898
 11
0.7880331711
 21
16.3740601782
  0
LINE
  5
2F7
100
AcDbEntity
  8
268140580
100
AcDbLine
 62
250
  6
CONTINUOUS
 10
0.7749916914
 20
15.4771544022
 11
0.7759172854
 21
15.477620909
  0
LINE
  5
2F8
100
AcDbEntity
  8
0
100
AcDbLine
 62
7
  6
CONTINUOUS
 10
10.7300956353
 20
21.4755632793
 11
10.2351208885
 21
21.2280759059
  0
LINE
  5
2F9
100
AcDbEntity
  8
268140580
100
AcDbLine
 62
7
  6
CONTINUOUS
 10
0.5738411137
 20
15.4313332463
 11
0.7211668622
 21
15.5049961206
  0
LINE
  5
2FA
100
AcDbEntity
  8
RACCORDO
100
AcDbLine
 62
7
  6
CONTINUOUS
 10
11.8868092368
 20
21.0003309761
 11
13.198244493
 21
21.6560486042
  0
LINE
  5
2FB
100
AcDbEntity
  8
268140580
100
AcDbLine
 62
250
  6
CONTINUOUS
 10
1.2477936996
 20
17.3647800251
 11
-0.873526644
 21
16.326792921
  0
LINE
  5
2FC
100
AcDbEntity
  8
268140580
100
AcDbLine
 62
250
  6
CONTINUOUS
 10
1.4952379881
 20
15.8213640903
 11
0.7833243901
 21
15.4776206052
  0
LWPOLYLINE
  5
2FD
100
AcDbEntity
  8
268140580
100
AcDbPolyline
 62
250
  6
CONTINUOUS
 90
31
 70
0
 10
-0.873526644
 20
16.326792921
 10
-0.8830206877
 20
16.3222881654
 10
-0.8929732415
 20
16.3180380234
 10
-0.9033570262
 20
16.3140541443
 10
-0.9141435805
 20
16.3103474476
 10
-0.9253033393
 20
16.3069280931
 10
-0.9368057143
 20
16.3038054531
 10
-0.9486191785
 20
16.3009880864
 10
-0.9607113519
 20
16.2984837153
 10
-0.9730490907
 20
16.2962992041
 10
-0.985598578
 20
16.2944405403
 10
-0.9983254166
 20
16.2929128185
 10
-1.011194723
 20
16.291720226
 10
-1.0241712234
 20
16.2908660317
 10
-1.0372193502
 20
16.2903525768
 10
-1.0503033393
 20
16.2901812686
 10
-1.0633873283
 20
16.2903525768
 10
-1.0764354551
 20
16.2908660317
 10
-1.0894119555
 20
16.291720226
 10
-1.102281262
 20
16.2929128185
 10
-1.1150081005
 20
16.2944405403
 10
-1.1275575879
 20
16.2962992041
 10
-1.1398953266
 20
16.2984837153
 10
-1.1519875
 20
16.3009880864
 10
-1.1638009642
 20
16.3038054531
 10
-1.1753033393
 20
16.3069280931
 10
-1.186463098
 20
16.3103474476
 10
-1.1972496523
 20
16.3140541443
 10
-1.207633437
 20
16.3180380234
 10
-1.2175859909
 20
16.3222881654
 10
-1.2270800346
 20
16.326792921
  0
LWPOLYLINE
  5
2FE
100
AcDbEntity
  8
268140580
100
AcDbPolyline
 62
250
  6
CONTINUOUS
 90
31
 70
0
 10
-0.873526644
 20
15.9584823924
 10
-0.8830100248
 20
15.9539824376
 10
-0.8929538068
 20
15.9497353646
 10
-0.9033311547
 20
15.9457530154
 10
-0.9141150389
 20
15.942046188
 10
-0.9252752829
 20
15.938625665
 10
-0.9367783044
 20
15.9355019086
 10
-0.9485913418
 20
15.9326837557
 10
-0.9606831757
 20
15.9301785956
 10
-0.9730209774
 20
15.9279932437
 10
-0.9855711568
 20
15.9261336863
 10
-0.9982991175
 20
15.9246050857
 10
-1.0111696511
 20
15.9234116836
 10
-1.0241473522
 20
15.9225567582
 10
-1.0371967605
 20
15.9220426407
 10
-1.0502821327
 20
15.9218707405
 10
-1.0633676165
 20
15.9220415321
 10
-1.0764173159
 20
15.9225545502
 10
-1.0893954225
 20
15.9234083885
 10
-1.1022663455
 20
15.9246007049
 10
-1.1149948092
 20
15.9261282313
 10
-1.1275459175
 20
15.9279867797
 10
-1.1398852797
 20
15.9301712585
 10
-1.1519790472
 20
15.9326756762
 10
-1.1637940101
 20
15.9354931529
 10
-1.1752977472
 20
15.9386159503
 10
-1.1864587616
 20
15.942035511
 10
-1.1972465075
 20
15.9457424733
 10
-1.2076314257
 20
15.9497266805
 10
-1.2175850304
 20
15.9539772045
 10
-1.2270800346
 20
15.9584823924
  0
LWPOLYLINE
  5
2FF
100
AcDbEntity
  8
268140580
100
AcDbPolyline
 62
250
  6
CONTINUOUS
 90
13
 70
0
 10
0.6821082746
 20
15.6622435221
 10
0.676095873
 20
15.6593939217
 10
0.6700651235
 20
15.65685112
 10
0.6640272784
 20
15.6546244723
 10
0.6579937032
 20
15.6527228339
 10
0.6519763677
 20
15.6511546899
 10
0.6459878107
 20
15.6499280229
 10
0.6400329049
 20
15.6490492087
 10
0.6341316734
 20
15.6485266697
 10
0.6283186597
 20
15.6483663552
 10
0.6226081319
 20
15.6485692868
 10
0.6170086105
 20
15.6491358019
 10
0.6158233138
 20
15.6493369339
  0
LWPOLYLINE
  5
300
100
AcDbEntity
  8
268140580
100
AcDbPolyline
 62
250
  6
CONTINUOUS
 90
28
 70
0
 10
-0.1664198628
 20
15.562035783
 10
-0.1769975917
 20
15.5570459967
 10
-0.1881376853
 20
15.5523721725
 10
-0.199802449
 20
15.5480301251
 10
-0.211952413
 20
15.5440345466
 10
-0.2245464656
 20
15.5403989568
 10
-0.2375419926
 20
15.5371356573
 10
-0.2508950212
 20
15.5342556901
 10
-0.264560369
 20
15.5317688002
 10
-0.2784917968
 20
15.5296834024
 10
-0.292642165
 20
15.5280065529
 10
-0.3069635932
 20
15.5267439258
 10
-0.3214076224
 20
15.5258997934
 10
-0.3359253784
 20
15.5254770119
 10
-0.3504677378
 20
15.5254770119
 10
-0.3649854938
 20
15.5258997934
 10
-0.3794295229
 20
15.5267439258
 10
-0.3937509512
 20
15.5280065529
 10
-0.4079013194
 20
15.5296834024
 10
-0.4218327471
 20
15.5317688002
 10
-0.4354980949
 20
15.5342556901
 10
-0.4488511235
 20
15.5371356573
 10
-0.4618466505
 20
15.5403989567
 10
-0.4744407032
 20
15.5440345466
 10
-0.4865906672
 20
15.5480301251
 10
-0.4982554309
 20
15.5523721725
 10
-0.5093955245
 20
15.5570459967
 10
-0.5199732534
 20
15.562035783
  0
LWPOLYLINE
  5
301
100
AcDbEntity
  8
SMUSSO
100
AcDbPolyline
 62
7
  6
CONTINUOUS
 90
88
 70
0
 10
14.0571138117
 20
21.1264925122
 10
14.0030109576
 20
21.1009698101
 10
13.9477431856
 20
21.0761128427
 10
13.8913104959
 20
21.0519216101
 10
13.8336812118
 20
21.028383946
 10
13.7748870098
 20
21.0055120166
 10
13.7150229198
 20
20.9833423207
 10
13.6540877398
 20
20.9618760491
 10
13.5920826717
 20
20.941112011
 10
13.5291063512
 20
20.9210831323
 10
13.4651551458
 20
20.9017899948
 10
13.4002326879
 20
20.8832320167
 10
13.3344485104
 20
20.865440379
 10
13.2678031041
 20
20.8484168655
 10
13.2002959781
 20
20.8321596924
 10
13.1320351928
 20
20.8166946898
 10
13.0630184336
 20
20.8020228728
 10
12.993248015
 20
20.7881432263
 10
12.9228389418
 20
20.7750785344
 10
12.8517897921
 20
20.7628301388
 10
12.7801019876
 20
20.7513966979
 10
12.7078947981
 20
20.7407969703
 10
12.6351698438
 20
20.7310325858
 10
12.5619255045
 20
20.7221019146
 10
12.4882761882
 20
20.7140188265
 10
12.4142163224
 20
20.7067842942
 10
12.3397514796
 20
20.7003973449
 10
12.2650127866
 20
20.6948689296
 10
12.1900073312
 20
20.6902008809
 10
12.1147280255
 20
20.6863913663
 10
12.039284732
 20
20.6834458391
 10
11.9636673497
 20
20.6813654584
 10
11.8878859796
 20
20.6801490652
 10
11.8120807867
 20
20.6797986358
 10
11.7362637046
 20
20.6803155032
 10
11.6604227997
 20
20.6816983344
 10
11.5846624356
 20
20.6839451074
 10
11.5089701989
 20
20.6870576502
 10
11.4333585031
 20
20.6910341347
 10
11.3579689518
 20
20.6958670542
 10
11.2828135839
 20
20.7015570209
 10
11.2078803607
 20
20.7081034226
 10
11.1332747689
 20
20.7154969163
 10
11.0589872549
 20
20.72373987
 10
10.9850273724
 20
20.7328299156
 10
10.9115292693
 20
20.7427506053
 10
10.8385010922
 20
20.753502366
 10
10.7659346945
 20
20.7650847709
 10
10.6939397835
 20
20.7774800922
 10
10.6225133337
 20
20.790690227
 10
10.5516583706
 20
20.8047132783
 10
10.4814936783
 20
20.8195258265
 10
10.4120205956
 20
20.8351292717
 10
10.3432377837
 20
20.8515222139
 10
10.2752600102
 20
20.8686770328
 10
10.2080921296
 20
20.8865938918
 10
10.1417292873
 20
20.9052726276
 10
10.076271687
 20
20.9246851292
 10
10.0117139426
 20
20.9448348398
 10
9.9480614401
 20
20.9657183162
 10
9.8854305416
 20
20.9872971179
 10
9.8238324042
 20
21.009568897
 10
9.7632558709
 20
21.0325360014
 10
9.7037838324
 20
21.0561670346
 10
9.6454070453
 20
21.0804676616
 10
9.5881347531
 20
21.1054322173
 10
9.5320775769
 20
21.1310123098
 10
9.4772492589
 20
21.1572033741
 10
9.423636057
 20
21.184009975
 10
9.3713073656
 20
21.2113974155
 10
9.3202541554
 20
21.2393725162
 10
9.2704854557
 20
21.2679284564
 10
9.2220977482
 20
21.2970100766
 10
9.1751024088
 20
21.3266127324
 10
9.1294880616
 20
21.3567410683
 10
9.0853170608
 20
21.3873538583
 10
9.0425848515
 20
21.4184566105
 10
9.0012959886
 20
21.4500438167
 10
8.9615264905
 20
21.4820577274
 10
8.9232832766
 20
21.5144956329
 10
8.8865594275
 20
21.5473602429
 10
8.8514102043
 20
21.5806019357
 10
8.8178360471
 20
21.6142230822
 10
8.7858365158
 20
21.6482213116
 10
8.7554655504
 20
21.6825398904
 10
8.7267260417
 20
21.7171794428
 10
8.6996150989
 20
21.7521393445
 10
8.6760463893
 20
21.7847033052
  0
LWPOLYLINE
  5
302
100
AcDbEntity
  8
RACCORDO
100
AcDbPolyline
 62
7
  6
CONTINUOUS
 90
10
 70
0
 10
14.0467753597
 20
21.2317859001
 10
14.0581718239
 20
21.2369545553
 10
14.0693922264
 20
21.2410064517
 10
14.0804365671
 20
21.2439415892
 10
14.0913998261
 20
21.2457601206
 10
14.1021870232
 20
21.246461893
 10
14.1125132186
 20
21.2460464487
 10
14.1222834324
 20
21.2445136348
 10
14.1315926444
 20
21.2418636041
 10
14.1404408547
 20
21.2380963565
  0
LWPOLYLINE
  5
303
100
AcDbEntity
  8
268140580
100
AcDbPolyline
 62
250
  6
CONTINUOUS
 90
16
 70
0
 10
0.7833243901
 20
15.4776206052
 10
0.7829113668
 20
15.4774598598
 10
0.7824697773
 20
15.4773214651
 10
0.7819996216
 20
15.4772054211
 10
0.7814942787
 20
15.4771114884
 10
0.7809603697
 20
15.4770399064
 10
0.7804177577
 20
15.4769913936
 10
0.7798664429
 20
15.47696595
 10
0.7793064251
 20
15.4769635755
 10
0.7787575676
 20
15.4769849885
 10
0.7782198705
 20
15.4770301892
 10
0.7776933337
 20
15.4770991775
 10
0.7771978204
 20
15.4771926717
 10
0.7767399519
 20
15.4773109115
 10
0.7763131069
 20
15.4774536572
 10
0.7759172854
 20
15.477620909
  0
LINE
  5
304
100
AcDbEntity
  8
268140580
100
AcDbLine
 62
7
  6
CONTINUOUS
 10
-1.0272582862
 20
-15.4521463901
 11
-1.3957291593
 21
-15.2679109535
  0
LINE
  5
305
100
AcDbEntity
  8
268140580
100
AcDbLine
 62
7
  6
CONTINUOUS
 10
-1.7927654595
 20
-14.1298330702
 11
-1.6078433888
 21
-14.2222941055
  0
LWPOLYLINE
  5
306
100
AcDbEntity
  8
268140580
100
AcDbPolyline
 62
250
  6
CONTINUOUS
 90
28
 70
0
 10
-0.3431965581
 20
-24.700956704
 10
-0.3486349616
 20
-24.6924746722
 10
-0.3546531197
 20
-24.6837222627
 10
-0.3612306688
 20
-24.6747290909
 10
-0.3683453525
 20
-24.6655255868
 10
-0.3759730971
 20
-24.6561428922
 10
-0.3840880926
 20
-24.6466127552
 10
-0.3926628805
 20
-24.6369674228
 10
-0.4016684464
 20
-24.6272395316
 10
-0.4110743183
 20
-24.6174619978
 10
-0.4208486697
 20
-24.6076679054
 10
-0.4309584273
 20
-24.5978903947
 10
-0.441369383
 20
-24.5881625495
 10
-0.4520463092
 20
-24.5785172858
 10
-0.4629530788
 20
-24.5689872402
 10
-0.4740527865
 20
-24.5596046593
 10
-0.4853078746
 20
-24.5504012908
 10
-0.4966802593
 20
-24.5414082759
 10
-0.5081314602
 20
-24.5326560442
 10
-0.5196227299
 20
-24.5241742105
 10
-0.5311151857
 20
-24.5159914746
 10
-0.5425699408
 20
-24.5081355243
 10
-0.5539482357
 20
-24.5006329417
 10
-0.5652115702
 20
-24.4935091131
 10
-0.5763218324
 20
-24.4867881432
 10
-0.5872414289
 20
-24.4804927738
 10
-0.5979334112
 20
-24.4746443063
 10
-0.608361601
 20
-24.4692625302
  0
LWPOLYLINE
  5
307
100
AcDbEntity
  8
268140580
100
AcDbPolyline
 62
250
  6
CONTINUOUS
 90
31
 70
0
 10
-0.873526644
 20
-25.341121747
 10
-0.8783892022
 20
-25.3335090455
 10
-0.8837235022
 20
-25.3256731896
 10
-0.8895153385
 20
-25.317635444
 10
-0.895749838
 20
-25.3094168765
 10
-0.9024097594
 20
-25.3010406126
 10
-0.9094751474
 20
-25.2925319099
 10
-0.916925849
 20
-25.2839149832
 10
-0.9247421444
 20
-25.2752125872
 10
-0.9329028197
 20
-25.2664483528
 10
-0.9413856756
 20
-25.2576461522
 10
-0.9501673458
 20
-25.2488302613
 10
-0.9592235449
 20
-25.2400250709
 10
-0.9685293581
 20
-25.2312548016
 10
-0.9780593555
 20
-25.2225434159
 10
-0.9877874345
 20
-25.2139147753
 10
-0.9976869432
 20
-25.2053925222
 10
-1.0077307268
 20
-25.1970000359
 10
-1.0178912259
 20
-25.1887603457
 10
-1.0281405764
 20
-25.1806960479
 10
-1.0384506873
 20
-25.1728292442
 10
-1.0487932928
 20
-25.1651815023
 10
-1.0591400538
 20
-25.1577737776
 10
-1.0694625883
 20
-25.1506263908
 10
-1.0797325488
 20
-25.1437589679
 10
-1.0899217503
 20
-25.1371903517
 10
-1.1000022915
 20
-25.1309385244
 10
-1.1099465821
 20
-25.1250205956
 10
-1.1197273743
 20
-25.1194527807
 10
-1.1293178399
 20
-25.1142503526
 10
-1.1386916869
 20
-25.1094275732
  0
LWPOLYLINE
  5
308
100
AcDbEntity
  8
CURVE
100
AcDbPolyline
 62
250
  6
CONTINUOUS
 90
3
 70
0
 10
-11.7869231459
 20
-16.9388943598
 10
-11.821053579
 20
-15.4450389964
 10
-11.8510442796
 20
-13.9398659721
  0
LINE
  5
309
100
AcDbEntity
  8
268140580
100
AcDbLine
 62
250
  6
CONTINUOUS
 10
-12.823631246
 20
22.2701203116
 11
-12.823631246
 21
22.5977482558
  0
LINE
  5
30A
100
AcDbEntity
  8
268140580
100
AcDbLine
 62
7
  6
CONTINUOUS
 10
-12.7504079413
 20
22.3585086593
 11
-12.7504079413
 21
22.6861366034
  0
LINE
  5
30B
100
AcDbEntity
  8
268140580
100
AcDbLine
 62
250
  6
CONTINUOUS
 10
-12.1165244648
 20
23.7013016464
 11
-12.1165244648
 21
24.0469391074
  0
LINE
  5
30C
100
AcDbEntity
  8
268140580
100
AcDbLine
 62
7
  6
CONTINUOUS
 10
-12.0433011601
 20
23.789689994
 11
-12.0433011601
 21
24.135327455
  0
LWPOLYLINE
  5
30D
100
AcDbEntity
  8
CURVE
100
AcDbPolyline
 62
250
  6
CONTINUOUS
 90
3
 70
0
 10
-12.1338869492
 20
5.6005243669
 10
-12.1040889726
 20
7.1264814115
 10
-12.0697658152
 20
8.6636738884
  0
LWPOLYLINE
  5
30E
100
AcDbEntity
  8
268140580
100
AcDbPolyline
 62
250
  6
CONTINUOUS
 90
16
 70
0
 10
0.7685215463
 20
15.4697444402
 10
0.7688423342
 20
15.4699740241
 10
0.7691185522
 20
15.4702173908
 10
0.7693502002
 20
15.4704745401
 10
0.7695377882
 20
15.4707490001
 10
0.7696808062
 20
15.4710372428
 10
0.7697777247
 20
15.4713286843
 10
0.7698285438
 20
15.4716233245
 10
0.7698332634
 20
15.4719211634
 10
0.769790354
 20
15.4722116171
 10
0.7696998156
 20
15.4724946856
 10
0.7695616482
 20
15.4727703689
 10
0.7693743222
 20
15.473028083
 10
0.7691373279
 20
15.4732643
 10
0.768851175
 20
15.4734825478
 10
0.7685158635
 20
15.4736828265
  0
LWPOLYLINE
  5
30F
100
AcDbEntity
  8
RACCORDO
100
AcDbPolyline
 62
7
  6
CONTINUOUS
 90
12
 70
0
 10
-20.9214981815
 20
0.3490393008
 10
-20.9529197894
 20
0.3304782634
 10
-20.9828905784
 20
0.3092700903
 10
-21.0096344881
 20
0.2865158167
 10
-21.0332488763
 20
0.2622997815
 10
-21.0537991738
 20
0.2366905847
 10
-21.0712206384
 20
0.209882796
 10
-21.085478056
 20
0.1820631814
 10
-21.0965663047
 20
0.1534065508
 10
-21.1044436208
 20
0.124234733
 10
-21.1091247647
 20
0.0948198873
 10
-21.1106502505
 20
0.0655580625
  0
LWPOLYLINE
  5
310
100
AcDbEntity
  8
0
100
AcDbPolyline
 62
7
  6
CONTINUOUS
 90
12
 70
0
 10
-20.9214981815
 20
0.3490393008
 10
-20.9529197894
 20
0.3304782634
 10
-20.9828905784
 20
0.3092700903
 10
-21.0096344881
 20
0.2865158167
 10
-21.0332488763
 20
0.2622997815
 10
-21.0537991738
 20
0.2366905847
 10
-21.0712206384
 20
0.209882796
 10
-21.085478056
 20
0.1820631814
 10
-21.0965663047
 20
0.1534065508
 10
-21.1044436208
 20
0.124234733
 10
-21.1091247647
 20
0.0948198873
 10
-21.1106502505
 20
0.0655580625
  0
LWPOLYLINE
  5
311
100
AcDbEntity
  8
0
100
AcDbPolyline
 62
250
  6
CONTINUOUS
 90
22
 70
0
 10
-4.4110452671
 20
11.887027931
 10
-4.4617300213
 20
11.8571550342
 10
-4.5115341543
 20
11.8235745257
 10
-4.5604576661
 20
11.7862864054
 10
-4.6087461938
 20
11.7450643078
 10
-4.6561541004
 20
11.7001345984
 10
-4.7019444744
 20
11.6521763739
 10
-4.7460849521
 20
11.6011444502
 10
-4.7886078973
 20
11.5470840113
 10
-4.8288734894
 20
11.4908097068
 10
-4.8668399522
 20
11.4323009734
 10
-4.9025490619
 20
11.3715783744
 10
-4.9354863266
 20
11.3095182482
 10
-4.965616849
 20
11.2460890429
 10
-4.9929755264
 20
11.1813223105
 10
-5.0171525588
 20
11.1161890452
 10
-5.0380983006
 20
11.0506697453
 10
-5.0558623973
 20
10.9847839124
 10
-5.0701839854
 20
10.9195610457
 10
-5.0809761102
 20
10.8553443116
 10
-5.0883257264
 20
10.7917905437
 10
-5.0922328338
 20
10.7288997419
  0
LWPOLYLINE
  5
312
100
AcDbEntity
  8
RACCORDO
100
AcDbPolyline
 62
250
  6
CONTINUOUS
 90
22
 70
0
 10
-4.4110452671
 20
11.887027931
 10
-4.4617300213
 20
11.8571550342
 10
-4.5115341543
 20
11.8235745257
 10
-4.5604576661
 20
11.7862864054
 10
-4.6087461938
 20
11.7450643078
 10
-4.6561541004
 20
11.7001345984
 10
-4.7019444744
 20
11.6521763739
 10
-4.7460849521
 20
11.6011444502
 10
-4.7886078973
 20
11.5470840113
 10
-4.8288734894
 20
11.4908097068
 10
-4.8668399522
 20
11.4323009734
 10
-4.9025490619
 20
11.3715783744
 10
-4.9354863266
 20
11.3095182482
 10
-4.965616849
 20
11.2460890429
 10
-4.9929755264
 20
11.1813223105
 10
-5.0171525588
 20
11.1161890452
 10
-5.0380983006
 20
11.0506697453
 10
-5.0558623973
 20
10.9847839124
 10
-5.0701839854
 20
10.9195610457
 10
-5.0809761102
 20
10.8553443116
 10
-5.0883257264
 20
10.7917905437
 10
-5.0922328338
 20
10.7288997419
  0
LINE
  5
313
100
AcDbEntity
  8
268140580
100
AcDbLine
 62
250
  6
CONTINUOUS
 10
1.0611877383
 20
14.9873424836
 11
-0.0204996544
 21
14.3968175414
  0
LINE
  5
314
100
AcDbEntity
  8
0
100
AcDbLine
 62
250
  6
CONTINUOUS
 10
-2.3683249603
 20
13.0022089891
 11
-4.4110452671
 21
11.887027931
  0
LINE
  5
315
100
AcDbEntity
  8
RACCORDO
100
AcDbLine
 62
250
  6
CONTINUOUS
 10
-2.3683249603
 20
13.0022089891
 11
-4.4110452671
 21
11.887027931
  0
LINE
  5
316
100
AcDbEntity
  8
0
100
AcDbLine
 62
7
  6
CONTINUOUS
 10
-1.7927654595
 20
12.4659295138
 11
-2.3683249603
 21
12.1517146647
  0
LINE
  5
317
100
AcDbEntity
  8
DRAFT
100
AcDbLine
 62
7
  6
CONTINUOUS
 10
-1.7927654595
 20
12.4659295138
 11
-2.3683249603
 21
12.1517146647
  0
LINE
  5
318
100
AcDbEntity
  8
268140580
100
AcDbLine
 62
7
  6
CONTINUOUS
 10
-1.8180865905
 20
13.5205863627
 11
-2.4058596377
 21
13.2151224505
  0
LINE
  5
319
100
AcDbEntity
  8
RACCORDO
100
AcDbLine
 62
250
  6
CONTINUOUS
 10
18.745203277
 20
21.859475219
 11
1.7781237855
 21
13.2274262346
  0
LINE
  5
31A
100
AcDbEntity
  8
RACCORDO
100
AcDbLine
 62
7
  6
CONTINUOUS
 10
13.2928151551
 20
20.8548057978
 11
14.0467462094
 21
21.2317713249
  0
LINE
  5
31B
100
AcDbEntity
  8
RACCORDO
100
AcDbLine
 62
250
  6
CONTINUOUS
 10
18.6383014374
 20
22.0438536187
 11
18.6756041355
 21
22.0622309996
  0
LINE
  5
31C
100
AcDbEntity
  8
RACCORDO
100
AcDbLine
 62
250
  6
CONTINUOUS
 10
18.745203277
 20
21.859475219
 11
18.782481909
 21
21.8778408574
  0
LINE
  5
31D
100
AcDbEntity
  8
268140580
100
AcDbLine
 62
250
  6
CONTINUOUS
 10
-1.1748832486
 20
12.8298210055
 11
-1.8545918135
 21
12.4968426909
  0
LINE
  5
31E
100
AcDbEntity
  8
RACCORDO
100
AcDbLine
 62
250
  6
CONTINUOUS
 10
7.758466948
 20
17.5053977554
 11
18.1383775898
 21
22.547429878
  0
LINE
  5
31F
100
AcDbEntity
  8
RACCORDO
100
AcDbLine
 62
250
  6
CONTINUOUS
 10
8.0961352818
 20
16.9230060283
 11
18.6383014374
 21
22.0438536187
  0
LWPOLYLINE
  5
320
100
AcDbEntity
  8
268140580
100
AcDbPolyline
 62
7
  6
CONTINUOUS
 90
51
 70
0
 10
-1.8180905226
 20
13.5205941122
 10
-1.8077858422
 20
13.5255931533
 10
-1.7935072827
 20
13.5314094501
 10
-1.7786991627
 20
13.5362053537
 10
-1.7633918209
 20
13.5399700144
 10
-1.7476987605
 20
13.5426606768
 10
-1.731606387
 20
13.544261851
 10
-1.715128295
 20
13.5447890271
 10
-1.6984187713
 20
13.5442459201
 10
-1.6815124917
 20
13.5426288783
 10
-1.6643747805
 20
13.5399415535
 10
-1.6470558969
 20
13.536198616
 10
-1.6295404174
 20
13.5313981564
 10
-1.6118437656
 20
13.525542084
 10
-1.5940624717
 20
13.5186507975
 10
-1.5761724524
 20
13.5107030001
 10
-1.5581977912
 20
13.5017199884
 10
-1.5403072686
 20
13.4917860509
 10
-1.5225247075
 20
13.4809037227
 10
-1.5048262852
 20
13.4690704686
 10
-1.4873093136
 20
13.4563629709
 10
-1.4699896368
 20
13.4427950155
 10
-1.4528514109
 20
13.4283528164
 10
-1.4359444163
 20
13.4130716987
 10
-1.4192339862
 20
13.3969134874
 10
-1.4027547875
 20
13.3799163574
 10
-1.3866606011
 20
13.3622301585
 10
-1.3709646104
 20
13.3438524992
 10
-1.3556536321
 20
13.3247857711
 10
-1.3408418975
 20
13.3051869982
 10
-1.3265599832
 20
13.2850975456
 10
-1.3127773126
 20
13.2644760482
 10
-1.299516387
 20
13.2433554357
 10
-1.2867490947
 20
13.2216882506
 10
-1.2745035474
 20
13.1995219503
 10
-1.2628865826
 20
13.177031836
 10
-1.2519044107
 20
13.1542050833
 10
-1.2415508211
 20
13.1310545167
 10
-1.2319140201
 20
13.1077939106
 10
-1.2230185753
 20
13.0844770377
 10
-1.214839919
 20
13.0610501253
 10
-1.2073925543
 20
13.03756563
 10
-1.2006655819
 20
13.0139912639
 10
-1.1946699012
 20
12.9903593149
 10
-1.1894527134
 20
12.9668191023
 10
-1.1850189781
 20
12.9433456555
 10
-1.1813637357
 20
12.9199639452
 10
-1.1785193093
 20
12.896898202
 10
-1.1764964732
 20
12.8742231694
 10
-1.1752844529
 20
12.8518641039
 10
-1.1748832486
 20
12.8298210055
  0
LINE
  5
321
100
AcDbEntity
  8
268140580
100
AcDbLine
 62
250
  6
CONTINUOUS
 10
1.7781237855
 20
15.3335110301
 11
1.0611877383
 21
14.9873424836
  0
LINE
  5
322
100
AcDbEntity
  8
268140580
100
AcDbLine
 62
7
  6
CONTINUOUS
 10
-0.0204996544
 20
13.4258253125
 11
0.5512930095
 21
13.7019121911
  0
LWPOLYLINE
  5
323
100
AcDbEntity
  8
RACCORDO
100
AcDbPolyline
 62
250
  6
CONTINUOUS
 90
31
 70
0
 10
18.6756041355
 20
22.0622309996
 10
18.7112725834
 20
22.079457948
 10
18.7284606149
 20
22.0876238611
 10
18.7452007233
 20
22.095483239
 10
18.7614804753
 20
22.1030302435
 10
18.7772877444
 20
22.1102592525
 10
18.7926107438
 20
22.1171648751
 10
18.807438069
 20
22.1237419718
 10
18.8217587054
 20
22.1299856569
 10
18.835562006
 20
22.1358912883
 10
18.8488377074
 20
22.1414544749
 10
18.8615759365
 20
22.1466710794
 10
18.8737672195
 20
22.1515372218
 10
18.8854024905
 20
22.1560492836
 10
18.8964730979
 20
22.1602039098
 10
18.9069708097
 20
22.163998011
 10
18.9168878199
 20
22.1674287659
 10
18.926216754
 20
22.1704936236
 10
18.9349506752
 20
22.1731903048
 10
18.943083089
 20
22.1755168043
 10
18.950607948
 20
22.1774713923
 10
18.9575196568
 20
22.1790526152
 10
18.9638130758
 20
22.1802592972
 10
18.9694835253
 20
22.1810905412
 10
18.9745267887
 20
22.1815457288
 10
18.9789391158
 20
22.1816245218
 10
18.9827172257
 20
22.1813268614
 10
18.985858309
 20
22.1806529691
 10
18.9883600299
 20
22.1796033459
 10
18.9902205282
 20
22.1781787723
 10
18.9911446862
 20
22.1769519762
  0
LWPOLYLINE
  5
324
100
AcDbEntity
  8
RACCORDO
100
AcDbPolyline
 62
250
  6
CONTINUOUS
 90
31
 70
0
 10
18.782481909
 20
21.8778408574
 10
18.8181284688
 20
21.8950575917
 10
18.8353064406
 20
21.9032190038
 10
18.8520370908
 20
21.9110742906
 10
18.8683079952
 20
21.9186176186
 10
18.8841070708
 20
21.9258433864
 10
18.8994225853
 20
21.9327462278
 10
18.9142431651
 20
21.9393210168
 10
18.9285578045
 20
21.945562871
 10
18.9423558734
 20
21.9514671551
 10
18.9556271252
 20
21.9570294846
 10
18.9683617046
 20
21.9622457289
 10
18.9805501548
 20
21.9671120142
 10
18.9921834247
 20
21.971624727
 10
19.0032528753
 20
21.975780516
 10
19.0137502863
 20
21.9795762952
 10
19.0236678624
 20
21.9830092457
 10
19.0329982387
 20
21.9860768182
 10
19.0417344863
 20
21.9887767348
 10
19.0498701178
 20
21.9911069904
 10
19.0573990916
 20
21.9930658546
 10
19.0643158165
 20
21.9946518728
 10
19.0706151562
 20
21.9958638672
 10
19.0762924328
 20
21.9967009376
 10
19.0813434303
 20
21.9971624626
 10
19.0857643978
 20
21.9972480993
 10
19.0895520522
 20
21.9969577843
 10
19.0927035809
 20
21.996291733
 10
19.0952166434
 20
21.9952504401
 10
19.0970893736
 20
21.9938346788
 10
19.0980465109
 20
21.9925736021
  0
LINE
  5
325
100
AcDbEntity
  8
RACCORDO
100
AcDbLine
 62
7
  6
CONTINUOUS
 10
17.5943010599
 20
22.8194681429
 11
14.0571138117
 21
21.1264925122
  0
LWPOLYLINE
  5
326
100
AcDbEntity
  8
RACCORDO
100
AcDbPolyline
 62
250
  6
CONTINUOUS
 90
26
 70
0
 10
18.1383775898
 20
22.547429878
 10
18.157637502
 20
22.5563264891
 10
18.1768739474
 20
22.5645688941
 10
18.196072641
 20
22.5721509721
 10
18.2152193255
 20
22.5790670927
 10
18.2342997827
 20
22.58531212
 10
18.2532998433
 20
22.5908814162
 10
18.2722053977
 20
22.5957708457
 10
18.2910024065
 20
22.5999767775
 10
18.3096769111
 20
22.6034960883
 10
18.3282150435
 20
22.6063261645
 10
18.3466030373
 20
22.6084649047
 10
18.3648272375
 20
22.6099107204
 10
18.3828741106
 20
22.6106625382
 10
18.400730255
 20
22.6107197996
 10
18.4183824106
 20
22.6100824622
 10
18.4358174687
 20
22.6087509991
 10
18.4530224821
 20
22.6067263993
 10
18.4699846742
 20
22.6040101661
 10
18.4866914488
 20
22.6006043167
 10
18.5031303993
 20
22.5965113802
 10
18.5192893181
 20
22.5917343961
 10
18.5351562054
 20
22.5862769118
 10
18.5507192785
 20
22.5801429801
 10
18.5659669801
 20
22.5733371561
 10
18.5732504704
 20
22.5697932076
  0
LWPOLYLINE
  5
327
100
AcDbEntity
  8
0
100
AcDbPolyline
 62
250
  6
CONTINUOUS
 90
16
 70
0
 10
-5.0922328338
 20
10.7288997419
 10
-5.1312419633
 20
10.7137675008
 10
-5.1735545912
 20
10.7007242377
 10
-5.2187173586
 20
10.6899097048
 10
-5.2662463683
 20
10.6814397745
 10
-5.3156323705
 20
10.6754051979
 10
-5.3663462181
 20
10.6718706327
 10
-5.4178445372
 20
10.67087395
 10
-5.4695755485
 20
10.6724258286
 10
-5.5209849796
 20
10.6765096411
 10
-5.5715220034
 20
10.6830816312
 10
-5.6206451406
 20
10.6920713835
 10
-5.6678280608
 20
10.7033825772
 10
-5.7125652221
 20
10.7168940183
 10
-5.7543772877
 20
10.7324609385
 10
-5.7928162618
 20
10.7499165458
  0
LWPOLYLINE
  5
328
100
AcDbEntity
  8
RACCORDO
100
AcDbPolyline
 62
250
  6
CONTINUOUS
 90
16
 70
0
 10
-5.0922328338
 20
10.7288997419
 10
-5.1312419633
 20
10.7137675008
 10
-5.1735545912
 20
10.7007242377
 10
-5.2187173586
 20
10.6899097048
 10
-5.2662463683
 20
10.6814397745
 10
-5.3156323705
 20
10.6754051979
 10
-5.3663462181
 20
10.6718706327
 10
-5.4178445372
 20
10.67087395
 10
-5.4695755485
 20
10.6724258286
 10
-5.5209849796
 20
10.6765096411
 10
-5.5715220034
 20
10.6830816312
 10
-5.6206451406
 20
10.6920713835
 10
-5.6678280608
 20
10.7033825772
 10
-5.7125652221
 20
10.7168940183
 10
-5.7543772877
 20
10.7324609385
 10
-5.7928162618
 20
10.7499165458
  0
LWPOLYLINE
  5
329
100
AcDbEntity
  8
268140580
100
AcDbPolyline
 62
7
  6
CONTINUOUS
 90
15
 70
0
 10
0.6240362539
 20
-23.8571711323
 10
0.6240197682
 20
-23.8571428818
 10
0.6236856057
 20
-23.8565248117
 10
0.6230416056
 20
-23.8551817231
 10
0.6221682859
 20
-23.8531085435
 10
0.6211521676
 20
-23.8503467687
 10
0.6200533423
 20
-23.8469027546
 10
0.6189241777
 20
-23.8427775909
 10
0.6178152625
 20
-23.8379833842
 10
0.616771437
 20
-23.832527121
 10
0.6158350375
 20
-23.8264206651
 10
0.6150441506
 20
-23.8196653874
 10
0.6144359817
 20
-23.8122669672
 10
0.6140468925
 20
-23.8042469464
 10
0.6139102231
 20
-23.7956266181
  0
LINE
  5
32A
100
AcDbEntity
  8
268140580
100
AcDbLine
 62
7
  6
CONTINUOUS
 10
-10.5101835185
 20
21.6913224913
 11
-10.5101835185
 21
20.430594864
  0
LINE
  5
32B
100
AcDbEntity
  8
268140580
100
AcDbLine
 62
250
  6
CONTINUOUS
 10
-10.4223155528
 20
21.5859205529
 11
-10.4223155528
 21
20.3205408302
  0
LINE
  5
32C
100
AcDbEntity
  8
268140580
100
AcDbLine
 62
250
  6
CONTINUOUS
 10
0.7174636137
 20
16.3789775212
 11
1.2477936996
 21
17.0191425642
  0
LINE
  5
32D
100
AcDbEntity
  8
268140580
100
AcDbLine
 62
7
  6
CONTINUOUS
 10
0.7332059565
 20
16.3078778757
 11
1.2635360424
 21
16.9480429186
  0
LWPOLYLINE
  5
32E
100
AcDbEntity
  8
268140580
100
AcDbPolyline
 62
250
  6
CONTINUOUS
 90
9
 70
0
 10
0.7846341877
 20
15.472033885
 10
0.7857805264
 20
15.4732569924
 10
0.7861381807
 20
15.4738900871
 10
0.7862186596
 20
15.4745809342
 10
0.7860863312
 20
15.4752946707
 10
0.7857301236
 20
15.4759619992
 10
0.7851480545
 20
15.4765605826
 10
0.7843456192
 20
15.4771134517
 10
0.7833243901
 20
15.4776206052
  0
LINE
  5
32F
100
AcDbEntity
  8
RACCORDO
100
AcDbLine
 62
7
  6
CONTINUOUS
 10
-20.9215026479
 20
0.3490475486
 11
-20.8109110867
 21
0.4087143011
  0
LINE
  5
330
100
AcDbEntity
  8
0
100
AcDbLine
 62
7
  6
CONTINUOUS
 10
-20.9215026479
 20
0.3490475486
 11
-20.8109110867
 21
0.4087143011
  0
LINE
  5
331
100
AcDbEntity
  8
RACCORDO
100
AcDbLine
 62
250
  6
CONTINUOUS
 10
-20.8289223451
 20
0.34502122
 11
-20.7589876593
 21
0.3827525874
  0
LINE
  5
332
100
AcDbEntity
  8
0
100
AcDbLine
 62
250
  6
CONTINUOUS
 10
-20.8289223451
 20
0.34502122
 11
-20.7589876593
 21
0.3827525874
  0
LWPOLYLINE
  5
333
100
AcDbEntity
  8
RACCORDO
100
AcDbPolyline
 62
250
  6
CONTINUOUS
 90
30
 70
0
 10
19.1593537527
 20
20.4278416444
 10
19.1780148913
 20
20.4377709874
 10
19.1961279863
 20
20.4479508854
 10
19.2136795869
 20
20.4583737787
 10
19.2306566591
 20
20.4690319272
 10
19.2470465957
 20
20.4799174162
 10
19.2628372254
 20
20.491022162
 10
19.2780168221
 20
20.5023379181
 10
19.2925741132
 20
20.5138562815
 10
19.3064982884
 20
20.5255686985
 10
19.3197790076
 20
20.5374664714
 10
19.3324064084
 20
20.5495407649
 10
19.3443711136
 20
20.5617826125
 10
19.3556642383
 20
20.5741829233
 10
19.366277396
 20
20.5867324889
 10
19.3762027054
 20
20.5994219899
 10
19.3854327958
 20
20.6122420028
 10
19.3939608131
 20
20.6251830077
 10
19.4017804241
 20
20.6382353943
 10
19.4088858221
 20
20.6513894699
 10
19.4152717304
 20
20.6646354662
 10
19.420933407
 20
20.6779635467
 10
19.4258666474
 20
20.6913638138
 10
19.4300677882
 20
20.7048263165
 10
19.4335337096
 20
20.7183410575
 10
19.4362618377
 20
20.7318980005
 10
19.4382501466
 20
20.7454870781
 10
19.4394971599
 20
20.7590981991
 10
19.4400019515
 20
20.7727212557
 10
19.4400139523
 20
20.7751693198
  0
LINE
  5
334
100
AcDbEntity
  8
RACCORDO
100
AcDbLine
 62
250
  6
CONTINUOUS
 10
19.1593537527
 20
20.4278416444
 11
1.7781237855
 21
11.5850924511
  0
LWPOLYLINE
  5
335
100
AcDbEntity
  8
RACCORDO
100
AcDbPolyline
 62
250
  6
CONTINUOUS
 90
7
 70
0
 10
-20.9214189656
 20
0.3490927652
 10
-20.915978827
 20
0.351751973
 10
-20.9005127588
 20
0.3566943664
 10
-20.8837800189
 20
0.3584962255
 10
-20.8660667981
 20
0.3571267316
 10
-20.8476760573
 20
0.3526093083
 10
-20.8289223451
 20
0.34502122
  0
LWPOLYLINE
  5
336
100
AcDbEntity
  8
0
100
AcDbPolyline
 62
250
  6
CONTINUOUS
 90
7
 70
0
 10
-20.9214189656
 20
0.3490927652
 10
-20.915978827
 20
0.351751973
 10
-20.9005127588
 20
0.3566943664
 10
-20.8837800189
 20
0.3584962255
 10
-20.8660667981
 20
0.3571267316
 10
-20.8476760573
 20
0.3526093083
 10
-20.8289223451
 20
0.34502122
  0
LWPOLYLINE
  5
337
100
AcDbEntity
  8
0
100
AcDbPolyline
 62
7
  6
CONTINUOUS
 90
14
 70
0
 10
-6.0454281685
 20
-6.9740168531
 10
-6.0044214105
 20
-6.9924024706
 10
-5.9611416678
 20
-7.0077815435
 10
-5.9163754411
 20
-7.0200838939
 10
-5.8703178356
 20
-7.0294704568
 10
-5.8233208061
 20
-7.035987793
 10
-5.7757075876
 20
-7.0396819021
 10
-5.7277658294
 20
-7.0405547251
 10
-5.6799827838
 20
-7.0385929509
 10
-5.6326460952
 20
-7.0337870502
 10
-5.5860893119
 20
-7.026076913
 10
-5.5406819861
 20
-7.0154060557
 10
-5.496621182
 20
-7.0016130796
 10
-5.4509437247
 20
-6.9830147474
  0
LWPOLYLINE
  5
338
100
AcDbEntity
  8
RACCORDO
100
AcDbPolyline
 62
7
  6
CONTINUOUS
 90
14
 70
0
 10
-6.0454281685
 20
-6.9740168531
 10
-6.0044214105
 20
-6.9924024706
 10
-5.9611416678
 20
-7.0077815435
 10
-5.9163754411
 20
-7.0200838939
 10
-5.8703178356
 20
-7.0294704568
 10
-5.8233208061
 20
-7.035987793
 10
-5.7757075876
 20
-7.0396819021
 10
-5.7277658294
 20
-7.0405547251
 10
-5.6799827838
 20
-7.0385929509
 10
-5.6326460952
 20
-7.0337870502
 10
-5.5860893119
 20
-7.026076913
 10
-5.5406819861
 20
-7.0154060557
 10
-5.496621182
 20
-7.0016130796
 10
-5.4509437247
 20
-6.9830147474
  0
LWPOLYLINE
  5
339
100
AcDbEntity
  8
0
100
AcDbPolyline
 62
250
  6
CONTINUOUS
 90
19
 70
0
 10
-6.0970585669
 20
-6.8658797852
 10
-6.0652579172
 20
-6.8804781783
 10
-6.0310550235
 20
-6.8937000401
 10
-5.9947168233
 20
-6.9054239975
 10
-5.9565209145
 20
-6.9155632221
 10
-5.9167524573
 20
-6.9240521118
 10
-5.8756982253
 20
-6.930826865
 10
-5.83365795
 20
-6.9358353259
 10
-5.7909483239
 20
-6.9390481803
 10
-5.7478861505
 20
-6.9404406405
 10
-5.7047913504
 20
-6.9399908378
 10
-5.6619840959
 20
-6.9377099513
 10
-5.6197816449
 20
-6.9336221477
 10
-5.5785017713
 20
-6.9277479514
 10
-5.5384476326
 20
-6.9201288152
 10
-5.499907608
 20
-6.9108280096
 10
-5.4631681047
 20
-6.899905991
 10
-5.4285093141
 20
-6.8874359854
 10
-5.3962008596
 20
-6.8735306596
  0
LWPOLYLINE
  5
33A
100
AcDbEntity
  8
RACCORDO
100
AcDbPolyline
 62
250
  6
CONTINUOUS
 90
19
 70
0
 10
-6.0970585669
 20
-6.8658797852
 10
-6.0652579172
 20
-6.8804781783
 10
-6.0310550235
 20
-6.8937000401
 10
-5.9947168233
 20
-6.9054239975
 10
-5.9565209145
 20
-6.9155632221
 10
-5.9167524573
 20
-6.9240521118
 10
-5.8756982253
 20
-6.930826865
 10
-5.83365795
 20
-6.9358353259
 10
-5.7909483239
 20
-6.9390481803
 10
-5.7478861505
 20
-6.9404406405
 10
-5.7047913504
 20
-6.9399908378
 10
-5.6619840959
 20
-6.9377099513
 10
-5.6197816449
 20
-6.9336221477
 10
-5.5785017713
 20
-6.9277479514
 10
-5.5384476326
 20
-6.9201288152
 10
-5.499907608
 20
-6.9108280096
 10
-5.4631681047
 20
-6.899905991
 10
-5.4285093141
 20
-6.8874359854
 10
-5.3962008596
 20
-6.8735306596
  0
LINE
  5
33B
100
AcDbEntity
  8
RACCORDO
100
AcDbLine
 62
250
  6
CONTINUOUS
 10
-6.0970692261
 20
-7.5460560458
 11
-20.9642028834
 21
-0.1124892171
  0
LINE
  5
33C
100
AcDbEntity
  8
0
100
AcDbLine
 62
250
  6
CONTINUOUS
 10
-6.0970692261
 20
-7.5460560458
 11
-20.9642028834
 21
-0.1124892171
  0
LINE
  5
33D
100
AcDbEntity
  8
RACCORDO
100
AcDbLine
 62
250
  6
CONTINUOUS
 10
-5.9581160554
 20
-7.3032647245
 11
-20.8252497128
 21
0.1303021042
  0
LINE
  5
33E
100
AcDbEntity
  8
0
100
AcDbLine
 62
250
  6
CONTINUOUS
 10
-5.9581160554
 20
-7.3032647245
 11
-20.8252497128
 21
0.1303021042
  0
LINE
  5
33F
100
AcDbEntity
  8
0
100
AcDbLine
 62
7
  6
CONTINUOUS
 10
-20.9122242893
 20
0.4593709024
 11
-6.0450906343
 21
-6.9741959251
  0
LINE
  5
340
100
AcDbEntity
  8
RACCORDO
100
AcDbLine
 62
7
  6
CONTINUOUS
 10
-20.9122242893
 20
0.4593709024
 11
-6.0450906343
 21
-6.9741959251
  0
LINE
  5
341
100
AcDbEntity
  8
0
100
AcDbLine
 62
250
  6
CONTINUOUS
 10
-20.9642028834
 20
0.5676817197
 11
-6.0970692261
 21
-6.8658851089
  0
LINE
  5
342
100
AcDbEntity
  8
RACCORDO
100
AcDbLine
 62
250
  6
CONTINUOUS
 10
-20.9642028834
 20
0.5676817197
 11
-6.0970692261
 21
-6.8658851089
  0
LWPOLYLINE
  5
343
100
AcDbEntity
  8
RACCORDO
100
AcDbPolyline
 62
250
  6
CONTINUOUS
 90
10
 70
0
 10
-20.9641922173
 20
-0.1124838783
 10
-20.9933548847
 20
-0.096566494
 10
-21.019694143
 20
-0.0794128145
 10
-21.0429677748
 20
-0.0611565729
 10
-21.0630058512
 20
-0.0419384321
 10
-21.0796790755
 20
-0.0219019259
 10
-21.0928589526
 20
-0.0011899953
 10
-21.1024462284
 20
0.0200449654
 10
-21.1083871258
 20
0.0416421841
 10
-21.1106502561
 20
0.0655665335
  0
LWPOLYLINE
  5
344
100
AcDbEntity
  8
0
100
AcDbPolyline
 62
250
  6
CONTINUOUS
 90
10
 70
0
 10
-20.9641922173
 20
-0.1124838783
 10
-20.9933548847
 20
-0.096566494
 10
-21.019694143
 20
-0.0794128145
 10
-21.0429677748
 20
-0.0611565729
 10
-21.0630058512
 20
-0.0419384321
 10
-21.0796790755
 20
-0.0219019259
 10
-21.0928589526
 20
-0.0011899953
 10
-21.1024462284
 20
0.0200449654
 10
-21.1083871258
 20
0.0416421841
 10
-21.1106502561
 20
0.0655665335
  0
LWPOLYLINE
  5
345
100
AcDbEntity
  8
RACCORDO
100
AcDbPolyline
 62
250
  6
CONTINUOUS
 90
13
 70
0
 10
-20.8252497128
 20
0.1303021042
 10
-20.842810029
 20
0.1399046965
 10
-20.8584881981
 20
0.1501254038
 10
-20.87228422
 20
0.1609642261
 10
-20.8842880228
 20
0.1725177712
 10
-20.8944096784
 20
0.1846894313
 10
-20.9023794029
 20
0.1971893829
 10
-20.9081350006
 20
0.2100195345
 10
-20.9117386672
 20
0.2231779778
 10
-20.9131072053
 20
0.2363691637
 10
-20.9121882242
 20
0.2495930435
 10
-20.9090341146
 20
0.262849666
 10
-20.9037188514
 20
0.2758436294
  0
LWPOLYLINE
  5
346
100
AcDbEntity
  8
0
100
AcDbPolyline
 62
250
  6
CONTINUOUS
 90
13
 70
0
 10
-20.8252497128
 20
0.1303021042
 10
-20.842810029
 20
0.1399046965
 10
-20.8584881981
 20
0.1501254038
 10
-20.87228422
 20
0.1609642261
 10
-20.8842880228
 20
0.1725177712
 10
-20.8944096784
 20
0.1846894313
 10
-20.9023794029
 20
0.1971893829
 10
-20.9081350006
 20
0.2100195345
 10
-20.9117386672
 20
0.2231779778
 10
-20.9131072053
 20
0.2363691637
 10
-20.9121882242
 20
0.2495930435
 10
-20.9090341146
 20
0.262849666
 10
-20.9037188514
 20
0.2758436294
  0
LWPOLYLINE
  5
347
100
AcDbEntity
  8
268140580
100
AcDbPolyline
 62
7
  6
CONTINUOUS
 90
25
 70
0
 10
-12.6822098898
 20
22.3444026043
 10
-12.6804649577
 20
22.3301990368
 10
-12.6791608526
 20
22.3163656521
 10
-12.6782975745
 20
22.3029024502
 10
-12.6778057597
 20
22.2898002766
 10
-12.677754772
 20
22.2770682859
 10
-12.6783527024
 20
22.2647339412
 10
-12.6796605014
 20
22.2527891432
 10
-12.6816172186
 20
22.2412419913
 10
-12.6842480945
 20
22.2301442474
 10
-12.6875883338
 20
22.2195141126
 10
-12.6916027318
 20
22.2093333858
 10
-12.6962109159
 20
22.199599225
 10
-12.7014096338
 20
22.1903321055
 10
-12.7072021378
 20
22.1815115519
 10
-12.7135178114
 20
22.1730732971
 10
-12.7203622199
 20
22.1650026361
 10
-12.7277297981
 20
22.1573142738
 10
-12.7355332337
 20
22.1499880571
 10
-12.7437750956
 20
22.1430210897
 10
-12.7524528149
 20
22.1364162679
 10
-12.7614713721
 20
22.1301621274
 10
-12.7707990938
 20
22.1242548466
 10
-12.7804676534
 20
22.1186982469
 10
-12.7904770508
 20
22.1134923285
  0
LWPOLYLINE
  5
348
100
AcDbEntity
  8
RACCORDO
100
AcDbPolyline
 62
250
  6
CONTINUOUS
 90
22
 70
0
 10
-5.0922328338
 20
-24.8534326213
 10
-5.0883257264
 20
-24.9125503733
 10
-5.0809761103
 20
-24.9690066994
 10
-5.0701839854
 20
-25.0228015998
 10
-5.0558623974
 20
-25.0741942696
 10
-5.0380983006
 20
-25.1229255136
 10
-5.0171525588
 20
-25.1682177458
 10
-4.9929755264
 20
-25.2100035224
 10
-4.965616849
 20
-25.2483502871
 10
-4.9354863266
 20
-25.2826827851
 10
-4.9025490619
 20
-25.3129357645
 10
-4.8668399522
 20
-25.3391744771
 10
-4.8288734894
 20
-25.3610194235
 10
-4.7886078973
 20
-25.3784096978
 10
-4.7460849521
 20
-25.3914062058
 10
-4.7019444744
 20
-25.3998121657
 10
-4.6561541004
 20
-25.40355114
 10
-4.6087461938
 20
-25.4026995661
 10
-4.5604576661
 20
-25.3972899746
 10
-4.5115341543
 20
-25.3873332087
 10
-4.4617300213
 20
-25.3728184251
 10
-4.4110452671
 20
-25.3537456237
  0
LWPOLYLINE
  5
349
100
AcDbEntity
  8
0
100
AcDbPolyline
 62
250
  6
CONTINUOUS
 90
22
 70
0
 10
-5.0922328338
 20
-24.8534326213
 10
-5.0883257264
 20
-24.9125503733
 10
-5.0809761103
 20
-24.9690066994
 10
-5.0701839854
 20
-25.0228015998
 10
-5.0558623974
 20
-25.0741942696
 10
-5.0380983006
 20
-25.1229255136
 10
-5.0171525588
 20
-25.1682177458
 10
-4.9929755264
 20
-25.2100035224
 10
-4.965616849
 20
-25.2483502871
 10
-4.9354863266
 20
-25.2826827851
 10
-4.9025490619
 20
-25.3129357645
 10
-4.8668399522
 20
-25.3391744771
 10
-4.8288734894
 20
-25.3610194235
 10
-4.7886078973
 20
-25.3784096978
 10
-4.7460849521
 20
-25.3914062058
 10
-4.7019444744
 20
-25.3998121657
 10
-4.6561541004
 20
-25.40355114
 10
-4.6087461938
 20
-25.4026995661
 10
-4.5604576661
 20
-25.3972899746
 10
-4.5115341543
 20
-25.3873332087
 10
-4.4617300213
 20
-25.3728184251
 10
-4.4110452671
 20
-25.3537456237
  0
LWPOLYLINE
  5
34A
100
AcDbEntity
  8
RACCORDO
100
AcDbPolyline
 62
250
  6
CONTINUOUS
 90
13
 70
0
 10
-5.7928162621
 20
-24.8680337679
 10
-5.78705983
 20
-24.9563365827
 10
-5.7760296129
 20
-25.0413398676
 10
-5.7597806516
 20
-25.1226241233
 10
-5.7383932695
 20
-25.199785303
 10
-5.7119738459
 20
-25.2724469951
 10
-5.6806516718
 20
-25.3402597925
 10
-5.6445724025
 20
-25.40289668
 10
-5.6039161723
 20
-25.46003702
 10
-5.5588999692
 20
-25.5113815272
 10
-5.5097560874
 20
-25.5566721151
 10
-5.4567184974
 20
-25.5957004557
 10
-5.4004349357
 20
-25.6280843237
  0
LWPOLYLINE
  5
34B
100
AcDbEntity
  8
0
100
AcDbPolyline
 62
250
  6
CONTINUOUS
 90
13
 70
0
 10
-5.7928162621
 20
-24.8680337679
 10
-5.78705983
 20
-24.9563365827
 10
-5.7760296129
 20
-25.0413398676
 10
-5.7597806516
 20
-25.1226241233
 10
-5.7383932695
 20
-25.199785303
 10
-5.7119738459
 20
-25.2724469951
 10
-5.6806516718
 20
-25.3402597925
 10
-5.6445724025
 20
-25.40289668
 10
-5.6039161723
 20
-25.46003702
 10
-5.5588999692
 20
-25.5113815272
 10
-5.5097560874
 20
-25.5566721151
 10
-5.4567184974
 20
-25.5957004557
 10
-5.4004349357
 20
-25.6280843237
  0
LWPOLYLINE
  5
34C
100
AcDbEntity
  8
0
100
AcDbPolyline
 62
250
  6
CONTINUOUS
 90
8
 70
0
 10
-6.0970692261
 20
-6.8658851089
 10
-6.0958991243
 20
-6.8876711445
 10
-6.0923797456
 20
-6.90790999
 10
-6.0865700736
 20
-6.9262626588
 10
-6.0785674463
 20
-6.9424217772
 10
-6.0685059428
 20
-6.9561166945
 10
-6.0565541502
 20
-6.9671180342
 10
-6.045431878
 20
-6.9740242156
  0
LWPOLYLINE
  5
34D
100
AcDbEntity
  8
RACCORDO
100
AcDbPolyline
 62
250
  6
CONTINUOUS
 90
8
 70
0
 10
-6.0970692261
 20
-6.8658851089
 10
-6.0958991243
 20
-6.8876711445
 10
-6.0923797456
 20
-6.90790999
 10
-6.0865700736
 20
-6.9262626588
 10
-6.0785674463
 20
-6.9424217772
 10
-6.0685059428
 20
-6.9561166945
 10
-6.0565541502
 20
-6.9671180342
 10
-6.045431878
 20
-6.9740242156
  0
LWPOLYLINE
  5
34E
100
AcDbEntity
  8
268140580
100
AcDbPolyline
 62
250
  6
CONTINUOUS
 90
27
 70
0
 10
-0.873526644
 20
15.9584823924
 10
-0.878394799
 20
15.9464775894
 10
-0.8837341433
 20
15.9347479571
 10
-0.8895300423
 20
15.9233256455
 10
-0.8957666097
 20
15.9122419624
 10
-0.9024267515
 20
15.9015272875
 10
-0.9094922128
 20
15.8912109888
 10
-0.9169436276
 20
15.8813213428
 10
-0.9247605721
 20
15.8718854561
 10
-0.9329216205
 20
15.8629291919
 10
-0.9414044042
 20
15.8544770987
 10
-0.9501856722
 20
15.8465523431
 10
-0.9592413558
 20
15.8391766463
 10
-0.9685466339
 20
15.8323702246
 10
-0.9780760015
 20
15.8261517338
 10
-0.9878033393
 20
15.8205382186
 10
-0.9977019851
 20
15.815545065
 10
-1.0077448077
 20
15.8111859591
 10
-1.0179042802
 20
15.8074728487
 10
-1.0281525562
 20
15.8044159113
 10
-1.0384615461
 20
15.8020235258
 10
-1.0488029934
 20
15.8003022494
 10
-1.0591485531
 20
15.7992568002
 10
-1.0694698687
 20
15.7988900435
 10
-1.0797386502
 20
15.7992029847
 10
-1.0899267515
 20
15.800194766
 10
-1.1010040918
 20
15.802065851
  0
LWPOLYLINE
  5
34F
100
AcDbEntity
  8
RACCORDO
100
AcDbPolyline
 62
250
  6
CONTINUOUS
 90
8
 70
0
 10
9.6251428912
 20
21.0893006519
 10
9.6701817262
 20
21.1379879992
 10
9.7320257421
 20
21.196699786
 10
9.8001082958
 20
21.2539033824
 10
9.874103246
 20
21.3092869755
 10
9.954031028
 20
21.3628309946
 10
10.0392386952
 20
21.4140915679
 10
10.1068334597
 20
21.4511676372
  0
LINE
  5
350
100
AcDbEntity
  8
RACCORDO
100
AcDbLine
 62
7
  6
CONTINUOUS
 10
-1.6078433888
 20
7.5310808144
 11
-1.7927654595
 21
7.4356625454
  0
LINE
  5
351
100
AcDbEntity
  8
268140580
100
AcDbLine
 62
250
  6
CONTINUOUS
 10
-0.8151585606
 20
8.1447238191
 11
-1.7927654595
 21
7.6932325564
  0
LINE
  5
352
100
AcDbEntity
  8
268140580
100
AcDbLine
 62
7
  6
CONTINUOUS
 10
-0.8962510616
 20
7.9809701504
 11
-1.7927654595
 21
7.566930092
  0
LWPOLYLINE
  5
353
100
AcDbEntity
  8
RACCORDO
100
AcDbPolyline
 62
250
  6
CONTINUOUS
 90
13
 70
0
 10
-5.3961895141
 20
-7.5445238964
 10
-5.3977053399
 20
-7.5214661177
 10
-5.4015716137
 20
-7.4975724412
 10
-5.4077221698
 20
-7.473251569
 10
-5.4160517811
 20
-7.4489194799
 10
-5.4264179395
 20
-7.4249923751
 10
-5.4386432782
 20
-7.401879555
 10
-5.4525186512
 20
-7.3799763243
 10
-5.4678067095
 20
-7.3596572681
 10
-5.4842459238
 20
-7.3412698951
 10
-5.5015550981
 20
-7.3251286379
 10
-5.5194381859
 20
-7.3115094848
 10
-5.5375893312
 20
-7.300645287
  0
LWPOLYLINE
  5
354
100
AcDbEntity
  8
0
100
AcDbPolyline
 62
250
  6
CONTINUOUS
 90
13
 70
0
 10
-5.3961895141
 20
-7.5445238964
 10
-5.3977053399
 20
-7.5214661177
 10
-5.4015716137
 20
-7.4975724412
 10
-5.4077221698
 20
-7.473251569
 10
-5.4160517811
 20
-7.4489194799
 10
-5.4264179395
 20
-7.4249923751
 10
-5.4386432782
 20
-7.401879555
 10
-5.4525186512
 20
-7.3799763243
 10
-5.4678067095
 20
-7.3596572681
 10
-5.4842459238
 20
-7.3412698951
 10
-5.5015550981
 20
-7.3251286379
 10
-5.5194381859
 20
-7.3115094848
 10
-5.5375893312
 20
-7.300645287
  0
LWPOLYLINE
  5
355
100
AcDbEntity
  8
RACCORDO
100
AcDbPolyline
 62
250
  6
CONTINUOUS
 90
5
 70
0
 10
-5.2995906438
 20
-17.1973095691
 10
-5.2585906475
 20
-19.1168758574
 10
-5.2103644279
 20
-21.0327468447
 10
-5.1549118233
 20
-22.9449324326
 10
-5.0922328338
 20
-24.8534326213
  0
LWPOLYLINE
  5
356
100
AcDbEntity
  8
0
100
AcDbPolyline
 62
250
  6
CONTINUOUS
 90
5
 70
0
 10
-5.2995906438
 20
-17.1973095691
 10
-5.2585906475
 20
-19.1168758574
 10
-5.2103644279
 20
-21.0327468447
 10
-5.1549118233
 20
-22.9449324326
 10
-5.0922328338
 20
-24.8534326213
  0
LWPOLYLINE
  5
357
100
AcDbEntity
  8
RACCORDO
100
AcDbPolyline
 62
250
  6
CONTINUOUS
 90
10
 70
0
 10
-6.0970692261
 20
-7.5460560458
 10
-6.0921860708
 20
-9.4853217384
 10
-6.0800707871
 20
-11.4210049528
 10
-6.0607241026
 20
-13.353067022
 10
-6.0341473426
 20
-15.2814396659
 10
-6.0003412849
 20
-17.206114182
 10
-5.959305064
 20
-19.1271408709
 10
-5.9110382097
 20
-21.0445103744
 10
-5.8555417427
 20
-22.9581542517
 10
-5.7928162621
 20
-24.8680337679
  0
LWPOLYLINE
  5
358
100
AcDbEntity
  8
0
100
AcDbPolyline
 62
250
  6
CONTINUOUS
 90
10
 70
0
 10
-6.0970692261
 20
-7.5460560458
 10
-6.0921860708
 20
-9.4853217384
 10
-6.0800707871
 20
-11.4210049528
 10
-6.0607241026
 20
-13.353067022
 10
-6.0341473426
 20
-15.2814396659
 10
-6.0003412849
 20
-17.206114182
 10
-5.959305064
 20
-19.1271408709
 10
-5.9110382097
 20
-21.0445103744
 10
-5.8555417427
 20
-22.9581542517
 10
-5.7928162621
 20
-24.8680337679
  0
LWPOLYLINE
  5
359
100
AcDbEntity
  8
RACCORDO
100
AcDbPolyline
 62
250
  6
CONTINUOUS
 90
6
 70
0
 10
-5.3961895141
 20
-7.5445238964
 10
-5.391323545
 20
-9.4823884583
 10
-5.3792307057
 20
-11.4165973261
 10
-5.3599109964
 20
-13.3471505
 10
-5.3333642551
 20
-15.2740578816
 10
-5.2995906438
 20
-17.1973095691
  0
LWPOLYLINE
  5
35A
100
AcDbEntity
  8
0
100
AcDbPolyline
 62
250
  6
CONTINUOUS
 90
6
 70
0
 10
-5.3961895141
 20
-7.5445238964
 10
-5.391323545
 20
-9.4823884583
 10
-5.3792307057
 20
-11.4165973261
 10
-5.3599109964
 20
-13.3471505
 10
-5.3333642551
 20
-15.2740578816
 10
-5.2995906438
 20
-17.1973095691
  0
LINE
  5
35B
100
AcDbEntity
  8
268140580
100
AcDbLine
 62
250
  6
CONTINUOUS
 10
-4.9747459748
 20
22.6626006558
 11
-4.9747459748
 21
21.3934988164
  0
LINE
  5
35C
100
AcDbEntity
  8
268140580
100
AcDbLine
 62
250
  6
CONTINUOUS
 10
-4.6183452214
 20
17.4185556645
 11
-4.6183452214
 21
18.6839353872
  0
LINE
  5
35D
100
AcDbEntity
  8
268140580
100
AcDbLine
 62
250
  6
CONTINUOUS
 10
-4.1928628851
 20
17.432862679
 11
-4.1928628851
 21
18.682267674
  0
LWPOLYLINE
  5
35E
100
AcDbEntity
  8
0
100
AcDbPolyline
 62
250
  6
CONTINUOUS
 90
6
 70
0
 10
-5.2995906438
 20
2.8725335803
 10
-5.3333642551
 20
0.9166670954
 10
-5.3599109964
 20
-1.0358761762
 10
-5.3792307057
 20
-2.9850861766
 10
-5.391323545
 20
-4.9309729636
 10
-5.3961895141
 20
-6.8735365372
  0
LWPOLYLINE
  5
35F
100
AcDbEntity
  8
RACCORDO
100
AcDbPolyline
 62
250
  6
CONTINUOUS
 90
6
 70
0
 10
-5.2995906438
 20
2.8725335803
 10
-5.3333642551
 20
0.9166670954
 10
-5.3599109964
 20
-1.0358761762
 10
-5.3792307057
 20
-2.9850861766
 10
-5.391323545
 20
-4.9309729636
 10
-5.3961895141
 20
-6.8735365372
  0
LWPOLYLINE
  5
360
100
AcDbEntity
  8
0
100
AcDbPolyline
 62
250
  6
CONTINUOUS
 90
9
 70
0
 10
-5.8555417427
 20
8.7794616476
 10
-5.9110382097
 20
6.8122235767
 10
-5.959305064
 20
4.848241667
 10
-6.0003412849
 20
2.887585385
 10
-6.0341473426
 20
0.9302636136
 10
-6.0607241026
 20
-1.0237748291
 10
-6.0800707871
 20
-2.9745204682
 10
-6.0921860708
 20
-4.9219036931
 10
-6.0970692261
 20
-6.8658851089
  0
LWPOLYLINE
  5
361
100
AcDbEntity
  8
RACCORDO
100
AcDbPolyline
 62
250
  6
CONTINUOUS
 90
9
 70
0
 10
-5.8555417427
 20
8.7794616476
 10
-5.9110382097
 20
6.8122235767
 10
-5.959305064
 20
4.848241667
 10
-6.0003412849
 20
2.887585385
 10
-6.0341473426
 20
0.9302636136
 10
-6.0607241026
 20
-1.0237748291
 10
-6.0800707871
 20
-2.9745204682
 10
-6.0921860708
 20
-4.9219036931
 10
-6.0970692261
 20
-6.8658851089
  0
LWPOLYLINE
  5
362
100
AcDbEntity
  8
0
100
AcDbPolyline
 62
250
  6
CONTINUOUS
 90
4
 70
0
 10
-5.1549118233
 20
8.7598711567
 10
-5.2103644279
 20
6.7941356109
 10
-5.2585906475
 20
4.8316931048
 10
-5.2995906438
 20
2.8725335803
  0
LWPOLYLINE
  5
363
100
AcDbEntity
  8
RACCORDO
100
AcDbPolyline
 62
250
  6
CONTINUOUS
 90
4
 70
0
 10
-5.1549118233
 20
8.7598711567
 10
-5.2103644279
 20
6.7941356109
 10
-5.2585906475
 20
4.8316931048
 10
-5.2995906438
 20
2.8725335803
  0
LINE
  5
364
100
AcDbEntity
  8
0
100
AcDbLine
 62
250
  6
CONTINUOUS
 10
-5.7928162621
 20
10.7499165456
 11
-5.8555417427
 21
8.7794616476
  0
LINE
  5
365
100
AcDbEntity
  8
RACCORDO
100
AcDbLine
 62
250
  6
CONTINUOUS
 10
-5.7928162621
 20
10.7499165456
 11
-5.8555417427
 21
8.7794616476
  0
LINE
  5
366
100
AcDbEntity
  8
0
100
AcDbLine
 62
250
  6
CONTINUOUS
 10
-5.0922328338
 20
10.7288997419
 11
-5.1549118233
 21
8.7598711567
  0
LINE
  5
367
100
AcDbEntity
  8
RACCORDO
100
AcDbLine
 62
250
  6
CONTINUOUS
 10
-5.0922328338
 20
10.7288997419
 11
-5.1549118233
 21
8.7598711567
  0
LWPOLYLINE
  5
368
100
AcDbEntity
  8
RACCORDO
100
AcDbPolyline
 62
250
  6
CONTINUOUS
 90
13
 70
0
 10
-6.0970692261
 20
-7.5460560458
 10
-6.0958991971
 20
-7.5231006422
 10
-6.0923800162
 20
-7.4993430793
 10
-6.0865706283
 20
-7.4751812864
 10
-6.0785683383
 20
-7.4510199639
 10
-6.0685071812
 20
-7.4272638039
 10
-6.0565556776
 20
-7.4043107122
 10
-6.0429140103
 20
-7.3825451438
 10
-6.0278106717
 20
-7.3623316629
 10
-6.0114986364
 20
-7.3440088372
 10
-5.9942511244
 20
-7.3278835665
 10
-5.9763570245
 20
-7.3142259424
 10
-5.9581160554
 20
-7.3032647245
  0
LWPOLYLINE
  5
369
100
AcDbEntity
  8
0
100
AcDbPolyline
 62
250
  6
CONTINUOUS
 90
13
 70
0
 10
-6.0970692261
 20
-7.5460560458
 10
-6.0958991971
 20
-7.5231006422
 10
-6.0923800162
 20
-7.4993430793
 10
-6.0865706283
 20
-7.4751812864
 10
-6.0785683383
 20
-7.4510199639
 10
-6.0685071812
 20
-7.4272638039
 10
-6.0565556776
 20
-7.4043107122
 10
-6.0429140103
 20
-7.3825451438
 10
-6.0278106717
 20
-7.3623316629
 10
-6.0114986364
 20
-7.3440088372
 10
-5.9942511244
 20
-7.3278835665
 10
-5.9763570245
 20
-7.3142259424
 10
-5.9581160554
 20
-7.3032647245
  0
LWPOLYLINE
  5
36A
100
AcDbEntity
  8
0
100
AcDbPolyline
 62
250
  6
CONTINUOUS
 90
8
 70
0
 10
-5.3961895141
 20
-6.8735365372
 10
-5.3977052505
 20
-6.8956795578
 10
-5.4015713015
 20
-6.9162135182
 10
-5.4077215434
 20
-6.9347872127
 10
-5.4160507848
 20
-6.9510829633
 10
-5.4264165651
 20
-6.9648220532
 10
-5.4386415914
 20
-6.9757694936
 10
-5.4509399734
 20
-6.983022804
  0
LWPOLYLINE
  5
36B
100
AcDbEntity
  8
RACCORDO
100
AcDbPolyline
 62
250
  6
CONTINUOUS
 90
8
 70
0
 10
-5.3961895141
 20
-6.8735365372
 10
-5.3977052505
 20
-6.8956795578
 10
-5.4015713015
 20
-6.9162135182
 10
-5.4077215434
 20
-6.9347872127
 10
-5.4160507848
 20
-6.9510829633
 10
-5.4264165651
 20
-6.9648220532
 10
-5.4386415914
 20
-6.9757694936
 10
-5.4509399734
 20
-6.983022804
  0
LWPOLYLINE
  5
36C
100
AcDbEntity
  8
268140580
100
AcDbPolyline
 62
250
  6
CONTINUOUS
 90
5
 70
0
 10
0.6087453786
 20
15.6510723805
 10
0.6112706328
 20
15.6582330947
 10
0.6129588976
 20
15.6654551092
 10
0.6138044606
 20
15.6727139872
 10
0.6139102231
 20
15.6763495771
  0
LWPOLYLINE
  5
36D
100
AcDbEntity
  8
268140580
100
AcDbPolyline
 62
250
  6
CONTINUOUS
 90
25
 70
0
 10
-0.3431965581
 20
15.8486474353
 10
-0.3486349815
 20
15.8353251108
 10
-0.3546531618
 20
15.8223469485
 10
-0.3612307348
 20
15.8097568625
 10
-0.3683454437
 20
15.7975974536
 10
-0.3759732139
 20
15.7859098652
 10
-0.3840882347
 20
15.7747336448
 10
-0.3926630468
 20
15.7641066089
 10
-0.4016686352
 20
15.7540647156
 10
-0.4110745274
 20
15.7446419432
 10
-0.4208488963
 20
15.735870175
 10
-0.4309586681
 20
15.7277790913
 10
-0.4413696342
 20
15.7203960691
 10
-0.452046567
 20
15.7137460896
 10
-0.4629533388
 20
15.7078516534
 10
-0.4740530447
 20
15.7027327048
 10
-0.4853081267
 20
15.6984065639
 10
-0.4966805011
 20
15.6948878683
 10
-0.5081316879
 20
15.6921885234
 10
-0.51962294
 20
15.6903176622
 10
-0.5311153747
 20
15.6892816145
 10
-0.5425701063
 20
15.6890838855
 10
-0.5539483756
 20
15.6897251437
 10
-0.5652116825
 20
15.6912032189
 10
-0.570674006
 20
15.692230894
  0
LWPOLYLINE
  5
36E
100
AcDbEntity
  8
RACCORDO
100
AcDbPolyline
 62
250
  6
CONTINUOUS
 90
35
 70
0
 10
9.7029347063
 20
21.0565205021
 10
9.7455907378
 20
21.1076574064
 10
9.7985071219
 20
21.1628026394
 10
9.8576686441
 20
21.2175489895
 10
9.9223400966
 20
21.2707077336
 10
9.9925919784
 20
21.3220927158
 10
10.0683537904
 20
21.3718900918
 10
10.1486788288
 20
21.4194696051
 10
10.2334563735
 20
21.4647005761
 10
10.3227971445
 20
21.5077136843
 10
10.4160865975
 20
21.5482707124
 10
10.5133364489
 20
21.5863686997
 10
10.6145349822
 20
21.622010607
 10
10.7190325035
 20
21.654967099
 10
10.8269155921
 20
21.685241641
 10
10.9380976687
 20
21.7128307677
 10
11.0516693017
 20
21.7374947479
 10
11.1676498525
 20
21.7592048676
 10
11.2860199596
 20
21.7779898407
 10
11.4058121073
 20
21.7936960777
 10
11.5270168934
 20
21.8062955512
 10
11.6496437202
 20
21.8158162886
 10
11.7727532787
 20
21.8221887825
 10
11.8963500804
 20
21.8253900722
 10
12.020429614
 20
21.8254431183
 10
12.1440390358
 20
21.8223472958
 10
12.2671807726
 20
21.8160782734
 10
12.3898523977
 20
21.8066603824
 10
12.5110937878
 20
21.7941659914
 10
12.6308938819
 20
21.7785706782
 10
12.7492637411
 20
21.759898865
 10
12.8652764257
 20
21.7382961875
 10
12.978622956
 20
21.7138111908
 10
13.0896123118
 20
21.6863953297
 10
13.198244493
 20
21.6560486042
  0
LWPOLYLINE
  5
36F
100
AcDbEntity
  8
RACCORDO
100
AcDbPolyline
 62
7
  6
CONTINUOUS
 90
10
 70
0
 10
21.040740734
 20
17.1187440821
 10
21.0393116693
 20
17.1179533506
 10
21.0378546309
 20
17.1172599319
 10
21.0363692964
 20
17.1166640462
 10
21.0348594591
 20
17.1161630427
 10
21.033320757
 20
17.115759995
 10
21.0317403194
 20
17.1154638597
 10
21.030113289
 20
17.1152779489
 10
21.0284431762
 20
17.1151997709
 10
21.0267293411
 20
17.1152297374
  0
LINE
  5
370
100
AcDbEntity
  8
RACCORDO
100
AcDbLine
 62
7
  6
CONTINUOUS
 10
-1.6078433888
 20
4.0164985695
 11
-1.7927654595
 21
3.9237387722
  0
LINE
  5
371
100
AcDbEntity
  8
268140580
100
AcDbLine
 62
7
  6
CONTINUOUS
 10
-1.7467076622
 20
-5.8553528694
 11
-1.7927654595
 21
-5.8323239708
  0
LINE
  5
372
100
AcDbEntity
  8
RACCORDO
100
AcDbLine
 62
7
  6
CONTINUOUS
 10
-2.0653513458
 20
-5.4194467338
 11
-1.9341652766
 21
-5.4850397684
  0
LINE
  5
373
100
AcDbEntity
  8
0
100
AcDbLine
 62
7
  6
CONTINUOUS
 10
-2.0653513458
 20
-5.4194467338
 11
-1.9341652766
 21
-5.4850397684
  0
LWPOLYLINE
  5
374
100
AcDbEntity
  8
0
100
AcDbPolyline
 62
250
  6
CONTINUOUS
 90
16
 70
0
 10
-4.4110452671
 20
11.887027931
 10
-4.4149118994
 20
11.9322362483
 10
-4.4225371702
 20
11.9789178807
 10
-4.4338376451
 20
12.0265619777
 10
-4.4486896706
 20
12.0746471554
 10
-4.4669307252
 20
12.1226471965
 10
-4.4883611966
 20
12.170036809
 10
-4.5127465708
 20
12.2162973857
 10
-4.539819994
 20
12.2609226697
 10
-4.5692851891
 20
12.3034242905
 10
-4.6008197087
 20
12.3433371268
 10
-4.6340784574
 20
12.3802243845
 10
-4.66869746
 20
12.4136823703
 10
-4.7042978598
 20
12.4433449276
 10
-4.7404900658
 20
12.4688874405
 10
-4.7768780065
 20
12.4900303771
  0
LWPOLYLINE
  5
375
100
AcDbEntity
  8
RACCORDO
100
AcDbPolyline
 62
250
  6
CONTINUOUS
 90
16
 70
0
 10
-4.4110452671
 20
11.887027931
 10
-4.4149118994
 20
11.9322362483
 10
-4.4225371702
 20
11.9789178807
 10
-4.4338376451
 20
12.0265619777
 10
-4.4486896706
 20
12.0746471554
 10
-4.4669307252
 20
12.1226471965
 10
-4.4883611966
 20
12.170036809
 10
-4.5127465708
 20
12.2162973857
 10
-4.539819994
 20
12.2609226697
 10
-4.5692851891
 20
12.3034242905
 10
-4.6008197087
 20
12.3433371268
 10
-4.6340784574
 20
12.3802243845
 10
-4.66869746
 20
12.4136823703
 10
-4.7042978598
 20
12.4433449276
 10
-4.7404900658
 20
12.4688874405
 10
-4.7768780065
 20
12.4900303771
  0
LWPOLYLINE
  5
376
100
AcDbEntity
  8
268140580
100
AcDbPolyline
 62
250
  6
CONTINUOUS
 90
17
 70
0
 10
-2.5705829188
 20
-25.0376808334
 10
-2.5702805093
 20
-25.0501882112
 10
-2.5693743152
 20
-25.0623503869
 10
-2.5678674372
 20
-25.0741257494
 10
-2.5657650306
 20
-25.0854740106
 10
-2.5630742888
 20
-25.0963563439
 10
-2.5598044177
 20
-25.1067355168
 10
-2.5559666047
 20
-25.1165760183
 10
-2.5515739805
 20
-25.1258441803
 10
-2.5466415738
 20
-25.134508293
 10
-2.5411862603
 20
-25.1425387133
 10
-2.5352267046
 20
-25.149907966
 10
-2.5287832967
 20
-25.1565908381
 10
-2.5218780817
 20
-25.1625644652
 10
-2.514534685
 20
-25.1678084091
 10
-2.5067782312
 20
-25.1723047284
 10
-2.505615333
 20
-25.172896428
  0
LWPOLYLINE
  5
377
100
AcDbEntity
  8
268140580
100
AcDbPolyline
 62
250
  6
CONTINUOUS
 90
16
 70
0
 10
-2.5705829188
 20
16.6302338345
 10
-2.5702838406
 20
16.6177946489
 10
-2.569387618
 20
16.6056966317
 10
-2.5678972836
 20
16.5939807188
 10
-2.5658178801
 20
16.5826865532
 10
-2.5631564436
 20
16.5718523508
 10
-2.5599219796
 20
16.5615147709
 10
-2.5561254325
 20
16.5517087929
 10
-2.5517796485
 20
16.5424675969
 10
-2.5468993324
 20
16.5338224522
 10
-2.5415009978
 20
16.5258026114
 10
-2.5356029108
 20
16.5184352109
 10
-2.5292250286
 20
16.5117451798
 10
-2.5223889321
 20
16.505755155
 10
-2.5151177524
 20
16.5004854048
 10
-2.5075711306
 20
16.4960334232
  0
LWPOLYLINE
  5
378
100
AcDbEntity
  8
268140580
100
AcDbPolyline
 62
7
  6
CONTINUOUS
 90
22
 70
0
 10
-3.6312430906
 20
24.0570758039
 10
-3.6315642791
 20
24.0755862385
 10
-3.6325496715
 20
24.0937196611
 10
-3.6341992675
 20
24.1114760715
 10
-3.6365189516
 20
24.1289086311
 10
-3.6395028395
 20
24.1459641787
 10
-3.6431332784
 20
24.1624832305
 10
-3.647420308
 20
24.1784519572
 10
-3.6523538888
 20
24.1938841881
 10
-3.6578862493
 20
24.2086619275
 10
-3.6640092807
 20
24.2227553054
 10
-3.6707310919
 20
24.2361941917
 10
-3.6780282391
 20
24.2489501999
 10
-3.6858982767
 20
24.2610288054
 10
-3.6943436503
 20
24.2724245327
 10
-3.7033482528
 20
24.2830925688
 10
-3.7129339425
 20
24.2930484528
 10
-3.7230788611
 20
24.3022766456
 10
-3.733701326
 20
24.3106857168
 10
-3.744809783
 20
24.3182608986
 10
-3.7563957862
 20
24.3250169589
 10
-3.7611801042
 20
24.3275079142
  0
LINE
  5
379
100
AcDbEntity
  8
268140580
100
AcDbLine
 62
7
  6
CONTINUOUS
 10
-4.0088201486
 20
22.7920101784
 11
-4.0088201486
 21
22.1857923957
  0
LINE
  5
37A
100
AcDbEntity
  8
268140580
100
AcDbLine
 62
7
  6
CONTINUOUS
 10
-3.6312430906
 20
24.0570758039
 11
-3.6312430906
 21
23.334352098
  0
LINE
  5
37B
100
AcDbEntity
  8
268140580
100
AcDbLine
 62
250
  6
CONTINUOUS
 10
-3.5605324125
 20
22.0563828732
 11
-3.5605324125
 21
21.5326964831
  0
LINE
  5
37C
100
AcDbEntity
  8
268140580
100
AcDbLine
 62
7
  6
CONTINUOUS
 10
-2.6438062235
 20
-24.8285641202
 11
-2.6438062235
 21
-24.9492924858
  0
LINE
  5
37D
100
AcDbEntity
  8
268140580
100
AcDbLine
 62
7
  6
CONTINUOUS
 10
-2.6438062235
 20
16.7186221822
 11
-2.6438062235
 21
17.0869327107
  0
LINE
  5
37E
100
AcDbEntity
  8
268140580
100
AcDbLine
 62
250
  6
CONTINUOUS
 10
-2.5705829188
 20
-24.7978279511
 11
-2.5705829188
 21
-25.0376808334
  0
LINE
  5
37F
100
AcDbEntity
  8
268140580
100
AcDbLine
 62
250
  6
CONTINUOUS
 10
-2.5705829188
 20
16.6302338345
 11
-2.5705829188
 21
16.9985443631
  0
LINE
  5
380
100
AcDbEntity
  8
0
100
AcDbLine
 62
7
  6
CONTINUOUS
 10
-2.3683249603
 20
13.0022089891
 11
-2.3683249603
 21
12.1517146647
  0
LINE
  5
381
100
AcDbEntity
  8
RACCORDO
100
AcDbLine
 62
7
  6
CONTINUOUS
 10
-2.3683249603
 20
13.0022089891
 11
-2.3683249603
 21
12.1517146647
  0
LINE
  5
382
100
AcDbEntity
  8
RACCORDO
100
AcDbLine
 62
7
  6
CONTINUOUS
 10
-2.3683249603
 20
-24.4962946114
 11
-2.3683249603
 21
-23.645800287
  0
LINE
  5
383
100
AcDbEntity
  8
0
100
AcDbLine
 62
7
  6
CONTINUOUS
 10
-2.3683249603
 20
-24.4962946114
 11
-2.3683249603
 21
-23.645800287
  0
LINE
  5
384
100
AcDbEntity
  8
268140580
100
AcDbLine
 62
7
  6
CONTINUOUS
 10
-1.9366994423
 20
-23.4646214266
 11
-1.9366994423
 21
-23.4774285666
  0
LINE
  5
385
100
AcDbEntity
  8
268140580
100
AcDbLine
 62
7
  6
CONTINUOUS
 10
-1.9366994423
 20
15.7565861927
 11
-1.9366994423
 21
16.2105602944
  0
LWPOLYLINE
  5
386
100
AcDbEntity
  8
RACCORDO
100
AcDbPolyline
 62
250
  6
CONTINUOUS
 90
10
 70
0
 10
-4.4110452671
 20
-25.3537456237
 10
-4.4149119331
 20
-25.3988849217
 10
-4.4225372753
 20
-25.4415622179
 10
-4.4338378459
 20
-25.4813104739
 10
-4.4486899773
 20
-25.5176947055
 10
-4.4669311355
 20
-25.5503167424
 10
-4.4883616986
 20
-25.5788195859
 10
-4.5127471417
 20
-25.6028913156
 10
-4.5398206031
 20
-25.622268503
 10
-4.5648525124
 20
-25.634941322
  0
LWPOLYLINE
  5
387
100
AcDbEntity
  8
0
100
AcDbPolyline
 62
250
  6
CONTINUOUS
 90
10
 70
0
 10
-4.4110452671
 20
-25.3537456237
 10
-4.4149119331
 20
-25.3988849217
 10
-4.4225372753
 20
-25.4415622179
 10
-4.4338378459
 20
-25.4813104739
 10
-4.4486899773
 20
-25.5176947055
 10
-4.4669311355
 20
-25.5503167424
 10
-4.4883616986
 20
-25.5788195859
 10
-4.5127471417
 20
-25.6028913156
 10
-4.5398206031
 20
-25.622268503
 10
-4.5648525124
 20
-25.634941322
  0
LWPOLYLINE
  5
388
100
AcDbEntity
  8
RACCORDO
100
AcDbPolyline
 62
7
  6
CONTINUOUS
 90
21
 70
0
 10
21.0393116693
 20
16.3481511051
 10
21.0466019707
 20
16.3527179397
 10
21.0522366799
 20
16.3564924069
 10
21.0576395176
 20
16.3603705996
 10
21.0628053615
 20
16.3643489871
 10
21.0677293252
 20
16.3684237343
 10
21.0724067614
 20
16.3725907059
 10
21.0768332533
 20
16.3768460863
 10
21.0810046218
 20
16.3811858999
 10
21.0849169368
 20
16.3856056736
 10
21.0885665192
 20
16.3901014056
 10
21.0919499394
 20
16.3946689477
 10
21.095064023
 20
16.3993035265
 10
21.0979058593
 20
16.4040009884
 10
21.1004727979
 20
16.4087570489
 10
21.1027624497
 20
16.4135666741
 10
21.1047726975
 20
16.4184255951
 10
21.1065016918
 20
16.4233294278
 10
21.1079478503
 20
16.42827292
 10
21.1091098669
 20
16.4332517249
 10
21.1099867077
 20
16.4382613966
  0
LWPOLYLINE
  5
389
100
AcDbEntity
  8
RACCORDO
100
AcDbPolyline
 62
7
  6
CONTINUOUS
 90
24
 70
0
 10
21.040740734
 20
17.1187440821
 10
21.0466019707
 20
17.1222858805
 10
21.0522366799
 20
17.1258977826
 10
21.0576395176
 20
17.1295762241
 10
21.0628053615
 20
17.1333174417
 10
21.0677293252
 20
17.1371178328
 10
21.0724067614
 20
17.14097396
 10
21.0768332533
 20
17.1448819177
 10
21.0810046218
 20
17.1488378202
 10
21.0849169368
 20
17.1528381621
 10
21.0885665192
 20
17.1568788527
 10
21.0919499394
 20
17.1609558327
 10
21.095064023
 20
17.1650655624
 10
21.0979058593
 20
17.1692038014
 10
21.1004727979
 20
17.173366352
 10
21.1027624497
 20
17.1775496754
 10
21.1047726975
 20
17.181749418
 10
21.1065016918
 20
17.1859612804
 10
21.1079478503
 20
17.1901817603
 10
21.1091098669
 20
17.1944064285
 10
21.1099867077
 20
17.1986309214
 10
21.1105776108
 20
17.2028518094
 10
21.110882091
 20
17.2070646261
 10
21.110927401
 20
17.2094280033
  0
LINE
  5
38A
100
AcDbEntity
  8
268140580
100
AcDbLine
 62
7
  6
CONTINUOUS
 10
-1.5320344439
 20
3.7920570275
 11
-1.7927654595
 21
3.654574903
  0
LINE
  5
38B
100
AcDbEntity
  8
268140580
100
AcDbLine
 62
250
  6
CONTINUOUS
 10
-1.3957291593
 20
3.7846479297
 11
-1.7927654595
 21
3.5752927293
  0
LINE
  5
38C
100
AcDbEntity
  8
268140580
100
AcDbLine
 62
250
  6
CONTINUOUS
 10
-1.7927654595
 20
3.2147073896
 11
-1.0272582862
 21
3.6004124932
  0
LINE
  5
38D
100
AcDbEntity
  8
268140580
100
AcDbLine
 62
250
  6
CONTINUOUS
 10
-1.7927654595
 20
2.7420218335
 11
-0.8151585606
 21
3.2345945792
  0
LWPOLYLINE
  5
38E
100
AcDbEntity
  8
268140580
100
AcDbPolyline
 62
250
  6
CONTINUOUS
 90
13
 70
0
 10
-12.7904723606
 20
22.1134946736
 10
-12.795758031
 20
22.1245704025
 10
-12.8005901899
 20
22.1360555754
 10
-12.8049688372
 20
22.1479501925
 10
-12.8088986111
 20
22.1602849564
 10
-12.8123748734
 20
22.1730291643
 10
-12.8153837101
 20
22.1860907085
 10
-12.8179190651
 20
22.1994692384
 10
-12.8199869945
 20
22.2131651046
 10
-12.8215917519
 20
22.2270872506
 10
-12.8227347552
 20
22.2412053244
 10
-12.8234145866
 20
22.2555496781
 10
-12.823631246
 20
22.2701203116
  0
LWPOLYLINE
  5
38F
100
AcDbEntity
  8
268140580
100
AcDbPolyline
 62
250
  6
CONTINUOUS
 90
16
 70
0
 10
-2.6438062235
 20
16.7186221822
 10
-2.6434636072
 20
16.7120801876
 10
-2.6424366974
 20
16.7055561243
 10
-2.6407283087
 20
16.699067874
 10
-2.6383431237
 20
16.6926332208
 10
-2.6352876801
 20
16.6862698015
 10
-2.6315703526
 20
16.6799950579
 10
-2.6272013301
 20
16.6738261885
 10
-2.6221925879
 20
16.6677801018
 10
-2.6165578546
 20
16.6618733697
 10
-2.6103125745
 20
16.6561221822
 10
-2.6034738655
 20
16.6505423028
 10
-2.5960604721
 20
16.6451490256
 10
-2.5880927139
 20
16.6399571333
 10
-2.5795924299
 20
16.6349808564
 10
-2.5705829188
 20
16.6302338345
  0
LWPOLYLINE
  5
390
100
AcDbEntity
  8
268140580
100
AcDbPolyline
 62
250
  6
CONTINUOUS
 90
16
 70
0
 10
-2.6438062235
 20
17.0869327107
 10
-2.6434657195
 20
17.0804109003
 10
-2.6424406288
 20
17.0738853689
 10
-2.6407337538
 20
17.0673956
 10
-2.6383497734
 20
17.0609593964
 10
-2.6352952186
 20
17.0545944004
 10
-2.6315784628
 20
17.048318069
 10
-2.6272096938
 20
17.0421476126
 10
-2.6222008883
 20
17.0360999528
 10
-2.6165657835
 20
17.0301916796
 10
-2.6103198248
 20
17.0244389902
 10
-2.6034801426
 20
17.0188576646
 10
-2.596065517
 20
17.0134630262
 10
-2.5880962939
 20
17.0082698724
 10
-2.579594322
 20
17.0032924357
 10
-2.5705829188
 20
16.9985443631
  0
LWPOLYLINE
  5
391
100
AcDbEntity
  8
268140580
100
AcDbPolyline
 62
7
  6
CONTINUOUS
 90
25
 70
0
 10
-1.1563693564
 20
23.3522101707
 10
-1.1568559226
 20
23.3842703975
 10
-1.1583292703
 20
23.4157603903
 10
-1.1607893996
 20
23.446680149
 10
-1.164244195
 20
23.4770961245
 10
-1.1686857719
 20
23.506941866
 10
-1.1740904769
 20
23.5360180205
 10
-1.1804659462
 20
23.5643026629
 10
-1.1878045435
 20
23.5918177183
 10
-1.1960597076
 20
23.618429609
 10
-1.2052181913
 20
23.6441009606
 10
-1.2152932417
 20
23.6688691476
 10
-1.226278038
 20
23.6927127153
 10
-1.2381910103
 20
23.7156688205
 10
-1.2510137285
 20
23.7377003064
 10
-1.2646840823
 20
23.7586742485
 10
-1.2792151643
 20
23.7785840788
 10
-1.2945938819
 20
23.7974363652
 10
-1.3107188459
 20
23.8151178869
 10
-1.3275728743
 20
23.8316008726
 10
-1.3451731493
 20
23.8469130935
 10
-1.363469828
 20
23.8610246428
 10
-1.382461324
 20
23.8739385473
 10
-1.4021492238
 20
23.8856517801
 10
-1.4162531536
 20
23.8930792766
  0
LWPOLYLINE
  5
392
100
AcDbEntity
  8
268140580
100
AcDbPolyline
 62
250
  6
CONTINUOUS
 90
31
 70
0
 10
-0.873526644
 20
16.326792921
 10
-0.8736872157
 20
16.3382574724
 10
-0.874330136
 20
16.3499392578
 10
-0.8754545552
 20
16.3618067358
 10
-0.8770586859
 20
16.373830284
 10
-0.879138845
 20
16.3859747432
 10
-0.8816884697
 20
16.3981993029
 10
-0.8846998614
 20
16.4104677617
 10
-0.8881652671
 20
16.4227491362
 10
-0.8920752909
 20
16.4350100689
 10
-0.8964193268
 20
16.4472171582
 10
-0.9011854302
 20
16.4593367084
 10
-0.9063604126
 20
16.4713351452
 10
-0.9119300095
 20
16.4831794247
 10
-0.9178790068
 20
16.4948372197
 10
-0.9241911471
 20
16.5062766677
 10
-0.9308491577
 20
16.5174664439
 10
-0.9378347619
 20
16.5283758119
 10
-0.9451287826
 20
16.5389748131
 10
-0.9527112126
 20
16.5492343708
 10
-0.9605612696
 20
16.5591263613
 10
-0.9686574253
 20
16.5686236524
 10
-0.9769774817
 20
16.5777002005
 10
-0.9854986238
 20
16.5863311125
 10
-0.9941974782
 20
16.5944927112
 10
-1.0030501987
 20
16.6021626211
 10
-1.0120325032
 20
16.6093198019
 10
-1.0211197298
 20
16.6159446043
 10
-1.0302869488
 20
16.6220188598
 10
-1.0395090321
 20
16.6275259238
 10
-1.0487606912
 20
16.6324506997
  0
LINE
  5
393
100
AcDbEntity
  8
268140580
100
AcDbLine
 62
250
  6
CONTINUOUS
 10
-1.8634761376
 20
-23.4338852575
 11
-1.8634761376
 21
-23.5658169143
  0
LINE
  5
394
100
AcDbEntity
  8
268140580
100
AcDbLine
 62
250
  6
CONTINUOUS
 10
-1.8634761376
 20
15.6648744979
 11
-1.8634761376
 21
16.173948642
  0
LINE
  5
395
100
AcDbEntity
  8
0
100
AcDbLine
 62
7
  6
CONTINUOUS
 10
-1.7927654595
 20
12.4659295138
 11
-1.7927654595
 21
-5.2093558954
  0
LINE
  5
396
100
AcDbEntity
  8
RACCORDO
100
AcDbLine
 62
7
  6
CONTINUOUS
 10
-1.7927654595
 20
12.4659295138
 11
-1.7927654595
 21
-5.2093558954
  0
LINE
  5
397
100
AcDbEntity
  8
RACCORDO
100
AcDbLine
 62
7
  6
CONTINUOUS
 10
-1.7927654595
 20
-23.404203787
 11
-1.7927654595
 21
-5.7289183778
  0
LINE
  5
398
100
AcDbEntity
  8
0
100
AcDbLine
 62
7
  6
CONTINUOUS
 10
-1.7927654595
 20
-23.404203787
 11
-1.7927654595
 21
-5.7289183778
  0
LINE
  5
399
100
AcDbEntity
  8
268140580
100
AcDbLine
 62
7
  6
CONTINUOUS
 10
-1.6078433888
 20
-15.3004755227
 11
-1.6078433888
 21
-14.2222941055
  0
LINE
  5
39A
100
AcDbEntity
  8
268140580
100
AcDbLine
 62
7
  6
CONTINUOUS
 10
-1.6078433888
 20
3.7520833605
 11
-1.6078433888
 21
4.0941431845
  0
LINE
  5
39B
100
AcDbEntity
  8
268140580
100
AcDbLine
 62
7
  6
CONTINUOUS
 10
-1.6078433888
 20
7.3417384487
 11
-1.6078433888
 21
7.6523332324
  0
LINE
  5
39C
100
AcDbEntity
  8
268140580
100
AcDbLine
 62
7
  6
CONTINUOUS
 10
-1.5346079366
 20
-2.146833888
 11
-1.5346079366
 21
-6.2211707834
  0
LINE
  5
39D
100
AcDbEntity
  8
268140580
100
AcDbLine
 62
250
  6
CONTINUOUS
 10
-1.2270800346
 20
16.326792921
 11
-1.2270800346
 21
15.9584823924
  0
LINE
  5
39E
100
AcDbEntity
  8
268140580
100
AcDbLine
 62
250
  6
CONTINUOUS
 10
-1.2270800346
 20
-25.341121747
 11
-1.2270800346
 21
-25.7094322756
  0
LINE
  5
39F
100
AcDbEntity
  8
268140580
100
AcDbLine
 62
7
  6
CONTINUOUS
 10
-1.1748832486
 20
14.0030171096
 11
-1.1748832486
 21
12.8298210055
  0
LINE
  5
3A0
100
AcDbEntity
  8
268140580
100
AcDbLine
 62
7
  6
CONTINUOUS
 10
-1.1748832486
 20
-20.8504435837
 11
-1.1748832486
 21
-22.0236396878
  0
LINE
  5
3A1
100
AcDbEntity
  8
268140580
100
AcDbLine
 62
7
  6
CONTINUOUS
 10
-1.1563693564
 20
23.3522101707
 11
-1.1563693564
 21
23.0058000091
  0
LINE
  5
3A2
100
AcDbEntity
  8
268140580
100
AcDbLine
 62
250
  6
CONTINUOUS
 10
-0.873526644
 20
16.326792921
 11
-0.873526644
 21
15.9584823924
  0
LINE
  5
3A3
100
AcDbEntity
  8
268140580
100
AcDbLine
 62
250
  6
CONTINUOUS
 10
-0.873526644
 20
-25.341121747
 11
-0.873526644
 21
-25.7094322756
  0
LINE
  5
3A4
100
AcDbEntity
  8
268140580
100
AcDbLine
 62
7
  6
CONTINUOUS
 10
-0.8151585606
 20
13.8231547656
 11
-0.8151585606
 21
8.1447238191
  0
LINE
  5
3A5
100
AcDbEntity
  8
268140580
100
AcDbLine
 62
7
  6
CONTINUOUS
 10
-0.8151585606
 20
-15.8179643041
 11
-0.8151585606
 21
-21.8499486412
  0
LINE
  5
3A6
100
AcDbEntity
  8
268140580
100
AcDbLine
 62
7
  6
CONTINUOUS
 10
-0.8151585606
 20
-10.9078350642
 11
-0.8151585606
 21
3.2345945792
  0
LINE
  5
3A7
100
AcDbEntity
  8
268140580
100
AcDbLine
 62
250
  6
CONTINUOUS
 10
-0.5199732534
 20
15.562035783
 11
-0.5199732534
 21
14.9931230558
  0
LINE
  5
3A8
100
AcDbEntity
  8
268140580
100
AcDbLine
 62
250
  6
CONTINUOUS
 10
-0.5199732534
 20
-23.6686556291
 11
-0.5199732534
 21
-24.2375683564
  0
LINE
  5
3A9
100
AcDbEntity
  8
268140580
100
AcDbLine
 62
250
  6
CONTINUOUS
 10
-0.1664198628
 20
15.562035783
 11
-0.1664198628
 21
15.0044696728
  0
LINE
  5
3AA
100
AcDbEntity
  8
268140580
100
AcDbLine
 62
250
  6
CONTINUOUS
 10
-0.1664198628
 20
-23.802119339
 11
-0.1664198628
 21
-24.2375683564
  0
LINE
  5
3AB
100
AcDbEntity
  8
268140580
100
AcDbLine
 62
7
  6
CONTINUOUS
 10
-0.0204996544
 20
-23.5718237137
 11
-0.0204996544
 21
-22.6008314849
  0
LINE
  5
3AC
100
AcDbEntity
  8
268140580
100
AcDbLine
 62
7
  6
CONTINUOUS
 10
-0.0204996544
 20
13.4258253125
 11
-0.0204996544
 21
14.3968175414
  0
LINE
  5
3AD
100
AcDbEntity
  8
268140580
100
AcDbLine
 62
250
  6
CONTINUOUS
 10
0.130763464
 20
13.4988618603
 11
0.130763464
 21
-22.3229096535
  0
LWPOLYLINE
  5
3AE
100
AcDbEntity
  8
268140580
100
AcDbPolyline
 62
250
  6
CONTINUOUS
 90
18
 70
0
 10
-0.873526644
 20
-25.7094322756
 10
-0.8736881743
 20
-25.7206014099
 10
-0.8743337946
 20
-25.7314976641
 10
-0.8754617351
 20
-25.7420911722
 10
-0.8770689043
 20
-25.7523528983
 10
-0.8791508971
 20
-25.7622547156
 10
-0.8817020068
 20
-25.771769484
 10
-0.884715241
 20
-25.7808711241
 10
-0.8881823407
 20
-25.7895346889
 10
-0.8920938028
 20
-25.7977364323
 10
-0.8964389063
 20
-25.8054538739
 10
-0.9012057414
 20
-25.8126658605
 10
-0.9063812428
 20
-25.8193526248
 10
-0.9119512245
 20
-25.8254958388
 10
-0.9179004198
 20
-25.8310786642
 10
-0.9242125223
 20
-25.836085799
 10
-0.930870231
 20
-25.8405035191
 10
-0.9366002399
 20
-25.8436907451
  0
LWPOLYLINE
  5
3AF
100
AcDbEntity
  8
268140580
100
AcDbPolyline
 62
7
  6
CONTINUOUS
 90
28
 70
0
 10
-1.9366994423
 20
-23.4774285666
 10
-1.9368277918
 20
-23.4860295037
 10
-1.9372280414
 20
-23.495115942
 10
-1.9379217576
 20
-23.5046675795
 10
-1.9389290402
 20
-23.5146640624
 10
-1.9402676314
 20
-23.5250772806
 10
-1.941952314
 20
-23.5358729331
 10
-1.9439973241
 20
-23.5470260719
 10
-1.9464137074
 20
-23.5585028208
 10
-1.9492067489
 20
-23.5702543457
 10
-1.9523829364
 20
-23.5822486553
 10
-1.9559459247
 20
-23.5944495225
 10
-1.9598907886
 20
-23.6068006663
 10
-1.9642160152
 20
-23.6192664657
 10
-1.9689173608
 20
-23.6318087114
 10
-1.9739794133
 20
-23.6443671859
 10
-1.9793925984
 20
-23.6569048845
 10
-1.9851450377
 20
-23.6693839992
 10
-1.991211522
 20
-23.6817444563
 10
-1.9975750748
 20
-23.6939506417
 10
-2.004216904
 20
-23.7059674231
 10
-2.0111032037
 20
-23.7177383234
 10
-2.0182106096
 20
-23.7292315598
 10
-2.0255147348
 20
-23.7404172081
 10
-2.032975162
 20
-23.751245884
 10
-2.040558816
 20
-23.7616854777
 10
-2.0482418665
 20
-23.7717200779
 10
-2.0559951757
 20
-23.7813289211
  0
LWPOLYLINE
  5
3B0
100
AcDbEntity
  8
268140580
100
AcDbPolyline
 62
250
  6
CONTINUOUS
 90
28
 70
0
 10
-1.8634761376
 20
-23.5658169143
 10
-1.8636057835
 20
-23.5741720879
 10
-1.8639953408
 20
-23.5826579727
 10
-1.8646454508
 20
-23.5912626044
 10
-1.8655556726
 20
-23.5999679071
 10
-1.8667262165
 20
-23.6087671286
 10
-1.868159662
 20
-23.6176653506
 10
-1.8698593377
 20
-23.626663394
 10
-1.8718234529
 20
-23.6357348941
 10
-1.8740458977
 20
-23.6448437907
 10
-1.8765225225
 20
-23.6539708497
 10
-1.8792515709
 20
-23.6631075976
 10
-1.8822274765
 20
-23.6722337095
 10
-1.8854459068
 20
-23.6813351592
 10
-1.8889021928
 20
-23.6903980587
 10
-1.8925887028
 20
-23.6994024245
 10
-1.8964997671
 20
-23.708335015
 10
-1.9006289898
 20
-23.7171817949
 10
-1.9049661371
 20
-23.7259221124
 10
-1.9095039444
 20
-23.7345431789
 10
-1.9142347163
 20
-23.7430321395
 10
-1.9191461165
 20
-23.7513691979
 10
-1.9242293259
 20
-23.7595422725
 10
-1.9294758062
 20
-23.7675404148
 10
-1.9348724685
 20
-23.7753468035
 10
-1.9404084707
 20
-23.7829494039
 10
-1.9460756654
 20
-23.7903405622
 10
-1.9518644853
 20
-23.7975110881
  0
LWPOLYLINE
  5
3B1
100
AcDbEntity
  8
268140580
100
AcDbPolyline
 62
250
  6
CONTINUOUS
 90
25
 70
0
 10
-0.1664198628
 20
-24.2375683564
 10
-0.166738924
 20
-24.2563688434
 10
-0.167721794
 20
-24.275462494
 10
-0.1693684727
 20
-24.294849308
 10
-0.1716803621
 20
-24.3145746759
 10
-0.1746560602
 20
-24.3345932073
 10
-0.178291361
 20
-24.3547687308
 10
-0.1825930727
 20
-24.3751022322
 10
-0.1875543872
 20
-24.3955927257
 10
-0.1931506741
 20
-24.4161010825
 10
-0.1993880973
 20
-24.4366270285
 10
-0.2062604929
 20
-24.4571708378
 10
-0.2137247389
 20
-24.4775942038
 10
-0.2217863212
 20
-24.4978956972
 10
-0.2304397539
 20
-24.5180767474
 10
-0.2396254572
 20
-24.5380033362
 10
-0.2493489896
 20
-24.5576737206
 10
-0.2596047926
 20
-24.5770896438
 10
-0.270316611
 20
-24.5961223164
 10
-0.2814892031
 20
-24.6147679129
 10
-0.2931178105
 20
-24.6330302588
 10
-0.3051119028
 20
-24.6507920421
 10
-0.3174413031
 20
-24.6680141587
 10
-0.3301361882
 20
-24.6847357127
 10
-0.3431965581
 20
-24.700956704
  0
LWPOLYLINE
  5
3B2
100
AcDbEntity
  8
268140580
100
AcDbPolyline
 62
250
  6
CONTINUOUS
 90
25
 70
0
 10
0.5406869184
 20
15.9155891736
 10
0.5410059797
 20
15.9343896606
 10
0.5419888496
 20
15.9534833112
 10
0.5436355283
 20
15.9728701252
 10
0.5459474177
 20
15.9925954931
 10
0.5489231158
 20
16.0126140245
 10
0.5525584166
 20
16.0327895479
 10
0.5568601284
 20
16.0531230493
 10
0.5618214428
 20
16.0736135429
 10
0.5674177297
 20
16.0941218997
 10
0.5736551529
 20
16.1146478457
 10
0.5805275486
 20
16.135191655
 10
0.5879917946
 20
16.155615021
 10
0.5960533769
 20
16.1759165144
 10
0.6047068095
 20
16.1960975646
 10
0.6138925128
 20
16.2160241534
 10
0.6236160452
 20
16.2356945378
 10
0.6338718483
 20
16.255110461
 10
0.6445836666
 20
16.2741431336
 10
0.6557562587
 20
16.2927887301
 10
0.6673848662
 20
16.311051076
 10
0.6793789584
 20
16.3288128593
 10
0.6917083587
 20
16.3460349759
 10
0.7044032438
 20
16.3627565299
 10
0.7174636137
 20
16.3789775212
  0
LWPOLYLINE
  5
3B3
100
AcDbEntity
  8
268140580
100
AcDbPolyline
 62
250
  6
CONTINUOUS
 90
25
 70
0
 10
-0.5199732534
 20
-24.2375683564
 10
-0.5201365219
 20
-24.2469530121
 10
-0.5206281231
 20
-24.2565144327
 10
-0.5214502916
 20
-24.2662361678
 10
-0.5226050782
 20
-24.2761045071
 10
-0.5240932261
 20
-24.2860985938
 10
-0.5259130573
 20
-24.2961901658
 10
-0.5280633183
 20
-24.3063608297
 10
-0.5305419345
 20
-24.3165910455
 10
-0.5333429375
 20
-24.3268499482
 10
-0.5364617641
 20
-24.3371173039
 10
-0.5398935043
 20
-24.3473737812
 10
-0.5436287562
 20
-24.3575896871
 10
-0.547660301
 20
-24.3677450888
 10
-0.5519804751
 20
-24.3778205057
 10
-0.5565766909
 20
-24.3877874231
 10
-0.5614396936
 20
-24.3976274618
 10
-0.5665591801
 20
-24.4073213679
 10
-0.5719186665
 20
-24.4168405297
 10
-0.5775063771
 20
-24.4261675056
 10
-0.5833103758
 20
-24.4352856904
 10
-0.5893119039
 20
-24.4441696444
 10
-0.5954955246
 20
-24.4528014966
 10
-0.6018499297
 20
-24.461170264
 10
-0.608361601
 20
-24.4692625302
  0
LWPOLYLINE
  5
3B4
100
AcDbEntity
  8
268140580
100
AcDbPolyline
 62
7
  6
CONTINUOUS
 90
21
 70
0
 10
-1.1748832486
 20
-20.8504435837
 10
-1.1752825582
 20
-20.8720519218
 10
-1.1764911344
 20
-20.8931699045
 10
-1.1785089772
 20
-20.9137975316
 10
-1.181346345
 20
-20.9339986377
 10
-1.1849929793
 20
-20.9537093883
 10
-1.1894181051
 20
-20.9727382803
 10
-1.1946269713
 20
-20.9910563229
 10
-1.200614329
 20
-21.008692507
 10
-1.2073336558
 20
-21.0255423013
 10
-1.2147744506
 20
-21.041584236
 10
-1.2229472146
 20
-21.0568397809
 10
-1.2318369292
 20
-21.0712688149
 10
-1.2414679371
 20
-21.084899832
 10
-1.2518158956
 20
-21.0977043382
 10
-1.2627927576
 20
-21.1095567299
 10
-1.2744048283
 20
-21.1204380386
 10
-1.2866458025
 20
-21.1303672329
 10
-1.2994087173
 20
-21.1392756141
 10
-1.3126654447
 20
-21.1471437526
 10
-1.3237323916
 20
-21.1527435043
  0
LWPOLYLINE
  5
3B5
100
AcDbEntity
  8
268140580
100
AcDbPolyline
 62
250
  6
CONTINUOUS
 90
28
 70
0
 10
-1.2270800346
 20
16.326792921
 10
-1.226777625
 20
16.3396027083
 10
-1.225871431
 20
16.3526710781
 10
-1.2243645529
 20
16.3659533186
 10
-1.2222621464
 20
16.3794039863
 10
-1.2195714046
 20
16.3929770614
 10
-1.2163015334
 20
16.4066261055
 10
-1.2124637205
 20
16.4203044199
 10
-1.2080710962
 20
16.4339652062
 10
-1.2031386896
 20
16.4475617256
 10
-1.1976833761
 20
16.4610474593
 10
-1.1917238204
 20
16.4743762677
 10
-1.1852804124
 20
16.4875025478
 10
-1.1783751974
 20
16.5003813899
 10
-1.1710318008
 20
16.5129687304
 10
-1.163275347
 20
16.5252215036
 10
-1.1551323737
 20
16.537097788
 10
-1.1466307411
 20
16.5485569504
 10
-1.1377995365
 20
16.5595597848
 10
-1.1286689747
 20
16.5700686463
 10
-1.1192702948
 20
16.5800475803
 10
-1.1096356532
 20
16.589462445
 10
-1.0997980136
 20
16.5982810287
 10
-1.0897910342
 20
16.6064731597
 10
-1.0796489526
 20
16.6140108096
 10
-1.0694064687
 20
16.6208681894
 10
-1.0590986259
 20
16.6270218374
 10
-1.0487606912
 20
16.6324506997
  0
LWPOLYLINE
  5
3B6
100
AcDbEntity
  8
268140580
100
AcDbPolyline
 62
250
  6
CONTINUOUS
 90
19
 70
0
 10
-1.2270800346
 20
-25.341121747
 10
-1.2267809564
 20
-25.3283834832
 10
-1.2258847338
 20
-25.3153892434
 10
-1.2243943993
 20
-25.3021829961
 10
-1.2223149959
 20
-25.288809427
 10
-1.2196535594
 20
-25.275313788
 10
-1.2164190954
 20
-25.2617417442
 10
-1.2126225482
 20
-25.248139219
 10
-1.2082767642
 20
-25.234552239
 10
-1.2033964482
 20
-25.2210267783
 10
-1.1979981135
 20
-25.2076086028
 10
-1.1921000265
 20
-25.1943431153
 10
-1.1857221444
 20
-25.1812752021
 10
-1.1788860479
 20
-25.1684490808
 10
-1.1716148682
 20
-25.1559081509
 10
-1.1639332087
 20
-25.143694847
 10
-1.1558670617
 20
-25.1318504951
 10
-1.1474437204
 20
-25.1204151726
 10
-1.1386916869
 20
-25.1094275732
  0
LWPOLYLINE
  5
3B7
100
AcDbEntity
  8
DRAFT
100
AcDbPolyline
 62
7
  6
CONTINUOUS
 90
43
 70
0
 10
19.1593537527
 20
14.7459331052
 10
19.1686228223
 20
14.7528506229
 10
19.1777158077
 20
14.7594118383
 10
19.1866330226
 20
14.7656149755
 10
19.1953550173
 20
14.7714441877
 10
19.2039026567
 20
14.7769115702
 10
19.2123340952
 20
14.7820584553
 10
19.2206506097
 20
14.7868942764
 10
19.2288463841
 20
14.7914085004
 10
19.2369639155
 20
14.7956145573
 10
19.2449927117
 20
14.7995181488
 10
19.2529342783
 20
14.8031139819
 10
19.2608432979
 20
14.8064010806
 10
19.2687148126
 20
14.8093910873
 10
19.2765368361
 20
14.8120750391
 10
19.2843467524
 20
14.8144231953
 10
19.2921285099
 20
14.8164450703
 10
19.2998737518
 20
14.8181352389
 10
19.3076236281
 20
14.8194436732
 10
19.3153654626
 20
14.8203810232
 10
19.3230756518
 20
14.8209426625
 10
19.3307704856
 20
14.8210575851
 10
19.3384291454
 20
14.820731177
 10
19.3460249982
 20
14.8199647228
 10
19.3535580188
 20
14.8186823187
 10
19.3610033073
 20
14.8168830027
 10
19.3683261478
 20
14.8145741397
 10
19.3755056044
 20
14.8116928153
 10
19.3825063567
 20
14.8082347627
 10
19.3892943682
 20
14.8042086656
 10
19.3958448401
 20
14.7995710149
 10
19.4021105059
 20
14.7943229562
 10
19.4080577706
 20
14.7884648718
 10
19.4136702853
 20
14.7819525013
 10
19.4188886107
 20
14.7747927643
 10
19.4236672948
 20
14.7669771567
 10
19.4279845538
 20
14.7584393098
 10
19.4317741507
 20
14.7491421134
 10
19.4349464378
 20
14.7391163747
 10
19.4374225833
 20
14.7283966194
 10
19.4391211773
 20
14.7169204556
 10
19.4399472731
 20
14.7047314973
 10
19.4400139522
 20
14.7000924066
  0
LWPOLYLINE
  5
3B8
100
AcDbEntity
  8
RACCORDO
100
AcDbPolyline
 62
7
  6
CONTINUOUS
 90
9
 70
0
 10
21.0393116693
 20
16.3481511051
 10
21.0378546309
 20
16.3471467518
 10
21.0363692964
 20
16.3460379226
 10
21.0348594591
 20
16.344832333
 10
21.033320757
 20
16.3435226902
 10
21.0317403194
 20
16.3420868524
 10
21.030113289
 20
16.3405177654
 10
21.0284431762
 20
16.3388233036
 10
21.0267293411
 20
16.3370038789
  0
LWPOLYLINE
  5
3B9
100
AcDbEntity
  8
RACCORDO
100
AcDbPolyline
 62
7
  6
CONTINUOUS
 90
34
 70
0
 10
20.404561118
 20
15.1877591376
 10
20.4373742307
 20
15.2096918376
 10
20.4696516614
 20
15.2327031987
 10
20.5013725956
 20
15.2567884274
 10
20.5325112939
 20
15.2819376726
 10
20.5630531293
 20
15.3081488407
 10
20.5929937711
 20
15.3354296069
 10
20.622314304
 20
15.3637755993
 10
20.6509938044
 20
15.3931796337
 10
20.6790242111
 20
15.4236476364
 10
20.7063886712
 20
15.4551770991
 10
20.7330652702
 20
15.4877589542
 10
20.7590384201
 20
15.5213908249
 10
20.7842927172
 20
15.5560706246
 10
20.8088069854
 20
15.5917877179
 10
20.8325583908
 20
15.6285268349
 10
20.8555327385
 20
15.6662843258
 10
20.8777112958
 20
15.7050484999
 10
20.8990673037
 20
15.7447903056
 10
20.9195882318
 20
15.7855033747
 10
20.9392586119
 20
15.8271749294
 10
20.958051395
 20
15.8697632646
 10
20.975956091
 20
15.9132582093
 10
20.9929610728
 20
15.9576461824
 10
21.0090424914
 20
16.0028765048
 10
21.0241922855
 20
16.0489348483
 10
21.0384026739
 20
16.0958069524
 10
21.0516553449
 20
16.1434381362
 10
21.0639449242
 20
16.1918104151
 10
21.0752670125
 20
16.2409086603
 10
21.0856095746
 20
16.2906785972
 10
21.0949680829
 20
16.3410890251
 10
21.1033431337
 20
16.3921338126
 10
21.1101288754
 20
16.4392745219
  0
LINE
  5
3BA
100
AcDbEntity
  8
DRAFT
100
AcDbLine
 62
7
  6
CONTINUOUS
 10
20.4045611181
 20
15.1877591376
 11
19.4400139523
 21
14.5638981744
  0
LWPOLYLINE
  5
3BB
100
AcDbEntity
  8
RACCORDO
100
AcDbPolyline
 62
7
  6
CONTINUOUS
 90
40
 70
0
 10
19.1593537527
 20
4.8214259098
 10
19.2419984827
 20
4.8440510398
 10
19.3222492948
 20
4.8657181038
 10
19.400106189
 20
4.8864271017
 10
19.4755006984
 20
4.9061499264
 10
19.54850129
 20
4.924914685
 10
19.6193133642
 20
4.9428056989
 10
19.6879452224
 20
4.9598261857
 10
19.7543885632
 20
4.9759729277
 10
19.8188238839
 20
4.9913205937
 10
19.8812565826
 20
5.0058715282
 10
19.941681261
 20
5.0196233866
 10
20.0002622215
 20
5.0326438036
 10
20.0570040594
 20
5.0449348689
 10
20.1119021794
 20
5.0564944929
 10
20.1651070975
 20
5.0673840417
 10
20.2166228944
 20
5.0776054518
 10
20.2664454893
 20
5.0871567868
 10
20.3147131567
 20
5.0960936028
 10
20.3614305341
 20
5.1044178671
 10
20.4065929839
 20
5.1121276124
 10
20.4503248678
 20
5.1192724937
 10
20.4926291656
 20
5.1258541509
 10
20.5335028975
 20
5.1318709442
 10
20.5730614859
 20
5.137367609
 10
20.6113084072
 20
5.1423458642
 10
20.648240185
 20
5.146803991
 10
20.6839618133
 20
5.1507815679
 10
20.7184757322
 20
5.1542802366
 10
20.7517795015
 20
5.1572983556
 10
20.7839707949
 20
5.1598705789
 10
20.8150555251
 20
5.1619986852
 10
20.8450277793
 20
5.163680896
 10
20.8739674935
 20
5.1649465292
 10
20.9018773487
 20
5.1657969011
 10
20.9287546639
 20
5.1662306954
 10
20.9546713314
 20
5.166273282
 10
20.9796513156
 20
5.1659331175
 10
21.0036706521
 20
5.1652017452
 10
21.0267293411
 20
5.1640791652
  0
LINE
  5
3BC
100
AcDbEntity
  8
CURVE
100
AcDbLine
 62
250
  6
CONTINUOUS
 10
-14.9623140529
 20
7.0147379188
 11
-15.492644144
 21
7.2799029643
  0
LWPOLYLINE
  5
3BD
100
AcDbEntity
  8
268140580
100
AcDbPolyline
 62
250
  6
CONTINUOUS
 90
34
 70
0
 10
1.0611877383
 20
14.9873424836
 10
1.0601573714
 20
15.0036102401
 10
1.0585006177
 20
15.0201667161
 10
1.0562212259
 20
15.0369744495
 10
1.0533243536
 20
15.0539954096
 10
1.0498165555
 20
15.0711910832
 10
1.0457057687
 20
15.088522562
 10
1.0410012946
 20
15.1059506301
 10
1.0357137779
 20
15.1234358533
 10
1.0298551827
 20
15.140938668
 10
1.0234387652
 20
15.1584194707
 10
1.0164790436
 20
15.1758387079
 10
1.0089917657
 20
15.1931569652
 10
1.0009938728
 20
15.2103350569
 10
0.9925034617
 20
15.2273341142
 10
0.9835397435
 20
15.2441156736
 10
0.9741230004
 20
15.2606417637
 10
0.9642745395
 20
15.276874991
 10
0.9540166448
 20
15.2927786248
 10
0.9433725267
 20
15.3083166801
 10
0.9323662695
 20
15.3234539993
 10
0.921022777
 20
15.3381563311
 10
0.9093677159
 20
15.3523904089
 10
0.8974274581
 20
15.3661240254
 10
0.8852290206
 20
15.3793261056
 10
0.8728000046
 20
15.3919667774
 10
0.8601685333
 20
15.4040174388
 10
0.8473631875
 20
15.4154508231
 10
0.834412942
 20
15.4262410599
 10
0.8213470989
 20
15.4363637343
 10
0.8081952223
 20
15.445795942
 10
0.7949870708
 20
15.4545163406
 10
0.7817525302
 20
15.4625051988
 10
0.7685215463
 20
15.4697444402
  0
LWPOLYLINE
  5
3BE
100
AcDbEntity
  8
268140580
100
AcDbPolyline
 62
250
  6
CONTINUOUS
 90
34
 70
0
 10
1.0611877383
 20
14.9873424836
 10
1.0608730372
 20
15.0039876599
 10
1.0599296335
 20
15.0209211963
 10
1.058359644
 20
15.0381047436
 10
1.056166597
 20
15.0554994429
 10
1.0533554446
 20
15.0730658386
 10
1.0499325732
 20
15.0907639628
 10
1.0459057493
 20
15.1085536668
 10
1.0412840843
 20
15.1263947066
 10
1.0360780499
 20
15.1442466559
 10
1.0302994407
 20
15.1620690701
 10
1.0239613465
 20
15.1798215789
 10
1.0170781249
 20
15.1974639671
 10
1.0096653686
 20
15.2149562691
 10
1.0017398702
 20
15.2322588581
 10
0.993319584
 20
15.249332537
 10
0.984423585
 20
15.2661386276
 10
0.9750720258
 20
15.2826390586
 10
0.9652860908
 20
15.2987964505
 10
0.9550879485
 20
15.3145742015
 10
0.9445007014
 20
15.3299365691
 10
0.9335483339
 20
15.3448487516
 10
0.9222556571
 20
15.3592769674
 10
0.9106482529
 20
15.373188532
 10
0.8987524155
 20
15.3865519313
 10
0.8865950908
 20
15.399336895
 10
0.8742038218
 20
15.411514458
 10
0.8616066863
 20
15.4230570274
 10
0.8488321809
 20
15.4339384897
 10
0.8359092843
 20
15.4441341582
 10
0.8228674027
 20
15.453620846
 10
0.8097361272
 20
15.4623770575
 10
0.7965451625
 20
15.4703830143
 10
0.7833243901
 20
15.4776206052
  0
LINE
  5
3BF
100
AcDbEntity
  8
268140580
100
AcDbLine
 62
250
  6
CONTINUOUS
 10
0.5406869184
 20
-23.8840149658
 11
0.5406869184
 21
-23.5563870216
  0
LINE
  5
3C0
100
AcDbEntity
  8
268140580
100
AcDbLine
 62
250
  6
CONTINUOUS
 10
0.5406869184
 20
15.5879612294
 11
0.5406869184
 21
15.9155891736
  0
LINE
  5
3C1
100
AcDbEntity
  8
268140580
100
AcDbLine
 62
250
  6
CONTINUOUS
 10
0.5512930095
 20
13.7019121911
 11
0.5512930095
 21
-22.3247446064
  0
LINE
  5
3C2
100
AcDbEntity
  8
268140580
100
AcDbLine
 62
7
  6
CONTINUOUS
 10
0.6139102231
 20
-23.7956266181
 11
0.6139102231
 21
-23.4788311474
  0
LINE
  5
3C3
100
AcDbEntity
  8
268140580
100
AcDbLine
 62
7
  6
CONTINUOUS
 10
0.6139102231
 20
15.6763495771
 11
0.6139102231
 21
16.0039775212
  0
LINE
  5
3C4
100
AcDbEntity
  8
268140580
100
AcDbLine
 62
250
  6
CONTINUOUS
 10
1.2477936996
 20
-24.6260990362
 11
1.2477936996
 21
-24.2804615752
  0
LINE
  5
3C5
100
AcDbEntity
  8
268140580
100
AcDbLine
 62
250
  6
CONTINUOUS
 10
1.2477936996
 20
17.0191425642
 11
1.2477936996
 21
17.3647800251
  0
LINE
  5
3C6
100
AcDbEntity
  8
268140580
100
AcDbLine
 62
7
  6
CONTINUOUS
 10
1.3210170043
 20
-24.5377106885
 11
1.3210170043
 21
-24.1920732276
  0
LINE
  5
3C7
100
AcDbEntity
  8
268140580
100
AcDbLine
 62
7
  6
CONTINUOUS
 10
1.3210170043
 20
17.1075309118
 11
1.3210170043
 21
17.4531683728
  0
LINE
  5
3C8
100
AcDbEntity
  8
RACCORDO
100
AcDbLine
 62
7
  6
CONTINUOUS
 10
1.7781237855
 20
11.5850924511
 11
1.7781237855
 21
-19.0231881574
  0
LINE
  5
3C9
100
AcDbEntity
  8
268140580
100
AcDbLine
 62
7
  6
CONTINUOUS
 10
1.7781237855
 20
-22.7716067364
 11
1.7781237855
 21
15.3335110301
  0
LINE
  5
3CA
100
AcDbEntity
  8
268140580
100
AcDbLine
 62
7
  6
CONTINUOUS
 10
1.922318979
 20
21.2802947691
 11
1.922318979
 21
20.5575710632
  0
LWPOLYLINE
  5
3CB
100
AcDbEntity
  8
268140580
100
AcDbPolyline
 62
250
  6
CONTINUOUS
 90
18
 70
0
 10
1.2477936996
 20
-24.6260990362
 10
1.2476331527
 20
-24.6372412445
 10
1.2469903041
 20
-24.6481188696
 10
1.245865982
 20
-24.6587016516
 10
1.2442619433
 20
-24.6689622
 10
1.2421818542
 20
-24.6788694438
 10
1.2396322972
 20
-24.6883895131
 10
1.2366209905
 20
-24.697494309
 10
1.2331556729
 20
-24.7061610439
 10
1.2292457249
 20
-24.7143661904
 10
1.2249017372
 20
-24.7220873623
 10
1.2201356585
 20
-24.7293031759
 10
1.2149606903
 20
-24.7359935997
 10
1.2093911031
 20
-24.7421402137
 10
1.2034421056
 20
-24.7477262607
 10
1.1971299564
 20
-24.7527364696
 10
1.1904719283
 20
-24.757157109
 10
1.1847201036
 20
-24.7603575057
  0
LWPOLYLINE
  5
3CC
100
AcDbEntity
  8
268140580
100
AcDbPolyline
 62
250
  6
CONTINUOUS
 90
5
 70
0
 10
0.5406869184
 20
-23.5563870216
 10
0.5409043959
 20
-23.5416126558
 10
0.5415822987
 20
-23.5266102113
 10
0.5427206269
 20
-23.5113796881
 10
0.543007917
 20
-23.5085930555
  0
LWPOLYLINE
  5
3CD
100
AcDbEntity
  8
268140580
100
AcDbPolyline
 62
7
  6
CONTINUOUS
 90
28
 70
0
 10
0.6139102231
 20
16.0039775212
 10
0.6140385725
 20
16.0125784583
 10
0.6144388222
 20
16.0216648966
 10
0.6151325384
 20
16.0312165341
 10
0.616139821
 20
16.041213017
 10
0.6174784122
 20
16.0516262352
 10
0.6191630948
 20
16.0624218877
 10
0.6212081049
 20
16.0735750265
 10
0.6236244882
 20
16.0850517754
 10
0.6264175297
 20
16.0968033003
 10
0.6295937172
 20
16.1087976099
 10
0.6331567055
 20
16.1209984771
 10
0.6371015694
 20
16.1333496209
 10
0.641426796
 20
16.1458154203
 10
0.6461281415
 20
16.1583576661
 10
0.6511901941
 20
16.1709161405
 10
0.6566033791
 20
16.1834538392
 10
0.6623558185
 20
16.1959329538
 10
0.6684223028
 20
16.208293411
 10
0.6747858556
 20
16.2204995963
 10
0.6814276848
 20
16.2325163777
 10
0.6883139845
 20
16.244287278
 10
0.6954213904
 20
16.2557805144
 10
0.7027255156
 20
16.2669661627
 10
0.7101859428
 20
16.2777948386
 10
0.7177695968
 20
16.2882344323
 10
0.7254526473
 20
16.2982690326
 10
0.7332059565
 20
16.3078778757
  0
LWPOLYLINE
  5
3CE
100
AcDbEntity
  8
268140580
100
AcDbPolyline
 62
250
  6
CONTINUOUS
 90
20
 70
0
 10
1.0611877383
 20
-23.1177752829
 10
1.0608730134
 20
-23.1340951885
 10
1.0599295516
 20
-23.150052217
 10
1.0583594901
 20
-23.1656102206
 10
1.0561663856
 20
-23.1807339556
 10
1.0533552063
 20
-23.1953891617
 10
1.0499323203
 20
-23.2095426402
 10
1.0459054817
 20
-23.2231623289
 10
1.0412838124
 20
-23.2362173749
 10
1.036077782
 20
-23.2486782042
 10
1.0302991839
 20
-23.2605165891
 10
1.0239611084
 20
-23.2717057118
 10
1.0170779134
 20
-23.2822202254
 10
1.0096651915
 20
-23.2920363111
 10
1.0017397349
 20
-23.3011317324
 10
0.9933194973
 20
-23.309485885
 10
0.9844235532
 20
-23.3170798444
 10
0.9750720548
 20
-23.3238964075
 10
0.9652861863
 20
-23.3299201329
 10
0.9572490708
 20
-23.3341158811
  0
LWPOLYLINE
  5
3CF
100
AcDbEntity
  8
268140580
100
AcDbPolyline
 62
250
  6
CONTINUOUS
 90
17
 70
0
 10
1.0611877383
 20
-23.1177752829
 10
1.0601574225
 20
-23.134408326
 10
1.0585007464
 20
-23.1506784043
 10
1.0562214385
 20
-23.1665486934
 10
1.0533246253
 20
-23.1819833227
 10
1.0498168484
 20
-23.1969473003
 10
1.0457060699
 20
-23.211406608
 10
1.0410016063
 20
-23.2253284843
 10
1.0357140894
 20
-23.2386814736
 10
1.0298554857
 20
-23.2514353539
 10
1.0234390529
 20
-23.2635612641
 10
1.0164793086
 20
-23.2750317696
 10
1.0089920003
 20
-23.2858209161
 10
1.0009940694
 20
-23.2959042909
 10
0.9925036131
 20
-23.305259078
 10
0.9835398433
 20
-23.3138641095
 10
0.9741230426
 20
-23.3216999147
  0
LINE
  5
3D0
100
AcDbEntity
  8
268140580
100
AcDbLine
 62
250
  6
CONTINUOUS
 10
-1.7927654595
 20
-2.2660595871
 11
-1.5346079366
 21
-2.146833888
  0
LINE
  5
3D1
100
AcDbEntity
  8
268140580
100
AcDbLine
 62
7
  6
CONTINUOUS
 10
-1.7927654595
 20
-2.3923620515
 11
-1.6157004376
 21
-2.3105875567
  0
LINE
  5
3D2
100
AcDbEntity
  8
CURVE
100
AcDbLine
 62
250
  6
CONTINUOUS
 10
-11.0387095348
 20
6.819503703
 11
-12.0993697909
 21
7.3498338311
  0
LINE
  5
3D3
100
AcDbEntity
  8
CURVE
100
AcDbLine
 62
250
  6
CONTINUOUS
 10
-12.8064765299
 20
7.7033872006
 11
-13.867136786
 21
8.2337173286
  0
LINE
  5
3D4
100
AcDbEntity
  8
CURVE
100
AcDbLine
 62
250
  6
CONTINUOUS
 10
-15.428523011
 20
10.3430524441
 11
-14.8981929199
 21
10.0778873985
  0
LINE
  5
3D5
100
AcDbEntity
  8
CURVE
100
AcDbLine
 62
250
  6
CONTINUOUS
 10
-13.8375328113
 20
9.5475573442
 11
-12.7768725552
 21
9.0172272162
  0
LINE
  5
3D6
100
AcDbEntity
  8
CURVE
100
AcDbLine
 62
250
  6
CONTINUOUS
 10
-12.0697658162
 20
8.6636738467
 11
-11.0091055601
 21
8.1333437186
  0
LWPOLYLINE
  5
3D7
100
AcDbEntity
  8
268140580
100
AcDbPolyline
 62
7
  6
CONTINUOUS
 90
15
 70
0
 10
-12.7448630685
 20
22.3159905521
 10
-12.7447821504
 20
22.3158551604
 10
-12.7443867022
 20
22.3151509891
 10
-12.7443893399
 20
22.3151633105
 10
-12.7446996044
 20
22.3158981288
 10
-12.7452178205
 20
22.3172999494
 10
-12.7458797872
 20
22.3193635695
 10
-12.7466305977
 20
22.3220923489
 10
-12.7474125154
 20
22.3254570132
 10
-12.7481792988
 20
22.3294472252
 10
-12.7488891755
 20
22.334056258
 10
-12.7495031178
 20
22.3392777068
 10
-12.7499842401
 20
22.3451057116
 10
-12.7502968426
 20
22.3515225378
 10
-12.7504079413
 20
22.3585086593
  0
LWPOLYLINE
  5
3D8
100
AcDbEntity
  8
268140580
100
AcDbPolyline
 62
250
  6
CONTINUOUS
 90
15
 70
0
 10
-12.1165244648
 20
23.7013016464
 10
-12.1121453778
 20
23.6939306805
 10
-12.1082607139
 20
23.6868196426
 10
-12.104881527
 20
23.6799882217
 10
-12.102017257
 20
23.673454769
 10
-12.0996765334
 20
23.6672381041
 10
-12.0978666543
 20
23.6613571557
 10
-12.0965926843
 20
23.6558285948
 10
-12.0958579026
 20
23.6506669557
 10
-12.0956643252
 20
23.6458862702
 10
-12.0960125339
 20
23.6414996019
 10
-12.0969016232
 20
23.6375190908
 10
-12.0983291535
 20
23.6339557651
 10
-12.1002911906
 20
23.6308194209
 10
-12.100782122
 20
23.6302020009
  0
LWPOLYLINE
  5
3D9
100
AcDbEntity
  8
268140580
100
AcDbPolyline
 62
250
  6
CONTINUOUS
 90
13
 70
0
 10
-12.6468545507
 20
23.0611366034
 10
-12.6420143036
 20
23.0529536498
 10
-12.6377885906
 20
23.0450974629
 10
-12.6341917104
 20
23.0375946255
 10
-12.6312358337
 20
23.0304705249
 10
-12.6289309621
 20
23.0237492668
 10
-12.6272848946
 20
23.0174535938
 10
-12.626303201
 20
23.0116048085
 10
-12.6259892031
 20
23.0062227013
 10
-12.6263439633
 20
23.0013254835
 10
-12.6273662812
 20
22.9969297259
 10
-12.6290526976
 20
22.9930503021
 10
-12.6311122079
 20
22.9900369579
  0
LWPOLYLINE
  5
3DA
100
AcDbEntity
  8
RACCORDO
100
AcDbPolyline
 62
7
  6
CONTINUOUS
 90
40
 70
0
 10
21.0267293411
 20
16.3370038789
 10
21.0036706916
 20
16.3120033699
 10
20.979651397
 20
16.2863992902
 10
20.9546714573
 20
16.2601916398
 10
20.928754838
 20
16.2333967791
 10
20.9018775737
 20
16.2059983477
 10
20.8739677677
 20
16.1779472647
 10
20.8450280995
 20
16.1492449884
 10
20.8150558896
 20
16.1198900605
 10
20.783971204
 20
16.089829025
 10
20.7517799559
 20
16.0590662266
 10
20.7184762319
 20
16.0275973205
 10
20.6839623582
 20
15.9953558168
 10
20.6482407756
 20
15.9623426015
 10
20.6113090433
 20
15.9285567886
 10
20.5730621641
 20
15.8939292297
 10
20.5335036135
 20
15.8584618049
 10
20.4926299161
 20
15.8221526343
 10
20.4503256492
 20
15.7849269298
 10
20.4065937926
 20
15.7467861374
 10
20.3614313664
 20
15.7077288112
 10
20.3147140081
 20
15.6676758254
 10
20.2664463554
 20
15.6266300153
 10
20.2166237705
 20
15.5845885455
 10
20.1651079777
 20
15.5414637842
 10
20.1119030574
 20
15.4972580202
 10
20.0570049291
 20
15.4519689647
 10
20.0002630754
 20
15.4055021189
 10
19.9416820914
 20
15.3578601518
 10
19.8812573821
 20
15.3090403945
 10
19.8188246442
 20
15.2589403415
 10
19.754389276
 20
15.207563238
 10
19.6879458792
 20
15.1549058387
 10
19.6193139562
 20
15.1008559018
 10
19.5485018083
 20
15.0454188061
 10
19.4755011341
 20
14.9885891727
 10
19.4001065317
 20
14.9302386238
 10
19.3222495336
 20
14.8703243665
 10
19.2419986073
 20
14.8088891937
 10
19.1593537527
 20
14.7459331052
  0
LINE
  5
3DB
100
AcDbEntity
  8
RACCORDO
100
AcDbLine
 62
250
  6
CONTINUOUS
 10
-1.9341652766
 20
-5.4850397684
 11
-5.5375893312
 21
-7.300645287
  0
LINE
  5
3DC
100
AcDbEntity
  8
0
100
AcDbLine
 62
250
  6
CONTINUOUS
 10
-1.9341652766
 20
-5.4850397684
 11
-5.5375893312
 21
-7.300645287
  0
LINE
  5
3DD
100
AcDbEntity
  8
RACCORDO
100
AcDbLine
 62
250
  6
CONTINUOUS
 10
-1.7927654595
 20
-5.7289183778
 11
-5.3961895141
 21
-7.5445238964
  0
LINE
  5
3DE
100
AcDbEntity
  8
0
100
AcDbLine
 62
250
  6
CONTINUOUS
 10
-1.7927654595
 20
-5.7289183778
 11
-5.3961895141
 21
-7.5445238964
  0
LINE
  5
3DF
100
AcDbEntity
  8
268140580
100
AcDbLine
 62
250
  6
CONTINUOUS
 10
-1.7467076622
 20
-5.8553528694
 11
-1.7927654595
 21
-5.8785593502
  0
LWPOLYLINE
  5
3E0
100
AcDbEntity
  8
RACCORDO
100
AcDbPolyline
 62
250
  6
CONTINUOUS
 90
19
 70
0
 10
-5.5375893312
 20
-7.300645287
 10
-5.5570621489
 20
-7.3096481969
 10
-5.5776720928
 20
-7.3176918723
 10
-5.5994191629
 20
-7.3247763135
 10
-5.6224958823
 20
-7.3309476743
 10
-5.6467097278
 20
-7.3361598008
 10
-5.6714831307
 20
-7.340274231
 10
-5.6968158644
 20
-7.3432594591
 10
-5.7227081555
 20
-7.3451469908
 10
-5.7485831142
 20
-7.3458928818
 10
-5.7744419329
 20
-7.3454703894
 10
-5.8002834192
 20
-7.3439062562
 10
-5.8255271061
 20
-7.3412367655
 10
-5.8501705584
 20
-7.3374301288
 10
-5.8742162112
 20
-7.3325181346
 10
-5.8970909035
 20
-7.3266324321
 10
-5.9186035814
 20
-7.3198169045
 10
-5.9389452987
 20
-7.3120276686
 10
-5.9581160554
 20
-7.3032647245
  0
LWPOLYLINE
  5
3E1
100
AcDbEntity
  8
0
100
AcDbPolyline
 62
250
  6
CONTINUOUS
 90
19
 70
0
 10
-5.5375893312
 20
-7.300645287
 10
-5.5570621489
 20
-7.3096481969
 10
-5.5776720928
 20
-7.3176918723
 10
-5.5994191629
 20
-7.3247763135
 10
-5.6224958823
 20
-7.3309476743
 10
-5.6467097278
 20
-7.3361598008
 10
-5.6714831307
 20
-7.340274231
 10
-5.6968158644
 20
-7.3432594591
 10
-5.7227081555
 20
-7.3451469908
 10
-5.7485831142
 20
-7.3458928818
 10
-5.7744419329
 20
-7.3454703894
 10
-5.8002834192
 20
-7.3439062562
 10
-5.8255271061
 20
-7.3412367655
 10
-5.8501705584
 20
-7.3374301288
 10
-5.8742162112
 20
-7.3325181346
 10
-5.8970909035
 20
-7.3266324321
 10
-5.9186035814
 20
-7.3198169045
 10
-5.9389452987
 20
-7.3120276686
 10
-5.9581160554
 20
-7.3032647245
  0
LINE
  5
3E2
100
AcDbEntity
  8
0
100
AcDbLine
 62
250
  6
CONTINUOUS
 10
-5.3961895141
 20
-6.8735365372
 11
-1.7927654595
 21
-5.2093558954
  0
LINE
  5
3E3
100
AcDbEntity
  8
RACCORDO
100
AcDbLine
 62
250
  6
CONTINUOUS
 10
-5.3961895141
 20
-6.8735365372
 11
-1.7927654595
 21
-5.2093558954
  0
LINE
  5
3E4
100
AcDbEntity
  8
0
100
AcDbLine
 62
7
  6
CONTINUOUS
 10
-5.4512654456
 20
-6.9831740704
 11
-1.8468271269
 21
-5.3185250079
  0
LINE
  5
3E5
100
AcDbEntity
  8
RACCORDO
100
AcDbLine
 62
7
  6
CONTINUOUS
 10
-5.4512654456
 20
-6.9831740704
 11
-1.8468271269
 21
-5.3185250079
  0
LWPOLYLINE
  5
3E6
100
AcDbEntity
  8
RACCORDO
100
AcDbPolyline
 62
250
  6
CONTINUOUS
 90
19
 70
0
 10
-5.3962008594
 20
-7.5445180187
 10
-5.4285093137
 20
-7.5592216626
 10
-5.4631681041
 20
-7.5724907619
 10
-5.4999076072
 20
-7.5842018386
 10
-5.5384476318
 20
-7.5942689161
 10
-5.5785017706
 20
-7.6026260721
 10
-5.6197816442
 20
-7.609211266
 10
-5.6619840953
 20
-7.613975129
 10
-5.7047913498
 20
-7.6168887805
 10
-5.74788615
 20
-7.6179288074
 10
-5.7909483234
 20
-7.6170772168
 10
-5.8336579495
 20
-7.6143491739
 10
-5.8756982248
 20
-7.609770359
 10
-5.9167524569
 20
-7.603365235
 10
-5.9565209141
 20
-7.5951809006
 10
-5.9947168231
 20
-7.5852820488
 10
-6.0310550233
 20
-7.5737323743
 10
-6.065257917
 20
-7.5606149777
 10
-6.0970585667
 20
-7.5460507034
  0
LWPOLYLINE
  5
3E7
100
AcDbEntity
  8
0
100
AcDbPolyline
 62
250
  6
CONTINUOUS
 90
19
 70
0
 10
-5.3962008594
 20
-7.5445180187
 10
-5.4285093137
 20
-7.5592216626
 10
-5.4631681041
 20
-7.5724907619
 10
-5.4999076072
 20
-7.5842018386
 10
-5.5384476318
 20
-7.5942689161
 10
-5.5785017706
 20
-7.6026260721
 10
-5.6197816442
 20
-7.609211266
 10
-5.6619840953
 20
-7.613975129
 10
-5.7047913498
 20
-7.6168887805
 10
-5.74788615
 20
-7.6179288074
 10
-5.7909483234
 20
-7.6170772168
 10
-5.8336579495
 20
-7.6143491739
 10
-5.8756982248
 20
-7.609770359
 10
-5.9167524569
 20
-7.603365235
 10
-5.9565209141
 20
-7.5951809006
 10
-5.9947168231
 20
-7.5852820488
 10
-6.0310550233
 20
-7.5737323743
 10
-6.065257917
 20
-7.5606149777
 10
-6.0970585667
 20
-7.5460507034
  0
LINE
  5
3E8
100
AcDbEntity
  8
268140580
100
AcDbLine
 62
7
  6
CONTINUOUS
 10
-1.0272582862
 20
3.6004124932
 11
-1.3957291593
 21
3.7846479297
  0
LINE
  5
3E9
100
AcDbEntity
  8
268140580
100
AcDbLine
 62
7
  6
CONTINUOUS
 10
-1.7927654595
 20
4.1866042199
 11
-1.6078433888
 21
4.0941431845
  0
LWPOLYLINE
  5
3EA
100
AcDbEntity
  8
268140580
100
AcDbPolyline
 62
7
  6
CONTINUOUS
 90
25
 70
0
 10
0.6821082746
 20
15.6622435221
 10
0.6838532067
 20
15.6480399546
 10
0.6851573118
 20
15.6342065699
 10
0.6860205899
 20
15.620743368
 10
0.6865124047
 20
15.6076411944
 10
0.6865633925
 20
15.5949092036
 10
0.685965462
 20
15.582574859
 10
0.6846576631
 20
15.570630061
 10
0.6827009459
 20
15.5590829091
 10
0.6800700699
 20
15.5479851651
 10
0.6767298307
 20
15.5373550304
 10
0.6727154326
 20
15.5271743036
 10
0.6681072485
 20
15.5174401428
 10
0.6629085306
 20
15.5081730232
 10
0.6571160267
 20
15.4993524697
 10
0.6508003531
 20
15.4909142148
 10
0.6439559445
 20
15.4828435539
 10
0.6365883663
 20
15.4751551916
 10
0.6287849308
 20
15.4678289748
 10
0.6205430688
 20
15.4608620075
 10
0.6118653495
 20
15.4542571857
 10
0.6028467924
 20
15.4480030452
 10
0.5935190706
 20
15.4420957643
 10
0.583850511
 20
15.4365391647
 10
0.5738411137
 20
15.4313332463
  0
LINE
  5
3EB
100
AcDbEntity
  8
268140580
100
AcDbLine
 62
7
  6
CONTINUOUS
 10
6.736873658
 20
-17.6289936448
 11
6.736873658
 21
-17.4670382322
  0
LINE
  5
3EC
100
AcDbEntity
  8
268140580
100
AcDbLine
 62
7
  6
CONTINUOUS
 10
6.736873658
 20
18.9725759616
 11
6.736873658
 21
19.3742836898
  0
LWPOLYLINE
  5
3ED
100
AcDbEntity
  8
RACCORDO
100
AcDbPolyline
 62
7
  6
CONTINUOUS
 90
24
 70
0
 10
21.040740734
 20
5.1675935099
 10
21.0466019707
 20
5.1711353083
 10
21.0522366799
 20
5.1747472104
 10
21.0576395176
 20
5.1784256519
 10
21.0628053615
 20
5.1821668694
 10
21.0677293252
 20
5.1859672606
 10
21.0724067614
 20
5.1898233878
 10
21.0768332533
 20
5.1937313455
 10
21.0810046218
 20
5.197687248
 10
21.0849169368
 20
5.2016875898
 10
21.0885665192
 20
5.2057282804
 10
21.0919499394
 20
5.2098052605
 10
21.095064023
 20
5.2139149902
 10
21.0979058593
 20
5.2180532292
 10
21.1004727979
 20
5.2222157798
 10
21.1027624497
 20
5.2263991032
 10
21.1047726975
 20
5.2305988458
 10
21.1065016918
 20
5.2348107082
 10
21.1079478503
 20
5.239031188
 10
21.1091098669
 20
5.2432558563
 10
21.1099867077
 20
5.2474803492
 10
21.1105776108
 20
5.2517012371
 10
21.110882091
 20
5.2559140539
 10
21.110927401
 20
5.258277431
  0
LWPOLYLINE
  5
3EE
100
AcDbEntity
  8
RACCORDO
100
AcDbPolyline
 62
7
  6
CONTINUOUS
 90
10
 70
0
 10
21.040740734
 20
5.1675935099
 10
21.0393116693
 20
5.1668027784
 10
21.0378546309
 20
5.1661093596
 10
21.0363692964
 20
5.165513474
 10
21.0348594591
 20
5.1650124705
 10
21.033320757
 20
5.1646094228
 10
21.0317403194
 20
5.1643132875
 10
21.030113289
 20
5.1641273767
 10
21.0284431762
 20
5.1640491986
 10
21.0267293411
 20
5.1640791652
  0
LINE
  5
3EF
100
AcDbEntity
  8
268140580
100
AcDbLine
 62
250
  6
CONTINUOUS
 10
-1.5346079366
 20
-6.2211707834
 11
-1.7927654595
 21
-6.3512449063
  0
LINE
  5
3F0
100
AcDbEntity
  8
268140580
100
AcDbLine
 62
7
  6
CONTINUOUS
 10
-1.6078433888
 20
7.3417384487
 11
-1.7927654595
 21
7.4341994841
  0
LWPOLYLINE
  5
3F1
100
AcDbEntity
  8
SMUSSO
100
AcDbPolyline
 62
7
  6
CONTINUOUS
 90
35
 70
0
 10
8.9983358801
 20
21.5497773164
 10
8.9986925702
 20
21.5716256036
 10
9.0004765059
 20
21.6028989431
 10
9.0037487896
 20
21.6341341711
 10
9.0085074709
 20
21.6653085047
 10
9.0147491033
 20
21.6964005816
 10
9.0224708737
 20
21.7273972556
 10
9.0316704226
 20
21.7582880939
 10
9.042344748
 20
21.7890589502
 10
9.0544880447
 20
21.8196895581
 10
9.0680928003
 20
21.8501603734
 10
9.0831508818
 20
21.8804523796
 10
9.0996552626
 20
21.9105507092
 10
9.1175986938
 20
21.9404421756
 10
9.1369727244
 20
21.9701109873
 10
9.1577668683
 20
21.999539492
 10
9.1799698742
 20
22.0287118405
 10
9.2035700672
 20
22.0576114759
 10
9.2285552179
 20
22.0862222748
 10
9.2549119455
 20
22.1145292665
 10
9.2826259021
 20
22.1425160146
 10
9.3116828756
 20
22.170167187
 10
9.3420686784
 20
22.1974696811
 10
9.3737683055
 20
22.2244087659
 10
9.4067642106
 20
22.2509683291
 10
9.4410372659
 20
22.2771334903
 10
9.4765680226
 20
22.3028885566
 10
9.5133385773
 20
22.3282197305
 10
9.5513310601
 20
22.3531152914
 10
9.5905255546
 20
22.377561127
 10
9.6309009749
 20
22.4015430487
 10
9.6724369591
 20
22.4250494733
 10
9.7151118388
 20
22.4480675508
 10
9.7589025454
 20
22.470583214
 10
9.803785752
 20
22.4925833981
  0
LWPOLYLINE
  5
3F2
100
AcDbEntity
  8
268140580
100
AcDbPolyline
 62
250
  6
CONTINUOUS
 90
28
 70
0
 10
0.7174636137
 20
-24.1706266181
 10
0.7223038766
 20
-24.1570052133
 10
0.7265295999
 20
-24.1431308226
 10
0.7301264856
 20
-24.1290503929
 10
0.7330823633
 20
-24.1148115684
 10
0.7353872317
 20
-24.1004625291
 10
0.7370332922
 20
-24.0860518286
 10
0.7380149757
 20
-24.0716282283
 10
0.7383289609
 20
-24.0572405334
 10
0.7379741861
 20
-24.0429374275
 10
0.7369518524
 20
-24.0287673081
 10
0.7352654196
 20
-24.014778122
 10
0.7329205946
 20
-24.0010172042
 10
0.7299253123
 20
-23.9875311172
 10
0.7262897083
 20
-23.9743654932
 10
0.7220260848
 20
-23.9615648798
 10
0.7171488691
 20
-23.9491725901
 10
0.7116745646
 20
-23.9372305551
 10
0.7056216948
 20
-23.9257791818
 10
0.6990107411
 20
-23.9148572177
 10
0.6918640731
 20
-23.9045016186
 10
0.6842058726
 20
-23.8947474236
 10
0.6760620527
 20
-23.8856276372
 10
0.6674601697
 20
-23.8771731175
 10
0.6584293289
 20
-23.8694124707
 10
0.6490000876
 20
-23.8623719561
 10
0.6392043514
 20
-23.8560753963
 10
0.6290752661
 20
-23.8505440967
  0
LWPOLYLINE
  5
3F3
100
AcDbEntity
  8
RACCORDO
100
AcDbPolyline
 62
7
  6
CONTINUOUS
 90
9
 70
0
 10
21.0393116693
 20
4.3970005329
 10
21.0378546309
 20
4.3959961796
 10
21.0363692964
 20
4.3948873504
 10
21.0348594591
 20
4.3936817608
 10
21.033320757
 20
4.392372118
 10
21.0317403194
 20
4.3909362802
 10
21.030113289
 20
4.3893671931
 10
21.0284431762
 20
4.3876727314
 10
21.0267293411
 20
4.3858533067
  0
LWPOLYLINE
  5
3F4
100
AcDbEntity
  8
RACCORDO
100
AcDbPolyline
 62
7
  6
CONTINUOUS
 90
34
 70
0
 10
20.404561118
 20
3.2366085654
 10
20.4373742448
 20
3.2585412751
 10
20.4696516747
 20
3.2815526363
 10
20.5013726083
 20
3.3056378651
 10
20.5325113059
 20
3.3307871104
 10
20.5630531407
 20
3.3569982786
 10
20.5929937818
 20
3.3842790448
 10
20.6223143142
 20
3.4126250372
 10
20.6509938139
 20
3.4420290715
 10
20.67902422
 20
3.4724970742
 10
20.7063886795
 20
3.5040265368
 10
20.733065278
 20
3.5366083918
 10
20.7590384274
 20
3.5702402623
 10
20.7842927239
 20
3.6049200619
 10
20.8088069915
 20
3.6406371549
 10
20.8325583965
 20
3.6773762717
 10
20.8555327437
 20
3.7151337623
 10
20.8777113004
 20
3.7538979361
 10
20.899067308
 20
3.7936397415
 10
20.9195882355
 20
3.8343528102
 10
20.9392586153
 20
3.8760243646
 10
20.958051398
 20
3.9186126993
 10
20.9759560936
 20
3.9621076436
 10
20.9929610751
 20
4.0064956162
 10
21.0090424933
 20
4.0517259381
 10
21.0241922871
 20
4.0977842811
 10
21.0384026751
 20
4.1446563847
 10
21.0516553459
 20
4.1922875679
 10
21.063944925
 20
4.2406598461
 10
21.0752670131
 20
4.2897580907
 10
21.0856095749
 20
4.339528027
 10
21.0949680831
 20
4.3899384543
 10
21.1033431338
 20
4.4409832411
 10
21.1101288754
 20
4.4881239496
  0
LINE
  5
3F5
100
AcDbEntity
  8
DRAFT
100
AcDbLine
 62
7
  6
CONTINUOUS
 10
20.4045611181
 20
3.2366085654
 11
19.4400139523
 21
2.6127476022
  0
LWPOLYLINE
  5
3F6
100
AcDbEntity
  8
RACCORDO
100
AcDbPolyline
 62
7
  6
CONTINUOUS
 90
21
 70
0
 10
21.0393116693
 20
4.3970005329
 10
21.0466019707
 20
4.4015673675
 10
21.0522366799
 20
4.4053418347
 10
21.0576395176
 20
4.4092200274
 10
21.0628053615
 20
4.4131984149
 10
21.0677293252
 20
4.4172731621
 10
21.0724067614
 20
4.4214401337
 10
21.0768332533
 20
4.4256955141
 10
21.0810046218
 20
4.4300353277
 10
21.0849169368
 20
4.4344551014
 10
21.0885665192
 20
4.4389508333
 10
21.0919499394
 20
4.4435183755
 10
21.095064023
 20
4.4481529542
 10
21.0979058593
 20
4.4528504162
 10
21.1004727979
 20
4.4576064767
 10
21.1027624497
 20
4.4624161018
 10
21.1047726975
 20
4.4672750229
 10
21.1065016918
 20
4.4721788555
 10
21.1079478503
 20
4.4771223478
 10
21.1091098669
 20
4.4821011527
 10
21.1099867077
 20
4.4871108244
  0
LINE
  5
3F7
100
AcDbEntity
  8
0
100
AcDbLine
 62
250
  6
CONTINUOUS
 10
-20.670378951
 20
18.18869789
 11
-5.7928162621
 21
10.7499165456
  0
LINE
  5
3F8
100
AcDbEntity
  8
RACCORDO
100
AcDbLine
 62
250
  6
CONTINUOUS
 10
-20.670378951
 20
18.18869789
 11
-5.7928162621
 21
10.7499165456
  0
LINE
  5
3F9
100
AcDbEntity
  8
0
100
AcDbLine
 62
250
  6
CONTINUOUS
 10
-19.677813076
 20
19.9404979112
 11
-4.7768780072
 21
12.4900303767
  0
LINE
  5
3FA
100
AcDbEntity
  8
RACCORDO
100
AcDbLine
 62
250
  6
CONTINUOUS
 10
-19.677813076
 20
19.9404979112
 11
-4.7768780072
 21
12.4900303767
  0
LWPOLYLINE
  5
3FB
100
AcDbEntity
  8
268140580
100
AcDbPolyline
 62
250
  6
CONTINUOUS
 90
18
 70
0
 10
-13.9309277393
 20
22.3674039192
 10
-13.9258082947
 20
22.3628357535
 10
-13.920943968
 20
22.3578641807
 10
-13.9163451813
 20
22.3524978251
 10
-13.9120214208
 20
22.346745607
 10
-13.9079856662
 20
22.3406235309
 10
-13.9042459114
 20
22.3341435689
 10
-13.9008093295
 20
22.3273179832
 10
-13.8976852051
 20
22.3201662126
 10
-13.8948781676
 20
22.3127009011
 10
-13.892393721
 20
22.3049389616
 10
-13.8902391421
 20
22.296909368
 10
-13.8884167189
 20
22.2886321512
 10
-13.886926828
 20
22.280122552
 10
-13.8857705997
 20
22.2714047407
 10
-13.8849472633
 20
22.2624994245
 10
-13.8844549359
 20
22.2534232317
 10
-13.8842914178
 20
22.2441948652
  0
LWPOLYLINE
  5
3FC
100
AcDbEntity
  8
268140580
100
AcDbPolyline
 62
7
  6
CONTINUOUS
 90
15
 70
0
 10
0.6194550959
 20
15.6338314699
 10
0.619536014
 20
15.6336960782
 10
0.6199314622
 20
15.6329919069
 10
0.6199288245
 20
15.6330042282
 10
0.61961856
 20
15.6337390465
 10
0.6191003439
 20
15.6351408672
 10
0.6184383772
 20
15.6372044873
 10
0.6176875668
 20
15.6399332667
 10
0.6169056491
 20
15.643297931
 10
0.6161388657
 20
15.647288143
 10
0.615428989
 20
15.6518971758
 10
0.6148150467
 20
15.6571186246
 10
0.6143339243
 20
15.6629466294
 10
0.6140213219
 20
15.6693634556
 10
0.6139102231
 20
15.6763495771
  0
LWPOLYLINE
  5
3FD
100
AcDbEntity
  8
268140580
100
AcDbPolyline
 62
250
  6
CONTINUOUS
 90
13
 70
0
 10
0.7174636137
 20
16.3789775212
 10
0.7223038609
 20
16.3707945676
 10
0.7265295738
 20
16.3629383806
 10
0.730126454
 20
16.3554355433
 10
0.7330823308
 20
16.3483114427
 10
0.7353872024
 20
16.3415901846
 10
0.7370332698
 20
16.3352945116
 10
0.7380149634
 20
16.3294457263
 10
0.7383289613
 20
16.3240636191
 10
0.7379742012
 20
16.3191664013
 10
0.7369518833
 20
16.3147706437
 10
0.7352654668
 20
16.3108912199
 10
0.7332059565
 20
16.3078778757
  0
LWPOLYLINE
  5
3FE
100
AcDbEntity
  8
268140580
100
AcDbPolyline
 62
250
  6
CONTINUOUS
 90
13
 70
0
 10
0.5738458038
 20
15.4313355914
 10
0.5685601334
 20
15.4424113202
 10
0.5637279745
 20
15.4538964932
 10
0.5593493272
 20
15.4657911103
 10
0.5554195533
 20
15.4781258742
 10
0.551943291
 20
15.4908700821
 10
0.5489344544
 20
15.5039316263
 10
0.5463990993
 20
15.5173101562
 10
0.54433117
 20
15.5310060224
 10
0.5427264126
 20
15.5449281684
 10
0.5415834092
 20
15.5590462422
 10
0.5409035778
 20
15.5733905959
 10
0.5406869184
 20
15.5879612294
  0
LINE
  5
3FF
100
AcDbEntity
  8
SMUSSO
100
AcDbLine
 62
250
  6
CONTINUOUS
 10
9.803785752
 20
22.0640666224
 11
9.803785752
 21
22.4925833981
  0
LINE
  5
400
100
AcDbEntity
  8
0
100
AcDbLine
 62
7
  6
CONTINUOUS
 10
10.4755371941
 20
22.3927625387
 11
10.4755371941
 21
21.9656619901
  0
LWPOLYLINE
  5
401
100
AcDbEntity
  8
268140580
100
AcDbPolyline
 62
250
  6
CONTINUOUS
 90
31
 70
0
 10
1.2477936996
 20
-24.2804615752
 10
1.252177322
 20
-24.2682145059
 10
1.2560643965
 20
-24.2557587386
 10
1.259444269
 20
-24.2431284138
 10
1.2623076755
 20
-24.2303581503
 10
1.2646467675
 20
-24.2174829505
 10
1.2664551338
 20
-24.2045381043
 10
1.2677278178
 20
-24.1915590929
 10
1.2684613311
 20
-24.1785814906
 10
1.2686536633
 20
-24.1656408682
 10
1.268304287
 20
-24.1527726951
 10
1.2674141601
 20
-24.140012242
 10
1.2659857222
 20
-24.1273944845
 10
1.2640228886
 20
-24.1149540069
 10
1.2615310393
 20
-24.1027249077
 10
1.2585170043
 20
-24.0907407061
 10
1.2549890448
 20
-24.0790342498
 10
1.2509568307
 20
-24.0676376256
 10
1.2464314141
 20
-24.0565820707
 10
1.2414251988
 20
-24.0458978876
 10
1.2359519064
 20
-24.0356143609
 10
1.230026539
 20
-24.0257596772
 10
1.2236653374
 20
-24.0163608473
 10
1.2168857374
 20
-24.0074436328
 10
1.2097063213
 20
-23.9990324753
 10
1.2021467675
 20
-23.991150429
 10
1.1942277961
 20
-23.9838190981
 10
1.1859711125
 20
-23.9770585774
 10
1.1773993476
 20
-23.9708873968
 10
1.1685359962
 20
-23.9653224712
 10
1.1594053519
 20
-23.9603790537
  0
LWPOLYLINE
  5
402
100
AcDbEntity
  8
DRAFT
100
AcDbPolyline
 62
7
  6
CONTINUOUS
 90
43
 70
0
 10
19.1593537527
 20
2.794782533
 10
19.1686228223
 20
2.8017000506
 10
19.1777158077
 20
2.8082612661
 10
19.1866330226
 20
2.8144644033
 10
19.1953550173
 20
2.8202936154
 10
19.2039026567
 20
2.8257609979
 10
19.2123340952
 20
2.8309078831
 10
19.2206506097
 20
2.8357437042
 10
19.2288463841
 20
2.8402579282
 10
19.2369639155
 20
2.8444639851
 10
19.2449927117
 20
2.8483675765
 10
19.2529342783
 20
2.8519634096
 10
19.2608432979
 20
2.8552505083
 10
19.2687148126
 20
2.8582405151
 10
19.2765368361
 20
2.8609244668
 10
19.2843467524
 20
2.863272623
 10
19.2921285099
 20
2.865294498
 10
19.2998737518
 20
2.8669846667
 10
19.3076236281
 20
2.868293101
 10
19.3153654626
 20
2.869230451
 10
19.3230756518
 20
2.8697920903
 10
19.3307704856
 20
2.8699070129
 10
19.3384291454
 20
2.8695806047
 10
19.3460249982
 20
2.8688141506
 10
19.3535580188
 20
2.8675317465
 10
19.3610033073
 20
2.8657324304
 10
19.3683261478
 20
2.8634235674
 10
19.3755056044
 20
2.8605422431
 10
19.3825063567
 20
2.8570841905
 10
19.3892943682
 20
2.8530580933
 10
19.3958448401
 20
2.8484204426
 10
19.4021105059
 20
2.843172384
 10
19.4080577706
 20
2.8373142996
 10
19.4136702853
 20
2.8308019291
 10
19.4188886107
 20
2.8236421921
 10
19.4236672948
 20
2.8158265844
 10
19.4279845538
 20
2.8072887376
 10
19.4317741507
 20
2.7979915412
 10
19.4349464378
 20
2.7879658025
 10
19.4374225833
 20
2.7772460472
 10
19.4391211773
 20
2.7657698834
 10
19.4399472731
 20
2.753580925
 10
19.4400139522
 20
2.7489418344
  0
LWPOLYLINE
  5
403
100
AcDbEntity
  8
RACCORDO
100
AcDbPolyline
 62
250
  6
CONTINUOUS
 90
33
 70
0
 10
18.9148377728
 20
-2.0444268214
 10
18.9216713459
 20
-2.0406481111
 10
18.9362112229
 20
-2.0319742997
 10
18.9503744408
 20
-2.0226418789
 10
18.9641502484
 20
-2.012657933
 10
18.9775281886
 20
-2.0020300407
 10
18.9904981063
 20
-1.9907662695
 10
19.0030501561
 20
-1.9788751697
 10
19.01517481
 20
-1.9663657677
 10
19.0268628641
 20
-1.9532475592
 10
19.0381054462
 20
-1.9395305023
 10
19.0488940222
 20
-1.9252250093
 10
19.0592204025
 20
-1.9103419395
 10
19.0690767484
 20
-1.8948925905
 10
19.0784555781
 20
-1.8788886898
 10
19.0873497721
 20
-1.8623423857
 10
19.0957525791
 20
-1.8452662385
 10
19.1036576205
 20
-1.8276732105
 10
19.1110588955
 20
-1.8095766564
 10
19.1179507861
 20
-1.7909903131
 10
19.1243280606
 20
-1.7719282895
 10
19.130185878
 20
-1.7524050552
 10
19.1355197919
 20
-1.7324354303
 10
19.1403257531
 20
-1.7120345735
 10
19.1446001136
 20
-1.6912179709
 10
19.1483396288
 20
-1.6700014243
 10
19.1515414599
 20
-1.6484010388
 10
19.1542031766
 20
-1.6264332113
 10
19.1563227583
 20
-1.6041146172
 10
19.1578985961
 20
-1.5814621985
 10
19.1589294937
 20
-1.5584931504
 10
19.1594146687
 20
-1.5352249086
 10
19.1593537527
 20
-1.5116751356
  0
LINE
  5
404
100
AcDbEntity
  8
RACCORDO
100
AcDbLine
 62
250
  6
CONTINUOUS
 10
13.2356702078
 20
-4.7076383074
 11
19.1593537527
 21
-1.5116751356
  0
LINE
  5
405
100
AcDbEntity
  8
RACCORDO
100
AcDbLine
 62
7
  6
CONTINUOUS
 10
12.9911542279
 20
-5.2403899932
 11
18.9148377728
 21
-2.0444268214
  0
LWPOLYLINE
  5
406
100
AcDbEntity
  8
RACCORDO
100
AcDbPolyline
 62
250
  6
CONTINUOUS
 90
30
 70
0
 10
19.1593537527
 20
-1.5116751356
 10
19.1780148912
 20
-1.5017457926
 10
19.1961279862
 20
-1.4915658947
 10
19.2136795867
 20
-1.4811430014
 10
19.2306566588
 20
-1.470484853
 10
19.2470465954
 20
-1.459599364
 10
19.262837225
 20
-1.4484946183
 10
19.2780168216
 20
-1.4371788622
 10
19.2925741127
 20
-1.4256604989
 10
19.3064982879
 20
-1.4139480819
 10
19.319779007
 20
-1.4020503091
 10
19.3324064078
 20
-1.3899760157
 10
19.344371113
 20
-1.3777341681
 10
19.3556642377
 20
-1.3653338573
 10
19.3662773954
 20
-1.3527842918
 10
19.3762027048
 20
-1.3400947909
 10
19.3854327953
 20
-1.327274778
 10
19.3939608125
 20
-1.3143337732
 10
19.4017804236
 20
-1.3012813866
 10
19.4088858216
 20
-1.2881273111
 10
19.41527173
 20
-1.2748813148
 10
19.4209334066
 20
-1.2615532343
 10
19.4258666471
 20
-1.2481529672
 10
19.4300677879
 20
-1.2346904645
 10
19.4335337093
 20
-1.2211757237
 10
19.4362618375
 20
-1.2076187807
 10
19.4382501465
 20
-1.194029703
 10
19.4394971598
 20
-1.1804185821
 10
19.4400019514
 20
-1.1667955255
 10
19.4400139523
 20
-1.1643459504
  0
LINE
  5
407
100
AcDbEntity
  8
268140580
100
AcDbLine
 62
250
  6
CONTINUOUS
 10
-0.8151585606
 20
-10.9078350642
 11
-1.7927654595
 21
-11.3593263268
  0
LINE
  5
408
100
AcDbEntity
  8
268140580
100
AcDbLine
 62
7
  6
CONTINUOUS
 10
-0.8962510616
 20
-11.0715887328
 11
-1.7927654595
 21
-11.4856287912
  0
LWPOLYLINE
  5
409
100
AcDbEntity
  8
RACCORDO
100
AcDbPolyline
 62
7
  6
CONTINUOUS
 90
40
 70
0
 10
19.1593537527
 20
16.772576482
 10
19.2419984827
 20
16.7952016121
 10
19.3222492948
 20
16.816868676
 10
19.400106189
 20
16.8375776739
 10
19.4755006984
 20
16.8573004986
 10
19.54850129
 20
16.8760652572
 10
19.6193133642
 20
16.8939562712
 10
19.6879452224
 20
16.9109767579
 10
19.7543885632
 20
16.9271235
 10
19.8188238839
 20
16.9424711659
 10
19.8812565826
 20
16.9570221004
 10
19.941681261
 20
16.9707739588
 10
20.0002622215
 20
16.9837943759
 10
20.0570040594
 20
16.9960854411
 10
20.1119021794
 20
17.0076450651
 10
20.1651070975
 20
17.0185346139
 10
20.2166228944
 20
17.0287560241
 10
20.2664454893
 20
17.038307359
 10
20.3147131567
 20
17.0472441751
 10
20.3614305341
 20
17.0555684393
 10
20.4065929839
 20
17.0632781846
 10
20.4503248678
 20
17.0704230659
 10
20.4926291656
 20
17.0770047232
 10
20.5335028975
 20
17.0830215164
 10
20.5730614859
 20
17.0885181812
 10
20.6113084072
 20
17.0934964364
 10
20.648240185
 20
17.0979545632
 10
20.6839618133
 20
17.1019321402
 10
20.7184757322
 20
17.1054308089
 10
20.7517795015
 20
17.1084489278
 10
20.7839707949
 20
17.1110211511
 10
20.8150555251
 20
17.1131492575
 10
20.8450277793
 20
17.1148314682
 10
20.8739674935
 20
17.1160971014
 10
20.9018773487
 20
17.1169474733
 10
20.9287546639
 20
17.1173812676
 10
20.9546713314
 20
17.1174238543
 10
20.9796513156
 20
17.1170836897
 10
21.0036706521
 20
17.1163523174
 10
21.0267293411
 20
17.1152297374
  0
LINE
  5
40A
100
AcDbEntity
  8
0
100
AcDbLine
 62
7
  6
CONTINUOUS
 10
-1.7927654595
 20
12.4659295138
 11
-2.3683249603
 21
12.7537092642
  0
LINE
  5
40B
100
AcDbEntity
  8
DRAFT
100
AcDbLine
 62
7
  6
CONTINUOUS
 10
-1.7927654595
 20
12.4659295138
 11
-2.3683249603
 21
12.7537092642
  0
LINE
  5
40C
100
AcDbEntity
  8
0
100
AcDbLine
 62
7
  6
CONTINUOUS
 10
-2.7216092262
 20
13.6120620156
 11
-17.693063085
 21
21.097788945
  0
LINE
  5
40D
100
AcDbEntity
  8
RACCORDO
100
AcDbLine
 62
7
  6
CONTINUOUS
 10
-2.7216092262
 20
13.6120620156
 11
-17.693063085
 21
21.097788945
  0
LWPOLYLINE
  5
40E
100
AcDbEntity
  8
268140580
100
AcDbPolyline
 62
250
  6
CONTINUOUS
 90
18
 70
0
 10
-0.5666095749
 20
15.685244837
 10
-0.5614901303
 20
15.6806766713
 10
-0.5566258035
 20
15.6757050985
 10
-0.5520270169
 20
15.6703387429
 10
-0.5477032564
 20
15.6645865248
 10
-0.5436675018
 20
15.6584644487
 10
-0.539927747
 20
15.6519844867
 10
-0.5364911651
 20
15.645158901
 10
-0.5333670407
 20
15.6380071303
 10
-0.5305600032
 20
15.6305418189
 10
-0.5280755565
 20
15.6227798794
 10
-0.5259209776
 20
15.6147502857
 10
-0.5240985544
 20
15.606473069
 10
-0.5226086635
 20
15.5979634698
 10
-0.5214524352
 20
15.5892456585
 10
-0.5206290988
 20
15.5803403423
 10
-0.5201367714
 20
15.5712641495
 10
-0.5199732534
 20
15.562035783
  0
LWPOLYLINE
  5
40F
100
AcDbEntity
  8
268140580
100
AcDbPolyline
 62
250
  6
CONTINUOUS
 90
15
 70
0
 10
1.2477936996
 20
17.0191425642
 10
1.2521727866
 20
17.0117715983
 10
1.2560574505
 20
17.0046605604
 10
1.2594366374
 20
16.9978291395
 10
1.2623009075
 20
16.9912956868
 10
1.264641631
 20
16.9850790219
 10
1.2664515102
 20
16.9791980735
 10
1.2677254802
 20
16.9736695126
 10
1.2684602618
 20
16.9685078735
 10
1.2686538393
 20
16.963727188
 10
1.2683056305
 20
16.9593405197
 10
1.2674165412
 20
16.9553600085
 10
1.265989011
 20
16.9517966829
 10
1.2640269738
 20
16.9486603387
 10
1.2635360424
 20
16.9480429186
  0
LWPOLYLINE
  5
410
100
AcDbEntity
  8
RACCORDO
100
AcDbPolyline
 62
250
  6
CONTINUOUS
 90
33
 70
0
 10
13.2356702078
 20
-4.7076383074
 10
13.2357311238
 20
-4.7311880804
 10
13.2352459488
 20
-4.7544563223
 10
13.2342150512
 20
-4.7774253704
 10
13.2326392134
 20
-4.8000777891
 10
13.2305196317
 20
-4.8223963831
 10
13.227857915
 20
-4.8443642106
 10
13.2246560839
 20
-4.8659645961
 10
13.2209165687
 20
-4.8871811427
 10
13.2166422082
 20
-4.9079977453
 10
13.2118362469
 20
-4.9283986021
 10
13.2065023331
 20
-4.948368227
 10
13.2006445157
 20
-4.9678914613
 10
13.1942672412
 20
-4.9869534849
 10
13.1873753506
 20
-5.0055398282
 10
13.1799740755
 20
-5.0236363823
 10
13.1720690342
 20
-5.0412294103
 10
13.1636662272
 20
-5.0583055575
 10
13.1547720331
 20
-5.0748518616
 10
13.1453932034
 20
-5.0908557624
 10
13.1355368575
 20
-5.1063051114
 10
13.1252104773
 20
-5.1211881811
 10
13.1144219013
 20
-5.1354936741
 10
13.1031793192
 20
-5.1492107311
 10
13.0914912651
 20
-5.1623289395
 10
13.0793666112
 20
-5.1748383415
 10
13.0668145614
 20
-5.1867294414
 10
13.0538446437
 20
-5.1979932125
 10
13.0404667035
 20
-5.2086211049
 10
13.0266908959
 20
-5.2186050507
 10
13.012527678
 20
-5.2279374715
 10
12.997987801
 20
-5.236611283
 10
12.9911542279
 20
-5.2403899932
  0
LINE
  5
411
100
AcDbEntity
  8
0
100
AcDbLine
 62
7
  6
CONTINUOUS
 10
11.4370645754
 20
21.1220788092
 11
11.4370645754
 21
20.6908392291
  0
LINE
  5
412
100
AcDbEntity
  8
0
100
AcDbLine
 62
7
  6
CONTINUOUS
 10
11.8868092368
 20
21.0003309761
 11
11.8868092368
 21
20.6801440876
  0
LINE
  5
413
100
AcDbEntity
  8
DRAFT
100
AcDbLine
 62
7
  6
CONTINUOUS
 10
11.9251060955
 20
21.8522683591
 11
11.9251060955
 21
22.3340851375
  0
LINE
  5
414
100
AcDbEntity
  8
RACCORDO
100
AcDbLine
 62
250
  6
CONTINUOUS
 10
12.2117118886
 20
-13.5270084245
 11
12.2117118886
 21
-6.5366485031
  0
LWPOLYLINE
  5
415
100
AcDbEntity
  8
RACCORDO
100
AcDbPolyline
 62
7
  6
CONTINUOUS
 90
79
 70
0
 10
12.4923720883
 20
-13.1796792392
 10
12.492389951
 20
-6.1845867201
 10
12.492537416
 20
-6.1747899385
 10
12.4928447703
 20
-6.1645133393
 10
12.4933249194
 20
-6.1537605959
 10
12.4939902243
 20
-6.1425419027
 10
12.4948520834
 20
-6.1308742552
 10
12.495921785
 20
-6.1187663555
 10
12.497210182
 20
-6.1062273548
 10
12.4987266202
 20
-6.0932766277
 10
12.5004805227
 20
-6.0799266408
 10
12.5024810591
 20
-6.066187905
 10
12.5047358719
 20
-6.0520780369
 10
12.5072528034
 20
-6.0376104687
 10
12.5100392541
 20
-6.0227984042
 10
12.51310112
 20
-6.0076598731
 10
12.5164446314
 20
-5.9922088818
 10
12.5200752395
 20
-5.9764613495
 10
12.5239963884
 20
-5.9604388143
 10
12.528212877
 20
-5.944154577
 10
12.5327276007
 20
-5.9276282748
 10
12.5375392071
 20
-5.9108916115
 10
12.542649392
 20
-5.8939617508
 10
12.5480590209
 20
-5.8768572662
 10
12.5537631258
 20
-5.8596126101
 10
12.5597606271
 20
-5.8422466682
 10
12.5660499302
 20
-5.8247781314
 10
12.57262304
 20
-5.8072415082
 10
12.5794764398
 20
-5.7896560619
 10
12.5866059644
 20
-5.772040918
 10
12.5940005591
 20
-5.7544303648
 10
12.6016543397
 20
-5.736843633
 10
12.6095607855
 20
-5.7192996665
 10
12.6177059391
 20
-5.7018319391
 10
12.6260818676
 20
-5.6844587899
 10
12.6346797589
 20
-5.6671988043
 10
12.6434825093
 20
-5.6500850615
 10
12.6524801504
 20
-5.6331347852
 10
12.6616619294
 20
-5.6163653548
 10
12.6710078349
 20
-5.5998088955
 10
12.6805058195
 20
-5.5834813961
 10
12.6901437018
 20
-5.5673980809
 10
12.6998996372
 20
-5.5515883222
 10
12.7097594169
 20
-5.5360670003
 10
12.719710179
 20
-5.5208461457
 10
12.7297306846
 20
-5.5059490576
 10
12.7398062561
 20
-5.4913874115
 10
12.7499225611
 20
-5.4771717709
 10
12.7600577796
 20
-5.463321928
 10
12.7701967069
 20
-5.4498469017
 10
12.7803242793
 20
-5.4367547985
 10
12.7904181934
 20
-5.4240621075
 10
12.8004629132
 20
-5.4117752496
 10
12.8104431871
 20
-5.3998994631
 10
12.8203368267
 20
-5.3884474439
 10
12.8301285449
 20
-5.3774226361
 10
12.8398031152
 20
-5.3668276194
 10
12.8493383615
 20
-5.3566716953
 10
12.8587181165
 20
-5.3469567458
 10
12.8679290318
 20
-5.337681027
 10
12.8769532866
 20
-5.3288466259
 10
12.8857742347
 20
-5.3204537775
 10
12.8943803744
 20
-5.3124973033
 10
12.9027615069
 20
-5.3049705453
 10
12.9109037482
 20
-5.2978698665
 10
12.9187938343
 20
-5.2911907447
 10
12.9264218265
 20
-5.2849254768
 10
12.9337750218
 20
-5.2790682995
 10
12.940839696
 20
-5.27361379
 10
12.9476036268
 20
-5.268554977
 10
12.9540550438
 20
-5.26388409
 10
12.9601800669
 20
-5.2595943438
 10
12.9659625913
 20
-5.2556798292
 10
12.9713906995
 20
-5.2521311767
 10
12.9764523903
 20
-5.2489385609
 10
12.9811310107
 20
-5.2460943942
 10
12.9854131165
 20
-5.243588338
 10
12.9892891762
 20
-5.241407265
 10
12.9911517171
 20
-5.2403913323
  0
LWPOLYLINE
  5
416
100
AcDbEntity
  8
RACCORDO
100
AcDbPolyline
 62
250
  6
CONTINUOUS
 90
67
 70
0
 10
12.2117118886
 20
-6.5366485031
 10
12.2119891293
 20
-6.5062663212
 10
12.2128379347
 20
-6.4755750028
 10
12.2142583048
 20
-6.4445745478
 10
12.2162493252
 20
-6.4132412905
 10
12.2188119104
 20
-6.3815988966
 10
12.2219488031
 20
-6.3497183636
 10
12.2256623495
 20
-6.3175994921
 10
12.2299502035
 20
-6.2852424815
 10
12.2348080697
 20
-6.2527189274
 10
12.2402383339
 20
-6.2200278537
 10
12.2462386104
 20
-6.1871702366
 10
12.252797446
 20
-6.1542206004
 10
12.2599169616
 20
-6.1211791604
 10
12.2675950363
 20
-6.0880457013
 10
12.2758138555
 20
-6.0548941013
 10
12.284573628
 20
-6.0217297019
 10
12.2938741449
 20
-5.9885471616
 10
12.3036969644
 20
-5.9554043346
 10
12.3140412053
 20
-5.922306079
 10
12.3249077488
 20
-5.8892475365
 10
12.3362807966
 20
-5.8562719863
 10
12.348160615
 20
-5.8233791686
 10
12.3605469377
 20
-5.7905693431
 10
12.3734231678
 20
-5.7578865683
 10
12.3867909776
 20
-5.725327947
 10
12.4006486947
 20
-5.6928963764
 10
12.4149747048
 20
-5.6606446069
 10
12.4297705985
 20
-5.6285712987
 10
12.4450347852
 20
-5.5966777916
 10
12.4607408791
 20
-5.5650208547
 10
12.476889749
 20
-5.5336010694
 10
12.4934805261
 20
-5.5024178544
 10
12.5104842181
 20
-5.4715262343
 10
12.5279016655
 20
-5.4409268141
 10
12.5457320279
 20
-5.4106189888
 10
12.5639437916
 20
-5.3806559673
 10
12.5825378274
 20
-5.351038336
 10
12.6015132645
 20
-5.3217655085
 10
12.6208359768
 20
-5.2928889337
 10
12.6405056811
 20
-5.264410687
 10
12.6605226606
 20
-5.2363286929
 10
12.6808536387
 20
-5.2086881745
 10
12.7014970481
 20
-5.181492096
 10
12.7224544561
 20
-5.1547374932
 10
12.7436972879
 20
-5.1284606953
 10
12.7652252643
 20
-5.1026623273
 10
12.7870386646
 20
-5.0773417644
 10
12.8091097519
 20
-5.0525334608
 10
12.8314417837
 20
-5.028234629
 10
12.8540315025
 20
-5.0044480565
 10
12.8768413986
 20
-4.9812165613
 10
12.8998758767
 20
-4.9585379007
 10
12.9231305322
 20
-4.9364143173
 10
12.9465546407
 20
-4.9148953564
 10
12.9701495557
 20
-4.893982788
 10
12.9939139238
 20
-4.8736748421
 10
13.0177929605
 20
-4.8540157546
 10
13.0417869353
 20
-4.8350083572
 10
13.0658955788
 20
-4.8166498183
 10
13.0900632984
 20
-4.7989758785
 10
13.1142911491
 20
-4.7819888958
 10
13.1385780759
 20
-4.7656865121
 10
13.162865321
 20
-4.7500973947
 10
13.1871332983
 20
-4.7352310994
 10
13.2114015939
 20
-4.7210780703
 10
13.2356702078
 20
-4.7076383074
  0
LINE
  5
417
100
AcDbEntity
  8
268140580
100
AcDbLine
 62
7
  6
CONTINUOUS
 10
-2.0559951757
 20
-23.7813289211
 11
-2.3683249603
 21
-24.158344322
  0
LWPOLYLINE
  5
418
100
AcDbEntity
  8
RACCORDO
100
AcDbPolyline
 62
7
  6
CONTINUOUS
 90
40
 70
0
 10
21.0267293411
 20
4.3858533067
 10
21.0036706916
 20
4.3608527977
 10
20.979651397
 20
4.335248718
 10
20.9546714573
 20
4.3090410676
 10
20.928754838
 20
4.2822462069
 10
20.9018775737
 20
4.2548477755
 10
20.8739677677
 20
4.2267966925
 10
20.8450280995
 20
4.1980944162
 10
20.8150558896
 20
4.1687394883
 10
20.783971204
 20
4.1386784528
 10
20.7517799559
 20
4.1079156543
 10
20.7184762319
 20
4.0764467483
 10
20.6839623582
 20
4.0442052446
 10
20.6482407756
 20
4.0111920293
 10
20.6113090433
 20
3.9774062163
 10
20.5730621641
 20
3.9427786575
 10
20.5335036135
 20
3.9073112327
 10
20.4926299161
 20
3.8710020621
 10
20.4503256492
 20
3.8337763576
 10
20.4065937926
 20
3.7956355652
 10
20.3614313664
 20
3.756578239
 10
20.3147140081
 20
3.7165252532
 10
20.2664463554
 20
3.6754794431
 10
20.2166237705
 20
3.6334379733
 10
20.1651079777
 20
3.590313212
 10
20.1119030574
 20
3.546107448
 10
20.0570049291
 20
3.5008183924
 10
20.0002630754
 20
3.4543515466
 10
19.9416820914
 20
3.4067095796
 10
19.8812573821
 20
3.3578898223
 10
19.8188246442
 20
3.3077897692
 10
19.754389276
 20
3.2564126658
 10
19.6879458792
 20
3.2037552665
 10
19.6193139562
 20
3.1497053296
 10
19.5485018083
 20
3.0942682339
 10
19.4755011341
 20
3.0374386005
 10
19.4001065317
 20
2.9790880515
 10
19.3222495336
 20
2.9191737943
 10
19.2419986073
 20
2.8577386215
 10
19.1593537527
 20
2.794782533
  0
LWPOLYLINE
  5
419
100
AcDbEntity
  8
RACCORDO
100
AcDbPolyline
 62
250
  6
CONTINUOUS
 90
30
 70
0
 10
12.2117118886
 20
-6.5366485031
 10
12.2303730287
 20
-6.5267191593
 10
12.248486125
 20
-6.5165392605
 10
12.2660377268
 20
-6.5061163663
 10
12.2830148001
 20
-6.495458217
 10
12.2994047376
 20
-6.4845727272
 10
12.3151953681
 20
-6.4734679806
 10
12.3303749653
 20
-6.4621522237
 10
12.3449322569
 20
-6.4506338596
 10
12.3588564325
 20
-6.4389214418
 10
12.3721371519
 20
-6.4270236682
 10
12.3847645529
 20
-6.4149493741
 10
12.3967292582
 20
-6.4027075258
 10
12.4080223828
 20
-6.3903072144
 10
12.4186355403
 20
-6.3777576482
 10
12.4285608494
 20
-6.3650681467
 10
12.4377909396
 20
-6.3522481333
 10
12.4463189564
 20
-6.339307128
 10
12.454138567
 20
-6.326254741
 10
12.4612439644
 20
-6.313100665
 10
12.4676298722
 20
-6.2998546684
 10
12.4732915482
 20
-6.2865265876
 10
12.4782247879
 20
-6.2731263202
 10
12.482425928
 20
-6.2596638174
 10
12.4858918486
 20
-6.2461490763
 10
12.488619976
 20
-6.2325921332
 10
12.4906082842
 20
-6.2190030555
 10
12.4918552967
 20
-6.2053919346
 10
12.4923600875
 20
-6.1917688781
 10
12.4923720883
 20
-6.1893193178
  0
LINE
  5
41A
100
AcDbEntity
  8
268140580
100
AcDbLine
 62
7
  6
CONTINUOUS
 10
-1.5320344439
 20
-15.2605018557
 11
-1.7927654595
 21
-15.3979839802
  0
LINE
  5
41B
100
AcDbEntity
  8
268140580
100
AcDbLine
 62
250
  6
CONTINUOUS
 10
-1.3957291593
 20
-15.2679109535
 11
-1.7927654595
 21
-15.477266154
  0
LINE
  5
41C
100
AcDbEntity
  8
268140580
100
AcDbLine
 62
250
  6
CONTINUOUS
 10
-1.7927654595
 20
-15.8378514937
 11
-1.0272582862
 21
-15.4521463901
  0
LINE
  5
41D
100
AcDbEntity
  8
RACCORDO
100
AcDbLine
 62
7
  6
CONTINUOUS
 10
-1.6078433888
 20
-14.2566374504
 11
-1.7927654595
 21
-14.3493972477
  0
LINE
  5
41E
100
AcDbEntity
  8
268140580
100
AcDbLine
 62
7
  6
CONTINUOUS
 10
-15.727267901
 20
21.2792094358
 11
-14.5728843068
 21
20.7020176387
  0
LINE
  5
41F
100
AcDbEntity
  8
268140580
100
AcDbLine
 62
7
  6
CONTINUOUS
 10
-0.0204996544
 20
13.4258253125
 11
-1.1748832486
 21
14.0030171096
  0
LINE
  5
420
100
AcDbEntity
  8
268140580
100
AcDbLine
 62
7
  6
CONTINUOUS
 10
-0.3031270672
 20
14.8846999627
 11
-0.5199732534
 21
14.9931230558
  0
LINE
  5
421
100
AcDbEntity
  8
268140580
100
AcDbLine
 62
7
  6
CONTINUOUS
 10
-1.8634761376
 20
15.6648744979
 11
-13.8842914178
 21
21.675282138
  0
LINE
  5
422
100
AcDbEntity
  8
268140580
100
AcDbLine
 62
7
  6
CONTINUOUS
 10
-15.2277943021
 20
22.3470335801
 11
-15.4446404882
 21
22.4554566732
  0
LINE
  5
423
100
AcDbEntity
  8
268140580
100
AcDbLine
 62
7
  6
CONTINUOUS
 10
-10.4223155528
 20
20.3205408302
 11
-4.6183452214
 21
17.4185556645
  0
LINE
  5
424
100
AcDbEntity
  8
268140580
100
AcDbLine
 62
7
  6
CONTINUOUS
 10
-15.8699277868
 20
23.1771744666
 11
-14.5264249026
 21
22.5054230245
  0
LINE
  5
425
100
AcDbEntity
  8
268140580
100
AcDbLine
 62
7
  6
CONTINUOUS
 10
-2.5056096224
 20
16.4950153844
 11
-1.1621067381
 21
15.8232639423
  0
LWPOLYLINE
  5
426
100
AcDbEntity
  8
268140580
100
AcDbPolyline
 62
250
  6
CONTINUOUS
 90
17
 70
0
 10
-14.526435089
 20
22.5054281185
 10
-14.5282513731
 20
22.5063614005
 10
-14.5359330326
 20
22.5108930449
 10
-14.5432042123
 20
22.5161627951
 10
-14.5500403088
 20
22.5221528199
 10
-14.5564181909
 20
22.528842851
 10
-14.5623162779
 20
22.5362102515
 10
-14.5677146126
 20
22.5442300923
 10
-14.5725949287
 20
22.552875237
 10
-14.5769407126
 20
22.562116433
 10
-14.5807372598
 20
22.571922411
 10
-14.5839717238
 20
22.5822599908
 10
-14.5866331603
 20
22.5930941933
 10
-14.5887125638
 20
22.6043883589
 10
-14.5902028982
 20
22.6161042718
 10
-14.5910991208
 20
22.628202289
 10
-14.591398199
 20
22.6406414746
  0
LWPOLYLINE
  5
427
100
AcDbEntity
  8
268140580
100
AcDbPolyline
 62
250
  6
CONTINUOUS
 90
17
 70
0
 10
-1.1621169246
 20
15.8232690363
 10
-1.1639332087
 20
15.8242023183
 10
-1.1716148682
 20
15.8287339627
 10
-1.1788860479
 20
15.8340037129
 10
-1.1857221444
 20
15.8399937377
 10
-1.1921000265
 20
15.8466837688
 10
-1.1979981135
 20
15.8540511693
 10
-1.2033964482
 20
15.8620710101
 10
-1.2082767642
 20
15.8707161548
 10
-1.2126225482
 20
15.8799573507
 10
-1.2164190954
 20
15.8897633288
 10
-1.2196535594
 20
15.9001009086
 10
-1.2223149959
 20
15.9109351111
 10
-1.2243943993
 20
15.9222292767
 10
-1.2258847338
 20
15.9339451896
 10
-1.2267809564
 20
15.9460432068
 10
-1.2270800346
 20
15.9584823924
  0
LINE
  5
428
100
AcDbEntity
  8
268140580
100
AcDbLine
 62
250
  6
CONTINUOUS
 10
-15.871889295
 20
23.1781925054
 11
-15.8699277868
 21
23.1771744666
  0
LINE
  5
429
100
AcDbEntity
  8
268140580
100
AcDbLine
 62
250
  6
CONTINUOUS
 10
-2.5075711306
 20
16.4960334232
 11
-2.5056096224
 21
16.4950153844
  0
LWPOLYLINE
  5
42A
100
AcDbEntity
  8
268140580
100
AcDbPolyline
 62
250
  6
CONTINUOUS
 90
4
 70
0
 10
-13.9433165588
 20
22.3761140135
 10
-13.9418696859
 20
22.375288821
 10
-13.9362855555
 20
22.3715567543
 10
-13.9309277393
 20
22.3674039192
  0
LWPOLYLINE
  5
42B
100
AcDbEntity
  8
268140580
100
AcDbPolyline
 62
250
  6
CONTINUOUS
 90
4
 70
0
 10
-0.5789983943
 20
15.6939549313
 10
-0.5775515214
 20
15.6931297388
 10
-0.5719673911
 20
15.6893976721
 10
-0.5666095749
 20
15.685244837
  0
LWPOLYLINE
  5
42C
100
AcDbEntity
  8
SMUSSO
100
AcDbPolyline
 62
7
  6
CONTINUOUS
 90
6
 70
0
 10
9.0065063585
 20
21.446057729
 10
9.006429308
 20
21.4464838901
 10
9.0022658497
 20
21.4777555343
 10
8.9995882255
 20
21.5090437263
 10
8.998396887
 20
21.5403364068
 10
8.9983358801
 20
21.5497773164
  0
LWPOLYLINE
  5
42D
100
AcDbEntity
  8
RACCORDO
100
AcDbPolyline
 62
7
  6
CONTINUOUS
 90
10
 70
0
 10
14.0464264391
 20
24.4222780157
 10
14.0463666817
 20
24.4335021321
 10
14.0461876814
 20
24.4446609322
 10
14.0458894382
 20
24.4557544159
 10
14.0454718615
 20
24.4667844334
 10
14.044935042
 20
24.4777491345
 10
14.0442792512
 20
24.4886429689
 10
14.0435045799
 20
24.4994640865
 10
14.0426109374
 20
24.5102143374
 10
14.0415983238
 20
24.5208937216
  0
LINE
  5
42E
100
AcDbEntity
  8
RACCORDO
100
AcDbLine
 62
7
  6
CONTINUOUS
 10
14.0464264391
 20
24.4222780157
 11
14.0464264391
 21
24.1400408307
  0
LINE
  5
42F
100
AcDbEntity
  8
268140580
100
AcDbLine
 62
250
  6
CONTINUOUS
 10
-1.9518644853
 20
-23.7975110881
 11
-2.3683249603
 21
-24.3002233516
  0
LINE
  5
430
100
AcDbEntity
  8
268140580
100
AcDbLine
 62
250
  6
CONTINUOUS
 10
-0.608361601
 20
-24.4692625302
 11
-1.1386916869
 21
-25.1094275732
  0
LINE
  5
431
100
AcDbEntity
  8
268140580
100
AcDbLine
 62
250
  6
CONTINUOUS
 10
-0.3431965581
 20
-24.700956704
 11
-0.873526644
 21
-25.341121747
  0
LINE
  5
432
100
AcDbEntity
  8
268140580
100
AcDbLine
 62
250
  6
CONTINUOUS
 10
-1.7927654595
 20
-16.3105370498
 11
-0.8151585606
 21
-15.8179643041
  0
LINE
  5
433
100
AcDbEntity
  8
268140580
100
AcDbLine
 62
7
  6
CONTINUOUS
 10
-1.1010040918
 20
15.802065851
 11
-0.570674006
 21
15.692230894
  0
LINE
  5
434
100
AcDbEntity
  8
268140580
100
AcDbLine
 62
250
  6
CONTINUOUS
 10
-0.873526644
 20
15.9584823924
 11
-0.3431965581
 21
15.8486474353
  0
LWPOLYLINE
  5
435
100
AcDbEntity
  8
268140580
100
AcDbPolyline
 62
250
  6
CONTINUOUS
 90
25
 70
0
 10
-0.3431965581
 20
15.8486474353
 10
-0.3301700784
 20
15.8454980008
 10
-0.3175032034
 20
15.8414835711
 10
-0.305195933
 20
15.8366041464
 10
-0.2932173365
 20
15.8308513301
 10
-0.2815983445
 20
15.8242335187
 10
-0.2704317495
 20
15.8167759017
 10
-0.2597226726
 20
15.8084698977
 10
-0.2494659926
 20
15.799324088
 10
-0.2397391383
 20
15.7893894068
 10
-0.2305475745
 20
15.7786582576
 10
-0.2218858362
 20
15.7671382369
 10
-0.2138149581
 20
15.754903068
 10
-0.2063407015
 20
15.7419464129
 10
-0.199457305
 20
15.7282746097
 10
-0.1932085191
 20
15.7139803962
 10
-0.1875998271
 20
15.6990537976
 10
-0.1826257458
 20
15.6835047888
 10
-0.1783135763
 20
15.6674560321
 10
-0.1746715096
 20
15.6509068715
 10
-0.1716913547
 20
15.6338579629
 10
-0.1693758398
 20
15.6164339367
 10
-0.1677258742
 20
15.5986763364
 10
-0.1667405485
 20
15.5805436185
 10
-0.1664198628
 20
15.562035783
  0
LINE
  5
436
100
AcDbEntity
  8
268140580
100
AcDbLine
 62
250
  6
CONTINUOUS
 10
-0.5199732534
 20
15.562035783
 11
-0.9286363211
 21
15.7663673168
  0
LINE
  5
437
100
AcDbEntity
  8
268140580
100
AcDbLine
 62
250
  6
CONTINUOUS
 10
-13.8842914178
 20
22.2441948652
 11
-14.2929544855
 21
22.4485263991
  0
LINE
  5
438
100
AcDbEntity
  8
268140580
100
AcDbLine
 62
250
  6
CONTINUOUS
 10
-15.9349010832
 20
23.3123929167
 11
-14.591398199
 21
22.6406414746
  0
LINE
  5
439
100
AcDbEntity
  8
268140580
100
AcDbLine
 62
250
  6
CONTINUOUS
 10
-2.5705829188
 20
16.6302338345
 11
-1.2270800346
 21
15.9584823924
  0
LINE
  5
43A
100
AcDbEntity
  8
268140580
100
AcDbLine
 62
250
  6
CONTINUOUS
 10
-1.2270800346
 20
16.326792921
 11
-2.5705829188
 21
16.9985443631
  0
LINE
  5
43B
100
AcDbEntity
  8
268140580
100
AcDbLine
 62
250
  6
CONTINUOUS
 10
-14.591398199
 20
23.0089520032
 11
-15.9349010832
 21
23.6807034453
  0
LINE
  5
43C
100
AcDbEntity
  8
268140580
100
AcDbLine
 62
250
  6
CONTINUOUS
 10
0.7685158635
 20
15.4736828265
 11
0.7137654403
 21
15.5010580381
  0
LINE
  5
43D
100
AcDbEntity
  8
268140580
100
AcDbLine
 62
250
  6
CONTINUOUS
 10
-2.6287260781
 20
17.1723037973
 11
-3.7056306419
 21
17.7107560792
  0
LINE
  5
43E
100
AcDbEntity
  8
268140580
100
AcDbLine
 62
250
  6
CONTINUOUS
 10
-10.5101835185
 20
21.1130325175
 11
-12.6505527241
 21
22.1832171203
  0
LINE
  5
43F
100
AcDbEntity
  8
268140580
100
AcDbLine
 62
250
  6
CONTINUOUS
 10
0.7759172854
 20
15.477620909
 11
0.7211668622
 21
15.5049961206
  0
LINE
  5
440
100
AcDbEntity
  8
268140580
100
AcDbLine
 62
250
  6
CONTINUOUS
 10
-2.626257933
 20
17.1787085182
 11
-3.6982718496
 21
17.7147154765
  0
LINE
  5
441
100
AcDbEntity
  8
268140580
100
AcDbLine
 62
250
  6
CONTINUOUS
 10
-10.5101835185
 20
21.1206713109
 11
-12.6431513022
 21
22.1871552028
  0
LINE
  5
442
100
AcDbEntity
  8
268140580
100
AcDbLine
 62
250
  6
CONTINUOUS
 10
0.6821082746
 20
15.6622435221
 11
0.6139102231
 21
15.6963425478
  0
LINE
  5
443
100
AcDbEntity
  8
268140580
100
AcDbLine
 62
250
  6
CONTINUOUS
 10
-12.6822098898
 20
22.3444026043
 11
-12.7504079413
 21
22.3785016301
  0
LINE
  5
444
100
AcDbEntity
  8
268140580
100
AcDbLine
 62
250
  6
CONTINUOUS
 10
-1.0487606912
 20
16.6324506997
 11
-2.3922635754
 21
17.3042021419
  0
LINE
  5
445
100
AcDbEntity
  8
268140580
100
AcDbLine
 62
250
  6
CONTINUOUS
 10
-14.4130788556
 20
23.3146097819
 11
-15.7565817398
 21
23.9863612241
  0
LINE
  5
446
100
AcDbEntity
  8
268140580
100
AcDbLine
 62
7
  6
CONTINUOUS
 10
-10.4223155528
 20
21.5859205529
 11
-4.6183452214
 21
18.6839353872
  0
LINE
  5
447
100
AcDbEntity
  8
268140580
100
AcDbLine
 62
7
  6
CONTINUOUS
 10
-12.6847296575
 20
22.9113479131
 11
-11.2326409883
 21
22.1853035785
  0
LINE
  5
448
100
AcDbEntity
  8
268140580
100
AcDbLine
 62
7
  6
CONTINUOUS
 10
0.679588507
 20
16.2291888309
 11
1.4952379881
 21
15.8213640903
  0
LWPOLYLINE
  5
449
100
AcDbEntity
  8
268140580
100
AcDbPolyline
 62
250
  6
CONTINUOUS
 90
15
 70
0
 10
0.7685215463
 20
15.4697444402
 10
0.7695321845
 20
15.4692322359
 10
0.7706260509
 20
15.4688347822
 10
0.7718042379
 20
15.4685534955
 10
0.7731100148
 20
15.4683953562
 10
0.7745010569
 20
15.4683550827
 10
0.775848934
 20
15.4684154765
 10
0.7770970148
 20
15.4685987567
 10
0.7782995007
 20
15.4688830841
 10
0.7794945431
 20
15.4691852645
 10
0.7807661809
 20
15.4694465148
 10
0.7820304142
 20
15.4697255014
 10
0.7830727993
 20
15.4701154382
 10
0.7837464951
 20
15.4706851315
 10
0.7846341877
 20
15.472033885
  0
LWPOLYLINE
  5
44A
100
AcDbEntity
  8
268140580
100
AcDbPolyline
 62
250
  6
CONTINUOUS
 90
31
 70
0
 10
-12.291758512
 20
24.3525968861
 10
-12.2825088488
 20
24.3476732372
 10
-12.2732887665
 20
24.3421675633
 10
-12.2641235368
 20
24.336094955
 10
-12.255038281
 20
24.3294720569
 10
-12.246057901
 20
24.322317022
 10
-12.2372070115
 20
24.3146494617
 10
-12.2285098722
 20
24.3064903922
 10
-12.2199903213
 20
24.2978621771
 10
-12.2116717104
 20
24.2887884655
 10
-12.20357684
 20
24.279294128
 10
-12.1957278978
 20
24.2694051878
 10
-12.1881463971
 20
24.2591487499
 10
-12.1808531184
 20
24.2485529264
 10
-12.1738680519
 20
24.2376467598
 10
-12.1672103432
 20
24.2264601431
 10
-12.1608982407
 20
24.215023738
 10
-12.1549490454
 20
24.2033688909
 10
-12.1493790636
 20
24.191527547
 10
-12.1442035623
 20
24.1795321626
 10
-12.1394367272
 20
24.1674156161
 10
-12.1350916237
 20
24.1552111182
 10
-12.1311801616
 20
24.1429521206
 10
-12.1277130619
 20
24.1306722242
 10
-12.1246998277
 20
24.1184050876
 10
-12.1221487179
 20
24.106184334
 10
-12.1200667252
 20
24.0940434596
 10
-12.118459556
 20
24.0820157418
 10
-12.1173316154
 20
24.0701341477
 10
-12.1166859952
 20
24.058431244
 10
-12.1165244648
 20
24.0469391074
  0
LINE
  5
44B
100
AcDbEntity
  8
RACCORDO
100
AcDbLine
 62
7
  6
CONTINUOUS
 10
8.0961352818
 20
16.9230060283
 11
7.0129400123
 21
18.7912415142
  0
LINE
  5
44C
100
AcDbEntity
  8
268140580
100
AcDbLine
 62
7
  6
CONTINUOUS
 10
6.736873658
 20
19.3742836898
 11
6.711313254
 21
19.4183688654
  0
LWPOLYLINE
  5
44D
100
AcDbEntity
  8
RACCORDO
100
AcDbPolyline
 62
250
  6
CONTINUOUS
 90
29
 70
0
 10
12.2303730271
 20
-13.5170790815
 10
12.2484861221
 20
-13.5068991836
 10
12.2660377226
 20
-13.4964762903
 10
12.2830147947
 20
-13.4858181418
 10
12.2994047313
 20
-13.4749326529
 10
12.3151953609
 20
-13.4638279072
 10
12.3303749575
 20
-13.4525121511
 10
12.3449322486
 20
-13.4409937877
 10
12.3588564238
 20
-13.4292813708
 10
12.3721371429
 20
-13.417383598
 10
12.3847645437
 20
-13.4053093045
 10
12.3967292489
 20
-13.393067457
 10
12.4080223736
 20
-13.3806671462
 10
12.4186355313
 20
-13.3681175807
 10
12.4285608407
 20
-13.3554280798
 10
12.4377909312
 20
-13.3426080668
 10
12.4463189484
 20
-13.3296670621
 10
12.4541385595
 20
-13.3166146755
 10
12.4612439575
 20
-13.3034605999
 10
12.4676298659
 20
-13.2902146037
 10
12.4732915425
 20
-13.2768865232
 10
12.478224783
 20
-13.2634862561
 10
12.4824259238
 20
-13.2500237534
 10
12.4858918452
 20
-13.2365090125
 10
12.4886199734
 20
-13.2229520695
 10
12.4906082824
 20
-13.2093629919
 10
12.4918552957
 20
-13.1957518709
 10
12.4923600873
 20
-13.1821288144
 10
12.4923720882
 20
-13.1796802602
  0
LINE
  5
44E
100
AcDbEntity
  8
RACCORDO
100
AcDbLine
 62
250
  6
CONTINUOUS
 10
1.7781237855
 20
-19.0231881574
 11
12.2303730271
 21
-13.5170790815
  0
LWPOLYLINE
  5
44F
100
AcDbEntity
  8
268140580
100
AcDbPolyline
 62
250
  6
CONTINUOUS
 90
13
 70
0
 10
-0.1606824811
 20
18.3485266127
 10
-0.1661902926
 20
18.3510614587
 10
-0.1745354521
 20
18.3541270197
 10
-0.1832083735
 20
18.3564256071
 10
-0.1921800355
 20
18.3579495295
 10
-0.201420417
 20
18.3586936873
 10
-0.210898598
 20
18.3586555906
 10
-0.2205828623
 20
18.3578353668
 10
-0.2304408047
 20
18.3562357606
 10
-0.2404394384
 20
18.3538621245
 10
-0.2505453059
 20
18.3507224012
 10
-0.2607245911
 20
18.3468270969
 10
-0.2709432318
 20
18.342189246
  0
LWPOLYLINE
  5
450
100
AcDbEntity
  8
268140580
100
AcDbPolyline
 62
250
  6
CONTINUOUS
 90
13
 70
0
 10
-13.5250006455
 20
25.0306856949
 10
-13.5305084571
 20
25.0332205409
 10
-13.5388536166
 20
25.0362861019
 10
-13.547526538
 20
25.0385846894
 10
-13.5564981999
 20
25.0401086117
 10
-13.5657385815
 20
25.0408527696
 10
-13.5752167624
 20
25.0408146729
 10
-13.5849010268
 20
25.0399944491
 10
-13.5947589691
 20
25.0383948428
 10
-13.6047576028
 20
25.0360212067
 10
-13.6148634704
 20
25.0328814834
 10
-13.6250427555
 20
25.0289861791
 10
-13.6352613963
 20
25.0243483282
  0
LWPOLYLINE
  5
451
100
AcDbEntity
  8
RACCORDO
100
AcDbPolyline
 62
7
  6
CONTINUOUS
 90
21
 70
0
 10
-4.6935620351
 20
21.4279434488
 10
-4.7053025352
 20
21.4333745456
 10
-4.7169780236
 20
21.4383571074
 10
-4.7285762558
 20
21.4428855566
 10
-4.7400842049
 20
21.4469549265
 10
-4.7514904769
 20
21.4505606118
 10
-4.7627853095
 20
21.453698225
 10
-4.7739563704
 20
21.456364234
 10
-4.7849918237
 20
21.4585554723
 10
-4.7958827083
 20
21.4602686226
 10
-4.80661691
 20
21.4615016443
 10
-4.8171827995
 20
21.4622528146
 10
-4.8275722291
 20
21.462519832
 10
-4.8377732415
 20
21.4623021819
 10
-4.8477746598
 20
21.4615996402
 10
-4.8575696215
 20
21.4604108824
 10
-4.8671467181
 20
21.4587368856
 10
-4.8764949841
 20
21.4565789132
 10
-4.8856083963
 20
21.4539366997
 10
-4.8944754561
 20
21.4508130285
 10
-4.9030863351
 20
21.4472106288
  0
LWPOLYLINE
  5
452
100
AcDbEntity
  8
RACCORDO
100
AcDbPolyline
 62
7
  6
CONTINUOUS
 90
64
 70
0
 10
-3.6130063395
 20
21.5589334432
 10
-3.6241149671
 20
21.5643462524
 10
-3.6415610119
 20
21.5723025122
 10
-3.6594745802
 20
21.5798312784
 10
-3.6778246128
 20
21.5869264484
 10
-3.696602102
 20
21.5935936022
 10
-3.7158192131
 20
21.5998457492
 10
-3.7354534755
 20
21.6056842263
 10
-3.7554828525
 20
21.6111122203
 10
-3.7759159609
 20
21.6161412901
 10
-3.796701786
 20
21.6207683906
 10
-3.8178513687
 20
21.6250054577
 10
-3.8394646575
 20
21.6288769488
 10
-3.8614943497
 20
21.6323759632
 10
-3.8839582918
 20
21.6355066953
 10
-3.9070549144
 20
21.6382909097
 10
-3.9308555783
 20
21.6407230491
 10
-3.955265632
 20
21.6427793273
 10
-3.9802326146
 20
21.6444443574
 10
-4.0058569947
 20
21.6457116365
 10
-4.0320109615
 20
21.6465612408
 10
-4.0582963738
 20
21.6469785796
 10
-4.0846804376
 20
21.64697043
 10
-4.1111687194
 20
21.6465428486
 10
-4.137421313
 20
21.6457133885
 10
-4.1633528338
 20
21.6445046404
 10
-4.189030076
 20
21.6429318178
 10
-4.2143437032
 20
21.6410191281
 10
-4.2392735385
 20
21.6387868386
 10
-4.2638282289
 20
21.6362517773
 10
-4.2879428275
 20
21.6334381988
 10
-4.3115968251
 20
21.630366694
 10
-4.3348054261
 20
21.6270526466
 10
-4.3575575249
 20
21.6235141134
 10
-4.3798442715
 20
21.6197686337
 10
-4.4016727955
 20
21.6158306143
 10
-4.4230549356
 20
21.6117126761
 10
-4.4439910905
 20
21.6074288629
 10
-4.4644807555
 20
21.6029930579
 10
-4.4845327868
 20
21.5984166905
 10
-4.5041493867
 20
21.5937121794
 10
-4.5233290737
 20
21.588892603
 10
-4.5420735042
 20
21.5839701167
 10
-4.5603936042
 20
21.5789540951
 10
-4.5782793593
 20
21.5738594239
 10
-4.5957001856
 20
21.5687075596
 10
-4.6126438663
 20
21.5635154854
 10
-4.6291255667
 20
21.5582918041
 10
-4.645154595
 20
21.5530463705
 10
-4.6607093443
 20
21.5477991946
 10
-4.6758131932
 20
21.5425552448
 10
-4.6905380885
 20
21.5373009572
 10
-4.7048826715
 20
21.5320472276
 10
-4.7188419178
 20
21.5268064369
 10
-4.7324745846
 20
21.5215663864
 10
-4.7457636677
 20
21.5163430011
 10
-4.7587093542
 20
21.5111459222
 10
-4.7713860139
 20
21.5059542119
 10
-4.7837563365
 20
21.5007918088
 10
-4.7958214079
 20
21.4956675601
 10
-4.8076954337
 20
21.4905412843
 10
-4.8193322391
 20
21.4854409497
 10
-4.8306989591
 20
21.4803902774
 10
-4.8529222625
 20
21.4703418188
  0
LINE
  5
453
100
AcDbEntity
  8
RACCORDO
100
AcDbLine
 62
250
  6
CONTINUOUS
 10
-3.614079565
 20
21.5594563849
 11
-3.6130096948
 21
21.5589351242
  0
LINE
  5
454
100
AcDbEntity
  8
268140580
100
AcDbLine
 62
7
  6
CONTINUOUS
 10
-8.5809905589
 20
22.0643562399
 11
-3.6312430906
 21
19.5894825057
  0
LINE
  5
455
100
AcDbEntity
  8
268140580
100
AcDbLine
 62
250
  6
CONTINUOUS
 10
-13.6352613963
 20
25.0243483282
 11
-12.291758512
 21
24.3525968861
  0
LINE
  5
456
100
AcDbEntity
  8
268140580
100
AcDbLine
 62
250
  6
CONTINUOUS
 10
-0.2709432318
 20
18.342189246
 11
1.0725596524
 21
17.6704378039
  0
LINE
  5
457
100
AcDbEntity
  8
268140580
100
AcDbLine
 62
7
  6
CONTINUOUS
 10
-13.5250006455
 20
25.0306856949
 11
-12.1814977613
 21
24.3589342528
  0
LINE
  5
458
100
AcDbEntity
  8
268140580
100
AcDbLine
 62
7
  6
CONTINUOUS
 10
-0.1606824811
 20
18.3485266127
 11
1.1828204032
 21
17.6767751705
  0
LINE
  5
459
100
AcDbEntity
  8
RACCORDO
100
AcDbLine
 62
7
  6
CONTINUOUS
 10
-4.6919571103
 20
21.4271569231
 11
-2.3098018728
 21
20.2360793044
  0
LINE
  5
45A
100
AcDbEntity
  8
RACCORDO
100
AcDbLine
 62
250
  6
CONTINUOUS
 10
-1.6797760847
 20
20.5443583652
 11
-3.7024747814
 21
21.5556948064
  0
LINE
  5
45B
100
AcDbEntity
  8
RACCORDO
100
AcDbLine
 62
7
  6
CONTINUOUS
 10
-1.6312979878
 20
20.5680792707
 11
-3.6130096948
 21
21.5589351242
  0
LWPOLYLINE
  5
45C
100
AcDbEntity
  8
268140580
100
AcDbPolyline
 62
250
  6
CONTINUOUS
 90
31
 70
0
 10
1.0725596524
 20
17.6704378039
 10
1.0818093156
 20
17.665514155
 10
1.0910293979
 20
17.6600084811
 10
1.1001946276
 20
17.6539358728
 10
1.1092798835
 20
17.6473129747
 10
1.1182602634
 20
17.6401579398
 10
1.1271111529
 20
17.6324903795
 10
1.1358082922
 20
17.62433131
 10
1.1443278431
 20
17.6157030949
 10
1.1526464541
 20
17.6066293833
 10
1.1607413244
 20
17.5971350458
 10
1.1685902666
 20
17.5872461056
 10
1.1761717673
 20
17.5769896677
 10
1.1834650461
 20
17.5663938442
 10
1.1904501126
 20
17.5554876776
 10
1.1971078212
 20
17.5443010609
 10
1.2034199237
 20
17.5328646558
 10
1.209369119
 20
17.5212098087
 10
1.2149391008
 20
17.5093684648
 10
1.2201146021
 20
17.4973730804
 10
1.2248814373
 20
17.4852565339
 10
1.2292265407
 20
17.473052036
 10
1.2331380028
 20
17.4607930383
 10
1.2366051025
 20
17.448513142
 10
1.2396183368
 20
17.4362460054
 10
1.2421694465
 20
17.4240252517
 10
1.2442514392
 20
17.4118843774
 10
1.2458586085
 20
17.3998566596
 10
1.246986549
 20
17.3879750655
 10
1.2476321692
 20
17.3762721617
 10
1.2477936996
 20
17.3647800251
  0
LINE
  5
45D
100
AcDbEntity
  8
SMUSSO
100
AcDbLine
 62
250
  6
CONTINUOUS
 10
9.460919734
 20
23.4245895511
 11
9.803785752
 21
22.4925833981
  0
LINE
  5
45E
100
AcDbEntity
  8
0
100
AcDbLine
 62
7
  6
CONTINUOUS
 10
10.7300956353
 20
21.4755632793
 11
10.9315949932
 21
20.8798388535
  0
LWPOLYLINE
  5
45F
100
AcDbEntity
  8
RACCORDO
100
AcDbPolyline
 62
7
  6
CONTINUOUS
 90
31
 70
0
 10
19.4400139445
 20
20.7751693198
 10
19.4397186018
 20
20.8101272394
 10
19.4385741778
 20
20.8525544241
 10
19.4365754425
 20
20.8950448049
 10
19.4337287049
 20
20.9376035837
 10
19.430041424
 20
20.9802103718
 10
19.4255245029
 20
21.0228158804
 10
19.4201858739
 20
21.0654140249
 10
19.4140327582
 20
21.107997086
 10
19.4070796438
 20
21.150511213
 10
19.3993350961
 20
21.1929498556
 10
19.3908066089
 20
21.235306455
 10
19.3815124565
 20
21.2775255687
 10
19.371462121
 20
21.3195984669
 10
19.3606632442
 20
21.3615209019
 10
19.349135938
 20
21.403242777
 10
19.3368921913
 20
21.4447479283
 10
19.3239379754
 20
21.4860398294
 10
19.3102863314
 20
21.5270965622
 10
19.2959463152
 20
21.5679084598
 10
19.2809244413
 20
21.6084719654
 10
19.2652301698
 20
21.648773013
 10
19.2488702584
 20
21.6888045161
 10
19.2318505271
 20
21.728559556
 10
19.2141797274
 20
21.7680234424
 10
19.1958636885
 20
21.8071878572
 10
19.1769067379
 20
21.8460456214
 10
19.1573156346
 20
21.884584105
 10
19.13709472
 20
21.9227942666
 10
19.1162472213
 20
21.9606684149
 10
19.0980465058
 20
21.9925735992
  0
LWPOLYLINE
  5
460
100
AcDbEntity
  8
RACCORDO
100
AcDbPolyline
 62
250
  6
CONTINUOUS
 90
37
 70
0
 10
19.1593537527
 20
20.4278416444
 10
19.1591238237
 20
20.4658439205
 10
19.1582153402
 20
20.5041614733
 10
19.156628694
 20
20.5427760435
 10
19.1543645688
 20
20.5816691416
 10
19.1514240437
 20
20.6208223277
 10
19.1478085806
 20
20.6602172239
 10
19.1435198537
 20
20.6998351877
 10
19.1385598686
 20
20.7396572356
 10
19.1329310642
 20
20.7796643241
 10
19.1266361134
 20
20.8198373476
 10
19.1196779719
 20
20.8601572335
 10
19.1120599871
 20
20.9006048709
 10
19.1037857735
 20
20.9411610105
 10
19.0948592436
 20
20.9818063426
 10
19.08528466
 20
21.0225215915
 10
19.0750665676
 20
21.0632874136
 10
19.0642098163
 20
21.1040843757
 10
19.0527195898
 20
21.1448930346
 10
19.0406013624
 20
21.1856939775
 10
19.0278608924
 20
21.2264677879
 10
19.0145042451
 20
21.2671950246
 10
19.0005378036
 20
21.3078562898
 10
18.9859682069
 20
21.3484322669
 10
18.970802343
 20
21.3889036861
 10
18.9550474524
 20
21.4292513036
 10
18.9387110408
 20
21.4694559282
 10
18.9218008152
 20
21.5094984587
 10
18.9043248264
 20
21.5493599193
 10
18.8862914303
 20
21.5890212929
 10
18.867709202
 20
21.6284635485
 10
18.8485870827
 20
21.6676678291
 10
18.8289341497
 20
21.706615612
 10
18.808759568
 20
21.7452885388
 10
18.7880728963
 20
21.783668277
 10
18.7668840913
 20
21.8217365345
 10
18.745203277
 20
21.859475219
  0
LINE
  5
461
100
AcDbEntity
  8
DRAFT
100
AcDbLine
 62
250
  6
CONTINUOUS
 10
19.1593537527
 20
-1.5116751356
 11
19.1593537527
 21
2.794782533
  0
LINE
  5
462
100
AcDbEntity
  8
DRAFT
100
AcDbLine
 62
250
  6
CONTINUOUS
 10
19.1593537527
 20
4.8214259098
 11
19.1593537527
 21
14.7459331052
  0
LINE
  5
463
100
AcDbEntity
  8
DRAFT
100
AcDbLine
 62
250
  6
CONTINUOUS
 10
19.1593537527
 20
16.772576482
 11
19.1593537527
 21
20.4278416444
  0
LINE
  5
464
100
AcDbEntity
  8
RACCORDO
100
AcDbLine
 62
7
  6
CONTINUOUS
 10
19.4400139523
 20
-1.1643459504
 11
19.4400139523
 21
2.7489631782
  0
LINE
  5
465
100
AcDbEntity
  8
RACCORDO
100
AcDbLine
 62
7
  6
CONTINUOUS
 10
19.4400139523
 20
5.5619036351
 11
19.4400139523
 21
14.7001137504
  0
LINE
  5
466
100
AcDbEntity
  8
RACCORDO
100
AcDbLine
 62
7
  6
CONTINUOUS
 10
19.4400139523
 20
17.5130542073
 11
19.4400139523
 21
20.7751708296
  0
LWPOLYLINE
  5
467
100
AcDbEntity
  8
DRAFT
100
AcDbPolyline
 62
7
  6
CONTINUOUS
 90
43
 70
0
 10
19.4400139522
 20
17.5130594702
 10
19.4399440285
 20
17.4964996601
 10
19.4391099977
 20
17.4536344654
 10
19.4374046198
 20
17.4124834314
 10
19.4349228558
 20
17.3731870347
 10
19.431746128
 20
17.3356235163
 10
19.4279530189
 20
17.299816431
 10
19.4236329345
 20
17.2658691469
 10
19.4188520818
 20
17.2336845753
 10
19.4136322339
 20
17.2029846137
 10
19.4080187985
 20
17.1737299558
 10
19.4020711544
 20
17.145961476
 10
19.395805699
 20
17.1195223662
 10
19.3892560605
 20
17.0943880308
 10
19.3824694347
 20
17.0705815211
 10
19.3754705327
 20
17.048017894
 10
19.3682932124
 20
17.0266981974
 10
19.3609728963
 20
17.006616963
 10
19.3535309008
 20
16.9876794445
 10
19.3460021148
 20
16.9698970765
 10
19.338411318
 20
16.953251994
 10
19.3307585265
 20
16.9376059903
 10
19.3230707323
 20
16.9229592146
 10
19.3153684401
 20
16.9093048202
 10
19.3076342445
 20
16.8964953876
 10
19.2998914958
 20
16.8845289116
 10
19.2921529568
 20
16.8734014097
 10
19.28437674
 20
16.8629644728
 10
19.2765707589
 20
16.8532019104
 10
19.2687512786
 20
16.8441258916
 10
19.2608811476
 20
16.835632675
 10
19.2529722225
 20
16.8277156484
 10
19.2450294442
 20
16.8203787962
 10
19.2369985841
 20
16.8135363987
 10
19.2288780572
 20
16.8071749379
 10
19.2206783579
 20
16.8013075561
 10
19.2123576269
 20
16.7958905871
 10
19.2039216753
 20
16.790919058
 10
19.1953692236
 20
16.7863990495
 10
19.186642821
 20
16.7823054977
 10
19.1777218677
 20
16.7786317178
 10
19.1686256077
 20
16.775388124
 10
19.1593537527
 20
16.772576482
  0
LWPOLYLINE
  5
468
100
AcDbEntity
  8
DRAFT
100
AcDbPolyline
 62
7
  6
CONTINUOUS
 90
43
 70
0
 10
19.4400139522
 20
5.5619088979
 10
19.4399440285
 20
5.5453490879
 10
19.4391099977
 20
5.5024838932
 10
19.4374046198
 20
5.4613328592
 10
19.4349228558
 20
5.4220364625
 10
19.431746128
 20
5.3844729441
 10
19.4279530189
 20
5.3486658587
 10
19.4236329345
 20
5.3147185747
 10
19.4188520818
 20
5.282534003
 10
19.4136322339
 20
5.2518340414
 10
19.4080187985
 20
5.2225793836
 10
19.4020711544
 20
5.1948109038
 10
19.395805699
 20
5.168371794
 10
19.3892560605
 20
5.1432374585
 10
19.3824694347
 20
5.1194309489
 10
19.3754705327
 20
5.0968673218
 10
19.3682932124
 20
5.0755476251
 10
19.3609728963
 20
5.0554663908
 10
19.3535309008
 20
5.0365288723
 10
19.3460021148
 20
5.0187465043
 10
19.338411318
 20
5.0021014218
 10
19.3307585265
 20
4.9864554181
 10
19.3230707323
 20
4.9718086424
 10
19.3153684401
 20
4.958154248
 10
19.3076342445
 20
4.9453448154
 10
19.2998914958
 20
4.9333783394
 10
19.2921529568
 20
4.9222508375
 10
19.28437674
 20
4.9118139006
 10
19.2765707589
 20
4.9020513382
 10
19.2687512786
 20
4.8929753194
 10
19.2608811476
 20
4.8844821028
 10
19.2529722225
 20
4.8765650762
 10
19.2450294442
 20
4.8692282239
 10
19.2369985841
 20
4.8623858264
 10
19.2288780572
 20
4.8560243657
 10
19.2206783579
 20
4.8501569839
 10
19.2123576269
 20
4.8447400149
 10
19.2039216753
 20
4.8397684857
 10
19.1953692236
 20
4.8352484773
 10
19.186642821
 20
4.8311549255
 10
19.1777218677
 20
4.8274811456
 10
19.1686256077
 20
4.8242375518
 10
19.1593537527
 20
4.8214259098
  0
LWPOLYLINE
  5
469
100
AcDbEntity
  8
RACCORDO
100
AcDbPolyline
 62
7
  6
CONTINUOUS
 90
4
 70
0
 10
21.1101288748
 20
16.439274673
 10
21.1105776108
 20
16.4432965092
 10
21.110882091
 20
16.4483526755
 10
21.110927401
 20
16.4512031216
  0
LWPOLYLINE
  5
46A
100
AcDbEntity
  8
RACCORDO
100
AcDbPolyline
 62
250
  6
CONTINUOUS
 90
33
 70
0
 10
21.040740734
 20
16.3490507624
 10
21.0335996025
 20
16.2990693521
 10
21.0255311321
 20
16.2497495329
 10
21.0165389662
 20
16.2011135678
 10
21.0066271676
 20
16.1531834232
 10
20.9958002098
 20
16.105980722
 10
20.9840629716
 20
16.0595267358
 10
20.971420744
 20
16.0138424129
 10
20.9578792385
 20
15.9689484002
 10
20.9434445776
 20
15.924864996
 10
20.9281232856
 20
15.881612119
 10
20.9119222732
 20
15.839209273
 10
20.8948488433
 20
15.7976755718
 10
20.8769106949
 20
15.757029749
 10
20.8581159316
 20
15.7172901704
 10
20.8384730481
 20
15.6784747977
 10
20.8179909195
 20
15.640601165
 10
20.7966787857
 20
15.6036863546
 10
20.7745462574
 20
15.5677470132
 10
20.7516033185
 20
15.5327993551
 10
20.7278603313
 20
15.4988591672
 10
20.7033280226
 20
15.4659417833
 10
20.6780174725
 20
15.434062069
 10
20.6519401017
 20
15.4032344077
 10
20.6251076753
 20
15.3734727073
 10
20.5975323017
 20
15.3447903992
 10
20.5692264324
 20
15.3172004355
 10
20.5402028492
 20
15.2907152751
 10
20.5104746558
 20
15.2653468752
 10
20.4800552704
 20
15.2411066855
 10
20.4489584237
 20
15.2180056477
 10
20.4171981538
 20
15.1960541901
 10
20.404561118
 20
15.1877591376
  0
LWPOLYLINE
  5
46B
100
AcDbEntity
  8
RACCORDO
100
AcDbPolyline
 62
250
  6
CONTINUOUS
 90
33
 70
0
 10
21.040740734
 20
4.3979001902
 10
21.0335996024
 20
4.3479187794
 10
21.0255311319
 20
4.2985989596
 10
21.0165389658
 20
4.2499629939
 10
21.0066271672
 20
4.2020328488
 10
20.9958002091
 20
4.1548301472
 10
20.9840629708
 20
4.1083761606
 10
20.971420743
 20
4.0626918372
 10
20.9578792373
 20
4.017797824
 10
20.9434445762
 20
3.9737144194
 10
20.9281232839
 20
3.930461542
 10
20.9119222711
 20
3.8880586957
 10
20.8948488409
 20
3.8465249942
 10
20.8769106923
 20
3.805879171
 10
20.8581159286
 20
3.7661395921
 10
20.8384730448
 20
3.7273242191
 10
20.8179909158
 20
3.6894505862
 10
20.7966787817
 20
3.6525357756
 10
20.774546253
 20
3.6165964339
 10
20.7516033136
 20
3.5816487757
 10
20.727860326
 20
3.5477085876
 10
20.7033280168
 20
3.5147912036
 10
20.6780174662
 20
3.4829114892
 10
20.651940095
 20
3.4520838278
 10
20.6251076681
 20
3.4223221273
 10
20.597532294
 20
3.3936398192
 10
20.5692264241
 20
3.3660498555
 10
20.5402028404
 20
3.3395646952
 10
20.5104746465
 20
3.3141962953
 10
20.4800552606
 20
3.2899561057
 10
20.4489584133
 20
3.266855068
 10
20.4171981428
 20
3.2449036105
 10
20.404561118
 20
3.2366085654
  0
LWPOLYLINE
  5
46C
100
AcDbEntity
  8
RACCORDO
100
AcDbPolyline
 62
250
  6
CONTINUOUS
 90
34
 70
0
 10
11.8611177039
 20
-14.4932455493
 10
11.8812922856
 20
-14.4745659168
 10
11.9009452186
 20
-14.4551019901
 10
11.9200673379
 20
-14.4348628859
 10
11.9386495662
 20
-14.4138581836
 10
11.9566829623
 20
-14.3920979525
 10
11.9741589511
 20
-14.3695925825
 10
11.9910691767
 20
-14.3463528303
 10
12.0074055883
 20
-14.3223897415
 10
12.023160479
 20
-14.2977146664
 10
12.0383263428
 20
-14.2723393512
 10
12.0528959395
 20
-14.2462758832
 10
12.066862381
 20
-14.2195366166
 10
12.0802190283
 20
-14.1921342532
 10
12.0929594983
 20
-14.1640818562
 10
12.1050777257
 20
-14.1353927926
 10
12.1165679522
 20
-14.1060807083
 10
12.1274247035
 20
-14.076159554
 10
12.1376427959
 20
-14.0456435983
 10
12.1472173795
 20
-14.0145473759
 10
12.1561439094
 20
-13.9828856613
 10
12.164418123
 20
-13.9506734951
 10
12.1720361078
 20
-13.9179261907
 10
12.1789942493
 20
-13.884659322
 10
12.1852892002
 20
-13.8508886968
 10
12.1909180045
 20
-13.8166303106
 10
12.1958779897
 20
-13.7819005016
 10
12.2001667165
 20
-13.7467159396
 10
12.2037821796
 20
-13.7110934493
 10
12.2067227047
 20
-13.6750498651
 10
12.2089868299
 20
-13.6386021796
 10
12.2105734761
 20
-13.6017676607
 10
12.2114819596
 20
-13.5645638516
 10
12.2117118886
 20
-13.5270084245
  0
LWPOLYLINE
  5
46D
100
AcDbEntity
  8
RACCORDO
100
AcDbPolyline
 62
250
  6
CONTINUOUS
 90
4
 70
0
 10
11.7975614129
 20
-14.5444915235
 10
11.8192422272
 20
-14.5282167334
 10
11.8404310322
 20
-14.5111320209
 10
11.8611177039
 20
-14.4932455493
  0
LWPOLYLINE
  5
46E
100
AcDbEntity
  8
RACCORDO
100
AcDbPolyline
 62
7
  6
CONTINUOUS
 90
40
 70
0
 10
11.8721390792
 20
-14.4981220784
 10
11.8927053513
 20
-14.4829248781
 10
11.9207463908
 20
-14.4612347906
 10
11.9482961972
 20
-14.438777782
 10
11.9753268404
 20
-14.4155713781
 10
12.0018253292
 20
-14.3916216497
 10
12.027792959
 20
-14.3669210403
 10
12.0532098891
 20
-14.3414808516
 10
12.0780568723
 20
-14.3153128089
 10
12.1023346627
 20
-14.2884070357
 10
12.126024113
 20
-14.2607744186
 10
12.1491054854
 20
-14.2324277551
 10
12.1715769762
 20
-14.2033572781
 10
12.1934201061
 20
-14.17357303
 10
12.2146150037
 20
-14.1430886961
 10
12.2351563385
 20
-14.1118969489
 10
12.2550253049
 20
-14.0800092632
 10
12.2742035744
 20
-14.0474378973
 10
12.29268542
 20
-14.0141737337
 10
12.3104513581
 20
-13.9802305012
 10
12.3274847617
 20
-13.9456177519
 10
12.3437824765
 20
-13.9103166018
 10
12.3593282668
 20
-13.8743322567
 10
12.3741013111
 20
-13.8376810085
 10
12.3880902017
 20
-13.8003570753
 10
12.4012826749
 20
-13.762353562
 10
12.4136543514
 20
-13.723697606
 10
12.4251787327
 20
-13.6844325976
 10
12.4358418252
 20
-13.6445682376
 10
12.4456290869
 20
-13.6041159523
 10
12.4545196365
 20
-13.563120791
 10
12.4625028522
 20
-13.5215910579
 10
12.4695670853
 20
-13.479538698
 10
12.4756962421
 20
-13.4370133904
 10
12.4808821894
 20
-13.3940244606
 10
12.485116289
 20
-13.3505818904
 10
12.4883875716
 20
-13.3067349427
 10
12.4906892422
 20
-13.2625051406
 10
12.492015965
 20
-13.2178893161
 10
12.4923720804
 20
-13.1796802602
  0
LINE
  5
46F
100
AcDbEntity
  8
RACCORDO
100
AcDbLine
 62
7
  6
CONTINUOUS
 10
7.0129400123
 20
-17.3220178236
 11
8.0961352818
 21
-16.5369776073
  0
LINE
  5
470
100
AcDbEntity
  8
268140580
100
AcDbLine
 62
7
  6
CONTINUOUS
 10
6.711313254
 20
-17.6475184165
 11
6.736873658
 21
-17.6289936448
  0
LINE
  5
471
100
AcDbEntity
  8
RACCORDO
100
AcDbLine
 62
250
  6
CONTINUOUS
 10
11.618358327
 20
-14.6743680409
 11
11.7975614129
 21
-14.5444915235
  0
LINE
  5
472
100
AcDbEntity
  8
RACCORDO
100
AcDbLine
 62
7
  6
CONTINUOUS
 10
11.6929259211
 20
-14.6280059081
 11
11.872129007
 21
-14.4981293907
  0
LWPOLYLINE
  5
473
100
AcDbEntity
  8
268140580
100
AcDbPolyline
 62
250
  6
CONTINUOUS
 90
4
 70
0
 10
0.9741230426
 20
-23.3216999147
 10
0.9642745183
 20
-23.3287487634
 10
0.954016555
 20
-23.3349947061
 10
0.9433723634
 20
-23.34042361
  0
LWPOLYLINE
  5
474
100
AcDbEntity
  8
RACCORDO
100
AcDbPolyline
 62
250
  6
CONTINUOUS
 90
4
 70
0
 10
11.5735703971
 20
-14.7023027349
 10
11.5887183955
 20
-14.6938314379
 10
11.6037488266
 20
-14.6844660543
 10
11.618358327
 20
-14.6743680409
  0
LWPOLYLINE
  5
475
100
AcDbEntity
  8
RACCORDO
100
AcDbPolyline
 62
250
  6
CONTINUOUS
 90
5
 70
0
 10
11.7975614129
 20
-14.5444915235
 10
11.8163979283
 20
-14.5341313156
 10
11.834840045
 20
-14.5231430785
 10
11.852874068
 20
-14.511534972
 10
11.872129007
 20
-14.4981293907
  0
LWPOLYLINE
  5
476
100
AcDbEntity
  8
RACCORDO
100
AcDbPolyline
 62
250
  6
CONTINUOUS
 90
5
 70
0
 10
11.618358327
 20
-14.6743680409
 10
11.6371948423
 20
-14.6640078331
 10
11.655636959
 20
-14.653019596
 10
11.6736709819
 20
-14.6414114895
 10
11.6929259211
 20
-14.6280059081
  0
LINE
  5
477
100
AcDbEntity
  8
RACCORDO
100
AcDbLine
 62
250
  6
CONTINUOUS
 10
11.618358327
 20
-14.6743680409
 11
8.0961352818
 21
-16.5369776073
  0
LINE
  5
478
100
AcDbEntity
  8
RACCORDO
100
AcDbLine
 62
7
  6
CONTINUOUS
 10
11.5735703971
 20
-14.7023027349
 11
8.0744431796
 21
-16.5526988471
  0
LINE
  5
479
100
AcDbEntity
  8
RACCORDO
100
AcDbLine
 62
250
  6
CONTINUOUS
 10
1.7781237855
 20
-19.8225060932
 11
11.7975614129
 21
-14.5444915235
  0
LINE
  5
47A
100
AcDbEntity
  8
DRAFT
100
AcDbLine
 62
7
  6
CONTINUOUS
 10
1.7781237855
 20
-20.0719189838
 11
7.0129400123
 21
-17.3220178236
  0
LINE
  5
47B
100
AcDbEntity
  8
268140580
100
AcDbLine
 62
7
  6
CONTINUOUS
 10
6.736873658
 20
-17.6289936448
 11
1.7781237855
 21
-20.1741705174
  0
LINE
  5
47C
100
AcDbEntity
  8
268140580
100
AcDbLine
 62
7
  6
CONTINUOUS
 10
5.3058265594
 20
-18.5179072542
 11
1.7781237855
 21
-20.3258403725
  0
LINE
  5
47D
100
AcDbEntity
  8
268140580
100
AcDbLine
 62
7
  6
CONTINUOUS
 10
-0.8151585606
 20
-21.8499486412
 11
-1.1748832486
 21
-22.0236396878
  0
LWPOLYLINE
  5
47E
100
AcDbEntity
  8
RACCORDO
100
AcDbPolyline
 62
250
  6
CONTINUOUS
 90
16
 70
0
 10
-5.0922328338
 20
-24.8534326213
 10
-5.1312419262
 20
-24.8722468089
 10
-5.1735544035
 20
-24.8889325769
 10
-5.2187169164
 20
-24.9033111486
 10
-5.2662455793
 20
-24.9152284674
 10
-5.3156311549
 20
-24.9245568474
 10
-5.3663445105
 20
-24.9311963413
 10
-5.417842287
 20
-24.9350758115
 10
-5.4695727208
 20
-24.936153692
 10
-5.5209815556
 20
-24.9344184341
 10
-5.5715179807
 20
-24.9298886298
 10
-5.6206405328
 20
-24.9226128131
 10
-5.6678228971
 20
-24.9126689393
 10
-5.7125595468
 20
-24.9001635503
 10
-5.7543711592
 20
-24.8852306328
 10
-5.7928097514
 20
-24.8680301829
  0
LWPOLYLINE
  5
47F
100
AcDbEntity
  8
0
100
AcDbPolyline
 62
250
  6
CONTINUOUS
 90
16
 70
0
 10
-5.0922328338
 20
-24.8534326213
 10
-5.1312419262
 20
-24.8722468089
 10
-5.1735544035
 20
-24.8889325769
 10
-5.2187169164
 20
-24.9033111486
 10
-5.2662455793
 20
-24.9152284674
 10
-5.3156311549
 20
-24.9245568474
 10
-5.3663445105
 20
-24.9311963413
 10
-5.417842287
 20
-24.9350758115
 10
-5.4695727208
 20
-24.936153692
 10
-5.5209815556
 20
-24.9344184341
 10
-5.5715179807
 20
-24.9298886298
 10
-5.6206405328
 20
-24.9226128131
 10
-5.6678228971
 20
-24.9126689393
 10
-5.7125595468
 20
-24.9001635503
 10
-5.7543711592
 20
-24.8852306328
 10
-5.7928097514
 20
-24.8680301829
  0
LINE
  5
480
100
AcDbEntity
  8
268140580
100
AcDbLine
 62
250
  6
CONTINUOUS
 10
-1.7927654595
 20
-21.1444349226
 11
-1.1748832486
 21
-20.8504435837
  0
LINE
  5
481
100
AcDbEntity
  8
268140580
100
AcDbLine
 62
7
  6
CONTINUOUS
 10
-1.7927654595
 20
-21.3727310455
 11
-1.3237360849
 21
-21.1527359395
  0
LINE
  5
482
100
AcDbEntity
  8
268140580
100
AcDbLine
 62
7
  6
CONTINUOUS
 10
-14.4653222563
 20
22.4842249332
 11
-13.9349921704
 21
22.3743899762
  0
LINE
  5
483
100
AcDbEntity
  8
268140580
100
AcDbLine
 62
250
  6
CONTINUOUS
 10
-14.2378448084
 20
22.6406414746
 11
-13.7075147225
 21
22.5308065176
  0
LWPOLYLINE
  5
484
100
AcDbEntity
  8
268140580
100
AcDbPolyline
 62
250
  6
CONTINUOUS
 90
25
 70
0
 10
-13.7075147225
 20
22.5308065176
 10
-13.6944882429
 20
22.527657083
 10
-13.6818213679
 20
22.5236426533
 10
-13.6695140974
 20
22.5187632286
 10
-13.6575355009
 20
22.5130104123
 10
-13.6459165089
 20
22.5063926009
 10
-13.6347499139
 20
22.4989349839
 10
-13.624040837
 20
22.4906289799
 10
-13.6137841571
 20
22.4814831702
 10
-13.6040573028
 20
22.471548489
 10
-13.5948657389
 20
22.4608173398
 10
-13.5862040007
 20
22.4492973191
 10
-13.5781331226
 20
22.4370621502
 10
-13.5706588659
 20
22.4241054951
 10
-13.5637754694
 20
22.4104336919
 10
-13.5575266836
 20
22.3961394784
 10
-13.5519179915
 20
22.3812128799
 10
-13.5469439102
 20
22.3656638711
 10
-13.5426317407
 20
22.3496151143
 10
-13.538989674
 20
22.3330659537
 10
-13.5360095191
 20
22.3160170451
 10
-13.5336940042
 20
22.2985930189
 10
-13.5320440386
 20
22.2808354186
 10
-13.5310587129
 20
22.2627027007
 10
-13.5307380272
 20
22.2441948652
  0
LINE
  5
485
100
AcDbEntity
  8
268140580
100
AcDbLine
 62
7
  6
CONTINUOUS
 10
-1.101953869
 20
20.8270936014
 11
-3.5605324125
 21
22.0563828732
  0
LINE
  5
486
100
AcDbEntity
  8
268140580
100
AcDbLine
 62
7
  6
CONTINUOUS
 10
0.3109318234
 20
21.5184352618
 11
-2.5163012966
 21
22.9320518217
  0
LINE
  5
487
100
AcDbEntity
  8
DRAFT
100
AcDbLine
 62
7
  6
CONTINUOUS
 10
6.6939502722
 20
18.9507363842
 11
7.0129400123
 21
18.7912415142
  0
LINE
  5
488
100
AcDbEntity
  8
268140580
100
AcDbLine
 62
250
  6
CONTINUOUS
 10
-4.5875443599
 20
24.6177545583
 11
-3.981711185
 21
24.3148379708
  0
LINE
  5
489
100
AcDbEntity
  8
268140580
100
AcDbLine
 62
250
  6
CONTINUOUS
 10
0.9680362833
 20
21.8399642367
 11
1.5738694582
 21
21.5370476492
  0
LINE
  5
48A
100
AcDbEntity
  8
268140580
100
AcDbLine
 62
7
  6
CONTINUOUS
 10
-1.1563693564
 20
23.0058000091
 11
1.109733262
 21
21.8727486999
  0
LINE
  5
48B
100
AcDbEntity
  8
268140580
100
AcDbLine
 62
7
  6
CONTINUOUS
 10
1.8561512731
 20
21.4995396944
 11
1.8738357654
 21
21.4906974482
  0
LINE
  5
48C
100
AcDbEntity
  8
268140580
100
AcDbLine
 62
7
  6
CONTINUOUS
 10
-4.3657527316
 20
24.6297942282
 11
-3.7611896834
 21
24.3275127041
  0
LINE
  5
48D
100
AcDbEntity
  8
268140580
100
AcDbLine
 62
7
  6
CONTINUOUS
 10
1.1885577849
 20
21.85263897
 11
1.793120833
 21
21.5503574459
  0
LWPOLYLINE
  5
48E
100
AcDbEntity
  8
RACCORDO
100
AcDbPolyline
 62
250
  6
CONTINUOUS
 90
58
 70
0
 10
19.4400139523
 20
8.0737622336
 10
19.4540881827
 20
8.0628872139
 10
19.4971191471
 20
8.0284565802
 10
19.5399163794
 20
7.9930260514
 10
19.5824605817
 20
7.9566116015
 10
19.6247325267
 20
7.9192296851
 10
19.6667131013
 20
7.8808972042
 10
19.7083833359
 20
7.8416314822
 10
19.7497244398
 20
7.8014502277
 10
19.7907177782
 20
7.7603715525
 10
19.8313448625
 20
7.718413982
 10
19.8715873356
 20
7.6755964724
 10
19.9114270078
 20
7.6319383771
 10
19.9508458812
 20
7.5874594211
 10
19.9898261762
 20
7.5421796678
 10
20.0283503159
 20
7.4961195349
 10
20.0664009208
 20
7.4492997998
 10
20.1039608025
 20
7.4017416111
 10
20.1410129905
 20
7.3534664562
 10
20.1775407509
 20
7.3044961393
 10
20.2135276033
 20
7.2548527554
 10
20.2489573135
 20
7.2045586997
 10
20.2838138935
 20
7.153636667
 10
20.3180816024
 20
7.1021096522
 10
20.3517449645
 20
7.0500009254
 10
20.3847887808
 20
6.9973340142
 10
20.417198138
 20
6.9441326887
 10
20.4489584088
 20
6.8904209605
 10
20.4800552564
 20
6.8362230751
 10
20.5104746428
 20
6.7815634991
 10
20.540202837
 20
6.726466905
 10
20.5692264208
 20
6.6709581609
 10
20.5975322906
 20
6.6150623276
 10
20.6251076649
 20
6.5588046453
 10
20.6519400922
 20
6.5022105173
 10
20.6780174639
 20
6.4453054837
 10
20.7033280149
 20
6.388115218
 10
20.7278603241
 20
6.3306655251
 10
20.7516033115
 20
6.27298235
 10
20.7745462509
 20
6.2150917525
 10
20.79667878
 20
6.1570198812
 10
20.8179909147
 20
6.0987929352
 10
20.838473044
 20
6.0404371724
 10
20.8581159278
 20
5.9819789159
 10
20.8769106912
 20
5.9234445742
 10
20.8948488398
 20
5.8648606026
 10
20.9119222704
 20
5.8062534699
 10
20.9281232836
 20
5.7476496093
 10
20.9434445761
 20
5.6890754386
 10
20.9578792371
 20
5.6305573733
 10
20.9714207427
 20
5.5721218554
 10
20.9840629704
 20
5.5137953047
 10
20.995800209
 20
5.4556040786
 10
21.0066271673
 20
5.3975744171
 10
21.0165389662
 20
5.3397324723
 10
21.0255311322
 20
5.2821043405
 10
21.0335996026
 20
5.224716051
 10
21.040740734
 20
5.1675935099
  0
LWPOLYLINE
  5
48F
100
AcDbEntity
  8
SMUSSO
100
AcDbPolyline
 62
7
  6
CONTINUOUS
 90
49
 70
0
 10
8.6760463893
 20
21.7847033052
 10
8.6504185242
 20
21.8228428561
 10
8.6283328923
 20
21.858586466
 10
8.6079549272
 20
21.8945377764
 10
8.589285679
 20
21.9307007623
 10
8.5723240975
 20
21.9670714486
 10
8.5571008665
 20
22.0035838675
 10
8.5436206169
 20
22.0402332945
 10
8.5318787176
 20
22.0770244541
 10
8.5218919588
 20
22.1139055507
 10
8.5136618545
 20
22.150882459
 10
8.5071868906
 20
22.1879493043
 10
8.5024793152
 20
22.2250366676
 10
8.4995425932
 20
22.2621384377
 10
8.4983732597
 20
22.2992607257
 10
8.4989731674
 20
22.3363524454
 10
8.5013453011
 20
22.3734194044
 10
8.5054866762
 20
22.4104557952
 10
8.5113901914
 20
22.4473931094
 10
8.5190579949
 20
22.4842263816
 10
8.5284879386
 20
22.5209605772
 10
8.5396664775
 20
22.5575420841
 10
8.5525975116
 20
22.5939743289
 10
8.5672771408
 20
22.6302538849
 10
8.5836801202
 20
22.6663168605
 10
8.6018083163
 20
22.7021605087
 10
8.6216598625
 20
22.7377875764
 10
8.6432039145
 20
22.7731424121
 10
8.6664438382
 20
22.8082257726
 10
8.6913762676
 20
22.8430369011
 10
8.7179602601
 20
22.8775178752
 10
8.7461985269
 20
22.9116679704
 10
8.7760883569
 20
22.9454879112
 10
8.8075806739
 20
22.9789219492
 10
8.8406775024
 20
23.0119689302
 10
8.875376818
 20
23.0446300085
 10
8.9116234717
 20
23.0768528984
 10
8.9494211194
 20
23.1086378009
 10
8.9887661051
 20
23.1399845151
 10
9.0295923118
 20
23.170840152
 10
9.071900849
 20
23.2012029224
 10
9.1156906072
 20
23.2310746154
 10
9.1608921412
 20
23.26040771
 10
9.2075078585
 20
23.2892015923
 10
9.2555353515
 20
23.3174568761
 10
9.3048979524
 20
23.3451278818
 10
9.3555701052
 20
23.372199383
 10
9.4075773657
 20
23.3986866061
 10
9.460919734
 20
23.4245895511
  0
LWPOLYLINE
  5
490
100
AcDbEntity
  8
RACCORDO
100
AcDbPolyline
 62
7
  6
CONTINUOUS
 90
4
 70
0
 10
21.110927401
 20
5.258277431
 10
21.1108999368
 20
5.2601144095
 10
21.1106312117
 20
5.2642989821
 10
21.1104970913
 20
5.2655310924
  0
LWPOLYLINE
  5
491
100
AcDbEntity
  8
RACCORDO
100
AcDbPolyline
 62
7
  6
CONTINUOUS
 90
4
 70
0
 10
21.110927401
 20
17.2094280033
 10
21.1108999368
 20
17.2112649817
 10
21.1106312117
 20
17.2154495543
 10
21.1104970913
 20
17.2166816646
  0
LINE
  5
492
100
AcDbEntity
  8
RACCORDO
100
AcDbLine
 62
250
  6
CONTINUOUS
 10
21.0267293411
 20
17.1152297374
 11
21.0267293411
 21
16.3370038789
  0
LINE
  5
493
100
AcDbEntity
  8
RACCORDO
100
AcDbLine
 62
250
  6
CONTINUOUS
 10
21.0267293411
 20
5.1640791652
 11
21.0267293411
 21
4.3858533067
  0
LINE
  5
494
100
AcDbEntity
  8
RACCORDO
100
AcDbLine
 62
7
  6
CONTINUOUS
 10
21.110927401
 20
17.2094280462
 11
21.110927401
 21
16.4512030813
  0
LINE
  5
495
100
AcDbEntity
  8
RACCORDO
100
AcDbLine
 62
7
  6
CONTINUOUS
 10
21.110927401
 20
5.258277474
 11
21.110927401
 21
4.500052509
  0
LWPOLYLINE
  5
496
100
AcDbEntity
  8
RACCORDO
100
AcDbPolyline
 62
7
  6
CONTINUOUS
 90
4
 70
0
 10
21.1101288748
 20
4.4881241008
 10
21.1105776108
 20
4.492145937
 10
21.110882091
 20
4.4972021032
 10
21.110927401
 20
4.5000525493
  0
LWPOLYLINE
  5
497
100
AcDbEntity
  8
268140580
100
AcDbPolyline
 62
250
  6
CONTINUOUS
 90
13
 70
0
 10
0.5406869184
 20
-23.5563870216
 10
0.5506665116
 20
-23.5510981456
 10
0.5600141763
 20
-23.545528087
 10
0.5686982831
 20
-23.5396956936
 10
0.576689448
 20
-23.5336207005
 10
0.5839606318
 20
-23.5273236637
 10
0.5904872315
 20
-23.5208258906
 10
0.5962471635
 20
-23.5141493677
 10
0.6012209384
 20
-23.5073166865
 10
0.6053917269
 20
-23.5003509665
 10
0.6087454168
 20
-23.4932757778
 10
0.6112706608
 20
-23.4861150605
 10
0.6128714549
 20
-23.4792671801
  0
LWPOLYLINE
  5
498
100
AcDbEntity
  8
268140580
100
AcDbPolyline
 62
250
  6
CONTINUOUS
 90
15
 70
0
 10
0.5406869184
 20
-23.8840149658
 10
0.5506664909
 20
-23.8787261013
 10
0.5600141393
 20
-23.8731560546
 10
0.5686982342
 20
-23.8673236727
 10
0.5766893912
 20
-23.8612486907
 10
0.5839605709
 20
-23.8549516644
 10
0.5904871699
 20
-23.8484539009
 10
0.5962471042
 20
-23.8417773866
 10
0.601220884
 20
-23.8349447127
 10
0.6053916797
 20
-23.8279789988
 10
0.6087453786
 20
-23.8209038147
 10
0.6112706328
 20
-23.8137431006
 10
0.6129588976
 20
-23.806521086
 10
0.6138044606
 20
-23.799262208
 10
0.6139102231
 20
-23.7956266181
  0
LWPOLYLINE
  5
499
100
AcDbEntity
  8
268140580
100
AcDbPolyline
 62
250
  6
CONTINUOUS
 90
16
 70
0
 10
1.2477936996
 20
-24.2804615752
 10
1.2567936092
 20
-24.2757198848
 10
1.2652877551
 20
-24.2707479938
 10
1.2732524536
 20
-24.2655593198
 10
1.2806661084
 20
-24.2601673777
 10
1.2875071545
 20
-24.2545872557
 10
1.2937546672
 20
-24.248835745
 10
1.299390973
 20
-24.2429292263
 10
1.3044012932
 20
-24.2368833093
 10
1.308771997
 20
-24.2307144085
 10
1.3124911117
 20
-24.2244393188
 10
1.315548313
 20
-24.2180753384
 10
1.3179351171
 20
-24.2116400716
 10
1.319644968
 20
-24.2051512211
 10
1.3206732031
 20
-24.1986265169
 10
1.3210170032
 20
-24.1920851012
  0
LWPOLYLINE
  5
49A
100
AcDbEntity
  8
268140580
100
AcDbPolyline
 62
250
  6
CONTINUOUS
 90
16
 70
0
 10
1.2477936996
 20
-24.6260990362
 10
1.2568032107
 20
-24.6213520143
 10
1.2653034947
 20
-24.6163757374
 10
1.2732712529
 20
-24.6111838451
 10
1.2806846463
 20
-24.6057905679
 10
1.2875233552
 20
-24.6002106885
 10
1.2937686353
 20
-24.594459501
 10
1.2994033687
 20
-24.5885527689
 10
1.3044121109
 20
-24.5825066822
 10
1.3087811334
 20
-24.5763378128
 10
1.3124984609
 20
-24.5700630692
 10
1.3155539045
 20
-24.5636996499
 10
1.3179390894
 20
-24.5572649967
 10
1.3196474781
 20
-24.5507767464
 10
1.320674388
 20
-24.5442526831
 10
1.3210170043
 20
-24.5377106885
  0
LINE
  5
49B
100
AcDbEntity
  8
268140580
100
AcDbLine
 62
250
  6
CONTINUOUS
 10
-0.873526644
 20
-25.7094322756
 11
1.2477936996
 21
-24.6260990362
  0
LINE
  5
49C
100
AcDbEntity
  8
268140580
100
AcDbLine
 62
7
  6
CONTINUOUS
 10
0.5512930095
 20
-22.3247446064
 11
-0.0204996544
 21
-22.6008314849
  0
LINE
  5
49D
100
AcDbEntity
  8
268140580
100
AcDbLine
 62
250
  6
CONTINUOUS
 10
1.0611877383
 20
-23.1177752829
 11
1.7781237855
 21
-22.7716067364
  0
LINE
  5
49E
100
AcDbEntity
  8
268140580
100
AcDbLine
 62
7
  6
CONTINUOUS
 10
0.9572490708
 20
-23.3341158811
 11
1.6723064007
 21
-22.9888544627
  0
LWPOLYLINE
  5
49F
100
AcDbEntity
  8
268140580
100
AcDbPolyline
 62
250
  6
CONTINUOUS
 90
31
 70
0
 10
-0.873526644
 20
-25.341121747
 10
-0.8830206877
 20
-25.3456265025
 10
-0.8929732415
 20
-25.3498766445
 10
-0.9033570262
 20
-25.3538605236
 10
-0.9141435805
 20
-25.3575672203
 10
-0.9253033393
 20
-25.3609865748
 10
-0.9368057143
 20
-25.3641092149
 10
-0.9486191785
 20
-25.3669265815
 10
-0.9607113519
 20
-25.3694309526
 10
-0.9730490907
 20
-25.3716154639
 10
-0.985598578
 20
-25.3734741276
 10
-0.9983254166
 20
-25.3750018494
 10
-1.011194723
 20
-25.3761944419
 10
-1.0241712234
 20
-25.3770486363
 10
-1.0372193502
 20
-25.3775620912
 10
-1.0503033393
 20
-25.3777333993
 10
-1.0633873283
 20
-25.3775620912
 10
-1.0764354551
 20
-25.3770486363
 10
-1.0894119555
 20
-25.3761944419
 10
-1.102281262
 20
-25.3750018494
 10
-1.1150081005
 20
-25.3734741276
 10
-1.1275575879
 20
-25.3716154639
 10
-1.1398953266
 20
-25.3694309526
 10
-1.1519875
 20
-25.3669265815
 10
-1.1638009642
 20
-25.3641092149
 10
-1.1753033393
 20
-25.3609865748
 10
-1.186463098
 20
-25.3575672203
 10
-1.1972496523
 20
-25.3538605236
 10
-1.207633437
 20
-25.3498766445
 10
-1.2175859909
 20
-25.3456265025
 10
-1.2270800346
 20
-25.341121747
  0
LWPOLYLINE
  5
4A0
100
AcDbEntity
  8
268140580
100
AcDbPolyline
 62
250
  6
CONTINUOUS
 90
28
 70
0
 10
-0.1664198628
 20
-24.2375683564
 10
-0.1769976293
 20
-24.2425581594
 10
-0.1881377614
 20
-24.247231997
 10
-0.1998025638
 20
-24.2515740545
 10
-0.211952566
 20
-24.25556964
 10
-0.2245466555
 20
-24.2592052338
 10
-0.2375422169
 20
-24.2624685344
 10
-0.2508952768
 20
-24.2653485
 10
-0.2645606521
 20
-24.2678353861
 10
-0.2784921031
 20
-24.2699207781
 10
-0.2926424894
 20
-24.27159762
 10
-0.3069639307
 20
-24.2728602383
 10
-0.3214079675
 20
-24.2737043611
 10
-0.3359257254
 20
-24.2741271325
 10
-0.3504680812
 20
-24.2741271225
 10
-0.3649858283
 20
-24.2737043314
 10
-0.3794298434
 20
-24.2728601901
 10
-0.3937512527
 20
-24.2715975553
 10
-0.4079015981
 20
-24.2699206997
 10
-0.4218329993
 20
-24.2678352974
 10
-0.4354983174
 20
-24.2653484051
 10
-0.4488513145
 20
-24.2624684376
 10
-0.4618468086
 20
-24.25920514
 10
-0.4744408274
 20
-24.2555695545
 10
-0.4865907582
 20
-24.2515739824
 10
-0.49825549
 20
-24.2472319435
 10
-0.5093955531
 20
-24.2425581299
 10
-0.5199732534
 20
-24.2375683564
  0
LWPOLYLINE
  5
4A1
100
AcDbEntity
  8
268140580
100
AcDbPolyline
 62
7
  6
CONTINUOUS
 90
31
 70
0
 10
0.5512930095
 20
-22.3247446064
 10
0.5399020724
 20
-22.3299728375
 10
0.5280097527
 20
-22.3348876591
 10
0.5156160502
 20
-22.3394890714
 10
0.5026667981
 20
-22.3437945021
 10
0.4892161632
 20
-22.3477865234
 10
0.4754266463
 20
-22.3514128516
 10
0.4613102085
 20
-22.3546625668
 10
0.4468548886
 20
-22.3575465889
 10
0.4321873037
 20
-22.3600453939
 10
0.4173380723
 20
-22.3621551268
 10
0.402276576
 20
-22.3638796426
 10
0.387037577
 20
-22.3652109819
 10
0.3715710066
 20
-22.3661509652
 10
0.3559269336
 20
-22.3666977719
 10
0.3402903263
 20
-22.3668379804
 10
0.3246615313
 20
-22.3665620731
 10
0.309040202
 20
-22.3658795677
 10
0.2936102671
 20
-22.3648055959
 10
0.2784224314
 20
-22.3633426491
 10
0.2634259901
 20
-22.3614882358
 10
0.2486527567
 20
-22.359250014
 10
0.2340704689
 20
-22.3566235846
 10
0.2197113891
 20
-22.3536133467
 10
0.2057041181
 20
-22.3502401554
 10
0.1920375308
 20
-22.346492853
 10
0.1787227522
 20
-22.3423825973
 10
0.1659217586
 20
-22.3379637167
 10
0.1536885421
 20
-22.3332543206
 10
0.1419691106
 20
-22.3282362995
 10
0.130763464
 20
-22.3229096535
  0
LINE
  5
4A2
100
AcDbEntity
  8
268140580
100
AcDbLine
 62
250
  6
CONTINUOUS
 10
0.9433723634
 20
-23.34042361
 11
0.938141942
 21
-23.3427318416
  0
LINE
  5
4A3
100
AcDbEntity
  8
DRAFT
100
AcDbLine
 62
7
  6
CONTINUOUS
 10
-1.7927654595
 20
-23.404203787
 11
-2.3683249603
 21
-23.645800287
  0
LINE
  5
4A4
100
AcDbEntity
  8
0
100
AcDbLine
 62
7
  6
CONTINUOUS
 10
-1.7927654595
 20
-23.404203787
 11
-2.3683249603
 21
-23.645800287
  0
LINE
  5
4A5
100
AcDbEntity
  8
RACCORDO
100
AcDbLine
 62
250
  6
CONTINUOUS
 10
-4.4110452671
 20
-25.3537456237
 11
-2.3683249603
 21
-24.4962946114
  0
LINE
  5
4A6
100
AcDbEntity
  8
0
100
AcDbLine
 62
250
  6
CONTINUOUS
 10
-4.4110452671
 20
-25.3537456237
 11
-2.3683249603
 21
-24.4962946114
  0
LINE
  5
4A7
100
AcDbEntity
  8
268140580
100
AcDbLine
 62
250
  6
CONTINUOUS
 10
-0.0204996544
 20
-23.5718237137
 11
1.0611877383
 21
-23.1177752829
  0
LINE
  5
4A8
100
AcDbEntity
  8
268140580
100
AcDbLine
 62
7
  6
CONTINUOUS
 10
-0.1335122574
 20
-23.7925687454
 11
0.938141942
 21
-23.3427318416
  0
LINE
  5
4A9
100
AcDbEntity
  8
RACCORDO
100
AcDbLine
 62
7
  6
CONTINUOUS
 10
-2.509590714
 20
-24.772225901
 11
-4.5650093852
 21
-25.635007091
  0
LINE
  5
4AA
100
AcDbEntity
  8
0
100
AcDbLine
 62
7
  6
CONTINUOUS
 10
-2.509590714
 20
-24.772225901
 11
-4.5650093852
 21
-25.635007091
  0
LINE
  5
4AB
100
AcDbEntity
  8
RACCORDO
100
AcDbLine
 62
250
  6
CONTINUOUS
 10
-4.3680828921
 20
21.5619189321
 11
-4.358194041
 21
21.5646958219
  0
LINE
  5
4AC
100
AcDbEntity
  8
RACCORDO
100
AcDbLine
 62
250
  6
CONTINUOUS
 10
-4.358194041
 20
21.5646958219
 11
-4.3481259047
 21
21.5674335562
  0
LINE
  5
4AD
100
AcDbEntity
  8
RACCORDO
100
AcDbLine
 62
250
  6
CONTINUOUS
 10
-4.3481259047
 20
21.5674335562
 11
-4.3378779669
 21
21.5701281349
  0
LWPOLYLINE
  5
4AE
100
AcDbEntity
  8
RACCORDO
100
AcDbPolyline
 62
250
  6
CONTINUOUS
 90
3
 70
0
 10
-4.3378779669
 20
21.5701281349
 10
-4.3274501811
 20
21.5727754212
 10
-4.3221688278
 20
21.5740808158
  0
LWPOLYLINE
  5
4AF
100
AcDbEntity
  8
RACCORDO
100
AcDbPolyline
 62
250
  6
CONTINUOUS
 90
3
 70
0
 10
-4.3221688278
 20
21.5740808158
 10
-4.3114716009
 20
21.5766508522
 10
-4.3060557273
 20
21.5779154939
  0
LWPOLYLINE
  5
4B0
100
AcDbEntity
  8
RACCORDO
100
AcDbPolyline
 62
250
  6
CONTINUOUS
 90
4
 70
0
 10
-4.3060557273
 20
21.5779154939
 10
-4.295091104
 20
21.580399489
 10
-4.2895423543
 20
21.5816188424
 10
-4.2839497229
 20
21.5828216248
  0
LWPOLYLINE
  5
4B1
100
AcDbEntity
  8
RACCORDO
100
AcDbPolyline
 62
250
  6
CONTINUOUS
 90
125
 70
0
 10
-4.2839497229
 20
21.5828216248
 10
-4.2726323581
 20
21.5851775654
 10
-4.266908958
 20
21.5863290684
 10
-4.2611419311
 20
21.5874625274
 10
-4.2553321274
 20
21.5885778048
 10
-4.2494832014
 20
21.5896728765
 10
-4.2435941967
 20
21.5907478403
 10
-4.2376660698
 20
21.5918025985
 10
-4.2317053438
 20
21.5928348351
 10
-4.2257102509
 20
21.593844698
 10
-4.2196825591
 20
21.5948320393
 10
-4.2136340954
 20
21.5957940989
 10
-4.2075641228
 20
21.5967307697
 10
-4.2014733784
 20
21.5976421588
 10
-4.1953759004
 20
21.5985258279
 10
-4.1892707068
 20
21.5993816491
 10
-4.1831587797
 20
21.6002097502
 10
-4.1770571025
 20
21.6010080764
 10
-4.1709695784
 20
21.6017759448
 10
-4.1648923042
 20
21.6025140382
 10
-4.1588305548
 20
21.60322235
 10
-4.1527856958
 20
21.6039006921
 10
-4.1467563614
 20
21.6045492527
 10
-4.1407437298
 20
21.6051685896
 10
-4.1347474453
 20
21.6057587352
 10
-4.1287678634
 20
21.6063196571
 10
-4.1228072295
 20
21.6068518172
 10
-4.1168655706
 20
21.6073551998
 10
-4.1109428596
 20
21.6078298205
 10
-4.1050412603
 20
21.6082761872
 10
-4.0991608571
 20
21.6086942832
 10
-4.0933015656
 20
21.6090841252
 10
-4.0874652961
 20
21.609446271
 10
-4.0816520138
 20
21.6097807132
 10
-4.0758617535
 20
21.6100874592
 10
-4.0700965299
 20
21.6103670903
 10
-4.0643561484
 20
21.6106195986
 10
-4.0586408036
 20
21.610844992
 10
-4.0529530934
 20
21.6110438752
 10
-4.0472929745
 20
21.6112162252
 10
-4.0416604903
 20
21.6113620649
 10
-4.0360583688
 20
21.6114820679
 10
-4.0304868371
 20
21.6115762092
 10
-4.0249456681
 20
21.6116445137
 10
-4.0194369086
 20
21.61168773
 10
-4.0139607415
 20
21.611705846
 10
-4.0085169839
 20
21.6116988737
 10
-4.0031071337
 20
21.611667598
 10
-3.9977312404
 20
21.6116120128
 10
-3.9923892544
 20
21.6115321241
 10
-3.9870825257
 20
21.6114287342
 10
-3.9818110595
 20
21.6113018369
 10
-3.9765748506
 20
21.6111514385
 10
-3.9713752322
 20
21.6109783606
 10
-3.9662122444
 20
21.6107825976
 10
-3.9610858471
 20
21.6105641551
 10
-3.9559972541
 20
21.610323872
 10
-3.9509465184
 20
21.6100617442
 10
-3.9459335871
 20
21.6097777758
 10
-3.940959515
 20
21.6094728168
 10
-3.9360243334
 20
21.6091468632
 10
-3.9311280111
 20
21.6087999191
 10
-3.9262715087
 20
21.6084328471
 10
-3.9214547553
 20
21.6080456321
 10
-3.9166778217
 20
21.6076382892
 10
-3.9119418806
 20
21.6072117257
 10
-3.9072471422
 20
21.6067659534
 10
-3.9025933964
 20
21.6063009605
 10
-3.897981186
 20
21.605817619
 10
-3.8934106862
 20
21.6053159494
 10
-3.8888817218
 20
21.6047959311
 10
-3.8843943102
 20
21.6042583749
 10
-3.8799484971
 20
21.603703293
 10
-3.8755442367
 20
21.6031306731
 10
-3.8711814084
 20
21.6025412897
 10
-3.8668600219
 20
21.6019351507
 10
-3.8625800674
 20
21.6013122482
 10
-3.8583413955
 20
21.6006733326
 10
-3.8541440237
 20
21.6000184126
 10
-3.8499879345
 20
21.5993474797
 10
-3.8458729258
 20
21.5986612583
 10
-3.841799037
 20
21.5979597616
 10
-3.8377662286
 20
21.5972429765
 10
-3.8337741805
 20
21.5965115886
 10
-3.8298229648
 20
21.59576562
 10
-3.8259125092
 20
21.5950050485
 10
-3.822042277
 20
21.5942304928
 10
-3.8182123077
 20
21.5934419728
 10
-3.8144225617
 20
21.5926394687
 10
-3.8106723833
 20
21.5918235399
 10
-3.806961784
 20
21.5909942019
 10
-3.8032907522
 20
21.5901514393
 10
-3.7996585974
 20
21.5892957651
 10
-3.7960653471
 20
21.5884272
 10
-3.7925109739
 20
21.5875457234
 10
-3.7889947042
 20
21.5866517867
 10
-3.7855165566
 20
21.5857454103
 10
-3.7820765125
 20
21.5848265738
 10
-3.7786737439
 20
21.5838956675
 10
-3.7753082519
 20
21.5829527086
 10
-3.7719800354
 20
21.5819976798
 10
-3.7686882625
 20
21.5810309205
 10
-3.7654329427
 20
21.5800524512
 10
-3.7622140664
 20
21.5790622513
 10
-3.7590307734
 20
21.5780605981
 10
-3.7558830692
 20
21.577047513
 10
-3.7527709484
 20
21.5760229746
 10
-3.7496935337
 20
21.574987197
 10
-3.7466508172
 20
21.5739401981
 10
-3.7436428069
 20
21.5728819601
 10
-3.7406686501
 20
21.5718126431
 10
-3.7377283243
 20
21.5707322598
 10
-3.734821852
 20
21.5696407975
 10
-3.7319484483
 20
21.5685383788
 10
-3.7291080817
 20
21.567425012
 10
-3.7263007838
 20
21.5663006888
 10
-3.7235258642
 20
21.5651655066
 10
-3.7207833019
 20
21.5640194758
 10
-3.718073118
 20
21.5628625861
 10
-3.7153946858
 20
21.5616949044
 10
-3.7127479946
 20
21.5605164476
 10
-3.7101330551
 20
21.5593271989
 10
-3.7075492726
 20
21.558127174
 10
-3.7049964486
 20
21.5569163783
 10
-3.7024747814
 20
21.5556948064
  0
LWPOLYLINE
  5
4B2
100
AcDbEntity
  8
268140580
100
AcDbPolyline
 62
7
  6
CONTINUOUS
 90
16
 70
0
 10
-4.0088201486
 20
22.1857923957
 10
-3.9753505239
 20
22.1809942996
 10
-3.9422969344
 20
22.1756282161
 10
-3.9096593799
 20
22.1696941452
 10
-3.8774119733
 20
22.163188743
 10
-3.8455806018
 20
22.1561153535
 10
-3.8142429272
 20
22.1484840084
 10
-3.7833703802
 20
22.1402847357
 10
-3.7529915302
 20
22.1315275074
 10
-3.7232697473
 20
22.1222522722
 10
-3.69420511
 20
22.112450855
 10
-3.6657975397
 20
22.1021314308
 10
-3.6382101714
 20
22.0913584731
 10
-3.6114973832
 20
22.0801534732
 10
-3.5856047969
 20
22.0684949399
 10
-3.5605324125
 20
22.0563828732
  0
LWPOLYLINE
  5
4B3
100
AcDbEntity
  8
268140580
100
AcDbPolyline
 62
7
  6
CONTINUOUS
 90
17
 70
0
 10
-3.7611801042
 20
24.3275079142
 10
-3.7683523164
 20
24.3309067709
 10
-3.7806576677
 20
24.335914144
 10
-3.7933335458
 20
24.340055269
 10
-3.8063380491
 20
24.3433315911
 10
-3.8196680545
 20
24.3457480269
 10
-3.833326685
 20
24.3472996599
 10
-3.8472814075
 20
24.3479731866
 10
-3.8615603168
 20
24.3477648439
 10
-3.8761353181
 20
24.3466783949
 10
-3.8908895945
 20
24.3447118254
 10
-3.9058299555
 20
24.3418492
 10
-3.9209495917
 20
24.338106454
 10
-3.9361112572
 20
24.3335293789
 10
-3.9512692037
 20
24.3281332386
 10
-3.9664691796
 20
24.3219027693
 10
-3.981711185
 20
24.3148379708
  0
LWPOLYLINE
  5
4B4
100
AcDbEntity
  8
268140580
100
AcDbPolyline
 62
7
  6
CONTINUOUS
 90
20
 70
0
 10
-1.4162531536
 20
23.8930792766
 10
-1.4224884447
 20
23.8961253543
 10
-1.4435087412
 20
23.905365377
 10
-1.4651803588
 20
23.913365741
 10
-1.4873689516
 20
23.9200691372
 10
-1.5100741614
 20
23.9254594394
 10
-1.5332963464
 20
23.9295527737
 10
-1.5569022355
 20
23.9323402097
 10
-1.5808539224
 20
23.9338182509
 10
-1.6051893133
 20
23.9339903937
 10
-1.6298888553
 20
23.9328581972
 10
-1.6549890755
 20
23.9304198441
 10
-1.6804534468
 20
23.9266771518
 10
-1.7061528354
 20
23.9216371316
 10
-1.7321016088
 20
23.9152830454
 10
-1.7582853996
 20
23.9076316314
 10
-1.7845319715
 20
23.8987401156
 10
-1.8107839124
 20
23.8886275735
 10
-1.8370986345
 20
23.8772749295
 10
-1.8634761376
 20
23.8646821838
  0
LWPOLYLINE
  5
4B5
100
AcDbEntity
  8
RACCORDO
100
AcDbPolyline
 62
250
  6
CONTINUOUS
 90
24
 70
0
 10
-2.0927832635
 20
25.7431077893
 10
-2.1132020225
 20
25.7530911957
 10
-2.1336139488
 20
25.7623285418
 10
-2.1540017776
 20
25.7708120144
 10
-2.1743482641
 20
25.778534438
 10
-2.1946361988
 20
25.7854892806
 10
-2.2148484216
 20
25.7916706597
 10
-2.2349678363
 20
25.7970733469
 10
-2.2549774255
 20
25.8016927725
 10
-2.2748602644
 20
25.8055250292
 10
-2.2945995356
 20
25.8085668756
 10
-2.3141785431
 20
25.8108157388
 10
-2.3335807263
 20
25.8122697167
 10
-2.3527896745
 20
25.8129275794
 10
-2.37178914
 20
25.8127887705
 10
-2.3905630527
 20
25.8118534074
 10
-2.409095533
 20
25.8101222813
 10
-2.4273709057
 20
25.8075968564
 10
-2.4453737129
 20
25.8042792688
 10
-2.4630887273
 20
25.8001723246
 10
-2.4805009651
 20
25.7952794976
 10
-2.4975956985
 20
25.7896049261
 10
-2.5143584683
 20
25.7831534101
 10
-2.5316680139
 20
25.7755107243
  0
LINE
  5
4B6
100
AcDbEntity
  8
268140580
100
AcDbLine
 62
250
  6
CONTINUOUS
 10
-4.7901381476
 20
25.3280131888
 11
-1.8634761376
 21
23.8646821838
  0
LINE
  5
4B7
100
AcDbEntity
  8
268140580
100
AcDbLine
 62
250
  6
CONTINUOUS
 10
2.3791645495
 20
21.7433618403
 11
5.3058265594
 21
20.2800308353
  0
LINE
  5
4B8
100
AcDbEntity
  8
268140580
100
AcDbLine
 62
7
  6
CONTINUOUS
 10
-4.4967894199
 20
25.43334741
 11
-1.4162625421
 21
23.8930839711
  0
LINE
  5
4B9
100
AcDbEntity
  8
268140580
100
AcDbLine
 62
7
  6
CONTINUOUS
 10
2.826378145
 20
21.7717636275
 11
5.9069050228
 21
20.2315001886
  0
LINE
  5
4BA
100
AcDbEntity
  8
RACCORDO
100
AcDbLine
 62
250
  6
CONTINUOUS
 10
3.8118362681
 20
22.7907980235
 11
-2.0927832635
 21
25.7431077893
  0
LINE
  5
4BB
100
AcDbEntity
  8
RACCORDO
100
AcDbLine
 62
7
  6
CONTINUOUS
 10
4.2496117931
 20
22.8117212115
 11
-1.6579103829
 21
25.7654711189
  0
LWPOLYLINE
  5
4BC
100
AcDbEntity
  8
RACCORDO
100
AcDbPolyline
 62
7
  6
CONTINUOUS
 90
59
 70
0
 10
21.1104970918
 20
5.2655309651
 10
21.1041089147
 20
5.3161584753
 10
21.0959733897
 20
5.3737664285
 10
21.0869026152
 20
5.431515292
 10
21.0769038028
 20
5.4893812252
 10
21.0659842927
 20
5.5473409352
 10
21.0541515871
 20
5.6053713286
 10
21.0414174314
 20
5.6634314745
 10
21.0277864963
 20
5.721514961
 10
21.0132536599
 20
5.7796501881
 10
20.9978161583
 20
5.837846142
 10
20.9814883078
 20
5.8960464696
 10
20.9642907802
 20
5.9541812524
 10
20.9462367211
 20
6.012213808
 10
20.9273316802
 20
6.0701333102
 10
20.9075878088
 20
6.127908504
 10
20.8870181051
 20
6.1855077942
 10
20.8656301908
 20
6.2429157058
 10
20.8434282049
 20
6.3001249682
 10
20.8204191696
 20
6.3571194857
 10
20.796616245
 20
6.4138683262
 10
20.7720327537
 20
6.4703418597
 10
20.7466812053
 20
6.5265136915
 10
20.7205714859
 20
6.5823639537
 10
20.6937134789
 20
6.6378729209
 10
20.6661181235
 20
6.6930189119
 10
20.6377977947
 20
6.7477778887
 10
20.6087647424
 20
6.802126717
 10
20.5790330978
 20
6.8560394713
 10
20.5486134405
 20
6.9094972864
 10
20.5175126096
 20
6.9624876454
 10
20.4857429135
 20
7.0149884445
 10
20.4533170871
 20
7.066977342
 10
20.4202421304
 20
7.1184412598
 10
20.386524632
 20
7.1693671295
 10
20.3521833246
 20
7.2197237099
 10
20.3172439256
 20
7.2694714106
 10
20.2817262479
 20
7.3185811466
 10
20.2456385204
 20
7.3670405013
 10
20.2089895611
 20
7.4148357747
 10
20.1717974754
 20
7.4619412728
 10
20.1340724524
 20
7.508341859
 10
20.0958104589
 20
7.5540389185
 10
20.0570116785
 20
7.5990268563
 10
20.0177031623
 20
7.643268807
 10
19.9779211963
 20
7.6867200957
 10
19.9376848719
 20
7.7293571869
 10
19.8970050393
 20
7.7711657422
 10
19.8559064989
 20
7.8121175279
 10
19.8144196685
 20
7.8521804694
 10
19.7725451854
 20
7.8913520119
 10
19.7302621844
 20
7.9296472666
 10
19.6875625713
 20
7.9670663928
 10
19.6444833514
 20
8.0035696278
 10
19.6010707337
 20
8.0391126413
 10
19.5573345034
 20
8.073683161
 10
19.5132958373
 20
8.10726
 10
19.4690191195
 20
8.1397916951
 10
19.4400139523
 20
8.1603075265
  0
LINE
  5
4BD
100
AcDbEntity
  8
268140580
100
AcDbLine
 62
7
  6
CONTINUOUS
 10
-0.9366002399
 20
-25.8436907451
 11
1.1847201036
 21
-24.7603575057
  0
LWPOLYLINE
  5
4BE
100
AcDbEntity
  8
268140580
100
AcDbPolyline
 62
250
  6
CONTINUOUS
 90
31
 70
0
 10
-0.873526644
 20
-25.7094322756
 10
-0.8829975612
 20
-25.7139266182
 10
-0.892931248
 20
-25.7181701665
 10
-0.9033014068
 20
-25.7221508414
 10
-0.9140827551
 20
-25.7258579924
 10
-0.9252443617
 20
-25.7292800727
 10
-0.9367489717
 20
-25.732405283
 10
-0.948562428
 20
-25.7352244724
 10
-0.960654809
 20
-25.7377306249
 10
-0.9729932802
 20
-25.7399169219
 10
-0.9855442559
 20
-25.7417773751
 10
-0.9982731184
 20
-25.7433068169
 10
-1.0111446144
 20
-25.7445009997
 10
-1.0241232881
 20
-25.7453566434
 10
-1.0371737088
 20
-25.7458714217
 10
-1.0502602088
 20
-25.746043926
 10
-1.0633469602
 20
-25.7458736759
 10
-1.0763980229
 20
-25.7453611305
 10
-1.0893775607
 20
-25.7445076931
 10
-1.1022499679
 20
-25.7433157028
 10
-1.11497996
 20
-25.7417884254
 10
-1.1275326227
 20
-25.7399300476
 10
-1.1398735356
 20
-25.737745663
 10
-1.1519688551
 20
-25.7352412603
 10
-1.1637854015
 20
-25.7324237079
 10
-1.1752907804
 20
-25.7293007286
 10
-1.1864534317
 20
-25.7258808874
 10
-1.1972427083
 20
-25.7221735747
 10
-1.207629016
 20
-25.7181889631
 10
-1.2175838894
 20
-25.7139379772
 10
-1.2270800346
 20
-25.7094322756
  0
LINE
  5
4BF
100
AcDbEntity
  8
268140580
100
AcDbLine
 62
7
  6
CONTINUOUS
 10
-2.5163012966
 20
22.9320518217
 11
-1.1563693564
 21
23.0058000091
  0
LWPOLYLINE
  5
4C0
100
AcDbEntity
  8
RACCORDO
100
AcDbPolyline
 62
7
  6
CONTINUOUS
 90
9
 70
0
 10
13.2798720355
 20
21.6671782058
 10
13.273755295
 20
21.6687777035
 10
13.2639850812
 20
21.6703105174
 10
13.2536588858
 20
21.6707259617
 10
13.2428716886
 20
21.6700241893
 10
13.2319084297
 20
21.6682056579
 10
13.220864089
 20
21.6652705204
 10
13.2096436865
 20
21.661218624
 10
13.1982472222
 20
21.6560499688
  0
LINE
  5
4C1
100
AcDbEntity
  8
0
100
AcDbLine
 62
7
  6
CONTINUOUS
 10
11.8868092368
 20
21.0003309761
 11
11.4370645754
 21
21.1220788092
  0
LWPOLYLINE
  5
4C2
100
AcDbEntity
  8
RACCORDO
100
AcDbPolyline
 62
7
  6
CONTINUOUS
 90
28
 70
0
 10
13.2798618993
 20
21.6671542534
 10
13.1711465527
 20
21.6984400991
 10
13.0562915098
 20
21.7277937762
 10
12.9390300858
 20
21.7541208463
 10
12.819656921
 20
21.7773829381
 10
12.6984365493
 20
21.7975534909
 10
12.5756071799
 20
21.8146127662
 10
12.4514583825
 20
21.8285366077
 10
12.3262749194
 20
21.8393072767
 10
12.2002944019
 20
21.8469146764
 10
12.0738080158
 20
21.8513480551
 10
11.9471052928
 20
21.8526026098
 10
11.8204235474
 20
21.8506778367
 10
11.6940522776
 20
21.8455765017
 10
11.568282687
 20
21.8373072896
 10
11.4433530876
 20
21.8258794141
 10
11.319554213
 20
21.8113095819
 10
11.1971694607
 20
21.7936195603
 10
11.0764210245
 20
21.7728253849
 10
10.9575861034
 20
21.7489537849
 10
10.84095028
 20
21.7220387331
 10
10.7267387069
 20
21.6921039658
 10
10.6152235287
 20
21.6591868619
 10
10.5066773323
 20
21.6233302271
 10
10.4013104407
 20
21.5845586095
 10
10.2993636583
 20
21.5429058012
 10
10.2011175209
 20
21.4984250267
 10
10.1068334597
 20
21.4511676372
  0
LWPOLYLINE
  5
4C3
100
AcDbEntity
  8
RACCORDO
100
AcDbPolyline
 62
250
  6
CONTINUOUS
 90
25
 70
0
 10
5.9144839956
 20
22.7593441944
 10
5.8953420607
 20
22.7689144368
 10
5.8762052888
 20
22.777815438
 10
5.8570882062
 20
22.7860404413
 10
5.8380053247
 20
22.7935832033
 10
5.8189711298
 20
22.8004379983
 10
5.8000000704
 20
22.8065996229
 10
5.7811065471
 20
22.8120633999
 10
5.7623049019
 20
22.8168251817
 10
5.7436094069
 20
22.8208813538
 10
5.7250342538
 20
22.8242288371
 10
5.7065935428
 20
22.8268650907
 10
5.688301272
 20
22.8287881133
 10
5.670171327
 20
22.8299964453
 10
5.65221747
 20
22.8304891694
 10
5.6344533297
 20
22.8302659116
 10
5.6168923907
 20
22.8293268414
 10
5.5995479834
 20
22.8276726716
 10
5.5824332736
 20
22.825304658
 10
5.5655612531
 20
22.822224598
 10
5.5489447293
 20
22.8184348297
 10
5.5325963156
 20
22.81393823
 10
5.516528422
 20
22.8087382121
 10
5.5007532453
 20
22.8028387234
 10
5.4852827606
 20
22.7962442421
  0
LINE
  5
4C4
100
AcDbEntity
  8
0
100
AcDbLine
 62
7
  6
CONTINUOUS
 10
10.2351208885
 20
21.2280759059
 11
10.9420898286
 21
20.8745914358
  0
LINE
  5
4C5
100
AcDbEntity
  8
0
100
AcDbLine
 62
7
  6
CONTINUOUS
 10
10.7300956353
 20
21.4755632793
 11
11.4370645754
 21
21.1220788092
  0
LINE
  5
4C6
100
AcDbEntity
  8
DRAFT
100
AcDbLine
 62
7
  6
CONTINUOUS
 10
10.0438223972
 20
22.1815193885
 11
10.4755371941
 21
21.9656619901
  0
LINE
  5
4C7
100
AcDbEntity
  8
0
100
AcDbLine
 62
7
  6
CONTINUOUS
 10
10.9420898286
 20
20.8745914358
 11
11.1117772164
 21
20.7178822879
  0
LWPOLYLINE
  5
4C8
100
AcDbEntity
  8
RACCORDO
100
AcDbPolyline
 62
7
  6
CONTINUOUS
 90
59
 70
0
 10
21.1104970918
 20
17.2166815373
 10
21.1041089147
 20
17.2673090477
 10
21.0959733896
 20
17.3249170012
 10
21.0869026151
 20
17.382665865
 10
21.0769038026
 20
17.4405317985
 10
21.0659842925
 20
17.4984915087
 10
21.0541515868
 20
17.5565219024
 10
21.0414174309
 20
17.6145820486
 10
21.0277864958
 20
17.6726655353
 10
21.0132536593
 20
17.7308007627
 10
20.9978161576
 20
17.7889967169
 10
20.9814883069
 20
17.8471970447
 10
20.9642907792
 20
17.9053318278
 10
20.94623672
 20
17.9633643836
 10
20.927331679
 20
18.0212838861
 10
20.9075878074
 20
18.0790590802
 10
20.8870181035
 20
18.1366583706
 10
20.8656301891
 20
18.1940662824
 10
20.8434282031
 20
18.2512755451
 10
20.8204191676
 20
18.3082700628
 10
20.7966162428
 20
18.3650189036
 10
20.7720327513
 20
18.4214924373
 10
20.7466812027
 20
18.4776642693
 10
20.7205714832
 20
18.5335145317
 10
20.6937134759
 20
18.5890234991
 10
20.6661181203
 20
18.6441694904
 10
20.6377977913
 20
18.6989284673
 10
20.6087647388
 20
18.7532772958
 10
20.579033094
 20
18.8071900503
 10
20.5486134364
 20
18.8606478656
 10
20.5175126053
 20
18.9136382248
 10
20.4857429089
 20
18.9661390241
 10
20.4533170823
 20
19.0181279218
 10
20.4202421254
 20
19.0695918397
 10
20.3865246268
 20
19.1205177095
 10
20.3521833191
 20
19.17087429
 10
20.3172439199
 20
19.2206219908
 10
20.2817262419
 20
19.269731727
 10
20.2456385141
 20
19.3181910818
 10
20.2089895546
 20
19.3659863553
 10
20.1717974686
 20
19.4130918535
 10
20.1340724454
 20
19.4594924398
 10
20.0958104516
 20
19.5051894994
 10
20.0570116709
 20
19.5501774372
 10
20.0177031544
 20
19.594419388
 10
19.9779211881
 20
19.6378706767
 10
19.9376848635
 20
19.6805077679
 10
19.8970050306
 20
19.7223163232
 10
19.8559064899
 20
19.763268109
 10
19.8144196592
 20
19.8033310505
 10
19.7725451759
 20
19.842502593
 10
19.7302621746
 20
19.8807978475
 10
19.6875625612
 20
19.9182169738
 10
19.6444833411
 20
19.9547202087
 10
19.601070723
 20
19.9902632221
 10
19.5573344924
 20
20.0248337417
 10
19.5132958261
 20
20.0584105806
 10
19.4690191081
 20
20.0909422756
 10
19.4400139523
 20
20.1114580986
  0
LWPOLYLINE
  5
4C9
100
AcDbEntity
  8
RACCORDO
100
AcDbPolyline
 62
7
  6
CONTINUOUS
 90
3
 70
0
 10
13.2919127173
 20
21.6623604252
 10
13.283064507
 20
21.6661276728
 10
13.2798720355
 20
21.6671782058
  0
LINE
  5
4CA
100
AcDbEntity
  8
DRAFT
100
AcDbLine
 62
7
  6
CONTINUOUS
 10
14.101460703
 20
22.060800386
 11
14.5961302122
 21
21.8134656314
  0
LINE
  5
4CB
100
AcDbEntity
  8
RACCORDO
100
AcDbLine
 62
7
  6
CONTINUOUS
 10
14.1404408547
 20
21.2380963565
 11
14.2137007499
 21
21.2014384656
  0
LWPOLYLINE
  5
4CC
100
AcDbEntity
  8
RACCORDO
100
AcDbPolyline
 62
7
  6
CONTINUOUS
 90
6
 70
0
 10
13.7237861007
 20
21.4445098261
 10
13.6337788712
 20
21.4902484579
 10
13.5455922432
 20
21.5349032609
 10
13.4592117998
 20
21.578472811
 10
13.3746519579
 20
21.6209585324
 10
13.2919127173
 20
21.6623604252
  0
LINE
  5
4CD
100
AcDbEntity
  8
RACCORDO
100
AcDbLine
 62
7
  6
CONTINUOUS
 10
13.9094065319
 20
21.3497953187
 11
13.7237861007
 21
21.4445098261
  0
LINE
  5
4CE
100
AcDbEntity
  8
RACCORDO
100
AcDbLine
 62
7
  6
CONTINUOUS
 10
14.1024967874
 20
21.2507640114
 11
13.9094065319
 21
21.3497953187
  0
LINE
  5
4CF
100
AcDbEntity
  8
RACCORDO
100
AcDbLine
 62
7
  6
CONTINUOUS
 10
14.1102552161
 20
21.2461775394
 11
14.1024967874
 21
21.2507640114
  0
LINE
  5
4D0
100
AcDbEntity
  8
RACCORDO
100
AcDbLine
 62
250
  6
CONTINUOUS
 10
14.1404408547
 20
21.2380963565
 11
14.1936830291
 21
21.191857544
  0
LWPOLYLINE
  5
4D1
100
AcDbEntity
  8
RACCORDO
100
AcDbPolyline
 62
250
  6
CONTINUOUS
 90
3
 70
0
 10
14.0467462094
 20
21.2317713249
 10
14.1074330695
 20
21.1774782772
 10
14.1254830731
 20
21.1592155448
  0
LWPOLYLINE
  5
4D2
100
AcDbEntity
  8
RACCORDO
100
AcDbPolyline
 62
250
  6
CONTINUOUS
 90
26
 70
0
 10
12.4835107562
 20
25.6146630647
 10
12.4762272659
 20
25.6182070131
 10
12.4609795643
 20
25.6250128372
 10
12.4454164912
 20
25.6311467689
 10
12.4295496039
 20
25.6366042532
 10
12.4133906851
 20
25.6413812373
 10
12.3969517346
 20
25.6454741738
 10
12.38024496
 20
25.6488800232
 10
12.363282768
 20
25.6515962564
 10
12.3460777546
 20
25.6536208562
 10
12.3286426964
 20
25.6549523192
 10
12.3109905408
 20
25.6555896567
 10
12.2931343964
 20
25.6555323953
 10
12.2750875233
 20
25.6547805775
 10
12.2568633231
 20
25.6533347618
 10
12.2384753293
 20
25.6511960216
 10
12.2199371969
 20
25.6483659453
 10
12.2012626924
 20
25.6448466346
 10
12.1824656835
 20
25.6406407028
 10
12.1635601291
 20
25.6357512733
 10
12.1445600686
 20
25.6301819771
 10
12.1254796114
 20
25.6239369498
 10
12.1063329268
 20
25.6170208292
 10
12.0871342333
 20
25.6094387512
 10
12.0678977878
 20
25.6011963462
 10
12.0486378756
 20
25.5922997351
  0
LINE
  5
4D3
100
AcDbEntity
  8
0
100
AcDbLine
 62
7
  6
CONTINUOUS
 10
14.0464264391
 20
24.1400408307
 11
17.1310326854
 21
22.5977377075
  0
LINE
  5
4D4
100
AcDbEntity
  8
RACCORDO
100
AcDbLine
 62
250
  6
CONTINUOUS
 10
18.1383775898
 20
22.547429878
 11
17.5943010599
 21
22.8194681429
  0
LWPOLYLINE
  5
4D5
100
AcDbEntity
  8
RACCORDO
100
AcDbPolyline
 62
250
  6
CONTINUOUS
 90
26
 70
0
 10
12.9981069822
 20
25.1175651818
 10
12.0294959433
 20
25.6018699762
 10
12.0103591738
 20
25.6107709764
 10
11.9912420936
 20
25.618995979
 10
11.9721592142
 20
25.6265387404
 10
11.9531250215
 20
25.633393535
 10
11.934153964
 20
25.6395551594
 10
11.9152604425
 20
25.6450189364
 10
11.896458799
 20
25.6497807184
 10
11.8777633056
 20
25.6538368908
 10
11.8591881539
 20
25.6571843746
 10
11.8407474442
 20
25.6598206287
 10
11.8224551746
 20
25.6617436521
 10
11.8043252306
 20
25.6629519849
 10
11.7863713745
 20
25.6634447099
 10
11.7686072349
 20
25.6632214531
 10
11.7510462966
 20
25.662282384
 10
11.7337018897
 20
25.6606282154
 10
11.7165871803
 20
25.6582602029
 10
11.69971516
 20
25.6551801442
 10
11.6830986363
 20
25.6513903772
 10
11.6667502226
 20
25.6468937787
 10
11.6506823288
 20
25.6416937621
 10
11.634907152
 20
25.6357942747
 10
11.6194366669
 20
25.6291997946
 10
11.6170184506
 20
25.6280934414
  0
LINE
  5
4D6
100
AcDbEntity
  8
RACCORDO
100
AcDbLine
 62
7
  6
CONTINUOUS
 10
12.4835107562
 20
25.6146630647
 11
13.5205423583
 21
25.0961472636
  0
LINE
  5
4D7
100
AcDbEntity
  8
RACCORDO
100
AcDbLine
 62
7
  6
CONTINUOUS
 10
18.5732504704
 20
22.5697932076
 11
17.941611445
 21
22.8856127203
  0
LWPOLYLINE
  5
4D8
100
AcDbEntity
  8
RACCORDO
100
AcDbPolyline
 62
250
  6
CONTINUOUS
 90
58
 70
0
 10
19.4400139523
 20
20.0249128057
 10
19.4540882095
 20
20.0140377651
 10
19.4971191732
 20
19.9796071312
 10
19.539916405
 20
19.9441766021
 10
19.5824606066
 20
19.907762152
 10
19.6247325509
 20
19.8703802355
 10
19.6667131249
 20
19.8320477545
 10
19.7083833589
 20
19.7927820324
 10
19.7497244621
 20
19.7526007778
 10
19.7907177999
 20
19.7115221027
 10
19.8313448835
 20
19.6695645321
 10
19.871587356
 20
19.6267470226
 10
19.9114270276
 20
19.5830889274
 10
19.9508459003
 20
19.5386099714
 10
19.9898261947
 20
19.4933302183
 10
20.0283503337
 20
19.4472700855
 10
20.066400938
 20
19.4004503506
 10
20.103960819
 20
19.3528921621
 10
20.1410130064
 20
19.3046170074
 10
20.1775407661
 20
19.2556466907
 10
20.2135276179
 20
19.2060033072
 10
20.2489573275
 20
19.1557092517
 10
20.2838139069
 20
19.1047872193
 10
20.3180816152
 20
19.0532602049
 10
20.3517449767
 20
19.0011514785
 10
20.3847887924
 20
18.9484845677
 10
20.417198149
 20
18.8952832426
 10
20.4489584192
 20
18.8415715148
 10
20.4800552663
 20
18.7873736298
 10
20.5104746521
 20
18.7327140543
 10
20.5402028458
 20
18.6776174606
 10
20.569226429
 20
18.6221087171
 10
20.5975322984
 20
18.5662128843
 10
20.6251076721
 20
18.5099552025
 10
20.6519400989
 20
18.4533610751
 10
20.6780174702
 20
18.396456042
 10
20.7033280207
 20
18.3392657769
 10
20.7278603294
 20
18.2818160845
 10
20.7516033164
 20
18.22413291
 10
20.7745462554
 20
18.1662423131
 10
20.7966787841
 20
18.1081704425
 10
20.8179909184
 20
18.049943497
 10
20.8384730474
 20
17.9915877349
 10
20.8581159307
 20
17.9331294791
 10
20.8769106938
 20
17.874595138
 10
20.8948488422
 20
17.8160111671
 10
20.9119222724
 20
17.757404035
 10
20.9281232853
 20
17.698800175
 10
20.9434445776
 20
17.640226005
 10
20.9578792384
 20
17.5817079403
 10
20.9714207437
 20
17.5232724231
 10
20.9840629712
 20
17.464945873
 10
20.9958002096
 20
17.4067546476
 10
21.0066271678
 20
17.3487249868
 10
21.0165389665
 20
17.2908830426
 10
21.0255311324
 20
17.2332549115
 10
21.0335996027
 20
17.1758666226
 10
21.040740734
 20
17.1187440821
  0
LWPOLYLINE
  5
4D9
100
AcDbEntity
  8
RACCORDO
100
AcDbPolyline
 62
250
  6
CONTINUOUS
 90
27
 70
0
 10
18.6236919369
 20
22.0688479378
 10
18.6086615058
 20
22.0935094389
 10
18.5932228573
 20
22.1178172626
 10
18.5773890498
 20
22.1417508486
 10
18.561173476
 20
22.1652899533
 10
18.5445898514
 20
22.1884146665
 10
18.527652203
 20
22.2111054288
 10
18.5103748571
 20
22.2333430477
 10
18.4927724274
 20
22.255108714
 10
18.4748598024
 20
22.2763840177
 10
18.4566521333
 20
22.2971509635
 10
18.4381648204
 20
22.3173919862
 10
18.4194135011
 20
22.3370899653
 10
18.4004140355
 20
22.3562282397
 10
18.3811824941
 20
22.3747906218
 10
18.3617351433
 20
22.392761411
 10
18.3420884323
 20
22.410125407
 10
18.3222589789
 20
22.4268679229
 10
18.3022635553
 20
22.4429747974
 10
18.2821190743
 20
22.458432407
 10
18.2618425745
 20
22.473227677
 10
18.2414512065
 20
22.4873480933
 10
18.2209622178
 20
22.5007817123
 10
18.2003929386
 20
22.5135171717
 10
18.1797607669
 20
22.5255436993
 10
18.1590831541
 20
22.5368511228
 10
18.1383775898
 20
22.547429878
  0
LINE
  5
4DA
100
AcDbEntity
  8
RACCORDO
100
AcDbLine
 62
250
  6
CONTINUOUS
 10
18.745203277
 20
21.859475219
 11
18.6236919369
 21
22.0688479378
  0
LINE
  5
4DB
100
AcDbEntity
  8
RACCORDO
100
AcDbLine
 62
7
  6
CONTINUOUS
 10
19.0980465258
 20
21.9925735765
 11
18.9911446862
 21
22.1769519762
  0
ARC
  5
4DC
100
AcDbEntity
  8
RACCORDO
100
AcDbCircle
 62
7
  6
CONTINUOUS
 10
12.0362971607
 20
24.7202358737
 40
1.0
100
AcDbArc
 50
63.4349488229
 51
114.7894524371
  0
ARC
  5
4DD
100
AcDbEntity
  8
RACCORDO
100
AcDbCircle
 62
7
  6
CONTINUOUS
 10
18.4400139523
 20
-1.1643459504
 40
1.0
100
AcDbArc
 50
298.3476707551
 51
360.0
  0
ARC
  5
4DE
100
AcDbEntity
  8
RACCORDO
100
AcDbCircle
 62
7
  6
CONTINUOUS
 10
18.1260368749
 20
21.6753660166
 40
1.0
100
AcDbArc
 50
30.1049527557
 51
63.4349488229
  0
ARC
  5
4DF
100
AcDbEntity
  8
RACCORDO
100
AcDbCircle
 62
7
  6
CONTINUOUS
 10
11.1060937645
 20
-13.8182973062
 40
1.0
100
AcDbArc
 50
297.8702635617
 51
305.9325291988
  0
ARC
  5
4E0
100
AcDbEntity
  8
RACCORDO
100
AcDbCircle
 62
7
  6
CONTINUOUS
 10
-2.1051239784
 20
24.8710439279
 40
1.0
100
AcDbArc
 50
63.4349373369
 51
115.2504241015
  0
ARC
  5
4E1
100
AcDbEntity
  8
268140580
100
AcDbCircle
 62
7
  6
CONTINUOUS
 10
0.7833243901
 20
-22.9739073228
 40
0.4
100
AcDbArc
 50
292.7706722359
 51
295.7733104952
  0
ARC
  5
4E2
100
AcDbEntity
  8
268140580
100
AcDbCircle
 62
7
  6
CONTINUOUS
 10
-13.6368040444
 20
24.8070788971
 40
0.25
100
AcDbArc
 50
63.4349488229
 51
116.0730493911
  0
ARC
  5
4E3
100
AcDbEntity
  8
268140580
100
AcDbCircle
 62
7
  6
CONTINUOUS
 10
-15.7581243879
 20
23.769091793
 40
0.25
100
AcDbArc
 50
116.0730493911
 51
179.9983644966
  0
ARC
  5
4E4
100
AcDbEntity
  8
268140580
100
AcDbCircle
 62
7
  6
CONTINUOUS
 10
-15.7581243879
 20
23.4007812644
 40
0.25
100
AcDbArc
 50
180.0
 51
243.4365640263
  0
ARC
  5
4E5
100
AcDbEntity
  8
268140580
100
AcDbCircle
 62
7
  6
CONTINUOUS
 10
-14.4146215037
 20
22.7290298223
 40
0.25
100
AcDbArc
 50
243.4323386214
 51
258.2990804918
  0
ARC
  5
4E6
100
AcDbEntity
  8
268140580
100
AcDbCircle
 62
7
  6
CONTINUOUS
 10
-12.2933011601
 20
24.135327455
 40
0.25
100
AcDbArc
 50
0.0000683861
 51
63.4331826614
  0
ARC
  5
4E7
100
AcDbEntity
  8
268140580
100
AcDbCircle
 62
7
  6
CONTINUOUS
 10
-12.2933011601
 20
23.789689994
 40
0.25
100
AcDbArc
 50
320.360686548
 51
360.0
  0
ARC
  5
4E8
100
AcDbEntity
  8
268140580
100
AcDbCircle
 62
7
  6
CONTINUOUS
 10
-0.27248588
 20
18.1249198149
 40
0.25
100
AcDbArc
 50
63.4349488229
 51
116.0730493911
  0
ARC
  5
4E9
100
AcDbEntity
  8
268140580
100
AcDbCircle
 62
7
  6
CONTINUOUS
 10
-2.3938062235
 20
17.0869327107
 40
0.25
100
AcDbArc
 50
116.0730493911
 51
179.9983644966
  0
ARC
  5
4EA
100
AcDbEntity
  8
268140580
100
AcDbCircle
 62
7
  6
CONTINUOUS
 10
-2.3938062235
 20
16.7186221822
 40
0.25
100
AcDbArc
 50
180.0
 51
243.4365640263
  0
ARC
  5
4EB
100
AcDbEntity
  8
268140580
100
AcDbCircle
 62
7
  6
CONTINUOUS
 10
-1.0503033393
 20
16.04687074
 40
0.25
100
AcDbArc
 50
243.4323386214
 51
258.2990804918
  0
ARC
  5
4EC
100
AcDbEntity
  8
268140580
100
AcDbCircle
 62
7
  6
CONTINUOUS
 10
1.0710170043
 20
17.4531683728
 40
0.25
100
AcDbArc
 50
0.0000683861
 51
63.4331826614
  0
ARC
  5
4ED
100
AcDbEntity
  8
268140580
100
AcDbCircle
 62
7
  6
CONTINUOUS
 10
1.0710170043
 20
17.1075309118
 40
0.25
100
AcDbArc
 50
320.360686548
 51
360.0
  0
ARC
  5
4EE
100
AcDbEntity
  8
268140580
100
AcDbCircle
 62
7
  6
CONTINUOUS
 10
-2.3938062235
 20
-24.9492924858
 40
0.25
100
AcDbArc
 50
179.999777014
 51
243.4334855434
  0
ARC
  5
4EF
100
AcDbEntity
  8
268140580
100
AcDbCircle
 62
7
  6
CONTINUOUS
 10
1.0710170043
 20
-24.1920732276
 40
0.25
100
AcDbArc
 50
359.9972787629
 51
63.444674315
  0
ARC
  5
4F0
100
AcDbEntity
  8
268140580
100
AcDbCircle
 62
7
  6
CONTINUOUS
 10
1.0710170043
 20
-24.5377106885
 40
0.25
100
AcDbArc
 50
297.051035757
 51
360.0
  0
ARC
  5
4F1
100
AcDbEntity
  8
268140580
100
AcDbCircle
 62
7
  6
CONTINUOUS
 10
-1.0503033393
 20
-25.6210439279
 40
0.25
100
AcDbArc
 50
243.433722507
 51
297.0528641899
  0
ELLIPSE
  5
4F2
100
AcDbEntity
  8
RACCORDO
100
AcDbEllipse
 62
7
  6
CONTINUOUS
 10
-1.9342083582
 20
-5.6582496924
 30
0.0
 11
-0.0894323102
 21
0.1788913307
 31
0.0
 40
0.6125552124
 41
-2.255296188
 42
-0.6848044477
  0
ELLIPSE
  5
4F3
100
AcDbEntity
  8
RACCORDO
100
AcDbEllipse
 62
7
  6
CONTINUOUS
 10
-2.721932207
 20
-24.3190949365
 30
0.0
 11
-0.2234618187
 21
0.4480306886
 31
0.0
 40
0.6116748051
 41
-3.1815309152
 42
-2.2548620396
  0
ELLIPSE
  5
4F4
100
AcDbEntity
  8
0
100
AcDbEllipse
 62
7
  6
CONTINUOUS
 10
-1.9342083582
 20
-5.6582496924
 30
0.0
 11
-0.0894323102
 21
0.1788913307
 31
0.0
 40
0.6125552124
 41
-2.255296188
 42
-0.6848044477
  0
ELLIPSE
  5
4F5
100
AcDbEntity
  8
0
100
AcDbEllipse
 62
7
  6
CONTINUOUS
 10
-2.721932207
 20
-24.3190949365
 30
0.0
 11
-0.2234618187
 21
0.4480306886
 31
0.0
 40
0.6116748051
 41
-3.1815309152
 42
-2.2548620396
  0
ELLIPSE
  5
4F6
100
AcDbEntity
  8
CURVE
100
AcDbEllipse
 62
250
  6
CONTINUOUS
 10
336.4164008688
 20
175.0905759249
 30
0.0
 11
-106.0585040325
 21
545.5538040194
 31
0.0
 40
0.6979893553
 41
-4.497976891
 42
-4.4909745276
  0
ELLIPSE
  5
4F7
100
AcDbEntity
  8
CURVE
100
AcDbEllipse
 62
250
  6
CONTINUOUS
 10
331.3959427856
 20
177.6008049665
 30
0.0
 11
-370.8956999625
 21
600.1218488205
 31
0.0
 40
0.5587454355
 41
1.5428587203
 42
1.5438589825
  0
ELLIPSE
  5
4F8
100
AcDbEntity
  8
CURVE
100
AcDbEllipse
 62
250
  6
CONTINUOUS
 10
346.7048054191
 20
169.9463736498
 30
0.0
 11
499.3666447733
 21
308.6255299306
 31
0.0
 40
0.0815198181
 41
2.3282568624
 42
2.3292571247
  0
ELLIPSE
  5
4F9
100
AcDbEntity
  8
CURVE
100
AcDbEllipse
 62
250
  6
CONTINUOUS
 10
328.3907389603
 20
179.1034068792
 30
0.0
 11
-370.8956999625
 21
600.1218488205
 31
0.0
 40
0.5587454355
 41
1.5488606657
 42
1.5498610836
  0
ELLIPSE
  5
4FA
100
AcDbEntity
  8
CURVE
100
AcDbEllipse
 62
250
  6
CONTINUOUS
 10
349.7100073341
 20
168.4437726923
 30
0.0
 11
499.3665911324
 21
308.6255555532
 31
0.0
 40
0.0815199027
 41
2.3342588503
 42
2.3352592683
  0
ELLIPSE
  5
4FB
100
AcDbEntity
  8
0
100
AcDbEllipse
 62
7
  6
CONTINUOUS
 10
-17.6927401043
 20
20.6640205095
 30
0.0
 11
-0.2234618187
 21
0.4480306886
 31
0.0
 40
0.6116748051
 41
-0.6831523243
 42
0.0399382621
  0
ELLIPSE
  5
4FC
100
AcDbEntity
  8
0
100
AcDbEllipse
 62
7
  6
CONTINUOUS
 10
-1.9342083582
 20
-5.1385816821
 30
0.0
 11
-0.0894803643
 21
0.1789340454
 31
0.0
 40
0.6121897086
 41
-3.1606090032
 42
-2.2557347926
  0
ELLIPSE
  5
4FD
100
AcDbEntity
  8
0
100
AcDbEllipse
 62
7
  6
CONTINUOUS
 10
-2.721932207
 20
13.1786165609
 30
0.0
 11
-0.2230998035
 21
0.4477110033
 31
0.0
 40
0.6127700112
 41
-2.2535417632
 42
-0.6836588249
  0
ELLIPSE
  5
4FE
100
AcDbEntity
  8
CURVE
100
AcDbEllipse
 62
250
  6
CONTINUOUS
 10
345.8916317947
 20
170.352960462
 30
0.0
 11
-370.8956999625
 21
600.1218488205
 31
0.0
 40
0.5587454355
 41
1.4970547105
 42
1.4980549729
  0
ELLIPSE
  5
4FF
100
AcDbEntity
  8
CURVE
100
AcDbEllipse
 62
250
  6
CONTINUOUS
 10
330.5827708133
 20
178.0073909527
 30
0.0
 11
499.3665911324
 21
308.6255555532
 31
0.0
 40
0.0815199027
 41
2.2824528952
 42
2.2834531576
  0
ELLIPSE
  5
500
100
AcDbEntity
  8
CURVE
100
AcDbEllipse
 62
250
  6
CONTINUOUS
 10
348.89683562
 20
168.8503585493
 30
0.0
 11
-370.8956999625
 21
600.1218488205
 31
0.0
 40
0.5587454355
 41
1.4910526096
 42
1.4920530274
  0
ELLIPSE
  5
501
100
AcDbEntity
  8
CURVE
100
AcDbEllipse
 62
250
  6
CONTINUOUS
 10
327.5775650777
 20
179.5099938205
 30
0.0
 11
499.3666447733
 21
308.6255299306
 31
0.0
 40
0.0815198181
 41
2.2764507517
 42
2.2774511695
  0
ELLIPSE
  5
502
100
AcDbEntity
  8
RACCORDO
100
AcDbEllipse
 62
7
  6
CONTINUOUS
 10
-17.6927401043
 20
20.6640205095
 30
0.0
 11
-0.2234618187
 21
0.4480306886
 31
0.0
 40
0.6116748051
 41
-0.6831523243
 42
0.0399382621
  0
ELLIPSE
  5
503
100
AcDbEntity
  8
RACCORDO
100
AcDbEllipse
 62
7
  6
CONTINUOUS
 10
-1.9342083582
 20
-5.1385816821
 30
0.0
 11
-0.0894803643
 21
0.1789340454
 31
0.0
 40
0.6121897086
 41
-3.1606090032
 42
-2.2557347926
  0
ELLIPSE
  5
504
100
AcDbEntity
  8
RACCORDO
100
AcDbEllipse
 62
7
  6
CONTINUOUS
 10
-2.721932207
 20
13.1786165609
 30
0.0
 11
-0.2230998035
 21
0.4477110033
 31
0.0
 40
0.6127700112
 41
-2.2535417632
 42
-0.6836588249
  0
ELLIPSE
  5
505
100
AcDbEntity
  8
268140580
100
AcDbEllipse
 62
7
  6
CONTINUOUS
 10
-4.5906474263
 20
24.1832245812
 30
0.0
 11
0.2256808774
 21
0.4461742732
 31
0.0
 40
0.6158912572
 41
0.0028576383
 42
0.678850188
  0
ELLIPSE
  5
506
100
AcDbEntity
  8
268140580
100
AcDbEllipse
 62
7
  6
CONTINUOUS
 10
6.0129333406
 20
-18.005435241
 30
0.0
 11
0.9927147821
 21
0.620457446
 31
0.0
 40
0.0764819879
 41
-2.4101692607
 42
-0.8393729339
  0
ELLIPSE
  5
507
100
AcDbEntity
  8
268140580
100
AcDbEllipse
 62
7
  6
CONTINUOUS
 10
-5.4972449287
 20
24.8155411756
 30
0.0
 11
1.004787277
 21
0.6140102217
 31
0.0
 40
0.0864918533
 41
0.0540071275
 42
0.7387263463
  0
ELLIPSE
  5
508
100
AcDbEntity
  8
268140580
100
AcDbEllipse
 62
7
  6
CONTINUOUS
 10
1.4952379881
 20
-22.6301638377
 30
0.0
 11
-0.178948659
 21
0.3577665147
 31
0.0
 40
0.6123910759
 41
-3.1501448428
 42
-2.2556797026
  0
ELLIPSE
  5
509
100
AcDbEntity
  8
268140580
100
AcDbEllipse
 62
7
  6
CONTINUOUS
 10
1.4952379881
 20
15.4749539288
 30
0.0
 11
-0.178948659
 21
0.3577665147
 31
0.0
 40
0.6123910759
 41
-2.2556797026
 42
-0.6848833758
  0
ELLIPSE
  5
50A
100
AcDbEntity
  8
268140580
100
AcDbEllipse
 62
7
  6
CONTINUOUS
 10
6.0129333406
 20
19.0604520409
 30
0.0
 11
-0.7356038977
 21
1.2035991204
 31
0.0
 40
0.5552491559
 41
4.67069225
 42
6.2414885768
  0
ELLIPSE
  5
50B
100
AcDbEntity
  8
268140580
100
AcDbEllipse
 62
7
  6
CONTINUOUS
 10
-10.2101835185
 20
21.6897192633
 30
0.0
 11
0.2999981629
 21
-0.0021225547
 31
0.0
 40
0.4946372042
 41
2.3539345592
 42
3.9304904725
  0
ELLIPSE
  5
50C
100
AcDbEntity
  8
268140580
100
AcDbEllipse
 62
7
  6
CONTINUOUS
 10
-1.3957078358
 20
-15.5277688124
 30
0.0
 11
-0.1341541638
 21
0.268382513
 31
0.0
 40
0.6122954976
 41
-0.6845448057
 42
0.0132925713
  0
ELLIPSE
  5
50D
100
AcDbEntity
  8
268140580
100
AcDbEllipse
 62
7
  6
CONTINUOUS
 10
-0.3033854518
 20
-23.4300639738
 30
0.0
 11
-0.1787694549
 21
0.3584245509
 31
0.0
 40
0.6116748051
 41
2.4584403293
 42
4.0283232676
  0
ELLIPSE
  5
50E
100
AcDbEntity
  8
268140580
100
AcDbEllipse
 62
7
  6
CONTINUOUS
 10
-3.6982718496
 20
17.5415103957
 30
0.0
 11
0.0886237691
 21
0.1792940454
 31
0.0
 40
0.6088373611
 41
0.6819330809
 42
0.7342929585
  0
ELLIPSE
  5
50F
100
AcDbEntity
  8
268140580
100
AcDbEllipse
 62
7
  6
CONTINUOUS
 10
1.5708019322
 20
21.1024999019
 30
0.0
 11
0.2215594226
 21
0.4482351134
 31
0.0
 40
0.6088373611
 41
5.3943220613
 42
6.9563917418
  0
ELLIPSE
  5
510
100
AcDbEntity
  8
268140580
100
AcDbEllipse
 62
7
  6
CONTINUOUS
 10
-0.3431965581
 20
15.0928580205
 30
0.0
 11
0.249929385
 21
0.0111824824
 31
0.0
 40
0.5313301283
 41
-2.3799630874
 42
-0.8091667606
  0
ELLIPSE
  5
511
100
AcDbEntity
  8
268140580
100
AcDbEllipse
 62
7
  6
CONTINUOUS
 10
-1.3957078358
 20
3.5247900709
 30
0.0
 11
-0.1341541638
 21
0.268382513
 31
0.0
 40
0.6122954976
 41
-0.6845448057
 42
0.0132925713
  0
ELLIPSE
  5
512
100
AcDbEntity
  8
268140580
100
AcDbEllipse
 62
7
  6
CONTINUOUS
 10
-1.6866994423
 20
15.7646094626
 30
0.0
 11
0.249929385
 21
0.0111824824
 31
0.0
 40
0.5313301283
 41
3.1178240563
 42
3.9032222197
  0
ELLIPSE
  5
513
100
AcDbEntity
  8
268140580
100
AcDbEllipse
 62
7
  6
CONTINUOUS
 10
-13.7075147225
 20
21.7750171027
 30
0.0
 11
0.249929385
 21
0.0111824824
 31
0.0
 40
0.5313301283
 41
-2.3799630874
 42
-0.8091667606
  0
ELLIPSE
  5
514
100
AcDbEntity
  8
268140580
100
AcDbEllipse
 62
7
  6
CONTINUOUS
 10
-15.4443821036
 20
22.1084419248
 30
0.0
 11
-0.1787694549
 21
0.3584245509
 31
0.0
 40
0.6116748051
 41
-0.6831523243
 42
0.886730614
  0
ELLIPSE
  5
515
100
AcDbEntity
  8
268140580
100
AcDbEllipse
 62
7
  6
CONTINUOUS
 10
-0.3033854518
 20
14.5379435988
 30
0.0
 11
-0.1784798428
 21
0.3581688027
 31
0.0
 40
0.6127700112
 41
-2.2535417632
 42
-0.6836588249
  0
ELLIPSE
  5
516
100
AcDbEntity
  8
268140580
100
AcDbEllipse
 62
7
  6
CONTINUOUS
 10
-15.0510176068
 20
22.4467685448
 30
0.0
 11
0.249929385
 21
0.0111824824
 31
0.0
 40
0.5313301283
 41
3.1178240563
 42
3.9032222197
  0
ELLIPSE
  5
517
100
AcDbEntity
  8
268140580
100
AcDbEllipse
 62
7
  6
CONTINUOUS
 10
-4.406213187
 20
17.5382376221
 30
0.0
 11
0.2999152621
 21
0.0134189789
 31
0.0
 40
0.5313301283
 41
-2.3799630874
 42
-0.8034071741
  0
ELLIPSE
  5
518
100
AcDbEntity
  8
268140580
100
AcDbEllipse
 62
7
  6
CONTINUOUS
 10
-4.406213187
 20
18.7877340976
 30
0.0
 11
0.2999981629
 21
-0.0021225547
 31
0.0
 40
0.4946372042
 41
-2.3526948347
 42
-0.7761389213
  0
ELLIPSE
  5
519
100
AcDbEntity
  8
268140580
100
AcDbEllipse
 62
7
  6
CONTINUOUS
 10
-10.2101835185
 20
20.4402227878
 30
0.0
 11
0.2999152621
 21
0.0134189789
 31
0.0
 40
0.5313301283
 41
3.1178240578
 42
3.9032222197
  0
ELLIPSE
  5
51A
100
AcDbEntity
  8
268140580
100
AcDbEllipse
 62
7
  6
CONTINUOUS
 10
-1.0273229086
 20
8.250885139
 30
0.0
 11
-0.1342205464
 21
0.2684010681
 31
0.0
 40
0.6121897086
 41
-3.160608991
 42
-2.2557347926
  0
ELLIPSE
  5
51B
100
AcDbEntity
  8
268140580
100
AcDbEllipse
 62
7
  6
CONTINUOUS
 10
-1.0273229086
 20
3.3405976073
 30
0.0
 11
-0.1341484654
 21
0.2683369961
 31
0.0
 40
0.6125552124
 41
-2.255296188
 42
-0.6848044477
  0
ELLIPSE
  5
51C
100
AcDbEntity
  8
268140580
100
AcDbEllipse
 62
7
  6
CONTINUOUS
 10
-1.7467722846
 20
-2.040672568
 30
0.0
 11
-0.1342205464
 21
0.2684010681
 31
0.0
 40
0.6121897086
 41
-3.1606089912
 42
-2.2557347926
  0
ELLIPSE
  5
51D
100
AcDbEntity
  8
268140580
100
AcDbEllipse
 62
7
  6
CONTINUOUS
 10
-1.7467722846
 20
-6.1151677553
 30
0.0
 11
-0.1341484654
 21
0.2683369961
 31
0.0
 40
0.6125552124
 41
-2.255296188
 42
-0.6848044477
  0
ELLIPSE
  5
51E
100
AcDbEntity
  8
268140580
100
AcDbEllipse
 62
7
  6
CONTINUOUS
 10
-1.0273229086
 20
-10.8016737442
 30
0.0
 11
-0.1342205464
 21
0.2684010681
 31
0.0
 40
0.6121897086
 41
-3.160608991
 42
-2.2557347926
  0
ELLIPSE
  5
51F
100
AcDbEntity
  8
268140580
100
AcDbEllipse
 62
7
  6
CONTINUOUS
 10
-1.0273229086
 20
-15.711961276
 30
0.0
 11
-0.1341484654
 21
0.2683369961
 31
0.0
 40
0.6125552124
 41
-2.255296188
 42
-0.6848044477
  0
ELLIPSE
  5
520
100
AcDbEntity
  8
DRAFT
100
AcDbEllipse
 62
7
  6
CONTINUOUS
 10
12.4200808423
 20
20.993390166
 30
0.0
 11
2.7499831596
 21
-0.0194567514
 31
0.0
 40
0.4946372042
 41
0.4291636923
 42
2.3596941457
  0
ELLIPSE
  5
521
100
AcDbEntity
  8
DRAFT
100
AcDbEllipse
 62
7
  6
CONTINUOUS
 10
11.7483294002
 20
21.0917947982
 30
0.0
 11
2.7499831596
 21
-0.0194567514
 31
0.0
 40
0.4946372042
 41
2.3596941457
 42
2.9254696648
  0
ELLIPSE
  5
522
100
AcDbEntity
  8
RACCORDO
100
AcDbEllipse
 62
7
  6
CONTINUOUS
 10
17.1737120545
 20
22.1515284268
 30
0.0
 11
0.7964780511
 21
0.7125399777
 31
0.0
 40
0.2888664458
 41
0.1139832129
 42
0.7812491238
  0
ELLIPSE
  5
523
100
AcDbEntity
  8
RACCORDO
100
AcDbEllipse
 62
7
  6
CONTINUOUS
 10
13.3940145578
 20
24.0413771752
 30
0.0
 11
-0.309899001
 21
1.1085475855
 31
0.0
 40
0.6753891016
 41
4.9647984111
 42
6.4012160802
  0
ELLIPSE
  5
524
100
AcDbEntity
  8
0
100
AcDbEllipse
 62
7
  6
CONTINUOUS
 10
12.4200808423
 20
21.4204907145
 30
0.0
 11
2.7499831596
 21
-0.0194567514
 31
0.0
 40
0.4946372042
 41
0.1760698615
 42
2.3596941457
  0
ELLIPSE
  5
525
100
AcDbEntity
  8
RACCORDO
100
AcDbEllipse
 62
7
  6
CONTINUOUS
 10
-5.8745547025
 20
20.44781191
 30
0.0
 11
1.2141619185
 21
0.9541526469
 31
0.0
 40
0.2329077568
 41
0.1095198182
 42
0.114024621
  0
ENDSEC
  0
SECTION
  2
OBJECTS
  0
DICTIONARY
  5
C
100
AcDbDictionary
280
0
281
1
  3
ACAD_GROUP
350
D
  3
ACAD_MLINESTYLE
350
17
  3
ACAD_LAYOUT
350
1A
  3
ACAD_PLOTSETTINGS
350
19
  3
ACAD_PLOTSTYLENAME
350
E
  0
DICTIONARY
  5
D
102
{ACAD_REACTORS
330
C
102
}
100
AcDbDictionary
280
0
281
1
  0
ACDBDICTIONARYWDFLT
  5
E
102
{ACAD_REACTORS
330
C
102
}
100
AcDbDictionary
281
1
  3
Normal
350
F
100
AcDbDictionaryWithDefault
340
F
  0
DICTIONARY
  5
17
102
{ACAD_REACTORS
330
C
102
}
100
AcDbDictionary
280
0
281
1
  3
Standard
350
18
  0
DICTIONARY
  5
19
102
{ACAD_REACTORS
330
C
102
}
100
AcDbDictionary
281
1
  0
DICTIONARY
  5
1A
102
{ACAD_REACTORS
330
C
102
}
100
AcDbDictionary
281
1
  3
Model
350
526
  3
Layout1
350
527
  0
ACDBPLACEHOLDER
  5
F
102
{ACAD_REACTORS
330
E
102
}
  0
MLINESTYLE
  5
18
102
{ACAD_REACTORS
330
17
102
}
100
AcDbMlineStyle
  2
STANDARD
 70
0
  3

 62
256
 51
90.0
 52
90.0
 71
2
 49
0.5
 62
256
  6
BYLAYER
 49
-0.5
 62
256
  6
BYLAYER
  0
LAYOUT
  5
526
102
{ACAD_REACTORS
330
1A
102
}
100
AcDbPlotSettings
  1

  2
none_device
  4
ISO_A4_(297.00_x_210.00_MM)
  6

 40
0.0
 41
0.0
 42
0.0
 43
0.0
 44
297.0
 45
210.0
 46
0.0
 47
0.0
 48
0.0
 49
0.0
140
0.0
141
0.0
142
1.0
143
1.0
 70
1024
 72
1
 73
0
 74
0
  7

 75
0
147
1.0
148
0.0
149
0.0
100
AcDbLayout
  1
Model
 70
0
 71
0
 10
0.0
 20
0.0
 11
297.0
 21
210.0
 12
0.0
 22
0.0
 32
0.0
 14
0.0
 24
0.0
 34
0.0
 15
0.0
 25
0.0
 35
0.0
146
0.0
 13
0.0
 23
0.0
 33
0.0
 16
1.0
 26
0.0
 36
0.0
 17
0.0
 27
1.0
 37
0.0
 76
0
330
221
345
0
346
0
  0
LAYOUT
  5
527
102
{ACAD_REACTORS
330
1A
102
}
100
AcDbPlotSettings
  1

  2
none_device
  4
ISO_A4_(297.00_x_210.00_MM)
  6

 40
0.0
 41
0.0
 42
0.0
 43
0.0
 44
297.0
 45
210.0
 46
0.0
 47
0.0
 48
0.0
 49
0.0
140
0.0
141
0.0
142
1.0
143
1.0
 70
0
 72
1
 73
0
 74
0
  7

 75
0
147
1.0
148
0.0
149
0.0
100
AcDbLayout
  1
Layout1
 70
0
 71
1
 10
0.0
 20
0.0
 11
297.0
 21
210.0
 12
0.0
 22
0.0
 32
0.0
 14
0.0
 24
0.0
 34
0.0
 15
0.0
 25
0.0
 35
0.0
146
0.0
 13
0.0
 23
0.0
 33
0.0
 16
1.0
 26
0.0
 36
0.0
 17
0.0
 27
1.0
 37
0.0
 76
0
330
222
345
0
346
0
  0
ENDSEC
  0
EOF
