  0
SECTION
  2
HEADER
  9
$ACADVER
  1
AC1024
  9
$DWGCODEPAGE
  3
ANSI_1252
  9
$EXTMAX
 10
297.0
 20
210.0
 30
0.0
  9
$EXTMIN
 10
0.0
 20
0.0
 30
0.0
  9
$LIMMIN
 10
0.0
 20
0.0
  9
$LIMMAX
 10
297.0
 20
210.0
  9
$VIEWCTR
 10
148.5
 20
105.0
  9
$VIEWSIZE
 40
210.0
  9
$CLAYER
  8
0
  9
$LTSCALE
 40
16.335
  9
$CELTYPE
  6
BYLAYER
  9
$DIMSCALE
 40
1.0
  9
$DIMASZ
 40
3.0
  9
$DIMEXO
 40
0.5
  9
$DIMDLI
 40
11.286
  9
$DIMEXE
 40
1.5
  9
$DIMCEN
 40
2.673
  9
$DIMLFAC
 40
1.0
  9
$DIMBLK
  1
_FILLED
  9
$DIMALT
 70
0
  9
$DIMALTF
 40
0.0393700787
  9
$DIMTXT
 40
3.0
  9
$DIMTOL
 70
1
  9
$DIMLIM
 70
0
  9
$DIMTFAC
 40
1.0
  9
$DIMTP
 40
0.01
  9
$DIMTM
 40
0.01
  9
$DIMGAP
 40
0.625
  9
$DIMDSEP
 70
44
  9
$AUNITS
 70
0
  9
$PDMODE
 70
3
  9
$PDSIZE
 40
3.0
  9
$HANDSEED
  5
4FA
  9
$TILEMODE
 70
1
  9
$MEASUREMENT
 70
1
  9
$INSUNITS
 70
4
  0
ENDSEC
  0
SECTION
  2
CLASSES
  0
CLASS
  1
ACDBDICTIONARYWDFLT
  2
AcDbDictionaryWithDefault
  3
AutoCAD 2000
 90
0
 91
1
280
0
281
0
  0
CLASS
  1
ACDBPLACEHOLDER
  2
AcDbPlaceHolder
  3
AutoCAD 2000
 90
0
 91
1
280
0
281
0
  0
CLASS
  1
LAYOUT
  2
AcDbLayout
  3
AutoCAD 2000
 90
0
 91
0
280
0
281
0
  0
ENDSEC
  0
SECTION
  2
TABLES
  0
TABLE
  2
VPORT
  5
8
100
AcDbSymbolTable
 70
2
  0
VPORT
  5
1F4
100
AcDbSymbolTableRecord
100
AcDbViewportTableRecord
  2
*ACTIVE
 70
0
 10
0.0
 20
0.0
 11
1.0
 21
1.0
 12
148.5
 22
105.0
 13
0.0
 23
0.0
 14
1.0
 24
1.0
 15
0.0
 25
0.0
 16
0.0
 26
0.0
 36
1.0
 17
0.0
 27
0.0
 37
0.0
 40
210.0
 41
1.4142857143
 42
50.0
 43
0.0
 44
0.0
 50
0.0
 51
0.0
 71
0
 72
100
 73
1
 74
1
 75
0
 76
0
 77
0
 78
0
  0
ENDTAB
  0
TABLE
  2
LTYPE
  5
5
100
AcDbSymbolTable
 70
6
  0
LTYPE
  5
14
100
AcDbSymbolTableRecord
100
AcDbLinetypeTableRecord
  2
BYBLOCK
 70
0
  3

 72
65
 73
0
 40
0.0
  0
LTYPE
  5
15
100
AcDbSymbolTableRecord
100
AcDbLinetypeTableRecord
  2
BYLAYER
 70
0
  3

 72
65
 73
0
 40
0.0
  0
LTYPE
  5
16
100
AcDbSymbolTableRecord
100
AcDbLinetypeTableRecord
  2
CONTINUOUS
 70
64
  3
Solid line
 72
65
 73
0
 40
0.0
  0
LTYPE
  5
1F5
100
AcDbSymbolTableRecord
100
AcDbLinetypeTableRecord
  2
CENTER
 70
64
  3
____ _ ____ _ ____ _ ____ _ ____ _ ____ _ ____
 72
65
 73
4
 40
0.6
 49
0.375
 74
0
 49
-0.075
 74
0
 49
0.075
 74
0
 49
-0.075
 74
0
  0
LTYPE
  5
1F6
100
AcDbSymbolTableRecord
100
AcDbLinetypeTableRecord
  2
HIDDEN
 70
64
  3
- - - - - - - - - - - - - - - - - - - -
 72
65
 73
2
 40
0.2
 49
0.1
 74
0
 49
-0.1
 74
0
  0
LTYPE
  5
1F7
100
AcDbSymbolTableRecord
100
AcDbLinetypeTableRecord
  2
PHANTOM
 70
64
  3
_____ _ _ _____ _ _ _____ _ _ _____
 72
65
 73
6
 40
0.8
 49
0.45
 74
0
 49
-0.05
 74
0
 49
0.1
 74
0
 49
-0.05
 74
0
 49
0.1
 74
0
 49
-0.05
 74
0
  0
LTYPE
  5
1F8
100
AcDbSymbolTableRecord
100
AcDbLinetypeTableRecord
  2
DOT
 70
64
  3
. . . . . . . . . . . . . . . . . . . .
 72
65
 73
2
 40
0.2
 49
0.1
 74
0
 49
-0.1
 74
0
  0
LTYPE
  5
1F9
100
AcDbSymbolTableRecord
100
AcDbLinetypeTableRecord
  2
DASHED
 70
64
  3
- - - - - - - - - - - - - - - - - - - -
 72
65
 73
2
 40
0.2
 49
0.1
 74
0
 49
-0.1
 74
0
  0
ENDTAB
  0
TABLE
  2
LAYER
  5
2
100
AcDbSymbolTable
 70
36
  0
LAYER
  5
10
100
AcDbSymbolTableRecord
100
AcDbLayerTableRecord
  2
0
 70
0
 62
7
  6
CONTINUOUS
370
-3
390
F
  0
LAYER
  5
1FA
100
AcDbSymbolTableRecord
100
AcDbLayerTableRecord
  2
DEFAULT_1
 70
0
 62
7
  6
CENTER
370
-3
390
F
  0
LAYER
  5
1FB
100
AcDbSymbolTableRecord
100
AcDbLayerTableRecord
  2
DEFAULT_2
 70
0
 62
7
  6
HIDDEN
370
-3
390
F
  0
LAYER
  5
1FC
100
AcDbSymbolTableRecord
100
AcDbLayerTableRecord
  2
DEFAULT_3
 70
0
 62
7
  6
PHANTOM
370
-3
390
F
  0
LAYER
  5
1FD
100
AcDbSymbolTableRecord
100
AcDbLayerTableRecord
  2
218140580
 70
0
 62
7
  6
CONTINUOUS
370
-3
390
F
  0
LAYER
  5
1FE
100
AcDbSymbolTableRecord
100
AcDbLayerTableRecord
  2
268140580
 70
0
 62
7
  6
CONTINUOUS
370
-3
390
F
  0
LAYER
  5
1FF
100
AcDbSymbolTableRecord
100
AcDbLayerTableRecord
  2
ASSI
 70
0
 62
7
  6
CONTINUOUS
370
-3
390
F
  0
LAYER
  5
200
100
AcDbSymbolTableRecord
100
AcDbLayerTableRecord
  2
COLOR5
 70
0
 62
7
  6
CONTINUOUS
370
-3
390
F
  0
LAYER
  5
201
100
AcDbSymbolTableRecord
100
AcDbLayerTableRecord
  2
COORDINATE
 70
0
 62
7
  6
CONTINUOUS
370
-3
390
F
  0
LAYER
  5
202
100
AcDbSymbolTableRecord
100
AcDbLayerTableRecord
  2
COORD_ORIGINE
 70
0
 62
7
  6
CONTINUOUS
370
-3
390
F
  0
LAYER
  5
203
100
AcDbSymbolTableRecord
100
AcDbLayerTableRecord
  2
COPY-PUBBLISH
 70
0
 62
7
  6
CONTINUOUS
370
-3
390
F
  0
LAYER
  5
204
100
AcDbSymbolTableRecord
100
AcDbLayerTableRecord
  2
COSMETICHE
 70
0
 62
7
  6
CONTINUOUS
370
-3
390
F
  0
LAYER
  5
205
100
AcDbSymbolTableRecord
100
AcDbLayerTableRecord
  2
CURVA_CENTRALE
 70
0
 62
7
  6
CONTINUOUS
370
-3
390
F
  0
LAYER
  5
206
100
AcDbSymbolTableRecord
100
AcDbLayerTableRecord
  2
CURVE
 70
0
 62
7
  6
CONTINUOUS
370
-3
390
F
  0
LAYER
  5
207
100
AcDbSymbolTableRecord
100
AcDbLayerTableRecord
  2
DRAFT
 70
0
 62
7
  6
CONTINUOUS
370
-3
390
F
  0
LAYER
  5
208
100
AcDbSymbolTableRecord
100
AcDbLayerTableRecord
  2
IGES_INCISIONI
 70
0
 62
7
  6
CONTINUOUS
370
-3
390
F
  0
LAYER
  5
209
100
AcDbSymbolTableRecord
100
AcDbLayerTableRecord
  2
INCISIONI_LASER
 70
0
 62
7
  6
CONTINUOUS
370
-3
390
F
  0
LAYER
  5
20A
100
AcDbSymbolTableRecord
100
AcDbLayerTableRecord
  2
INTF_1
 70
0
 62
7
  6
CONTINUOUS
370
-3
390
F
  0
LAYER
  5
20B
100
AcDbSymbolTableRecord
100
AcDbLayerTableRecord
  2
INTF_11
 70
0
 62
7
  6
CONTINUOUS
370
-3
390
F
  0
LAYER
  5
20C
100
AcDbSymbolTableRecord
100
AcDbLayerTableRecord
  2
INTF_2
 70
0
 62
7
  6
CONTINUOUS
370
-3
390
F
  0
LAYER
  5
20D
100
AcDbSymbolTableRecord
100
AcDbLayerTableRecord
  2
INTF_RED
 70
0
 62
7
  6
CONTINUOUS
370
-3
390
F
  0
LAYER
  5
20E
100
AcDbSymbolTableRecord
100
AcDbLayerTableRecord
  2
INTF_YELLOW
 70
0
 62
7
  6
CONTINUOUS
370
-3
390
F
  0
LAYER
  5
20F
100
AcDbSymbolTableRecord
100
AcDbLayerTableRecord
  2
NOTE
 70
0
 62
7
  6
CONTINUOUS
370
-3
390
F
  0
LAYER
  5
210
100
AcDbSymbolTableRecord
100
AcDbLayerTableRecord
  2
PIANI
 70
0
 62
7
  6
CONTINUOUS
370
-3
390
F
  0
LAYER
  5
211
100
AcDbSymbolTableRecord
100
AcDbLayerTableRecord
  2
PIANI_CONTATTI
 70
0
 62
7
  6
CONTINUOUS
370
-3
390
F
  0
LAYER
  5
212
100
AcDbSymbolTableRecord
100
AcDbLayerTableRecord
  2
PIANI_ORIGINE
 70
0
 62
7
  6
CONTINUOUS
370
-3
390
F
  0
LAYER
  5
213
100
AcDbSymbolTableRecord
100
AcDbLayerTableRecord
  2
PIANI_RIFERIMENTO
 70
0
 62
7
  6
CONTINUOUS
370
-3
390
F
  0
LAYER
  5
214
100
AcDbSymbolTableRecord
100
AcDbLayerTableRecord
  2
PIANI_SFORMI
 70
0
 62
7
  6
CONTINUOUS
370
-3
390
F
  0
LAYER
  5
215
100
AcDbSymbolTableRecord
100
AcDbLayerTableRecord
  2
PUNTI
 70
0
 62
7
  6
CONTINUOUS
370
-3
390
F
  0
LAYER
  5
216
100
AcDbSymbolTableRecord
100
AcDbLayerTableRecord
  2
RACCORDO
 70
0
 62
7
  6
CONTINUOUS
370
-3
390
F
  0
LAYER
  5
217
100
AcDbSymbolTableRecord
100
AcDbLayerTableRecord
  2
RGB__255__255__255__
 70
0
 62
7
  6
CONTINUOUS
370
-3
390
F
  0
LAYER
  5
218
100
AcDbSymbolTableRecord
100
AcDbLayerTableRecord
  2
SMUSSO
 70
0
 62
7
  6
CONTINUOUS
370
-3
390
F
  0
LAYER
  5
219
100
AcDbSymbolTableRecord
100
AcDbLayerTableRecord
  2
SNAPLINE
 70
0
 62
7
  6
CONTINUOUS
370
-3
390
F
  0
LAYER
  5
21A
100
AcDbSymbolTableRecord
100
AcDbLayerTableRecord
  2
SUPERFICI
 70
0
 62
7
  6
CONTINUOUS
370
-3
390
F
  0
LAYER
  5
21B
100
AcDbSymbolTableRecord
100
AcDbLayerTableRecord
  2
TRACCIABILITA
 70
0
 62
7
  6
CONTINUOUS
370
-3
390
F
  0
LAYER
  5
21C
100
AcDbSymbolTableRecord
100
AcDbLayerTableRecord
  2
TRASH
 70
0
 62
7
  6
CONTINUOUS
370
-3
390
F
  0
LAYER
  5
21D
100
AcDbSymbolTableRecord
100
AcDbLayerTableRecord
  2
WHITE
 70
0
 62
7
  6
CONTINUOUS
370
-3
390
F
  0
LAYER
  5
21E
100
AcDbSymbolTableRecord
100
AcDbLayerTableRecord
  2
XSEC_DATUMS
 70
0
 62
7
  6
CONTINUOUS
370
-3
390
F
  0
ENDTAB
  0
TABLE
  2
STYLE
  5
3
100
AcDbSymbolTable
 70
1
  0
STYLE
  5
11
100
AcDbSymbolTableRecord
100
AcDbTextStyleTableRecord
  2
STANDARD
 70
0
 40
0.0
 41
0.8
 50
0.0
 71
0
 42
0.2
  3
txt
  4

  0
STYLE
  5
21F
100
AcDbSymbolTableRecord
100
AcDbTextStyleTableRecord
  2
TEXTSTYLE_1
 70
0
 40
0.0
 41
0.8
 50
0.0
 71
0
 42
0.2
  3
gdt
  4

  0
ENDTAB
  0
TABLE
  2
VIEW
  5
6
100
AcDbSymbolTable
 70
0
  0
ENDTAB
  0
TABLE
  2
UCS
  5
7
100
AcDbSymbolTable
 70
0
  0
ENDTAB
  0
TABLE
  2
APPID
  5
9
100
AcDbSymbolTable
 70
1
  0
APPID
  5
220
100
AcDbSymbolTableRecord
100
AcDbRegAppTableRecord
  2
ACAD
 70
0
  0
ENDTAB
  0
TABLE
  2
BLOCK_RECORD
  5
1
100
AcDbSymbolTable
 70
0
  0
BLOCK_RECORD
  5
221
100
AcDbSymbolTableRecord
100
AcDbBlockTableRecord
  2
*Model_Space
  0
BLOCK_RECORD
  5
222
100
AcDbSymbolTableRecord
100
AcDbBlockTableRecord
  2
*Paper_Space
  0
BLOCK_RECORD
  5
223
100
AcDbSymbolTableRecord
100
AcDbBlockTableRecord
  2
_FILLED
  0
ENDTAB
  0
TABLE
  2
DIMSTYLE
  5
A
100
AcDbSymbolTable
 70
1
100
AcDbDimStyleTable
 71
0
  0
DIMSTYLE
105
224
100
AcDbSymbolTableRecord
100
AcDbDimStyleTableRecord
  2
STANDARD
 70
0
  3

  4

 40
1.0
 41
3.0
 42
0.5
 43
0.38
 44
1.5
 45
0.0
 46
0.0
 47
0.01
 48
0.01
140
3.0
141
0.0
142
0.0
143
25.4
144
1.0
145
0.0
146
1.0
147
0.625
 71
1
 72
0
 73
0
 74
0
 75
0
 76
0
 77
1
 78
8
 79
2
170
0
171
1
172
0
173
0
174
0
175
0
176
0
177
0
178
0
270
2
179
1
271
2
272
2
273
2
274
2
275
0
280
0
281
0
282
0
283
1
284
8
285
0
286
0
287
3
288
0
340
11
278
44
341
223
342
223
343
223
344
223
  0
ENDTAB
  0
ENDSEC
  0
SECTION
  2
BLOCKS
  0
BLOCK
  5
20
100
AcDbEntity
  8
0
100
AcDbBlockBegin
  2
*Model_Space
 70
0
 10
0.0
 20
0.0
 30
0.0
  3
*Model_Space
  1

  0
ENDBLK
  5
21
100
AcDbEntity
  8
0
100
AcDbBlockEnd
  0
BLOCK
  5
1C
100
AcDbEntity
  8
0
100
AcDbBlockBegin
  2
*Paper_Space
 70
0
 10
0.0
 20
0.0
 30
0.0
  3
*Paper_Space
  1

  0
ENDBLK
  5
1D
100
AcDbEntity
  8
0
100
AcDbBlockEnd
  0
BLOCK
  5
225
100
AcDbEntity
  8
0
100
AcDbBlockBegin
  2
_FILLED
 70
64
 10
0.0
 20
0.0
 30
0.0
  3
_FILLED
  1

  0
SOLID
  5
226
100
AcDbEntity
  8
0
  6
BYBLOCK
 62
0
100
AcDbTrace
 10
0.0
 20
0.0
 30
0.0
 11
-1.0
 21
0.3166666667
 31
0.0
 12
-1.0
 22
-0.3166666667
 32
0.0
 13
-1.0
 23
-0.3166666667
 33
0.0
  0
ENDBLK
  5
227
100
AcDbEntity
  8
0
  6
BYBLOCK
 62
0
100
AcDbBlockEnd
  0
ENDSEC
  0
SECTION
  2
ENTITIES
  0
LWPOLYLINE
  5
228
100
AcDbEntity
  8
0
100
AcDbPolyline
 62
7
  6
CONTINUOUS
 90
19
 70
0
 10
-19.911046692
 20
19.9493308051
 10
-19.9625838897
 20
19.9177467416
 10
-20.049206354
 20
19.8575402023
 10
-20.1323832407
 20
19.7907485686
 10
-20.211969973
 20
19.7177945096
 10
-20.2878292987
 20
19.6390941801
 10
-20.3596837185
 20
19.5551429247
 10
-20.4273599539
 20
19.4663376358
 10
-20.4906360465
 20
19.3730856267
 10
-20.5491002997
 20
19.2760579671
 10
-20.6025490507
 20
19.1756945572
 10
-20.6507408944
 20
19.0724131723
 10
-20.6933078344
 20
18.9669755452
 10
-20.7300450274
 20
18.8598379177
 10
-20.76071633
 20
18.7514227752
 10
-20.7850481133
 20
18.6423938817
 10
-20.8028100486
 20
18.5331900311
 10
-20.8137821157
 20
18.4241596677
 10
-20.8168583139
 20
18.3636545386
  0
LWPOLYLINE
  5
229
100
AcDbEntity
  8
RACCORDO
100
AcDbPolyline
 62
7
  6
CONTINUOUS
 90
19
 70
0
 10
-19.911046692
 20
19.9493308051
 10
-19.9625838897
 20
19.9177467416
 10
-20.049206354
 20
19.8575402023
 10
-20.1323832407
 20
19.7907485686
 10
-20.211969973
 20
19.7177945096
 10
-20.2878292987
 20
19.6390941801
 10
-20.3596837185
 20
19.5551429247
 10
-20.4273599539
 20
19.4663376358
 10
-20.4906360465
 20
19.3730856267
 10
-20.5491002997
 20
19.2760579671
 10
-20.6025490507
 20
19.1756945572
 10
-20.6507408944
 20
19.0724131723
 10
-20.6933078344
 20
18.9669755452
 10
-20.7300450274
 20
18.8598379177
 10
-20.76071633
 20
18.7514227752
 10
-20.7850481133
 20
18.6423938817
 10
-20.8028100486
 20
18.5331900311
 10
-20.8137821157
 20
18.4241596677
 10
-20.8168583139
 20
18.3636545386
  0
LINE
  5
22A
100
AcDbEntity
  8
268140580
100
AcDbLine
 62
7
  6
CONTINUOUS
 10
-15.6317627084
 20
22.4622146209
 30
0.0
 11
-15.3010176068
 21
22.6550693091
 31
0.0
  0
LINE
  5
22B
100
AcDbEntity
  8
0
100
AcDbLine
 62
7
  6
CONTINUOUS
 10
-19.9111671234
 20
19.9492653044
 30
0.0
 11
-17.9269658602
 21
21.1062363797
 31
0.0
  0
LINE
  5
22C
100
AcDbEntity
  8
RACCORDO
100
AcDbLine
 62
7
  6
CONTINUOUS
 10
-19.9111671234
 20
19.9492653044
 30
0.0
 11
-17.9269658602
 21
21.1062363797
 31
0.0
  0
LINE
  5
22D
100
AcDbEntity
  8
268140580
100
AcDbLine
 62
250
  6
CONTINUOUS
 10
-15.4446404882
 20
22.4554566732
 30
0.0
 11
-15.3010176068
 21
22.5392019679
 31
0.0
  0
LINE
  5
22E
100
AcDbEntity
  8
0
100
AcDbLine
 62
250
  6
CONTINUOUS
 10
-19.677813076
 20
19.9404979112
 30
0.0
 11
-17.693063085
 21
21.097788945
 31
0.0
  0
LINE
  5
22F
100
AcDbEntity
  8
RACCORDO
100
AcDbLine
 62
250
  6
CONTINUOUS
 10
-19.677813076
 20
19.9404979112
 30
0.0
 11
-17.693063085
 21
21.097788945
 31
0.0
  0
LINE
  5
230
100
AcDbEntity
  8
268140580
100
AcDbLine
 62
7
  6
CONTINUOUS
 10
-15.8680035654
 20
23.9936503964
 30
0.0
 11
-13.7466832218
 21
25.0316375005
 31
0.0
  0
LINE
  5
231
100
AcDbEntity
  8
268140580
100
AcDbLine
 62
250
  6
CONTINUOUS
 10
-15.7565817398
 20
23.9863612241
 30
0.0
 11
-13.6352613963
 21
25.0243483282
 31
0.0
  0
LINE
  5
232
100
AcDbEntity
  8
268140580
100
AcDbLine
 62
250
  6
CONTINUOUS
 10
-12.291758512
 20
24.3525968861
 30
0.0
 11
-14.4130788556
 21
23.3146097819
 31
0.0
  0
LINE
  5
233
100
AcDbEntity
  8
268140580
100
AcDbLine
 62
250
  6
CONTINUOUS
 10
-12.1165244648
 20
24.0469391074
 30
0.0
 11
-14.2378448084
 21
23.0089520032
 31
0.0
  0
LINE
  5
234
100
AcDbEntity
  8
268140580
100
AcDbLine
 62
250
  6
CONTINUOUS
 10
-12.6468545507
 20
23.0611366034
 30
0.0
 11
-12.1165244648
 21
23.7013016464
 31
0.0
  0
LINE
  5
235
100
AcDbEntity
  8
268140580
100
AcDbLine
 62
7
  6
CONTINUOUS
 10
-12.6311122079
 20
22.9900369579
 30
0.0
 11
-12.100782122
 21
23.6302020009
 31
0.0
  0
LINE
  5
236
100
AcDbEntity
  8
268140580
100
AcDbLine
 62
7
  6
CONTINUOUS
 10
-12.6505527241
 20
22.1832171203
 30
0.0
 11
-13.5307380272
 21
21.686628755
 31
0.0
  0
LINE
  5
237
100
AcDbEntity
  8
268140580
100
AcDbLine
 62
7
  6
CONTINUOUS
 10
-14.4333668095
 20
19.8264460325
 30
0.0
 11
-14.7808282482
 21
19.6416715266
 31
0.0
  0
LINE
  5
238
100
AcDbEntity
  8
268140580
100
AcDbLine
 62
7
  6
CONTINUOUS
 10
-12.7904770508
 20
22.1134923285
 30
0.0
 11
-12.6431513022
 21
22.1871552028
 31
0.0
  0
LINE
  5
239
100
AcDbEntity
  8
268140580
100
AcDbLine
 62
7
  6
CONTINUOUS
 10
-4.7901381476
 20
25.3280131888
 30
0.0
 11
-11.2326409883
 21
22.1853035785
 31
0.0
  0
LINE
  5
23A
100
AcDbEntity
  8
RACCORDO
100
AcDbLine
 62
7
  6
CONTINUOUS
 10
-2.5316680139
 20
25.7755107243
 30
0.0
 11
-3.8951177818
 21
25.1325115909
 31
0.0
  0
LWPOLYLINE
  5
23B
100
AcDbEntity
  8
RACCORDO
100
AcDbPolyline
 62
7
  6
CONTINUOUS
 90
12
 70
0
 10
-5.400458358
 20
-25.6280725788
 10
-5.3633936609
 20
-25.6456077678
 10
-5.2888938617
 20
-25.6748365567
 10
-5.2114500913
 20
-25.6974695878
 10
-5.1314502646
 20
-25.7132875823
 10
-5.0490163251
 20
-25.7221046567
 10
-4.9645950478
 20
-25.7236961331
 10
-4.8786688769
 20
-25.7178990745
 10
-4.7912760986
 20
-25.7045069681
 10
-4.7026577161
 20
-25.6832802221
 10
-4.6133882406
 20
-25.6541146984
 10
-4.5650110635
 20
-25.6350030866
  0
LWPOLYLINE
  5
23C
100
AcDbEntity
  8
0
100
AcDbPolyline
 62
7
  6
CONTINUOUS
 90
12
 70
0
 10
-5.400458358
 20
-25.6280725788
 10
-5.3633936609
 20
-25.6456077678
 10
-5.2888938617
 20
-25.6748365567
 10
-5.2114500913
 20
-25.6974695878
 10
-5.1314502646
 20
-25.7132875823
 10
-5.0490163251
 20
-25.7221046567
 10
-4.9645950478
 20
-25.7236961331
 10
-4.8786688769
 20
-25.7178990745
 10
-4.7912760986
 20
-25.7045069681
 10
-4.7026577161
 20
-25.6832802221
 10
-4.6133882406
 20
-25.6541146984
 10
-4.5650110635
 20
-25.6350030866
  0
LINE
  5
23D
100
AcDbEntity
  8
RACCORDO
100
AcDbLine
 62
7
  6
CONTINUOUS
 10
-5.3993480764
 20
-25.6286291891
 30
0.0
 11
-20.2859624645
 21
-18.1853219951
 31
0.0
  0
LINE
  5
23E
100
AcDbEntity
  8
0
100
AcDbLine
 62
7
  6
CONTINUOUS
 10
-5.3993480764
 20
-25.6286291891
 30
0.0
 11
-20.2859624645
 21
-18.1853219951
 31
0.0
  0
LINE
  5
23F
100
AcDbEntity
  8
RACCORDO
100
AcDbLine
 62
250
  6
CONTINUOUS
 10
-5.7928162621
 20
-24.8680337679
 30
0.0
 11
-20.670378951
 21
-17.4292524235
 31
0.0
  0
LINE
  5
240
100
AcDbEntity
  8
0
100
AcDbLine
 62
250
  6
CONTINUOUS
 10
-5.7928162621
 20
-24.8680337679
 30
0.0
 11
-20.670378951
 21
-17.4292524235
 31
0.0
  0
LINE
  5
241
100
AcDbEntity
  8
268140580
100
AcDbLine
 62
7
  6
CONTINUOUS
 10
-4.9747459748
 20
22.6626006558
 30
0.0
 11
-3.6312430906
 21
23.334352098
 31
0.0
  0
LINE
  5
242
100
AcDbEntity
  8
268140580
100
AcDbLine
 62
7
  6
CONTINUOUS
 10
-4.0088201486
 20
22.7920101784
 30
0.0
 11
-1.8634761376
 21
23.8646821838
 31
0.0
  0
LINE
  5
243
100
AcDbEntity
  8
268140580
100
AcDbLine
 62
7
  6
CONTINUOUS
 10
-3.981711185
 20
24.3148379708
 30
0.0
 11
-8.5809905589
 21
22.0643562399
 31
0.0
  0
LINE
  5
244
100
AcDbEntity
  8
268140580
100
AcDbLine
 62
7
  6
CONTINUOUS
 10
-10.4210902483
 20
21.7963813556
 30
0.0
 11
-4.5875443599
 21
24.6177545583
 31
0.0
  0
LINE
  5
245
100
AcDbEntity
  8
RACCORDO
100
AcDbLine
 62
250
  6
CONTINUOUS
 10
-2.0927832635
 20
25.7431077893
 30
0.0
 11
-3.6487402088
 21
25.0093228044
 31
0.0
  0
LINE
  5
246
100
AcDbEntity
  8
268140580
100
AcDbLine
 62
250
  6
CONTINUOUS
 10
1.2477936996
 20
-24.2804615752
 30
0.0
 11
0.7174636137
 21
-24.1706266181
 31
0.0
  0
LINE
  5
247
100
AcDbEntity
  8
268140580
100
AcDbLine
 62
250
  6
CONTINUOUS
 10
1.1594053519
 20
-23.9603790537
 30
0.0
 11
0.6290752661
 21
-23.8505440967
 31
0.0
  0
LINE
  5
248
100
AcDbEntity
  8
268140580
100
AcDbLine
 62
7
  6
CONTINUOUS
 10
-2.5056096224
 20
-25.1728992835
 30
0.0
 11
-1.1621067381
 21
-25.8446507257
 31
0.0
  0
LINE
  5
249
100
AcDbEntity
  8
268140580
100
AcDbLine
 62
250
  6
CONTINUOUS
 10
-2.5705829188
 20
-25.0376808334
 30
0.0
 11
-1.2270800346
 21
-25.7094322756
 31
0.0
  0
LINE
  5
24A
100
AcDbEntity
  8
268140580
100
AcDbLine
 62
250
  6
CONTINUOUS
 10
-1.2270800346
 20
-25.341121747
 30
0.0
 11
-2.4483251698
 21
-24.7304991794
 31
0.0
  0
LINE
  5
24B
100
AcDbEntity
  8
268140580
100
AcDbLine
 62
250
  6
CONTINUOUS
 10
-1.1386916869
 20
-25.1094275732
 30
0.0
 11
-2.3676514903
 21
-24.4949476715
 31
0.0
  0
LINE
  5
24C
100
AcDbEntity
  8
268140580
100
AcDbLine
 62
250
  6
CONTINUOUS
 10
-0.608361601
 20
-24.4692625302
 30
0.0
 11
-1.9518644853
 21
-23.7975110881
 31
0.0
  0
LWPOLYLINE
  5
24D
100
AcDbEntity
  8
RACCORDO
100
AcDbPolyline
 62
7
  6
CONTINUOUS
 90
15
 70
0
 10
-20.8168354594
 20
-17.2516413094
 10
-20.8137960114
 20
-17.3090942181
 10
-20.8033744978
 20
-17.4066490439
 10
-20.7866440062
 20
-17.5000911691
 10
-20.7638278898
 20
-17.5891471678
 10
-20.7351402158
 20
-17.6737322407
 10
-20.7007368539
 20
-17.75377882
 10
-20.6608307637
 20
-17.8290309534
 10
-20.6156783638
 20
-17.8992513286
 10
-20.565524935
 20
-17.9642281947
 10
-20.5107070392
 20
-18.0236451991
 10
-20.4516236461
 20
-18.0772200011
 10
-20.3887247731
 20
-18.1247207256
 10
-20.3225207869
 20
-18.1659314686
 10
-20.2850288896
 20
-18.1857874258
  0
LWPOLYLINE
  5
24E
100
AcDbEntity
  8
0
100
AcDbPolyline
 62
7
  6
CONTINUOUS
 90
15
 70
0
 10
-20.8168354594
 20
-17.2516413094
 10
-20.8137960114
 20
-17.3090942181
 10
-20.8033744978
 20
-17.4066490439
 10
-20.7866440062
 20
-17.5000911691
 10
-20.7638278898
 20
-17.5891471678
 10
-20.7351402158
 20
-17.6737322407
 10
-20.7007368539
 20
-17.75377882
 10
-20.6608307637
 20
-17.8290309534
 10
-20.6156783638
 20
-17.8992513286
 10
-20.565524935
 20
-17.9642281947
 10
-20.5107070392
 20
-18.0236451991
 10
-20.4516236461
 20
-18.0772200011
 10
-20.3887247731
 20
-18.1247207256
 10
-20.3225207869
 20
-18.1659314686
 10
-20.2850288896
 20
-18.1857874258
  0
LWPOLYLINE
  5
24F
100
AcDbEntity
  8
0
100
AcDbPolyline
 62
7
  6
CONTINUOUS
 90
13
 70
0
 10
-21.1106502261
 20
0.7431940095
 10
-21.1106342688
 20
0.7400378582
 10
-21.1087002104
 20
0.7105084038
 10
-21.1035217291
 20
0.6810883283
 10
-21.0950650558
 20
0.6519832834
 10
-21.0833235495
 20
0.6234743899
 10
-21.0683517334
 20
0.5958938052
 10
-21.050173603
 20
0.5694352886
 10
-21.0288278958
 20
0.5442734942
 10
-21.0043820117
 20
0.5205903241
 10
-20.9767752735
 20
0.4984508549
 10
-20.94589523
 20
0.4779212566
 10
-20.9122907141
 20
0.4594133428
  0
LWPOLYLINE
  5
250
100
AcDbEntity
  8
RACCORDO
100
AcDbPolyline
 62
7
  6
CONTINUOUS
 90
13
 70
0
 10
-21.1106502261
 20
0.7431940095
 10
-21.1106342688
 20
0.7400378582
 10
-21.1087002104
 20
0.7105084038
 10
-21.1035217291
 20
0.6810883283
 10
-21.0950650558
 20
0.6519832834
 10
-21.0833235495
 20
0.6234743899
 10
-21.0683517334
 20
0.5958938052
 10
-21.050173603
 20
0.5694352886
 10
-21.0288278958
 20
0.5442734942
 10
-21.0043820117
 20
0.5205903241
 10
-20.9767752735
 20
0.4984508549
 10
-20.94589523
 20
0.4779212566
 10
-20.9122907141
 20
0.4594133428
  0
LWPOLYLINE
  5
251
100
AcDbEntity
  8
RACCORDO
100
AcDbPolyline
 62
7
  6
CONTINUOUS
 90
10
 70
0
 10
-21.1106502965
 20
0.0655775305
 10
-21.1060813698
 20
-1.8397039692
 10
-21.0944318095
 20
-3.7849656065
 10
-21.0757274559
 20
-5.7264986048
 10
-21.0499685796
 20
-7.6642585973
 10
-21.0171556807
 20
-9.5982086984
 10
-20.9772892726
 20
-11.5283146062
 10
-20.9303699934
 20
-13.4545391665
 10
-20.876398958
 20
-15.3768381048
 10
-20.816842754
 20
-17.2516054316
  0
LWPOLYLINE
  5
252
100
AcDbEntity
  8
0
100
AcDbPolyline
 62
7
  6
CONTINUOUS
 90
10
 70
0
 10
-21.1106502965
 20
0.0655775305
 10
-21.1060813698
 20
-1.8397039692
 10
-21.0944318095
 20
-3.7849656065
 10
-21.0757274559
 20
-5.7264986048
 10
-21.0499685796
 20
-7.6642585973
 10
-21.0171556807
 20
-9.5982086984
 10
-20.9772892726
 20
-11.5283146062
 10
-20.9303699934
 20
-13.4545391665
 10
-20.876398958
 20
-15.3768381048
 10
-20.816842754
 20
-17.2516054316
  0
LWPOLYLINE
  5
253
100
AcDbEntity
  8
0
100
AcDbPolyline
 62
7
  6
CONTINUOUS
 90
10
 70
0
 10
-20.8168613794
 20
18.3637412883
 10
-20.876520478
 20
16.4237476767
 10
-20.930474048
 20
14.4457193585
 10
-20.9773768432
 20
12.4710485145
 10
-21.0172276189
 20
10.4997806292
 10
-21.050025607
 20
8.531953581
 10
-21.0757701634
 20
6.5676022819
 10
-21.0944606581
 20
4.6067642126
 10
-21.1060966906
 20
2.6494840938
 10
-21.1106502978
 20
0.7431653098
  0
LWPOLYLINE
  5
254
100
AcDbEntity
  8
RACCORDO
100
AcDbPolyline
 62
7
  6
CONTINUOUS
 90
10
 70
0
 10
-20.8168613794
 20
18.3637412883
 10
-20.876520478
 20
16.4237476767
 10
-20.930474048
 20
14.4457193585
 10
-20.9773768432
 20
12.4710485145
 10
-21.0172276189
 20
10.4997806292
 10
-21.050025607
 20
8.531953581
 10
-21.0757701634
 20
6.5676022819
 10
-21.0944606581
 20
4.6067642126
 10
-21.1060966906
 20
2.6494840938
 10
-21.1106502978
 20
0.7431653098
  0
LINE
  5
255
100
AcDbEntity
  8
268140580
100
AcDbLine
 62
7
  6
CONTINUOUS
 10
-4.0088201486
 20
22.1857923957
 30
0.0
 11
-2.5163012966
 21
22.9320518217
 31
0.0
  0
LINE
  5
256
100
AcDbEntity
  8
RACCORDO
100
AcDbLine
 62
250
  6
CONTINUOUS
 10
-4.6919571103
 20
21.4271569231
 30
0.0
 11
-4.6544981143
 21
21.4444567288
 31
0.0
  0
LINE
  5
257
100
AcDbEntity
  8
RACCORDO
100
AcDbLine
 62
7
  6
CONTINUOUS
 10
-4.8529222625
 20
21.4703418188
 30
0.0
 11
-4.9041541759
 21
21.4467222163
 31
0.0
  0
LINE
  5
258
100
AcDbEntity
  8
268140580
100
AcDbLine
 62
250
  6
CONTINUOUS
 10
1.1827824434
 20
-23.9684474607
 30
0.0
 11
1.1828204032
 21
-23.9684664298
 31
0.0
  0
LINE
  5
259
100
AcDbEntity
  8
268140580
100
AcDbLine
 62
250
  6
CONTINUOUS
 10
-0.5199732534
 20
-24.2375683564
 30
0.0
 11
-1.8634761376
 21
-23.5658169143
 31
0.0
  0
LINE
  5
25A
100
AcDbEntity
  8
268140580
100
AcDbLine
 62
7
  6
CONTINUOUS
 10
-0.5199732534
 20
-23.6686556291
 30
0.0
 11
-0.3031270672
 21
-23.7770787222
 31
0.0
  0
LINE
  5
25B
100
AcDbEntity
  8
268140580
100
AcDbLine
 62
250
  6
CONTINUOUS
 10
0.6290752661
 20
-23.8505440967
 30
0.0
 11
0.6197775604
 21
-23.8458952439
 31
0.0
  0
LINE
  5
25C
100
AcDbEntity
  8
268140580
100
AcDbLine
 62
250
  6
CONTINUOUS
 10
0.6139102231
 20
-23.6876314893
 30
0.0
 11
1.1594053519
 21
-23.9603790537
 31
0.0
  0
LINE
  5
25D
100
AcDbEntity
  8
268140580
100
AcDbLine
 62
7
  6
CONTINUOUS
 10
0.6139102231
 20
-23.6840113398
 30
0.0
 11
1.1828204032
 21
-23.9684664298
 31
0.0
  0
LINE
  5
25E
100
AcDbEntity
  8
CURVE
100
AcDbLine
 62
250
  6
CONTINUOUS
 10
-14.0850201215
 20
-15.7898458719
 30
0.0
 11
-14.6153502126
 21
-15.5246808264
 31
0.0
  0
LINE
  5
25F
100
AcDbEntity
  8
268140580
100
AcDbLine
 62
7
  6
CONTINUOUS
 10
-0.0204996544
 20
-22.6008314849
 30
0.0
 11
-1.1748832486
 21
-22.0236396878
 31
0.0
  0
LINE
  5
260
100
AcDbEntity
  8
268140580
100
AcDbLine
 62
7
  6
CONTINUOUS
 10
-0.8151585606
 20
-21.8499486412
 30
0.0
 11
0.130763464
 21
-22.3229096535
 31
0.0
  0
LINE
  5
261
100
AcDbEntity
  8
RACCORDO
100
AcDbLine
 62
7
  6
CONTINUOUS
 10
-5.7980951416
 20
20.6729085313
 30
0.0
 11
-4.9421619174
 21
21.4220161893
 31
0.0
  0
LINE
  5
262
100
AcDbEntity
  8
RACCORDO
100
AcDbLine
 62
250
  6
CONTINUOUS
 10
-5.6441925868
 20
20.5959572539
 30
0.0
 11
-4.6935620351
 21
21.4279434488
 31
0.0
  0
LINE
  5
263
100
AcDbEntity
  8
268140580
100
AcDbLine
 62
7
  6
CONTINUOUS
 10
2.3791645495
 20
21.7433618403
 30
0.0
 11
1.8659947743
 21
21.4867769527
 31
0.0
  0
LINE
  5
264
100
AcDbEntity
  8
268140580
100
AcDbLine
 62
7
  6
CONTINUOUS
 10
-4.1928628851
 20
18.682267674
 30
0.0
 11
1.5738694582
 21
21.5370476492
 31
0.0
  0
LINE
  5
265
100
AcDbEntity
  8
268140580
100
AcDbLine
 62
7
  6
CONTINUOUS
 10
0.9680362833
 20
21.8399642367
 30
0.0
 11
-3.6312430906
 21
19.5894825057
 31
0.0
  0
LINE
  5
266
100
AcDbEntity
  8
RACCORDO
100
AcDbLine
 62
250
  6
CONTINUOUS
 10
12.0486378756
 20
25.5922997351
 30
0.0
 11
5.9144839956
 21
22.7593441944
 31
0.0
  0
LWPOLYLINE
  5
267
100
AcDbEntity
  8
RACCORDO
100
AcDbPolyline
 62
7
  6
CONTINUOUS
 90
81
 70
0
 10
11.6170184506
 20
25.6280934414
 10
5.480158397
 20
22.793897202
 10
5.4735425104
 20
22.7909378073
 10
5.4663999115
 20
22.7878511159
 10
5.4587230853
 20
22.7846476636
 10
5.4505093721
 20
22.7813399448
 10
5.441761498
 20
22.7779423828
 10
5.4324757711
 20
22.7744664896
 10
5.4226500489
 20
22.7709241439
 10
5.4122914657
 20
22.7673302307
 10
5.401400704
 20
22.7636970041
 10
5.3899769996
 20
22.760035948
 10
5.378027214
 20
22.7563605974
 10
5.3655538062
 20
22.752682736
 10
5.3525588663
 20
22.749013952
 10
5.3390498972
 20
22.7453669897
 10
5.3250308475
 20
22.7417531558
 10
5.3105067362
 20
22.738183851
 10
5.2954878031
 20
22.7346715428
 10
5.2799778366
 20
22.7312267293
 10
5.2639866261
 20
22.727860889
 10
5.2475350107
 20
22.724587404
 10
5.2306293711
 20
22.7214162305
 10
5.2132824566
 20
22.7183581046
 10
5.1955269121
 20
22.715426451
 10
5.1773750967
 20
22.7126306267
 10
5.1588396936
 20
22.7099796254
 10
5.139956113
 20
22.7074848288
 10
5.120739679
 20
22.7051540995
 10
5.1012050325
 20
22.7029949753
 10
5.0813882675
 20
22.7010165199
 10
5.0613065328
 20
22.6992248821
 10
5.0409765684
 20
22.69762602
 10
5.0204350608
 20
22.6962267123
 10
4.9997002741
 20
22.6950314025
 10
4.9787908099
 20
22.6940442705
 10
4.9577447164
 20
22.6932698367
 10
4.9365804217
 20
22.6927108211
 10
4.9153184325
 20
22.6923695266
 10
4.894000459
 20
22.6922480684
 10
4.8726461817
 20
22.6923473455
 10
4.8512759602
 20
22.6926676598
 10
4.8299326781
 20
22.6932083748
 10
4.8086366292
 20
22.6939684727
 10
4.7874074914
 20
22.6949463336
 10
4.7662869384
 20
22.6961385668
 10
4.7452953058
 20
22.6975422094
 10
4.7244509803
 20
22.6991538526
 10
4.7037920366
 20
22.7009677253
 10
4.6833368152
 20
22.7029790982
 10
4.6631034677
 20
22.7051828493
 10
4.6431287751
 20
22.7075709237
 10
4.6234293428
 20
22.7101368192
 10
4.6040218994
 20
22.7128738076
 10
4.5849420506
 20
22.7157716212
 10
4.5662043459
 20
22.7188221525
 10
4.5478234783
 20
22.7220171139
 10
4.5298334937
 20
22.725344113
 10
4.5122466876
 20
22.7287936832
 10
4.4950750112
 20
22.7323561054
 10
4.4783497055
 20
22.7360171408
 10
4.4620830247
 20
22.739765624
 10
4.44628104
 20
22.7435913466
 10
4.4309634425
 20
22.7474805189
 10
4.4161394238
 20
22.751421391
 10
4.4018125699
 20
22.7554032628
 10
4.387992574
 20
22.7594133862
 10
4.3746839004
 20
22.7634403051
 10
4.3618901883
 20
22.7674725331
 10
4.349618701
 20
22.7714969948
 10
4.3378712487
 20
22.7755020005
 10
4.3266496824
 20
22.7794757814
 10
4.3159601193
 20
22.7834046538
 10
4.3058012435
 20
22.7872771819
 10
4.2961733606
 20
22.7910810865
 10
4.2870831068
 20
22.7948012915
 10
4.2785279685
 20
22.7984259388
 10
4.2705037371
 20
22.8019436534
 10
4.2630125059
 20
22.8053400066
 10
4.2560511548
 20
22.808602637
 10
4.2496117931
 20
22.8117212115
  0
LINE
  5
268
100
AcDbEntity
  8
CURVE
100
AcDbLine
 62
250
  6
CONTINUOUS
 10
-14.6794713457
 20
-12.5256524796
 30
0.0
 11
-14.1491412545
 21
-12.7908175252
 31
0.0
  0
LINE
  5
269
100
AcDbEntity
  8
268140580
100
AcDbLine
 62
7
  6
CONTINUOUS
 10
-16.0081243879
 20
23.4007812644
 30
0.0
 11
-16.0081243879
 21
23.769091793
 31
0.0
  0
LINE
  5
26A
100
AcDbEntity
  8
268140580
100
AcDbLine
 62
250
  6
CONTINUOUS
 10
-15.9349010832
 20
23.3123929167
 30
0.0
 11
-15.9349010832
 21
23.6807034453
 31
0.0
  0
LINE
  5
26B
100
AcDbEntity
  8
268140580
100
AcDbLine
 62
7
  6
CONTINUOUS
 10
-15.727267901
 20
21.2792094358
 30
0.0
 11
-15.727267901
 21
22.2502016647
 31
0.0
  0
LINE
  5
26C
100
AcDbEntity
  8
268140580
100
AcDbLine
 62
7
  6
CONTINUOUS
 10
-15.3010176068
 20
22.4387452749
 30
0.0
 11
-15.3010176068
 21
22.8927193766
 31
0.0
  0
LINE
  5
26D
100
AcDbEntity
  8
268140580
100
AcDbLine
 62
7
  6
CONTINUOUS
 10
-3.7056306419
 20
17.7107560792
 30
0.0
 11
-4.1928628851
 21
17.432862679
 31
0.0
  0
LINE
  5
26E
100
AcDbEntity
  8
268140580
100
AcDbLine
 62
7
  6
CONTINUOUS
 10
5.3058265594
 20
20.2800308353
 30
0.0
 11
0.6986386586
 21
17.9188660428
 31
0.0
  0
LINE
  5
26F
100
AcDbEntity
  8
268140580
100
AcDbLine
 62
7
  6
CONTINUOUS
 10
-3.6982718496
 20
17.7147154765
 30
0.0
 11
1.922318979
 21
20.5575710632
 31
0.0
  0
LINE
  5
270
100
AcDbEntity
  8
268140580
100
AcDbLine
 62
7
  6
CONTINUOUS
 10
-2.503685401
 20
17.3114913142
 30
0.0
 11
-0.3823650574
 21
18.3494784183
 31
0.0
  0
LINE
  5
271
100
AcDbEntity
  8
268140580
100
AcDbLine
 62
250
  6
CONTINUOUS
 10
-2.3922635754
 20
17.3042021419
 30
0.0
 11
-0.2709432318
 21
18.342189246
 31
0.0
  0
LINE
  5
272
100
AcDbEntity
  8
0
100
AcDbLine
 62
7
  6
CONTINUOUS
 10
9.803785752
 20
22.0640666224
 30
0.0
 11
14.0464264391
 21
24.1400408307
 31
0.0
  0
LINE
  5
273
100
AcDbEntity
  8
268140580
100
AcDbLine
 62
250
  6
CONTINUOUS
 10
1.0725596524
 20
17.6704378039
 30
0.0
 11
-1.0487606912
 21
16.6324506997
 31
0.0
  0
LINE
  5
274
100
AcDbEntity
  8
RACCORDO
100
AcDbLine
 62
7
  6
CONTINUOUS
 10
9.460919734
 20
23.4245895511
 30
0.0
 11
12.9981069822
 21
25.1175651818
 31
0.0
  0
LINE
  5
275
100
AcDbEntity
  8
RACCORDO
100
AcDbLine
 62
7
  6
CONTINUOUS
 10
9.803785752
 20
22.4925833981
 30
0.0
 11
14.0415983238
 21
24.5208937216
 31
0.0
  0
LINE
  5
276
100
AcDbEntity
  8
268140580
100
AcDbLine
 62
7
  6
CONTINUOUS
 10
-15.2592922039
 20
19.8809035045
 30
0.0
 11
-15.2592922039
 21
21.0452215873
 31
0.0
  0
LINE
  5
277
100
AcDbEntity
  8
268140580
100
AcDbLine
 62
250
  6
CONTINUOUS
 10
-15.2277943021
 20
22.3470335801
 30
0.0
 11
-15.2277943021
 21
22.8561077243
 31
0.0
  0
LINE
  5
278
100
AcDbEntity
  8
268140580
100
AcDbLine
 62
250
  6
CONTINUOUS
 10
-15.1714242382
 20
19.8369695216
 30
0.0
 11
-15.1714242382
 21
21.0012876044
 31
0.0
  0
LINE
  5
279
100
AcDbEntity
  8
268140580
100
AcDbLine
 62
250
  6
CONTINUOUS
 10
-14.591398199
 20
23.0089520032
 30
0.0
 11
-14.591398199
 21
22.6406414746
 31
0.0
  0
LINE
  5
27A
100
AcDbEntity
  8
268140580
100
AcDbLine
 62
7
  6
CONTINUOUS
 10
-14.5728843068
 20
19.7522528307
 30
0.0
 11
-14.5728843068
 21
20.7020176387
 31
0.0
  0
LINE
  5
27B
100
AcDbEntity
  8
268140580
100
AcDbLine
 62
250
  6
CONTINUOUS
 10
-14.2378448084
 20
23.0089520032
 30
0.0
 11
-14.2378448084
 21
22.6406414746
 31
0.0
  0
LINE
  5
27C
100
AcDbEntity
  8
268140580
100
AcDbLine
 62
250
  6
CONTINUOUS
 10
-13.8842914178
 20
22.2441948652
 30
0.0
 11
-13.8842914178
 21
21.675282138
 31
0.0
  0
LINE
  5
27D
100
AcDbEntity
  8
268140580
100
AcDbLine
 62
250
  6
CONTINUOUS
 10
-13.5307380272
 20
22.2441948652
 30
0.0
 11
-13.5307380272
 21
21.686628755
 31
0.0
  0
LINE
  5
27E
100
AcDbEntity
  8
268140580
100
AcDbLine
 62
7
  6
CONTINUOUS
 10
0.7137654403
 20
15.5010580381
 30
0.0
 11
-0.1664198628
 21
15.0044696728
 31
0.0
  0
LINE
  5
27F
100
AcDbEntity
  8
0
100
AcDbLine
 62
250
  6
CONTINUOUS
 10
-2.7216092262
 20
13.6120620156
 30
0.0
 11
-4.7768780072
 21
12.4900303767
 31
0.0
  0
LINE
  5
280
100
AcDbEntity
  8
RACCORDO
100
AcDbLine
 62
250
  6
CONTINUOUS
 10
-2.7216092262
 20
13.6120620156
 30
0.0
 11
-4.7768780072
 21
12.4900303767
 31
0.0
  0
LINE
  5
281
100
AcDbEntity
  8
268140580
100
AcDbLine
 62
250
  6
CONTINUOUS
 10
0.7685215463
 20
15.4697444402
 30
0.0
 11
-0.3031270672
 21
14.8846999627
 31
0.0
  0
LINE
  5
282
100
AcDbEntity
  8
0
100
AcDbLine
 62
7
  6
CONTINUOUS
 10
9.5150875462
 20
21.1391283163
 30
0.0
 11
10.1068334597
 21
21.4511676372
 31
0.0
  0
LINE
  5
283
100
AcDbEntity
  8
DRAFT
100
AcDbLine
 62
7
  6
CONTINUOUS
 10
1.4256263236
 20
15.8561699225
 30
0.0
 11
7.0129400123
 21
18.7912415142
 31
0.0
  0
LINE
  5
284
100
AcDbEntity
  8
268140580
100
AcDbLine
 62
7
  6
CONTINUOUS
 10
6.736873658
 20
18.9725759616
 30
0.0
 11
1.0152156919
 21
16.0613752384
 31
0.0
  0
LINE
  5
285
100
AcDbEntity
  8
268140580
100
AcDbLine
 62
7
  6
CONTINUOUS
 10
6.736873658
 20
19.3742836898
 30
0.0
 11
0.7880331711
 21
16.3740601782
 31
0.0
  0
LINE
  5
286
100
AcDbEntity
  8
0
100
AcDbLine
 62
7
  6
CONTINUOUS
 10
10.7300956353
 20
21.4755632793
 30
0.0
 11
10.2351208885
 21
21.2280759059
 31
0.0
  0
LINE
  5
287
100
AcDbEntity
  8
268140580
100
AcDbLine
 62
7
  6
CONTINUOUS
 10
0.5738411137
 20
15.4313332463
 30
0.0
 11
0.7211668622
 21
15.5049961206
 31
0.0
  0
LINE
  5
288
100
AcDbEntity
  8
RACCORDO
100
AcDbLine
 62
7
  6
CONTINUOUS
 10
11.8868092368
 20
21.0003309761
 30
0.0
 11
13.198244493
 21
21.6560486042
 31
0.0
  0
LINE
  5
289
100
AcDbEntity
  8
268140580
100
AcDbLine
 62
250
  6
CONTINUOUS
 10
1.2477936996
 20
17.3647800251
 30
0.0
 11
-0.873526644
 21
16.326792921
 31
0.0
  0
LINE
  5
28A
100
AcDbEntity
  8
268140580
100
AcDbLine
 62
250
  6
CONTINUOUS
 10
1.4952379881
 20
15.8213640903
 30
0.0
 11
0.7833243901
 21
15.4776206052
 31
0.0
  0
LINE
  5
28B
100
AcDbEntity
  8
268140580
100
AcDbLine
 62
7
  6
CONTINUOUS
 10
-1.0272582862
 20
-15.4521463901
 30
0.0
 11
-1.3957291593
 21
-15.2679109535
 31
0.0
  0
LINE
  5
28C
100
AcDbEntity
  8
268140580
100
AcDbLine
 62
7
  6
CONTINUOUS
 10
-1.7927654595
 20
-14.1298330702
 30
0.0
 11
-1.6078433888
 21
-14.2222941055
 31
0.0
  0
LINE
  5
28D
100
AcDbEntity
  8
268140580
100
AcDbLine
 62
250
  6
CONTINUOUS
 10
-12.823631246
 20
22.2701203116
 30
0.0
 11
-12.823631246
 21
22.5977482558
 31
0.0
  0
LINE
  5
28E
100
AcDbEntity
  8
268140580
100
AcDbLine
 62
7
  6
CONTINUOUS
 10
-12.7504079413
 20
22.3585086593
 30
0.0
 11
-12.7504079413
 21
22.6861366034
 31
0.0
  0
LINE
  5
28F
100
AcDbEntity
  8
268140580
100
AcDbLine
 62
250
  6
CONTINUOUS
 10
-12.1165244648
 20
23.7013016464
 30
0.0
 11
-12.1165244648
 21
24.0469391074
 31
0.0
  0
LINE
  5
290
100
AcDbEntity
  8
268140580
100
AcDbLine
 62
7
  6
CONTINUOUS
 10
-12.0433011601
 20
23.789689994
 30
0.0
 11
-12.0433011601
 21
24.135327455
 31
0.0
  0
LWPOLYLINE
  5
291
100
AcDbEntity
  8
RACCORDO
100
AcDbPolyline
 62
7
  6
CONTINUOUS
 90
12
 70
0
 10
-20.9214981815
 20
0.3490393008
 10
-20.9529197894
 20
0.3304782634
 10
-20.9828905784
 20
0.3092700903
 10
-21.0096344881
 20
0.2865158167
 10
-21.0332488763
 20
0.2622997815
 10
-21.0537991738
 20
0.2366905847
 10
-21.0712206384
 20
0.209882796
 10
-21.085478056
 20
0.1820631814
 10
-21.0965663047
 20
0.1534065508
 10
-21.1044436208
 20
0.124234733
 10
-21.1091247647
 20
0.0948198873
 10
-21.1106502505
 20
0.0655580625
  0
LWPOLYLINE
  5
292
100
AcDbEntity
  8
0
100
AcDbPolyline
 62
7
  6
CONTINUOUS
 90
12
 70
0
 10
-20.9214981815
 20
0.3490393008
 10
-20.9529197894
 20
0.3304782634
 10
-20.9828905784
 20
0.3092700903
 10
-21.0096344881
 20
0.2865158167
 10
-21.0332488763
 20
0.2622997815
 10
-21.0537991738
 20
0.2366905847
 10
-21.0712206384
 20
0.209882796
 10
-21.085478056
 20
0.1820631814
 10
-21.0965663047
 20
0.1534065508
 10
-21.1044436208
 20
0.124234733
 10
-21.1091247647
 20
0.0948198873
 10
-21.1106502505
 20
0.0655580625
  0
LINE
  5
293
100
AcDbEntity
  8
268140580
100
AcDbLine
 62
250
  6
CONTINUOUS
 10
1.0611877383
 20
14.9873424836
 30
0.0
 11
-0.0204996544
 21
14.3968175414
 31
0.0
  0
LINE
  5
294
100
AcDbEntity
  8
0
100
AcDbLine
 62
250
  6
CONTINUOUS
 10
-2.3683249603
 20
13.0022089891
 30
0.0
 11
-4.4110452671
 21
11.887027931
 31
0.0
  0
LINE
  5
295
100
AcDbEntity
  8
RACCORDO
100
AcDbLine
 62
250
  6
CONTINUOUS
 10
-2.3683249603
 20
13.0022089891
 30
0.0
 11
-4.4110452671
 21
11.887027931
 31
0.0
  0
LINE
  5
296
100
AcDbEntity
  8
0
100
AcDbLine
 62
7
  6
CONTINUOUS
 10
-1.7927654595
 20
12.4659295138
 30
0.0
 11
-2.3683249603
 21
12.1517146647
 31
0.0
  0
LINE
  5
297
100
AcDbEntity
  8
DRAFT
100
AcDbLine
 62
7
  6
CONTINUOUS
 10
-1.7927654595
 20
12.4659295138
 30
0.0
 11
-2.3683249603
 21
12.1517146647
 31
0.0
  0
LINE
  5
298
100
AcDbEntity
  8
268140580
100
AcDbLine
 62
7
  6
CONTINUOUS
 10
-1.8180865905
 20
13.5205863627
 30
0.0
 11
-2.4058596377
 21
13.2151224505
 31
0.0
  0
LINE
  5
299
100
AcDbEntity
  8
RACCORDO
100
AcDbLine
 62
250
  6
CONTINUOUS
 10
18.745203277
 20
21.859475219
 30
0.0
 11
1.7781237855
 21
13.2274262346
 31
0.0
  0
LINE
  5
29A
100
AcDbEntity
  8
RACCORDO
100
AcDbLine
 62
7
  6
CONTINUOUS
 10
13.2928151551
 20
20.8548057978
 30
0.0
 11
14.0467462094
 21
21.2317713249
 31
0.0
  0
LINE
  5
29B
100
AcDbEntity
  8
268140580
100
AcDbLine
 62
250
  6
CONTINUOUS
 10
-1.1748832486
 20
12.8298210055
 30
0.0
 11
-1.8545918135
 21
12.4968426909
 31
0.0
  0
LINE
  5
29C
100
AcDbEntity
  8
RACCORDO
100
AcDbLine
 62
250
  6
CONTINUOUS
 10
7.758466948
 20
17.5053977554
 30
0.0
 11
18.1383775898
 21
22.547429878
 31
0.0
  0
LINE
  5
29D
100
AcDbEntity
  8
RACCORDO
100
AcDbLine
 62
250
  6
CONTINUOUS
 10
8.0961352818
 20
16.9230060283
 30
0.0
 11
18.6383014374
 21
22.0438536187
 31
0.0
  0
LINE
  5
29E
100
AcDbEntity
  8
268140580
100
AcDbLine
 62
250
  6
CONTINUOUS
 10
1.7781237855
 20
15.3335110301
 30
0.0
 11
1.0611877383
 21
14.9873424836
 31
0.0
  0
LINE
  5
29F
100
AcDbEntity
  8
268140580
100
AcDbLine
 62
7
  6
CONTINUOUS
 10
-0.0204996544
 20
13.4258253125
 30
0.0
 11
0.5512930095
 21
13.7019121911
 31
0.0
  0
LINE
  5
2A0
100
AcDbEntity
  8
RACCORDO
100
AcDbLine
 62
7
  6
CONTINUOUS
 10
17.5943010599
 20
22.8194681429
 30
0.0
 11
14.0571138117
 21
21.1264925122
 31
0.0
  0
LINE
  5
2A1
100
AcDbEntity
  8
268140580
100
AcDbLine
 62
7
  6
CONTINUOUS
 10
-10.5101835185
 20
21.6913224913
 30
0.0
 11
-10.5101835185
 21
20.430594864
 31
0.0
  0
LINE
  5
2A2
100
AcDbEntity
  8
268140580
100
AcDbLine
 62
250
  6
CONTINUOUS
 10
-10.4223155528
 20
21.5859205529
 30
0.0
 11
-10.4223155528
 21
20.3205408302
 31
0.0
  0
LINE
  5
2A3
100
AcDbEntity
  8
268140580
100
AcDbLine
 62
250
  6
CONTINUOUS
 10
0.7174636137
 20
16.3789775212
 30
0.0
 11
1.2477936996
 21
17.0191425642
 31
0.0
  0
LINE
  5
2A4
100
AcDbEntity
  8
268140580
100
AcDbLine
 62
7
  6
CONTINUOUS
 10
0.7332059565
 20
16.3078778757
 30
0.0
 11
1.2635360424
 21
16.9480429186
 31
0.0
  0
LINE
  5
2A5
100
AcDbEntity
  8
RACCORDO
100
AcDbLine
 62
7
  6
CONTINUOUS
 10
-20.9215026479
 20
0.3490475486
 30
0.0
 11
-20.8109110867
 21
0.4087143011
 31
0.0
  0
LINE
  5
2A6
100
AcDbEntity
  8
0
100
AcDbLine
 62
7
  6
CONTINUOUS
 10
-20.9215026479
 20
0.3490475486
 30
0.0
 11
-20.8109110867
 21
0.4087143011
 31
0.0
  0
LINE
  5
2A7
100
AcDbEntity
  8
RACCORDO
100
AcDbLine
 62
250
  6
CONTINUOUS
 10
-20.8289223451
 20
0.34502122
 30
0.0
 11
-20.7589876593
 21
0.3827525874
 31
0.0
  0
LINE
  5
2A8
100
AcDbEntity
  8
0
100
AcDbLine
 62
250
  6
CONTINUOUS
 10
-20.8289223451
 20
0.34502122
 30
0.0
 11
-20.7589876593
 21
0.3827525874
 31
0.0
  0
LINE
  5
2A9
100
AcDbEntity
  8
RACCORDO
100
AcDbLine
 62
250
  6
CONTINUOUS
 10
19.1593537527
 20
20.4278416444
 30
0.0
 11
1.7781237855
 21
11.5850924511
 31
0.0
  0
LWPOLYLINE
  5
2AA
100
AcDbEntity
  8
0
100
AcDbPolyline
 62
7
  6
CONTINUOUS
 90
14
 70
0
 10
-6.0454281685
 20
-6.9740168531
 10
-6.0044214105
 20
-6.9924024706
 10
-5.9611416678
 20
-7.0077815435
 10
-5.9163754411
 20
-7.0200838939
 10
-5.8703178356
 20
-7.0294704568
 10
-5.8233208061
 20
-7.035987793
 10
-5.7757075876
 20
-7.0396819021
 10
-5.7277658294
 20
-7.0405547251
 10
-5.6799827838
 20
-7.0385929509
 10
-5.6326460952
 20
-7.0337870502
 10
-5.5860893119
 20
-7.026076913
 10
-5.5406819861
 20
-7.0154060557
 10
-5.496621182
 20
-7.0016130796
 10
-5.4509437247
 20
-6.9830147474
  0
LWPOLYLINE
  5
2AB
100
AcDbEntity
  8
RACCORDO
100
AcDbPolyline
 62
7
  6
CONTINUOUS
 90
14
 70
0
 10
-6.0454281685
 20
-6.9740168531
 10
-6.0044214105
 20
-6.9924024706
 10
-5.9611416678
 20
-7.0077815435
 10
-5.9163754411
 20
-7.0200838939
 10
-5.8703178356
 20
-7.0294704568
 10
-5.8233208061
 20
-7.035987793
 10
-5.7757075876
 20
-7.0396819021
 10
-5.7277658294
 20
-7.0405547251
 10
-5.6799827838
 20
-7.0385929509
 10
-5.6326460952
 20
-7.0337870502
 10
-5.5860893119
 20
-7.026076913
 10
-5.5406819861
 20
-7.0154060557
 10
-5.496621182
 20
-7.0016130796
 10
-5.4509437247
 20
-6.9830147474
  0
LINE
  5
2AC
100
AcDbEntity
  8
RACCORDO
100
AcDbLine
 62
250
  6
CONTINUOUS
 10
-6.0970692261
 20
-7.5460560458
 30
0.0
 11
-20.9642028834
 21
-0.1124892171
 31
0.0
  0
LINE
  5
2AD
100
AcDbEntity
  8
0
100
AcDbLine
 62
250
  6
CONTINUOUS
 10
-6.0970692261
 20
-7.5460560458
 30
0.0
 11
-20.9642028834
 21
-0.1124892171
 31
0.0
  0
LINE
  5
2AE
100
AcDbEntity
  8
RACCORDO
100
AcDbLine
 62
250
  6
CONTINUOUS
 10
-5.9581160554
 20
-7.3032647245
 30
0.0
 11
-20.8252497128
 21
0.1303021042
 31
0.0
  0
LINE
  5
2AF
100
AcDbEntity
  8
0
100
AcDbLine
 62
250
  6
CONTINUOUS
 10
-5.9581160554
 20
-7.3032647245
 30
0.0
 11
-20.8252497128
 21
0.1303021042
 31
0.0
  0
LINE
  5
2B0
100
AcDbEntity
  8
0
100
AcDbLine
 62
7
  6
CONTINUOUS
 10
-20.9122242893
 20
0.4593709024
 30
0.0
 11
-6.0450906343
 21
-6.9741959251
 31
0.0
  0
LINE
  5
2B1
100
AcDbEntity
  8
RACCORDO
100
AcDbLine
 62
7
  6
CONTINUOUS
 10
-20.9122242893
 20
0.4593709024
 30
0.0
 11
-6.0450906343
 21
-6.9741959251
 31
0.0
  0
LINE
  5
2B2
100
AcDbEntity
  8
0
100
AcDbLine
 62
250
  6
CONTINUOUS
 10
-20.9642028834
 20
0.5676817197
 30
0.0
 11
-6.0970692261
 21
-6.8658851089
 31
0.0
  0
LINE
  5
2B3
100
AcDbEntity
  8
RACCORDO
100
AcDbLine
 62
250
  6
CONTINUOUS
 10
-20.9642028834
 20
0.5676817197
 30
0.0
 11
-6.0970692261
 21
-6.8658851089
 31
0.0
  0
LINE
  5
2B4
100
AcDbEntity
  8
RACCORDO
100
AcDbLine
 62
7
  6
CONTINUOUS
 10
-1.6078433888
 20
7.5310808144
 30
0.0
 11
-1.7927654595
 21
7.4356625454
 31
0.0
  0
LINE
  5
2B5
100
AcDbEntity
  8
268140580
100
AcDbLine
 62
250
  6
CONTINUOUS
 10
-0.8151585606
 20
8.1447238191
 30
0.0
 11
-1.7927654595
 21
7.6932325564
 31
0.0
  0
LINE
  5
2B6
100
AcDbEntity
  8
268140580
100
AcDbLine
 62
7
  6
CONTINUOUS
 10
-0.8962510616
 20
7.9809701504
 30
0.0
 11
-1.7927654595
 21
7.566930092
 31
0.0
  0
LINE
  5
2B7
100
AcDbEntity
  8
268140580
100
AcDbLine
 62
250
  6
CONTINUOUS
 10
-4.9747459748
 20
22.6626006558
 30
0.0
 11
-4.9747459748
 21
21.3934988164
 31
0.0
  0
LINE
  5
2B8
100
AcDbEntity
  8
268140580
100
AcDbLine
 62
250
  6
CONTINUOUS
 10
-4.6183452214
 20
17.4185556645
 30
0.0
 11
-4.6183452214
 21
18.6839353872
 31
0.0
  0
LINE
  5
2B9
100
AcDbEntity
  8
268140580
100
AcDbLine
 62
250
  6
CONTINUOUS
 10
-4.1928628851
 20
17.432862679
 30
0.0
 11
-4.1928628851
 21
18.682267674
 31
0.0
  0
LINE
  5
2BA
100
AcDbEntity
  8
RACCORDO
100
AcDbLine
 62
7
  6
CONTINUOUS
 10
-1.6078433888
 20
4.0164985695
 30
0.0
 11
-1.7927654595
 21
3.9237387722
 31
0.0
  0
LINE
  5
2BB
100
AcDbEntity
  8
268140580
100
AcDbLine
 62
7
  6
CONTINUOUS
 10
-1.7467076622
 20
-5.8553528694
 30
0.0
 11
-1.7927654595
 21
-5.8323239708
 31
0.0
  0
LINE
  5
2BC
100
AcDbEntity
  8
RACCORDO
100
AcDbLine
 62
7
  6
CONTINUOUS
 10
-2.0653513458
 20
-5.4194467338
 30
0.0
 11
-1.9341652766
 21
-5.4850397684
 31
0.0
  0
LINE
  5
2BD
100
AcDbEntity
  8
0
100
AcDbLine
 62
7
  6
CONTINUOUS
 10
-2.0653513458
 20
-5.4194467338
 30
0.0
 11
-1.9341652766
 21
-5.4850397684
 31
0.0
  0
LINE
  5
2BE
100
AcDbEntity
  8
268140580
100
AcDbLine
 62
7
  6
CONTINUOUS
 10
-4.0088201486
 20
22.7920101784
 30
0.0
 11
-4.0088201486
 21
22.1857923957
 31
0.0
  0
LINE
  5
2BF
100
AcDbEntity
  8
268140580
100
AcDbLine
 62
7
  6
CONTINUOUS
 10
-3.6312430906
 20
24.0570758039
 30
0.0
 11
-3.6312430906
 21
23.334352098
 31
0.0
  0
LINE
  5
2C0
100
AcDbEntity
  8
268140580
100
AcDbLine
 62
250
  6
CONTINUOUS
 10
-3.5605324125
 20
22.0563828732
 30
0.0
 11
-3.5605324125
 21
21.5326964831
 31
0.0
  0
LINE
  5
2C1
100
AcDbEntity
  8
268140580
100
AcDbLine
 62
7
  6
CONTINUOUS
 10
-2.6438062235
 20
-24.8285641202
 30
0.0
 11
-2.6438062235
 21
-24.9492924858
 31
0.0
  0
LINE
  5
2C2
100
AcDbEntity
  8
268140580
100
AcDbLine
 62
7
  6
CONTINUOUS
 10
-2.6438062235
 20
16.7186221822
 30
0.0
 11
-2.6438062235
 21
17.0869327107
 31
0.0
  0
LINE
  5
2C3
100
AcDbEntity
  8
268140580
100
AcDbLine
 62
250
  6
CONTINUOUS
 10
-2.5705829188
 20
-24.7978279511
 30
0.0
 11
-2.5705829188
 21
-25.0376808334
 31
0.0
  0
LINE
  5
2C4
100
AcDbEntity
  8
268140580
100
AcDbLine
 62
250
  6
CONTINUOUS
 10
-2.5705829188
 20
16.6302338345
 30
0.0
 11
-2.5705829188
 21
16.9985443631
 31
0.0
  0
LINE
  5
2C5
100
AcDbEntity
  8
0
100
AcDbLine
 62
7
  6
CONTINUOUS
 10
-2.3683249603
 20
13.0022089891
 30
0.0
 11
-2.3683249603
 21
12.1517146647
 31
0.0
  0
LINE
  5
2C6
100
AcDbEntity
  8
RACCORDO
100
AcDbLine
 62
7
  6
CONTINUOUS
 10
-2.3683249603
 20
13.0022089891
 30
0.0
 11
-2.3683249603
 21
12.1517146647
 31
0.0
  0
LINE
  5
2C7
100
AcDbEntity
  8
RACCORDO
100
AcDbLine
 62
7
  6
CONTINUOUS
 10
-2.3683249603
 20
-24.4962946114
 30
0.0
 11
-2.3683249603
 21
-23.645800287
 31
0.0
  0
LINE
  5
2C8
100
AcDbEntity
  8
0
100
AcDbLine
 62
7
  6
CONTINUOUS
 10
-2.3683249603
 20
-24.4962946114
 30
0.0
 11
-2.3683249603
 21
-23.645800287
 31
0.0
  0
LINE
  5
2C9
100
AcDbEntity
  8
268140580
100
AcDbLine
 62
7
  6
CONTINUOUS
 10
-1.9366994423
 20
-23.4646214266
 30
0.0
 11
-1.9366994423
 21
-23.4774285666
 31
0.0
  0
LINE
  5
2CA
100
AcDbEntity
  8
268140580
100
AcDbLine
 62
7
  6
CONTINUOUS
 10
-1.9366994423
 20
15.7565861927
 30
0.0
 11
-1.9366994423
 21
16.2105602944
 31
0.0
  0
LINE
  5
2CB
100
AcDbEntity
  8
268140580
100
AcDbLine
 62
7
  6
CONTINUOUS
 10
-1.5320344439
 20
3.7920570275
 30
0.0
 11
-1.7927654595
 21
3.654574903
 31
0.0
  0
LINE
  5
2CC
100
AcDbEntity
  8
268140580
100
AcDbLine
 62
250
  6
CONTINUOUS
 10
-1.3957291593
 20
3.7846479297
 30
0.0
 11
-1.7927654595
 21
3.5752927293
 31
0.0
  0
LINE
  5
2CD
100
AcDbEntity
  8
268140580
100
AcDbLine
 62
250
  6
CONTINUOUS
 10
-1.7927654595
 20
3.2147073896
 30
0.0
 11
-1.0272582862
 21
3.6004124932
 31
0.0
  0
LINE
  5
2CE
100
AcDbEntity
  8
268140580
100
AcDbLine
 62
250
  6
CONTINUOUS
 10
-1.7927654595
 20
2.7420218335
 30
0.0
 11
-0.8151585606
 21
3.2345945792
 31
0.0
  0
LINE
  5
2CF
100
AcDbEntity
  8
268140580
100
AcDbLine
 62
250
  6
CONTINUOUS
 10
-1.8634761376
 20
-23.4338852575
 30
0.0
 11
-1.8634761376
 21
-23.5658169143
 31
0.0
  0
LINE
  5
2D0
100
AcDbEntity
  8
268140580
100
AcDbLine
 62
250
  6
CONTINUOUS
 10
-1.8634761376
 20
15.6648744979
 30
0.0
 11
-1.8634761376
 21
16.173948642
 31
0.0
  0
LINE
  5
2D1
100
AcDbEntity
  8
0
100
AcDbLine
 62
7
  6
CONTINUOUS
 10
-1.7927654595
 20
12.4659295138
 30
0.0
 11
-1.7927654595
 21
-5.2093558954
 31
0.0
  0
LINE
  5
2D2
100
AcDbEntity
  8
RACCORDO
100
AcDbLine
 62
7
  6
CONTINUOUS
 10
-1.7927654595
 20
12.4659295138
 30
0.0
 11
-1.7927654595
 21
-5.2093558954
 31
0.0
  0
LINE
  5
2D3
100
AcDbEntity
  8
RACCORDO
100
AcDbLine
 62
7
  6
CONTINUOUS
 10
-1.7927654595
 20
-23.404203787
 30
0.0
 11
-1.7927654595
 21
-5.7289183778
 31
0.0
  0
LINE
  5
2D4
100
AcDbEntity
  8
0
100
AcDbLine
 62
7
  6
CONTINUOUS
 10
-1.7927654595
 20
-23.404203787
 30
0.0
 11
-1.7927654595
 21
-5.7289183778
 31
0.0
  0
LINE
  5
2D5
100
AcDbEntity
  8
268140580
100
AcDbLine
 62
7
  6
CONTINUOUS
 10
-1.6078433888
 20
-15.3004755227
 30
0.0
 11
-1.6078433888
 21
-14.2222941055
 31
0.0
  0
LINE
  5
2D6
100
AcDbEntity
  8
268140580
100
AcDbLine
 62
7
  6
CONTINUOUS
 10
-1.6078433888
 20
3.7520833605
 30
0.0
 11
-1.6078433888
 21
4.0941431845
 31
0.0
  0
LINE
  5
2D7
100
AcDbEntity
  8
268140580
100
AcDbLine
 62
7
  6
CONTINUOUS
 10
-1.6078433888
 20
7.3417384487
 30
0.0
 11
-1.6078433888
 21
7.6523332324
 31
0.0
  0
LINE
  5
2D8
100
AcDbEntity
  8
268140580
100
AcDbLine
 62
7
  6
CONTINUOUS
 10
-1.5346079366
 20
-2.146833888
 30
0.0
 11
-1.5346079366
 21
-6.2211707834
 31
0.0
  0
LINE
  5
2D9
100
AcDbEntity
  8
268140580
100
AcDbLine
 62
250
  6
CONTINUOUS
 10
-1.2270800346
 20
16.326792921
 30
0.0
 11
-1.2270800346
 21
15.9584823924
 31
0.0
  0
LINE
  5
2DA
100
AcDbEntity
  8
268140580
100
AcDbLine
 62
250
  6
CONTINUOUS
 10
-1.2270800346
 20
-25.341121747
 30
0.0
 11
-1.2270800346
 21
-25.7094322756
 31
0.0
  0
LINE
  5
2DB
100
AcDbEntity
  8
268140580
100
AcDbLine
 62
7
  6
CONTINUOUS
 10
-1.1748832486
 20
14.0030171096
 30
0.0
 11
-1.1748832486
 21
12.8298210055
 31
0.0
  0
LINE
  5
2DC
100
AcDbEntity
  8
268140580
100
AcDbLine
 62
7
  6
CONTINUOUS
 10
-1.1748832486
 20
-20.8504435837
 30
0.0
 11
-1.1748832486
 21
-22.0236396878
 31
0.0
  0
LINE
  5
2DD
100
AcDbEntity
  8
268140580
100
AcDbLine
 62
7
  6
CONTINUOUS
 10
-1.1563693564
 20
23.3522101707
 30
0.0
 11
-1.1563693564
 21
23.0058000091
 31
0.0
  0
LINE
  5
2DE
100
AcDbEntity
  8
268140580
100
AcDbLine
 62
250
  6
CONTINUOUS
 10
-0.873526644
 20
16.326792921
 30
0.0
 11
-0.873526644
 21
15.9584823924
 31
0.0
  0
LINE
  5
2DF
100
AcDbEntity
  8
268140580
100
AcDbLine
 62
250
  6
CONTINUOUS
 10
-0.873526644
 20
-25.341121747
 30
0.0
 11
-0.873526644
 21
-25.7094322756
 31
0.0
  0
LINE
  5
2E0
100
AcDbEntity
  8
268140580
100
AcDbLine
 62
7
  6
CONTINUOUS
 10
-0.8151585606
 20
13.8231547656
 30
0.0
 11
-0.8151585606
 21
8.1447238191
 31
0.0
  0
LINE
  5
2E1
100
AcDbEntity
  8
268140580
100
AcDbLine
 62
7
  6
CONTINUOUS
 10
-0.8151585606
 20
-15.8179643041
 30
0.0
 11
-0.8151585606
 21
-21.8499486412
 31
0.0
  0
LINE
  5
2E2
100
AcDbEntity
  8
268140580
100
AcDbLine
 62
7
  6
CONTINUOUS
 10
-0.8151585606
 20
-10.9078350642
 30
0.0
 11
-0.8151585606
 21
3.2345945792
 31
0.0
  0
LINE
  5
2E3
100
AcDbEntity
  8
268140580
100
AcDbLine
 62
250
  6
CONTINUOUS
 10
-0.5199732534
 20
15.562035783
 30
0.0
 11
-0.5199732534
 21
14.9931230558
 31
0.0
  0
LINE
  5
2E4
100
AcDbEntity
  8
268140580
100
AcDbLine
 62
250
  6
CONTINUOUS
 10
-0.5199732534
 20
-23.6686556291
 30
0.0
 11
-0.5199732534
 21
-24.2375683564
 31
0.0
  0
LINE
  5
2E5
100
AcDbEntity
  8
268140580
100
AcDbLine
 62
250
  6
CONTINUOUS
 10
-0.1664198628
 20
15.562035783
 30
0.0
 11
-0.1664198628
 21
15.0044696728
 31
0.0
  0
LINE
  5
2E6
100
AcDbEntity
  8
268140580
100
AcDbLine
 62
250
  6
CONTINUOUS
 10
-0.1664198628
 20
-23.802119339
 30
0.0
 11
-0.1664198628
 21
-24.2375683564
 31
0.0
  0
LINE
  5
2E7
100
AcDbEntity
  8
268140580
100
AcDbLine
 62
7
  6
CONTINUOUS
 10
-0.0204996544
 20
-23.5718237137
 30
0.0
 11
-0.0204996544
 21
-22.6008314849
 31
0.0
  0
LINE
  5
2E8
100
AcDbEntity
  8
268140580
100
AcDbLine
 62
7
  6
CONTINUOUS
 10
-0.0204996544
 20
13.4258253125
 30
0.0
 11
-0.0204996544
 21
14.3968175414
 31
0.0
  0
LINE
  5
2E9
100
AcDbEntity
  8
268140580
100
AcDbLine
 62
250
  6
CONTINUOUS
 10
0.130763464
 20
13.4988618603
 30
0.0
 11
0.130763464
 21
-22.3229096535
 31
0.0
  0
LINE
  5
2EA
100
AcDbEntity
  8
DRAFT
100
AcDbLine
 62
7
  6
CONTINUOUS
 10
20.4045611181
 20
15.1877591376
 30
0.0
 11
19.4400139523
 21
14.5638981744
 31
0.0
  0
LINE
  5
2EB
100
AcDbEntity
  8
CURVE
100
AcDbLine
 62
250
  6
CONTINUOUS
 10
-14.9623140529
 20
7.0147379188
 30
0.0
 11
-15.492644144
 21
7.2799029643
 31
0.0
  0
LINE
  5
2EC
100
AcDbEntity
  8
268140580
100
AcDbLine
 62
250
  6
CONTINUOUS
 10
0.5406869184
 20
-23.8840149658
 30
0.0
 11
0.5406869184
 21
-23.5563870216
 31
0.0
  0
LINE
  5
2ED
100
AcDbEntity
  8
268140580
100
AcDbLine
 62
250
  6
CONTINUOUS
 10
0.5406869184
 20
15.5879612294
 30
0.0
 11
0.5406869184
 21
15.9155891736
 31
0.0
  0
LINE
  5
2EE
100
AcDbEntity
  8
268140580
100
AcDbLine
 62
250
  6
CONTINUOUS
 10
0.5512930095
 20
13.7019121911
 30
0.0
 11
0.5512930095
 21
-22.3247446064
 31
0.0
  0
LINE
  5
2EF
100
AcDbEntity
  8
268140580
100
AcDbLine
 62
7
  6
CONTINUOUS
 10
0.6139102231
 20
-23.7956266181
 30
0.0
 11
0.6139102231
 21
-23.4788311474
 31
0.0
  0
LINE
  5
2F0
100
AcDbEntity
  8
268140580
100
AcDbLine
 62
7
  6
CONTINUOUS
 10
0.6139102231
 20
15.6763495771
 30
0.0
 11
0.6139102231
 21
16.0039775212
 31
0.0
  0
LINE
  5
2F1
100
AcDbEntity
  8
268140580
100
AcDbLine
 62
250
  6
CONTINUOUS
 10
1.2477936996
 20
-24.6260990362
 30
0.0
 11
1.2477936996
 21
-24.2804615752
 31
0.0
  0
LINE
  5
2F2
100
AcDbEntity
  8
268140580
100
AcDbLine
 62
250
  6
CONTINUOUS
 10
1.2477936996
 20
17.0191425642
 30
0.0
 11
1.2477936996
 21
17.3647800251
 31
0.0
  0
LINE
  5
2F3
100
AcDbEntity
  8
268140580
100
AcDbLine
 62
7
  6
CONTINUOUS
 10
1.3210170043
 20
-24.5377106885
 30
0.0
 11
1.3210170043
 21
-24.1920732276
 31
0.0
  0
LINE
  5
2F4
100
AcDbEntity
  8
268140580
100
AcDbLine
 62
7
  6
CONTINUOUS
 10
1.3210170043
 20
17.1075309118
 30
0.0
 11
1.3210170043
 21
17.4531683728
 31
0.0
  0
LINE
  5
2F5
100
AcDbEntity
  8
RACCORDO
100
AcDbLine
 62
7
  6
CONTINUOUS
 10
1.7781237855
 20
11.5850924511
 30
0.0
 11
1.7781237855
 21
-19.0231881574
 31
0.0
  0
LINE
  5
2F6
100
AcDbEntity
  8
268140580
100
AcDbLine
 62
7
  6
CONTINUOUS
 10
1.7781237855
 20
-22.7716067364
 30
0.0
 11
1.7781237855
 21
15.3335110301
 31
0.0
  0
LINE
  5
2F7
100
AcDbEntity
  8
268140580
100
AcDbLine
 62
7
  6
CONTINUOUS
 10
1.922318979
 20
21.2802947691
 30
0.0
 11
1.922318979
 21
20.5575710632
 31
0.0
  0
LINE
  5
2F8
100
AcDbEntity
  8
268140580
100
AcDbLine
 62
250
  6
CONTINUOUS
 10
-1.7927654595
 20
-2.2660595871
 30
0.0
 11
-1.5346079366
 21
-2.146833888
 31
0.0
  0
LINE
  5
2F9
100
AcDbEntity
  8
268140580
100
AcDbLine
 62
7
  6
CONTINUOUS
 10
-1.7927654595
 20
-2.3923620515
 30
0.0
 11
-1.6157004376
 21
-2.3105875567
 31
0.0
  0
LINE
  5
2FA
100
AcDbEntity
  8
CURVE
100
AcDbLine
 62
250
  6
CONTINUOUS
 10
-11.0387095348
 20
6.819503703
 30
0.0
 11
-12.0993697909
 21
7.3498338311
 31
0.0
  0
LINE
  5
2FB
100
AcDbEntity
  8
CURVE
100
AcDbLine
 62
250
  6
CONTINUOUS
 10
-12.8064765299
 20
7.7033872006
 30
0.0
 11
-13.867136786
 21
8.2337173286
 31
0.0
  0
LINE
  5
2FC
100
AcDbEntity
  8
CURVE
100
AcDbLine
 62
250
  6
CONTINUOUS
 10
-15.428523011
 20
10.3430524441
 30
0.0
 11
-14.8981929199
 21
10.0778873985
 31
0.0
  0
LINE
  5
2FD
100
AcDbEntity
  8
CURVE
100
AcDbLine
 62
250
  6
CONTINUOUS
 10
-13.8375328113
 20
9.5475573442
 30
0.0
 11
-12.7768725552
 21
9.0172272162
 31
0.0
  0
LINE
  5
2FE
100
AcDbEntity
  8
CURVE
100
AcDbLine
 62
250
  6
CONTINUOUS
 10
-12.0697658162
 20
8.6636738467
 30
0.0
 11
-11.0091055601
 21
8.1333437186
 31
0.0
  0
LINE
  5
2FF
100
AcDbEntity
  8
RACCORDO
100
AcDbLine
 62
250
  6
CONTINUOUS
 10
-1.9341652766
 20
-5.4850397684
 30
0.0
 11
-5.5375893312
 21
-7.300645287
 31
0.0
  0
LINE
  5
300
100
AcDbEntity
  8
0
100
AcDbLine
 62
250
  6
CONTINUOUS
 10
-1.9341652766
 20
-5.4850397684
 30
0.0
 11
-5.5375893312
 21
-7.300645287
 31
0.0
  0
LINE
  5
301
100
AcDbEntity
  8
RACCORDO
100
AcDbLine
 62
250
  6
CONTINUOUS
 10
-1.7927654595
 20
-5.7289183778
 30
0.0
 11
-5.3961895141
 21
-7.5445238964
 31
0.0
  0
LINE
  5
302
100
AcDbEntity
  8
0
100
AcDbLine
 62
250
  6
CONTINUOUS
 10
-1.7927654595
 20
-5.7289183778
 30
0.0
 11
-5.3961895141
 21
-7.5445238964
 31
0.0
  0
LINE
  5
303
100
AcDbEntity
  8
268140580
100
AcDbLine
 62
250
  6
CONTINUOUS
 10
-1.7467076622
 20
-5.8553528694
 30
0.0
 11
-1.7927654595
 21
-5.8785593502
 31
0.0
  0
LINE
  5
304
100
AcDbEntity
  8
0
100
AcDbLine
 62
250
  6
CONTINUOUS
 10
-5.3961895141
 20
-6.8735365372
 30
0.0
 11
-1.7927654595
 21
-5.2093558954
 31
0.0
  0
LINE
  5
305
100
AcDbEntity
  8
RACCORDO
100
AcDbLine
 62
250
  6
CONTINUOUS
 10
-5.3961895141
 20
-6.8735365372
 30
0.0
 11
-1.7927654595
 21
-5.2093558954
 31
0.0
  0
LINE
  5
306
100
AcDbEntity
  8
0
100
AcDbLine
 62
7
  6
CONTINUOUS
 10
-5.4512654456
 20
-6.9831740704
 30
0.0
 11
-1.8468271269
 21
-5.3185250079
 31
0.0
  0
LINE
  5
307
100
AcDbEntity
  8
RACCORDO
100
AcDbLine
 62
7
  6
CONTINUOUS
 10
-5.4512654456
 20
-6.9831740704
 30
0.0
 11
-1.8468271269
 21
-5.3185250079
 31
0.0
  0
LINE
  5
308
100
AcDbEntity
  8
268140580
100
AcDbLine
 62
7
  6
CONTINUOUS
 10
-1.0272582862
 20
3.6004124932
 30
0.0
 11
-1.3957291593
 21
3.7846479297
 31
0.0
  0
LINE
  5
309
100
AcDbEntity
  8
268140580
100
AcDbLine
 62
7
  6
CONTINUOUS
 10
-1.7927654595
 20
4.1866042199
 30
0.0
 11
-1.6078433888
 21
4.0941431845
 31
0.0
  0
LINE
  5
30A
100
AcDbEntity
  8
268140580
100
AcDbLine
 62
7
  6
CONTINUOUS
 10
6.736873658
 20
-17.6289936448
 30
0.0
 11
6.736873658
 21
-17.4670382322
 31
0.0
  0
LINE
  5
30B
100
AcDbEntity
  8
268140580
100
AcDbLine
 62
7
  6
CONTINUOUS
 10
6.736873658
 20
18.9725759616
 30
0.0
 11
6.736873658
 21
19.3742836898
 31
0.0
  0
LINE
  5
30C
100
AcDbEntity
  8
268140580
100
AcDbLine
 62
250
  6
CONTINUOUS
 10
-1.5346079366
 20
-6.2211707834
 30
0.0
 11
-1.7927654595
 21
-6.3512449063
 31
0.0
  0
LINE
  5
30D
100
AcDbEntity
  8
268140580
100
AcDbLine
 62
7
  6
CONTINUOUS
 10
-1.6078433888
 20
7.3417384487
 30
0.0
 11
-1.7927654595
 21
7.4341994841
 31
0.0
  0
LINE
  5
30E
100
AcDbEntity
  8
DRAFT
100
AcDbLine
 62
7
  6
CONTINUOUS
 10
20.4045611181
 20
3.2366085654
 30
0.0
 11
19.4400139523
 21
2.6127476022
 31
0.0
  0
LINE
  5
30F
100
AcDbEntity
  8
0
100
AcDbLine
 62
250
  6
CONTINUOUS
 10
-20.670378951
 20
18.18869789
 30
0.0
 11
-5.7928162621
 21
10.7499165456
 31
0.0
  0
LINE
  5
310
100
AcDbEntity
  8
RACCORDO
100
AcDbLine
 62
250
  6
CONTINUOUS
 10
-20.670378951
 20
18.18869789
 30
0.0
 11
-5.7928162621
 21
10.7499165456
 31
0.0
  0
LINE
  5
311
100
AcDbEntity
  8
0
100
AcDbLine
 62
250
  6
CONTINUOUS
 10
-19.677813076
 20
19.9404979112
 30
0.0
 11
-4.7768780072
 21
12.4900303767
 31
0.0
  0
LINE
  5
312
100
AcDbEntity
  8
RACCORDO
100
AcDbLine
 62
250
  6
CONTINUOUS
 10
-19.677813076
 20
19.9404979112
 30
0.0
 11
-4.7768780072
 21
12.4900303767
 31
0.0
  0
LINE
  5
313
100
AcDbEntity
  8
SMUSSO
100
AcDbLine
 62
250
  6
CONTINUOUS
 10
9.803785752
 20
22.0640666224
 30
0.0
 11
9.803785752
 21
22.4925833981
 31
0.0
  0
LINE
  5
314
100
AcDbEntity
  8
0
100
AcDbLine
 62
7
  6
CONTINUOUS
 10
10.4755371941
 20
22.3927625387
 30
0.0
 11
10.4755371941
 21
21.9656619901
 31
0.0
  0
LINE
  5
315
100
AcDbEntity
  8
RACCORDO
100
AcDbLine
 62
250
  6
CONTINUOUS
 10
13.2356702078
 20
-4.7076383074
 30
0.0
 11
19.1593537527
 21
-1.5116751356
 31
0.0
  0
LINE
  5
316
100
AcDbEntity
  8
RACCORDO
100
AcDbLine
 62
7
  6
CONTINUOUS
 10
12.9911542279
 20
-5.2403899932
 30
0.0
 11
18.9148377728
 21
-2.0444268214
 31
0.0
  0
LINE
  5
317
100
AcDbEntity
  8
268140580
100
AcDbLine
 62
250
  6
CONTINUOUS
 10
-0.8151585606
 20
-10.9078350642
 30
0.0
 11
-1.7927654595
 21
-11.3593263268
 31
0.0
  0
LINE
  5
318
100
AcDbEntity
  8
268140580
100
AcDbLine
 62
7
  6
CONTINUOUS
 10
-0.8962510616
 20
-11.0715887328
 30
0.0
 11
-1.7927654595
 21
-11.4856287912
 31
0.0
  0
LINE
  5
319
100
AcDbEntity
  8
0
100
AcDbLine
 62
7
  6
CONTINUOUS
 10
-1.7927654595
 20
12.4659295138
 30
0.0
 11
-2.3683249603
 21
12.7537092642
 31
0.0
  0
LINE
  5
31A
100
AcDbEntity
  8
DRAFT
100
AcDbLine
 62
7
  6
CONTINUOUS
 10
-1.7927654595
 20
12.4659295138
 30
0.0
 11
-2.3683249603
 21
12.7537092642
 31
0.0
  0
LINE
  5
31B
100
AcDbEntity
  8
0
100
AcDbLine
 62
7
  6
CONTINUOUS
 10
-2.7216092262
 20
13.6120620156
 30
0.0
 11
-17.693063085
 21
21.097788945
 31
0.0
  0
LINE
  5
31C
100
AcDbEntity
  8
RACCORDO
100
AcDbLine
 62
7
  6
CONTINUOUS
 10
-2.7216092262
 20
13.6120620156
 30
0.0
 11
-17.693063085
 21
21.097788945
 31
0.0
  0
LINE
  5
31D
100
AcDbEntity
  8
0
100
AcDbLine
 62
7
  6
CONTINUOUS
 10
11.4370645754
 20
21.1220788092
 30
0.0
 11
11.4370645754
 21
20.6908392291
 31
0.0
  0
LINE
  5
31E
100
AcDbEntity
  8
0
100
AcDbLine
 62
7
  6
CONTINUOUS
 10
11.8868092368
 20
21.0003309761
 30
0.0
 11
11.8868092368
 21
20.6801440876
 31
0.0
  0
LINE
  5
31F
100
AcDbEntity
  8
DRAFT
100
AcDbLine
 62
7
  6
CONTINUOUS
 10
11.9251060955
 20
21.8522683591
 30
0.0
 11
11.9251060955
 21
22.3340851375
 31
0.0
  0
LINE
  5
320
100
AcDbEntity
  8
RACCORDO
100
AcDbLine
 62
250
  6
CONTINUOUS
 10
12.2117118886
 20
-13.5270084245
 30
0.0
 11
12.2117118886
 21
-6.5366485031
 31
0.0
  0
LWPOLYLINE
  5
321
100
AcDbEntity
  8
RACCORDO
100
AcDbPolyline
 62
7
  6
CONTINUOUS
 90
79
 70
0
 10
12.4923720883
 20
-13.1796792392
 10
12.492389951
 20
-6.1845867201
 10
12.492537416
 20
-6.1747899385
 10
12.4928447703
 20
-6.1645133393
 10
12.4933249194
 20
-6.1537605959
 10
12.4939902243
 20
-6.1425419027
 10
12.4948520834
 20
-6.1308742552
 10
12.495921785
 20
-6.1187663555
 10
12.497210182
 20
-6.1062273548
 10
12.4987266202
 20
-6.0932766277
 10
12.5004805227
 20
-6.0799266408
 10
12.5024810591
 20
-6.066187905
 10
12.5047358719
 20
-6.0520780369
 10
12.5072528034
 20
-6.0376104687
 10
12.5100392541
 20
-6.0227984042
 10
12.51310112
 20
-6.0076598731
 10
12.5164446314
 20
-5.9922088818
 10
12.5200752395
 20
-5.9764613495
 10
12.5239963884
 20
-5.9604388143
 10
12.528212877
 20
-5.944154577
 10
12.5327276007
 20
-5.9276282748
 10
12.5375392071
 20
-5.9108916115
 10
12.542649392
 20
-5.8939617508
 10
12.5480590209
 20
-5.8768572662
 10
12.5537631258
 20
-5.8596126101
 10
12.5597606271
 20
-5.8422466682
 10
12.5660499302
 20
-5.8247781314
 10
12.57262304
 20
-5.8072415082
 10
12.5794764398
 20
-5.7896560619
 10
12.5866059644
 20
-5.772040918
 10
12.5940005591
 20
-5.7544303648
 10
12.6016543397
 20
-5.736843633
 10
12.6095607855
 20
-5.7192996665
 10
12.6177059391
 20
-5.7018319391
 10
12.6260818676
 20
-5.6844587899
 10
12.6346797589
 20
-5.6671988043
 10
12.6434825093
 20
-5.6500850615
 10
12.6524801504
 20
-5.6331347852
 10
12.6616619294
 20
-5.6163653548
 10
12.6710078349
 20
-5.5998088955
 10
12.6805058195
 20
-5.5834813961
 10
12.6901437018
 20
-5.5673980809
 10
12.6998996372
 20
-5.5515883222
 10
12.7097594169
 20
-5.5360670003
 10
12.719710179
 20
-5.5208461457
 10
12.7297306846
 20
-5.5059490576
 10
12.7398062561
 20
-5.4913874115
 10
12.7499225611
 20
-5.4771717709
 10
12.7600577796
 20
-5.463321928
 10
12.7701967069
 20
-5.4498469017
 10
12.7803242793
 20
-5.4367547985
 10
12.7904181934
 20
-5.4240621075
 10
12.8004629132
 20
-5.4117752496
 10
12.8104431871
 20
-5.3998994631
 10
12.8203368267
 20
-5.3884474439
 10
12.8301285449
 20
-5.3774226361
 10
12.8398031152
 20
-5.3668276194
 10
12.8493383615
 20
-5.3566716953
 10
12.8587181165
 20
-5.3469567458
 10
12.8679290318
 20
-5.337681027
 10
12.8769532866
 20
-5.3288466259
 10
12.8857742347
 20
-5.3204537775
 10
12.8943803744
 20
-5.3124973033
 10
12.9027615069
 20
-5.3049705453
 10
12.9109037482
 20
-5.2978698665
 10
12.9187938343
 20
-5.2911907447
 10
12.9264218265
 20
-5.2849254768
 10
12.9337750218
 20
-5.2790682995
 10
12.940839696
 20
-5.27361379
 10
12.9476036268
 20
-5.268554977
 10
12.9540550438
 20
-5.26388409
 10
12.9601800669
 20
-5.2595943438
 10
12.9659625913
 20
-5.2556798292
 10
12.9713906995
 20
-5.2521311767
 10
12.9764523903
 20
-5.2489385609
 10
12.9811310107
 20
-5.2460943942
 10
12.9854131165
 20
-5.243588338
 10
12.9892891762
 20
-5.241407265
 10
12.9911517171
 20
-5.2403913323
  0
LINE
  5
322
100
AcDbEntity
  8
268140580
100
AcDbLine
 62
7
  6
CONTINUOUS
 10
-2.0559951757
 20
-23.7813289211
 30
0.0
 11
-2.3683249603
 21
-24.158344322
 31
0.0
  0
LINE
  5
323
100
AcDbEntity
  8
268140580
100
AcDbLine
 62
7
  6
CONTINUOUS
 10
-1.5320344439
 20
-15.2605018557
 30
0.0
 11
-1.7927654595
 21
-15.3979839802
 31
0.0
  0
LINE
  5
324
100
AcDbEntity
  8
268140580
100
AcDbLine
 62
250
  6
CONTINUOUS
 10
-1.3957291593
 20
-15.2679109535
 30
0.0
 11
-1.7927654595
 21
-15.477266154
 31
0.0
  0
LINE
  5
325
100
AcDbEntity
  8
268140580
100
AcDbLine
 62
250
  6
CONTINUOUS
 10
-1.7927654595
 20
-15.8378514937
 30
0.0
 11
-1.0272582862
 21
-15.4521463901
 31
0.0
  0
LINE
  5
326
100
AcDbEntity
  8
RACCORDO
100
AcDbLine
 62
7
  6
CONTINUOUS
 10
-1.6078433888
 20
-14.2566374504
 30
0.0
 11
-1.7927654595
 21
-14.3493972477
 31
0.0
  0
LINE
  5
327
100
AcDbEntity
  8
268140580
100
AcDbLine
 62
7
  6
CONTINUOUS
 10
-15.727267901
 20
21.2792094358
 30
0.0
 11
-14.5728843068
 21
20.7020176387
 31
0.0
  0
LINE
  5
328
100
AcDbEntity
  8
268140580
100
AcDbLine
 62
7
  6
CONTINUOUS
 10
-0.0204996544
 20
13.4258253125
 30
0.0
 11
-1.1748832486
 21
14.0030171096
 31
0.0
  0
LINE
  5
329
100
AcDbEntity
  8
268140580
100
AcDbLine
 62
7
  6
CONTINUOUS
 10
-0.3031270672
 20
14.8846999627
 30
0.0
 11
-0.5199732534
 21
14.9931230558
 31
0.0
  0
LINE
  5
32A
100
AcDbEntity
  8
268140580
100
AcDbLine
 62
7
  6
CONTINUOUS
 10
-1.8634761376
 20
15.6648744979
 30
0.0
 11
-13.8842914178
 21
21.675282138
 31
0.0
  0
LINE
  5
32B
100
AcDbEntity
  8
268140580
100
AcDbLine
 62
7
  6
CONTINUOUS
 10
-15.2277943021
 20
22.3470335801
 30
0.0
 11
-15.4446404882
 21
22.4554566732
 31
0.0
  0
LINE
  5
32C
100
AcDbEntity
  8
268140580
100
AcDbLine
 62
7
  6
CONTINUOUS
 10
-10.4223155528
 20
20.3205408302
 30
0.0
 11
-4.6183452214
 21
17.4185556645
 31
0.0
  0
LINE
  5
32D
100
AcDbEntity
  8
268140580
100
AcDbLine
 62
7
  6
CONTINUOUS
 10
-15.8699277868
 20
23.1771744666
 30
0.0
 11
-14.5264249026
 21
22.5054230245
 31
0.0
  0
LINE
  5
32E
100
AcDbEntity
  8
268140580
100
AcDbLine
 62
7
  6
CONTINUOUS
 10
-2.5056096224
 20
16.4950153844
 30
0.0
 11
-1.1621067381
 21
15.8232639423
 31
0.0
  0
LINE
  5
32F
100
AcDbEntity
  8
RACCORDO
100
AcDbLine
 62
7
  6
CONTINUOUS
 10
14.0464264391
 20
24.4222780157
 30
0.0
 11
14.0464264391
 21
24.1400408307
 31
0.0
  0
LINE
  5
330
100
AcDbEntity
  8
268140580
100
AcDbLine
 62
250
  6
CONTINUOUS
 10
-1.9518644853
 20
-23.7975110881
 30
0.0
 11
-2.3683249603
 21
-24.3002233516
 31
0.0
  0
LINE
  5
331
100
AcDbEntity
  8
268140580
100
AcDbLine
 62
250
  6
CONTINUOUS
 10
-0.608361601
 20
-24.4692625302
 30
0.0
 11
-1.1386916869
 21
-25.1094275732
 31
0.0
  0
LINE
  5
332
100
AcDbEntity
  8
268140580
100
AcDbLine
 62
250
  6
CONTINUOUS
 10
-0.3431965581
 20
-24.700956704
 30
0.0
 11
-0.873526644
 21
-25.341121747
 31
0.0
  0
LINE
  5
333
100
AcDbEntity
  8
268140580
100
AcDbLine
 62
250
  6
CONTINUOUS
 10
-1.7927654595
 20
-16.3105370498
 30
0.0
 11
-0.8151585606
 21
-15.8179643041
 31
0.0
  0
LINE
  5
334
100
AcDbEntity
  8
268140580
100
AcDbLine
 62
7
  6
CONTINUOUS
 10
-1.1010040918
 20
15.802065851
 30
0.0
 11
-0.570674006
 21
15.692230894
 31
0.0
  0
LINE
  5
335
100
AcDbEntity
  8
268140580
100
AcDbLine
 62
250
  6
CONTINUOUS
 10
-0.873526644
 20
15.9584823924
 30
0.0
 11
-0.3431965581
 21
15.8486474353
 31
0.0
  0
LINE
  5
336
100
AcDbEntity
  8
268140580
100
AcDbLine
 62
250
  6
CONTINUOUS
 10
-0.5199732534
 20
15.562035783
 30
0.0
 11
-0.9286363211
 21
15.7663673168
 31
0.0
  0
LINE
  5
337
100
AcDbEntity
  8
268140580
100
AcDbLine
 62
250
  6
CONTINUOUS
 10
-13.8842914178
 20
22.2441948652
 30
0.0
 11
-14.2929544855
 21
22.4485263991
 31
0.0
  0
LINE
  5
338
100
AcDbEntity
  8
268140580
100
AcDbLine
 62
250
  6
CONTINUOUS
 10
-15.9349010832
 20
23.3123929167
 30
0.0
 11
-14.591398199
 21
22.6406414746
 31
0.0
  0
LINE
  5
339
100
AcDbEntity
  8
268140580
100
AcDbLine
 62
250
  6
CONTINUOUS
 10
-2.5705829188
 20
16.6302338345
 30
0.0
 11
-1.2270800346
 21
15.9584823924
 31
0.0
  0
LINE
  5
33A
100
AcDbEntity
  8
268140580
100
AcDbLine
 62
250
  6
CONTINUOUS
 10
-1.2270800346
 20
16.326792921
 30
0.0
 11
-2.5705829188
 21
16.9985443631
 31
0.0
  0
LINE
  5
33B
100
AcDbEntity
  8
268140580
100
AcDbLine
 62
250
  6
CONTINUOUS
 10
-14.591398199
 20
23.0089520032
 30
0.0
 11
-15.9349010832
 21
23.6807034453
 31
0.0
  0
LINE
  5
33C
100
AcDbEntity
  8
268140580
100
AcDbLine
 62
250
  6
CONTINUOUS
 10
0.7685158635
 20
15.4736828265
 30
0.0
 11
0.7137654403
 21
15.5010580381
 31
0.0
  0
LINE
  5
33D
100
AcDbEntity
  8
268140580
100
AcDbLine
 62
250
  6
CONTINUOUS
 10
-2.6287260781
 20
17.1723037973
 30
0.0
 11
-3.7056306419
 21
17.7107560792
 31
0.0
  0
LINE
  5
33E
100
AcDbEntity
  8
268140580
100
AcDbLine
 62
250
  6
CONTINUOUS
 10
-10.5101835185
 20
21.1130325175
 30
0.0
 11
-12.6505527241
 21
22.1832171203
 31
0.0
  0
LINE
  5
33F
100
AcDbEntity
  8
268140580
100
AcDbLine
 62
250
  6
CONTINUOUS
 10
0.7759172854
 20
15.477620909
 30
0.0
 11
0.7211668622
 21
15.5049961206
 31
0.0
  0
LINE
  5
340
100
AcDbEntity
  8
268140580
100
AcDbLine
 62
250
  6
CONTINUOUS
 10
-2.626257933
 20
17.1787085182
 30
0.0
 11
-3.6982718496
 21
17.7147154765
 31
0.0
  0
LINE
  5
341
100
AcDbEntity
  8
268140580
100
AcDbLine
 62
250
  6
CONTINUOUS
 10
-10.5101835185
 20
21.1206713109
 30
0.0
 11
-12.6431513022
 21
22.1871552028
 31
0.0
  0
LINE
  5
342
100
AcDbEntity
  8
268140580
100
AcDbLine
 62
250
  6
CONTINUOUS
 10
0.6821082746
 20
15.6622435221
 30
0.0
 11
0.6139102231
 21
15.6963425478
 31
0.0
  0
LINE
  5
343
100
AcDbEntity
  8
268140580
100
AcDbLine
 62
250
  6
CONTINUOUS
 10
-12.6822098898
 20
22.3444026043
 30
0.0
 11
-12.7504079413
 21
22.3785016301
 31
0.0
  0
LINE
  5
344
100
AcDbEntity
  8
268140580
100
AcDbLine
 62
250
  6
CONTINUOUS
 10
-1.0487606912
 20
16.6324506997
 30
0.0
 11
-2.3922635754
 21
17.3042021419
 31
0.0
  0
LINE
  5
345
100
AcDbEntity
  8
268140580
100
AcDbLine
 62
250
  6
CONTINUOUS
 10
-14.4130788556
 20
23.3146097819
 30
0.0
 11
-15.7565817398
 21
23.9863612241
 31
0.0
  0
LINE
  5
346
100
AcDbEntity
  8
268140580
100
AcDbLine
 62
7
  6
CONTINUOUS
 10
-10.4223155528
 20
21.5859205529
 30
0.0
 11
-4.6183452214
 21
18.6839353872
 31
0.0
  0
LINE
  5
347
100
AcDbEntity
  8
268140580
100
AcDbLine
 62
7
  6
CONTINUOUS
 10
-12.6847296575
 20
22.9113479131
 30
0.0
 11
-11.2326409883
 21
22.1853035785
 31
0.0
  0
LINE
  5
348
100
AcDbEntity
  8
268140580
100
AcDbLine
 62
7
  6
CONTINUOUS
 10
0.679588507
 20
16.2291888309
 30
0.0
 11
1.4952379881
 21
15.8213640903
 31
0.0
  0
LINE
  5
349
100
AcDbEntity
  8
RACCORDO
100
AcDbLine
 62
7
  6
CONTINUOUS
 10
8.0961352818
 20
16.9230060283
 30
0.0
 11
7.0129400123
 21
18.7912415142
 31
0.0
  0
LINE
  5
34A
100
AcDbEntity
  8
268140580
100
AcDbLine
 62
7
  6
CONTINUOUS
 10
6.736873658
 20
19.3742836898
 30
0.0
 11
6.711313254
 21
19.4183688654
 31
0.0
  0
LINE
  5
34B
100
AcDbEntity
  8
RACCORDO
100
AcDbLine
 62
250
  6
CONTINUOUS
 10
1.7781237855
 20
-19.0231881574
 30
0.0
 11
12.2117118886
 21
-13.5270084245
 31
0.0
  0
LWPOLYLINE
  5
34C
100
AcDbEntity
  8
RACCORDO
100
AcDbPolyline
 62
7
  6
CONTINUOUS
 90
64
 70
0
 10
-3.6130063395
 20
21.5589334432
 10
-3.6241149671
 20
21.5643462524
 10
-3.6415610119
 20
21.5723025122
 10
-3.6594745802
 20
21.5798312784
 10
-3.6778246128
 20
21.5869264484
 10
-3.696602102
 20
21.5935936022
 10
-3.7158192131
 20
21.5998457492
 10
-3.7354534755
 20
21.6056842263
 10
-3.7554828525
 20
21.6111122203
 10
-3.7759159609
 20
21.6161412901
 10
-3.796701786
 20
21.6207683906
 10
-3.8178513687
 20
21.6250054577
 10
-3.8394646575
 20
21.6288769488
 10
-3.8614943497
 20
21.6323759632
 10
-3.8839582918
 20
21.6355066953
 10
-3.9070549144
 20
21.6382909097
 10
-3.9308555783
 20
21.6407230491
 10
-3.955265632
 20
21.6427793273
 10
-3.9802326146
 20
21.6444443574
 10
-4.0058569947
 20
21.6457116365
 10
-4.0320109615
 20
21.6465612408
 10
-4.0582963738
 20
21.6469785796
 10
-4.0846804376
 20
21.64697043
 10
-4.1111687194
 20
21.6465428486
 10
-4.137421313
 20
21.6457133885
 10
-4.1633528338
 20
21.6445046404
 10
-4.189030076
 20
21.6429318178
 10
-4.2143437032
 20
21.6410191281
 10
-4.2392735385
 20
21.6387868386
 10
-4.2638282289
 20
21.6362517773
 10
-4.2879428275
 20
21.6334381988
 10
-4.3115968251
 20
21.630366694
 10
-4.3348054261
 20
21.6270526466
 10
-4.3575575249
 20
21.6235141134
 10
-4.3798442715
 20
21.6197686337
 10
-4.4016727955
 20
21.6158306143
 10
-4.4230549356
 20
21.6117126761
 10
-4.4439910905
 20
21.6074288629
 10
-4.4644807555
 20
21.6029930579
 10
-4.4845327868
 20
21.5984166905
 10
-4.5041493867
 20
21.5937121794
 10
-4.5233290737
 20
21.588892603
 10
-4.5420735042
 20
21.5839701167
 10
-4.5603936042
 20
21.5789540951
 10
-4.5782793593
 20
21.5738594239
 10
-4.5957001856
 20
21.5687075596
 10
-4.6126438663
 20
21.5635154854
 10
-4.6291255667
 20
21.5582918041
 10
-4.645154595
 20
21.5530463705
 10
-4.6607093443
 20
21.5477991946
 10
-4.6758131932
 20
21.5425552448
 10
-4.6905380885
 20
21.5373009572
 10
-4.7048826715
 20
21.5320472276
 10
-4.7188419178
 20
21.5268064369
 10
-4.7324745846
 20
21.5215663864
 10
-4.7457636677
 20
21.5163430011
 10
-4.7587093542
 20
21.5111459222
 10
-4.7713860139
 20
21.5059542119
 10
-4.7837563365
 20
21.5007918088
 10
-4.7958214079
 20
21.4956675601
 10
-4.8076954337
 20
21.4905412843
 10
-4.8193322391
 20
21.4854409497
 10
-4.8306989591
 20
21.4803902774
 10
-4.8529222625
 20
21.4703418188
  0
LINE
  5
34D
100
AcDbEntity
  8
268140580
100
AcDbLine
 62
7
  6
CONTINUOUS
 10
-8.5809905589
 20
22.0643562399
 30
0.0
 11
-3.6312430906
 21
19.5894825057
 31
0.0
  0
LINE
  5
34E
100
AcDbEntity
  8
268140580
100
AcDbLine
 62
250
  6
CONTINUOUS
 10
-13.6352613963
 20
25.0243483282
 30
0.0
 11
-12.291758512
 21
24.3525968861
 31
0.0
  0
LINE
  5
34F
100
AcDbEntity
  8
268140580
100
AcDbLine
 62
250
  6
CONTINUOUS
 10
-0.2709432318
 20
18.342189246
 30
0.0
 11
1.0725596524
 21
17.6704378039
 31
0.0
  0
LINE
  5
350
100
AcDbEntity
  8
268140580
100
AcDbLine
 62
7
  6
CONTINUOUS
 10
-13.5250006455
 20
25.0306856949
 30
0.0
 11
-12.1814977613
 21
24.3589342528
 31
0.0
  0
LINE
  5
351
100
AcDbEntity
  8
268140580
100
AcDbLine
 62
7
  6
CONTINUOUS
 10
-0.1606824811
 20
18.3485266127
 30
0.0
 11
1.1828204032
 21
17.6767751705
 31
0.0
  0
LINE
  5
352
100
AcDbEntity
  8
RACCORDO
100
AcDbLine
 62
7
  6
CONTINUOUS
 10
-4.6919571103
 20
21.4271569231
 30
0.0
 11
-2.3098018728
 21
20.2360793044
 31
0.0
  0
LINE
  5
353
100
AcDbEntity
  8
RACCORDO
100
AcDbLine
 62
250
  6
CONTINUOUS
 10
-1.6797760847
 20
20.5443583652
 30
0.0
 11
-3.6999842712
 21
21.5544624584
 31
0.0
  0
LINE
  5
354
100
AcDbEntity
  8
RACCORDO
100
AcDbLine
 62
7
  6
CONTINUOUS
 10
-1.6312979878
 20
20.5680792707
 30
0.0
 11
-3.6130096948
 21
21.5589351242
 31
0.0
  0
LINE
  5
355
100
AcDbEntity
  8
SMUSSO
100
AcDbLine
 62
250
  6
CONTINUOUS
 10
9.460919734
 20
23.4245895511
 30
0.0
 11
9.803785752
 21
22.4925833981
 31
0.0
  0
LINE
  5
356
100
AcDbEntity
  8
0
100
AcDbLine
 62
7
  6
CONTINUOUS
 10
10.7300956353
 20
21.4755632793
 30
0.0
 11
10.9315949932
 21
20.8798388535
 31
0.0
  0
LWPOLYLINE
  5
357
100
AcDbEntity
  8
RACCORDO
100
AcDbPolyline
 62
7
  6
CONTINUOUS
 90
31
 70
0
 10
19.4400139445
 20
20.7751693198
 10
19.4397186018
 20
20.8101272394
 10
19.4385741778
 20
20.8525544241
 10
19.4365754425
 20
20.8950448049
 10
19.4337287049
 20
20.9376035837
 10
19.430041424
 20
20.9802103718
 10
19.4255245029
 20
21.0228158804
 10
19.4201858739
 20
21.0654140249
 10
19.4140327582
 20
21.107997086
 10
19.4070796438
 20
21.150511213
 10
19.3993350961
 20
21.1929498556
 10
19.3908066089
 20
21.235306455
 10
19.3815124565
 20
21.2775255687
 10
19.371462121
 20
21.3195984669
 10
19.3606632442
 20
21.3615209019
 10
19.349135938
 20
21.403242777
 10
19.3368921913
 20
21.4447479283
 10
19.3239379754
 20
21.4860398294
 10
19.3102863314
 20
21.5270965622
 10
19.2959463152
 20
21.5679084598
 10
19.2809244413
 20
21.6084719654
 10
19.2652301698
 20
21.648773013
 10
19.2488702584
 20
21.6888045161
 10
19.2318505271
 20
21.728559556
 10
19.2141797274
 20
21.7680234424
 10
19.1958636885
 20
21.8071878572
 10
19.1769067379
 20
21.8460456214
 10
19.1573156346
 20
21.884584105
 10
19.13709472
 20
21.9227942666
 10
19.1162472213
 20
21.9606684149
 10
19.0980465058
 20
21.9925735992
  0
LINE
  5
358
100
AcDbEntity
  8
DRAFT
100
AcDbLine
 62
250
  6
CONTINUOUS
 10
19.1593537527
 20
-1.5116751356
 30
0.0
 11
19.1593537527
 21
2.794782533
 31
0.0
  0
LINE
  5
359
100
AcDbEntity
  8
DRAFT
100
AcDbLine
 62
250
  6
CONTINUOUS
 10
19.1593537527
 20
4.8214259098
 30
0.0
 11
19.1593537527
 21
14.7459331052
 31
0.0
  0
LINE
  5
35A
100
AcDbEntity
  8
DRAFT
100
AcDbLine
 62
250
  6
CONTINUOUS
 10
19.1593537527
 20
16.772576482
 30
0.0
 11
19.1593537527
 21
20.4278416444
 31
0.0
  0
LINE
  5
35B
100
AcDbEntity
  8
RACCORDO
100
AcDbLine
 62
7
  6
CONTINUOUS
 10
19.4400139523
 20
-1.1643459504
 30
0.0
 11
19.4400139523
 21
2.7489631782
 31
0.0
  0
LINE
  5
35C
100
AcDbEntity
  8
RACCORDO
100
AcDbLine
 62
7
  6
CONTINUOUS
 10
19.4400139523
 20
5.5619036351
 30
0.0
 11
19.4400139523
 21
14.7001137504
 31
0.0
  0
LINE
  5
35D
100
AcDbEntity
  8
RACCORDO
100
AcDbLine
 62
7
  6
CONTINUOUS
 10
19.4400139523
 20
17.5130542073
 30
0.0
 11
19.4400139523
 21
20.7751708296
 31
0.0
  0
LWPOLYLINE
  5
35E
100
AcDbEntity
  8
RACCORDO
100
AcDbPolyline
 62
7
  6
CONTINUOUS
 90
40
 70
0
 10
11.8721390792
 20
-14.4981220784
 10
11.8927053513
 20
-14.4829248781
 10
11.9207463908
 20
-14.4612347906
 10
11.9482961972
 20
-14.438777782
 10
11.9753268404
 20
-14.4155713781
 10
12.0018253292
 20
-14.3916216497
 10
12.027792959
 20
-14.3669210403
 10
12.0532098891
 20
-14.3414808516
 10
12.0780568723
 20
-14.3153128089
 10
12.1023346627
 20
-14.2884070357
 10
12.126024113
 20
-14.2607744186
 10
12.1491054854
 20
-14.2324277551
 10
12.1715769762
 20
-14.2033572781
 10
12.1934201061
 20
-14.17357303
 10
12.2146150037
 20
-14.1430886961
 10
12.2351563385
 20
-14.1118969489
 10
12.2550253049
 20
-14.0800092632
 10
12.2742035744
 20
-14.0474378973
 10
12.29268542
 20
-14.0141737337
 10
12.3104513581
 20
-13.9802305012
 10
12.3274847617
 20
-13.9456177519
 10
12.3437824765
 20
-13.9103166018
 10
12.3593282668
 20
-13.8743322567
 10
12.3741013111
 20
-13.8376810085
 10
12.3880902017
 20
-13.8003570753
 10
12.4012826749
 20
-13.762353562
 10
12.4136543514
 20
-13.723697606
 10
12.4251787327
 20
-13.6844325976
 10
12.4358418252
 20
-13.6445682376
 10
12.4456290869
 20
-13.6041159523
 10
12.4545196365
 20
-13.563120791
 10
12.4625028522
 20
-13.5215910579
 10
12.4695670853
 20
-13.479538698
 10
12.4756962421
 20
-13.4370133904
 10
12.4808821894
 20
-13.3940244606
 10
12.485116289
 20
-13.3505818904
 10
12.4883875716
 20
-13.3067349427
 10
12.4906892422
 20
-13.2625051406
 10
12.492015965
 20
-13.2178893161
 10
12.4923720804
 20
-13.1796802602
  0
LINE
  5
35F
100
AcDbEntity
  8
RACCORDO
100
AcDbLine
 62
7
  6
CONTINUOUS
 10
7.0129400123
 20
-17.3220178236
 30
0.0
 11
8.0961352818
 21
-16.5369776073
 31
0.0
  0
LINE
  5
360
100
AcDbEntity
  8
268140580
100
AcDbLine
 62
7
  6
CONTINUOUS
 10
6.711313254
 20
-17.6475184165
 30
0.0
 11
6.736873658
 21
-17.6289936448
 31
0.0
  0
LINE
  5
361
100
AcDbEntity
  8
RACCORDO
100
AcDbLine
 62
250
  6
CONTINUOUS
 10
11.618358327
 20
-14.6743680409
 30
0.0
 11
11.7975614129
 21
-14.5444915235
 31
0.0
  0
LINE
  5
362
100
AcDbEntity
  8
RACCORDO
100
AcDbLine
 62
7
  6
CONTINUOUS
 10
11.6929259211
 20
-14.6280059081
 30
0.0
 11
11.872129007
 21
-14.4981293907
 31
0.0
  0
LINE
  5
363
100
AcDbEntity
  8
RACCORDO
100
AcDbLine
 62
250
  6
CONTINUOUS
 10
11.618358327
 20
-14.6743680409
 30
0.0
 11
8.0961352818
 21
-16.5369776073
 31
0.0
  0
LINE
  5
364
100
AcDbEntity
  8
RACCORDO
100
AcDbLine
 62
7
  6
CONTINUOUS
 10
11.5735703971
 20
-14.7023027349
 30
0.0
 11
8.0744431796
 21
-16.5526988471
 31
0.0
  0
LINE
  5
365
100
AcDbEntity
  8
RACCORDO
100
AcDbLine
 62
250
  6
CONTINUOUS
 10
1.7781237855
 20
-19.8225060932
 30
0.0
 11
11.7975614129
 21
-14.5444915235
 31
0.0
  0
LINE
  5
366
100
AcDbEntity
  8
DRAFT
100
AcDbLine
 62
7
  6
CONTINUOUS
 10
1.7781237855
 20
-20.0719189838
 30
0.0
 11
7.0129400123
 21
-17.3220178236
 31
0.0
  0
LINE
  5
367
100
AcDbEntity
  8
268140580
100
AcDbLine
 62
7
  6
CONTINUOUS
 10
6.736873658
 20
-17.6289936448
 30
0.0
 11
1.7781237855
 21
-20.1741705174
 31
0.0
  0
LINE
  5
368
100
AcDbEntity
  8
268140580
100
AcDbLine
 62
7
  6
CONTINUOUS
 10
5.3058265594
 20
-18.5179072542
 30
0.0
 11
1.7781237855
 21
-20.3258403725
 31
0.0
  0
LINE
  5
369
100
AcDbEntity
  8
268140580
100
AcDbLine
 62
7
  6
CONTINUOUS
 10
-0.8151585606
 20
-21.8499486412
 30
0.0
 11
-1.1748832486
 21
-22.0236396878
 31
0.0
  0
LINE
  5
36A
100
AcDbEntity
  8
268140580
100
AcDbLine
 62
250
  6
CONTINUOUS
 10
-1.7927654595
 20
-21.1444349226
 30
0.0
 11
-1.1748832486
 21
-20.8504435837
 31
0.0
  0
LINE
  5
36B
100
AcDbEntity
  8
268140580
100
AcDbLine
 62
7
  6
CONTINUOUS
 10
-1.7927654595
 20
-21.3727310455
 30
0.0
 11
-1.3237360849
 21
-21.1527359395
 31
0.0
  0
LINE
  5
36C
100
AcDbEntity
  8
268140580
100
AcDbLine
 62
7
  6
CONTINUOUS
 10
-14.4653222563
 20
22.4842249332
 30
0.0
 11
-13.9349921704
 21
22.3743899762
 31
0.0
  0
LINE
  5
36D
100
AcDbEntity
  8
268140580
100
AcDbLine
 62
250
  6
CONTINUOUS
 10
-14.2378448084
 20
22.6406414746
 30
0.0
 11
-13.7075147225
 21
22.5308065176
 31
0.0
  0
LINE
  5
36E
100
AcDbEntity
  8
268140580
100
AcDbLine
 62
7
  6
CONTINUOUS
 10
-1.101953869
 20
20.8270936014
 30
0.0
 11
-3.5605324125
 21
22.0563828732
 31
0.0
  0
LINE
  5
36F
100
AcDbEntity
  8
268140580
100
AcDbLine
 62
7
  6
CONTINUOUS
 10
0.3109318234
 20
21.5184352618
 30
0.0
 11
-2.5163012966
 21
22.9320518217
 31
0.0
  0
LINE
  5
370
100
AcDbEntity
  8
DRAFT
100
AcDbLine
 62
7
  6
CONTINUOUS
 10
6.6939502722
 20
18.9507363842
 30
0.0
 11
7.0129400123
 21
18.7912415142
 31
0.0
  0
LINE
  5
371
100
AcDbEntity
  8
268140580
100
AcDbLine
 62
250
  6
CONTINUOUS
 10
-4.5875443599
 20
24.6177545583
 30
0.0
 11
-3.981711185
 21
24.3148379708
 31
0.0
  0
LINE
  5
372
100
AcDbEntity
  8
268140580
100
AcDbLine
 62
250
  6
CONTINUOUS
 10
0.9680362833
 20
21.8399642367
 30
0.0
 11
1.5738694582
 21
21.5370476492
 31
0.0
  0
LINE
  5
373
100
AcDbEntity
  8
268140580
100
AcDbLine
 62
7
  6
CONTINUOUS
 10
-1.1563693564
 20
23.0058000091
 30
0.0
 11
1.109733262
 21
21.8727486999
 31
0.0
  0
LINE
  5
374
100
AcDbEntity
  8
268140580
100
AcDbLine
 62
7
  6
CONTINUOUS
 10
1.8561512731
 20
21.4995396944
 30
0.0
 11
1.8738357654
 21
21.4906974482
 31
0.0
  0
LINE
  5
375
100
AcDbEntity
  8
268140580
100
AcDbLine
 62
7
  6
CONTINUOUS
 10
-4.3657527316
 20
24.6297942282
 30
0.0
 11
-3.7611896834
 21
24.3275127041
 31
0.0
  0
LINE
  5
376
100
AcDbEntity
  8
268140580
100
AcDbLine
 62
7
  6
CONTINUOUS
 10
1.1885577849
 20
21.85263897
 30
0.0
 11
1.793120833
 21
21.5503574459
 31
0.0
  0
LINE
  5
377
100
AcDbEntity
  8
RACCORDO
100
AcDbLine
 62
250
  6
CONTINUOUS
 10
21.0267293411
 20
17.1152297374
 30
0.0
 11
21.0267293411
 21
16.3370038789
 31
0.0
  0
LINE
  5
378
100
AcDbEntity
  8
RACCORDO
100
AcDbLine
 62
250
  6
CONTINUOUS
 10
21.0267293411
 20
5.1640791652
 30
0.0
 11
21.0267293411
 21
4.3858533067
 31
0.0
  0
LINE
  5
379
100
AcDbEntity
  8
RACCORDO
100
AcDbLine
 62
7
  6
CONTINUOUS
 10
21.110927401
 20
17.2094280462
 30
0.0
 11
21.110927401
 21
16.4512030813
 31
0.0
  0
LINE
  5
37A
100
AcDbEntity
  8
RACCORDO
100
AcDbLine
 62
7
  6
CONTINUOUS
 10
21.110927401
 20
5.258277474
 30
0.0
 11
21.110927401
 21
4.500052509
 31
0.0
  0
LINE
  5
37B
100
AcDbEntity
  8
268140580
100
AcDbLine
 62
250
  6
CONTINUOUS
 10
-0.873526644
 20
-25.7094322756
 30
0.0
 11
1.2477936996
 21
-24.6260990362
 31
0.0
  0
LINE
  5
37C
100
AcDbEntity
  8
268140580
100
AcDbLine
 62
7
  6
CONTINUOUS
 10
0.5512930095
 20
-22.3247446064
 30
0.0
 11
-0.0204996544
 21
-22.6008314849
 31
0.0
  0
LINE
  5
37D
100
AcDbEntity
  8
268140580
100
AcDbLine
 62
250
  6
CONTINUOUS
 10
1.0611877383
 20
-23.1177752829
 30
0.0
 11
1.7781237855
 21
-22.7716067364
 31
0.0
  0
LINE
  5
37E
100
AcDbEntity
  8
268140580
100
AcDbLine
 62
7
  6
CONTINUOUS
 10
0.9572490708
 20
-23.3341158811
 30
0.0
 11
1.6723064007
 21
-22.9888544627
 31
0.0
  0
LINE
  5
37F
100
AcDbEntity
  8
DRAFT
100
AcDbLine
 62
7
  6
CONTINUOUS
 10
-1.7927654595
 20
-23.404203787
 30
0.0
 11
-2.3683249603
 21
-23.645800287
 31
0.0
  0
LINE
  5
380
100
AcDbEntity
  8
0
100
AcDbLine
 62
7
  6
CONTINUOUS
 10
-1.7927654595
 20
-23.404203787
 30
0.0
 11
-2.3683249603
 21
-23.645800287
 31
0.0
  0
LINE
  5
381
100
AcDbEntity
  8
RACCORDO
100
AcDbLine
 62
250
  6
CONTINUOUS
 10
-4.4110452671
 20
-25.3537456237
 30
0.0
 11
-2.3683249603
 21
-24.4962946114
 31
0.0
  0
LINE
  5
382
100
AcDbEntity
  8
0
100
AcDbLine
 62
250
  6
CONTINUOUS
 10
-4.4110452671
 20
-25.3537456237
 30
0.0
 11
-2.3683249603
 21
-24.4962946114
 31
0.0
  0
LINE
  5
383
100
AcDbEntity
  8
268140580
100
AcDbLine
 62
250
  6
CONTINUOUS
 10
-0.0204996544
 20
-23.5718237137
 30
0.0
 11
1.0611877383
 21
-23.1177752829
 31
0.0
  0
LINE
  5
384
100
AcDbEntity
  8
268140580
100
AcDbLine
 62
7
  6
CONTINUOUS
 10
-0.1335122574
 20
-23.7925687454
 30
0.0
 11
0.938141942
 21
-23.3427318416
 31
0.0
  0
LINE
  5
385
100
AcDbEntity
  8
RACCORDO
100
AcDbLine
 62
7
  6
CONTINUOUS
 10
-2.509590714
 20
-24.772225901
 30
0.0
 11
-4.5650093852
 21
-25.635007091
 31
0.0
  0
LINE
  5
386
100
AcDbEntity
  8
0
100
AcDbLine
 62
7
  6
CONTINUOUS
 10
-2.509590714
 20
-24.772225901
 30
0.0
 11
-4.5650093852
 21
-25.635007091
 31
0.0
  0
LINE
  5
387
100
AcDbEntity
  8
268140580
100
AcDbLine
 62
250
  6
CONTINUOUS
 10
-4.7901381476
 20
25.3280131888
 30
0.0
 11
-1.8634761376
 21
23.8646821838
 31
0.0
  0
LINE
  5
388
100
AcDbEntity
  8
268140580
100
AcDbLine
 62
250
  6
CONTINUOUS
 10
2.3791645495
 20
21.7433618403
 30
0.0
 11
5.3058265594
 21
20.2800308353
 31
0.0
  0
LINE
  5
389
100
AcDbEntity
  8
268140580
100
AcDbLine
 62
7
  6
CONTINUOUS
 10
-4.4967894199
 20
25.43334741
 30
0.0
 11
-1.4162625421
 21
23.8930839711
 31
0.0
  0
LINE
  5
38A
100
AcDbEntity
  8
268140580
100
AcDbLine
 62
7
  6
CONTINUOUS
 10
2.826378145
 20
21.7717636275
 30
0.0
 11
5.9069050228
 21
20.2315001886
 31
0.0
  0
LINE
  5
38B
100
AcDbEntity
  8
RACCORDO
100
AcDbLine
 62
250
  6
CONTINUOUS
 10
3.8118362681
 20
22.7907980235
 30
0.0
 11
-2.0927832635
 21
25.7431077893
 31
0.0
  0
LINE
  5
38C
100
AcDbEntity
  8
RACCORDO
100
AcDbLine
 62
7
  6
CONTINUOUS
 10
4.2496117931
 20
22.8117212115
 30
0.0
 11
-1.6579103829
 21
25.7654711189
 31
0.0
  0
LINE
  5
38D
100
AcDbEntity
  8
268140580
100
AcDbLine
 62
7
  6
CONTINUOUS
 10
-0.9366002399
 20
-25.8436907451
 30
0.0
 11
1.1847201036
 21
-24.7603575057
 31
0.0
  0
LINE
  5
38E
100
AcDbEntity
  8
268140580
100
AcDbLine
 62
7
  6
CONTINUOUS
 10
-2.5163012966
 20
22.9320518217
 30
0.0
 11
-1.1563693564
 21
23.0058000091
 31
0.0
  0
LINE
  5
38F
100
AcDbEntity
  8
0
100
AcDbLine
 62
7
  6
CONTINUOUS
 10
11.8868092368
 20
21.0003309761
 30
0.0
 11
11.4370645754
 21
21.1220788092
 31
0.0
  0
LINE
  5
390
100
AcDbEntity
  8
0
100
AcDbLine
 62
7
  6
CONTINUOUS
 10
10.2351208885
 20
21.2280759059
 30
0.0
 11
10.9420898286
 21
20.8745914358
 31
0.0
  0
LINE
  5
391
100
AcDbEntity
  8
0
100
AcDbLine
 62
7
  6
CONTINUOUS
 10
10.7300956353
 20
21.4755632793
 30
0.0
 11
11.4370645754
 21
21.1220788092
 31
0.0
  0
LINE
  5
392
100
AcDbEntity
  8
DRAFT
100
AcDbLine
 62
7
  6
CONTINUOUS
 10
10.0438223972
 20
22.1815193885
 30
0.0
 11
10.4755371941
 21
21.9656619901
 31
0.0
  0
LINE
  5
393
100
AcDbEntity
  8
0
100
AcDbLine
 62
7
  6
CONTINUOUS
 10
10.9420898286
 20
20.8745914358
 30
0.0
 11
11.1117772164
 21
20.7178822879
 31
0.0
  0
LINE
  5
394
100
AcDbEntity
  8
RACCORDO
100
AcDbLine
 62
7
  6
CONTINUOUS
 10
14.1404408547
 20
21.2380963565
 30
0.0
 11
14.2137111022
 21
21.2014591532
 31
0.0
  0
LINE
  5
395
100
AcDbEntity
  8
DRAFT
100
AcDbLine
 62
7
  6
CONTINUOUS
 10
14.101460703
 20
22.060800386
 30
0.0
 11
14.5961302122
 21
21.8134656314
 31
0.0
  0
LINE
  5
396
100
AcDbEntity
  8
0
100
AcDbLine
 62
7
  6
CONTINUOUS
 10
14.0464264391
 20
24.1400408307
 30
0.0
 11
17.1310326854
 21
22.5977377075
 31
0.0
  0
LINE
  5
397
100
AcDbEntity
  8
RACCORDO
100
AcDbLine
 62
250
  6
CONTINUOUS
 10
12.0486378756
 20
25.5922997351
 30
0.0
 11
12.9981069822
 21
25.1175651818
 31
0.0
  0
LINE
  5
398
100
AcDbEntity
  8
RACCORDO
100
AcDbLine
 62
250
  6
CONTINUOUS
 10
18.1383775898
 20
22.547429878
 30
0.0
 11
17.5943010599
 21
22.8194681429
 31
0.0
  0
LINE
  5
399
100
AcDbEntity
  8
RACCORDO
100
AcDbLine
 62
7
  6
CONTINUOUS
 10
12.4835107562
 20
25.6146630647
 30
0.0
 11
13.5205423583
 21
25.0961472636
 31
0.0
  0
LINE
  5
39A
100
AcDbEntity
  8
RACCORDO
100
AcDbLine
 62
7
  6
CONTINUOUS
 10
18.5732504704
 20
22.5697932076
 30
0.0
 11
17.941611445
 21
22.8856127203
 31
0.0
  0
LINE
  5
39B
100
AcDbEntity
  8
RACCORDO
100
AcDbLine
 62
250
  6
CONTINUOUS
 10
18.745203277
 20
21.859475219
 30
0.0
 11
18.6383014374
 21
22.0438536187
 31
0.0
  0
LINE
  5
39C
100
AcDbEntity
  8
RACCORDO
100
AcDbLine
 62
7
  6
CONTINUOUS
 10
19.0980465258
 20
21.9925735765
 30
0.0
 11
18.9911446862
 21
22.1769519762
 31
0.0
  0
ARC
  5
39D
100
AcDbEntity
  8
RACCORDO
100
AcDbCircle
 62
7
  6
CONTINUOUS
 10
18.4400139523
 20
-1.1643459504
 30
0.0
 40
1.0
100
AcDbArc
 50
298.3476707551
 51
360.0
  0
ARC
  5
39E
100
AcDbEntity
  8
RACCORDO
100
AcDbCircle
 62
7
  6
CONTINUOUS
 10
11.1060937645
 20
-13.8182973062
 30
0.0
 40
1.0
100
AcDbArc
 50
297.8702635617
 51
305.9325291988
  0
ARC
  5
39F
100
AcDbEntity
  8
RACCORDO
100
AcDbCircle
 62
250
  6
CONTINUOUS
 10
11.3358177415
 20
-13.9067554018
 30
0.0
 40
0.7873465432
100
AcDbArc
 50
305.9058775786
 51
312.1963650423
  0
ARC
  5
3A0
100
AcDbEntity
  8
RACCORDO
100
AcDbCircle
 62
250
  6
CONTINUOUS
 10
11.3282858362
 20
-14.1246758173
 30
0.0
 40
0.6215332579
100
AcDbArc
 50
297.8206030168
 51
305.9216450286
  0
ARC
  5
3A1
100
AcDbEntity
  8
RACCORDO
100
AcDbCircle
 62
250
  6
CONTINUOUS
 10
11.507488922
 20
-13.9947992997
 30
0.0
 40
0.621533258
100
AcDbArc
 50
297.8206030175
 51
305.9216450286
  0
ARC
  5
3A2
100
AcDbEntity
  8
268140580
100
AcDbCircle
 62
7
  6
CONTINUOUS
 10
0.7833243901
 20
-22.9739073228
 30
0.0
 40
0.4
100
AcDbArc
 50
292.7706722359
 51
295.7733104952
  0
ARC
  5
3A3
100
AcDbEntity
  8
RACCORDO
100
AcDbCircle
 62
250
  6
CONTINUOUS
 10
11.3999651194
 20
-14.3740880981
 30
0.0
 40
0.3712999289
100
AcDbArc
 50
297.876076126
 51
306.0283461424
  0
ARC
  5
3A4
100
AcDbEntity
  8
268140580
100
AcDbCircle
 62
7
  6
CONTINUOUS
 10
-2.3938062235
 20
-24.9492924858
 30
0.0
 40
0.25
100
AcDbArc
 50
179.999777014
 51
243.4334855434
  0
ARC
  5
3A5
100
AcDbEntity
  8
268140580
100
AcDbCircle
 62
7
  6
CONTINUOUS
 10
1.0710170043
 20
-24.1920732276
 30
0.0
 40
0.25
100
AcDbArc
 50
359.9972787629
 51
63.444674315
  0
ARC
  5
3A6
100
AcDbEntity
  8
268140580
100
AcDbCircle
 62
7
  6
CONTINUOUS
 10
1.0710170043
 20
-24.5377106885
 30
0.0
 40
0.25
100
AcDbArc
 50
297.051035757
 51
360.0
  0
ARC
  5
3A7
100
AcDbEntity
  8
268140580
100
AcDbCircle
 62
7
  6
CONTINUOUS
 10
-1.0503033393
 20
-25.6210439279
 30
0.0
 40
0.25
100
AcDbArc
 50
243.433722507
 51
297.0528641899
  0
ARC
  5
3A8
100
AcDbEntity
  8
268140580
100
AcDbCircle
 62
250
  6
CONTINUOUS
 10
0.8772148534
 20
-23.1975851169
 30
0.0
 40
0.157415174
100
AcDbArc
 50
292.7708161531
 51
294.851831249
  0
ARC
  5
3A9
100
AcDbEntity
  8
268140580
100
AcDbCircle
 62
250
  6
CONTINUOUS
 10
0.6489193803
 20
-23.7546217788
 30
0.0
 40
0.097953458
100
AcDbArc
 50
253.1235644439
 51
258.311709172
  0
ARC
  5
3AA
100
AcDbEntity
  8
RACCORDO
100
AcDbCircle
 62
250
  6
CONTINUOUS
 10
13.1907021193
 20
20.0775582153
 30
0.0
 40
1.4996174321
100
AcDbArc
 50
47.9997251211
 51
50.704456393
  0
ARC
  5
3AB
100
AcDbEntity
  8
RACCORDO
100
AcDbCircle
 62
7
  6
CONTINUOUS
 10
12.0362971607
 20
24.7202358737
 30
0.0
 40
1.0
100
AcDbArc
 50
63.4349488229
 51
114.7894524371
  0
ARC
  5
3AC
100
AcDbEntity
  8
RACCORDO
100
AcDbCircle
 62
7
  6
CONTINUOUS
 10
18.1260368749
 20
21.6753660166
 30
0.0
 40
1.0
100
AcDbArc
 50
30.1049527557
 51
63.4349488229
  0
ARC
  5
3AD
100
AcDbEntity
  8
RACCORDO
100
AcDbCircle
 62
7
  6
CONTINUOUS
 10
-2.1051239784
 20
24.8710439279
 30
0.0
 40
1.0
100
AcDbArc
 50
63.4349373369
 51
115.2504241015
  0
ARC
  5
3AE
100
AcDbEntity
  8
SMUSSO
100
AcDbCircle
 62
7
  6
CONTINUOUS
 10
9.6642452908
 20
21.5500067315
 30
0.0
 40
0.6659094502
100
AcDbArc
 50
180.0197391919
 51
188.9806503116
  0
ARC
  5
3AF
100
AcDbEntity
  8
268140580
100
AcDbCircle
 62
7
  6
CONTINUOUS
 10
-13.6368040444
 20
24.8070788971
 30
0.0
 40
0.25
100
AcDbArc
 50
63.4349488229
 51
116.0730493911
  0
ARC
  5
3B0
100
AcDbEntity
  8
268140580
100
AcDbCircle
 62
7
  6
CONTINUOUS
 10
-15.7581243879
 20
23.769091793
 30
0.0
 40
0.25
100
AcDbArc
 50
116.0730493911
 51
179.9983644966
  0
ARC
  5
3B1
100
AcDbEntity
  8
268140580
100
AcDbCircle
 62
7
  6
CONTINUOUS
 10
-15.7581243879
 20
23.4007812644
 30
0.0
 40
0.25
100
AcDbArc
 50
180.0
 51
243.4365640263
  0
ARC
  5
3B2
100
AcDbEntity
  8
268140580
100
AcDbCircle
 62
7
  6
CONTINUOUS
 10
-14.4146215037
 20
22.7290298223
 30
0.0
 40
0.25
100
AcDbArc
 50
243.4323386214
 51
258.2990804918
  0
ARC
  5
3B3
100
AcDbEntity
  8
268140580
100
AcDbCircle
 62
7
  6
CONTINUOUS
 10
-12.2933011601
 20
24.135327455
 30
0.0
 40
0.25
100
AcDbArc
 50
0.0000683861
 51
63.4331826614
  0
ARC
  5
3B4
100
AcDbEntity
  8
268140580
100
AcDbCircle
 62
7
  6
CONTINUOUS
 10
-12.2933011601
 20
23.789689994
 30
0.0
 40
0.25
100
AcDbArc
 50
320.360686548
 51
360.0
  0
ARC
  5
3B5
100
AcDbEntity
  8
268140580
100
AcDbCircle
 62
7
  6
CONTINUOUS
 10
-0.27248588
 20
18.1249198149
 30
0.0
 40
0.25
100
AcDbArc
 50
63.4349488229
 51
116.0730493911
  0
ARC
  5
3B6
100
AcDbEntity
  8
268140580
100
AcDbCircle
 62
7
  6
CONTINUOUS
 10
-2.3938062235
 20
17.0869327107
 30
0.0
 40
0.25
100
AcDbArc
 50
116.0730493911
 51
179.9983644966
  0
ARC
  5
3B7
100
AcDbEntity
  8
268140580
100
AcDbCircle
 62
7
  6
CONTINUOUS
 10
-2.3938062235
 20
16.7186221822
 30
0.0
 40
0.25
100
AcDbArc
 50
180.0
 51
243.4365640263
  0
ARC
  5
3B8
100
AcDbEntity
  8
268140580
100
AcDbCircle
 62
7
  6
CONTINUOUS
 10
-1.0503033393
 20
16.04687074
 30
0.0
 40
0.25
100
AcDbArc
 50
243.4323386214
 51
258.2990804918
  0
ARC
  5
3B9
100
AcDbEntity
  8
268140580
100
AcDbCircle
 62
7
  6
CONTINUOUS
 10
1.0710170043
 20
17.4531683728
 30
0.0
 40
0.25
100
AcDbArc
 50
0.0000683861
 51
63.4331826614
  0
ARC
  5
3BA
100
AcDbEntity
  8
268140580
100
AcDbCircle
 62
7
  6
CONTINUOUS
 10
1.0710170043
 20
17.1075309118
 30
0.0
 40
0.25
100
AcDbArc
 50
320.360686548
 51
360.0
  0
ARC
  5
3BB
100
AcDbEntity
  8
268140580
100
AcDbCircle
 62
250
  6
CONTINUOUS
 10
0.8509397874
 20
15.32769567
 30
0.0
 40
0.1676483017
100
AcDbArc
 50
116.5833561081
 51
119.4489463531
  0
ARC
  5
3BC
100
AcDbEntity
  8
RACCORDO
100
AcDbCircle
 62
7
  6
CONTINUOUS
 10
-4.8377938957
 20
21.303045181
 30
0.0
 40
0.1582616493
100
AcDbArc
 50
114.7908445518
 51
131.2590290578
  0
ARC
  5
3BD
100
AcDbEntity
  8
268140580
100
AcDbCircle
 62
250
  6
CONTINUOUS
 10
-0.6281299776
 20
15.6113985687
 30
0.0
 40
0.0961144469
100
AcDbArc
 50
50.2027227975
 51
59.2431645507
  0
ARC
  5
3BE
100
AcDbEntity
  8
268140580
100
AcDbCircle
 62
250
  6
CONTINUOUS
 10
-13.992448142
 20
22.2935576509
 30
0.0
 40
0.0961144469
100
AcDbArc
 50
50.2027227976
 51
59.2431645507
  0
ARC
  5
3BF
100
AcDbEntity
  8
268140580
100
AcDbCircle
 62
250
  6
CONTINUOUS
 10
-2.4637809579
 20
16.5787028648
 30
0.0
 40
0.0935584577
100
AcDbArc
 50
242.0898052435
 51
243.4432065494
  0
ARC
  5
3C0
100
AcDbEntity
  8
268140580
100
AcDbCircle
 62
250
  6
CONTINUOUS
 10
-15.8280991223
 20
23.260861947
 30
0.0
 40
0.0935584578
100
AcDbArc
 50
242.0898052436
 51
243.4432065492
  0
ARC
  5
3C1
100
AcDbEntity
  8
RACCORDO
100
AcDbCircle
 62
7
  6
CONTINUOUS
 10
21.0213488392
 20
16.4512085073
 30
0.0
 40
0.0895785042
100
AcDbArc
 50
352.3440806659
 51
359.9965311264
  0
ARC
  5
3C2
100
AcDbEntity
  8
RACCORDO
100
AcDbCircle
 62
7
  6
CONTINUOUS
 10
21.0213488392
 20
4.5000579351
 30
0.0
 40
0.0895785042
100
AcDbArc
 50
352.3440806657
 51
359.9965311265
  0
ARC
  5
3C3
100
AcDbEntity
  8
RACCORDO
100
AcDbCircle
 62
7
  6
CONTINUOUS
 10
13.2573095015
 20
21.5928616171
 30
0.0
 40
0.0776367623
100
AcDbArc
 50
63.5314456204
 51
73.1139843021
  0
ARC
  5
3C4
100
AcDbEntity
  8
RACCORDO
100
AcDbCircle
 62
7
  6
CONTINUOUS
 10
14.0677429258
 20
21.1831850629
 30
0.0
 40
0.0759917442
100
AcDbArc
 50
55.9851762195
 51
62.7845765142
  0
ARC
  5
3C5
100
AcDbEntity
  8
RACCORDO
100
AcDbCircle
 62
250
  6
CONTINUOUS
 10
-3.6465711249
 20
21.4918141763
 30
0.0
 40
0.075043818
100
AcDbArc
 50
63.434295889
 51
64.3429357332
  0
ARC
  5
3C6
100
AcDbEntity
  8
RACCORDO
100
AcDbCircle
 62
7
  6
CONTINUOUS
 10
21.0495371853
 20
17.2094260439
 30
0.0
 40
0.0613901579
100
AcDbArc
 50
0.0018660923
 51
6.7874565031
  0
ARC
  5
3C7
100
AcDbEntity
  8
RACCORDO
100
AcDbCircle
 62
7
  6
CONTINUOUS
 10
21.0495371853
 20
5.2582754717
 30
0.0
 40
0.0613901579
100
AcDbArc
 50
0.0018660923
 51
6.7874565031
  0
ARC
  5
3C8
100
AcDbEntity
  8
0
100
AcDbCircle
 62
250
  6
CONTINUOUS
 10
539.571268576
 20
-7.5966756565
 30
0.0
 40
545.6725964136
100
AcDbArc
 50
178.0732394138
 51
178.3122962863
  0
ARC
  5
3C9
100
AcDbEntity
  8
RACCORDO
100
AcDbCircle
 62
250
  6
CONTINUOUS
 10
539.571268576
 20
-7.5966756565
 30
0.0
 40
545.6725964136
100
AcDbArc
 50
178.0732394138
 51
178.3122962863
  0
ARC
  5
3CA
100
AcDbEntity
  8
0
100
AcDbCircle
 62
250
  6
CONTINUOUS
 10
539.7249025117
 20
-7.5996038948
 30
0.0
 40
545.1253479812
100
AcDbArc
 50
178.0732067064
 51
178.3108751132
  0
ARC
  5
3CB
100
AcDbEntity
  8
RACCORDO
100
AcDbCircle
 62
250
  6
CONTINUOUS
 10
539.7249025119
 20
-7.5996038948
 30
0.0
 40
545.1253479814
100
AcDbArc
 50
178.0732067064
 51
178.3108751132
  0
ARC
  5
3CC
100
AcDbEntity
  8
0
100
AcDbCircle
 62
250
  6
CONTINUOUS
 10
533.7721546176
 20
-7.4275988883
 30
0.0
 40
539.1701166195
100
AcDbArc
 50
178.3104993513
 51
179.03794459
  0
ARC
  5
3CD
100
AcDbEntity
  8
RACCORDO
100
AcDbCircle
 62
250
  6
CONTINUOUS
 10
533.7721546176
 20
-7.4275988883
 30
0.0
 40
539.1701166195
100
AcDbArc
 50
178.3104993513
 51
179.03794459
  0
ARC
  5
3CE
100
AcDbEntity
  8
RACCORDO
100
AcDbCircle
 62
250
  6
CONTINUOUS
 10
495.7718147809
 20
-7.457666275
 30
0.0
 40
501.1660472137
100
AcDbArc
 50
181.1597546484
 51
181.9891695565
  0
ARC
  5
3CF
100
AcDbEntity
  8
0
100
AcDbCircle
 62
250
  6
CONTINUOUS
 10
495.7718147809
 20
-7.457666275
 30
0.0
 40
501.1660472137
100
AcDbArc
 50
181.1597546484
 51
181.9891695565
  0
SPLINE
  5
3D0
100
AcDbEntity
  8
RACCORDO
100
AcDbSpline
 62
7
  6
CONTINUOUS
 70
0
 71
3
 72
15
 73
11
 74
0
 42
0.0000001
 43
0.0000001
 44
0.0000000001
 40
0.0
 40
0.0
 40
0.0
 40
0.0
 40
0.1228891515
 40
0.2512812825
 40
0.3828356873
 40
0.5149559464
 40
0.6450151538
 40
0.7705361192
 40
0.8893777524
 40
1.0
 40
1.0
 40
1.0
 40
1.0
 10
13.2798618924
 20
21.6671542492
 30
0.0
 10
13.1524971158
 20
21.7059108981
 30
0.0
 10
12.887631105
 20
21.7710684019
 30
0.0
 10
12.4768840219
 20
21.832117792
 30
0.0
 10
12.0523918611
 20
21.8578268021
 30
0.0
 10
11.6254588745
 20
21.8475544686
 30
0.0
 10
11.2074373795
 20
21.8015671547
 30
0.0
 10
10.8092812719
 20
21.7208989105
 30
0.0
 10
10.4411825331
 20
21.6073238138
 30
0.0
 10
10.2128397102
 20
21.5070668292
 30
0.0
 10
10.1068334597
 20
21.4511676372
 30
0.0
  0
SPLINE
  5
3D1
100
AcDbEntity
  8
RACCORDO
100
AcDbSpline
 62
7
  6
CONTINUOUS
 70
0
 71
3
 72
9
 73
5
 74
0
 42
0.0000001
 43
0.0000001
 44
0.0000000001
 40
0.0
 40
0.0
 40
0.0
 40
0.0
 40
0.5000056801
 40
1.0
 40
1.0
 40
1.0
 40
1.0
 10
14.1024967874
 20
21.2507640114
 30
0.0
 10
13.9677331452
 20
21.3200218187
 30
0.0
 10
13.6979817574
 20
21.4580940455
 30
0.0
 10
13.4274898967
 20
21.5947167386
 30
0.0
 10
13.2919127173
 20
21.6623604252
 30
0.0
  0
SPLINE
  5
3D2
100
AcDbEntity
  8
RACCORDO
100
AcDbSpline
 62
7
  6
CONTINUOUS
 70
0
 71
3
 72
11
 73
7
 74
0
 42
0.0000001
 43
0.0000001
 44
0.0000000001
 40
0.0
 40
0.0
 40
0.0
 40
0.0
 40
0.2790622737
 40
0.5354121262
 40
0.7731144998
 40
1.0
 40
1.0
 40
1.0
 40
1.0
 10
14.0467753597
 20
21.2317859001
 30
0.0
 10
14.0548573573
 20
21.2358268989
 30
0.0
 10
14.0710198078
 20
21.2423829213
 30
0.0
 10
14.0957840016
 20
21.2471650627
 30
0.0
 10
14.1193451715
 20
21.246131064
 30
0.0
 10
14.1338671547
 20
21.2413761806
 30
0.0
 10
14.1404408547
 20
21.2380963565
 30
0.0
  0
SPLINE
  5
3D3
100
AcDbEntity
  8
RACCORDO
100
AcDbSpline
 62
250
  6
CONTINUOUS
 70
0
 71
3
 72
9
 73
5
 74
0
 42
0.0000001
 43
0.0000001
 44
0.0000000001
 40
0.0
 40
0.0
 40
0.0
 40
0.0
 40
0.2546879129
 40
1.0
 40
1.0
 40
1.0
 40
1.0
 10
14.0467462094
 20
21.2317713249
 30
0.0
 10
14.0537212921
 20
21.2258930008
 30
0.0
 10
14.0808878485
 20
21.2025530805
 30
0.0
 10
14.1071546923
 20
21.1781609677
 30
0.0
 10
14.126120214
 20
21.1593763641
 30
0.0
  0
SPLINE
  5
3D4
100
AcDbEntity
  8
RACCORDO
100
AcDbSpline
 62
250
  6
CONTINUOUS
 70
0
 71
3
 72
9
 73
5
 74
0
 42
0.0000001
 43
0.0000001
 44
0.0000000001
 40
0.0
 40
0.0
 40
0.0
 40
0.0
 40
0.4693787068
 40
1.0
 40
1.0
 40
1.0
 40
1.0
 10
9.6246967246
 20
21.089399417
 30
0.0
 10
9.6874658925
 20
21.1602885886
 30
0.0
 10
9.8395452875
 20
21.2952742298
 30
0.0
 10
10.0121522167
 20
21.4012416863
 30
0.0
 10
10.1068350369
 20
21.4511668894
 30
0.0
  0
SPLINE
  5
3D5
100
AcDbEntity
  8
RACCORDO
100
AcDbSpline
 62
7
  6
CONTINUOUS
 70
0
 71
3
 72
9
 73
5
 74
0
 42
0.0000001
 43
0.0000001
 44
0.0000000001
 40
0.0
 40
0.0
 40
0.0
 40
0.0
 40
0.4665212439
 40
1.0
 40
1.0
 40
1.0
 40
1.0
 10
13.2798605473
 20
21.6671510322
 30
0.0
 10
13.2673830882
 20
21.6709459443
 30
0.0
 10
13.2384236573
 20
21.6722296738
 30
0.0
 10
13.2115863667
 20
21.662719541
 30
0.0
 10
13.1982472222
 20
21.6560499688
 30
0.0
  0
SPLINE
  5
3D6
100
AcDbEntity
  8
RACCORDO
100
AcDbSpline
 62
250
  6
CONTINUOUS
 70
0
 71
3
 72
18
 73
14
 74
0
 42
0.0000001
 43
0.0000001
 44
0.0000000001
 40
0.0
 40
0.0
 40
0.0
 40
0.0
 40
0.0436254244
 40
0.0909262962
 40
0.1420478763
 40
0.1969445695
 40
0.2554205268
 40
0.3171621781
 40
0.4486703507
 40
0.5874937426
 40
0.72891467
 40
0.8679925383
 40
1.0
 40
1.0
 40
1.0
 40
1.0
 10
9.7027120278
 20
21.0565642578
 30
0.0
 10
9.7360148116
 20
21.0989347738
 30
0.0
 10
9.8125741654
 20
21.1817507251
 30
0.0
 10
9.9477722453
 20
21.2942193988
 30
0.0
 10
10.1062120673
 20
21.3986221152
 30
0.0
 10
10.2860474352
 20
21.4938033456
 30
0.0
 10
10.4852473143
 20
21.5787433447
 30
0.0
 10
10.7798143567
 20
21.6791199479
 30
0.0
 10
11.1807804944
 20
21.7712566917
 30
0.0
 10
11.6872979849
 20
21.8274613969
 30
0.0
 10
12.2063233272
 20
21.8289123583
 30
0.0
 10
12.7140576078
 20
21.7755816376
 30
0.0
 10
13.0419051639
 20
21.702425757
 30
0.0
 10
13.198244493
 20
21.6560486042
 30
0.0
  0
SPLINE
  5
3D7
100
AcDbEntity
  8
RACCORDO
100
AcDbSpline
 62
250
  6
CONTINUOUS
 70
0
 71
3
 72
12
 73
8
 74
0
 42
0.0000001
 43
0.0000001
 44
0.0000000001
 40
0.0
 40
0.0
 40
0.0
 40
0.0
 40
0.1082093374
 40
0.2185602744
 40
0.4520130685
 40
0.7112874
 40
1.0
 40
1.0
 40
1.0
 40
1.0
 10
-20.2859625604
 20
-18.1853219031
 30
0.0
 10
-20.3146205507
 20
-18.1709948819
 30
0.0
 10
-20.3700608345
 20
-18.1368608082
 30
0.0
 10
-20.4708007469
 20
-18.0479034302
 30
0.0
 10
-20.5730696749
 20
-17.8978803483
 30
0.0
 10
-20.6484821023
 20
-17.6770036172
 30
0.0
 10
-20.6674857043
 20
-17.5146884201
 30
0.0
 10
-20.670378951
 20
-17.4292524235
 30
0.0
  0
SPLINE
  5
3D8
100
AcDbEntity
  8
RACCORDO
100
AcDbSpline
 62
250
  6
CONTINUOUS
 70
0
 71
3
 72
11
 73
7
 74
0
 42
0.0000001
 43
0.0000001
 44
0.0000000001
 40
0.0
 40
0.0
 40
0.0
 40
0.0
 40
0.211578884
 40
0.4417402858
 40
0.7032481867
 40
1.0
 40
1.0
 40
1.0
 40
1.0
 10
-20.8168194253
 20
-17.2516407731
 30
0.0
 10
-20.8162464397
 20
-17.2686120776
 30
0.0
 10
-20.8082100768
 20
-17.3040748744
 30
0.0
 10
-20.7774939523
 20
-17.3524185969
 30
0.0
 10
-20.7303476551
 20
-17.395436504
 30
0.0
 10
-20.6916741203
 20
-17.41858676
 30
0.0
 10
-20.6703789506
 20
-17.4292524233
 30
0.0
  0
SPLINE
  5
3D9
100
AcDbEntity
  8
RACCORDO
100
AcDbSpline
 62
250
  6
CONTINUOUS
 70
0
 71
3
 72
11
 73
7
 74
0
 42
0.0000001
 43
0.0000001
 44
0.0000000001
 40
0.0
 40
0.0
 40
0.0
 40
0.0
 40
0.2461768177
 40
0.5106203049
 40
0.769261582
 40
1.0
 40
1.0
 40
1.0
 40
1.0
 10
-20.9642028834
 20
-0.1124892171
 30
0.0
 10
-20.9642182014
 20
-0.0886065109
 30
0.0
 10
-20.9560877391
 20
-0.0389787193
 30
0.0
 10
-20.9265053046
 20
0.0302102692
 30
0.0
 10
-20.8828962807
 20
0.0896881388
 30
0.0
 10
-20.8450988207
 20
0.1199532159
 30
0.0
 10
-20.8252497128
 20
0.1303021042
 30
0.0
  0
SPLINE
  5
3DA
100
AcDbEntity
  8
RACCORDO
100
AcDbSpline
 62
250
  6
CONTINUOUS
 70
0
 71
3
 72
11
 73
7
 74
0
 42
0.0000001
 43
0.0000001
 44
0.0000000001
 40
0.0
 40
0.0
 40
0.0
 40
0.0
 40
0.3060830162
 40
0.5607767129
 40
0.780448977
 40
1.0
 40
1.0
 40
1.0
 40
1.0
 10
-20.8252497128
 20
0.1303021042
 30
0.0
 10
-20.8420789159
 20
0.1387224177
 30
0.0
 10
-20.8716474753
 20
0.1571278442
 30
0.0
 10
-20.9042136366
 20
0.1937370379
 30
0.0
 10
-20.9169071935
 20
0.2363236879
 30
0.0
 10
-20.9097468045
 20
0.2637662361
 30
0.0
 10
-20.9037188514
 20
0.2758436294
 30
0.0
  0
SPLINE
  5
3DB
100
AcDbEntity
  8
RACCORDO
100
AcDbSpline
 62
250
  6
CONTINUOUS
 70
0
 71
3
 72
9
 73
5
 74
0
 42
0.0000001
 43
0.0000001
 44
0.0000000001
 40
0.0
 40
0.0
 40
0.0
 40
0.0
 40
0.2181138585
 40
1.0
 40
1.0
 40
1.0
 40
1.0
 10
-20.9037188514
 20
0.2758436294
 30
0.0
 10
-20.9003800109
 20
0.2825332121
 30
0.0
 10
-20.8815999484
 20
0.3114971023
 30
0.0
 10
-20.8525068395
 20
0.3322895877
 30
0.0
 10
-20.8289223451
 20
0.34502122
 30
0.0
  0
SPLINE
  5
3DC
100
AcDbEntity
  8
RACCORDO
100
AcDbSpline
 62
250
  6
CONTINUOUS
 70
0
 71
3
 72
11
 73
7
 74
0
 42
0.0000001
 43
0.0000001
 44
0.0000000001
 40
0.0
 40
0.0
 40
0.0
 40
0.0
 40
0.3012071369
 40
0.5637389414
 40
0.7920673785
 40
1.0
 40
1.0
 40
1.0
 40
1.0
 10
-20.9641922173
 20
-0.1124838783
 30
0.0
 10
-20.9858985669
 20
-0.1016268811
 30
0.0
 10
-21.0251691581
 20
-0.0782724908
 30
0.0
 10
-21.0728200666
 20
-0.0349756933
 30
0.0
 10
-21.1033347839
 20
0.0133953244
 30
0.0
 10
-21.1106401274
 20
0.0488119368
 30
0.0
 10
-21.1106501121
 20
0.065566368
 30
0.0
  0
SPLINE
  5
3DD
100
AcDbEntity
  8
RACCORDO
100
AcDbSpline
 62
250
  6
CONTINUOUS
 70
0
 71
3
 72
11
 73
7
 74
0
 42
0.0000001
 43
0.0000001
 44
0.0000000001
 40
0.0
 40
0.0
 40
0.0
 40
0.0
 40
0.2461767443
 40
0.5106201668
 40
0.7692614935
 40
1.0
 40
1.0
 40
1.0
 40
1.0
 10
-6.0970692261
 20
-7.5460560458
 30
0.0
 10
-6.0970845473
 20
-7.5221733465
 30
0.0
 10
-6.088954095
 20
-7.4725455662
 30
0.0
 10
-6.0593716645
 20
-7.4033565843
 30
0.0
 10
-6.0157626401
 20
-7.343878706
 30
0.0
 10
-5.9779651712
 20
-7.3136136166
 30
0.0
 10
-5.9581160554
 20
-7.3032647245
 30
0.0
  0
SPLINE
  5
3DE
100
AcDbEntity
  8
RACCORDO
100
AcDbSpline
 62
250
  6
CONTINUOUS
 70
0
 71
3
 72
11
 73
7
 74
0
 42
0.0000001
 43
0.0000001
 44
0.0000000001
 40
0.0
 40
0.0
 40
0.0
 40
0.0
 40
0.2465057813
 40
0.5120770332
 40
0.771055558
 40
1.0
 40
1.0
 40
1.0
 40
1.0
 10
-5.3961895141
 20
-7.5445238964
 30
0.0
 10
-5.3965407975
 20
-7.5204607321
 30
0.0
 10
-5.4054375443
 20
-7.4705200145
 30
0.0
 10
-5.4358270837
 20
-7.4010030914
 30
0.0
 10
-5.479841158
 20
-7.3413283668
 30
0.0
 10
-5.5177438242
 20
-7.3109280231
 30
0.0
 10
-5.5375893312
 20
-7.300645287
 30
0.0
  0
SPLINE
  5
3DF
100
AcDbEntity
  8
RACCORDO
100
AcDbSpline
 62
250
  6
CONTINUOUS
 70
0
 71
3
 72
11
 73
7
 74
0
 42
0.0000001
 43
0.0000001
 44
0.0000000001
 40
0.0
 40
0.0
 40
0.0
 40
0.0
 40
0.2375914877
 40
0.5022495496
 40
0.765700396
 40
1.0
 40
1.0
 40
1.0
 40
1.0
 10
-5.5375893312
 20
-7.300645287
 30
0.0
 10
-5.568169926
 20
-7.3160447229
 30
0.0
 10
-5.6380041081
 20
-7.3383196936
 30
0.0
 10
-5.7483952439
 20
-7.349500059
 30
0.0
 10
-5.8584448586
 20
-7.3397961562
 30
0.0
 10
-5.9279118915
 20
-7.3183565617
 30
0.0
 10
-5.9581160554
 20
-7.3032647245
 30
0.0
  0
SPLINE
  5
3E0
100
AcDbEntity
  8
RACCORDO
100
AcDbSpline
 62
250
  6
CONTINUOUS
 70
0
 71
3
 72
11
 73
7
 74
0
 42
0.0000001
 43
0.0000001
 44
0.0000000001
 40
0.0
 40
0.0
 40
0.0
 40
0.0
 40
0.237222694
 40
0.5018711747
 40
0.7655141179
 40
1.0
 40
1.0
 40
1.0
 40
1.0
 10
-5.3962008594
 20
-7.5445180187
 30
0.0
 10
-5.4472262107
 20
-7.5698112432
 30
0.0
 10
-5.5636929883
 20
-7.6061689283
 30
0.0
 10
-5.747618662
 20
-7.6238912572
 30
0.0
 10
-5.9309659171
 20
-7.6071111507
 30
0.0
 10
-6.0467048128
 20
-7.5712187162
 30
0.0
 10
-6.0970585667
 20
-7.5460507034
 30
0.0
  0
SPLINE
  5
3E1
100
AcDbEntity
  8
RACCORDO
100
AcDbSpline
 62
250
  6
CONTINUOUS
 70
0
 71
3
 72
9
 73
5
 74
0
 42
0.0000001
 43
0.0000001
 44
0.0000000001
 40
0.0
 40
0.0
 40
0.0
 40
0.0
 40
0.2483870583
 40
1.0
 40
1.0
 40
1.0
 40
1.0
 10
-20.670378951
 20
-17.4292524235
 30
0.0
 10
-20.7185308127
 20
-15.9960647769
 30
0.0
 10
-20.8881518474
 20
-10.2252950593
 30
0.0
 10
-20.9614678553
 20
-4.4517248518
 30
0.0
 10
-20.9642028834
 20
-0.1124892171
 30
0.0
  0
SPLINE
  5
3E2
100
AcDbEntity
  8
RACCORDO
100
AcDbSpline
 62
250
  6
CONTINUOUS
 70
0
 71
3
 72
11
 73
7
 74
0
 42
0.0000001
 43
0.0000001
 44
0.0000000001
 40
0.0
 40
0.0
 40
0.0
 40
0.0
 40
0.2892007081
 40
0.5494067675
 40
0.7827886369
 40
1.0
 40
1.0
 40
1.0
 40
1.0
 10
-4.4110452671
 20
-25.3537456237
 30
0.0
 10
-4.4124289594
 20
-25.3862048962
 30
0.0
 10
-4.4205013885
 20
-25.4478753577
 30
0.0
 10
-4.4511394618
 20
-25.5312581669
 30
0.0
 10
-4.4991411261
 20
-25.5966562808
 30
0.0
 10
-4.5423586551
 20
-25.6254830575
 30
0.0
 10
-4.5648533531
 20
-25.6349393204
 30
0.0
  0
SPLINE
  5
3E3
100
AcDbEntity
  8
RACCORDO
100
AcDbSpline
 62
250
  6
CONTINUOUS
 70
0
 71
3
 72
10
 73
6
 74
0
 42
0.0000001
 43
0.0000001
 44
0.0000000001
 40
0.0
 40
0.0
 40
0.0
 40
0.0
 40
0.226889591
 40
0.4649710397
 40
1.0
 40
1.0
 40
1.0
 40
1.0
 10
-20.9214173555
 20
0.3490897794
 30
0.0
 10
-20.9150472156
 20
0.3525228216
 30
0.0
 10
-20.9008845622
 20
0.357677623
 30
0.0
 10
-20.8687606294
 20
0.3599627202
 30
0.0
 10
-20.8442910238
 20
0.3524363443
 30
0.0
 10
-20.8289223451
 20
0.34502122
 30
0.0
  0
SPLINE
  5
3E4
100
AcDbEntity
  8
RACCORDO
100
AcDbSpline
 62
250
  6
CONTINUOUS
 70
0
 71
3
 72
11
 73
7
 74
0
 42
0.0000001
 43
0.0000001
 44
0.0000000001
 40
0.0
 40
0.0
 40
0.0
 40
0.0
 40
0.2389525865
 40
0.5036636627
 40
0.7664005477
 40
1.0
 40
1.0
 40
1.0
 40
1.0
 10
-5.0922328338
 20
-24.8534326213
 30
0.0
 10
-5.1429551175
 20
-24.8804368742
 30
0.0
 10
-5.2590166297
 20
-24.9202616544
 30
0.0
 10
-5.4431080956
 20
-24.9421165266
 30
0.0
 10
-5.6266647996
 20
-24.9281978523
 30
0.0
 10
-5.74254777
 20
-24.8931185261
 30
0.0
 10
-5.7928097514
 20
-24.8680301829
 30
0.0
  0
SPLINE
  5
3E5
100
AcDbEntity
  8
RACCORDO
100
AcDbSpline
 62
250
  6
CONTINUOUS
 70
0
 71
3
 72
11
 73
7
 74
0
 42
0.0000001
 43
0.0000001
 44
0.0000000001
 40
0.0
 40
0.0
 40
0.0
 40
0.0
 40
0.2866140812
 40
0.5452193704
 40
0.7796921204
 40
1.0
 40
1.0
 40
1.0
 40
1.0
 10
-5.7928162621
 20
-24.8680337679
 30
0.0
 10
-5.7898546815
 20
-24.9534998512
 30
0.0
 10
-5.770394307
 20
-25.1162118573
 30
0.0
 10
-5.6930214352
 20
-25.3379517281
 30
0.0
 10
-5.5704091931
 20
-25.5156241697
 30
0.0
 10
-5.4591679479
 20
-25.5985659566
 30
0.0
 10
-5.4004349787
 20
-25.6280843257
 30
0.0
  0
SPLINE
  5
3E6
100
AcDbEntity
  8
RACCORDO
100
AcDbSpline
 62
250
  6
CONTINUOUS
 70
0
 71
3
 72
15
 73
11
 74
0
 42
0.0000001
 43
0.0000001
 44
0.0000000001
 40
0.0
 40
0.0
 40
0.0
 40
0.0
 40
0.1465170624
 40
0.2806660088
 40
0.4035019833
 40
0.5182264345
 40
0.6298628163
 40
0.7442593416
 40
0.8665634409
 40
1.0
 40
1.0
 40
1.0
 40
1.0
 10
-5.0922328338
 20
-24.8534326213
 30
0.0
 10
-5.0904781862
 20
-24.9036631947
 30
0.0
 10
-5.079851768
 20
-24.9998983558
 30
0.0
 10
-5.039213294
 20
-25.1331858281
 30
0.0
 10
-4.9752268092
 20
-25.2449570415
 30
0.0
 10
-4.8893050671
 20
-25.3307376308
 30
0.0
 10
-4.7843711529
 20
-25.3861868832
 30
0.0
 10
-4.6653465465
 20
-25.4087241702
 30
0.0
 10
-4.5375410055
 20
-25.3982641788
 30
0.0
 10
-4.4532550989
 20
-25.3714542669
 30
0.0
 10
-4.4110452671
 20
-25.3537456237
 30
0.0
  0
SPLINE
  5
3E7
100
AcDbEntity
  8
RACCORDO
100
AcDbSpline
 62
250
  6
CONTINUOUS
 70
0
 71
3
 72
9
 73
5
 74
0
 42
0.0000001
 43
0.0000001
 44
0.0000000001
 40
0.0
 40
0.0
 40
0.0
 40
0.0
 40
0.251554901
 40
1.0
 40
1.0
 40
1.0
 40
1.0
 10
-6.0970692261
 20
-7.5460560458
 30
0.0
 10
-6.0961210713
 20
-8.9987953324
 30
0.0
 10
-6.0681859301
 20
-14.7737890191
 30
0.0
 10
-5.9430098477
 20
-20.5483437337
 30
0.0
 10
-5.7928162621
 20
-24.8680337679
 30
0.0
  0
SPLINE
  5
3E8
100
AcDbEntity
  8
RACCORDO
100
AcDbSpline
 62
250
  6
CONTINUOUS
 70
0
 71
3
 72
9
 73
5
 74
0
 42
0.0000001
 43
0.0000001
 44
0.0000000001
 40
0.0
 40
0.0
 40
0.0
 40
0.0
 40
0.250891012
 40
1.0
 40
1.0
 40
1.0
 40
1.0
 10
-5.3961895141
 20
-7.5445238964
 30
0.0
 10
-5.3956474075
 20
-8.3856321121
 30
0.0
 10
-5.385356008
 20
-11.738105955
 30
0.0
 10
-5.3424296979
 20
-15.090483074
 30
0.0
 10
-5.2915671055
 20
-17.6013447172
 30
0.0
  0
SPLINE
  5
3E9
100
AcDbEntity
  8
0
100
AcDbSpline
 62
250
  6
CONTINUOUS
 70
0
 71
3
 72
12
 73
8
 74
0
 42
0.0000001
 43
0.0000001
 44
0.0000000001
 40
0.0
 40
0.0
 40
0.0
 40
0.0
 40
0.1082093374
 40
0.2185602744
 40
0.4520130685
 40
0.7112874
 40
1.0
 40
1.0
 40
1.0
 40
1.0
 10
-20.2859625604
 20
-18.1853219031
 30
0.0
 10
-20.3146205507
 20
-18.1709948819
 30
0.0
 10
-20.3700608345
 20
-18.1368608082
 30
0.0
 10
-20.4708007469
 20
-18.0479034302
 30
0.0
 10
-20.5730696749
 20
-17.8978803483
 30
0.0
 10
-20.6484821023
 20
-17.6770036172
 30
0.0
 10
-20.6674857043
 20
-17.5146884201
 30
0.0
 10
-20.670378951
 20
-17.4292524235
 30
0.0
  0
SPLINE
  5
3EA
100
AcDbEntity
  8
0
100
AcDbSpline
 62
250
  6
CONTINUOUS
 70
0
 71
3
 72
10
 73
6
 74
0
 42
0.0000001
 43
0.0000001
 44
0.0000000001
 40
0.0
 40
0.0
 40
0.0
 40
0.0
 40
0.226889591
 40
0.4649710397
 40
1.0
 40
1.0
 40
1.0
 40
1.0
 10
-20.9214173555
 20
0.3490897794
 30
0.0
 10
-20.9150472156
 20
0.3525228216
 30
0.0
 10
-20.9008845622
 20
0.357677623
 30
0.0
 10
-20.8687606294
 20
0.3599627202
 30
0.0
 10
-20.8442910238
 20
0.3524363443
 30
0.0
 10
-20.8289223451
 20
0.34502122
 30
0.0
  0
SPLINE
  5
3EB
100
AcDbEntity
  8
0
100
AcDbSpline
 62
250
  6
CONTINUOUS
 70
0
 71
3
 72
11
 73
7
 74
0
 42
0.0000001
 43
0.0000001
 44
0.0000000001
 40
0.0
 40
0.0
 40
0.0
 40
0.0
 40
0.2461768177
 40
0.5106203049
 40
0.769261582
 40
1.0
 40
1.0
 40
1.0
 40
1.0
 10
-20.9642028834
 20
-0.1124892171
 30
0.0
 10
-20.9642182014
 20
-0.0886065109
 30
0.0
 10
-20.9560877391
 20
-0.0389787193
 30
0.0
 10
-20.9265053046
 20
0.0302102692
 30
0.0
 10
-20.8828962807
 20
0.0896881388
 30
0.0
 10
-20.8450988207
 20
0.1199532159
 30
0.0
 10
-20.8252497128
 20
0.1303021042
 30
0.0
  0
SPLINE
  5
3EC
100
AcDbEntity
  8
0
100
AcDbSpline
 62
250
  6
CONTINUOUS
 70
0
 71
3
 72
11
 73
7
 74
0
 42
0.0000001
 43
0.0000001
 44
0.0000000001
 40
0.0
 40
0.0
 40
0.0
 40
0.0
 40
0.3060830162
 40
0.5607767129
 40
0.780448977
 40
1.0
 40
1.0
 40
1.0
 40
1.0
 10
-20.8252497128
 20
0.1303021042
 30
0.0
 10
-20.8420789159
 20
0.1387224177
 30
0.0
 10
-20.8716474753
 20
0.1571278442
 30
0.0
 10
-20.9042136366
 20
0.1937370379
 30
0.0
 10
-20.9169071935
 20
0.2363236879
 30
0.0
 10
-20.9097468045
 20
0.2637662361
 30
0.0
 10
-20.9037188514
 20
0.2758436294
 30
0.0
  0
SPLINE
  5
3ED
100
AcDbEntity
  8
0
100
AcDbSpline
 62
250
  6
CONTINUOUS
 70
0
 71
3
 72
9
 73
5
 74
0
 42
0.0000001
 43
0.0000001
 44
0.0000000001
 40
0.0
 40
0.0
 40
0.0
 40
0.0
 40
0.2181138585
 40
1.0
 40
1.0
 40
1.0
 40
1.0
 10
-20.9037188514
 20
0.2758436294
 30
0.0
 10
-20.9003800109
 20
0.2825332121
 30
0.0
 10
-20.8815999484
 20
0.3114971023
 30
0.0
 10
-20.8525068395
 20
0.3322895877
 30
0.0
 10
-20.8289223451
 20
0.34502122
 30
0.0
  0
SPLINE
  5
3EE
100
AcDbEntity
  8
0
100
AcDbSpline
 62
250
  6
CONTINUOUS
 70
0
 71
3
 72
11
 73
7
 74
0
 42
0.0000001
 43
0.0000001
 44
0.0000000001
 40
0.0
 40
0.0
 40
0.0
 40
0.0
 40
0.3012071369
 40
0.5637389414
 40
0.7920673785
 40
1.0
 40
1.0
 40
1.0
 40
1.0
 10
-20.9641922173
 20
-0.1124838783
 30
0.0
 10
-20.9858985669
 20
-0.1016268811
 30
0.0
 10
-21.0251691581
 20
-0.0782724908
 30
0.0
 10
-21.0728200666
 20
-0.0349756933
 30
0.0
 10
-21.1033347839
 20
0.0133953244
 30
0.0
 10
-21.1106401274
 20
0.0488119368
 30
0.0
 10
-21.1106501121
 20
0.065566368
 30
0.0
  0
SPLINE
  5
3EF
100
AcDbEntity
  8
0
100
AcDbSpline
 62
250
  6
CONTINUOUS
 70
0
 71
3
 72
11
 73
7
 74
0
 42
0.0000001
 43
0.0000001
 44
0.0000000001
 40
0.0
 40
0.0
 40
0.0
 40
0.0
 40
0.2461767443
 40
0.5106201668
 40
0.7692614935
 40
1.0
 40
1.0
 40
1.0
 40
1.0
 10
-6.0970692261
 20
-7.5460560458
 30
0.0
 10
-6.0970845473
 20
-7.5221733465
 30
0.0
 10
-6.088954095
 20
-7.4725455662
 30
0.0
 10
-6.0593716645
 20
-7.4033565843
 30
0.0
 10
-6.0157626401
 20
-7.343878706
 30
0.0
 10
-5.9779651712
 20
-7.3136136166
 30
0.0
 10
-5.9581160554
 20
-7.3032647245
 30
0.0
  0
SPLINE
  5
3F0
100
AcDbEntity
  8
0
100
AcDbSpline
 62
250
  6
CONTINUOUS
 70
0
 71
3
 72
11
 73
7
 74
0
 42
0.0000001
 43
0.0000001
 44
0.0000000001
 40
0.0
 40
0.0
 40
0.0
 40
0.0
 40
0.2465057813
 40
0.5120770332
 40
0.771055558
 40
1.0
 40
1.0
 40
1.0
 40
1.0
 10
-5.3961895141
 20
-7.5445238964
 30
0.0
 10
-5.3965407975
 20
-7.5204607321
 30
0.0
 10
-5.4054375443
 20
-7.4705200145
 30
0.0
 10
-5.4358270837
 20
-7.4010030914
 30
0.0
 10
-5.479841158
 20
-7.3413283668
 30
0.0
 10
-5.5177438242
 20
-7.3109280231
 30
0.0
 10
-5.5375893312
 20
-7.300645287
 30
0.0
  0
SPLINE
  5
3F1
100
AcDbEntity
  8
0
100
AcDbSpline
 62
250
  6
CONTINUOUS
 70
0
 71
3
 72
11
 73
7
 74
0
 42
0.0000001
 43
0.0000001
 44
0.0000000001
 40
0.0
 40
0.0
 40
0.0
 40
0.0
 40
0.2375914877
 40
0.5022495496
 40
0.765700396
 40
1.0
 40
1.0
 40
1.0
 40
1.0
 10
-5.5375893312
 20
-7.300645287
 30
0.0
 10
-5.568169926
 20
-7.3160447229
 30
0.0
 10
-5.6380041081
 20
-7.3383196936
 30
0.0
 10
-5.7483952439
 20
-7.349500059
 30
0.0
 10
-5.8584448586
 20
-7.3397961562
 30
0.0
 10
-5.9279118915
 20
-7.3183565617
 30
0.0
 10
-5.9581160554
 20
-7.3032647245
 30
0.0
  0
SPLINE
  5
3F2
100
AcDbEntity
  8
0
100
AcDbSpline
 62
250
  6
CONTINUOUS
 70
0
 71
3
 72
11
 73
7
 74
0
 42
0.0000001
 43
0.0000001
 44
0.0000000001
 40
0.0
 40
0.0
 40
0.0
 40
0.0
 40
0.237222694
 40
0.5018711747
 40
0.7655141179
 40
1.0
 40
1.0
 40
1.0
 40
1.0
 10
-5.3962008594
 20
-7.5445180187
 30
0.0
 10
-5.4472262107
 20
-7.5698112432
 30
0.0
 10
-5.5636929883
 20
-7.6061689283
 30
0.0
 10
-5.747618662
 20
-7.6238912572
 30
0.0
 10
-5.9309659171
 20
-7.6071111507
 30
0.0
 10
-6.0467048128
 20
-7.5712187162
 30
0.0
 10
-6.0970585667
 20
-7.5460507034
 30
0.0
  0
SPLINE
  5
3F3
100
AcDbEntity
  8
0
100
AcDbSpline
 62
250
  6
CONTINUOUS
 70
0
 71
3
 72
11
 73
7
 74
0
 42
0.0000001
 43
0.0000001
 44
0.0000000001
 40
0.0
 40
0.0
 40
0.0
 40
0.0
 40
0.211578884
 40
0.4417402858
 40
0.7032481867
 40
1.0
 40
1.0
 40
1.0
 40
1.0
 10
-20.8168194253
 20
-17.2516407731
 30
0.0
 10
-20.8162464397
 20
-17.2686120776
 30
0.0
 10
-20.8082100768
 20
-17.3040748744
 30
0.0
 10
-20.7774939523
 20
-17.3524185969
 30
0.0
 10
-20.7303476551
 20
-17.395436504
 30
0.0
 10
-20.6916741203
 20
-17.41858676
 30
0.0
 10
-20.6703789506
 20
-17.4292524233
 30
0.0
  0
SPLINE
  5
3F4
100
AcDbEntity
  8
0
100
AcDbSpline
 62
250
  6
CONTINUOUS
 70
0
 71
3
 72
9
 73
5
 74
0
 42
0.0000001
 43
0.0000001
 44
0.0000000001
 40
0.0
 40
0.0
 40
0.0
 40
0.0
 40
0.2483870583
 40
1.0
 40
1.0
 40
1.0
 40
1.0
 10
-20.670378951
 20
-17.4292524235
 30
0.0
 10
-20.7185308127
 20
-15.9960647769
 30
0.0
 10
-20.8881518474
 20
-10.2252950593
 30
0.0
 10
-20.9614678553
 20
-4.4517248518
 30
0.0
 10
-20.9642028834
 20
-0.1124892171
 30
0.0
  0
SPLINE
  5
3F5
100
AcDbEntity
  8
0
100
AcDbSpline
 62
250
  6
CONTINUOUS
 70
0
 71
3
 72
11
 73
7
 74
0
 42
0.0000001
 43
0.0000001
 44
0.0000000001
 40
0.0
 40
0.0
 40
0.0
 40
0.0
 40
0.2892007081
 40
0.5494067675
 40
0.7827886369
 40
1.0
 40
1.0
 40
1.0
 40
1.0
 10
-4.4110452671
 20
-25.3537456237
 30
0.0
 10
-4.4124289594
 20
-25.3862048962
 30
0.0
 10
-4.4205013885
 20
-25.4478753577
 30
0.0
 10
-4.4511394618
 20
-25.5312581669
 30
0.0
 10
-4.4991411261
 20
-25.5966562808
 30
0.0
 10
-4.5423586551
 20
-25.6254830575
 30
0.0
 10
-4.5648533531
 20
-25.6349393204
 30
0.0
  0
SPLINE
  5
3F6
100
AcDbEntity
  8
0
100
AcDbSpline
 62
250
  6
CONTINUOUS
 70
0
 71
3
 72
11
 73
7
 74
0
 42
0.0000001
 43
0.0000001
 44
0.0000000001
 40
0.0
 40
0.0
 40
0.0
 40
0.0
 40
0.2389525865
 40
0.5036636627
 40
0.7664005477
 40
1.0
 40
1.0
 40
1.0
 40
1.0
 10
-5.0922328338
 20
-24.8534326213
 30
0.0
 10
-5.1429551175
 20
-24.8804368742
 30
0.0
 10
-5.2590166297
 20
-24.9202616544
 30
0.0
 10
-5.4431080956
 20
-24.9421165266
 30
0.0
 10
-5.6266647996
 20
-24.9281978523
 30
0.0
 10
-5.74254777
 20
-24.8931185261
 30
0.0
 10
-5.7928097514
 20
-24.8680301829
 30
0.0
  0
SPLINE
  5
3F7
100
AcDbEntity
  8
0
100
AcDbSpline
 62
250
  6
CONTINUOUS
 70
0
 71
3
 72
11
 73
7
 74
0
 42
0.0000001
 43
0.0000001
 44
0.0000000001
 40
0.0
 40
0.0
 40
0.0
 40
0.0
 40
0.2866140812
 40
0.5452193704
 40
0.7796921204
 40
1.0
 40
1.0
 40
1.0
 40
1.0
 10
-5.7928162621
 20
-24.8680337679
 30
0.0
 10
-5.7898546815
 20
-24.9534998512
 30
0.0
 10
-5.770394307
 20
-25.1162118573
 30
0.0
 10
-5.6930214352
 20
-25.3379517281
 30
0.0
 10
-5.5704091931
 20
-25.5156241697
 30
0.0
 10
-5.4591679479
 20
-25.5985659566
 30
0.0
 10
-5.4004349787
 20
-25.6280843257
 30
0.0
  0
SPLINE
  5
3F8
100
AcDbEntity
  8
0
100
AcDbSpline
 62
250
  6
CONTINUOUS
 70
0
 71
3
 72
15
 73
11
 74
0
 42
0.0000001
 43
0.0000001
 44
0.0000000001
 40
0.0
 40
0.0
 40
0.0
 40
0.0
 40
0.1465170624
 40
0.2806660088
 40
0.4035019833
 40
0.5182264345
 40
0.6298628163
 40
0.7442593416
 40
0.8665634409
 40
1.0
 40
1.0
 40
1.0
 40
1.0
 10
-5.0922328338
 20
-24.8534326213
 30
0.0
 10
-5.0904781862
 20
-24.9036631947
 30
0.0
 10
-5.079851768
 20
-24.9998983558
 30
0.0
 10
-5.039213294
 20
-25.1331858281
 30
0.0
 10
-4.9752268092
 20
-25.2449570415
 30
0.0
 10
-4.8893050671
 20
-25.3307376308
 30
0.0
 10
-4.7843711529
 20
-25.3861868832
 30
0.0
 10
-4.6653465465
 20
-25.4087241702
 30
0.0
 10
-4.5375410055
 20
-25.3982641788
 30
0.0
 10
-4.4532550989
 20
-25.3714542669
 30
0.0
 10
-4.4110452671
 20
-25.3537456237
 30
0.0
  0
SPLINE
  5
3F9
100
AcDbEntity
  8
0
100
AcDbSpline
 62
250
  6
CONTINUOUS
 70
0
 71
3
 72
9
 73
5
 74
0
 42
0.0000001
 43
0.0000001
 44
0.0000000001
 40
0.0
 40
0.0
 40
0.0
 40
0.0
 40
0.251554901
 40
1.0
 40
1.0
 40
1.0
 40
1.0
 10
-6.0970692261
 20
-7.5460560458
 30
0.0
 10
-6.0961210713
 20
-8.9987953324
 30
0.0
 10
-6.0681859301
 20
-14.7737890191
 30
0.0
 10
-5.9430098477
 20
-20.5483437337
 30
0.0
 10
-5.7928162621
 20
-24.8680337679
 30
0.0
  0
SPLINE
  5
3FA
100
AcDbEntity
  8
0
100
AcDbSpline
 62
250
  6
CONTINUOUS
 70
0
 71
3
 72
9
 73
5
 74
0
 42
0.0000001
 43
0.0000001
 44
0.0000000001
 40
0.0
 40
0.0
 40
0.0
 40
0.0
 40
0.250891012
 40
1.0
 40
1.0
 40
1.0
 40
1.0
 10
-5.3961895141
 20
-7.5445238964
 30
0.0
 10
-5.3956474075
 20
-8.3856321121
 30
0.0
 10
-5.385356008
 20
-11.738105955
 30
0.0
 10
-5.3424296979
 20
-15.090483074
 30
0.0
 10
-5.2915671055
 20
-17.6013447172
 30
0.0
  0
SPLINE
  5
3FB
100
AcDbEntity
  8
CURVE
100
AcDbSpline
 62
250
  6
CONTINUOUS
 70
0
 71
3
 72
71
 73
67
 74
0
 42
0.0000001
 43
0.0000001
 44
0.0000000001
 40
0.0
 40
0.0
 40
0.0
 40
0.0
 40
0.0625
 40
0.125
 40
0.1875
 40
0.21875
 40
0.25
 40
0.28125
 40
0.3125
 40
0.34375
 40
0.375
 40
0.390625
 40
0.40625
 40
0.421875
 40
0.4375
 40
0.4453125
 40
0.453125
 40
0.4609375
 40
0.46875
 40
0.4765625
 40
0.48046875
 40
0.484375
 40
0.48828125
 40
0.490234375
 40
0.4921875
 40
0.494140625
 40
0.49609375
 40
0.4970703125
 40
0.498046875
 40
0.4985351562
 40
0.4990234375
 40
0.4995117188
 40
0.4997558594
 40
0.5
 40
0.5002441406
 40
0.5004882812
 40
0.5009765625
 40
0.5014648438
 40
0.501953125
 40
0.5029296875
 40
0.50390625
 40
0.505859375
 40
0.5078125
 40
0.509765625
 40
0.51171875
 40
0.515625
 40
0.51953125
 40
0.5234375
 40
0.53125
 40
0.5390625
 40
0.546875
 40
0.5546875
 40
0.5625
 40
0.578125
 40
0.59375
 40
0.609375
 40
0.625
 40
0.65625
 40
0.6875
 40
0.71875
 40
0.75
 40
0.78125
 40
0.8125
 40
0.875
 40
0.9375
 40
1.0
 40
1.0
 40
1.0
 40
1.0
 10
-14.9791255834
 20
-14.9200023841
 30
0.0
 10
-14.98049626
 20
-14.8577309873
 30
0.0
 10
-14.9832376133
 20
-14.7331881937
 30
0.0
 10
-14.9873496432
 20
-14.5463740034
 30
0.0
 10
-14.9907763348
 20
-14.3906955114
 30
0.0
 10
-14.993517688
 20
-14.2661527179
 30
0.0
 10
-14.995573703
 20
-14.1727456227
 30
0.0
 10
-14.9976297179
 20
-14.0793385275
 30
0.0
 10
-14.9996857329
 20
-13.9859314323
 30
0.0
 10
-15.0017417478
 20
-13.8925243372
 30
0.0
 10
-15.0034550936
 20
-13.8146850912
 30
0.0
 10
-15.0048257703
 20
-13.7524136944
 30
0.0
 10
-15.0058537777
 20
-13.7057101468
 30
0.0
 10
-15.0068817852
 20
-13.6590065992
 30
0.0
 10
-15.0077384581
 20
-13.6200869762
 30
0.0
 10
-15.0084237964
 20
-13.5889512778
 30
0.0
 10
-15.0089378002
 20
-13.5655995041
 30
0.0
 10
-15.0094518039
 20
-13.5422477302
 30
0.0
 10
-15.0099658076
 20
-13.5188959565
 30
0.0
 10
-15.0103941441
 20
-13.4994361448
 30
0.0
 10
-15.0107368132
 20
-13.483868296
 30
0.0
 10
-15.0109938151
 20
-13.4721924081
 30
0.0
 10
-15.0112079833
 20
-13.4624625056
 30
0.0
 10
-15.011379318
 20
-13.4546785743
 30
0.0
 10
-15.0115078185
 20
-13.4488406511
 30
0.0
 10
-15.0116363212
 20
-13.4430026316
 30
0.0
 10
-15.0117433997
 20
-13.4381379154
 30
0.0
 10
-15.0118290784
 20
-13.4342454705
 30
0.0
 10
-15.0118825915
 20
-13.4318142221
 30
0.0
 10
-15.0119254846
 20
-13.4298657203
 30
0.0
 10
-15.0119574281
 20
-13.4284139355
 30
0.0
 10
-15.0119847679
 20
-13.4271736025
 30
0.0
 10
-15.0120050243
 20
-13.4262497699
 30
0.0
 10
-15.0120246309
 20
-13.4253699015
 30
0.0
 10
-15.0120273879
 20
-13.4252037917
 30
0.0
 10
-15.0120369497
 20
-13.4247329868
 30
0.0
 10
-15.0120468825
 20
-13.4242300229
 30
0.0
 10
-15.0120596663
 20
-13.4235898514
 30
0.0
 10
-15.0120764094
 20
-13.4227490782
 30
0.0
 10
-15.0120974417
 20
-13.4216937328
 30
0.0
 10
-15.0121310356
 20
-13.4200076275
 30
0.0
 10
-15.0121730478
 20
-13.4178991561
 30
0.0
 10
-15.012223454
 20
-13.4153693505
 30
0.0
 10
-15.0122738624
 20
-13.4128394485
 30
0.0
 10
-15.0123410728
 20
-13.4094662795
 30
0.0
 10
-15.0124250862
 20
-13.4052498067
 30
0.0
 10
-15.012525902
 20
-13.4001900443
 30
0.0
 10
-15.0126603232
 20
-13.3934436927
 30
0.0
 10
-15.0128283497
 20
-13.3850107539
 30
0.0
 10
-15.0130299815
 20
-13.3748912269
 30
0.0
 10
-15.0132316133
 20
-13.3647717001
 30
0.0
 10
-15.013433245
 20
-13.3546521732
 30
0.0
 10
-15.0137020874
 20
-13.3411594707
 30
0.0
 10
-15.0140381404
 20
-13.3242935926
 30
0.0
 10
-15.0144414039
 20
-13.3040545389
 30
0.0
 10
-15.0148446675
 20
-13.2838154851
 30
0.0
 10
-15.0153823522
 20
-13.2568300801
 30
0.0
 10
-15.0160544581
 20
-13.2230983239
 30
0.0
 10
-15.0168609853
 20
-13.1826202164
 30
0.0
 10
-15.0176675124
 20
-13.1421421089
 30
0.0
 10
-15.0184740395
 20
-13.1016640015
 30
0.0
 10
-15.0192805666
 20
-13.061185894
 30
0.0
 10
-15.0203559361
 20
-13.007215084
 30
0.0
 10
-15.0217001479
 20
-12.9397515715
 30
0.0
 10
-15.0233132021
 20
-12.8587953566
 30
0.0
 10
-15.0243885716
 20
-12.8048245466
 30
0.0
 10
-15.0249262564
 20
-12.7778391416
 30
0.0
  0
SPLINE
  5
3FC
100
AcDbEntity
  8
CURVE
100
AcDbSpline
 62
250
  6
CONTINUOUS
 70
0
 71
3
 72
23
 73
19
 74
0
 42
0.0000001
 43
0.0000001
 44
0.0000000001
 40
0.0
 40
0.0
 40
0.0
 40
0.0
 40
0.125
 40
0.25
 40
0.3125
 40
0.375
 40
0.4375
 40
0.46875
 40
0.484375
 40
0.5
 40
0.515625
 40
0.53125
 40
0.5625
 40
0.625
 40
0.6875
 40
0.75
 40
0.875
 40
1.0
 40
1.0
 40
1.0
 40
1.0
 10
-11.7869231459
 20
-16.9388943598
 30
0.0
 10
-11.7897673486
 20
-16.8144064128
 30
0.0
 10
-11.7954556795
 20
-16.5654303148
 30
0.0
 10
-11.8025664664
 20
-16.2542112129
 30
0.0
 10
-11.8082543119
 20
-16.0052337881
 30
0.0
 10
-11.812522324
 20
-15.8185065369
 30
0.0
 10
-11.8160722344
 20
-15.6628819959
 30
0.0
 10
-11.81857045
 20
-15.5539811187
 30
0.0
 10
-11.8199772689
 20
-15.4916953643
 30
0.0
 10
-11.8210907877
 20
-15.4451407217
 30
0.0
 10
-11.8219810543
 20
-15.3979757272
 30
0.0
 10
-11.8232459493
 20
-15.3353019654
 30
0.0
 10
-11.8254232331
 20
-15.2255236893
 30
0.0
 10
-11.8285526074
 20
-15.06874944
 30
0.0
 10
-11.8322997371
 20
-14.8805981427
 30
0.0
 10
-11.8372987472
 20
-14.6297375029
 30
0.0
 10
-11.8435465298
 20
-14.3161590241
 30
0.0
 10
-11.8485450546
 20
-14.0652970575
 30
0.0
 10
-11.8510442796
 20
-13.9398659721
 30
0.0
  0
SPLINE
  5
3FD
100
AcDbEntity
  8
CURVE
100
AcDbSpline
 62
250
  6
CONTINUOUS
 70
0
 71
3
 72
23
 73
19
 74
0
 42
0.0000001
 43
0.0000001
 44
0.0000000001
 40
0.0
 40
0.0
 40
0.0
 40
0.0
 40
0.125
 40
0.25
 40
0.3125
 40
0.375
 40
0.4375
 40
0.46875
 40
0.484375
 40
0.5
 40
0.515625
 40
0.53125
 40
0.5625
 40
0.625
 40
0.6875
 40
0.75
 40
0.875
 40
1.0
 40
1.0
 40
1.0
 40
1.0
 10
-13.0243600129
 20
-16.3201759262
 30
0.0
 10
-13.0272042157
 20
-16.1956879793
 30
0.0
 10
-13.0328925466
 20
-15.9467118813
 30
0.0
 10
-13.0400033335
 20
-15.6354927793
 30
0.0
 10
-13.045691179
 20
-15.3865153545
 30
0.0
 10
-13.0499591911
 20
-15.1997881034
 30
0.0
 10
-13.0535091015
 20
-15.0441635623
 30
0.0
 10
-13.056007317
 20
-14.9352626851
 30
0.0
 10
-13.0574141359
 20
-14.8729769308
 30
0.0
 10
-13.0585276548
 20
-14.8264222882
 30
0.0
 10
-13.0594179214
 20
-14.7792572936
 30
0.0
 10
-13.0606828164
 20
-14.7165835319
 30
0.0
 10
-13.0628601002
 20
-14.6068052558
 30
0.0
 10
-13.0659894745
 20
-14.4500310065
 30
0.0
 10
-13.0697366042
 20
-14.2618797092
 30
0.0
 10
-13.0747356142
 20
-14.0110190694
 30
0.0
 10
-13.0809833969
 20
-13.6974405905
 30
0.0
 10
-13.0859819216
 20
-13.446578624
 30
0.0
 10
-13.0884811467
 20
-13.3211475386
 30
0.0
  0
SPLINE
  5
3FE
100
AcDbEntity
  8
CURVE
100
AcDbSpline
 62
250
  6
CONTINUOUS
 70
0
 71
3
 72
71
 73
67
 74
0
 42
0.0000001
 43
0.0000001
 44
0.0000000001
 40
0.0
 40
0.0
 40
0.0
 40
0.0
 40
0.0625
 40
0.125
 40
0.1875
 40
0.21875
 40
0.25
 40
0.28125
 40
0.3125
 40
0.34375
 40
0.375
 40
0.390625
 40
0.40625
 40
0.421875
 40
0.4375
 40
0.4453125
 40
0.453125
 40
0.4609375
 40
0.46875
 40
0.4765625
 40
0.48046875
 40
0.484375
 40
0.48828125
 40
0.490234375
 40
0.4921875
 40
0.494140625
 40
0.49609375
 40
0.4970703125
 40
0.498046875
 40
0.4985351562
 40
0.4990234375
 40
0.4995117188
 40
0.4997558594
 40
0.5
 40
0.5002441406
 40
0.5004882812
 40
0.5009765625
 40
0.5014648438
 40
0.501953125
 40
0.5029296875
 40
0.50390625
 40
0.505859375
 40
0.5078125
 40
0.509765625
 40
0.51171875
 40
0.515625
 40
0.51953125
 40
0.5234375
 40
0.53125
 40
0.5390625
 40
0.546875
 40
0.5546875
 40
0.5625
 40
0.578125
 40
0.59375
 40
0.609375
 40
0.625
 40
0.65625
 40
0.6875
 40
0.71875
 40
0.75
 40
0.78125
 40
0.8125
 40
0.875
 40
0.9375
 40
1.0
 40
1.0
 40
1.0
 40
1.0
 10
-13.7874893881
 20
-13.3965576376
 30
0.0
 10
-13.7861963856
 20
-13.4588703362
 30
0.0
 10
-13.7836103807
 20
-13.5834957334
 30
0.0
 10
-13.7797313734
 20
-13.7704338292
 30
0.0
 10
-13.7764988672
 20
-13.9262155757
 30
0.0
 10
-13.7739128623
 20
-14.0508409729
 30
0.0
 10
-13.7719733587
 20
-14.1443100208
 30
0.0
 10
-13.770033855
 20
-14.2377790687
 30
0.0
 10
-13.7680943513
 20
-14.3312481166
 30
0.0
 10
-13.7661548476
 20
-14.4247171645
 30
0.0
 10
-13.7645385946
 20
-14.5026080378
 30
0.0
 10
-13.7632455921
 20
-14.5649207364
 30
0.0
 10
-13.7622758403
 20
-14.6116552603
 30
0.0
 10
-13.7613060884
 20
-14.6583897843
 30
0.0
 10
-13.7604979619
 20
-14.6973352209
 30
0.0
 10
-13.7598514607
 20
-14.7284915702
 30
0.0
 10
-13.7593665848
 20
-14.7518588322
 30
0.0
 10
-13.7588817088
 20
-14.7752260942
 30
0.0
 10
-13.7583968329
 20
-14.7985933561
 30
0.0
 10
-13.7579927696
 20
-14.8180660746
 30
0.0
 10
-13.757669519
 20
-14.8336442489
 30
0.0
 10
-13.7574270811
 20
-14.8453278809
 30
0.0
 10
-13.7572250495
 20
-14.8550642368
 30
0.0
 10
-13.7570634241
 20
-14.8628533308
 30
0.0
 10
-13.7569422055
 20
-14.868695126
 30
0.0
 10
-13.756820985
 20
-14.8745370177
 30
0.0
 10
-13.7567199738
 20
-14.8794049601
 30
0.0
 10
-13.7566391518
 20
-14.8832999875
 30
0.0
 10
-13.7565886675
 20
-14.8857328463
 30
0.0
 10
-13.7565482128
 20
-14.8876826448
 30
0.0
 10
-13.7565180559
 20
-14.8891353796
 30
0.0
 10
-13.7564923392
 20
-14.8903765756
 30
0.0
 10
-13.7564730801
 20
-14.8913009385
 30
0.0
 10
-13.7564550447
 20
-14.8921816423
 30
0.0
 10
-13.7564507165
 20
-14.8923469167
 30
0.0
 10
-13.7564401575
 20
-14.8928171913
 30
0.0
 10
-13.7564286015
 20
-14.8933192921
 30
0.0
 10
-13.7564140311
 20
-14.8939585136
 30
0.0
 10
-13.7563948496
 20
-14.8947979903
 30
0.0
 10
-13.7563707885
 20
-14.8958517252
 30
0.0
 10
-13.7563323378
 20
-14.897535248
 30
0.0
 10
-13.7562842584
 20
-14.8996404932
 30
0.0
 10
-13.7562265699
 20
-14.9021664266
 30
0.0
 10
-13.7561688797
 20
-14.9046924566
 30
0.0
 10
-13.7560919599
 20
-14.9080604629
 30
0.0
 10
-13.75599581
 20
-14.9122704822
 30
0.0
 10
-13.7558804302
 20
-14.9173225005
 30
0.0
 10
-13.7557265905
 20
-14.9240585267
 30
0.0
 10
-13.7555342908
 20
-14.9324785588
 30
0.0
 10
-13.7553035312
 20
-14.9425825975
 30
0.0
 10
-13.7550727716
 20
-14.9526866362
 30
0.0
 10
-13.754842012
 20
-14.9627906749
 30
0.0
 10
-13.7545343326
 20
-14.9762627264
 30
0.0
 10
-13.7541497332
 20
-14.9931027909
 30
0.0
 10
-13.753688214
 20
-15.0133108683
 30
0.0
 10
-13.7532266948
 20
-15.0335189456
 30
0.0
 10
-13.7526113359
 20
-15.0604630488
 30
0.0
 10
-13.7518421372
 20
-15.0941431778
 30
0.0
 10
-13.7509190988
 20
-15.1345593325
 30
0.0
 10
-13.7499960604
 20
-15.1749754872
 30
0.0
 10
-13.749073022
 20
-15.215391642
 30
0.0
 10
-13.7481499837
 20
-15.2558077967
 30
0.0
 10
-13.7469192658
 20
-15.309696003
 30
0.0
 10
-13.7453808685
 20
-15.3770562609
 30
0.0
 10
-13.7435347917
 20
-15.4578885704
 30
0.0
 10
-13.7423040738
 20
-15.5117767768
 30
0.0
 10
-13.7416887149
 20
-15.5387208799
 30
0.0
  0
SPLINE
  5
3FF
100
AcDbEntity
  8
0
100
AcDbSpline
 62
250
  6
CONTINUOUS
 70
0
 71
3
 72
11
 73
7
 74
0
 42
0.0000001
 43
0.0000001
 44
0.0000000001
 40
0.0
 40
0.0
 40
0.0
 40
0.0
 40
0.2051977656
 40
0.432642723
 40
0.6962117356
 40
1.0
 40
1.0
 40
1.0
 40
1.0
 10
-21.1106500999
 20
0.7431652022
 30
0.0
 10
-21.1106625305
 20
0.7267796872
 30
0.0
 10
-21.1032928766
 20
0.6919705411
 30
0.0
 10
-21.07273021
 20
0.6444914771
 30
0.0
 10
-21.0250924194
 20
0.6017449972
 30
0.0
 10
-20.9858881373
 20
0.5785381852
 30
0.0
 10
-20.9641922171
 20
0.5676870402
 30
0.0
  0
SPLINE
  5
400
100
AcDbEntity
  8
0
100
AcDbSpline
 62
250
  6
CONTINUOUS
 70
0
 71
3
 72
11
 73
7
 74
0
 42
0.0000001
 43
0.0000001
 44
0.0000000001
 40
0.0
 40
0.0
 40
0.0
 40
0.0
 40
0.2903571656
 40
0.5512746397
 40
0.7841525598
 40
1.0
 40
1.0
 40
1.0
 40
1.0
 10
-5.3961895141
 20
-6.8735365372
 30
0.0
 10
-5.396368622
 20
-6.8859784283
 30
0.0
 10
-5.3987545849
 20
-6.9096539983
 30
0.0
 10
-5.4092910517
 20
-6.9419131936
 30
0.0
 10
-5.4266025969
 20
-6.96749499
 30
0.0
 10
-5.442561846
 20
-6.9791021717
 30
0.0
 10
-5.450942145
 20
-6.9830181226
 30
0.0
  0
SPLINE
  5
401
100
AcDbEntity
  8
0
100
AcDbSpline
 62
250
  6
CONTINUOUS
 70
0
 71
3
 72
11
 73
7
 74
0
 42
0.0000001
 43
0.0000001
 44
0.0000000001
 40
0.0
 40
0.0
 40
0.0
 40
0.0
 40
0.2010281847
 40
0.4265723974
 40
0.6917665511
 40
1.0
 40
1.0
 40
1.0
 40
1.0
 10
-20.8168369497
 20
18.3636538489
 30
0.0
 10
-20.8173404295
 20
18.3476029987
 30
0.0
 10
-20.8106864386
 20
18.3130243107
 30
0.0
 10
-20.780183637
 20
18.2658276001
 30
0.0
 10
-20.7320813768
 20
18.2230805759
 30
0.0
 10
-20.692403587
 20
18.1996963786
 30
0.0
 10
-20.6703724402
 20
18.1887008158
 30
0.0
  0
SPLINE
  5
402
100
AcDbEntity
  8
0
100
AcDbSpline
 62
250
  6
CONTINUOUS
 70
0
 71
3
 72
11
 73
7
 74
0
 42
0.0000001
 43
0.0000001
 44
0.0000000001
 40
0.0
 40
0.0
 40
0.0
 40
0.0
 40
0.2892106058
 40
0.5496658139
 40
0.7830095653
 40
1.0
 40
1.0
 40
1.0
 40
1.0
 10
-6.0970692261
 20
-6.8658851089
 30
0.0
 10
-6.0970769955
 20
-6.8780026637
 30
0.0
 10
-6.0951034152
 20
-6.9011140534
 30
0.0
 10
-6.0853342247
 20
-6.932767365
 30
0.0
 10
-6.0688763026
 20
-6.9581290195
 30
0.0
 10
-6.0535423252
 20
-6.9699158665
 30
0.0
 10
-6.0454298288
 20
-6.9740201356
 30
0.0
  0
SPLINE
  5
403
100
AcDbEntity
  8
0
100
AcDbSpline
 62
250
  6
CONTINUOUS
 70
0
 71
3
 72
11
 73
7
 74
0
 42
0.0000001
 43
0.0000001
 44
0.0000000001
 40
0.0
 40
0.0
 40
0.0
 40
0.0
 40
0.2350998417
 40
0.4993684536
 40
0.7639750578
 40
1.0
 40
1.0
 40
1.0
 40
1.0
 10
-6.0970585669
 20
-6.8658797852
 30
0.0
 10
-6.0466392106
 20
-6.891082064
 30
0.0
 10
-5.9310052663
 20
-6.9274917127
 30
0.0
 10
-5.7478561677
 20
-6.9462441298
 30
0.0
 10
-5.564119302
 20
-6.9314513081
 30
0.0
 10
-5.4474209375
 20
-6.8975894163
 30
0.0
 10
-5.3962008596
 20
-6.8735306596
 30
0.0
  0
SPLINE
  5
404
100
AcDbEntity
  8
0
100
AcDbSpline
 62
250
  6
CONTINUOUS
 70
0
 71
3
 72
11
 73
7
 74
0
 42
0.0000001
 43
0.0000001
 44
0.0000000001
 40
0.0
 40
0.0
 40
0.0
 40
0.0
 40
0.2892908396
 40
0.5497271253
 40
0.7830064815
 40
1.0
 40
1.0
 40
1.0
 40
1.0
 10
-20.9642028834
 20
0.5676817197
 30
0.0
 10
-20.9642106718
 20
0.5555319046
 30
0.0
 10
-20.9622272341
 20
0.5323622167
 30
0.0
 10
-20.9524039105
 20
0.5006406887
 30
0.0
 10
-20.9358541101
 20
0.475251887
 30
0.0
 10
-20.9204408018
 20
0.4634914395
 30
0.0
 10
-20.9122923074
 20
0.4594101853
 30
0.0
  0
SPLINE
  5
405
100
AcDbEntity
  8
0
100
AcDbSpline
 62
250
  6
CONTINUOUS
 70
0
 71
3
 72
11
 73
7
 74
0
 42
0.0000001
 43
0.0000001
 44
0.0000000001
 40
0.0
 40
0.0
 40
0.0
 40
0.0
 40
0.2445849862
 40
0.5100574441
 40
0.7700601898
 40
1.0
 40
1.0
 40
1.0
 40
1.0
 10
-4.4110452671
 20
11.887027931
 30
0.0
 10
-4.413692317
 20
11.9465672982
 30
0.0
 10
-4.4394761271
 20
12.069972895
 30
0.0
 10
-4.5193503112
 20
12.2412851187
 30
0.0
 10
-4.6318317685
 20
12.3887048398
 30
0.0
 10
-4.7271442878
 20
12.4642258972
 30
0.0
 10
-4.7768780065
 20
12.4900303771
 30
0.0
  0
SPLINE
  5
406
100
AcDbEntity
  8
0
100
AcDbSpline
 62
250
  6
CONTINUOUS
 70
0
 71
3
 72
14
 73
10
 74
0
 42
0.0000001
 43
0.0000001
 44
0.0000000001
 40
0.0
 40
0.0
 40
0.0
 40
0.0
 40
0.112356753
 40
0.2328853397
 40
0.3597403386
 40
0.4905999473
 40
0.6227959342
 40
0.7535585371
 40
1.0
 40
1.0
 40
1.0
 40
1.0
 10
-4.7768780072
 20
12.4900303767
 30
0.0
 10
-4.8454841625
 20
12.4521564131
 30
0.0
 10
-4.980869231
 20
12.3609439302
 30
0.0
 10
-5.1669766336
 20
12.1916026943
 30
0.0
 10
-5.3381333317
 20
11.9899388629
 30
0.0
 10
-5.488667898
 20
11.7627553422
 30
0.0
 10
-5.6136528435
 20
11.5173858503
 30
0.0
 10
-5.7379932546
 20
11.1842111098
 30
0.0
 10
-5.7870582749
 20
10.9217069417
 30
0.0
 10
-5.7928162621
 20
10.7499165456
 30
0.0
  0
SPLINE
  5
407
100
AcDbEntity
  8
0
100
AcDbSpline
 62
250
  6
CONTINUOUS
 70
0
 71
3
 72
11
 73
7
 74
0
 42
0.0000001
 43
0.0000001
 44
0.0000000001
 40
0.0
 40
0.0
 40
0.0
 40
0.0
 40
0.2233430199
 40
0.4591085465
 40
0.7167749143
 40
1.0
 40
1.0
 40
1.0
 40
1.0
 10
-19.9110398263
 20
19.9493190338
 30
0.0
 10
-19.8954464366
 20
19.9584069225
 30
0.0
 10
-19.8602683357
 20
19.9721456233
 30
0.0
 10
-19.8018550337
 20
19.9768498504
 30
0.0
 10
-19.7394661453
 20
19.9662816524
 30
0.0
 10
-19.6984321917
 20
19.9504320442
 30
0.0
 10
-19.677813076
 20
19.9404979112
 30
0.0
  0
SPLINE
  5
408
100
AcDbEntity
  8
0
100
AcDbSpline
 62
250
  6
CONTINUOUS
 70
0
 71
3
 72
11
 73
7
 74
0
 42
0.0000001
 43
0.0000001
 44
0.0000000001
 40
0.0
 40
0.0
 40
0.0
 40
0.0
 40
0.2329744873
 40
0.4906491399
 40
0.7533939383
 40
1.0
 40
1.0
 40
1.0
 40
1.0
 10
-4.4110452671
 20
11.887027931
 30
0.0
 10
-4.5060288882
 20
11.8351525832
 30
0.0
 10
-4.6866724688
 20
11.6897709907
 30
0.0
 10
-4.8977926523
 20
11.407099202
 30
0.0
 10
-5.044044941
 20
11.0791156213
 30
0.0
 10
-5.088363879
 20
10.8433931608
 30
0.0
 10
-5.0922328338
 20
10.7288997419
 30
0.0
  0
SPLINE
  5
409
100
AcDbEntity
  8
0
100
AcDbSpline
 62
250
  6
CONTINUOUS
 70
0
 71
3
 72
9
 73
5
 74
0
 42
0.0000001
 43
0.0000001
 44
0.0000000001
 40
0.0
 40
0.0
 40
0.0
 40
0.0
 40
0.2507265461
 40
1.0
 40
1.0
 40
1.0
 40
1.0
 10
-5.3219572892
 20
1.625199733
 30
0.0
 10
-5.3338630856
 20
0.9149818438
 30
0.0
 10
-5.3756905336
 20
-1.9177493571
 30
0.0
 10
-5.3948222413
 20
-4.7508172844
 30
0.0
 10
-5.3961895141
 20
-6.8735365372
 30
0.0
  0
SPLINE
  5
40A
100
AcDbEntity
  8
0
100
AcDbSpline
 62
250
  6
CONTINUOUS
 70
0
 71
3
 72
13
 73
9
 74
0
 42
0.0000001
 43
0.0000001
 44
0.0000000001
 40
0.0
 40
0.0
 40
0.0
 40
0.0
 40
0.1118358243
 40
0.2345750167
 40
0.4988620569
 40
0.7637607825
 40
0.8872257286
 40
1.0
 40
1.0
 40
1.0
 40
1.0
 10
-5.0922328338
 20
10.7288997419
 30
0.0
 10
-5.1168116907
 20
10.7182502116
 30
0.0
 10
-5.1701479818
 20
10.6999471476
 30
0.0
 10
-5.2871488633
 20
10.6747422328
 30
0.0
 10
-5.4440319705
 20
10.6658083579
 30
0.0
 10
-5.6002523678
 20
10.6841864828
 30
0.0
 10
-5.7160951728
 20
10.716355886
 30
0.0
 10
-5.7686651516
 20
10.7378190602
 30
0.0
 10
-5.7928162618
 20
10.7499165458
 30
0.0
  0
SPLINE
  5
40B
100
AcDbEntity
  8
0
100
AcDbSpline
 62
250
  6
CONTINUOUS
 70
0
 71
3
 72
9
 73
5
 74
0
 42
0.0000001
 43
0.0000001
 44
0.0000000001
 40
0.0
 40
0.0
 40
0.0
 40
0.0
 40
0.2512942266
 40
1.0
 40
1.0
 40
1.0
 40
1.0
 10
-5.8646171353
 20
8.4743247825
 30
0.0
 10
-5.9024628039
 20
7.1897410161
 30
0.0
 10
-6.0349443099
 20
2.0773538939
 30
0.0
 10
-6.0945717733
 20
-3.0369376685
 30
0.0
 10
-6.0970692261
 20
-6.8658851089
 30
0.0
  0
SPLINE
  5
40C
100
AcDbEntity
  8
0
100
AcDbSpline
 62
250
  6
CONTINUOUS
 70
0
 71
3
 72
14
 73
10
 74
0
 42
0.0000001
 43
0.0000001
 44
0.0000000001
 40
0.0
 40
0.0
 40
0.0
 40
0.0
 40
0.2473147096
 40
0.3785051079
 40
0.5109980813
 40
0.6419388829
 40
0.768588069
 40
0.8885681993
 40
1.0
 40
1.0
 40
1.0
 40
1.0
 10
-20.670378951
 20
18.18869789
 30
0.0
 10
-20.6647489596
 20
18.360711697
 30
0.0
 10
-20.6168250466
 20
18.623547109
 30
0.0
 10
-20.495391604
 20
18.9581012647
 30
0.0
 10
-20.3733355557
 20
19.2048387147
 30
0.0
 10
-20.2263316438
 20
19.4337056167
 30
0.0
 10
-20.0591923982
 20
19.6373050449
 30
0.0
 10
-19.8774558808
 20
19.8087776829
 30
0.0
 10
-19.7449847567
 20
19.9017522582
 30
0.0
 10
-19.677813076
 20
19.9404979112
 30
0.0
  0
SPLINE
  5
40D
100
AcDbEntity
  8
0
100
AcDbSpline
 62
250
  6
CONTINUOUS
 70
0
 71
3
 72
9
 73
5
 74
0
 42
0.0000001
 43
0.0000001
 44
0.0000000001
 40
0.0
 40
0.0
 40
0.0
 40
0.0
 40
0.2484700916
 40
1.0
 40
1.0
 40
1.0
 40
1.0
 10
-20.9642028834
 20
0.5676817197
 30
0.0
 10
-20.9632834513
 20
2.027350932
 30
0.0
 10
-20.9357752838
 20
7.9019426037
 30
0.0
 10
-20.8136490581
 20
13.7760640564
 30
0.0
 10
-20.670378951
 20
18.18869789
 30
0.0
  0
SPLINE
  5
40E
100
AcDbEntity
  8
CURVE
100
AcDbSpline
 62
250
  6
CONTINUOUS
 70
0
 71
3
 72
23
 73
19
 74
0
 42
0.0000001
 43
0.0000001
 44
0.0000000001
 40
0.0
 40
0.0
 40
0.0
 40
0.0
 40
0.125
 40
0.25
 40
0.3125
 40
0.375
 40
0.4375
 40
0.46875
 40
0.484375
 40
0.5
 40
0.515625
 40
0.53125
 40
0.5625
 40
0.625
 40
0.6875
 40
0.75
 40
0.875
 40
1.0
 40
1.0
 40
1.0
 40
1.0
 10
-12.1338869492
 20
5.6005243669
 30
0.0
 10
-12.1314037845
 20
5.727687454
 30
0.0
 10
-12.1264373734
 20
5.9820138307
 30
0.0
 10
-12.1202297677
 20
6.2999207884
 30
0.0
 10
-12.1152628261
 20
6.5542484823
 30
0.0
 10
-12.111539946
 20
6.7449884776
 30
0.0
 10
-12.1084301496
 20
6.9039568376
 30
0.0
 10
-12.1062678067
 20
7.0151986519
 30
0.0
 10
-12.1050095189
 20
7.0788216727
 30
0.0
 10
-12.1041296458
 20
7.1263804253
 30
0.0
 10
-12.1030057335
 20
7.1745450953
 30
0.0
 10
-12.1015923073
 20
7.2385533045
 30
0.0
 10
-12.0990791509
 20
7.3506661428
 30
0.0
 10
-12.0955096625
 20
7.5107758579
 30
0.0
 10
-12.0912174009
 20
7.7029295529
 30
0.0
 10
-12.0854974868
 20
7.9591267792
 30
0.0
 10
-12.0783465229
 20
8.2793759718
 30
0.0
 10
-12.0726260783
 20
8.5355745153
 30
0.0
 10
-12.0697658152
 20
8.6636738884
 30
0.0
  0
SPLINE
  5
40F
100
AcDbEntity
  8
CURVE
100
AcDbSpline
 62
250
  6
CONTINUOUS
 70
0
 71
3
 72
23
 73
19
 74
0
 42
0.0000001
 43
0.0000001
 44
0.0000000001
 40
0.0
 40
0.0
 40
0.0
 40
0.0
 40
0.125
 40
0.25
 40
0.3125
 40
0.375
 40
0.4375
 40
0.46875
 40
0.484375
 40
0.5
 40
0.515625
 40
0.53125
 40
0.5625
 40
0.625
 40
0.6875
 40
0.75
 40
0.875
 40
1.0
 40
1.0
 40
1.0
 40
1.0
 10
-13.9016539443
 20
6.4844078645
 30
0.0
 10
-13.8991707796
 20
6.6115709515
 30
0.0
 10
-13.8942043685
 20
6.8658973283
 30
0.0
 10
-13.8879967628
 20
7.183804286
 30
0.0
 10
-13.8830298213
 20
7.4381319799
 30
0.0
 10
-13.8793069411
 20
7.6288719751
 30
0.0
 10
-13.8761971447
 20
7.7878403352
 30
0.0
 10
-13.8740348018
 20
7.8990821494
 30
0.0
 10
-13.872776514
 20
7.9627051703
 30
0.0
 10
-13.8718966409
 20
8.0102639228
 30
0.0
 10
-13.8707727286
 20
8.0584285928
 30
0.0
 10
-13.8693593024
 20
8.122436802
 30
0.0
 10
-13.866846146
 20
8.2345496404
 30
0.0
 10
-13.8632766576
 20
8.3946593555
 30
0.0
 10
-13.858984396
 20
8.5868130504
 30
0.0
 10
-13.8532644819
 20
8.8430102768
 30
0.0
 10
-13.846113518
 20
9.1632594694
 30
0.0
 10
-13.8403930734
 20
9.4194580129
 30
0.0
 10
-13.8375328103
 20
9.547557386
 30
0.0
  0
SPLINE
  5
410
100
AcDbEntity
  8
CURVE
100
AcDbSpline
 62
250
  6
CONTINUOUS
 70
0
 71
3
 72
71
 73
67
 74
0
 42
0.0000001
 43
0.0000001
 44
0.0000000001
 40
0.0
 40
0.0
 40
0.0
 40
0.0
 40
0.0625
 40
0.125
 40
0.1875
 40
0.21875
 40
0.25
 40
0.28125
 40
0.3125
 40
0.34375
 40
0.375
 40
0.390625
 40
0.40625
 40
0.421875
 40
0.4375
 40
0.4453125
 40
0.453125
 40
0.4609375
 40
0.46875
 40
0.4765625
 40
0.48046875
 40
0.484375
 40
0.48828125
 40
0.490234375
 40
0.4921875
 40
0.494140625
 40
0.49609375
 40
0.4970703125
 40
0.498046875
 40
0.4985351562
 40
0.4990234375
 40
0.4995117188
 40
0.4997558594
 40
0.5
 40
0.5002441406
 40
0.5004882812
 40
0.5009765625
 40
0.5014648438
 40
0.501953125
 40
0.5029296875
 40
0.50390625
 40
0.505859375
 40
0.5078125
 40
0.509765625
 40
0.51171875
 40
0.515625
 40
0.51953125
 40
0.5234375
 40
0.53125
 40
0.5390625
 40
0.546875
 40
0.5546875
 40
0.5625
 40
0.578125
 40
0.59375
 40
0.609375
 40
0.625
 40
0.65625
 40
0.6875
 40
0.71875
 40
0.75
 40
0.78125
 40
0.8125
 40
0.875
 40
0.9375
 40
1.0
 40
1.0
 40
1.0
 40
1.0
 10
-14.5548615136
 20
9.462987056
 30
0.0
 10
-14.5562321903
 20
9.3993449826
 30
0.0
 10
-14.5589735436
 20
9.2720608358
 30
0.0
 10
-14.5630855735
 20
9.0811346155
 30
0.0
 10
-14.5665122651
 20
8.922029432
 30
0.0
 10
-14.5692536183
 20
8.7947452851
 30
0.0
 10
-14.5713096333
 20
8.699282175
 30
0.0
 10
-14.5733656483
 20
8.6038190649
 30
0.0
 10
-14.5754216632
 20
8.5083559547
 30
0.0
 10
-14.5774776782
 20
8.4128928446
 30
0.0
 10
-14.579191024
 20
8.3333402528
 30
0.0
 10
-14.5805617006
 20
8.2696981794
 30
0.0
 10
-14.5815897081
 20
8.2219666244
 30
0.0
 10
-14.5826177156
 20
8.1742350693
 30
0.0
 10
-14.5834743885
 20
8.1344587734
 30
0.0
 10
-14.5841597268
 20
8.1026377367
 30
0.0
 10
-14.5846737305
 20
8.0787719592
 30
0.0
 10
-14.5851877343
 20
8.0549061816
 30
0.0
 10
-14.585701738
 20
8.0310404041
 30
0.0
 10
-14.5861300745
 20
8.011152256
 30
0.0
 10
-14.5864727436
 20
7.995241738
 30
0.0
 10
-14.5867297455
 20
7.9833088482
 30
0.0
 10
-14.5869439137
 20
7.9733647775
 30
0.0
 10
-14.5871152484
 20
7.9654095116
 30
0.0
 10
-14.5872437488
 20
7.9594430879
 30
0.0
 10
-14.5873722516
 20
7.9534765657
 30
0.0
 10
-14.5874793301
 20
7.9485047709
 30
0.0
 10
-14.5875650088
 20
7.9445266474
 30
0.0
 10
-14.5876185218
 20
7.9420418859
 30
0.0
 10
-14.587661415
 20
7.9400504909
 30
0.0
 10
-14.5876933584
 20
7.9385667627
 30
0.0
 10
-14.5877206983
 20
7.9372990899
 30
0.0
 10
-14.5877409546
 20
7.9363550009
 30
0.0
 10
-14.5877605612
 20
7.9354555259
 30
0.0
 10
-14.5877633182
 20
7.9352866591
 30
0.0
 10
-14.58777288
 20
7.9348062924
 30
0.0
 10
-14.5877828129
 20
7.9342933957
 30
0.0
 10
-14.5877955967
 20
7.9336404404
 30
0.0
 10
-14.5878123398
 20
7.932782924
 30
0.0
 10
-14.5878333721
 20
7.9317065463
 30
0.0
 10
-14.587866966
 20
7.9299868472
 30
0.0
 10
-14.5879089782
 20
7.9278363636
 30
0.0
 10
-14.5879593844
 20
7.9252561517
 30
0.0
 10
-14.5880097928
 20
7.9226758414
 30
0.0
 10
-14.5880770032
 20
7.9192354619
 30
0.0
 10
-14.5881610165
 20
7.9149349758
 30
0.0
 10
-14.5882618324
 20
7.9097743976
 30
0.0
 10
-14.5883962536
 20
7.9028936248
 30
0.0
 10
-14.5885642801
 20
7.8942926594
 30
0.0
 10
-14.5887659119
 20
7.8839715007
 30
0.0
 10
-14.5889675436
 20
7.8736503421
 30
0.0
 10
-14.5891691754
 20
7.8633291834
 30
0.0
 10
-14.5894380178
 20
7.8495676386
 30
0.0
 10
-14.5897740707
 20
7.8323657075
 30
0.0
 10
-14.5901773343
 20
7.8117233902
 30
0.0
 10
-14.5905805979
 20
7.7910810729
 30
0.0
 10
-14.5911182826
 20
7.7635579832
 30
0.0
 10
-14.5917903885
 20
7.729154121
 30
0.0
 10
-14.5925969156
 20
7.6878694864
 30
0.0
 10
-14.5934034428
 20
7.6465848518
 30
0.0
 10
-14.5942099699
 20
7.6053002172
 30
0.0
 10
-14.595016497
 20
7.5640155826
 30
0.0
 10
-14.5960918665
 20
7.5089694032
 30
0.0
 10
-14.5974360783
 20
7.4401616789
 30
0.0
 10
-14.5990491325
 20
7.3575924097
 30
0.0
 10
-14.600124502
 20
7.3025462302
 30
0.0
 10
-14.6006621868
 20
7.2750231405
 30
0.0
  0
SPLINE
  5
411
100
AcDbEntity
  8
CURVE
100
AcDbSpline
 62
250
  6
CONTINUOUS
 70
0
 71
3
 72
71
 73
67
 74
0
 42
0.0000001
 43
0.0000001
 44
0.0000000001
 40
0.0
 40
0.0
 40
0.0
 40
0.0
 40
0.0625
 40
0.125
 40
0.1875
 40
0.21875
 40
0.25
 40
0.28125
 40
0.3125
 40
0.34375
 40
0.375
 40
0.390625
 40
0.40625
 40
0.421875
 40
0.4375
 40
0.4453125
 40
0.453125
 40
0.4609375
 40
0.46875
 40
0.4765625
 40
0.48046875
 40
0.484375
 40
0.48828125
 40
0.490234375
 40
0.4921875
 40
0.494140625
 40
0.49609375
 40
0.4970703125
 40
0.498046875
 40
0.4985351562
 40
0.4990234375
 40
0.4995117188
 40
0.4997558594
 40
0.5
 40
0.5002441406
 40
0.5004882812
 40
0.5009765625
 40
0.5014648438
 40
0.501953125
 40
0.5029296875
 40
0.50390625
 40
0.505859375
 40
0.5078125
 40
0.509765625
 40
0.51171875
 40
0.515625
 40
0.51953125
 40
0.5234375
 40
0.53125
 40
0.5390625
 40
0.546875
 40
0.5546875
 40
0.5625
 40
0.578125
 40
0.59375
 40
0.609375
 40
0.625
 40
0.65625
 40
0.6875
 40
0.71875
 40
0.75
 40
0.78125
 40
0.8125
 40
0.875
 40
0.9375
 40
1.0
 40
1.0
 40
1.0
 40
1.0
 10
-15.8380990526
 20
7.8937416377
 30
0.0
 10
-15.8368060502
 20
7.9573473387
 30
0.0
 10
-15.8342200453
 20
8.0845587408
 30
0.0
 10
-15.8303410379
 20
8.275375844
 30
0.0
 10
-15.8271085318
 20
8.4343900967
 30
0.0
 10
-15.8245225269
 20
8.5616014988
 30
0.0
 10
-15.8225830232
 20
8.6570100504
 30
0.0
 10
-15.8206435195
 20
8.7524186019
 30
0.0
 10
-15.8187040158
 20
8.8478271535
 30
0.0
 10
-15.8167645121
 20
8.9432357051
 30
0.0
 10
-15.815148259
 20
9.0227428314
 30
0.0
 10
-15.8138552566
 20
9.0863485325
 30
0.0
 10
-15.8128855047
 20
9.1340528083
 30
0.0
 10
-15.8119157529
 20
9.1817570841
 30
0.0
 10
-15.8111076264
 20
9.2215106472
 30
0.0
 10
-15.8104611251
 20
9.2533134978
 30
0.0
 10
-15.8099762492
 20
9.2771656357
 30
0.0
 10
-15.8094913733
 20
9.3010177736
 30
0.0
 10
-15.8090064974
 20
9.3248699114
 30
0.0
 10
-15.8086024341
 20
9.3447466932
 30
0.0
 10
-15.8082791835
 20
9.3606481181
 30
0.0
 10
-15.8080367455
 20
9.3725741881
 30
0.0
 10
-15.8078347139
 20
9.3825125755
 30
0.0
 10
-15.8076730885
 20
9.390463295
 30
0.0
 10
-15.8075518699
 20
9.3964263087
 30
0.0
 10
-15.8074306495
 20
9.4023894209
 30
0.0
 10
-15.8073296382
 20
9.4073583746
 30
0.0
 10
-15.8072488163
 20
9.4113342238
 30
0.0
 10
-15.807198332
 20
9.4138175671
 30
0.0
 10
-15.8071578772
 20
9.4158078202
 30
0.0
 10
-15.8071277204
 20
9.4172907119
 30
0.0
 10
-15.8071020037
 20
9.4185576246
 30
0.0
 10
-15.8070827446
 20
9.4195012466
 30
0.0
 10
-15.8070647091
 20
9.4203999858
 30
0.0
 10
-15.807060381
 20
9.4205695884
 30
0.0
 10
-15.8070498219
 20
9.421050422
 30
0.0
 10
-15.8070382659
 20
9.4215640789
 30
0.0
 10
-15.8070236956
 20
9.4222178707
 30
0.0
 10
-15.807004514
 20
9.4230765289
 30
0.0
 10
-15.806980453
 20
9.4241543249
 30
0.0
 10
-15.8069420023
 20
9.4258762983
 30
0.0
 10
-15.8068939228
 20
9.428029623
 30
0.0
 10
-15.8068362344
 20
9.4306132449
 30
0.0
 10
-15.8067785441
 20
9.4331969652
 30
0.0
 10
-15.8067016244
 20
9.4366418912
 30
0.0
 10
-15.8066054745
 20
9.4409480604
 30
0.0
 10
-15.8064900947
 20
9.4461154585
 30
0.0
 10
-15.806336255
 20
9.4530053244
 30
0.0
 10
-15.8061439553
 20
9.4616176561
 30
0.0
 10
-15.8059131957
 20
9.4719524545
 30
0.0
 10
-15.8056824361
 20
9.4822872527
 30
0.0
 10
-15.8054516765
 20
9.492622051
 30
0.0
 10
-15.805143997
 20
9.5064017821
 30
0.0
 10
-15.8047593977
 20
9.5236264459
 30
0.0
 10
-15.8042978785
 20
9.5442960425
 30
0.0
 10
-15.8038363593
 20
9.564965639
 30
0.0
 10
-15.8032210003
 20
9.5925251011
 30
0.0
 10
-15.8024518017
 20
9.6269744287
 30
0.0
 10
-15.8015287633
 20
9.6683136219
 30
0.0
 10
-15.8006057249
 20
9.709652815
 30
0.0
 10
-15.7996826865
 20
9.7509920082
 30
0.0
 10
-15.7987596481
 20
9.7923312013
 30
0.0
 10
-15.7975289302
 20
9.8474501255
 30
0.0
 10
-15.7959905329
 20
9.9163487807
 30
0.0
 10
-15.7941444561
 20
9.999027167
 30
0.0
 10
-15.7929137382
 20
10.0541460912
 30
0.0
 10
-15.7922983793
 20
10.0817055533
 30
0.0
  0
SPLINE
  5
412
100
AcDbEntity
  8
RACCORDO
100
AcDbSpline
 62
250
  6
CONTINUOUS
 70
0
 71
3
 72
11
 73
7
 74
0
 42
0.0000001
 43
0.0000001
 44
0.0000000001
 40
0.0
 40
0.0
 40
0.0
 40
0.0
 40
0.2892106058
 40
0.5496658139
 40
0.7830095653
 40
1.0
 40
1.0
 40
1.0
 40
1.0
 10
-6.0970692261
 20
-6.8658851089
 30
0.0
 10
-6.0970769955
 20
-6.8780026637
 30
0.0
 10
-6.0951034152
 20
-6.9011140534
 30
0.0
 10
-6.0853342247
 20
-6.932767365
 30
0.0
 10
-6.0688763026
 20
-6.9581290195
 30
0.0
 10
-6.0535423252
 20
-6.9699158665
 30
0.0
 10
-6.0454298288
 20
-6.9740201356
 30
0.0
  0
SPLINE
  5
413
100
AcDbEntity
  8
RACCORDO
100
AcDbSpline
 62
250
  6
CONTINUOUS
 70
0
 71
3
 72
11
 73
7
 74
0
 42
0.0000001
 43
0.0000001
 44
0.0000000001
 40
0.0
 40
0.0
 40
0.0
 40
0.0
 40
0.2350998417
 40
0.4993684536
 40
0.7639750578
 40
1.0
 40
1.0
 40
1.0
 40
1.0
 10
-6.0970585669
 20
-6.8658797852
 30
0.0
 10
-6.0466392106
 20
-6.891082064
 30
0.0
 10
-5.9310052663
 20
-6.9274917127
 30
0.0
 10
-5.7478561677
 20
-6.9462441298
 30
0.0
 10
-5.564119302
 20
-6.9314513081
 30
0.0
 10
-5.4474209375
 20
-6.8975894163
 30
0.0
 10
-5.3962008596
 20
-6.8735306596
 30
0.0
  0
SPLINE
  5
414
100
AcDbEntity
  8
RACCORDO
100
AcDbSpline
 62
250
  6
CONTINUOUS
 70
0
 71
3
 72
11
 73
7
 74
0
 42
0.0000001
 43
0.0000001
 44
0.0000000001
 40
0.0
 40
0.0
 40
0.0
 40
0.0
 40
0.2892908396
 40
0.5497271253
 40
0.7830064815
 40
1.0
 40
1.0
 40
1.0
 40
1.0
 10
-20.9642028834
 20
0.5676817197
 30
0.0
 10
-20.9642106718
 20
0.5555319046
 30
0.0
 10
-20.9622272341
 20
0.5323622167
 30
0.0
 10
-20.9524039105
 20
0.5006406887
 30
0.0
 10
-20.9358541101
 20
0.475251887
 30
0.0
 10
-20.9204408018
 20
0.4634914395
 30
0.0
 10
-20.9122923074
 20
0.4594101853
 30
0.0
  0
SPLINE
  5
415
100
AcDbEntity
  8
RACCORDO
100
AcDbSpline
 62
250
  6
CONTINUOUS
 70
0
 71
3
 72
11
 73
7
 74
0
 42
0.0000001
 43
0.0000001
 44
0.0000000001
 40
0.0
 40
0.0
 40
0.0
 40
0.0
 40
0.2445849862
 40
0.5100574441
 40
0.7700601898
 40
1.0
 40
1.0
 40
1.0
 40
1.0
 10
-4.4110452671
 20
11.887027931
 30
0.0
 10
-4.413692317
 20
11.9465672982
 30
0.0
 10
-4.4394761271
 20
12.069972895
 30
0.0
 10
-4.5193503112
 20
12.2412851187
 30
0.0
 10
-4.6318317685
 20
12.3887048398
 30
0.0
 10
-4.7271442878
 20
12.4642258972
 30
0.0
 10
-4.7768780065
 20
12.4900303771
 30
0.0
  0
SPLINE
  5
416
100
AcDbEntity
  8
RACCORDO
100
AcDbSpline
 62
250
  6
CONTINUOUS
 70
0
 71
3
 72
14
 73
10
 74
0
 42
0.0000001
 43
0.0000001
 44
0.0000000001
 40
0.0
 40
0.0
 40
0.0
 40
0.0
 40
0.112356753
 40
0.2328853397
 40
0.3597403386
 40
0.4905999473
 40
0.6227959342
 40
0.7535585371
 40
1.0
 40
1.0
 40
1.0
 40
1.0
 10
-4.7768780072
 20
12.4900303767
 30
0.0
 10
-4.8454841625
 20
12.4521564131
 30
0.0
 10
-4.980869231
 20
12.3609439302
 30
0.0
 10
-5.1669766336
 20
12.1916026943
 30
0.0
 10
-5.3381333317
 20
11.9899388629
 30
0.0
 10
-5.488667898
 20
11.7627553422
 30
0.0
 10
-5.6136528435
 20
11.5173858503
 30
0.0
 10
-5.7379932546
 20
11.1842111098
 30
0.0
 10
-5.7870582749
 20
10.9217069417
 30
0.0
 10
-5.7928162621
 20
10.7499165456
 30
0.0
  0
SPLINE
  5
417
100
AcDbEntity
  8
RACCORDO
100
AcDbSpline
 62
250
  6
CONTINUOUS
 70
0
 71
3
 72
11
 73
7
 74
0
 42
0.0000001
 43
0.0000001
 44
0.0000000001
 40
0.0
 40
0.0
 40
0.0
 40
0.0
 40
0.2329744873
 40
0.4906491399
 40
0.7533939383
 40
1.0
 40
1.0
 40
1.0
 40
1.0
 10
-4.4110452671
 20
11.887027931
 30
0.0
 10
-4.5060288882
 20
11.8351525832
 30
0.0
 10
-4.6866724688
 20
11.6897709907
 30
0.0
 10
-4.8977926523
 20
11.407099202
 30
0.0
 10
-5.044044941
 20
11.0791156213
 30
0.0
 10
-5.088363879
 20
10.8433931608
 30
0.0
 10
-5.0922328338
 20
10.7288997419
 30
0.0
  0
SPLINE
  5
418
100
AcDbEntity
  8
RACCORDO
100
AcDbSpline
 62
250
  6
CONTINUOUS
 70
0
 71
3
 72
9
 73
5
 74
0
 42
0.0000001
 43
0.0000001
 44
0.0000000001
 40
0.0
 40
0.0
 40
0.0
 40
0.0
 40
0.2507265461
 40
1.0
 40
1.0
 40
1.0
 40
1.0
 10
-5.3219572892
 20
1.625199733
 30
0.0
 10
-5.3338630856
 20
0.9149818438
 30
0.0
 10
-5.3756905336
 20
-1.9177493571
 30
0.0
 10
-5.3948222413
 20
-4.7508172844
 30
0.0
 10
-5.3961895141
 20
-6.8735365372
 30
0.0
  0
SPLINE
  5
419
100
AcDbEntity
  8
RACCORDO
100
AcDbSpline
 62
250
  6
CONTINUOUS
 70
0
 71
3
 72
13
 73
9
 74
0
 42
0.0000001
 43
0.0000001
 44
0.0000000001
 40
0.0
 40
0.0
 40
0.0
 40
0.0
 40
0.1118358243
 40
0.2345750167
 40
0.4988620569
 40
0.7637607825
 40
0.8872257286
 40
1.0
 40
1.0
 40
1.0
 40
1.0
 10
-5.0922328338
 20
10.7288997419
 30
0.0
 10
-5.1168116907
 20
10.7182502116
 30
0.0
 10
-5.1701479818
 20
10.6999471476
 30
0.0
 10
-5.2871488633
 20
10.6747422328
 30
0.0
 10
-5.4440319705
 20
10.6658083579
 30
0.0
 10
-5.6002523678
 20
10.6841864828
 30
0.0
 10
-5.7160951728
 20
10.716355886
 30
0.0
 10
-5.7686651516
 20
10.7378190602
 30
0.0
 10
-5.7928162618
 20
10.7499165458
 30
0.0
  0
SPLINE
  5
41A
100
AcDbEntity
  8
RACCORDO
100
AcDbSpline
 62
250
  6
CONTINUOUS
 70
0
 71
3
 72
9
 73
5
 74
0
 42
0.0000001
 43
0.0000001
 44
0.0000000001
 40
0.0
 40
0.0
 40
0.0
 40
0.0
 40
0.2512942266
 40
1.0
 40
1.0
 40
1.0
 40
1.0
 10
-5.8646171353
 20
8.4743247825
 30
0.0
 10
-5.9024628039
 20
7.1897410161
 30
0.0
 10
-6.0349443099
 20
2.0773538939
 30
0.0
 10
-6.0945717733
 20
-3.0369376685
 30
0.0
 10
-6.0970692261
 20
-6.8658851089
 30
0.0
  0
SPLINE
  5
41B
100
AcDbEntity
  8
RACCORDO
100
AcDbSpline
 62
250
  6
CONTINUOUS
 70
0
 71
3
 72
14
 73
10
 74
0
 42
0.0000001
 43
0.0000001
 44
0.0000000001
 40
0.0
 40
0.0
 40
0.0
 40
0.0
 40
0.2473147096
 40
0.3785051079
 40
0.5109980813
 40
0.6419388829
 40
0.768588069
 40
0.8885681993
 40
1.0
 40
1.0
 40
1.0
 40
1.0
 10
-20.670378951
 20
18.18869789
 30
0.0
 10
-20.6647489596
 20
18.360711697
 30
0.0
 10
-20.6168250466
 20
18.623547109
 30
0.0
 10
-20.495391604
 20
18.9581012647
 30
0.0
 10
-20.3733355557
 20
19.2048387147
 30
0.0
 10
-20.2263316438
 20
19.4337056167
 30
0.0
 10
-20.0591923982
 20
19.6373050449
 30
0.0
 10
-19.8774558808
 20
19.8087776829
 30
0.0
 10
-19.7449847567
 20
19.9017522582
 30
0.0
 10
-19.677813076
 20
19.9404979112
 30
0.0
  0
SPLINE
  5
41C
100
AcDbEntity
  8
RACCORDO
100
AcDbSpline
 62
250
  6
CONTINUOUS
 70
0
 71
3
 72
9
 73
5
 74
0
 42
0.0000001
 43
0.0000001
 44
0.0000000001
 40
0.0
 40
0.0
 40
0.0
 40
0.0
 40
0.2484700916
 40
1.0
 40
1.0
 40
1.0
 40
1.0
 10
-20.9642028834
 20
0.5676817197
 30
0.0
 10
-20.9632834513
 20
2.027350932
 30
0.0
 10
-20.9357752838
 20
7.9019426037
 30
0.0
 10
-20.8136490581
 20
13.7760640564
 30
0.0
 10
-20.670378951
 20
18.18869789
 30
0.0
  0
SPLINE
  5
41D
100
AcDbEntity
  8
RACCORDO
100
AcDbSpline
 62
250
  6
CONTINUOUS
 70
0
 71
3
 72
11
 73
7
 74
0
 42
0.0000001
 43
0.0000001
 44
0.0000000001
 40
0.0
 40
0.0
 40
0.0
 40
0.0
 40
0.2233430199
 40
0.4591085465
 40
0.7167749143
 40
1.0
 40
1.0
 40
1.0
 40
1.0
 10
-19.9110398263
 20
19.9493190338
 30
0.0
 10
-19.8954464366
 20
19.9584069225
 30
0.0
 10
-19.8602683357
 20
19.9721456233
 30
0.0
 10
-19.8018550337
 20
19.9768498504
 30
0.0
 10
-19.7394661453
 20
19.9662816524
 30
0.0
 10
-19.6984321917
 20
19.9504320442
 30
0.0
 10
-19.677813076
 20
19.9404979112
 30
0.0
  0
SPLINE
  5
41E
100
AcDbEntity
  8
RACCORDO
100
AcDbSpline
 62
250
  6
CONTINUOUS
 70
0
 71
3
 72
11
 73
7
 74
0
 42
0.0000001
 43
0.0000001
 44
0.0000000001
 40
0.0
 40
0.0
 40
0.0
 40
0.0
 40
0.2010281847
 40
0.4265723974
 40
0.6917665511
 40
1.0
 40
1.0
 40
1.0
 40
1.0
 10
-20.8168369497
 20
18.3636538489
 30
0.0
 10
-20.8173404295
 20
18.3476029987
 30
0.0
 10
-20.8106864386
 20
18.3130243107
 30
0.0
 10
-20.780183637
 20
18.2658276001
 30
0.0
 10
-20.7320813768
 20
18.2230805759
 30
0.0
 10
-20.692403587
 20
18.1996963786
 30
0.0
 10
-20.6703724402
 20
18.1887008158
 30
0.0
  0
SPLINE
  5
41F
100
AcDbEntity
  8
RACCORDO
100
AcDbSpline
 62
250
  6
CONTINUOUS
 70
0
 71
3
 72
11
 73
7
 74
0
 42
0.0000001
 43
0.0000001
 44
0.0000000001
 40
0.0
 40
0.0
 40
0.0
 40
0.0
 40
0.2903571656
 40
0.5512746397
 40
0.7841525598
 40
1.0
 40
1.0
 40
1.0
 40
1.0
 10
-5.3961895141
 20
-6.8735365372
 30
0.0
 10
-5.396368622
 20
-6.8859784283
 30
0.0
 10
-5.3987545849
 20
-6.9096539983
 30
0.0
 10
-5.4092910517
 20
-6.9419131936
 30
0.0
 10
-5.4266025969
 20
-6.96749499
 30
0.0
 10
-5.442561846
 20
-6.9791021717
 30
0.0
 10
-5.450942145
 20
-6.9830181226
 30
0.0
  0
SPLINE
  5
420
100
AcDbEntity
  8
RACCORDO
100
AcDbSpline
 62
250
  6
CONTINUOUS
 70
0
 71
3
 72
11
 73
7
 74
0
 42
0.0000001
 43
0.0000001
 44
0.0000000001
 40
0.0
 40
0.0
 40
0.0
 40
0.0
 40
0.2051977656
 40
0.432642723
 40
0.6962117356
 40
1.0
 40
1.0
 40
1.0
 40
1.0
 10
-21.1106500999
 20
0.7431652022
 30
0.0
 10
-21.1106625305
 20
0.7267796872
 30
0.0
 10
-21.1032928766
 20
0.6919705411
 30
0.0
 10
-21.07273021
 20
0.6444914771
 30
0.0
 10
-21.0250924194
 20
0.6017449972
 30
0.0
 10
-20.9858881373
 20
0.5785381852
 30
0.0
 10
-20.9641922171
 20
0.5676870402
 30
0.0
  0
SPLINE
  5
421
100
AcDbEntity
  8
268140580
100
AcDbSpline
 62
7
  6
CONTINUOUS
 70
0
 71
3
 72
11
 73
7
 74
0
 42
0.0000001
 43
0.0000001
 44
0.0000000001
 40
0.0
 40
0.0
 40
0.0
 40
0.0
 40
0.2138297441
 40
0.4691296343
 40
0.7392987725
 40
1.0
 40
1.0
 40
1.0
 40
1.0
 10
-12.7504079413
 20
22.6861366034
 30
0.0
 10
-12.7504079413
 20
22.7097946032
 30
0.0
 10
-12.7441604448
 20
22.7617163562
 30
0.0
 10
-12.7206833938
 20
22.84041028
 30
0.0
 10
-12.682957412
 20
22.9191627861
 30
0.0
 10
-12.6495131885
 20
22.9678250094
 30
0.0
 10
-12.6311122079
 20
22.9900369579
 30
0.0
  0
SPLINE
  5
422
100
AcDbEntity
  8
268140580
100
AcDbSpline
 62
7
  6
CONTINUOUS
 70
0
 71
3
 72
15
 73
11
 74
0
 42
0.0000001
 43
0.0000001
 44
0.0000000001
 40
0.0
 40
0.0
 40
0.0
 40
0.0
 40
0.0225936591
 40
0.0376865218
 40
0.093462488
 40
0.1920438046
 40
0.3336447507
 40
0.517160488
 40
0.7401201455
 40
1.0
 40
1.0
 40
1.0
 40
1.0
 10
-12.7448545162
 20
22.3159731312
 30
0.0
 10
-12.7446795284
 20
22.3156821399
 30
0.0
 10
-12.7441352019
 20
22.3146332676
 30
0.0
 10
-12.7450385563
 20
22.3165980122
 30
0.0
 10
-12.745588076
 20
22.3184483131
 30
0.0
 10
-12.7469679518
 20
22.3230747349
 30
0.0
 10
-12.7481896834
 20
22.3291562784
 30
0.0
 10
-12.74940094
 20
22.3373752623
 30
0.0
 10
-12.7502179183
 20
22.3473384547
 30
0.0
 10
-12.7504079413
 20
22.3546029997
 30
0.0
 10
-12.7504079413
 20
22.3585086593
 30
0.0
  0
SPLINE
  5
423
100
AcDbEntity
  8
268140580
100
AcDbSpline
 62
7
  6
CONTINUOUS
 70
0
 71
3
 72
11
 73
7
 74
0
 42
0.0000001
 43
0.0000001
 44
0.0000000001
 40
0.0
 40
0.0
 40
0.0
 40
0.0
 40
0.2138297441
 40
0.4691296343
 40
0.7392987725
 40
1.0
 40
1.0
 40
1.0
 40
1.0
 10
0.6139102231
 20
16.0039775212
 30
0.0
 10
0.6139102231
 20
16.027635521
 30
0.0
 10
0.6201577196
 20
16.079557274
 30
0.0
 10
0.6436347706
 20
16.1582511978
 30
0.0
 10
0.6813607524
 20
16.2370037038
 30
0.0
 10
0.7148049759
 20
16.2856659272
 30
0.0
 10
0.7332059565
 20
16.3078778757
 30
0.0
  0
SPLINE
  5
424
100
AcDbEntity
  8
268140580
100
AcDbSpline
 62
7
  6
CONTINUOUS
 70
0
 71
3
 72
15
 73
11
 74
0
 42
0.0000001
 43
0.0000001
 44
0.0000000001
 40
0.0
 40
0.0
 40
0.0
 40
0.0
 40
0.0225936591
 40
0.0376865218
 40
0.093462488
 40
0.1920438046
 40
0.3336447507
 40
0.517160488
 40
0.7401201455
 40
1.0
 40
1.0
 40
1.0
 40
1.0
 10
0.6194636482
 20
15.6338140489
 30
0.0
 10
0.619638636
 20
15.6335230576
 30
0.0
 10
0.6201829625
 20
15.6324741854
 30
0.0
 10
0.6192796081
 20
15.63443893
 30
0.0
 10
0.6187300884
 20
15.6362892309
 30
0.0
 10
0.6173502126
 20
15.6409156527
 30
0.0
 10
0.6161284811
 20
15.6469971962
 30
0.0
 10
0.6149172244
 20
15.6552161801
 30
0.0
 10
0.6141002462
 20
15.6651793724
 30
0.0
 10
0.6139102231
 20
15.6724439175
 30
0.0
 10
0.6139102231
 20
15.6763495771
 30
0.0
  0
SPLINE
  5
425
100
AcDbEntity
  8
268140580
100
AcDbSpline
 62
7
  6
CONTINUOUS
 70
0
 71
3
 72
11
 73
7
 74
0
 42
0.0000001
 43
0.0000001
 44
0.0000000001
 40
0.0
 40
0.0
 40
0.0
 40
0.0
 40
0.2138297441
 40
0.4691296343
 40
0.7392987725
 40
1.0
 40
1.0
 40
1.0
 40
1.0
 10
-1.9366994423
 20
-23.4774285666
 30
0.0
 10
-1.9366994423
 20
-23.5010865664
 30
0.0
 10
-1.9429469388
 20
-23.5530083194
 30
0.0
 10
-1.9664239898
 20
-23.6317022432
 30
0.0
 10
-2.0041499716
 20
-23.7104547492
 30
0.0
 10
-2.0375941951
 20
-23.7591169726
 30
0.0
 10
-2.0559951757
 20
-23.7813289211
 30
0.0
  0
SPLINE
  5
426
100
AcDbEntity
  8
268140580
100
AcDbSpline
 62
7
  6
CONTINUOUS
 70
0
 71
3
 72
11
 73
7
 74
0
 42
0.0000001
 43
0.0000001
 44
0.0000000001
 40
0.0
 40
0.0
 40
0.0
 40
0.0
 40
0.0669375773
 40
0.2577645119
 40
0.5730827929
 40
1.0
 40
1.0
 40
1.0
 40
1.0
 10
0.6240458054
 20
-23.8571876088
 30
0.0
 10
0.6233230299
 20
-23.8559866216
 30
0.0
 10
0.6212341304
 20
-23.8509777507
 30
0.0
 10
0.6177636119
 20
-23.8394775872
 30
0.0
 10
0.6146516665
 20
-23.8201215782
 30
0.0
 10
0.6139102231
 20
-23.804566464
 30
0.0
 10
0.6139102231
 20
-23.7956266181
 30
0.0
  0
SPLINE
  5
427
100
AcDbEntity
  8
268140580
100
AcDbSpline
 62
7
  6
CONTINUOUS
 70
0
 71
3
 72
12
 73
8
 74
0
 42
0.0000001
 43
0.0000001
 44
0.0000000001
 40
0.0
 40
0.0
 40
0.0
 40
0.0
 40
0.289495797
 40
0.5491164603
 40
0.7821774407
 40
0.8921639156
 40
1.0
 40
1.0
 40
1.0
 40
1.0
 10
-3.6312430906
 20
24.0570758039
 30
0.0
 10
-3.6312430906
 20
24.087484362
 30
0.0
 10
-3.6361676874
 20
24.1453900745
 30
0.0
 10
-3.6608431871
 20
24.2245469009
 30
0.0
 10
-3.6961282657
 20
24.2784661531
 30
0.0
 10
-3.7314761214
 20
24.3103076063
 30
0.0
 10
-3.751049372
 20
24.3224412748
 30
0.0
 10
-3.7611801742
 20
24.3275077742
 30
0.0
  0
SPLINE
  5
428
100
AcDbEntity
  8
268140580
100
AcDbSpline
 62
7
  6
CONTINUOUS
 70
0
 71
3
 72
11
 73
7
 74
0
 42
0.0000001
 43
0.0000001
 44
0.0000000001
 40
0.0
 40
0.0
 40
0.0
 40
0.0
 40
0.2787328218
 40
0.5346772833
 40
0.7724502656
 40
1.0
 40
1.0
 40
1.0
 40
1.0
 10
0.9680362833
 20
21.8399642367
 30
0.0
 10
0.9871046186
 20
21.8492945984
 30
0.0
 10
1.0252205433
 20
21.8643381891
 30
0.0
 10
1.0835561173
 20
21.8748644369
 30
0.0
 10
1.1389606568
 20
21.8718082004
 30
0.0
 10
1.1730670882
 20
21.8603858234
 30
0.0
 10
1.1885672942
 20
21.8526340401
 30
0.0
  0
SPLINE
  5
429
100
AcDbEntity
  8
268140580
100
AcDbSpline
 62
7
  6
CONTINUOUS
 70
0
 71
3
 72
14
 73
10
 74
0
 42
0.0000001
 43
0.0000001
 44
0.0000000001
 40
0.0
 40
0.0
 40
0.0
 40
0.0
 40
0.2891514606
 40
0.4227185845
 40
0.5489639242
 40
0.6685090139
 40
0.7824378067
 40
0.8922927003
 40
1.0
 40
1.0
 40
1.0
 40
1.0
 10
-1.1563693564
 20
23.3522101707
 30
0.0
 10
-1.1563693564
 20
23.413028088
 30
0.0
 10
-1.163956273
 20
23.5024203984
 30
0.0
 10
-1.1929554608
 20
23.6144081378
 30
0.0
 10
-1.2224060103
 20
23.688818296
 30
0.0
 10
-1.2598147725
 20
23.7548893133
 30
0.0
 10
-1.3048051375
 20
23.8117809925
 30
0.0
 10
-1.3568436745
 20
23.858686501
 30
0.0
 10
-1.3959909482
 20
23.8829470576
 30
0.0
 10
-1.4162531773
 20
23.8930792292
 30
0.0
  0
SPLINE
  5
42A
100
AcDbEntity
  8
268140580
100
AcDbSpline
 62
7
  6
CONTINUOUS
 70
0
 71
3
 72
11
 73
7
 74
0
 42
0.0000001
 43
0.0000001
 44
0.0000000001
 40
0.0
 40
0.0
 40
0.0
 40
0.0
 40
0.2792307589
 40
0.5353259807
 40
0.7728881036
 40
1.0
 40
1.0
 40
1.0
 40
1.0
 10
2.3791645495
 20
21.7433618403
 30
0.0
 10
2.4177767881
 20
21.7626679596
 30
0.0
 10
2.4949911899
 20
21.7938865002
 30
0.0
 10
2.6133318673
 20
21.8161200821
 30
0.0
 10
2.7257756404
 20
21.8104930082
 30
0.0
 10
2.7949829619
 20
21.7874627978
 30
0.0
 10
2.8263875098
 20
21.7717588856
 30
0.0
  0
SPLINE
  5
42B
100
AcDbEntity
  8
268140580
100
AcDbSpline
 62
250
  6
CONTINUOUS
 70
0
 71
3
 72
10
 73
6
 74
0
 42
0.0000001
 43
0.0000001
 44
0.0000000001
 40
0.0
 40
0.0
 40
0.0
 40
0.0
 40
0.499433787
 40
0.7286352596
 40
1.0
 40
1.0
 40
1.0
 40
1.0
 10
0.7685215463
 20
15.4697444402
 30
0.0
 10
0.7692060244
 20
15.4701695216
 30
0.0
 10
0.7701025392
 20
15.4713234111
 30
0.0
 10
0.7695852973
 20
15.4729688134
 30
0.0
 10
0.7689074352
 20
15.4734870407
 30
0.0
 10
0.7685158635
 20
15.4736828265
 30
0.0
  0
SPLINE
  5
42C
100
AcDbEntity
  8
268140580
100
AcDbSpline
 62
7
  6
CONTINUOUS
 70
0
 71
3
 72
11
 73
7
 74
0
 42
0.0000001
 43
0.0000001
 44
0.0000000001
 40
0.0
 40
0.0
 40
0.0
 40
0.0
 40
0.2275497344
 40
0.4653227167
 40
0.7212671782
 40
1.0
 40
1.0
 40
1.0
 40
1.0
 10
-3.7611801742
 20
24.3275077742
 30
0.0
 10
-3.7766803801
 20
24.3352595576
 30
0.0
 10
-3.8107868115
 20
24.3466819345
 30
0.0
 10
-3.866191351
 20
24.3497381711
 30
0.0
 10
-3.924526925
 20
24.3392119232
 30
0.0
 10
-3.9626428497
 20
24.3241683325
 30
0.0
 10
-3.981711185
 20
24.3148379708
 30
0.0
  0
SPLINE
  5
42D
100
AcDbEntity
  8
268140580
100
AcDbSpline
 62
7
  6
CONTINUOUS
 70
0
 71
3
 72
17
 73
13
 74
0
 42
0.0000001
 43
0.0000001
 44
0.0000000001
 40
0.0
 40
0.0
 40
0.0
 40
0.0
 40
0.0447851762
 40
0.0909160053
 40
0.1396176958
 40
0.1917500681
 40
0.3074992577
 40
0.4381504615
 40
0.579407156
 40
0.7248327824
 40
0.8672459832
 40
1.0
 40
1.0
 40
1.0
 40
1.0
 10
-1.8180863865
 20
13.5205859597
 30
0.0
 10
-1.8038306192
 20
13.5279944
 30
0.0
 10
-1.7730122906
 20
13.5396778492
 30
0.0
 10
-1.7230059623
 20
13.5464550789
 30
0.0
 10
-1.67008326
 20
13.5426227711
 30
0.0
 10
-1.5945456529
 20
13.5229833977
 30
0.0
 10
-1.4989845136
 20
13.4713556163
 30
0.0
 10
-1.3946255944
 20
13.3780627714
 30
0.0
 10
-1.3034958614
 20
13.2582383756
 30
0.0
 10
-1.232424843
 20
13.1208432464
 30
0.0
 10
-1.1867047513
 20
12.9763049201
 30
0.0
 10
-1.1748832486
 20
12.8774440754
 30
0.0
 10
-1.1748832486
 20
12.8298210055
 30
0.0
  0
SPLINE
  5
42E
100
AcDbEntity
  8
268140580
100
AcDbSpline
 62
7
  6
CONTINUOUS
 70
0
 71
3
 72
12
 73
8
 74
0
 42
0.0000001
 43
0.0000001
 44
0.0000000001
 40
0.0
 40
0.0
 40
0.0
 40
0.0
 40
0.1087879409
 40
0.2249541515
 40
0.4744691267
 40
0.7372356179
 40
1.0
 40
1.0
 40
1.0
 40
1.0
 10
-4.9747459748
 20
22.6626006558
 30
0.0
 10
-4.9427296716
 20
22.6786088074
 30
0.0
 10
-4.8747096721
 20
22.7081566781
 30
0.0
 10
-4.7263605168
 20
22.7572839181
 30
0.0
 10
-4.5228065089
 20
22.7982216547
 30
0.0
 10
-4.2676838665
 20
22.8146011977
 30
0.0
 10
-4.0945138455
 20
22.8034909568
 30
0.0
 10
-4.0088201486
 20
22.7920101784
 30
0.0
  0
SPLINE
  5
42F
100
AcDbEntity
  8
268140580
100
AcDbSpline
 62
7
  6
CONTINUOUS
 70
0
 71
3
 72
10
 73
6
 74
0
 42
0.0000001
 43
0.0000001
 44
0.0000000001
 40
0.0
 40
0.0
 40
0.0
 40
0.0
 40
0.5258807216
 40
0.7707163588
 40
1.0
 40
1.0
 40
1.0
 40
1.0
 10
-4.0088201486
 20
22.1857923957
 30
0.0
 10
-3.9274476964
 20
22.1748905543
 30
0.0
 10
-3.8088999434
 20
22.1510652389
 30
0.0
 10
-3.6605721499
 20
22.1019391818
 30
0.0
 10
-3.5925487219
 20
22.0723910279
 30
0.0
 10
-3.5605324125
 20
22.0563828732
 30
0.0
  0
SPLINE
  5
430
100
AcDbEntity
  8
268140580
100
AcDbSpline
 62
7
  6
CONTINUOUS
 70
0
 71
3
 72
17
 73
13
 74
0
 42
0.0000001
 43
0.0000001
 44
0.0000000001
 40
0.0
 40
0.0
 40
0.0
 40
0.0
 40
0.0447970835
 40
0.0908691845
 40
0.13944621
 40
0.1914003043
 40
0.3067051278
 40
0.4369416923
 40
0.5779637867
 40
0.7234687383
 40
0.8663600864
 40
1.0
 40
1.0
 40
1.0
 40
1.0
 10
-14.4333666455
 20
19.8264457098
 30
0.0
 10
-14.4192688826
 20
19.8339420743
 30
0.0
 10
-14.3887876041
 20
19.8458563722
 30
0.0
 10
-14.3392399014
 20
19.8531195078
 30
0.0
 10
-14.2867476521
 20
19.8498859269
 30
0.0
 10
-14.2117555016
 20
19.8312104819
 30
0.0
 10
-14.1166536286
 20
19.7809742437
 30
0.0
 10
-14.0124775373
 20
19.6894146852
 30
0.0
 10
-13.9210826287
 20
19.5712710251
 30
0.0
 10
-13.8492346746
 20
19.4352821337
 30
0.0
 10
-13.8022216576
 20
19.29165295
 30
0.0
 10
-13.7891923005
 20
19.1931244364
 30
0.0
 10
-13.7884747836
 20
19.1454968907
 30
0.0
  0
SPLINE
  5
431
100
AcDbEntity
  8
268140580
100
AcDbSpline
 62
250
  6
CONTINUOUS
 70
0
 71
3
 72
11
 73
7
 74
0
 42
0.0000001
 43
0.0000001
 44
0.0000000001
 40
0.0
 40
0.0
 40
0.0
 40
0.0
 40
0.2065677549
 40
0.4345174741
 40
0.697417614
 40
1.0
 40
1.0
 40
1.0
 40
1.0
 10
-16.0081243879
 20
23.769091793
 30
0.0
 10
-16.0081243816
 20
23.7608068305
 30
0.0
 10
-16.0044648156
 20
23.7432454278
 30
0.0
 10
-15.9891855723
 20
23.7192911408
 30
0.0
 10
-15.9653742325
 20
23.6977705036
 30
0.0
 10
-15.9457557539
 20
23.6861307806
 30
0.0
 10
-15.9349010832
 20
23.6807034453
 30
0.0
  0
SPLINE
  5
432
100
AcDbEntity
  8
268140580
100
AcDbSpline
 62
250
  6
CONTINUOUS
 70
0
 71
3
 72
11
 73
7
 74
0
 42
0.0000001
 43
0.0000001
 44
0.0000000001
 40
0.0
 40
0.0
 40
0.0
 40
0.0
 40
0.2065677571
 40
0.4345174738
 40
0.6974176174
 40
1.0
 40
1.0
 40
1.0
 40
1.0
 10
-16.0081243879
 20
23.4007812644
 30
0.0
 10
-16.0081243879
 20
23.3924963018
 30
0.0
 10
-16.0044648138
 20
23.3749348987
 30
0.0
 10
-15.9891855736
 20
23.3509806119
 30
0.0
 10
-15.965374232
 20
23.3294599753
 30
0.0
 10
-15.9457557538
 20
23.317820252
 30
0.0
 10
-15.9349010832
 20
23.3123929167
 30
0.0
  0
SPLINE
  5
433
100
AcDbEntity
  8
268140580
100
AcDbSpline
 62
250
  6
CONTINUOUS
 70
0
 71
3
 72
11
 73
7
 74
0
 42
0.0000001
 43
0.0000001
 44
0.0000000001
 40
0.0
 40
0.0
 40
0.0
 40
0.0
 40
0.227800395
 40
0.465712218
 40
0.7215905977
 40
1.0
 40
1.0
 40
1.0
 40
1.0
 10
-13.7466830795
 20
25.0316372096
 30
0.0
 10
-13.7388057001
 20
25.0354921027
 30
0.0
 10
-13.7215043211
 20
25.041126602
 30
0.0
 10
-13.6934745614
 20
25.042451281
 30
0.0
 10
-13.6640386192
 20
25.0368996443
 30
0.0
 10
-13.6448482292
 20
25.0291417447
 30
0.0
 10
-13.6352613963
 20
25.0243483282
 30
0.0
  0
SPLINE
  5
434
100
AcDbEntity
  8
268140580
100
AcDbSpline
 62
250
  6
CONTINUOUS
 70
0
 71
3
 72
11
 73
7
 74
0
 42
0.0000001
 43
0.0000001
 44
0.0000000001
 40
0.0
 40
0.0
 40
0.0
 40
0.0
 40
0.2278003964
 40
0.4657122223
 40
0.7215905867
 40
1.0
 40
1.0
 40
1.0
 40
1.0
 10
-15.8680034228
 20
23.9936501049
 30
0.0
 10
-15.8601260425
 20
23.9975049963
 30
0.0
 10
-15.8428246646
 20
24.003139498
 30
0.0
 10
-15.8147949049
 20
24.0044641758
 30
0.0
 10
-15.7853589629
 20
23.9989125406
 30
0.0
 10
-15.7661685731
 20
23.9911546407
 30
0.0
 10
-15.7565817398
 20
23.9863612241
 30
0.0
  0
SPLINE
  5
435
100
AcDbEntity
  8
268140580
100
AcDbSpline
 62
250
  6
CONTINUOUS
 70
0
 71
3
 72
11
 73
7
 74
0
 42
0.0000001
 43
0.0000001
 44
0.0000000001
 40
0.0
 40
0.0
 40
0.0
 40
0.0
 40
0.2171550791
 40
0.4504222336
 40
0.710249792
 40
1.0
 40
1.0
 40
1.0
 40
1.0
 10
-14.5264349785
 20
22.5054283395
 30
0.0
 10
-14.5366268858
 20
22.5105240339
 30
0.0
 10
-14.5559106588
 20
22.5252003944
 30
0.0
 10
-14.5765725219
 20
22.5568982931
 30
0.0
 10
-14.5889452258
 20
22.5964896887
 30
0.0
 10
-14.591398199
 20
22.6254374062
 30
0.0
 10
-14.591398199
 20
22.6406414746
 30
0.0
  0
SPLINE
  5
436
100
AcDbEntity
  8
268140580
100
AcDbSpline
 62
250
  6
CONTINUOUS
 70
0
 71
3
 72
11
 73
7
 74
0
 42
0.0000001
 43
0.0000001
 44
0.0000000001
 40
0.0
 40
0.0
 40
0.0
 40
0.0
 40
0.2065677549
 40
0.4345174741
 40
0.697417614
 40
1.0
 40
1.0
 40
1.0
 40
1.0
 10
-2.6438062235
 20
17.0869327107
 30
0.0
 10
-2.6438062172
 20
17.0786477483
 30
0.0
 10
-2.6401466512
 20
17.0610863456
 30
0.0
 10
-2.6248674079
 20
17.0371320586
 30
0.0
 10
-2.6010560681
 20
17.0156114214
 30
0.0
 10
-2.5814375894
 20
17.0039716984
 30
0.0
 10
-2.5705829188
 20
16.9985443631
 30
0.0
  0
SPLINE
  5
437
100
AcDbEntity
  8
268140580
100
AcDbSpline
 62
250
  6
CONTINUOUS
 70
0
 71
3
 72
11
 73
7
 74
0
 42
0.0000001
 43
0.0000001
 44
0.0000000001
 40
0.0
 40
0.0
 40
0.0
 40
0.0
 40
0.2065677571
 40
0.4345174738
 40
0.6974176174
 40
1.0
 40
1.0
 40
1.0
 40
1.0
 10
-2.6438062235
 20
16.7186221822
 30
0.0
 10
-2.6438062235
 20
16.7103372196
 30
0.0
 10
-2.6401466494
 20
16.6927758165
 30
0.0
 10
-2.6248674092
 20
16.6688215296
 30
0.0
 10
-2.6010560676
 20
16.6473008931
 30
0.0
 10
-2.5814375894
 20
16.6356611698
 30
0.0
 10
-2.5705829188
 20
16.6302338345
 30
0.0
  0
SPLINE
  5
438
100
AcDbEntity
  8
268140580
100
AcDbSpline
 62
250
  6
CONTINUOUS
 70
0
 71
3
 72
11
 73
7
 74
0
 42
0.0000001
 43
0.0000001
 44
0.0000000001
 40
0.0
 40
0.0
 40
0.0
 40
0.0
 40
0.227800395
 40
0.465712218
 40
0.7215905977
 40
1.0
 40
1.0
 40
1.0
 40
1.0
 10
-0.3823649151
 20
18.3494781274
 30
0.0
 10
-0.3744875356
 20
18.3533330205
 30
0.0
 10
-0.3571861567
 20
18.3589675197
 30
0.0
 10
-0.3291563969
 20
18.3602921988
 30
0.0
 10
-0.2997204548
 20
18.3547405621
 30
0.0
 10
-0.2805300648
 20
18.3469826625
 30
0.0
 10
-0.2709432318
 20
18.342189246
 30
0.0
  0
SPLINE
  5
439
100
AcDbEntity
  8
268140580
100
AcDbSpline
 62
250
  6
CONTINUOUS
 70
0
 71
3
 72
11
 73
7
 74
0
 42
0.0000001
 43
0.0000001
 44
0.0000000001
 40
0.0
 40
0.0
 40
0.0
 40
0.0
 40
0.2278003964
 40
0.4657122223
 40
0.7215905867
 40
1.0
 40
1.0
 40
1.0
 40
1.0
 10
-2.5036852584
 20
17.3114910227
 30
0.0
 10
-2.4958078781
 20
17.3153459141
 30
0.0
 10
-2.4785065002
 20
17.3209804158
 30
0.0
 10
-2.4504767405
 20
17.3223050935
 30
0.0
 10
-2.4210407984
 20
17.3167534584
 30
0.0
 10
-2.4018504087
 20
17.3089955585
 30
0.0
 10
-2.3922635754
 20
17.3042021419
 30
0.0
  0
SPLINE
  5
43A
100
AcDbEntity
  8
268140580
100
AcDbSpline
 62
250
  6
CONTINUOUS
 70
0
 71
3
 72
11
 73
7
 74
0
 42
0.0000001
 43
0.0000001
 44
0.0000000001
 40
0.0
 40
0.0
 40
0.0
 40
0.0
 40
0.2171550791
 40
0.4504222336
 40
0.710249792
 40
1.0
 40
1.0
 40
1.0
 40
1.0
 10
-1.1621168141
 20
15.8232692573
 30
0.0
 10
-1.1723087214
 20
15.8283649517
 30
0.0
 10
-1.1915924944
 20
15.8430413122
 30
0.0
 10
-1.2122543575
 20
15.8747392109
 30
0.0
 10
-1.2246270613
 20
15.9143306065
 30
0.0
 10
-1.2270800346
 20
15.943278324
 30
0.0
 10
-1.2270800346
 20
15.9584823924
 30
0.0
  0
SPLINE
  5
43B
100
AcDbEntity
  8
268140580
100
AcDbSpline
 62
250
  6
CONTINUOUS
 70
0
 71
3
 72
11
 73
7
 74
0
 42
0.0000001
 43
0.0000001
 44
0.0000000001
 40
0.0
 40
0.0
 40
0.0
 40
0.0
 40
0.2171534741
 40
0.4504185916
 40
0.7102470996
 40
1.0
 40
1.0
 40
1.0
 40
1.0
 10
-1.16211152
 20
-25.8446483246
 30
0.0
 10
-1.1723034558
 20
-25.8395518994
 30
0.0
 10
-1.19158966
 20
-25.8248779949
 30
0.0
 10
-1.2122526116
 20
-25.7931786366
 30
0.0
 10
-1.2246269842
 20
-25.7535862027
 30
0.0
 10
-1.2270800346
 20
-25.7246370678
 30
0.0
 10
-1.2270800346
 20
-25.7094322756
 30
0.0
  0
SPLINE
  5
43C
100
AcDbEntity
  8
268140580
100
AcDbSpline
 62
250
  6
CONTINUOUS
 70
0
 71
3
 72
11
 73
7
 74
0
 42
0.0000001
 43
0.0000001
 44
0.0000000001
 40
0.0
 40
0.0
 40
0.0
 40
0.0
 40
0.2975729708
 40
0.5607768585
 40
0.792147599
 40
1.0
 40
1.0
 40
1.0
 40
1.0
 10
0.5406869184
 20
-23.5563870216
 30
0.0
 10
0.5503690797
 20
-23.551545941
 30
0.0
 10
0.5680679621
 20
-23.5412213052
 30
0.0
 10
0.5902472311
 20
-23.5225447914
 30
0.0
 10
0.6058490426
 20
-23.5019829595
 30
0.0
 10
0.6115450869
 20
-23.4867083241
 30
0.0
 10
0.6128921489
 20
-23.4792681167
 30
0.0
  0
SPLINE
  5
43D
100
AcDbEntity
  8
268140580
100
AcDbSpline
 62
250
  6
CONTINUOUS
 70
0
 71
3
 72
9
 73
5
 74
0
 42
0.0000001
 43
0.0000001
 44
0.0000000001
 40
0.0
 40
0.0
 40
0.0
 40
0.0
 40
0.2456713831
 40
1.0
 40
1.0
 40
1.0
 40
1.0
 10
0.5406869184
 20
-23.5563870216
 30
0.0
 10
0.5406869184
 20
-23.5524688485
 30
0.0
 10
0.540883725
 20
-23.5365204073
 30
0.0
 10
0.5418501159
 20
-23.5205831746
 30
0.0
 10
0.5429737458
 20
-23.5086050962
 30
0.0
  0
SPLINE
  5
43E
100
AcDbEntity
  8
268140580
100
AcDbSpline
 62
250
  6
CONTINUOUS
 70
0
 71
3
 72
9
 73
5
 74
0
 42
0.0000001
 43
0.0000001
 44
0.0000000001
 40
0.0
 40
0.0
 40
0.0
 40
0.0
 40
0.5045187427
 40
1.0
 40
1.0
 40
1.0
 40
1.0
 10
0.7833243901
 20
15.4776206052
 30
0.0
 10
0.7821713998
 20
15.4770996059
 30
0.0
 10
0.7796190011
 20
15.47684155
 30
0.0
 10
0.7770286771
 20
15.4770652132
 30
0.0
 10
0.7759172854
 20
15.477620909
 30
0.0
  0
SPLINE
  5
43F
100
AcDbEntity
  8
268140580
100
AcDbSpline
 62
250
  6
CONTINUOUS
 70
0
 71
3
 72
11
 73
7
 74
0
 42
0.0000001
 43
0.0000001
 44
0.0000000001
 40
0.0
 40
0.0
 40
0.0
 40
0.0
 40
0.3025821617
 40
0.5654826985
 40
0.793432999
 40
1.0
 40
1.0
 40
1.0
 40
1.0
 10
0.5406869184
 20
-23.8840149658
 30
0.0
 10
0.5515415631
 20
-23.8785876434
 30
0.0
 10
0.5711600676
 20
-23.8669480073
 30
0.0
 10
0.5949713411
 20
-23.8454273599
 30
0.0
 10
0.6102505631
 20
-23.8214729949
 30
0.0
 10
0.6139095507
 20
-23.8039115367
 30
0.0
 10
0.6139095507
 20
-23.7956266181
 30
0.0
  0
SPLINE
  5
440
100
AcDbEntity
  8
268140580
100
AcDbSpline
 62
250
  6
CONTINUOUS
 70
0
 71
3
 72
14
 73
10
 74
0
 42
0.0000001
 43
0.0000001
 44
0.0000000001
 40
0.0
 40
0.0
 40
0.0
 40
0.0
 40
0.1105836596
 40
0.2204504405
 40
0.3326782674
 40
0.4500069614
 40
0.5745209168
 40
0.7075243879
 40
1.0
 40
1.0
 40
1.0
 40
1.0
 10
0.7174636137
 20
-24.1706266181
 30
0.0
 10
0.7042918572
 20
-24.1678986581
 30
0.0
 10
0.6784964566
 20
-24.1597519429
 30
0.0
 10
0.6431594258
 20
-24.1394211286
 30
0.0
 10
0.6122960826
 20
-24.1115528478
 30
0.0
 10
0.5864780274
 20
-24.0767679749
 30
0.0
 10
0.5660756465
 20
-24.0357511376
 30
0.0
 10
0.5458409658
 20
-23.9717750834
 30
0.0
 10
0.5406869184
 20
-23.9195913917
 30
0.0
 10
0.5406869184
 20
-23.8840149658
 30
0.0
  0
SPLINE
  5
441
100
AcDbEntity
  8
268140580
100
AcDbSpline
 62
250
  6
CONTINUOUS
 70
0
 71
3
 72
13
 73
9
 74
0
 42
0.0000001
 43
0.0000001
 44
0.0000000001
 40
0.0
 40
0.0
 40
0.0
 40
0.0
 40
0.2704358128
 40
0.53331959
 40
0.6582663228
 40
0.7774456284
 40
0.8909917384
 40
1.0
 40
1.0
 40
1.0
 40
1.0
 10
0.7174636137
 20
-24.1706266181
 30
0.0
 10
0.729052784
 20
-24.1402476904
 30
0.0
 10
0.7427223245
 20
-24.0764535695
 30
0.0
 10
0.7351884846
 20
-23.9961935554
 30
0.0
 10
0.7139545177
 20
-23.9387308151
 30
0.0
 10
0.6915797547
 20
-23.9016652627
 30
0.0
 10
0.6633071543
 20
-23.871425333
 30
0.0
 10
0.6407976608
 20
-23.856405294
 30
0.0
 10
0.6290752661
 20
-23.8505440967
 30
0.0
  0
SPLINE
  5
442
100
AcDbEntity
  8
268140580
100
AcDbSpline
 62
250
  6
CONTINUOUS
 70
0
 71
3
 72
13
 73
9
 74
0
 42
0.0000001
 43
0.0000001
 44
0.0000000001
 40
0.0
 40
0.0
 40
0.0
 40
0.0
 40
0.2704361492
 40
0.5333199543
 40
0.6582667237
 40
0.7774453741
 40
0.8909913598
 40
1.0
 40
1.0
 40
1.0
 40
1.0
 10
1.2477936996
 20
-24.2804615752
 30
0.0
 10
1.2593828896
 20
-24.2500825957
 30
0.0
 10
1.2730521002
 20
-24.1862884496
 30
0.0
 10
1.2655194096
 20
-24.1060281535
 30
0.0
 10
1.2442847167
 20
-24.0485656844
 30
0.0
 10
1.2219098804
 20
-24.0115002892
 30
0.0
 10
1.1936372492
 20
-23.9812604463
 30
0.0
 10
1.1711277928
 20
-23.9662402741
 30
0.0
 10
1.1594053519
 20
-23.9603790537
 30
0.0
  0
SPLINE
  5
443
100
AcDbEntity
  8
268140580
100
AcDbSpline
 62
250
  6
CONTINUOUS
 70
0
 71
3
 72
11
 73
7
 74
0
 42
0.0000001
 43
0.0000001
 44
0.0000000001
 40
0.0
 40
0.0
 40
0.0
 40
0.0
 40
0.3025823826
 40
0.5654825262
 40
0.7934322429
 40
1.0
 40
1.0
 40
1.0
 40
1.0
 10
1.2477936996
 20
-24.6260990362
 30
0.0
 10
1.2586483701
 20
-24.6206717009
 30
0.0
 10
1.2782668484
 20
-24.6090319776
 30
0.0
 10
1.3020781899
 20
-24.5875113411
 30
0.0
 10
1.3173574302
 20
-24.5635570542
 30
0.0
 10
1.3210170043
 20
-24.5459956511
 30
0.0
 10
1.3210170043
 20
-24.5377106885
 30
0.0
  0
SPLINE
  5
444
100
AcDbEntity
  8
268140580
100
AcDbSpline
 62
250
  6
CONTINUOUS
 70
0
 71
3
 72
11
 73
7
 74
0
 42
0.0000001
 43
0.0000001
 44
0.0000000001
 40
0.0
 40
0.0
 40
0.0
 40
0.0
 40
0.3025773793
 40
0.5654785704
 40
0.7934320723
 40
1.0
 40
1.0
 40
1.0
 40
1.0
 10
1.2477936996
 20
-24.2804615752
 30
0.0
 10
1.2586471349
 20
-24.2750348576
 30
0.0
 10
1.2782636261
 20
-24.2633965155
 30
0.0
 10
1.3020733914
 20
-24.2418789334
 30
0.0
 10
1.3173532912
 20
-24.217928339
 30
0.0
 10
1.3210154292
 20
-24.2003692646
 30
0.0
 10
1.3210170032
 20
-24.1920851012
 30
0.0
  0
SPLINE
  5
445
100
AcDbEntity
  8
268140580
100
AcDbSpline
 62
250
  6
CONTINUOUS
 70
0
 71
3
 72
11
 73
7
 74
0
 42
0.0000001
 43
0.0000001
 44
0.0000000001
 40
0.0
 40
0.0
 40
0.0
 40
0.0
 40
0.2901682111
 40
0.5500888808
 40
0.7831749096
 40
1.0
 40
1.0
 40
1.0
 40
1.0
 10
-0.873526644
 20
-25.7094322756
 30
0.0
 10
-0.873418995
 20
-25.7244861105
 30
0.0
 10
-0.8756258175
 20
-25.7531495687
 30
0.0
 10
-0.8875276473
 20
-25.7924117496
 30
0.0
 10
-0.9076622015
 20
-25.8239160136
 30
0.0
 10
-0.9265822416
 20
-25.8385739038
 30
0.0
 10
-0.9366004124
 20
-25.8436904073
 30
0.0
  0
SPLINE
  5
446
100
AcDbEntity
  8
268140580
100
AcDbSpline
 62
250
  6
CONTINUOUS
 70
0
 71
3
 72
11
 73
7
 74
0
 42
0.0000001
 43
0.0000001
 44
0.0000000001
 40
0.0
 40
0.0
 40
0.0
 40
0.0
 40
0.2901675016
 40
0.5500885167
 40
0.7831747331
 40
1.0
 40
1.0
 40
1.0
 40
1.0
 10
1.2477936996
 20
-24.6260990362
 30
0.0
 10
1.2479013483
 20
-24.6411528342
 30
0.0
 10
1.2456945233
 20
-24.6698162704
 30
0.0
 10
1.2337927333
 20
-24.7090784543
 30
0.0
 10
1.213658161
 20
-24.7405827532
 30
0.0
 10
1.1947381088
 20
-24.7552406578
 30
0.0
 10
1.1847199312
 20
-24.7603571681
 30
0.0
  0
SPLINE
  5
447
100
AcDbEntity
  8
268140580
100
AcDbSpline
 62
250
  6
CONTINUOUS
 70
0
 71
3
 72
13
 73
9
 74
0
 42
0.0000001
 43
0.0000001
 44
0.0000000001
 40
0.0
 40
0.0
 40
0.0
 40
0.0
 40
0.1126070742
 40
0.2356252339
 40
0.5
 40
0.7643747661
 40
0.8873929258
 40
1.0
 40
1.0
 40
1.0
 40
1.0
 10
-0.873526644
 20
-25.341121747
 30
0.0
 10
-0.8857358486
 20
-25.3472263493
 30
0.0
 10
-0.9123428691
 20
-25.3579253984
 30
0.0
 10
-0.971077921
 20
-25.3733348242
 30
0.0
 10
-1.0503033393
 20
-25.3807351895
 30
0.0
 10
-1.1295287575
 20
-25.3733348242
 30
0.0
 10
-1.1882638094
 20
-25.3579253984
 30
0.0
 10
-1.2148708299
 20
-25.3472263493
 30
0.0
 10
-1.2270800346
 20
-25.341121747
 30
0.0
  0
SPLINE
  5
448
100
AcDbEntity
  8
268140580
100
AcDbSpline
 62
250
  6
CONTINUOUS
 70
0
 71
3
 72
13
 73
9
 74
0
 42
0.0000001
 43
0.0000001
 44
0.0000000001
 40
0.0
 40
0.0
 40
0.0
 40
0.0
 40
0.1126067181
 40
0.235624919
 40
0.4999997567
 40
0.7643746506
 40
0.887392872
 40
1.0
 40
1.0
 40
1.0
 40
1.0
 10
-0.873526644
 20
-25.7094322756
 30
0.0
 10
-0.88573581
 20
-25.7155368586
 30
0.0
 10
-0.9123427934
 20
-25.726235895
 30
0.0
 10
-0.9710778094
 20
-25.7416453414
 30
0.0
 10
-1.0503032575
 20
-25.7490457187
 30
0.0
 10
-1.1295287081
 20
-25.7416453621
 30
0.0
 10
-1.1882637902
 20
-25.7262359344
 30
0.0
 10
-1.2148708241
 20
-25.7155368808
 30
0.0
 10
-1.2270800346
 20
-25.7094322756
 30
0.0
  0
SPLINE
  5
449
100
AcDbEntity
  8
268140580
100
AcDbSpline
 62
250
  6
CONTINUOUS
 70
0
 71
3
 72
11
 73
7
 74
0
 42
0.0000001
 43
0.0000001
 44
0.0000000001
 40
0.0
 40
0.0
 40
0.0
 40
0.0
 40
0.2352231318
 40
0.4870804078
 40
0.7456521179
 40
1.0
 40
1.0
 40
1.0
 40
1.0
 10
-0.1664198628
 20
-24.2375683564
 30
0.0
 10
-0.1664198628
 20
-24.2771373814
 30
0.0
 10
-0.1754820511
 20
-24.3591877977
 30
0.0
 10
-0.2109801873
 20
-24.4800484895
 30
0.0
 10
-0.2666305127
 20
-24.5966109625
 30
0.0
 10
-0.3159010343
 20
-24.6680080922
 30
0.0
 10
-0.3431965581
 20
-24.700956704
 30
0.0
  0
SPLINE
  5
44A
100
AcDbEntity
  8
268140580
100
AcDbSpline
 62
250
  6
CONTINUOUS
 70
0
 71
3
 72
11
 73
7
 74
0
 42
0.0000001
 43
0.0000001
 44
0.0000000001
 40
0.0
 40
0.0
 40
0.0
 40
0.0
 40
0.2352230347
 40
0.4870803826
 40
0.7456521087
 40
1.0
 40
1.0
 40
1.0
 40
1.0
 10
-0.5199732534
 20
-24.2375683564
 30
0.0
 10
-0.5199732534
 20
-24.2573528668
 30
0.0
 10
-0.5245040619
 20
-24.2983781202
 30
0.0
 10
-0.5422533486
 20
-24.3588084346
 30
0.0
 10
-0.5700783718
 20
-24.4170897678
 30
0.0
 10
-0.5947138345
 20
-24.4527882187
 30
0.0
 10
-0.608361601
 20
-24.4692625302
 30
0.0
  0
SPLINE
  5
44B
100
AcDbEntity
  8
268140580
100
AcDbSpline
 62
250
  6
CONTINUOUS
 70
0
 71
3
 72
13
 73
9
 74
0
 42
0.0000001
 43
0.0000001
 44
0.0000000001
 40
0.0
 40
0.0
 40
0.0
 40
0.0
 40
0.1126065774
 40
0.2356248503
 40
0.5000000024
 40
0.7643751529
 40
0.8873934242
 40
1.0
 40
1.0
 40
1.0
 40
1.0
 10
-0.1664198628
 20
-24.2375683564
 30
0.0
 10
-0.1786290116
 20
-24.2436729308
 30
0.0
 10
-0.2052359537
 20
-24.2543720285
 30
0.0
 10
-0.2639710218
 20
-24.2697814381
 30
0.0
 10
-0.3431965588
 20
-24.2771812308
 30
0.0
 10
-0.4224220955
 20
-24.2697814379
 30
0.0
 10
-0.481157163
 20
-24.2543720282
 30
0.0
 10
-0.5077641047
 20
-24.2436729307
 30
0.0
 10
-0.5199732534
 20
-24.2375683564
 30
0.0
  0
SPLINE
  5
44C
100
AcDbEntity
  8
268140580
100
AcDbSpline
 62
250
  6
CONTINUOUS
 70
0
 71
3
 72
13
 73
9
 74
0
 42
0.0000001
 43
0.0000001
 44
0.0000000001
 40
0.0
 40
0.0
 40
0.0
 40
0.0
 40
0.101662259
 40
0.2186217018
 40
0.4825367699
 40
0.7556527969
 40
0.88367285
 40
1.0
 40
1.0
 40
1.0
 40
1.0
 10
-0.873526644
 20
-25.341121747
 30
0.0
 10
-0.8798494105
 20
-25.3308705169
 30
0.0
 10
-0.8948496772
 20
-25.3096887075
 30
0.0
 10
-0.9317106595
 20
-25.2659380818
 30
0.0
 10
-0.9875506943
 20
-25.2119377789
 30
0.0
 10
-1.0496588613
 20
-25.1631949207
 30
0.0
 10
-1.1010593324
 20
-25.1297222673
 30
0.0
 10
-1.1263649596
 20
-25.1155909368
 30
0.0
 10
-1.1386916869
 20
-25.1094275732
 30
0.0
  0
SPLINE
  5
44D
100
AcDbEntity
  8
268140580
100
AcDbSpline
 62
250
  6
CONTINUOUS
 70
0
 71
3
 72
13
 73
9
 74
0
 42
0.0000001
 43
0.0000001
 44
0.0000000001
 40
0.0
 40
0.0
 40
0.0
 40
0.0
 40
0.1016618926
 40
0.2186214484
 40
0.4825370541
 40
0.7556532903
 40
0.8836734175
 40
1.0
 40
1.0
 40
1.0
 40
1.0
 10
-0.3431965581
 20
-24.700956704
 30
0.0
 10
-0.3495193015
 20
-24.6907055114
 30
0.0
 10
-0.3645195101
 20
-24.6695237007
 30
0.0
 10
-0.4013805405
 20
-24.6257730654
 30
0.0
 10
-0.4572208654
 20
-24.5717729354
 30
0.0
 10
-0.5193288989
 20
-24.5230297714
 30
0.0
 10
-0.5707293406
 20
-24.4895571283
 30
0.0
 10
-0.5960349344
 20
-24.4754258635
 30
0.0
 10
-0.608361601
 20
-24.4692625302
 30
0.0
  0
SPLINE
  5
44E
100
AcDbEntity
  8
268140580
100
AcDbSpline
 62
250
  6
CONTINUOUS
 70
0
 71
3
 72
11
 73
7
 74
0
 42
0.0000001
 43
0.0000001
 44
0.0000000001
 40
0.0
 40
0.0
 40
0.0
 40
0.0
 40
0.2352341355
 40
0.4870808174
 40
0.7456411133
 40
1.0
 40
1.0
 40
1.0
 40
1.0
 10
-1.2270800346
 20
-25.341121747
 30
0.0
 10
-1.2270800346
 20
-25.3213363036
 30
0.0
 10
-1.2225489789
 20
-25.2803110138
 30
0.0
 10
-1.2047998018
 20
-25.2198816733
 30
0.0
 10
-1.1769753346
 20
-25.1616011442
 30
0.0
 10
-1.152340043
 20
-25.1259025963
 30
0.0
 10
-1.1386916869
 20
-25.1094275732
 30
0.0
  0
SPLINE
  5
44F
100
AcDbEntity
  8
268140580
100
AcDbSpline
 62
250
  6
CONTINUOUS
 70
0
 71
3
 72
9
 73
5
 74
0
 42
0.0000001
 43
0.0000001
 44
0.0000000001
 40
0.0
 40
0.0
 40
0.0
 40
0.0
 40
0.25237679
 40
1.0
 40
1.0
 40
1.0
 40
1.0
 10
1.1594053519
 20
-23.9603790537
 30
0.0
 10
1.1614457651
 20
-23.9608016371
 30
0.0
 10
1.1694759129
 20
-23.9627287225
 30
0.0
 10
1.1772597045
 20
-23.965690484
 30
0.0
 10
1.1827823296
 20
-23.9684476885
 30
0.0
  0
SPLINE
  5
450
100
AcDbEntity
  8
268140580
100
AcDbSpline
 62
250
  6
CONTINUOUS
 70
0
 71
3
 72
11
 73
7
 74
0
 42
0.0000001
 43
0.0000001
 44
0.0000000001
 40
0.0
 40
0.0
 40
0.0
 40
0.0
 40
0.2275506831
 40
0.4653211586
 40
0.721275948
 40
1.0
 40
1.0
 40
1.0
 40
1.0
 10
-13.5250006715
 20
25.030685643
 30
0.0
 10
-13.5327509533
 20
25.034560362
 30
0.0
 10
-13.5498032144
 20
25.0402709303
 30
0.0
 10
-13.5775046868
 20
25.0417986191
 30
0.0
 10
-13.6066708238
 20
25.0365344287
 30
0.0
 10
-13.6257279694
 20
25.0290131466
 30
0.0
 10
-13.6352613963
 20
25.0243483282
 30
0.0
  0
SPLINE
  5
451
100
AcDbEntity
  8
268140580
100
AcDbSpline
 62
250
  6
CONTINUOUS
 70
0
 71
3
 72
11
 73
7
 74
0
 42
0.0000001
 43
0.0000001
 44
0.0000000001
 40
0.0
 40
0.0
 40
0.0
 40
0.0
 40
0.302582386
 40
0.5654825259
 40
0.7934322451
 40
1.0
 40
1.0
 40
1.0
 40
1.0
 10
-2.5705829188
 20
-25.0376808334
 30
0.0
 10
-2.5814375894
 20
-25.0322534981
 30
0.0
 10
-2.6010560681
 20
-25.0206137751
 30
0.0
 10
-2.6248674079
 20
-24.999093138
 30
0.0
 10
-2.6401466512
 20
-24.9751388509
 30
0.0
 10
-2.6438062172
 20
-24.9575774482
 30
0.0
 10
-2.6438062235
 20
-24.9492924858
 30
0.0
  0
SPLINE
  5
452
100
AcDbEntity
  8
268140580
100
AcDbSpline
 62
250
  6
CONTINUOUS
 70
0
 71
3
 72
11
 73
7
 74
0
 42
0.0000001
 43
0.0000001
 44
0.0000000001
 40
0.0
 40
0.0
 40
0.0
 40
0.0
 40
0.2352229252
 40
0.4870806817
 40
0.7456525121
 40
1.0
 40
1.0
 40
1.0
 40
1.0
 10
-1.8634761376
 20
-23.5658169143
 30
0.0
 10
-1.8634761376
 20
-23.5856014124
 30
0.0
 10
-1.8680070576
 20
-23.626626673
 30
0.0
 10
-1.8857563176
 20
-23.6870570151
 30
0.0
 10
-1.9135813765
 20
-23.7453383276
 30
0.0
 10
-1.9382167425
 20
-23.7810368052
 30
0.0
 10
-1.9518644853
 20
-23.7975110881
 30
0.0
  0
SPLINE
  5
453
100
AcDbEntity
  8
268140580
100
AcDbSpline
 62
250
  6
CONTINUOUS
 70
0
 71
3
 72
11
 73
7
 74
0
 42
0.0000001
 43
0.0000001
 44
0.0000000001
 40
0.0
 40
0.0
 40
0.0
 40
0.0
 40
0.3025821612
 40
0.5654826977
 40
0.7934329984
 40
1.0
 40
1.0
 40
1.0
 40
1.0
 10
-1.8634761376
 20
-23.5658169143
 30
0.0
 10
-1.8743307823
 20
-23.5603895919
 30
0.0
 10
-1.8939492868
 20
-23.5487499558
 30
0.0
 10
-1.9177605602
 20
-23.5272293084
 30
0.0
 10
-1.9330397823
 20
-23.5032749434
 30
0.0
 10
-1.9366987699
 20
-23.4857134852
 30
0.0
 10
-1.9366987699
 20
-23.4774285666
 30
0.0
  0
SPLINE
  5
454
100
AcDbEntity
  8
268140580
100
AcDbSpline
 62
250
  6
CONTINUOUS
 70
0
 71
3
 72
15
 73
11
 74
0
 42
0.0000001
 43
0.0000001
 44
0.0000000001
 40
0.0
 40
0.0
 40
0.0
 40
0.0
 40
0.1876025432
 40
0.3580461646
 40
0.5098099208
 40
0.6421744757
 40
0.7551302366
 40
0.8498209609
 40
0.929400459
 40
1.0
 40
1.0
 40
1.0
 40
1.0
 10
-1.9518644853
 20
-23.7975110881
 30
0.0
 10
-1.9580686083
 20
-23.7944090266
 30
0.0
 10
-1.9700512461
 20
-23.7887644212
 30
0.0
 10
-1.9875503299
 20
-23.7817247163
 30
0.0
 10
-2.0035673364
 20
-23.7765726119
 30
0.0
 10
-2.0179208597
 20
-23.7733630584
 30
0.0
 10
-2.0304731458
 20
-23.7721237561
 30
0.0
 10
-2.0411370236
 20
-23.7728948761
 30
0.0
 10
-2.0498577927
 20
-23.7757641551
 30
0.0
 10
-2.0543299579
 20
-23.7793187044
 30
0.0
 10
-2.0559951735
 20
-23.7813289229
 30
0.0
  0
SPLINE
  5
455
100
AcDbEntity
  8
268140580
100
AcDbSpline
 62
250
  6
CONTINUOUS
 70
0
 71
3
 72
11
 73
7
 74
0
 42
0.0000001
 43
0.0000001
 44
0.0000000001
 40
0.0
 40
0.0
 40
0.0
 40
0.0
 40
0.2897526914
 40
0.5495812473
 40
0.7828465361
 40
1.0
 40
1.0
 40
1.0
 40
1.0
 10
-2.5705829188
 20
-25.0376808334
 30
0.0
 10
-2.5705829188
 20
-25.0528855161
 30
0.0
 10
-2.5681299023
 20
-25.0818344528
 30
0.0
 10
-2.5557557139
 20
-25.1214266547
 30
0.0
 10
-2.5350930767
 20
-25.1531259216
 30
0.0
 10
-2.515807142
 20
-25.1677999155
 30
0.0
 10
-2.505615329
 20
-25.17289642
 30
0.0
  0
SPLINE
  5
456
100
AcDbEntity
  8
268140580
100
AcDbSpline
 62
250
  6
CONTINUOUS
 70
0
 71
3
 72
11
 73
7
 74
0
 42
0.0000001
 43
0.0000001
 44
0.0000000001
 40
0.0
 40
0.0
 40
0.0
 40
0.0
 40
0.2275506831
 40
0.4653211586
 40
0.721275948
 40
1.0
 40
1.0
 40
1.0
 40
1.0
 10
-0.160682507
 20
18.3485265608
 30
0.0
 10
-0.1684327889
 20
18.3524012798
 30
0.0
 10
-0.18548505
 20
18.3581118481
 30
0.0
 10
-0.2131865224
 20
18.3596395369
 30
0.0
 10
-0.2423526594
 20
18.3543753465
 30
0.0
 10
-0.261409805
 20
18.3468540644
 30
0.0
 10
-0.2709432318
 20
18.342189246
 30
0.0
  0
SPLINE
  5
457
100
AcDbEntity
  8
268140580
100
AcDbSpline
 62
250
  6
CONTINUOUS
 70
0
 71
3
 72
13
 73
9
 74
0
 42
0.0000001
 43
0.0000001
 44
0.0000000001
 40
0.0
 40
0.0
 40
0.0
 40
0.0
 40
0.1126065765
 40
0.2356248486
 40
0.5
 40
0.7643751514
 40
0.8873934235
 40
1.0
 40
1.0
 40
1.0
 40
1.0
 10
-0.1664198628
 20
15.562035783
 30
0.0
 10
-0.1786290115
 20
15.5559312086
 30
0.0
 10
-0.2052359534
 20
15.545232111
 30
0.0
 10
-0.2639710212
 20
15.5298227014
 30
0.0
 10
-0.3431965581
 20
15.5224229086
 30
0.0
 10
-0.4224220949
 20
15.5298227014
 30
0.0
 10
-0.4811571628
 20
15.545232111
 30
0.0
 10
-0.5077641046
 20
15.5559312086
 30
0.0
 10
-0.5199732534
 20
15.562035783
 30
0.0
  0
SPLINE
  5
458
100
AcDbEntity
  8
268140580
100
AcDbSpline
 62
250
  6
CONTINUOUS
 70
0
 71
3
 72
14
 73
10
 74
0
 42
0.0000001
 43
0.0000001
 44
0.0000000001
 40
0.0
 40
0.0
 40
0.0
 40
0.0
 40
0.1105836596
 40
0.2204504405
 40
0.3326782674
 40
0.4500069614
 40
0.5745209168
 40
0.7075243879
 40
1.0
 40
1.0
 40
1.0
 40
1.0
 10
-0.3431965581
 20
15.8486474353
 30
0.0
 10
-0.3300248016
 20
15.8459194753
 30
0.0
 10
-0.3042294009
 20
15.83777276
 30
0.0
 10
-0.2688923701
 20
15.8174419458
 30
0.0
 10
-0.238029027
 20
15.789573665
 30
0.0
 10
-0.2122109718
 20
15.7547887921
 30
0.0
 10
-0.1918085909
 20
15.7137719548
 30
0.0
 10
-0.1715739102
 20
15.6497959006
 30
0.0
 10
-0.1664198628
 20
15.5976122089
 30
0.0
 10
-0.1664198628
 20
15.562035783
 30
0.0
  0
SPLINE
  5
459
100
AcDbEntity
  8
268140580
100
AcDbSpline
 62
250
  6
CONTINUOUS
 70
0
 71
3
 72
11
 73
7
 74
0
 42
0.0000001
 43
0.0000001
 44
0.0000000001
 40
0.0
 40
0.0
 40
0.0
 40
0.0
 40
0.2186768366
 40
0.4554582223
 40
0.715509182
 40
1.0
 40
1.0
 40
1.0
 40
1.0
 10
-0.5666096971
 20
15.6852446382
 30
0.0
 10
-0.559007279
 20
15.6789172107
 30
0.0
 10
-0.5451384922
 20
15.6632540927
 30
0.0
 10
-0.5305344728
 20
15.6340547724
 30
0.0
 10
-0.5217524872
 20
15.5995955031
 30
0.0
 10
-0.5199732534
 20
15.5749037037
 30
0.0
 10
-0.5199732534
 20
15.562035783
 30
0.0
  0
SPLINE
  5
45A
100
AcDbEntity
  8
268140580
100
AcDbSpline
 62
250
  6
CONTINUOUS
 70
0
 71
3
 72
13
 73
9
 74
0
 42
0.0000001
 43
0.0000001
 44
0.0000000001
 40
0.0
 40
0.0
 40
0.0
 40
0.0
 40
0.276583574
 40
0.5356398875
 40
0.657703725
 40
0.7749397431
 40
0.8884793256
 40
1.0
 40
1.0
 40
1.0
 40
1.0
 10
-0.3431965581
 20
15.8486474353
 30
0.0
 10
-0.3530265401
 20
15.8228799036
 30
0.0
 10
-0.3787460405
 20
15.7751917174
 30
0.0
 10
-0.4261657419
 20
15.7281401041
 30
0.0
 10
-0.4695807488
 20
15.7034438004
 30
0.0
 10
-0.5031167154
 20
15.6920516998
 30
0.0
 10
-0.53723173
 20
15.6878491116
 30
0.0
 10
-0.5597850968
 20
15.6899755727
 30
0.0
 10
-0.5706740418
 20
15.692230721
 30
0.0
  0
SPLINE
  5
45B
100
AcDbEntity
  8
268140580
100
AcDbSpline
 62
250
  6
CONTINUOUS
 70
0
 71
3
 72
11
 73
7
 74
0
 42
0.0000001
 43
0.0000001
 44
0.0000000001
 40
0.0
 40
0.0
 40
0.0
 40
0.0
 40
0.2186768366
 40
0.4554582223
 40
0.715509182
 40
1.0
 40
1.0
 40
1.0
 40
1.0
 10
-13.9309278616
 20
22.3674037204
 30
0.0
 10
-13.9233254435
 20
22.3610762929
 30
0.0
 10
-13.9094566566
 20
22.3454131749
 30
0.0
 10
-13.8948526372
 20
22.3162138546
 30
0.0
 10
-13.8860706516
 20
22.2817545853
 30
0.0
 10
-13.8842914178
 20
22.2570627859
 30
0.0
 10
-13.8842914178
 20
22.2441948652
 30
0.0
  0
SPLINE
  5
45C
100
AcDbEntity
  8
268140580
100
AcDbSpline
 62
250
  6
CONTINUOUS
 70
0
 71
3
 72
13
 73
9
 74
0
 42
0.0000001
 43
0.0000001
 44
0.0000000001
 40
0.0
 40
0.0
 40
0.0
 40
0.0
 40
0.2765818304
 40
0.5356395018
 40
0.6577035243
 40
0.7749394541
 40
0.8884792289
 40
1.0
 40
1.0
 40
1.0
 40
1.0
 10
-0.873526644
 20
15.9584823924
 30
0.0
 10
-0.883356554
 20
15.9327150493
 30
0.0
 10
-0.9090762573
 20
15.8850270934
 30
0.0
 10
-0.9564957603
 20
15.8379754435
 30
0.0
 10
-0.9999108355
 20
15.8132790462
 30
0.0
 10
-1.0334467851
 20
15.8018869475
 30
0.0
 10
-1.0675617861
 20
15.7976842562
 30
0.0
 10
-1.0901151358
 20
15.7998107646
 30
0.0
 10
-1.1010041074
 20
15.8020657758
 30
0.0
  0
SPLINE
  5
45D
100
AcDbEntity
  8
268140580
100
AcDbSpline
 62
250
  6
CONTINUOUS
 70
0
 71
3
 72
13
 73
9
 74
0
 42
0.0000001
 43
0.0000001
 44
0.0000000001
 40
0.0
 40
0.0
 40
0.0
 40
0.0
 40
0.1126070742
 40
0.2356252339
 40
0.5
 40
0.7643747661
 40
0.8873929258
 40
1.0
 40
1.0
 40
1.0
 40
1.0
 10
-0.873526644
 20
16.326792921
 30
0.0
 10
-0.8857358486
 20
16.3206883187
 30
0.0
 10
-0.9123428691
 20
16.3099892695
 30
0.0
 10
-0.971077921
 20
16.2945798437
 30
0.0
 10
-1.0503033393
 20
16.2871794785
 30
0.0
 10
-1.1295287575
 20
16.2945798437
 30
0.0
 10
-1.1882638094
 20
16.3099892695
 30
0.0
 10
-1.2148708299
 20
16.3206883187
 30
0.0
 10
-1.2270800346
 20
16.326792921
 30
0.0
  0
SPLINE
  5
45E
100
AcDbEntity
  8
268140580
100
AcDbSpline
 62
250
  6
CONTINUOUS
 70
0
 71
3
 72
13
 73
9
 74
0
 42
0.0000001
 43
0.0000001
 44
0.0000000001
 40
0.0
 40
0.0
 40
0.0
 40
0.0
 40
0.1126069074
 40
0.2356250774
 40
0.4999998802
 40
0.7643747133
 40
0.8873929016
 40
1.0
 40
1.0
 40
1.0
 40
1.0
 10
-0.873526644
 20
15.9584823924
 30
0.0
 10
-0.8857358305
 20
15.9523777991
 30
0.0
 10
-0.9123428326
 20
15.9416787563
 30
0.0
 10
-0.9710778669
 20
15.9262693208
 30
0.0
 10
-1.0503032993
 20
15.9188689495
 30
0.0
 10
-1.129528734
 20
15.9262693107
 30
0.0
 10
-1.1882638007
 20
15.9416787376
 30
0.0
 10
-1.2148708273
 20
15.9523777888
 30
0.0
 10
-1.2270800346
 20
15.9584823924
 30
0.0
  0
SPLINE
  5
45F
100
AcDbEntity
  8
268140580
100
AcDbSpline
 62
250
  6
CONTINUOUS
 70
0
 71
3
 72
11
 73
7
 74
0
 42
0.0000001
 43
0.0000001
 44
0.0000000001
 40
0.0
 40
0.0
 40
0.0
 40
0.0
 40
0.2472741818
 40
0.5122777071
 40
0.7705533649
 40
1.0
 40
1.0
 40
1.0
 40
1.0
 10
-0.873526644
 20
16.326792921
 30
0.0
 10
-0.8733117764
 20
16.3570552753
 30
0.0
 10
-0.8832947008
 20
16.4199368067
 30
0.0
 10
-0.920542273
 20
16.5074550736
 30
0.0
 10
-0.9756893287
 20
16.5822619493
 30
0.0
 10
-1.0236440494
 20
16.6198923789
 30
0.0
 10
-1.0487606912
 20
16.6324506997
 30
0.0
  0
SPLINE
  5
460
100
AcDbEntity
  8
268140580
100
AcDbSpline
 62
250
  6
CONTINUOUS
 70
0
 71
3
 72
11
 73
7
 74
0
 42
0.0000001
 43
0.0000001
 44
0.0000000001
 40
0.0
 40
0.0
 40
0.0
 40
0.0
 40
0.2294465245
 40
0.4877220552
 40
0.7527254995
 40
1.0
 40
1.0
 40
1.0
 40
1.0
 10
1.0725596524
 20
17.6704378039
 30
0.0
 10
1.097676282
 20
17.6578794891
 30
0.0
 10
1.1456309823
 20
17.6202490834
 30
0.0
 10
1.2007780274
 20
17.5454422488
 30
0.0
 10
1.2380256233
 20
17.457923979
 30
0.0
 10
1.2480085675
 20
17.3950424184
 30
0.0
 10
1.2477936996
 20
17.3647800251
 30
0.0
  0
SPLINE
  5
461
100
AcDbEntity
  8
268140580
100
AcDbSpline
 62
250
  6
CONTINUOUS
 70
0
 71
3
 72
11
 73
7
 74
0
 42
0.0000001
 43
0.0000001
 44
0.0000000001
 40
0.0
 40
0.0
 40
0.0
 40
0.0
 40
0.3025823826
 40
0.5654825262
 40
0.7934322429
 40
1.0
 40
1.0
 40
1.0
 40
1.0
 10
1.2477936996
 20
17.0191425642
 30
0.0
 10
1.2586483701
 20
17.0245698995
 30
0.0
 10
1.2782668484
 20
17.0362096228
 30
0.0
 10
1.3020781899
 20
17.0577302593
 30
0.0
 10
1.3173574302
 20
17.0816845462
 30
0.0
 10
1.3210170043
 20
17.0992459493
 30
0.0
 10
1.3210170043
 20
17.1075309118
 30
0.0
  0
SPLINE
  5
462
100
AcDbEntity
  8
268140580
100
AcDbSpline
 62
250
  6
CONTINUOUS
 70
0
 71
3
 72
11
 73
7
 74
0
 42
0.0000001
 43
0.0000001
 44
0.0000000001
 40
0.0
 40
0.0
 40
0.0
 40
0.0
 40
0.3025816089
 40
0.5654821388
 40
0.7934320516
 40
1.0
 40
1.0
 40
1.0
 40
1.0
 10
1.2477936996
 20
17.3647800251
 30
0.0
 10
1.2586483424
 20
17.3702073465
 30
0.0
 10
1.2782668036
 20
17.3818470637
 30
0.0
 10
1.30207816
 20
17.4033676744
 30
0.0
 10
1.3173574204
 20
17.4273219841
 30
0.0
 10
1.3210170108
 20
17.4448834026
 30
0.0
 10
1.3210170043
 20
17.4531683728
 30
0.0
  0
SPLINE
  5
463
100
AcDbEntity
  8
268140580
100
AcDbSpline
 62
7
  6
CONTINUOUS
 70
0
 71
3
 72
14
 73
10
 74
0
 42
0.0000001
 43
0.0000001
 44
0.0000000001
 40
0.0
 40
0.0
 40
0.0
 40
0.0
 40
0.2211124245
 40
0.3316280488
 40
0.4441153736
 40
0.5622710279
 40
0.6911554423
 40
0.8358633822
 40
1.0
 40
1.0
 40
1.0
 40
1.0
 10
0.6821082746
 20
15.6622435221
 30
0.0
 10
0.6843726942
 20
15.6419268417
 30
0.0
 10
0.6877873645
 20
15.611341301
 30
0.0
 10
0.6854952097
 20
15.5702099546
 30
0.0
 10
0.6785516784
 20
15.5392546203
 30
0.0
 10
0.6647109481
 20
15.5087490737
 30
0.0
 10
0.6427481157
 20
15.4795933371
 30
0.0
 10
0.6120877693
 20
15.4528004273
 30
0.0
 10
0.587413961
 20
15.43811967
 30
0.0
 10
0.5738411137
 20
15.4313332463
 30
0.0
  0
SPLINE
  5
464
100
AcDbEntity
  8
268140580
100
AcDbSpline
 62
250
  6
CONTINUOUS
 70
0
 71
3
 72
9
 73
5
 74
0
 42
0.0000001
 43
0.0000001
 44
0.0000000001
 40
0.0
 40
0.0
 40
0.0
 40
0.0
 40
0.2297091466
 40
1.0
 40
1.0
 40
1.0
 40
1.0
 10
0.5738458038
 20
15.4313355914
 30
0.0
 10
0.5682638544
 20
15.4423239502
 30
0.0
 10
0.5475594133
 20
15.4919956525
 30
0.0
 10
0.5406869184
 20
15.5466318897
 30
0.0
 10
0.5406869184
 20
15.5879612294
 30
0.0
  0
SPLINE
  5
465
100
AcDbEntity
  8
268140580
100
AcDbSpline
 62
250
  6
CONTINUOUS
 70
0
 71
3
 72
9
 73
5
 74
0
 42
0.0000001
 43
0.0000001
 44
0.0000000001
 40
0.0
 40
0.0
 40
0.0
 40
0.0
 40
0.5295372972
 40
1.0
 40
1.0
 40
1.0
 40
1.0
 10
0.6821082746
 20
15.6622435221
 30
0.0
 10
0.6713187246
 20
15.6568487471
 30
0.0
 10
0.6496894028
 20
15.648829537
 30
0.0
 10
0.6264112506
 20
15.6477169587
 30
0.0
 10
0.6158124198
 20
15.6493063453
 30
0.0
  0
SPLINE
  5
466
100
AcDbEntity
  8
268140580
100
AcDbSpline
 62
250
  6
CONTINUOUS
 70
0
 71
3
 72
10
 73
6
 74
0
 42
0.0000001
 43
0.0000001
 44
0.0000000001
 40
0.0
 40
0.0
 40
0.0
 40
0.0
 40
0.2907802936
 40
0.5537542972
 40
1.0
 40
1.0
 40
1.0
 40
1.0
 10
0.5406869184
 20
15.5879612294
 30
0.0
 10
0.5488682355
 20
15.592051888
 30
0.0
 10
0.5640608343
 20
15.600734107
 30
0.0
 10
0.5889753053
 20
15.6199080823
 30
0.0
 10
0.6033876458
 20
15.6380975268
 30
0.0
 10
0.6087450106
 20
15.6510724185
 30
0.0
  0
SPLINE
  5
467
100
AcDbEntity
  8
268140580
100
AcDbSpline
 62
250
  6
CONTINUOUS
 70
0
 71
3
 72
9
 73
5
 74
0
 42
0.0000001
 43
0.0000001
 44
0.0000000001
 40
0.0
 40
0.0
 40
0.0
 40
0.0
 40
0.2570470356
 40
1.0
 40
1.0
 40
1.0
 40
1.0
 10
0.6087450106
 20
15.6510724185
 30
0.0
 10
0.6095916988
 20
15.6531229951
 30
0.0
 10
0.6125323466
 20
15.6612398968
 30
0.0
 10
0.6139095507
 20
15.669937359
 30
0.0
 10
0.6139095507
 20
15.6763495771
 30
0.0
  0
SPLINE
  5
468
100
AcDbEntity
  8
268140580
100
AcDbSpline
 62
250
  6
CONTINUOUS
 70
0
 71
3
 72
11
 73
7
 74
0
 42
0.0000001
 43
0.0000001
 44
0.0000000001
 40
0.0
 40
0.0
 40
0.0
 40
0.0
 40
0.2352231318
 40
0.4870804078
 40
0.7456521179
 40
1.0
 40
1.0
 40
1.0
 40
1.0
 10
0.5406869184
 20
15.9155891736
 30
0.0
 10
0.5406869184
 20
15.9551581986
 30
0.0
 10
0.5497491068
 20
16.0372086149
 30
0.0
 10
0.5852472429
 20
16.1580693067
 30
0.0
 10
0.6408975683
 20
16.2746317797
 30
0.0
 10
0.69016809
 20
16.3460289094
 30
0.0
 10
0.7174636137
 20
16.3789775212
 30
0.0
  0
SPLINE
  5
469
100
AcDbEntity
  8
268140580
100
AcDbSpline
 62
250
  6
CONTINUOUS
 70
0
 71
3
 72
11
 73
7
 74
0
 42
0.0000001
 43
0.0000001
 44
0.0000000001
 40
0.0
 40
0.0
 40
0.0
 40
0.0
 40
0.3025821625
 40
0.5654826995
 40
0.7934329996
 40
1.0
 40
1.0
 40
1.0
 40
1.0
 10
0.5406869184
 20
15.9155891736
 30
0.0
 10
0.5515415631
 20
15.9210164959
 30
0.0
 10
0.5711600677
 20
15.9326561322
 30
0.0
 10
0.5949713411
 20
15.9541767796
 30
0.0
 10
0.6102505631
 20
15.9781311446
 30
0.0
 10
0.6139095507
 20
15.9956926027
 30
0.0
 10
0.6139095507
 20
16.0039775212
 30
0.0
  0
SPLINE
  5
46A
100
AcDbEntity
  8
268140580
100
AcDbSpline
 62
250
  6
CONTINUOUS
 70
0
 71
3
 72
13
 73
9
 74
0
 42
0.0000001
 43
0.0000001
 44
0.0000000001
 40
0.0
 40
0.0
 40
0.0
 40
0.0
 40
0.3460865981
 40
0.6224396042
 40
0.7354404153
 40
0.8335658523
 40
0.9200580782
 40
1.0
 40
1.0
 40
1.0
 40
1.0
 10
1.2477936996
 20
17.0191425642
 30
0.0
 10
1.2524335406
 20
17.0116198956
 30
0.0
 10
1.2601521893
 20
16.9976914496
 30
0.0
 10
1.2667915479
 20
16.9799625314
 30
0.0
 10
1.2687685734
 20
16.967626093
 30
0.0
 10
1.2686651771
 20
16.9599761761
 30
0.0
 10
1.2670346664
 20
16.9533452972
 30
0.0
 10
1.2648382585
 20
16.9496152729
 30
0.0
 10
1.2635357443
 20
16.9480431656
 30
0.0
  0
SPLINE
  5
46B
100
AcDbEntity
  8
268140580
100
AcDbSpline
 62
250
  6
CONTINUOUS
 70
0
 71
3
 72
13
 73
9
 74
0
 42
0.0000001
 43
0.0000001
 44
0.0000000001
 40
0.0
 40
0.0
 40
0.0
 40
0.0
 40
0.3460786166
 40
0.6224457821
 40
0.7354345474
 40
0.8335668416
 40
0.9200567213
 40
1.0
 40
1.0
 40
1.0
 40
1.0
 10
0.7174636137
 20
16.3789775212
 30
0.0
 10
0.722103344
 20
16.3714550321
 30
0.0
 10
0.7298214264
 20
16.357526354
 30
0.0
 10
0.7364625335
 20
16.339797837
 30
0.0
 10
0.738437519
 20
16.3274610431
 30
0.0
 10
0.7383358461
 20
16.3198111802
 30
0.0
 10
0.7367036914
 20
16.3131806105
 30
0.0
 10
0.7345083596
 20
16.3094501179
 30
0.0
 10
0.7332059543
 20
16.3078778775
 30
0.0
  0
SPLINE
  5
46C
100
AcDbEntity
  8
268140580
100
AcDbSpline
 62
7
  6
CONTINUOUS
 70
0
 71
3
 72
11
 73
7
 74
0
 42
0.0000001
 43
0.0000001
 44
0.0000000001
 40
0.0
 40
0.0
 40
0.0
 40
0.0
 40
0.2271118964
 40
0.4646740193
 40
0.7207692411
 40
1.0
 40
1.0
 40
1.0
 40
1.0
 10
-1.4162531773
 20
23.8930792292
 30
0.0
 10
-1.4476577253
 20
23.9087831414
 30
0.0
 10
-1.5168650467
 20
23.9318133518
 30
0.0
 10
-1.6293088198
 20
23.9374404257
 30
0.0
 10
-1.7476494973
 20
23.9152068437
 30
0.0
 10
-1.824863899
 20
23.8839883032
 30
0.0
 10
-1.8634761376
 20
23.8646821838
 30
0.0
  0
SPLINE
  5
46D
100
AcDbEntity
  8
268140580
100
AcDbSpline
 62
250
  6
CONTINUOUS
 70
0
 71
3
 72
11
 73
7
 74
0
 42
0.0000001
 43
0.0000001
 44
0.0000000001
 40
0.0
 40
0.0
 40
0.0
 40
0.0
 40
0.278724052
 40
0.5346788414
 40
0.7724493169
 40
1.0
 40
1.0
 40
1.0
 40
1.0
 10
1.0725596524
 20
17.6704378039
 30
0.0
 10
1.0820930793
 20
17.6751026223
 30
0.0
 10
1.1011502248
 20
17.6826239044
 30
0.0
 10
1.1303163619
 20
17.6878880947
 30
0.0
 10
1.1580178343
 20
17.686360406
 30
0.0
 10
1.1750700954
 20
17.6806498376
 30
0.0
 10
1.1828203772
 20
17.6767751186
 30
0.0
  0
SPLINE
  5
46E
100
AcDbEntity
  8
268140580
100
AcDbSpline
 62
250
  6
CONTINUOUS
 70
0
 71
3
 72
11
 73
7
 74
0
 42
0.0000001
 43
0.0000001
 44
0.0000000001
 40
0.0
 40
0.0
 40
0.0
 40
0.0
 40
0.2470835668
 40
0.5123542168
 40
0.7708523347
 40
1.0
 40
1.0
 40
1.0
 40
1.0
 10
-1.2270800346
 20
16.326792921
 30
0.0
 10
-1.2270800346
 20
16.3571637797
 30
0.0
 10
-1.2165415481
 20
16.4202491498
 30
0.0
 10
-1.1784310825
 20
16.5078804645
 30
0.0
 10
-1.1224903613
 20
16.5826209178
 30
0.0
 10
-1.0740605639
 20
16.6200711731
 30
0.0
 10
-1.0487606912
 20
16.6324506997
 30
0.0
  0
SPLINE
  5
46F
100
AcDbEntity
  8
268140580
100
AcDbSpline
 62
250
  6
CONTINUOUS
 70
0
 71
3
 72
11
 73
7
 74
0
 42
0.0000001
 43
0.0000001
 44
0.0000000001
 40
0.0
 40
0.0
 40
0.0
 40
0.0
 40
0.2892980082
 40
0.549219762
 40
0.7828518972
 40
1.0
 40
1.0
 40
1.0
 40
1.0
 10
-2.5705829188
 20
16.6302338345
 30
0.0
 10
-2.5705829188
 20
16.6152628207
 30
0.0
 10
-2.5682016276
 20
16.5867370262
 30
0.0
 10
-2.5562171366
 20
16.5476411998
 30
0.0
 10
-2.5362174069
 20
16.5161437287
 30
0.0
 10
-2.5175046454
 20
16.5012869683
 30
0.0
 10
-2.507574461
 20
16.4960269064
 30
0.0
  0
SPLINE
  5
470
100
AcDbEntity
  8
268140580
100
AcDbSpline
 62
250
  6
CONTINUOUS
 70
0
 71
3
 72
11
 73
7
 74
0
 42
0.0000001
 43
0.0000001
 44
0.0000000001
 40
0.0
 40
0.0
 40
0.0
 40
0.0
 40
0.2291476653
 40
0.4876457832
 40
0.7529164332
 40
1.0
 40
1.0
 40
1.0
 40
1.0
 10
-2.3922635754
 20
17.3042021419
 30
0.0
 10
-2.4175634481
 20
17.2918226153
 30
0.0
 10
-2.4659932455
 20
17.2543723599
 30
0.0
 10
-2.5219339668
 20
17.1796319066
 30
0.0
 10
-2.5600444324
 20
17.0920005919
 30
0.0
 10
-2.5705829188
 20
17.0289152218
 30
0.0
 10
-2.5705829188
 20
16.9985443631
 30
0.0
  0
SPLINE
  5
471
100
AcDbEntity
  8
268140580
100
AcDbSpline
 62
250
  6
CONTINUOUS
 70
0
 71
3
 72
13
 73
9
 74
0
 42
0.0000001
 43
0.0000001
 44
0.0000000001
 40
0.0
 40
0.0
 40
0.0
 40
0.0
 40
0.1126065765
 40
0.2356248486
 40
0.5
 40
0.7643751514
 40
0.8873934235
 40
1.0
 40
1.0
 40
1.0
 40
1.0
 10
-13.5307380272
 20
22.2441948652
 30
0.0
 10
-13.542947176
 20
22.2380902908
 30
0.0
 10
-13.5695541178
 20
22.2273911933
 30
0.0
 10
-13.6282891857
 20
22.2119817836
 30
0.0
 10
-13.7075147225
 20
22.2045819908
 30
0.0
 10
-13.7867402593
 20
22.2119817836
 30
0.0
 10
-13.8454753272
 20
22.2273911933
 30
0.0
 10
-13.872082269
 20
22.2380902908
 30
0.0
 10
-13.8842914178
 20
22.2441948652
 30
0.0
  0
SPLINE
  5
472
100
AcDbEntity
  8
268140580
100
AcDbSpline
 62
250
  6
CONTINUOUS
 70
0
 71
3
 72
14
 73
10
 74
0
 42
0.0000001
 43
0.0000001
 44
0.0000000001
 40
0.0
 40
0.0
 40
0.0
 40
0.0
 40
0.1105836596
 40
0.2204504405
 40
0.3326782674
 40
0.4500069614
 40
0.5745209168
 40
0.7075243879
 40
1.0
 40
1.0
 40
1.0
 40
1.0
 10
-13.7075147225
 20
22.5308065176
 30
0.0
 10
-13.694342966
 20
22.5280785575
 30
0.0
 10
-13.6685475654
 20
22.5199318423
 30
0.0
 10
-13.6332105346
 20
22.499601028
 30
0.0
 10
-13.6023471914
 20
22.4717327472
 30
0.0
 10
-13.5765291362
 20
22.4369478743
 30
0.0
 10
-13.5561267553
 20
22.3959310371
 30
0.0
 10
-13.5358920746
 20
22.3319549828
 30
0.0
 10
-13.5307380272
 20
22.2797712911
 30
0.0
 10
-13.5307380272
 20
22.2441948652
 30
0.0
  0
SPLINE
  5
473
100
AcDbEntity
  8
268140580
100
AcDbSpline
 62
250
  6
CONTINUOUS
 70
0
 71
3
 72
13
 73
9
 74
0
 42
0.0000001
 43
0.0000001
 44
0.0000000001
 40
0.0
 40
0.0
 40
0.0
 40
0.0
 40
0.276583574
 40
0.5356398875
 40
0.657703725
 40
0.7749397431
 40
0.8884793256
 40
1.0
 40
1.0
 40
1.0
 40
1.0
 10
-13.7075147225
 20
22.5308065176
 30
0.0
 10
-13.7173447045
 20
22.5050389858
 30
0.0
 10
-13.7430642049
 20
22.4573507996
 30
0.0
 10
-13.7904839064
 20
22.4102991863
 30
0.0
 10
-13.8338989133
 20
22.3856028826
 30
0.0
 10
-13.8674348799
 20
22.374210782
 30
0.0
 10
-13.9015498945
 20
22.3700081938
 30
0.0
 10
-13.9241032612
 20
22.3721346549
 30
0.0
 10
-13.9349922062
 20
22.3743898032
 30
0.0
  0
SPLINE
  5
474
100
AcDbEntity
  8
268140580
100
AcDbSpline
 62
250
  6
CONTINUOUS
 70
0
 71
3
 72
13
 73
9
 74
0
 42
0.0000001
 43
0.0000001
 44
0.0000000001
 40
0.0
 40
0.0
 40
0.0
 40
0.0
 40
0.2765818304
 40
0.5356395018
 40
0.6577035243
 40
0.7749394541
 40
0.8884792289
 40
1.0
 40
1.0
 40
1.0
 40
1.0
 10
-14.2378448084
 20
22.6406414746
 30
0.0
 10
-14.2476747184
 20
22.6148741315
 30
0.0
 10
-14.2733944217
 20
22.5671861756
 30
0.0
 10
-14.3208139248
 20
22.5201345257
 30
0.0
 10
-14.3642289999
 20
22.4954381284
 30
0.0
 10
-14.3977649496
 20
22.4840460298
 30
0.0
 10
-14.4318799505
 20
22.4798433385
 30
0.0
 10
-14.4544333002
 20
22.4819698468
 30
0.0
 10
-14.4653222718
 20
22.4842248581
 30
0.0
  0
SPLINE
  5
475
100
AcDbEntity
  8
268140580
100
AcDbSpline
 62
250
  6
CONTINUOUS
 70
0
 71
3
 72
13
 73
9
 74
0
 42
0.0000001
 43
0.0000001
 44
0.0000000001
 40
0.0
 40
0.0
 40
0.0
 40
0.0
 40
0.1126070742
 40
0.2356252339
 40
0.5
 40
0.7643747661
 40
0.8873929258
 40
1.0
 40
1.0
 40
1.0
 40
1.0
 10
-14.2378448084
 20
23.0089520032
 30
0.0
 10
-14.250054013
 20
23.0028474009
 30
0.0
 10
-14.2766610335
 20
22.9921483518
 30
0.0
 10
-14.3353960854
 20
22.976738926
 30
0.0
 10
-14.4146215037
 20
22.9693385607
 30
0.0
 10
-14.493846922
 20
22.976738926
 30
0.0
 10
-14.5525819738
 20
22.9921483518
 30
0.0
 10
-14.5791889943
 20
23.0028474009
 30
0.0
 10
-14.591398199
 20
23.0089520032
 30
0.0
  0
SPLINE
  5
476
100
AcDbEntity
  8
268140580
100
AcDbSpline
 62
250
  6
CONTINUOUS
 70
0
 71
3
 72
13
 73
9
 74
0
 42
0.0000001
 43
0.0000001
 44
0.0000000001
 40
0.0
 40
0.0
 40
0.0
 40
0.0
 40
0.1126069074
 40
0.2356250774
 40
0.4999998802
 40
0.7643747133
 40
0.8873929016
 40
1.0
 40
1.0
 40
1.0
 40
1.0
 10
-14.2378448084
 20
22.6406414746
 30
0.0
 10
-14.2500539949
 20
22.6345368813
 30
0.0
 10
-14.2766609971
 20
22.6238378385
 30
0.0
 10
-14.3353960314
 20
22.608428403
 30
0.0
 10
-14.4146214637
 20
22.6010280317
 30
0.0
 10
-14.4938468984
 20
22.6084283929
 30
0.0
 10
-14.5525819651
 20
22.6238378198
 30
0.0
 10
-14.5791889917
 20
22.634536871
 30
0.0
 10
-14.591398199
 20
22.6406414746
 30
0.0
  0
SPLINE
  5
477
100
AcDbEntity
  8
268140580
100
AcDbSpline
 62
250
  6
CONTINUOUS
 70
0
 71
3
 72
11
 73
7
 74
0
 42
0.0000001
 43
0.0000001
 44
0.0000000001
 40
0.0
 40
0.0
 40
0.0
 40
0.0
 40
0.2472741818
 40
0.5122777071
 40
0.7705533649
 40
1.0
 40
1.0
 40
1.0
 40
1.0
 10
-14.2378448084
 20
23.0089520032
 30
0.0
 10
-14.2376299408
 20
23.0392143575
 30
0.0
 10
-14.2476128652
 20
23.1020958889
 30
0.0
 10
-14.2848604374
 20
23.1896141558
 30
0.0
 10
-14.3400074931
 20
23.2644210315
 30
0.0
 10
-14.3879622138
 20
23.3020514611
 30
0.0
 10
-14.4130788556
 20
23.3146097819
 30
0.0
  0
SPLINE
  5
478
100
AcDbEntity
  8
268140580
100
AcDbSpline
 62
250
  6
CONTINUOUS
 70
0
 71
3
 72
11
 73
7
 74
0
 42
0.0000001
 43
0.0000001
 44
0.0000000001
 40
0.0
 40
0.0
 40
0.0
 40
0.0
 40
0.2294465245
 40
0.4877220552
 40
0.7527254995
 40
1.0
 40
1.0
 40
1.0
 40
1.0
 10
-12.291758512
 20
24.3525968861
 30
0.0
 10
-12.2666418824
 20
24.3400385713
 30
0.0
 10
-12.2186871822
 20
24.3024081656
 30
0.0
 10
-12.163540137
 20
24.2276013311
 30
0.0
 10
-12.1262925411
 20
24.1400830612
 30
0.0
 10
-12.1163095969
 20
24.0772015006
 30
0.0
 10
-12.1165244648
 20
24.0469391074
 30
0.0
  0
SPLINE
  5
479
100
AcDbEntity
  8
268140580
100
AcDbSpline
 62
250
  6
CONTINUOUS
 70
0
 71
3
 72
11
 73
7
 74
0
 42
0.0000001
 43
0.0000001
 44
0.0000000001
 40
0.0
 40
0.0
 40
0.0
 40
0.0
 40
0.3025823826
 40
0.5654825262
 40
0.7934322429
 40
1.0
 40
1.0
 40
1.0
 40
1.0
 10
-12.1165244648
 20
23.7013016464
 30
0.0
 10
-12.1056697943
 20
23.7067289817
 30
0.0
 10
-12.0860513161
 20
23.718368705
 30
0.0
 10
-12.0622399745
 20
23.7398893415
 30
0.0
 10
-12.0469607342
 20
23.7638436284
 30
0.0
 10
-12.0433011601
 20
23.7814050315
 30
0.0
 10
-12.0433011601
 20
23.789689994
 30
0.0
  0
SPLINE
  5
47A
100
AcDbEntity
  8
268140580
100
AcDbSpline
 62
250
  6
CONTINUOUS
 70
0
 71
3
 72
11
 73
7
 74
0
 42
0.0000001
 43
0.0000001
 44
0.0000000001
 40
0.0
 40
0.0
 40
0.0
 40
0.0
 40
0.3025816089
 40
0.5654821388
 40
0.7934320516
 40
1.0
 40
1.0
 40
1.0
 40
1.0
 10
-12.1165244648
 20
24.0469391074
 30
0.0
 10
-12.1056698221
 20
24.0523664287
 30
0.0
 10
-12.0860513608
 20
24.0640061459
 30
0.0
 10
-12.0622400045
 20
24.0855267566
 30
0.0
 10
-12.046960744
 20
24.1094810663
 30
0.0
 10
-12.0433011536
 20
24.1270424848
 30
0.0
 10
-12.0433011601
 20
24.135327455
 30
0.0
  0
SPLINE
  5
47B
100
AcDbEntity
  8
268140580
100
AcDbSpline
 62
7
  6
CONTINUOUS
 70
0
 71
3
 72
14
 73
10
 74
0
 42
0.0000001
 43
0.0000001
 44
0.0000000001
 40
0.0
 40
0.0
 40
0.0
 40
0.0
 40
0.2211124245
 40
0.3316280488
 40
0.4441153736
 40
0.5622710279
 40
0.6911554423
 40
0.8358633822
 40
1.0
 40
1.0
 40
1.0
 40
1.0
 10
-12.6822098898
 20
22.3444026043
 30
0.0
 10
-12.6799454702
 20
22.3240859239
 30
0.0
 10
-12.6765307999
 20
22.2935003832
 30
0.0
 10
-12.6788229547
 20
22.2523690368
 30
0.0
 10
-12.6857664861
 20
22.2214137025
 30
0.0
 10
-12.6996072163
 20
22.190908156
 30
0.0
 10
-12.7215700487
 20
22.1617524193
 30
0.0
 10
-12.7522303951
 20
22.1349595095
 30
0.0
 10
-12.7769042034
 20
22.1202787522
 30
0.0
 10
-12.7904770508
 20
22.1134923285
 30
0.0
  0
SPLINE
  5
47C
100
AcDbEntity
  8
268140580
100
AcDbSpline
 62
250
  6
CONTINUOUS
 70
0
 71
3
 72
9
 73
5
 74
0
 42
0.0000001
 43
0.0000001
 44
0.0000000001
 40
0.0
 40
0.0
 40
0.0
 40
0.0
 40
0.2297091466
 40
1.0
 40
1.0
 40
1.0
 40
1.0
 10
-12.7904723606
 20
22.1134946736
 30
0.0
 10
-12.79605431
 20
22.1244830324
 30
0.0
 10
-12.8167587511
 20
22.1741547347
 30
0.0
 10
-12.823631246
 20
22.2287909719
 30
0.0
 10
-12.823631246
 20
22.2701203116
 30
0.0
  0
SPLINE
  5
47D
100
AcDbEntity
  8
268140580
100
AcDbSpline
 62
250
  6
CONTINUOUS
 70
0
 71
3
 72
9
 73
5
 74
0
 42
0.0000001
 43
0.0000001
 44
0.0000000001
 40
0.0
 40
0.0
 40
0.0
 40
0.0
 40
0.5295372972
 40
1.0
 40
1.0
 40
1.0
 40
1.0
 10
-12.6822098898
 20
22.3444026043
 30
0.0
 10
-12.6929994398
 20
22.3390078293
 30
0.0
 10
-12.7146287616
 20
22.3309886192
 30
0.0
 10
-12.7379069138
 20
22.3298760409
 30
0.0
 10
-12.7485057447
 20
22.3314654275
 30
0.0
  0
SPLINE
  5
47E
100
AcDbEntity
  8
268140580
100
AcDbSpline
 62
250
  6
CONTINUOUS
 70
0
 71
3
 72
10
 73
6
 74
0
 42
0.0000001
 43
0.0000001
 44
0.0000000001
 40
0.0
 40
0.0
 40
0.0
 40
0.0
 40
0.2907802936
 40
0.5537542972
 40
1.0
 40
1.0
 40
1.0
 40
1.0
 10
-12.823631246
 20
22.2701203116
 30
0.0
 10
-12.8154499289
 20
22.2742109702
 30
0.0
 10
-12.8002573301
 20
22.2828931892
 30
0.0
 10
-12.7753428591
 20
22.3020671645
 30
0.0
 10
-12.7609305186
 20
22.320256609
 30
0.0
 10
-12.7555731538
 20
22.3332315007
 30
0.0
  0
SPLINE
  5
47F
100
AcDbEntity
  8
268140580
100
AcDbSpline
 62
250
  6
CONTINUOUS
 70
0
 71
3
 72
9
 73
5
 74
0
 42
0.0000001
 43
0.0000001
 44
0.0000000001
 40
0.0
 40
0.0
 40
0.0
 40
0.0
 40
0.2570470356
 40
1.0
 40
1.0
 40
1.0
 40
1.0
 10
-12.7555731538
 20
22.3332315007
 30
0.0
 10
-12.7547264656
 20
22.3352820773
 30
0.0
 10
-12.7517858178
 20
22.3433989791
 30
0.0
 10
-12.7504086137
 20
22.3520964412
 30
0.0
 10
-12.7504086137
 20
22.3585086593
 30
0.0
  0
SPLINE
  5
480
100
AcDbEntity
  8
268140580
100
AcDbSpline
 62
250
  6
CONTINUOUS
 70
0
 71
3
 72
11
 73
7
 74
0
 42
0.0000001
 43
0.0000001
 44
0.0000000001
 40
0.0
 40
0.0
 40
0.0
 40
0.0
 40
0.2352231318
 40
0.4870804078
 40
0.7456521179
 40
1.0
 40
1.0
 40
1.0
 40
1.0
 10
-12.823631246
 20
22.5977482558
 30
0.0
 10
-12.823631246
 20
22.6373172808
 30
0.0
 10
-12.8145690577
 20
22.7193676971
 30
0.0
 10
-12.7790709215
 20
22.8402283889
 30
0.0
 10
-12.7234205961
 20
22.9567908619
 30
0.0
 10
-12.6741500745
 20
23.0281879916
 30
0.0
 10
-12.6468545507
 20
23.0611366034
 30
0.0
  0
SPLINE
  5
481
100
AcDbEntity
  8
268140580
100
AcDbSpline
 62
250
  6
CONTINUOUS
 70
0
 71
3
 72
11
 73
7
 74
0
 42
0.0000001
 43
0.0000001
 44
0.0000000001
 40
0.0
 40
0.0
 40
0.0
 40
0.0
 40
0.3025821625
 40
0.5654826995
 40
0.7934329996
 40
1.0
 40
1.0
 40
1.0
 40
1.0
 10
-12.823631246
 20
22.5977482558
 30
0.0
 10
-12.8127766013
 20
22.6031755782
 30
0.0
 10
-12.7931580968
 20
22.6148152144
 30
0.0
 10
-12.7693468233
 20
22.6363358618
 30
0.0
 10
-12.7540676013
 20
22.6602902268
 30
0.0
 10
-12.7504086137
 20
22.6778516849
 30
0.0
 10
-12.7504086137
 20
22.6861366034
 30
0.0
  0
SPLINE
  5
482
100
AcDbEntity
  8
268140580
100
AcDbSpline
 62
250
  6
CONTINUOUS
 70
0
 71
3
 72
13
 73
9
 74
0
 42
0.0000001
 43
0.0000001
 44
0.0000000001
 40
0.0
 40
0.0
 40
0.0
 40
0.0
 40
0.3460865981
 40
0.6224396042
 40
0.7354404153
 40
0.8335658523
 40
0.9200580782
 40
1.0
 40
1.0
 40
1.0
 40
1.0
 10
-12.1165244648
 20
23.7013016464
 30
0.0
 10
-12.1118846238
 20
23.6937789778
 30
0.0
 10
-12.1041659751
 20
23.6798505318
 30
0.0
 10
-12.0975266165
 20
23.6621216136
 30
0.0
 10
-12.095549591
 20
23.6497851752
 30
0.0
 10
-12.0956529873
 20
23.6421352583
 30
0.0
 10
-12.0972834981
 20
23.6355043794
 30
0.0
 10
-12.0994799059
 20
23.6317743551
 30
0.0
 10
-12.1007824201
 20
23.6302022478
 30
0.0
  0
SPLINE
  5
483
100
AcDbEntity
  8
268140580
100
AcDbSpline
 62
250
  6
CONTINUOUS
 70
0
 71
3
 72
13
 73
9
 74
0
 42
0.0000001
 43
0.0000001
 44
0.0000000001
 40
0.0
 40
0.0
 40
0.0
 40
0.0
 40
0.3460786166
 40
0.6224457821
 40
0.7354345474
 40
0.8335668416
 40
0.9200567213
 40
1.0
 40
1.0
 40
1.0
 40
1.0
 10
-12.6468545507
 20
23.0611366034
 30
0.0
 10
-12.6422148204
 20
23.0536141144
 30
0.0
 10
-12.634496738
 20
23.0396854362
 30
0.0
 10
-12.6278556309
 20
23.0219569192
 30
0.0
 10
-12.6258806454
 20
23.0096201253
 30
0.0
 10
-12.6259823183
 20
23.0019702624
 30
0.0
 10
-12.627614473
 20
22.9953396928
 30
0.0
 10
-12.6298098048
 20
22.9916092001
 30
0.0
 10
-12.6311122101
 20
22.9900369597
 30
0.0
  0
SPLINE
  5
484
100
AcDbEntity
  8
268140580
100
AcDbSpline
 62
250
  6
CONTINUOUS
 70
0
 71
3
 72
11
 73
7
 74
0
 42
0.0000001
 43
0.0000001
 44
0.0000000001
 40
0.0
 40
0.0
 40
0.0
 40
0.0
 40
0.278724052
 40
0.5346788414
 40
0.7724493169
 40
1.0
 40
1.0
 40
1.0
 40
1.0
 10
-12.291758512
 20
24.3525968861
 30
0.0
 10
-12.2822250852
 20
24.3572617045
 30
0.0
 10
-12.2631679396
 20
24.3647829866
 30
0.0
 10
-12.2340018026
 20
24.3700471769
 30
0.0
 10
-12.2063003301
 20
24.3685194882
 30
0.0
 10
-12.189248069
 20
24.3628089198
 30
0.0
 10
-12.1814977872
 20
24.3589342008
 30
0.0
  0
SPLINE
  5
485
100
AcDbEntity
  8
268140580
100
AcDbSpline
 62
250
  6
CONTINUOUS
 70
0
 71
3
 72
11
 73
7
 74
0
 42
0.0000001
 43
0.0000001
 44
0.0000000001
 40
0.0
 40
0.0
 40
0.0
 40
0.0
 40
0.2470835668
 40
0.5123542168
 40
0.7708523347
 40
1.0
 40
1.0
 40
1.0
 40
1.0
 10
-14.591398199
 20
23.0089520032
 30
0.0
 10
-14.591398199
 20
23.0393228619
 30
0.0
 10
-14.5808597126
 20
23.102408232
 30
0.0
 10
-14.542749247
 20
23.1900395467
 30
0.0
 10
-14.4868085257
 20
23.26478
 30
0.0
 10
-14.4383787283
 20
23.3022302553
 30
0.0
 10
-14.4130788556
 20
23.3146097819
 30
0.0
  0
SPLINE
  5
486
100
AcDbEntity
  8
268140580
100
AcDbSpline
 62
250
  6
CONTINUOUS
 70
0
 71
3
 72
11
 73
7
 74
0
 42
0.0000001
 43
0.0000001
 44
0.0000000001
 40
0.0
 40
0.0
 40
0.0
 40
0.0
 40
0.2833886233
 40
0.5434572055
 40
0.7808308871
 40
1.0
 40
1.0
 40
1.0
 40
1.0
 10
1.0611877383
 20
-23.1177752829
 30
0.0
 10
1.0602693475
 20
-23.1393193064
 30
0.0
 10
1.0554912482
 20
-23.1806082601
 30
0.0
 10
1.0382581634
 20
-23.2378514782
 30
0.0
 10
1.0116711218
 20
-23.2859930221
 30
0.0
 10
0.9873201484
 20
-23.3115038122
 30
0.0
 10
0.9741228852
 20
-23.3216996278
 30
0.0
  0
SPLINE
  5
487
100
AcDbEntity
  8
268140580
100
AcDbSpline
 62
250
  6
CONTINUOUS
 70
0
 71
3
 72
9
 73
5
 74
0
 42
0.0000001
 43
0.0000001
 44
0.0000000001
 40
0.0
 40
0.0
 40
0.0
 40
0.0
 40
0.2523321181
 40
1.0
 40
1.0
 40
1.0
 40
1.0
 10
0.9741228852
 20
-23.3216996278
 30
0.0
 10
0.9717237218
 20
-23.3235531506
 30
0.0
 10
0.9620189532
 20
-23.3306398838
 30
0.0
 10
0.9515235402
 20
-23.3366478982
 30
0.0
 10
0.9433722182
 20
-23.3404232774
 30
0.0
  0
SPLINE
  5
488
100
AcDbEntity
  8
268140580
100
AcDbSpline
 62
250
  6
CONTINUOUS
 70
0
 71
3
 72
12
 73
8
 74
0
 42
0.0000001
 43
0.0000001
 44
0.0000000001
 40
0.0
 40
0.0
 40
0.0
 40
0.0
 40
0.2915140699
 40
0.5517705459
 40
0.7839978584
 40
0.8931455408
 40
1.0
 40
1.0
 40
1.0
 40
1.0
 10
1.0611877383
 20
-23.1177752829
 30
0.0
 10
1.0611877383
 20
-23.1422967493
 30
0.0
 10
1.0572671929
 20
-23.1888918367
 30
0.0
 10
1.037565982
 20
-23.2524618398
 30
0.0
 10
1.0093131783
 20
-23.2955738503
 30
0.0
 10
0.9809997113
 20
-23.3207439346
 30
0.0
 10
0.9653432954
 20
-23.3302077087
 30
0.0
 10
0.9572489496
 20
-23.3341156301
 30
0.0
  0
SPLINE
  5
489
100
AcDbEntity
  8
268140580
100
AcDbSpline
 62
250
  6
CONTINUOUS
 70
0
 71
3
 72
21
 73
17
 74
0
 42
0.0000001
 43
0.0000001
 44
0.0000000001
 40
0.0
 40
0.0
 40
0.0
 40
0.0
 40
0.137089703
 40
0.2962059046
 40
0.3726140542
 40
0.4495405915
 40
0.5300186487
 40
0.5989520395
 40
0.6502760478
 40
0.6995011338
 40
0.7506618896
 40
0.7973858055
 40
0.8388400198
 40
0.884474654
 40
0.9391777657
 40
1.0
 40
1.0
 40
1.0
 40
1.0
 10
0.7685215463
 20
15.4697444402
 30
0.0
 10
0.7695635132
 20
15.4692768299
 30
0.0
 10
0.771858632
 20
15.4682981411
 30
0.0
 10
0.7750468686
 20
15.4682201743
 30
0.0
 10
0.7775978858
 20
15.4687254487
 30
0.0
 10
0.779490828
 20
15.469210853
 30
0.0
 10
0.7813312646
 20
15.4695318296
 30
0.0
 10
0.783016849
 20
15.4699103832
 30
0.0
 10
0.7840369648
 20
15.4709620875
 30
0.0
 10
0.7845991147
 20
15.4721052372
 30
0.0
 10
0.7854741523
 20
15.4729662341
 30
0.0
 10
0.7862627018
 20
15.4738648744
 30
0.0
 10
0.7863508698
 20
15.4750605887
 30
0.0
 10
0.7857062363
 20
15.476114898
 30
0.0
 10
0.7846093749
 20
15.4769105934
 30
0.0
 10
0.7837677617
 20
15.4773753058
 30
0.0
 10
0.7833243901
 20
15.4776206052
 30
0.0
  0
SPLINE
  5
48A
100
AcDbEntity
  8
268140580
100
AcDbSpline
 62
250
  6
CONTINUOUS
 70
0
 71
3
 72
14
 73
10
 74
0
 42
0.0000001
 43
0.0000001
 44
0.0000000001
 40
0.0
 40
0.0
 40
0.0
 40
0.0
 40
0.1201328572
 40
0.2476012625
 40
0.5127170637
 40
0.6444244943
 40
0.7712075982
 40
0.8903770471
 40
1.0
 40
1.0
 40
1.0
 40
1.0
 10
1.0611877383
 20
14.9873424836
 30
0.0
 10
1.0611877383
 20
15.0108591341
 30
0.0
 10
1.0572579252
 20
15.059384529
 30
0.0
 10
1.0356974909
 20
15.1576089922
 30
0.0
 10
0.9952914374
 20
15.2532366747
 30
0.0
 10
0.9395462796
 20
15.3394560363
 30
0.0
 10
0.8918820858
 20
15.3962648378
 30
0.0
 10
0.8401316164
 20
15.4431445732
 30
0.0
 10
0.8023808269
 20
15.4677538462
 30
0.0
 10
0.7833243901
 20
15.4776206052
 30
0.0
  0
SPLINE
  5
48B
100
AcDbEntity
  8
268140580
100
AcDbSpline
 62
250
  6
CONTINUOUS
 70
0
 71
3
 72
15
 73
11
 74
0
 42
0.0000001
 43
0.0000001
 44
0.0000000001
 40
0.0
 40
0.0
 40
0.0
 40
0.0
 40
0.1182341879
 40
0.2445920215
 40
0.3762598594
 40
0.5099675802
 40
0.6422895237
 40
0.7699078885
 40
0.8898863776
 40
1.0
 40
1.0
 40
1.0
 40
1.0
 10
1.0611877383
 20
14.9873424836
 30
0.0
 10
1.0601618921
 20
15.0104165949
 30
0.0
 10
1.0541701837
 20
15.0580203793
 30
0.0
 10
1.0354047133
 20
15.1292666252
 30
0.0
 10
1.007210218
 20
15.2005944942
 30
0.0
 10
0.970638163
 20
15.2693201186
 30
0.0
 10
0.9270604136
 20
15.3328798335
 30
0.0
 10
0.8780916075
 20
15.388902612
 30
0.0
 10
0.8255694622
 20
15.4352965025
 30
0.0
 10
0.7876150363
 20
15.4598377307
 30
0.0
 10
0.7685215463
 20
15.4697444402
 30
0.0
  0
SPLINE
  5
48C
100
AcDbEntity
  8
268140580
100
AcDbSpline
 62
250
  6
CONTINUOUS
 70
0
 71
3
 72
11
 73
7
 74
0
 42
0.0000001
 43
0.0000001
 44
0.0000000001
 40
0.0
 40
0.0
 40
0.0
 40
0.0
 40
0.2892980082
 40
0.549219762
 40
0.7828518972
 40
1.0
 40
1.0
 40
1.0
 40
1.0
 10
-15.9349010832
 20
23.3123929167
 30
0.0
 10
-15.9349010832
 20
23.297421903
 30
0.0
 10
-15.932519792
 20
23.2688961084
 30
0.0
 10
-15.920535301
 20
23.229800282
 30
0.0
 10
-15.9005355713
 20
23.1983028109
 30
0.0
 10
-15.8818228098
 20
23.1834460505
 30
0.0
 10
-15.8718926254
 20
23.1781859886
 30
0.0
  0
SPLINE
  5
48D
100
AcDbEntity
  8
268140580
100
AcDbSpline
 62
250
  6
CONTINUOUS
 70
0
 71
3
 72
11
 73
7
 74
0
 42
0.0000001
 43
0.0000001
 44
0.0000000001
 40
0.0
 40
0.0
 40
0.0
 40
0.0
 40
0.2291476653
 40
0.4876457832
 40
0.7529164332
 40
1.0
 40
1.0
 40
1.0
 40
1.0
 10
-15.7565817398
 20
23.9863612241
 30
0.0
 10
-15.7818816126
 20
23.9739816975
 30
0.0
 10
-15.83031141
 20
23.9365314421
 30
0.0
 10
-15.8862521312
 20
23.8617909888
 30
0.0
 10
-15.9243625968
 20
23.7741596741
 30
0.0
 10
-15.9349010832
 20
23.711074304
 30
0.0
 10
-15.9349010832
 20
23.6807034453
 30
0.0
  0
SPLINE
  5
48E
100
AcDbEntity
  8
268140580
100
AcDbSpline
 62
7
  6
CONTINUOUS
 70
0
 71
3
 72
12
 73
8
 74
0
 42
0.0000001
 43
0.0000001
 44
0.0000000001
 40
0.0
 40
0.0
 40
0.0
 40
0.0
 40
0.2899509912
 40
0.5494415411
 40
0.7821046401
 40
0.8920200899
 40
1.0
 40
1.0
 40
1.0
 40
1.0
 10
-1.1748832486
 20
-20.8504435837
 30
0.0
 10
-1.1748832486
 20
-20.8847316563
 30
0.0
 10
-1.1805201409
 20
-20.9499711416
 30
0.0
 10
-1.2088276128
 20
-21.0389550891
 30
0.0
 10
-1.2493359542
 20
-21.0991311484
 30
0.0
 10
-1.2898098728
 20
-21.1341700785
 30
0.0
 10
-1.3121757438
 20
-21.1473129236
 30
0.0
 10
-1.3237362773
 20
-21.1527355467
 30
0.0
  0
SPLINE
  5
48F
100
AcDbEntity
  8
268140580
100
AcDbSpline
 62
7
  6
CONTINUOUS
 70
0
 71
3
 72
13
 73
9
 74
0
 42
0.0000001
 43
0.0000001
 44
0.0000000001
 40
0.0
 40
0.0
 40
0.0
 40
0.0
 40
0.1133873859
 40
0.236853279
 40
0.5012469546
 40
0.7649673966
 40
0.8876388846
 40
1.0
 40
1.0
 40
1.0
 40
1.0
 10
0.5512930095
 20
-22.3247446064
 30
0.0
 10
0.5365808841
 20
-22.3318482735
 30
0.0
 10
0.5046566406
 20
-22.3442723932
 30
0.0
 10
0.4345267138
 20
-22.3620589786
 30
0.0
 10
0.3403620099
 20
-22.370366396
 30
0.0
 10
0.2463752772
 20
-22.3612734538
 30
0.0
 10
0.1767754793
 20
-22.342862734
 30
0.0
 10
0.1452437678
 20
-22.3301498054
 30
0.0
 10
0.130763464
 20
-22.3229096535
 30
0.0
  0
SPLINE
  5
490
100
AcDbEntity
  8
RACCORDO
100
AcDbSpline
 62
7
  6
CONTINUOUS
 70
0
 71
3
 72
14
 73
10
 74
0
 42
0.0000001
 43
0.0000001
 44
0.0000000001
 40
0.0
 40
0.0
 40
0.0
 40
0.0
 40
0.1172345463
 40
0.2355617004
 40
0.3555866798
 40
0.4779137519
 40
0.6031072972
 40
0.7316577123
 40
1.0
 40
1.0
 40
1.0
 40
1.0
 10
20.404561118
 20
15.1877591376
 30
0.0
 10
20.4531792492
 20
15.2192049344
 30
0.0
 10
20.5467594249
 20
15.2889981928
 30
0.0
 10
20.6731023793
 20
15.4116271793
 30
0.0
 10
20.7848976707
 20
15.5508779482
 30
0.0
 10
20.881495789
 20
15.7050169398
 30
0.0
 10
20.9626337646
 20
15.872489425
 30
0.0
 10
21.0513320364
 20
16.1149480087
 30
0.0
 10
21.09246143
 20
16.3079250601
 30
0.0
 10
21.1101288731
 20
16.4392745206
 30
0.0
  0
SPLINE
  5
491
100
AcDbEntity
  8
RACCORDO
100
AcDbSpline
 62
7
  6
CONTINUOUS
 70
0
 71
3
 72
15
 73
11
 74
0
 42
0.0000001
 43
0.0000001
 44
0.0000000001
 40
0.0
 40
0.0
 40
0.0
 40
0.0
 40
0.1226843624
 40
0.249222746
 40
0.3781160112
 40
0.5076813497
 40
0.6361848756
 40
0.7619735191
 40
0.883608405
 40
1.0
 40
1.0
 40
1.0
 40
1.0
 10
21.1104970875
 20
17.2166815408
 30
0.0
 10
21.0939015464
 20
17.3560368277
 30
0.0
 10
21.0437996967
 20
17.6373687893
 30
0.0
 10
20.9239716332
 20
18.0536833055
 30
0.0
 10
20.760929333
 20
18.4635475687
 30
0.0
 10
20.5583974773
 20
18.857903895
 30
0.0
 10
20.32085324
 20
19.2280230143
 30
0.0
 10
20.0533475833
 20
19.565694038
 30
0.0
 10
19.7614078788
 20
19.8633878258
 30
0.0
 10
19.5489539407
 20
20.0349927008
 30
0.0
 10
19.4400422967
 20
20.1115756072
 30
0.0
  0
SPLINE
  5
492
100
AcDbEntity
  8
RACCORDO
100
AcDbSpline
 62
7
  6
CONTINUOUS
 70
0
 71
3
 72
14
 73
10
 74
0
 42
0.0000001
 43
0.0000001
 44
0.0000000001
 40
0.0
 40
0.0
 40
0.0
 40
0.0
 40
0.1172345463
 40
0.2355617005
 40
0.3555866798
 40
0.4779137519
 40
0.6031072972
 40
0.7316577123
 40
1.0
 40
1.0
 40
1.0
 40
1.0
 10
20.404561118
 20
3.2366085654
 30
0.0
 10
20.4531792492
 20
3.2680543622
 30
0.0
 10
20.5467594249
 20
3.3378476206
 30
0.0
 10
20.6731023794
 20
3.4604766071
 30
0.0
 10
20.7848976707
 20
3.599727376
 30
0.0
 10
20.881495789
 20
3.7538663676
 30
0.0
 10
20.9626337646
 20
3.9213388529
 30
0.0
 10
21.0513320364
 20
4.1637974365
 30
0.0
 10
21.09246143
 20
4.3567744878
 30
0.0
 10
21.1101288731
 20
4.4881239483
 30
0.0
  0
SPLINE
  5
493
100
AcDbEntity
  8
RACCORDO
100
AcDbSpline
 62
7
  6
CONTINUOUS
 70
0
 71
3
 72
15
 73
11
 74
0
 42
0.0000001
 43
0.0000001
 44
0.0000000001
 40
0.0
 40
0.0
 40
0.0
 40
0.0
 40
0.1226843624
 40
0.249222746
 40
0.3781160112
 40
0.5076813497
 40
0.6361848756
 40
0.7619735191
 40
0.883608405
 40
1.0
 40
1.0
 40
1.0
 40
1.0
 10
21.1104970875
 20
5.2655309686
 30
0.0
 10
21.0939015464
 20
5.4048862555
 30
0.0
 10
21.0437996967
 20
5.6862182171
 30
0.0
 10
20.9239716332
 20
6.1025327332
 30
0.0
 10
20.760929333
 20
6.5123969964
 30
0.0
 10
20.5583974773
 20
6.9067533228
 30
0.0
 10
20.32085324
 20
7.276872442
 30
0.0
 10
20.0533475833
 20
7.6145434658
 30
0.0
 10
19.7614078788
 20
7.9122372536
 30
0.0
 10
19.5489539407
 20
8.0838421286
 30
0.0
 10
19.4400422967
 20
8.160425035
 30
0.0
  0
SPLINE
  5
494
100
AcDbEntity
  8
SMUSSO
100
AcDbSpline
 62
7
  6
CONTINUOUS
 70
0
 71
3
 72
25
 73
21
 74
0
 42
0.0000001
 43
0.0000001
 44
0.0000000001
 40
0.0
 40
0.0
 40
0.0
 40
0.0
 40
0.0583236587
 40
0.1206422074
 40
0.1863882059
 40
0.2548645756
 40
0.3252848764
 40
0.3968080722
 40
0.4685744397
 40
0.5397154392
 40
0.6093653682
 40
0.6767103217
 40
0.7410041769
 40
0.8016097618
 40
0.8303717421
 40
0.8580346018
 40
0.9099024574
 40
0.9341096147
 40
0.9571723153
 40
1.0
 40
1.0
 40
1.0
 40
1.0
 10
14.0571138117
 20
21.1264925122
 30
0.0
 10
13.9567032138
 20
21.0779644614
 30
0.0
 10
13.743649499
 20
20.9884524155
 30
0.0
 10
13.4039754223
 20
20.8793647389
 30
0.0
 10
13.0380225265
 20
20.7923304414
 30
0.0
 10
12.6516146837
 20
20.7287686137
 30
0.0
 10
12.2508939168
 20
20.6896334368
 30
0.0
 10
11.8422294241
 20
20.6756097915
 30
0.0
 10
11.432104115
 20
20.6868594764
 30
0.0
 10
11.027026679
 20
20.7232190459
 30
0.0
 10
10.6334447885
 20
20.7841209977
 30
0.0
 10
10.2575975947
 20
20.8685313901
 30
0.0
 10
9.9054503873
 20
20.9751728521
 30
0.0
 10
9.6316638295
 20
21.0829282253
 30
0.0
 10
9.4296656967
 20
21.1794327841
 30
0.0
 10
9.2474719715
 20
21.2779471185
 30
0.0
 10
9.0805566966
 20
21.3861374729
 30
0.0
 10
8.9323269121
 20
21.5045485483
 30
0.0
 10
8.8056820143
 20
21.6214450625
 30
0.0
 10
8.7230032824
 20
21.717611041
 30
0.0
 10
8.6760463893
 20
21.7847033052
 30
0.0
  0
SPLINE
  5
495
100
AcDbEntity
  8
RACCORDO
100
AcDbSpline
 62
7
  6
CONTINUOUS
 70
0
 71
3
 72
9
 73
5
 74
0
 42
0.0000001
 43
0.0000001
 44
0.0000000001
 40
0.0
 40
0.0
 40
0.0
 40
0.0
 40
0.2547883667
 40
1.0
 40
1.0
 40
1.0
 40
1.0
 10
14.0464264391
 20
24.4222780157
 30
0.0
 10
14.0464264391
 20
24.4306653791
 30
0.0
 10
14.0460359772
 20
24.4635825517
 30
0.0
 10
14.0440571246
 20
24.4964856771
 30
0.0
 10
14.0415983238
 20
24.5208937216
 30
0.0
  0
SPLINE
  5
496
100
AcDbEntity
  8
RACCORDO
100
AcDbSpline
 62
7
  6
CONTINUOUS
 70
0
 71
3
 72
15
 73
11
 74
0
 42
0.0000001
 43
0.0000001
 44
0.0000000001
 40
0.0
 40
0.0
 40
0.0
 40
0.0
 40
0.0657769995
 40
0.1306747712
 40
0.2585415675
 40
0.3845688972
 40
0.5092811421
 40
0.6329986368
 40
0.7559328134
 40
1.0
 40
1.0
 40
1.0
 40
1.0
 10
21.0267293411
 20
4.3858533067
 30
0.0
 10
20.9903762644
 20
4.346128483
 30
0.0
 10
20.9165671444
 20
4.2686573934
 30
0.0
 10
20.7661424953
 20
4.1197365755
 30
0.0
 10
20.5747010474
 20
3.942273214
 30
0.0
 10
20.3415006864
 20
3.7380737593
 30
0.0
 10
20.1067926914
 20
3.5408588087
 30
0.0
 10
19.8710446779
 20
3.3488857614
 30
0.0
 10
19.5564649111
 20
3.0990304092
 30
0.0
 10
19.3184609248
 20
2.9156406773
 30
0.0
 10
19.1593537527
 20
2.794782533
 30
0.0
  0
SPLINE
  5
497
100
AcDbEntity
  8
RACCORDO
100
AcDbSpline
 62
7
  6
CONTINUOUS
 70
0
 71
3
 72
16
 73
12
 74
0
 42
0.0000001
 43
0.0000001
 44
0.0000000001
 40
0.0
 40
0.0
 40
0.0
 40
0.0
 40
0.2576132647
 40
0.3852502741
 40
0.5118688412
 40
0.6371980899
 40
0.7608320678
 40
0.8218307879
 40
0.8821362603
 40
0.9415942743
 40
1.0
 40
1.0
 40
1.0
 40
1.0
 10
19.1593537527
 20
16.772576482
 30
0.0
 10
19.3170114521
 20
16.8160786872
 30
0.0
 10
19.5534498881
 20
16.8787985995
 30
0.0
 10
19.8693557386
 20
16.9550568991
 30
0.0
 10
20.1046621969
 20
17.0071544141
 30
0.0
 10
20.3387004287
 20
17.0529167461
 30
0.0
 10
20.5330595843
 20
17.0841332299
 30
0.0
 10
20.6874411893
 20
17.1029289957
 30
0.0
 10
20.8017777402
 20
17.1130955542
 30
0.0
 10
20.9148070665
 20
17.1183062151
 30
0.0
 10
20.989710208
 20
17.1173479597
 30
0.0
 10
21.0267293411
 20
17.1152297374
 30
0.0
  0
SPLINE
  5
498
100
AcDbEntity
  8
RACCORDO
100
AcDbSpline
 62
7
  6
CONTINUOUS
 70
0
 71
3
 72
15
 73
11
 74
0
 42
0.0000001
 43
0.0000001
 44
0.0000000001
 40
0.0
 40
0.0
 40
0.0
 40
0.0
 40
0.0657769995
 40
0.1306747712
 40
0.2585415675
 40
0.3845688972
 40
0.5092811421
 40
0.6329986368
 40
0.7559328134
 40
1.0
 40
1.0
 40
1.0
 40
1.0
 10
21.0267293411
 20
16.3370038789
 30
0.0
 10
20.9903762644
 20
16.2972790552
 30
0.0
 10
20.9165671444
 20
16.2198079656
 30
0.0
 10
20.7661424953
 20
16.0708871478
 30
0.0
 10
20.5747010474
 20
15.8934237862
 30
0.0
 10
20.3415006864
 20
15.6892243315
 30
0.0
 10
20.1067926914
 20
15.4920093809
 30
0.0
 10
19.8710446779
 20
15.3000363336
 30
0.0
 10
19.5564649111
 20
15.0501809814
 30
0.0
 10
19.3184609248
 20
14.8667912496
 30
0.0
 10
19.1593537527
 20
14.7459331052
 30
0.0
  0
SPLINE
  5
499
100
AcDbEntity
  8
RACCORDO
100
AcDbSpline
 62
250
  6
CONTINUOUS
 70
0
 71
3
 72
13
 73
9
 74
0
 42
0.0000001
 43
0.0000001
 44
0.0000000001
 40
0.0
 40
0.0
 40
0.0
 40
0.0
 40
0.1134934582
 40
0.2282840571
 40
0.3455908825
 40
0.466489968
 40
0.7220461039
 40
1.0
 40
1.0
 40
1.0
 40
1.0
 10
12.4835107408
 20
25.614663034
 30
0.0
 10
12.4682649801
 20
25.6222860447
 30
0.0
 10
12.4365069771
 20
25.6355353876
 30
0.0
 10
12.3862062347
 20
25.6489127901
 30
0.0
 10
12.3334861459
 20
25.6557655814
 30
0.0
 10
12.2591654159
 20
25.6561703201
 30
0.0
 10
12.1615068483
 20
25.639293935
 30
0.0
 10
12.0862924398
 20
25.6103220379
 30
0.0
 10
12.0486378756
 20
25.5922997351
 30
0.0
  0
SPLINE
  5
49A
100
AcDbEntity
  8
RACCORDO
100
AcDbSpline
 62
7
  6
CONTINUOUS
 70
0
 71
3
 72
16
 73
12
 74
0
 42
0.0000001
 43
0.0000001
 44
0.0000000001
 40
0.0
 40
0.0
 40
0.0
 40
0.0
 40
0.2576132647
 40
0.3852502741
 40
0.5118688412
 40
0.6371980899
 40
0.7608320678
 40
0.8218307879
 40
0.8821362603
 40
0.9415942743
 40
1.0
 40
1.0
 40
1.0
 40
1.0
 10
19.1593537527
 20
4.8214259098
 30
0.0
 10
19.3170114521
 20
4.8649281149
 30
0.0
 10
19.5534498881
 20
4.9276480273
 30
0.0
 10
19.8693557386
 20
5.0039063269
 30
0.0
 10
20.1046621969
 20
5.0560038419
 30
0.0
 10
20.3387004287
 20
5.1017661739
 30
0.0
 10
20.5330595843
 20
5.1329826576
 30
0.0
 10
20.6874411893
 20
5.1517784235
 30
0.0
 10
20.8017777402
 20
5.161944982
 30
0.0
 10
20.9148070665
 20
5.1671556429
 30
0.0
 10
20.989710208
 20
5.1661973875
 30
0.0
 10
21.0267293411
 20
5.1640791652
 30
0.0
  0
SPLINE
  5
49B
100
AcDbEntity
  8
DRAFT
100
AcDbSpline
 62
7
  6
CONTINUOUS
 70
0
 71
3
 72
19
 73
15
 74
0
 42
0.0000001
 43
0.0000001
 44
0.0000000001
 40
0.0
 40
0.0
 40
0.0
 40
0.0
 40
0.1347960335
 40
0.2689697893
 40
0.4021308568
 40
0.5335631267
 40
0.598267824
 40
0.6619534197
 40
0.7242518867
 40
0.7846832303
 40
0.8426990283
 40
0.8978482671
 40
0.9500816196
 40
1.0
 40
1.0
 40
1.0
 40
1.0
 10
19.4400144042
 20
17.5130540683
 30
0.0
 10
19.4400152283
 20
17.4755257469
 30
0.0
 10
19.4378806714
 20
17.4006230775
 30
0.0
 10
19.4279216847
 20
17.2890364383
 30
0.0
 10
19.4106254405
 20
17.1792818547
 30
0.0
 10
19.3891898893
 20
17.0899984968
 30
0.0
 10
19.3669056207
 20
17.0211433342
 30
0.0
 10
19.347490297
 20
16.9716887679
 30
0.0
 10
19.3249859527
 20
16.9248583625
 30
0.0
 10
19.2990755376
 20
16.8816173236
 30
0.0
 10
19.2695054284
 20
16.8432157466
 30
0.0
 10
19.2361894117
 20
16.811119971
 30
0.0
 10
19.1994369919
 20
16.7868069689
 30
0.0
 10
19.1727507928
 20
16.7762731032
 30
0.0
 10
19.1593537527
 20
16.772576482
 30
0.0
  0
SPLINE
  5
49C
100
AcDbEntity
  8
DRAFT
100
AcDbSpline
 62
7
  6
CONTINUOUS
 70
0
 71
3
 72
19
 73
15
 74
0
 42
0.0000001
 43
0.0000001
 44
0.0000000001
 40
0.0
 40
0.0
 40
0.0
 40
0.0
 40
0.1347960335
 40
0.2689697893
 40
0.4021308568
 40
0.5335631267
 40
0.598267824
 40
0.6619534197
 40
0.7242518867
 40
0.7846832303
 40
0.8426990283
 40
0.8978482671
 40
0.9500816196
 40
1.0
 40
1.0
 40
1.0
 40
1.0
 10
19.4400144042
 20
5.5619034961
 30
0.0
 10
19.4400152283
 20
5.5243751747
 30
0.0
 10
19.4378806714
 20
5.4494725052
 30
0.0
 10
19.4279216847
 20
5.3378858661
 30
0.0
 10
19.4106254405
 20
5.2281312825
 30
0.0
 10
19.3891898893
 20
5.1388479246
 30
0.0
 10
19.3669056207
 20
5.069992762
 30
0.0
 10
19.347490297
 20
5.0205381956
 30
0.0
 10
19.3249859527
 20
4.9737077903
 30
0.0
 10
19.2990755376
 20
4.9304667513
 30
0.0
 10
19.2695054284
 20
4.8920651743
 30
0.0
 10
19.2361894117
 20
4.8599693988
 30
0.0
 10
19.1994369919
 20
4.8356563966
 30
0.0
 10
19.1727507928
 20
4.825122531
 30
0.0
 10
19.1593537527
 20
4.8214259098
 30
0.0
  0
SPLINE
  5
49D
100
AcDbEntity
  8
RACCORDO
100
AcDbSpline
 62
250
  6
CONTINUOUS
 70
0
 71
3
 72
14
 73
10
 74
0
 42
0.0000001
 43
0.0000001
 44
0.0000000001
 40
0.0
 40
0.0
 40
0.0
 40
0.0
 40
0.1083200199
 40
0.2186901904
 40
0.3329587629
 40
0.4526225401
 40
0.5787530781
 40
0.7119879285
 40
1.0
 40
1.0
 40
1.0
 40
1.0
 10
18.914837715
 20
-2.0444267143
 30
0.0
 10
18.9343973051
 20
-2.0338738792
 30
0.0
 10
18.9720698074
 20
-2.0089964933
 30
0.0
 10
19.0219036036
 20
-1.961810616
 30
0.0
 10
19.0647276953
 20
-1.9052514774
 30
0.0
 10
19.1000554738
 20
-1.8400828584
 30
0.0
 10
19.1275459357
 20
-1.7670960804
 30
0.0
 10
19.1540603119
 20
-1.6577485334
 30
0.0
 10
19.1601869562
 20
-1.5707626656
 30
0.0
 10
19.1593537527
 20
-1.5116751356
 30
0.0
  0
SPLINE
  5
49E
100
AcDbEntity
  8
RACCORDO
100
AcDbSpline
 62
250
  6
CONTINUOUS
 70
0
 71
3
 72
15
 73
11
 74
0
 42
0.0000001
 43
0.0000001
 44
0.0000000001
 40
0.0
 40
0.0
 40
0.0
 40
0.0
 40
0.1165740752
 40
0.2387683847
 40
0.3651600567
 40
0.494105856
 40
0.6238363603
 40
0.7525444569
 40
0.8784723305
 40
1.0
 40
1.0
 40
1.0
 40
1.0
 10
19.4400367728
 20
20.025024765
 30
0.0
 10
19.544254243
 20
19.9439994057
 30
0.0
 10
19.7476610739
 20
19.7648133916
 30
0.0
 10
20.027388958
 20
19.4593629015
 30
0.0
 10
20.2840150579
 20
19.1165966605
 30
0.0
 10
20.51186468
 20
18.7440864031
 30
0.0
 10
20.7059552598
 20
18.3500088887
 30
0.0
 10
20.8620167215
 20
17.9430118548
 30
0.0
 10
20.9766074954
 20
17.5321009235
 30
0.0
 10
21.0247258125
 20
17.2554275897
 30
0.0
 10
21.040740734
 20
17.1187440821
 30
0.0
  0
SPLINE
  5
49F
100
AcDbEntity
  8
RACCORDO
100
AcDbSpline
 62
250
  6
CONTINUOUS
 70
0
 71
3
 72
11
 73
7
 74
0
 42
0.0000001
 43
0.0000001
 44
0.0000000001
 40
0.0
 40
0.0
 40
0.0
 40
0.0
 40
0.2780034159
 40
0.5338868914
 40
0.7720592254
 40
1.0
 40
1.0
 40
1.0
 40
1.0
 10
-3.6999842712
 20
21.5544624584
 30
0.0
 10
-3.6925580345
 20
21.5580168191
 30
0.0
 10
-3.6777203358
 20
21.5637481227
 30
0.0
 10
-3.655045794
 20
21.5677745787
 30
0.0
 10
-3.6334889866
 20
21.5666663569
 30
0.0
 10
-3.6201632107
 20
21.5623816248
 30
0.0
 10
-3.6140783732
 20
21.5594588044
 30
0.0
  0
SPLINE
  5
4A0
100
AcDbEntity
  8
RACCORDO
100
AcDbSpline
 62
250
  6
CONTINUOUS
 70
0
 71
3
 72
20
 73
16
 74
0
 42
0.0000001
 43
0.0000001
 44
0.0000000001
 40
0.0
 40
0.0
 40
0.0
 40
0.0
 40
0.0542519386
 40
0.1085293984
 40
0.1639930115
 40
0.2212577953
 40
0.3420049951
 40
0.4707857852
 40
0.6058082669
 40
0.6747333947
 40
0.7438326204
 40
0.8122776473
 40
0.8789025872
 40
0.9421118314
 40
1.0
 40
1.0
 40
1.0
 40
1.0
 10
-4.6544981143
 20
21.4444567288
 30
0.0
 10
-4.6382407745
 20
21.4519648855
 30
0.0
 10
-4.6060211484
 20
21.4676297977
 30
0.0
 10
-4.5572610054
 20
21.4911383921
 30
0.0
 10
-4.5068847604
 20
21.5135570754
 30
0.0
 10
-4.4351815698
 20
21.5418610499
 30
0.0
 10
-4.3383496021
 20
21.5721008081
 30
0.0
 10
-4.2138733875
 20
21.5979007175
 30
0.0
 10
-4.1044762948
 20
21.6096745515
 30
0.0
 10
-4.0143524107
 20
21.6123501405
 30
0.0
 10
-3.9461841761
 20
21.6105149227
 30
0.0
 10
-3.8790172392
 20
21.6044256225
 30
0.0
 10
-3.814383578
 20
21.5936470248
 30
0.0
 10
-3.7543758904
 20
21.5778223179
 30
0.0
 10
-3.7170746277
 20
21.5630076335
 30
0.0
 10
-3.6999842712
 20
21.5544624584
 30
0.0
  0
SPLINE
  5
4A1
100
AcDbEntity
  8
RACCORDO
100
AcDbSpline
 62
250
  6
CONTINUOUS
 70
0
 71
3
 72
11
 73
7
 74
0
 42
0.0000001
 43
0.0000001
 44
0.0000000001
 40
0.0
 40
0.0
 40
0.0
 40
0.0
 40
0.2278650121
 40
0.4657801274
 40
0.7216148632
 40
1.0
 40
1.0
 40
1.0
 40
1.0
 10
-4.8703078029
 20
21.4623535303
 30
0.0
 10
-4.8548717678
 20
21.4694821688
 30
0.0
 10
-4.8211220848
 20
21.4796954726
 30
0.0
 10
-4.7667657513
 20
21.481262598
 30
0.0
 10
-4.7099095566
 20
21.4695747757
 30
0.0
 10
-4.6729473659
 20
21.4540020031
 30
0.0
 10
-4.6544981143
 20
21.4444567288
 30
0.0
  0
SPLINE
  5
4A2
100
AcDbEntity
  8
RACCORDO
100
AcDbSpline
 62
7
  6
CONTINUOUS
 70
0
 71
3
 72
12
 73
8
 74
0
 42
0.0000001
 43
0.0000001
 44
0.0000000001
 40
0.0
 40
0.0
 40
0.0
 40
0.0
 40
0.2874412418
 40
0.5468906989
 40
0.7816554901
 40
0.8922775484
 40
1.0
 40
1.0
 40
1.0
 40
1.0
 10
-4.6935620351
 20
21.4279434488
 30
0.0
 10
-4.712392794
 20
21.4369876275
 30
0.0
 10
-4.7494908552
 20
21.4517882418
 30
0.0
 10
-4.8054407262
 20
21.463382787
 30
0.0
 10
-4.8498820037
 20
21.4627197721
 30
0.0
 10
-4.8821258126
 20
21.4555978963
 30
0.0
 10
-4.8970466132
 20
21.4500045212
 30
0.0
 10
-4.9041541164
 20
21.4467221477
 30
0.0
  0
SPLINE
  5
4A3
100
AcDbEntity
  8
SMUSSO
100
AcDbSpline
 62
7
  6
CONTINUOUS
 70
0
 71
3
 72
23
 73
19
 74
0
 42
0.0000001
 43
0.0000001
 44
0.0000000001
 40
0.0
 40
0.0
 40
0.0
 40
0.0
 40
0.0597931561
 40
0.1168690001
 40
0.1718069558
 40
0.2252902154
 40
0.2780893791
 40
0.3310254008
 40
0.384907435
 40
0.440491864
 40
0.4984268474
 40
0.5592435468
 40
0.6233601543
 40
0.6910589147
 40
0.7625186587
 40
0.8378363515
 40
0.9170158367
 40
1.0
 40
1.0
 40
1.0
 40
1.0
 10
8.6760463893
 20
21.7847033052
 30
0.0
 10
8.65189633
 20
21.8192090413
 30
0.0
 10
8.6081210261
 20
21.8891616698
 30
0.0
 10
8.5562761841
 20
21.9988362501
 30
0.0
 10
8.5201756768
 20
22.1100388957
 30
0.0
 10
8.5000778332
 20
22.2221858121
 30
0.0
 10
8.4962278641
 20
22.3346600862
 30
0.0
 10
8.5085890569
 20
22.4467950039
 30
0.0
 10
8.5370664843
 20
22.5579640117
 30
0.0
 10
8.5815187514
 20
22.6675361073
 30
0.0
 10
8.6415721388
 20
22.7749796781
 30
0.0
 10
8.7168790061
 20
22.8797906604
 30
0.0
 10
8.8070776395
 20
22.9814420126
 30
0.0
 10
8.9116438194
 20
23.0795169288
 30
0.0
 10
9.0300649712
 20
23.1735695161
 30
0.0
 10
9.1617989532
 20
23.2631250924
 30
0.0
 10
9.3061851373
 20
23.3478044146
 30
0.0
 10
9.408100086
 20
23.3995534542
 30
0.0
 10
9.460919734
 20
23.4245895511
 30
0.0
  0
SPLINE
  5
4A4
100
AcDbEntity
  8
SMUSSO
100
AcDbSpline
 62
7
  6
CONTINUOUS
 70
0
 71
3
 72
15
 73
11
 74
0
 42
0.0000001
 43
0.0000001
 44
0.0000000001
 40
0.0
 40
0.0
 40
0.0
 40
0.0
 40
0.1012781064
 40
0.2054064119
 40
0.3150898847
 40
0.4324491135
 40
0.5589874377
 40
0.6955699908
 40
0.8425894545
 40
1.0
 40
1.0
 40
1.0
 40
1.0
 10
8.9983358801
 20
21.5497773164
 30
0.0
 10
8.9983424656
 20
21.5938323149
 30
0.0
 10
9.0074396873
 20
21.6834281186
 30
0.0
 10
9.0480257711
 20
21.8151673378
 30
0.0
 10
9.1148952439
 20
21.943563555
 30
0.0
 10
9.2070721581
 20
22.0673887593
 30
0.0
 10
9.3235727883
 20
22.1855763952
 30
0.0
 10
9.4631832467
 20
22.2972257533
 30
0.0
 10
9.6246636169
 20
22.4013008868
 30
0.0
 10
9.7420210324
 20
22.4630276279
 30
0.0
 10
9.803785752
 20
22.4925833981
 30
0.0
  0
SPLINE
  5
4A5
100
AcDbEntity
  8
RACCORDO
100
AcDbSpline
 62
250
  6
CONTINUOUS
 70
0
 71
3
 72
13
 73
9
 74
0
 42
0.0000001
 43
0.0000001
 44
0.0000000001
 40
0.0
 40
0.0
 40
0.0
 40
0.0
 40
0.2776481467
 40
0.5331430789
 40
0.6540879816
 40
0.7714793583
 40
0.8863824325
 40
1.0
 40
1.0
 40
1.0
 40
1.0
 10
-2.0927832635
 20
25.7431077893
 30
0.0
 10
-2.1303691936
 20
25.7621685504
 30
0.0
 10
-2.2056525871
 20
25.7931400879
 30
0.0
 10
-2.3038980872
 20
25.8123802266
 30
0.0
 10
-2.3790098044
 20
25.8136465555
 30
0.0
 10
-2.4324687446
 20
25.8079125531
 30
0.0
 10
-2.4836437962
 20
25.7955331547
 30
0.0
 10
-2.5160700849
 20
25.7828666349
 30
0.0
 10
-2.531668026
 20
25.7755107499
 30
0.0
  0
SPLINE
  5
4A6
100
AcDbEntity
  8
RACCORDO
100
AcDbSpline
 62
250
  6
CONTINUOUS
 70
0
 71
3
 72
13
 73
9
 74
0
 42
0.0000001
 43
0.0000001
 44
0.0000000001
 40
0.0
 40
0.0
 40
0.0
 40
0.0
 40
0.2779538981
 40
0.5335100317
 40
0.6544091169
 40
0.7717159427
 40
0.8865065416
 40
1.0
 40
1.0
 40
1.0
 40
1.0
 10
-2.0927832635
 20
25.7431077893
 30
0.0
 10
-2.0551286989
 20
25.7611300922
 30
0.0
 10
-1.9799142906
 20
25.7901019899
 30
0.0
 10
-1.8822557229
 20
25.8069783748
 30
0.0
 10
-1.8079349931
 20
25.8065736364
 30
0.0
 10
-1.7552149041
 20
25.7997208454
 30
0.0
 10
-1.7049141612
 20
25.7863434436
 30
0.0
 10
-1.6731561588
 20
25.7730940995
 30
0.0
 10
-1.6579103975
 20
25.7654710898
 30
0.0
  0
SPLINE
  5
4A7
100
AcDbEntity
  8
RACCORDO
100
AcDbSpline
 62
250
  6
CONTINUOUS
 70
0
 71
3
 72
13
 73
9
 74
0
 42
0.0000001
 43
0.0000001
 44
0.0000000001
 40
0.0
 40
0.0
 40
0.0
 40
0.0
 40
0.2779538961
 40
0.533510032
 40
0.6544091175
 40
0.7717159429
 40
0.8865065418
 40
1.0
 40
1.0
 40
1.0
 40
1.0
 10
3.8118362681
 20
22.7907980235
 30
0.0
 10
3.8494908323
 20
22.8088203263
 30
0.0
 10
3.9247052408
 20
22.8377922235
 30
0.0
 10
4.0223638083
 20
22.8546686085
 30
0.0
 10
4.0966845384
 20
22.8542638698
 30
0.0
 10
4.1494046272
 20
22.8474110786
 30
0.0
 10
4.1997053696
 20
22.834033676
 30
0.0
 10
4.2314633725
 20
22.8207843331
 30
0.0
 10
4.2467091333
 20
22.8131613224
 30
0.0
  0
SPLINE
  5
4A8
100
AcDbEntity
  8
RACCORDO
100
AcDbSpline
 62
250
  6
CONTINUOUS
 70
0
 71
3
 72
19
 73
15
 74
0
 42
0.0000001
 43
0.0000001
 44
0.0000000001
 40
0.0
 40
0.0
 40
0.0
 40
0.0
 40
0.0549150227
 40
0.1127289345
 40
0.1731396955
 40
0.2357893073
 40
0.3661280502
 40
0.5002423444
 40
0.6343245552
 40
0.7645682004
 40
0.8271478434
 40
0.8874747528
 40
0.9451922239
 40
1.0
 40
1.0
 40
1.0
 40
1.0
 10
5.9144839956
 20
22.7593441944
 30
0.0
 10
5.8785731619
 20
22.7427593407
 30
0.0
 10
5.8035166153
 20
22.711561632
 30
0.0
 10
5.6853179401
 20
22.6715344547
 30
0.0
 10
5.5595131811
 20
22.6373607397
 30
0.0
 10
5.3808670179
 20
22.5995479731
 30
0.0
 10
5.1467536929
 20
22.5693153552
 30
0.0
 10
4.8594181157
 20
22.560114751
 30
0.0
 10
4.5725536158
 20
22.5778878907
 30
0.0
 10
4.3395903785
 20
22.6151009295
 30
0.0
 10
4.16233975
 20
22.6582421094
 30
0.0
 10
4.0378011498
 20
22.6961624074
 30
0.0
 10
3.9210734028
 20
22.7397077544
 30
0.0
 10
3.847146764
 20
22.773142746
 30
0.0
 10
3.8118362681
 20
22.7907980235
 30
0.0
  0
SPLINE
  5
4A9
100
AcDbEntity
  8
RACCORDO
100
AcDbSpline
 62
250
  6
CONTINUOUS
 70
0
 71
3
 72
13
 73
9
 74
0
 42
0.0000001
 43
0.0000001
 44
0.0000000001
 40
0.0
 40
0.0
 40
0.0
 40
0.0
 40
0.2781129522
 40
0.5337009401
 40
0.6545763687
 40
0.7718393858
 40
0.88657195
 40
1.0
 40
1.0
 40
1.0
 40
1.0
 10
5.9144839956
 20
22.7593441944
 30
0.0
 10
5.8775857271
 20
22.77843462
 30
0.0
 10
5.8036869653
 20
22.809581774
 30
0.0
 10
5.7071046203
 20
22.8294122592
 30
0.0
 10
5.6332129898
 20
22.8313277997
 30
0.0
 10
5.5806076672
 20
22.8261583863
 30
0.0
 10
5.5302111349
 20
22.8144260753
 30
0.0
 10
5.4982470905
 20
22.8022421174
 30
0.0
 10
5.4828645725
 20
22.7951378963
 30
0.0
  0
SPLINE
  5
4AA
100
AcDbEntity
  8
RACCORDO
100
AcDbSpline
 62
250
  6
CONTINUOUS
 70
0
 71
3
 72
13
 73
9
 74
0
 42
0.0000001
 43
0.0000001
 44
0.0000000001
 40
0.0
 40
0.0
 40
0.0
 40
0.0
 40
0.1083039669
 40
0.220138898
 40
0.3364211555
 40
0.4578338924
 40
0.7173257457
 40
1.0
 40
1.0
 40
1.0
 40
1.0
 10
11.8646576206
 20
-14.4900588917
 30
0.0
 10
11.892825078
 20
-14.4645515359
 30
0.0
 10
11.9464708733
 20
-14.4085868929
 30
0.0
 10
12.0163817177
 20
-14.3131042012
 30
0.0
 10
12.0763125029
 20
-14.2057707963
 30
0.0
 10
12.1437695096
 20
-14.0445516992
 30
0.0
 10
12.1991799469
 20
-13.8168482219
 30
0.0
 10
12.2119998294
 20
-13.6261893822
 30
0.0
 10
12.2117118886
 20
-13.5270084245
 30
0.0
  0
SPLINE
  5
4AB
100
AcDbEntity
  8
RACCORDO
100
AcDbSpline
 62
250
  6
CONTINUOUS
 70
0
 71
3
 72
15
 73
11
 74
0
 42
0.0000001
 43
0.0000001
 44
0.0000000001
 40
0.0
 40
0.0
 40
0.0
 40
0.0
 40
0.155372316
 40
0.3009898641
 40
0.436832345
 40
0.5632657385
 40
0.6811337068
 40
0.7918232411
 40
0.897292175
 40
1.0
 40
1.0
 40
1.0
 40
1.0
 10
12.2117118886
 20
-13.5270084245
 30
0.0
 10
12.2332700641
 20
-13.5158463524
 30
0.0
 10
12.2742398753
 20
-13.4926279524
 30
0.0
 10
12.3305026092
 20
-13.4538158311
 30
0.0
 10
12.3791425365
 20
-13.4124406996
 30
0.0
 10
12.4197078286
 20
-13.3688423805
 30
0.0
 10
12.4518037074
 20
-13.3233707554
 30
0.0
 10
12.4750730442
 20
-13.2763876302
 30
0.0
 10
12.4891980836
 20
-13.2283368891
 30
0.0
 10
12.4923719912
 20
-13.1957280546
 30
0.0
 10
12.4923719821
 20
-13.1796802602
 30
0.0
  0
SPLINE
  5
4AC
100
AcDbEntity
  8
RACCORDO
100
AcDbSpline
 62
250
  6
CONTINUOUS
 70
0
 71
3
 72
16
 73
12
 74
0
 42
0.0000001
 43
0.0000001
 44
0.0000000001
 40
0.0
 40
0.0
 40
0.0
 40
0.0
 40
0.1198029663
 40
0.2468789637
 40
0.3785534241
 40
0.511765175
 40
0.6433303371
 40
0.7701978116
 40
0.8310548122
 40
0.8897932357
 40
1.0
 40
1.0
 40
1.0
 40
1.0
 10
12.2117118886
 20
-6.5366485031
 30
0.0
 10
12.2117118891
 20
-6.4494676237
 30
0.0
 10
12.2261182296
 20
-6.2696416644
 30
0.0
 10
12.2847005001
 20
-5.9997709169
 30
0.0
 10
12.3788402154
 20
-5.7298001259
 30
0.0
 10
12.5050878948
 20
-5.4696714605
 30
0.0
 10
12.6588008736
 20
-5.2289099473
 30
0.0
 10
12.8071906545
 20
-5.0492130581
 30
0.0
 10
12.9350548178
 20
-4.9232267227
 30
0.0
 10
13.0624010684
 20
-4.8147282656
 30
0.0
 10
13.1650897545
 20
-4.7457181062
 30
0.0
 10
13.2356702078
 20
-4.7076383074
 30
0.0
  0
SPLINE
  5
4AD
100
AcDbEntity
  8
RACCORDO
100
AcDbSpline
 62
250
  6
CONTINUOUS
 70
0
 71
3
 72
15
 73
11
 74
0
 42
0.0000001
 43
0.0000001
 44
0.0000000001
 40
0.0
 40
0.0
 40
0.0
 40
0.0
 40
0.1553723787
 40
0.3009899585
 40
0.4368324412
 40
0.5632658118
 40
0.6811337421
 40
0.7918232381
 40
0.8972921531
 40
1.0
 40
1.0
 40
1.0
 40
1.0
 10
12.2117118886
 20
-6.5366485031
 30
0.0
 10
12.2332701196
 20
-6.5254864022
 30
0.0
 10
12.2742400307
 20
-6.5022679405
 30
0.0
 10
12.3305028857
 20
-6.4634557059
 30
0.0
 10
12.3791428915
 20
-6.4220804489
 30
0.0
 10
12.4197082165
 20
-6.3784819948
 30
0.0
 10
12.4518040795
 20
-6.3330102276
 30
0.0
 10
12.475073349
 20
-6.2860269565
 30
0.0
 10
12.4891982675
 20
-6.23797607
 30
0.0
 10
12.4923720567
 20
-6.2053671505
 30
0.0
 10
12.4923719821
 20
-6.1893193178
 30
0.0
  0
SPLINE
  5
4AE
100
AcDbEntity
  8
RACCORDO
100
AcDbSpline
 62
250
  6
CONTINUOUS
 70
0
 71
3
 72
14
 73
10
 74
0
 42
0.0000001
 43
0.0000001
 44
0.0000000001
 40
0.0
 40
0.0
 40
0.0
 40
0.0
 40
0.2880120715
 40
0.4212469219
 40
0.5473774599
 40
0.6670412371
 40
0.7813098096
 40
0.8916799801
 40
1.0
 40
1.0
 40
1.0
 40
1.0
 10
13.2356702078
 20
-4.7076383074
 30
0.0
 10
13.2365034113
 20
-4.7667258374
 30
0.0
 10
13.230376767
 20
-4.8537117052
 30
0.0
 10
13.2038623907
 20
-4.9630592523
 30
0.0
 10
13.1763719288
 20
-5.0360460302
 30
0.0
 10
13.1410441504
 20
-5.1012146492
 30
0.0
 10
13.0982200586
 20
-5.1577737878
 30
0.0
 10
13.0483862625
 20
-5.2049596652
 30
0.0
 10
13.0107137601
 20
-5.229837051
 30
0.0
 10
12.9911541701
 20
-5.2403898861
 30
0.0
  0
SPLINE
  5
4AF
100
AcDbEntity
  8
RACCORDO
100
AcDbSpline
 62
250
  6
CONTINUOUS
 70
0
 71
3
 72
13
 73
9
 74
0
 42
0.0000001
 43
0.0000001
 44
0.0000000001
 40
0.0
 40
0.0
 40
0.0
 40
0.0
 40
0.2779538961
 40
0.533510032
 40
0.6544091175
 40
0.7717159429
 40
0.8865065418
 40
1.0
 40
1.0
 40
1.0
 40
1.0
 10
18.1383775898
 20
22.547429878
 30
0.0
 10
18.176032154
 20
22.5654521808
 30
0.0
 10
18.2512465625
 20
22.594424078
 30
0.0
 10
18.34890513
 20
22.611300463
 30
0.0
 10
18.4232258601
 20
22.6108957243
 30
0.0
 10
18.4759459489
 20
22.604042933
 30
0.0
 10
18.5262466913
 20
22.5906655305
 30
0.0
 10
18.5580046942
 20
22.5774161876
 30
0.0
 10
18.573250455
 20
22.5697931769
 30
0.0
  0
SPLINE
  5
4B0
100
AcDbEntity
  8
RACCORDO
100
AcDbSpline
 62
250
  6
CONTINUOUS
 70
0
 71
3
 72
11
 73
7
 74
0
 42
0.0000001
 43
0.0000001
 44
0.0000000001
 40
0.0
 40
0.0
 40
0.0
 40
0.0
 40
0.2691312001
 40
0.5287222304
 40
0.7735798097
 40
1.0
 40
1.0
 40
1.0
 40
1.0
 10
18.6383014374
 20
22.0438536187
 30
0.0
 10
18.6062663278
 20
22.0998319473
 30
0.0
 10
18.5365570779
 20
22.2061030161
 30
0.0
 10
18.4154777262
 20
22.3472104801
 30
0.0
 10
18.2834229859
 20
22.4631945037
 30
0.0
 10
18.1870461197
 20
22.5234373948
 30
0.0
 10
18.1383775898
 20
22.547429878
 30
0.0
  0
SPLINE
  5
4B1
100
AcDbEntity
  8
RACCORDO
100
AcDbSpline
 62
250
  6
CONTINUOUS
 70
0
 71
3
 72
22
 73
18
 74
0
 42
0.0000001
 43
0.0000001
 44
0.0000000001
 40
0.0
 40
0.0
 40
0.0
 40
0.0
 40
0.2167515326
 40
0.4106483751
 40
0.5793694025
 40
0.6536580508
 40
0.7209437503
 40
0.7810472027
 40
0.8338225626
 40
0.8791674128
 40
0.9170389542
 40
0.9474884169
 40
0.9707530251
 40
0.9798955193
 40
0.9875835343
 40
0.9941216066
 40
1.0
 40
1.0
 40
1.0
 40
1.0
 10
18.6383014374
 20
22.0438536187
 30
0.0
 10
18.6630422901
 20
22.0561545579
 30
0.0
 10
18.7100758786
 20
22.0791396516
 30
0.0
 10
18.7769903815
 20
22.1104043526
 30
0.0
 10
18.8279628009
 20
22.1328648296
 30
0.0
 10
18.8645288002
 20
22.14795207
 30
0.0
 10
18.8884737054
 20
22.1573152064
 30
0.0
 10
18.910049912
 20
22.1651905764
 30
0.0
 10
18.9291921633
 20
22.1715575247
 30
0.0
 10
18.9458415995
 20
22.1764010409
 30
0.0
 10
18.9599581929
 20
22.1797216491
 30
0.0
 10
18.9715022624
 20
22.1815150059
 30
0.0
 10
18.9795579427
 20
22.1818033325
 30
0.0
 10
18.9846316154
 20
22.1810691639
 30
0.0
 10
18.9874881692
 20
22.180161071
 30
0.0
 10
18.989713455
 20
22.1788289593
 30
0.0
 10
18.9907687881
 20
22.1776002134
 30
0.0
 10
18.9911446733
 20
22.1769519687
 30
0.0
  0
SPLINE
  5
4B2
100
AcDbEntity
  8
RACCORDO
100
AcDbSpline
 62
250
  6
CONTINUOUS
 70
0
 71
3
 72
22
 73
18
 74
0
 42
0.0000001
 43
0.0000001
 44
0.0000000001
 40
0.0
 40
0.0
 40
0.0
 40
0.0
 40
0.2167514599
 40
0.4106482592
 40
0.5793692497
 40
0.6536578962
 40
0.7209435916
 40
0.7810470461
 40
0.8338224243
 40
0.8791672883
 40
0.9170388475
 40
0.9474883471
 40
0.9707529841
 40
0.979895496
 40
0.9875835175
 40
0.9941216037
 40
1.0
 40
1.0
 40
1.0
 40
1.0
 10
18.745203277
 20
21.859475219
 30
0.0
 10
18.7699441196
 20
21.8717761532
 30
0.0
 10
18.8169776913
 20
21.8947612385
 30
0.0
 10
18.8838921709
 20
21.9260259303
 30
0.0
 10
18.9348645767
 20
21.9484864018
 30
0.0
 10
18.9714305672
 20
21.9635736413
 30
0.0
 10
18.9953754696
 20
21.9729367782
 30
0.0
 10
19.0169516761
 20
21.9808121496
 30
0.0
 10
19.0360939289
 20
21.9871791023
 30
0.0
 10
19.0527433692
 20
21.9920226232
 30
0.0
 10
19.0668599692
 20
21.9953432347
 30
0.0
 10
19.0784040475
 20
21.9971366031
 30
0.0
 10
19.0864597364
 20
21.9974249322
 30
0.0
 10
19.0915334178
 20
21.9966907759
 30
0.0
 10
19.0943899757
 20
21.9957826815
 30
0.0
 10
19.0966152702
 20
21.9944505812
 30
0.0
 10
19.0976706127
 20
21.9932218396
 30
0.0
 10
19.0980464998
 20
21.9925735957
 30
0.0
  0
SPLINE
  5
4B3
100
AcDbEntity
  8
RACCORDO
100
AcDbSpline
 62
250
  6
CONTINUOUS
 70
0
 71
3
 72
11
 73
7
 74
0
 42
0.0000001
 43
0.0000001
 44
0.0000000001
 40
0.0
 40
0.0
 40
0.0
 40
0.0
 40
0.2342472426
 40
0.482518626
 40
0.7397297627
 40
1.0
 40
1.0
 40
1.0
 40
1.0
 10
19.1593537527
 20
20.4278416444
 30
0.0
 10
19.1596941535
 20
20.5454451522
 30
0.0
 10
19.1402375979
 20
20.7880018077
 30
0.0
 10
19.0592044974
 20
21.1514696539
 30
0.0
 10
18.9284474846
 20
21.5140086999
 30
0.0
 10
18.8110635904
 20
21.7466179145
 30
0.0
 10
18.745203277
 20
21.859475219
 30
0.0
  0
SPLINE
  5
4B4
100
AcDbEntity
  8
RACCORDO
100
AcDbSpline
 62
250
  6
CONTINUOUS
 70
0
 71
3
 72
15
 73
11
 74
0
 42
0.0000001
 43
0.0000001
 44
0.0000000001
 40
0.0
 40
0.0
 40
0.0
 40
0.0
 40
0.1553722859
 40
0.3009898189
 40
0.436832299
 40
0.5632657034
 40
0.68113369
 40
0.7918232425
 40
0.8972921855
 40
1.0
 40
1.0
 40
1.0
 40
1.0
 10
19.1593537527
 20
20.4278416444
 30
0.0
 10
19.1809119016
 20
20.4390037027
 30
0.0
 10
19.2218816651
 20
20.4622220731
 30
0.0
 10
19.278144341
 20
20.5010341401
 30
0.0
 10
19.3267842306
 20
20.5424092116
 30
0.0
 10
19.367349507
 20
20.586007466
 30
0.0
 10
19.3994453934
 20
20.6314790231
 30
0.0
 10
19.4227147623
 20
20.6784620784
 30
0.0
 10
19.4368398596
 20
20.7265127499
 30
0.0
 10
19.4400138239
 20
20.7591215437
 30
0.0
 10
19.4400138462
 20
20.7751693198
 30
0.0
  0
SPLINE
  5
4B5
100
AcDbEntity
  8
DRAFT
100
AcDbSpline
 62
7
  6
CONTINUOUS
 70
0
 71
3
 72
20
 73
16
 74
0
 42
0.0000001
 43
0.0000001
 44
0.0000000001
 40
0.0
 40
0.0
 40
0.0
 40
0.0
 40
0.1274445324
 40
0.240862489
 40
0.33886419
 40
0.4221341282
 40
0.4928848169
 40
0.5539012698
 40
0.6078319432
 40
0.6568636514
 40
0.7026595709
 40
0.7464219465
 40
0.8307890446
 40
0.914510343
 40
1.0
 40
1.0
 40
1.0
 40
1.0
 10
19.1593537527
 20
2.794782533
 30
0.0
 10
19.1719517535
 20
2.804352001
 30
0.0
 10
19.1963420422
 20
2.8217027914
 30
0.0
 10
19.2326492748
 20
2.8430746178
 30
0.0
 10
19.2661053829
 20
2.8580942621
 30
0.0
 10
19.2962134333
 20
2.8669947314
 30
0.0
 10
19.3228018027
 20
2.8704853945
 30
0.0
 10
19.3459554178
 20
2.8694789457
 30
0.0
 10
19.3659026083
 20
2.8648773196
 30
0.0
 10
19.382925674
 20
2.857464482
 30
0.0
 10
19.397307093
 20
2.847864951
 30
0.0
 10
19.4130954508
 20
2.8330184118
 30
0.0
 10
19.4278671129
 20
2.810783526
 30
0.0
 10
19.4379511509
 20
2.7806637535
 30
0.0
 10
19.4400152221
 20
2.7595760664
 30
0.0
 10
19.4400144132
 20
2.748963774
 30
0.0
  0
SPLINE
  5
4B6
100
AcDbEntity
  8
RACCORDO
100
AcDbSpline
 62
250
  6
CONTINUOUS
 70
0
 71
3
 72
15
 73
11
 74
0
 42
0.0000001
 43
0.0000001
 44
0.0000000001
 40
0.0
 40
0.0
 40
0.0
 40
0.0
 40
0.1553723787
 40
0.3009899585
 40
0.4368324412
 40
0.5632658118
 40
0.6811337421
 40
0.7918232381
 40
0.8972921531
 40
1.0
 40
1.0
 40
1.0
 40
1.0
 10
19.1593537527
 20
-1.5116751356
 30
0.0
 10
19.1809119837
 20
-1.5005130348
 30
0.0
 10
19.2218818948
 20
-1.477294573
 30
0.0
 10
19.2781447498
 20
-1.4384823384
 30
0.0
 10
19.3267847556
 20
-1.3971070814
 30
0.0
 10
19.3673500806
 20
-1.3535086273
 30
0.0
 10
19.3994459436
 20
-1.3080368602
 30
0.0
 10
19.4227152131
 20
-1.261053589
 30
0.0
 10
19.4368401316
 20
-1.2130027025
 30
0.0
 10
19.4400139208
 20
-1.1803937831
 30
0.0
 10
19.4400138462
 20
-1.1643459504
 30
0.0
  0
SPLINE
  5
4B7
100
AcDbEntity
  8
DRAFT
100
AcDbSpline
 62
7
  6
CONTINUOUS
 70
0
 71
3
 72
20
 73
16
 74
0
 42
0.0000001
 43
0.0000001
 44
0.0000000001
 40
0.0
 40
0.0
 40
0.0
 40
0.0
 40
0.1274445324
 40
0.240862489
 40
0.33886419
 40
0.4221341282
 40
0.4928848169
 40
0.5539012698
 40
0.6078319432
 40
0.6568636514
 40
0.7026595709
 40
0.7464219465
 40
0.8307890446
 40
0.914510343
 40
1.0
 40
1.0
 40
1.0
 40
1.0
 10
19.1593537527
 20
14.7459331052
 30
0.0
 10
19.1719517535
 20
14.7555025733
 30
0.0
 10
19.1963420422
 20
14.7728533636
 30
0.0
 10
19.2326492748
 20
14.79422519
 30
0.0
 10
19.2661053829
 20
14.8092448343
 30
0.0
 10
19.2962134333
 20
14.8181453036
 30
0.0
 10
19.3228018027
 20
14.8216359667
 30
0.0
 10
19.3459554178
 20
14.8206295179
 30
0.0
 10
19.3659026083
 20
14.8160278918
 30
0.0
 10
19.382925674
 20
14.8086150543
 30
0.0
 10
19.397307093
 20
14.7990155233
 30
0.0
 10
19.4130954508
 20
14.784168984
 30
0.0
 10
19.4278671129
 20
14.7619340982
 30
0.0
 10
19.4379511509
 20
14.7318143257
 30
0.0
 10
19.4400152221
 20
14.7107266386
 30
0.0
 10
19.4400144132
 20
14.7001143462
 30
0.0
  0
SPLINE
  5
4B8
100
AcDbEntity
  8
RACCORDO
100
AcDbSpline
 62
250
  6
CONTINUOUS
 70
0
 71
3
 72
14
 73
10
 74
0
 42
0.0000001
 43
0.0000001
 44
0.0000000001
 40
0.0
 40
0.0
 40
0.0
 40
0.0
 40
0.2797511429
 40
0.4111490571
 40
0.5371433413
 40
0.6582278715
 40
0.7751026911
 40
0.8886681236
 40
1.0
 40
1.0
 40
1.0
 40
1.0
 10
21.040740734
 20
16.3490507624
 30
0.0
 10
21.0239896951
 20
16.2228357086
 30
0.0
 10
20.9854712859
 20
16.0384886405
 30
0.0
 10
20.9024751961
 20
15.8082212589
 30
0.0
 10
20.8280606606
 20
15.6525098336
 30
0.0
 10
20.7406826459
 20
15.5113780345
 30
0.0
 10
20.6408840943
 20
15.3858221246
 30
0.0
 10
20.5293587437
 20
15.2768067339
 30
0.0
 10
20.4471072286
 20
15.215277714
 30
0.0
 10
20.4045610573
 20
15.1877592474
 30
0.0
  0
SPLINE
  5
4B9
100
AcDbEntity
  8
RACCORDO
100
AcDbSpline
 62
7
  6
CONTINUOUS
 70
0
 71
3
 72
12
 73
8
 74
0
 42
0.0000001
 43
0.0000001
 44
0.0000000001
 40
0.0
 40
0.0
 40
0.0
 40
0.0
 40
0.3055447723
 40
0.5694943437
 40
0.7964716684
 40
0.9001078562
 40
1.0
 40
1.0
 40
1.0
 40
1.0
 10
21.040740734
 20
17.1187440821
 30
0.0
 10
21.0512420419
 20
17.1249081254
 30
0.0
 10
21.0701177689
 20
17.1377132575
 30
0.0
 10
21.092881563
 20
17.1601323259
 30
0.0
 10
21.1053098804
 20
17.1807641972
 30
0.0
 10
21.1101294577
 20
17.1973166674
 30
0.0
 10
21.1109273374
 20
17.2054470875
 30
0.0
 10
21.1109273432
 20
17.2094280434
 30
0.0
  0
SPLINE
  5
4BA
100
AcDbEntity
  8
RACCORDO
100
AcDbSpline
 62
7
  6
CONTINUOUS
 70
0
 71
3
 72
11
 73
7
 74
0
 42
0.0000001
 43
0.0000001
 44
0.0000000001
 40
0.0
 40
0.0
 40
0.0
 40
0.0
 40
0.2854788482
 40
0.5436605246
 40
0.7790387135
 40
1.0
 40
1.0
 40
1.0
 40
1.0
 10
21.040740734
 20
16.3490507624
 30
0.0
 10
21.0503051152
 20
16.3548350608
 30
0.0
 10
21.0677819212
 20
16.3671804677
 30
0.0
 10
21.0892197612
 20
16.3891662749
 30
0.0
 10
21.1039527756
 20
16.4132649124
 30
0.0
 10
21.1089755001
 20
16.4307003712
 30
0.0
 10
21.1101288396
 20
16.4392745248
 30
0.0
  0
SPLINE
  5
4BB
100
AcDbEntity
  8
RACCORDO
100
AcDbSpline
 62
250
  6
CONTINUOUS
 70
0
 71
3
 72
14
 73
10
 74
0
 42
0.0000001
 43
0.0000001
 44
0.0000000001
 40
0.0
 40
0.0
 40
0.0
 40
0.0
 40
0.2797511429
 40
0.4111490571
 40
0.5371433413
 40
0.6582278715
 40
0.7751026911
 40
0.8886681236
 40
1.0
 40
1.0
 40
1.0
 40
1.0
 10
21.040740734
 20
4.3979001902
 30
0.0
 10
21.0239896951
 20
4.2716851364
 30
0.0
 10
20.9854712859
 20
4.0873380683
 30
0.0
 10
20.9024751961
 20
3.8570706867
 30
0.0
 10
20.8280606606
 20
3.7013592614
 30
0.0
 10
20.7406826459
 20
3.5602274623
 30
0.0
 10
20.6408840944
 20
3.4346715524
 30
0.0
 10
20.5293587437
 20
3.3256561617
 30
0.0
 10
20.4471072287
 20
3.2641271418
 30
0.0
 10
20.4045610573
 20
3.2366086752
 30
0.0
  0
SPLINE
  5
4BC
100
AcDbEntity
  8
RACCORDO
100
AcDbSpline
 62
7
  6
CONTINUOUS
 70
0
 71
3
 72
12
 73
8
 74
0
 42
0.0000001
 43
0.0000001
 44
0.0000000001
 40
0.0
 40
0.0
 40
0.0
 40
0.0
 40
0.3055447723
 40
0.5694943437
 40
0.7964716684
 40
0.9001078562
 40
1.0
 40
1.0
 40
1.0
 40
1.0
 10
21.040740734
 20
5.1675935099
 30
0.0
 10
21.0512420419
 20
5.1737575532
 30
0.0
 10
21.0701177689
 20
5.1865626853
 30
0.0
 10
21.092881563
 20
5.2089817537
 30
0.0
 10
21.1053098804
 20
5.229613625
 30
0.0
 10
21.1101294577
 20
5.2461660952
 30
0.0
 10
21.1109273374
 20
5.2542965153
 30
0.0
 10
21.1109273432
 20
5.2582774711
 30
0.0
  0
SPLINE
  5
4BD
100
AcDbEntity
  8
RACCORDO
100
AcDbSpline
 62
7
  6
CONTINUOUS
 70
0
 71
3
 72
11
 73
7
 74
0
 42
0.0000001
 43
0.0000001
 44
0.0000000001
 40
0.0
 40
0.0
 40
0.0
 40
0.0
 40
0.2854788482
 40
0.5436605246
 40
0.7790387135
 40
1.0
 40
1.0
 40
1.0
 40
1.0
 10
21.040740734
 20
4.3979001902
 30
0.0
 10
21.0503051152
 20
4.4036844885
 30
0.0
 10
21.0677819212
 20
4.4160298955
 30
0.0
 10
21.0892197612
 20
4.4380157026
 30
0.0
 10
21.1039527756
 20
4.4621143402
 30
0.0
 10
21.1089755001
 20
4.479549799
 30
0.0
 10
21.1101288396
 20
4.4881239526
 30
0.0
  0
SPLINE
  5
4BE
100
AcDbEntity
  8
RACCORDO
100
AcDbSpline
 62
7
  6
CONTINUOUS
 70
0
 71
3
 72
9
 73
5
 74
0
 42
0.0000001
 43
0.0000001
 44
0.0000000001
 40
0.0
 40
0.0
 40
0.0
 40
0.0
 40
0.4728650766
 40
1.0
 40
1.0
 40
1.0
 40
1.0
 10
21.040740734
 20
16.3490507624
 30
0.0
 10
21.0382423608
 20
16.3475398089
 30
0.0
 10
21.0332994316
 20
16.3437801179
 30
0.0
 10
21.0289266922
 20
16.3394050342
 30
0.0
 10
21.0267293411
 20
16.3370038789
 30
0.0
  0
SPLINE
  5
4BF
100
AcDbEntity
  8
RACCORDO
100
AcDbSpline
 62
7
  6
CONTINUOUS
 70
0
 71
3
 72
9
 73
5
 74
0
 42
0.0000001
 43
0.0000001
 44
0.0000000001
 40
0.0
 40
0.0
 40
0.0
 40
0.0
 40
0.5213266745
 40
1.0
 40
1.0
 40
1.0
 40
1.0
 10
21.040740734
 20
17.1187440821
 30
0.0
 10
21.0385511937
 20
17.1174588689
 30
0.0
 10
21.0339917344
 20
17.1155226434
 30
0.0
 10
21.0290566815
 20
17.1150965678
 30
0.0
 10
21.0267293411
 20
17.1152297374
 30
0.0
  0
SPLINE
  5
4C0
100
AcDbEntity
  8
RACCORDO
100
AcDbSpline
 62
7
  6
CONTINUOUS
 70
0
 71
3
 72
9
 73
5
 74
0
 42
0.0000001
 43
0.0000001
 44
0.0000000001
 40
0.0
 40
0.0
 40
0.0
 40
0.0
 40
0.4728650766
 40
1.0
 40
1.0
 40
1.0
 40
1.0
 10
21.040740734
 20
4.3979001902
 30
0.0
 10
21.0382423608
 20
4.3963892366
 30
0.0
 10
21.0332994316
 20
4.3926295457
 30
0.0
 10
21.0289266922
 20
4.388254462
 30
0.0
 10
21.0267293411
 20
4.3858533067
 30
0.0
  0
SPLINE
  5
4C1
100
AcDbEntity
  8
RACCORDO
100
AcDbSpline
 62
7
  6
CONTINUOUS
 70
0
 71
3
 72
9
 73
5
 74
0
 42
0.0000001
 43
0.0000001
 44
0.0000000001
 40
0.0
 40
0.0
 40
0.0
 40
0.0
 40
0.5213266745
 40
1.0
 40
1.0
 40
1.0
 40
1.0
 10
21.040740734
 20
5.1675935099
 30
0.0
 10
21.0385511937
 20
5.1663082966
 30
0.0
 10
21.0339917344
 20
5.1643720712
 30
0.0
 10
21.0290566815
 20
5.1639459955
 30
0.0
 10
21.0267293411
 20
5.1640791652
 30
0.0
  0
SPLINE
  5
4C2
100
AcDbEntity
  8
RACCORDO
100
AcDbSpline
 62
250
  6
CONTINUOUS
 70
0
 71
3
 72
13
 73
9
 74
0
 42
0.0000001
 43
0.0000001
 44
0.0000000001
 40
0.0
 40
0.0
 40
0.0
 40
0.0
 40
0.2781129522
 40
0.5337009401
 40
0.6545763687
 40
0.7718393858
 40
0.88657195
 40
1.0
 40
1.0
 40
1.0
 40
1.0
 10
12.0486378756
 20
25.5922997351
 30
0.0
 10
12.0117396072
 20
25.6113901606
 30
0.0
 10
11.9378408454
 20
25.6425373147
 30
0.0
 10
11.8412585004
 20
25.6623677998
 30
0.0
 10
11.7673668699
 20
25.6642833404
 30
0.0
 10
11.7147615473
 20
25.659113927
 30
0.0
 10
11.664365015
 20
25.647381616
 30
0.0
 10
11.6324009706
 20
25.6351976581
 30
0.0
 10
11.6170184526
 20
25.628093437
 30
0.0
  0
SPLINE
  5
4C3
100
AcDbEntity
  8
RACCORDO
100
AcDbSpline
 62
250
  6
CONTINUOUS
 70
0
 71
3
 72
15
 73
11
 74
0
 42
0.0000001
 43
0.0000001
 44
0.0000000001
 40
0.0
 40
0.0
 40
0.0
 40
0.0
 40
0.1165740752
 40
0.2387683847
 40
0.3651600567
 40
0.494105856
 40
0.6238363603
 40
0.7525444569
 40
0.8784723305
 40
1.0
 40
1.0
 40
1.0
 40
1.0
 10
19.4400367728
 20
8.0738741928
 30
0.0
 10
19.544254243
 20
7.9928488335
 30
0.0
 10
19.7476610738
 20
7.8136628194
 30
0.0
 10
20.027388958
 20
7.5082123293
 30
0.0
 10
20.2840150579
 20
7.1654460883
 30
0.0
 10
20.51186468
 20
6.7929358308
 30
0.0
 10
20.7059552598
 20
6.3988583165
 30
0.0
 10
20.8620167215
 20
5.9918612826
 30
0.0
 10
20.9766074954
 20
5.5809503512
 30
0.0
 10
21.0247258125
 20
5.3042770174
 30
0.0
 10
21.040740734
 20
5.1675935099
 30
0.0
  0
ELLIPSE
  5
4C4
100
AcDbEntity
  8
RACCORDO
100
AcDbEllipse
 62
7
  6
CONTINUOUS
 10
-1.9342083582
 20
-5.6582496924
 30
0.0
 11
-0.0894323102
 21
0.1788913307
 31
0.0
 40
0.6125552124
 41
-2.255296188
 42
-0.6848044477
  0
ELLIPSE
  5
4C5
100
AcDbEntity
  8
RACCORDO
100
AcDbEllipse
 62
7
  6
CONTINUOUS
 10
-2.721932207
 20
-24.3190949365
 30
0.0
 11
-0.2234618187
 21
0.4480306886
 31
0.0
 40
0.6116748051
 41
-3.1815309152
 42
-2.2548620396
  0
ELLIPSE
  5
4C6
100
AcDbEntity
  8
0
100
AcDbEllipse
 62
7
  6
CONTINUOUS
 10
-1.9342083582
 20
-5.6582496924
 30
0.0
 11
-0.0894323102
 21
0.1788913307
 31
0.0
 40
0.6125552124
 41
-2.255296188
 42
-0.6848044477
  0
ELLIPSE
  5
4C7
100
AcDbEntity
  8
0
100
AcDbEllipse
 62
7
  6
CONTINUOUS
 10
-2.721932207
 20
-24.3190949365
 30
0.0
 11
-0.2234618187
 21
0.4480306886
 31
0.0
 40
0.6116748051
 41
-3.1815309152
 42
-2.2548620396
  0
ELLIPSE
  5
4C8
100
AcDbEntity
  8
CURVE
100
AcDbEllipse
 62
250
  6
CONTINUOUS
 10
336.4164008688
 20
175.0905759249
 30
0.0
 11
-106.0585040325
 21
545.5538040194
 31
0.0
 40
0.6979893553
 41
-4.497976891
 42
-4.4909745276
  0
ELLIPSE
  5
4C9
100
AcDbEntity
  8
CURVE
100
AcDbEllipse
 62
250
  6
CONTINUOUS
 10
331.3959427856
 20
177.6008049665
 30
0.0
 11
-370.8956999625
 21
600.1218488205
 31
0.0
 40
0.5587454355
 41
1.5428587203
 42
1.5438589825
  0
ELLIPSE
  5
4CA
100
AcDbEntity
  8
CURVE
100
AcDbEllipse
 62
250
  6
CONTINUOUS
 10
346.7048054191
 20
169.9463736498
 30
0.0
 11
499.3666447733
 21
308.6255299306
 31
0.0
 40
0.0815198181
 41
2.3282568624
 42
2.3292571247
  0
ELLIPSE
  5
4CB
100
AcDbEntity
  8
CURVE
100
AcDbEllipse
 62
250
  6
CONTINUOUS
 10
328.3907389603
 20
179.1034068792
 30
0.0
 11
-370.8956999625
 21
600.1218488205
 31
0.0
 40
0.5587454355
 41
1.5488606657
 42
1.5498610836
  0
ELLIPSE
  5
4CC
100
AcDbEntity
  8
CURVE
100
AcDbEllipse
 62
250
  6
CONTINUOUS
 10
349.7100073341
 20
168.4437726923
 30
0.0
 11
499.3665911324
 21
308.6255555532
 31
0.0
 40
0.0815199027
 41
2.3342588503
 42
2.3352592683
  0
ELLIPSE
  5
4CD
100
AcDbEntity
  8
0
100
AcDbEllipse
 62
7
  6
CONTINUOUS
 10
-17.6927401043
 20
20.6640205095
 30
0.0
 11
-0.2234618187
 21
0.4480306886
 31
0.0
 40
0.6116748051
 41
-0.6831523243
 42
0.0399382621
  0
ELLIPSE
  5
4CE
100
AcDbEntity
  8
0
100
AcDbEllipse
 62
7
  6
CONTINUOUS
 10
-1.9342083582
 20
-5.1385816821
 30
0.0
 11
-0.0894803643
 21
0.1789340454
 31
0.0
 40
0.6121897086
 41
-3.1606090032
 42
-2.2557347926
  0
ELLIPSE
  5
4CF
100
AcDbEntity
  8
0
100
AcDbEllipse
 62
7
  6
CONTINUOUS
 10
-2.721932207
 20
13.1786165609
 30
0.0
 11
-0.2230998035
 21
0.4477110033
 31
0.0
 40
0.6127700112
 41
-2.2535417632
 42
-0.6836588249
  0
ELLIPSE
  5
4D0
100
AcDbEntity
  8
CURVE
100
AcDbEllipse
 62
250
  6
CONTINUOUS
 10
345.8916317947
 20
170.352960462
 30
0.0
 11
-370.8956999625
 21
600.1218488205
 31
0.0
 40
0.5587454355
 41
1.4970547105
 42
1.4980549729
  0
ELLIPSE
  5
4D1
100
AcDbEntity
  8
CURVE
100
AcDbEllipse
 62
250
  6
CONTINUOUS
 10
330.5827708133
 20
178.0073909527
 30
0.0
 11
499.3665911324
 21
308.6255555532
 31
0.0
 40
0.0815199027
 41
2.2824528952
 42
2.2834531576
  0
ELLIPSE
  5
4D2
100
AcDbEntity
  8
CURVE
100
AcDbEllipse
 62
250
  6
CONTINUOUS
 10
348.89683562
 20
168.8503585493
 30
0.0
 11
-370.8956999625
 21
600.1218488205
 31
0.0
 40
0.5587454355
 41
1.4910526096
 42
1.4920530274
  0
ELLIPSE
  5
4D3
100
AcDbEntity
  8
CURVE
100
AcDbEllipse
 62
250
  6
CONTINUOUS
 10
327.5775650777
 20
179.5099938205
 30
0.0
 11
499.3666447733
 21
308.6255299306
 31
0.0
 40
0.0815198181
 41
2.2764507517
 42
2.2774511695
  0
ELLIPSE
  5
4D4
100
AcDbEntity
  8
RACCORDO
100
AcDbEllipse
 62
7
  6
CONTINUOUS
 10
-17.6927401043
 20
20.6640205095
 30
0.0
 11
-0.2234618187
 21
0.4480306886
 31
0.0
 40
0.6116748051
 41
-0.6831523243
 42
0.0399382621
  0
ELLIPSE
  5
4D5
100
AcDbEntity
  8
RACCORDO
100
AcDbEllipse
 62
7
  6
CONTINUOUS
 10
-1.9342083582
 20
-5.1385816821
 30
0.0
 11
-0.0894803643
 21
0.1789340454
 31
0.0
 40
0.6121897086
 41
-3.1606090032
 42
-2.2557347926
  0
ELLIPSE
  5
4D6
100
AcDbEntity
  8
RACCORDO
100
AcDbEllipse
 62
7
  6
CONTINUOUS
 10
-2.721932207
 20
13.1786165609
 30
0.0
 11
-0.2230998035
 21
0.4477110033
 31
0.0
 40
0.6127700112
 41
-2.2535417632
 42
-0.6836588249
  0
ELLIPSE
  5
4D7
100
AcDbEntity
  8
268140580
100
AcDbEllipse
 62
7
  6
CONTINUOUS
 10
-4.5906474263
 20
24.1832245812
 30
0.0
 11
0.2256808774
 21
0.4461742732
 31
0.0
 40
0.6158912572
 41
0.0028576383
 42
0.678850188
  0
ELLIPSE
  5
4D8
100
AcDbEntity
  8
268140580
100
AcDbEllipse
 62
7
  6
CONTINUOUS
 10
6.0129333406
 20
-18.005435241
 30
0.0
 11
0.9927147821
 21
0.620457446
 31
0.0
 40
0.0764819879
 41
-2.4101692607
 42
-0.8393729339
  0
ELLIPSE
  5
4D9
100
AcDbEntity
  8
268140580
100
AcDbEllipse
 62
7
  6
CONTINUOUS
 10
-5.4972449287
 20
24.8155411756
 30
0.0
 11
1.004787277
 21
0.6140102217
 31
0.0
 40
0.0864918533
 41
0.0540071275
 42
0.7387263463
  0
ELLIPSE
  5
4DA
100
AcDbEntity
  8
268140580
100
AcDbEllipse
 62
7
  6
CONTINUOUS
 10
1.4952379881
 20
-22.6301638377
 30
0.0
 11
-0.178948659
 21
0.3577665147
 31
0.0
 40
0.6123910759
 41
-3.1501448428
 42
-2.2556797026
  0
ELLIPSE
  5
4DB
100
AcDbEntity
  8
268140580
100
AcDbEllipse
 62
7
  6
CONTINUOUS
 10
1.4952379881
 20
15.4749539288
 30
0.0
 11
-0.178948659
 21
0.3577665147
 31
0.0
 40
0.6123910759
 41
-2.2556797026
 42
-0.6848833758
  0
ELLIPSE
  5
4DC
100
AcDbEntity
  8
268140580
100
AcDbEllipse
 62
7
  6
CONTINUOUS
 10
6.0129333406
 20
19.0604520409
 30
0.0
 11
-0.7356038977
 21
1.2035991204
 31
0.0
 40
0.5552491559
 41
4.67069225
 42
6.2414885768
  0
ELLIPSE
  5
4DD
100
AcDbEntity
  8
268140580
100
AcDbEllipse
 62
7
  6
CONTINUOUS
 10
-10.2101835185
 20
21.6897192633
 30
0.0
 11
0.2999981629
 21
-0.0021225547
 31
0.0
 40
0.4946372042
 41
2.3539345592
 42
3.9304904725
  0
ELLIPSE
  5
4DE
100
AcDbEntity
  8
268140580
100
AcDbEllipse
 62
7
  6
CONTINUOUS
 10
-1.3957078358
 20
-15.5277688124
 30
0.0
 11
-0.1341541638
 21
0.268382513
 31
0.0
 40
0.6122954976
 41
-0.6845448057
 42
0.0132925713
  0
ELLIPSE
  5
4DF
100
AcDbEntity
  8
268140580
100
AcDbEllipse
 62
7
  6
CONTINUOUS
 10
-0.3033854518
 20
-23.4300639738
 30
0.0
 11
-0.1787694549
 21
0.3584245509
 31
0.0
 40
0.6116748051
 41
2.4584403293
 42
4.0283232676
  0
ELLIPSE
  5
4E0
100
AcDbEntity
  8
268140580
100
AcDbEllipse
 62
7
  6
CONTINUOUS
 10
-3.6982718496
 20
17.5415103957
 30
0.0
 11
0.0886237691
 21
0.1792940454
 31
0.0
 40
0.6088373611
 41
0.6819330809
 42
0.7342929585
  0
ELLIPSE
  5
4E1
100
AcDbEntity
  8
268140580
100
AcDbEllipse
 62
7
  6
CONTINUOUS
 10
1.5708019322
 20
21.1024999019
 30
0.0
 11
0.2215594226
 21
0.4482351134
 31
0.0
 40
0.6088373611
 41
5.3943220613
 42
6.9563917418
  0
ELLIPSE
  5
4E2
100
AcDbEntity
  8
268140580
100
AcDbEllipse
 62
7
  6
CONTINUOUS
 10
-0.3431965581
 20
15.0928580205
 30
0.0
 11
0.249929385
 21
0.0111824824
 31
0.0
 40
0.5313301283
 41
-2.3799630874
 42
-0.8091667606
  0
ELLIPSE
  5
4E3
100
AcDbEntity
  8
268140580
100
AcDbEllipse
 62
7
  6
CONTINUOUS
 10
-1.3957078358
 20
3.5247900709
 30
0.0
 11
-0.1341541638
 21
0.268382513
 31
0.0
 40
0.6122954976
 41
-0.6845448057
 42
0.0132925713
  0
ELLIPSE
  5
4E4
100
AcDbEntity
  8
268140580
100
AcDbEllipse
 62
7
  6
CONTINUOUS
 10
-1.6866994423
 20
15.7646094626
 30
0.0
 11
0.249929385
 21
0.0111824824
 31
0.0
 40
0.5313301283
 41
3.1178240563
 42
3.9032222197
  0
ELLIPSE
  5
4E5
100
AcDbEntity
  8
268140580
100
AcDbEllipse
 62
7
  6
CONTINUOUS
 10
-13.7075147225
 20
21.7750171027
 30
0.0
 11
0.249929385
 21
0.0111824824
 31
0.0
 40
0.5313301283
 41
-2.3799630874
 42
-0.8091667606
  0
ELLIPSE
  5
4E6
100
AcDbEntity
  8
268140580
100
AcDbEllipse
 62
7
  6
CONTINUOUS
 10
-15.4443821036
 20
22.1084419248
 30
0.0
 11
-0.1787694549
 21
0.3584245509
 31
0.0
 40
0.6116748051
 41
-0.6831523243
 42
0.886730614
  0
ELLIPSE
  5
4E7
100
AcDbEntity
  8
268140580
100
AcDbEllipse
 62
7
  6
CONTINUOUS
 10
-0.3033854518
 20
14.5379435988
 30
0.0
 11
-0.1784798428
 21
0.3581688027
 31
0.0
 40
0.6127700112
 41
-2.2535417632
 42
-0.6836588249
  0
ELLIPSE
  5
4E8
100
AcDbEntity
  8
268140580
100
AcDbEllipse
 62
7
  6
CONTINUOUS
 10
-15.0510176068
 20
22.4467685448
 30
0.0
 11
0.249929385
 21
0.0111824824
 31
0.0
 40
0.5313301283
 41
3.1178240563
 42
3.9032222197
  0
ELLIPSE
  5
4E9
100
AcDbEntity
  8
268140580
100
AcDbEllipse
 62
7
  6
CONTINUOUS
 10
-4.406213187
 20
17.5382376221
 30
0.0
 11
0.2999152621
 21
0.0134189789
 31
0.0
 40
0.5313301283
 41
-2.3799630874
 42
-0.8034071741
  0
ELLIPSE
  5
4EA
100
AcDbEntity
  8
268140580
100
AcDbEllipse
 62
7
  6
CONTINUOUS
 10
-4.406213187
 20
18.7877340976
 30
0.0
 11
0.2999981629
 21
-0.0021225547
 31
0.0
 40
0.4946372042
 41
-2.3526948347
 42
-0.7761389213
  0
ELLIPSE
  5
4EB
100
AcDbEntity
  8
268140580
100
AcDbEllipse
 62
7
  6
CONTINUOUS
 10
-10.2101835185
 20
20.4402227878
 30
0.0
 11
0.2999152621
 21
0.0134189789
 31
0.0
 40
0.5313301283
 41
3.1178240578
 42
3.9032222197
  0
ELLIPSE
  5
4EC
100
AcDbEntity
  8
268140580
100
AcDbEllipse
 62
7
  6
CONTINUOUS
 10
-1.0273229086
 20
8.250885139
 30
0.0
 11
-0.1342205464
 21
0.2684010681
 31
0.0
 40
0.6121897086
 41
-3.160608991
 42
-2.2557347926
  0
ELLIPSE
  5
4ED
100
AcDbEntity
  8
268140580
100
AcDbEllipse
 62
7
  6
CONTINUOUS
 10
-1.0273229086
 20
3.3405976073
 30
0.0
 11
-0.1341484654
 21
0.2683369961
 31
0.0
 40
0.6125552124
 41
-2.255296188
 42
-0.6848044477
  0
ELLIPSE
  5
4EE
100
AcDbEntity
  8
268140580
100
AcDbEllipse
 62
7
  6
CONTINUOUS
 10
-1.7467722846
 20
-2.040672568
 30
0.0
 11
-0.1342205464
 21
0.2684010681
 31
0.0
 40
0.6121897086
 41
-3.1606089912
 42
-2.2557347926
  0
ELLIPSE
  5
4EF
100
AcDbEntity
  8
268140580
100
AcDbEllipse
 62
7
  6
CONTINUOUS
 10
-1.7467722846
 20
-6.1151677553
 30
0.0
 11
-0.1341484654
 21
0.2683369961
 31
0.0
 40
0.6125552124
 41
-2.255296188
 42
-0.6848044477
  0
ELLIPSE
  5
4F0
100
AcDbEntity
  8
268140580
100
AcDbEllipse
 62
7
  6
CONTINUOUS
 10
-1.0273229086
 20
-10.8016737442
 30
0.0
 11
-0.1342205464
 21
0.2684010681
 31
0.0
 40
0.6121897086
 41
-3.160608991
 42
-2.2557347926
  0
ELLIPSE
  5
4F1
100
AcDbEntity
  8
268140580
100
AcDbEllipse
 62
7
  6
CONTINUOUS
 10
-1.0273229086
 20
-15.711961276
 30
0.0
 11
-0.1341484654
 21
0.2683369961
 31
0.0
 40
0.6125552124
 41
-2.255296188
 42
-0.6848044477
  0
ELLIPSE
  5
4F2
100
AcDbEntity
  8
DRAFT
100
AcDbEllipse
 62
7
  6
CONTINUOUS
 10
12.4200808423
 20
20.993390166
 30
0.0
 11
2.7499831596
 21
-0.0194567514
 31
0.0
 40
0.4946372042
 41
0.4291636923
 42
2.3596941457
  0
ELLIPSE
  5
4F3
100
AcDbEntity
  8
DRAFT
100
AcDbEllipse
 62
7
  6
CONTINUOUS
 10
11.7483294002
 20
21.0917947982
 30
0.0
 11
2.7499831596
 21
-0.0194567514
 31
0.0
 40
0.4946372042
 41
2.3596941457
 42
2.9254696648
  0
ELLIPSE
  5
4F4
100
AcDbEntity
  8
RACCORDO
100
AcDbEllipse
 62
7
  6
CONTINUOUS
 10
17.1737120545
 20
22.1515284268
 30
0.0
 11
0.7964780511
 21
0.7125399777
 31
0.0
 40
0.2888664458
 41
0.1139832129
 42
0.7812491238
  0
ELLIPSE
  5
4F5
100
AcDbEntity
  8
RACCORDO
100
AcDbEllipse
 62
7
  6
CONTINUOUS
 10
13.3940145578
 20
24.0413771752
 30
0.0
 11
-0.309899001
 21
1.1085475855
 31
0.0
 40
0.6753891016
 41
4.9647984111
 42
6.4012160802
  0
ELLIPSE
  5
4F6
100
AcDbEntity
  8
0
100
AcDbEllipse
 62
7
  6
CONTINUOUS
 10
12.4200808423
 20
21.4204907145
 30
0.0
 11
2.7499831596
 21
-0.0194567514
 31
0.0
 40
0.4946372042
 41
0.1760698615
 42
2.3596941457
  0
ELLIPSE
  5
4F7
100
AcDbEntity
  8
RACCORDO
100
AcDbEllipse
 62
7
  6
CONTINUOUS
 10
-5.8745547025
 20
20.44781191
 30
0.0
 11
1.2141619185
 21
0.9541526469
 31
0.0
 40
0.2329077568
 41
0.1095198182
 42
0.114024621
  0
ENDSEC
  0
SECTION
  2
OBJECTS
  0
DICTIONARY
  5
C
100
AcDbDictionary
280
0
281
1
  3
ACAD_GROUP
350
D
  3
ACAD_MLINESTYLE
350
17
  3
ACAD_LAYOUT
350
1A
  3
ACAD_PLOTSETTINGS
350
19
  3
ACAD_PLOTSTYLENAME
350
E
  0
DICTIONARY
  5
D
102
{ACAD_REACTORS
330
C
102
}
100
AcDbDictionary
280
0
281
1
  0
ACDBDICTIONARYWDFLT
  5
E
102
{ACAD_REACTORS
330
C
102
}
100
AcDbDictionary
281
1
  3
Normal
350
F
100
AcDbDictionaryWithDefault
340
F
  0
DICTIONARY
  5
17
102
{ACAD_REACTORS
330
C
102
}
100
AcDbDictionary
280
0
281
1
  3
Standard
350
18
  0
DICTIONARY
  5
19
102
{ACAD_REACTORS
330
C
102
}
100
AcDbDictionary
281
1
  0
DICTIONARY
  5
1A
102
{ACAD_REACTORS
330
C
102
}
100
AcDbDictionary
281
1
  3
Model
350
4F8
  3
Layout1
350
4F9
  0
ACDBPLACEHOLDER
  5
F
102
{ACAD_REACTORS
330
E
102
}
  0
MLINESTYLE
  5
18
102
{ACAD_REACTORS
330
17
102
}
100
AcDbMlineStyle
  2
STANDARD
 70
0
  3

 62
256
 51
90.0
 52
90.0
 71
2
 49
0.5
 62
256
  6
BYLAYER
 49
-0.5
 62
256
  6
BYLAYER
  0
LAYOUT
  5
4F8
102
{ACAD_REACTORS
330
1A
102
}
100
AcDbPlotSettings
  1

  2
none_device
  4
ISO_A4_(297.00_x_210.00_MM)
  6

 40
0.0
 41
0.0
 42
0.0
 43
0.0
 44
297.0
 45
210.0
 46
0.0
 47
0.0
 48
0.0
 49
0.0
140
0.0
141
0.0
142
1.0
143
1.0
 70
1024
 72
1
 73
0
 74
0
  7

 75
0
147
1.0
148
0.0
149
0.0
100
AcDbLayout
  1
Model
 70
0
 71
0
 10
0.0
 20
0.0
 11
297.0
 21
210.0
 12
0.0
 22
0.0
 32
0.0
 14
0.0
 24
0.0
 34
0.0
 15
0.0
 25
0.0
 35
0.0
146
0.0
 13
0.0
 23
0.0
 33
0.0
 16
1.0
 26
0.0
 36
0.0
 17
0.0
 27
1.0
 37
0.0
 76
0
330
221
345
0
346
0
  0
LAYOUT
  5
4F9
102
{ACAD_REACTORS
330
1A
102
}
100
AcDbPlotSettings
  1

  2
none_device
  4
ISO_A4_(297.00_x_210.00_MM)
  6

 40
0.0
 41
0.0
 42
0.0
 43
0.0
 44
297.0
 45
210.0
 46
0.0
 47
0.0
 48
0.0
 49
0.0
140
0.0
141
0.0
142
1.0
143
1.0
 70
0
 72
1
 73
0
 74
0
  7

 75
0
147
1.0
148
0.0
149
0.0
100
AcDbLayout
  1
Layout1
 70
0
 71
1
 10
0.0
 20
0.0
 11
297.0
 21
210.0
 12
0.0
 22
0.0
 32
0.0
 14
0.0
 24
0.0
 34
0.0
 15
0.0
 25
0.0
 35
0.0
146
0.0
 13
0.0
 23
0.0
 33
0.0
 16
1.0
 26
0.0
 36
0.0
 17
0.0
 27
1.0
 37
0.0
 76
0
330
222
345
0
346
0
  0
ENDSEC
  0
EOF
