  0
SECTION
  2
HEADER
  9
$ACADVER
  1
AC1024
  9
$DWGCODEPAGE
  3
ANSI_1252
  9
$EXTMAX
 10
297.0
 20
210.0
 30
0.0
  9
$EXTMIN
 10
0.0
 20
0.0
 30
0.0
  9
$LIMMIN
 10
0.0
 20
0.0
  9
$LIMMAX
 10
297.0
 20
210.0
  9
$VIEWCTR
 10
148.5
 20
105.0
  9
$VIEWSIZE
 40
210.0
  9
$CLAYER
  8
0
  9
$LTSCALE
 40
16.335
  9
$CELTYPE
  6
BYLAYER
  9
$DIMSCALE
 40
1.0
  9
$DIMASZ
 40
3.0
  9
$DIMEXO
 40
0.5
  9
$DIMDLI
 40
11.286
  9
$DIMEXE
 40
1.5
  9
$DIMCEN
 40
2.673
  9
$DIMLFAC
 40
1.0
  9
$DIMBLK
  1
_FILLED
  9
$DIMALT
 70
0
  9
$DIMALTF
 40
0.0393700787
  9
$DIMTXT
 40
3.0
  9
$DIMTOL
 70
1
  9
$DIMLIM
 70
0
  9
$DIMTFAC
 40
1.0
  9
$DIMTP
 40
0.01
  9
$DIMTM
 40
0.01
  9
$DIMGAP
 40
0.625
  9
$DIMDSEP
 70
44
  9
$AUNITS
 70
0
  9
$PDMODE
 70
3
  9
$PDSIZE
 40
3.0
  9
$HANDSEED
  5
59D
  9
$TILEMODE
 70
1
  9
$MEASUREMENT
 70
1
  9
$INSUNITS
 70
4
  0
ENDSEC
  0
SECTION
  2
CLASSES
  0
CLASS
  1
ACDBDICTIONARYWDFLT
  2
AcDbDictionaryWithDefault
  3
AutoCAD 2000
 90
0
 91
1
280
0
281
0
  0
CLASS
  1
ACDBPLACEHOLDER
  2
AcDbPlaceHolder
  3
AutoCAD 2000
 90
0
 91
1
280
0
281
0
  0
CLASS
  1
LAYOUT
  2
AcDbLayout
  3
AutoCAD 2000
 90
0
 91
0
280
0
281
0
  0
ENDSEC
  0
SECTION
  2
TABLES
  0
TABLE
  2
VPORT
  5
8
100
AcDbSymbolTable
 70
2
  0
VPORT
  5
1F4
100
AcDbSymbolTableRecord
100
AcDbViewportTableRecord
  2
*ACTIVE
 70
0
 10
0.0
 20
0.0
 11
1.0
 21
1.0
 12
148.5
 22
105.0
 13
0.0
 23
0.0
 14
1.0
 24
1.0
 15
0.0
 25
0.0
 16
0.0
 26
0.0
 36
1.0
 17
0.0
 27
0.0
 37
0.0
 40
210.0
 41
1.4142857143
 42
50.0
 43
0.0
 44
0.0
 50
0.0
 51
0.0
 71
0
 72
100
 73
1
 74
1
 75
0
 76
0
 77
0
 78
0
  0
ENDTAB
  0
TABLE
  2
LTYPE
  5
5
100
AcDbSymbolTable
 70
6
  0
LTYPE
  5
14
100
AcDbSymbolTableRecord
100
AcDbLinetypeTableRecord
  2
BYBLOCK
 70
0
  3

 72
65
 73
0
 40
0.0
  0
LTYPE
  5
15
100
AcDbSymbolTableRecord
100
AcDbLinetypeTableRecord
  2
BYLAYER
 70
0
  3

 72
65
 73
0
 40
0.0
  0
LTYPE
  5
16
100
AcDbSymbolTableRecord
100
AcDbLinetypeTableRecord
  2
CONTINUOUS
 70
64
  3
Solid line
 72
65
 73
0
 40
0.0
  0
LTYPE
  5
1F5
100
AcDbSymbolTableRecord
100
AcDbLinetypeTableRecord
  2
CENTER
 70
64
  3
____ _ ____ _ ____ _ ____ _ ____ _ ____ _ ____
 72
65
 73
4
 40
0.6
 49
0.375
 74
0
 49
-0.075
 74
0
 49
0.075
 74
0
 49
-0.075
 74
0
  0
LTYPE
  5
1F6
100
AcDbSymbolTableRecord
100
AcDbLinetypeTableRecord
  2
HIDDEN
 70
64
  3
- - - - - - - - - - - - - - - - - - - -
 72
65
 73
2
 40
0.2
 49
0.1
 74
0
 49
-0.1
 74
0
  0
LTYPE
  5
1F7
100
AcDbSymbolTableRecord
100
AcDbLinetypeTableRecord
  2
PHANTOM
 70
64
  3
_____ _ _ _____ _ _ _____ _ _ _____
 72
65
 73
6
 40
0.8
 49
0.45
 74
0
 49
-0.05
 74
0
 49
0.1
 74
0
 49
-0.05
 74
0
 49
0.1
 74
0
 49
-0.05
 74
0
  0
LTYPE
  5
1F8
100
AcDbSymbolTableRecord
100
AcDbLinetypeTableRecord
  2
DOT
 70
64
  3
. . . . . . . . . . . . . . . . . . . .
 72
65
 73
2
 40
0.2
 49
0.1
 74
0
 49
-0.1
 74
0
  0
LTYPE
  5
1F9
100
AcDbSymbolTableRecord
100
AcDbLinetypeTableRecord
  2
DASHED
 70
64
  3
- - - - - - - - - - - - - - - - - - - -
 72
65
 73
2
 40
0.2
 49
0.1
 74
0
 49
-0.1
 74
0
  0
ENDTAB
  0
TABLE
  2
LAYER
  5
2
100
AcDbSymbolTable
 70
36
  0
LAYER
  5
10
100
AcDbSymbolTableRecord
100
AcDbLayerTableRecord
  2
0
 70
0
 62
7
  6
CONTINUOUS
370
-3
390
F
  0
LAYER
  5
1FA
100
AcDbSymbolTableRecord
100
AcDbLayerTableRecord
  2
DEFAULT_1
 70
0
 62
7
  6
CENTER
370
-3
390
F
  0
LAYER
  5
1FB
100
AcDbSymbolTableRecord
100
AcDbLayerTableRecord
  2
DEFAULT_2
 70
0
 62
7
  6
HIDDEN
370
-3
390
F
  0
LAYER
  5
1FC
100
AcDbSymbolTableRecord
100
AcDbLayerTableRecord
  2
DEFAULT_3
 70
0
 62
7
  6
PHANTOM
370
-3
390
F
  0
LAYER
  5
1FD
100
AcDbSymbolTableRecord
100
AcDbLayerTableRecord
  2
ASSI
 70
0
 62
7
  6
CONTINUOUS
370
-3
390
F
  0
LAYER
  5
1FE
100
AcDbSymbolTableRecord
100
AcDbLayerTableRecord
  2
COORDINATE
 70
0
 62
7
  6
CONTINUOUS
370
-3
390
F
  0
LAYER
  5
1FF
100
AcDbSymbolTableRecord
100
AcDbLayerTableRecord
  2
COORD_ORIGINE
 70
0
 62
7
  6
CONTINUOUS
370
-3
390
F
  0
LAYER
  5
200
100
AcDbSymbolTableRecord
100
AcDbLayerTableRecord
  2
COSMETICHE
 70
0
 62
7
  6
CONTINUOUS
370
-3
390
F
  0
LAYER
  5
201
100
AcDbSymbolTableRecord
100
AcDbLayerTableRecord
  2
CURVE
 70
0
 62
7
  6
CONTINUOUS
370
-3
390
F
  0
LAYER
  5
202
100
AcDbSymbolTableRecord
100
AcDbLayerTableRecord
  2
DRAFT
 70
0
 62
7
  6
CONTINUOUS
370
-3
390
F
  0
LAYER
  5
203
100
AcDbSymbolTableRecord
100
AcDbLayerTableRecord
  2
IMPORTED
 70
0
 62
7
  6
CONTINUOUS
370
-3
390
F
  0
LAYER
  5
204
100
AcDbSymbolTableRecord
100
AcDbLayerTableRecord
  2
INTF_1
 70
0
 62
7
  6
CONTINUOUS
370
-3
390
F
  0
LAYER
  5
205
100
AcDbSymbolTableRecord
100
AcDbLayerTableRecord
  2
INTF_11
 70
0
 62
7
  6
CONTINUOUS
370
-3
390
F
  0
LAYER
  5
206
100
AcDbSymbolTableRecord
100
AcDbLayerTableRecord
  2
INTF_12
 70
0
 62
7
  6
CONTINUOUS
370
-3
390
F
  0
LAYER
  5
207
100
AcDbSymbolTableRecord
100
AcDbLayerTableRecord
  2
INTF_2
 70
0
 62
7
  6
CONTINUOUS
370
-3
390
F
  0
LAYER
  5
208
100
AcDbSymbolTableRecord
100
AcDbLayerTableRecord
  2
NOTE
 70
0
 62
7
  6
CONTINUOUS
370
-3
390
F
  0
LAYER
  5
209
100
AcDbSymbolTableRecord
100
AcDbLayerTableRecord
  2
PANI1
 70
0
 62
7
  6
CONTINUOUS
370
-3
390
F
  0
LAYER
  5
20A
100
AcDbSymbolTableRecord
100
AcDbLayerTableRecord
  2
PIANI
 70
0
 62
7
  6
CONTINUOUS
370
-3
390
F
  0
LAYER
  5
20B
100
AcDbSymbolTableRecord
100
AcDbLayerTableRecord
  2
PIANI_CONTATTI
 70
0
 62
7
  6
CONTINUOUS
370
-3
390
F
  0
LAYER
  5
20C
100
AcDbSymbolTableRecord
100
AcDbLayerTableRecord
  2
PIANI_ORIGINE
 70
0
 62
7
  6
CONTINUOUS
370
-3
390
F
  0
LAYER
  5
20D
100
AcDbSymbolTableRecord
100
AcDbLayerTableRecord
  2
PIANI_RIFERIMENTO
 70
0
 62
7
  6
CONTINUOUS
370
-3
390
F
  0
LAYER
  5
20E
100
AcDbSymbolTableRecord
100
AcDbLayerTableRecord
  2
PUNTI
 70
0
 62
7
  6
CONTINUOUS
370
-3
390
F
  0
LAYER
  5
20F
100
AcDbSymbolTableRecord
100
AcDbLayerTableRecord
  2
RACCORDO
 70
0
 62
7
  6
CONTINUOUS
370
-3
390
F
  0
LAYER
  5
210
100
AcDbSymbolTableRecord
100
AcDbLayerTableRecord
  2
RGB__255__255__255__
 70
0
 62
7
  6
CONTINUOUS
370
-3
390
F
  0
LAYER
  5
211
100
AcDbSymbolTableRecord
100
AcDbLayerTableRecord
  2
SMUSSO
 70
0
 62
7
  6
CONTINUOUS
370
-3
390
F
  0
LAYER
  5
212
100
AcDbSymbolTableRecord
100
AcDbLayerTableRecord
  2
SNAPLINE
 70
0
 62
7
  6
CONTINUOUS
370
-3
390
F
  0
LAYER
  5
213
100
AcDbSymbolTableRecord
100
AcDbLayerTableRecord
  2
SUPERFICI
 70
0
 62
7
  6
CONTINUOUS
370
-3
390
F
  0
LAYER
  5
214
100
AcDbSymbolTableRecord
100
AcDbLayerTableRecord
  2
TRACCIABILITA
 70
0
 62
7
  6
CONTINUOUS
370
-3
390
F
  0
LAYER
  5
215
100
AcDbSymbolTableRecord
100
AcDbLayerTableRecord
  2
TRASH
 70
0
 62
7
  6
CONTINUOUS
370
-3
390
F
  0
LAYER
  5
216
100
AcDbSymbolTableRecord
100
AcDbLayerTableRecord
  2
XSEC_DATUMS
 70
0
 62
7
  6
CONTINUOUS
370
-3
390
F
  0
ENDTAB
  0
TABLE
  2
STYLE
  5
3
100
AcDbSymbolTable
 70
1
  0
STYLE
  5
11
100
AcDbSymbolTableRecord
100
AcDbTextStyleTableRecord
  2
STANDARD
 70
0
 40
0.0
 41
0.8
 50
0.0
 71
0
 42
0.2
  3
txt
  4

  0
STYLE
  5
217
100
AcDbSymbolTableRecord
100
AcDbTextStyleTableRecord
  2
TEXTSTYLE_1
 70
0
 40
0.0
 41
0.8
 50
0.0
 71
0
 42
0.2
  3
gdt
  4

  0
ENDTAB
  0
TABLE
  2
VIEW
  5
6
100
AcDbSymbolTable
 70
0
  0
ENDTAB
  0
TABLE
  2
UCS
  5
7
100
AcDbSymbolTable
 70
0
  0
ENDTAB
  0
TABLE
  2
APPID
  5
9
100
AcDbSymbolTable
 70
1
  0
APPID
  5
218
100
AcDbSymbolTableRecord
100
AcDbRegAppTableRecord
  2
ACAD
 70
0
  0
ENDTAB
  0
TABLE
  2
BLOCK_RECORD
  5
1
100
AcDbSymbolTable
 70
0
  0
BLOCK_RECORD
  5
219
100
AcDbSymbolTableRecord
100
AcDbBlockTableRecord
  2
*Model_Space
  0
BLOCK_RECORD
  5
21A
100
AcDbSymbolTableRecord
100
AcDbBlockTableRecord
  2
*Paper_Space
  0
BLOCK_RECORD
  5
21B
100
AcDbSymbolTableRecord
100
AcDbBlockTableRecord
  2
_FILLED
  0
ENDTAB
  0
TABLE
  2
DIMSTYLE
  5
A
100
AcDbSymbolTable
 70
1
100
AcDbDimStyleTable
 71
0
  0
DIMSTYLE
105
21C
100
AcDbSymbolTableRecord
100
AcDbDimStyleTableRecord
  2
STANDARD
 70
0
  3

  4

 40
1.0
 41
3.0
 42
0.5
 43
0.38
 44
1.5
 45
0.0
 46
0.0
 47
0.01
 48
0.01
140
3.0
141
0.09
142
0.0
143
25.4
144
1.0
145
0.0
146
1.0
147
0.625
 71
1
 72
0
 73
0
 74
0
 75
0
 76
0
 77
1
 78
8
 79
2
170
0
171
1
172
0
173
0
174
0
175
0
176
0
177
0
178
0
270
2
179
2
271
2
272
2
273
2
274
2
275
0
280
0
281
0
282
0
283
1
284
8
285
0
286
0
287
3
288
0
340
11
278
44
341
21B
342
21B
343
21B
344
21B
  0
ENDTAB
  0
ENDSEC
  0
SECTION
  2
BLOCKS
  0
BLOCK
  5
20
100
AcDbEntity
  8
0
100
AcDbBlockBegin
  2
*Model_Space
 70
0
 10
0.0
 20
0.0
 30
0.0
  3
*Model_Space
  1

  0
ENDBLK
  5
21
100
AcDbEntity
  8
0
100
AcDbBlockEnd
  0
BLOCK
  5
1C
100
AcDbEntity
  8
0
100
AcDbBlockBegin
  2
*Paper_Space
 70
0
 10
0.0
 20
0.0
 30
0.0
  3
*Paper_Space
  1

  0
ENDBLK
  5
1D
100
AcDbEntity
  8
0
100
AcDbBlockEnd
  0
BLOCK
  5
21D
100
AcDbEntity
  8
0
100
AcDbBlockBegin
  2
_FILLED
 70
64
 10
0.0
 20
0.0
  3
_FILLED
  1

  0
SOLID
  5
21E
100
AcDbEntity
  8
0
  6
BYBLOCK
 62
0
100
AcDbTrace
 10
0.0
 20
0.0
 11
-1.0
 21
0.3166666667
 12
-1.0
 22
-0.3166666667
 13
-1.0
 23
-0.3166666667
  0
ENDBLK
  5
21F
100
AcDbEntity
  8
0
  6
BYBLOCK
 62
0
100
AcDbBlockEnd
  0
ENDSEC
  0
SECTION
  2
ENTITIES
  0
LWPOLYLINE
  5
220
100
AcDbEntity
  8
0
100
AcDbPolyline
 62
250
  6
CONTINUOUS
 90
13
 70
0
 10
-41.6764109357
 20
-17.8257270862
 10
-41.7324642744
 20
-17.7934568939
 10
-41.7842777799
 20
-17.7550405956
 10
-41.832292432
 20
-17.7103146226
 10
-41.8762753971
 20
-17.6594867343
 10
-41.9159932441
 20
-17.6028155859
 10
-41.9512430933
 20
-17.5405934085
 10
-41.9818465587
 20
-17.4731399654
 10
-42.0076562366
 20
-17.4007831462
 10
-42.0285516989
 20
-17.3238679265
 10
-42.0444295202
 20
-17.2427692407
 10
-42.0552064233
 20
-17.1578926128
 10
-42.060827367
 20
-17.0696575422
  0
LWPOLYLINE
  5
221
100
AcDbEntity
  8
RACCORDO
100
AcDbPolyline
 62
250
  6
CONTINUOUS
 90
13
 70
0
 10
-41.6764109357
 20
-17.8257270862
 10
-41.7324642744
 20
-17.7934568939
 10
-41.7842777799
 20
-17.7550405956
 10
-41.832292432
 20
-17.7103146226
 10
-41.8762753971
 20
-17.6594867343
 10
-41.9159932441
 20
-17.6028155859
 10
-41.9512430933
 20
-17.5405934085
 10
-41.9818465587
 20
-17.4731399654
 10
-42.0076562366
 20
-17.4007831462
 10
-42.0285516989
 20
-17.3238679265
 10
-42.0444295202
 20
-17.2427692407
 10
-42.0552064233
 20
-17.1578926128
 10
-42.060827367
 20
-17.0696575422
  0
LINE
  5
222
100
AcDbEntity
  8
RACCORDO
100
AcDbLine
 62
7
  6
CONTINUOUS
 10
-37.3206582692
 20
24.2742179707
 11
-35.7407754952
 21
25.0951029079
  0
LINE
  5
223
100
AcDbEntity
  8
RACCORDO
100
AcDbLine
 62
250
  6
CONTINUOUS
 10
-37.2069350372
 20
24.2681029703
 11
-35.6282999556
 21
25.088339624
  0
LINE
  5
224
100
AcDbEntity
  8
RACCORDO
100
AcDbLine
 62
7
  6
CONTINUOUS
 10
-35.740764623
 20
25.095083892
 11
-35.7381634138
 21
25.0963846445
  0
LWPOLYLINE
  5
225
100
AcDbEntity
  8
RACCORDO
100
AcDbPolyline
 62
250
  6
CONTINUOUS
 90
7
 70
0
 10
-37.3206582692
 20
24.2742179707
 10
-37.3155939115
 20
24.2766600302
 10
-37.2962452517
 20
24.2829238755
 10
-37.2753321742
 20
24.2852006752
 10
-37.2532196661
 20
24.2834551962
 10
-37.2302885121
 20
24.2777217517
 10
-37.2069350372
 20
24.2681029703
  0
LINE
  5
226
100
AcDbEntity
  8
RACCORDO
100
AcDbLine
 62
7
  6
CONTINUOUS
 10
-35.7381634138
 20
25.0963846445
 11
-35.2016489089
 21
25.3543155553
  0
LINE
  5
227
100
AcDbEntity
  8
RACCORDO
100
AcDbLine
 62
250
  6
CONTINUOUS
 10
-35.6282999556
 20
25.088339624
 11
-35.0917856385
 21
25.3462704445
  0
LWPOLYLINE
  5
228
100
AcDbEntity
  8
RACCORDO
100
AcDbPolyline
 62
250
  6
CONTINUOUS
 90
7
 70
0
 10
-35.2016447452
 20
25.3543175569
 10
-35.1992022971
 20
25.3554486122
 10
-35.1799640333
 20
25.3616572595
 10
-35.159234212
 20
25.3638424312
 10
-35.1373745577
 20
25.3619705252
 10
-35.1147614406
 20
25.3560780623
 10
-35.0917856385
 20
25.3462704445
  0
LWPOLYLINE
  5
229
100
AcDbEntity
  8
RACCORDO
100
AcDbPolyline
 62
7
  6
CONTINUOUS
 90
7
 70
0
 10
-35.7381634138
 20
25.0963846445
 10
-35.7352861855
 20
25.097708334
 10
-35.7161166333
 20
25.1038016426
 10
-35.6954710486
 20
25.1059132384
 10
-35.6737026517
 20
25.1040069937
 10
-35.6511838658
 20
25.0981155238
 10
-35.6282999556
 20
25.088339624
  0
LINE
  5
22A
100
AcDbEntity
  8
RACCORDO
100
AcDbLine
 62
250
  6
CONTINUOUS
 10
-20.2164643295
 20
-23.9531299174
 11
-20.7436954805
 21
-23.845296259
  0
LWPOLYLINE
  5
22B
100
AcDbEntity
  8
RACCORDO
100
AcDbPolyline
 62
250
  6
CONTINUOUS
 90
13
 70
0
 10
-22.7021302217
 20
-25.3442375854
 10
-22.6776880791
 20
-25.3549630411
 10
-22.6506682898
 20
-25.3640113962
 10
-22.6215280546
 20
-25.3712295439
 10
-22.590760454
 20
-25.3764953461
 10
-22.5588861056
 20
-25.3797197005
 10
-22.5264443538
 20
-25.3808480479
 10
-22.4939841441
 20
-25.3798612955
 10
-22.4620547344
 20
-25.3767761402
 10
-22.431196401
 20
-25.3716447858
 10
-22.4019312965
 20
-25.3645540596
 10
-22.3747546144
 20
-25.3556239436
 10
-22.3501262104
 20
-25.3450055439
  0
LWPOLYLINE
  5
22C
100
AcDbEntity
  8
RACCORDO
100
AcDbPolyline
 62
250
  6
CONTINUOUS
 90
13
 70
0
 10
-22.7021302217
 20
-25.0099366583
 10
-22.6776880791
 20
-25.020662114
 10
-22.6506682898
 20
-25.0297104691
 10
-22.6215280546
 20
-25.0369286167
 10
-22.590760454
 20
-25.0421944189
 10
-22.5588861056
 20
-25.0454187733
 10
-22.5264443538
 20
-25.0465471207
 10
-22.4939841441
 20
-25.0455603683
 10
-22.4620547344
 20
-25.042475213
 10
-22.431196401
 20
-25.0373438586
 10
-22.4019312965
 20
-25.0302531324
 10
-22.3747546144
 20
-25.0213230164
 10
-22.3501262104
 20
-25.0107046168
  0
LWPOLYLINE
  5
22D
100
AcDbEntity
  8
0
100
AcDbPolyline
 62
7
  6
CONTINUOUS
 90
12
 70
0
 10
-26.7909067741
 20
-25.2684776975
 10
-26.753842077
 20
-25.2860128865
 10
-26.6793422777
 20
-25.3152416754
 10
-26.6018985074
 20
-25.3378747065
 10
-26.5218986807
 20
-25.353692701
 10
-26.4394647411
 20
-25.3625097754
 10
-26.3550434638
 20
-25.3641012518
 10
-26.269117293
 20
-25.3583041932
 10
-26.1817245147
 20
-25.3449120868
 10
-26.0931061322
 20
-25.3236853408
 10
-26.0038366567
 20
-25.2945198171
 10
-25.9554594795
 20
-25.2754082053
  0
LWPOLYLINE
  5
22E
100
AcDbEntity
  8
RACCORDO
100
AcDbPolyline
 62
7
  6
CONTINUOUS
 90
12
 70
0
 10
-26.7909067741
 20
-25.2684776975
 10
-26.753842077
 20
-25.2860128865
 10
-26.6793422777
 20
-25.3152416754
 10
-26.6018985074
 20
-25.3378747065
 10
-26.5218986807
 20
-25.353692701
 10
-26.4394647411
 20
-25.3625097754
 10
-26.3550434638
 20
-25.3641012518
 10
-26.269117293
 20
-25.3583041932
 10
-26.1817245147
 20
-25.3449120868
 10
-26.0931061322
 20
-25.3236853408
 10
-26.0038366567
 20
-25.2945198171
 10
-25.9554594795
 20
-25.2754082053
  0
LINE
  5
22F
100
AcDbEntity
  8
0
100
AcDbLine
 62
7
  6
CONTINUOUS
 10
-26.7897964925
 20
-25.2690343078
 11
-41.6764108806
 21
-17.8257271138
  0
LINE
  5
230
100
AcDbEntity
  8
RACCORDO
100
AcDbLine
 62
7
  6
CONTINUOUS
 10
-26.7897964925
 20
-25.2690343078
 11
-41.6764108806
 21
-17.8257271138
  0
LINE
  5
231
100
AcDbEntity
  8
0
100
AcDbLine
 62
250
  6
CONTINUOUS
 10
-27.1832646782
 20
-24.5084388867
 11
-42.060827367
 21
-17.0696575422
  0
LINE
  5
232
100
AcDbEntity
  8
RACCORDO
100
AcDbLine
 62
250
  6
CONTINUOUS
 10
-27.1832646782
 20
-24.5084388867
 11
-42.060827367
 21
-17.0696575422
  0
LINE
  5
233
100
AcDbEntity
  8
RACCORDO
100
AcDbLine
 62
7
  6
CONTINUOUS
 10
-23.9528776236
 20
-24.8215956864
 11
-22.6371569253
 21
-25.4794560355
  0
LINE
  5
234
100
AcDbEntity
  8
RACCORDO
100
AcDbLine
 62
250
  6
CONTINUOUS
 10
-24.01785092
 20
-24.6863772363
 11
-22.7021302217
 21
-25.3442375854
  0
LWPOLYLINE
  5
235
100
AcDbEntity
  8
RACCORDO
100
AcDbPolyline
 62
250
  6
CONTINUOUS
 90
7
 70
0
 10
-36.8085685385
 20
22.7509261716
 10
-36.8239198368
 20
22.7224588399
 10
-36.8369526137
 20
22.6930091631
 10
-36.8474473123
 20
22.6630749776
 10
-36.8552293253
 20
22.633158894
 10
-36.8601705457
 20
22.603759515
 10
-36.8621898288
 20
22.5753679927
  0
LINE
  5
236
100
AcDbEntity
  8
RACCORDO
100
AcDbLine
 62
250
  6
CONTINUOUS
 10
-36.7911565438
 20
22.777933292
 11
-36.8085685385
 21
22.7509261716
  0
LINE
  5
237
100
AcDbEntity
  8
RACCORDO
100
AcDbLine
 62
250
  6
CONTINUOUS
 10
-34.1080136449
 20
23.3842853287
 11
-33.5807824939
 21
24.0286333042
  0
LINE
  5
238
100
AcDbEntity
  8
RACCORDO
100
AcDbLine
 62
7
  6
CONTINUOUS
 10
-34.1080136449
 20
23.2950415378
 11
-33.5656112786
 21
23.9579307961
  0
LWPOLYLINE
  5
239
100
AcDbEntity
  8
RACCORDO
100
AcDbPolyline
 62
7
  6
CONTINUOUS
 90
12
 70
0
 10
-35.0011667662
 20
22.8215265817
 10
-35.0237214813
 20
22.7963630395
 10
-35.0488142158
 20
22.7730093907
 10
-35.0761588512
 20
22.7516522485
 10
-35.1053688489
 20
22.7322303337
 10
-35.1360816326
 20
22.7151267715
 10
-35.167974012
 20
22.7011910539
 10
-35.2005567224
 20
22.6905417986
 10
-35.2332542188
 20
22.6832868771
 10
-35.2655373516
 20
22.6802519688
 10
-35.2967684234
 20
22.6817250382
 10
-35.3149949663
 20
22.6847068074
  0
LWPOLYLINE
  5
23A
100
AcDbEntity
  8
RACCORDO
100
AcDbPolyline
 62
250
  6
CONTINUOUS
 90
3
 70
0
 10
-36.7544564353
 20
22.822360034
 10
-36.7719745176
 20
22.8030296079
 10
-36.7911565438
 20
22.777933292
  0
LWPOLYLINE
  5
23B
100
AcDbEntity
  8
RACCORDO
100
AcDbPolyline
 62
7
  6
CONTINUOUS
 90
3
 70
0
 10
-35.3260637569
 20
21.855396223
 10
-35.3401679493
 20
21.8455121544
 10
-35.3531707776
 20
21.8360265223
  0
LWPOLYLINE
  5
23C
100
AcDbEntity
  8
RACCORDO
100
AcDbPolyline
 62
7
  6
CONTINUOUS
 90
4
 70
0
 10
-35.2593706992
 20
21.9001028522
 10
-35.2774873998
 20
21.888253675
 10
-35.2946771418
 20
21.8767072102
 10
-35.3260637569
 20
21.855396223
  0
LWPOLYLINE
  5
23D
100
AcDbEntity
  8
RACCORDO
100
AcDbPolyline
 62
7
  6
CONTINUOUS
 90
3
 70
0
 10
-35.2003180063
 20
21.9377286977
 10
-35.2207659377
 20
21.92496199
 10
-35.2593706992
 20
21.9001028522
  0
LWPOLYLINE
  5
23E
100
AcDbEntity
  8
0
100
AcDbPolyline
 62
7
  6
CONTINUOUS
 90
19
 70
0
 10
-41.301495108
 20
20.3089256864
 10
-41.3530323057
 20
20.2773416229
 10
-41.43965477
 20
20.2171350836
 10
-41.5228316568
 20
20.1503434498
 10
-41.6024183891
 20
20.0773893909
 10
-41.6782777147
 20
19.9986890613
 10
-41.7501321345
 20
19.914737806
 10
-41.8178083699
 20
19.8259325171
 10
-41.8810844625
 20
19.732680508
 10
-41.9395487157
 20
19.6356528484
 10
-41.9929974668
 20
19.5352894385
 10
-42.0411893104
 20
19.4320080536
 10
-42.0837562505
 20
19.3265704265
 10
-42.1204934434
 20
19.2194327989
 10
-42.151164746
 20
19.1110176565
 10
-42.1754965294
 20
19.001988763
 10
-42.1932584647
 20
18.8927849123
 10
-42.2042305318
 20
18.7837545489
 10
-42.2073067299
 20
18.7232494199
  0
LWPOLYLINE
  5
23F
100
AcDbEntity
  8
RACCORDO
100
AcDbPolyline
 62
7
  6
CONTINUOUS
 90
19
 70
0
 10
-41.301495108
 20
20.3089256864
 10
-41.3530323057
 20
20.2773416229
 10
-41.43965477
 20
20.2171350836
 10
-41.5228316568
 20
20.1503434498
 10
-41.6024183891
 20
20.0773893909
 10
-41.6782777147
 20
19.9986890613
 10
-41.7501321345
 20
19.914737806
 10
-41.8178083699
 20
19.8259325171
 10
-41.8810844625
 20
19.732680508
 10
-41.9395487157
 20
19.6356528484
 10
-41.9929974668
 20
19.5352894385
 10
-42.0411893104
 20
19.4320080536
 10
-42.0837562505
 20
19.3265704265
 10
-42.1204934434
 20
19.2194327989
 10
-42.151164746
 20
19.1110176565
 10
-42.1754965294
 20
19.001988763
 10
-42.1932584647
 20
18.8927849123
 10
-42.2042305318
 20
18.7837545489
 10
-42.2073067299
 20
18.7232494199
  0
LWPOLYLINE
  5
240
100
AcDbEntity
  8
RACCORDO
100
AcDbPolyline
 62
7
  6
CONTINUOUS
 90
3
 70
0
 10
-35.1355650063
 20
21.9771333948
 10
-35.1576932688
 20
21.9639900336
 10
-35.2003180063
 20
21.9377286977
  0
LINE
  5
241
100
AcDbEntity
  8
0
100
AcDbLine
 62
7
  6
CONTINUOUS
 10
-41.3016155394
 20
20.3088601857
 11
-39.3174142762
 21
21.465831261
  0
LINE
  5
242
100
AcDbEntity
  8
RACCORDO
100
AcDbLine
 62
7
  6
CONTINUOUS
 10
-41.3016155394
 20
20.3088601857
 11
-39.3174142762
 21
21.465831261
  0
LINE
  5
243
100
AcDbEntity
  8
0
100
AcDbLine
 62
250
  6
CONTINUOUS
 10
-41.068261492
 20
20.3000927924
 11
-39.0835115011
 21
21.4573838263
  0
LINE
  5
244
100
AcDbEntity
  8
RACCORDO
100
AcDbLine
 62
250
  6
CONTINUOUS
 10
-41.068261492
 20
20.3000927924
 11
-39.0835115011
 21
21.4573838263
  0
LWPOLYLINE
  5
245
100
AcDbEntity
  8
RACCORDO
100
AcDbPolyline
 62
7
  6
CONTINUOUS
 90
3
 70
0
 10
-35.067738151
 20
22.0162537621
 10
-35.0905740571
 20
22.0035415847
 10
-35.1355650063
 20
21.9771333948
  0
LWPOLYLINE
  5
246
100
AcDbEntity
  8
RACCORDO
100
AcDbPolyline
 62
7
  6
CONTINUOUS
 90
11
 70
0
 10
-36.9013041866
 20
22.8919203561
 10
-36.9114281947
 20
22.8863525798
 10
-36.9440741831
 20
22.864984433
 10
-36.974308647
 20
22.8396211956
 10
-37.0020493482
 20
22.8100595305
 10
-37.0268233983
 20
22.7763250905
 10
-37.0479296999
 20
22.7388819176
 10
-37.0649504522
 20
22.6979982009
 10
-37.0775230196
 20
22.6539057448
 10
-37.0852846748
 20
22.606976553
 10
-37.0879323252
 20
22.5576062013
  0
LWPOLYLINE
  5
247
100
AcDbEntity
  8
RACCORDO
100
AcDbPolyline
 62
7
  6
CONTINUOUS
 90
3
 70
0
 10
-35.0011667662
 20
22.051764916
 10
-35.0225141203
 20
22.0401850925
 10
-35.067738151
 20
22.0162537621
  0
LINE
  5
248
100
AcDbEntity
  8
DRAFT
100
AcDbLine
 62
7
  6
CONTINUOUS
 10
-36.7544564353
 20
22.9694427623
 11
-36.9014400319
 21
22.8918487192
  0
LINE
  5
249
100
AcDbEntity
  8
RACCORDO
100
AcDbLine
 62
250
  6
CONTINUOUS
 10
-36.901440377
 20
22.8918485371
 11
-36.9013045315
 21
22.891920174
  0
LINE
  5
24A
100
AcDbEntity
  8
RACCORDO
100
AcDbLine
 62
7
  6
CONTINUOUS
 10
-35.0027227583
 20
22.0509674052
 11
-34.1080136449
 21
22.5095431207
  0
LINE
  5
24B
100
AcDbEntity
  8
RACCORDO
100
AcDbLine
 62
250
  6
CONTINUOUS
 10
-35.891214339
 20
23.6102426211
 11
-34.2847836091
 21
24.4165814508
  0
LINE
  5
24C
100
AcDbEntity
  8
RACCORDO
100
AcDbLine
 62
250
  6
CONTINUOUS
 10
-35.7144443748
 20
23.305359532
 11
-34.1080136449
 21
24.1116983616
  0
LINE
  5
24D
100
AcDbEntity
  8
RACCORDO
100
AcDbLine
 62
250
  6
CONTINUOUS
 10
-34.2847836091
 20
24.4165814508
 11
-33.7575524581
 21
24.6791538543
  0
LINE
  5
24E
100
AcDbEntity
  8
RACCORDO
100
AcDbLine
 62
250
  6
CONTINUOUS
 10
-34.1080136449
 20
24.1116983616
 11
-33.5807824939
 21
24.3742707651
  0
LWPOLYLINE
  5
24F
100
AcDbEntity
  8
0
100
AcDbPolyline
 62
250
  6
CONTINUOUS
 90
8
 70
0
 10
-41.3014971334
 20
20.308929166
 10
-41.2760240971
 20
20.3211649611
 10
-41.2455170372
 20
20.3300568822
 10
-41.212867691
 20
20.3339899656
 10
-41.1784333559
 20
20.3329211695
 10
-41.1425908637
 20
20.3268621903
 10
-41.1057324559
 20
20.3158793344
 10
-41.068261492
 20
20.3000927924
  0
LWPOLYLINE
  5
250
100
AcDbEntity
  8
RACCORDO
100
AcDbPolyline
 62
250
  6
CONTINUOUS
 90
8
 70
0
 10
-41.3014971334
 20
20.308929166
 10
-41.2760240971
 20
20.3211649611
 10
-41.2455170372
 20
20.3300568822
 10
-41.212867691
 20
20.3339899656
 10
-41.1784333559
 20
20.3329211695
 10
-41.1425908637
 20
20.3268621903
 10
-41.1057324559
 20
20.3158793344
 10
-41.068261492
 20
20.3000927924
  0
LINE
  5
251
100
AcDbEntity
  8
RACCORDO
100
AcDbLine
 62
7
  6
CONTINUOUS
 10
-33.9678478053
 20
22.5754428722
 11
-34.1080136449
 21
22.5095431207
  0
LWPOLYLINE
  5
252
100
AcDbEntity
  8
RACCORDO
100
AcDbPolyline
 62
250
  6
CONTINUOUS
 90
6
 70
0
 10
-36.9013045315
 20
22.891920174
 10
-36.8797298282
 20
22.9014669917
 10
-36.8504281023
 20
22.9093631031
 10
-36.8193368223
 20
22.9124309931
 10
-36.7868056546
 20
22.9106350323
 10
-36.7544564353
 20
22.9042421521
  0
LWPOLYLINE
  5
253
100
AcDbEntity
  8
RACCORDO
100
AcDbPolyline
 62
250
  6
CONTINUOUS
 90
3
 70
0
 10
-21.708210968
 20
-23.3995332857
 10
-21.7179192949
 20
-23.4018855322
 10
-21.7487776676
 20
-23.4070168546
  0
LINE
  5
254
100
AcDbEntity
  8
RACCORDO
100
AcDbLine
 62
250
  6
CONTINUOUS
 10
-21.7487776676
 20
-23.4070168546
 11
-21.7807070363
 21
-23.4101019696
  0
LWPOLYLINE
  5
255
100
AcDbEntity
  8
RACCORDO
100
AcDbPolyline
 62
250
  6
CONTINUOUS
 90
10
 70
0
 10
-21.8772979433
 20
-23.2290154861
 10
-21.8915494232
 20
-23.2297823352
 10
-21.9049800342
 20
-23.2322398776
 10
-21.917589776
 20
-23.2363881133
 10
-21.9294445731
 20
-23.242272339
 10
-21.9404785012
 20
-23.2498472579
 10
-21.9504937872
 20
-23.2589769801
 10
-21.9594245068
 20
-23.2696162088
 10
-21.9673365844
 20
-23.2818102406
 10
-21.9742300199
 20
-23.2955590757
  0
LWPOLYLINE
  5
256
100
AcDbEntity
  8
RACCORDO
100
AcDbPolyline
 62
250
  6
CONTINUOUS
 90
8
 70
0
 10
-21.7807070363
 20
-23.4101019696
 10
-21.8131671736
 20
-23.411088688
 10
-21.8456088288
 20
-23.4099603169
 10
-21.8774830579
 20
-23.4067359536
 10
-21.9082505615
 20
-23.4014701553
 10
-21.9373907364
 20
-23.3942520174
 10
-21.964410488
 20
-23.3852036748
 10
-21.9888526132
 20
-23.3744782308
  0
LWPOLYLINE
  5
257
100
AcDbEntity
  8
RACCORDO
100
AcDbPolyline
 62
7
  6
CONTINUOUS
 90
6
 70
0
 10
-21.5892963553
 20
-23.4260964524
 10
-21.5507594501
 20
-23.4259533584
 10
-21.5126534097
 20
-23.4215079542
 10
-21.475429033
 20
-23.4127808247
 10
-21.4396106631
 20
-23.3998911756
 10
-21.4282745997
 20
-23.3948008231
  0
LINE
  5
258
100
AcDbEntity
  8
RACCORDO
100
AcDbLine
 62
250
  6
CONTINUOUS
 10
-20.3063885941
 20
-23.6338220856
 11
-20.7436954805
 21
-23.5443804785
  0
LWPOLYLINE
  5
259
100
AcDbEntity
  8
RACCORDO
100
AcDbPolyline
 62
7
  6
CONTINUOUS
 90
3
 70
0
 10
-21.6686318862
 20
-23.4129842782
 10
-21.6286305632
 20
-23.421853322
 10
-21.5892963553
 20
-23.4260964524
  0
LWPOLYLINE
  5
25A
100
AcDbEntity
  8
RACCORDO
100
AcDbPolyline
 62
250
  6
CONTINUOUS
 90
3
 70
0
 10
-20.2832956521
 20
-23.6417491789
 10
-20.2891304285
 20
-23.6391037711
 10
-20.3063885941
 20
-23.6338220856
  0
LWPOLYLINE
  5
25B
100
AcDbEntity
  8
RACCORDO
100
AcDbPolyline
 62
7
  6
CONTINUOUS
 90
3
 70
0
 10
-21.7480395585
 20
-23.381096894
 10
-21.7085861966
 20
-23.3994057638
 10
-21.6686318862
 20
-23.4129842782
  0
LWPOLYLINE
  5
25C
100
AcDbEntity
  8
RACCORDO
100
AcDbPolyline
 62
250
  6
CONTINUOUS
 90
7
 70
0
 10
-21.8078959149
 20
-23.2485109573
 10
-21.8194414815
 20
-23.2428170612
 10
-21.8309956233
 20
-23.2381010254
 10
-21.8425583403
 20
-23.2343628501
 10
-21.8541296327
 20
-23.231602535
 10
-21.8657095003
 20
-23.2298200804
 10
-21.8772979433
 20
-23.2290154861
  0
LINE
  5
25D
100
AcDbEntity
  8
RACCORDO
100
AcDbLine
 62
250
  6
CONTINUOUS
 10
-22.7021302217
 20
-25.0099366583
 11
-23.8993796038
 21
-24.4113119672
  0
LINE
  5
25E
100
AcDbEntity
  8
RACCORDO
100
AcDbLine
 62
250
  6
CONTINUOUS
 10
-22.6137418741
 20
-24.7782424844
 11
-23.7634735878
 21
-24.2033766276
  0
LINE
  5
25F
100
AcDbEntity
  8
RACCORDO
100
AcDbLine
 62
250
  6
CONTINUOUS
 10
-23.403760607
 20
-23.4779030321
 11
-22.0787836676
 21
-24.1403915018
  0
LINE
  5
260
100
AcDbEntity
  8
RACCORDO
100
AcDbLine
 62
250
  6
CONTINUOUS
 10
-23.3169149662
 20
-23.2454375049
 11
-21.9888526132
 21
-23.9094686814
  0
LINE
  5
261
100
AcDbEntity
  8
RACCORDO
100
AcDbLine
 62
7
  6
CONTINUOUS
 10
-21.7480395585
 20
-23.381096894
 11
-21.7485111887
 21
-23.3808455553
  0
LWPOLYLINE
  5
262
100
AcDbEntity
  8
RACCORDO
100
AcDbPolyline
 62
250
  6
CONTINUOUS
 90
7
 70
0
 10
-24.01785092
 20
-24.6863772363
 10
-24.0393018314
 20
-24.674156165
 10
-24.0573985416
 20
-24.6606462704
 10
-24.0718348369
 20
-24.6460761527
 10
-24.0823664413
 20
-24.6306923525
 10
-24.0888151501
 20
-24.6147551782
 10
-24.0910742247
 20
-24.5979888887
  0
LWPOLYLINE
  5
263
100
AcDbEntity
  8
0
100
AcDbPolyline
 62
250
  6
CONTINUOUS
 90
10
 70
0
 10
-42.5010795926
 20
1.100526754
 10
-42.4988355419
 20
1.0792661021
 10
-42.4928946445
 20
1.0581536948
 10
-42.4833073688
 20
1.0373483802
 10
-42.4701274917
 20
1.0170060787
 10
-42.4534542675
 20
0.9972741277
 10
-42.4334161911
 20
0.9782963597
 10
-42.4101425591
 20
0.960214401
 10
-42.3838033006
 20
0.9431651868
 10
-42.3546406332
 20
0.9272819214
  0
LWPOLYLINE
  5
264
100
AcDbEntity
  8
RACCORDO
100
AcDbPolyline
 62
250
  6
CONTINUOUS
 90
10
 70
0
 10
-42.5010795926
 20
1.100526754
 10
-42.4988355419
 20
1.0792661021
 10
-42.4928946445
 20
1.0581536948
 10
-42.4833073688
 20
1.0373483802
 10
-42.4701274917
 20
1.0170060787
 10
-42.4534542675
 20
0.9972741277
 10
-42.4334161911
 20
0.9782963597
 10
-42.4101425591
 20
0.960214401
 10
-42.3838033006
 20
0.9431651868
 10
-42.3546406332
 20
0.9272819214
  0
LWPOLYLINE
  5
265
100
AcDbEntity
  8
0
100
AcDbPolyline
 62
250
  6
CONTINUOUS
 90
9
 70
0
 10
-42.2072899529
 20
-16.8920466357
 10
-42.2064413347
 20
-16.9033534523
 10
-42.2006224745
 20
-16.9302325501
 10
-42.1895208318
 20
-16.9565222309
 10
-42.1732553554
 20
-16.9819408136
 10
-42.1520003217
 20
-17.0062159505
 10
-42.1259834682
 20
-17.0290875455
 10
-42.0954835526
 20
-17.0503105407
 10
-42.0608273667
 20
-17.069657542
  0
LWPOLYLINE
  5
266
100
AcDbEntity
  8
RACCORDO
100
AcDbPolyline
 62
250
  6
CONTINUOUS
 90
9
 70
0
 10
-42.2072899529
 20
-16.8920466357
 10
-42.2064413347
 20
-16.9033534523
 10
-42.2006224745
 20
-16.9302325501
 10
-42.1895208318
 20
-16.9565222309
 10
-42.1732553554
 20
-16.9819408136
 10
-42.1520003217
 20
-17.0062159505
 10
-42.1259834682
 20
-17.0290875455
 10
-42.0954835526
 20
-17.0503105407
 10
-42.0608273667
 20
-17.069657542
  0
LWPOLYLINE
  5
267
100
AcDbEntity
  8
0
100
AcDbPolyline
 62
250
  6
CONTINUOUS
 90
8
 70
0
 10
-42.3546512994
 20
0.927276601
 10
-42.353481269
 20
0.9054912271
 10
-42.3499620872
 20
0.8852528455
 10
-42.3441526989
 20
0.8669004408
 10
-42.336150409
 20
0.8507414082
 10
-42.3260892525
 20
0.837046405
 10
-42.3141377494
 20
0.8260448167
 10
-42.3027428157
 20
0.8190008847
  0
LWPOLYLINE
  5
268
100
AcDbEntity
  8
RACCORDO
100
AcDbPolyline
 62
250
  6
CONTINUOUS
 90
8
 70
0
 10
-42.3546512994
 20
0.927276601
 10
-42.353481269
 20
0.9054912271
 10
-42.3499620872
 20
0.8852528455
 10
-42.3441526989
 20
0.8669004408
 10
-42.336150409
 20
0.8507414082
 10
-42.3260892525
 20
0.837046405
 10
-42.3141377494
 20
0.8260448167
 10
-42.3027428157
 20
0.8190008847
  0
LWPOLYLINE
  5
269
100
AcDbEntity
  8
0
100
AcDbPolyline
 62
7
  6
CONTINUOUS
 90
15
 70
0
 10
-42.2072838754
 20
-16.8920464282
 10
-42.2042444275
 20
-16.9494993368
 10
-42.1938229139
 20
-17.0470541627
 10
-42.1770924222
 20
-17.1404962878
 10
-42.1542763059
 20
-17.2295522865
 10
-42.1255886318
 20
-17.3141373595
 10
-42.0911852699
 20
-17.3941839387
 10
-42.0512791798
 20
-17.4694360721
 10
-42.0061267798
 20
-17.5396564473
 10
-41.955973351
 20
-17.6046333134
 10
-41.9011554553
 20
-17.6640503178
 10
-41.8420720622
 20
-17.7176251198
 10
-41.7791731892
 20
-17.7651258444
 10
-41.712969203
 20
-17.8063365873
 10
-41.6754773057
 20
-17.8261925445
  0
LWPOLYLINE
  5
26A
100
AcDbEntity
  8
RACCORDO
100
AcDbPolyline
 62
7
  6
CONTINUOUS
 90
15
 70
0
 10
-42.2072838754
 20
-16.8920464282
 10
-42.2042444275
 20
-16.9494993368
 10
-42.1938229139
 20
-17.0470541627
 10
-42.1770924222
 20
-17.1404962878
 10
-42.1542763059
 20
-17.2295522865
 10
-42.1255886318
 20
-17.3141373595
 10
-42.0911852699
 20
-17.3941839387
 10
-42.0512791798
 20
-17.4694360721
 10
-42.0061267798
 20
-17.5396564473
 10
-41.955973351
 20
-17.6046333134
 10
-41.9011554553
 20
-17.6640503178
 10
-41.8420720622
 20
-17.7176251198
 10
-41.7791731892
 20
-17.7651258444
 10
-41.712969203
 20
-17.8063365873
 10
-41.6754773057
 20
-17.8261925445
  0
LWPOLYLINE
  5
26B
100
AcDbEntity
  8
0
100
AcDbPolyline
 62
250
  6
CONTINUOUS
 90
9
 70
0
 10
-42.2073125725
 20
18.7232496071
 10
-42.2064351129
 20
18.7052305931
 10
-42.2006158823
 20
18.6807005331
 10
-42.1895139814
 20
18.6564534667
 10
-42.1732483598
 20
18.6327491848
 10
-42.1519932922
 20
18.6098416625
 10
-42.1259765125
 20
18.5879763386
 10
-42.0954767725
 20
18.5673874849
 10
-42.0608208562
 20
18.5482956971
  0
LWPOLYLINE
  5
26C
100
AcDbEntity
  8
RACCORDO
100
AcDbPolyline
 62
250
  6
CONTINUOUS
 90
9
 70
0
 10
-42.2073125725
 20
18.7232496071
 10
-42.2064351129
 20
18.7052305931
 10
-42.2006158823
 20
18.6807005331
 10
-42.1895139814
 20
18.6564534667
 10
-42.1732483598
 20
18.6327491848
 10
-42.1519932922
 20
18.6098416625
 10
-42.1259765125
 20
18.5879763386
 10
-42.0954767725
 20
18.5673874849
 10
-42.0608208562
 20
18.5482956971
  0
LWPOLYLINE
  5
26D
100
AcDbEntity
  8
0
100
AcDbPolyline
 62
250
  6
CONTINUOUS
 90
10
 70
0
 10
-42.060827367
 20
-17.0696575422
 10
-42.1214027488
 20
-15.1608530754
 10
-42.1749969424
 20
-13.2481603348
 10
-42.2216093486
 20
-11.3316180554
 10
-42.2612389417
 20
-9.4112946803
 10
-42.293886197
 20
-7.4871995654
 10
-42.3195519958
 20
-5.5592824022
 10
-42.3382355657
 20
-3.6275518902
 10
-42.3499355762
 20
-1.6920763125
 10
-42.3546512995
 20
0.2471056641
  0
LWPOLYLINE
  5
26E
100
AcDbEntity
  8
RACCORDO
100
AcDbPolyline
 62
250
  6
CONTINUOUS
 90
10
 70
0
 10
-42.060827367
 20
-17.0696575422
 10
-42.1214027488
 20
-15.1608530754
 10
-42.1749969424
 20
-13.2481603348
 10
-42.2216093486
 20
-11.3316180554
 10
-42.2612389417
 20
-9.4112946803
 10
-42.293886197
 20
-7.4871995654
 10
-42.3195519958
 20
-5.5592824022
 10
-42.3382355657
 20
-3.6275518902
 10
-42.3499355762
 20
-1.6920763125
 10
-42.3546512995
 20
0.2471056641
  0
LWPOLYLINE
  5
26F
100
AcDbEntity
  8
0
100
AcDbPolyline
 62
7
  6
CONTINUOUS
 90
13
 70
0
 10
-42.5010986422
 20
1.1027888908
 10
-42.5010826849
 20
1.0996327395
 10
-42.4991486264
 20
1.0701032851
 10
-42.4939701451
 20
1.0406832096
 10
-42.4855134719
 20
1.0115781647
 10
-42.4737719655
 20
0.9830692712
 10
-42.4588001495
 20
0.9554886865
 10
-42.440622019
 20
0.9290301699
 10
-42.4192763119
 20
0.9038683755
 10
-42.3948304277
 20
0.8801852054
 10
-42.3672236895
 20
0.8580457362
 10
-42.3363436461
 20
0.8375161379
 10
-42.3027391301
 20
0.819008224
  0
LWPOLYLINE
  5
270
100
AcDbEntity
  8
RACCORDO
100
AcDbPolyline
 62
7
  6
CONTINUOUS
 90
13
 70
0
 10
-42.5010986422
 20
1.1027888908
 10
-42.5010826849
 20
1.0996327395
 10
-42.4991486264
 20
1.0701032851
 10
-42.4939701451
 20
1.0406832096
 10
-42.4855134719
 20
1.0115781647
 10
-42.4737719655
 20
0.9830692712
 10
-42.4588001495
 20
0.9554886865
 10
-42.440622019
 20
0.9290301699
 10
-42.4192763119
 20
0.9038683755
 10
-42.3948304277
 20
0.8801852054
 10
-42.3672236895
 20
0.8580457362
 10
-42.3363436461
 20
0.8375161379
 10
-42.3027391301
 20
0.819008224
  0
LWPOLYLINE
  5
271
100
AcDbEntity
  8
0
100
AcDbPolyline
 62
7
  6
CONTINUOUS
 90
10
 70
0
 10
-42.5010987125
 20
0.4251724118
 10
-42.4965297859
 20
-1.4801090879
 10
-42.4848802256
 20
-3.4253707252
 10
-42.466175872
 20
-5.3669037235
 10
-42.4404169956
 20
-7.304663716
 10
-42.4076040968
 20
-9.2386138172
 10
-42.3677376886
 20
-11.1687197249
 10
-42.3208184094
 20
-13.0949442853
 10
-42.266847374
 20
-15.0172432235
 10
-42.20729117
 20
-16.8920105503
  0
LWPOLYLINE
  5
272
100
AcDbEntity
  8
RACCORDO
100
AcDbPolyline
 62
7
  6
CONTINUOUS
 90
10
 70
0
 10
-42.5010987125
 20
0.4251724118
 10
-42.4965297859
 20
-1.4801090879
 10
-42.4848802256
 20
-3.4253707252
 10
-42.466175872
 20
-5.3669037235
 10
-42.4404169956
 20
-7.304663716
 10
-42.4076040968
 20
-9.2386138172
 10
-42.3677376886
 20
-11.1687197249
 10
-42.3208184094
 20
-13.0949442853
 10
-42.266847374
 20
-15.0172432235
 10
-42.20729117
 20
-16.8920105503
  0
LWPOLYLINE
  5
273
100
AcDbEntity
  8
0
100
AcDbPolyline
 62
250
  6
CONTINUOUS
 90
10
 70
0
 10
-42.3546512995
 20
0.927276601
 10
-42.3499355762
 20
2.8713417329
 10
-42.3382355657
 20
4.8189325944
 10
-42.3195519958
 20
6.7700097908
 10
-42.293886197
 20
8.724503714
 10
-42.2612389417
 20
10.6824048866
 10
-42.2216093486
 20
12.6437644826
 10
-42.1749969424
 20
14.6085736163
 10
-42.1214027488
 20
16.5767628239
 10
-42.060827367
 20
18.5482927713
  0
LWPOLYLINE
  5
274
100
AcDbEntity
  8
RACCORDO
100
AcDbPolyline
 62
250
  6
CONTINUOUS
 90
10
 70
0
 10
-42.3546512995
 20
0.927276601
 10
-42.3499355762
 20
2.8713417329
 10
-42.3382355657
 20
4.8189325944
 10
-42.3195519958
 20
6.7700097908
 10
-42.293886197
 20
8.724503714
 10
-42.2612389417
 20
10.6824048866
 10
-42.2216093486
 20
12.6437644826
 10
-42.1749969424
 20
14.6085736163
 10
-42.1214027488
 20
16.5767628239
 10
-42.060827367
 20
18.5482927713
  0
LWPOLYLINE
  5
275
100
AcDbEntity
  8
0
100
AcDbPolyline
 62
7
  6
CONTINUOUS
 90
10
 70
0
 10
-42.2073097954
 20
18.7233361695
 10
-42.2669688941
 20
16.783342558
 10
-42.3209224641
 20
14.8053142398
 10
-42.3678252593
 20
12.8306433958
 10
-42.407676035
 20
10.8593755105
 10
-42.440474023
 20
8.8915484623
 10
-42.4662185795
 20
6.9271971632
 10
-42.4849090742
 20
4.9663590938
 10
-42.4965451066
 20
3.0090789751
 10
-42.5010987139
 20
1.1027601911
  0
LWPOLYLINE
  5
276
100
AcDbEntity
  8
RACCORDO
100
AcDbPolyline
 62
7
  6
CONTINUOUS
 90
10
 70
0
 10
-42.2073097954
 20
18.7233361695
 10
-42.2669688941
 20
16.783342558
 10
-42.3209224641
 20
14.8053142398
 10
-42.3678252593
 20
12.8306433958
 10
-42.407676035
 20
10.8593755105
 10
-42.440474023
 20
8.8915484623
 10
-42.4662185795
 20
6.9271971632
 10
-42.4849090742
 20
4.9663590938
 10
-42.4965451066
 20
3.0090789751
 10
-42.5010987139
 20
1.1027601911
  0
LWPOLYLINE
  5
277
100
AcDbEntity
  8
0
100
AcDbPolyline
 62
250
  6
CONTINUOUS
 90
13
 70
0
 10
-42.3546512994
 20
0.2471056641
 10
-42.3534811938
 20
0.2700618034
 10
-42.3499618126
 20
0.2938200289
 10
-42.3441521392
 20
0.3179823704
 10
-42.3361495123
 20
0.3421441159
 10
-42.3260880102
 20
0.3659005359
 10
-42.3141362192
 20
0.3888536675
 10
-42.300494371
 20
0.4106190629
 10
-42.2853909897
 20
0.4308321975
 10
-42.2690790947
 20
0.449154529
 10
-42.2518319281
 20
0.4652792188
 10
-42.2339383719
 20
0.4789362619
 10
-42.2156981288
 20
0.4898969854
  0
LWPOLYLINE
  5
278
100
AcDbEntity
  8
RACCORDO
100
AcDbPolyline
 62
250
  6
CONTINUOUS
 90
13
 70
0
 10
-42.3546512994
 20
0.2471056641
 10
-42.3534811938
 20
0.2700618034
 10
-42.3499618126
 20
0.2938200289
 10
-42.3441521392
 20
0.3179823704
 10
-42.3361495123
 20
0.3421441159
 10
-42.3260880102
 20
0.3659005359
 10
-42.3141362192
 20
0.3888536675
 10
-42.300494371
 20
0.4106190629
 10
-42.2853909897
 20
0.4308321975
 10
-42.2690790947
 20
0.449154529
 10
-42.2518319281
 20
0.4652792188
 10
-42.2339383719
 20
0.4789362619
 10
-42.2156981288
 20
0.4898969854
  0
LWPOLYLINE
  5
279
100
AcDbEntity
  8
0
100
AcDbPolyline
 62
250
  6
CONTINUOUS
 90
22
 70
0
 10
-42.060827367
 20
18.5482927713
 10
-42.0552064233
 20
18.642284274
 10
-42.0444295202
 20
18.738191119
 10
-42.0285516989
 20
18.8355387661
 10
-42.0076562366
 20
18.933841368
 10
-41.9818465587
 20
19.0326176107
 10
-41.9512430933
 20
19.1313932279
 10
-41.9159932441
 20
19.2296946747
 10
-41.8762753971
 20
19.3270220533
 10
-41.832292432
 20
19.4228661446
 10
-41.7842777799
 20
19.5167359994
 10
-41.7324642744
 20
19.6081898877
 10
-41.6770832731
 20
19.6968057578
 10
-41.6183976048
 20
19.7821634512
 10
-41.5567100516
 20
19.8638209014
 10
-41.4923352707
 20
19.9413473536
 10
-41.4256068302
 20
20.0143517275
 10
-41.3568493857
 20
20.0824879106
 10
-41.2863830851
 20
20.1454269114
 10
-41.2145519588
 20
20.2028592681
 10
-41.1417232897
 20
20.2544995568
 10
-41.068261492
 20
20.3000927924
  0
LWPOLYLINE
  5
27A
100
AcDbEntity
  8
RACCORDO
100
AcDbPolyline
 62
250
  6
CONTINUOUS
 90
22
 70
0
 10
-42.060827367
 20
18.5482927713
 10
-42.0552064233
 20
18.642284274
 10
-42.0444295202
 20
18.738191119
 10
-42.0285516989
 20
18.8355387661
 10
-42.0076562366
 20
18.933841368
 10
-41.9818465587
 20
19.0326176107
 10
-41.9512430933
 20
19.1313932279
 10
-41.9159932441
 20
19.2296946747
 10
-41.8762753971
 20
19.3270220533
 10
-41.832292432
 20
19.4228661446
 10
-41.7842777799
 20
19.5167359994
 10
-41.7324642744
 20
19.6081898877
 10
-41.6770832731
 20
19.6968057578
 10
-41.6183976048
 20
19.7821634512
 10
-41.5567100516
 20
19.8638209014
 10
-41.4923352707
 20
19.9413473536
 10
-41.4256068302
 20
20.0143517275
 10
-41.3568493857
 20
20.0824879106
 10
-41.2863830851
 20
20.1454269114
 10
-41.2145519588
 20
20.2028592681
 10
-41.1417232897
 20
20.2544995568
 10
-41.068261492
 20
20.3000927924
  0
LWPOLYLINE
  5
27B
100
AcDbEntity
  8
RACCORDO
100
AcDbPolyline
 62
250
  6
CONTINUOUS
 90
7
 70
0
 10
-36.6955079209
 20
22.6232278481
 10
-36.691103407
 20
22.6351333299
 10
-36.687509046
 20
22.6474837802
 10
-36.6847248378
 20
22.660279199
 10
-36.6827507826
 20
22.6735195863
 10
-36.6815868801
 20
22.687204942
 10
-36.6812331306
 20
22.7013352662
  0
LWPOLYLINE
  5
27C
100
AcDbEntity
  8
RACCORDO
100
AcDbPolyline
 62
250
  6
CONTINUOUS
 90
12
 70
0
 10
-35.7144443748
 20
22.9710586048
 10
-35.727438662
 20
22.9419072922
 10
-35.7431920202
 20
22.9146845181
 10
-35.7614558515
 20
22.8898634708
 10
-35.7819515619
 20
22.8678668481
 10
-35.8043308819
 20
22.8491079104
 10
-35.828169129
 20
22.8339581673
 10
-35.8530408829
 20
22.8226831409
 10
-35.8785379065
 20
22.8154632599
 10
-35.9042239739
 20
22.8124217721
 10
-35.9296603082
 20
22.8136100512
 10
-35.9409667977
 20
22.8155338696
  0
LINE
  5
27D
100
AcDbEntity
  8
RACCORDO
100
AcDbLine
 62
250
  6
CONTINUOUS
 10
-33.5642042991
 20
23.9598975996
 11
-33.5656112786
 21
23.9579307961
  0
LINE
  5
27E
100
AcDbEntity
  8
RACCORDO
100
AcDbLine
 62
7
  6
CONTINUOUS
 10
-36.0512094176
 20
20.2229055681
 11
-36.327471341
 21
20.0793637463
  0
LINE
  5
27F
100
AcDbEntity
  8
RACCORDO
100
AcDbLine
 62
250
  6
CONTINUOUS
 10
-35.8250116525
 20
20.2100267607
 11
-36.1995684498
 21
20.0154123007
  0
LINE
  5
280
100
AcDbEntity
  8
RACCORDO
100
AcDbLine
 62
7
  6
CONTINUOUS
 10
-31.7391941657
 20
22.1781786367
 11
-31.3856525373
 21
22.3607981323
  0
LINE
  5
281
100
AcDbEntity
  8
RACCORDO
100
AcDbLine
 62
7
  6
CONTINUOUS
 10
-32.7414980164
 20
22.518275558
 11
-26.4764950317
 21
25.6257632246
  0
LINE
  5
282
100
AcDbEntity
  8
ASSI
100
AcDbLine
 62
7
  6
CONTINUOUS
 10
-25.7933383735
 20
24.4675893342
 11
-30.0421496531
 21
22.3885957821
  0
LINE
  5
283
100
AcDbEntity
  8
ASSI
100
AcDbLine
 62
7
  6
CONTINUOUS
 10
-31.3856525373
 20
22.3607981323
 11
-26.401190122
 21
24.7715152085
  0
LINE
  5
284
100
AcDbEntity
  8
RACCORDO
100
AcDbLine
 62
7
  6
CONTINUOUS
 10
-16.035022962
 20
28.9451924921
 11
-12.5642714428
 21
30.6063705214
  0
LINE
  5
285
100
AcDbEntity
  8
RACCORDO
100
AcDbLine
 62
7
  6
CONTINUOUS
 10
-13.6656479637
 20
30.9700193416
 11
-25.5119969747
 21
25.383313966
  0
LINE
  5
286
100
AcDbEntity
  8
RACCORDO
100
AcDbLine
 62
250
  6
CONTINUOUS
 10
-13.2267632132
 20
30.9376164066
 11
-25.2656194016
 21
25.2601251795
  0
LWPOLYLINE
  5
287
100
AcDbEntity
  8
RACCORDO
100
AcDbPolyline
 62
250
  6
CONTINUOUS
 90
26
 70
0
 10
-13.2267632132
 20
30.9376164066
 10
-13.2074908246
 20
30.9465185722
 10
-13.1882419201
 20
30.9547656885
 10
-13.1690308127
 20
30.9623516211
 10
-13.1498717924
 20
30.9692707251
 10
-13.1307791006
 20
30.9755178554
 10
-13.1117669192
 20
30.9810883687
 10
-13.0928493685
 20
30.9859781229
 10
-13.0740405334
 20
30.9901834728
 10
-13.0553544368
 20
30.993701281
 10
-13.0368049865
 20
30.9965289301
 10
-13.0184059625
 20
30.99866432
 10
-13.0001710434
 20
31.0001058632
 10
-12.9821137869
 20
31.0008524875
 10
-12.9642476217
 20
31.0009036372
 10
-12.9465858356
 20
31.0002592741
 10
-12.9291415622
 20
30.9989198775
 10
-12.911927772
 20
30.9968864433
 10
-12.894957265
 20
30.9941604836
 10
-12.8782426602
 20
30.9907440253
 10
-12.8617963862
 20
30.9866396088
 10
-12.8456306724
 20
30.9818502861
 10
-12.8297575392
 20
30.9763796186
 10
-12.8141887896
 20
30.970231674
 10
-12.7989360005
 20
30.963411024
 10
-12.7918903327
 20
30.9599797362
  0
LINE
  5
288
100
AcDbEntity
  8
RACCORDO
100
AcDbLine
 62
250
  6
CONTINUOUS
 10
-20.7436954805
 20
-23.4151686424
 11
-20.3063885941
 21
-23.6338220856
  0
LINE
  5
289
100
AcDbEntity
  8
RACCORDO
100
AcDbLine
 62
7
  6
CONTINUOUS
 10
-20.7436954805
 20
-23.4115484929
 11
-20.2829735429
 21
-23.6419094616
  0
LINE
  5
28A
100
AcDbEntity
  8
RACCORDO
100
AcDbLine
 62
250
  6
CONTINUOUS
 10
-20.2839484526
 20
-23.6473521258
 11
-20.3063885941
 21
-23.6338220856
  0
LINE
  5
28B
100
AcDbEntity
  8
RACCORDO
100
AcDbLine
 62
250
  6
CONTINUOUS
 10
-21.7485111887
 20
-23.3808455553
 11
-21.7601510449
 21
-23.3734008778
  0
LINE
  5
28C
100
AcDbEntity
  8
0
100
AcDbLine
 62
7
  6
CONTINUOUS
 10
-16.093358644
 20
26.858320022
 11
-15.5262556435
 21
27.1573646476
  0
LINE
  5
28D
100
AcDbEntity
  8
RACCORDO
100
AcDbLine
 62
7
  6
CONTINUOUS
 10
-23.9774603907
 20
23.2562913639
 11
-25.4699792427
 21
22.5100319379
  0
LINE
  5
28E
100
AcDbEntity
  8
0
100
AcDbLine
 62
7
  6
CONTINUOUS
 10
-15.3979682147
 20
26.9342729162
 11
-14.9029934679
 21
27.1817602896
  0
LWPOLYLINE
  5
28F
100
AcDbEntity
  8
RACCORDO
100
AcDbPolyline
 62
7
  6
CONTINUOUS
 90
6
 70
0
 10
-26.3653121872
 20
21.7709622587
 10
-26.3730267114
 20
21.7671425199
 10
-26.3811140428
 20
21.7625500792
 10
-26.3889200985
 20
21.7574850944
 10
-26.3964423238
 20
21.7519495001
 10
-26.4033215161
 20
21.7462554901
  0
LINE
  5
290
100
AcDbEntity
  8
0
100
AcDbLine
 62
7
  6
CONTINUOUS
 10
-15.8293033512
 20
27.912125748
 11
-11.6573733422
 21
29.9535003862
  0
LWPOLYLINE
  5
291
100
AcDbEntity
  8
ASSI
100
AcDbPolyline
 62
7
  6
CONTINUOUS
 90
73
 70
0
 10
-15.1575519091
 20
27.7809791658
 10
-15.1146337352
 20
27.8019736699
 10
-15.0708528496
 20
27.8224763069
 10
-15.0262092523
 20
27.8424870769
 10
-14.9806808813
 20
27.8620150328
 10
-14.9342897986
 20
27.8810511216
 10
-14.8871021906
 20
27.8995681845
 10
-14.8391169204
 20
27.9175654806
 10
-14.790335125
 20
27.9350437507
 10
-14.7408264016
 20
27.9519780585
 10
-14.6905897126
 20
27.9683676276
 10
-14.6396260957
 20
27.9842132344
 10
-14.5880082608
 20
27.9994922718
 10
-14.5357352742
 20
28.0142039312
 10
-14.4828080698
 20
28.0283490213
 10
-14.4293021589
 20
28.0419073612
 10
-14.3752167157
 20
28.0548781134
 10
-14.3205525661
 20
28.0672621154
 10
-14.2653876998
 20
28.0790416988
 10
-14.2097214021
 20
28.090216001
 10
-14.1535543877
 20
28.1007858847
 10
-14.0969667904
 20
28.1107362697
 10
-14.0399580099
 20
28.1200662718
 10
-13.9825286464
 20
28.1287767753
 10
-13.9247606349
 20
28.1368553528
 10
-13.8666534918
 20
28.1443011023
 10
-13.8082077007
 20
28.1511149259
 10
-13.7495066464
 20
28.1572871022
 10
-13.6905499645
 20
28.1628167153
 10
-13.6313380196
 20
28.1677046811
 10
-13.5719552894
 20
28.171944026
 10
-13.5124015304
 20
28.1755338241
 10
-13.4526769862
 20
28.1784750012
 10
-13.3928668662
 20
28.1807633611
 10
-13.3329710483
 20
28.182397972
 10
-13.2729896546
 20
28.1833797658
 10
-13.2130082608
 20
28.1837073416
 10
-13.1530268671
 20
28.1833797658
 10
-13.0930454734
 20
28.182397972
 10
-13.0331496554
 20
28.1807633611
 10
-12.9733395355
 20
28.1784750012
 10
-12.9136149913
 20
28.1755338241
 10
-12.8540612322
 20
28.171944026
 10
-12.7946785021
 20
28.1677046811
 10
-12.7354665571
 20
28.1628167153
 10
-12.6765098753
 20
28.1572871022
 10
-12.617808821
 20
28.1511149259
 10
-12.5593630298
 20
28.1443011023
 10
-12.5012558868
 20
28.1368553528
 10
-12.4434878752
 20
28.1287767753
 10
-12.3860585118
 20
28.1200662718
 10
-12.3290497312
 20
28.1107362697
 10
-12.2724621339
 20
28.1007858847
 10
-12.2162951195
 20
28.090216001
 10
-12.1606288218
 20
28.0790416988
 10
-12.1054639555
 20
28.0672621154
 10
-12.050799806
 20
28.0548781134
 10
-11.9967143627
 20
28.0419073612
 10
-11.9432084519
 20
28.0283490213
 10
-11.8902812474
 20
28.0142039312
 10
-11.8380082608
 20
27.9994922718
 10
-11.786390426
 20
27.9842132344
 10
-11.735426809
 20
27.9683676276
 10
-11.68519012
 20
27.9519780585
 10
-11.6356813966
 20
27.9350437507
 10
-11.5868996012
 20
27.9175654806
 10
-11.5389143311
 20
27.8995681845
 10
-11.4917267231
 20
27.8810511216
 10
-11.4453356404
 20
27.8620150328
 10
-11.3998072693
 20
27.8424870769
 10
-11.3551636721
 20
27.8224763069
 10
-11.3113827865
 20
27.8019736699
 10
-11.2684646126
 20
27.7809791658
  0
LINE
  5
292
100
AcDbEntity
  8
RACCORDO
100
AcDbLine
 62
250
  6
CONTINUOUS
 10
-26.0923538842
 20
21.779682748
 11
-26.0454260318
 21
21.80232919
  0
LINE
  5
293
100
AcDbEntity
  8
RACCORDO
100
AcDbLine
 62
7
  6
CONTINUOUS
 10
-15.8293033512
 20
28.3859888003
 11
-11.7384727293
 21
30.3439503291
  0
LINE
  5
294
100
AcDbEntity
  8
RACCORDO
100
AcDbLine
 62
7
  6
CONTINUOUS
 10
-26.435905069
 20
22.8946293672
 11
-25.3951789184
 21
23.3927437975
  0
LINE
  5
295
100
AcDbEntity
  8
RACCORDO
100
AcDbLine
 62
7
  6
CONTINUOUS
 10
-25.4699792427
 20
23.010947591
 11
-23.3122945169
 21
24.0436629672
  0
LINE
  5
296
100
AcDbEntity
  8
RACCORDO
100
AcDbLine
 62
250
  6
CONTINUOUS
 10
-26.0454260318
 20
21.80232919
 11
-26.0335913221
 21
21.8079655412
  0
LINE
  5
297
100
AcDbEntity
  8
RACCORDO
100
AcDbLine
 62
250
  6
CONTINUOUS
 10
-26.1028015886
 20
21.7747080773
 11
-26.0923538842
 21
21.779682748
  0
LINE
  5
298
100
AcDbEntity
  8
RACCORDO
100
AcDbLine
 62
250
  6
CONTINUOUS
 10
-26.0335913221
 20
21.8079655412
 11
-26.0244706786
 21
21.8122564619
  0
LINE
  5
299
100
AcDbEntity
  8
RACCORDO
100
AcDbLine
 62
250
  6
CONTINUOUS
 10
-26.1105384703
 20
21.7710732278
 11
-26.1028015886
 21
21.7747080773
  0
LINE
  5
29A
100
AcDbEntity
  8
RACCORDO
100
AcDbLine
 62
250
  6
CONTINUOUS
 10
-26.0244706786
 20
21.8122564619
 11
-26.0151240948
 21
21.8165964496
  0
LINE
  5
29B
100
AcDbEntity
  8
RACCORDO
100
AcDbLine
 62
250
  6
CONTINUOUS
 10
-26.1531162044
 20
21.7513964654
 11
-26.1105384703
 21
21.7710732278
  0
LINE
  5
29C
100
AcDbEntity
  8
RACCORDO
100
AcDbLine
 62
7
  6
CONTINUOUS
 10
-26.3142564578
 20
21.7945013871
 11
-26.3653132701
 21
21.7709617586
  0
LINE
  5
29D
100
AcDbEntity
  8
RACCORDO
100
AcDbLine
 62
250
  6
CONTINUOUS
 10
-26.0151240948
 20
21.8165964496
 11
-26.0055374946
 21
21.8209802165
  0
LWPOLYLINE
  5
29E
100
AcDbEntity
  8
RACCORDO
100
AcDbPolyline
 62
250
  6
CONTINUOUS
 90
17
 70
0
 10
-25.1611433653
 20
21.8787020007
 10
-25.1553299199
 20
21.8813378681
 10
-25.149530489
 20
21.8836741244
 10
-25.1437548866
 20
21.8857068161
 10
-25.1380128866
 20
21.8874325032
 10
-25.1323142059
 20
21.8888482656
 10
-25.126668488
 20
21.8899517074
 10
-25.1210852871
 20
21.8907409613
 10
-25.1155740513
 20
21.8912146916
 10
-25.110144107
 20
21.8913720968
 10
-25.104804643
 20
21.8912129104
 10
-25.0995646952
 20
21.8907374019
 10
-25.0944331307
 20
21.8899463758
 10
-25.0894186335
 20
21.888841171
 10
-25.0845296895
 20
21.8874236575
 10
-25.0797745719
 20
21.8856962343
 10
-25.075232672
 20
21.8836932868
  0
LWPOLYLINE
  5
29F
100
AcDbEntity
  8
RACCORDO
100
AcDbPolyline
 62
250
  6
CONTINUOUS
 90
22
 70
0
 10
-26.3314669205
 20
21.7865931244
 10
-26.3283386075
 20
21.7880030564
 10
-26.319090145
 20
21.7917769505
 10
-26.3096305308
 20
21.7950594059
 10
-26.2999698904
 20
21.7978469091
 10
-26.2901185648
 20
21.8001364763
 10
-26.2800870988
 20
21.8019256568
 10
-26.2698862303
 20
21.8032125352
 10
-26.2595268784
 20
21.8039957342
 10
-26.2490201318
 20
21.8042744155
 10
-26.2383772371
 20
21.8040482806
 10
-26.2276095865
 20
21.8033175718
 10
-26.2167287058
 20
21.802083071
 10
-26.2057462421
 20
21.8003460998
 10
-26.194673951
 20
21.7981085174
 10
-26.1835236845
 20
21.795372719
 10
-26.1723073779
 20
21.7921416329
 10
-26.1610370373
 20
21.7884187178
 10
-26.1497247266
 20
21.7842079586
 10
-26.1383825545
 20
21.7795138627
 10
-26.1270226619
 20
21.7743414547
 10
-26.1156572085
 20
21.768696271
  0
LINE
  5
2A0
100
AcDbEntity
  8
RACCORDO
100
AcDbLine
 62
250
  6
CONTINUOUS
 10
-26.0055374946
 20
21.8209802165
 11
-25.9990064445
 21
21.8239243862
  0
LINE
  5
2A1
100
AcDbEntity
  8
RACCORDO
100
AcDbLine
 62
250
  6
CONTINUOUS
 10
-25.9990064445
 20
21.8239243862
 11
-25.9923581557
 21
21.8268835848
  0
LINE
  5
2A2
100
AcDbEntity
  8
RACCORDO
100
AcDbLine
 62
250
  6
CONTINUOUS
 10
-25.9923581557
 20
21.8268835848
 11
-25.9855895954
 21
21.8298565199
  0
LINE
  5
2A3
100
AcDbEntity
  8
RACCORDO
100
AcDbLine
 62
250
  6
CONTINUOUS
 10
-25.9855895954
 20
21.8298565199
 11
-25.9786960946
 21
21.8328412893
  0
LINE
  5
2A4
100
AcDbEntity
  8
RACCORDO
100
AcDbLine
 62
250
  6
CONTINUOUS
 10
-25.9786960946
 20
21.8328412893
 11
-25.9716731541
 21
21.8358358513
  0
LINE
  5
2A5
100
AcDbEntity
  8
RACCORDO
100
AcDbLine
 62
250
  6
CONTINUOUS
 10
-25.9716731541
 20
21.8358358513
 11
-25.9645178677
 21
21.8388387919
  0
LINE
  5
2A6
100
AcDbEntity
  8
RACCORDO
100
AcDbLine
 62
250
  6
CONTINUOUS
 10
-25.9645178677
 20
21.8388387919
 11
-25.9572260127
 21
21.8418479113
  0
LINE
  5
2A7
100
AcDbEntity
  8
RACCORDO
100
AcDbLine
 62
250
  6
CONTINUOUS
 10
-25.9572260127
 20
21.8418479113
 11
-25.9497935181
 21
21.8448608852
  0
LINE
  5
2A8
100
AcDbEntity
  8
RACCORDO
100
AcDbLine
 62
250
  6
CONTINUOUS
 10
-25.9497935181
 20
21.8448608852
 11
-25.9422177314
 21
21.8478761261
  0
LINE
  5
2A9
100
AcDbEntity
  8
RACCORDO
100
AcDbLine
 62
250
  6
CONTINUOUS
 10
-25.9422177314
 20
21.8478761261
 11
-25.9344947421
 21
21.8508912041
  0
LINE
  5
2AA
100
AcDbEntity
  8
RACCORDO
100
AcDbLine
 62
250
  6
CONTINUOUS
 10
-25.9344947421
 20
21.8508912041
 11
-25.9266209529
 21
21.8539035054
  0
LINE
  5
2AB
100
AcDbEntity
  8
RACCORDO
100
AcDbLine
 62
250
  6
CONTINUOUS
 10
-25.9266209529
 20
21.8539035054
 11
-25.9185940242
 21
21.8569112534
  0
LINE
  5
2AC
100
AcDbEntity
  8
RACCORDO
100
AcDbLine
 62
250
  6
CONTINUOUS
 10
-25.9185940242
 20
21.8569112534
 11
-25.9104105984
 21
21.8599117078
  0
LINE
  5
2AD
100
AcDbEntity
  8
RACCORDO
100
AcDbLine
 62
250
  6
CONTINUOUS
 10
-25.9104105984
 20
21.8599117078
 11
-25.9020672405
 21
21.862902093
  0
LINE
  5
2AE
100
AcDbEntity
  8
RACCORDO
100
AcDbLine
 62
250
  6
CONTINUOUS
 10
-25.9020672405
 20
21.862902093
 11
-25.8935616792
 21
21.8658805336
  0
LINE
  5
2AF
100
AcDbEntity
  8
RACCORDO
100
AcDbLine
 62
250
  6
CONTINUOUS
 10
-25.8935616792
 20
21.8658805336
 11
-25.8848903664
 21
21.8688442381
  0
LINE
  5
2B0
100
AcDbEntity
  8
RACCORDO
100
AcDbLine
 62
250
  6
CONTINUOUS
 10
-25.8848903664
 20
21.8688442381
 11
-25.8760507711
 21
21.8717899912
  0
LINE
  5
2B1
100
AcDbEntity
  8
RACCORDO
100
AcDbLine
 62
250
  6
CONTINUOUS
 10
-25.8760507711
 20
21.8717899912
 11
-25.8670412114
 21
21.874715639
  0
LINE
  5
2B2
100
AcDbEntity
  8
RACCORDO
100
AcDbLine
 62
250
  6
CONTINUOUS
 10
-25.8670412114
 20
21.874715639
 11
-25.8578592652
 21
21.8776178979
  0
LINE
  5
2B3
100
AcDbEntity
  8
RACCORDO
100
AcDbLine
 62
250
  6
CONTINUOUS
 10
-25.8578592652
 20
21.8776178979
 11
-25.8485028783
 21
21.8804933116
  0
LINE
  5
2B4
100
AcDbEntity
  8
RACCORDO
100
AcDbLine
 62
250
  6
CONTINUOUS
 10
-25.8485028783
 20
21.8804933116
 11
-25.8389708102
 21
21.8833395269
  0
LINE
  5
2B5
100
AcDbEntity
  8
RACCORDO
100
AcDbLine
 62
250
  6
CONTINUOUS
 10
-25.8389708102
 20
21.8833395269
 11
-25.8292613538
 21
21.8861529482
  0
LINE
  5
2B6
100
AcDbEntity
  8
CURVE
100
AcDbLine
 62
250
  6
CONTINUOUS
 10
-38.0176037539
 20
-11.0221508496
 11
-31.6536427232
 21
-14.2041313649
  0
LWPOLYLINE
  5
2B7
100
AcDbEntity
  8
RACCORDO
100
AcDbPolyline
 62
250
  6
CONTINUOUS
 90
3
 70
0
 10
-21.7601510449
 20
-23.3734008778
 10
-21.7746785951
 20
-23.3598787714
 10
-21.7868039756
 20
-23.3430143376
  0
LINE
  5
2B8
100
AcDbEntity
  8
RACCORDO
100
AcDbLine
 62
7
  6
CONTINUOUS
 10
-37.4553923891
 20
24.0523761873
 11
-37.4553923891
 21
23.7180752601
  0
LINE
  5
2B9
100
AcDbEntity
  8
RACCORDO
100
AcDbLine
 62
250
  6
CONTINUOUS
 10
-37.3821690844
 20
23.9639878396
 11
-37.3821690844
 21
23.6296869125
  0
LINE
  5
2BA
100
AcDbEntity
  8
RACCORDO
100
AcDbLine
 62
7
  6
CONTINUOUS
 10
-37.0879323252
 20
20.4595942384
 11
-37.0879323252
 21
22.557606212
  0
LINE
  5
2BB
100
AcDbEntity
  8
RACCORDO
100
AcDbLine
 62
250
  6
CONTINUOUS
 10
-37.0147090205
 20
20.422982586
 11
-37.0147090205
 21
22.4692179349
  0
LINE
  5
2BC
100
AcDbEntity
  8
RACCORDO
100
AcDbLine
 62
7
  6
CONTINUOUS
 10
-36.7544562265
 20
22.7895620544
 11
-36.7544564353
 21
23.213098786
  0
LINE
  5
2BD
100
AcDbEntity
  8
RACCORDO
100
AcDbLine
 62
250
  6
CONTINUOUS
 10
-36.6812331306
 20
22.7013352662
 11
-36.6812331306
 21
23.1764871337
  0
LWPOLYLINE
  5
2BE
100
AcDbEntity
  8
RACCORDO
100
AcDbPolyline
 62
250
  6
CONTINUOUS
 90
16
 70
0
 10
-37.0147090205
 20
22.4692179349
 10
-37.013816241
 20
22.4883744445
 10
-37.0113305621
 20
22.5061312181
 10
-37.0072519837
 20
22.5224882556
 10
-37.0014982283
 20
22.5376107593
 10
-36.9941515734
 20
22.551333527
 10
-36.9854588519
 20
22.563160952
 10
-36.9753757367
 20
22.5730160306
 10
-36.9639465547
 20
22.5809757666
 10
-36.9515511198
 20
22.5867755642
 10
-36.9381477771
 20
22.59033902
 10
-36.9237781815
 20
22.5917425375
 10
-36.908947111
 20
22.5909507319
 10
-36.8938228251
 20
22.5879518085
 10
-36.8782370644
 20
22.5827575621
 10
-36.8621898288
 20
22.5753679927
  0
LWPOLYLINE
  5
2BF
100
AcDbEntity
  8
RACCORDO
100
AcDbPolyline
 62
250
  6
CONTINUOUS
 90
13
 70
0
 10
-37.3821690844
 20
23.9639878396
 10
-37.3807378306
 20
23.9921982697
 10
-37.3764278667
 20
24.0215877654
 10
-37.3692513931
 20
24.0516891631
 10
-37.3592451981
 20
24.0820751538
 10
-37.34653748
 20
24.1121573721
 10
-37.3314052447
 20
24.1412122448
 10
-37.314147796
 20
24.1686835512
 10
-37.2950304013
 20
24.1941651664
 10
-37.2743865
 20
24.217214826
 10
-37.2525724642
 20
24.237439117
 10
-37.2299597967
 20
24.2544978559
 10
-37.2069350372
 20
24.2681029703
  0
LWPOLYLINE
  5
2C0
100
AcDbEntity
  8
RACCORDO
100
AcDbPolyline
 62
250
  6
CONTINUOUS
 90
13
 70
0
 10
-36.0664483862
 20
23.3061274905
 10
-36.0650171324
 20
23.3343379205
 10
-36.0607071684
 20
23.3637274162
 10
-36.0535306949
 20
23.393828814
 10
-36.0435244998
 20
23.4242148047
 10
-36.0308167817
 20
23.4542970229
 10
-36.0156845464
 20
23.4833518957
 10
-35.9984270977
 20
23.5108232021
 10
-35.9793097031
 20
23.5363048173
 10
-35.9586658018
 20
23.5593544769
 10
-35.936851766
 20
23.5795787679
 10
-35.9142390985
 20
23.5966375068
 10
-35.891214339
 20
23.6102426211
  0
LWPOLYLINE
  5
2C1
100
AcDbEntity
  8
0
100
AcDbPolyline
 62
250
  6
CONTINUOUS
 90
7
 70
0
 10
-42.2941672675
 20
0.6354385107
 10
-42.2866291626
 20
0.6481705898
 10
-42.276929904
 20
0.6606400098
 10
-42.2653285307
 20
0.6725490436
 10
-42.251911389
 20
0.683798449
 10
-42.2365921325
 20
0.6944874682
 10
-42.2193707612
 20
0.7046161012
  0
LWPOLYLINE
  5
2C2
100
AcDbEntity
  8
RACCORDO
100
AcDbPolyline
 62
250
  6
CONTINUOUS
 90
7
 70
0
 10
-42.2941672675
 20
0.6354385107
 10
-42.2866291626
 20
0.6481705898
 10
-42.276929904
 20
0.6606400098
 10
-42.2653285307
 20
0.6725490436
 10
-42.251911389
 20
0.683798449
 10
-42.2365921325
 20
0.6944874682
 10
-42.2193707612
 20
0.7046161012
  0
LINE
  5
2C3
100
AcDbEntity
  8
RACCORDO
100
AcDbLine
 62
7
  6
CONTINUOUS
 10
-27.2592542358
 20
20.9971480735
 11
-26.4033210116
 21
21.7462557315
  0
LINE
  5
2C4
100
AcDbEntity
  8
RACCORDO
100
AcDbLine
 62
250
  6
CONTINUOUS
 10
-27.105351681
 20
20.9201967961
 11
-26.1547211292
 21
21.7521829911
  0
LINE
  5
2C5
100
AcDbEntity
  8
RACCORDO
100
AcDbLine
 62
7
  6
CONTINUOUS
 10
-25.5207506359
 20
19.0689568718
 11
-25.1631128629
 21
19.249528295
  0
LINE
  5
2C6
100
AcDbEntity
  8
RACCORDO
100
AcDbLine
 62
7
  6
CONTINUOUS
 10
-12.4348155553
 20
27.3622601419
 11
-13.7462798664
 21
26.7065279864
  0
LINE
  5
2C7
100
AcDbEntity
  8
RACCORDO
100
AcDbLine
 62
7
  6
CONTINUOUS
 10
-11.5862848476
 20
26.9379973584
 11
-12.3429550979
 21
26.5596622332
  0
LINE
  5
2C8
100
AcDbEntity
  8
ASSI
100
AcDbLine
 62
7
  6
CONTINUOUS
 10
-25.1631128629
 20
19.249528295
 11
-20.2357391567
 21
21.6887897258
  0
LINE
  5
2C9
100
AcDbEntity
  8
ASSI
100
AcDbLine
 62
7
  6
CONTINUOUS
 10
-20.8435909052
 20
21.9927156001
 11
-25.0924021848
 21
19.913722048
  0
LINE
  5
2CA
100
AcDbEntity
  8
RACCORDO
100
AcDbLine
 62
7
  6
CONTINUOUS
 10
-8.2509200776
 20
28.4496948387
 11
-11.7216715967
 21
26.7885168095
  0
LINE
  5
2CB
100
AcDbEntity
  8
RACCORDO
100
AcDbLine
 62
7
  6
CONTINUOUS
 10
-19.7160195133
 20
21.6129777883
 11
-19.0696538297
 21
21.9223426236
  0
LWPOLYLINE
  5
2CC
100
AcDbEntity
  8
SMUSSO
100
AcDbPolyline
 62
7
  6
CONTINUOUS
 90
88
 70
0
 10
-11.7216715967
 20
26.7885168095
 10
-11.7724550344
 20
26.7646411277
 10
-11.824327784
 20
26.7413888385
 10
-11.8772898456
 20
26.718759942
 10
-11.9313705968
 20
26.6967431123
 10
-11.9865406601
 20
26.6753496752
 10
-12.0427119023
 20
26.6546136083
 10
-12.0998866045
 20
26.6345356808
 10
-12.1580624856
 20
26.6151151235
 10
-12.2171445695
 20
26.5963836064
 10
-12.2771343006
 20
26.5783422682
 10
-12.3380302345
 20
26.5609899701
 10
-12.399733062
 20
26.5443549666
 10
-12.4622441371
 20
26.5284384216
 10
-12.5255621057
 20
26.5132391711
 10
-12.5895835968
 20
26.4987819771
 10
-12.6543097181
 20
26.4850680622
 10
-12.7197393618
 20
26.4720962038
 10
-12.7857658335
 20
26.4598874949
 10
-12.8523901307
 20
26.4484431787
 10
-12.919611256
 20
26.4377620122
 10
-12.987319522
 20
26.4278613593
 10
-13.0555157054
 20
26.4187424991
 10
-13.1241990296
 20
26.4104041527
 10
-13.1932574771
 20
26.4028598471
 10
-13.2626916437
 20
26.3961108806
 10
-13.3325009336
 20
26.3901559551
 10
-13.402571543
 20
26.3850047032
 10
-13.4729039253
 20
26.3806584366
 10
-13.5434976271
 20
26.3771158436
 10
-13.6142374837
 20
26.3743826219
 10
-13.6851236623
 20
26.3724600943
 10
-13.7561559957
 20
26.3713469378
 10
-13.8272188173
 20
26.3710448815
 10
-13.8983122557
 20
26.3715552501
 10
-13.9694361824
 20
26.3728767188
 10
-14.0404745447
 20
26.3750070421
 10
-14.111427084
 20
26.3779475348
 10
-14.1822940591
 20
26.3816968821
 10
-14.2529601936
 20
26.3862488938
 10
-14.3234252745
 20
26.3916048876
 10
-14.3936895148
 20
26.3977635458
 10
-14.4636382774
 20
26.4047147251
 10
-14.5332708269
 20
26.4124596885
 10
-14.6025878986
 20
26.420997173
 10
-14.6714770608
 20
26.4303132462
 10
-14.7399376313
 20
26.4404091587
 10
-14.8079702923
 20
26.45128366
 10
-14.875464659
 20
26.4629190657
 10
-14.9424199313
 20
26.4753166151
 10
-15.0088369093
 20
26.4884750689
 10
-15.0746076077
 20
26.5023730258
 10
-15.139731076
 20
26.5170117119
 10
-15.2042082648
 20
26.5323899011
 10
-15.267934041
 20
26.548482514
 10
-15.3309071044
 20
26.5652906958
 10
-15.3931287552
 20
26.5828133013
 10
-15.4544977603
 20
26.6010218157
 10
-15.515012783
 20
26.6199173712
 10
-15.5746751601
 20
26.6394988356
 10
-15.6333876694
 20
26.6597342966
 10
-15.6911487275
 20
26.6806248073
 10
-15.7479599178
 20
26.7021693146
 10
-15.8037287686
 20
26.7243327464
 10
-15.8584536041
 20
26.7471161192
 10
-15.9121361001
 20
26.7705184166
 10
-15.9646888124
 20
26.7945015167
 10
-16.0161098852
 20
26.8190663585
 10
-16.0664011744
 20
26.8442120031
 10
-16.1154808026
 20
26.8698975119
 10
-16.1633468105
 20
26.8961237718
 10
-16.2100011575
 20
26.9228898959
 10
-16.2553678447
 20
26.9501522844
 10
-16.299444758
 20
26.9779117347
 10
-16.3422340116
 20
27.0061674493
 10
-16.3836659491
 20
27.0348734364
 10
-16.4237383834
 20
27.0640304473
 10
-16.4624535017
 20
27.0936377306
 10
-16.4997482089
 20
27.1236470399
 10
-16.5356201616
 20
27.1540590045
 10
-16.5700717032
 20
27.1848729952
 10
-16.6030467696
 20
27.2160388783
 10
-16.634542992
 20
27.2475572646
 10
-16.6645627391
 20
27.2794275434
 10
-16.6930570532
 20
27.3115977485
 10
-16.7200234077
 20
27.3440683181
 10
-16.7454643292
 20
27.376838814
 10
-16.7679925247
 20
27.4079468813
  0
LWPOLYLINE
  5
2CD
100
AcDbEntity
  8
RACCORDO
100
AcDbPolyline
 62
7
  6
CONTINUOUS
 90
10
 70
0
 10
-11.5863137435
 20
26.9379829104
 10
-11.5749172792
 20
26.9431515657
 10
-11.5636968768
 20
26.9472034621
 10
-11.552652536
 20
26.9501385996
 10
-11.5416892771
 20
26.9519571309
 10
-11.53090208
 20
26.9526589034
 10
-11.5205758845
 20
26.952243459
 10
-11.5108056708
 20
26.9507106452
 10
-11.5014964588
 20
26.9480606144
 10
-11.4926482485
 20
26.9442933668
  0
LWPOLYLINE
  5
2CE
100
AcDbEntity
  8
RACCORDO
100
AcDbPolyline
 62
7
  6
CONTINUOUS
 90
12
 70
0
 10
-19.0696538297
 20
21.9223426236
 10
-19.0236390583
 20
21.9424898557
 10
-18.9782445059
 20
21.9587912413
 10
-18.9334701726
 20
21.9712467805
 10
-18.8891342663
 20
21.9798763666
 10
-18.845418579
 20
21.9846601062
 10
-18.802868487
 20
21.9855383198
 10
-18.7614985924
 20
21.9824620804
 10
-18.721294293
 20
21.9754803149
 10
-18.6827571586
 20
21.9646801246
 10
-18.6459080749
 20
21.9500136736
 10
-18.6347600763
 20
21.944695516
  0
LINE
  5
2CF
100
AcDbEntity
  8
RACCORDO
100
AcDbLine
 62
7
  6
CONTINUOUS
 10
-26.2258152428
 20
18.8945148763
 11
-26.1999752682
 21
18.9021953078
  0
LWPOLYLINE
  5
2D0
100
AcDbEntity
  8
RACCORDO
100
AcDbPolyline
 62
7
  6
CONTINUOUS
 90
11
 70
0
 10
-26.1999752682
 20
18.9021953078
 10
-26.1424547569
 20
18.918722722
 10
-26.1110297676
 20
18.9280360213
 10
-26.0779438383
 20
18.937976752
 10
-26.043118808
 20
18.9478023733
 10
-26.0067383409
 20
18.9578067877
 10
-25.9689290401
 20
18.9679070026
 10
-25.929523776
 20
18.9768550222
 10
-25.8886151707
 20
18.9843457414
 10
-25.8465790131
 20
18.9909686488
 10
-25.8037151021
 20
18.9968505294
  0
LINE
  5
2D1
100
AcDbEntity
  8
RACCORDO
100
AcDbLine
 62
7
  6
CONTINUOUS
 10
-23.0602807704
 20
-15.2227615824
 11
-23.1832138756
 21
-15.1612950299
  0
LWPOLYLINE
  5
2D2
100
AcDbEntity
  8
RACCORDO
100
AcDbPolyline
 62
250
  6
CONTINUOUS
 90
13
 70
0
 10
-21.8151680039
 20
-24.372853634
 10
-21.8282635534
 20
-24.3533907994
 10
-21.8441178541
 20
-24.3327420963
 10
-21.8624611372
 20
-24.3112588726
 10
-21.8829812829
 20
-24.2893066757
 10
-21.9053291308
 20
-24.2672590331
 10
-21.9291244215
 20
-24.2454910961
 10
-21.9539622664
 20
-24.2243732568
 10
-21.9794200375
 20
-24.2042648455
 10
-22.0050645583
 20
-24.1855080166
 10
-22.030459475
 20
-24.1684219269
 10
-22.0551726805
 20
-24.1532973043
 10
-22.0787836676
 20
-24.1403915017
  0
LWPOLYLINE
  5
2D3
100
AcDbEntity
  8
RACCORDO
100
AcDbPolyline
 62
250
  6
CONTINUOUS
 90
13
 70
0
 10
-22.3501262104
 20
-25.0107046168
 10
-22.3631204975
 20
-24.9913821509
 10
-22.3788738557
 20
-24.9708423543
 10
-22.3971376871
 20
-24.9494248528
 10
-22.4176333974
 20
-24.9274720136
 10
-22.4400127175
 20
-24.9053709005
 10
-22.4638509646
 20
-24.8835464361
 10
-22.4887227185
 20
-24.8623863817
 10
-22.514219742
 20
-24.8422364039
 10
-22.5399058095
 20
-24.8234411483
 10
-22.5653421438
 20
-24.8063214741
 10
-22.5900949506
 20
-24.7911691337
 10
-22.6137418741
 20
-24.7782424844
  0
LWPOLYLINE
  5
2D4
100
AcDbEntity
  8
RACCORDO
100
AcDbPolyline
 62
250
  6
CONTINUOUS
 90
9
 70
0
 10
-37.3821690844
 20
23.6296869125
 10
-37.3809617641
 20
23.6050300931
 10
-37.3773562872
 20
23.5819173542
 10
-37.371401891
 20
23.5606644077
 10
-37.3631643544
 20
23.541531659
 10
-37.3527645469
 20
23.5248184044
 10
-37.3404117535
 20
23.5108170292
 10
-37.3263275036
 20
23.4996930198
 10
-37.317195788
 20
23.4944684624
  0
LWPOLYLINE
  5
2D5
100
AcDbEntity
  8
RACCORDO
100
AcDbPolyline
 62
250
  6
CONTINUOUS
 90
9
 70
0
 10
-36.0664483862
 20
22.9718265633
 10
-36.0652888002
 20
22.9476486032
 10
-36.0618017486
 20
22.9248359406
 10
-36.0559984432
 20
22.9037158873
 10
-36.0479069818
 20
22.884570642
 10
-36.0376119482
 20
22.867730984
 10
-36.0252894277
 20
22.8535293196
 10
-36.0111333439
 20
22.8421767412
 10
-36.0014787758
 20
22.8366099563
  0
LINE
  5
2D6
100
AcDbEntity
  8
RACCORDO
100
AcDbLine
 62
250
  6
CONTINUOUS
 10
-36.0664483862
 20
22.9718265633
 11
-36.0664483862
 21
23.3061274905
  0
LINE
  5
2D7
100
AcDbEntity
  8
RACCORDO
100
AcDbLine
 62
250
  6
CONTINUOUS
 10
-35.7144443748
 20
22.9710586048
 11
-35.7144443748
 21
23.305359532
  0
LINE
  5
2D8
100
AcDbEntity
  8
RACCORDO
100
AcDbLine
 62
250
  6
CONTINUOUS
 10
-35.3531707776
 20
22.6972945402
 11
-35.3531707776
 21
21.8360265223
  0
LINE
  5
2D9
100
AcDbEntity
  8
RACCORDO
100
AcDbLine
 62
250
  6
CONTINUOUS
 10
-35.0011667662
 20
22.8215265817
 11
-35.0011667662
 21
22.051764916
  0
LINE
  5
2DA
100
AcDbEntity
  8
RACCORDO
100
AcDbLine
 62
7
  6
CONTINUOUS
 10
-34.1080136449
 20
22.6797512796
 11
-34.1080136449
 21
24.1116983616
  0
LWPOLYLINE
  5
2DB
100
AcDbEntity
  8
RACCORDO
100
AcDbPolyline
 62
250
  6
CONTINUOUS
 90
7
 70
0
 10
-33.5090951062
 20
24.4618844232
 10
-33.5109759254
 20
24.4465802396
 10
-33.5170923121
 20
24.4305210383
 10
-33.5273440825
 20
24.4150030223
 10
-33.5415505967
 20
24.4002922435
 10
-33.5594664451
 20
24.3866375002
 10
-33.5807824939
 20
24.3742707651
  0
LWPOLYLINE
  5
2DC
100
AcDbEntity
  8
RACCORDO
100
AcDbPolyline
 62
250
  6
CONTINUOUS
 90
7
 70
0
 10
-33.5090951071
 20
24.1162364678
 10
-33.511120165
 20
24.1003690804
 10
-33.5173600115
 20
24.0843716428
 10
-33.5276830068
 20
24.0689488644
 10
-33.5418766875
 20
24.0543677279
 10
-33.5596835823
 20
24.0408562397
 10
-33.5807824939
 20
24.0286333042
  0
LWPOLYLINE
  5
2DD
100
AcDbEntity
  8
RACCORDO
100
AcDbPolyline
 62
7
  6
CONTINUOUS
 90
3
 70
0
 10
-31.8788893849
 20
22.0344376708
 10
-31.8829502853
 20
22.009154285
 10
-31.8836102747
 20
21.9928653501
  0
LINE
  5
2DE
100
AcDbEntity
  8
RACCORDO
100
AcDbLine
 62
7
  6
CONTINUOUS
 10
-22.377704836
 20
18.4122956395
 11
-23.9563401048
 21
17.5920588885
  0
LINE
  5
2DF
100
AcDbEntity
  8
RACCORDO
100
AcDbLine
 62
250
  6
CONTINUOUS
 10
-22.2639817911
 20
18.4061805418
 11
-23.8426168728
 21
17.585943888
  0
LINE
  5
2E0
100
AcDbEntity
  8
RACCORDO
100
AcDbLine
 62
7
  6
CONTINUOUS
 10
-25.5207506359
 20
17.8527201185
 11
-25.1631128629
 21
18.0370927297
  0
LINE
  5
2E1
100
AcDbEntity
  8
RACCORDO
100
AcDbLine
 62
7
  6
CONTINUOUS
 10
-22.3750974066
 20
18.4135995063
 11
-22.377704836
 21
18.4122956395
  0
LINE
  5
2E2
100
AcDbEntity
  8
0
100
AcDbLine
 62
7
  6
CONTINUOUS
 10
-8.4046821488
 20
24.1998151468
 11
-4.2327521398
 21
26.241189785
  0
LINE
  5
2E3
100
AcDbEntity
  8
RACCORDO
100
AcDbLine
 62
7
  6
CONTINUOUS
 10
-25.1631128629
 20
18.0370927297
 11
-19.8381391456
 21
20.6159304901
  0
LINE
  5
2E4
100
AcDbEntity
  8
RACCORDO
100
AcDbLine
 62
7
  6
CONTINUOUS
 10
-21.8373307444
 20
18.6721564731
 11
-22.3751060171
 21
18.4136194445
  0
LINE
  5
2E5
100
AcDbEntity
  8
RACCORDO
100
AcDbLine
 62
250
  6
CONTINUOUS
 10
-21.7274674741
 20
18.6641113623
 11
-22.2639817911
 21
18.4061805418
  0
LINE
  5
2E6
100
AcDbEntity
  8
RACCORDO
100
AcDbLine
 62
7
  6
CONTINUOUS
 10
-8.6104017595
 20
25.2328818909
 11
-5.1396502404
 21
26.8940599201
  0
LINE
  5
2E7
100
AcDbEntity
  8
RACCORDO
100
AcDbLine
 62
7
  6
CONTINUOUS
 10
-8.4046821488
 20
24.6736781991
 11
-4.3138515268
 21
26.6316397279
  0
LINE
  5
2E8
100
AcDbEntity
  8
RACCORDO
100
AcDbLine
 62
7
  6
CONTINUOUS
 10
-20.6107084768
 20
18.1671996057
 11
-15.9054533149
 21
20.3402423662
  0
LWPOLYLINE
  5
2E9
100
AcDbEntity
  8
RACCORDO
100
AcDbPolyline
 62
250
  6
CONTINUOUS
 90
7
 70
0
 10
-37.0879323252
 20
22.5576062014
 10
-37.0855488689
 20
22.5403866951
 10
-37.0790318014
 20
22.5245492896
 10
-37.0684807419
 20
22.5092651823
 10
-37.0540723756
 20
22.494790086
 10
-37.0360479046
 20
22.4813661516
 10
-37.0147090205
 20
22.4692179349
  0
LINE
  5
2EA
100
AcDbEntity
  8
RACCORDO
100
AcDbLine
 62
250
  6
CONTINUOUS
 10
-33.5807824939
 20
24.3742707651
 11
-33.5807824939
 21
24.0286333042
  0
LINE
  5
2EB
100
AcDbEntity
  8
RACCORDO
100
AcDbLine
 62
7
  6
CONTINUOUS
 10
-33.5090951062
 20
24.4618844232
 11
-33.5090951062
 21
24.1162469622
  0
LINE
  5
2EC
100
AcDbEntity
  8
RACCORDO
100
AcDbLine
 62
7
  6
CONTINUOUS
 10
-31.8836103292
 20
21.9938460839
 11
-31.8836103292
 21
20.7808853072
  0
LINE
  5
2ED
100
AcDbEntity
  8
RACCORDO
100
AcDbLine
 62
250
  6
CONTINUOUS
 10
-31.7371637198
 20
21.6501891148
 11
-31.7371637198
 21
20.6018948474
  0
LWPOLYLINE
  5
2EE
100
AcDbEntity
  8
RACCORDO
100
AcDbPolyline
 62
250
  6
CONTINUOUS
 90
46
 70
0
 10
-15.9209108898
 20
26.7745229037
 10
-15.8728209022
 20
26.8299288242
 10
-15.8176872276
 20
26.8855194386
 10
-15.7571837492
 20
26.9394619609
 10
-15.6913113976
 20
26.9917148604
 10
-15.6200692423
 20
27.0423196678
 10
-15.5439351446
 20
27.0909429463
 10
-15.4629185156
 20
27.1375706888
 10
-15.3770099442
 20
27.1822169024
 10
-15.2866590585
 20
27.2245901715
 10
-15.1916087784
 20
27.2647493695
 10
-15.0921161838
 20
27.302635623
 10
-14.9894021435
 20
27.3377808962
 10
-14.8830612747
 20
27.3701586161
 10
-14.7734989601
 20
27.3997953556
 10
-14.6631522157
 20
27.4263027978
 10
-14.5520476988
 20
27.4495021913
 10
-14.4401587521
 20
27.4695722873
 10
-14.32984242
 20
27.4866610231
 10
-14.2214519301
 20
27.5006349189
 10
-14.1146340548
 20
27.5116274545
 10
-14.0106861557
 20
27.5201870058
 10
-13.9098503213
 20
27.5262895753
 10
-13.811884463
 20
27.5299591605
 10
-13.7173596766
 20
27.5318161293
 10
-13.6264379365
 20
27.5318819982
 10
-13.5389572684
 20
27.5301352506
 10
-13.455002845
 20
27.5271317053
 10
-13.3746987716
 20
27.5229129046
 10
-13.297920943
 20
27.5174373061
 10
-13.2243822166
 20
27.5111361005
 10
-13.1541156829
 20
27.5040500667
 10
-13.0870882513
 20
27.4961384258
 10
-13.0229135072
 20
27.4877100317
 10
-12.9616057603
 20
27.4787993911
 10
-12.9031507009
 20
27.4693719973
 10
-12.8471189844
 20
27.4596331835
 10
-12.7935144009
 20
27.4496116618
 10
-12.7423331602
 20
27.43927872
 10
-12.6931345479
 20
27.4287535553
 10
-12.645915403
 20
27.4180590162
 10
-12.6006788864
 20
27.407172254
 10
-12.5569937665
 20
27.3961439204
 10
-12.5147162995
 20
27.3849908991
 10
-12.4739902291
 20
27.3736963063
 10
-12.4348155553
 20
27.3622601419
  0
LWPOLYLINE
  5
2EF
100
AcDbEntity
  8
RACCORDO
100
AcDbPolyline
 62
250
  6
CONTINUOUS
 90
9
 70
0
 10
-15.9956045437
 20
26.80927056
 10
-15.9875334252
 20
26.8185409027
 10
-15.9284545547
 20
26.87780012
 10
-15.8633617753
 20
26.9354080532
 10
-15.7924859434
 20
26.9911815208
 10
-15.7159928056
 20
27.0450094563
 10
-15.6340014019
 20
27.09681064
 10
-15.5467528049
 20
27.1464282794
 10
-15.5262556435
 20
27.1573646476
  0
LWPOLYLINE
  5
2F0
100
AcDbEntity
  8
0
100
AcDbPolyline
 62
250
  6
CONTINUOUS
 90
22
 70
0
 10
-26.1673264232
 20
12.849625258
 10
-26.2425322092
 20
12.8049040165
 10
-26.3170729734
 20
12.7541197754
 10
-26.3905843013
 20
12.6975275195
 10
-26.4627067418
 20
12.6354165887
 10
-26.5330884328
 20
12.5680925288
 10
-26.6013857321
 20
12.4958725843
 10
-26.6672734691
 20
12.4191026101
 10
-26.7304185908
 20
12.3381739442
 10
-26.7904844918
 20
12.2535063672
 10
-26.8471669135
 20
12.1655412072
 10
-26.9002045034
 20
12.0746993612
 10
-26.9493483852
 20
11.9813941212
 10
-26.9943645883
 20
11.8860666489
 10
-27.0350208186
 20
11.7892084619
 10
-27.0711000879
 20
11.6913217252
 10
-27.102422262
 20
11.5929054624
 10
-27.1288416855
 20
11.4944340924
 10
-27.1502290677
 20
11.3963774505
 10
-27.1664780289
 20
11.2992153734
 10
-27.1775082461
 20
11.2034351854
 10
-27.1832646782
 20
11.1095114269
  0
LWPOLYLINE
  5
2F1
100
AcDbEntity
  8
RACCORDO
100
AcDbPolyline
 62
250
  6
CONTINUOUS
 90
22
 70
0
 10
-26.1673264232
 20
12.849625258
 10
-26.2425322092
 20
12.8049040165
 10
-26.3170729734
 20
12.7541197754
 10
-26.3905843013
 20
12.6975275195
 10
-26.4627067418
 20
12.6354165887
 10
-26.5330884328
 20
12.5680925288
 10
-26.6013857321
 20
12.4958725843
 10
-26.6672734691
 20
12.4191026101
 10
-26.7304185908
 20
12.3381739442
 10
-26.7904844918
 20
12.2535063672
 10
-26.8471669135
 20
12.1655412072
 10
-26.9002045034
 20
12.0746993612
 10
-26.9493483852
 20
11.9813941212
 10
-26.9943645883
 20
11.8860666489
 10
-27.0350208186
 20
11.7892084619
 10
-27.0711000879
 20
11.6913217252
 10
-27.102422262
 20
11.5929054624
 10
-27.1288416855
 20
11.4944340924
 10
-27.1502290677
 20
11.3963774505
 10
-27.1664780289
 20
11.2992153734
 10
-27.1775082461
 20
11.2034351854
 10
-27.1832646782
 20
11.1095114269
  0
LINE
  5
2F2
100
AcDbEntity
  8
0
100
AcDbLine
 62
250
  6
CONTINUOUS
 10
-24.1120576423
 20
13.9716568969
 11
-26.1673264232
 21
12.849625258
  0
LINE
  5
2F3
100
AcDbEntity
  8
RACCORDO
100
AcDbLine
 62
250
  6
CONTINUOUS
 10
-24.1120576423
 20
13.9716568969
 11
-26.1673264232
 21
12.849625258
  0
LINE
  5
2F4
100
AcDbEntity
  8
RACCORDO
100
AcDbLine
 62
7
  6
CONTINUOUS
 10
-15.1273225498
 20
19.7710039411
 11
-20.5562400724
 21
16.8419783891
  0
LWPOLYLINE
  5
2F5
100
AcDbEntity
  8
RACCORDO
100
AcDbPolyline
 62
250
  6
CONTINUOUS
 90
7
 70
0
 10
-21.6388048788
 20
15.3533735995
 10
-21.6626782232
 20
15.3407069102
 10
-21.6885533572
 20
15.3275540451
 10
-21.7163801377
 20
15.3148947711
 10
-21.7453079394
 20
15.3019866002
 10
-21.7742059158
 20
15.2874934843
 10
-21.8028248098
 20
15.2724900326
  0
LINE
  5
2F6
100
AcDbEntity
  8
RACCORDO
100
AcDbLine
 62
7
  6
CONTINUOUS
 10
-15.1273225498
 20
19.2228150248
 11
-20.4854750061
 21
16.3902640529
  0
LINE
  5
2F7
100
AcDbEntity
  8
0
100
AcDbLine
 62
7
  6
CONTINUOUS
 10
-8.6687374415
 20
23.1460094207
 11
-8.101634441
 21
23.4450540464
  0
LINE
  5
2F8
100
AcDbEntity
  8
DRAFT
100
AcDbLine
 62
7
  6
CONTINUOUS
 10
-20.0502761458
 20
16.1726646227
 11
-14.4482190819
 21
19.1154810564
  0
LINE
  5
2F9
100
AcDbEntity
  8
RACCORDO
100
AcDbLine
 62
7
  6
CONTINUOUS
 10
-21.6368486018
 20
15.3543770001
 11
-20.3866598709
 21
15.9952463223
  0
LINE
  5
2FA
100
AcDbEntity
  8
RACCORDO
100
AcDbLine
 62
250
  6
CONTINUOUS
 10
-20.9204654446
 20
17.7344223686
 11
-22.5268961745
 21
16.9280835389
  0
LINE
  5
2FB
100
AcDbEntity
  8
DRAFT
100
AcDbLine
 62
7
  6
CONTINUOUS
 10
-7.7750450752
 20
24.0897257488
 11
-9.0942570565
 21
23.4275547475
  0
LINE
  5
2FC
100
AcDbEntity
  8
RACCORDO
100
AcDbLine
 62
250
  6
CONTINUOUS
 10
-20.7436954805
 20
17.4295392794
 11
-22.3501262104
 21
16.6232004498
  0
LINE
  5
2FD
100
AcDbEntity
  8
DRAFT
100
AcDbLine
 62
7
  6
CONTINUOUS
 10
-8.864842785
 20
23.2593152871
 11
-6.5601978845
 21
24.4161187753
  0
LINE
  5
2FE
100
AcDbEntity
  8
0
100
AcDbLine
 62
7
  6
CONTINUOUS
 10
-7.9733470122
 20
23.221962315
 11
-7.4783722654
 21
23.4694496884
  0
LINE
  5
2FF
100
AcDbEntity
  8
RACCORDO
100
AcDbLine
 62
7
  6
CONTINUOUS
 10
-5.0101943529
 20
23.6499495407
 11
-6.3216586639
 21
22.9942173852
  0
LINE
  5
300
100
AcDbEntity
  8
RACCORDO
100
AcDbLine
 62
250
  6
CONTINUOUS
 10
-20.3932342937
 20
17.9969947721
 11
-20.9204654446
 21
17.7344223686
  0
LINE
  5
301
100
AcDbEntity
  8
RACCORDO
100
AcDbLine
 62
250
  6
CONTINUOUS
 10
-20.2164643295
 20
17.6921116829
 11
-20.7436954805
 21
17.4295392794
  0
LWPOLYLINE
  5
302
100
AcDbEntity
  8
ASSI
100
AcDbPolyline
 62
7
  6
CONTINUOUS
 90
73
 70
0
 10
-7.7329307066
 20
24.0686685645
 10
-7.6900125327
 20
24.0896630686
 10
-7.6462316471
 20
24.1101657057
 10
-7.6015880499
 20
24.1301764757
 10
-7.5560596788
 20
24.1497044316
 10
-7.5096685961
 20
24.1687405204
 10
-7.4624809881
 20
24.1872575833
 10
-7.414495718
 20
24.2052548794
 10
-7.3657139226
 20
24.2227331495
 10
-7.3162051992
 20
24.2396674573
 10
-7.2659685102
 20
24.2560570264
 10
-7.2150048932
 20
24.2719026331
 10
-7.1633870584
 20
24.2871816706
 10
-7.1111140718
 20
24.30189333
 10
-7.0581868673
 20
24.3160384201
 10
-7.0046809565
 20
24.32959676
 10
-6.9505955132
 20
24.3425675122
 10
-6.8959313637
 20
24.3549515141
 10
-6.8407664974
 20
24.3667310976
 10
-6.7851001997
 20
24.3779053998
 10
-6.7289331853
 20
24.3884752834
 10
-6.6723455879
 20
24.3984256684
 10
-6.6153368074
 20
24.4077556706
 10
-6.557907444
 20
24.416466174
 10
-6.5001394324
 20
24.4245447515
 10
-6.4420322894
 20
24.4319905011
 10
-6.3835864982
 20
24.4388043247
 10
-6.3248854439
 20
24.4449765009
 10
-6.2659287621
 20
24.4505061141
 10
-6.2067168171
 20
24.4553940799
 10
-6.147334087
 20
24.4596334248
 10
-6.0877803279
 20
24.4632232228
 10
-6.0280557837
 20
24.4661643999
 10
-5.9682456637
 20
24.4684527598
 10
-5.9083498458
 20
24.4700873708
 10
-5.8483684521
 20
24.4710691645
 10
-5.7883870584
 20
24.4713967404
 10
-5.7284056646
 20
24.4710691645
 10
-5.6684242709
 20
24.4700873708
 10
-5.608528453
 20
24.4684527598
 10
-5.548718333
 20
24.4661643999
 10
-5.4889937888
 20
24.4632232228
 10
-5.4294400298
 20
24.4596334248
 10
-5.3700572996
 20
24.4553940799
 10
-5.3108453546
 20
24.4505061141
 10
-5.2518886728
 20
24.4449765009
 10
-5.1931876185
 20
24.4388043247
 10
-5.1347418274
 20
24.4319905011
 10
-5.0766346843
 20
24.4245447515
 10
-5.0188666728
 20
24.416466174
 10
-4.9614373093
 20
24.4077556706
 10
-4.9044285288
 20
24.3984256684
 10
-4.8478409315
 20
24.3884752834
 10
-4.7916739171
 20
24.3779053998
 10
-4.7360076194
 20
24.3667310976
 10
-4.6808427531
 20
24.3549515141
 10
-4.6261786035
 20
24.3425675122
 10
-4.5720931603
 20
24.32959676
 10
-4.5185872494
 20
24.3160384201
 10
-4.4656600449
 20
24.30189333
 10
-4.4133870584
 20
24.2871816706
 10
-4.3617692235
 20
24.2719026331
 10
-4.3108056065
 20
24.2560570264
 10
-4.2605689176
 20
24.2396674573
 10
-4.2110601942
 20
24.2227331495
 10
-4.1622783988
 20
24.2052548794
 10
-4.1142931286
 20
24.1872575833
 10
-4.0671055206
 20
24.1687405204
 10
-4.0207144379
 20
24.1497044316
 10
-3.9751860668
 20
24.1301764757
 10
-3.9305424696
 20
24.1101657057
 10
-3.886761584
 20
24.0896630686
 10
-3.8438434101
 20
24.0686685645
  0
LINE
  5
303
100
AcDbEntity
  8
RACCORDO
100
AcDbLine
 62
250
  6
CONTINUOUS
 10
-21.8028248098
 20
15.2724900326
 11
-21.8588363055
 21
15.2452569594
  0
LINE
  5
304
100
AcDbEntity
  8
RACCORDO
100
AcDbLine
 62
250
  6
CONTINUOUS
 10
-21.8588363055
 20
15.2452569594
 11
-21.9091772096
 21
15.2209828753
  0
LINE
  5
305
100
AcDbEntity
  8
RACCORDO
100
AcDbLine
 62
250
  6
CONTINUOUS
 10
-21.9091772096
 20
15.2209828753
 11
-21.9504938386
 21
15.2012849064
  0
LINE
  5
306
100
AcDbEntity
  8
RACCORDO
100
AcDbLine
 62
7
  6
CONTINUOUS
 10
-20.3866598709
 20
15.9952463223
 11
-20.6035296409
 21
15.89328379
  0
LWPOLYLINE
  5
307
100
AcDbEntity
  8
RACCORDO
100
AcDbPolyline
 62
7
  6
CONTINUOUS
 90
10
 70
0
 10
-4.1616925411
 20
23.2256723092
 10
-4.1502960768
 20
23.2308409644
 10
-4.1390756743
 20
23.2348928608
 10
-4.1280313336
 20
23.2378279984
 10
-4.1170680747
 20
23.2396465297
 10
-4.1062808775
 20
23.2403483022
 10
-4.0959546821
 20
23.2399328578
 10
-4.0861844683
 20
23.2384000439
 10
-4.0768752563
 20
23.2357500132
 10
-4.068027046
 20
23.2319827656
  0
LWPOLYLINE
  5
308
100
AcDbEntity
  8
RACCORDO
100
AcDbPolyline
 62
250
  6
CONTINUOUS
 90
13
 70
0
 10
-21.6368486018
 20
15.8893674996
 10
-21.6614770058
 20
15.8787491001
 10
-21.6886536879
 20
15.8698189843
 10
-21.7179187924
 20
15.8627282582
 10
-21.7487771258
 20
15.8575969039
 10
-21.7807065355
 20
15.8545117486
 10
-21.8131667452
 20
15.8535249962
 10
-21.845608497
 20
15.8546533436
 10
-21.8774828455
 20
15.8578776979
 10
-21.908250446
 20
15.8631435
 10
-21.9373906813
 20
15.8703616476
 10
-21.9644104706
 20
15.8794100025
 10
-21.9888526132
 20
15.8901354581
  0
LWPOLYLINE
  5
309
100
AcDbEntity
  8
RACCORDO
100
AcDbPolyline
 62
250
  6
CONTINUOUS
 90
13
 70
0
 10
-21.6368486018
 20
15.354377049
 10
-21.6614772065
 20
15.3437585735
 10
-21.688654125
 20
15.3348284089
 10
-21.7179194907
 20
15.3277376647
 10
-21.7487780979
 20
15.3226063248
 10
-21.7807077813
 20
15.3195212176
 10
-21.8131682516
 20
15.3185345469
 10
-21.8456103486
 20
15.3196630155
 10
-21.8774849981
 20
15.3228875353
 10
-21.90825253
 20
15.3281534797
 10
-21.937392273
 20
15.3353716547
 10
-21.9644113324
 20
15.3444198811
 10
-21.9888526132
 20
15.3551450075
  0
LINE
  5
30A
100
AcDbEntity
  8
DRAFT
100
AcDbLine
 62
7
  6
CONTINUOUS
 10
-19.9439863623
 20
16.119519731
 11
-19.9862486366
 21
16.104198667
  0
LINE
  5
30B
100
AcDbEntity
  8
DRAFT
100
AcDbLine
 62
7
  6
CONTINUOUS
 10
-19.9862486366
 20
16.104198667
 11
-20.0256206735
 21
16.0901585588
  0
LINE
  5
30C
100
AcDbEntity
  8
DRAFT
100
AcDbLine
 62
7
  6
CONTINUOUS
 10
-20.0256206735
 20
16.0901585588
 11
-20.0623065561
 21
16.077311887
  0
LINE
  5
30D
100
AcDbEntity
  8
DRAFT
100
AcDbLine
 62
7
  6
CONTINUOUS
 10
-20.0623065561
 20
16.077311887
 11
-20.0853696285
 21
16.0693694076
  0
LINE
  5
30E
100
AcDbEntity
  8
DRAFT
100
AcDbLine
 62
7
  6
CONTINUOUS
 10
-20.0853696285
 20
16.0693694076
 11
-20.1073888972
 21
16.0618951502
  0
LINE
  5
30F
100
AcDbEntity
  8
DRAFT
100
AcDbLine
 62
7
  6
CONTINUOUS
 10
-20.1073888972
 20
16.0618951502
 11
-20.1284036802
 21
16.0548733169
  0
LINE
  5
310
100
AcDbEntity
  8
DRAFT
100
AcDbLine
 62
7
  6
CONTINUOUS
 10
-20.1284036802
 20
16.0548733169
 11
-20.1484723809
 21
16.0482807935
  0
LINE
  5
311
100
AcDbEntity
  8
DRAFT
100
AcDbLine
 62
7
  6
CONTINUOUS
 10
-20.1484723809
 20
16.0482807935
 11
-20.1676456447
 21
16.0420984806
  0
LINE
  5
312
100
AcDbEntity
  8
DRAFT
100
AcDbLine
 62
7
  6
CONTINUOUS
 10
-20.1676456447
 20
16.0420984806
 11
-20.1859580977
 21
16.036313777
  0
LINE
  5
313
100
AcDbEntity
  8
DRAFT
100
AcDbLine
 62
7
  6
CONTINUOUS
 10
-20.1859580977
 20
16.036313777
 11
-20.2034629927
 21
16.0309078544
  0
LINE
  5
314
100
AcDbEntity
  8
DRAFT
100
AcDbLine
 62
7
  6
CONTINUOUS
 10
-20.2034629927
 20
16.0309078544
 11
-20.2202050394
 21
16.0258667561
  0
LWPOLYLINE
  5
315
100
AcDbEntity
  8
DRAFT
100
AcDbPolyline
 62
7
  6
CONTINUOUS
 90
26
 70
0
 10
-20.2202050394
 20
16.0258667561
 10
-20.236216077
 20
16.0211812957
 10
-20.2439668228
 20
16.0189665216
 10
-20.2515472028
 20
16.0168374566
 10
-20.2589712962
 20
16.0147915972
 10
-20.2662403041
 20
16.0128281063
 10
-20.2733530253
 20
16.0109478209
 10
-20.2803199359
 20
16.0091507487
 10
-20.2871247501
 20
16.0074394325
 10
-20.2937837535
 20
16.0058113295
 10
-20.3003562786
 20
16.0042588189
 10
-20.3068202484
 20
16.0027814451
 10
-20.3131977399
 20
16.0013796638
 10
-20.3196143163
 20
16.000047221
 10
-20.3261844458
 20
15.9987583946
 10
-20.3327936602
 20
15.9975389068
 10
-20.3392241176
 20
15.9964596701
 10
-20.3454316769
 20
15.9955301212
 10
-20.3514604792
 20
15.9947408235
 10
-20.3572251068
 20
15.9941343802
 10
-20.3626761423
 20
15.9936944199
 10
-20.3678630029
 20
15.993437314
 10
-20.3728485228
 20
15.9934547796
 10
-20.3776536463
 20
15.993777389
 10
-20.3822574291
 20
15.9943745699
 10
-20.3866598709
 20
15.9952463223
  0
LINE
  5
316
100
AcDbEntity
  8
0
100
AcDbLine
 62
250
  6
CONTINUOUS
 10
-27.4875176421
 20
-7.1864611645
 11
-42.3546512994
 21
0.2471056641
  0
LINE
  5
317
100
AcDbEntity
  8
RACCORDO
100
AcDbLine
 62
250
  6
CONTINUOUS
 10
-27.4875176421
 20
-7.1864611645
 11
-42.3546512994
 21
0.2471056641
  0
LINE
  5
318
100
AcDbEntity
  8
0
100
AcDbLine
 62
250
  6
CONTINUOUS
 10
-27.3485644715
 20
-6.9436698432
 11
-42.2156981288
 21
0.4898969854
  0
LINE
  5
319
100
AcDbEntity
  8
RACCORDO
100
AcDbLine
 62
250
  6
CONTINUOUS
 10
-27.3485644715
 20
-6.9436698432
 11
-42.2156981288
 21
0.4898969854
  0
LINE
  5
31A
100
AcDbEntity
  8
0
100
AcDbLine
 62
7
  6
CONTINUOUS
 10
-42.3026727053
 20
0.8189657836
 11
-27.4355390504
 21
-6.6146010438
  0
LINE
  5
31B
100
AcDbEntity
  8
RACCORDO
100
AcDbLine
 62
7
  6
CONTINUOUS
 10
-42.3026727053
 20
0.8189657836
 11
-27.4355390504
 21
-6.6146010438
  0
LWPOLYLINE
  5
31C
100
AcDbEntity
  8
0
100
AcDbPolyline
 62
250
  6
CONTINUOUS
 90
10
 70
0
 10
-42.3546406333
 20
0.247111003
 10
-42.3838033007
 20
0.2630283873
 10
-42.410142559
 20
0.2801820668
 10
-42.4334161909
 20
0.2984383083
 10
-42.4534542673
 20
0.3176564492
 10
-42.4701274915
 20
0.3376929554
 10
-42.4833073687
 20
0.358404886
 10
-42.4928946445
 20
0.3796398466
 10
-42.4988355418
 20
0.4012370654
 10
-42.5010986721
 20
0.4251614147
  0
LWPOLYLINE
  5
31D
100
AcDbEntity
  8
RACCORDO
100
AcDbPolyline
 62
250
  6
CONTINUOUS
 90
10
 70
0
 10
-42.3546406333
 20
0.247111003
 10
-42.3838033007
 20
0.2630283873
 10
-42.410142559
 20
0.2801820668
 10
-42.4334161909
 20
0.2984383083
 10
-42.4534542673
 20
0.3176564492
 10
-42.4701274915
 20
0.3376929554
 10
-42.4833073687
 20
0.358404886
 10
-42.4928946445
 20
0.3796398466
 10
-42.4988355418
 20
0.4012370654
 10
-42.5010986721
 20
0.4251614147
  0
LWPOLYLINE
  5
31E
100
AcDbEntity
  8
0
100
AcDbPolyline
 62
250
  6
CONTINUOUS
 90
13
 70
0
 10
-42.2156981288
 20
0.4898969854
 10
-42.233258445
 20
0.4994995778
 10
-42.2489366141
 20
0.5097202851
 10
-42.262732636
 20
0.5205591074
 10
-42.2747364388
 20
0.5321126525
 10
-42.2848580945
 20
0.5442843126
 10
-42.2928278189
 20
0.5567842642
 10
-42.2985834167
 20
0.5696144158
 10
-42.3021870832
 20
0.582772859
 10
-42.3035556213
 20
0.595964045
 10
-42.3026366402
 20
0.6091879248
 10
-42.2994825307
 20
0.6224445473
 10
-42.2941672675
 20
0.6354385107
  0
LWPOLYLINE
  5
31F
100
AcDbEntity
  8
RACCORDO
100
AcDbPolyline
 62
250
  6
CONTINUOUS
 90
13
 70
0
 10
-42.2156981288
 20
0.4898969854
 10
-42.233258445
 20
0.4994995778
 10
-42.2489366141
 20
0.5097202851
 10
-42.262732636
 20
0.5205591074
 10
-42.2747364388
 20
0.5321126525
 10
-42.2848580945
 20
0.5442843126
 10
-42.2928278189
 20
0.5567842642
 10
-42.2985834167
 20
0.5696144158
 10
-42.3021870832
 20
0.582772859
 10
-42.3035556213
 20
0.595964045
 10
-42.3026366402
 20
0.6091879248
 10
-42.2994825307
 20
0.6224445473
 10
-42.2941672675
 20
0.6354385107
  0
LWPOLYLINE
  5
320
100
AcDbEntity
  8
RACCORDO
100
AcDbPolyline
 62
250
  6
CONTINUOUS
 90
5
 70
0
 10
-20.2164071006
 20
-23.7354848139
 10
-20.2293371974
 20
-23.7090513727
 10
-20.2450909652
 20
-23.6852899672
 10
-20.2633989185
 20
-23.6646061026
 10
-20.2839484526
 20
-23.6473521258
  0
LWPOLYLINE
  5
321
100
AcDbEntity
  8
RACCORDO
100
AcDbPolyline
 62
250
  6
CONTINUOUS
 90
5
 70
0
 10
-21.7868039756
 20
-23.3430143376
 10
-21.7963243537
 20
-23.3230897623
 10
-21.8030804603
 20
-23.3004384364
 10
-21.8069592716
 20
-23.2754394001
 10
-21.8078959149
 20
-23.2485109573
  0
LWPOLYLINE
  5
322
100
AcDbEntity
  8
RACCORDO
100
AcDbPolyline
 62
250
  6
CONTINUOUS
 90
3
 70
0
 10
-36.7544562265
 20
22.7895620544
 10
-36.7521973499
 20
22.7729572773
 10
-36.7457487166
 20
22.7570202599
  0
LWPOLYLINE
  5
323
100
AcDbEntity
  8
RACCORDO
100
AcDbPolyline
 62
7
  6
CONTINUOUS
 90
11
 70
0
 10
-31.8833428266
 20
21.9817095694
 10
-31.8803205788
 20
21.9522534236
 10
-31.8741767924
 20
21.9205308787
 10
-31.8651869835
 20
21.8870311091
 10
-31.8535123409
 20
21.8529991397
 10
-31.8393459111
 20
21.8186777884
 10
-31.8229164668
 20
21.7839793709
 10
-31.8043190101
 20
21.7496548486
 10
-31.7836866201
 20
21.7159969197
 10
-31.7612396673
 20
21.6828275073
 10
-31.7371637198
 20
21.6501891148
  0
LINE
  5
324
100
AcDbEntity
  8
RACCORDO
100
AcDbLine
 62
7
  6
CONTINUOUS
 10
-31.8836102747
 20
21.9928653501
 11
-31.8833428266
 21
21.9817095694
  0
LINE
  5
325
100
AcDbEntity
  8
RACCORDO
100
AcDbLine
 62
250
  6
CONTINUOUS
 10
-20.7436954805
 20
16.7021262465
 11
-20.2164643295
 21
17.346474222
  0
LINE
  5
326
100
AcDbEntity
  8
RACCORDO
100
AcDbLine
 62
7
  6
CONTINUOUS
 10
-20.7436954805
 20
16.6128824556
 11
-20.2012931142
 21
17.2757717139
  0
LWPOLYLINE
  5
327
100
AcDbEntity
  8
RACCORDO
100
AcDbPolyline
 62
250
  6
CONTINUOUS
 90
13
 70
0
 10
-21.638404591
 20
15.3535791359
 10
-21.6611511387
 20
15.3398628295
 10
-21.6833949697
 20
15.3227452519
 10
-21.7047638577
 20
15.302512919
 10
-21.7249002965
 20
15.2795043769
 10
-21.74346727
 20
15.2541047684
 10
-21.760153949
 20
15.2267394629
 10
-21.7746811794
 20
15.1978665318
 10
-21.7868060342
 20
15.1679691011
 10
-21.7963257325
 20
15.137547561
 10
-21.8030811502
 20
15.1071109616
 10
-21.8069594473
 20
15.0771684867
 10
-21.8078959149
 20
15.0482210357
  0
LWPOLYLINE
  5
328
100
AcDbEntity
  8
0
100
AcDbPolyline
 62
7
  6
CONTINUOUS
 90
12
 70
0
 10
-42.3119465975
 20
0.7086341821
 10
-42.3433682055
 20
0.6900731447
 10
-42.3733389945
 20
0.6688649716
 10
-42.4000829042
 20
0.646110698
 10
-42.4236972923
 20
0.6218946628
 10
-42.4442475898
 20
0.596285466
 10
-42.4616690545
 20
0.5694776772
 10
-42.475926472
 20
0.5416580627
 10
-42.4870147207
 20
0.5130014321
 10
-42.4948920369
 20
0.4838296143
 10
-42.4995731808
 20
0.4544147686
 10
-42.5010986666
 20
0.4251529438
  0
LWPOLYLINE
  5
329
100
AcDbEntity
  8
RACCORDO
100
AcDbPolyline
 62
7
  6
CONTINUOUS
 90
12
 70
0
 10
-42.3119465975
 20
0.7086341821
 10
-42.3433682055
 20
0.6900731447
 10
-42.3733389945
 20
0.6688649716
 10
-42.4000829042
 20
0.646110698
 10
-42.4236972923
 20
0.6218946628
 10
-42.4442475898
 20
0.596285466
 10
-42.4616690545
 20
0.5694776772
 10
-42.475926472
 20
0.5416580627
 10
-42.4870147207
 20
0.5130014321
 10
-42.4948920369
 20
0.4838296143
 10
-42.4995731808
 20
0.4544147686
 10
-42.5010986666
 20
0.4251529438
  0
LWPOLYLINE
  5
32A
100
AcDbEntity
  8
0
100
AcDbPolyline
 62
250
  6
CONTINUOUS
 90
22
 70
0
 10
-25.8014936832
 20
12.2466228123
 10
-25.8521784374
 20
12.2167499155
 10
-25.9019825703
 20
12.183169407
 10
-25.9509060821
 20
12.1458812867
 10
-25.9991946099
 20
12.104659189
 10
-26.0466025164
 20
12.0597294797
 10
-26.0923928904
 20
12.0117712552
 10
-26.1365333682
 20
11.9607393314
 10
-26.1790563133
 20
11.9066788926
 10
-26.2193219054
 20
11.8504045881
 10
-26.2572883682
 20
11.7918958547
 10
-26.2929974779
 20
11.7311732557
 10
-26.3259347426
 20
11.6691131295
 10
-26.356065265
 20
11.6056839242
 10
-26.3834239425
 20
11.5409171918
 10
-26.4076009748
 20
11.4757839265
 10
-26.4285467166
 20
11.4102646265
 10
-26.4463108134
 20
11.3443787937
 10
-26.4606324015
 20
11.279155927
 10
-26.4714245263
 20
11.2149391929
 10
-26.4787741424
 20
11.151385425
 10
-26.4826812498
 20
11.0884946232
  0
LWPOLYLINE
  5
32B
100
AcDbEntity
  8
RACCORDO
100
AcDbPolyline
 62
250
  6
CONTINUOUS
 90
22
 70
0
 10
-25.8014936832
 20
12.2466228123
 10
-25.8521784374
 20
12.2167499155
 10
-25.9019825703
 20
12.183169407
 10
-25.9509060821
 20
12.1458812867
 10
-25.9991946099
 20
12.104659189
 10
-26.0466025164
 20
12.0597294797
 10
-26.0923928904
 20
12.0117712552
 10
-26.1365333682
 20
11.9607393314
 10
-26.1790563133
 20
11.9066788926
 10
-26.2193219054
 20
11.8504045881
 10
-26.2572883682
 20
11.7918958547
 10
-26.2929974779
 20
11.7311732557
 10
-26.3259347426
 20
11.6691131295
 10
-26.356065265
 20
11.6056839242
 10
-26.3834239425
 20
11.5409171918
 10
-26.4076009748
 20
11.4757839265
 10
-26.4285467166
 20
11.4102646265
 10
-26.4463108134
 20
11.3443787937
 10
-26.4606324015
 20
11.279155927
 10
-26.4714245263
 20
11.2149391929
 10
-26.4787741424
 20
11.151385425
 10
-26.4826812498
 20
11.0884946232
  0
LINE
  5
32C
100
AcDbEntity
  8
0
100
AcDbLine
 62
250
  6
CONTINUOUS
 10
-23.7587733763
 20
13.3618038703
 11
-25.8014936832
 21
12.2466228123
  0
LINE
  5
32D
100
AcDbEntity
  8
RACCORDO
100
AcDbLine
 62
250
  6
CONTINUOUS
 10
-23.7587733763
 20
13.3618038703
 11
-25.8014936832
 21
12.2466228123
  0
LINE
  5
32E
100
AcDbEntity
  8
0
100
AcDbLine
 62
7
  6
CONTINUOUS
 10
-23.1832138756
 20
12.8255243951
 11
-23.7587733763
 21
12.511309546
  0
LINE
  5
32F
100
AcDbEntity
  8
DRAFT
100
AcDbLine
 62
7
  6
CONTINUOUS
 10
-23.1832138756
 20
12.8255243951
 11
-23.7587733763
 21
12.511309546
  0
LINE
  5
330
100
AcDbEntity
  8
RACCORDO
100
AcDbLine
 62
250
  6
CONTINUOUS
 10
0.4104830217
 20
23.7742992349
 11
-19.6830353087
 21
13.5516657768
  0
LINE
  5
331
100
AcDbEntity
  8
RACCORDO
100
AcDbLine
 62
250
  6
CONTINUOUS
 10
-22.8450740912
 20
13.72005798
 11
-23.7587733763
 21
13.2614317857
  0
LINE
  5
332
100
AcDbEntity
  8
RACCORDO
100
AcDbLine
 62
250
  6
CONTINUOUS
 10
-22.4915341629
 20
13.1102918018
 11
-23.1832138756
 21
12.7631070775
  0
LINE
  5
333
100
AcDbEntity
  8
RACCORDO
100
AcDbLine
 62
7
  6
CONTINUOUS
 10
-4.1616636452
 20
23.2256867571
 11
-4.9183338954
 21
22.847351632
  0
LINE
  5
334
100
AcDbEntity
  8
RACCORDO
100
AcDbLine
 62
250
  6
CONTINUOUS
 10
0.3361167429
 20
23.902562093
 11
0.3734190391
 21
23.9209392778
  0
LWPOLYLINE
  5
335
100
AcDbEntity
  8
RACCORDO
100
AcDbPolyline
 62
250
  6
CONTINUOUS
 90
31
 70
0
 10
0.4104830217
 20
23.7742992349
 10
0.4497858344
 20
23.7936519871
 10
0.4687607264
 20
23.802850951
 10
0.4872635498
 20
23.8117214032
 10
0.5052789954
 20
23.8202560043
 10
0.522792157
 20
23.8284476927
 10
0.5397885442
 20
23.8362896906
 10
0.5562540942
 20
23.8437755096
 10
0.5721751833
 20
23.8508989557
 10
0.5875386383
 20
23.8576541351
 10
0.6023317475
 20
23.8640354585
 10
0.616542271
 20
23.8700376459
 10
0.6301584509
 20
23.8756557312
 10
0.6431690213
 20
23.8808850659
 10
0.655563217
 20
23.8857213233
 10
0.6673307832
 20
23.8901605017
 10
0.6784619832
 20
23.8941989283
 10
0.6889476071
 20
23.8978332616
 10
0.698778979
 20
23.9010604945
 10
0.7079479645
 20
23.9038779569
 10
0.7164469771
 20
23.9062833175
 10
0.7242689846
 20
23.9082745862
 10
0.7314075151
 20
23.9098501153
 10
0.7378566623
 20
23.9110086012
 10
0.7436110899
 20
23.9117490856
 10
0.7486660369
 20
23.9120709555
 10
0.7530173206
 20
23.9119739448
 10
0.7566613409
 20
23.9114581337
 10
0.7595950827
 20
23.910523949
 10
0.7618161186
 20
23.9091721636
 10
0.7633262538
 20
23.9073976212
  0
LINE
  5
336
100
AcDbEntity
  8
RACCORDO
100
AcDbLine
 62
250
  6
CONTINUOUS
 10
-13.7026921462
 20
17.8296372976
 11
-0.1638071047
 21
24.4061383523
  0
LINE
  5
337
100
AcDbEntity
  8
RACCORDO
100
AcDbLine
 62
250
  6
CONTINUOUS
 10
-13.3650238123
 20
17.2472455706
 11
0.3361167429
 21
23.902562093
  0
LINE
  5
338
100
AcDbEntity
  8
RACCORDO
100
AcDbLine
 62
250
  6
CONTINUOUS
 10
-19.6830353087
 20
15.5711480319
 11
-21.3049354353
 21
14.7880226589
  0
LWPOLYLINE
  5
339
100
AcDbEntity
  8
RACCORDO
100
AcDbPolyline
 62
250
  6
CONTINUOUS
 90
31
 70
0
 10
0.3734190391
 20
23.9209392778
 10
0.4090871518
 20
23.9381660701
 10
0.4262750406
 20
23.9463319198
 10
0.4430150153
 20
23.9541912404
 10
0.4592946404
 20
23.9617381927
 10
0.4751017924
 20
23.9689671558
 10
0.4904246851
 20
23.9758727393
 10
0.5052519142
 20
23.9824498038
 10
0.5195724655
 20
23.9886934636
 10
0.5333756922
 20
23.9945990768
 10
0.5466513315
 20
24.0001622525
 10
0.5593895103
 20
24.0053788532
 10
0.5715807548
 20
24.0102449993
 10
0.5832159992
 20
24.0147570721
 10
0.5942865924
 20
24.0189117166
 10
0.6047843024
 20
24.0227058437
 10
0.6147013233
 20
24.0261366321
 10
0.624030281
 20
24.0292015305
 10
0.6327642385
 20
24.0318982602
 10
0.6408967015
 20
24.0342248157
 10
0.6484216227
 20
24.0361794672
 10
0.6553334067
 20
24.0377607611
 10
0.6616269141
 20
24.0389675216
 10
0.6672974651
 20
24.0397988515
 10
0.6723408432
 20
24.0402541325
 10
0.6767532981
 20
24.0403330261
 10
0.6805315489
 20
24.0400354736
 10
0.6836727861
 20
24.0393616964
 10
0.6861746739
 20
24.0383121953
 10
0.688035352
 20
24.0368877508
 10
0.6889599917
 20
24.0356604505
  0
LINE
  5
33A
100
AcDbEntity
  8
RACCORDO
100
AcDbLine
 62
7
  6
CONTINUOUS
 10
-0.8262988751
 20
24.7373842375
 11
-4.2970503943
 21
23.0762062082
  0
LWPOLYLINE
  5
33B
100
AcDbEntity
  8
SMUSSO
100
AcDbPolyline
 62
7
  6
CONTINUOUS
 90
88
 70
0
 10
-4.2970503943
 20
23.0762062082
 10
-4.3478338319
 20
23.0523305265
 10
-4.3997065815
 20
23.0290782373
 10
-4.4526686431
 20
23.0064493408
 10
-4.5067493944
 20
22.9844325111
 10
-4.5619194577
 20
22.963039074
 10
-4.6180906999
 20
22.9423030071
 10
-4.675265402
 20
22.9222250796
 10
-4.7334412831
 20
22.9028045223
 10
-4.792523367
 20
22.8840730052
 10
-4.8525130981
 20
22.8660316669
 10
-4.9134090321
 20
22.8486793689
 10
-4.9751118596
 20
22.8320443653
 10
-5.0376229346
 20
22.8161278204
 10
-5.1009409033
 20
22.8009285699
 10
-5.1649623943
 20
22.7864713758
 10
-5.2296885156
 20
22.772757461
 10
-5.2951181593
 20
22.7597856025
 10
-5.361144631
 20
22.7475768937
 10
-5.4277689283
 20
22.7361325775
 10
-5.4949900535
 20
22.7254514109
 10
-5.5626983195
 20
22.7155507581
 10
-5.6308945029
 20
22.7064318979
 10
-5.6995778271
 20
22.6980935514
 10
-5.7686362747
 20
22.6905492459
 10
-5.8380704412
 20
22.6838002794
 10
-5.9078797311
 20
22.6778453538
 10
-5.9779503405
 20
22.6726941019
 10
-6.0482827229
 20
22.6683478353
 10
-6.1188764247
 20
22.6648052424
 10
-6.1896162812
 20
22.6620720207
 10
-6.2605024598
 20
22.660149493
 10
-6.3315347932
 20
22.6590363366
 10
-6.4025976148
 20
22.6587342803
 10
-6.4736910533
 20
22.6592446489
 10
-6.5448149799
 20
22.6605661176
 10
-6.6158533422
 20
22.6626964409
 10
-6.6868058816
 20
22.6656369336
 10
-6.7576728566
 20
22.6693862809
 10
-6.8283389911
 20
22.6739382926
 10
-6.898804072
 20
22.6792942864
 10
-6.9690683124
 20
22.6854529446
 10
-7.0390170749
 20
22.6924041239
 10
-7.1086496244
 20
22.7001490873
 10
-7.1779666961
 20
22.7086865717
 10
-7.2468558583
 20
22.7180026449
 10
-7.3153164288
 20
22.7280985575
 10
-7.3833490899
 20
22.7389730587
 10
-7.4508434565
 20
22.7506084645
 10
-7.5177987289
 20
22.7630060138
 10
-7.5842157068
 20
22.7761644676
 10
-7.6499864053
 20
22.7900624246
 10
-7.7151098736
 20
22.8047011106
 10
-7.7795870624
 20
22.8200792998
 10
-7.8433128385
 20
22.8361719128
 10
-7.9062859019
 20
22.8529800946
 10
-7.9685075527
 20
22.8705027001
 10
-8.0298765579
 20
22.8887112144
 10
-8.0903915805
 20
22.90760677
 10
-8.1500539576
 20
22.9271882344
 10
-8.2087664669
 20
22.9474236953
 10
-8.266527525
 20
22.9683142061
 10
-8.3233387153
 20
22.9898587134
 10
-8.3791075662
 20
23.0120221451
 10
-8.4338324017
 20
23.034805518
 10
-8.4875148976
 20
23.0582078154
 10
-8.5400676099
 20
23.0821909155
 10
-8.5914886828
 20
23.1067557573
 10
-8.6417799719
 20
23.1319014019
 10
-8.6908596002
 20
23.1575869106
 10
-8.7387256081
 20
23.1838131706
 10
-8.785379955
 20
23.2105792947
 10
-8.8307466422
 20
23.2378416832
 10
-8.8748235555
 20
23.2656011334
 10
-8.9176128091
 20
23.2938568481
 10
-8.9590447466
 20
23.3225628352
 10
-8.9991171809
 20
23.3517198461
 10
-9.0378322992
 20
23.3813271293
 10
-9.0751270064
 20
23.4113364387
 10
-9.1109989591
 20
23.4417484033
 10
-9.1454505007
 20
23.472562394
 10
-9.1784255671
 20
23.5037282771
 10
-9.2099217895
 20
23.5352466634
 10
-9.2399415367
 20
23.5671169422
 10
-9.2684358507
 20
23.5992871473
 10
-9.2954022053
 20
23.6317577169
 10
-9.3208431267
 20
23.6645282128
 10
-9.3433713222
 20
23.6956362801
  0
LWPOLYLINE
  5
33C
100
AcDbEntity
  8
RACCORDO
100
AcDbPolyline
 62
250
  6
CONTINUOUS
 90
26
 70
0
 10
-0.1638071047
 20
24.4061383523
 10
-0.1445471925
 20
24.4150349634
 10
-0.1253107471
 20
24.4232773684
 10
-0.1061120536
 20
24.4308594464
 10
-0.086965369
 20
24.437775567
 10
-0.0678849118
 20
24.4440205943
 10
-0.0488848512
 20
24.4495898905
 10
-0.0299792968
 20
24.45447932
 10
-0.011182288
 20
24.4586852518
 10
0.0074922166
 20
24.4622045625
 10
0.026030349
 20
24.4650346388
 10
0.0444183428
 20
24.467173379
 10
0.062642543
 20
24.4686191947
 10
0.0806894161
 20
24.4693710125
 10
0.0985455605
 20
24.4694282739
 10
0.1161977161
 20
24.4687909364
 10
0.1336327742
 20
24.4674594734
 10
0.1508377876
 20
24.4654348736
 10
0.1677999797
 20
24.4627186404
 10
0.1845067543
 20
24.459312791
 10
0.2009457048
 20
24.4552198545
 10
0.2171046235
 20
24.4504428704
 10
0.2329715109
 20
24.4449853861
 10
0.248534584
 20
24.4388514544
 10
0.2637822856
 20
24.4320456304
 10
0.2710657759
 20
24.4285016819
  0
LWPOLYLINE
  5
33D
100
AcDbEntity
  8
RACCORDO
100
AcDbPolyline
 62
250
  6
CONTINUOUS
 90
13
 70
0
 10
-21.3049354353
 20
14.7880226589
 10
-21.329602198
 20
14.7775662744
 10
-21.3567620952
 20
14.7687894146
 10
-21.3859606686
 20
14.7618389398
 10
-21.4167093476
 20
14.7568311502
 10
-21.4484936242
 20
14.7538498397
 10
-21.4807816618
 20
14.7529448935
 10
-21.5130331949
 20
14.7541314539
 10
-21.5447085685
 20
14.7573896664
 10
-21.5752777684
 20
14.7626650124
 10
-21.6042292897
 20
14.7698692213
 10
-21.6310786955
 20
14.7788817472
 10
-21.6553767232
 20
14.7895517863
  0
LWPOLYLINE
  5
33E
100
AcDbEntity
  8
0
100
AcDbPolyline
 62
250
  6
CONTINUOUS
 90
16
 70
0
 10
-26.4826812498
 20
11.0884946232
 10
-26.5216903793
 20
11.0733623821
 10
-26.5640030073
 20
11.060319119
 10
-26.6091657746
 20
11.0495045861
 10
-26.6566947844
 20
11.0410346558
 10
-26.7060807865
 20
11.0350000792
 10
-26.7567946342
 20
11.031465514
 10
-26.8082929533
 20
11.0304688312
 10
-26.8600239646
 20
11.0320207099
 10
-26.9114333956
 20
11.0361045223
 10
-26.9619704195
 20
11.0426765125
 10
-27.0110935567
 20
11.0516662648
 10
-27.0582764769
 20
11.0629774584
 10
-27.1030136382
 20
11.0764888996
 10
-27.1448257038
 20
11.0920558198
 10
-27.1832646778
 20
11.109511427
  0
LWPOLYLINE
  5
33F
100
AcDbEntity
  8
RACCORDO
100
AcDbPolyline
 62
250
  6
CONTINUOUS
 90
16
 70
0
 10
-26.4826812498
 20
11.0884946232
 10
-26.5216903793
 20
11.0733623821
 10
-26.5640030073
 20
11.060319119
 10
-26.6091657746
 20
11.0495045861
 10
-26.6566947844
 20
11.0410346558
 10
-26.7060807865
 20
11.0350000792
 10
-26.7567946342
 20
11.031465514
 10
-26.8082929533
 20
11.0304688312
 10
-26.8600239646
 20
11.0320207099
 10
-26.9114333956
 20
11.0361045223
 10
-26.9619704195
 20
11.0426765125
 10
-27.0110935567
 20
11.0516662648
 10
-27.0582764769
 20
11.0629774584
 10
-27.1030136382
 20
11.0764888996
 10
-27.1448257038
 20
11.0920558198
 10
-27.1832646778
 20
11.109511427
  0
LWPOLYLINE
  5
340
100
AcDbEntity
  8
RACCORDO
100
AcDbPolyline
 62
7
  6
CONTINUOUS
 90
25
 70
0
 10
0.9947108391
 20
18.9251308594
 10
1.0645552653
 20
18.9461744426
 10
1.1343436486
 20
18.9670313689
 10
1.204075989
 20
18.9877016382
 10
1.2737350409
 20
19.0081880818
 10
1.3433380499
 20
19.0284878684
 10
1.4129367527
 20
19.0485925046
 10
1.4825305936
 20
19.0685044299
 10
1.5521201283
 20
19.0882212048
 10
1.621758761
 20
19.107727017
 10
1.6914369559
 20
19.1270230752
 10
1.7611642488
 20
19.1461081706
 10
1.8310226516
 20
19.1649628653
 10
1.9009972125
 20
19.1835894334
 10
1.9711028832
 20
19.2019856007
 10
2.0414665309
 20
19.2201251058
 10
2.1120806131
 20
19.2380164129
 10
2.1829526723
 20
19.2556510579
 10
2.2542322028
 20
19.2729773874
 10
2.3259229685
 20
19.2900136052
 10
2.3980212056
 20
19.3067415076
 10
2.4706651156
 20
19.3230548291
 10
2.543900766
 20
19.3389181481
 10
2.6176820894
 20
19.3543668863
 10
2.6920090858
 20
19.3694010437
  0
LWPOLYLINE
  5
341
100
AcDbEntity
  8
RACCORDO
100
AcDbPolyline
 62
7
  6
CONTINUOUS
 90
16
 70
0
 10
0.9947096765
 20
-2.0326842636
 10
0.9819360699
 20
-2.03628277
 10
0.969333998
 20
-2.0392983814
 10
0.9569034608
 20
-2.0417310977
 10
0.9446291092
 20
-2.0435815503
 10
0.9325262923
 20
-2.0448491078
 10
0.9206410571
 20
-2.0455318765
 10
0.9089773716
 20
-2.0456211275
 10
0.8975312679
 20
-2.0451255898
 10
0.8863368889
 20
-2.0440695563
 10
0.8754016019
 20
-2.0424445693
 10
0.8647180397
 20
-2.0402590867
 10
0.8542982439
 20
-2.0375627745
 10
0.8441462286
 20
-2.0343721881
 10
0.8342579797
 20
-2.0306707721
 10
0.8246334974
 20
-2.0264585265
  0
LWPOLYLINE
  5
342
100
AcDbEntity
  8
0
100
AcDbPolyline
 62
7
  6
CONTINUOUS
 90
14
 70
0
 10
-27.4358765845
 20
-6.6144219719
 10
-27.3948698265
 20
-6.6328075893
 10
-27.3515900838
 20
-6.6481866622
 10
-27.3068238571
 20
-6.6604890127
 10
-27.2607662517
 20
-6.6698755755
 10
-27.2137692222
 20
-6.6763929117
 10
-27.1661560036
 20
-6.6800870209
 10
-27.1182142455
 20
-6.6809598438
 10
-27.0704311998
 20
-6.6789980696
 10
-27.0230945113
 20
-6.6741921689
 10
-26.9765377279
 20
-6.6664820317
 10
-26.9311304021
 20
-6.6558111744
 10
-26.8870695981
 20
-6.6420181983
 10
-26.8413921408
 20
-6.6234198661
  0
LWPOLYLINE
  5
343
100
AcDbEntity
  8
RACCORDO
100
AcDbPolyline
 62
7
  6
CONTINUOUS
 90
14
 70
0
 10
-27.4358765845
 20
-6.6144219719
 10
-27.3948698265
 20
-6.6328075893
 10
-27.3515900838
 20
-6.6481866622
 10
-27.3068238571
 20
-6.6604890127
 10
-27.2607662517
 20
-6.6698755755
 10
-27.2137692222
 20
-6.6763929117
 10
-27.1661560036
 20
-6.6800870209
 10
-27.1182142455
 20
-6.6809598438
 10
-27.0704311998
 20
-6.6789980696
 10
-27.0230945113
 20
-6.6741921689
 10
-26.9765377279
 20
-6.6664820317
 10
-26.9311304021
 20
-6.6558111744
 10
-26.8870695981
 20
-6.6420181983
 10
-26.8413921408
 20
-6.6234198661
  0
LWPOLYLINE
  5
344
100
AcDbEntity
  8
0
100
AcDbPolyline
 62
250
  6
CONTINUOUS
 90
19
 70
0
 10
-27.4875069829
 20
-6.5062849039
 10
-27.4557063333
 20
-6.520883297
 10
-27.4215034396
 20
-6.5341051588
 10
-27.3851652394
 20
-6.5458291162
 10
-27.3469693305
 20
-6.5559683408
 10
-27.3072008734
 20
-6.5644572306
 10
-27.2661466413
 20
-6.5712319837
 10
-27.224106366
 20
-6.5762404446
 10
-27.18139674
 20
-6.5794532991
 10
-27.1383345666
 20
-6.5808457593
 10
-27.0952397664
 20
-6.5803959565
 10
-27.0524325119
 20
-6.57811507
 10
-27.0102300609
 20
-6.5740272664
 10
-26.9689501873
 20
-6.5681530701
 10
-26.9288960487
 20
-6.5605339339
 10
-26.890356024
 20
-6.5512331283
 10
-26.8536165208
 20
-6.5403111098
 10
-26.8189577301
 20
-6.5278411041
 10
-26.7866492757
 20
-6.5139357783
  0
LWPOLYLINE
  5
345
100
AcDbEntity
  8
RACCORDO
100
AcDbPolyline
 62
250
  6
CONTINUOUS
 90
19
 70
0
 10
-27.4875069829
 20
-6.5062849039
 10
-27.4557063333
 20
-6.520883297
 10
-27.4215034396
 20
-6.5341051588
 10
-27.3851652394
 20
-6.5458291162
 10
-27.3469693305
 20
-6.5559683408
 10
-27.3072008734
 20
-6.5644572306
 10
-27.2661466413
 20
-6.5712319837
 10
-27.224106366
 20
-6.5762404446
 10
-27.18139674
 20
-6.5794532991
 10
-27.1383345666
 20
-6.5808457593
 10
-27.0952397664
 20
-6.5803959565
 10
-27.0524325119
 20
-6.57811507
 10
-27.0102300609
 20
-6.5740272664
 10
-26.9689501873
 20
-6.5681530701
 10
-26.9288960487
 20
-6.5605339339
 10
-26.890356024
 20
-6.5512331283
 10
-26.8536165208
 20
-6.5403111098
 10
-26.8189577301
 20
-6.5278411041
 10
-26.7866492757
 20
-6.5139357783
  0
LINE
  5
346
100
AcDbEntity
  8
0
100
AcDbLine
 62
250
  6
CONTINUOUS
 10
-42.3546512994
 20
0.927276601
 11
-27.4875176421
 21
-6.5062902277
  0
LINE
  5
347
100
AcDbEntity
  8
RACCORDO
100
AcDbLine
 62
250
  6
CONTINUOUS
 10
-42.3546512994
 20
0.927276601
 11
-27.4875176421
 21
-6.5062902277
  0
LWPOLYLINE
  5
348
100
AcDbEntity
  8
0
100
AcDbPolyline
 62
250
  6
CONTINUOUS
 90
22
 70
0
 10
-26.4826812498
 20
-24.49383774
 10
-26.4787741424
 20
-24.552955492
 10
-26.4714245263
 20
-24.6094118182
 10
-26.4606324015
 20
-24.6632067185
 10
-26.4463108134
 20
-24.7145993883
 10
-26.4285467167
 20
-24.7633306324
 10
-26.4076009748
 20
-24.8086228645
 10
-26.3834239425
 20
-24.8504086411
 10
-26.356065265
 20
-24.8887554058
 10
-26.3259347426
 20
-24.9230879038
 10
-26.2929974779
 20
-24.9533408832
 10
-26.2572883682
 20
-24.9795795958
 10
-26.2193219054
 20
-25.0014245422
 10
-26.1790563133
 20
-25.0188148165
 10
-26.1365333682
 20
-25.0318113245
 10
-26.0923928904
 20
-25.0402172844
 10
-26.0466025164
 20
-25.0439562587
 10
-25.9991946099
 20
-25.0431046849
 10
-25.9509060821
 20
-25.0376950933
 10
-25.9019825703
 20
-25.0277383274
 10
-25.8521784373
 20
-25.0132235438
 10
-25.8014936832
 20
-24.9941507425
  0
LWPOLYLINE
  5
349
100
AcDbEntity
  8
RACCORDO
100
AcDbPolyline
 62
250
  6
CONTINUOUS
 90
22
 70
0
 10
-26.4826812498
 20
-24.49383774
 10
-26.4787741424
 20
-24.552955492
 10
-26.4714245263
 20
-24.6094118182
 10
-26.4606324015
 20
-24.6632067185
 10
-26.4463108134
 20
-24.7145993883
 10
-26.4285467167
 20
-24.7633306324
 10
-26.4076009748
 20
-24.8086228645
 10
-26.3834239425
 20
-24.8504086411
 10
-26.356065265
 20
-24.8887554058
 10
-26.3259347426
 20
-24.9230879038
 10
-26.2929974779
 20
-24.9533408832
 10
-26.2572883682
 20
-24.9795795958
 10
-26.2193219054
 20
-25.0014245422
 10
-26.1790563133
 20
-25.0188148165
 10
-26.1365333682
 20
-25.0318113245
 10
-26.0923928904
 20
-25.0402172844
 10
-26.0466025164
 20
-25.0439562587
 10
-25.9991946099
 20
-25.0431046849
 10
-25.9509060821
 20
-25.0376950933
 10
-25.9019825703
 20
-25.0277383274
 10
-25.8521784373
 20
-25.0132235438
 10
-25.8014936832
 20
-24.9941507425
  0
LWPOLYLINE
  5
34A
100
AcDbEntity
  8
0
100
AcDbPolyline
 62
250
  6
CONTINUOUS
 90
13
 70
0
 10
-26.7866379301
 20
-7.1849290151
 10
-26.7881537559
 20
-7.1618712364
 10
-26.7920200298
 20
-7.1379775599
 10
-26.7981705859
 20
-7.1136566877
 10
-26.8065001972
 20
-7.0893245986
 10
-26.8168663555
 20
-7.0653974939
 10
-26.8290916942
 20
-7.0422846737
 10
-26.8429670672
 20
-7.0203814431
 10
-26.8582551256
 20
-7.0000623868
 10
-26.8746943399
 20
-6.9816750138
 10
-26.8920035142
 20
-6.9655337566
 10
-26.9098866019
 20
-6.9519146035
 10
-26.9280377472
 20
-6.9410504058
  0
LWPOLYLINE
  5
34B
100
AcDbEntity
  8
RACCORDO
100
AcDbPolyline
 62
250
  6
CONTINUOUS
 90
13
 70
0
 10
-26.7866379301
 20
-7.1849290151
 10
-26.7881537559
 20
-7.1618712364
 10
-26.7920200298
 20
-7.1379775599
 10
-26.7981705859
 20
-7.1136566877
 10
-26.8065001972
 20
-7.0893245986
 10
-26.8168663555
 20
-7.0653974939
 10
-26.8290916942
 20
-7.0422846737
 10
-26.8429670672
 20
-7.0203814431
 10
-26.8582551256
 20
-7.0000623868
 10
-26.8746943399
 20
-6.9816750138
 10
-26.8920035142
 20
-6.9655337566
 10
-26.9098866019
 20
-6.9519146035
 10
-26.9280377472
 20
-6.9410504058
  0
LWPOLYLINE
  5
34C
100
AcDbEntity
  8
0
100
AcDbPolyline
 62
250
  6
CONTINUOUS
 90
13
 70
0
 10
-27.1832646782
 20
-24.5084388867
 10
-27.1775082461
 20
-24.5967417014
 10
-27.1664780289
 20
-24.6817449864
 10
-27.1502290677
 20
-24.7630292421
 10
-27.1288416855
 20
-24.8401904218
 10
-27.102422262
 20
-24.9128521138
 10
-27.0711000879
 20
-24.9806649112
 10
-27.0350208186
 20
-25.0433017987
 10
-26.9943645883
 20
-25.1004421387
 10
-26.9493483852
 20
-25.151786646
 10
-26.9002045034
 20
-25.1970772338
 10
-26.8471669135
 20
-25.2361055744
 10
-26.7908833517
 20
-25.2684894424
  0
LWPOLYLINE
  5
34D
100
AcDbEntity
  8
RACCORDO
100
AcDbPolyline
 62
250
  6
CONTINUOUS
 90
13
 70
0
 10
-27.1832646782
 20
-24.5084388867
 10
-27.1775082461
 20
-24.5967417014
 10
-27.1664780289
 20
-24.6817449864
 10
-27.1502290677
 20
-24.7630292421
 10
-27.1288416855
 20
-24.8401904218
 10
-27.102422262
 20
-24.9128521138
 10
-27.0711000879
 20
-24.9806649112
 10
-27.0350208186
 20
-25.0433017987
 10
-26.9943645883
 20
-25.1004421387
 10
-26.9493483852
 20
-25.151786646
 10
-26.9002045034
 20
-25.1970772338
 10
-26.8471669135
 20
-25.2361055744
 10
-26.7908833517
 20
-25.2684894424
  0
LWPOLYLINE
  5
34E
100
AcDbEntity
  8
0
100
AcDbPolyline
 62
250
  6
CONTINUOUS
 90
8
 70
0
 10
-27.4875176421
 20
-6.5062902277
 10
-27.4863475403
 20
-6.5280762632
 10
-27.4828281616
 20
-6.5483151087
 10
-27.4770184896
 20
-6.5666677776
 10
-27.4690158624
 20
-6.5828268959
 10
-27.4589543588
 20
-6.5965218132
 10
-27.4470025663
 20
-6.6075231529
 10
-27.435880294
 20
-6.6144293343
  0
LWPOLYLINE
  5
34F
100
AcDbEntity
  8
RACCORDO
100
AcDbPolyline
 62
250
  6
CONTINUOUS
 90
8
 70
0
 10
-27.4875176421
 20
-6.5062902277
 10
-27.4863475403
 20
-6.5280762632
 10
-27.4828281616
 20
-6.5483151087
 10
-27.4770184896
 20
-6.5666677776
 10
-27.4690158624
 20
-6.5828268959
 10
-27.4589543588
 20
-6.5965218132
 10
-27.4470025663
 20
-6.6075231529
 10
-27.435880294
 20
-6.6144293343
  0
LWPOLYLINE
  5
350
100
AcDbEntity
  8
0
100
AcDbPolyline
 62
250
  6
CONTINUOUS
 90
5
 70
0
 10
-26.6900390598
 20
-16.8377146879
 10
-26.6490390635
 20
-18.7572809762
 10
-26.6008128439
 20
-20.6731519634
 10
-26.5453602394
 20
-22.5853375514
 10
-26.4826812498
 20
-24.49383774
  0
LWPOLYLINE
  5
351
100
AcDbEntity
  8
RACCORDO
100
AcDbPolyline
 62
250
  6
CONTINUOUS
 90
5
 70
0
 10
-26.6900390598
 20
-16.8377146879
 10
-26.6490390635
 20
-18.7572809762
 10
-26.6008128439
 20
-20.6731519634
 10
-26.5453602394
 20
-22.5853375514
 10
-26.4826812498
 20
-24.49383774
  0
LWPOLYLINE
  5
352
100
AcDbEntity
  8
0
100
AcDbPolyline
 62
250
  6
CONTINUOUS
 90
4
 70
0
 10
-26.7696791218
 20
-11.0570024449
 10
-26.7503594124
 20
-12.9875556187
 10
-26.7238126712
 20
-14.9144630003
 10
-26.6900390598
 20
-16.8377146879
  0
LWPOLYLINE
  5
353
100
AcDbEntity
  8
RACCORDO
100
AcDbPolyline
 62
250
  6
CONTINUOUS
 90
4
 70
0
 10
-26.7696791218
 20
-11.0570024449
 10
-26.7503594124
 20
-12.9875556187
 10
-26.7238126712
 20
-14.9144630003
 10
-26.6900390598
 20
-16.8377146879
  0
LWPOLYLINE
  5
354
100
AcDbEntity
  8
0
100
AcDbPolyline
 62
250
  6
CONTINUOUS
 90
10
 70
0
 10
-27.4875176421
 20
-7.1864611645
 10
-27.4826344869
 20
-9.1257268571
 10
-27.4705192031
 20
-11.0614100715
 10
-27.4511725186
 20
-12.9934721408
 10
-27.4245957587
 20
-14.9218447846
 10
-27.3907897009
 20
-16.8465193007
 10
-27.34975348
 20
-18.7675459897
 10
-27.3014866258
 20
-20.6849154931
 10
-27.2459901588
 20
-22.5985593704
 10
-27.1832646782
 20
-24.5084388867
  0
LWPOLYLINE
  5
355
100
AcDbEntity
  8
RACCORDO
100
AcDbPolyline
 62
250
  6
CONTINUOUS
 90
10
 70
0
 10
-27.4875176421
 20
-7.1864611645
 10
-27.4826344869
 20
-9.1257268571
 10
-27.4705192031
 20
-11.0614100715
 10
-27.4511725186
 20
-12.9934721408
 10
-27.4245957587
 20
-14.9218447846
 10
-27.3907897009
 20
-16.8465193007
 10
-27.34975348
 20
-18.7675459897
 10
-27.3014866258
 20
-20.6849154931
 10
-27.2459901588
 20
-22.5985593704
 10
-27.1832646782
 20
-24.5084388867
  0
LWPOLYLINE
  5
356
100
AcDbEntity
  8
0
100
AcDbPolyline
 62
250
  6
CONTINUOUS
 90
3
 70
0
 10
-26.7866379301
 20
-7.1849290151
 10
-26.781771961
 20
-9.122793577
 10
-26.7696791218
 20
-11.0570024449
  0
LWPOLYLINE
  5
357
100
AcDbEntity
  8
RACCORDO
100
AcDbPolyline
 62
250
  6
CONTINUOUS
 90
3
 70
0
 10
-26.7866379301
 20
-7.1849290151
 10
-26.781771961
 20
-9.122793577
 10
-26.7696791218
 20
-11.0570024449
  0
LWPOLYLINE
  5
358
100
AcDbEntity
  8
0
100
AcDbPolyline
 62
250
  6
CONTINUOUS
 90
9
 70
0
 10
-27.2459901588
 20
9.1390565288
 10
-27.3014866258
 20
7.171818458
 10
-27.34975348
 20
5.2078365483
 10
-27.3907897009
 20
3.2471802663
 10
-27.4245957587
 20
1.2898584948
 10
-27.4511725186
 20
-0.6641799478
 10
-27.4705192031
 20
-2.6149255869
 10
-27.4826344869
 20
-4.5623088118
 10
-27.4875176421
 20
-6.5062902277
  0
LWPOLYLINE
  5
359
100
AcDbEntity
  8
RACCORDO
100
AcDbPolyline
 62
250
  6
CONTINUOUS
 90
9
 70
0
 10
-27.2459901588
 20
9.1390565288
 10
-27.3014866258
 20
7.171818458
 10
-27.34975348
 20
5.2078365483
 10
-27.3907897009
 20
3.2471802663
 10
-27.4245957587
 20
1.2898584948
 10
-27.4511725186
 20
-0.6641799478
 10
-27.4705192031
 20
-2.6149255869
 10
-27.4826344869
 20
-4.5623088118
 10
-27.4875176421
 20
-6.5062902277
  0
LINE
  5
35A
100
AcDbEntity
  8
0
100
AcDbLine
 62
250
  6
CONTINUOUS
 10
-27.1832646782
 20
11.1095114269
 11
-27.2459901588
 21
9.1390565288
  0
LINE
  5
35B
100
AcDbEntity
  8
RACCORDO
100
AcDbLine
 62
250
  6
CONTINUOUS
 10
-27.1832646782
 20
11.1095114269
 11
-27.2459901588
 21
9.1390565288
  0
LWPOLYLINE
  5
35C
100
AcDbEntity
  8
0
100
AcDbPolyline
 62
250
  6
CONTINUOUS
 90
13
 70
0
 10
-27.4875176421
 20
-7.1864611645
 10
-27.4863476131
 20
-7.1635057609
 10
-27.4828284322
 20
-7.139748198
 10
-27.4770190444
 20
-7.1155864052
 10
-27.4690167543
 20
-7.0914250826
 10
-27.4589555973
 20
-7.0676689226
 10
-27.4470040936
 20
-7.0447158309
 10
-27.4333624264
 20
-7.0229502625
 10
-27.4182590877
 20
-7.0027367817
 10
-27.4019470524
 20
-6.984413956
 10
-27.3846995404
 20
-6.9682886852
 10
-27.3668054405
 20
-6.9546310611
 10
-27.3485644715
 20
-6.9436698432
  0
LWPOLYLINE
  5
35D
100
AcDbEntity
  8
RACCORDO
100
AcDbPolyline
 62
250
  6
CONTINUOUS
 90
13
 70
0
 10
-27.4875176421
 20
-7.1864611645
 10
-27.4863476131
 20
-7.1635057609
 10
-27.4828284322
 20
-7.139748198
 10
-27.4770190444
 20
-7.1155864052
 10
-27.4690167543
 20
-7.0914250826
 10
-27.4589555973
 20
-7.0676689226
 10
-27.4470040936
 20
-7.0447158309
 10
-27.4333624264
 20
-7.0229502625
 10
-27.4182590877
 20
-7.0027367817
 10
-27.4019470524
 20
-6.984413956
 10
-27.3846995404
 20
-6.9682886852
 10
-27.3668054405
 20
-6.9546310611
 10
-27.3485644715
 20
-6.9436698432
  0
LWPOLYLINE
  5
35E
100
AcDbEntity
  8
RACCORDO
100
AcDbPolyline
 62
250
  6
CONTINUOUS
 90
12
 70
0
 10
-22.3501262104
 20
16.2888995226
 10
-22.3632527107
 20
16.2594891758
 10
-22.3791461451
 20
16.23210954
 10
-22.3975336266
 20
16.2072271158
 10
-22.4180980121
 20
16.1852671755
 10
-22.4404888004
 20
16.1666005257
 10
-22.4643296508
 20
16.151540285
 10
-22.4892360429
 20
16.1403364571
 10
-22.5147622337
 20
16.1331963619
 10
-22.5404118666
 20
16.130245171
 10
-22.5657289383
 20
16.1315022315
 10
-22.5766357438
 20
16.1333720858
  0
LWPOLYLINE
  5
35F
100
AcDbEntity
  8
RACCORDO
100
AcDbPolyline
 62
250
  6
CONTINUOUS
 90
12
 70
0
 10
-21.8151680039
 20
16.1767505053
 10
-21.8282635034
 20
16.1474008404
 10
-21.8441177531
 20
16.1200675723
 10
-21.8624609944
 20
16.0952157944
 10
-21.8829811222
 20
16.0732683726
 10
-21.9053289777
 20
16.05459877
 10
-21.929124284
 20
16.0395246813
 10
-21.9539621458
 20
16.0283026036
 10
-21.9794199401
 20
16.0211234838
 10
-22.0050644863
 20
16.0181094799
 10
-22.0304594278
 20
16.0193118766
 10
-22.041572339
 20
16.0212010635
  0
LINE
  5
360
100
AcDbEntity
  8
RACCORDO
100
AcDbLine
 62
250
  6
CONTINUOUS
 10
-20.1998861347
 20
17.2777385174
 11
-20.2012931142
 21
17.2757717139
  0
LINE
  5
361
100
AcDbEntity
  8
0
100
AcDbLine
 62
7
  6
CONTINUOUS
 10
-42.3119510639
 20
0.7086424299
 11
-42.2013595028
 21
0.7683091824
  0
LINE
  5
362
100
AcDbEntity
  8
RACCORDO
100
AcDbLine
 62
7
  6
CONTINUOUS
 10
-42.3119510639
 20
0.7086424299
 11
-42.2013595028
 21
0.7683091824
  0
LINE
  5
363
100
AcDbEntity
  8
0
100
AcDbLine
 62
250
  6
CONTINUOUS
 10
-42.2193707612
 20
0.7046161012
 11
-42.1494360754
 21
0.7423474687
  0
LINE
  5
364
100
AcDbEntity
  8
RACCORDO
100
AcDbLine
 62
250
  6
CONTINUOUS
 10
-42.2193707612
 20
0.7046161012
 11
-42.1494360754
 21
0.7423474687
  0
LWPOLYLINE
  5
365
100
AcDbEntity
  8
RACCORDO
100
AcDbPolyline
 62
250
  6
CONTINUOUS
 90
28
 70
0
 10
0.8246334974
 20
22.3426656603
 10
0.8443154227
 20
22.353154049
 10
0.863385879
 20
22.3639211408
 10
0.8818290872
 20
22.3749580272
 10
0.8996297875
 20
22.386255576
 10
0.9167732514
 20
22.3978044398
 10
0.9332452943
 20
22.4095950629
 10
0.9490322874
 20
22.4216176897
 10
0.9641211682
 20
22.4338623727
 10
0.9784994524
 20
22.4463189805
 10
0.9921552431
 20
22.4589772066
 10
1.0050772416
 20
22.4718265774
 10
1.0172547562
 20
22.4848564614
 10
1.0286777111
 20
22.4980560776
 10
1.039336655
 20
22.5114145046
 10
1.0492227685
 20
22.5249206895
 10
1.058327872
 20
22.5385634574
 10
1.0666444318
 20
22.5523315201
 10
1.0741655668
 20
22.5662134859
 10
1.0808850539
 20
22.5801978688
 10
1.0867973334
 20
22.5942730981
 10
1.0918975135
 20
22.6084275279
 10
1.0961813743
 20
22.6226494467
 10
1.0996453713
 20
22.6369270874
 10
1.1022866384
 20
22.6512486365
 10
1.1041029901
 20
22.6656022443
 10
1.1050929237
 20
22.6799760346
 10
1.105293697
 20
22.6899928231
  0
LINE
  5
366
100
AcDbEntity
  8
RACCORDO
100
AcDbLine
 62
250
  6
CONTINUOUS
 10
0.8246334974
 20
22.3426656603
 11
-19.6830353087
 21
11.9093319933
  0
LWPOLYLINE
  5
367
100
AcDbEntity
  8
0
100
AcDbPolyline
 62
250
  6
CONTINUOUS
 90
7
 70
0
 10
-42.3118673817
 20
0.7086876465
 10
-42.306427243
 20
0.7113468543
 10
-42.2909611749
 20
0.7162892477
 10
-42.274228435
 20
0.7180911067
 10
-42.2565152142
 20
0.7167216129
 10
-42.2381244733
 20
0.7122041896
 10
-42.2193707612
 20
0.7046161012
  0
LWPOLYLINE
  5
368
100
AcDbEntity
  8
RACCORDO
100
AcDbPolyline
 62
250
  6
CONTINUOUS
 90
7
 70
0
 10
-42.3118673817
 20
0.7086876465
 10
-42.306427243
 20
0.7113468543
 10
-42.2909611749
 20
0.7162892477
 10
-42.274228435
 20
0.7180911067
 10
-42.2565152142
 20
0.7167216129
 10
-42.2381244733
 20
0.7122041896
 10
-42.2193707612
 20
0.7046161012
  0
LINE
  5
369
100
AcDbEntity
  8
0
100
AcDbLine
 62
7
  6
CONTINUOUS
 10
-23.4557997618
 20
-5.0598518526
 11
-23.3246136926
 21
-5.1254448872
  0
LINE
  5
36A
100
AcDbEntity
  8
RACCORDO
100
AcDbLine
 62
7
  6
CONTINUOUS
 10
-23.4557997618
 20
-5.0598518526
 11
-23.3246136926
 21
-5.1254448872
  0
LINE
  5
36B
100
AcDbEntity
  8
RACCORDO
100
AcDbLine
 62
250
  6
CONTINUOUS
 10
-20.2065220726
 20
-23.7641382312
 11
-20.2164071006
 21
-23.7354848139
  0
LWPOLYLINE
  5
36C
100
AcDbEntity
  8
RACCORDO
100
AcDbPolyline
 62
250
  6
CONTINUOUS
 90
7
 70
0
 10
-23.3901382708
 20
-23.1570516843
 10
-23.3878792163
 20
-23.1738153734
 10
-23.3814305185
 20
-23.1897525643
 10
-23.3708989169
 20
-23.205136381
 10
-23.3564626171
 20
-23.2197065138
 10
-23.3383658954
 20
-23.2332164221
 10
-23.3169149662
 20
-23.2454375049
  0
LWPOLYLINE
  5
36D
100
AcDbEntity
  8
0
100
AcDbPolyline
 62
250
  6
CONTINUOUS
 90
16
 70
0
 10
-25.8014936832
 20
12.2466228123
 10
-25.8053603154
 20
12.2918311296
 10
-25.8129855862
 20
12.338512762
 10
-25.8242860612
 20
12.386156859
 10
-25.8391380866
 20
12.4342420367
 10
-25.8573791412
 20
12.4822420778
 10
-25.8788096127
 20
12.5296316903
 10
-25.9031949868
 20
12.575892267
 10
-25.9302684101
 20
12.620517551
 10
-25.9597336051
 20
12.6630191717
 10
-25.9912681248
 20
12.7029320081
 10
-26.0245268734
 20
12.7398192658
 10
-26.059145876
 20
12.7732772515
 10
-26.0947462759
 20
12.8029398088
 10
-26.1309384819
 20
12.8284823217
 10
-26.1673264225
 20
12.8496252584
  0
LWPOLYLINE
  5
36E
100
AcDbEntity
  8
RACCORDO
100
AcDbPolyline
 62
250
  6
CONTINUOUS
 90
16
 70
0
 10
-25.8014936832
 20
12.2466228123
 10
-25.8053603154
 20
12.2918311296
 10
-25.8129855862
 20
12.338512762
 10
-25.8242860612
 20
12.386156859
 10
-25.8391380866
 20
12.4342420367
 10
-25.8573791412
 20
12.4822420778
 10
-25.8788096127
 20
12.5296316903
 10
-25.9031949868
 20
12.575892267
 10
-25.9302684101
 20
12.620517551
 10
-25.9597336051
 20
12.6630191717
 10
-25.9912681248
 20
12.7029320081
 10
-26.0245268734
 20
12.7398192658
 10
-26.059145876
 20
12.7732772515
 10
-26.0947462759
 20
12.8029398088
 10
-26.1309384819
 20
12.8284823217
 10
-26.1673264225
 20
12.8496252584
  0
LWPOLYLINE
  5
36F
100
AcDbEntity
  8
RACCORDO
100
AcDbPolyline
 62
250
  6
CONTINUOUS
 90
8
 70
0
 10
-24.01785092
 20
-24.6863772363
 10
-24.0164196662
 20
-24.7131564126
 10
-24.0121097022
 20
-24.7382359443
 10
-24.0049332287
 20
-24.7611608685
 10
-23.9949270337
 20
-24.7815406642
 10
-23.9822193155
 20
-24.7989151643
 10
-23.9670870802
 20
-24.8128378018
 10
-23.9528964464
 20
-24.8215862723
  0
LWPOLYLINE
  5
370
100
AcDbEntity
  8
ASSI
100
AcDbPolyline
 62
7
  6
CONTINUOUS
 90
10
 70
0
 10
-25.2697646892
 20
24.3719940035
 10
-25.2698664988
 20
24.3775675604
 10
-25.2722103762
 20
24.3983416604
 10
-25.2775987258
 20
24.417506944
 10
-25.2859895094
 20
24.4350286144
 10
-25.2973228555
 20
24.4510178204
 10
-25.3115068702
 20
24.4656106456
 10
-25.3284901242
 20
24.4788131716
 10
-25.3481909326
 20
24.4907088993
 10
-25.3553637052
 20
24.4944255249
  0
LINE
  5
371
100
AcDbEntity
  8
RACCORDO
100
AcDbLine
 62
250
  6
CONTINUOUS
 10
-26.435905069
 20
22.8946293672
 11
-26.435905069
 21
21.7177383586
  0
LINE
  5
372
100
AcDbEntity
  8
RACCORDO
100
AcDbLine
 62
250
  6
CONTINUOUS
 10
-26.2258152428
 20
17.8462206089
 11
-26.2258152428
 21
18.8945148763
  0
LINE
  5
373
100
AcDbEntity
  8
RACCORDO
100
AcDbLine
 62
250
  6
CONTINUOUS
 10
-25.5207506359
 20
17.8527201185
 11
-25.5207506359
 21
19.0689568718
  0
LINE
  5
374
100
AcDbEntity
  8
RACCORDO
100
AcDbLine
 62
7
  6
CONTINUOUS
 10
-25.4699792427
 20
23.010947591
 11
-25.4699792427
 21
22.5100319379
  0
LINE
  5
375
100
AcDbEntity
  8
ASSI
100
AcDbLine
 62
250
  6
CONTINUOUS
 10
-25.3951789184
 20
24.5111524031
 11
-25.3951789184
 21
23.3927437975
  0
LINE
  5
376
100
AcDbEntity
  8
RACCORDO
100
AcDbLine
 62
7
  6
CONTINUOUS
 10
-25.269764689
 20
24.371975464
 11
-25.269764689
 21
23.5395552309
  0
LINE
  5
377
100
AcDbEntity
  8
DRAFT
100
AcDbLine
 62
7
  6
CONTINUOUS
 10
-25.1631128629
 20
19.249528295
 11
-25.1631128629
 21
18.0370927297
  0
LINE
  5
378
100
AcDbEntity
  8
RACCORDO
100
AcDbLine
 62
250
  6
CONTINUOUS
 10
-25.0216915066
 20
22.3806224154
 11
-25.0216915066
 21
21.8569360253
  0
LWPOLYLINE
  5
379
100
AcDbEntity
  8
0
100
AcDbPolyline
 62
250
  6
CONTINUOUS
 90
6
 70
0
 10
-26.6900390598
 20
3.2321284616
 10
-26.7238126712
 20
1.2762619766
 10
-26.7503594124
 20
-0.676281295
 10
-26.7696791218
 20
-2.6254912953
 10
-26.781771961
 20
-4.5713780823
 10
-26.7866379301
 20
-6.5139416559
  0
LWPOLYLINE
  5
37A
100
AcDbEntity
  8
RACCORDO
100
AcDbPolyline
 62
250
  6
CONTINUOUS
 90
6
 70
0
 10
-26.6900390598
 20
3.2321284616
 10
-26.7238126712
 20
1.2762619766
 10
-26.7503594124
 20
-0.676281295
 10
-26.7696791218
 20
-2.6254912953
 10
-26.781771961
 20
-4.5713780823
 10
-26.7866379301
 20
-6.5139416559
  0
LWPOLYLINE
  5
37B
100
AcDbEntity
  8
0
100
AcDbPolyline
 62
250
  6
CONTINUOUS
 90
4
 70
0
 10
-26.5453602394
 20
9.1194660379
 10
-26.6008128439
 20
7.1537304922
 10
-26.6490390635
 20
5.1912879861
 10
-26.6900390598
 20
3.2321284616
  0
LWPOLYLINE
  5
37C
100
AcDbEntity
  8
RACCORDO
100
AcDbPolyline
 62
250
  6
CONTINUOUS
 90
4
 70
0
 10
-26.5453602394
 20
9.1194660379
 10
-26.6008128439
 20
7.1537304922
 10
-26.6490390635
 20
5.1912879861
 10
-26.6900390598
 20
3.2321284616
  0
LINE
  5
37D
100
AcDbEntity
  8
0
100
AcDbLine
 62
250
  6
CONTINUOUS
 10
-26.4826812498
 20
11.0884946232
 11
-26.5453602394
 21
9.1194660379
  0
LINE
  5
37E
100
AcDbEntity
  8
RACCORDO
100
AcDbLine
 62
250
  6
CONTINUOUS
 10
-26.4826812498
 20
11.0884946232
 11
-26.5453602394
 21
9.1194660379
  0
LWPOLYLINE
  5
37F
100
AcDbEntity
  8
RACCORDO
100
AcDbPolyline
 62
250
  6
CONTINUOUS
 90
13
 70
0
 10
-24.01785092
 20
17.2818287574
 10
-24.0164196662
 20
17.3100391874
 10
-24.0121097022
 20
17.3394286832
 10
-24.0049332287
 20
17.3695300809
 10
-23.9949270337
 20
17.3999160716
 10
-23.9822193155
 20
17.4299982899
 10
-23.9670870802
 20
17.4590531626
 10
-23.9498296315
 20
17.486524469
 10
-23.9307122369
 20
17.5120060842
 10
-23.9100683356
 20
17.5350557438
 10
-23.8882542998
 20
17.5552800348
 10
-23.8656416323
 20
17.5723387737
 10
-23.8426168728
 20
17.585943888
  0
LWPOLYLINE
  5
380
100
AcDbEntity
  8
0
100
AcDbPolyline
 62
250
  6
CONTINUOUS
 90
8
 70
0
 10
-26.7866379301
 20
-6.5139416559
 10
-26.7881536665
 20
-6.5360846765
 10
-26.7920197175
 20
-6.5566186369
 10
-26.7981699595
 20
-6.5751923314
 10
-26.8064992009
 20
-6.591488082
 10
-26.8168649812
 20
-6.6052271719
 10
-26.8290900075
 20
-6.6161746123
 10
-26.8413883894
 20
-6.6234279227
  0
LWPOLYLINE
  5
381
100
AcDbEntity
  8
RACCORDO
100
AcDbPolyline
 62
250
  6
CONTINUOUS
 90
8
 70
0
 10
-26.7866379301
 20
-6.5139416559
 10
-26.7881536665
 20
-6.5360846765
 10
-26.7920197175
 20
-6.5566186369
 10
-26.7981699595
 20
-6.5751923314
 10
-26.8064992009
 20
-6.591488082
 10
-26.8168649812
 20
-6.6052271719
 10
-26.8290900075
 20
-6.6161746123
 10
-26.8413883894
 20
-6.6234279227
  0
LWPOLYLINE
  5
382
100
AcDbEntity
  8
RACCORDO
100
AcDbPolyline
 62
250
  6
CONTINUOUS
 90
46
 70
0
 10
-8.4962896874
 20
23.0622123025
 10
-8.4481996997
 20
23.117618223
 10
-8.3930660251
 20
23.1732088373
 10
-8.3325625468
 20
23.2271513596
 10
-8.2666901952
 20
23.2794042591
 10
-8.1954480399
 20
23.3300090666
 10
-8.1193139422
 20
23.3786323451
 10
-8.0382973132
 20
23.4252600876
 10
-7.9523887418
 20
23.4699063012
 10
-7.8620378561
 20
23.5122795703
 10
-7.7669875759
 20
23.5524387683
 10
-7.6674949814
 20
23.5903250218
 10
-7.564780941
 20
23.6254702949
 10
-7.4584400723
 20
23.6578480148
 10
-7.3488777577
 20
23.6874847544
 10
-7.2385310133
 20
23.7139921966
 10
-7.1274264963
 20
23.73719159
 10
-7.0155375496
 20
23.7572616861
 10
-6.9052212175
 20
23.7743504219
 10
-6.7968307276
 20
23.7883243177
 10
-6.6900128523
 20
23.7993168533
 10
-6.5860649532
 20
23.8078764045
 10
-6.4852291188
 20
23.8139789741
 10
-6.3872632605
 20
23.8176485593
 10
-6.2927384742
 20
23.8195055281
 10
-6.2018167341
 20
23.8195713969
 10
-6.1143360659
 20
23.8178246494
 10
-6.0303816425
 20
23.814821104
 10
-5.9500775692
 20
23.8106023034
 10
-5.8732997406
 20
23.8051267049
 10
-5.7997610141
 20
23.7988254993
 10
-5.7294944804
 20
23.7917394655
 10
-5.6624670489
 20
23.7838278246
 10
-5.5982923047
 20
23.7753994304
 10
-5.5369845579
 20
23.7664887899
 10
-5.4785294985
 20
23.7570613961
 10
-5.422497782
 20
23.7473225823
 10
-5.3688931984
 20
23.7373010606
 10
-5.3177119578
 20
23.7269681188
 10
-5.2685133455
 20
23.7164429541
 10
-5.2212942005
 20
23.7057484149
 10
-5.176057684
 20
23.6948616528
 10
-5.1323725641
 20
23.6838333192
 10
-5.090095097
 20
23.6726802979
 10
-5.0493690266
 20
23.661385705
 10
-5.0101943529
 20
23.6499495407
  0
LWPOLYLINE
  5
383
100
AcDbEntity
  8
RACCORDO
100
AcDbPolyline
 62
250
  6
CONTINUOUS
 90
9
 70
0
 10
-8.5709833412
 20
23.0969599588
 10
-8.5629122227
 20
23.1062303015
 10
-8.5038333522
 20
23.1654895188
 10
-8.4387405728
 20
23.2230974519
 10
-8.367864741
 20
23.2788709196
 10
-8.2913716032
 20
23.3326988551
 10
-8.2093801994
 20
23.3845000388
 10
-8.1221316024
 20
23.4341176781
 10
-8.101634441
 20
23.4450540464
  0
LINE
  5
384
100
AcDbEntity
  8
RACCORDO
100
AcDbLine
 62
250
  6
CONTINUOUS
 10
-23.1832138756
 20
7.5639821038
 11
-22.8481729671
 21
7.7215034562
  0
LINE
  5
385
100
AcDbEntity
  8
RACCORDO
100
AcDbLine
 62
7
  6
CONTINUOUS
 10
-23.1832138756
 20
7.4383277044
 11
-22.9285835439
 21
7.5580435754
  0
LWPOLYLINE
  5
386
100
AcDbEntity
  8
RACCORDO
100
AcDbPolyline
 62
250
  6
CONTINUOUS
 90
44
 70
0
 10
0.9947108823
 20
16.6555002789
 10
1.0037177285
 20
16.6587220175
 10
1.0128203935
 20
16.6616785132
 10
1.0220164315
 20
16.664373624
 10
1.0313034819
 20
16.6668407232
 10
1.0406782786
 20
16.669055095
 10
1.0501356659
 20
16.6709353721
 10
1.0597157058
 20
16.6724947615
 10
1.0693682269
 20
16.6737350284
 10
1.0789508039
 20
16.6745601531
 10
1.088431723
 20
16.6749692133
 10
1.0978291912
 20
16.6749823138
 10
1.1070739086
 20
16.6745371025
 10
1.1161447979
 20
16.6736490281
 10
1.1250449112
 20
16.6723280259
 10
1.1337380326
 20
16.6705076978
 10
1.1422168304
 20
16.6682142772
 10
1.1504635079
 20
16.6654572773
 10
1.1584210765
 20
16.6621523481
 10
1.1660776605
 20
16.6583409663
 10
1.173410378
 20
16.6540320271
 10
1.1803374818
 20
16.6491041242
 10
1.1868661649
 20
16.6435795215
 10
1.1929373896
 20
16.6375131707
 10
1.1983633466
 20
16.6308423934
 10
1.2031156166
 20
16.6235636599
 10
1.2071615922
 20
16.6157747198
 10
1.2103138656
 20
16.6075546715
 10
1.2125174001
 20
16.5989238117
 10
1.2137810392
 20
16.5899380278
 10
1.214030087
 20
16.5807041025
 10
1.2132274749
 20
16.571234045
 10
1.2113802722
 20
16.5615712634
 10
1.2084981925
 20
16.5518412454
 10
1.2045600058
 20
16.5420505781
 10
1.1995765863
 20
16.5322194829
 10
1.1936236418
 20
16.5224649472
 10
1.1867115936
 20
16.5128022604
 10
1.1788373916
 20
16.5032141523
 10
1.1700671799
 20
16.4937508964
 10
1.1604012373
 20
16.4844041964
 10
1.1498497673
 20
16.4751746229
 10
1.1384993225
 20
16.4661159894
 10
1.130552275
 20
16.4602921157
  0
LWPOLYLINE
  5
387
100
AcDbEntity
  8
RACCORDO
100
AcDbPolyline
 62
250
  6
CONTINUOUS
 90
3
 70
0
 10
-20.1965051759
 20
-23.8261641439
 10
-20.1998473514
 20
-23.7945444585
 10
-20.2065220726
 20
-23.7641382312
  0
LWPOLYLINE
  5
388
100
AcDbEntity
  8
RACCORDO
100
AcDbPolyline
 62
250
  6
CONTINUOUS
 90
8
 70
0
 10
-22.7021302217
 20
-25.3442375854
 10
-22.700698968
 20
-25.3710167617
 10
-22.696389004
 20
-25.3960962934
 10
-22.6892125304
 20
-25.4190212176
 10
-22.6792063354
 20
-25.4394010133
 10
-22.6664986173
 20
-25.4567755134
 10
-22.651366382
 20
-25.4706981509
 10
-22.6371606113
 20
-25.4794541924
  0
LWPOLYLINE
  5
389
100
AcDbEntity
  8
RACCORDO
100
AcDbPolyline
 62
250
  6
CONTINUOUS
 90
9
 70
0
 10
-24.01785092
 20
16.9475278302
 10
-24.0166556192
 20
16.9229906274
 10
-24.0130858813
 20
16.8999805489
 10
-24.0071899808
 20
16.8788087667
 10
-23.9990476496
 20
16.8597615926
 10
-23.9887689989
 20
16.8430966071
 10
-23.9764930298
 20
16.8290391755
 10
-23.9623857536
 20
16.8177794005
 10
-23.9528776236
 20
16.8123093801
  0
LWPOLYLINE
  5
38A
100
AcDbEntity
  8
RACCORDO
100
AcDbPolyline
 62
250
  6
CONTINUOUS
 90
9
 70
0
 10
-22.7021302217
 20
16.2896674811
 10
-22.700934921
 20
16.2651302783
 10
-22.697365183
 20
16.2421201998
 10
-22.6914692825
 20
16.2209484175
 10
-22.6833269514
 20
16.2019012435
 10
-22.6730483007
 20
16.185236258
 10
-22.6607723315
 20
16.1711788264
 10
-22.6466650554
 20
16.1599190514
 10
-22.6371569253
 20
16.154449031
  0
LWPOLYLINE
  5
38B
100
AcDbEntity
  8
RACCORDO
100
AcDbPolyline
 62
7
  6
CONTINUOUS
 90
15
 70
0
 10
-22.6175284506
 20
23.5251524964
 10
-22.6190603321
 20
23.5807842442
 10
-22.6234895154
 20
23.6342695538
 10
-22.6308160003
 20
23.6856084253
 10
-22.6410945789
 20
23.7349973168
 10
-22.6542704592
 20
23.7822397701
 10
-22.6701792651
 20
23.8267464109
 10
-22.6888552338
 20
23.8684829658
 10
-22.7102641281
 20
23.9074837081
 10
-22.7341388608
 20
23.9432620831
 10
-22.7605103231
 20
23.9757777221
 10
-22.7893476238
 20
24.0050709937
 10
-22.8202910025
 20
24.0307764491
 10
-22.8533668433
 20
24.0528491413
 10
-22.8774007635
 20
24.0660158596
  0
LWPOLYLINE
  5
38C
100
AcDbEntity
  8
RACCORDO
100
AcDbPolyline
 62
7
  6
CONTINUOUS
 90
12
 70
0
 10
-23.3901382709
 20
16.0593781257
 10
-23.3901218778
 20
16.056162397
 10
-23.3889909298
 20
16.0320651595
 10
-23.3861690382
 20
16.0076635402
 10
-23.3817942493
 20
15.9829981984
 10
-23.3759663461
 20
15.9584006756
 10
-23.3687867809
 20
15.9339033656
 10
-23.3603861263
 20
15.9095617025
 10
-23.3508798484
 20
15.8857345609
 10
-23.3403855892
 20
15.8625571391
 10
-23.3290247989
 20
15.8399405792
 10
-23.3169149662
 20
15.8178986166
  0
LINE
  5
38D
100
AcDbEntity
  8
RACCORDO
100
AcDbLine
 62
7
  6
CONTINUOUS
 10
-24.0910742247
 20
17.3702171051
 11
-24.0910742247
 21
17.0359161779
  0
LINE
  5
38E
100
AcDbEntity
  8
RACCORDO
100
AcDbLine
 62
7
  6
CONTINUOUS
 10
-24.0910742247
 20
-24.4928197928
 11
-24.0910742247
 21
-24.5979888887
  0
LINE
  5
38F
100
AcDbEntity
  8
RACCORDO
100
AcDbLine
 62
250
  6
CONTINUOUS
 10
-24.01785092
 20
17.2818287574
 11
-24.01785092
 21
16.9475278302
  0
LINE
  5
390
100
AcDbEntity
  8
RACCORDO
100
AcDbLine
 62
250
  6
CONTINUOUS
 10
-24.01785092
 20
-24.4620836237
 11
-24.01785092
 21
-24.6863772363
  0
LINE
  5
391
100
AcDbEntity
  8
0
100
AcDbLine
 62
7
  6
CONTINUOUS
 10
-23.7587733763
 20
13.3618038703
 11
-23.7587733763
 21
12.511309546
  0
LINE
  5
392
100
AcDbEntity
  8
RACCORDO
100
AcDbLine
 62
7
  6
CONTINUOUS
 10
-23.7587733763
 20
13.3618038703
 11
-23.7587733763
 21
12.511309546
  0
LINE
  5
393
100
AcDbEntity
  8
0
100
AcDbLine
 62
7
  6
CONTINUOUS
 10
-23.7587733763
 20
-24.1366997301
 11
-23.7587733763
 21
-23.2862054058
  0
LINE
  5
394
100
AcDbEntity
  8
RACCORDO
100
AcDbLine
 62
7
  6
CONTINUOUS
 10
-23.7587733763
 20
-24.1366997301
 11
-23.7587733763
 21
-23.2862054058
  0
LINE
  5
395
100
AcDbEntity
  8
RACCORDO
100
AcDbLine
 62
7
  6
CONTINUOUS
 10
-23.3901382709
 20
-23.1570491577
 11
-23.3901382709
 21
-23.1314673619
  0
LINE
  5
396
100
AcDbEntity
  8
RACCORDO
100
AcDbLine
 62
7
  6
CONTINUOUS
 10
-23.3901382709
 20
16.0593800732
 11
-23.3901382709
 21
16.5309397038
  0
LINE
  5
397
100
AcDbEntity
  8
RACCORDO
100
AcDbLine
 62
250
  6
CONTINUOUS
 10
-23.3493346259
 20
-5.0106827246
 11
-23.3493346259
 21
-5.1130844205
  0
LINE
  5
398
100
AcDbEntity
  8
RACCORDO
100
AcDbLine
 62
250
  6
CONTINUOUS
 10
-23.3169149662
 20
-23.2454375049
 11
-23.3169149662
 21
-23.1007311929
  0
LINE
  5
399
100
AcDbEntity
  8
RACCORDO
100
AcDbLine
 62
250
  6
CONTINUOUS
 10
-23.3169149662
 20
15.8178986166
 11
-23.3169149662
 21
16.4943280515
  0
LINE
  5
39A
100
AcDbEntity
  8
0
100
AcDbLine
 62
7
  6
CONTINUOUS
 10
-23.1832138756
 20
12.8255243951
 11
-23.1832138756
 21
-4.8497610142
  0
LINE
  5
39B
100
AcDbEntity
  8
RACCORDO
100
AcDbLine
 62
7
  6
CONTINUOUS
 10
-23.1832138756
 20
12.8255243951
 11
-23.1832138756
 21
-4.8497610142
  0
LINE
  5
39C
100
AcDbEntity
  8
0
100
AcDbLine
 62
7
  6
CONTINUOUS
 10
-23.1832138756
 20
-23.0446089058
 11
-23.1832138756
 21
-5.3693234965
  0
LINE
  5
39D
100
AcDbEntity
  8
RACCORDO
100
AcDbLine
 62
7
  6
CONTINUOUS
 10
-23.1832138756
 20
-23.0446089058
 11
-23.1832138756
 21
-5.3693234965
  0
LINE
  5
39E
100
AcDbEntity
  8
RACCORDO
100
AcDbLine
 62
7
  6
CONTINUOUS
 10
-22.8481729671
 20
7.7215034562
 11
-22.8481729671
 21
3.5505383169
  0
LINE
  5
39F
100
AcDbEntity
  8
RACCORDO
100
AcDbLine
 62
7
  6
CONTINUOUS
 10
-22.8481729671
 20
-11.4176579675
 11
-22.8481729671
 21
-15.5886231067
  0
LINE
  5
3A0
100
AcDbEntity
  8
RACCORDO
100
AcDbLine
 62
250
  6
CONTINUOUS
 10
-22.7021302217
 20
-25.3442375854
 11
-22.7021302217
 21
-25.0099366583
  0
LINE
  5
3A1
100
AcDbEntity
  8
RACCORDO
100
AcDbLine
 62
250
  6
CONTINUOUS
 10
-22.7021302217
 20
16.2896674811
 11
-22.7021302217
 21
16.6239684083
  0
LINE
  5
3A2
100
AcDbEntity
  8
RACCORDO
100
AcDbLine
 62
7
  6
CONTINUOUS
 10
-22.6175284506
 20
23.3300395514
 11
-22.6175284506
 21
23.5251524964
  0
LINE
  5
3A3
100
AcDbEntity
  8
RACCORDO
100
AcDbLine
 62
7
  6
CONTINUOUS
 10
-22.4915341629
 20
13.1102918018
 11
-22.4915341629
 21
-20.6269434754
  0
LINE
  5
3A4
100
AcDbEntity
  8
RACCORDO
100
AcDbLine
 62
250
  6
CONTINUOUS
 10
-22.3501262104
 20
-25.3450055439
 11
-22.3501262104
 21
-25.0107046168
  0
LINE
  5
3A5
100
AcDbEntity
  8
RACCORDO
100
AcDbLine
 62
250
  6
CONTINUOUS
 10
-22.3501262104
 20
16.2888995226
 11
-22.3501262104
 21
16.6232004498
  0
LINE
  5
3A6
100
AcDbEntity
  8
RACCORDO
100
AcDbLine
 62
250
  6
CONTINUOUS
 10
-21.9888526132
 20
15.890135458
 11
-21.9888526132
 21
15.3551450075
  0
LINE
  5
3A7
100
AcDbEntity
  8
RACCORDO
100
AcDbLine
 62
250
  6
CONTINUOUS
 10
-21.9888526132
 20
-23.3744782308
 11
-21.9888526132
 21
-23.9094686814
  0
LWPOLYLINE
  5
3A8
100
AcDbEntity
  8
RACCORDO
100
AcDbPolyline
 62
7
  6
CONTINUOUS
 90
13
 70
0
 10
-23.3901381041
 20
-23.1570516842
 10
-23.3908983088
 20
-23.1785501518
 10
-23.3933300675
 20
-23.2023642198
 10
-23.3975570267
 20
-23.227852002
 10
-23.4036432526
 20
-23.2546064251
 10
-23.4115882257
 20
-23.2821644699
 10
-23.4213378878
 20
-23.3100938606
 10
-23.4327850232
 20
-23.3379723877
 10
-23.4457984823
 20
-23.3654168229
 10
-23.460241392
 20
-23.3921129948
 10
-23.4759074607
 20
-23.4176975739
 10
-23.4925502082
 20
-23.4418187695
 10
-23.5088574615
 20
-23.46289473
  0
LWPOLYLINE
  5
3A9
100
AcDbEntity
  8
RACCORDO
100
AcDbPolyline
 62
250
  6
CONTINUOUS
 90
13
 70
0
 10
-22.7021302217
 20
16.6239684083
 10
-22.700698968
 20
16.6521788383
 10
-22.696389004
 20
16.681568334
 10
-22.6892125304
 20
16.7116697318
 10
-22.6792063354
 20
16.7420557225
 10
-22.6664986173
 20
16.7721379407
 10
-22.651366382
 20
16.8011928135
 10
-22.6341089333
 20
16.8286641199
 10
-22.6149915386
 20
16.8541457351
 10
-22.5943476374
 20
16.8771953947
 10
-22.5725336015
 20
16.8974196857
 10
-22.549920934
 20
16.9144784246
 10
-22.5268961745
 20
16.9280835389
  0
LWPOLYLINE
  5
3AA
100
AcDbEntity
  8
0
100
AcDbPolyline
 62
250
  6
CONTINUOUS
 90
10
 70
0
 10
-25.8014936832
 20
-24.9941507425
 10
-25.8053603492
 20
-25.0392900405
 10
-25.8129856914
 20
-25.0819673366
 10
-25.824286262
 20
-25.1217155927
 10
-25.8391383934
 20
-25.1580998242
 10
-25.8573795515
 20
-25.1907218611
 10
-25.8788101147
 20
-25.2192247046
 10
-25.9031955578
 20
-25.2432964343
 10
-25.9302690192
 20
-25.2626736217
 10
-25.9553009284
 20
-25.2753464407
  0
LWPOLYLINE
  5
3AB
100
AcDbEntity
  8
RACCORDO
100
AcDbPolyline
 62
250
  6
CONTINUOUS
 90
10
 70
0
 10
-25.8014936832
 20
-24.9941507425
 10
-25.8053603492
 20
-25.0392900405
 10
-25.8129856914
 20
-25.0819673366
 10
-25.824286262
 20
-25.1217155927
 10
-25.8391383934
 20
-25.1580998242
 10
-25.8573795515
 20
-25.1907218611
 10
-25.8788101147
 20
-25.2192247046
 10
-25.9031955578
 20
-25.2432964343
 10
-25.9302690192
 20
-25.2626736217
 10
-25.9553009284
 20
-25.2753464407
  0
LWPOLYLINE
  5
3AC
100
AcDbEntity
  8
RACCORDO
100
AcDbPolyline
 62
250
  6
CONTINUOUS
 90
7
 70
0
 10
-20.1447769418
 20
17.779725341
 10
-20.146657761
 20
17.7644211574
 10
-20.1527741477
 20
17.7483619561
 10
-20.1630259181
 20
17.7328439401
 10
-20.1772324323
 20
17.7181331613
 10
-20.1951482807
 20
17.704478418
 10
-20.2164643295
 20
17.6921116829
  0
LWPOLYLINE
  5
3AD
100
AcDbEntity
  8
RACCORDO
100
AcDbPolyline
 62
250
  6
CONTINUOUS
 90
7
 70
0
 10
-20.1447769427
 20
17.4340773856
 10
-20.1468020006
 20
17.4182099982
 10
-20.153041847
 20
17.4022125605
 10
-20.1633648424
 20
17.3867897822
 10
-20.1775585231
 20
17.3722086457
 10
-20.1953654179
 20
17.3586971575
 10
-20.2164643295
 20
17.346474222
  0
LWPOLYLINE
  5
3AE
100
AcDbEntity
  8
RACCORDO
100
AcDbPolyline
 62
7
  6
CONTINUOUS
 90
24
 70
0
 10
2.7060204786
 20
19.374727607
 10
2.7119101984
 20
19.3782342676
 10
2.7175699567
 20
19.3817952735
 10
2.7229944795
 20
19.3854069537
 10
2.7281787168
 20
19.389065314
 10
2.7331178824
 20
19.3927667788
 10
2.7378074521
 20
19.396508196
 10
2.7422431221
 20
19.4002855359
 10
2.7464208234
 20
19.4040948577
 10
2.7503367553
 20
19.4079330524
 10
2.7539873742
 20
19.4117959171
 10
2.7573693874
 20
19.415679351
 10
2.7604797628
 20
19.419580324
 10
2.763315747
 20
19.4234944965
 10
2.7658748503
 20
19.427417644
 10
2.7681548436
 20
19.4313468527
 10
2.7701537866
 20
19.4352776849
 10
2.7718700101
 20
19.4392058296
 10
2.7733021111
 20
19.4431285256
 10
2.7744489758
 20
19.4470412765
 10
2.7753097656
 20
19.4509397235
 10
2.7758839148
 20
19.4548212948
 10
2.7761711412
 20
19.4586814752
 10
2.7762071457
 20
19.4606058697
  0
LWPOLYLINE
  5
3AF
100
AcDbEntity
  8
RACCORDO
100
AcDbPolyline
 62
7
  6
CONTINUOUS
 90
10
 70
0
 10
2.7060204786
 20
19.374727607
 10
2.7045439945
 20
19.3739043923
 10
2.7030488451
 20
19.3731386263
 10
2.7015349744
 20
19.3724304217
 10
2.7000039848
 20
19.3717797536
 10
2.6984541966
 20
19.3711868622
 10
2.696880505
 20
19.370652317
 10
2.6952810351
 20
19.3701764518
 10
2.6936572852
 20
19.3697593003
 10
2.6920090858
 20
19.3694010437
  0
LINE
  5
3B0
100
AcDbEntity
  8
RACCORDO
100
AcDbLine
 62
250
  6
CONTINUOUS
 10
-23.1832138756
 20
3.8533915005
 11
-23.0602807704
 21
3.9163998412
  0
LINE
  5
3B1
100
AcDbEntity
  8
CURVE
100
AcDbLine
 62
250
  6
CONTINUOUS
 10
-31.6536427232
 20
4.8484275183
 11
-38.0176037539
 21
8.0304080337
  0
LWPOLYLINE
  5
3B2
100
AcDbEntity
  8
RACCORDO
100
AcDbPolyline
 62
250
  6
CONTINUOUS
 90
5
 70
0
 10
-36.7457487166
 20
22.7570202599
 10
-36.7352172161
 20
22.7416365421
 10
-36.720780967
 20
22.7270664092
 10
-36.7026842141
 20
22.7135564445
 10
-36.6812331306
 20
22.7013352662
  0
LWPOLYLINE
  5
3B3
100
AcDbEntity
  8
RACCORDO
100
AcDbPolyline
 62
7
  6
CONTINUOUS
 90
13
 70
0
 10
-20.7436954805
 20
17.4295392794
 10
-20.7453974701
 20
17.4584594978
 10
-20.7500682436
 20
17.4884102701
 10
-20.7576278898
 20
17.5188791806
 10
-20.7679470697
 20
17.5493449501
 10
-20.7808492392
 20
17.57928635
 10
-20.7961136698
 20
17.608191119
 10
-20.8134792147
 20
17.635564733
 10
-20.8326487669
 20
17.6609388705
 10
-20.8532943516
 20
17.6838794199
 10
-20.8750627485
 20
17.7039939014
 10
-20.8975815344
 20
17.7209381822
 10
-20.9204654446
 20
17.7344223686
  0
LWPOLYLINE
  5
3B4
100
AcDbEntity
  8
RACCORDO
100
AcDbPolyline
 62
250
  6
CONTINUOUS
 90
13
 70
0
 10
-22.3501262104
 20
16.6232004498
 10
-22.3517594415
 20
16.6514787815
 10
-22.3562757445
 20
16.6809588985
 10
-22.3636586358
 20
16.7111671311
 10
-22.3738667745
 20
16.7416692152
 10
-22.3867659041
 20
16.7718690609
 10
-22.4020719644
 20
16.8010348601
 10
-22.4194795159
 20
16.8286028324
 10
-22.4387177798
 20
16.8541601395
 10
-22.4594476011
 20
16.8772583886
 10
-22.4813072553
 20
16.8974989908
 10
-22.5039203724
 20
16.9145376818
 10
-22.5268961745
 20
16.9280835389
  0
LWPOLYLINE
  5
3B5
100
AcDbEntity
  8
RACCORDO
100
AcDbPolyline
 62
250
  6
CONTINUOUS
 90
8
 70
0
 10
-21.9888526132
 20
15.890135458
 10
-21.9900763386
 20
15.9147347233
 10
-21.9937199416
 20
15.9378035255
 10
-21.999729886
 20
15.9590329994
 10
-22.0080215608
 20
15.9781375164
 10
-22.0184788935
 20
15.9948685643
 10
-22.0309609189
 20
16.0090121302
 10
-22.0453031414
 20
16.0203798341
  0
LWPOLYLINE
  5
3B6
100
AcDbEntity
  8
RACCORDO
100
AcDbPolyline
 62
250
  6
CONTINUOUS
 90
13
 70
0
 10
-21.6368486018
 20
15.8893674995
 10
-21.6383240763
 20
15.9269711072
 10
-21.6423901886
 20
15.9623945241
 10
-21.6490469388
 20
15.9956377503
 10
-21.6583804184
 20
16.0268955705
 10
-21.6703045358
 20
16.0559732
 10
-21.6845610162
 20
16.0822862843
 10
-21.7011895079
 20
16.1057952287
 10
-21.7201503626
 20
16.1265396279
 10
-21.7410663615
 20
16.1440539122
 10
-21.7638117648
 20
16.1581828915
 10
-21.7885123123
 20
16.1690817559
 10
-21.8151680039
 20
16.1767505053
  0
LWPOLYLINE
  5
3B7
100
AcDbEntity
  8
RACCORDO
100
AcDbPolyline
 62
250
  6
CONTINUOUS
 90
10
 70
0
 10
-21.9888526132
 20
15.3551450075
 10
-21.988396585
 20
15.3390610461
 10
-21.9869753766
 20
15.3226216846
 10
-21.9845889879
 20
15.3058269231
 10
-21.9812191979
 20
15.2885400965
 10
-21.9768842277
 20
15.2708978699
 10
-21.9716387403
 20
15.2533102381
 10
-21.9655009569
 20
15.235913866
 10
-21.9584526563
 20
15.2185720888
 10
-21.9504938386
 20
15.2012849064
  0
LINE
  5
3B8
100
AcDbEntity
  8
RACCORDO
100
AcDbLine
 62
250
  6
CONTINUOUS
 10
-21.6553767232
 20
14.7895517863
 11
-21.6553767232
 21
-23.1423608995
  0
LINE
  5
3B9
100
AcDbEntity
  8
RACCORDO
100
AcDbLine
 62
250
  6
CONTINUOUS
 10
-21.6368486018
 20
15.8893674995
 11
-21.6368486018
 21
15.3543770001
  0
LINE
  5
3BA
100
AcDbEntity
  8
RACCORDO
100
AcDbLine
 62
250
  6
CONTINUOUS
 10
-21.6368486018
 20
-23.4200312286
 11
-21.6368486018
 21
-23.9102366399
  0
LINE
  5
3BB
100
AcDbEntity
  8
RACCORDO
100
AcDbLine
 62
250
  6
CONTINUOUS
 10
-21.3049354353
 20
14.7880226589
 11
-21.3049354353
 21
-23.1438900269
  0
LINE
  5
3BC
100
AcDbEntity
  8
RACCORDO
100
AcDbLine
 62
7
  6
CONTINUOUS
 10
-20.7436954805
 20
-23.1407622098
 11
-20.7436954805
 21
-24.5727092919
  0
LINE
  5
3BD
100
AcDbEntity
  8
RACCORDO
100
AcDbLine
 62
7
  6
CONTINUOUS
 10
-20.7436954805
 20
15.9975921974
 11
-20.7436954805
 21
17.4295392794
  0
LINE
  5
3BE
100
AcDbEntity
  8
RACCORDO
100
AcDbLine
 62
250
  6
CONTINUOUS
 10
-20.2164643295
 20
17.6921116829
 11
-20.2164643295
 21
17.346474222
  0
LINE
  5
3BF
100
AcDbEntity
  8
RACCORDO
100
AcDbLine
 62
250
  6
CONTINUOUS
 10
-20.2164643295
 20
-23.9531299174
 11
-20.2164643295
 21
-24.2987673784
  0
LINE
  5
3C0
100
AcDbEntity
  8
RACCORDO
100
AcDbLine
 62
7
  6
CONTINUOUS
 10
-20.1447769418
 20
17.779725341
 11
-20.1447769418
 21
17.43408788
  0
LINE
  5
3C1
100
AcDbEntity
  8
RACCORDO
100
AcDbLine
 62
7
  6
CONTINUOUS
 10
-20.1447769418
 20
-23.8655162594
 11
-20.1447769418
 21
-24.2111537203
  0
LINE
  5
3C2
100
AcDbEntity
  8
ASSI
100
AcDbLine
 62
250
  6
CONTINUOUS
 10
-19.8381391456
 20
21.732882957
 11
-19.8381391456
 21
20.6159304901
  0
LINE
  5
3C3
100
AcDbEntity
  8
RACCORDO
100
AcDbLine
 62
7
  6
CONTINUOUS
 10
-19.7144637534
 20
21.5943249962
 11
-19.7144637534
 21
20.7619047631
  0
LINE
  5
3C4
100
AcDbEntity
  8
RACCORDO
100
AcDbLine
 62
7
  6
CONTINUOUS
 10
-19.6830353087
 20
11.9093319933
 11
-19.6830353087
 21
-18.6989486152
  0
LINE
  5
3C5
100
AcDbEntity
  8
DRAFT
100
AcDbLine
 62
7
  6
CONTINUOUS
 10
-19.6830353087
 20
-22.3607646538
 11
-19.6830353087
 21
15.5711480319
  0
LWPOLYLINE
  5
3C6
100
AcDbEntity
  8
RACCORDO
100
AcDbPolyline
 62
250
  6
CONTINUOUS
 90
10
 70
0
 10
-21.3049354353
 20
-23.1438900269
 10
-21.3067752132
 20
-23.1853105877
 10
-21.3122731363
 20
-23.224420333
 10
-21.3213662004
 20
-23.2607781753
 10
-21.333950771
 20
-23.2939741182
 10
-21.3498839307
 20
-23.3236344025
 10
-21.3689852954
 20
-23.3494255025
 10
-21.3910377818
 20
-23.371056405
 10
-21.4157926182
 20
-23.38828489
 10
-21.4280857635
 20
-23.3947117002
  0
LWPOLYLINE
  5
3C7
100
AcDbEntity
  8
RACCORDO
100
AcDbPolyline
 62
250
  6
CONTINUOUS
 90
10
 70
0
 10
-22.7021302217
 20
-25.0099366583
 10
-22.7009706358
 20
-24.9845991122
 10
-22.6974835842
 20
-24.958299398
 10
-22.6916802787
 20
-24.9313760392
 10
-22.6835888174
 20
-24.9041393326
 10
-22.6732937838
 20
-24.877004641
 10
-22.6609712633
 20
-24.8504804561
 10
-22.6468151795
 20
-24.8249717939
 10
-22.6310000397
 20
-24.8007823356
 10
-22.6137418741
 20
-24.7782424844
  0
LWPOLYLINE
  5
3C8
100
AcDbEntity
  8
RACCORDO
100
AcDbPolyline
 62
250
  6
CONTINUOUS
 90
16
 70
0
 10
-21.6553767232
 20
-23.1423608995
 10
-21.6562695027
 20
-23.1615174091
 10
-21.6587551817
 20
-23.1792741827
 10
-21.6628337601
 20
-23.1956312202
 10
-21.6685875155
 20
-23.2107537239
 10
-21.6759341703
 20
-23.2244764916
 10
-21.6846268919
 20
-23.2363039166
 10
-21.6947100071
 20
-23.2461589952
 10
-21.706139189
 20
-23.2541187312
 10
-21.7185346239
 20
-23.2599185288
 10
-21.7319379666
 20
-23.2634819846
 10
-21.7463075623
 20
-23.2648855021
 10
-21.7611386327
 20
-23.2640936966
 10
-21.7762629187
 20
-23.2610947731
 10
-21.7918486794
 20
-23.2559005267
 10
-21.8078959149
 20
-23.2485109573
  0
LWPOLYLINE
  5
3C9
100
AcDbEntity
  8
RACCORDO
100
AcDbPolyline
 62
7
  6
CONTINUOUS
 90
28
 70
0
 10
2.1253825392
 20
17.1029889375
 10
2.1583867132
 20
17.1250535777
 10
2.1908466301
 20
17.1482079748
 10
2.2227412556
 20
17.1724470525
 10
2.254043885
 20
17.1977600282
 10
2.2847404681
 20
17.224145072
 10
2.3148286262
 20
17.2516115777
 10
2.3442893942
 20
17.2801553522
 10
2.3731012382
 20
17.3097688385
 10
2.4012569778
 20
17.3404592126
 10
2.4287399342
 20
17.3722246654
 10
2.4555271881
 20
17.4050554702
 10
2.4816022312
 20
17.4389485388
 10
2.5069493636
 20
17.4739017772
 10
2.5315470445
 20
17.5099044015
 10
2.5553715523
 20
17.546940096
 10
2.5784085231
 20
17.5850051946
 10
2.600638908
 20
17.6240876995
 10
2.6220350263
 20
17.6641569106
 10
2.6425841924
 20
17.7052061366
 10
2.6622708641
 20
17.7472223783
 10
2.6810674035
 20
17.7901622523
 10
2.6989632548
 20
17.8340150846
 10
2.7159468622
 20
17.8787670767
 10
2.7319941716
 20
17.9243661527
 10
2.7470930494
 20
17.9707842561
 10
2.7612405065
 20
18.0180195753
 10
2.7727954408
 20
18.0598670652
  0
LINE
  5
3CA
100
AcDbEntity
  8
DRAFT
100
AcDbLine
 62
7
  6
CONTINUOUS
 10
2.1253825392
 20
17.1029889375
 11
1.1294906167
 21
16.4588544502
  0
LWPOLYLINE
  5
3CB
100
AcDbEntity
  8
RACCORDO
100
AcDbPolyline
 62
7
  6
CONTINUOUS
 90
19
 70
0
 10
2.7060204786
 20
17.9790685139
 10
2.7119101984
 20
17.982806997
 10
2.7175699567
 20
17.986668689
 10
2.7229944795
 20
17.9906499188
 10
2.7281787168
 20
17.9947471667
 10
2.7331178824
 20
17.9989563826
 10
2.7378074521
 20
18.0032729915
 10
2.7422431221
 20
18.0076931291
 10
2.7464208234
 20
18.012212689
 10
2.7503367553
 20
18.0168266425
 10
2.7539873742
 20
18.0215309499
 10
2.7573693874
 20
18.0263213471
 10
2.7604797628
 20
18.0311923948
 10
2.763315747
 20
18.0361399128
 10
2.7658748503
 20
18.0411595169
 10
2.7681548436
 20
18.0462454056
 10
2.7701537866
 20
18.0513932956
 10
2.7718700101
 20
18.0565987214
 10
2.7727954375
 20
18.0598672789
  0
LWPOLYLINE
  5
3CC
100
AcDbEntity
  8
RACCORDO
100
AcDbPolyline
 62
7
  6
CONTINUOUS
 90
10
 70
0
 10
2.7060204786
 20
17.9790685139
 10
2.7045439945
 20
17.9781456806
 10
2.7030488451
 20
17.977170464
 10
2.7015349744
 20
17.9761429766
 10
2.7000039848
 20
17.9750653262
 10
2.6984541966
 20
17.9739356203
 10
2.696880505
 20
17.9727480309
 10
2.6952810351
 20
17.9715007593
 10
2.6936572852
 20
17.9701959715
 10
2.6920090858
 20
17.9688338489
  0
LINE
  5
3CD
100
AcDbEntity
  8
RACCORDO
100
AcDbLine
 62
250
  6
CONTINUOUS
 10
-23.1832138756
 20
3.3788158856
 11
-22.8481729671
 21
3.5505383169
  0
LINE
  5
3CE
100
AcDbEntity
  8
RACCORDO
100
AcDbLine
 62
7
  6
CONTINUOUS
 10
-23.0602807704
 20
3.9163998412
 11
-23.1832138756
 21
3.9778663938
  0
LWPOLYLINE
  5
3CF
100
AcDbEntity
  8
RACCORDO
100
AcDbPolyline
 62
250
  6
CONTINUOUS
 90
6
 70
0
 10
-33.5807824939
 20
24.0286333042
 10
-33.5708955656
 20
24.0107747802
 10
-33.5642109443
 20
23.994710917
 10
-33.5608423721
 20
23.9807150488
 10
-33.5608471669
 20
23.9690253222
 10
-33.5642042991
 20
23.9598975996
  0
LWPOLYLINE
  5
3D0
100
AcDbEntity
  8
RACCORDO
100
AcDbPolyline
 62
250
  6
CONTINUOUS
 90
13
 70
0
 10
-20.2164643295
 20
17.6921116829
 10
-20.2178016229
 20
17.7213399383
 10
-20.222193033
 20
17.751584718
 10
-20.2295655949
 20
17.782324766
 10
-20.2397958802
 20
17.8130325001
 10
-20.2527090787
 20
17.8431738658
 10
-20.2680793348
 20
17.8722183575
 10
-20.2856808251
 20
17.8997205556
 10
-20.3051774337
 20
17.9251389123
 10
-20.3260844276
 20
17.9478870559
 10
-20.3479651173
 20
17.9675880835
 10
-20.3704770313
 20
17.9840259736
 10
-20.3932342937
 20
17.9969947721
  0
LWPOLYLINE
  5
3D1
100
AcDbEntity
  8
ASSI
100
AcDbPolyline
 62
7
  6
CONTINUOUS
 90
10
 70
0
 10
-19.7144637536
 20
21.5943417457
 10
-19.7145403855
 20
21.5991826795
 10
-19.716766296
 20
21.6199426693
 10
-19.7220174955
 20
21.639103766
 10
-19.7302514811
 20
21.6566292241
 10
-19.7414078333
 20
21.6726279372
 10
-19.7553960279
 20
21.6872354615
 10
-19.7721666009
 20
21.7004583804
 10
-19.7916402065
 20
21.7123795829
 10
-19.800063232
 20
21.7167739252
  0
LWPOLYLINE
  5
3D2
100
AcDbEntity
  8
DRAFT
100
AcDbPolyline
 62
7
  6
CONTINUOUS
 90
18
 70
0
 10
-19.6830353087
 20
-22.3607646538
 10
-19.6835720738
 20
-22.3841698974
 10
-19.685139781
 20
-22.4068505199
 10
-19.6877384303
 20
-22.4288065214
 10
-19.691381939
 20
-22.4500983908
 10
-19.6960563897
 20
-22.4706656391
 10
-19.7017200305
 20
-22.4903267997
 10
-19.7083816233
 20
-22.5090738046
 10
-19.716032406
 20
-22.5269147216
 10
-19.724604341
 20
-22.5436922882
 10
-19.7341055683
 20
-22.5593970331
 10
-19.7445279478
 20
-22.5740384274
 10
-19.755779021
 20
-22.5874876226
 10
-19.7678659746
 20
-22.5997339889
 10
-19.7807816218
 20
-22.610788156
 10
-19.7944119447
 20
-22.6205531643
 10
-19.8087631926
 20
-22.62901771
 10
-19.8167040297
 20
-22.6330115492
  0
LWPOLYLINE
  5
3D3
100
AcDbEntity
  8
RACCORDO
100
AcDbPolyline
 62
250
  6
CONTINUOUS
 90
46
 70
0
 10
0.8246334974
 20
16.4731548846
 10
0.8325944544
 20
16.4794500164
 10
0.8405013726
 20
16.4854741015
 10
0.8483515899
 20
16.4912273164
 10
0.8561385993
 20
16.4967141189
 10
0.8638635972
 20
16.5019302961
 10
0.8715349707
 20
16.5068631863
 10
0.8791514415
 20
16.5115146902
 10
0.8867076791
 20
16.5158834802
 10
0.8942052416
 20
16.5199523041
 10
0.9016395746
 20
16.5237207994
 10
0.9090079852
 20
16.5271898769
 10
0.9163141542
 20
16.5303443795
 10
0.9235401112
 20
16.5331831066
 10
0.9306959744
 20
16.5357077274
 10
0.9378244662
 20
16.5379083859
 10
0.944900027
 20
16.5397955042
 10
0.95193472
 20
16.541360617
 10
0.9590186199
 20
16.542568343
 10
0.966143237
 20
16.5434413909
 10
0.9732881006
 20
16.5439628981
 10
0.9805126023
 20
16.5440416384
 10
0.9878120162
 20
16.5436904052
 10
0.9951452677
 20
16.5429051708
 10
1.0025081072
 20
16.5415714368
 10
1.0099015307
 20
16.5396734252
 10
1.0172669846
 20
16.5372358444
 10
1.0245144997
 20
16.5342033815
 10
1.0315908248
 20
16.5305786473
 10
1.0385051449
 20
16.526361903
 10
1.0452628472
 20
16.5214930776
 10
1.0518310178
 20
16.5159769069
 10
1.0581821003
 20
16.5098116771
 10
1.0643168265
 20
16.5029289825
 10
1.0701915559
 20
16.4953343792
 10
1.0757693327
 20
16.4870242272
 10
1.0810420429
 20
16.4779177317
 10
1.08595271
 20
16.4680152049
 10
1.0904471151
 20
16.4573157869
 10
1.0944943437
 20
16.4457379097
 10
1.0980423486
 20
16.433160548
 10
1.1009784513
 20
16.4196990235
 10
1.1031952141
 20
16.405623173
 10
1.1046413669
 20
16.3909119416
 10
1.1052700549
 20
16.3755665708
 10
1.1052936954
 20
16.3719573066
  0
LINE
  5
3D4
100
AcDbEntity
  8
0
100
AcDbLine
 62
7
  6
CONTINUOUS
 10
-4.3735648423
 20
5.7041280208
 11
-4.3174094273
 21
5.7117438597
  0
LINE
  5
3D5
100
AcDbEntity
  8
SMUSSO
100
AcDbLine
 62
250
  6
CONTINUOUS
 10
-15.8293033512
 20
27.912125748
 11
-15.8293033512
 21
28.3859888003
  0
LINE
  5
3D6
100
AcDbEntity
  8
0
100
AcDbLine
 62
7
  6
CONTINUOUS
 10
-15.1575519091
 20
28.2408216643
 11
-15.1575519091
 21
27.7809791658
  0
LINE
  5
3D7
100
AcDbEntity
  8
RACCORDO
100
AcDbLine
 62
250
  6
CONTINUOUS
 10
-15.1273225498
 20
19.7710039411
 11
-15.1273225498
 21
19.2228150248
  0
LINE
  5
3D8
100
AcDbEntity
  8
RACCORDO
100
AcDbLine
 62
250
  6
CONTINUOUS
 10
-15.1273225498
 20
-17.3545181044
 11
-15.1273225498
 21
-17.6689637645
  0
LINE
  5
3D9
100
AcDbEntity
  8
RACCORDO
100
AcDbLine
 62
7
  6
CONTINUOUS
 10
-14.9869924499
 20
20.0575350029
 11
-14.9869924499
 21
19.3990857141
  0
LINE
  5
3DA
100
AcDbEntity
  8
RACCORDO
100
AcDbLine
 62
7
  6
CONTINUOUS
 10
-14.9869924499
 20
-17.2808013037
 11
-14.9869924499
 21
-17.608165641
  0
LINE
  5
3DB
100
AcDbEntity
  8
RACCORDO
100
AcDbLine
 62
7
  6
CONTINUOUS
 10
-14.9869924589
 20
-17.6081434274
 11
-14.9870673226
 21
-17.6211332446
  0
LWPOLYLINE
  5
3DC
100
AcDbEntity
  8
SMUSSO
100
AcDbPolyline
 62
7
  6
CONTINUOUS
 90
35
 70
0
 10
-16.6347515425
 20
27.4431452059
 10
-16.6343755649
 20
27.4656310281
 10
-16.6325619525
 20
27.4969058224
 10
-16.6292605577
 20
27.5281371352
 10
-16.6244728719
 20
27.5593089612
 10
-16.6182011896
 20
27.5904040199
 10
-16.6104486208
 20
27.6214050437
 10
-16.6012190624
 20
27.6522960883
 10
-16.5905172237
 20
27.6830599441
 10
-16.5783486063
 20
27.7136795243
 10
-16.5647194774
 20
27.7441391511
 10
-16.5496369177
 20
27.7744218309
 10
-16.5331088055
 20
27.8045106775
 10
-16.5151437728
 20
27.8343902969
 10
-16.4957512499
 20
27.8640439766
 10
-16.474941457
 20
27.893455131
 10
-16.4527253662
 20
27.9226087213
 10
-16.4291147358
 20
27.9514883783
 10
-16.4041220712
 20
27.9800779188
 10
-16.3777605969
 20
28.008362787
 10
-16.3500443003
 20
28.0363270834
 10
-16.320987948
 20
28.0639550577
 10
-16.2906070398
 20
28.0912326235
 10
-16.2589178001
 20
28.1181443692
 10
-16.2259371387
 20
28.1446751202
 10
-16.1916826576
 20
28.1708114301
 10
-16.1561726582
 20
28.1965385139
 10
-16.1194261803
 20
28.2218417802
 10
-16.0814629674
 20
28.2467083945
 10
-16.0423038914
 20
28.2711239187
 10
-16.0019695027
 20
28.2950747886
 10
-15.9604799256
 20
28.318549788
 10
-15.9178568134
 20
28.3415362764
 10
-15.8741234792
 20
28.3640202539
 10
-15.8293033512
 20
28.3859888003
  0
LWPOLYLINE
  5
3DD
100
AcDbEntity
  8
RACCORDO
100
AcDbPolyline
 62
250
  6
CONTINUOUS
 90
7
 70
0
 10
-20.1447769418
 20
-23.8655162594
 10
-20.1467528263
 20
-23.8812009506
 10
-20.1529231369
 20
-23.8971656554
 10
-20.1631858458
 20
-23.9125948221
 10
-20.1773672981
 20
-23.9272273744
 10
-20.1952275301
 20
-23.9408157154
 10
-20.2164643295
 20
-23.9531299174
  0
LWPOLYLINE
  5
3DE
100
AcDbEntity
  8
RACCORDO
100
AcDbPolyline
 62
250
  6
CONTINUOUS
 90
7
 70
0
 10
-20.1447769435
 20
-24.2111683212
 10
-20.1469050342
 20
-24.2274288349
 10
-20.1532917087
 20
-24.2434990532
 10
-20.1637425706
 20
-24.2589112311
 10
-20.1779621683
 20
-24.2733858543
 10
-20.1956564488
 20
-24.2867365049
 10
-20.2164643295
 20
-24.2987673784
  0
LWPOLYLINE
  5
3DF
100
AcDbEntity
  8
RACCORDO
100
AcDbPolyline
 62
7
  6
CONTINUOUS
 90
25
 70
0
 10
2.6920090858
 20
17.9688338489
 10
2.6170701081
 20
17.9063932614
 10
2.542648722
 20
17.8449181919
 10
2.4687449275
 20
17.7844086403
 10
2.3953798984
 20
17.724928757
 10
2.3225324609
 20
17.6664143917
 10
2.2501390937
 20
17.6086730932
 10
2.1782035881
 20
17.5516916137
 10
2.1067221527
 20
17.495483201
 10
2.0356198921
 20
17.4398951482
 10
1.9649024156
 20
17.3849217664
 10
1.8945641139
 20
17.3305687446
 10
1.8245132645
 20
17.2767004424
 10
1.7547585195
 20
17.2233167188
 10
1.6852912269
 20
17.1704177149
 10
1.6159937077
 20
17.1178682126
 10
1.546871439
 20
17.0656675119
 10
1.4779189438
 20
17.013816313
 10
1.4090021128
 20
16.9621814983
 10
1.340123316
 20
16.9107612942
 10
1.2712801833
 20
16.8595574745
 10
1.2023314956
 20
16.8084422427
 10
1.1332301796
 20
16.7573730002
 10
1.0640233085
 20
16.7063923455
 10
0.9947108823
 20
16.6555002789
  0
LWPOLYLINE
  5
3E0
100
AcDbEntity
  8
SMUSSO
100
AcDbPolyline
 62
7
  6
CONTINUOUS
 90
87
 70
0
 10
-2.5886860758
 20
7.9675237726
 10
-2.6356658143
 20
7.942606104
 10
-2.6825702387
 20
7.9163681012
 10
-2.7293993489
 20
7.8888097641
 10
-2.7761782144
 20
7.8599148476
 10
-2.8228817657
 20
7.8296995968
 10
-2.8694347948
 20
7.7982127475
 10
-2.9158373325
 20
7.7654520805
 10
-2.9620893479
 20
7.7314198149
 10
-3.0081155406
 20
7.6961713442
 10
-3.0539155413
 20
7.6597046827
 10
-3.0994897194
 20
7.6220218161
 10
-3.1447638818
 20
7.5831840941
 10
-3.1897375377
 20
7.5431896323
 10
-3.2344111779
 20
7.502040315
 10
-3.2787120826
 20
7.4598031458
 10
-3.3226396416
 20
7.4164763503
 10
-3.366194465
 20
7.3720617027
 10
-3.4093056631
 20
7.3266315293
 10
-3.4519725096
 20
7.2801841749
 10
-3.4941957307
 20
7.2327212946
 10
-3.5359066154
 20
7.1843201799
 10
-3.5771043253
 20
7.1349793029
 10
-3.6177896988
 20
7.0847001915
 10
-3.6578965407
 20
7.0335647215
 10
-3.6974239042
 20
6.9815714994
 10
-3.7363727362
 20
6.9287219187
 10
-3.7746796812
 20
6.8751020353
 10
-3.8123436893
 20
6.8207105974
 10
-3.8493658106
 20
6.7655488567
 10
-3.8856858401
 20
6.7097066254
 10
-3.9213026297
 20
6.6531827986
 10
-3.9562173276
 20
6.5959784811
 10
-3.9903731728
 20
6.538186799
 10
-4.023768925
 20
6.4798068003
 10
-4.0564058245
 20
6.4208394371
 10
-4.0882308317
 20
6.3613806909
 10
-4.1192426203
 20
6.3014297671
 10
-4.1494425165
 20
6.2409874604
 10
-4.1787814599
 20
6.1801521371
 10
-4.2072580446
 20
6.1189231634
 10
-4.2348736765
 20
6.057301173
 10
-4.2615835127
 20
5.9953864343
 10
-4.2873860425
 20
5.9331785764
 10
-4.3122827765
 20
5.8706779701
 10
-4.336233404
 20
5.8079859954
 10
-4.3592363843
 20
5.745102407
 10
-4.3812932582
 20
5.6820274502
 10
-4.4023683373
 20
5.618863242
 10
-4.4224600876
 20
5.5556094854
 10
-4.4415700432
 20
5.4922664774
 10
-4.4596671176
 20
5.4289372257
 10
-4.4767496623
 20
5.3656217515
 10
-4.492819326
 20
5.3023200336
 10
-4.5078499675
 20
5.2391350165
 10
-4.5218398954
 20
5.1760668907
 10
-4.5347908011
 20
5.1131154656
 10
-4.5466816181
 20
5.0503831138
 10
-4.5575106209
 20
4.9878701925
 10
-4.5672795349
 20
4.9255763446
 10
-4.5759724704
 20
4.863602871
 10
-4.5835876761
 20
4.8019502936
 10
-4.5901269031
 20
4.7406180906
 10
-4.5955795154
 20
4.6797059976
 10
-4.5999437444
 20
4.6192146986
 10
-4.6032213586
 20
4.5591435095
 10
-4.605407027
 20
4.4995901143
 10
-4.6064989725
 20
4.4405553556
 10
-4.6064989722
 20
4.3820383906
 10
-4.605407026
 20
4.324134375
 10
-4.603221357
 20
4.266844306
 10
-4.5999437421
 20
4.2101671864
 10
-4.5955795125
 20
4.1541951794
 10
-4.5901268996
 20
4.0989294323
 10
-4.5835876719
 20
4.0443687977
 10
-4.5759724656
 20
3.9906019974
 10
-4.5672795296
 20
3.9376303227
 10
-4.557510615
 20
3.8854524822
 10
-4.5466816117
 20
3.8341533224
 10
-4.5347907941
 20
3.7837342729
 10
-4.5218398879
 20
3.7341939041
 10
-4.5078499596
 20
3.6856127736
 10
-4.4928193177
 20
3.6379924423
 10
-4.4767496536
 20
3.5913313493
 10
-4.4596671085
 20
3.545705369
 10
-4.4415700337
 20
3.5011161874
 10
-4.4221757275
 20
3.456965383
  0
LWPOLYLINE
  5
3E1
100
AcDbEntity
  8
SMUSSO
100
AcDbPolyline
 62
7
  6
CONTINUOUS
 90
30
 70
0
 10
0.840988165
 20
9.7433517257
 10
0.8569181755
 20
9.7517869286
 10
0.8724235287
 20
9.7601273255
 10
0.887511891
 20
9.7683767574
 10
0.902175596
 20
9.7765313834
 10
0.9163916453
 20
9.7845796805
 10
0.9301582112
 20
9.7925204486
 10
0.9434771214
 20
9.8003548878
 10
0.9563308603
 20
9.8080750749
 10
0.9687229539
 20
9.8156830318
 10
0.9806498762
 20
9.8231767367
 10
0.992083533
 20
9.8305422012
 10
1.0030219367
 20
9.8377779813
 10
1.0134670749
 20
9.8448855211
 10
1.023396816
 20
9.8518551645
 10
1.0328144584
 20
9.8586891555
 10
1.0417167036
 20
9.8653852502
 10
1.0500715246
 20
9.8719270605
 10
1.0578775603
 20
9.878313483
 10
1.0651361719
 20
9.8845456212
 10
1.0718194153
 20
9.8906103982
 10
1.0779290018
 20
9.8965094776
 10
1.0834632203
 20
9.9022411957
 10
1.0883889928
 20
9.9077874845
 10
1.0927053874
 20
9.9131474523
 10
1.0964133361
 20
9.9183219907
 10
1.0994825572
 20
9.9232957058
 10
1.101902957
 20
9.9280634661
 10
1.1036846292
 20
9.9326304029
 10
1.104827574
 20
9.9369965164
  0
LINE
  5
3E2
100
AcDbEntity
  8
SMUSSO
100
AcDbLine
 62
7
  6
CONTINUOUS
 10
0.840988165
 20
9.7433517257
 11
-2.5886860758
 21
7.9675237726
  0
LINE
  5
3E3
100
AcDbEntity
  8
0
100
AcDbLine
 62
7
  6
CONTINUOUS
 10
-2.9664826626
 20
7.7280552606
 11
-2.7831832383
 21
7.8197049727
  0
LINE
  5
3E4
100
AcDbEntity
  8
0
100
AcDbLine
 62
7
  6
CONTINUOUS
 10
-2.9303718214
 20
6.5522475115
 11
-3.1790251947
 21
6.4279208249
  0
LINE
  5
3E5
100
AcDbEntity
  8
RACCORDO
100
AcDbLine
 62
7
  6
CONTINUOUS
 10
-1.3685944298
 20
7.2366215254
 11
-2.6800587408
 21
6.5808893699
  0
LINE
  5
3E6
100
AcDbEntity
  8
RACCORDO
100
AcDbLine
 62
7
  6
CONTINUOUS
 10
-3.3812824827
 20
6.2302774989
 11
-4.3608475799
 21
5.7404949503
  0
LINE
  5
3E7
100
AcDbEntity
  8
0
100
AcDbLine
 62
7
  6
CONTINUOUS
 10
-4.4095883407
 20
5.5961329009
 11
-4.3005212982
 21
5.6506664222
  0
LINE
  5
3E8
100
AcDbEntity
  8
0
100
AcDbLine
 62
7
  6
CONTINUOUS
 10
-3.5992975563
 20
6.0012782931
 11
-1.3324201723
 21
7.1347169851
  0
LINE
  5
3E9
100
AcDbEntity
  8
0
100
AcDbLine
 62
7
  6
CONTINUOUS
 10
-4.1266861226
 20
5.6918604701
 11
-4.2547977583
 21
5.6278046522
  0
LINE
  5
3EA
100
AcDbEntity
  8
0
100
AcDbLine
 62
250
  6
CONTINUOUS
 10
-42.060827367
 20
18.5482927713
 11
-27.1832646782
 21
11.1095114269
  0
LINE
  5
3EB
100
AcDbEntity
  8
RACCORDO
100
AcDbLine
 62
250
  6
CONTINUOUS
 10
-42.060827367
 20
18.5482927713
 11
-27.1832646782
 21
11.1095114269
  0
LWPOLYLINE
  5
3EC
100
AcDbEntity
  8
RACCORDO
100
AcDbPolyline
 62
250
  6
CONTINUOUS
 90
13
 70
0
 10
-21.9504938386
 20
15.2012849064
 10
-21.9415175462
 20
15.1840185112
 10
-21.9318663195
 20
15.1674124728
 10
-21.9215401586
 20
15.1514667914
 10
-21.910459447
 20
15.1360799419
 10
-21.8987038011
 20
15.1213534493
 10
-21.8865120702
 20
15.1075918884
 10
-21.8738448217
 20
15.0948106436
 10
-21.8607414882
 20
15.0829943305
 10
-21.8475592161
 20
15.072401371
 10
-21.8344170543
 20
15.0631179057
 10
-21.8211959539
 20
15.0550577939
 10
-21.8078959149
 20
15.0482210357
  0
LINE
  5
3ED
100
AcDbEntity
  8
RACCORDO
100
AcDbLine
 62
7
  6
CONTINUOUS
 10
-14.9870673226
 20
20.0618500274
 11
-14.9869924589
 21
20.0574182222
  0
LINE
  5
3EE
100
AcDbEntity
  8
0
100
AcDbLine
 62
7
  6
CONTINUOUS
 10
-14.1960245277
 20
26.8282758196
 11
-14.1960245277
 21
26.3825813405
  0
LINE
  5
3EF
100
AcDbEntity
  8
0
100
AcDbLine
 62
7
  6
CONTINUOUS
 10
-13.7462798664
 20
26.7065279864
 11
-13.7462798664
 21
26.3715017079
  0
LINE
  5
3F0
100
AcDbEntity
  8
DRAFT
100
AcDbLine
 62
7
  6
CONTINUOUS
 10
-13.7079830077
 20
27.5584653695
 11
-13.7079830077
 21
28.1611816507
  0
LWPOLYLINE
  5
3F1
100
AcDbEntity
  8
RACCORDO
100
AcDbPolyline
 62
250
  6
CONTINUOUS
 90
7
 70
0
 10
-21.9742300199
 20
-23.2955590757
 10
-21.9787409593
 20
-23.3075603023
 10
-21.9824223625
 20
-23.3200223153
 10
-21.9852742294
 20
-23.3329451146
 10
-21.9872965602
 20
-23.3463287003
 10
-21.9884893548
 20
-23.3601730724
 10
-21.9888526132
 20
-23.3744782308
  0
LWPOLYLINE
  5
3F2
100
AcDbEntity
  8
RACCORDO
100
AcDbPolyline
 62
7
  6
CONTINUOUS
 90
10
 70
0
 10
-1.3686207554
 20
6.197377878
 10
-1.3576566888
 20
6.203292309
 10
-1.3477086369
 20
6.2095386856
 10
-1.3387765997
 20
6.2161170077
 10
-1.3308042478
 20
6.2230940907
 10
-1.3238479106
 20
6.2304031192
 10
-1.3180765757
 20
6.2378436472
 10
-1.3135465724
 20
6.2453488593
 10
-1.3102015713
 20
6.2529855707
 10
-1.3080415725
 20
6.2607537817
  0
LINE
  5
3F3
100
AcDbEntity
  8
SMUSSO
100
AcDbLine
 62
7
  6
CONTINUOUS
 10
-2.0125316089
 20
4.6300386802
 11
-1.9346551009
 21
4.6705022218
  0
LINE
  5
3F4
100
AcDbEntity
  8
SMUSSO
100
AcDbLine
 62
7
  6
CONTINUOUS
 10
1.104827574
 20
5.1738567956
 11
-2.7755760382
 21
3.1647190106
  0
LINE
  5
3F5
100
AcDbEntity
  8
ASSI
100
AcDbLine
 62
7
  6
CONTINUOUS
 10
-3.1089679056
 20
3.3314149443
 11
0.993543383
 21
5.4187878529
  0
LINE
  5
3F6
100
AcDbEntity
  8
0
100
AcDbLine
 62
250
  6
CONTINUOUS
 10
-23.3246136926
 20
-5.1254448872
 11
-26.9280377472
 21
-6.9410504058
  0
LINE
  5
3F7
100
AcDbEntity
  8
RACCORDO
100
AcDbLine
 62
250
  6
CONTINUOUS
 10
-23.3246136926
 20
-5.1254448872
 11
-26.9280377472
 21
-6.9410504058
  0
LINE
  5
3F8
100
AcDbEntity
  8
0
100
AcDbLine
 62
250
  6
CONTINUOUS
 10
-23.1832138756
 20
-5.3693234965
 11
-26.7866379301
 21
-7.1849290151
  0
LINE
  5
3F9
100
AcDbEntity
  8
RACCORDO
100
AcDbLine
 62
250
  6
CONTINUOUS
 10
-23.1832138756
 20
-5.3693234965
 11
-26.7866379301
 21
-7.1849290151
  0
LINE
  5
3FA
100
AcDbEntity
  8
RACCORDO
100
AcDbLine
 62
7
  6
CONTINUOUS
 10
-1.3685918595
 20
6.197392326
 11
-2.6800587408
 21
5.5416588853
  0
LINE
  5
3FB
100
AcDbEntity
  8
RACCORDO
100
AcDbLine
 62
7
  6
CONTINUOUS
 10
-3.3812824827
 20
5.1910470144
 11
-4.602047116
 21
4.5806646978
  0
LINE
  5
3FC
100
AcDbEntity
  8
0
100
AcDbLine
 62
7
  6
CONTINUOUS
 10
-3.2781579852
 20
3.9522314115
 11
-2.7831832383
 21
4.1997187849
  0
LWPOLYLINE
  5
3FD
100
AcDbEntity
  8
0
100
AcDbPolyline
 62
250
  6
CONTINUOUS
 90
19
 70
0
 10
-26.9280377472
 20
-6.9410504058
 10
-26.9475105649
 20
-6.9500533156
 10
-26.9681205088
 20
-6.9580969911
 10
-26.989867579
 20
-6.9651814322
 10
-27.0129442983
 20
-6.971352793
 10
-27.0371581439
 20
-6.9765649195
 10
-27.0619315467
 20
-6.9806793497
 10
-27.0872642805
 20
-6.9836645778
 10
-27.1131565716
 20
-6.9855521096
 10
-27.1390315302
 20
-6.9862980005
 10
-27.1648903489
 20
-6.9858755081
 10
-27.1907318352
 20
-6.9843113749
 10
-27.2159755221
 20
-6.9816418842
 10
-27.2406189744
 20
-6.9778352475
 10
-27.2646646273
 20
-6.9729232533
 10
-27.2875393196
 20
-6.9670375508
 10
-27.3090519975
 20
-6.9602220232
 10
-27.3293937148
 20
-6.9524327873
 10
-27.3485644715
 20
-6.9436698432
  0
LWPOLYLINE
  5
3FE
100
AcDbEntity
  8
RACCORDO
100
AcDbPolyline
 62
250
  6
CONTINUOUS
 90
19
 70
0
 10
-26.9280377472
 20
-6.9410504058
 10
-26.9475105649
 20
-6.9500533156
 10
-26.9681205088
 20
-6.9580969911
 10
-26.989867579
 20
-6.9651814322
 10
-27.0129442983
 20
-6.971352793
 10
-27.0371581439
 20
-6.9765649195
 10
-27.0619315467
 20
-6.9806793497
 10
-27.0872642805
 20
-6.9836645778
 10
-27.1131565716
 20
-6.9855521096
 10
-27.1390315302
 20
-6.9862980005
 10
-27.1648903489
 20
-6.9858755081
 10
-27.1907318352
 20
-6.9843113749
 10
-27.2159755221
 20
-6.9816418842
 10
-27.2406189744
 20
-6.9778352475
 10
-27.2646646273
 20
-6.9729232533
 10
-27.2875393196
 20
-6.9670375508
 10
-27.3090519975
 20
-6.9602220232
 10
-27.3293937148
 20
-6.9524327873
 10
-27.3485644715
 20
-6.9436698432
  0
LINE
  5
3FF
100
AcDbEntity
  8
0
100
AcDbLine
 62
250
  6
CONTINUOUS
 10
-26.7866379301
 20
-6.5139416559
 11
-23.1832138756
 21
-4.8497610142
  0
LINE
  5
400
100
AcDbEntity
  8
RACCORDO
100
AcDbLine
 62
250
  6
CONTINUOUS
 10
-26.7866379301
 20
-6.5139416559
 11
-23.1832138756
 21
-4.8497610142
  0
LINE
  5
401
100
AcDbEntity
  8
0
100
AcDbLine
 62
7
  6
CONTINUOUS
 10
-26.8417138616
 20
-6.6235791892
 11
-23.2372755429
 21
-4.9589301266
  0
LINE
  5
402
100
AcDbEntity
  8
RACCORDO
100
AcDbLine
 62
7
  6
CONTINUOUS
 10
-26.8417138616
 20
-6.6235791892
 11
-23.2372755429
 21
-4.9589301266
  0
LWPOLYLINE
  5
403
100
AcDbEntity
  8
0
100
AcDbPolyline
 62
250
  6
CONTINUOUS
 90
19
 70
0
 10
-26.7866492755
 20
-7.1849231374
 10
-26.8189577297
 20
-7.1996267813
 10
-26.8536165201
 20
-7.2128958807
 10
-26.8903560232
 20
-7.2246069573
 10
-26.9288960479
 20
-7.2346740349
 10
-26.9689501866
 20
-7.2430311908
 10
-27.0102300603
 20
-7.2496163847
 10
-27.0524325113
 20
-7.2543802477
 10
-27.0952397658
 20
-7.2572938992
 10
-27.138334566
 20
-7.2583339261
 10
-27.1813967394
 20
-7.2574823355
 10
-27.2241063656
 20
-7.2547542926
 10
-27.2661466409
 20
-7.2501754777
 10
-27.307200873
 20
-7.2437703538
 10
-27.3469693302
 20
-7.2355860193
 10
-27.3851652391
 20
-7.2256871675
 10
-27.4215034393
 20
-7.214137493
 10
-27.4557063331
 20
-7.2010200964
 10
-27.4875069827
 20
-7.1864558221
  0
LWPOLYLINE
  5
404
100
AcDbEntity
  8
RACCORDO
100
AcDbPolyline
 62
250
  6
CONTINUOUS
 90
19
 70
0
 10
-26.7866492755
 20
-7.1849231374
 10
-26.8189577297
 20
-7.1996267813
 10
-26.8536165201
 20
-7.2128958807
 10
-26.8903560232
 20
-7.2246069573
 10
-26.9288960479
 20
-7.2346740349
 10
-26.9689501866
 20
-7.2430311908
 10
-27.0102300603
 20
-7.2496163847
 10
-27.0524325113
 20
-7.2543802477
 10
-27.0952397658
 20
-7.2572938992
 10
-27.138334566
 20
-7.2583339261
 10
-27.1813967394
 20
-7.2574823355
 10
-27.2241063656
 20
-7.2547542926
 10
-27.2661466409
 20
-7.2501754777
 10
-27.307200873
 20
-7.2437703538
 10
-27.3469693302
 20
-7.2355860193
 10
-27.3851652391
 20
-7.2256871675
 10
-27.4215034393
 20
-7.214137493
 10
-27.4557063331
 20
-7.2010200964
 10
-27.4875069827
 20
-7.1864558221
  0
LINE
  5
405
100
AcDbEntity
  8
0
100
AcDbLine
 62
7
  6
CONTINUOUS
 10
-2.9303718214
 20
6.5522475115
 11
-3.2982106497
 21
6.6137860866
  0
LWPOLYLINE
  5
406
100
AcDbEntity
  8
SMUSSO
100
AcDbPolyline
 62
7
  6
CONTINUOUS
 90
31
 70
0
 10
-3.9839311947
 20
3.0758827985
 10
-3.9698793549
 20
3.0689846734
 10
-3.9348529411
 20
3.0529809551
 10
-3.899197001
 20
3.0383269208
 10
-3.862931137
 20
3.0250308339
 10
-3.8260752614
 20
3.013100211
 10
-3.7886485502
 20
3.0025413046
 10
-3.7506715904
 20
2.9933601734
 10
-3.7121652502
 20
2.9855621189
 10
-3.6731495868
 20
2.9791511466
 10
-3.6336460727
 20
2.9741310783
 10
-3.5936764313
 20
2.9705049718
 10
-3.5532615051
 20
2.9682745615
 10
-3.5124235487
 20
2.967441411
 10
-3.4711850357
 20
2.9680063167
 10
-3.4295674942
 20
2.969968729
 10
-3.3875938529
 20
2.9733279427
 10
-3.3452872269
 20
2.9780824865
 10
-3.3026697253
 20
2.9842295243
 10
-3.2597648398
 20
2.9917660833
 10
-3.2165962145
 20
3.0006884287
 10
-3.1731864328
 20
3.0109914476
 10
-3.1295594347
 20
3.0226699112
 10
-3.0857392784
 20
3.0357178368
 10
-3.0417489108
 20
3.0501278556
 10
-2.9976128641
 20
3.0658924088
 10
-2.9533552337
 20
3.0830033742
 10
-2.9089984331
 20
3.1014514963
 10
-2.8645662728
 20
3.1212270819
 10
-2.8200839532
 20
3.1423199309
 10
-2.7755760382
 20
3.1647190106
  0
LINE
  5
407
100
AcDbEntity
  8
0
100
AcDbLine
 62
250
  6
CONTINUOUS
 10
-41.068261492
 20
20.3000927924
 11
-26.1673264232
 21
12.849625258
  0
LINE
  5
408
100
AcDbEntity
  8
RACCORDO
100
AcDbLine
 62
250
  6
CONTINUOUS
 10
-41.068261492
 20
20.3000927924
 11
-26.1673264232
 21
12.849625258
  0
LINE
  5
409
100
AcDbEntity
  8
0
100
AcDbLine
 62
7
  6
CONTINUOUS
 10
-23.1832138756
 20
12.8255243951
 11
-23.7587733763
 21
13.1133041455
  0
LINE
  5
40A
100
AcDbEntity
  8
DRAFT
100
AcDbLine
 62
7
  6
CONTINUOUS
 10
-23.1832138756
 20
12.8255243951
 11
-23.7587733763
 21
13.1133041455
  0
LWPOLYLINE
  5
40B
100
AcDbEntity
  8
RACCORDO
100
AcDbPolyline
 62
250
  6
CONTINUOUS
 90
6
 70
0
 10
-20.2164643295
 20
17.346474222
 10
-20.2065774012
 20
17.328615698
 10
-20.1998927799
 20
17.3125518347
 10
-20.1965242077
 20
17.2985559666
 10
-20.1965290025
 20
17.28686624
 10
-20.1998861347
 20
17.2777385174
  0
LWPOLYLINE
  5
40C
100
AcDbEntity
  8
RACCORDO
100
AcDbPolyline
 62
7
  6
CONTINUOUS
 90
19
 70
0
 10
-11.6573733422
 20
29.9817940334
 10
-11.6576301041
 20
30.0049599201
 10
-11.6583954198
 20
30.027821215
 10
-11.6596692892
 20
30.050377918
 10
-11.6614533654
 20
30.0726458649
 10
-11.6637459955
 20
30.0946092199
 10
-11.6665422203
 20
30.1162204755
 10
-11.6698431301
 20
30.13747887
 10
-11.6736476347
 20
30.1583851652
 10
-11.6779475046
 20
30.1788941382
 10
-11.6827438121
 20
30.1990049289
 10
-11.688035485
 20
30.2187183974
 10
-11.6938110766
 20
30.2379919013
 10
-11.7000716343
 20
30.2568244878
 10
-11.7068161107
 20
30.2752171096
 10
-11.7140299173
 20
30.293129983
 10
-11.7217081911
 20
30.3105498468
 10
-11.7298557951
 20
30.3274899621
 10
-11.7384727293
 20
30.3439503291
  0
LINE
  5
40D
100
AcDbEntity
  8
RACCORDO
100
AcDbLine
 62
7
  6
CONTINUOUS
 10
-11.6573733422
 20
29.9535003862
 11
-11.6573733422
 21
29.9817940334
  0
LWPOLYLINE
  5
40E
100
AcDbEntity
  8
RACCORDO
100
AcDbPolyline
 62
250
  6
CONTINUOUS
 90
5
 70
0
 10
-20.2164643295
 20
-23.9531299174
 10
-20.2066354828
 20
-23.9223958846
 10
-20.1999525052
 20
-23.8906379201
 10
-20.1965489593
 20
-23.85838673
 10
-20.1965051759
 20
-23.8261641439
  0
LWPOLYLINE
  5
40F
100
AcDbEntity
  8
RACCORDO
100
AcDbPolyline
 62
7
  6
CONTINUOUS
 90
16
 70
0
 10
0.8246334974
 20
16.4731545838
 10
0.8342580798
 20
16.4873334938
 10
0.8441464217
 20
16.5012746673
 10
0.854298523
 20
16.5149781043
 10
0.8647183946
 20
16.5284645044
 10
0.8754020257
 20
16.541713168
 10
0.8863373839
 20
16.5546619964
 10
0.8975318406
 20
16.5673101702
 10
0.9089780245
 20
16.5796585088
 10
0.9206417886
 20
16.5916473728
 10
0.9325270978
 20
16.6032721428
 10
0.9446299873
 20
16.6145374382
 10
0.9569044146
 20
16.6253974777
 10
0.9693350326
 20
16.6358370007
 10
0.9819371885
 20
16.6458712678
 10
0.9947108823
 20
16.6555002789
  0
LINE
  5
410
100
AcDbEntity
  8
0
100
AcDbLine
 62
7
  6
CONTINUOUS
 10
-3.5824094273
 20
6.0792438597
 11
-3.4438994399
 21
6.1989690203
  0
LINE
  5
411
100
AcDbEntity
  8
0
100
AcDbLine
 62
7
  6
CONTINUOUS
 10
-3.3752017152
 20
6.2583499089
 11
-3.1790251947
 21
6.4279208249
  0
LWPOLYLINE
  5
412
100
AcDbEntity
  8
RACCORDO
100
AcDbPolyline
 62
7
  6
CONTINUOUS
 90
10
 70
0
 10
-3.4851998671
 20
3.1857948247
 10
-3.38913005
 20
3.2470416841
 10
-3.2653782118
 20
3.3332343857
 10
-3.1429624002
 20
3.4258331728
 10
-3.022238151
 20
3.5245356881
 10
-2.9034791186
 20
3.6290728644
 10
-2.7868722119
 20
3.7392374036
 10
-2.672642166
 20
3.8547807365
 10
-2.5610177217
 20
3.9754369765
 10
-2.5034939285
 20
4.040781552
  0
LWPOLYLINE
  5
413
100
AcDbEntity
  8
RACCORDO
100
AcDbPolyline
 62
250
  6
CONTINUOUS
 90
9
 70
0
 10
-3.4917272508
 20
3.1841696611
 10
-3.4105356804
 20
3.2346153623
 10
-3.2835441961
 20
3.3213152831
 10
-3.1576424419
 20
3.4151170797
 10
-3.033137269
 20
3.5157921123
 10
-2.9103319595
 20
3.6230951229
 10
-2.7895256284
 20
3.7367647499
 10
-2.6710125894
 20
3.8565240769
 10
-2.5550816576
 20
3.982081262
  0
LWPOLYLINE
  5
414
100
AcDbEntity
  8
SMUSSO
100
AcDbPolyline
 62
7
  6
CONTINUOUS
 90
31
 70
0
 10
0.8246334974
 20
4.711874375
 10
0.840988165
 20
4.7206870856
 10
0.8569181755
 20
4.7299740491
 10
0.8724235287
 20
4.7397352654
 10
0.887511891
 20
4.7499739918
 10
0.902175596
 20
4.7606869711
 10
0.9163916453
 20
4.7718644313
 10
0.9301582112
 20
4.783504018
 10
0.9434771214
 20
4.7956080856
 10
0.9563308603
 20
4.808173925
 10
0.9687229539
 20
4.8212044496
 10
0.9806498762
 20
4.834696746
 10
0.992083533
 20
4.8486393641
 10
1.0030219367
 20
4.8630289715
 10
1.0134670749
 20
4.8778689007
 10
1.023396816
 20
4.8931576991
 10
1.0328144584
 20
4.90890005
 10
1.0417167036
 20
4.9250912702
 10
1.0500715246
 20
4.9417158571
 10
1.0578775603
 20
4.9587708919
 10
1.0651361719
 20
4.9762592934
 10
1.0718194153
 20
4.9941743155
 10
1.0779290018
 20
5.0125211604
 10
1.0834632203
 20
5.0312946259
 10
1.0883889928
 20
5.0504723592
 10
1.0927053874
 20
5.0700516089
 10
1.0964133361
 20
5.0900351263
 10
1.0994825572
 20
5.1104088135
 10
1.101902957
 20
5.1311679712
 10
1.1036846292
 20
5.1523172985
 10
1.104827574
 20
5.1738567956
  0
LINE
  5
415
100
AcDbEntity
  8
SMUSSO
100
AcDbLine
 62
7
  6
CONTINUOUS
 10
0.8246334974
 20
4.711874375
 11
-2.5886860758
 21
2.9445764306
  0
LWPOLYLINE
  5
416
100
AcDbEntity
  8
RACCORDO
100
AcDbPolyline
 62
7
  6
CONTINUOUS
 90
16
 70
0
 10
0.9947108391
 20
18.9251308594
 10
0.9819371487
 20
18.9215323269
 10
0.9693349964
 20
18.9185166827
 10
0.9569043821
 20
18.9160839265
 10
0.9446299586
 20
18.9142334263
 10
0.9325270731
 20
18.9129658142
 10
0.9206417675
 20
18.9122829871
 10
0.9089780068
 20
18.9121936704
 10
0.8975318261
 20
18.9126891386
 10
0.8863373722
 20
18.9137451128
 10
0.8754020166
 20
18.915370046
 10
0.8647183878
 20
18.9175554851
 10
0.8542985183
 20
18.9202517919
 10
0.8441464187
 20
18.9234424203
 10
0.8342580784
 20
18.9271439163
 10
0.8246334974
 20
18.9313562801
  0
LWPOLYLINE
  5
417
100
AcDbEntity
  8
RACCORDO
100
AcDbPolyline
 62
250
  6
CONTINUOUS
 90
29
 70
0
 10
-2.2447570724
 20
8.145598227
 10
-2.1917069809
 20
8.1378868078
 10
-2.1235378401
 20
8.1227104872
 10
-2.0591363669
 20
8.1029619529
 10
-1.9986028661
 20
8.0800571416
 10
-1.9420823794
 20
8.0540423902
 10
-1.889429865
 20
8.0248713618
 10
-1.8403105031
 20
7.9938209821
 10
-1.7947837641
 20
7.9609870567
 10
-1.7527901776
 20
7.9262737801
 10
-1.7138165113
 20
7.8906706617
 10
-1.6778832752
 20
7.8542943243
 10
-1.6449699594
 20
7.8170281451
 10
-1.6145018018
 20
7.7795117656
 10
-1.5864545687
 20
7.7418275102
 10
-1.5608524939
 20
7.7038930545
 10
-1.5371935159
 20
7.6661010666
 10
-1.5154502831
 20
7.6285162474
 10
-1.4956501472
 20
7.5910738961
 10
-1.4773731027
 20
7.5539725773
 10
-1.4605923327
 20
7.5172631856
 10
-1.4453346541
 20
7.4808948265
 10
-1.4312605127
 20
7.4449133816
 10
-1.4183454794
 20
7.4093571135
 10
-1.4066139832
 20
7.3741877597
 10
-1.3957997569
 20
7.3393364145
 10
-1.3858140447
 20
7.3047801095
 10
-1.3767456023
 20
7.2705418131
 10
-1.3685944298
 20
7.2366215254
  0
LINE
  5
418
100
AcDbEntity
  8
SMUSSO
100
AcDbLine
 62
250
  6
CONTINUOUS
 10
-2.7755760382
 20
3.1647190106
 11
-3.1089679056
 21
3.3314149443
  0
LINE
  5
419
100
AcDbEntity
  8
0
100
AcDbLine
 62
7
  6
CONTINUOUS
 10
-24.1120576423
 20
13.9716568969
 11
-39.0835115011
 21
21.4573838263
  0
LINE
  5
41A
100
AcDbEntity
  8
RACCORDO
100
AcDbLine
 62
7
  6
CONTINUOUS
 10
-24.1120576423
 20
13.9716568969
 11
-39.0835115011
 21
21.4573838263
  0
LINE
  5
41B
100
AcDbEntity
  8
RACCORDO
100
AcDbLine
 62
7
  6
CONTINUOUS
 10
-35.8250116525
 20
20.2100267607
 11
-22.8450740912
 21
13.72005798
  0
LINE
  5
41C
100
AcDbEntity
  8
0
100
AcDbLine
 62
7
  6
CONTINUOUS
 10
-3.3812824827
 20
5.1910470144
 11
-4.3005212982
 21
5.6506664222
  0
LINE
  5
41D
100
AcDbEntity
  8
0
100
AcDbLine
 62
7
  6
CONTINUOUS
 10
-4.3174094273
 20
5.7117438597
 11
-4.3629406588
 21
5.7345094755
  0
LINE
  5
41E
100
AcDbEntity
  8
0
100
AcDbLine
 62
7
  6
CONTINUOUS
 10
-4.1266861226
 20
5.7373268107
 11
-2.7831832383
 21
5.0655753686
  0
LINE
  5
41F
100
AcDbEntity
  8
DRAFT
100
AcDbLine
 62
7
  6
CONTINUOUS
 10
-1.9346551009
 20
4.6705022218
 11
-1.5307257072
 21
4.4685375249
  0
LWPOLYLINE
  5
420
100
AcDbEntity
  8
RACCORDO
100
AcDbPolyline
 62
250
  6
CONTINUOUS
 90
16
 70
0
 10
-21.8078959149
 20
15.0482210357
 10
-21.7918680299
 20
15.0395783179
 10
-21.7762962434
 20
15.0291989746
 10
-21.7611805554
 20
15.0170830057
 10
-21.7463510438
 20
15.0030495921
 10
-21.7319776308
 20
14.9872795529
 10
-21.7185700829
 20
14.9703153459
 10
-21.7061716633
 20
14.9521230255
 10
-21.6947391088
 20
14.9327365372
 10
-21.6846523963
 20
14.9128001752
 10
-21.6759558897
 20
14.8922832029
 10
-21.668605225
 20
14.8712163569
 10
-21.6628472875
 20
14.8503361418
 10
-21.6587643722
 20
14.8298880591
 10
-21.6562741841
 20
14.8096266072
 10
-21.6553767232
 20
14.7895517863
  0
LWPOLYLINE
  5
421
100
AcDbEntity
  8
RACCORDO
100
AcDbPolyline
 62
250
  6
CONTINUOUS
 90
7
 70
0
 10
-37.3821690844
 20
23.9639878396
 10
-37.4036199958
 20
23.9762089109
 10
-37.421716706
 20
23.9897188056
 10
-37.4361530013
 20
24.0042889232
 10
-37.4466846058
 20
24.0196727235
 10
-37.4531333145
 20
24.0356098977
 10
-37.4553923891
 20
24.0523761873
  0
LWPOLYLINE
  5
422
100
AcDbEntity
  8
RACCORDO
100
AcDbPolyline
 62
250
  6
CONTINUOUS
 90
7
 70
0
 10
-37.3821690844
 20
23.6296869125
 10
-37.4036498973
 20
23.6419274426
 10
-37.4217664742
 20
23.6554608543
 10
-37.4362109436
 20
23.6700575684
 10
-37.4467378054
 20
23.685470084
 10
-37.4531677524
 20
23.7014366805
 10
-37.4553923891
 20
23.7180752601
  0
LWPOLYLINE
  5
423
100
AcDbEntity
  8
RACCORDO
100
AcDbPolyline
 62
250
  6
CONTINUOUS
 90
13
 70
0
 10
-35.891214339
 20
23.6102426211
 10
-35.8682385369
 20
23.596696764
 10
-35.8456254198
 20
23.579658073
 10
-35.8237657655
 20
23.5594174708
 10
-35.8030359442
 20
23.5363192217
 10
-35.7837976804
 20
23.5107619146
 10
-35.7663901288
 20
23.4831939423
 10
-35.7510840685
 20
23.4540281431
 10
-35.7381849389
 20
23.4238282974
 10
-35.7279768003
 20
23.3933262133
 10
-35.7205939089
 20
23.3631179807
 10
-35.716077606
 20
23.3336378637
 10
-35.7144443748
 20
23.305359532
  0
LINE
  5
424
100
AcDbEntity
  8
SMUSSO
100
AcDbLine
 62
250
  6
CONTINUOUS
 10
-8.4046821488
 20
24.1998151468
 11
-8.4046821488
 21
24.6736781991
  0
LINE
  5
425
100
AcDbEntity
  8
0
100
AcDbLine
 62
7
  6
CONTINUOUS
 10
-7.7329307066
 20
24.5285110631
 11
-7.7329307066
 21
24.0686685645
  0
LWPOLYLINE
  5
426
100
AcDbEntity
  8
SMUSSO
100
AcDbPolyline
 62
7
  6
CONTINUOUS
 90
35
 70
0
 10
-9.21013034
 20
23.7308346046
 10
-9.2097543624
 20
23.7533204268
 10
-9.20794075
 20
23.7845952212
 10
-9.2046393552
 20
23.815826534
 10
-9.1998516695
 20
23.84699836
 10
-9.1935799871
 20
23.8780934187
 10
-9.1858274184
 20
23.9090944425
 10
-9.1765978599
 20
23.939985487
 10
-9.1658960212
 20
23.9707493429
 10
-9.1537274039
 20
24.0013689231
 10
-9.140098275
 20
24.0318285498
 10
-9.1250157152
 20
24.0621112297
 10
-9.1084876031
 20
24.0922000763
 10
-9.0905225703
 20
24.1220796957
 10
-9.0711300475
 20
24.1517333754
 10
-9.0503202546
 20
24.1811445298
 10
-9.0281041638
 20
24.21029812
 10
-9.0044935334
 20
24.2391777771
 10
-8.9795008687
 20
24.2677673176
 10
-8.9531393945
 20
24.2960521858
 10
-8.9254230979
 20
24.3240164822
 10
-8.8963667455
 20
24.3516444565
 10
-8.8659858374
 20
24.3789220223
 10
-8.8342965977
 20
24.405833768
 10
-8.8013159363
 20
24.432364519
 10
-8.7670614551
 20
24.4585008288
 10
-8.7315514557
 20
24.4842279127
 10
-8.6948049778
 20
24.5095311789
 10
-8.656841765
 20
24.5343977933
 10
-8.617682689
 20
24.5588133175
 10
-8.5773483003
 20
24.5827641874
 10
-8.5358587232
 20
24.6062391868
 10
-8.4932356109
 20
24.6292256752
 10
-8.4495022767
 20
24.6517096526
 10
-8.4046821488
 20
24.6736781991
  0
LINE
  5
427
100
AcDbEntity
  8
RACCORDO
100
AcDbLine
 62
250
  6
CONTINUOUS
 10
-2.5034939285
 20
4.040781552
 11
-2.5033258052
 21
4.0409758087
  0
LINE
  5
428
100
AcDbEntity
  8
0
100
AcDbLine
 62
7
  6
CONTINUOUS
 10
-2.5033258052
 20
4.0409758087
 11
-2.2114274118
 21
4.3782643023
  0
LWPOLYLINE
  5
429
100
AcDbEntity
  8
RACCORDO
100
AcDbPolyline
 62
250
  6
CONTINUOUS
 90
34
 70
0
 10
-2.191087833
 20
4.473748194
 10
-2.2633088676
 20
4.3909824273
 10
-2.3392924224
 20
4.3090245658
 10
-2.4179996635
 20
4.2300177413
 10
-2.4996030885
 20
4.1540817225
 10
-2.5839301998
 20
4.0810967407
 10
-2.6694246701
 20
4.0128466214
 10
-2.7559355932
 20
3.9496779823
 10
-2.8436138753
 20
3.8912442058
 10
-2.9313559078
 20
3.838289264
 10
-3.018975651
 20
3.7909984243
 10
-3.1066591447
 20
3.7491864193
 10
-3.1938608993
 20
3.7130414193
 10
-3.2805838124
 20
3.6825727765
 10
-3.3668249863
 20
3.6577711387
 10
-3.452030239
 20
3.6387966195
 10
-3.5362463253
 20
3.625674616
 10
-3.6194264903
 20
3.6183797311
 10
-3.700876287
 20
3.6169958871
 10
-3.780576682
 20
3.6215796242
 10
-3.8585467087
 20
3.6320744022
 10
-3.9341490195
 20
3.6483945229
 10
-4.0073508861
 20
3.6705849191
 10
-4.0781850369
 20
3.6986006579
 10
-4.1461123101
 20
3.7322212423
 10
-4.2111120006
 20
3.7714879085
 10
-4.2732048135
 20
3.8163594202
 10
-4.331913702
 20
3.8664915715
 10
-4.3872155479
 20
3.9219272068
 10
-4.4391334694
 20
3.9826234817
 10
-4.4872597735
 20
4.0481076563
 10
-4.5315645074
 20
4.1184178447
 10
-4.5720776238
 20
4.1935159328
 10
-4.6028582934
 20
4.2605661447
  0
LWPOLYLINE
  5
42A
100
AcDbEntity
  8
RACCORDO
100
AcDbPolyline
 62
250
  6
CONTINUOUS
 90
5
 70
0
 10
-2.2114274118
 20
4.3782643023
 10
-2.2340634755
 20
4.3523599133
 10
-2.3142019964
 20
4.2645653563
 10
-2.3975997725
 20
4.1793417465
 10
-2.4842343538
 20
4.0970316021
  0
LWPOLYLINE
  5
42B
100
AcDbEntity
  8
RACCORDO
100
AcDbPolyline
 62
250
  6
CONTINUOUS
 90
27
 70
0
 10
-2.4842343538
 20
4.0970316021
 10
-2.5738681486
 20
4.0181793155
 10
-2.6651130218
 20
3.9441889468
 10
-2.7574940901
 20
3.8754801089
 10
-2.8510020001
 20
3.8120939616
 10
-2.944866407
 20
3.7545594606
 10
-3.0386012868
 20
3.7031091977
 10
-3.1321779724
 20
3.657694022
 10
-3.2255042678
 20
3.618330778
 10
-3.3183388829
 20
3.5851092683
 10
-3.4104261933
 20
3.5581089533
 10
-3.5016520777
 20
3.5373633277
 10
-3.5918287224
 20
3.522934181
 10
-3.6806510204
 20
3.5148896792
 10
-3.7678310384
 20
3.5132644209
 10
-3.8531293098
 20
3.5180660122
 10
-3.9363194168
 20
3.5292849201
 10
-4.0171452935
 20
3.5468864787
 10
-4.0953772453
 20
3.5708146653
 10
-4.1708212462
 20
3.6010039377
 10
-4.2432867738
 20
3.6373752427
 10
-4.3125805212
 20
3.6798304774
 10
-4.378515877
 20
3.7282541786
 10
-4.4409228158
 20
3.7825214887
 10
-4.499635833
 20
3.8424905882
 10
-4.5544934492
 20
3.907998774
 10
-4.5642871975
 20
3.9216476438
  0
LINE
  5
42C
100
AcDbEntity
  8
RACCORDO
100
AcDbLine
 62
250
  6
CONTINUOUS
 10
-23.1832138756
 20
-11.5751793199
 11
-22.8481729671
 21
-11.4176579675
  0
LINE
  5
42D
100
AcDbEntity
  8
RACCORDO
100
AcDbLine
 62
7
  6
CONTINUOUS
 10
-23.1832138756
 20
-11.7008337193
 11
-22.9285835439
 21
-11.5811178482
  0
LWPOLYLINE
  5
42E
100
AcDbEntity
  8
RACCORDO
100
AcDbPolyline
 62
7
  6
CONTINUOUS
 90
25
 70
0
 10
0.9947096765
 20
-2.0326842636
 10
1.0645541529
 20
-2.0116406627
 10
1.134342586
 20
-1.9907837191
 10
1.2040749758
 20
-1.9701134326
 10
1.2737340767
 20
-1.9496269722
 10
1.3433371342
 20
-1.9293271689
 10
1.4129358854
 20
-1.9092225164
 10
1.4825297744
 20
-1.8893105749
 10
1.5521193571
 20
-1.869593784
 10
1.6217580376
 20
-1.8500879561
 10
1.6914362803
 20
-1.8307918824
 10
1.7611636208
 20
-1.8117067716
 10
1.831022071
 20
-1.792852062
 10
1.9009966791
 20
-1.7742254791
 10
1.971102397
 20
-1.7558292974
 10
2.0414660918
 20
-1.737689778
 10
2.1120802213
 20
-1.719798457
 10
2.1829523277
 20
-1.7021637984
 10
2.2542319058
 20
-1.6848374557
 10
2.3259227195
 20
-1.6678012248
 10
2.3980210048
 20
-1.6510733098
 10
2.4706649639
 20
-1.634759976
 10
2.5439006641
 20
-1.6188966454
 10
2.6176820381
 20
-1.603447896
 10
2.6920090858
 20
-1.5884137279
  0
LWPOLYLINE
  5
42F
100
AcDbEntity
  8
RACCORDO
100
AcDbPolyline
 62
250
  6
CONTINUOUS
 90
27
 70
0
 10
-2.0580567244
 20
8.242265162
 10
-2.01971704
 20
8.2297392211
 10
-1.9564968902
 20
8.20393066
 10
-1.8975123387
 20
8.1748982572
 10
-1.8425882323
 20
8.1431034034
 10
-1.7915884168
 20
8.1090049519
 10
-1.7444194015
 20
8.0730829341
 10
-1.7008785303
 20
8.0357247421
 10
-1.6606675969
 20
7.9971874138
 10
-1.6236575719
 20
7.9578420349
 10
-1.5896723559
 20
7.9179966785
 10
-1.558378106
 20
7.8777213152
 10
-1.5296397505
 20
7.837273382
 10
-1.5033216174
 20
7.7968955394
 10
-1.4791347755
 20
7.7565491118
 10
-1.4569657224
 20
7.7164205041
 10
-1.4367014906
 20
7.6766849509
 10
-1.4180990345
 20
7.6372173458
 10
-1.4010684188
 20
7.598150108
 10
-1.3855200854
 20
7.5596067008
 10
-1.3712543477
 20
7.5213926495
 10
-1.3582037456
 20
7.4835990845
 10
-1.3463013272
 20
7.4463114076
 10
-1.3353881099
 20
7.4092815138
 10
-1.3253882171
 20
7.3724585099
 10
-1.3162880896
 20
7.33600786
 10
-1.3080415725
 20
7.2999842662
  0
LWPOLYLINE
  5
430
100
AcDbEntity
  8
RACCORDO
100
AcDbPolyline
 62
250
  6
CONTINUOUS
 90
7
 70
0
 10
-23.8426168728
 20
17.585943888
 10
-23.8659703477
 20
17.5955626694
 10
-23.8889015017
 20
17.601296114
 10
-23.9110140098
 20
17.603041593
 10
-23.9319270872
 20
17.6007647932
 10
-23.9512757471
 20
17.5945009479
 10
-23.9563401048
 20
17.5920588885
  0
LWPOLYLINE
  5
431
100
AcDbEntity
  8
RACCORDO
100
AcDbPolyline
 62
250
  6
CONTINUOUS
 90
13
 70
0
 10
-22.7021302217
 20
16.6239684083
 10
-22.6776880791
 20
16.6132429526
 10
-22.6506682898
 20
16.6041945975
 10
-22.6215280546
 20
16.5969764498
 10
-22.590760454
 20
16.5917106476
 10
-22.5588861056
 20
16.5884862932
 10
-22.5264443538
 20
16.5873579458
 10
-22.4939841441
 20
16.5883446982
 10
-22.4620547344
 20
16.5914298535
 10
-22.431196401
 20
16.5965612079
 10
-22.4019312965
 20
16.6036519341
 10
-22.3747546144
 20
16.6125820501
 10
-22.3501262104
 20
16.6232004498
  0
LWPOLYLINE
  5
432
100
AcDbEntity
  8
RACCORDO
100
AcDbPolyline
 62
250
  6
CONTINUOUS
 90
13
 70
0
 10
-36.0664483862
 20
22.9718265633
 10
-36.0420062436
 20
22.9611011076
 10
-36.0149864543
 20
22.9520527525
 10
-35.985846219
 20
22.9448346049
 10
-35.9550786185
 20
22.9395688027
 10
-35.92320427
 20
22.9363444483
 10
-35.8907625182
 20
22.9352161009
 10
-35.8583023085
 20
22.9362028533
 10
-35.8263728988
 20
22.9392880085
 10
-35.7955145654
 20
22.944419363
 10
-35.7662494609
 20
22.9515100892
 10
-35.7390727788
 20
22.9604402051
 10
-35.7144443748
 20
22.9710586048
  0
LWPOLYLINE
  5
433
100
AcDbEntity
  8
RACCORDO
100
AcDbPolyline
 62
250
  6
CONTINUOUS
 90
13
 70
0
 10
-36.0664483862
 20
23.3061274905
 10
-36.0420062436
 20
23.2954020348
 10
-36.0149864543
 20
23.2863536797
 10
-35.985846219
 20
23.2791355321
 10
-35.9550786185
 20
23.2738697298
 10
-35.92320427
 20
23.2706453754
 10
-35.8907625182
 20
23.2695170281
 10
-35.8583023085
 20
23.2705037804
 10
-35.8263728988
 20
23.2735889357
 10
-35.7955145654
 20
23.2787202902
 10
-35.7662494609
 20
23.2858110163
 10
-35.7390727788
 20
23.2947411323
 10
-35.7144443748
 20
23.305359532
  0
LWPOLYLINE
  5
434
100
AcDbEntity
  8
RACCORDO
100
AcDbPolyline
 62
250
  6
CONTINUOUS
 90
13
 70
0
 10
-22.7021302217
 20
16.2896674811
 10
-22.6778753322
 20
16.2790140462
 10
-22.6510138882
 20
16.2699939559
 10
-22.621980175
 20
16.2627699983
 10
-22.5912256884
 20
16.2574730167
 10
-22.5592838133
 20
16.2542124442
 10
-22.5267682238
 20
16.2530578302
 10
-22.494259953
 20
16.2540264072
 10
-22.4622824605
 20
16.257099183
 10
-22.431369793
 20
16.2622250709
 10
-22.4020446847
 20
16.2693188416
 10
-22.3748088847
 20
16.27826065
 10
-22.3501262104
 20
16.2888995226
  0
LWPOLYLINE
  5
435
100
AcDbEntity
  8
RACCORDO
100
AcDbPolyline
 62
250
  6
CONTINUOUS
 90
7
 70
0
 10
-36.8621898288
 20
22.5753679927
 10
-36.8505020778
 20
22.5696089729
 10
-36.8388089154
 20
22.5648532893
 10
-36.8271103416
 20
22.5611009419
 10
-36.8154063564
 20
22.5583519308
 10
-36.8036969599
 20
22.5566062558
 10
-36.7919821519
 20
22.555863917
  0
LINE
  5
436
100
AcDbEntity
  8
RACCORDO
100
AcDbLine
 62
250
  6
CONTINUOUS
 10
-23.3169149662
 20
15.8178986166
 11
-35.3531707776
 21
21.8360265223
  0
LINE
  5
437
100
AcDbEntity
  8
0
100
AcDbLine
 62
7
  6
CONTINUOUS
 10
-2.6800587408
 20
5.5416588853
 11
-3.5992975563
 21
6.0012782931
  0
LINE
  5
438
100
AcDbEntity
  8
0
100
AcDbLine
 62
7
  6
CONTINUOUS
 10
-3.5824094273
 20
6.0792438597
 11
-3.6328795942
 21
6.1044789431
  0
LINE
  5
439
100
AcDbEntity
  8
RACCORDO
100
AcDbLine
 62
250
  6
CONTINUOUS
 10
-23.3901382709
 20
16.2446751615
 11
-35.0027227583
 21
22.0509674052
  0
LINE
  5
43A
100
AcDbEntity
  8
RACCORDO
100
AcDbLine
 62
7
  6
CONTINUOUS
 10
-26.2258152428
 20
17.8462206089
 11
-31.7371637198
 21
20.6018948474
  0
LINE
  5
43B
100
AcDbEntity
  8
RACCORDO
100
AcDbLine
 62
7
  6
CONTINUOUS
 10
-37.317195788
 20
23.4944684624
 11
-36.0014750897
 21
22.8366081132
  0
LINE
  5
43C
100
AcDbEntity
  8
RACCORDO
100
AcDbLine
 62
7
  6
CONTINUOUS
 10
-23.9528776236
 20
16.8123093801
 11
-22.6371569253
 21
16.154449031
  0
LINE
  5
43D
100
AcDbEntity
  8
0
100
AcDbLine
 62
7
  6
CONTINUOUS
 10
-3.1790251947
 20
6.4279208249
 11
-3.322889691
 21
6.499853073
  0
LINE
  5
43E
100
AcDbEntity
  8
RACCORDO
100
AcDbLine
 62
250
  6
CONTINUOUS
 10
-22.4021796834
 20
16.0967989932
 11
-21.9888526132
 21
15.890135458
  0
LINE
  5
43F
100
AcDbEntity
  8
RACCORDO
100
AcDbLine
 62
250
  6
CONTINUOUS
 10
-37.3821690844
 20
23.6296869125
 11
-36.0664483862
 21
22.9718265633
  0
LINE
  5
440
100
AcDbEntity
  8
RACCORDO
100
AcDbLine
 62
250
  6
CONTINUOUS
 10
-24.01785092
 20
16.9475278302
 11
-22.7021302217
 21
16.2896674811
  0
LINE
  5
441
100
AcDbEntity
  8
0
100
AcDbLine
 62
7
  6
CONTINUOUS
 10
-2.6800587408
 20
6.5808893699
 11
-3.2781579852
 21
6.879938992
  0
LINE
  5
442
100
AcDbEntity
  8
RACCORDO
100
AcDbLine
 62
250
  6
CONTINUOUS
 10
-22.7021302217
 20
16.6239684083
 11
-24.01785092
 21
17.2818287574
  0
LINE
  5
443
100
AcDbEntity
  8
RACCORDO
100
AcDbLine
 62
250
  6
CONTINUOUS
 10
-36.0664483862
 20
23.3061274905
 11
-37.3821690844
 21
23.9639878396
  0
LINE
  5
444
100
AcDbEntity
  8
ASSI
100
AcDbLine
 62
7
  6
CONTINUOUS
 10
-0.8386395901
 20
5.6941157373
 11
-0.5155048766
 21
5.5325483806
  0
LINE
  5
445
100
AcDbEntity
  8
RACCORDO
100
AcDbLine
 62
7
  6
CONTINUOUS
 10
-34.1080136449
 20
22.5095431207
 11
-31.8836103292
 21
21.3973414629
  0
LINE
  5
446
100
AcDbEntity
  8
RACCORDO
100
AcDbLine
 62
7
  6
CONTINUOUS
 10
-25.1631128629
 20
18.0370927297
 11
-24.0619212356
 21
17.4864969161
  0
LINE
  5
447
100
AcDbEntity
  8
0
100
AcDbLine
 62
7
  6
CONTINUOUS
 10
-2.7831832383
 20
6.9538483891
 11
-3.2781579852
 21
7.2013357625
  0
LINE
  5
448
100
AcDbEntity
  8
RACCORDO
100
AcDbLine
 62
250
  6
CONTINUOUS
 10
-34.1042222102
 20
22.6436300747
 11
-33.9678478053
 21
22.5754428722
  0
LINE
  5
449
100
AcDbEntity
  8
RACCORDO
100
AcDbLine
 62
250
  6
CONTINUOUS
 10
-20.7399040458
 20
15.9614709925
 11
-20.6035296409
 21
15.89328379
  0
LINE
  5
44A
100
AcDbEntity
  8
RACCORDO
100
AcDbLine
 62
250
  6
CONTINUOUS
 10
-22.5268961745
 20
16.9280835389
 11
-23.8426168728
 21
17.585943888
  0
LINE
  5
44B
100
AcDbEntity
  8
RACCORDO
100
AcDbLine
 62
250
  6
CONTINUOUS
 10
-35.891214339
 20
23.6102426211
 11
-37.2069350372
 21
24.2681029703
  0
LINE
  5
44C
100
AcDbEntity
  8
RACCORDO
100
AcDbLine
 62
250
  6
CONTINUOUS
 10
-26.2258152428
 20
18.8945148763
 11
-31.7371637198
 21
21.6501891148
  0
LINE
  5
44D
100
AcDbEntity
  8
RACCORDO
100
AcDbLine
 62
250
  6
CONTINUOUS
 10
-25.8037151021
 20
18.9968505294
 11
-31.8788893849
 21
22.0344376708
  0
LINE
  5
44E
100
AcDbEntity
  8
DRAFT
100
AcDbLine
 62
7
  6
CONTINUOUS
 10
-34.1080136449
 20
23.2015333723
 11
-32.7414980164
 21
22.518275558
  0
LINE
  5
44F
100
AcDbEntity
  8
DRAFT
100
AcDbLine
 62
7
  6
CONTINUOUS
 10
-20.7436954805
 20
16.5193742901
 11
-19.9439863623
 21
16.119519731
  0
LINE
  5
450
100
AcDbEntity
  8
RACCORDO
100
AcDbLine
 62
7
  6
CONTINUOUS
 10
-1.3324201723
 20
7.1347169851
 11
-1.2215893384
 21
7.0793015682
  0
LINE
  5
451
100
AcDbEntity
  8
DRAFT
100
AcDbLine
 62
7
  6
CONTINUOUS
 10
-31.3856525373
 20
22.3607981323
 11
-25.1631128629
 21
19.249528295
  0
LWPOLYLINE
  5
452
100
AcDbEntity
  8
RACCORDO
100
AcDbPolyline
 62
250
  6
CONTINUOUS
 90
16
 70
0
 10
-21.6384044408
 20
15.3535790653
 10
-21.6037997482
 20
15.3350302442
 10
-21.5695014204
 20
15.3121441574
 10
-21.5358967082
 20
15.2851803557
 10
-21.5033650889
 20
15.254444526
 10
-21.4722733033
 20
15.2202844449
 10
-21.4429713253
 20
15.1830858155
 10
-21.4157904094
 20
15.1432705068
 10
-21.391035786
 20
15.1012870189
 10
-21.3689836793
 20
15.0576038648
 10
-21.3498828681
 20
15.0127122685
 10
-21.3339502618
 20
14.967120118
 10
-21.3213660281
 20
14.9213406582
 10
-21.3122730972
 20
14.8758903268
 10
-21.3067752133
 20
14.8312829602
 10
-21.3049354353
 20
14.7880226589
  0
LWPOLYLINE
  5
453
100
AcDbEntity
  8
RACCORDO
100
AcDbPolyline
 62
250
  6
CONTINUOUS
 90
7
 70
0
 10
-24.01785092
 20
16.9475278302
 10
-24.0391577898
 20
16.959655275
 10
-24.0571979704
 20
16.973085997
 10
-24.0716458855
 20
16.9876028536
 10
-24.0822398488
 20
17.0029800969
 10
-24.0887609939
 20
17.0189510345
 10
-24.0910742247
 20
17.0359161779
  0
LWPOLYLINE
  5
454
100
AcDbEntity
  8
RACCORDO
100
AcDbPolyline
 62
250
  6
CONTINUOUS
 90
7
 70
0
 10
-24.01785092
 20
17.2818287574
 10
-24.0393018314
 20
17.2940498287
 10
-24.0573985416
 20
17.3075597234
 10
-24.0718348369
 20
17.322129841
 10
-24.0823664413
 20
17.3375136412
 10
-24.0888151501
 20
17.3534508155
 10
-24.0910742247
 20
17.3702171051
  0
LWPOLYLINE
  5
455
100
AcDbEntity
  8
RACCORDO
100
AcDbPolyline
 62
250
  6
CONTINUOUS
 90
13
 70
0
 10
-33.7575524581
 20
24.6791538543
 10
-33.7347951957
 20
24.6661850558
 10
-33.7122832817
 20
24.6497471657
 10
-33.6904025921
 20
24.6300461381
 10
-33.6694955981
 20
24.6072979945
 10
-33.6499989895
 20
24.5818796378
 10
-33.6323974992
 20
24.5543774397
 10
-33.6170272432
 20
24.525332948
 10
-33.6041140446
 20
24.4951915823
 10
-33.5938837594
 20
24.4644838482
 10
-33.5865111975
 20
24.4337438002
 10
-33.5821197873
 20
24.4034990205
 10
-33.5807824939
 20
24.3742707651
  0
LWPOLYLINE
  5
456
100
AcDbEntity
  8
RACCORDO
100
AcDbPolyline
 62
7
  6
CONTINUOUS
 90
13
 70
0
 10
-34.2847836091
 20
24.4165814508
 10
-34.2615235229
 20
24.4032853524
 10
-34.2386877722
 20
24.386499554
 10
-34.216667046
 20
24.3665112371
 10
-34.1958380925
 20
24.3436623721
 10
-34.1765572635
 20
24.318343873
 10
-34.1591544179
 20
24.2909889093
 10
-34.1439272879
 20
24.2620654901
 10
-34.1311363953
 20
24.2320684518
 10
-34.1210005842
 20
24.2015109978
 10
-34.1136932673
 20
24.1709159227
 10
-34.1093394586
 20
24.1408066679
 10
-34.1080136449
 20
24.1116983616
  0
LWPOLYLINE
  5
457
100
AcDbEntity
  8
RACCORDO
100
AcDbPolyline
 62
250
  6
CONTINUOUS
 90
53
 70
0
 10
1.105293697
 20
1.0245339449
 10
1.133629463
 20
1.0033751369
 10
1.1769062281
 20
0.9698814425
 10
1.219967351
 20
0.9353711227
 10
1.2627933731
 20
0.8998597721
 10
1.3053649337
 20
0.863363444
 10
1.3476627705
 20
0.8258986508
 10
1.3896677458
 20
0.7874823434
 10
1.4313608596
 20
0.7481318987
 10
1.4727232578
 20
0.7078651117
 10
1.5137362328
 20
0.6667001947
 10
1.5543812326
 20
0.6246557687
 10
1.5946398779
 20
0.5817508463
 10
1.6344939696
 20
0.5380048226
 10
1.6739254907
 20
0.4934374731
 10
1.712916599
 20
0.4480689628
 10
1.7514496447
 20
0.4019198286
 10
1.7895071889
 20
0.3550109579
 10
1.8270720318
 20
0.3073635521
 10
1.8641272054
 20
0.2589991336
 10
1.9006559654
 20
0.2099395548
 10
1.9366417747
 20
0.1602070233
 10
1.9720683328
 20
0.1098240669
 10
2.0069196003
 20
0.058813499
 10
2.041179834
 20
0.0071983653
 10
2.074833567
 20
-0.0449980324
 10
2.1078655968
 20
-0.0977521188
 10
2.1402609637
 20
-0.1510400055
 10
2.172004987
 20
-0.2048375439
 10
2.2030832918
 20
-0.2591203686
 10
2.2334818431
 20
-0.3138639616
 10
2.2631869217
 20
-0.3690436164
 10
2.2921851101
 20
-0.4246344135
 10
2.3204632732
 20
-0.480611176
 10
2.3480085939
 20
-0.5369485329
 10
2.3748085984
 20
-0.5936209674
 10
2.400851185
 20
-0.650602884
 10
2.4261246006
 20
-0.7078685663
 10
2.4506174286
 20
-0.7653921513
 10
2.4743185746
 20
-0.8231475875
 10
2.4972172975
 20
-0.8811087008
 10
2.5193032292
 20
-0.9392492426
 10
2.5405663957
 20
-0.9975429516
 10
2.5609971985
 20
-1.0559635129
 10
2.5805864065
 20
-1.1144845359
 10
2.5993251479
 20
-1.1730795224
 10
2.6172049337
 20
-1.2317219275
 10
2.6342176706
 20
-1.2903852018
 10
2.6503556736
 20
-1.3490428408
 10
2.6656116544
 20
-1.407668353
 10
2.6799787154
 20
-1.4662352362
 10
2.6934503546
 20
-1.52471699
 10
2.7060204786
 20
-1.5830871646
  0
LWPOLYLINE
  5
458
100
AcDbEntity
  8
DRAFT
100
AcDbPolyline
 62
7
  6
CONTINUOUS
 90
25
 70
0
 10
-19.9439863623
 20
16.119519731
 10
-19.9254825931
 20
16.1034373291
 10
-19.9074123764
 20
16.0864084514
 10
-19.8897757122
 20
16.0684330979
 10
-19.8725230879
 20
16.0494526097
 10
-19.8557040162
 20
16.0295256457
 10
-19.8394670344
 20
16.0088281821
 10
-19.8238172695
 20
15.9873533456
 10
-19.8087495945
 20
15.9651080095
 10
-19.7943971655
 20
15.94228877
 10
-19.7807663782
 20
15.9188906608
 10
-19.7678508369
 20
15.8949186482
 10
-19.7557645113
 20
15.8705842265
 10
-19.7445147179
 20
15.845884226
 10
-19.7340941402
 20
15.8208218165
 10
-19.7245947974
 20
15.7956180014
 10
-19.7160248034
 20
15.7702716129
 10
-19.7083760445
 20
15.7447838188
 10
-19.7017161987
 20
15.7193791266
 10
-19.6960539125
 20
15.6940581906
 10
-19.6913805395
 20
15.6688203565
 10
-19.6877378187
 20
15.6438881691
 10
-19.6851396632
 20
15.61933581
 10
-19.6835721598
 20
15.5950890976
 10
-19.6830353087
 20
15.5711480319
  0
LWPOLYLINE
  5
459
100
AcDbEntity
  8
SMUSSO
100
AcDbPolyline
 62
7
  6
CONTINUOUS
 90
10
 70
0
 10
-16.591329236
 20
27.2049642294
 10
-16.5954076164
 20
27.2159118263
 10
-16.6054545128
 20
27.2469226379
 10
-16.6140303422
 20
27.2780256786
 10
-16.6211302149
 20
27.3092037422
 10
-16.6267500649
 20
27.3404397293
 10
-16.63088663
 20
27.3717176065
 10
-16.6335374071
 20
27.4030201371
 10
-16.6347006851
 20
27.4343300071
 10
-16.6347515425
 20
27.4431452059
  0
LINE
  5
45A
100
AcDbEntity
  8
0
100
AcDbLine
 62
7
  6
CONTINUOUS
 10
-6.7714033253
 20
23.1159652184
 11
-6.7714033253
 21
22.6702707393
  0
LINE
  5
45B
100
AcDbEntity
  8
0
100
AcDbLine
 62
7
  6
CONTINUOUS
 10
-6.3216586639
 20
22.9942173852
 11
-6.3216586639
 21
22.6591911066
  0
LINE
  5
45C
100
AcDbEntity
  8
DRAFT
100
AcDbLine
 62
7
  6
CONTINUOUS
 10
-6.2833618052
 20
23.8461547682
 11
-6.2833618052
 21
24.4488710495
  0
LINE
  5
45D
100
AcDbEntity
  8
0
100
AcDbLine
 62
7
  6
CONTINUOUS
 10
-4.1266861226
 20
5.7373268107
 11
-4.0974753267
 21
5.8721810769
  0
LWPOLYLINE
  5
45E
100
AcDbEntity
  8
RACCORDO
100
AcDbPolyline
 62
250
  6
CONTINUOUS
 90
10
 70
0
 10
-23.403760607
 20
-23.4779030321
 10
-23.38685384
 20
-23.4552749323
 10
-23.3713607897
 20
-23.4310396602
 10
-23.3574919231
 20
-23.4055273437
 10
-23.3454395176
 20
-23.3790895165
 10
-23.3353592769
 20
-23.3520791975
 10
-23.3273731543
 20
-23.3248449916
 10
-23.3215871899
 20
-23.2977483658
 10
-23.3180851622
 20
-23.2711597009
 10
-23.3169149662
 20
-23.2454375049
  0
LINE
  5
45F
100
AcDbEntity
  8
RACCORDO
100
AcDbLine
 62
7
  6
CONTINUOUS
 10
-23.7587733763
 20
-23.7683255164
 11
-23.5088560869
 21
-23.4628926921
  0
LINE
  5
460
100
AcDbEntity
  8
RACCORDO
100
AcDbLine
 62
250
  6
CONTINUOUS
 10
-23.7587733763
 20
-23.911776787
 11
-23.403760607
 21
-23.4779030321
  0
LWPOLYLINE
  5
461
100
AcDbEntity
  8
RACCORDO
100
AcDbPolyline
 62
7
  6
CONTINUOUS
 90
16
 70
0
 10
-2.2114274118
 20
4.3782643023
 10
-2.1284252692
 20
4.4776663775
 10
-2.0481881457
 20
4.5808307806
 10
-1.9709053129
 20
4.6874851622
 10
-1.896762215
 20
4.7973471148
 10
-1.8259313829
 20
4.9101377281
 10
-1.7585749352
 20
5.0255808358
 10
-1.6948591634
 20
5.1433779161
 10
-1.6349381081
 20
5.2632344564
 10
-1.5789490276
 20
5.3848740013
 10
-1.527034754
 20
5.5079928123
 10
-1.4793310112
 20
5.6322816809
 10
-1.4359563395
 20
5.7574551015
 10
-1.3970285006
 20
5.8832113326
 10
-1.3626624476
 20
6.0092297193
 10
-1.3329615799
 20
6.1351959661
  0
LWPOLYLINE
  5
462
100
AcDbEntity
  8
RACCORDO
100
AcDbPolyline
 62
7
  6
CONTINUOUS
 90
10
 70
0
 10
2.7060204786
 20
-1.5830871646
 10
2.7045439945
 20
-1.5839103793
 10
2.7030488451
 20
-1.5846761453
 10
2.7015349744
 20
-1.5853843499
 10
2.7000039848
 20
-1.586035018
 10
2.6984541966
 20
-1.5866279094
 10
2.696880505
 20
-1.5871624546
 10
2.6952810351
 20
-1.5876383198
 10
2.6936572852
 20
-1.5880554712
 10
2.6920090858
 20
-1.5884137279
  0
LINE
  5
463
100
AcDbEntity
  8
RACCORDO
100
AcDbLine
 62
250
  6
CONTINUOUS
 10
-23.0602807704
 20
-15.2227615824
 11
-23.1832138756
 21
-15.2857699231
  0
LWPOLYLINE
  5
464
100
AcDbEntity
  8
RACCORDO
100
AcDbPolyline
 62
250
  6
CONTINUOUS
 90
44
 70
0
 10
0.9947096802
 20
-4.3023153742
 10
1.0038680506
 20
-4.2990448461
 10
1.0130971449
 20
-4.2960526195
 10
1.0223944899
 20
-4.2933348153
 10
1.0317756528
 20
-4.290859518
 10
1.0412193123
 20
-4.2886498339
 10
1.0506666895
 20
-4.2867831262
 10
1.0601160253
 20
-4.2852549224
 10
1.0695600795
 20
-4.2840565644
 10
1.0789302077
 20
-4.2832569945
 10
1.08820636
 20
-4.2828477147
 10
1.0973960602
 20
-4.2828194434
 10
1.1064696682
 20
-4.2832367923
 10
1.1154221819
 20
-4.2840814476
 10
1.1242406157
 20
-4.2853462658
 10
1.1328796915
 20
-4.2871075624
 10
1.1413342173
 20
-4.2893415697
 10
1.1495839953
 20
-4.2920358666
 10
1.1575562844
 20
-4.2952768928
 10
1.1652345261
 20
-4.2990233535
 10
1.1726007596
 20
-4.3032665414
 10
1.1795721089
 20
-4.3081303252
 10
1.1861569008
 20
-4.3135946303
 10
1.192294947
 20
-4.31960237
 10
1.1977941665
 20
-4.3262126472
 10
1.2026240767
 20
-4.3334215126
 10
1.206755239
 20
-4.3411405325
 10
1.2100026664
 20
-4.34931048
 10
1.2123151504
 20
-4.3579081185
 10
1.2136951443
 20
-4.3668766864
 10
1.2140523228
 20
-4.3761281488
 10
1.213339035
 20
-4.385672294
 10
1.2115664805
 20
-4.395433564
 10
1.2087547089
 20
-4.4052305888
 10
1.204896096
 20
-4.4150296756
 10
1.1999948339
 20
-4.4248491802
 10
1.1941074237
 20
-4.434616067
 10
1.1872299462
 20
-4.4443317573
 10
1.1793688934
 20
-4.4539884052
 10
1.1706050347
 20
-4.4635135469
 10
1.1609459057
 20
-4.4729090938
 10
1.150395917
 20
-4.4821833228
 10
1.1390383809
 20
-4.4912861166
 10
1.130544543
 20
-4.4975332744
  0
LINE
  5
465
100
AcDbEntity
  8
RACCORDO
100
AcDbLine
 62
7
  6
CONTINUOUS
 10
-22.5766486333
 20
16.1333747874
 11
-22.041572339
 21
16.0212010635
  0
LINE
  5
466
100
AcDbEntity
  8
RACCORDO
100
AcDbLine
 62
250
  6
CONTINUOUS
 10
-22.3501262104
 20
16.2888995226
 11
-21.8151680039
 21
16.1767505053
  0
LWPOLYLINE
  5
467
100
AcDbEntity
  8
RACCORDO
100
AcDbPolyline
 62
7
  6
CONTINUOUS
 90
7
 70
0
 10
-22.2639817911
 20
18.4061805418
 10
-22.2872418773
 20
18.4157683536
 10
-22.310077628
 20
18.4215013412
 10
-22.3320983542
 20
18.4232814212
 10
-22.3529273077
 20
18.4210781409
 10
-22.3722081367
 20
18.414929194
 10
-22.3750974066
 20
18.4135995063
  0
LWPOLYLINE
  5
468
100
AcDbEntity
  8
RACCORDO
100
AcDbPolyline
 62
250
  6
CONTINUOUS
 90
7
 70
0
 10
-21.7274674741
 20
18.6641113623
 10
-21.7498560432
 20
18.6737154795
 10
-21.7720538666
 20
18.6796324581
 10
-21.7936815155
 20
18.6816855998
 10
-21.8144017745
 20
18.6797510827
 10
-21.8337832324
 20
18.6737717592
 10
-21.8373307444
 20
18.6721564731
  0
LWPOLYLINE
  5
469
100
AcDbEntity
  8
RACCORDO
100
AcDbPolyline
 62
7
  6
CONTINUOUS
 90
21
 70
0
 10
-26.1547211292
 20
21.7521829911
 10
-26.1664908683
 20
21.7576270937
 10
-26.1781952514
 20
21.7626204063
 10
-26.1898219424
 20
21.7671573102
 10
-26.201357818
 20
21.7712328048
 10
-26.2127913972
 20
21.7748422521
 10
-26.22411284
 20
21.7779812335
 10
-26.2353097159
 20
21.780646196
 10
-26.2463701075
 20
21.7828339588
 10
-26.2572850008
 20
21.7845411878
 10
-26.2680422091
 20
21.7857658382
 10
-26.27863
 20
21.7865061812
 10
-26.2890401299
 20
21.7867599053
 10
-26.2992605013
 20
21.7865265149
 10
-26.3092799153
 20
21.7858058077
 10
-26.319091588
 20
21.784596448
 10
-26.3286841628
 20
21.7828993981
 10
-26.3380464508
 20
21.7807159507
 10
-26.3471721083
 20
21.778045933
 10
-26.356049276
 20
21.7748923246
 10
-26.3653121872
 20
21.7709622587
  0
LWPOLYLINE
  5
46A
100
AcDbEntity
  8
RACCORDO
100
AcDbPolyline
 62
250
  6
CONTINUOUS
 90
7
 70
0
 10
-20.2829735429
 20
18.0033321387
 10
-20.2864495752
 20
18.004981901
 10
-20.3054994354
 20
18.0112311332
 10
-20.3260599565
 20
18.0135630654
 10
-20.3477832349
 20
18.011938239
 10
-20.370301692
 20
18.0063841477
 10
-20.3932342937
 20
17.9969947721
  0
LWPOLYLINE
  5
46B
100
AcDbEntity
  8
RACCORDO
100
AcDbPolyline
 62
250
  6
CONTINUOUS
 90
7
 70
0
 10
-21.6172067233
 20
18.6704487289
 10
-21.6206827557
 20
18.6720984912
 10
-21.6397326158
 20
18.6783477234
 10
-21.6602931369
 20
18.6806796556
 10
-21.6820164154
 20
18.6790548292
 10
-21.7045348724
 20
18.6735007379
 10
-21.7274674741
 20
18.6641113623
  0
LWPOLYLINE
  5
46C
100
AcDbEntity
  8
RACCORDO
100
AcDbPolyline
 62
250
  6
CONTINUOUS
 90
7
 70
0
 10
-33.6472917073
 20
24.6854912209
 10
-33.6507677397
 20
24.6871409832
 10
-33.6698175998
 20
24.6933902154
 10
-33.6903781209
 20
24.6957221476
 10
-33.7121013994
 20
24.6940973212
 10
-33.7346198564
 20
24.6885432299
 10
-33.7575524581
 20
24.6791538543
  0
LWPOLYLINE
  5
46D
100
AcDbEntity
  8
RACCORDO
100
AcDbPolyline
 62
250
  6
CONTINUOUS
 90
7
 70
0
 10
-34.9815248878
 20
25.3526078111
 10
-34.9845728798
 20
25.3540637842
 10
-35.0036902744
 20
25.3604280047
 10
-35.0243341757
 20
25.3628337631
 10
-35.0461482115
 20
25.3612440183
 10
-35.068760879
 20
25.3556900896
 10
-35.0917856385
 20
25.3462704445
  0
LINE
  5
46E
100
AcDbEntity
  8
RACCORDO
100
AcDbLine
 62
7
  6
CONTINUOUS
 10
-22.2639817911
 20
18.4061805418
 11
-20.9204654446
 21
17.7344223686
  0
LINE
  5
46F
100
AcDbEntity
  8
RACCORDO
100
AcDbLine
 62
7
  6
CONTINUOUS
 10
-34.2847836091
 20
24.4165814508
 11
-35.6282999556
 21
25.088339624
  0
LINE
  5
470
100
AcDbEntity
  8
DRAFT
100
AcDbLine
 62
7
  6
CONTINUOUS
 10
-25.0924021848
 20
19.913722048
 11
-30.0421496531
 21
22.3885957821
  0
LINE
  5
471
100
AcDbEntity
  8
RACCORDO
100
AcDbLine
 62
250
  6
CONTINUOUS
 10
-35.0917856385
 20
25.3462704445
 11
-33.7575524581
 21
24.6791538543
  0
LINE
  5
472
100
AcDbEntity
  8
RACCORDO
100
AcDbLine
 62
250
  6
CONTINUOUS
 10
-21.7274674741
 20
18.6641113623
 11
-20.3932342937
 21
17.9969947721
  0
LINE
  5
473
100
AcDbEntity
  8
RACCORDO
100
AcDbLine
 62
7
  6
CONTINUOUS
 10
-34.9815248878
 20
25.3526078111
 11
-33.6472917073
 21
24.6854912209
  0
LINE
  5
474
100
AcDbEntity
  8
RACCORDO
100
AcDbLine
 62
7
  6
CONTINUOUS
 10
-21.6172067233
 20
18.6704487289
 11
-20.2829735429
 21
18.0033321387
  0
LINE
  5
475
100
AcDbEntity
  8
ASSI
100
AcDbLine
 62
7
  6
CONTINUOUS
 10
-0.8386395901
 20
8.6941157373
 11
-0.5155048766
 21
8.5325483806
  0
LINE
  5
476
100
AcDbEntity
  8
RACCORDO
100
AcDbLine
 62
7
  6
CONTINUOUS
 10
-26.1531162044
 20
21.7513964654
 11
-23.7709609669
 21
20.5603188466
  0
LINE
  5
477
100
AcDbEntity
  8
RACCORDO
100
AcDbLine
 62
250
  6
CONTINUOUS
 10
-23.1409351789
 20
20.8685979074
 11
-25.1636337686
 21
21.879934296
  0
LINE
  5
478
100
AcDbEntity
  8
RACCORDO
100
AcDbLine
 62
7
  6
CONTINUOUS
 10
-23.092457082
 20
20.892318813
 11
-25.074168789
 21
21.8831746665
  0
LINE
  5
479
100
AcDbEntity
  8
0
100
AcDbLine
 62
7
  6
CONTINUOUS
 10
-2.7831832383
 20
4.1997187849
 11
-3.2781579852
 21
4.7494551952
  0
LINE
  5
47A
100
AcDbEntity
  8
0
100
AcDbLine
 62
7
  6
CONTINUOUS
 10
-3.9168855385
 20
5.4588485423
 11
-4.1266861226
 21
5.6918604701
  0
LINE
  5
47B
100
AcDbEntity
  8
SMUSSO
100
AcDbLine
 62
250
  6
CONTINUOUS
 10
-2.5886860758
 20
2.9445764306
 11
-2.7755760382
 21
3.1647190106
  0
LWPOLYLINE
  5
47C
100
AcDbEntity
  8
SMUSSO
100
AcDbPolyline
 62
7
  6
CONTINUOUS
 90
17
 70
0
 10
-4.430487063
 20
3.4992808039
 10
-4.40783328
 20
3.4633533081
 10
-4.3842960326
 20
3.4285520151
 10
-4.3598873792
 20
3.394895398
 10
-4.3346206635
 20
3.3624018514
 10
-4.308509736
 20
3.3310892307
 10
-4.2815681055
 20
3.3009742945
 10
-4.2538105525
 20
3.2720735961
 10
-4.2252522661
 20
3.2444030189
 10
-4.1959080379
 20
3.2179773504
 10
-4.1657939749
 20
3.1928111709
 10
-4.1349265705
 20
3.1689183663
 10
-4.1033218304
 20
3.1463116785
 10
-4.0709971111
 20
3.125003642
 10
-4.0379701323
 20
3.1050060758
 10
-4.004258039
 20
3.0863296112
 10
-3.9839311947
 20
3.0758827985
  0
LINE
  5
47D
100
AcDbEntity
  8
RACCORDO
100
AcDbLine
 62
7
  6
CONTINUOUS
 10
-13.3650238123
 20
17.2472455706
 11
-14.4482190819
 21
19.1154810564
  0
LWPOLYLINE
  5
47E
100
AcDbEntity
  8
SMUSSO
100
AcDbPolyline
 62
7
  6
CONTINUOUS
 90
3
 70
0
 10
-4.4646271916
 20
3.5589533162
 10
-4.452244978
 20
3.5363148511
 10
-4.430487063
 20
3.4992808039
  0
LWPOLYLINE
  5
47F
100
AcDbEntity
  8
SMUSSO
100
AcDbPolyline
 62
7
  6
CONTINUOUS
 90
50
 70
0
 10
-4.4221757275
 20
3.456965383
 10
-4.4023683273
 20
3.4151139795
 10
-4.381293248
 20
3.3737736556
 10
-4.3592363739
 20
3.3335392614
 10
-4.3362333934
 20
3.2944759574
 10
-4.3122827657
 20
3.2565855846
 10
-4.2873860317
 20
3.219866302
 10
-4.2615835019
 20
3.1843777468
 10
-4.2348736657
 20
3.150121854
 10
-4.2072580338
 20
3.1170966886
 10
-4.1787814491
 20
3.0853560825
 10
-4.1494425058
 20
3.0549021254
 10
-4.1192426097
 20
3.0257327276
 10
-4.0882308213
 20
2.9978954517
 10
-4.0564058143
 20
2.9713924661
 10
-4.023768915
 20
2.9462216024
 10
-3.990373163
 20
2.9224239182
 10
-3.9562173181
 20
2.9000016499
 10
-3.9213026205
 20
2.8789525611
 10
-3.8856858311
 20
2.8593110003
 10
-3.849365802
 20
2.8410792611
 10
-3.8123436811
 20
2.8242550499
 10
-3.7746796733
 20
2.8088658346
 10
-3.7363727287
 20
2.7949139545
 10
-3.6974238971
 20
2.7823970703
 10
-3.657896534
 20
2.7713356318
 10
-3.6177896925
 20
2.7617320127
 10
-3.5771043194
 20
2.7535838393
 10
-3.53590661
 20
2.74690444
 10
-3.4941957256
 20
2.7416962111
 10
-3.4519725049
 20
2.7379567564
 10
-3.4093056589
 20
2.7356922151
 10
-3.3661944612
 20
2.7349049943
 10
-3.3226396382
 20
2.7355926868
 10
-3.2787120795
 20
2.7377542103
 10
-3.2344111752
 20
2.7413919709
 10
-3.1897375353
 20
2.7465035624
 10
-3.1447638797
 20
2.7530806846
 10
-3.0994897176
 20
2.7611257302
 10
-3.0539155399
 20
2.7706363064
 10
-3.0081155394
 20
2.7815969341
 10
-2.962089347
 20
2.7940099811
 10
-2.9158373318
 20
2.8078730796
 10
-2.8694347943
 20
2.8231636469
 10
-2.8228817653
 20
2.8398838704
 10
-2.7761782141
 20
2.8580315627
 10
-2.7293993488
 20
2.8775775794
 10
-2.6825702386
 20
2.8985122055
 10
-2.6356658143
 20
2.9208451559
 10
-2.5886860758
 20
2.9445764306
  0
LINE
  5
480
100
AcDbEntity
  8
SMUSSO
100
AcDbLine
 62
250
  6
CONTINUOUS
 10
-15.8293033512
 20
28.3859888003
 11
-16.035022962
 21
28.9451924921
  0
LINE
  5
481
100
AcDbEntity
  8
0
100
AcDbLine
 62
7
  6
CONTINUOUS
 10
-14.7014941099
 20
26.5860358638
 11
-14.9029934679
 21
27.1817602896
  0
LWPOLYLINE
  5
482
100
AcDbEntity
  8
RACCORDO
100
AcDbPolyline
 62
7
  6
CONTINUOUS
 90
19
 70
0
 10
-4.2327521398
 20
26.2694834321
 10
-4.2330089016
 20
26.2926493189
 10
-4.2337742173
 20
26.3155106138
 10
-4.2350480868
 20
26.3380673168
 10
-4.236832163
 20
26.3603352637
 10
-4.239124793
 20
26.3822986186
 10
-4.2419210178
 20
26.4039098742
 10
-4.2452219276
 20
26.4251682688
 10
-4.2490264322
 20
26.446074564
 10
-4.2533263021
 20
26.466583537
 10
-4.2581226097
 20
26.4866943277
 10
-4.2634142825
 20
26.5064077962
 10
-4.2691898742
 20
26.5256813001
 10
-4.2754504318
 20
26.5445138865
 10
-4.2821949082
 20
26.5629065084
 10
-4.2894087148
 20
26.5808193818
 10
-4.2970869887
 20
26.5982392456
 10
-4.3052345927
 20
26.6151793609
 10
-4.3138515268
 20
26.6316397279
  0
LINE
  5
483
100
AcDbEntity
  8
RACCORDO
100
AcDbLine
 62
7
  6
CONTINUOUS
 10
-4.2327521398
 20
26.241189785
 11
-4.2327521398
 21
26.2694834321
  0
LINE
  5
484
100
AcDbEntity
  8
0
100
AcDbLine
 62
7
  6
CONTINUOUS
 10
-4.1266861226
 20
5.6918604701
 11
-4.1266861226
 21
5.7373268107
  0
LINE
  5
485
100
AcDbEntity
  8
0
100
AcDbLine
 62
7
  6
CONTINUOUS
 10
-3.2781579852
 20
3.9522314115
 11
-3.2781579852
 21
4.8180879952
  0
LINE
  5
486
100
AcDbEntity
  8
0
100
AcDbLine
 62
7
  6
CONTINUOUS
 10
-3.2781579852
 20
6.7063610157
 11
-3.2781579852
 21
7.4603314309
  0
LINE
  5
487
100
AcDbEntity
  8
0
100
AcDbLine
 62
7
  6
CONTINUOUS
 10
-2.9303718214
 20
6.5522475115
 11
-2.9303718214
 21
6.7060459102
  0
LINE
  5
488
100
AcDbEntity
  8
0
100
AcDbLine
 62
7
  6
CONTINUOUS
 10
-2.7831832383
 20
4.1997187849
 11
-2.7831832383
 21
5.0655753686
  0
LINE
  5
489
100
AcDbEntity
  8
0
100
AcDbLine
 62
7
  6
CONTINUOUS
 10
-2.7831832383
 20
6.9538483891
 11
-2.7831832383
 21
7.8197049727
  0
LINE
  5
48A
100
AcDbEntity
  8
0
100
AcDbLine
 62
7
  6
CONTINUOUS
 10
-3.5824094273
 20
6.0792438597
 11
-3.5992975563
 21
6.0012782931
  0
LINE
  5
48B
100
AcDbEntity
  8
0
100
AcDbLine
 62
7
  6
CONTINUOUS
 10
-3.2781579852
 20
6.7063610157
 11
-3.3812824827
 21
6.2302774989
  0
LINE
  5
48C
100
AcDbEntity
  8
0
100
AcDbLine
 62
7
  6
CONTINUOUS
 10
-2.7831832383
 20
5.0655753686
 11
-2.6800587408
 21
5.5416588853
  0
LWPOLYLINE
  5
48D
100
AcDbEntity
  8
RACCORDO
100
AcDbPolyline
 62
7
  6
CONTINUOUS
 90
10
 70
0
 10
-1.3080415725
 20
7.2999842662
 10
-1.3102015713
 20
7.2922160553
 10
-1.3135465724
 20
7.2845793438
 10
-1.3180765757
 20
7.2770741318
 10
-1.3238479106
 20
7.2696336038
 10
-1.3308042478
 20
7.2623245752
 10
-1.3387765997
 20
7.2553474922
 10
-1.3477086369
 20
7.2487691701
 10
-1.3576566888
 20
7.2425227936
 10
-1.3686207554
 20
7.2366083626
  0
LWPOLYLINE
  5
48E
100
AcDbEntity
  8
RACCORDO
100
AcDbPolyline
 62
250
  6
CONTINUOUS
 90
10
 70
0
 10
-22.0787836676
 20
-24.1403915018
 10
-22.0612655371
 20
-24.1180690586
 10
-22.0452247518
 20
-24.0941076344
 10
-22.0308717783
 20
-24.0688373585
 10
-22.0183942148
 20
-24.0426121053
 10
-22.007952442
 20
-24.0157825549
 10
-21.9996824462
 20
-23.9886902943
 10
-21.9936949443
 20
-23.9616944508
 10
-21.9900690354
 20
-23.9351677441
 10
-21.9888526132
 20
-23.9094686814
  0
LWPOLYLINE
  5
48F
100
AcDbEntity
  8
RACCORDO
100
AcDbPolyline
 62
250
  6
CONTINUOUS
 90
13
 70
0
 10
-21.8151680039
 20
-24.3728536341
 10
-21.7885661253
 20
-24.3390664232
 10
-21.7639068865
 20
-24.3039634099
 10
-21.7411902875
 20
-24.2675445943
 10
-21.7202902888
 20
-24.2295389248
 10
-21.7013329299
 20
-24.190217453
 10
-21.6846963293
 20
-24.1503933331
 10
-21.6704146852
 20
-24.1100517898
 10
-21.6584537995
 20
-24.0692075984
 10
-21.6490891959
 20
-24.0287182397
 10
-21.6424127157
 20
-23.9888695405
 10
-21.6383325177
 20
-23.9493756739
 10
-21.6368486018
 20
-23.9102366399
  0
LINE
  5
490
100
AcDbEntity
  8
RACCORDO
100
AcDbLine
 62
250
  6
CONTINUOUS
 10
-22.0787836676
 20
-24.1403915018
 11
-22.6137418741
 21
-24.7782424844
  0
LINE
  5
491
100
AcDbEntity
  8
RACCORDO
100
AcDbLine
 62
250
  6
CONTINUOUS
 10
-21.8151680039
 20
-24.3728536341
 11
-22.3501262104
 21
-25.0107046168
  0
LWPOLYLINE
  5
492
100
AcDbEntity
  8
RACCORDO
100
AcDbPolyline
 62
7
  6
CONTINUOUS
 90
19
 70
0
 10
2.7060204786
 20
-2.9787462577
 10
2.7119101984
 20
-2.9750077746
 10
2.7175699567
 20
-2.9711460826
 10
2.7229944795
 20
-2.9671648528
 10
2.7281787168
 20
-2.9630676049
 10
2.7331178824
 20
-2.958858389
 10
2.7378074521
 20
-2.9545417801
 10
2.7422431221
 20
-2.9501216425
 10
2.7464208234
 20
-2.9456020826
 10
2.7503367553
 20
-2.9409881291
 10
2.7539873742
 20
-2.9362838217
 10
2.7573693874
 20
-2.9314934244
 10
2.7604797628
 20
-2.9266223768
 10
2.763315747
 20
-2.9216748588
 10
2.7658748503
 20
-2.9166552546
 10
2.7681548436
 20
-2.911569366
 10
2.7701537866
 20
-2.906421476
 10
2.7718700101
 20
-2.9012160502
 10
2.7727954375
 20
-2.8979474927
  0
LWPOLYLINE
  5
493
100
AcDbEntity
  8
RACCORDO
100
AcDbPolyline
 62
7
  6
CONTINUOUS
 90
10
 70
0
 10
2.7060204786
 20
-2.9787462577
 10
2.7045439945
 20
-2.979669091
 10
2.7030488451
 20
-2.9806443076
 10
2.7015349744
 20
-2.981671795
 10
2.7000039848
 20
-2.9827494454
 10
2.6984541966
 20
-2.9838791513
 10
2.696880505
 20
-2.9850667407
 10
2.6952810351
 20
-2.9863140123
 10
2.6936572852
 20
-2.9876188001
 10
2.6170700543
 20
-3.0514215546
  0
LWPOLYLINE
  5
494
100
AcDbEntity
  8
RACCORDO
100
AcDbPolyline
 62
7
  6
CONTINUOUS
 90
24
 70
0
 10
2.7060204786
 20
-1.5830871646
 10
2.7119101984
 20
-1.579580504
 10
2.7175699567
 20
-1.5760194981
 10
2.7229944795
 20
-1.5724078179
 10
2.7281787168
 20
-1.5687494576
 10
2.7331178824
 20
-1.5650479928
 10
2.7378074521
 20
-1.5613065756
 10
2.7422431221
 20
-1.5575292357
 10
2.7464208234
 20
-1.5537199139
 10
2.7503367553
 20
-1.5498817192
 10
2.7539873742
 20
-1.5460188545
 10
2.7573693874
 20
-1.5421354206
 10
2.7604797628
 20
-1.5382344476
 10
2.763315747
 20
-1.534320275
 10
2.7658748503
 20
-1.5303971275
 10
2.7681548436
 20
-1.5264679189
 10
2.7701537866
 20
-1.5225370867
 10
2.7718700101
 20
-1.518608942
 10
2.7733021111
 20
-1.514686246
 10
2.7744489758
 20
-1.5107734951
 10
2.7753097656
 20
-1.506875048
 10
2.7758839148
 20
-1.5029934768
 10
2.7761711412
 20
-1.4991332964
 10
2.7762071457
 20
-1.4972089019
  0
LINE
  5
495
100
AcDbEntity
  8
RACCORDO
100
AcDbLine
 62
250
  6
CONTINUOUS
 10
-22.8481729671
 20
-15.5886231067
 11
-23.1832138756
 21
-15.7603455381
  0
LINE
  5
496
100
AcDbEntity
  8
RACCORDO
100
AcDbLine
 62
7
  6
CONTINUOUS
 10
-35.9409667977
 20
22.8155338696
 11
-35.3149502818
 21
22.6842953238
  0
LINE
  5
497
100
AcDbEntity
  8
RACCORDO
100
AcDbLine
 62
250
  6
CONTINUOUS
 10
-35.7144443748
 20
22.9710586048
 11
-35.0011667662
 21
22.8215265817
  0
LWPOLYLINE
  5
498
100
AcDbEntity
  8
ASSI
100
AcDbPolyline
 62
7
  6
CONTINUOUS
 90
3
 70
0
 10
-19.800063232
 20
21.7167739252
 10
-19.8136784399
 20
21.7231511136
 10
-19.8381391456
 20
21.732882957
  0
LWPOLYLINE
  5
499
100
AcDbEntity
  8
RACCORDO
100
AcDbPolyline
 62
7
  6
CONTINUOUS
 90
64
 70
0
 10
-25.0741653195
 20
21.8831729283
 10
-25.0850424837
 20
21.8884757922
 10
-25.1025103842
 20
21.8964501767
 10
-25.1204470939
 20
21.9039955613
 10
-25.1388213426
 20
21.9111057971
 10
-25.1576241425
 20
21.917786537
 10
-25.1768679267
 20
21.9240509408
 10
-25.1965301496
 20
21.9299003595
 10
-25.2165886381
 20
21.9353379875
 10
-25.2370521769
 20
21.9403754745
 10
-25.257869401
 20
21.9450097334
 10
-25.2790515143
 20
21.949252783
 10
-25.3006994162
 20
21.9531292652
 10
-25.3227654292
 20
21.9566321861
 10
-25.345267658
 20
21.9597657506
 10
-25.3684064554
 20
21.9625518655
 10
-25.392255096
 20
21.964984973
 10
-25.4167169246
 20
21.9670408807
 10
-25.4417354956
 20
21.9687038224
 10
-25.4674122153
 20
21.9699673501
 10
-25.4936181649
 20
21.9708115246
 10
-25.5199481322
 20
21.9712218526
 10
-25.5463676827
 20
21.9712055193
 10
-25.5728839848
 20
21.9707689774
 10
-25.5991549824
 20
21.9699303179
 10
-25.6250933199
 20
21.9687126916
 10
-25.6507679365
 20
21.967131632
 10
-25.6760735166
 20
21.9652114268
 10
-25.70098998
 20
21.9629725369
 10
-25.7255260554
 20
21.9604319665
 10
-25.7496206992
 20
21.9576136879
 10
-25.773254216
 20
21.9545382102
 10
-25.7964410768
 20
21.9512210165
 10
-25.8191716771
 20
21.9476799486
 10
-25.8414376636
 20
21.9439324321
 10
-25.8632456922
 20
21.9399929155
 10
-25.8846076205
 20
21.9358739887
 10
-25.9055238522
 20
21.9315896717
 10
-25.9259938973
 20
21.9271538232
 10
-25.9460266453
 20
21.9225778425
 10
-25.9656243183
 20
21.9178741229
 10
-25.9847854269
 20
21.9130557255
 10
-26.0035116216
 20
21.9081347878
 10
-26.0218133572
 20
21.9031207967
 10
-26.0396811086
 20
21.8980284953
 10
-26.0570856895
 20
21.8928789055
 10
-26.0740149169
 20
21.8876889379
 10
-26.090483842
 20
21.8824671677
 10
-26.1065028685
 20
21.8772230267
 10
-26.122050926
 20
21.8719762556
 10
-26.1371506684
 20
21.8667319747
 10
-26.1518732245
 20
21.8614768328
 10
-26.1662172032
 20
21.8562216889
 10
-26.1801774471
 20
21.8509789303
 10
-26.1938117847
 20
21.8457366742
 10
-26.2071031059
 20
21.8405108778
 10
-26.2200515521
 20
21.8353111936
 10
-26.2327307002
 20
21.8301169992
 10
-26.2451031967
 20
21.8249522718
 10
-26.2571700089
 20
21.8198259273
 10
-26.2690444943
 20
21.8146981623
 10
-26.2806804745
 20
21.8095969912
 10
-26.2920449363
 20
21.804546242
 10
-26.3142564578
 20
21.7945013871
  0
LINE
  5
49A
100
AcDbEntity
  8
RACCORDO
100
AcDbLine
 62
250
  6
CONTINUOUS
 10
-25.075232672
 20
21.8836932868
 11
-25.074168789
 21
21.8831746665
  0
LINE
  5
49B
100
AcDbEntity
  8
RACCORDO
100
AcDbLine
 62
7
  6
CONTINUOUS
 10
-25.0216915066
 20
22.3806224154
 11
-22.5631129632
 21
21.1513331437
  0
LINE
  5
49C
100
AcDbEntity
  8
0
100
AcDbLine
 62
7
  6
CONTINUOUS
 10
-21.1502272708
 20
21.842674804
 11
-23.9774603907
 21
23.2562913639
  0
LINE
  5
49D
100
AcDbEntity
  8
ASSI
100
AcDbLine
 62
250
  6
CONTINUOUS
 10
-26.401190122
 20
24.7715152085
 11
-25.7933383735
 21
24.4675893342
  0
LINE
  5
49E
100
AcDbEntity
  8
ASSI
100
AcDbLine
 62
250
  6
CONTINUOUS
 10
-20.8435909052
 20
21.9927156001
 11
-20.2357391567
 21
21.6887897258
  0
LINE
  5
49F
100
AcDbEntity
  8
ASSI
100
AcDbLine
 62
7
  6
CONTINUOUS
 10
-25.9547965638
 20
24.7941893975
 11
-25.3553476444
 21
24.4944649378
  0
LINE
  5
4A0
100
AcDbEntity
  8
ASSI
100
AcDbLine
 62
7
  6
CONTINUOUS
 10
-20.3994956282
 20
22.0165389297
 11
-19.8000467088
 21
21.71681447
  0
LINE
  5
4A1
100
AcDbEntity
  8
DRAFT
100
AcDbLine
 62
7
  6
CONTINUOUS
 10
-14.9877703386
 20
19.3852566848
 11
-14.4482190819
 21
19.1154810564
  0
LINE
  5
4A2
100
AcDbEntity
  8
0
100
AcDbLine
 62
7
  6
CONTINUOUS
 10
-22.6175284506
 20
23.3300395514
 11
-19.443894735
 21
21.7432226935
  0
LWPOLYLINE
  5
4A3
100
AcDbEntity
  8
SMUSSO
100
AcDbPolyline
 62
7
  6
CONTINUOUS
 90
49
 70
0
 10
-16.7679925247
 20
27.4079468813
 10
-16.7916431865
 20
27.443120107
 10
-16.8123811223
 20
27.4766309042
 10
-16.8315185165
 20
27.510333974
 10
-16.8490527982
 20
27.5442296228
 10
-16.8649865381
 20
27.5783175441
 10
-16.8792937191
 20
27.612542446
 10
-16.8919717438
 20
27.6469046603
 10
-16.9030232094
 20
27.6814038551
 10
-16.9124298905
 20
27.7159837423
 10
-16.9201890893
 20
27.7506443972
 10
-16.9263035036
 20
27.7853857446
 10
-16.9307630007
 20
27.8201512701
 10
-16.9335648878
 20
27.8549410715
 10
-16.9347118578
 20
27.8897550511
 10
-16.9342018566
 20
27.9245364011
 10
-16.9320321795
 20
27.9592850297
 10
-16.9282055312
 20
27.9940010287
 10
-16.9227279718
 20
28.028627866
 10
-16.9155968014
 20
28.0631654308
 10
-16.90681472
 20
28.0976138339
 10
-16.8963958872
 20
28.1319168753
 10
-16.8843376324
 20
28.1660743045
 10
-16.8706426264
 20
28.200086372
 10
-16.8553330414
 20
28.2338976292
 10
-16.8384062375
 20
28.2675077566
 10
-16.8198648547
 20
28.3009170737
 10
-16.7997389854
 20
28.334071091
 10
-16.7780260327
 20
28.3669694005
 10
-16.7547285936
 20
28.3996124101
 10
-16.7298845509
 20
28.4319468536
 10
-16.7034913861
 20
28.4639722159
 10
-16.6755516178
 20
28.4956890121
 10
-16.6461106847
 20
28.527045521
 10
-16.6151661119
 20
28.5580411742
 10
-16.5827203744
 20
28.5886765402
 10
-16.5488263358
 20
28.6189016034
 10
-16.5134816468
 20
28.6487156762
 10
-16.4766886567
 20
28.6781194462
 10
-16.4385072781
 20
28.7070649607
 10
-16.3989352155
 20
28.7355514885
 10
-16.3579747643
 20
28.7635797607
 10
-16.3156927229
 20
28.7911040186
 10
-16.2720875692
 20
28.8181231297
 10
-16.2271608253
 20
28.8446382265
 10
-16.1809838561
 20
28.8706069473
 10
-16.13358045
 20
28.8960151716
 10
-16.0849268186
 20
28.9208770198
 10
-16.035022962
 20
28.9451924921
  0
LINE
  5
4A4
100
AcDbEntity
  8
0
100
AcDbLine
 62
7
  6
CONTINUOUS
 10
-4.3174094273
 20
5.7117438597
 11
-4.3005212982
 21
5.6506664222
  0
LINE
  5
4A5
100
AcDbEntity
  8
0
100
AcDbLine
 62
7
  6
CONTINUOUS
 10
-3.3812824827
 20
5.1910470144
 11
-3.2781579852
 21
4.8180879952
  0
LINE
  5
4A6
100
AcDbEntity
  8
DRAFT
100
AcDbLine
 62
7
  6
CONTINUOUS
 10
-0.8386395901
 20
8.6941157373
 11
-0.8386395901
 21
5.6941157373
  0
LINE
  5
4A7
100
AcDbEntity
  8
ASSI
100
AcDbLine
 62
7
  6
CONTINUOUS
 10
-0.5155048766
 20
8.5325483806
 11
-0.5155048766
 21
5.5325483806
  0
LWPOLYLINE
  5
4A8
100
AcDbEntity
  8
0
100
AcDbPolyline
 62
7
  6
CONTINUOUS
 90
3
 70
0
 10
-1.3170534963
 20
7.2787691478
 10
-1.3189277323
 20
7.2564867712
 10
-1.3324201723
 20
7.1347169851
  0
LWPOLYLINE
  5
4A9
100
AcDbEntity
  8
RACCORDO
100
AcDbPolyline
 62
7
  6
CONTINUOUS
 90
13
 70
0
 10
-1.1639572381
 20
7.0026424694
 10
-1.1635979031
 20
7.0068744458
 10
-1.1638141548
 20
7.0141588102
 10
-1.1650928829
 20
7.0213922226
 10
-1.167452339
 20
7.0286213377
 10
-1.1708742714
 20
7.0357995008
 10
-1.1753039253
 20
7.0427867483
 10
-1.1807728695
 20
7.049577889
 10
-1.1872495352
 20
7.0561781142
 10
-1.194584461
 20
7.0624630337
 10
-1.2027278267
 20
7.0683911842
 10
-1.2117294524
 20
7.074004029
 10
-1.2215893384
 20
7.0793015682
  0
LINE
  5
4AA
100
AcDbEntity
  8
RACCORDO
100
AcDbLine
 62
250
  6
CONTINUOUS
 10
-1.1885067396
 20
6.8330406624
 11
-1.1644441278
 21
6.9995391294
  0
LINE
  5
4AB
100
AcDbEntity
  8
RACCORDO
100
AcDbLine
 62
7
  6
CONTINUOUS
 10
-1.1644441278
 20
6.9995391294
 11
-1.1639572381
 21
7.0026424694
  0
LINE
  5
4AC
100
AcDbEntity
  8
RACCORDO
100
AcDbLine
 62
250
  6
CONTINUOUS
 10
-1.2187637528
 20
6.66508747
 11
-1.1885067396
 21
6.8330406624
  0
LWPOLYLINE
  5
4AD
100
AcDbEntity
  8
RACCORDO
100
AcDbPolyline
 62
250
  6
CONTINUOUS
 90
4
 70
0
 10
-1.3080415725
 20
6.2607537817
 10
-1.3162844557
 20
6.2165025044
 10
-1.3253798393
 20
6.1709734466
 10
-1.3329615799
 20
6.1351959661
  0
LINE
  5
4AE
100
AcDbEntity
  8
RACCORDO
100
AcDbLine
 62
7
  6
CONTINUOUS
 10
-1.1644441278
 20
8.038769614
 11
-1.1978468928
 21
7.862380741
  0
LINE
  5
4AF
100
AcDbEntity
  8
RACCORDO
100
AcDbLine
 62
7
  6
CONTINUOUS
 10
-1.1979049579
 20
6.8228465827
 11
-1.1644441278
 21
6.9995391294
  0
LWPOLYLINE
  5
4B0
100
AcDbEntity
  8
RACCORDO
100
AcDbPolyline
 62
7
  6
CONTINUOUS
 90
7
 70
0
 10
-1.1978468928
 20
7.862380741
 10
-1.2303540288
 20
7.6930138778
 10
-1.2462705243
 20
7.6109648961
 10
-1.2619946182
 20
7.530640315
 10
-1.2775360045
 20
7.4520305648
 10
-1.2928849893
 20
7.3751452152
 10
-1.3080415725
 20
7.2999842662
  0
LWPOLYLINE
  5
4B1
100
AcDbEntity
  8
RACCORDO
100
AcDbPolyline
 62
250
  6
CONTINUOUS
 90
28
 70
0
 10
-1.3685918595
 20
6.197392326
 10
-1.3767403782
 20
6.1553400164
 10
-1.3858046556
 20
6.1120547262
 10
-1.3957846916
 20
6.0675364555
 10
-1.4065918294
 20
6.021896789
 10
-1.4183147258
 20
5.975024142
 10
-1.4312193515
 20
5.9265837597
 10
-1.4452812492
 20
5.8765623055
 10
-1.4605248762
 20
5.824973116
 10
-1.4772895754
 20
5.7715214472
 10
-1.495548543
 20
5.7161831464
 10
-1.5153285828
 20
5.6589823664
 10
-1.5370494489
 20
5.5996968211
 10
-1.5606836767
 20
5.5382893888
 10
-1.5862587309
 20
5.4747971914
 10
-1.6142767598
 20
5.4091093086
 10
-1.6447128982
 20
5.3411686078
 10
-1.6775920114
 20
5.2710322217
 10
-1.713490843
 20
5.1987606279
 10
-1.7524317418
 20
5.1242133512
 10
-1.794392359
 20
5.0475308669
 10
-1.8398823921
 20
4.9691950785
 10
-1.8889558841
 20
4.8890583456
 10
-1.941558792
 20
4.8072683088
 10
-1.998038684
 20
4.7247497927
 10
-2.0585495708
 20
4.6412989442
 10
-2.1229374418
 20
4.5571196165
 10
-2.191087833
 20
4.473748194
  0
LWPOLYLINE
  5
4B2
100
AcDbEntity
  8
RACCORDO
100
AcDbPolyline
 62
7
  6
CONTINUOUS
 90
3
 70
0
 10
-1.2463532847
 20
6.5713103319
 10
-1.2304368793
 20
6.6533546912
 10
-1.1979049579
 20
6.8228465827
  0
LWPOLYLINE
  5
4B3
100
AcDbEntity
  8
RACCORDO
100
AcDbPolyline
 62
7
  6
CONTINUOUS
 90
5
 70
0
 10
-1.3080415725
 20
6.2607537817
 10
-1.2929180439
 20
6.3357476411
 10
-1.277593867
 20
6.4125068068
 10
-1.2620690417
 20
6.4910312789
 10
-1.2463532847
 20
6.5713103319
  0
LWPOLYLINE
  5
4B4
100
AcDbEntity
  8
RACCORDO
100
AcDbPolyline
 62
7
  6
CONTINUOUS
 90
4
 70
0
 10
-1.2383525612
 20
6.5707069705
 10
-1.213677574
 20
6.6911349021
 10
-1.1853671988
 20
6.8523927982
 10
-1.163956044
 20
7.0026424316
  0
LINE
  5
4B5
100
AcDbEntity
  8
RACCORDO
100
AcDbLine
 62
250
  6
CONTINUOUS
 10
-1.2382698211
 20
6.5710877769
 11
-1.2187637528
 21
6.66508747
  0
LINE
  5
4B6
100
AcDbEntity
  8
0
100
AcDbLine
 62
7
  6
CONTINUOUS
 10
-1.2382698211
 20
6.5710877769
 11
-1.3329615799
 21
6.1351959661
  0
LWPOLYLINE
  5
4B7
100
AcDbEntity
  8
RACCORDO
100
AcDbPolyline
 62
7
  6
CONTINUOUS
 90
7
 70
0
 10
2.7727954375
 20
18.0598672789
 10
2.7733021111
 20
18.0618555705
 10
2.7744489758
 20
18.0671594945
 10
2.7753097656
 20
18.0725059865
 10
2.7758839148
 20
18.0778886792
 10
2.7761711412
 20
18.0833031979
 10
2.7762071457
 20
18.086026529
  0
LWPOLYLINE
  5
4B8
100
AcDbEntity
  8
RACCORDO
100
AcDbPolyline
 62
250
  6
CONTINUOUS
 90
27
 70
0
 10
2.7060204786
 20
17.9790685139
 10
2.6934503553
 20
17.9332684654
 10
2.6799787165
 20
17.8882583522
 10
2.6656116558
 20
17.8440585305
 10
2.6503556748
 20
17.8006889984
 10
2.6342176713
 20
17.7581693609
 10
2.6172049343
 20
17.7165188229
 10
2.599325149
 20
17.6757562047
 10
2.5805864085
 20
17.6358999615
 10
2.5609972012
 20
17.5969681474
 10
2.5405663982
 20
17.5589783882
 10
2.519303231
 20
17.5219478443
 10
2.4972172991
 20
17.4858932336
 10
2.4743185769
 20
17.450830844
 10
2.450617432
 20
17.4167765553
 10
2.4261246048
 20
17.3837457991
 10
2.4008511891
 20
17.3517535318
 10
2.3748086017
 20
17.3208142007
 10
2.3480085969
 20
17.2909417702
 10
2.3204632769
 20
17.2621497345
 10
2.2921851152
 20
17.234451136
 10
2.2631869276
 20
17.2078585278
 10
2.2334818489
 20
17.1823839511
 10
2.203083297
 20
17.1580389086
 10
2.172004992
 20
17.1348343883
 10
2.1402609694
 20
17.1127808734
 10
2.1253825392
 20
17.1029889375
  0
LWPOLYLINE
  5
4B9
100
AcDbEntity
  8
RACCORDO
100
AcDbPolyline
 62
250
  6
CONTINUOUS
 90
8
 70
0
 10
-23.5088560869
 20
-23.4628926921
 10
-23.5035482324
 20
-23.458279191
 10
-23.4936524404
 20
-23.4545281701
 10
-23.4807231242
 20
-23.4536133024
 10
-23.4649802824
 20
-23.4555501549
 10
-23.446691787
 20
-23.4603057711
 10
-23.4261688258
 20
-23.4677992317
 10
-23.4037606069
 20
-23.4779030321
  0
LWPOLYLINE
  5
4BA
100
AcDbEntity
  8
RACCORDO
100
AcDbPolyline
 62
7
  6
CONTINUOUS
 90
24
 70
0
 10
2.6170700543
 20
-3.0514215546
 10
2.5426486151
 20
-3.1128966673
 10
2.4687447683
 20
-3.1734062609
 10
2.3953796877
 20
-3.2328861847
 10
2.3225321994
 20
-3.2914005893
 10
2.2501387819
 20
-3.3491419261
 10
2.1782032265
 20
-3.4061234433
 10
2.1067217419
 20
-3.4623318927
 10
2.0356194326
 20
-3.5179199816
 10
1.9649019077
 20
-3.5728933988
 10
1.8945635579
 20
-3.6272464555
 10
1.8245126607
 20
-3.6811147924
 10
1.754757868
 20
-3.7344985501
 10
1.6852905277
 20
-3.787397588
 10
1.6159929607
 20
-3.8399471242
 10
1.5468706439
 20
-3.8921478588
 10
1.4779181004
 20
-3.9439990917
 10
1.4090012204
 20
-3.9956339406
 10
1.3401223742
 20
-4.0470541791
 10
1.2712791916
 20
-4.0982580335
 10
1.2023304529
 20
-4.1493733006
 10
1.1332290848
 20
-4.2004425792
 10
1.0640221605
 20
-4.2514232704
 10
0.9947096802
 20
-4.3023153742
  0
LWPOLYLINE
  5
4BB
100
AcDbEntity
  8
RACCORDO
100
AcDbPolyline
 62
250
  6
CONTINUOUS
 90
48
 70
0
 10
0.8246334974
 20
-4.484659887
 10
0.8322967041
 20
-4.4785983553
 10
0.8399040238
 20
-4.4727901848
 10
0.847453301
 20
-4.4672353163
 10
0.854936572
 20
-4.4619317652
 10
0.8623575812
 20
-4.4568815116
 10
0.8697310382
 20
-4.4520901758
 10
0.8770559472
 20
-4.4475546993
 10
0.8843273784
 20
-4.4432775804
 10
0.8915529529
 20
-4.4392723284
 10
0.898729422
 20
-4.4355376248
 10
0.9058529589
 20
-4.4320740219
 10
0.9129293287
 20
-4.4288975197
 10
0.919946334
 20
-4.4260082304
 10
0.9269081231
 20
-4.4234052174
 10
0.9338427165
 20
-4.4211021857
 10
0.9407277735
 20
-4.4190928765
 10
0.9475739171
 20
-4.4173818599
 10
0.9544520572
 20
-4.4159970472
 10
0.9613584705
 20
-4.414921743
 10
0.9682733973
 20
-4.4141679654
 10
0.9752349044
 20
-4.413804234
 10
0.9822443783
 20
-4.4138243603
 10
0.989266038
 20
-4.4142280663
 10
0.9962780041
 20
-4.4150919271
 10
1.0032620531
 20
-4.4164192896
 10
1.0101996535
 20
-4.4182015671
 10
1.0170681863
 20
-4.420497851
 10
1.0238370175
 20
-4.4233045653
 10
1.0304977224
 20
-4.4266215255
 10
1.0370568024
 20
-4.4305125677
 10
1.0434877344
 20
-4.4349742791
 10
1.0497656497
 20
-4.4400062319
 10
1.0558901441
 20
-4.4456756616
 10
1.061827619
 20
-4.4519816772
 10
1.0675452455
 20
-4.4589220818
 10
1.0730319942
 20
-4.4665612525
 10
1.0782389528
 20
-4.4748892183
 10
1.0831307644
 20
-4.4839149262
 10
1.0876969568
 20
-4.4937300508
 10
1.0918931238
 20
-4.5043886917
 10
1.0956384555
 20
-4.5158381532
 10
1.0988589587
 20
-4.5280108632
 10
1.1015013774
 20
-4.5409724799
 10
1.1034954207
 20
-4.5546680059
 10
1.1047693489
 20
-4.5688524022
 10
1.1052841888
 20
-4.5835382609
 10
1.1052936967
 20
-4.5858378758
  0
LINE
  5
4BC
100
AcDbEntity
  8
RACCORDO
100
AcDbLine
 62
7
  6
CONTINUOUS
 10
-14.4482190819
 20
-16.9977782814
 11
-13.3650238123
 21
-16.2127380651
  0
LWPOLYLINE
  5
4BD
100
AcDbEntity
  8
RACCORDO
100
AcDbPolyline
 62
7
  6
CONTINUOUS
 90
28
 70
0
 10
2.1253825392
 20
-3.8548258341
 10
2.1583867132
 20
-3.8327611939
 10
2.1908466301
 20
-3.8096067968
 10
2.2227412556
 20
-3.785367719
 10
2.254043885
 20
-3.7600547434
 10
2.2847404681
 20
-3.7336696996
 10
2.3148286262
 20
-3.7062031939
 10
2.3442893942
 20
-3.6776594194
 10
2.3731012382
 20
-3.6480459331
 10
2.4012569778
 20
-3.617355559
 10
2.4287399342
 20
-3.5855901062
 10
2.4555271881
 20
-3.5527593014
 10
2.4816022312
 20
-3.5188662328
 10
2.5069493636
 20
-3.4839129943
 10
2.5315470445
 20
-3.4479103701
 10
2.5553715523
 20
-3.4108746756
 10
2.5784085231
 20
-3.372809577
 10
2.600638908
 20
-3.3337270721
 10
2.6220350263
 20
-3.293657861
 10
2.6425841924
 20
-3.252608635
 10
2.6622708641
 20
-3.2105923933
 10
2.6810674035
 20
-3.1676525193
 10
2.6989632548
 20
-3.1237996869
 10
2.7159468622
 20
-3.0790476949
 10
2.7319941716
 20
-3.0334486189
 10
2.7470930494
 20
-2.9870305154
 10
2.7612405065
 20
-2.9397951963
 10
2.7727954408
 20
-2.8979477064
  0
LINE
  5
4BE
100
AcDbEntity
  8
DRAFT
100
AcDbLine
 62
7
  6
CONTINUOUS
 10
2.1253825392
 20
-3.854825834
 11
1.1294911984
 21
-4.4989599451
  0
LWPOLYLINE
  5
4BF
100
AcDbEntity
  8
RACCORDO
100
AcDbPolyline
 62
250
  6
CONTINUOUS
 90
28
 70
0
 10
0.8246334974
 20
-7.8959695684
 10
0.8443154226
 20
-7.8854811798
 10
0.8633858788
 20
-7.874714088
 10
0.881829087
 20
-7.8636772017
 10
0.8996297872
 20
-7.8523796529
 10
0.916773251
 20
-7.8408307892
 10
0.9332452939
 20
-7.8290401661
 10
0.9490322869
 20
-7.8170175394
 10
0.9641211677
 20
-7.8047728565
 10
0.9784994518
 20
-7.7923162487
 10
0.9921552425
 20
-7.7796580227
 10
1.005077241
 20
-7.7668086519
 10
1.0172547556
 20
-7.7537787679
 10
1.0286777105
 20
-7.7405791518
 10
1.0393366543
 20
-7.7272207249
 10
1.0492227679
 20
-7.71371454
 10
1.0583278714
 20
-7.7000717722
 10
1.0666444313
 20
-7.6863037096
 10
1.0741655663
 20
-7.6724217438
 10
1.0808850534
 20
-7.658437361
 10
1.086797333
 20
-7.6443621317
 10
1.0918975131
 20
-7.630207702
 10
1.096181374
 20
-7.6159857832
 10
1.0996453711
 20
-7.6017081425
 10
1.1022866382
 20
-7.5873865935
 10
1.10410299
 20
-7.5730329856
 10
1.1050929237
 20
-7.5586591953
 10
1.105293697
 20
-7.5486414365
  0
LINE
  5
4C0
100
AcDbEntity
  8
RACCORDO
100
AcDbLine
 62
250
  6
CONTINUOUS
 10
-19.6830353087
 20
-18.6989486152
 11
0.8246334974
 21
-7.8959695684
  0
LWPOLYLINE
  5
4C1
100
AcDbEntity
  8
RACCORDO
100
AcDbPolyline
 62
7
  6
CONTINUOUS
 90
10
 70
0
 10
-25.4699792427
 20
22.5100319379
 10
-25.4139527265
 20
22.5016254718
 10
-25.3593529902
 20
22.4916891325
 10
-25.3061800338
 20
22.4802229201
 10
-25.2542639748
 20
22.4671777938
 10
-25.2037746956
 20
22.4526027943
 10
-25.1552218445
 20
22.4366450445
 10
-25.1087753039
 20
22.4193535852
 10
-25.0642651913
 20
22.4006793755
 10
-25.0216915066
 20
22.3806224154
  0
LWPOLYLINE
  5
4C2
100
AcDbEntity
  8
ASSI
100
AcDbPolyline
 62
7
  6
CONTINUOUS
 90
10
 70
0
 10
-20.4454314501
 20
22.0362786689
 10
-20.4852653746
 20
22.0479269859
 10
-20.5263198237
 20
22.055447206
 10
-20.5685947975
 20
22.0588393291
 10
-20.6122489905
 20
22.0580954452
 10
-20.657123708
 20
22.0532234643
 10
-20.7027428667
 20
22.0442471163
 10
-20.7489477718
 20
22.0311743113
 10
-20.795897118
 20
22.0139971392
 10
-20.8435909052
 20
21.9927156001
  0
LWPOLYLINE
  5
4C3
100
AcDbEntity
  8
ASSI
100
AcDbPolyline
 62
7
  6
CONTINUOUS
 90
3
 70
0
 10
-25.3951789184
 20
24.5111524031
 10
-25.4350128429
 20
24.5228007201
 10
-25.476067292
 20
24.5303209401
  0
LWPOLYLINE
  5
4C4
100
AcDbEntity
  8
ASSI
100
AcDbPolyline
 62
7
  6
CONTINUOUS
 90
3
 70
0
 10
-20.4454314501
 20
22.0362786689
 10
-20.4185087085
 20
22.0254716255
 10
-20.3995172384
 20
22.0165018758
  0
LWPOLYLINE
  5
4C5
100
AcDbEntity
  8
ASSI
100
AcDbPolyline
 62
7
  6
CONTINUOUS
 90
3
 70
0
 10
-25.9989835045
 20
24.8133051364
 10
-25.9720339834
 20
24.8023289958
 10
-25.954818688
 20
24.7941514652
  0
LWPOLYLINE
  5
4C6
100
AcDbEntity
  8
ASSI
100
AcDbPolyline
 62
7
  6
CONTINUOUS
 90
3
 70
0
 10
-25.3553637052
 20
24.4944255249
 10
-25.3704687882
 20
24.5014516345
 10
-25.3951789184
 20
24.5111524031
  0
LWPOLYLINE
  5
4C7
100
AcDbEntity
  8
RACCORDO
100
AcDbPolyline
 62
7
  6
CONTINUOUS
 90
12
 70
0
 10
-22.8774007635
 20
24.0660158596
 10
-22.888548762
 20
24.0713340171
 10
-22.9253978457
 20
24.0860004681
 10
-22.9639349801
 20
24.0968006585
 10
-23.0041392795
 20
24.103782424
 10
-23.0455091741
 20
24.1068586634
 10
-23.0880592661
 20
24.1059804498
 10
-23.1317749534
 20
24.1011967101
 10
-23.1761108597
 20
24.0925671241
 10
-23.220885193
 20
24.0801115848
 10
-23.2662797454
 20
24.0638101992
 10
-23.3122945169
 20
24.0436629672
  0
LINE
  5
4C8
100
AcDbEntity
  8
RACCORDO
100
AcDbLine
 62
250
  6
CONTINUOUS
 10
-26.4764950317
 20
25.6257632246
 11
-23.3122945169
 21
24.0436629672
  0
LINE
  5
4C9
100
AcDbEntity
  8
RACCORDO
100
AcDbLine
 62
250
  6
CONTINUOUS
 10
-19.0696538297
 20
21.9223426236
 11
-15.9054533149
 21
20.3402423662
  0
LINE
  5
4CA
100
AcDbEntity
  8
RACCORDO
100
AcDbLine
 62
7
  6
CONTINUOUS
 10
-26.200898679
 20
25.7277648182
 11
-22.8774216363
 21
24.0660262968
  0
LINE
  5
4CB
100
AcDbEntity
  8
RACCORDO
100
AcDbLine
 62
7
  6
CONTINUOUS
 10
-18.6347809492
 20
21.9447059532
 11
-15.3113039064
 21
20.2829674319
  0
LWPOLYLINE
  5
4CC
100
AcDbEntity
  8
SMUSSO
100
AcDbPolyline
 62
7
  6
CONTINUOUS
 90
10
 70
0
 10
-9.1667080335
 20
23.4926536282
 10
-9.170786414
 20
23.5036012251
 10
-9.1808333104
 20
23.5346120366
 10
-9.1894091397
 20
23.5657150774
 10
-9.1965090125
 20
23.596893141
 10
-9.2021288625
 20
23.628129128
 10
-9.2062654276
 20
23.6594070053
 10
-9.2089162047
 20
23.6907095359
 10
-9.2100794827
 20
23.7220194059
 10
-9.21013034
 20
23.7308346046
  0
LINE
  5
4CD
100
AcDbEntity
  8
SMUSSO
100
AcDbLine
 62
250
  6
CONTINUOUS
 10
-8.4046821488
 20
24.6736781991
 11
-8.6104017595
 21
25.2328818909
  0
LWPOLYLINE
  5
4CE
100
AcDbEntity
  8
RACCORDO
100
AcDbPolyline
 62
250
  6
CONTINUOUS
 90
46
 70
0
 10
1.105293697
 20
-0.5942577607
 10
1.1139332852
 20
-0.6183981983
 10
1.1268741945
 20
-0.6574347031
 10
1.1390244373
 20
-0.6972940549
 10
1.1503823178
 20
-0.7380049792
 10
1.1609328351
 20
-0.7795422869
 10
1.1705925617
 20
-0.8217887635
 10
1.1793569941
 20
-0.8647716918
 10
1.1872187133
 20
-0.908462015
 10
1.1940971358
 20
-0.952652451
 10
1.1999858589
 20
-0.9973310586
 10
1.2048886706
 20
-1.0425008138
 10
1.2087489256
 20
-1.0879709898
 10
1.211562392
 20
-1.133922658
 10
1.2133367601
 20
-1.1801628248
 10
1.2140519937
 20
-1.2259281304
 10
1.213696981
 20
-1.2711045341
 10
1.2123192518
 20
-1.3157767768
 10
1.2100087752
 20
-1.3594671192
 10
1.2067628005
 20
-1.4021815799
 10
1.202632723
 20
-1.4438829549
 10
1.1978039524
 20
-1.4840213331
 10
1.1923061844
 20
-1.5224344587
 10
1.1861697375
 20
-1.5592520741
 10
1.1795865283
 20
-1.5943593739
 10
1.1726167342
 20
-1.6276016128
 10
1.1652520356
 20
-1.6591082362
 10
1.1575751354
 20
-1.6891935559
 10
1.1496039809
 20
-1.7178999542
 10
1.1413551345
 20
-1.7451695703
 10
1.1329011847
 20
-1.7711697751
 10
1.1242623724
 20
-1.7958959914
 10
1.1154438418
 20
-1.8193420005
 10
1.1064905821
 20
-1.8416746525
 10
1.0974155168
 20
-1.8628980671
 10
1.0882237064
 20
-1.8830006585
 10
1.0789446852
 20
-1.9021271083
 10
1.0695703408
 20
-1.9203056722
 10
1.060121314
 20
-1.9375028425
 10
1.0506679247
 20
-1.9537714469
 10
1.0412179839
 20
-1.9690982071
 10
1.0317727021
 20
-1.9834922575
 10
1.0223908587
 20
-1.9970405391
 10
1.0130937753
 20
-2.0097710782
 10
1.0038658895
 20
-2.0216527889
 10
0.9947096765
 20
-2.0326842636
  0
LINE
  5
4CF
100
AcDbEntity
  8
0
100
AcDbLine
 62
7
  6
CONTINUOUS
 10
-7.2768729075
 20
22.8737252626
 11
-7.4783722654
 21
23.4694496884
  0
LINE
  5
4D0
100
AcDbEntity
  8
0
100
AcDbLine
 62
7
  6
CONTINUOUS
 10
-2.6800587408
 20
6.5808893699
 11
-2.7831832383
 21
6.9538483891
  0
LWPOLYLINE
  5
4D1
100
AcDbEntity
  8
RACCORDO
100
AcDbPolyline
 62
250
  6
CONTINUOUS
 90
6
 70
0
 10
-1.1644441278
 20
8.038769614
 10
-1.1885067373
 20
8.1812054575
 10
-1.2187637477
 20
8.3189016279
 10
-1.255141434
 20
8.451522616
 10
-1.2975511762
 20
8.5787453297
 10
-1.3164465763
 20
8.6262450567
  0
LWPOLYLINE
  5
4D2
100
AcDbEntity
  8
RACCORDO
100
AcDbPolyline
 62
7
  6
CONTINUOUS
 90
6
 70
0
 10
-1.1640720423
 20
8.0554207133
 10
-1.18810224
 20
8.1990204303
 10
-1.2196859849
 20
8.3440182562
 10
-1.2578354352
 20
8.4837760658
 10
-1.302496046
 20
8.6181087479
 10
-1.3075558105
 20
8.6308483854
  0
LWPOLYLINE
  5
4D3
100
AcDbEntity
  8
RACCORDO
100
AcDbPolyline
 62
7
  6
CONTINUOUS
 90
4
 70
0
 10
-1.16406527
 20
8.0554209575
 10
-1.1638141548
 20
8.0533892947
 10
-1.1635979031
 20
8.0461049303
 10
-1.1644441278
 20
8.038769614
  0
LWPOLYLINE
  5
4D4
100
AcDbEntity
  8
SMUSSO
100
AcDbPolyline
 62
7
  6
CONTINUOUS
 90
21
 70
0
 10
1.1052936967
 20
5.189095354
 10
1.105133462
 20
5.19804311
 10
1.1044104239
 20
5.2101178807
 10
1.1031022665
 20
5.2221874299
 10
1.101210121
 20
5.2342447214
 10
1.0987373813
 20
5.2462686474
 10
1.0956830651
 20
5.2582591494
 10
1.0920481548
 20
5.2702162859
 10
1.0878389912
 20
5.282119124
 10
1.0830545727
 20
5.2939675674
 10
1.077695901
 20
5.3057617125
 10
1.071772322
 20
5.3174809151
 10
1.0652828211
 20
5.3291250791
 10
1.058228413
 20
5.3406943007
 10
1.0506214876
 20
5.3521682247
 10
1.0424609333
 20
5.3635468051
 10
1.0337478618
 20
5.3748300878
 10
1.0244979985
 20
5.3859978557
 10
1.0147165851
 20
5.3970433696
 10
1.00439838
 20
5.4079733687
 10
0.993543383
 20
5.4187878529
  0
LWPOLYLINE
  5
4D5
100
AcDbEntity
  8
RACCORDO
100
AcDbPolyline
 62
7
  6
CONTINUOUS
 90
28
 70
0
 10
1.1052936887
 20
22.6899928231
 10
1.1049191487
 20
22.729371436
 10
1.1034943895
 20
22.7765486656
 10
1.1010162001
 20
22.823795607
 10
1.0974933545
 20
22.87112072
 10
1.0929359879
 20
22.9184962282
 10
1.0873599737
 20
22.9658533222
 10
1.080776352
 20
23.0131834027
 10
1.0731949498
 20
23.0604760014
 10
1.0646374216
 20
23.1076562064
 10
1.0551155159
 20
23.154714638
 10
1.0446400247
 20
23.2016427532
 10
1.0332374306
 20
23.2483648655
 10
1.0209229095
 20
23.2948629909
 10
1.0077058513
 20
23.3411375315
 10
0.99360964
 20
23.3871384551
 10
0.9786498856
 20
23.4328464038
 10
0.9628341695
 20
23.4782629983
 10
0.9461769259
 20
23.5233677408
 10
0.9286879925
 20
23.5681504076
 10
0.9103759958
 20
23.6126022866
 10
0.8912531903
 20
23.6567033475
 10
0.8713278374
 20
23.7004424774
 10
0.8506065493
 20
23.7438098198
 10
0.8290991184
 20
23.7867871148
 10
0.8068119522
 20
23.8293620542
 10
0.7837488267
 20
23.8715253648
 10
0.7633262484
 20
23.907397618
  0
LWPOLYLINE
  5
4D6
100
AcDbEntity
  8
RACCORDO
100
AcDbPolyline
 62
250
  6
CONTINUOUS
 90
37
 70
0
 10
0.8246334974
 20
22.3426656603
 10
0.8244035684
 20
22.3806679359
 10
0.8234950849
 20
22.4189854883
 10
0.8219084389
 20
22.4576000581
 10
0.8196443137
 20
22.4964931559
 10
0.8167037886
 20
22.5356463417
 10
0.8130883255
 20
22.5750412379
 10
0.8087995987
 20
22.6146592019
 10
0.8038396135
 20
22.6544812502
 10
0.7982108091
 20
22.6944883391
 10
0.7919158583
 20
22.7346613625
 10
0.7849577168
 20
22.7749812484
 10
0.777339732
 20
22.8154288858
 10
0.7690655184
 20
22.8559850254
 10
0.7601389885
 20
22.8966303576
 10
0.7505644049
 20
22.9373456066
 10
0.7403463124
 20
22.9781114289
 10
0.7294895611
 20
23.0189083913
 10
0.7179993345
 20
23.0597170505
 10
0.705881107
 20
23.1005179936
 10
0.6931406369
 20
23.1412918043
 10
0.6797839895
 20
23.1820190413
 10
0.665817548
 20
23.2226803065
 10
0.6512479512
 20
23.2632562837
 10
0.6360820874
 20
23.3037277029
 10
0.6203271968
 20
23.3440753204
 10
0.6039907852
 20
23.3842799449
 10
0.5870805595
 20
23.4243224754
 10
0.5696045706
 20
23.4641839364
 10
0.5515711743
 20
23.5038453103
 10
0.5329889459
 20
23.5432875663
 10
0.5138668266
 20
23.5824918467
 10
0.4942138937
 20
23.6214396294
 10
0.4740393122
 20
23.6601125558
 10
0.4533526406
 20
23.6984922938
 10
0.4321638358
 20
23.7365605509
 10
0.4104830217
 20
23.7742992349
  0
LINE
  5
4D7
100
AcDbEntity
  8
RACCORDO
100
AcDbLine
 62
250
  6
CONTINUOUS
 10
0.8246334974
 20
-7.8959695684
 11
0.8246334974
 21
-4.4846601531
  0
LINE
  5
4D8
100
AcDbEntity
  8
RACCORDO
100
AcDbLine
 62
250
  6
CONTINUOUS
 10
0.8246334974
 20
-2.0264585265
 11
0.8246334974
 21
4.711874375
  0
LINE
  5
4D9
100
AcDbEntity
  8
RACCORDO
100
AcDbLine
 62
250
  6
CONTINUOUS
 10
0.8246334974
 20
9.734821717
 11
0.8246334974
 21
16.4731545838
  0
LINE
  5
4DA
100
AcDbEntity
  8
RACCORDO
100
AcDbLine
 62
250
  6
CONTINUOUS
 10
0.8246334974
 20
18.9313562801
 11
0.8246334974
 21
22.3426656603
  0
LINE
  5
4DB
100
AcDbEntity
  8
ASSI
100
AcDbLine
 62
7
  6
CONTINUOUS
 10
0.993543383
 20
5.4187878529
 11
0.993543383
 21
9.8315078954
  0
LINE
  5
4DC
100
AcDbEntity
  8
RACCORDO
100
AcDbLine
 62
7
  6
CONTINUOUS
 10
1.105293697
 20
-7.5486403831
 11
1.105293697
 21
-4.585854767
  0
LINE
  5
4DD
100
AcDbEntity
  8
RACCORDO
100
AcDbLine
 62
7
  6
CONTINUOUS
 10
1.105293697
 20
-1.2306060551
 11
1.105293697
 21
5.1891073708
  0
LINE
  5
4DE
100
AcDbEntity
  8
RACCORDO
100
AcDbLine
 62
7
  6
CONTINUOUS
 10
1.105293697
 20
9.9522470916
 11
1.105293697
 21
16.3719513258
  0
LINE
  5
4DF
100
AcDbEntity
  8
RACCORDO
100
AcDbLine
 62
7
  6
CONTINUOUS
 10
1.105293697
 20
19.7272179491
 11
1.105293697
 21
22.6899948456
  0
LINE
  5
4E0
100
AcDbEntity
  8
RACCORDO
100
AcDbLine
 62
7
  6
CONTINUOUS
 10
1.1052936886
 20
19.7274407117
 11
1.1052936969
 21
19.7272211588
  0
LWPOLYLINE
  5
4E1
100
AcDbEntity
  8
RACCORDO
100
AcDbPolyline
 62
250
  6
CONTINUOUS
 90
48
 70
0
 10
1.105293697
 20
-1.2306060551
 10
1.1052844191
 20
-1.2372016594
 10
1.1047710634
 20
-1.2799067185
 10
1.1034983964
 20
-1.3216616371
 10
1.101505258
 20
-1.3624283298
 10
1.0988635937
 20
-1.401650037
 10
1.0956440059
 20
-1.439190088
 10
1.0918997348
 20
-1.4751745019
 10
1.0877046422
 20
-1.5094440761
 10
1.0831394939
 20
-1.5418545807
 10
1.0782487466
 20
-1.5725488408
 10
1.0730427588
 20
-1.601799172
 10
1.0675568338
 20
-1.6296438258
 10
1.0618398876
 20
-1.6560455669
 10
1.0559028802
 20
-1.681162396
 10
1.0497786339
 20
-1.7049976041
 10
1.0435007023
 20
-1.727550977
 10
1.0370693365
 20
-1.7489743525
 10
1.0305093305
 20
-1.7692741717
 10
1.0238472011
 20
-1.7884478139
 10
1.0170763765
 20
-1.8066324413
 10
1.0102048695
 20
-1.8238575124
 10
1.0032636285
 20
-1.8400973007
 10
0.996276402
 20
-1.8554058747
 10
0.9892621949
 20
-1.8697791013
 10
0.9822389266
 20
-1.8832263915
 10
0.9752285419
 20
-1.8958225738
 10
0.9682672102
 20
-1.9075411545
 10
0.9613532897
 20
-1.9184151311
 10
0.9544477415
 20
-1.9286077378
 10
0.9475699029
 20
-1.938123701
 10
0.9407238753
 20
-1.9469629587
 10
0.933838922
 20
-1.9552790845
 10
0.9269044457
 20
-1.963102708
 10
0.9199427596
 20
-1.9704048879
 10
0.9129259543
 20
-1.9772478096
 10
0.9058499496
 20
-1.9836425041
 10
0.898726885
 20
-1.9895787689
 10
0.8915509186
 20
-1.9950862163
 10
0.8843258813
 20
-2.0001658173
 10
0.8770550183
 20
-2.0048173678
 10
0.8697306138
 20
-2.0090683984
 10
0.8623575919
 20
-2.0129196519
 10
0.8549369468
 20
-2.016370943
 10
0.847453873
 20
-2.0194479614
 10
0.8399045882
 20
-2.0221591609
 10
0.8322970799
 20
-2.0244960859
 10
0.8246334974
 20
-2.0264587926
  0
LWPOLYLINE
  5
4E2
100
AcDbEntity
  8
RACCORDO
100
AcDbPolyline
 62
250
  6
CONTINUOUS
 90
46
 70
0
 10
1.1052936969
 20
19.7272211588
 10
1.1052676071
 20
19.716195942
 10
1.1046291582
 20
19.6716325278
 10
1.1031744081
 20
19.6283134927
 10
1.1009508532
 20
19.5862272764
 10
1.0980100894
 20
19.5454051587
 10
1.0944591637
 20
19.5065151585
 10
1.0904103635
 20
19.4698708047
 10
1.0859157634
 20
19.4351642238
 10
1.0810059656
 20
19.402128252
 10
1.0757349398
 20
19.3707523962
 10
1.0701595913
 20
19.3410476853
 10
1.0642880006
 20
19.3127802307
 10
1.0581571582
 20
19.2859320195
 10
1.0518104924
 20
19.2605191426
 10
1.0452468643
 20
19.2363602791
 10
1.0384933667
 20
19.2134413508
 10
1.031583088
 20
19.1917734459
 10
1.0245112557
 20
19.1712143233
 10
1.0172689248
 20
19.1516888197
 10
1.0099090953
 20
19.1332692152
 10
1.0025217074
 20
19.1160331825
 10
0.9951656392
 20
19.1000564754
 10
0.9878395441
 20
19.0852544048
 10
0.98054653
 20
19.0714624624
 10
0.9733271239
 20
19.0586990287
 10
0.9661863625
 20
19.0469370168
 10
0.9590649299
 20
19.0359456972
 10
0.95198314
 20
19.025711795
 10
0.9449494905
 20
19.0162427839
 10
0.937874275
 20
19.0073425574
 10
0.9307454784
 20
18.998972541
 10
0.9235885398
 20
18.9911693782
 10
0.9163608891
 20
18.9838525841
 10
0.9090523603
 20
18.9770039174
 10
0.9016809206
 20
18.9706411723
 10
0.894243132
 20
18.9647389054
 10
0.8867416594
 20
18.9592963379
 10
0.8791810638
 20
18.9543137126
 10
0.8715601087
 20
18.9497672933
 10
0.863884121
 20
18.9456576588
 10
0.8561543914
 20
18.9419836578
 10
0.8483629073
 20
18.9387191987
 10
0.8405086154
 20
18.93585557
 10
0.832597919
 20
18.9334012244
 10
0.8246334974
 20
18.9313559789
  0
LWPOLYLINE
  5
4E3
100
AcDbEntity
  8
RACCORDO
100
AcDbPolyline
 62
7
  6
CONTINUOUS
 90
18
 70
0
 10
1.1052940847
 20
16.3719837111
 10
1.1053864093
 20
16.3778596227
 10
1.1059525824
 20
16.3876389813
 10
1.1069994157
 20
16.3970574901
 10
1.1084934123
 20
16.4061259563
 10
1.1103841494
 20
16.4147544369
 10
1.1125787372
 20
16.4227607624
 10
1.1149984369
 20
16.4301041513
 10
1.117575403
 20
16.4367860819
 10
1.1201972217
 20
16.4427097568
 10
1.1227718874
 20
16.4478576083
 10
1.1252266584
 20
16.4522527145
 10
1.1274683045
 20
16.4558807861
 10
1.1294107023
 20
16.4587462327
 10
1.1309933742
 20
16.4608894389
 10
1.1321697602
 20
16.4623600585
 10
1.1328794981
 20
16.4631833901
 10
1.1330409932
 20
16.4633602867
  0
LWPOLYLINE
  5
4E4
100
AcDbEntity
  8
RACCORDO
100
AcDbPolyline
 62
7
  6
CONTINUOUS
 90
18
 70
0
 10
1.1052942361
 20
-4.585844475
 10
1.1053867681
 20
-4.5799564757
 10
1.1059533962
 20
-4.5701703236
 10
1.1069999516
 20
-4.560752482
 10
1.1084919937
 20
-4.5516944926
 10
1.1103787504
 20
-4.5430816484
 10
1.1125693014
 20
-4.5350855173
 10
1.114986986
 20
-4.5277429227
 10
1.1175631539
 20
-4.5210582213
 10
1.1201848159
 20
-4.5151312888
 10
1.1227596181
 20
-4.5099803835
 10
1.1252152014
 20
-4.5055814839
 10
1.1274584019
 20
-4.5019491033
 10
1.1294036543
 20
-4.4990785165
 10
1.1309901538
 20
-4.4969297302
 10
1.1321694934
 20
-4.4954551213
 10
1.1328794607
 20
-4.4946312682
 10
1.1330402507
 20
-4.4944550678
  0
LWPOLYLINE
  5
4E5
100
AcDbEntity
  8
SMUSSO
100
AcDbPolyline
 62
7
  6
CONTINUOUS
 90
3
 70
0
 10
1.104827574
 20
9.9369965164
 10
1.105272512
 20
9.9490958024
 10
1.1052936967
 20
9.9522350748
  0
LWPOLYLINE
  5
4E6
100
AcDbEntity
  8
SMUSSO
100
AcDbPolyline
 62
7
  6
CONTINUOUS
 90
3
 70
0
 10
1.104827574
 20
5.1738567956
 10
1.105272512
 20
5.1859560816
 10
1.1052936967
 20
5.189095354
  0
LWPOLYLINE
  5
4E7
100
AcDbEntity
  8
RACCORDO
100
AcDbPolyline
 62
7
  6
CONTINUOUS
 90
16
 70
0
 10
0.8246334974
 20
-4.4846601531
 10
0.8342579799
 20
-4.4704814641
 10
0.8441462289
 20
-4.4565404665
 10
0.8542982444
 20
-4.4428371602
 10
0.8647180404
 20
-4.4293508333
 10
0.8754016029
 20
-4.4161021978
 10
0.8863368902
 20
-4.4031533895
 10
0.8975312694
 20
-4.390505237
 10
0.9089773734
 20
-4.3781569117
 10
0.9206410591
 20
-4.3661680626
 10
0.9325262945
 20
-4.35454331
 10
0.9446291116
 20
-4.3432780336
 10
0.9569034635
 20
-4.3324180229
 10
0.969334001
 20
-4.321978541
 10
0.9819360732
 20
-4.3119443248
 10
0.9947096802
 20
-4.3023153742
  0
LWPOLYLINE
  5
4E8
100
AcDbEntity
  8
RACCORDO
100
AcDbPolyline
 62
250
  6
CONTINUOUS
 90
4
 70
0
 10
0.4104830217
 20
-8.9134526673
 10
0.4321638358
 20
-8.8971778774
 10
0.4533526406
 20
-8.8800931651
 10
0.4740393122
 20
-8.8622066936
  0
LWPOLYLINE
  5
4E9
100
AcDbEntity
  8
RACCORDO
100
AcDbPolyline
 62
7
  6
CONTINUOUS
 90
40
 70
0
 10
0.4850610424
 20
-8.8670829645
 10
0.5053026418
 20
-8.8521302549
 10
0.5333625265
 20
-8.8304384428
 10
0.5609308615
 20
-8.8079789182
 10
0.5879796743
 20
-8.7847692283
 10
0.6144959553
 20
-8.7608154535
 10
0.6404810034
 20
-8.7361100308
 10
0.665914949
 20
-8.7106642766
 10
0.6907785162
 20
-8.6844899331
 10
0.7150724624
 20
-8.6575771142
 10
0.7387776125
 20
-8.6299367201
 10
0.7618741994
 20
-8.6015815668
 10
0.7843604169
 20
-8.5725018802
 10
0.8062177589
 20
-8.5427077166
 10
0.8274263242
 20
-8.512212781
 10
0.847980775
 20
-8.4810097422
 10
0.8678622782
 20
-8.4491100936
 10
0.8870524797
 20
-8.4165261097
 10
0.9055456468
 20
-8.3832486629
 10
0.9233222662
 20
-8.3492915074
 10
0.9403656907
 20
-8.3146642053
 10
0.9566727706
 20
-8.2793478321
 10
0.9722272502
 20
-8.243347594
 10
0.987008274
 20
-8.2066798136
 10
1.0010044157
 20
-8.1693387073
 10
1.0142033959
 20
-8.1313173673
 10
1.0265807992
 20
-8.092642973
 10
1.0381100859
 20
-8.0533589929
 10
1.0487772456
 20
-8.0134751435
 10
1.0585677193
 20
-7.9730028667
 10
1.0674605979
 20
-7.9319872896
 10
1.0754452503
 20
-7.8904367281
 10
1.082510016
 20
-7.8483631448
 10
1.088638785
 20
-7.8058163036
 10
1.0938234192
 20
-7.7628055431
 10
1.0980552746
 20
-7.719340859
 10
1.1013233759
 20
-7.6754715996
 10
1.1036209274
 20
-7.6312193238
 10
1.1049425922
 20
-7.5865808547
 10
1.1052936887
 20
-7.5486414365
  0
LINE
  5
4EA
100
AcDbEntity
  8
RACCORDO
100
AcDbLine
 62
250
  6
CONTINUOUS
 10
0.3361167429
 20
-8.9673492465
 11
0.4104830217
 21
-8.9134526673
  0
LINE
  5
4EB
100
AcDbEntity
  8
RACCORDO
100
AcDbLine
 62
7
  6
CONTINUOUS
 10
0.4106843369
 20
-8.9209871137
 11
0.4850506158
 21
-8.8670905345
  0
LWPOLYLINE
  5
4EC
100
AcDbEntity
  8
RACCORDO
100
AcDbPolyline
 62
250
  6
CONTINUOUS
 90
4
 70
0
 10
0.2913288129
 20
-8.9952839405
 10
0.3064768113
 20
-8.9868126435
 10
0.3215072424
 20
-8.9774472599
 10
0.3361167429
 20
-8.9673492465
  0
LWPOLYLINE
  5
4ED
100
AcDbEntity
  8
RACCORDO
100
AcDbPolyline
 62
250
  6
CONTINUOUS
 90
5
 70
0
 10
0.4104830217
 20
-8.9134526673
 10
0.4303545737
 20
-8.9024984047
 10
0.4497858345
 20
-8.8908448898
 10
0.4687607266
 20
-8.8785017649
 10
0.4850506158
 20
-8.8670905345
  0
LWPOLYLINE
  5
4EE
100
AcDbEntity
  8
RACCORDO
100
AcDbPolyline
 62
250
  6
CONTINUOUS
 90
5
 70
0
 10
0.3361167429
 20
-8.9673492465
 10
0.3549532581
 20
-8.9569890387
 10
0.3733953748
 20
-8.9460008016
 10
0.3914293977
 20
-8.9343926952
 10
0.4106843369
 20
-8.9209871137
  0
LINE
  5
4EF
100
AcDbEntity
  8
RACCORDO
100
AcDbLine
 62
250
  6
CONTINUOUS
 10
0.3361167429
 20
-8.9673492465
 11
-13.3650238123
 21
-16.2127380651
  0
LINE
  5
4F0
100
AcDbEntity
  8
RACCORDO
100
AcDbLine
 62
7
  6
CONTINUOUS
 10
0.2913288129
 20
-8.9952839405
 11
-13.3867159146
 21
-16.2284593049
  0
LINE
  5
4F1
100
AcDbEntity
  8
RACCORDO
100
AcDbLine
 62
250
  6
CONTINUOUS
 10
-19.6830353087
 20
-19.498266551
 11
0.4104830217
 21
-8.9134526673
  0
LINE
  5
4F2
100
AcDbEntity
  8
DRAFT
100
AcDbLine
 62
7
  6
CONTINUOUS
 10
-19.6830353087
 20
-19.7476794416
 11
-14.4482190819
 21
-16.9977782814
  0
LINE
  5
4F3
100
AcDbEntity
  8
RACCORDO
100
AcDbLine
 62
7
  6
CONTINUOUS
 10
-19.6830353087
 20
-20.0581934685
 11
-15.9054533149
 21
-18.1548374906
  0
LINE
  5
4F4
100
AcDbEntity
  8
RACCORDO
100
AcDbLine
 62
7
  6
CONTINUOUS
 10
-15.1273225498
 20
-17.6689637645
 11
-19.6830353087
 21
-19.928630878
  0
LWPOLYLINE
  5
4F5
100
AcDbEntity
  8
0
100
AcDbPolyline
 62
250
  6
CONTINUOUS
 90
16
 70
0
 10
-26.4826812499
 20
-24.49383774
 10
-26.5216903423
 20
-24.5126519276
 10
-26.5640028196
 20
-24.5293376956
 10
-26.6091653325
 20
-24.5437162673
 10
-26.6566939953
 20
-24.5556335862
 10
-26.706079571
 20
-24.5649619661
 10
-26.7567929265
 20
-24.57160146
 10
-26.808290703
 20
-24.5754809302
 10
-26.8600211369
 20
-24.5765588107
 10
-26.9114299716
 20
-24.5748235528
 10
-26.9619663968
 20
-24.5702937485
 10
-27.0110889488
 20
-24.5630179318
 10
-27.0582713132
 20
-24.553074058
 10
-27.1030079629
 20
-24.540568669
 10
-27.1448195753
 20
-24.5256357515
 10
-27.1832581674
 20
-24.5084353016
  0
LWPOLYLINE
  5
4F6
100
AcDbEntity
  8
RACCORDO
100
AcDbPolyline
 62
250
  6
CONTINUOUS
 90
16
 70
0
 10
-26.4826812499
 20
-24.49383774
 10
-26.5216903423
 20
-24.5126519276
 10
-26.5640028196
 20
-24.5293376956
 10
-26.6091653325
 20
-24.5437162673
 10
-26.6566939953
 20
-24.5556335862
 10
-26.706079571
 20
-24.5649619661
 10
-26.7567929265
 20
-24.57160146
 10
-26.808290703
 20
-24.5754809302
 10
-26.8600211369
 20
-24.5765588107
 10
-26.9114299716
 20
-24.5748235528
 10
-26.9619663968
 20
-24.5702937485
 10
-27.0110889488
 20
-24.5630179318
 10
-27.0582713132
 20
-24.553074058
 10
-27.1030079629
 20
-24.540568669
 10
-27.1448195753
 20
-24.5256357515
 10
-27.1832581674
 20
-24.5084353016
  0
LINE
  5
4F7
100
AcDbEntity
  8
RACCORDO
100
AcDbLine
 62
250
  6
CONTINUOUS
 10
-23.1832138756
 20
-20.9594705118
 11
-22.4915341629
 21
-20.6269434754
  0
LINE
  5
4F8
100
AcDbEntity
  8
RACCORDO
100
AcDbLine
 62
7
  6
CONTINUOUS
 10
-23.1832138756
 20
-21.1674558075
 11
-22.6240852776
 21
-20.8986531056
  0
LINE
  5
4F9
100
AcDbEntity
  8
RACCORDO
100
AcDbLine
 62
250
  6
CONTINUOUS
 10
-25.8292613538
 20
21.8861529482
 11
-25.8193734164
 21
21.8889297591
  0
LINE
  5
4FA
100
AcDbEntity
  8
RACCORDO
100
AcDbLine
 62
250
  6
CONTINUOUS
 10
-25.8193734164
 20
21.8889297591
 11
-25.809306377
 21
21.8916673809
  0
LINE
  5
4FB
100
AcDbEntity
  8
RACCORDO
100
AcDbLine
 62
250
  6
CONTINUOUS
 10
-25.809306377
 20
21.8916673809
 11
-25.7990594525
 21
21.8943618907
  0
LWPOLYLINE
  5
4FC
100
AcDbEntity
  8
RACCORDO
100
AcDbPolyline
 62
250
  6
CONTINUOUS
 90
3
 70
0
 10
-25.7990594525
 20
21.8943618907
 10
-25.7886325326
 20
21.8970091628
 10
-25.7833515454
 20
21.8983145738
  0
LWPOLYLINE
  5
4FD
100
AcDbEntity
  8
RACCORDO
100
AcDbPolyline
 62
250
  6
CONTINUOUS
 90
3
 70
0
 10
-25.7833515454
 20
21.8983145738
 10
-25.7726549439
 20
21.900884677
 10
-25.7672393295
 20
21.9021493694
  0
LWPOLYLINE
  5
4FE
100
AcDbEntity
  8
RACCORDO
100
AcDbPolyline
 62
250
  6
CONTINUOUS
 90
4
 70
0
 10
-25.7672393295
 20
21.9021493694
 10
-25.7562752727
 20
21.9046334608
 10
-25.7507268301
 20
21.9058528598
 10
-25.7451350776
 20
21.9070555788
  0
LWPOLYLINE
  5
4FF
100
AcDbEntity
  8
RACCORDO
100
AcDbPolyline
 62
250
  6
CONTINUOUS
 90
125
 70
0
 10
-25.7451350776
 20
21.9070555788
 10
-25.73382172
 20
21.9094109474
 10
-25.7281008889
 20
21.910562079
 10
-25.7223376566
 20
21.9116949793
 10
-25.7165319271
 20
21.912809667
 10
-25.7106842239
 20
21.913904665
 10
-25.7047929464
 20
21.914980231
 10
-25.6988596954
 20
21.9160361075
 10
-25.6928897969
 20
21.9170700448
 10
-25.6868792142
 20
21.9180825373
 10
-25.6808319841
 20
21.9190730906
 10
-25.6747655434
 20
21.920037973
 10
-25.6686794502
 20
21.9209769332
 10
-25.6625741465
 20
21.9218902224
 10
-25.6564683945
 20
21.9227748625
 10
-25.6503654014
 20
21.9236301583
 10
-25.6442619602
 20
21.924456805
 10
-25.638167212
 20
21.9252539105
 10
-25.6320821479
 20
21.9260212315
 10
-25.6260057768
 20
21.9267590114
 10
-25.6199442671
 20
21.9274670883
 10
-25.6138988191
 20
21.9281452718
 10
-25.6078682324
 20
21.9287937522
 10
-25.6018550746
 20
21.9294129392
 10
-25.5958599303
 20
21.9300027707
 10
-25.5898822148
 20
21.9305633087
 10
-25.5839227413
 20
21.9310951497
 10
-25.5779810942
 20
21.9315983305
 10
-25.5720576891
 20
21.9320728142
 10
-25.5661545859
 20
21.9325190858
 10
-25.5602713866
 20
21.932937153
 10
-25.5544084893
 20
21.9333270082
 10
-25.5485691485
 20
21.9336891142
 10
-25.5427535358
 20
21.9340234324
 10
-25.5369614796
 20
21.9343300015
 10
-25.5311957204
 20
21.9346094005
 10
-25.5254565257
 20
21.9348615997
 10
-25.519743628
 20
21.9350866288
 10
-25.5140589658
 20
21.9352851562
 10
-25.5084026338
 20
21.9354571702
 10
-25.5027745372
 20
21.9356026824
 10
-25.4971763307
 20
21.9357223968
 10
-25.491607944
 20
21.9358163054
 10
-25.4860694474
 20
21.9358844161
 10
-25.4805627058
 20
21.9359274568
 10
-25.4750876898
 20
21.9359454141
 10
-25.4696444288
 20
21.9359383014
 10
-25.464234877
 20
21.9359068865
 10
-25.4588591303
 20
21.9358511568
 10
-25.4535170926
 20
21.9357711249
 10
-25.4482104299
 20
21.9356675962
 10
-25.4429393219
 20
21.9355405672
 10
-25.4377035889
 20
21.9353900413
 10
-25.4325043564
 20
21.9352168349
 10
-25.4273415977
 20
21.9350209418
 10
-25.4222153397
 20
21.9348023681
 10
-25.4171267884
 20
21.9345619483
 10
-25.4120757513
 20
21.9342996594
 10
-25.407062421
 20
21.9340155243
 10
-25.4020885807
 20
21.9337104459
 10
-25.3971545589
 20
21.9333844333
 10
-25.3922600271
 20
21.9330374774
 10
-25.3874057829
 20
21.9326704529
 10
-25.3825919827
 20
21.9322833721
 10
-25.3778184702
 20
21.9318762228
 10
-25.3730855743
 20
21.9314498428
 10
-25.3683932799
 20
21.9310042329
 10
-25.3637416023
 20
21.9305393924
 10
-25.3591309158
 20
21.9300561564
 10
-25.3545612286
 20
21.9295545259
 10
-25.3500325326
 20
21.9290345
 10
-25.3455451784
 20
21.9284969107
 10
-25.3410992206
 20
21.9279417648
 10
-25.3366946046
 20
21.9273690556
 10
-25.3323315167
 20
21.9267795945
 10
-25.3280100642
 20
21.9261733998
 10
-25.3237301399
 20
21.9255504532
 10
-25.3194916083
 20
21.9249115123
 10
-25.3152945325
 20
21.9242565938
 10
-25.3111388494
 20
21.9235856809
 10
-25.307024235
 20
21.922899481
 10
-25.3029507145
 20
21.9221980069
 10
-25.2989182626
 20
21.9214812458
 10
-25.2949264795
 20
21.9207498667
 10
-25.2909753859
 20
21.9200038821
 10
-25.2870649611
 20
21.9192432795
 10
-25.2831947426
 20
21.9184686893
 10
-25.279364768
 20
21.9176801289
 10
-25.2755749999
 20
21.916877581
 10
-25.2718248635
 20
21.9160616233
 10
-25.2681144093
 20
21.9152322794
 10
-25.264443587
 20
21.9143895259
 10
-25.2608116708
 20
21.9135338703
 10
-25.2572186896
 20
21.9126653345
 10
-25.2536646146
 20
21.9117838967
 10
-25.2501486335
 20
21.9108899993
 10
-25.2466707522
 20
21.90998366
 10
-25.2432309648
 20
21.9090648613
 10
-25.2398284412
 20
21.9081339923
 10
-25.2364631811
 20
21.9071910697
 10
-25.2331351848
 20
21.9062360769
 10
-25.2298436229
 20
21.9052693533
 10
-25.2265885049
 20
21.9042909194
 10
-25.2233698214
 20
21.9033007546
 10
-25.2201867145
 20
21.9022991369
 10
-25.2170391901
 20
21.9012860873
 10
-25.2139272424
 20
21.9002615847
 10
-25.210849997
 20
21.8992258438
 10
-25.2078074456
 20
21.8981788824
 10
-25.2047995964
 20
21.8971206827
 10
-25.2018255996
 20
21.8960514058
 10
-25.1988854331
 20
21.8949710645
 10
-25.1959791188
 20
21.8938796461
 10
-25.1931058729
 20
21.8927772736
 10
-25.1902656646
 20
21.8916639555
 10
-25.1874585247
 20
21.8905396833
 10
-25.1846837608
 20
21.8894045537
 10
-25.181941352
 20
21.8882585771
 10
-25.1792313192
 20
21.8871017432
 10
-25.1765530331
 20
21.8859341176
 10
-25.1739064827
 20
21.8847557171
 10
-25.1712916788
 20
21.8835665249
 10
-25.1687080248
 20
21.8823665557
 10
-25.1661553218
 20
21.8811558144
 10
-25.1636337686
 20
21.879934296
  0
LWPOLYLINE
  5
500
100
AcDbEntity
  8
RACCORDO
100
AcDbPolyline
 62
250
  6
CONTINUOUS
 90
10
 70
0
 10
-36.7919821519
 20
22.555863917
 10
-36.777761279
 20
22.5567323773
 10
-36.7643666121
 20
22.5592893075
 10
-36.7517981513
 20
22.5635347078
 10
-36.7399903333
 20
22.5695143977
 10
-36.7290087213
 20
22.5771825577
 10
-36.7190500051
 20
22.5864017286
 10
-36.710179748
 20
22.5971260908
 10
-36.7023323865
 20
22.609401464
 10
-36.6955079209
 20
22.6232278481
  0
LINE
  5
501
100
AcDbEntity
  8
0
100
AcDbLine
 62
7
  6
CONTINUOUS
 10
-23.9774603907
 20
23.2562913639
 11
-22.6175284506
 21
23.3300395514
  0
LWPOLYLINE
  5
502
100
AcDbEntity
  8
ASSI
100
AcDbPolyline
 62
7
  6
CONTINUOUS
 90
8
 70
0
 10
-25.476067292
 20
24.5303209401
 10
-25.5183422658
 20
24.5337130632
 10
-25.5619964588
 20
24.5329691793
 10
-25.6068711763
 20
24.5280971984
 10
-25.652490335
 20
24.5191208505
 10
-25.6986952401
 20
24.5060480455
 10
-25.7456445863
 20
24.4888708734
 10
-25.7933383735
 20
24.4675893342
  0
LINE
  5
503
100
AcDbEntity
  8
0
100
AcDbLine
 62
7
  6
CONTINUOUS
 10
-14.6909992746
 20
26.5807884462
 11
-14.5053696149
 21
26.4093563429
  0
LWPOLYLINE
  5
504
100
AcDbEntity
  8
SMUSSO
100
AcDbPolyline
 62
7
  6
CONTINUOUS
 90
49
 70
0
 10
-9.3433713222
 20
23.6956362801
 10
-9.367021984
 20
23.7308095058
 10
-9.3877599198
 20
23.764320303
 10
-9.406897314
 20
23.7980233728
 10
-9.4244315957
 20
23.8319190215
 10
-9.4403653357
 20
23.8660069429
 10
-9.4546725167
 20
23.9002318448
 10
-9.4673505413
 20
23.9345940591
 10
-9.478402007
 20
23.9690932539
 10
-9.487808688
 20
24.003673141
 10
-9.4955678869
 20
24.038333796
 10
-9.5016823011
 20
24.0730751434
 10
-9.5061417983
 20
24.1078406689
 10
-9.5089436854
 20
24.1426304703
 10
-9.5100906553
 20
24.1774444499
 10
-9.5095806541
 20
24.2122257999
 10
-9.507410977
 20
24.2469744285
 10
-9.5035843287
 20
24.2816904275
 10
-9.4981067694
 20
24.3163172647
 10
-9.490975599
 20
24.3508548296
 10
-9.4821935175
 20
24.3853032327
 10
-9.4717746848
 20
24.4196062741
 10
-9.45971643
 20
24.4537637033
 10
-9.4460214239
 20
24.4877757708
 10
-9.4307118389
 20
24.521587028
 10
-9.413785035
 20
24.5551971554
 10
-9.3952436522
 20
24.5886064725
 10
-9.3751177829
 20
24.6217604898
 10
-9.3534048302
 20
24.6546587993
 10
-9.3301073911
 20
24.6873018089
 10
-9.3052633484
 20
24.7196362524
 10
-9.2788701836
 20
24.7516616147
 10
-9.2509304153
 20
24.7833784109
 10
-9.2214894823
 20
24.8147349198
 10
-9.1905449095
 20
24.845730573
 10
-9.1580991719
 20
24.876365939
 10
-9.1242051334
 20
24.9065910022
 10
-9.0888604443
 20
24.936405075
 10
-9.0520674543
 20
24.965808845
 10
-9.0138860756
 20
24.9947543595
 10
-8.974314013
 20
25.0232408872
 10
-8.9333535618
 20
25.0512691595
 10
-8.8910715204
 20
25.0787934173
 10
-8.8474663667
 20
25.1058125285
 10
-8.8025396228
 20
25.1323276253
 10
-8.7563626537
 20
25.1582963461
 10
-8.7089592476
 20
25.1837045703
 10
-8.6603056162
 20
25.2085664186
 10
-8.6104017595
 20
25.2328818909
  0
LWPOLYLINE
  5
505
100
AcDbEntity
  8
RACCORDO
100
AcDbPolyline
 62
7
  6
CONTINUOUS
 90
55
 70
0
 10
2.7751095604
 20
-1.4867085759
 10
2.7654147283
 20
-1.4421086919
 10
2.751950817
 20
-1.383818977
 10
2.7375893245
 20
-1.3255213436
 10
2.7223391326
 20
-1.2672413235
 10
2.7062085082
 20
-1.2090010786
 10
2.6892049209
 20
-1.1508196412
 10
2.6713400866
 20
-1.0927296603
 10
2.6526206712
 20
-1.0347461089
 10
2.6330454222
 20
-0.9768618937
 10
2.612615217
 20
-0.9190803733
 10
2.5913454863
 20
-0.861446228
 10
2.5692572559
 20
-0.8040144613
 10
2.5463654175
 20
-0.7468196247
 10
2.5226765164
 20
-0.689874322
 10
2.4982007408
 20
-0.6332003934
 10
2.4729497264
 20
-0.5768224849
 10
2.4469342326
 20
-0.5207626307
 10
2.4201632204
 20
-0.4650387833
 10
2.3926479236
 20
-0.4096735269
 10
2.3644003573
 20
-0.3546904752
 10
2.3354306397
 20
-0.3001091264
 10
2.3057503752
 20
-0.2459515598
 10
2.2753722185
 20
-0.1922412762
 10
2.2443079758
 20
-0.1389997618
 10
2.2125687989
 20
-0.0862470826
 10
2.1801688864
 20
-0.0340079603
 10
2.1471250307
 20
0.0176896207
 10
2.1134568794
 20
0.0688145377
 10
2.0791719534
 20
0.1193548112
 10
2.0442684227
 20
0.1693110058
 10
2.0087511648
 20
0.2186723803
 10
1.9726414122
 20
0.2674055439
 10
1.9359616027
 20
0.3154772212
 10
1.8987252583
 20
0.3628670449
 10
1.8609470336
 20
0.4095535743
 10
1.8226519251
 20
0.4555035837
 10
1.7838680258
 20
0.5006821358
 10
1.7445973297
 20
0.5450855125
 10
1.7048249378
 20
0.5887268335
 10
1.6645463847
 20
0.6316047429
 10
1.623794059
 20
0.6736783742
 10
1.582607958
 20
0.7149020029
 10
1.5410073671
 20
0.7552531221
 10
1.499003609
 20
0.7947173784
 10
1.4566255808
 20
0.8332645039
 10
1.4139059291
 20
0.8708628578
 10
1.3708437192
 20
0.9075111335
 10
1.3274165259
 20
0.9432237287
 10
1.2836079058
 20
0.9780063357
 10
1.2394638958
 20
1.0118143906
 10
1.1950555642
 20
1.044588914
 10
1.1504125292
 20
1.076306172
 10
1.1055375314
 20
1.1069621369
 10
1.105293697
 20
1.1071221
  0
LWPOLYLINE
  5
506
100
AcDbEntity
  8
RACCORDO
100
AcDbPolyline
 62
7
  6
CONTINUOUS
 90
5
 70
0
 10
2.7762071457
 20
-1.4972089019
 10
2.7761714381
 20
-1.495298875
 10
2.7758850753
 20
-1.4914925613
 10
2.7753125986
 20
-1.487718849
 10
2.7751095594
 20
-1.4867084815
  0
LWPOLYLINE
  5
507
100
AcDbEntity
  8
RACCORDO
100
AcDbPolyline
 62
7
  6
CONTINUOUS
 90
5
 70
0
 10
2.7762071457
 20
19.4606058697
 10
2.7761714381
 20
19.4625158966
 10
2.7758850753
 20
19.4663222103
 10
2.7753125986
 20
19.4700959226
 10
2.7751095594
 20
19.4711062901
  0
LINE
  5
508
100
AcDbEntity
  8
RACCORDO
100
AcDbLine
 62
250
  6
CONTINUOUS
 10
2.6920090858
 20
19.3694010437
 11
2.6920090858
 21
17.9688338489
  0
LINE
  5
509
100
AcDbEntity
  8
RACCORDO
100
AcDbLine
 62
250
  6
CONTINUOUS
 10
2.6920090858
 20
-1.5884137279
 11
2.6920090858
 21
-2.9889809227
  0
LINE
  5
50A
100
AcDbEntity
  8
RACCORDO
100
AcDbLine
 62
7
  6
CONTINUOUS
 10
2.7762071457
 20
19.4606059158
 11
2.7762071457
 21
18.086026488
  0
LINE
  5
50B
100
AcDbEntity
  8
RACCORDO
100
AcDbLine
 62
7
  6
CONTINUOUS
 10
2.7762071457
 20
-1.4972088558
 11
2.7762071457
 21
-2.8717882836
  0
LWPOLYLINE
  5
50C
100
AcDbEntity
  8
RACCORDO
100
AcDbPolyline
 62
7
  6
CONTINUOUS
 90
7
 70
0
 10
2.7727954375
 20
-2.8979474927
 10
2.7733021111
 20
-2.8959592011
 10
2.7744489758
 20
-2.8906552771
 10
2.7753097656
 20
-2.8853087851
 10
2.7758839148
 20
-2.8799260924
 10
2.7761711412
 20
-2.8745115737
 10
2.7762071457
 20
-2.8717882426
  0
LWPOLYLINE
  5
50D
100
AcDbEntity
  8
RACCORDO
100
AcDbPolyline
 62
250
  6
CONTINUOUS
 90
27
 70
0
 10
2.7060204786
 20
-2.9787462577
 10
2.6934503553
 20
-3.0245463062
 10
2.6799787165
 20
-3.0695564194
 10
2.6656116558
 20
-3.1137562411
 10
2.6503556748
 20
-3.1571257732
 10
2.6342176713
 20
-3.1996454107
 10
2.6172049343
 20
-3.2412959487
 10
2.599325149
 20
-3.2820585669
 10
2.5805864085
 20
-3.3219148101
 10
2.5609972012
 20
-3.3608466242
 10
2.5405663982
 20
-3.3988363834
 10
2.519303231
 20
-3.4358669273
 10
2.4972172991
 20
-3.471921538
 10
2.4743185769
 20
-3.5069839275
 10
2.450617432
 20
-3.5410382162
 10
2.4261246048
 20
-3.5740689724
 10
2.4008511891
 20
-3.6060612398
 10
2.3748086017
 20
-3.6370005709
 10
2.3480085969
 20
-3.6668730014
 10
2.3204632769
 20
-3.695665037
 10
2.2921851152
 20
-3.7233636356
 10
2.2631869276
 20
-3.7499562438
 10
2.2334818489
 20
-3.7754308205
 10
2.203083297
 20
-3.799775863
 10
2.172004992
 20
-3.8229803833
 10
2.1402609694
 20
-3.8450338981
 10
2.1253825392
 20
-3.8548258341
  0
LWPOLYLINE
  5
50E
100
AcDbEntity
  8
RACCORDO
100
AcDbPolyline
 62
250
  6
CONTINUOUS
 90
34
 70
0
 10
0.4740393122
 20
-8.8622066936
 10
0.4942138937
 20
-8.8435270613
 10
0.5138668266
 20
-8.8240631348
 10
0.5329889459
 20
-8.8038240307
 10
0.5515711743
 20
-8.7828193283
 10
0.5696045706
 20
-8.7610590969
 10
0.5870805595
 20
-8.7385537269
 10
0.6039907852
 20
-8.7153139746
 10
0.6203271968
 20
-8.6913508858
 10
0.6360820874
 20
-8.6666758108
 10
0.6512479512
 20
-8.6413004956
 10
0.665817548
 20
-8.6152370275
 10
0.6797839895
 20
-8.5884977609
 10
0.6931406369
 20
-8.5610953974
 10
0.705881107
 20
-8.5330430002
 10
0.7179993345
 20
-8.5043539364
 10
0.7294895611
 20
-8.4750418519
 10
0.7403463124
 20
-8.4451206973
 10
0.7505644049
 20
-8.4146047416
 10
0.7601389885
 20
-8.383508519
 10
0.7690655184
 20
-8.3518468043
 10
0.777339732
 20
-8.3196346381
 10
0.7849577168
 20
-8.2868873337
 10
0.7919158583
 20
-8.253620465
 10
0.7982108091
 20
-8.2198498398
 10
0.8038396135
 20
-8.1855914533
 10
0.8087995987
 20
-8.150861644
 10
0.8130883255
 20
-8.1156770817
 10
0.8167037886
 20
-8.0800545914
 10
0.8196443137
 20
-8.0440110074
 10
0.8219084389
 20
-8.0075633221
 10
0.8234950849
 20
-7.9707288036
 10
0.8244035684
 20
-7.9335249949
 10
0.8246334974
 20
-7.8959695684
  0
LWPOLYLINE
  5
50F
100
AcDbEntity
  8
RACCORDO
100
AcDbPolyline
 62
7
  6
CONTINUOUS
 90
8
 70
0
 10
-20.8080007772
 20
-24.7075666848
 10
-20.7961136698
 20
-24.7002203584
 10
-20.7808492392
 20
-24.6865427194
 10
-20.7679470697
 20
-24.6693922122
 10
-20.7576278898
 20
-24.6490622537
 10
-20.7500682436
 20
-24.6259006602
 10
-20.7453974701
 20
-24.6003036966
 10
-20.7436954805
 20
-24.5727092919
  0
LWPOLYLINE
  5
510
100
AcDbEntity
  8
RACCORDO
100
AcDbPolyline
 62
250
  6
CONTINUOUS
 90
8
 70
0
 10
-20.2795110616
 20
-24.4329955038
 10
-20.2676049097
 20
-24.4256396366
 10
-20.2523777911
 20
-24.4119806539
 10
-20.2395869256
 20
-24.3948857994
 10
-20.2294511473
 20
-24.3746475425
 10
-20.2221438652
 20
-24.3516121318
 10
-20.217790097
 20
-24.3261736715
 10
-20.2164643295
 20
-24.2987673784
  0
LWPOLYLINE
  5
511
100
AcDbEntity
  8
RACCORDO
100
AcDbPolyline
 62
250
  6
CONTINUOUS
 90
8
 70
0
 10
-22.4170329042
 20
-25.4811637797
 10
-22.4020719644
 20
-25.4721719743
 10
-22.3867659041
 20
-25.4582721716
 10
-22.3738667745
 20
-25.4408563048
 10
-22.3636586358
 20
-25.4203756244
 10
-22.3562757445
 20
-25.3972972424
 10
-22.3517594415
 20
-25.3720193377
 10
-22.3501262104
 20
-25.3450055439
  0
LINE
  5
512
100
AcDbEntity
  8
RACCORDO
100
AcDbLine
 62
250
  6
CONTINUOUS
 10
-20.2164643295
 20
-24.2987673784
 11
-20.7436954805
 21
-24.5727092919
  0
LINE
  5
513
100
AcDbEntity
  8
RACCORDO
100
AcDbLine
 62
7
  6
CONTINUOUS
 10
-20.2795110616
 20
-24.4329955038
 11
-20.807989905
 21
-24.7075857008
  0
LINE
  5
514
100
AcDbEntity
  8
RACCORDO
100
AcDbLine
 62
7
  6
CONTINUOUS
 10
-20.8106019863
 20
-24.7088674373
 11
-20.8080007772
 21
-24.7075666848
  0
LINE
  5
515
100
AcDbEntity
  8
RACCORDO
100
AcDbLine
 62
250
  6
CONTINUOUS
 10
-19.6830353087
 20
-22.3607646538
 11
-21.3049354353
 21
-23.1438900269
  0
LINE
  5
516
100
AcDbEntity
  8
RACCORDO
100
AcDbLine
 62
250
  6
CONTINUOUS
 10
-20.7436954805
 20
-24.5727092919
 11
-22.3501262104
 21
-25.3450055439
  0
LINE
  5
517
100
AcDbEntity
  8
RACCORDO
100
AcDbLine
 62
7
  6
CONTINUOUS
 10
-20.8106019863
 20
-24.7088674373
 11
-22.4170329042
 21
-25.4811637797
  0
LINE
  5
518
100
AcDbEntity
  8
DRAFT
100
AcDbLine
 62
7
  6
CONTINUOUS
 10
-19.8167051194
 20
-22.6330120644
 11
-21.4280854174
 21
-23.3947115367
  0
LWPOLYLINE
  5
519
100
AcDbEntity
  8
RACCORDO
100
AcDbPolyline
 62
250
  6
CONTINUOUS
 90
13
 70
0
 10
-21.6368486018
 20
-23.9102366399
 10
-21.6614769167
 20
-23.920855006
 10
-21.6886535219
 20
-23.9297851085
 10
-21.7179185724
 20
-23.9368758371
 10
-21.7487768916
 20
-23.9420072056
 10
-21.7807063229
 20
-23.9450923781
 10
-21.8131665628
 20
-23.9460791443
 10
-21.8456083438
 20
-23.9449508068
 10
-21.8774827269
 20
-23.9417264582
 10
-21.9082503618
 20
-23.9364606574
 10
-21.9373906287
 20
-23.9292425074
 10
-21.9644104465
 20
-23.9201941464
 10
-21.9888526132
 20
-23.9094686814
  0
LWPOLYLINE
  5
51A
100
AcDbEntity
  8
RACCORDO
100
AcDbPolyline
 62
250
  6
CONTINUOUS
 90
13
 70
0
 10
-21.3049354353
 20
-23.1438900269
 10
-21.3296035147
 20
-23.1543468794
 10
-21.3567647349
 20
-23.1631239702
 10
-21.385964523
 20
-23.1700744637
 10
-21.4167142405
 20
-23.1750820992
 10
-21.4484992767
 20
-23.1780631208
 10
-21.4807876537
 20
-23.1789676955
 10
-21.5130390656
 20
-23.1777807551
 10
-21.5447138887
 20
-23.1745222274
 10
-21.5752821233
 20
-23.1692467076
 10
-21.6042323432
 20
-23.1620425381
 10
-21.631080247
 20
-23.1530303202
 10
-21.6553767232
 20
-23.1423608995
  0
LINE
  5
51B
100
AcDbEntity
  8
0
100
AcDbLine
 62
7
  6
CONTINUOUS
 10
-23.1832138756
 20
-23.0446089058
 11
-23.7587733763
 21
-23.2862054058
  0
LINE
  5
51C
100
AcDbEntity
  8
DRAFT
100
AcDbLine
 62
7
  6
CONTINUOUS
 10
-23.1832138756
 20
-23.0446089058
 11
-23.7587733763
 21
-23.2862054058
  0
LINE
  5
51D
100
AcDbEntity
  8
0
100
AcDbLine
 62
250
  6
CONTINUOUS
 10
-25.8014936832
 20
-24.9941507425
 11
-23.7587733763
 21
-24.1366997301
  0
LINE
  5
51E
100
AcDbEntity
  8
RACCORDO
100
AcDbLine
 62
250
  6
CONTINUOUS
 10
-25.8014936832
 20
-24.9941507425
 11
-23.7587733763
 21
-24.1366997301
  0
LINE
  5
51F
100
AcDbEntity
  8
0
100
AcDbLine
 62
7
  6
CONTINUOUS
 10
-23.90003913
 20
-24.4126310197
 11
-25.9554578012
 21
-25.2754122097
  0
LINE
  5
520
100
AcDbEntity
  8
RACCORDO
100
AcDbLine
 62
7
  6
CONTINUOUS
 10
-23.90003913
 20
-24.4126310197
 11
-25.9554578012
 21
-25.2754122097
  0
LWPOLYLINE
  5
521
100
AcDbEntity
  8
RACCORDO
100
AcDbPolyline
 62
7
  6
CONTINUOUS
 90
9
 70
0
 10
-4.9285958652
 20
23.6610646149
 10
-4.9347126057
 20
23.6626641126
 10
-4.9444828195
 20
23.6641969265
 10
-4.9548090149
 20
23.6646123709
 10
-4.9655962121
 20
23.6639105984
 10
-4.976559471
 20
23.6620920671
 10
-4.9876038117
 20
23.6591569295
 10
-4.9988242142
 20
23.6551050332
 10
-5.0102206785
 20
23.6499363779
  0
LINE
  5
522
100
AcDbEntity
  8
0
100
AcDbLine
 62
7
  6
CONTINUOUS
 10
-6.3216586639
 20
22.9942173852
 11
-6.7714033253
 21
23.1159652184
  0
LWPOLYLINE
  5
523
100
AcDbEntity
  8
RACCORDO
100
AcDbPolyline
 62
7
  6
CONTINUOUS
 90
28
 70
0
 10
-4.9286060014
 20
23.6610406625
 10
-5.037321348
 20
23.6923265083
 10
-5.1521763909
 20
23.7216801853
 10
-5.2694378149
 20
23.7480072555
 10
-5.3888109797
 20
23.7712693472
 10
-5.5100313514
 20
23.7914399
 10
-5.6328607208
 20
23.8084991753
 10
-5.7570095182
 20
23.8224230169
 10
-5.8821929813
 20
23.8331936859
 10
-6.0081734988
 20
23.8408010856
 10
-6.134659885
 20
23.8452344643
 10
-6.2613626079
 20
23.8464890189
 10
-6.3880443533
 20
23.8445642459
 10
-6.5144156231
 20
23.8394629109
 10
-6.6401852137
 20
23.8311936987
 10
-6.7651148131
 20
23.8197658233
 10
-6.8889136877
 20
23.805195991
 10
-7.01129844
 20
23.7875059694
 10
-7.1320468762
 20
23.7667117941
 10
-7.2508817973
 20
23.7428401941
 10
-7.3675176207
 20
23.7159251423
 10
-7.4817291938
 20
23.685990375
 10
-7.593244372
 20
23.6530732711
 10
-7.7017905684
 20
23.6172166363
 10
-7.80715746
 20
23.5784450187
 10
-7.9091042424
 20
23.5367922103
 10
-8.0073503798
 20
23.4923114358
 10
-8.101634441
 20
23.4450540464
  0
LINE
  5
524
100
AcDbEntity
  8
0
100
AcDbLine
 62
7
  6
CONTINUOUS
 10
-7.2663780721
 20
22.8684778449
 11
-7.9733470122
 21
23.221962315
  0
LINE
  5
525
100
AcDbEntity
  8
0
100
AcDbLine
 62
7
  6
CONTINUOUS
 10
-14.6909992746
 20
26.5807884462
 11
-15.3979682147
 21
26.9342729162
  0
LINE
  5
526
100
AcDbEntity
  8
0
100
AcDbLine
 62
7
  6
CONTINUOUS
 10
-6.7714033253
 20
23.1159652184
 11
-7.4783722654
 21
23.4694496884
  0
LINE
  5
527
100
AcDbEntity
  8
0
100
AcDbLine
 62
7
  6
CONTINUOUS
 10
-14.1960245277
 20
26.8282758196
 11
-14.9029934679
 21
27.1817602896
  0
LINE
  5
528
100
AcDbEntity
  8
DRAFT
100
AcDbLine
 62
7
  6
CONTINUOUS
 10
-15.6223623888
 20
28.0133844056
 11
-15.1575519091
 21
27.7809791658
  0
LINE
  5
529
100
AcDbEntity
  8
DRAFT
100
AcDbLine
 62
7
  6
CONTINUOUS
 10
-8.1977411863
 20
24.3010738044
 11
-7.7329307066
 21
24.0686685645
  0
LWPOLYLINE
  5
52A
100
AcDbEntity
  8
RACCORDO
100
AcDbPolyline
 62
250
  6
CONTINUOUS
 90
3
 70
0
 10
-11.4926482485
 20
26.9442933668
 10
-11.4681252581
 20
26.9237889884
 10
-11.4578291954
 20
26.914797587
  0
LWPOLYLINE
  5
52B
100
AcDbEntity
  8
RACCORDO
100
AcDbPolyline
 62
250
  6
CONTINUOUS
 90
4
 70
0
 10
-11.5862848476
 20
26.9379973584
 10
-11.5634244182
 20
26.9184186249
 10
-11.5408468799
 20
26.8980655784
 10
-11.5247193816
 20
26.8827824724
  0
LINE
  5
52C
100
AcDbEntity
  8
0
100
AcDbLine
 62
7
  6
CONTINUOUS
 10
-7.2663780721
 20
22.8684778449
 11
-7.0807484124
 21
22.6970457417
  0
LWPOLYLINE
  5
52D
100
AcDbEntity
  8
RACCORDO
100
AcDbPolyline
 62
7
  6
CONTINUOUS
 90
9
 70
0
 10
-12.3532170676
 20
27.3733752162
 10
-12.3593338082
 20
27.3749747139
 10
-12.3691040219
 20
27.3765075277
 10
-12.3794302174
 20
27.3769229721
 10
-12.3902174145
 20
27.3762211996
 10
-12.4011806735
 20
27.3744026683
 10
-12.4122250142
 20
27.3714675308
 10
-12.4234454167
 20
27.3674156344
 10
-12.4348418809
 20
27.3622469791
  0
LINE
  5
52E
100
AcDbEntity
  8
0
100
AcDbLine
 62
7
  6
CONTINUOUS
 10
-13.7462798664
 20
26.7065279864
 11
-14.1960245277
 21
26.8282758196
  0
LWPOLYLINE
  5
52F
100
AcDbEntity
  8
RACCORDO
100
AcDbPolyline
 62
7
  6
CONTINUOUS
 90
28
 70
0
 10
-12.3532272039
 20
27.3733512637
 10
-12.4619425505
 20
27.4046371095
 10
-12.5767975934
 20
27.4339907865
 10
-12.6940590174
 20
27.4603178567
 10
-12.8134321822
 20
27.4835799484
 10
-12.9346525538
 20
27.5037505012
 10
-13.0574819233
 20
27.5208097765
 10
-13.1816307207
 20
27.5347336181
 10
-13.3068141838
 20
27.5455042871
 10
-13.4327947013
 20
27.5531116868
 10
-13.5592810874
 20
27.5575450655
 10
-13.6859838103
 20
27.5587996202
 10
-13.8126655558
 20
27.5568748471
 10
-13.9390368256
 20
27.5517735121
 10
-14.0648064162
 20
27.5435043
 10
-14.1897360155
 20
27.5320764245
 10
-14.3135348901
 20
27.5175065923
 10
-14.4359196425
 20
27.4998165707
 10
-14.5566680787
 20
27.4790223953
 10
-14.6755029998
 20
27.4551507953
 10
-14.7921388232
 20
27.4282357435
 10
-14.9063503963
 20
27.3983009762
 10
-15.0178655744
 20
27.3653838723
 10
-15.1264117708
 20
27.3295272375
 10
-15.2317786624
 20
27.2907556199
 10
-15.3337254449
 20
27.2491028116
 10
-15.4319715823
 20
27.204622037
 10
-15.5262556435
 20
27.1573646476
  0
LWPOLYLINE
  5
530
100
AcDbEntity
  8
RACCORDO
100
AcDbPolyline
 62
7
  6
CONTINUOUS
 90
3
 70
0
 10
-4.9165551834
 20
23.6562468343
 10
-4.9254033937
 20
23.6600140819
 10
-4.9285958652
 20
23.6610646149
  0
LWPOLYLINE
  5
531
100
AcDbEntity
  8
RACCORDO
100
AcDbPolyline
 62
7
  6
CONTINUOUS
 90
3
 70
0
 10
-12.3411763859
 20
27.3685574355
 10
-12.3500245962
 20
27.3723246831
 10
-12.3532170676
 20
27.3733752162
  0
LINE
  5
532
100
AcDbEntity
  8
DRAFT
100
AcDbLine
 62
7
  6
CONTINUOUS
 10
-11.5298426582
 20
27.896008336
 11
-11.0384062721
 21
27.6502901429
  0
LINE
  5
533
100
AcDbEntity
  8
DRAFT
100
AcDbLine
 62
7
  6
CONTINUOUS
 10
-4.1052214557
 20
24.1836977348
 11
-3.6137850696
 21
23.9379795417
  0
LINE
  5
534
100
AcDbEntity
  8
RACCORDO
100
AcDbLine
 62
7
  6
CONTINUOUS
 10
-11.4926482485
 20
26.9442933668
 11
-11.4454972953
 21
26.9206999056
  0
LINE
  5
535
100
AcDbEntity
  8
RACCORDO
100
AcDbLine
 62
7
  6
CONTINUOUS
 10
-4.068027046
 20
23.2319827656
 11
-4.0208760929
 21
23.2083893044
  0
LWPOLYLINE
  5
536
100
AcDbEntity
  8
RACCORDO
100
AcDbPolyline
 62
7
  6
CONTINUOUS
 90
6
 70
0
 10
-11.9093030025
 20
27.1507068365
 10
-11.9993102319
 20
27.1964454682
 10
-12.0874968599
 20
27.2411002713
 10
-12.1738773033
 20
27.2846698214
 10
-12.2584371453
 20
27.3271555428
 10
-12.3411763859
 20
27.3685574355
  0
LWPOLYLINE
  5
537
100
AcDbEntity
  8
RACCORDO
100
AcDbPolyline
 62
7
  6
CONTINUOUS
 90
6
 70
0
 10
-4.4846818
 20
23.4383962353
 10
-4.5746890295
 20
23.484134867
 10
-4.6628756575
 20
23.52878967
 10
-4.7492561009
 20
23.5723592202
 10
-4.8338159429
 20
23.6148449416
 10
-4.9165551834
 20
23.6562468343
  0
LINE
  5
538
100
AcDbEntity
  8
RACCORDO
100
AcDbLine
 62
7
  6
CONTINUOUS
 10
-11.7236825713
 20
27.0559923291
 11
-11.9093030025
 21
27.1507068365
  0
LINE
  5
539
100
AcDbEntity
  8
RACCORDO
100
AcDbLine
 62
7
  6
CONTINUOUS
 10
-4.2990613688
 20
23.3436817279
 11
-4.4846818
 21
23.4383962353
  0
LWPOLYLINE
  5
53A
100
AcDbEntity
  8
ASSI
100
AcDbPolyline
 62
7
  6
CONTINUOUS
 90
21
 70
0
 10
-11.2684646126
 20
27.7809791658
 10
-11.2264756043
 20
27.7595200788
 10
-11.1854703302
 20
27.737629636
 10
-11.1454487903
 20
27.7153078374
 10
-11.1063928785
 20
27.6925436519
 10
-11.0683207008
 20
27.6693481105
 10
-11.031286575
 20
27.6457543065
 10
-10.9952919829
 20
27.6217616714
 10
-10.9603354426
 20
27.5973707737
 10
-10.926466827
 20
27.572616412
 10
-10.8936876888
 20
27.5474980675
 10
-10.8619964753
 20
27.5220162591
 10
-10.8314384004
 20
27.4962073416
 10
-10.8020150816
 20
27.4700708483
 10
-10.7737249014
 20
27.4436072461
 10
-10.7466082216
 20
27.4168542907
 10
-10.7206667173
 20
27.3898115691
 10
-10.6958987133
 20
27.3624794943
 10
-10.6723395464
 20
27.3348970611
 10
-10.6499909421
 20
27.3070639123
 10
-10.6468825383
 20
27.3029344969
  0
LWPOLYLINE
  5
53B
100
AcDbEntity
  8
ASSI
100
AcDbPolyline
 62
7
  6
CONTINUOUS
 90
21
 70
0
 10
-3.8438434101
 20
24.0686685645
 10
-3.8018544019
 20
24.0472094776
 10
-3.7608491278
 20
24.0253190348
 10
-3.7208275878
 20
24.0029972362
 10
-3.681771676
 20
23.9802330506
 10
-3.6436994983
 20
23.9570375093
 10
-3.6066653726
 20
23.9334437053
 10
-3.5706707804
 20
23.9094510702
 10
-3.5357142402
 20
23.8850601725
 10
-3.5018456245
 20
23.8603058108
 10
-3.4690664864
 20
23.8351874663
 10
-3.4373752729
 20
23.8097056578
 10
-3.406817198
 20
23.7838967404
 10
-3.3773938791
 20
23.7577602471
 10
-3.3491036989
 20
23.7312966449
 10
-3.3219870192
 20
23.7045436894
 10
-3.2960455148
 20
23.6775009678
 10
-3.2712775109
 20
23.650168893
 10
-3.247718344
 20
23.6225864599
 10
-3.2253697396
 20
23.594753311
 10
-3.2222613358
 20
23.5906238956
  0
LINE
  5
53C
100
AcDbEntity
  8
RACCORDO
100
AcDbLine
 62
7
  6
CONTINUOUS
 10
-11.5305923157
 20
26.9569610218
 11
-11.7236825713
 21
27.0559923291
  0
LINE
  5
53D
100
AcDbEntity
  8
RACCORDO
100
AcDbLine
 62
7
  6
CONTINUOUS
 10
-4.1059711133
 20
23.2446504206
 11
-4.2990613688
 21
23.3436817279
  0
LINE
  5
53E
100
AcDbEntity
  8
RACCORDO
100
AcDbLine
 62
7
  6
CONTINUOUS
 10
-11.5228338871
 20
26.9523745497
 11
-11.5305923157
 21
26.9569610218
  0
LINE
  5
53F
100
AcDbEntity
  8
RACCORDO
100
AcDbLine
 62
7
  6
CONTINUOUS
 10
-4.0982126846
 20
23.2400639485
 11
-4.1059711133
 21
23.2446504206
  0
LWPOLYLINE
  5
540
100
AcDbEntity
  8
RACCORDO
100
AcDbPolyline
 62
250
  6
CONTINUOUS
 90
3
 70
0
 10
-4.068027046
 20
23.2319827656
 10
-4.0435040557
 20
23.2114783872
 10
-4.0332079929
 20
23.2024869857
  0
LWPOLYLINE
  5
541
100
AcDbEntity
  8
RACCORDO
100
AcDbPolyline
 62
250
  6
CONTINUOUS
 90
4
 70
0
 10
-4.1616636452
 20
23.2256867571
 10
-4.1388032157
 20
23.2061080237
 10
-4.1162256774
 20
23.1857549772
 10
-4.1000981791
 20
23.1704718711
  0
LWPOLYLINE
  5
542
100
AcDbEntity
  8
RACCORDO
100
AcDbPolyline
 62
250
  6
CONTINUOUS
 90
46
 70
0
 10
1.105293697
 20
20.363549436
 10
1.1135517734
 20
20.3405199824
 10
1.1264712066
 20
20.301643459
 10
1.1386069447
 20
20.261947886
 10
1.1499564092
 20
20.2214030909
 10
1.1605055636
 20
20.1800356454
 10
1.1701678523
 20
20.1379835963
 10
1.1789330754
 20
20.0952626097
 10
1.1868009499
 20
20.0518597976
 10
1.1937053079
 20
20.0078746038
 10
1.1996493444
 20
19.963208029
 10
1.204622429
 20
19.9179644355
 10
1.2085484548
 20
19.8725556479
 10
1.2114162264
 20
19.8269623565
 10
1.2132476441
 20
19.7812205596
 10
1.214034246
 20
19.7358362635
 10
1.2137690537
 20
19.6908167837
 10
1.2124893405
 20
19.6461803829
 10
1.2102712081
 20
19.6024596662
 10
1.2071061609
 20
19.559640638
 10
1.2030491592
 20
19.5177674077
 10
1.1982882616
 20
19.4774684848
 10
1.1928565636
 20
19.4389425711
 10
1.1867820057
 20
19.4020241409
 10
1.180251405
 20
19.3667987234
 10
1.173323464
 20
19.3334097393
 10
1.165991142
 20
19.30173904
 10
1.1583358624
 20
19.2714767919
 10
1.1503804889
 20
19.2425926426
 10
1.1421368125
 20
19.2151325088
 10
1.1336614221
 20
19.1888974048
 10
1.1249720343
 20
19.1638789518
 10
1.1160759815
 20
19.1400961113
 10
1.1070092146
 20
19.1173888598
 10
1.0977682402
 20
19.0957243143
 10
1.0883745221
 20
19.0751426925
 10
1.0788983587
 20
19.0555925195
 10
1.0693221586
 20
19.0370494821
 10
1.0596770041
 20
19.0195435659
 10
1.0501044563
 20
19.003104377
 10
1.0406549059
 20
18.9878143077
 10
1.0312880446
 20
18.9735958167
 10
1.0220074603
 20
18.9602380131
 10
1.0128158896
 20
18.9476714542
 10
1.0037162029
 20
18.9359686006
 10
0.9947108391
 20
18.9251308594
  0
LWPOLYLINE
  5
543
100
AcDbEntity
  8
RACCORDO
100
AcDbPolyline
 62
7
  6
CONTINUOUS
 90
55
 70
0
 10
2.7751095604
 20
19.4711061956
 10
2.7654147283
 20
19.5157060796
 10
2.751950817
 20
19.5739957945
 10
2.7375893245
 20
19.6322934279
 10
2.7223391326
 20
19.6905734481
 10
2.7062085082
 20
19.7488136929
 10
2.6892049209
 20
19.8069951304
 10
2.6713400866
 20
19.8650851113
 10
2.6526206712
 20
19.9230686626
 10
2.6330454222
 20
19.9809528778
 10
2.612615217
 20
20.0387343983
 10
2.5913454863
 20
20.0963685436
 10
2.5692572559
 20
20.1538003103
 10
2.5463654175
 20
20.2109951469
 10
2.5226765164
 20
20.2679404496
 10
2.4982007408
 20
20.3246143782
 10
2.4729497264
 20
20.3809922866
 10
2.4469342326
 20
20.4370521409
 10
2.4201632204
 20
20.4927759882
 10
2.3926479236
 20
20.5481412447
 10
2.3644003573
 20
20.6031242964
 10
2.3354306397
 20
20.6577056452
 10
2.3057503752
 20
20.7118632118
 10
2.2753722185
 20
20.7655734953
 10
2.2443079758
 20
20.8188150098
 10
2.2125687989
 20
20.871567689
 10
2.1801688864
 20
20.9238068113
 10
2.1471250307
 20
20.9755043923
 10
2.1134568794
 20
21.0266293093
 10
2.0791719534
 20
21.0771695828
 10
2.0442684227
 20
21.1271257773
 10
2.0087511648
 20
21.1764871519
 10
1.9726414122
 20
21.2252203155
 10
1.9359616027
 20
21.2732919928
 10
1.8987252583
 20
21.3206818165
 10
1.8609470336
 20
21.3673683458
 10
1.8226519251
 20
21.4133183553
 10
1.7838680258
 20
21.4584969074
 10
1.7445973297
 20
21.5029002841
 10
1.7048249378
 20
21.546541605
 10
1.6645463847
 20
21.5894195145
 10
1.623794059
 20
21.6314931458
 10
1.582607958
 20
21.6727167745
 10
1.5410073671
 20
21.7130678937
 10
1.499003609
 20
21.75253215
 10
1.4566255808
 20
21.7910792755
 10
1.4139059291
 20
21.8286776293
 10
1.3708437192
 20
21.8653259051
 10
1.3274165259
 20
21.9010385002
 10
1.2836079058
 20
21.9358211073
 10
1.2394638958
 20
21.9696291622
 10
1.1950555642
 20
22.0024036856
 10
1.1504125292
 20
22.0341209435
 10
1.1055375314
 20
22.0647769085
 10
1.105293697
 20
22.0649368716
  0
LWPOLYLINE
  5
544
100
AcDbEntity
  8
RACCORDO
100
AcDbPolyline
 62
250
  6
CONTINUOUS
 90
24
 70
0
 10
-13.2267632132
 20
30.9376164066
 10
-13.2471819722
 20
30.947599813
 10
-13.2675938986
 20
30.9568371591
 10
-13.2879817274
 20
30.9653206317
 10
-13.3083282139
 20
30.9730430552
 10
-13.3286161486
 20
30.9799978979
 10
-13.3488283713
 20
30.986179277
 10
-13.3689477861
 20
30.9915819642
 10
-13.3889573752
 20
30.9962013898
 10
-13.4088402142
 20
31.0000336465
 10
-13.4285794854
 20
31.0030754929
 10
-13.4481584928
 20
31.0053243561
 10
-13.4675606761
 20
31.0067783339
 10
-13.4867696243
 20
31.0074361966
 10
-13.5057690898
 20
31.0072973878
 10
-13.5245430025
 20
31.0063620247
 10
-13.5430754828
 20
31.0046308986
 10
-13.5613508555
 20
31.0021054737
 10
-13.5793536626
 20
30.9987878861
 10
-13.5970686771
 20
30.9946809419
 10
-13.6144809148
 20
30.9897881148
 10
-13.6315756483
 20
30.9841135434
 10
-13.6483384181
 20
30.9776620274
 10
-13.6656479637
 20
30.9700193416
  0
LINE
  5
545
100
AcDbEntity
  8
0
100
AcDbLine
 62
7
  6
CONTINUOUS
 10
-11.6573733422
 20
29.9535003862
 11
-8.4546975168
 21
28.3521624735
  0
LINE
  5
546
100
AcDbEntity
  8
0
100
AcDbLine
 62
7
  6
CONTINUOUS
 10
-4.2327521398
 20
26.241189785
 11
-1.0300763143
 21
24.6398518723
  0
LINE
  5
547
100
AcDbEntity
  8
RACCORDO
100
AcDbLine
 62
250
  6
CONTINUOUS
 10
-0.1638071047
 20
24.4061383523
 11
-0.8262988751
 21
24.7373842375
  0
LINE
  5
548
100
AcDbEntity
  8
RACCORDO
100
AcDbLine
 62
250
  6
CONTINUOUS
 10
-5.1396502404
 20
26.8940599201
 11
-8.2509200776
 21
28.4496948387
  0
LINE
  5
549
100
AcDbEntity
  8
RACCORDO
100
AcDbLine
 62
250
  6
CONTINUOUS
 10
-12.5642714428
 20
30.6063705214
 11
-13.2267632132
 21
30.9376164066
  0
LINE
  5
54A
100
AcDbEntity
  8
RACCORDO
100
AcDbLine
 62
7
  6
CONTINUOUS
 10
0.2710657759
 20
24.4285016819
 11
-0.4789884901
 21
24.8035288149
  0
LINE
  5
54B
100
AcDbEntity
  8
RACCORDO
100
AcDbLine
 62
7
  6
CONTINUOUS
 10
-4.6172148643
 20
26.872642002
 11
-7.9036096925
 21
28.5158394161
  0
LINE
  5
54C
100
AcDbEntity
  8
RACCORDO
100
AcDbLine
 62
7
  6
CONTINUOUS
 10
-12.0418360668
 20
30.5849526032
 11
-12.7918903327
 21
30.9599797362
  0
LWPOLYLINE
  5
54D
100
AcDbEntity
  8
RACCORDO
100
AcDbPolyline
 62
250
  6
CONTINUOUS
 90
53
 70
0
 10
1.105293697
 20
21.9823487165
 10
1.133629463
 20
21.9611899085
 10
1.1769062281
 20
21.9276962141
 10
1.219967351
 20
21.8931858943
 10
1.2627933731
 20
21.8576745437
 10
1.3053649337
 20
21.8211782156
 10
1.3476627705
 20
21.7837134224
 10
1.3896677458
 20
21.745297115
 10
1.4313608596
 20
21.7059466703
 10
1.4727232578
 20
21.6656798833
 10
1.5137362328
 20
21.6245149663
 10
1.5543812326
 20
21.5824705403
 10
1.5946398779
 20
21.5395656178
 10
1.6344939696
 20
21.4958195941
 10
1.6739254907
 20
21.4512522447
 10
1.712916599
 20
21.4058837344
 10
1.7514496447
 20
21.3597346002
 10
1.7895071889
 20
21.3128257295
 10
1.8270720318
 20
21.2651783236
 10
1.8641272054
 20
21.2168139052
 10
1.9006559654
 20
21.1677543264
 10
1.9366417747
 20
21.1180217949
 10
1.9720683328
 20
21.0676388385
 10
2.0069196003
 20
21.0166282706
 10
2.041179834
 20
20.9650131369
 10
2.074833567
 20
20.9128167391
 10
2.1078655968
 20
20.8600626528
 10
2.1402609637
 20
20.8067747661
 10
2.172004987
 20
20.7529772277
 10
2.2030832918
 20
20.698694403
 10
2.2334818431
 20
20.64395081
 10
2.2631869217
 20
20.5887711552
 10
2.2921851101
 20
20.5331803581
 10
2.3204632732
 20
20.4772035956
 10
2.3480085939
 20
20.4208662386
 10
2.3748085984
 20
20.3641938042
 10
2.400851185
 20
20.3072118876
 10
2.4261246006
 20
20.2499462053
 10
2.4506174286
 20
20.1924226202
 10
2.4743185746
 20
20.1346671841
 10
2.4972172975
 20
20.0767060708
 10
2.5193032292
 20
20.018565529
 10
2.5405663957
 20
19.96027182
 10
2.5609971985
 20
19.9018512587
 10
2.5805864065
 20
19.8433302357
 10
2.5993251479
 20
19.7847352491
 10
2.6172049337
 20
19.726092844
 10
2.6342176706
 20
19.6674295698
 10
2.6503556736
 20
19.6087719308
 10
2.6656116544
 20
19.5501464186
 10
2.6799787154
 20
19.4915795354
 10
2.6934503546
 20
19.4330977816
 10
2.7060204786
 20
19.374727607
  0
LWPOLYLINE
  5
54E
100
AcDbEntity
  8
RACCORDO
100
AcDbPolyline
 62
250
  6
CONTINUOUS
 90
27
 70
0
 10
0.3215072424
 20
23.9275564121
 10
0.3064768113
 20
23.9522179132
 10
0.2910381628
 20
23.9765257369
 10
0.2752043553
 20
24.0004593229
 10
0.2589887815
 20
24.0239984276
 10
0.2424051569
 20
24.0471231408
 10
0.2254675085
 20
24.0698139031
 10
0.2081901626
 20
24.092051522
 10
0.1905877329
 20
24.1138171883
 10
0.1726751079
 20
24.135092492
 10
0.1544674388
 20
24.1558594378
 10
0.1359801259
 20
24.1761004605
 10
0.1172288066
 20
24.1957984396
 10
0.098229341
 20
24.214936714
 10
0.0789977996
 20
24.2334990961
 10
0.0595504488
 20
24.2514698852
 10
0.0399037378
 20
24.2688338813
 10
0.0200742844
 20
24.2855763972
 10
0.0000788608
 20
24.3016832717
 10
-0.0200656202
 20
24.3171408813
 10
-0.04034212
 20
24.3319361513
 10
-0.060733488
 20
24.3460565676
 10
-0.0812224767
 20
24.3594901866
 10
-0.1017917559
 20
24.372225646
 10
-0.1224239276
 20
24.3842521736
 10
-0.1431015404
 20
24.3955595971
 10
-0.1638071047
 20
24.4061383523
  0
LINE
  5
54F
100
AcDbEntity
  8
RACCORDO
100
AcDbLine
 62
250
  6
CONTINUOUS
 10
0.4104830217
 20
23.7742992349
 11
0.3215072424
 21
23.9275564121
  0
LINE
  5
550
100
AcDbEntity
  8
RACCORDO
100
AcDbLine
 62
7
  6
CONTINUOUS
 10
0.7633262705
 20
23.9073975924
 11
0.6889599917
 21
24.0356604505
  0
ARC
  5
551
100
AcDbEntity
  8
RACCORDO
100
AcDbCircle
 62
7
  6
CONTINUOUS
 10
-0.1761478196
 20
-8.1112785118
 40
1.0
100
AcDbArc
 50
297.8702635617
 51
305.9325291988
  0
ARC
  5
552
100
AcDbEntity
  8
RACCORDO
100
AcDbCircle
 62
7
  6
CONTINUOUS
 10
-0.1761478196
 20
23.5340744909
 40
1.0
100
AcDbArc
 50
30.1049527557
 51
63.4349488229
  0
ARC
  5
553
100
AcDbEntity
  8
RACCORDO
100
AcDbCircle
 62
7
  6
CONTINUOUS
 10
-13.2391039282
 20
30.0655525452
 40
1.0
100
AcDbArc
 50
63.4349373369
 51
115.2504241015
  0
ARC
  5
554
100
AcDbEntity
  8
RACCORDO
100
AcDbCircle
 62
7
  6
CONTINUOUS
 10
-23.8410742247
 20
17.0359161779
 40
0.25
100
AcDbArc
 50
179.9569802155
 51
243.4349488229
  0
ARC
  5
555
100
AcDbEntity
  8
RACCORDO
100
AcDbCircle
 62
7
  6
CONTINUOUS
 10
-20.3947769418
 20
17.779725341
 40
0.25
100
AcDbArc
 50
0.0061267308
 51
63.4349488229
  0
ARC
  5
556
100
AcDbEntity
  8
RACCORDO
100
AcDbCircle
 62
7
  6
CONTINUOUS
 10
-20.3947769418
 20
17.43408788
 40
0.25
100
AcDbArc
 50
320.7086036199
 51
359.9975948672
  0
ARC
  5
557
100
AcDbEntity
  8
RACCORDO
100
AcDbCircle
 62
7
  6
CONTINUOUS
 10
-21.7290101222
 20
18.4468419312
 40
0.25
100
AcDbArc
 50
63.4349488229
 51
115.718054267
  0
ARC
  5
558
100
AcDbEntity
  8
RACCORDO
100
AcDbCircle
 62
7
  6
CONTINUOUS
 10
-23.8410742247
 20
17.3702171051
 40
0.25
100
AcDbArc
 50
117.4585183989
 51
180.0
  0
ARC
  5
559
100
AcDbEntity
  8
RACCORDO
100
AcDbCircle
 62
7
  6
CONTINUOUS
 10
-22.5253535264
 20
16.3780558288
 40
0.25
100
AcDbArc
 50
243.4349488229
 51
258.162956935
  0
ARC
  5
55A
100
AcDbEntity
  8
RACCORDO
100
AcDbCircle
 62
7
  6
CONTINUOUS
 10
-35.8896716909
 20
23.060214911
 40
0.25
100
AcDbArc
 50
243.4340043262
 51
258.15935913
  0
ARC
  5
55B
100
AcDbEntity
  8
RACCORDO
100
AcDbCircle
 62
7
  6
CONTINUOUS
 10
-33.7590951062
 20
24.1162469622
 40
0.25
100
AcDbArc
 50
320.7086036199
 51
359.9975948672
  0
ARC
  5
55C
100
AcDbEntity
  8
RACCORDO
100
AcDbCircle
 62
7
  6
CONTINUOUS
 10
-33.7590951062
 20
24.4618844232
 40
0.25
100
AcDbArc
 50
0.0061267308
 51
63.4349488229
  0
ARC
  5
55D
100
AcDbEntity
  8
RACCORDO
100
AcDbCircle
 62
7
  6
CONTINUOUS
 10
-35.0933282866
 20
25.1290010134
 40
0.25
100
AcDbArc
 50
63.4340043262
 51
115.6749974607
  0
ARC
  5
55E
100
AcDbEntity
  8
RACCORDO
100
AcDbCircle
 62
7
  6
CONTINUOUS
 10
-37.2053923891
 20
24.0523761873
 40
0.25
100
AcDbArc
 50
117.4585183989
 51
180.0
  0
ARC
  5
55F
100
AcDbEntity
  8
RACCORDO
100
AcDbCircle
 62
7
  6
CONTINUOUS
 10
-37.2053923891
 20
23.7180752601
 40
0.25
100
AcDbArc
 50
179.9929865288
 51
243.4641450501
  0
ARC
  5
560
100
AcDbEntity
  8
RACCORDO
100
AcDbCircle
 62
7
  6
CONTINUOUS
 10
-23.8410742247
 20
-24.5979888887
 40
0.25
100
AcDbArc
 50
180.0
 51
243.4301254848
  0
ARC
  5
561
100
AcDbEntity
  8
RACCORDO
100
AcDbCircle
 62
7
  6
CONTINUOUS
 10
-20.3947769418
 20
-23.8655162594
 40
0.25
100
AcDbArc
 50
0.0
 51
63.517405372
  0
ARC
  5
562
100
AcDbEntity
  8
RACCORDO
100
AcDbCircle
 62
7
  6
CONTINUOUS
 10
-20.3947769418
 20
-24.2111537203
 40
0.25
100
AcDbArc
 50
297.4557558562
 51
359.9966537319
  0
ARC
  5
563
100
AcDbEntity
  8
RACCORDO
100
AcDbCircle
 62
7
  6
CONTINUOUS
 10
-22.5253535264
 20
-25.2558492378
 40
0.25
100
AcDbArc
 50
243.4340043262
 51
295.6749974607
  0
ELLIPSE
  5
564
100
AcDbEntity
  8
0
100
AcDbEllipse
 62
7
  6
CONTINUOUS
 10
-23.3246567742
 20
-5.2986548111
 30
0.0
 11
-0.0894323102
 21
0.1788913307
 31
0.0
 40
0.6125552124
 41
-2.255296188
 42
-0.6848044477
  0
ELLIPSE
  5
565
100
AcDbEntity
  8
0
100
AcDbEllipse
 62
7
  6
CONTINUOUS
 10
-24.112380623
 20
-23.9595000552
 30
0.0
 11
-0.2234618187
 21
0.4480306886
 31
0.0
 40
0.6116748051
 41
-3.1815309152
 42
-2.2548620396
  0
ELLIPSE
  5
566
100
AcDbEntity
  8
CURVE
100
AcDbEllipse
 62
250
  6
CONTINUOUS
 10
329.5923521873
 20
168.1669709389
 30
0.0
 11
499.3666179528
 21
308.6255427419
 31
0.0
 40
0.0815198604
 41
2.327856785
 42
2.3368599773
  0
ELLIPSE
  5
567
100
AcDbEntity
  8
CURVE
100
AcDbEllipse
 62
250
  6
CONTINUOUS
 10
307.6720419706
 20
179.1271260473
 30
0.0
 11
-370.8956999625
 21
600.1218488205
 31
0.0
 40
0.5587454355
 41
1.5424586217
 42
1.5514618139
  0
ELLIPSE
  5
568
100
AcDbEntity
  8
RACCORDO
100
AcDbEllipse
 62
7
  6
CONTINUOUS
 10
-23.3246567742
 20
-5.2986548111
 30
0.0
 11
-0.0894323102
 21
0.1788913307
 31
0.0
 40
0.6125552124
 41
-2.255296188
 42
-0.6848044477
  0
ELLIPSE
  5
569
100
AcDbEntity
  8
RACCORDO
100
AcDbEllipse
 62
7
  6
CONTINUOUS
 10
-24.112380623
 20
-23.9595000552
 30
0.0
 11
-0.2234618187
 21
0.4480306886
 31
0.0
 40
0.6116748051
 41
-3.1815309152
 42
-2.2548620396
  0
ELLIPSE
  5
56A
100
AcDbEntity
  8
0
100
AcDbEllipse
 62
7
  6
CONTINUOUS
 10
-39.0831885203
 20
21.0236153908
 30
0.0
 11
-0.2234618187
 21
0.4480306886
 31
0.0
 40
0.6116748051
 41
-0.6831523243
 42
0.0399382621
  0
ELLIPSE
  5
56B
100
AcDbEntity
  8
0
100
AcDbEllipse
 62
7
  6
CONTINUOUS
 10
-23.3246567742
 20
-4.7789868009
 30
0.0
 11
-0.0894803643
 21
0.1789340454
 31
0.0
 40
0.6121897086
 41
-3.1606090032
 42
-2.2557347926
  0
ELLIPSE
  5
56C
100
AcDbEntity
  8
0
100
AcDbEllipse
 62
7
  6
CONTINUOUS
 10
-24.112380623
 20
13.5382114421
 30
0.0
 11
-0.2230998035
 21
0.4477110033
 31
0.0
 40
0.6127700112
 41
-2.2535417632
 42
-0.6836588249
  0
ELLIPSE
  5
56D
100
AcDbEntity
  8
CURVE
100
AcDbEllipse
 62
250
  6
CONTINUOUS
 10
329.5923521873
 20
168.1669709389
 30
0.0
 11
-370.8956999625
 21
600.1218488205
 31
0.0
 40
0.5587454355
 41
1.4894518793
 42
1.4984550715
  0
ELLIPSE
  5
56E
100
AcDbEntity
  8
CURVE
100
AcDbEllipse
 62
250
  6
CONTINUOUS
 10
307.6720419706
 20
179.1271260473
 30
0.0
 11
499.3666179528
 21
308.6255427419
 31
0.0
 40
0.0815198604
 41
2.2748500427
 42
2.2838532349
  0
ELLIPSE
  5
56F
100
AcDbEntity
  8
RACCORDO
100
AcDbEllipse
 62
7
  6
CONTINUOUS
 10
-39.0831885203
 20
21.0236153908
 30
0.0
 11
-0.2234618187
 21
0.4480306886
 31
0.0
 40
0.6116748051
 41
-0.6831523243
 42
0.0399382621
  0
ELLIPSE
  5
570
100
AcDbEntity
  8
RACCORDO
100
AcDbEllipse
 62
7
  6
CONTINUOUS
 10
-23.3246567742
 20
-4.7789868009
 30
0.0
 11
-0.0894803643
 21
0.1789340454
 31
0.0
 40
0.6121897086
 41
-3.1606090032
 42
-2.2557347926
  0
ELLIPSE
  5
571
100
AcDbEntity
  8
RACCORDO
100
AcDbEllipse
 62
7
  6
CONTINUOUS
 10
-24.112380623
 20
13.5382114421
 30
0.0
 11
-0.2230998035
 21
0.4477110033
 31
0.0
 40
0.6127700112
 41
-2.2535417632
 42
-0.6836588249
  0
ELLIPSE
  5
572
100
AcDbEntity
  8
ASSI
100
AcDbEllipse
 62
7
  6
CONTINUOUS
 10
-26.4073962549
 20
23.9024552543
 30
0.0
 11
0.4513617548
 21
0.8923485464
 31
0.0
 40
0.6158912572
 41
0.0758582762
 42
0.678850188
  0
ELLIPSE
  5
573
100
AcDbEntity
  8
RACCORDO
100
AcDbEllipse
 62
7
  6
CONTINUOUS
 10
-27.195834832
 20
25.1071989059
 30
0.0
 11
0.9987332359
 21
0.6172510855
 31
0.0
 40
0.0815198604
 41
0.0503394217
 42
0.7176053907
  0
ELLIPSE
  5
574
100
AcDbEntity
  8
RACCORDO
100
AcDbEllipse
 62
7
  6
CONTINUOUS
 10
-15.2107949444
 20
-17.6486138869
 30
0.0
 11
0.9987332359
 21
0.6172510855
 31
0.0
 40
0.0815198604
 41
-2.3890806779
 42
-1.3954984365
  0
ELLIPSE
  5
575
100
AcDbEntity
  8
RACCORDO
100
AcDbEllipse
 62
7
  6
CONTINUOUS
 10
-31.3836103292
 20
22.002444793
 30
0.0
 11
0.499996712
 21
0.0035883639
 31
0.0
 40
0.5053247124
 41
2.3583274908
 42
3.0004394575
  0
ELLIPSE
  5
576
100
AcDbEntity
  8
RACCORDO
100
AcDbEllipse
 62
7
  6
CONTINUOUS
 10
-20.6010399587
 20
-23.0706686144
 30
0.0
 11
0.0907039967
 21
0.1782526758
 31
0.0
 40
0.6176975122
 41
-4.4357509152
 42
-4.0233115959
  0
ELLIPSE
  5
577
100
AcDbEntity
  8
RACCORDO
100
AcDbEllipse
 62
7
  6
CONTINUOUS
 10
-15.4869924499
 20
19.3964136675
 30
0.0
 11
0.499996712
 21
0.0035883639
 31
0.0
 40
0.5053247124
 41
-0.7715714568
 42
-0.0036265857
  0
ELLIPSE
  5
578
100
AcDbEntity
  8
RACCORDO
100
AcDbEllipse
 62
7
  6
CONTINUOUS
 10
-35.8249847276
 20
19.7769841079
 30
0.0
 11
-0.2236303276
 21
0.4472439726
 31
0.0
 40
0.6123267458
 41
-0.6846978779
 42
0.0095103873
  0
ELLIPSE
  5
579
100
AcDbEntity
  8
ASSI
100
AcDbEllipse
 62
7
  6
CONTINUOUS
 10
-20.2418742087
 20
20.8196942312
 30
0.0
 11
0.4431188453
 21
0.8964702268
 31
0.0
 40
0.6088373611
 41
6.35339983
 42
6.9563917418
  0
ELLIPSE
  5
57A
100
AcDbEntity
  8
RACCORDO
100
AcDbEllipse
 62
7
  6
CONTINUOUS
 10
-25.8722618522
 20
19.2467705545
 30
0.0
 11
0.499996712
 21
0.0035883639
 31
0.0
 40
0.5053247124
 41
-1.4368963025
 42
-0.7947843358
  0
ELLIPSE
  5
57B
100
AcDbEntity
  8
RACCORDO
100
AcDbEllipse
 62
7
  6
CONTINUOUS
 10
-25.8722618522
 20
18.030555569
 30
0.0
 11
0.4999863728
 21
0.0072295547
 31
0.0
 40
0.5106100819
 41
-2.3635775243
 42
-0.798540784
  0
ELLIPSE
  5
57C
100
AcDbEntity
  8
RACCORDO
100
AcDbEllipse
 62
7
  6
CONTINUOUS
 10
-31.3836103292
 20
20.7862298075
 30
0.0
 11
0.4999863728
 21
0.0072295547
 31
0.0
 40
0.5106100819
 41
3.1342096195
 42
3.9196077829
  0
ELLIPSE
  5
57D
100
AcDbEntity
  8
RACCORDO
100
AcDbEllipse
 62
7
  6
CONTINUOUS
 10
-15.4869924499
 20
20.3776152857
 30
0.0
 11
-0.3708957
 21
0.6001218488
 31
0.0
 40
0.5587454355
 41
-3.1744788413
 42
-2.4238399923
  0
ELLIPSE
  5
57E
100
AcDbEntity
  8
RACCORDO
100
AcDbEllipse
 62
7
  6
CONTINUOUS
 10
-15.4869924499
 20
-17.9282459238
 30
0.0
 11
0.499366618
 21
0.3086255427
 31
0.0
 40
0.0815198604
 41
6.2501518489
 42
7.0007906979
  0
ELLIPSE
  5
57F
100
AcDbEntity
  8
RACCORDO
100
AcDbEllipse
 62
7
  6
CONTINUOUS
 10
-25.7287982878
 20
22.5410759766
 30
0.0
 11
0.9999763657
 21
-0.0140528498
 31
0.0
 40
0.4892375088
 41
1.3158721744
 42
2.3630697256
  0
ELLIPSE
  5
580
100
AcDbEntity
  8
RACCORDO
100
AcDbEllipse
 62
7
  6
CONTINUOUS
 10
-20.6010399587
 20
16.0676857927
 30
0.0
 11
0.0907039967
 21
0.1782526758
 31
0.0
 40
0.6176975122
 41
2.2598737113
 42
3.8132167456
  0
ELLIPSE
  5
581
100
AcDbEntity
  8
RACCORDO
100
AcDbEllipse
 62
7
  6
CONTINUOUS
 10
-33.9653581232
 20
22.7498448749
 30
0.0
 11
0.0907039967
 21
0.1782526758
 31
0.0
 40
0.6176975122
 41
2.2598737113
 42
3.8132167456
  0
ELLIPSE
  5
582
100
AcDbEntity
  8
RACCORDO
100
AcDbEllipse
 62
7
  6
CONTINUOUS
 10
-25.697955652
 20
23.5441321643
 30
0.0
 11
0.4281808431
 21
-0.0060173033
 31
0.0
 40
0.4892375088
 41
-0.778522928
 42
0.0068752514
  0
ELLIPSE
  5
583
100
AcDbEntity
  8
RACCORDO
100
AcDbEllipse
 62
7
  6
CONTINUOUS
 10
-20.1426547165
 20
20.7664816966
 30
0.0
 11
0.4281808431
 21
-0.0060173033
 31
0.0
 40
0.4892375088
 41
-0.7727633415
 42
0.006875252
  0
ELLIPSE
  5
584
100
AcDbEntity
  8
RACCORDO
100
AcDbEllipse
 62
7
  6
CONTINUOUS
 10
-15.2107949444
 20
19.1146789621
 30
0.0
 11
-0.7417913999
 21
1.2002436976
 31
0.0
 40
0.5587454355
 41
5.2218102931
 42
6.2153925345
  0
ELLIPSE
  5
585
100
AcDbEntity
  8
RACCORDO
100
AcDbEllipse
 62
7
  6
CONTINUOUS
 10
-23.0603130791
 20
7.8276130866
 30
0.0
 11
-0.1341669799
 21
0.2683874974
 31
0.0
 40
0.6122670695
 41
-3.1563375501
 42
-2.2555020961
  0
ELLIPSE
  5
586
100
AcDbEntity
  8
RACCORDO
100
AcDbEllipse
 62
7
  6
CONTINUOUS
 10
-23.0603130791
 20
-15.4825926252
 30
0.0
 11
-0.1341309257
 21
0.268355469
 31
0.0
 40
0.612449815
 41
-2.2552827073
 42
-0.6846386796
  0
ELLIPSE
  5
587
100
AcDbEntity
  8
RACCORDO
100
AcDbEllipse
 62
7
  6
CONTINUOUS
 10
-23.0603130791
 20
3.6565687985
 30
0.0
 11
-0.1341309257
 21
0.268355469
 31
0.0
 40
0.612449815
 41
-2.2552827073
 42
-0.6846386796
  0
ELLIPSE
  5
588
100
AcDbEntity
  8
RACCORDO
100
AcDbEllipse
 62
7
  6
CONTINUOUS
 10
-23.0603130791
 20
-11.311548337
 30
0.0
 11
-0.1341669799
 21
0.2683874974
 31
0.0
 40
0.6122670695
 41
-3.1563375501
 42
-2.2555020961
  0
ELLIPSE
  5
589
100
AcDbEntity
  8
RACCORDO
100
AcDbEllipse
 62
7
  6
CONTINUOUS
 10
-22.8451010162
 20
-20.4501270725
 30
0.0
 11
-0.2236303276
 21
0.4472439726
 31
0.0
 40
0.6123267458
 41
-3.1511030552
 42
-2.2555703571
  0
ELLIPSE
  5
58A
100
AcDbEntity
  8
RACCORDO
100
AcDbEllipse
 62
7
  6
CONTINUOUS
 10
-22.8451010162
 20
13.2870422522
 30
0.0
 11
-0.223600295
 21
0.4472172769
 31
0.0
 40
0.6124181287
 41
-2.2554606976
 42
-0.6847405232
  0
ELLIPSE
  5
58B
100
AcDbEntity
  8
DRAFT
100
AcDbEllipse
 62
7
  6
CONTINUOUS
 10
-1.1515173803
 20
5.4060109842
 30
0.0
 11
0.223580612
 21
3.5195456206
 31
0.0
 40
0.0836791265
 41
-0.3593919751
 42
-0.3545563528
  0
ELLIPSE
  5
58C
100
AcDbEntity
  8
DRAFT
100
AcDbEllipse
 62
7
  6
CONTINUOUS
 10
-1.1515173803
 20
5.4060109842
 30
0.0
 11
0.223580612
 21
3.5195456206
 31
0.0
 40
0.0836791265
 41
-1.4883672035
 42
-1.4835315812
  0
ELLIPSE
  5
58D
100
AcDbEntity
  8
DRAFT
100
AcDbEllipse
 62
7
  6
CONTINUOUS
 10
-2.7612768011
 20
6.2108906946
 30
0.0
 11
1.4333469254
 21
2.9169050437
 31
0.0
 40
0.607010042
 41
-2.1781861264
 42
-1.4571765578
  0
ELLIPSE
  5
58E
100
AcDbEntity
  8
ASSI
100
AcDbEllipse
 62
7
  6
CONTINUOUS
 10
-3.1089679056
 20
5.7129848047
 30
0.0
 11
1.2128320138
 21
2.4681504216
 31
0.0
 40
0.607010042
 41
-3.0295766721
 42
-2.4610674593
  0
ELLIPSE
  5
58F
100
AcDbEntity
  8
DRAFT
100
AcDbEllipse
 62
7
  6
CONTINUOUS
 10
-2.7612768011
 20
6.2108906946
 30
0.0
 11
1.4333469254
 21
2.9169050437
 31
0.0
 40
0.607010042
 41
-0.3233657071
 42
-0.2490014806
  0
ELLIPSE
  5
590
100
AcDbEntity
  8
DRAFT
100
AcDbEllipse
 62
7
  6
CONTINUOUS
 10
-6.4601385005
 20
23.2275433226
 30
0.0
 11
2.7499831596
 21
-0.0194567514
 31
0.0
 40
0.4946372042
 41
2.3596941457
 42
2.9617455204
  0
ELLIPSE
  5
591
100
AcDbEntity
  8
DRAFT
100
AcDbEllipse
 62
7
  6
CONTINUOUS
 10
-13.884759703
 20
26.9398539239
 30
0.0
 11
2.7499831596
 21
-0.0194567514
 31
0.0
 40
0.4946372042
 41
2.3596941457
 42
2.9617455204
  0
ELLIPSE
  5
592
100
AcDbEntity
  8
RACCORDO
100
AcDbEllipse
 62
7
  6
CONTINUOUS
 10
-1.2468878805
 20
24.0694445213
 30
0.0
 11
0.7964780511
 21
0.7125399777
 31
0.0
 40
0.2888664458
 41
0.1139832133
 42
0.7812491238
  0
ELLIPSE
  5
593
100
AcDbEntity
  8
RACCORDO
100
AcDbEllipse
 62
7
  6
CONTINUOUS
 10
-8.671509083
 20
27.7817551226
 30
0.0
 11
0.7964780511
 21
0.7125399777
 31
0.0
 40
0.2888664458
 41
0.1139832133
 42
0.7812491238
  0
ELLIPSE
  5
594
100
AcDbEntity
  8
RACCORDO
100
AcDbEllipse
 62
7
  6
CONTINUOUS
 10
-27.3357137967
 20
20.7720514522
 30
0.0
 11
1.2141619185
 21
0.9541526469
 31
0.0
 40
0.2329077568
 41
0.1095198182
 42
0.114024621
  0
ELLIPSE
  5
595
100
AcDbEntity
  8
RACCORDO
100
AcDbEllipse
 62
7
  6
CONTINUOUS
 10
-4.7437426648
 20
25.8178719135
 30
0.0
 11
-0.309899001
 21
1.1085475855
 31
0.0
 40
0.6753891016
 41
5.3315131045
 42
6.4012160802
  0
ELLIPSE
  5
596
100
AcDbEntity
  8
RACCORDO
100
AcDbEllipse
 62
7
  6
CONTINUOUS
 10
-12.1683638673
 20
29.5301825147
 30
0.0
 11
-0.309899001
 21
1.1085475855
 31
0.0
 40
0.6753891016
 41
5.3315131045
 42
6.4012160802
  0
ELLIPSE
  5
597
100
AcDbEntity
  8
0
100
AcDbEllipse
 62
7
  6
CONTINUOUS
 10
-13.2130082608
 20
27.2685498402
 30
0.0
 11
2.7499831596
 21
-0.0194567514
 31
0.0
 40
0.4946372042
 41
0.0998377323
 42
2.3596941457
  0
ELLIPSE
  5
598
100
AcDbEntity
  8
0
100
AcDbEllipse
 62
7
  6
CONTINUOUS
 10
-5.7883870584
 20
23.556239239
 30
0.0
 11
2.7499831596
 21
-0.0194567514
 31
0.0
 40
0.4946372042
 41
0.0998377323
 42
2.3596941457
  0
ELLIPSE
  5
599
100
AcDbEntity
  8
ASSI
100
AcDbEllipse
 62
7
  6
CONTINUOUS
 10
-2.4430787495
 20
6.0517916688
 30
0.0
 11
1.4333469254
 21
2.9169050437
 31
0.0
 40
0.607010042
 41
-0.3282013295
 42
-0.0971457398
  0
ELLIPSE
  5
59A
100
AcDbEntity
  8
ASSI
100
AcDbEllipse
 62
7
  6
CONTINUOUS
 10
-2.4430787495
 20
6.0517916688
 30
0.0
 11
1.4333469254
 21
2.9169050437
 31
0.0
 40
0.607010042
 41
-1.8989976563
 42
-1.4523409355
  0
ENDSEC
  0
SECTION
  2
OBJECTS
  0
DICTIONARY
  5
C
100
AcDbDictionary
280
0
281
1
  3
ACAD_GROUP
350
D
  3
ACAD_MLINESTYLE
350
17
  3
ACAD_LAYOUT
350
1A
  3
ACAD_PLOTSETTINGS
350
19
  3
ACAD_PLOTSTYLENAME
350
E
  0
DICTIONARY
  5
D
102
{ACAD_REACTORS
330
C
102
}
100
AcDbDictionary
280
0
281
1
  0
ACDBDICTIONARYWDFLT
  5
E
102
{ACAD_REACTORS
330
C
102
}
100
AcDbDictionary
281
1
  3
Normal
350
F
100
AcDbDictionaryWithDefault
340
F
  0
DICTIONARY
  5
17
102
{ACAD_REACTORS
330
C
102
}
100
AcDbDictionary
280
0
281
1
  3
Standard
350
18
  0
DICTIONARY
  5
19
102
{ACAD_REACTORS
330
C
102
}
100
AcDbDictionary
281
1
  0
DICTIONARY
  5
1A
102
{ACAD_REACTORS
330
C
102
}
100
AcDbDictionary
281
1
  3
Model
350
59B
  3
Layout1
350
59C
  0
ACDBPLACEHOLDER
  5
F
102
{ACAD_REACTORS
330
E
102
}
  0
MLINESTYLE
  5
18
102
{ACAD_REACTORS
330
17
102
}
100
AcDbMlineStyle
  2
STANDARD
 70
0
  3

 62
256
 51
90.0
 52
90.0
 71
2
 49
0.5
 62
256
  6
BYLAYER
 49
-0.5
 62
256
  6
BYLAYER
  0
LAYOUT
  5
59B
102
{ACAD_REACTORS
330
1A
102
}
100
AcDbPlotSettings
  1

  2
none_device
  4
ISO_A4_(297.00_x_210.00_MM)
  6

 40
0.0
 41
0.0
 42
0.0
 43
0.0
 44
297.0
 45
210.0
 46
0.0
 47
0.0
 48
0.0
 49
0.0
140
0.0
141
0.0
142
1.0
143
1.0
 70
1024
 72
1
 73
0
 74
0
  7

 75
0
147
1.0
148
0.0
149
0.0
100
AcDbLayout
  1
Model
 70
0
 71
0
 10
0.0
 20
0.0
 11
297.0
 21
210.0
 12
0.0
 22
0.0
 32
0.0
 14
0.0
 24
0.0
 34
0.0
 15
0.0
 25
0.0
 35
0.0
146
0.0
 13
0.0
 23
0.0
 33
0.0
 16
1.0
 26
0.0
 36
0.0
 17
0.0
 27
1.0
 37
0.0
 76
0
330
219
345
0
346
0
  0
LAYOUT
  5
59C
102
{ACAD_REACTORS
330
1A
102
}
100
AcDbPlotSettings
  1

  2
none_device
  4
ISO_A4_(297.00_x_210.00_MM)
  6

 40
0.0
 41
0.0
 42
0.0
 43
0.0
 44
297.0
 45
210.0
 46
0.0
 47
0.0
 48
0.0
 49
0.0
140
0.0
141
0.0
142
1.0
143
1.0
 70
0
 72
1
 73
0
 74
0
  7

 75
0
147
1.0
148
0.0
149
0.0
100
AcDbLayout
  1
Layout1
 70
0
 71
1
 10
0.0
 20
0.0
 11
297.0
 21
210.0
 12
0.0
 22
0.0
 32
0.0
 14
0.0
 24
0.0
 34
0.0
 15
0.0
 25
0.0
 35
0.0
146
0.0
 13
0.0
 23
0.0
 33
0.0
 16
1.0
 26
0.0
 36
0.0
 17
0.0
 27
1.0
 37
0.0
 76
0
330
21A
345
0
346
0
  0
ENDSEC
  0
EOF
