  0
SECTION
  2
HEADER
  9
$ACADVER
  1
AC1024
  9
$DWGCODEPAGE
  3
ANSI_1252
  9
$EXTMAX
 10
558.8
 20
431.8
 30
0.0
  9
$EXTMIN
 10
0.0
 20
0.0
 30
0.0
  9
$LIMMIN
 10
0.0
 20
0.0
  9
$LIMMAX
 10
558.8
 20
431.8
  9
$VIEWCTR
 10
279.4
 20
215.9
  9
$VIEWSIZE
 40
431.8
  9
$CLAYER
  8
0
  9
$LTSCALE
 40
30.734
  9
$CELTYPE
  6
BYLAYER
  9
$DIMSCALE
 40
1.0
  9
$DIMASZ
 40
3.0
  9
$DIMEXO
 40
0.5
  9
$DIMDLI
 40
21.2344
  9
$DIMEXE
 40
1.5
  9
$DIMCEN
 40
5.0292
  9
$DIMLFAC
 40
1.0
  9
$DIMBLK
  1
_FILLED
  9
$DIMALT
 70
0
  9
$DIMALTF
 40
0.0393700787
  9
$DIMTXT
 40
3.0
  9
$DIMTOL
 70
1
  9
$DIMLIM
 70
0
  9
$DIMTFAC
 40
1.0
  9
$DIMTP
 40
0.01
  9
$DIMTM
 40
0.01
  9
$DIMGAP
 40
0.625
  9
$DIMDSEP
 70
44
  9
$AUNITS
 70
0
  9
$PDMODE
 70
3
  9
$PDSIZE
 40
3.0
  9
$HANDSEED
  5
4DF
  9
$TILEMODE
 70
1
  9
$MEASUREMENT
 70
1
  9
$INSUNITS
 70
4
  0
ENDSEC
  0
SECTION
  2
CLASSES
  0
CLASS
  1
ACDBDICTIONARYWDFLT
  2
AcDbDictionaryWithDefault
  3
AutoCAD 2000
 90
0
 91
1
280
0
281
0
  0
CLASS
  1
ACDBPLACEHOLDER
  2
AcDbPlaceHolder
  3
AutoCAD 2000
 90
0
 91
1
280
0
281
0
  0
CLASS
  1
LAYOUT
  2
AcDbLayout
  3
AutoCAD 2000
 90
0
 91
0
280
0
281
0
  0
ENDSEC
  0
SECTION
  2
TABLES
  0
TABLE
  2
VPORT
  5
8
100
AcDbSymbolTable
 70
2
  0
VPORT
  5
1F4
100
AcDbSymbolTableRecord
100
AcDbViewportTableRecord
  2
*ACTIVE
 70
0
 10
0.0
 20
0.0
 11
1.0
 21
1.0
 12
279.4
 22
215.9
 13
0.0
 23
0.0
 14
1.0
 24
1.0
 15
0.0
 25
0.0
 16
0.0
 26
0.0
 36
1.0
 17
0.0
 27
0.0
 37
0.0
 40
431.8
 41
1.2941176471
 42
50.0
 43
0.0
 44
0.0
 50
0.0
 51
0.0
 71
0
 72
100
 73
1
 74
1
 75
0
 76
0
 77
0
 78
0
  0
ENDTAB
  0
TABLE
  2
LTYPE
  5
5
100
AcDbSymbolTable
 70
6
  0
LTYPE
  5
14
100
AcDbSymbolTableRecord
100
AcDbLinetypeTableRecord
  2
BYBLOCK
 70
0
  3

 72
65
 73
0
 40
0.0
  0
LTYPE
  5
15
100
AcDbSymbolTableRecord
100
AcDbLinetypeTableRecord
  2
BYLAYER
 70
0
  3

 72
65
 73
0
 40
0.0
  0
LTYPE
  5
16
100
AcDbSymbolTableRecord
100
AcDbLinetypeTableRecord
  2
CONTINUOUS
 70
64
  3
Solid line
 72
65
 73
0
 40
0.0
  0
LTYPE
  5
1F5
100
AcDbSymbolTableRecord
100
AcDbLinetypeTableRecord
  2
CENTER
 70
64
  3
____ _ ____ _ ____ _ ____ _ ____ _ ____ _ ____
 72
65
 73
4
 40
0.6
 49
0.375
 74
0
 49
-0.075
 74
0
 49
0.075
 74
0
 49
-0.075
 74
0
  0
LTYPE
  5
1F6
100
AcDbSymbolTableRecord
100
AcDbLinetypeTableRecord
  2
HIDDEN
 70
64
  3
- - - - - - - - - - - - - - - - - - - -
 72
65
 73
2
 40
0.2
 49
0.1
 74
0
 49
-0.1
 74
0
  0
LTYPE
  5
1F7
100
AcDbSymbolTableRecord
100
AcDbLinetypeTableRecord
  2
PHANTOM
 70
64
  3
_____ _ _ _____ _ _ _____ _ _ _____
 72
65
 73
6
 40
0.8
 49
0.45
 74
0
 49
-0.05
 74
0
 49
0.1
 74
0
 49
-0.05
 74
0
 49
0.1
 74
0
 49
-0.05
 74
0
  0
LTYPE
  5
1F8
100
AcDbSymbolTableRecord
100
AcDbLinetypeTableRecord
  2
DOT
 70
64
  3
. . . . . . . . . . . . . . . . . . . .
 72
65
 73
2
 40
0.2
 49
0.1
 74
0
 49
-0.1
 74
0
  0
LTYPE
  5
1F9
100
AcDbSymbolTableRecord
100
AcDbLinetypeTableRecord
  2
DASHED
 70
64
  3
- - - - - - - - - - - - - - - - - - - -
 72
65
 73
2
 40
0.2
 49
0.1
 74
0
 49
-0.1
 74
0
  0
ENDTAB
  0
TABLE
  2
LAYER
  5
2
100
AcDbSymbolTable
 70
36
  0
LAYER
  5
10
100
AcDbSymbolTableRecord
100
AcDbLayerTableRecord
  2
0
 70
0
 62
7
  6
CONTINUOUS
370
-3
390
F
  0
LAYER
  5
1FA
100
AcDbSymbolTableRecord
100
AcDbLayerTableRecord
  2
DEFAULT_1
 70
0
 62
7
  6
CENTER
370
-3
390
F
  0
LAYER
  5
1FB
100
AcDbSymbolTableRecord
100
AcDbLayerTableRecord
  2
DEFAULT_2
 70
0
 62
7
  6
HIDDEN
370
-3
390
F
  0
LAYER
  5
1FC
100
AcDbSymbolTableRecord
100
AcDbLayerTableRecord
  2
DEFAULT_3
 70
0
 62
7
  6
PHANTOM
370
-3
390
F
  0
LAYER
  5
1FD
100
AcDbSymbolTableRecord
100
AcDbLayerTableRecord
  2
206140620
 70
0
 62
7
  6
CONTINUOUS
370
-3
390
F
  0
LAYER
  5
1FE
100
AcDbSymbolTableRecord
100
AcDbLayerTableRecord
  2
268140580
 70
0
 62
7
  6
CONTINUOUS
370
-3
390
F
  0
LAYER
  5
1FF
100
AcDbSymbolTableRecord
100
AcDbLayerTableRecord
  2
284140580
 70
0
 62
7
  6
CONTINUOUS
370
-3
390
F
  0
LAYER
  5
200
100
AcDbSymbolTableRecord
100
AcDbLayerTableRecord
  2
290140580
 70
0
 62
7
  6
CONTINUOUS
370
-3
390
F
  0
LAYER
  5
201
100
AcDbSymbolTableRecord
100
AcDbLayerTableRecord
  2
290140600
 70
0
 62
7
  6
CONTINUOUS
370
-3
390
F
  0
LAYER
  5
202
100
AcDbSymbolTableRecord
100
AcDbLayerTableRecord
  2
340016100
 70
0
 62
7
  6
CONTINUOUS
370
-3
390
F
  0
LAYER
  5
203
100
AcDbSymbolTableRecord
100
AcDbLayerTableRecord
  2
712140660
 70
0
 62
7
  6
CONTINUOUS
370
-3
390
F
  0
LAYER
  5
204
100
AcDbSymbolTableRecord
100
AcDbLayerTableRecord
  2
715140040
 70
0
 62
7
  6
CONTINUOUS
370
-3
390
F
  0
LAYER
  5
205
100
AcDbSymbolTableRecord
100
AcDbLayerTableRecord
  2
ASSI
 70
0
 62
7
  6
CONTINUOUS
370
-3
390
F
  0
LAYER
  5
206
100
AcDbSymbolTableRecord
100
AcDbLayerTableRecord
  2
COLOR5
 70
0
 62
7
  6
CONTINUOUS
370
-3
390
F
  0
LAYER
  5
207
100
AcDbSymbolTableRecord
100
AcDbLayerTableRecord
  2
COORDINATE
 70
0
 62
7
  6
CONTINUOUS
370
-3
390
F
  0
LAYER
  5
208
100
AcDbSymbolTableRecord
100
AcDbLayerTableRecord
  2
COORD_ORIGINE
 70
0
 62
7
  6
CONTINUOUS
370
-3
390
F
  0
LAYER
  5
209
100
AcDbSymbolTableRecord
100
AcDbLayerTableRecord
  2
COPY-PUBBLISH
 70
0
 62
7
  6
CONTINUOUS
370
-3
390
F
  0
LAYER
  5
20A
100
AcDbSymbolTableRecord
100
AcDbLayerTableRecord
  2
CORPO_INCISO
 70
0
 62
7
  6
CONTINUOUS
370
-3
390
F
  0
LAYER
  5
20B
100
AcDbSymbolTableRecord
100
AcDbLayerTableRecord
  2
CORPO_STAMPATO
 70
0
 62
7
  6
CONTINUOUS
370
-3
390
F
  0
LAYER
  5
20C
100
AcDbSymbolTableRecord
100
AcDbLayerTableRecord
  2
COSMETICHE
 70
0
 62
7
  6
CONTINUOUS
370
-3
390
F
  0
LAYER
  5
20D
100
AcDbSymbolTableRecord
100
AcDbLayerTableRecord
  2
CURVA_CENTRALE
 70
0
 62
7
  6
CONTINUOUS
370
-3
390
F
  0
LAYER
  5
20E
100
AcDbSymbolTableRecord
100
AcDbLayerTableRecord
  2
CURVE
 70
0
 62
7
  6
CONTINUOUS
370
-3
390
F
  0
LAYER
  5
20F
100
AcDbSymbolTableRecord
100
AcDbLayerTableRecord
  2
DRAFT
 70
0
 62
7
  6
CONTINUOUS
370
-3
390
F
  0
LAYER
  5
210
100
AcDbSymbolTableRecord
100
AcDbLayerTableRecord
  2
IGES_INCISIONI
 70
0
 62
7
  6
CONTINUOUS
370
-3
390
F
  0
LAYER
  5
211
100
AcDbSymbolTableRecord
100
AcDbLayerTableRecord
  2
INCISIONI_LASER
 70
0
 62
7
  6
CONTINUOUS
370
-3
390
F
  0
LAYER
  5
212
100
AcDbSymbolTableRecord
100
AcDbLayerTableRecord
  2
INTF_1
 70
0
 62
7
  6
CONTINUOUS
370
-3
390
F
  0
LAYER
  5
213
100
AcDbSymbolTableRecord
100
AcDbLayerTableRecord
  2
INTF_11
 70
0
 62
7
  6
CONTINUOUS
370
-3
390
F
  0
LAYER
  5
214
100
AcDbSymbolTableRecord
100
AcDbLayerTableRecord
  2
INTF_12
 70
0
 62
7
  6
CONTINUOUS
370
-3
390
F
  0
LAYER
  5
215
100
AcDbSymbolTableRecord
100
AcDbLayerTableRecord
  2
INTF_2
 70
0
 62
7
  6
CONTINUOUS
370
-3
390
F
  0
LAYER
  5
216
100
AcDbSymbolTableRecord
100
AcDbLayerTableRecord
  2
INTF_RED
 70
0
 62
7
  6
CONTINUOUS
370
-3
390
F
  0
LAYER
  5
217
100
AcDbSymbolTableRecord
100
AcDbLayerTableRecord
  2
INTF_YELLOW
 70
0
 62
7
  6
CONTINUOUS
370
-3
390
F
  0
LAYER
  5
218
100
AcDbSymbolTableRecord
100
AcDbLayerTableRecord
  2
NOTE
 70
0
 62
7
  6
CONTINUOUS
370
-3
390
F
  0
LAYER
  5
219
100
AcDbSymbolTableRecord
100
AcDbLayerTableRecord
  2
PIANI
 70
0
 62
7
  6
CONTINUOUS
370
-3
390
F
  0
LAYER
  5
21A
100
AcDbSymbolTableRecord
100
AcDbLayerTableRecord
  2
PIANI_CONTATTI
 70
0
 62
7
  6
CONTINUOUS
370
-3
390
F
  0
LAYER
  5
21B
100
AcDbSymbolTableRecord
100
AcDbLayerTableRecord
  2
PIANI_ORIGINE
 70
0
 62
7
  6
CONTINUOUS
370
-3
390
F
  0
LAYER
  5
21C
100
AcDbSymbolTableRecord
100
AcDbLayerTableRecord
  2
PIANI_RIFERIMENTO
 70
0
 62
7
  6
CONTINUOUS
370
-3
390
F
  0
LAYER
  5
21D
100
AcDbSymbolTableRecord
100
AcDbLayerTableRecord
  2
PIANI_SFORMI
 70
0
 62
7
  6
CONTINUOUS
370
-3
390
F
  0
LAYER
  5
21E
100
AcDbSymbolTableRecord
100
AcDbLayerTableRecord
  2
PUNTI
 70
0
 62
7
  6
CONTINUOUS
370
-3
390
F
  0
LAYER
  5
21F
100
AcDbSymbolTableRecord
100
AcDbLayerTableRecord
  2
RACCORDO
 70
0
 62
7
  6
CONTINUOUS
370
-3
390
F
  0
LAYER
  5
220
100
AcDbSymbolTableRecord
100
AcDbLayerTableRecord
  2
RGB__255__255__255__
 70
0
 62
7
  6
CONTINUOUS
370
-3
390
F
  0
LAYER
  5
221
100
AcDbSymbolTableRecord
100
AcDbLayerTableRecord
  2
SMUSSO
 70
0
 62
7
  6
CONTINUOUS
370
-3
390
F
  0
LAYER
  5
222
100
AcDbSymbolTableRecord
100
AcDbLayerTableRecord
  2
SNAPLINE
 70
0
 62
7
  6
CONTINUOUS
370
-3
390
F
  0
LAYER
  5
223
100
AcDbSymbolTableRecord
100
AcDbLayerTableRecord
  2
SUPERFICI
 70
0
 62
7
  6
CONTINUOUS
370
-3
390
F
  0
LAYER
  5
224
100
AcDbSymbolTableRecord
100
AcDbLayerTableRecord
  2
TRACCIABILITA
 70
0
 62
7
  6
CONTINUOUS
370
-3
390
F
  0
LAYER
  5
225
100
AcDbSymbolTableRecord
100
AcDbLayerTableRecord
  2
TRASH
 70
0
 62
7
  6
CONTINUOUS
370
-3
390
F
  0
LAYER
  5
226
100
AcDbSymbolTableRecord
100
AcDbLayerTableRecord
  2
WHITE
 70
0
 62
7
  6
CONTINUOUS
370
-3
390
F
  0
LAYER
  5
227
100
AcDbSymbolTableRecord
100
AcDbLayerTableRecord
  2
XSEC_DATUMS
 70
0
 62
7
  6
CONTINUOUS
370
-3
390
F
  0
ENDTAB
  0
TABLE
  2
STYLE
  5
3
100
AcDbSymbolTable
 70
1
  0
STYLE
  5
11
100
AcDbSymbolTableRecord
100
AcDbTextStyleTableRecord
  2
STANDARD
 70
0
 40
0.0
 41
0.8
 50
0.0
 71
0
 42
0.2
  3
txt
  4

  0
STYLE
  5
228
100
AcDbSymbolTableRecord
100
AcDbTextStyleTableRecord
  2
TEXTSTYLE_1
 70
0
 40
0.0
 41
0.8
 50
0.0
 71
0
 42
0.2
  3
gdt
  4

  0
ENDTAB
  0
TABLE
  2
VIEW
  5
6
100
AcDbSymbolTable
 70
0
  0
ENDTAB
  0
TABLE
  2
UCS
  5
7
100
AcDbSymbolTable
 70
0
  0
ENDTAB
  0
TABLE
  2
APPID
  5
9
100
AcDbSymbolTable
 70
1
  0
APPID
  5
229
100
AcDbSymbolTableRecord
100
AcDbRegAppTableRecord
  2
ACAD
 70
0
  0
ENDTAB
  0
TABLE
  2
BLOCK_RECORD
  5
1
100
AcDbSymbolTable
 70
0
  0
BLOCK_RECORD
  5
22A
100
AcDbSymbolTableRecord
100
AcDbBlockTableRecord
  2
*Model_Space
  0
BLOCK_RECORD
  5
22B
100
AcDbSymbolTableRecord
100
AcDbBlockTableRecord
  2
*Paper_Space
  0
BLOCK_RECORD
  5
22C
100
AcDbSymbolTableRecord
100
AcDbBlockTableRecord
  2
_FILLED
  0
ENDTAB
  0
TABLE
  2
DIMSTYLE
  5
A
100
AcDbSymbolTable
 70
1
100
AcDbDimStyleTable
 71
0
  0
DIMSTYLE
105
22D
100
AcDbSymbolTableRecord
100
AcDbDimStyleTableRecord
  2
STANDARD
 70
0
  3

  4

 40
1.0
 41
3.0
 42
0.5
 43
0.38
 44
1.5
 45
0.0
 46
0.0
 47
0.01
 48
0.01
140
3.0
141
0.09
142
0.0
143
25.4
144
1.0
145
0.0
146
1.0
147
0.625
 71
1
 72
0
 73
0
 74
0
 75
0
 76
0
 77
1
 78
8
 79
2
170
0
171
1
172
0
173
0
174
0
175
0
176
0
177
0
178
0
270
2
179
2
271
2
272
2
273
2
274
2
275
0
280
0
281
0
282
0
283
1
284
8
285
0
286
0
287
3
288
0
340
11
278
44
341
22C
342
22C
343
22C
344
22C
  0
ENDTAB
  0
ENDSEC
  0
SECTION
  2
BLOCKS
  0
BLOCK
  5
20
100
AcDbEntity
  8
0
100
AcDbBlockBegin
  2
*Model_Space
 70
0
 10
0.0
 20
0.0
 30
0.0
  3
*Model_Space
  1

  0
ENDBLK
  5
21
100
AcDbEntity
  8
0
100
AcDbBlockEnd
  0
BLOCK
  5
1C
100
AcDbEntity
  8
0
100
AcDbBlockBegin
  2
*Paper_Space
 70
0
 10
0.0
 20
0.0
 30
0.0
  3
*Paper_Space
  1

  0
ENDBLK
  5
1D
100
AcDbEntity
  8
0
100
AcDbBlockEnd
  0
BLOCK
  5
22E
100
AcDbEntity
  8
0
100
AcDbBlockBegin
  2
_FILLED
 70
64
 10
0.0
 20
0.0
  3
_FILLED
  1

  0
SOLID
  5
22F
100
AcDbEntity
  8
0
  6
BYBLOCK
 62
0
100
AcDbTrace
 10
0.0
 20
0.0
 11
-1.0
 21
0.3166666667
 12
-1.0
 22
-0.3166666667
 13
-1.0
 23
-0.3166666667
  0
ENDBLK
  5
230
100
AcDbEntity
  8
0
  6
BYBLOCK
 62
0
100
AcDbBlockEnd
  0
ENDSEC
  0
SECTION
  2
ENTITIES
  0
LWPOLYLINE
  5
231
100
AcDbEntity
  8
268140580
100
AcDbPolyline
 62
250
  6
CONTINUOUS
 90
28
 70
0
 10
-16.2515564867
 20
23.9863612241
 10
-16.2618944214
 20
23.9809323618
 10
-16.2722022643
 20
23.9747787138
 10
-16.2824447481
 20
23.967921334
 10
-16.2925868297
 20
23.960383684
 10
-16.3025938091
 20
23.952191553
 10
-16.3124314487
 20
23.9433729693
 10
-16.3220660904
 20
23.9339581046
 10
-16.3314647703
 20
23.9239791707
 10
-16.340595332
 20
23.9134703091
 10
-16.3494265366
 20
23.9024674748
 10
-16.3579281692
 20
23.8910083123
 10
-16.3660711425
 20
23.8791320279
 10
-16.3738275963
 20
23.8668792548
 10
-16.3811709929
 20
23.8542919142
 10
-16.3880762079
 20
23.8414130722
 10
-16.3945196159
 20
23.828286792
 10
-16.4004791716
 20
23.8149579836
 10
-16.4059344851
 20
23.8014722499
 10
-16.4108668917
 20
23.7878757305
 10
-16.415259516
 20
23.7742149443
 10
-16.4190973289
 20
23.7605366298
 10
-16.4223672001
 20
23.7468875858
 10
-16.4250579419
 20
23.7333145106
 10
-16.4271603484
 20
23.7198638429
 10
-16.4286672265
 20
23.7065816024
 10
-16.4295734205
 20
23.6935132326
 10
-16.4298758301
 20
23.6807034453
  0
LINE
  5
232
100
AcDbEntity
  8
268140580
100
AcDbLine
 62
7
  6
CONTINUOUS
 10
-16.3629783122
 20
23.9936503964
 11
-14.2416579687
 21
25.0316375005
  0
LINE
  5
233
100
AcDbEntity
  8
268140580
100
AcDbLine
 62
250
  6
CONTINUOUS
 10
-16.2515564867
 20
23.9863612241
 11
-14.1302361431
 21
25.0243483282
  0
LWPOLYLINE
  5
234
100
AcDbEntity
  8
268140580
100
AcDbPolyline
 62
250
  6
CONTINUOUS
 90
14
 70
0
 10
-14.2416579687
 20
25.0316375005
 10
-14.2344582371
 20
25.034798825
 10
-14.2267842424
 20
25.037430265
 10
-14.218849711
 20
25.0394300485
 10
-14.2106764023
 20
25.0407926872
 10
-14.2022867261
 20
25.0415144415
 10
-14.193703689
 20
25.0415933285
 10
-14.1849508349
 20
25.0410291294
 10
-14.1760521592
 20
25.039823389
 10
-14.1670320698
 20
25.0379794124
 10
-14.157915329
 20
25.035502263
 10
-14.1487269465
 20
25.0323987415
 10
-14.13949211
 20
25.0286773603
 10
-14.1302361431
 20
25.0243483282
  0
LWPOLYLINE
  5
235
100
AcDbEntity
  8
268140580
100
AcDbPolyline
 62
250
  6
CONTINUOUS
 90
14
 70
0
 10
-16.3629783122
 20
23.9936503964
 10
-16.3557578407
 20
23.9968198223
 10
-16.3480848499
 20
23.9994490145
 10
-16.34015151
 20
24.0014468136
 10
-16.3319795655
 20
24.0028077437
 10
-16.3235914152
 20
24.0035280746
 10
-16.3150100505
 20
24.003605832
 10
-16.3062589923
 20
24.0030408027
 10
-16.2973622266
 20
24.0018345355
 10
-16.2883441388
 20
23.9999903365
 10
-16.279229447
 20
23.9975132607
 10
-16.2700431338
 20
23.9944100975
 10
-16.2608103782
 20
23.9906893526
 10
-16.2515564867
 20
23.9863612241
  0
LWPOLYLINE
  5
236
100
AcDbEntity
  8
290140600
100
AcDbPolyline
 62
7
  6
CONTINUOUS
 90
19
 70
0
 10
-19.4160719451
 20
20.4010042817
 10
-19.4676091428
 20
20.3694202182
 10
-19.5542316071
 20
20.3092136789
 10
-19.6374084939
 20
20.2424220452
 10
-19.7169952262
 20
20.1694679862
 10
-19.7928545519
 20
20.0907676567
 10
-19.8647089717
 20
20.0068164014
 10
-19.932385207
 20
19.9180111125
 10
-19.9956612996
 20
19.8247591034
 10
-20.0541255528
 20
19.7277314438
 10
-20.1075743039
 20
19.6273680339
 10
-20.1557661475
 20
19.524086649
 10
-20.1983330876
 20
19.4186490219
 10
-20.2350702806
 20
19.3115113943
 10
-20.2657415831
 20
19.2030962518
 10
-20.2900733665
 20
19.0940673583
 10
-20.3078353018
 20
18.9848635077
 10
-20.3188073689
 20
18.8758331443
 10
-20.3218835671
 20
18.8153280152
  0
LWPOLYLINE
  5
237
100
AcDbEntity
  8
290140580
100
AcDbPolyline
 62
7
  6
CONTINUOUS
 90
19
 70
0
 10
-19.4160719451
 20
20.4010042817
 10
-19.4676091428
 20
20.3694202182
 10
-19.5542316071
 20
20.3092136789
 10
-19.6374084939
 20
20.2424220452
 10
-19.7169952262
 20
20.1694679862
 10
-19.7928545519
 20
20.0907676567
 10
-19.8647089717
 20
20.0068164014
 10
-19.932385207
 20
19.9180111125
 10
-19.9956612996
 20
19.8247591034
 10
-20.0541255528
 20
19.7277314438
 10
-20.1075743039
 20
19.6273680339
 10
-20.1557661475
 20
19.524086649
 10
-20.1983330876
 20
19.4186490219
 10
-20.2350702806
 20
19.3115113943
 10
-20.2657415831
 20
19.2030962518
 10
-20.2900733665
 20
19.0940673583
 10
-20.3078353018
 20
18.9848635077
 10
-20.3188073689
 20
18.8758331443
 10
-20.3218835671
 20
18.8153280152
  0
LINE
  5
238
100
AcDbEntity
  8
268140580
100
AcDbLine
 62
7
  6
CONTINUOUS
 10
-16.1267374552
 20
22.4622146209
 11
-15.7959923536
 21
22.6550693091
  0
LINE
  5
239
100
AcDbEntity
  8
268140580
100
AcDbLine
 62
250
  6
CONTINUOUS
 10
-15.9396152351
 20
22.4554566732
 11
-15.7959923536
 21
22.5392019679
  0
LINE
  5
23A
100
AcDbEntity
  8
290140600
100
AcDbLine
 62
7
  6
CONTINUOUS
 10
-19.4161923766
 20
20.400938781
 11
-17.4319911133
 21
21.5579098564
  0
LINE
  5
23B
100
AcDbEntity
  8
290140580
100
AcDbLine
 62
7
  6
CONTINUOUS
 10
-19.4161923766
 20
20.400938781
 11
-17.4319911133
 21
21.5579098564
  0
LINE
  5
23C
100
AcDbEntity
  8
290140600
100
AcDbLine
 62
250
  6
CONTINUOUS
 10
-19.1828383292
 20
20.3921713878
 11
-17.1980883382
 21
21.5494624217
  0
LINE
  5
23D
100
AcDbEntity
  8
290140580
100
AcDbLine
 62
250
  6
CONTINUOUS
 10
-19.1828383292
 20
20.3921713878
 11
-17.1980883382
 21
21.5494624217
  0
LWPOLYLINE
  5
23E
100
AcDbEntity
  8
268140580
100
AcDbPolyline
 62
250
  6
CONTINUOUS
 90
15
 70
0
 10
-13.3186059928
 20
22.5977482558
 10
-13.3086263936
 20
22.6030371352
 10
-13.2992787243
 20
22.6086071971
 10
-13.2905946141
 20
22.6144395939
 10
-13.2826034469
 20
22.6205145902
 10
-13.2753322619
 20
22.62681163
 10
-13.268805662
 20
22.6333094058
 10
-13.2630457308
 20
22.6399859311
 10
-13.2580719574
 20
22.6468186144
 10
-13.2539011709
 20
22.653784336
 10
-13.2505474835
 20
22.660859526
 10
-13.2480222425
 20
22.668020244
 10
-13.2463339917
 20
22.6752422607
 10
-13.2454884433
 20
22.6825011388
 10
-13.2453826881
 20
22.6861366034
  0
LWPOLYLINE
  5
23F
100
AcDbEntity
  8
268140580
100
AcDbPolyline
 62
250
  6
CONTINUOUS
 90
16
 70
0
 10
-12.6114992117
 20
24.0469391074
 10
-12.6025110683
 20
24.0516742651
 10
-12.594024329
 20
24.0566408544
 10
-12.5860631714
 20
24.0618257381
 10
-12.5786488836
 20
24.0672163123
 10
-12.5718046232
 20
24.0727970958
 10
-12.5655541019
 20
24.0785493837
 10
-12.5599156539
 20
24.0844560612
 10
-12.5549032719
 20
24.0905022021
 10
-12.5505305782
 20
24.096671412
 10
-12.5468095487
 20
24.1029469137
 10
-12.5437505372
 20
24.1093113852
 10
-12.5413620532
 20
24.1157471792
 10
-12.539650659
 20
24.1222365606
 10
-12.5386210056
 20
24.1287618203
 10
-12.538275907
 20
24.135327455
  0
LWPOLYLINE
  5
240
100
AcDbEntity
  8
268140580
100
AcDbPolyline
 62
250
  6
CONTINUOUS
 90
16
 70
0
 10
-12.6114992117
 20
23.7013016464
 10
-12.6024897006
 20
23.7060486682
 10
-12.5939894166
 20
23.7110249452
 10
-12.5860216584
 20
23.7162168375
 10
-12.578608265
 20
23.7216101147
 10
-12.571769556
 20
23.727189994
 10
-12.5655242759
 20
23.7329411816
 10
-12.5598895425
 20
23.7388479137
 10
-12.5548808003
 20
23.7448940003
 10
-12.5505117779
 20
23.7510628697
 10
-12.5467944504
 20
23.7573376134
 10
-12.5437390068
 20
23.7637010327
 10
-12.5413538218
 20
23.7701356859
 10
-12.5396454331
 20
23.7766239361
 10
-12.5386185233
 20
23.7831479995
 10
-12.538275907
 20
23.789689994
  0
LINE
  5
241
100
AcDbEntity
  8
268140580
100
AcDbLine
 62
250
  6
CONTINUOUS
 10
-12.7867332589
 20
24.3525968861
 11
-14.9080536024
 21
23.3146097819
  0
LINE
  5
242
100
AcDbEntity
  8
268140580
100
AcDbLine
 62
250
  6
CONTINUOUS
 10
-12.6114992117
 20
24.0469391074
 11
-14.7328195552
 21
23.0089520032
  0
LWPOLYLINE
  5
243
100
AcDbEntity
  8
290140600
100
AcDbPolyline
 62
250
  6
CONTINUOUS
 90
8
 70
0
 10
-19.4160739706
 20
20.4010077614
 10
-19.3906009343
 20
20.4132435565
 10
-19.3600938744
 20
20.4221354776
 10
-19.3274445281
 20
20.4260685609
 10
-19.293010193
 20
20.4249997648
 10
-19.2571677008
 20
20.4189407857
 10
-19.2203092931
 20
20.4079579298
 10
-19.1828383292
 20
20.3921713878
  0
LWPOLYLINE
  5
244
100
AcDbEntity
  8
290140580
100
AcDbPolyline
 62
250
  6
CONTINUOUS
 90
8
 70
0
 10
-19.4160739706
 20
20.4010077614
 10
-19.3906009343
 20
20.4132435565
 10
-19.3600938744
 20
20.4221354776
 10
-19.3274445281
 20
20.4260685609
 10
-19.293010193
 20
20.4249997648
 10
-19.2571677008
 20
20.4189407857
 10
-19.2203092931
 20
20.4079579298
 10
-19.1828383292
 20
20.3921713878
  0
LWPOLYLINE
  5
245
100
AcDbEntity
  8
268140580
100
AcDbPolyline
 62
250
  6
CONTINUOUS
 90
31
 70
0
 10
-14.7328195552
 20
23.0089520032
 10
-14.7423135989
 20
23.0044472477
 10
-14.7522661528
 20
23.0001971057
 10
-14.7626499374
 20
22.9962132265
 10
-14.7734364918
 20
22.9925065298
 10
-14.7845962505
 20
22.9890871754
 10
-14.7960986256
 20
22.9859645353
 10
-14.8079120897
 20
22.9831471686
 10
-14.8200042631
 20
22.9806427975
 10
-14.8323420019
 20
22.9784582863
 10
-14.8448914892
 20
22.9765996225
 10
-14.8576183278
 20
22.9750719007
 10
-14.8704876343
 20
22.9738793083
 10
-14.8834641347
 20
22.9730251139
 10
-14.8965122615
 20
22.972511659
 10
-14.9095962505
 20
22.9723403508
 10
-14.9226802396
 20
22.972511659
 10
-14.9357283663
 20
22.9730251139
 10
-14.9487048668
 20
22.9738793083
 10
-14.9615741732
 20
22.9750719007
 10
-14.9743010118
 20
22.9765996225
 10
-14.9868504991
 20
22.9784582863
 10
-14.9991882379
 20
22.9806427975
 10
-15.0112804113
 20
22.9831471686
 10
-15.0230938755
 20
22.9859645353
 10
-15.0345962505
 20
22.9890871754
 10
-15.0457560093
 20
22.9925065298
 10
-15.0565425636
 20
22.9962132265
 10
-15.0669263483
 20
23.0001971057
 10
-15.0768789021
 20
23.0044472477
 10
-15.0863729458
 20
23.0089520032
  0
LWPOLYLINE
  5
246
100
AcDbEntity
  8
268140580
100
AcDbPolyline
 62
250
  6
CONTINUOUS
 90
31
 70
0
 10
-14.7328195552
 20
22.6406414746
 10
-14.742302936
 20
22.6361415198
 10
-14.752246718
 20
22.6318944468
 10
-14.7626240659
 20
22.6279120976
 10
-14.7734079502
 20
22.6242052702
 10
-14.7845681942
 20
22.6207847472
 10
-14.7960712156
 20
22.6176609908
 10
-14.807884253
 20
22.6148428379
 10
-14.819976087
 20
22.6123376778
 10
-14.8323138886
 20
22.6101523259
 10
-14.8448640681
 20
22.6082927686
 10
-14.8575920288
 20
22.6067641679
 10
-14.8704625624
 20
22.6055707658
 10
-14.8834402635
 20
22.6047158404
 10
-14.8964896717
 20
22.6042017229
 10
-14.9095750439
 20
22.6040298227
 10
-14.9226605277
 20
22.6042006143
 10
-14.9357102272
 20
22.6047136324
 10
-14.9486883337
 20
22.6055674707
 10
-14.9615592568
 20
22.6067597871
 10
-14.9742877205
 20
22.6082873135
 10
-14.9868388288
 20
22.6101458619
 10
-14.999178191
 20
22.6123303407
 10
-15.0112719584
 20
22.6148347584
 10
-15.0230869213
 20
22.6176522352
 10
-15.0345906584
 20
22.6207750325
 10
-15.0457516729
 20
22.6241945933
 10
-15.0565394187
 20
22.6279015555
 10
-15.0669243369
 20
22.6318857627
 10
-15.0768779417
 20
22.6361362867
 10
-15.0863729458
 20
22.6406414746
  0
LWPOLYLINE
  5
247
100
AcDbEntity
  8
268140580
100
AcDbPolyline
 62
250
  6
CONTINUOUS
 90
13
 70
0
 10
-12.7867332589
 20
24.3525968861
 10
-12.7765146181
 20
24.357234737
 10
-12.7663353329
 20
24.3611300413
 10
-12.7562294654
 20
24.3642697646
 10
-12.7462308317
 20
24.3666434007
 10
-12.7363728894
 20
24.3682430069
 10
-12.726688625
 20
24.3690632307
 10
-12.717210444
 20
24.3691013274
 10
-12.7079700625
 20
24.3683571696
 10
-12.6989984005
 20
24.3668332472
 10
-12.6903254791
 20
24.3645346598
 10
-12.6819803196
 20
24.3614690988
 10
-12.6764725081
 20
24.3589342528
  0
LINE
  5
248
100
AcDbEntity
  8
268140580
100
AcDbLine
 62
250
  6
CONTINUOUS
 10
-13.1418292976
 20
23.0611366034
 11
-12.6114992117
 21
23.7013016464
  0
LINE
  5
249
100
AcDbEntity
  8
268140580
100
AcDbLine
 62
7
  6
CONTINUOUS
 10
-13.1260869548
 20
22.9900369579
 11
-12.5957568689
 21
23.6302020009
  0
LINE
  5
24A
100
AcDbEntity
  8
268140580
100
AcDbLine
 62
7
  6
CONTINUOUS
 10
-13.1455274709
 20
22.1832171203
 11
-14.025712774
 21
21.686628755
  0
LWPOLYLINE
  5
24B
100
AcDbEntity
  8
268140580
100
AcDbPolyline
 62
250
  6
CONTINUOUS
 90
11
 70
0
 10
-13.3186059928
 20
22.2701203116
 10
-13.3086264203
 20
22.2754091761
 10
-13.2992787719
 20
22.2809792229
 10
-13.2905946771
 20
22.2868116047
 10
-13.28260352
 20
22.2928865867
 10
-13.2753323403
 20
22.2991836131
 10
-13.2688057414
 20
22.3056813766
 10
-13.2630458071
 20
22.3123578909
 10
-13.2580720273
 20
22.3191905648
 10
-13.2539012316
 20
22.3261562786
 10
-13.2505475327
 20
22.3332314627
  0
LINE
  5
24C
100
AcDbEntity
  8
268140580
100
AcDbLine
 62
7
  6
CONTINUOUS
 10
-13.2854517976
 20
22.1134923285
 11
-13.138126049
 21
22.1871552028
  0
LINE
  5
24D
100
AcDbEntity
  8
268140580
100
AcDbLine
 62
7
  6
CONTINUOUS
 10
-5.2851128944
 20
25.3280131888
 11
-11.7276157352
 21
22.1853035785
  0
LINE
  5
24E
100
AcDbEntity
  8
268140580
100
AcDbLine
 62
7
  6
CONTINUOUS
 10
-10.9160649951
 20
21.7963813556
 11
-5.0825191067
 21
24.6177545583
  0
LWPOLYLINE
  5
24F
100
AcDbEntity
  8
268140580
100
AcDbPolyline
 62
250
  6
CONTINUOUS
 90
13
 70
0
 10
-13.1771846366
 20
22.3444026043
 10
-13.1831970383
 20
22.3415530039
 10
-13.1892277877
 20
22.3390102022
 10
-13.1952656329
 20
22.3367835545
 10
-13.2012992081
 20
22.3348819161
 10
-13.2073165436
 20
22.3333137721
 10
-13.2133051006
 20
22.3320871052
 10
-13.2192600064
 20
22.3312082909
 10
-13.2251612379
 20
22.3306857519
 10
-13.2309742516
 20
22.3305254374
 10
-13.2366847793
 20
22.330728369
 10
-13.2422843007
 20
22.3312948841
 10
-13.2434695975
 20
22.3314960161
  0
LWPOLYLINE
  5
250
100
AcDbEntity
  8
268140580
100
AcDbPolyline
 62
250
  6
CONTINUOUS
 90
28
 70
0
 10
-14.025712774
 20
22.2441948652
 10
-14.0362905029
 20
22.239205079
 10
-14.0474305965
 20
22.2345312547
 10
-14.0590953602
 20
22.2301892073
 10
-14.0712453242
 20
22.2261936288
 10
-14.0838393769
 20
22.222558039
 10
-14.0968349039
 20
22.2192947395
 10
-14.1101879325
 20
22.2164147723
 10
-14.1238532803
 20
22.2139278824
 10
-14.1377847081
 20
22.2118424846
 10
-14.1519350762
 20
22.2101656351
 10
-14.1662565045
 20
22.208903008
 10
-14.1807005336
 20
22.2080588756
 10
-14.1952182896
 20
22.2076360941
 10
-14.209760649
 20
22.2076360941
 10
-14.224278405
 20
22.2080588756
 10
-14.2387224342
 20
22.208903008
 10
-14.2530438624
 20
22.2101656351
 10
-14.2671942306
 20
22.2118424846
 10
-14.2811256584
 20
22.2139278824
 10
-14.2947910062
 20
22.2164147723
 10
-14.3081440348
 20
22.2192947395
 10
-14.3211395618
 20
22.222558039
 10
-14.3337336144
 20
22.2261936288
 10
-14.3458835784
 20
22.2301892073
 10
-14.3575483421
 20
22.2345312547
 10
-14.3686884357
 20
22.239205079
 10
-14.3792661646
 20
22.2441948652
  0
LINE
  5
251
100
AcDbEntity
  8
CORPO_STAMPATO
100
AcDbLine
 62
7
  6
CONTINUOUS
 10
-3.0266427608
 20
25.7755107243
 11
-4.3900925287
 21
25.1325115909
  0
LINE
  5
252
100
AcDbEntity
  8
CORPO_STAMPATO
100
AcDbLine
 62
250
  6
CONTINUOUS
 10
-2.5877580103
 20
25.7431077893
 11
-4.1437149556
 21
25.0093228044
  0
LWPOLYLINE
  5
253
100
AcDbEntity
  8
CORPO_STAMPATO
100
AcDbPolyline
 62
250
  6
CONTINUOUS
 90
26
 70
0
 10
-2.5877580103
 20
25.7431077893
 10
-2.5684854058
 20
25.752010051
 10
-2.5492362936
 20
25.7602572456
 10
-2.5300249872
 20
25.7678432392
 10
-2.5108657795
 20
25.7747623866
 10
-2.4917729096
 20
25.7810095446
 10
-2.472760552
 20
25.7865800725
 10
-2.4538428248
 20
25.7914698289
 10
-2.4350338158
 20
25.7956751675
 10
-2.416347549
 20
25.7991929509
 10
-2.3977979325
 20
25.8020205614
 10
-2.3793987465
 20
25.8041558993
 10
-2.3611636703
 20
25.8055973768
 10
-2.343106262
 20
25.8063439218
 10
-2.3252399508
 20
25.8063949787
 10
-2.3075780243
 20
25.8057505094
 10
-2.2901336167
 20
25.8044109934
 10
-2.2729196988
 20
25.8023774264
 10
-2.2559490709
 20
25.7996513209
 10
-2.2392343524
 20
25.7962347038
 10
-2.2227879722
 20
25.7921301158
 10
-2.2066221599
 20
25.787340609
 10
-2.1907489364
 20
25.781869745
 10
-2.175180105
 20
25.7757215918
 10
-2.1599272426
 20
25.7689007212
 10
-2.1528851297
 20
25.7654711189
  0
LWPOLYLINE
  5
254
100
AcDbEntity
  8
290140580
100
AcDbPolyline
 62
7
  6
CONTINUOUS
 90
12
 70
0
 10
-4.9054836112
 20
-25.0897965618
 10
-4.8684189141
 20
-25.1073317507
 10
-4.7939191148
 20
-25.1365605397
 10
-4.7164753445
 20
-25.1591935708
 10
-4.6364755178
 20
-25.1750115653
 10
-4.5540415782
 20
-25.1838286397
 10
-4.4696203009
 20
-25.1854201161
 10
-4.3836941301
 20
-25.1796230575
 10
-4.2963013518
 20
-25.1662309511
 10
-4.2076829693
 20
-25.1450042051
 10
-4.1184134938
 20
-25.1158386813
 10
-4.0700363166
 20
-25.0967270696
  0
LWPOLYLINE
  5
255
100
AcDbEntity
  8
290140600
100
AcDbPolyline
 62
7
  6
CONTINUOUS
 90
12
 70
0
 10
-4.9054836112
 20
-25.0897965618
 10
-4.8684189141
 20
-25.1073317507
 10
-4.7939191148
 20
-25.1365605397
 10
-4.7164753445
 20
-25.1591935708
 10
-4.6364755178
 20
-25.1750115653
 10
-4.5540415782
 20
-25.1838286397
 10
-4.4696203009
 20
-25.1854201161
 10
-4.3836941301
 20
-25.1796230575
 10
-4.2963013518
 20
-25.1662309511
 10
-4.2076829693
 20
-25.1450042051
 10
-4.1184134938
 20
-25.1158386813
 10
-4.0700363166
 20
-25.0967270696
  0
LINE
  5
256
100
AcDbEntity
  8
290140580
100
AcDbLine
 62
7
  6
CONTINUOUS
 10
-4.9043733296
 20
-25.0903531721
 11
-19.7909877177
 21
-17.647045978
  0
LINE
  5
257
100
AcDbEntity
  8
290140600
100
AcDbLine
 62
7
  6
CONTINUOUS
 10
-4.9043733296
 20
-25.0903531721
 11
-19.7909877177
 21
-17.647045978
  0
LINE
  5
258
100
AcDbEntity
  8
290140580
100
AcDbLine
 62
250
  6
CONTINUOUS
 10
-5.2978415153
 20
-24.3297577509
 11
-20.1754042041
 21
-16.8909764065
  0
LINE
  5
259
100
AcDbEntity
  8
290140600
100
AcDbLine
 62
250
  6
CONTINUOUS
 10
-5.2978415153
 20
-24.3297577509
 11
-20.1754042041
 21
-16.8909764065
  0
LWPOLYLINE
  5
25A
100
AcDbEntity
  8
290140580
100
AcDbPolyline
 62
250
  6
CONTINUOUS
 90
13
 70
0
 10
-19.7909877728
 20
-17.6470459505
 10
-19.8470411116
 20
-17.6147757582
 10
-19.898854617
 20
-17.5763594598
 10
-19.9468692691
 20
-17.5316334868
 10
-19.9908522342
 20
-17.4808055986
 10
-20.0305700812
 20
-17.4241344502
 10
-20.0658199304
 20
-17.3619122728
 10
-20.0964233958
 20
-17.2944588297
 10
-20.1222330737
 20
-17.2221020105
 10
-20.143128536
 20
-17.1451867907
 10
-20.1590063573
 20
-17.064088105
 10
-20.1697832604
 20
-16.9792114771
 10
-20.1754042041
 20
-16.8909764065
  0
LWPOLYLINE
  5
25B
100
AcDbEntity
  8
290140600
100
AcDbPolyline
 62
250
  6
CONTINUOUS
 90
13
 70
0
 10
-19.7909877728
 20
-17.6470459505
 10
-19.8470411116
 20
-17.6147757582
 10
-19.898854617
 20
-17.5763594598
 10
-19.9468692691
 20
-17.5316334868
 10
-19.9908522342
 20
-17.4808055986
 10
-20.0305700812
 20
-17.4241344502
 10
-20.0658199304
 20
-17.3619122728
 10
-20.0964233958
 20
-17.2944588297
 10
-20.1222330737
 20
-17.2221020105
 10
-20.143128536
 20
-17.1451867907
 10
-20.1590063573
 20
-17.064088105
 10
-20.1697832604
 20
-16.9792114771
 10
-20.1754042041
 20
-16.8909764065
  0
LWPOLYLINE
  5
25C
100
AcDbEntity
  8
268140580
100
AcDbPolyline
 62
250
  6
CONTINUOUS
 90
27
 70
0
 10
-14.7328195552
 20
22.6406414746
 10
-14.7376877102
 20
22.6286366716
 10
-14.7430270546
 20
22.6169070393
 10
-14.7488229536
 20
22.6054847277
 10
-14.755059521
 20
22.5944010446
 10
-14.7617196628
 20
22.5836863697
 10
-14.7687851241
 20
22.5733700711
 10
-14.7762365388
 20
22.563480425
 10
-14.7840534833
 20
22.5540445383
 10
-14.7922145318
 20
22.5450882741
 10
-14.8006973154
 20
22.5366361809
 10
-14.8094785834
 20
22.5287114253
 10
-14.818534267
 20
22.5213357285
 10
-14.8278395452
 20
22.5145293068
 10
-14.8373689128
 20
22.5083108161
 10
-14.8470962505
 20
22.5026973008
 10
-14.8569948964
 20
22.4977041472
 10
-14.8670377189
 20
22.4933450413
 10
-14.8771971914
 20
22.4896319309
 10
-14.8874454675
 20
22.4865749935
 10
-14.8977544573
 20
22.484182608
 10
-14.9080959047
 20
22.4824613316
 10
-14.9184414644
 20
22.4814158824
 10
-14.92876278
 20
22.4810491257
 10
-14.9390315615
 20
22.4813620669
 10
-14.9492196628
 20
22.4823538482
 10
-14.9602970031
 20
22.4842249332
  0
LINE
  5
25D
100
AcDbEntity
  8
268140580
100
AcDbLine
 62
7
  6
CONTINUOUS
 10
-5.4697207217
 20
22.6626006558
 11
-4.1262178374
 21
23.334352098
  0
LINE
  5
25E
100
AcDbEntity
  8
268140580
100
AcDbLine
 62
7
  6
CONTINUOUS
 10
-4.5037948954
 20
22.7920101784
 11
-2.3584508845
 21
23.8646821838
  0
LINE
  5
25F
100
AcDbEntity
  8
268140580
100
AcDbLine
 62
7
  6
CONTINUOUS
 10
-4.5037948954
 20
22.1857923957
 11
-3.0112760434
 21
22.9320518217
  0
LINE
  5
260
100
AcDbEntity
  8
268140580
100
AcDbLine
 62
7
  6
CONTINUOUS
 10
-4.4766859318
 20
24.3148379708
 11
-9.0759653057
 21
22.0643562399
  0
LWPOLYLINE
  5
261
100
AcDbEntity
  8
268140580
100
AcDbPolyline
 62
7
  6
CONTINUOUS
 90
31
 70
0
 10
-5.4697207217
 20
22.6626006558
 10
-5.4446715509
 20
22.6747019304
 10
-5.4188032487
 20
22.6863506276
 10
-5.392115815
 20
22.6975467472
 10
-5.3645547586
 20
22.7083118184
 10
-5.3361745707
 20
22.7186243121
 10
-5.3071387252
 20
22.7284196412
 10
-5.2774492362
 20
22.7376891853
 10
-5.2471040897
 20
22.7464415648
 10
-5.2162607168
 20
22.7546380535
 10
-5.1849654862
 20
22.7622667351
 10
-5.1531720293
 20
22.7693395258
 10
-5.120898671
 20
22.7758534488
 10
-5.0881078321
 20
22.7818168404
 10
-5.0548370917
 20
22.7872213642
 10
-5.021217513
 20
22.7920390334
 10
-4.9872285353
 20
22.7962672911
 10
-4.9528907191
 20
22.7999086943
 10
-4.9183968093
 20
22.8029429267
 10
-4.8837666204
 20
22.8053635581
 10
-4.8489803378
 20
22.8071770188
 10
-4.8141712623
 20
22.8083822837
 10
-4.7793541345
 20
22.8089778967
 10
-4.7445142136
 20
22.8089653138
 10
-4.7097405786
 20
22.808347878
 10
-4.6750212196
 20
22.8071244021
 10
-4.6403681463
 20
22.8052960732
 10
-4.6059064664
 20
22.802869796
 10
-4.5716778826
 20
22.7998478719
 10
-4.5376406923
 20
22.7962279993
 10
-4.5037948954
 20
22.7920101784
  0
LWPOLYLINE
  5
262
100
AcDbEntity
  8
CORPO_STAMPATO
100
AcDbPolyline
 62
250
  6
CONTINUOUS
 90
22
 70
0
 10
-5.3652825736
 20
21.462353582
 10
-5.3621542606
 20
21.4637635139
 10
-5.3529057981
 20
21.467537408
 10
-5.3434461839
 20
21.4708198635
 10
-5.3337855436
 20
21.4736073667
 10
-5.3239342179
 20
21.4758969339
 10
-5.313902752
 20
21.4776861143
 10
-5.3037018834
 20
21.4789729928
 10
-5.2933425315
 20
21.4797561918
 10
-5.2828357849
 20
21.4800348731
 10
-5.2721928902
 20
21.4798087382
 10
-5.2614252396
 20
21.4790780293
 10
-5.2505443589
 20
21.4778435286
 10
-5.2395618951
 20
21.4761065574
 10
-5.228489604
 20
21.473868975
 10
-5.2173393375
 20
21.4711331766
 10
-5.2061230309
 20
21.4679020905
 10
-5.1948526902
 20
21.4641791754
 10
-5.1835403794
 20
21.4599684163
 10
-5.1721982073
 20
21.4552743204
 10
-5.1608383147
 20
21.4501019124
 10
-5.1494728612
 20
21.4444567288
  0
LINE
  5
263
100
AcDbEntity
  8
CORPO_STAMPATO
100
AcDbLine
 62
250
  6
CONTINUOUS
 10
-5.0054800598
 20
21.5116000096
 11
-4.9983236978
 21
21.5146033379
  0
LINE
  5
264
100
AcDbEntity
  8
CORPO_STAMPATO
100
AcDbLine
 62
250
  6
CONTINUOUS
 10
-4.9983236978
 20
21.5146033379
 11
-4.9910309981
 21
21.5176127324
  0
LINE
  5
265
100
AcDbEntity
  8
CORPO_STAMPATO
100
AcDbLine
 62
250
  6
CONTINUOUS
 10
-4.9910309981
 20
21.5176127324
 11
-4.9835979421
 21
21.5206258543
  0
LINE
  5
266
100
AcDbEntity
  8
CORPO_STAMPATO
100
AcDbLine
 62
250
  6
CONTINUOUS
 10
-4.9835979421
 20
21.5206258543
 11
-4.9760219037
 21
21.5236411097
  0
LINE
  5
267
100
AcDbEntity
  8
CORPO_STAMPATO
100
AcDbLine
 62
250
  6
CONTINUOUS
 10
-4.9760219037
 20
21.5236411097
 11
-4.9682990427
 21
21.5266560505
  0
LINE
  5
268
100
AcDbEntity
  8
CORPO_STAMPATO
100
AcDbLine
 62
250
  6
CONTINUOUS
 10
-4.9682990427
 20
21.5266560505
 11
-4.9604254189
 21
21.5296682
  0
LINE
  5
269
100
AcDbEntity
  8
CORPO_STAMPATO
100
AcDbLine
 62
250
  6
CONTINUOUS
 10
-4.9604254189
 20
21.5296682
 11
-4.9523984916
 21
21.5326758574
  0
LINE
  5
26A
100
AcDbEntity
  8
CORPO_STAMPATO
100
AcDbLine
 62
250
  6
CONTINUOUS
 10
-4.9523984916
 20
21.5326758574
 11
-4.9442144841
 21
21.535676432
  0
LINE
  5
26B
100
AcDbEntity
  8
CORPO_STAMPATO
100
AcDbLine
 62
250
  6
CONTINUOUS
 10
-4.9442144841
 20
21.535676432
 11
-4.9358701198
 21
21.5386670755
  0
LINE
  5
26C
100
AcDbEntity
  8
CORPO_STAMPATO
100
AcDbLine
 62
250
  6
CONTINUOUS
 10
-4.9358701198
 20
21.5386670755
 11
-4.9273632819
 21
21.5416458525
  0
LINE
  5
26D
100
AcDbEntity
  8
CORPO_STAMPATO
100
AcDbLine
 62
250
  6
CONTINUOUS
 10
-4.9273632819
 20
21.5416458525
 11
-4.9186909142
 21
21.5446097945
  0
LINE
  5
26E
100
AcDbEntity
  8
CORPO_STAMPATO
100
AcDbLine
 62
250
  6
CONTINUOUS
 10
-4.9186909142
 20
21.5446097945
 11
-4.9098503171
 21
21.5475557482
  0
LINE
  5
26F
100
AcDbEntity
  8
CORPO_STAMPATO
100
AcDbLine
 62
250
  6
CONTINUOUS
 10
-4.9098503171
 20
21.5475557482
 11
-4.9008398112
 21
21.5504815606
  0
LINE
  5
270
100
AcDbEntity
  8
CORPO_STAMPATO
100
AcDbLine
 62
250
  6
CONTINUOUS
 10
-4.9008398112
 20
21.5504815606
 11
-4.891657047
 21
21.5533839259
  0
LINE
  5
271
100
AcDbEntity
  8
CORPO_STAMPATO
100
AcDbLine
 62
250
  6
CONTINUOUS
 10
-4.891657047
 20
21.5533839259
 11
-4.8823001388
 21
21.5562593431
  0
LINE
  5
272
100
AcDbEntity
  8
CORPO_STAMPATO
100
AcDbLine
 62
250
  6
CONTINUOUS
 10
-4.8823001388
 20
21.5562593431
 11
-4.8727677508
 21
21.5591054894
  0
LINE
  5
273
100
AcDbEntity
  8
CORPO_STAMPATO
100
AcDbLine
 62
250
  6
CONTINUOUS
 10
-4.8727677508
 20
21.5591054894
 11
-4.8630576389
 21
21.5619189321
  0
LINE
  5
274
100
AcDbEntity
  8
268140580
100
AcDbLine
 62
250
  6
CONTINUOUS
 10
0.7528189528
 20
-24.2804615752
 11
0.2224888669
 21
-24.1706266181
  0
LINE
  5
275
100
AcDbEntity
  8
268140580
100
AcDbLine
 62
250
  6
CONTINUOUS
 10
0.6644306051
 20
-23.9603790537
 11
0.1341005192
 21
-23.8505440967
  0
LWPOLYLINE
  5
276
100
AcDbEntity
  8
268140580
100
AcDbPolyline
 62
250
  6
CONTINUOUS
 90
25
 70
0
 10
0.2224888669
 20
-24.1706266181
 10
0.2094623872
 20
-24.1674771836
 10
0.1967955122
 20
-24.1634627539
 10
0.1844882418
 20
-24.1585833292
 10
0.1725096453
 20
-24.1528305129
 10
0.1608906533
 20
-24.1462127015
 10
0.1497240583
 20
-24.1387550845
 10
0.1390149814
 20
-24.1304490805
 10
0.1287583014
 20
-24.1213032708
 10
0.1190314471
 20
-24.1113685896
 10
0.1098398833
 20
-24.1006374404
 10
0.101178145
 20
-24.0891174197
 10
0.0931072669
 20
-24.0768822508
 10
0.0856330103
 20
-24.0639255957
 10
0.0787496138
 20
-24.0502537925
 10
0.0725008279
 20
-24.035959579
 10
0.0668921359
 20
-24.0210329804
 10
0.0619180546
 20
-24.0054839717
 10
0.0576058851
 20
-23.9894352149
 10
0.0539638184
 20
-23.9728860543
 10
0.0509836635
 20
-23.9558371457
 10
0.0486681486
 20
-23.9384131195
 10
0.047018183
 20
-23.9206555192
 10
0.0460328573
 20
-23.9025228013
 10
0.0457121716
 20
-23.8840149658
  0
LWPOLYLINE
  5
277
100
AcDbEntity
  8
268140580
100
AcDbPolyline
 62
250
  6
CONTINUOUS
 90
3
 70
0
 10
0.1341005192
 20
-23.8505440967
 10
0.1276015211
 20
-23.8489670405
 10
0.1255275999
 20
-23.8483100553
  0
LWPOLYLINE
  5
278
100
AcDbEntity
  8
268140580
100
AcDbPolyline
 62
250
  6
CONTINUOUS
 90
4
 70
0
 10
0.6644306051
 20
-23.9603790537
 10
0.6731826386
 20
-23.9626146197
 10
0.6816059799
 20
-23.9656266009
 10
0.6878076966
 20
-23.9684474607
  0
LINE
  5
279
100
AcDbEntity
  8
268140580
100
AcDbLine
 62
7
  6
CONTINUOUS
 10
-3.0005843692
 20
-25.1728992835
 11
-1.657081485
 21
-25.8446507257
  0
LINE
  5
27A
100
AcDbEntity
  8
268140580
100
AcDbLine
 62
250
  6
CONTINUOUS
 10
-3.0655576656
 20
-25.0376808334
 11
-1.7220547814
 21
-25.7094322756
  0
LINE
  5
27B
100
AcDbEntity
  8
268140580
100
AcDbLine
 62
250
  6
CONTINUOUS
 10
-1.7220547814
 20
-25.341121747
 11
-3.0593362381
 21
-24.6724810186
  0
LINE
  5
27C
100
AcDbEntity
  8
268140580
100
AcDbLine
 62
250
  6
CONTINUOUS
 10
-1.6336664337
 20
-25.1094275732
 11
-2.759379148
 21
-24.546571216
  0
LINE
  5
27D
100
AcDbEntity
  8
268140580
100
AcDbLine
 62
250
  6
CONTINUOUS
 10
-1.1033363479
 20
-24.4692625302
 11
-1.8888799594
 21
-24.0764907245
  0
LINE
  5
27E
100
AcDbEntity
  8
268140580
100
AcDbLine
 62
250
  6
CONTINUOUS
 10
-1.0149480002
 20
-24.2375683564
 11
-1.8733502134
 21
-23.8083672498
  0
LWPOLYLINE
  5
27F
100
AcDbEntity
  8
268140580
100
AcDbPolyline
 62
250
  6
CONTINUOUS
 90
17
 70
0
 10
-1.6570862708
 20
-25.8446483326
 10
-1.6582500938
 20
-25.8440561706
 10
-1.6660065476
 20
-25.8395598513
 10
-1.6733499443
 20
-25.8343159073
 10
-1.6802551592
 20
-25.8283422803
 10
-1.6866985672
 20
-25.8216594081
 10
-1.6926581229
 20
-25.8142901554
 10
-1.6981134364
 20
-25.8062597352
 10
-1.7030458431
 20
-25.7975956224
 10
-1.7074384673
 20
-25.7883274604
 10
-1.7112762803
 20
-25.7784869589
 10
-1.7145461514
 20
-25.768107786
 10
-1.7172368932
 20
-25.7572254527
 10
-1.7193392997
 20
-25.7458771915
 10
-1.7208461778
 20
-25.734101829
 10
-1.7217523718
 20
-25.7219396533
 10
-1.7220547814
 20
-25.7094322756
  0
LWPOLYLINE
  5
280
100
AcDbEntity
  8
268140580
100
AcDbPolyline
 62
250
  6
CONTINUOUS
 90
16
 70
0
 10
-3.0655576656
 20
-25.0376808334
 10
-3.0745690688
 20
-25.0329327609
 10
-3.0830710407
 20
-25.0279553241
 10
-3.0910402639
 20
-25.0227621703
 10
-3.0984548894
 20
-25.017367532
 10
-3.1052945716
 20
-25.0117862064
 10
-3.1115405303
 20
-25.0060335169
 10
-3.1171756351
 20
-25.0001252437
 10
-3.1221844406
 20
-24.994077584
 10
-3.1265532096
 20
-24.9879071275
 10
-3.1302699654
 20
-24.9816307962
 10
-3.1333245202
 20
-24.9752658001
 10
-3.1357085006
 20
-24.9688295965
 10
-3.1374153756
 20
-24.9623398276
 10
-3.1384404664
 20
-24.9558142962
 10
-3.1387809703
 20
-24.9492924858
  0
LWPOLYLINE
  5
281
100
AcDbEntity
  8
290140600
100
AcDbPolyline
 62
250
  6
CONTINUOUS
 90
10
 70
0
 10
-20.6156564297
 20
1.1926053494
 10
-20.613412379
 20
1.1713446975
 10
-20.6074714817
 20
1.1502322902
 10
-20.5978842059
 20
1.1294269755
 10
-20.5847043288
 20
1.109084674
 10
-20.5680311046
 20
1.0893527231
 10
-20.5479930282
 20
1.070374955
 10
-20.5247193962
 20
1.0522929964
 10
-20.4983801377
 20
1.0352437822
 10
-20.4692174703
 20
1.0193605168
  0
LWPOLYLINE
  5
282
100
AcDbEntity
  8
290140580
100
AcDbPolyline
 62
250
  6
CONTINUOUS
 90
10
 70
0
 10
-20.6156564297
 20
1.1926053494
 10
-20.613412379
 20
1.1713446975
 10
-20.6074714817
 20
1.1502322902
 10
-20.5978842059
 20
1.1294269755
 10
-20.5847043288
 20
1.109084674
 10
-20.5680311046
 20
1.0893527231
 10
-20.5479930282
 20
1.070374955
 10
-20.5247193962
 20
1.0522929964
 10
-20.4983801377
 20
1.0352437822
 10
-20.4692174703
 20
1.0193605168
  0
LWPOLYLINE
  5
283
100
AcDbEntity
  8
290140580
100
AcDbPolyline
 62
250
  6
CONTINUOUS
 90
9
 70
0
 10
-20.3218667901
 20
-16.7133655
 10
-20.3210181718
 20
-16.7246723165
 10
-20.3151993116
 20
-16.7515514144
 10
-20.3040976689
 20
-16.7778410952
 10
-20.2878321925
 20
-16.8032596778
 10
-20.2665771589
 20
-16.8275348148
 10
-20.2405603053
 20
-16.8504064098
 10
-20.2100603898
 20
-16.871629405
 10
-20.1754042038
 20
-16.8909764063
  0
LWPOLYLINE
  5
284
100
AcDbEntity
  8
290140600
100
AcDbPolyline
 62
250
  6
CONTINUOUS
 90
9
 70
0
 10
-20.3218667901
 20
-16.7133655
 10
-20.3210181718
 20
-16.7246723165
 10
-20.3151993116
 20
-16.7515514144
 10
-20.3040976689
 20
-16.7778410952
 10
-20.2878321925
 20
-16.8032596778
 10
-20.2665771589
 20
-16.8275348148
 10
-20.2405603053
 20
-16.8504064098
 10
-20.2100603898
 20
-16.871629405
 10
-20.1754042038
 20
-16.8909764063
  0
LWPOLYLINE
  5
285
100
AcDbEntity
  8
290140600
100
AcDbPolyline
 62
250
  6
CONTINUOUS
 90
8
 70
0
 10
-20.4692281366
 20
1.0193551964
 10
-20.4680581062
 20
0.9975698225
 10
-20.4645389243
 20
0.9773314409
 10
-20.458729536
 20
0.9589790361
 10
-20.4507272461
 20
0.9428200036
 10
-20.4406660896
 20
0.9291250004
 10
-20.4287145865
 20
0.918123412
 10
-20.4173196528
 20
0.91107948
  0
LWPOLYLINE
  5
286
100
AcDbEntity
  8
290140580
100
AcDbPolyline
 62
250
  6
CONTINUOUS
 90
8
 70
0
 10
-20.4692281366
 20
1.0193551964
 10
-20.4680581062
 20
0.9975698225
 10
-20.4645389243
 20
0.9773314409
 10
-20.458729536
 20
0.9589790361
 10
-20.4507272461
 20
0.9428200036
 10
-20.4406660896
 20
0.9291250004
 10
-20.4287145865
 20
0.918123412
 10
-20.4173196528
 20
0.91107948
  0
LWPOLYLINE
  5
287
100
AcDbEntity
  8
290140580
100
AcDbPolyline
 62
7
  6
CONTINUOUS
 90
15
 70
0
 10
-20.3218607125
 20
-16.7133652924
 10
-20.3188212646
 20
-16.7708182011
 10
-20.308399751
 20
-16.8683730269
 10
-20.2916692593
 20
-16.9618151521
 10
-20.268853143
 20
-17.0508711508
 10
-20.240165469
 20
-17.1354562237
 10
-20.205762107
 20
-17.215502803
 10
-20.1658560169
 20
-17.2907549364
 10
-20.1207036169
 20
-17.3609753116
 10
-20.0705501881
 20
-17.4259521776
 10
-20.0157322924
 20
-17.4853691821
 10
-19.9566488993
 20
-17.5389439841
 10
-19.8937500263
 20
-17.5864447086
 10
-19.8275460401
 20
-17.6276554515
 10
-19.7900541428
 20
-17.6475114088
  0
LWPOLYLINE
  5
288
100
AcDbEntity
  8
290140600
100
AcDbPolyline
 62
7
  6
CONTINUOUS
 90
15
 70
0
 10
-20.3218607125
 20
-16.7133652924
 10
-20.3188212646
 20
-16.7708182011
 10
-20.308399751
 20
-16.8683730269
 10
-20.2916692593
 20
-16.9618151521
 10
-20.268853143
 20
-17.0508711508
 10
-20.240165469
 20
-17.1354562237
 10
-20.205762107
 20
-17.215502803
 10
-20.1658560169
 20
-17.2907549364
 10
-20.1207036169
 20
-17.3609753116
 10
-20.0705501881
 20
-17.4259521776
 10
-20.0157322924
 20
-17.4853691821
 10
-19.9566488993
 20
-17.5389439841
 10
-19.8937500263
 20
-17.5864447086
 10
-19.8275460401
 20
-17.6276554515
 10
-19.7900541428
 20
-17.6475114088
  0
LWPOLYLINE
  5
289
100
AcDbEntity
  8
290140580
100
AcDbPolyline
 62
250
  6
CONTINUOUS
 90
10
 70
0
 10
-20.1754042041
 20
-16.8909764065
 10
-20.2359795859
 20
-14.9821719396
 10
-20.2895737795
 20
-13.0694791991
 10
-20.3361861858
 20
-11.1529369196
 10
-20.3758157788
 20
-9.2326135446
 10
-20.4084630341
 20
-7.3085184297
 10
-20.4341288329
 20
-5.3806012664
 10
-20.4528124029
 20
-3.4488707545
 10
-20.4645124133
 20
-1.5133951767
 10
-20.4692281366
 20
0.4257867999
  0
LWPOLYLINE
  5
28A
100
AcDbEntity
  8
290140600
100
AcDbPolyline
 62
250
  6
CONTINUOUS
 90
10
 70
0
 10
-20.1754042041
 20
-16.8909764065
 10
-20.2359795859
 20
-14.9821719396
 10
-20.2895737795
 20
-13.0694791991
 10
-20.3361861858
 20
-11.1529369196
 10
-20.3758157788
 20
-9.2326135446
 10
-20.4084630341
 20
-7.3085184297
 10
-20.4341288329
 20
-5.3806012664
 10
-20.4528124029
 20
-3.4488707545
 10
-20.4645124133
 20
-1.5133951767
 10
-20.4692281366
 20
0.4257867999
  0
LWPOLYLINE
  5
28B
100
AcDbEntity
  8
290140600
100
AcDbPolyline
 62
7
  6
CONTINUOUS
 90
13
 70
0
 10
-20.6156754793
 20
1.1948674861
 10
-20.615659522
 20
1.1917113349
 10
-20.6137254636
 20
1.1621818805
 10
-20.6085469822
 20
1.1327618049
 10
-20.600090309
 20
1.1036567601
 10
-20.5883488026
 20
1.0751478665
 10
-20.5733769866
 20
1.0475672818
 10
-20.5551988562
 20
1.0211087652
 10
-20.533853149
 20
0.9959469708
 10
-20.5094072648
 20
0.9722638007
 10
-20.4818005267
 20
0.9501243316
 10
-20.4509204832
 20
0.9295947332
 10
-20.4173159673
 20
0.9110868194
  0
LWPOLYLINE
  5
28C
100
AcDbEntity
  8
290140580
100
AcDbPolyline
 62
7
  6
CONTINUOUS
 90
13
 70
0
 10
-20.6156754793
 20
1.1948674861
 10
-20.615659522
 20
1.1917113349
 10
-20.6137254636
 20
1.1621818805
 10
-20.6085469822
 20
1.1327618049
 10
-20.600090309
 20
1.1036567601
 10
-20.5883488026
 20
1.0751478665
 10
-20.5733769866
 20
1.0475672818
 10
-20.5551988562
 20
1.0211087652
 10
-20.533853149
 20
0.9959469708
 10
-20.5094072648
 20
0.9722638007
 10
-20.4818005267
 20
0.9501243316
 10
-20.4509204832
 20
0.9295947332
 10
-20.4173159673
 20
0.9110868194
  0
LWPOLYLINE
  5
28D
100
AcDbEntity
  8
290140580
100
AcDbPolyline
 62
7
  6
CONTINUOUS
 90
10
 70
0
 10
-20.6156755497
 20
0.6038535476
 10
-20.611106623
 20
-1.3014279522
 10
-20.5994570627
 20
-3.2466895895
 10
-20.5807527091
 20
-5.1882225878
 10
-20.5549938328
 20
-7.1259825803
 10
-20.5221809339
 20
-9.0599326814
 10
-20.4823145258
 20
-10.9900385891
 10
-20.4353952465
 20
-12.9162631495
 10
-20.3814242111
 20
-14.8385620878
 10
-20.3218680072
 20
-16.7133294146
  0
LWPOLYLINE
  5
28E
100
AcDbEntity
  8
290140600
100
AcDbPolyline
 62
7
  6
CONTINUOUS
 90
10
 70
0
 10
-20.6156755497
 20
0.6038535476
 10
-20.611106623
 20
-1.3014279522
 10
-20.5994570627
 20
-3.2466895895
 10
-20.5807527091
 20
-5.1882225878
 10
-20.5549938328
 20
-7.1259825803
 10
-20.5221809339
 20
-9.0599326814
 10
-20.4823145258
 20
-10.9900385891
 10
-20.4353952465
 20
-12.9162631495
 10
-20.3814242111
 20
-14.8385620878
 10
-20.3218680072
 20
-16.7133294146
  0
LWPOLYLINE
  5
28F
100
AcDbEntity
  8
290140600
100
AcDbPolyline
 62
250
  6
CONTINUOUS
 90
10
 70
0
 10
-20.4692281366
 20
1.0193551964
 10
-20.4645124133
 20
2.9634203282
 10
-20.4528124029
 20
4.9110111897
 10
-20.4341288329
 20
6.8620883862
 10
-20.4084630341
 20
8.8165823094
 10
-20.3758157788
 20
10.774483482
 10
-20.3361861858
 20
12.735843078
 10
-20.2895737795
 20
14.7006522116
 10
-20.2359795859
 20
16.6688414192
 10
-20.1754042041
 20
18.6403713667
  0
LWPOLYLINE
  5
290
100
AcDbEntity
  8
290140580
100
AcDbPolyline
 62
250
  6
CONTINUOUS
 90
10
 70
0
 10
-20.4692281366
 20
1.0193551964
 10
-20.4645124133
 20
2.9634203282
 10
-20.4528124029
 20
4.9110111897
 10
-20.4341288329
 20
6.8620883862
 10
-20.4084630341
 20
8.8165823094
 10
-20.3758157788
 20
10.774483482
 10
-20.3361861858
 20
12.735843078
 10
-20.2895737795
 20
14.7006522116
 10
-20.2359795859
 20
16.6688414192
 10
-20.1754042041
 20
18.6403713667
  0
LWPOLYLINE
  5
291
100
AcDbEntity
  8
290140600
100
AcDbPolyline
 62
7
  6
CONTINUOUS
 90
10
 70
0
 10
-20.3218866326
 20
18.8154147649
 10
-20.3815457312
 20
16.8754211533
 10
-20.4354993012
 20
14.8973928352
 10
-20.4824020964
 20
12.9227219911
 10
-20.5222528721
 20
10.9514541058
 10
-20.5550508601
 20
8.9836270576
 10
-20.5807954166
 20
7.0192757586
 10
-20.5994859113
 20
5.0584376892
 10
-20.6111219437
 20
3.1011575704
 10
-20.615675551
 20
1.1948387864
  0
LWPOLYLINE
  5
292
100
AcDbEntity
  8
290140580
100
AcDbPolyline
 62
7
  6
CONTINUOUS
 90
10
 70
0
 10
-20.3218866326
 20
18.8154147649
 10
-20.3815457312
 20
16.8754211533
 10
-20.4354993012
 20
14.8973928352
 10
-20.4824020964
 20
12.9227219911
 10
-20.5222528721
 20
10.9514541058
 10
-20.5550508601
 20
8.9836270576
 10
-20.5807954166
 20
7.0192757586
 10
-20.5994859113
 20
5.0584376892
 10
-20.6111219437
 20
3.1011575704
 10
-20.615675551
 20
1.1948387864
  0
LWPOLYLINE
  5
293
100
AcDbEntity
  8
290140580
100
AcDbPolyline
 62
250
  6
CONTINUOUS
 90
13
 70
0
 10
-20.4692281366
 20
0.4257867999
 10
-20.468058031
 20
0.4487429391
 10
-20.4645386497
 20
0.4725011646
 10
-20.4587289763
 20
0.4966635062
 10
-20.4507263494
 20
0.5208252516
 10
-20.4406648473
 20
0.5445816717
 10
-20.4287130563
 20
0.5675348032
 10
-20.4150712081
 20
0.5893001987
 10
-20.3999678268
 20
0.6095133332
 10
-20.3836559318
 20
0.6278356647
 10
-20.3664087652
 20
0.6439603545
 10
-20.3485152091
 20
0.6576173976
 10
-20.3302749659
 20
0.6685781212
  0
LWPOLYLINE
  5
294
100
AcDbEntity
  8
290140600
100
AcDbPolyline
 62
250
  6
CONTINUOUS
 90
13
 70
0
 10
-20.4692281366
 20
0.4257867999
 10
-20.468058031
 20
0.4487429391
 10
-20.4645386497
 20
0.4725011646
 10
-20.4587289763
 20
0.4966635062
 10
-20.4507263494
 20
0.5208252516
 10
-20.4406648473
 20
0.5445816717
 10
-20.4287130563
 20
0.5675348032
 10
-20.4150712081
 20
0.5893001987
 10
-20.3999678268
 20
0.6095133332
 10
-20.3836559318
 20
0.6278356647
 10
-20.3664087652
 20
0.6439603545
 10
-20.3485152091
 20
0.6576173976
 10
-20.3302749659
 20
0.6685781212
  0
LWPOLYLINE
  5
295
100
AcDbEntity
  8
290140600
100
AcDbPolyline
 62
250
  6
CONTINUOUS
 90
22
 70
0
 10
-20.1754042041
 20
18.6403713667
 10
-20.1697832604
 20
18.7343628694
 10
-20.1590063573
 20
18.8302697144
 10
-20.143128536
 20
18.9276173614
 10
-20.1222330737
 20
19.0259199633
 10
-20.0964233958
 20
19.1246962061
 10
-20.0658199304
 20
19.2234718233
 10
-20.0305700812
 20
19.32177327
 10
-19.9908522342
 20
19.4191006487
 10
-19.9468692691
 20
19.51494474
 10
-19.898854617
 20
19.6088145948
 10
-19.8470411116
 20
19.7002684831
 10
-19.7916601102
 20
19.7888843532
 10
-19.7329744419
 20
19.8742420466
 10
-19.6712868888
 20
19.9558994967
 10
-19.6069121078
 20
20.033425949
 10
-19.5401836674
 20
20.1064303229
 10
-19.4714262228
 20
20.174566506
 10
-19.4009599222
 20
20.2375055068
 10
-19.329128796
 20
20.2949378635
 10
-19.2563001268
 20
20.3465781521
 10
-19.1828383292
 20
20.3921713878
  0
LWPOLYLINE
  5
296
100
AcDbEntity
  8
290140580
100
AcDbPolyline
 62
250
  6
CONTINUOUS
 90
22
 70
0
 10
-20.1754042041
 20
18.6403713667
 10
-20.1697832604
 20
18.7343628694
 10
-20.1590063573
 20
18.8302697144
 10
-20.143128536
 20
18.9276173614
 10
-20.1222330737
 20
19.0259199633
 10
-20.0964233958
 20
19.1246962061
 10
-20.0658199304
 20
19.2234718233
 10
-20.0305700812
 20
19.32177327
 10
-19.9908522342
 20
19.4191006487
 10
-19.9468692691
 20
19.51494474
 10
-19.898854617
 20
19.6088145948
 10
-19.8470411116
 20
19.7002684831
 10
-19.7916601102
 20
19.7888843532
 10
-19.7329744419
 20
19.8742420466
 10
-19.6712868888
 20
19.9558994967
 10
-19.6069121078
 20
20.033425949
 10
-19.5401836674
 20
20.1064303229
 10
-19.4714262228
 20
20.174566506
 10
-19.4009599222
 20
20.2375055068
 10
-19.329128796
 20
20.2949378635
 10
-19.2563001268
 20
20.3465781521
 10
-19.1828383292
 20
20.3921713878
  0
LWPOLYLINE
  5
297
100
AcDbEntity
  8
268140580
100
AcDbPolyline
 62
250
  6
CONTINUOUS
 90
5
 70
0
 10
-13.2505475327
 20
22.3332314627
 10
-13.2480222785
 20
22.3403921769
 10
-13.2463340136
 20
22.3476141914
 10
-13.2454884506
 20
22.3548730694
 10
-13.2453826881
 20
22.3585086593
  0
LWPOLYLINE
  5
298
100
AcDbEntity
  8
268140580
100
AcDbPolyline
 62
250
  6
CONTINUOUS
 90
25
 70
0
 10
-14.2024894693
 20
22.5308065176
 10
-14.2079278927
 20
22.517484193
 10
-14.213946073
 20
22.5045060307
 10
-14.2205236461
 20
22.4919159448
 10
-14.227638355
 20
22.4797565358
 10
-14.2352661252
 20
22.4680689474
 10
-14.2433811459
 20
22.456892727
 10
-14.251955958
 20
22.4462656911
 10
-14.2609615465
 20
22.4362237978
 10
-14.2703674387
 20
22.4268010254
 10
-14.2801418075
 20
22.4180292572
 10
-14.2902515793
 20
22.4099381735
 10
-14.3006625455
 20
22.4025551513
 10
-14.3113394782
 20
22.3959051718
 10
-14.3222462501
 20
22.3900107357
 10
-14.333345956
 20
22.384891787
 10
-14.3446010379
 20
22.3805656461
 10
-14.3559734123
 20
22.3770469506
 10
-14.3674245992
 20
22.3743476056
 10
-14.3789158512
 20
22.3724767444
 10
-14.390408286
 20
22.3714406967
 10
-14.4018630176
 20
22.3712429677
 10
-14.4132412869
 20
22.3718842259
 10
-14.4245045938
 20
22.3733623011
 10
-14.4299669172
 20
22.3743899762
  0
LINE
  5
299
100
AcDbEntity
  8
CORPO_STAMPATO
100
AcDbLine
 62
7
  6
CONTINUOUS
 10
-6.2930698884
 20
20.6729085313
 11
-5.4371366643
 21
21.4220161893
  0
LWPOLYLINE
  5
29A
100
AcDbEntity
  8
CORPO_STAMPATO
100
AcDbPolyline
 62
7
  6
CONTINUOUS
 90
6
 70
0
 10
-5.3991278171
 20
21.446722727
 10
-5.4064124563
 20
21.4431297537
 10
-5.4144938292
 20
21.438574407
 10
-5.4222954288
 20
21.4335489645
 10
-5.4298152993
 20
21.4280549298
 10
-5.4371370408
 20
21.4220160091
  0
LINE
  5
29B
100
AcDbEntity
  8
CORPO_STAMPATO
100
AcDbLine
 62
250
  6
CONTINUOUS
 10
-5.126168385
 20
21.4554437584
 11
-5.079238143
 21
21.4780913448
  0
LINE
  5
29C
100
AcDbEntity
  8
CORPO_STAMPATO
100
AcDbLine
 62
250
  6
CONTINUOUS
 10
-5.079238143
 20
21.4780913448
 11
-5.0674027023
 21
21.4837280211
  0
LINE
  5
29D
100
AcDbEntity
  8
CORPO_STAMPATO
100
AcDbLine
 62
250
  6
CONTINUOUS
 10
-5.1366166031
 20
21.4504688374
 11
-5.126168385
 21
21.4554437584
  0
LINE
  5
29E
100
AcDbEntity
  8
CORPO_STAMPATO
100
AcDbLine
 62
250
  6
CONTINUOUS
 10
-5.0674027023
 20
21.4837280211
 11
-5.0582814987
 21
21.4880191796
  0
LINE
  5
29F
100
AcDbEntity
  8
CORPO_STAMPATO
100
AcDbLine
 62
250
  6
CONTINUOUS
 10
-5.1443538673
 20
21.4468338052
 11
-5.1366166031
 21
21.4504688374
  0
LWPOLYLINE
  5
2A0
100
AcDbEntity
  8
268140580
100
AcDbPolyline
 62
7
  6
CONTINUOUS
 90
17
 70
0
 10
0.4730615365
 20
21.8399642367
 10
0.4883035419
 20
21.8470290351
 10
0.5035035178
 20
21.8532595045
 10
0.5186614642
 20
21.8586556448
 10
0.5338231298
 20
21.8632327198
 10
0.548942766
 20
21.8669754658
 10
0.563883127
 20
21.8698380912
 10
0.5786374034
 20
21.8718046608
 10
0.5932124047
 20
21.8728911097
 10
0.607491314
 20
21.8730994524
 10
0.6214460365
 20
21.8724259257
 10
0.635104667
 20
21.8708742927
 10
0.6484346724
 20
21.868457857
 10
0.6614391756
 20
21.8651815348
 10
0.6741150538
 20
21.8610404099
 10
0.686420405
 20
21.8560330367
 10
0.6935797191
 20
21.8526323369
  0
LINE
  5
2A1
100
AcDbEntity
  8
CORPO_STAMPATO
100
AcDbLine
 62
250
  6
CONTINUOUS
 10
-5.0582814987
 20
21.4880191796
 11
-5.0489343772
 21
21.4923593831
  0
LINE
  5
2A2
100
AcDbEntity
  8
CORPO_STAMPATO
100
AcDbLine
 62
250
  6
CONTINUOUS
 10
-5.1869318571
 20
21.4271569231
 11
-5.1443538673
 21
21.4468338052
  0
LINE
  5
2A3
100
AcDbEntity
  8
CORPO_STAMPATO
100
AcDbLine
 62
7
  6
CONTINUOUS
 10
-5.3478970093
 20
21.4703418188
 11
-5.3991289228
 21
21.4467222163
  0
LINE
  5
2A4
100
AcDbEntity
  8
CORPO_STAMPATO
100
AcDbLine
 62
250
  6
CONTINUOUS
 10
-5.0489343772
 20
21.4923593831
 11
-5.039347389
 21
21.4967432857
  0
LWPOLYLINE
  5
2A5
100
AcDbEntity
  8
CORPO_STAMPATO
100
AcDbPolyline
 62
250
  6
CONTINUOUS
 90
17
 70
0
 10
-4.194959018
 20
21.5544624584
 10
-4.1891455726
 20
21.5570983259
 10
-4.1833461416
 20
21.5594345822
 10
-4.1775705393
 20
21.5614672739
 10
-4.1718285393
 20
21.563192961
 10
-4.1661298586
 20
21.5646087234
 10
-4.1604841407
 20
21.5657121652
 10
-4.1549009398
 20
21.5665014191
 10
-4.149389704
 20
21.5669751494
 10
-4.1439597597
 20
21.5671325546
 10
-4.1386202957
 20
21.5669733682
 10
-4.1333803478
 20
21.5664978596
 10
-4.1282487834
 20
21.5657068336
 10
-4.1232342862
 20
21.5646016287
 10
-4.1183453422
 20
21.5631841153
 10
-4.1135902246
 20
21.561456692
 10
-4.1090543118
 20
21.5594563849
  0
LINE
  5
2A6
100
AcDbEntity
  8
CORPO_STAMPATO
100
AcDbLine
 62
250
  6
CONTINUOUS
 10
-5.039347389
 20
21.4967432857
 11
-5.0328162773
 21
21.4996874521
  0
LINE
  5
2A7
100
AcDbEntity
  8
CORPO_STAMPATO
100
AcDbLine
 62
250
  6
CONTINUOUS
 10
-5.0328162773
 20
21.4996874521
 11
-5.0261677685
 21
21.5026467138
  0
LINE
  5
2A8
100
AcDbEntity
  8
CORPO_STAMPATO
100
AcDbLine
 62
250
  6
CONTINUOUS
 10
-5.0261677685
 20
21.5026467138
 11
-5.0193986943
 21
21.5056198361
  0
LINE
  5
2A9
100
AcDbEntity
  8
CORPO_STAMPATO
100
AcDbLine
 62
250
  6
CONTINUOUS
 10
-5.0193986943
 20
21.5056198361
 11
-5.0125041434
 21
21.5086050144
  0
LINE
  5
2AA
100
AcDbEntity
  8
CORPO_STAMPATO
100
AcDbLine
 62
250
  6
CONTINUOUS
 10
-5.0125041434
 20
21.5086050144
 11
-5.0054800598
 21
21.5116000096
  0
LINE
  5
2AB
100
AcDbEntity
  8
268140580
100
AcDbLine
 62
7
  6
CONTINUOUS
 10
-1.0149480002
 20
-23.6686556291
 11
-0.798101814
 21
-23.7770787222
  0
LINE
  5
2AC
100
AcDbEntity
  8
268140580
100
AcDbLine
 62
250
  6
CONTINUOUS
 10
0.1341005192
 20
-23.8505440967
 11
0.1248028136
 21
-23.8458952439
  0
LINE
  5
2AD
100
AcDbEntity
  8
268140580
100
AcDbLine
 62
250
  6
CONTINUOUS
 10
0.1189354763
 20
-23.6876314893
 11
0.6644306051
 21
-23.9603790537
  0
LINE
  5
2AE
100
AcDbEntity
  8
268140580
100
AcDbLine
 62
7
  6
CONTINUOUS
 10
0.1189354763
 20
-23.6840113398
 11
0.6878456563
 21
-23.9684664298
  0
LINE
  5
2AF
100
AcDbEntity
  8
268140580
100
AcDbLine
 62
7
  6
CONTINUOUS
 10
-0.5154744013
 20
-22.6008314849
 11
-1.2977907127
 21
-22.2096733292
  0
LINE
  5
2B0
100
AcDbEntity
  8
268140580
100
AcDbLine
 62
7
  6
CONTINUOUS
 10
-1.2977907127
 20
-21.8561199386
 11
-0.3642112829
 21
-22.3229096535
  0
LWPOLYLINE
  5
2B1
100
AcDbEntity
  8
290140600
100
AcDbPolyline
 62
250
  6
CONTINUOUS
 90
9
 70
0
 10
-20.3218835671
 20
18.8153280152
 10
-20.32101195
 20
18.7973091884
 10
-20.3151927194
 20
18.7727791284
 10
-20.3040908186
 20
18.7485320621
 10
-20.2878251969
 20
18.7248277801
 10
-20.2665701294
 20
18.7019202579
 10
-20.2405533496
 20
18.6800549339
 10
-20.2100536096
 20
18.6594660803
 10
-20.1753976934
 20
18.6403742924
  0
LWPOLYLINE
  5
2B2
100
AcDbEntity
  8
290140580
100
AcDbPolyline
 62
250
  6
CONTINUOUS
 90
9
 70
0
 10
-20.3218835671
 20
18.8153280152
 10
-20.32101195
 20
18.7973091884
 10
-20.3151927194
 20
18.7727791284
 10
-20.3040908186
 20
18.7485320621
 10
-20.2878251969
 20
18.7248277801
 10
-20.2665701294
 20
18.7019202579
 10
-20.2405533496
 20
18.6800549339
 10
-20.2100536096
 20
18.6594660803
 10
-20.1753976934
 20
18.6403742924
  0
LWPOLYLINE
  5
2B3
100
AcDbEntity
  8
290140580
100
AcDbPolyline
 62
250
  6
CONTINUOUS
 90
3
 70
0
 10
-20.4087441046
 20
0.8141196464
 10
-20.4012059997
 20
0.8268517256
 10
-20.3915067412
 20
0.8393211455
  0
LWPOLYLINE
  5
2B4
100
AcDbEntity
  8
290140600
100
AcDbPolyline
 62
250
  6
CONTINUOUS
 90
3
 70
0
 10
-20.4087441046
 20
0.8141196464
 10
-20.4012059997
 20
0.8268517256
 10
-20.3915067412
 20
0.8393211455
  0
LINE
  5
2B5
100
AcDbEntity
  8
CORPO_STAMPATO
100
AcDbLine
 62
250
  6
CONTINUOUS
 10
-6.1391673337
 20
20.5959572539
 11
-5.1885367819
 21
21.4279434488
  0
LINE
  5
2B6
100
AcDbEntity
  8
268140580
100
AcDbLine
 62
7
  6
CONTINUOUS
 10
-4.2006053887
 20
17.7107560792
 11
-4.687837632
 21
17.432862679
  0
LINE
  5
2B7
100
AcDbEntity
  8
268140580
100
AcDbLine
 62
7
  6
CONTINUOUS
 10
-4.1932465964
 20
17.7147154765
 11
1.4273442321
 21
20.5575710632
  0
LINE
  5
2B8
100
AcDbEntity
  8
268140580
100
AcDbLine
 62
7
  6
CONTINUOUS
 10
1.8841898027
 20
21.7433618403
 11
1.3710200275
 21
21.4867769527
  0
LINE
  5
2B9
100
AcDbEntity
  8
268140580
100
AcDbLine
 62
7
  6
CONTINUOUS
 10
-4.687837632
 20
18.682267674
 11
1.0788947114
 21
21.5370476492
  0
LINE
  5
2BA
100
AcDbEntity
  8
268140580
100
AcDbLine
 62
7
  6
CONTINUOUS
 10
0.4730615365
 20
21.8399642367
 11
-4.1262178374
 21
19.5894825057
  0
LWPOLYLINE
  5
2BB
100
AcDbEntity
  8
268140580
100
AcDbPolyline
 62
7
  6
CONTINUOUS
 90
20
 70
0
 10
1.8841898027
 20
21.7433618403
 10
1.9105673058
 20
21.755954586
 10
1.9368820279
 20
21.7673072299
 10
1.9631339688
 20
21.7774197721
 10
1.9893805407
 20
21.7863112878
 10
2.0155643315
 20
21.7939627018
 10
2.0415131049
 20
21.800316788
 10
2.0672124935
 20
21.8053568082
 10
2.0926768648
 20
21.8090995006
 10
2.1177770849
 20
21.8115378537
 10
2.142476627
 20
21.8126700501
 10
2.1668120179
 20
21.8124979073
 10
2.1907637048
 20
21.8110198662
 10
2.2143695938
 20
21.8082324302
 10
2.2375917789
 20
21.8041390958
 10
2.2602969887
 20
21.7987487937
 10
2.2824855815
 20
21.7920453975
 10
2.3041571991
 20
21.7840450335
 10
2.3251774956
 20
21.7748050107
 10
2.3314044394
 20
21.7717657103
  0
LWPOLYLINE
  5
2BC
100
AcDbEntity
  8
CORPO_STAMPATO
100
AcDbPolyline
 62
250
  6
CONTINUOUS
 90
26
 70
0
 10
3.3168615213
 20
22.7907980235
 10
3.3361214335
 20
22.7996946346
 10
3.3553578789
 20
22.8079370396
 10
3.3745565724
 20
22.8155191176
 10
3.393703257
 20
22.8224352383
 10
3.4127837142
 20
22.8286802655
 10
3.4317837748
 20
22.8342495617
 10
3.4506893291
 20
22.8391389912
 10
3.469486338
 20
22.843344923
 10
3.4881608425
 20
22.8468642338
 10
3.506698975
 20
22.84969431
 10
3.5250869688
 20
22.8518330502
 10
3.5433111689
 20
22.853278866
 10
3.5613580421
 20
22.8540306837
 10
3.5792141864
 20
22.8540879451
 10
3.596866342
 20
22.8534506077
 10
3.6143014002
 20
22.8521191447
 10
3.6315064136
 20
22.8500945448
 10
3.6484686057
 20
22.8473783116
 10
3.6651753802
 20
22.8439724622
 10
3.6816143307
 20
22.8398795257
 10
3.6977732495
 20
22.8351025416
 10
3.7136401369
 20
22.8296450574
 10
3.7292032099
 20
22.8235111256
 10
3.7444509115
 20
22.8167053016
 10
3.7517344018
 20
22.8131613531
  0
LINE
  5
2BD
100
AcDbEntity
  8
CORPO_STAMPATO
100
AcDbLine
 62
250
  6
CONTINUOUS
 10
11.5536631288
 20
25.5922997351
 11
5.4195092487
 21
22.7593441944
  0
LWPOLYLINE
  5
2BE
100
AcDbEntity
  8
CORPO_STAMPATO
100
AcDbPolyline
 62
7
  6
CONTINUOUS
 90
81
 70
0
 10
11.1220437037
 20
25.6280934414
 10
4.9851836502
 20
22.793897202
 10
4.9785677636
 20
22.7909378073
 10
4.9714251647
 20
22.7878511159
 10
4.9637483385
 20
22.7846476636
 10
4.9555346253
 20
22.7813399448
 10
4.9467867512
 20
22.7779423828
 10
4.9375010243
 20
22.7744664896
 10
4.9276753021
 20
22.7709241439
 10
4.9173167189
 20
22.7673302307
 10
4.9064259572
 20
22.7636970041
 10
4.8950022528
 20
22.760035948
 10
4.8830524672
 20
22.7563605974
 10
4.8705790594
 20
22.752682736
 10
4.8575841195
 20
22.749013952
 10
4.8440751504
 20
22.7453669897
 10
4.8300561007
 20
22.7417531558
 10
4.8155319894
 20
22.738183851
 10
4.8005130562
 20
22.7346715428
 10
4.7850030898
 20
22.7312267293
 10
4.7690118793
 20
22.727860889
 10
4.7525602639
 20
22.724587404
 10
4.7356546242
 20
22.7214162305
 10
4.7183077097
 20
22.7183581046
 10
4.7005521653
 20
22.715426451
 10
4.6824003498
 20
22.7126306267
 10
4.6638649467
 20
22.7099796254
 10
4.6449813662
 20
22.7074848288
 10
4.6257649321
 20
22.7051540995
 10
4.6062302856
 20
22.7029949753
 10
4.5864135207
 20
22.7010165199
 10
4.5663317859
 20
22.6992248821
 10
4.5460018216
 20
22.69762602
 10
4.5254603139
 20
22.6962267123
 10
4.5047255272
 20
22.6950314025
 10
4.4838160631
 20
22.6940442705
 10
4.4627699696
 20
22.6932698367
 10
4.4416056749
 20
22.6927108211
 10
4.4203436856
 20
22.6923695266
 10
4.3990257122
 20
22.6922480684
 10
4.3776714349
 20
22.6923473455
 10
4.3563012133
 20
22.6926676598
 10
4.3349579313
 20
22.6932083748
 10
4.3136618824
 20
22.6939684727
 10
4.2924327446
 20
22.6949463336
 10
4.2713121916
 20
22.6961385668
 10
4.250320559
 20
22.6975422094
 10
4.2294762335
 20
22.6991538526
 10
4.2088172898
 20
22.7009677253
 10
4.1883620684
 20
22.7029790982
 10
4.1681287209
 20
22.7051828493
 10
4.1481540282
 20
22.7075709237
 10
4.128454596
 20
22.7101368192
 10
4.1090471526
 20
22.7128738076
 10
4.0899673038
 20
22.7157716212
 10
4.0712295991
 20
22.7188221525
 10
4.0528487315
 20
22.7220171139
 10
4.0348587469
 20
22.725344113
 10
4.0172719407
 20
22.7287936832
 10
4.0001002644
 20
22.7323561054
 10
3.9833749587
 20
22.7360171408
 10
3.9671082778
 20
22.739765624
 10
3.9513062932
 20
22.7435913466
 10
3.9359886956
 20
22.7474805189
 10
3.921164677
 20
22.751421391
 10
3.9068378231
 20
22.7554032628
 10
3.8930178272
 20
22.7594133862
 10
3.8797091536
 20
22.7634403051
 10
3.8669154415
 20
22.7674725331
 10
3.8546439542
 20
22.7714969948
 10
3.8428965019
 20
22.7755020005
 10
3.8316749355
 20
22.7794757814
 10
3.8209853725
 20
22.7834046538
 10
3.8108264967
 20
22.7872771819
 10
3.8011986137
 20
22.7910810865
 10
3.79210836
 20
22.7948012915
 10
3.7835532217
 20
22.7984259388
 10
3.7755289903
 20
22.8019436534
 10
3.7680377591
 20
22.8053400066
 10
3.761076408
 20
22.808602637
 10
3.7546370463
 20
22.8117212115
  0
LWPOLYLINE
  5
2BF
100
AcDbEntity
  8
CORPO_STAMPATO
100
AcDbPolyline
 62
250
  6
CONTINUOUS
 90
67
 70
0
 10
5.4195092487
 20
22.7593441944
 10
5.3940956197
 20
22.7478792906
 10
5.3680998006
 20
22.7367057988
 10
5.3415217914
 20
22.7258237191
 10
5.3143421359
 20
22.7152232717
 10
5.2865802904
 20
22.7049142364
 10
5.2582946229
 20
22.6949259522
 10
5.2294838362
 20
22.6852601187
 10
5.2001492275
 20
22.6759150363
 10
5.1703530574
 20
22.6669149456
 10
5.140093174
 20
22.6582611906
 10
5.1093717291
 20
22.6499524273
 10
5.0782574386
 20
22.6420088633
 10
5.0467496625
 20
22.6344321666
 10
5.0148490408
 20
22.6272206692
 10
4.9826262085
 20
22.6203895753
 10
4.9500856175
 20
22.6139410461
 10
4.917222816
 20
22.6078729204
 10
4.8840950832
 20
22.6021939185
 10
4.8507066336
 20
22.5969051777
 10
4.8170532526
 20
22.5920055607
 10
4.783179576
 20
22.5875003757
 10
4.7490849274
 20
22.5833896829
 10
4.7147699831
 20
22.5796734222
 10
4.6802814085
 20
22.5763567216
 10
4.6456158503
 20
22.5734396966
 10
4.6107766616
 20
22.5709222318
 10
4.5758205668
 20
22.5688091087
 10
4.5407457028
 20
22.5671009768
 10
4.5055539325
 20
22.5657971867
 10
4.4703075695
 20
22.5649005715
 10
4.4350066528
 20
22.564411979
 10
4.3996511432
 20
22.5643305614
 10
4.3643032367
 20
22.5646566085
 10
4.3289629392
 20
22.5653909547
 10
4.2936302446
 20
22.5665327657
 10
4.2583673313
 20
22.5680798289
 10
4.2231742413
 20
22.5700329886
 10
4.1880509324
 20
22.5723914006
 10
4.1530594565
 20
22.5751503194
 10
4.1182018536
 20
22.5783103091
 10
4.0834760836
 20
22.5818708057
 10
4.0489380777
 20
22.5858253715
 10
4.0145911966
 20
22.590173992
 10
3.9804320796
 20
22.5949166818
 10
3.9465065758
 20
22.600047047
 10
3.9128150555
 20
22.6055651676
 10
3.8793571484
 20
22.6114709638
 10
3.8461775917
 20
22.6177578019
 10
3.8132718944
 20
22.6244270499
 10
3.7806445476
 20
22.6314773399
 10
3.748353762
 20
22.6388979348
 10
3.7163953006
 20
22.646691161
 10
3.6847734003
 20
22.654854692
 10
3.6535589827
 20
22.6633708109
 10
3.6227531335
 20
22.6722410868
 10
3.592354767
 20
22.6814639505
 10
3.5624315465
 20
22.6910169776
 10
3.5329856887
 20
22.7009014359
 10
3.5040149769
 20
22.7111160576
 10
3.4755804246
 20
22.7216346141
 10
3.4476835907
 20
22.7324586628
 10
3.4203229162
 20
22.7435866464
 10
3.3935547384
 20
22.7549876643
 10
3.3673978361
 20
22.7666514164
 10
3.3418334304
 20
22.7785882028
 10
3.3168615213
 20
22.7907980235
  0
LWPOLYLINE
  5
2C0
100
AcDbEntity
  8
268140580
100
AcDbPolyline
 62
250
  6
CONTINUOUS
 90
16
 70
0
 10
-16.5030991348
 20
23.4007812644
 10
-16.5027565185
 20
23.3942392699
 10
-16.5017296086
 20
23.3877152065
 10
-16.5000212199
 20
23.3812269563
 10
-16.497636035
 20
23.374792303
 10
-16.4945805913
 20
23.3684288838
 10
-16.4908632638
 20
23.3621541401
 10
-16.4864942414
 20
23.3559852707
 10
-16.4814854992
 20
23.349939184
 10
-16.4758507658
 20
23.3440324519
 10
-16.4696054857
 20
23.3382812644
 10
-16.4627667768
 20
23.332701385
 10
-16.4553533834
 20
23.3273081079
 10
-16.4473856251
 20
23.3221162155
 10
-16.4388853411
 20
23.3171399386
 10
-16.4298758301
 20
23.3123929167
  0
LWPOLYLINE
  5
2C1
100
AcDbEntity
  8
268140580
100
AcDbPolyline
 62
250
  6
CONTINUOUS
 90
16
 70
0
 10
-16.5030991348
 20
23.769091793
 10
-16.5027586308
 20
23.7625699825
 10
-16.50173354
 20
23.7560444511
 10
-16.5000266651
 20
23.7495546822
 10
-16.4976426846
 20
23.7431184786
 10
-16.4945881298
 20
23.7367534826
 10
-16.4908713741
 20
23.7304771512
 10
-16.486502605
 20
23.7243066948
 10
-16.4814937995
 20
23.7182590351
 10
-16.4758586947
 20
23.7123507619
 10
-16.4696127361
 20
23.7065980724
 10
-16.4627730538
 20
23.7010167468
 10
-16.4553584283
 20
23.6956221084
 10
-16.4473892052
 20
23.6904289546
 10
-16.4388872333
 20
23.6854515179
 10
-16.4298758301
 20
23.6807034453
  0
LWPOLYLINE
  5
2C2
100
AcDbEntity
  8
268140580
100
AcDbPolyline
 62
250
  6
CONTINUOUS
 90
16
 70
0
 10
-16.4298758301
 20
23.3123929167
 10
-16.4295767519
 20
23.2999537311
 10
-16.4286805293
 20
23.2878557139
 10
-16.4271901949
 20
23.2761398011
 10
-16.4251107914
 20
23.2648456354
 10
-16.4224493549
 20
23.254011433
 10
-16.4192148909
 20
23.2436738532
 10
-16.4154183437
 20
23.2338678751
 10
-16.4110725597
 20
23.2246266791
 10
-16.4061922437
 20
23.2159815345
 10
-16.400793909
 20
23.2079616936
 10
-16.394895822
 20
23.2005942931
 10
-16.3885179399
 20
23.193904262
 10
-16.3816818434
 20
23.1879142372
 10
-16.3744106637
 20
23.182644487
 10
-16.3668640418
 20
23.1781925054
  0
LINE
  5
2C3
100
AcDbEntity
  8
268140580
100
AcDbLine
 62
7
  6
CONTINUOUS
 10
-16.5030991348
 20
23.4007812644
 11
-16.5030991348
 21
23.769091793
  0
LINE
  5
2C4
100
AcDbEntity
  8
268140580
100
AcDbLine
 62
250
  6
CONTINUOUS
 10
-16.4298758301
 20
23.3123929167
 11
-16.4298758301
 21
23.6807034453
  0
LINE
  5
2C5
100
AcDbEntity
  8
268140580
100
AcDbLine
 62
7
  6
CONTINUOUS
 10
-16.2222426478
 20
21.2792094358
 11
-16.2222426478
 21
22.2502016647
  0
LINE
  5
2C6
100
AcDbEntity
  8
268140580
100
AcDbLine
 62
7
  6
CONTINUOUS
 10
-15.7959923536
 20
22.4387452749
 11
-15.7959923536
 21
22.8927193766
  0
LINE
  5
2C7
100
AcDbEntity
  8
268140580
100
AcDbLine
 62
7
  6
CONTINUOUS
 10
-15.7542669507
 20
20.8275517279
 11
-15.7542669507
 21
21.0452215873
  0
LINE
  5
2C8
100
AcDbEntity
  8
268140580
100
AcDbLine
 62
250
  6
CONTINUOUS
 10
-15.7227690489
 20
22.3470335801
 11
-15.7227690489
 21
22.8561077243
  0
LINE
  5
2C9
100
AcDbEntity
  8
268140580
100
AcDbLine
 62
250
  6
CONTINUOUS
 10
-15.666398985
 20
20.7836177451
 11
-15.666398985
 21
21.0012876044
  0
LWPOLYLINE
  5
2CA
100
AcDbEntity
  8
268140580
100
AcDbPolyline
 62
250
  6
CONTINUOUS
 90
28
 70
0
 10
-15.0863729458
 20
23.0089520032
 10
-15.0860705363
 20
23.0217617905
 10
-15.0851643422
 20
23.0348301603
 10
-15.0836574642
 20
23.0481124008
 10
-15.0815550577
 20
23.0615630685
 10
-15.0788643158
 20
23.0751361436
 10
-15.0755944447
 20
23.0887851877
 10
-15.0717566317
 20
23.1024635022
 10
-15.0673640075
 20
23.1161242884
 10
-15.0624316008
 20
23.1297208078
 10
-15.0569762873
 20
23.1432065415
 10
-15.0510167316
 20
23.1565353499
 10
-15.0445733237
 20
23.16966163
 10
-15.0376681087
 20
23.1825404721
 10
-15.030324712
 20
23.1951278127
 10
-15.0225682582
 20
23.2073805858
 10
-15.0144252849
 20
23.2192568702
 10
-15.0059236524
 20
23.2307160326
 10
-14.9970924478
 20
23.241718867
 10
-14.987961886
 20
23.2522277285
 10
-14.9785632061
 20
23.2622066625
 10
-14.9689285645
 20
23.2716215272
 10
-14.9590909248
 20
23.2804401109
 10
-14.9490839454
 20
23.2886322419
 10
-14.9389418639
 20
23.2961698918
 10
-14.92869938
 20
23.3030272717
 10
-14.9183915372
 20
23.3091809197
 10
-14.9080536024
 20
23.3146097819
  0
LWPOLYLINE
  5
2CB
100
AcDbEntity
  8
290140580
100
AcDbPolyline
 62
250
  6
CONTINUOUS
 90
4
 70
0
 10
-20.3915067412
 20
0.8393211455
 10
-20.3799053678
 20
0.8512301794
 10
-20.3664882261
 20
0.8624795847
 10
-20.3511689696
 20
0.8731686039
  0
LWPOLYLINE
  5
2CC
100
AcDbEntity
  8
290140600
100
AcDbPolyline
 62
250
  6
CONTINUOUS
 90
4
 70
0
 10
-20.3915067412
 20
0.8393211455
 10
-20.3799053678
 20
0.8512301794
 10
-20.3664882261
 20
0.8624795847
 10
-20.3511689696
 20
0.8731686039
  0
LWPOLYLINE
  5
2CD
100
AcDbEntity
  8
268140580
100
AcDbPolyline
 62
250
  6
CONTINUOUS
 90
28
 70
0
 10
-2.8872383222
 20
17.3042021419
 10
-2.897576257
 20
17.2987732796
 10
-2.9078840998
 20
17.2926196316
 10
-2.9181265837
 20
17.2857622518
 10
-2.9282686653
 20
17.2782246018
 10
-2.9382756447
 20
17.2700324708
 10
-2.9481132843
 20
17.2612138871
 10
-2.9577479259
 20
17.2517990224
 10
-2.9671466058
 20
17.2418200885
 10
-2.9762771676
 20
17.2313112269
 10
-2.9851083722
 20
17.2203083925
 10
-2.9936100048
 20
17.2088492301
 10
-3.001752978
 20
17.1969729457
 10
-3.0095094319
 20
17.1847201726
 10
-3.0168528285
 20
17.172132832
 10
-3.0237580435
 20
17.1592539899
 10
-3.0302014515
 20
17.1461277098
 10
-3.0361610071
 20
17.1327989014
 10
-3.0416163206
 20
17.1193131677
 10
-3.0465487273
 20
17.1057166483
 10
-3.0509413515
 20
17.0920558621
 10
-3.0547791645
 20
17.0783775476
 10
-3.0580490356
 20
17.0647285036
 10
-3.0607397775
 20
17.0511554284
 10
-3.062842184
 20
17.0377047607
 10
-3.0643490621
 20
17.0244225202
 10
-3.0652552561
 20
17.0113541504
 10
-3.0655576656
 20
16.9985443631
  0
LINE
  5
2CE
100
AcDbEntity
  8
268140580
100
AcDbLine
 62
7
  6
CONTINUOUS
 10
4.8108518126
 20
20.2800308353
 11
0.2036639118
 21
17.9188660428
  0
LINE
  5
2CF
100
AcDbEntity
  8
268140580
100
AcDbLine
 62
7
  6
CONTINUOUS
 10
-2.9986601478
 20
17.3114913142
 11
-0.8773398042
 21
18.3494784183
  0
LINE
  5
2D0
100
AcDbEntity
  8
268140580
100
AcDbLine
 62
250
  6
CONTINUOUS
 10
-2.8872383222
 20
17.3042021419
 11
-0.7659179787
 21
18.342189246
  0
LINE
  5
2D1
100
AcDbEntity
  8
CORPO_STAMPATO
100
AcDbLine
 62
7
  6
CONTINUOUS
 10
9.3088110051
 20
22.0640666224
 11
13.5514516922
 21
24.1400408307
  0
LINE
  5
2D2
100
AcDbEntity
  8
268140580
100
AcDbLine
 62
250
  6
CONTINUOUS
 10
0.5775849056
 20
17.6704378039
 11
-1.543735438
 21
16.6324506997
  0
LINE
  5
2D3
100
AcDbEntity
  8
268140580
100
AcDbLine
 62
250
  6
CONTINUOUS
 10
0.7528189528
 20
17.3647800251
 11
-1.3685013908
 21
16.326792921
  0
LINE
  5
2D4
100
AcDbEntity
  8
CORPO_STAMPATO
100
AcDbLine
 62
7
  6
CONTINUOUS
 10
8.9659449872
 20
23.4245895511
 11
12.5031322354
 21
25.1175651818
  0
LINE
  5
2D5
100
AcDbEntity
  8
CORPO_STAMPATO
100
AcDbLine
 62
7
  6
CONTINUOUS
 10
9.3088110051
 20
22.4925833981
 11
13.546623577
 21
24.5208937216
  0
LWPOLYLINE
  5
2D6
100
AcDbEntity
  8
268140580
100
AcDbPolyline
 62
250
  6
CONTINUOUS
 90
31
 70
0
 10
-1.3685013908
 20
16.326792921
 10
-1.3779954345
 20
16.3222881654
 10
-1.3879479883
 20
16.3180380234
 10
-1.398331773
 20
16.3140541443
 10
-1.4091183273
 20
16.3103474476
 10
-1.4202780861
 20
16.3069280931
 10
-1.4317804612
 20
16.3038054531
 10
-1.4435939253
 20
16.3009880864
 10
-1.4556860987
 20
16.2984837153
 10
-1.4680238375
 20
16.2962992041
 10
-1.4805733248
 20
16.2944405403
 10
-1.4933001634
 20
16.2929128185
 10
-1.5061694698
 20
16.291720226
 10
-1.5191459703
 20
16.2908660317
 10
-1.532194097
 20
16.2903525768
 10
-1.5452780861
 20
16.2901812686
 10
-1.5583620752
 20
16.2903525768
 10
-1.5714102019
 20
16.2908660317
 10
-1.5843867024
 20
16.291720226
 10
-1.5972560088
 20
16.2929128185
 10
-1.6099828474
 20
16.2944405403
 10
-1.6225323347
 20
16.2962992041
 10
-1.6348700735
 20
16.2984837153
 10
-1.6469622469
 20
16.3009880864
 10
-1.658775711
 20
16.3038054531
 10
-1.6702780861
 20
16.3069280931
 10
-1.6814378448
 20
16.3103474476
 10
-1.6922243992
 20
16.3140541443
 10
-1.7026081839
 20
16.3180380234
 10
-1.7125607377
 20
16.3222881654
 10
-1.7220547814
 20
16.326792921
  0
LWPOLYLINE
  5
2D7
100
AcDbEntity
  8
268140580
100
AcDbPolyline
 62
250
  6
CONTINUOUS
 90
13
 70
0
 10
0.5775849056
 20
17.6704378039
 10
0.5878035464
 20
17.6750756548
 10
0.5979828315
 20
17.6789709591
 10
0.608088699
 20
17.6821106824
 10
0.6180873327
 20
17.6844843185
 10
0.6279452751
 20
17.6860839247
 10
0.6376295395
 20
17.6869041485
 10
0.6471077204
 20
17.6869422452
 10
0.6563481019
 20
17.6861980874
 10
0.6653197639
 20
17.684674165
 10
0.6739926853
 20
17.6823755776
 10
0.6823378448
 20
17.6793100166
 10
0.6878456563
 20
17.6767751705
  0
LWPOLYLINE
  5
2D8
100
AcDbEntity
  8
268140580
100
AcDbPolyline
 62
250
  6
CONTINUOUS
 90
14
 70
0
 10
-0.8773398042
 20
18.3494784183
 10
-0.8701400727
 20
18.3526397427
 10
-0.862466078
 20
18.3552711828
 10
-0.8545315466
 20
18.3572709663
 10
-0.8463582379
 20
18.358633605
 10
-0.8379685617
 20
18.3593553593
 10
-0.8293855246
 20
18.3594342462
 10
-0.8206326705
 20
18.3588700472
 10
-0.8117339948
 20
18.3576643068
 10
-0.8027139054
 20
18.3558203301
 10
-0.7935971645
 20
18.3533431808
 10
-0.7844087821
 20
18.3502396593
 10
-0.7751739455
 20
18.3465182781
 10
-0.7659179787
 20
18.342189246
  0
LWPOLYLINE
  5
2D9
100
AcDbEntity
  8
268140580
100
AcDbPolyline
 62
250
  6
CONTINUOUS
 90
14
 70
0
 10
-2.9986601478
 20
17.3114913142
 10
-2.9914396763
 20
17.3146607401
 10
-2.9837666855
 20
17.3172899323
 10
-2.9758333455
 20
17.3192877314
 10
-2.9676614011
 20
17.3206486615
 10
-2.9592732508
 20
17.3213689924
 10
-2.9506918861
 20
17.3214467498
 10
-2.9419408279
 20
17.3208817205
 10
-2.9330440622
 20
17.3196754532
 10
-2.9240259744
 20
17.3178312543
 10
-2.9149112826
 20
17.3153541785
 10
-2.9057249693
 20
17.3122510153
 10
-2.8964922138
 20
17.3085302703
 10
-2.8872383222
 20
17.3042021419
  0
LINE
  5
2DA
100
AcDbEntity
  8
290140600
100
AcDbLine
 62
250
  6
CONTINUOUS
 10
-16.132180591
 20
-10.8434697139
 11
-9.7682195603
 21
-14.0254502292
  0
LWPOLYLINE
  5
2DB
100
AcDbEntity
  8
268140580
100
AcDbPolyline
 62
250
  6
CONTINUOUS
 90
31
 70
0
 10
-14.7328195552
 20
23.0089520032
 10
-14.732980127
 20
23.0204165546
 10
-14.7336230473
 20
23.03209834
 10
-14.7347474665
 20
23.043965818
 10
-14.7363515972
 20
23.0559893662
 10
-14.7384317562
 20
23.0681338255
 10
-14.740981381
 20
23.0803583851
 10
-14.7439927727
 20
23.0926268439
 10
-14.7474581783
 20
23.1049082184
 10
-14.7513682021
 20
23.1171691511
 10
-14.7557122381
 20
23.1293762405
 10
-14.7604783414
 20
23.1414957907
 10
-14.7656533238
 20
23.1534942275
 10
-14.7712229207
 20
23.1653385069
 10
-14.777171918
 20
23.1769963019
 10
-14.7834840584
 20
23.1884357499
 10
-14.7901420689
 20
23.1996255261
 10
-14.7971276731
 20
23.2105348941
 10
-14.8044216939
 20
23.2211338953
 10
-14.8120041239
 20
23.231393453
 10
-14.8198541808
 20
23.2412854435
 10
-14.8279503366
 20
23.2507827346
 10
-14.836270393
 20
23.2598592827
 10
-14.8447915351
 20
23.2684901947
 10
-14.8534903894
 20
23.2766517934
 10
-14.86234311
 20
23.2843217034
 10
-14.8713254144
 20
23.2914788841
 10
-14.880412641
 20
23.2981036865
 10
-14.88957986
 20
23.304177942
 10
-14.8988019433
 20
23.309685006
 10
-14.9080536024
 20
23.3146097819
  0
LINE
  5
2DC
100
AcDbEntity
  8
268140580
100
AcDbLine
 62
250
  6
CONTINUOUS
 10
-15.0863729458
 20
23.0089520032
 11
-15.0863729458
 21
22.6406414746
  0
LINE
  5
2DD
100
AcDbEntity
  8
268140580
100
AcDbLine
 62
7
  6
CONTINUOUS
 10
-15.0678590536
 20
20.4843477794
 11
-15.0678590536
 21
20.7020176387
  0
LINE
  5
2DE
100
AcDbEntity
  8
268140580
100
AcDbLine
 62
250
  6
CONTINUOUS
 10
-14.7328195552
 20
23.0089520032
 11
-14.7328195552
 21
22.6406414746
  0
LINE
  5
2DF
100
AcDbEntity
  8
268140580
100
AcDbLine
 62
250
  6
CONTINUOUS
 10
-14.3792661646
 20
22.2441948652
 11
-14.3792661646
 21
21.675282138
  0
LINE
  5
2E0
100
AcDbEntity
  8
268140580
100
AcDbLine
 62
250
  6
CONTINUOUS
 10
-14.025712774
 20
22.2441948652
 11
-14.025712774
 21
21.686628755
  0
LINE
  5
2E1
100
AcDbEntity
  8
268140580
100
AcDbLine
 62
250
  6
CONTINUOUS
 10
-13.3186059928
 20
22.2701203116
 11
-13.3186059928
 21
22.5977482558
  0
LINE
  5
2E2
100
AcDbEntity
  8
268140580
100
AcDbLine
 62
7
  6
CONTINUOUS
 10
-13.2453826881
 20
22.3585086593
 11
-13.2453826881
 21
22.6861366034
  0
LWPOLYLINE
  5
2E3
100
AcDbEntity
  8
268140580
100
AcDbPolyline
 62
7
  6
CONTINUOUS
 90
28
 70
0
 10
-13.2453826881
 20
22.6861366034
 10
-13.2452543387
 20
22.6947375405
 10
-13.2448540891
 20
22.7038239788
 10
-13.2441603728
 20
22.7133756163
 10
-13.2431530903
 20
22.7233720992
 10
-13.241814499
 20
22.7337853174
 10
-13.2401298165
 20
22.7445809699
 10
-13.2380848064
 20
22.7557341087
 10
-13.2356684231
 20
22.7672108576
 10
-13.2328753816
 20
22.7789623825
 10
-13.2296991941
 20
22.7909566921
 10
-13.2261362058
 20
22.8031575593
 10
-13.2221913419
 20
22.8155087031
 10
-13.2178661152
 20
22.8279745025
 10
-13.2131647697
 20
22.8405167483
 10
-13.2081027171
 20
22.8530752227
 10
-13.2026895321
 20
22.8656129214
 10
-13.1969370928
 20
22.8780920361
 10
-13.1908706084
 20
22.8904524932
 10
-13.1845070557
 20
22.9026586785
 10
-13.1778652265
 20
22.91467546
 10
-13.1709789268
 20
22.9264463603
 10
-13.1638715209
 20
22.9379395967
 10
-13.1565673957
 20
22.9491252449
 10
-13.1491069684
 20
22.9599539208
 10
-13.1415233145
 20
22.9703935145
 10
-13.133840264
 20
22.9804281148
 10
-13.1260869548
 20
22.9900369579
  0
LWPOLYLINE
  5
2E4
100
AcDbEntity
  8
268140580
100
AcDbPolyline
 62
250
  6
CONTINUOUS
 90
25
 70
0
 10
-13.3186059928
 20
22.5977482558
 10
-13.3182869316
 20
22.6165487429
 10
-13.3173040616
 20
22.6356423934
 10
-13.3156573829
 20
22.6550292074
 10
-13.3133454936
 20
22.6747545753
 10
-13.3103697955
 20
22.6947731067
 10
-13.3067344946
 20
22.7149486302
 10
-13.3024327829
 20
22.7352821316
 10
-13.2974714684
 20
22.7557726251
 10
-13.2918751816
 20
22.7762809819
 10
-13.2856377583
 20
22.7968069279
 10
-13.2787653627
 20
22.8173507372
 10
-13.2713011167
 20
22.8377741032
 10
-13.2632395344
 20
22.8580755966
 10
-13.2545861017
 20
22.8782566468
 10
-13.2454003984
 20
22.8981832356
 10
-13.235676866
 20
22.9178536201
 10
-13.225421063
 20
22.9372695432
 10
-13.2147092446
 20
22.9563022158
 10
-13.2035366525
 20
22.9749478123
 10
-13.1919080451
 20
22.9932101582
 10
-13.1799139528
 20
23.0109719415
 10
-13.1675845526
 20
23.0281940581
 10
-13.1548896675
 20
23.0449156121
 10
-13.1418292976
 20
23.0611366034
  0
LWPOLYLINE
  5
2E5
100
AcDbEntity
  8
290140600
100
AcDbPolyline
 62
250
  6
CONTINUOUS
 90
22
 70
0
 10
-4.2819032603
 20
12.9417038534
 10
-4.3571090463
 20
12.8969826119
 10
-4.4316498105
 20
12.8461983708
 10
-4.5051611385
 20
12.7896061149
 10
-4.5772835789
 20
12.727495184
 10
-4.6476652699
 20
12.6601711242
 10
-4.7159625692
 20
12.5879511797
 10
-4.7818503063
 20
12.5111812055
 10
-4.8449954279
 20
12.4302525396
 10
-4.9050613289
 20
12.3455849625
 10
-4.9617437506
 20
12.2576198026
 10
-5.0147813405
 20
12.1667779565
 10
-5.0639252223
 20
12.0734727166
 10
-5.1089414254
 20
11.9781452443
 10
-5.1495976557
 20
11.8812870572
 10
-5.185676925
 20
11.7834003206
 10
-5.2169990991
 20
11.6849840577
 10
-5.2434185226
 20
11.5865126878
 10
-5.2648059048
 20
11.4884560458
 10
-5.281054866
 20
11.3912939688
 10
-5.2920850832
 20
11.2955137808
 10
-5.2978415153
 20
11.2015900223
  0
LWPOLYLINE
  5
2E6
100
AcDbEntity
  8
290140580
100
AcDbPolyline
 62
250
  6
CONTINUOUS
 90
22
 70
0
 10
-4.2819032603
 20
12.9417038534
 10
-4.3571090463
 20
12.8969826119
 10
-4.4316498105
 20
12.8461983708
 10
-4.5051611385
 20
12.7896061149
 10
-4.5772835789
 20
12.727495184
 10
-4.6476652699
 20
12.6601711242
 10
-4.7159625692
 20
12.5879511797
 10
-4.7818503063
 20
12.5111812055
 10
-4.8449954279
 20
12.4302525396
 10
-4.9050613289
 20
12.3455849625
 10
-4.9617437506
 20
12.2576198026
 10
-5.0147813405
 20
12.1667779565
 10
-5.0639252223
 20
12.0734727166
 10
-5.1089414254
 20
11.9781452443
 10
-5.1495976557
 20
11.8812870572
 10
-5.185676925
 20
11.7834003206
 10
-5.2169990991
 20
11.6849840577
 10
-5.2434185226
 20
11.5865126878
 10
-5.2648059048
 20
11.4884560458
 10
-5.281054866
 20
11.3912939688
 10
-5.2920850832
 20
11.2955137808
 10
-5.2978415153
 20
11.2015900223
  0
LINE
  5
2E7
100
AcDbEntity
  8
268140580
100
AcDbLine
 62
7
  6
CONTINUOUS
 10
0.2187906935
 20
15.5010580381
 11
-0.6613946096
 21
15.0044696728
  0
LINE
  5
2E8
100
AcDbEntity
  8
268140580
100
AcDbLine
 62
250
  6
CONTINUOUS
 10
0.2735467995
 20
15.4697444402
 11
-0.798101814
 21
14.8846999627
  0
LINE
  5
2E9
100
AcDbEntity
  8
290140600
100
AcDbLine
 62
250
  6
CONTINUOUS
 10
-2.2266344794
 20
14.0637354923
 11
-4.2819032603
 21
12.9417038534
  0
LINE
  5
2EA
100
AcDbEntity
  8
290140580
100
AcDbLine
 62
250
  6
CONTINUOUS
 10
-2.2266344794
 20
14.0637354923
 11
-4.2819032603
 21
12.9417038534
  0
LINE
  5
2EB
100
AcDbEntity
  8
268140580
100
AcDbLine
 62
250
  6
CONTINUOUS
 10
0.2735411167
 20
15.4736828265
 11
0.2809425386
 21
15.477620909
  0
LWPOLYLINE
  5
2EC
100
AcDbEntity
  8
268140580
100
AcDbPolyline
 62
250
  6
CONTINUOUS
 90
15
 70
0
 10
0.0457121716
 20
15.9155891736
 10
0.0556917708
 20
15.920878053
 10
0.0650394401
 20
15.9264481149
 10
0.0737235503
 20
15.9322805117
 10
0.0817147175
 20
15.938355508
 10
0.0889859025
 20
15.9446525477
 10
0.0955125024
 20
15.9511503236
 10
0.1012724336
 20
15.9578268489
 10
0.1062462071
 20
15.9646595322
 10
0.1104169935
 20
15.9716252538
 10
0.1137706809
 20
15.9787004437
 10
0.116295922
 20
15.9858611618
 10
0.1179841727
 20
15.9930831785
 10
0.1188297211
 20
16.0003420566
 10
0.1189354763
 20
16.0039775212
  0
LWPOLYLINE
  5
2ED
100
AcDbEntity
  8
268140580
100
AcDbPolyline
 62
250
  6
CONTINUOUS
 90
11
 70
0
 10
0.0457121716
 20
15.5879612294
 10
0.0556917441
 20
15.5932500939
 10
0.0650393925
 20
15.5988201407
 10
0.0737234874
 20
15.6046525225
 10
0.0817146444
 20
15.6107275045
 10
0.0889858241
 20
15.6170245309
 10
0.095512423
 20
15.6235222944
 10
0.1012723573
 20
15.6301988087
 10
0.1062461372
 20
15.6370314826
 10
0.1104169329
 20
15.6439971964
 10
0.1137706317
 20
15.6510723805
  0
LINE
  5
2EE
100
AcDbEntity
  8
715140040
100
AcDbLine
 62
7
  6
CONTINUOUS
 10
9.0201127994
 20
21.1391283163
 11
9.6118587129
 21
21.4511676372
  0
LWPOLYLINE
  5
2EF
100
AcDbEntity
  8
268140580
100
AcDbPolyline
 62
250
  6
CONTINUOUS
 90
16
 70
0
 10
0.7528189528
 20
17.3647800251
 10
0.7618070961
 20
17.3695151829
 10
0.7702938354
 20
17.3744817722
 10
0.778254993
 20
17.3796666558
 10
0.7856692808
 20
17.38505723
 10
0.7925135412
 20
17.3906380135
 10
0.7987640625
 20
17.3963903014
 10
0.8044025105
 20
17.402296979
 10
0.8094148926
 20
17.4083431199
 10
0.8137875862
 20
17.4145123298
 10
0.8175086157
 20
17.4207878315
 10
0.8205676272
 20
17.427152303
 10
0.8229561113
 20
17.433588097
 10
0.8246675055
 20
17.4400774784
 10
0.8256971588
 20
17.4466027381
 10
0.8260422575
 20
17.4531683728
  0
LWPOLYLINE
  5
2F0
100
AcDbEntity
  8
268140580
100
AcDbPolyline
 62
250
  6
CONTINUOUS
 90
16
 70
0
 10
0.7528189528
 20
17.0191425642
 10
0.7618284638
 20
17.023889586
 10
0.7703287478
 20
17.0288658629
 10
0.7782965061
 20
17.0340577553
 10
0.7857098995
 20
17.0394510325
 10
0.7925486084
 20
17.0450309118
 10
0.7987938885
 20
17.0507820994
 10
0.8044286219
 20
17.0566888314
 10
0.8094373641
 20
17.0627349181
 10
0.8138063865
 20
17.0689037875
 10
0.817523714
 20
17.0751785312
 10
0.8205791577
 20
17.0815419505
 10
0.8229643426
 20
17.0879766037
 10
0.8246727313
 20
17.0944648539
 10
0.8256996412
 20
17.1009889173
 10
0.8260422575
 20
17.1075309118
  0
LINE
  5
2F1
100
AcDbEntity
  8
CORPO_STAMPATO
100
AcDbLine
 62
7
  6
CONTINUOUS
 10
0.9306515768
 20
15.8561699225
 11
6.5179652654
 21
18.7912415142
  0
LINE
  5
2F2
100
AcDbEntity
  8
268140580
100
AcDbLine
 62
7
  6
CONTINUOUS
 10
6.2418989111
 20
18.9725759616
 11
0.5202409451
 21
16.0613752384
  0
LINE
  5
2F3
100
AcDbEntity
  8
268140580
100
AcDbLine
 62
7
  6
CONTINUOUS
 10
6.2418989111
 20
19.3742836898
 11
0.2930584242
 21
16.3740601782
  0
LINE
  5
2F4
100
AcDbEntity
  8
715140040
100
AcDbLine
 62
7
  6
CONTINUOUS
 10
9.7401461416
 20
21.2280759059
 11
10.2351208885
 21
21.4755632793
  0
LINE
  5
2F5
100
AcDbEntity
  8
268140580
100
AcDbLine
 62
7
  6
CONTINUOUS
 10
0.0788663668
 20
15.4313332463
 11
0.2261921154
 21
15.5049961206
  0
LINE
  5
2F6
100
AcDbEntity
  8
715140040
100
AcDbLine
 62
7
  6
CONTINUOUS
 10
12.703298801
 20
21.6560631316
 11
11.39183449
 21
21.0003309761
  0
LINE
  5
2F7
100
AcDbEntity
  8
268140580
100
AcDbLine
 62
250
  6
CONTINUOUS
 10
1.0002632413
 20
15.8213640903
 11
0.2883496433
 21
15.4776206052
  0
LINE
  5
2F8
100
AcDbEntity
  8
268140580
100
AcDbLine
 62
250
  6
CONTINUOUS
 10
1.2831490387
 20
15.3335110301
 11
0.5662129915
 21
14.9873424836
  0
LINE
  5
2F9
100
AcDbEntity
  8
CORPO_STAMPATO
100
AcDbLine
 62
7
  6
CONTINUOUS
 10
17.0993263131
 20
22.8194681429
 11
13.5621390649
 21
21.1264925122
  0
LWPOLYLINE
  5
2FA
100
AcDbEntity
  8
268140580
100
AcDbPolyline
 62
250
  6
CONTINUOUS
 90
31
 70
0
 10
-1.3685013908
 20
15.9584823924
 10
-1.3779847716
 20
15.9539824376
 10
-1.3879285536
 20
15.9497353646
 10
-1.3983059015
 20
15.9457530154
 10
-1.4090897858
 20
15.942046188
 10
-1.4202500297
 20
15.938625665
 10
-1.4317530512
 20
15.9355019086
 10
-1.4435660886
 20
15.9326837557
 10
-1.4556579226
 20
15.9301785956
 10
-1.4679957242
 20
15.9279932437
 10
-1.4805459036
 20
15.9261336863
 10
-1.4932738643
 20
15.9246050857
 10
-1.5061443979
 20
15.9234116836
 10
-1.5191220991
 20
15.9225567582
 10
-1.5321715073
 20
15.9220426407
 10
-1.5452568795
 20
15.9218707405
 10
-1.5583423633
 20
15.9220415321
 10
-1.5713920628
 20
15.9225545502
 10
-1.5843701693
 20
15.9234083885
 10
-1.5972410923
 20
15.9246007049
 10
-1.6099695561
 20
15.9261282313
 10
-1.6225206644
 20
15.9279867797
 10
-1.6348600265
 20
15.9301712585
 10
-1.646953794
 20
15.9326756762
 10
-1.6587687569
 20
15.9354931529
 10
-1.670272494
 20
15.9386159503
 10
-1.6814335085
 20
15.942035511
 10
-1.6922212543
 20
15.9457424733
 10
-1.7026061725
 20
15.9497266805
 10
-1.7125597773
 20
15.9539772045
 10
-1.7220547814
 20
15.9584823924
  0
LWPOLYLINE
  5
2FB
100
AcDbEntity
  8
268140580
100
AcDbPolyline
 62
250
  6
CONTINUOUS
 90
13
 70
0
 10
0.1871335278
 20
15.6622435221
 10
0.1811211261
 20
15.6593939217
 10
0.1750903767
 20
15.65685112
 10
0.1690525315
 20
15.6546244723
 10
0.1630189564
 20
15.6527228339
 10
0.1570016208
 20
15.6511546899
 10
0.1510130639
 20
15.6499280229
 10
0.145058158
 20
15.6490492087
 10
0.1391569266
 20
15.6485266697
 10
0.1333439129
 20
15.6483663552
 10
0.1276333851
 20
15.6485692868
 10
0.1220338637
 20
15.6491358019
 10
0.120848567
 20
15.6493369339
  0
LWPOLYLINE
  5
2FC
100
AcDbEntity
  8
268140580
100
AcDbPolyline
 62
250
  6
CONTINUOUS
 90
28
 70
0
 10
-0.6613946096
 20
15.562035783
 10
-0.6719723385
 20
15.5570459967
 10
-0.6831124321
 20
15.5523721725
 10
-0.6947771958
 20
15.5480301251
 10
-0.7069271598
 20
15.5440345466
 10
-0.7195212125
 20
15.5403989568
 10
-0.7325167395
 20
15.5371356573
 10
-0.7458697681
 20
15.5342556901
 10
-0.7595351159
 20
15.5317688002
 10
-0.7734665436
 20
15.5296834024
 10
-0.7876169118
 20
15.5280065529
 10
-0.8019383401
 20
15.5267439258
 10
-0.8163823692
 20
15.5258997934
 10
-0.8309001252
 20
15.5254770119
 10
-0.8454424846
 20
15.5254770119
 10
-0.8599602406
 20
15.5258997934
 10
-0.8744042697
 20
15.5267439258
 10
-0.888725698
 20
15.5280065529
 10
-0.9028760662
 20
15.5296834024
 10
-0.9168074939
 20
15.5317688002
 10
-0.9304728417
 20
15.5342556901
 10
-0.9438258703
 20
15.5371356573
 10
-0.9568213973
 20
15.5403989567
 10
-0.96941545
 20
15.5440345466
 10
-0.981565414
 20
15.5480301251
 10
-0.9932301777
 20
15.5523721725
 10
-1.0043702713
 20
15.5570459967
 10
-1.0149480002
 20
15.562035783
  0
LWPOLYLINE
  5
2FD
100
AcDbEntity
  8
CORPO_STAMPATO
100
AcDbPolyline
 62
7
  6
CONTINUOUS
 90
88
 70
0
 10
13.5621390649
 20
21.1264925122
 10
13.5080362107
 20
21.1009698101
 10
13.4527684388
 20
21.0761128427
 10
13.396335749
 20
21.0519216101
 10
13.3387064649
 20
21.028383946
 10
13.279912263
 20
21.0055120166
 10
13.220048173
 20
20.9833423207
 10
13.159112993
 20
20.9618760491
 10
13.0971079249
 20
20.941112011
 10
13.0341316044
 20
20.9210831323
 10
12.970180399
 20
20.9017899948
 10
12.9052579411
 20
20.8832320167
 10
12.8394737636
 20
20.865440379
 10
12.7728283572
 20
20.8484168655
 10
12.7053212313
 20
20.8321596924
 10
12.637060446
 20
20.8166946898
 10
12.5680436868
 20
20.8020228728
 10
12.4982732682
 20
20.7881432263
 10
12.4278641949
 20
20.7750785344
 10
12.3568150452
 20
20.7628301388
 10
12.2851272408
 20
20.7513966979
 10
12.2129200513
 20
20.7407969703
 10
12.140195097
 20
20.7310325858
 10
12.0669507576
 20
20.7221019146
 10
11.9933014414
 20
20.7140188265
 10
11.9192415755
 20
20.7067842942
 10
11.8447767328
 20
20.7003973449
 10
11.7700380398
 20
20.6948689296
 10
11.6950325844
 20
20.6902008809
 10
11.6197532787
 20
20.6863913663
 10
11.5443099852
 20
20.6834458391
 10
11.4686926029
 20
20.6813654584
 10
11.3929112328
 20
20.6801490652
 10
11.3171060398
 20
20.6797986358
 10
11.2412889578
 20
20.6803155032
 10
11.1654480529
 20
20.6816983344
 10
11.0896876888
 20
20.6839451074
 10
11.0139954521
 20
20.6870576502
 10
10.9383837562
 20
20.6910341347
 10
10.8629942049
 20
20.6958670542
 10
10.7878388371
 20
20.7015570209
 10
10.7129056138
 20
20.7081034226
 10
10.6383000221
 20
20.7154969163
 10
10.5640125081
 20
20.72373987
 10
10.4900526256
 20
20.7328299156
 10
10.4165545224
 20
20.7427506053
 10
10.3435263454
 20
20.753502366
 10
10.2709599477
 20
20.7650847709
 10
10.1989650367
 20
20.7774800922
 10
10.1275385869
 20
20.790690227
 10
10.0566836238
 20
20.8047132783
 10
9.9865189314
 20
20.8195258265
 10
9.9170458488
 20
20.8351292717
 10
9.8482630369
 20
20.8515222139
 10
9.7802852634
 20
20.8686770328
 10
9.7131173828
 20
20.8865938918
 10
9.6467545405
 20
20.9052726276
 10
9.5812969402
 20
20.9246851292
 10
9.5167391957
 20
20.9448348398
 10
9.4530866932
 20
20.9657183162
 10
9.3904557948
 20
20.9872971179
 10
9.3288576574
 20
21.009568897
 10
9.268281124
 20
21.0325360014
 10
9.2088090855
 20
21.0561670346
 10
9.1504322985
 20
21.0804676616
 10
9.0931600062
 20
21.1054322173
 10
9.0371028301
 20
21.1310123098
 10
8.9822745121
 20
21.1572033741
 10
8.9286613102
 20
21.184009975
 10
8.8763326187
 20
21.2113974155
 10
8.8252794086
 20
21.2393725162
 10
8.7755107089
 20
21.2679284564
 10
8.7271230014
 20
21.2970100766
 10
8.680127662
 20
21.3266127324
 10
8.6345133148
 20
21.3567410683
 10
8.5903423139
 20
21.3873538583
 10
8.5476101047
 20
21.4184566105
 10
8.5063212417
 20
21.4500438167
 10
8.4665517437
 20
21.4820577274
 10
8.4283085297
 20
21.5144956329
 10
8.3915846807
 20
21.5473602429
 10
8.3564354574
 20
21.5806019357
 10
8.3228613003
 20
21.6142230822
 10
8.290861769
 20
21.6482213116
 10
8.2604908035
 20
21.6825398904
 10
8.2317512948
 20
21.7171794428
 10
8.204640352
 20
21.7521393445
 10
8.181049436
 20
21.7847151939
  0
LWPOLYLINE
  5
2FE
100
AcDbEntity
  8
CORPO_STAMPATO
100
AcDbPolyline
 62
250
  6
CONTINUOUS
 90
26
 70
0
 10
17.643402843
 20
22.547429878
 10
17.6626627552
 20
22.5563264891
 10
17.6818992006
 20
22.5645688941
 10
17.7010978941
 20
22.5721509721
 10
17.7202445787
 20
22.5790670927
 10
17.7393250359
 20
22.58531212
 10
17.7583250965
 20
22.5908814162
 10
17.7772306509
 20
22.5957708457
 10
17.7960276597
 20
22.5999767775
 10
17.8147021642
 20
22.6034960883
 10
17.8332402967
 20
22.6063261645
 10
17.8516282905
 20
22.6084649047
 10
17.8698524906
 20
22.6099107204
 10
17.8878993638
 20
22.6106625382
 10
17.9057555082
 20
22.6107197996
 10
17.9234076637
 20
22.6100824622
 10
17.9408427219
 20
22.6087509991
 10
17.9580477353
 20
22.6067263993
 10
17.9750099274
 20
22.6040101661
 10
17.991716702
 20
22.6006043167
 10
18.0081556524
 20
22.5965113802
 10
18.0243145712
 20
22.5917343961
 10
18.0401814586
 20
22.5862769118
 10
18.0557445316
 20
22.5801429801
 10
18.0709922332
 20
22.5733371561
 10
18.0782757235
 20
22.5697932076
  0
LWPOLYLINE
  5
2FF
100
AcDbEntity
  8
715140040
100
AcDbPolyline
 62
7
  6
CONTINUOUS
 90
10
 70
0
 10
13.5518006128
 20
21.2317859001
 10
13.5631970771
 20
21.2369545553
 10
13.5744174796
 20
21.2410064517
 10
13.5854618203
 20
21.2439415892
 10
13.5964250792
 20
21.2457601206
 10
13.6072122764
 20
21.246461893
 10
13.6175384718
 20
21.2460464487
 10
13.6273086856
 20
21.2445136348
 10
13.6366178976
 20
21.2418636041
 10
13.6454661079
 20
21.2380963565
  0
LWPOLYLINE
  5
300
100
AcDbEntity
  8
268140580
100
AcDbPolyline
 62
250
  6
CONTINUOUS
 90
16
 70
0
 10
0.2883496433
 20
15.4776206052
 10
0.28793662
 20
15.4774598598
 10
0.2874950305
 20
15.4773214651
 10
0.2870248748
 20
15.4772054211
 10
0.2865195319
 20
15.4771114884
 10
0.2859856229
 20
15.4770399064
 10
0.2854430109
 20
15.4769913936
 10
0.284891696
 20
15.47696595
 10
0.2843316782
 20
15.4769635755
 10
0.2837828208
 20
15.4769849885
 10
0.2832451236
 20
15.4770301892
 10
0.2827185868
 20
15.4770991775
 10
0.2822230736
 20
15.4771926717
 10
0.281765205
 20
15.4773109115
 10
0.28133836
 20
15.4774536572
 10
0.2809425386
 20
15.477620909
  0
LWPOLYLINE
  5
301
100
AcDbEntity
  8
268140580
100
AcDbPolyline
 62
250
  6
CONTINUOUS
 90
28
 70
0
 10
-0.8381713049
 20
-24.700956704
 10
-0.8436097084
 20
-24.6924746722
 10
-0.8496278665
 20
-24.6837222627
 10
-0.8562054156
 20
-24.6747290909
 10
-0.8633200994
 20
-24.6655255868
 10
-0.8709478439
 20
-24.6561428922
 10
-0.8790628394
 20
-24.6466127552
 10
-0.8876376273
 20
-24.6369674228
 10
-0.8966431932
 20
-24.6272395316
 10
-0.9060490651
 20
-24.6174619978
 10
-0.9158234165
 20
-24.6076679054
 10
-0.9259331742
 20
-24.5978903947
 10
-0.9363441298
 20
-24.5881625495
 10
-0.9470210561
 20
-24.5785172858
 10
-0.9579278256
 20
-24.5689872402
 10
-0.9690275333
 20
-24.5596046593
 10
-0.9802826214
 20
-24.5504012908
 10
-0.9916550062
 20
-24.5414082759
 10
-1.003106207
 20
-24.5326560442
 10
-1.0145974768
 20
-24.5241742105
 10
-1.0260899326
 20
-24.5159914746
 10
-1.0375446876
 20
-24.5081355243
 10
-1.0489229826
 20
-24.5006329417
 10
-1.060186317
 20
-24.4935091131
 10
-1.0712965792
 20
-24.4867881432
 10
-1.0822161758
 20
-24.4804927738
 10
-1.092908158
 20
-24.4746443063
 10
-1.1033363479
 20
-24.4692625302
  0
LWPOLYLINE
  5
302
100
AcDbEntity
  8
268140580
100
AcDbPolyline
 62
250
  6
CONTINUOUS
 90
31
 70
0
 10
-1.3685013908
 20
-25.341121747
 10
-1.373363949
 20
-25.3335090455
 10
-1.378698249
 20
-25.3256731896
 10
-1.3844900853
 20
-25.317635444
 10
-1.3907245848
 20
-25.3094168765
 10
-1.3973845063
 20
-25.3010406126
 10
-1.4044498942
 20
-25.2925319099
 10
-1.4119005958
 20
-25.2839149832
 10
-1.4197168912
 20
-25.2752125872
 10
-1.4278775665
 20
-25.2664483528
 10
-1.4363604224
 20
-25.2576461522
 10
-1.4451420926
 20
-25.2488302613
 10
-1.4541982918
 20
-25.2400250709
 10
-1.4635041049
 20
-25.2312548016
 10
-1.4730341023
 20
-25.2225434159
 10
-1.4827621814
 20
-25.2139147753
 10
-1.49266169
 20
-25.2053925222
 10
-1.5027054737
 20
-25.1970000359
 10
-1.5128659727
 20
-25.1887603457
 10
-1.5231153232
 20
-25.1806960479
 10
-1.5334254342
 20
-25.1728292442
 10
-1.5437680396
 20
-25.1651815023
 10
-1.5541148007
 20
-25.1577737776
 10
-1.5644373351
 20
-25.1506263908
 10
-1.5747072956
 20
-25.1437589679
 10
-1.5848964972
 20
-25.1371903517
 10
-1.5949770384
 20
-25.1309385244
 10
-1.6049213289
 20
-25.1250205956
 10
-1.6147021211
 20
-25.1194527807
 10
-1.6242925867
 20
-25.1142503526
 10
-1.6336664337
 20
-25.1094275732
  0
LINE
  5
303
100
AcDbEntity
  8
268140580
100
AcDbLine
 62
250
  6
CONTINUOUS
 10
-12.6114992117
 20
23.7013016464
 11
-12.6114992117
 21
24.0469391074
  0
LINE
  5
304
100
AcDbEntity
  8
268140580
100
AcDbLine
 62
7
  6
CONTINUOUS
 10
-12.538275907
 20
23.789689994
 11
-12.538275907
 21
24.135327455
  0
LINE
  5
305
100
AcDbEntity
  8
268140580
100
AcDbLine
 62
7
  6
CONTINUOUS
 10
-11.0051582653
 20
21.6913224913
 11
-11.0051582653
 21
20.430594864
  0
LINE
  5
306
100
AcDbEntity
  8
268140580
100
AcDbLine
 62
250
  6
CONTINUOUS
 10
-10.9172902997
 20
21.5859205529
 11
-10.9172902997
 21
20.3205408302
  0
LWPOLYLINE
  5
307
100
AcDbEntity
  8
268140580
100
AcDbPolyline
 62
250
  6
CONTINUOUS
 90
16
 70
0
 10
0.2735467995
 20
15.4697444402
 10
0.2738675874
 20
15.4699740241
 10
0.2741438053
 20
15.4702173908
 10
0.2743754534
 20
15.4704745401
 10
0.2745630413
 20
15.4707490001
 10
0.2747060593
 20
15.4710372428
 10
0.2748029779
 20
15.4713286843
 10
0.274853797
 20
15.4716233245
 10
0.2748585166
 20
15.4719211634
 10
0.2748156072
 20
15.4722116171
 10
0.2747250688
 20
15.4724946856
 10
0.2745869014
 20
15.4727703689
 10
0.2743995754
 20
15.473028083
 10
0.274162581
 20
15.4732643
 10
0.2738764281
 20
15.4734825478
 10
0.2735411167
 20
15.4736828265
  0
LWPOLYLINE
  5
308
100
AcDbEntity
  8
290140580
100
AcDbPolyline
 62
7
  6
CONTINUOUS
 90
12
 70
0
 10
-20.4265234347
 20
0.8873153178
 10
-20.4579450426
 20
0.8687542804
 10
-20.4879158316
 20
0.8475461074
 10
-20.5146597413
 20
0.8247918338
 10
-20.5382741295
 20
0.8005757986
 10
-20.5588244269
 20
0.7749666018
 10
-20.5762458916
 20
0.748158813
 10
-20.5905033092
 20
0.7203391984
 10
-20.6015915578
 20
0.6916825678
 10
-20.609468874
 20
0.66251075
 10
-20.6141500179
 20
0.6330959043
 10
-20.6156755037
 20
0.6038340795
  0
LWPOLYLINE
  5
309
100
AcDbEntity
  8
290140600
100
AcDbPolyline
 62
7
  6
CONTINUOUS
 90
12
 70
0
 10
-20.4265234347
 20
0.8873153178
 10
-20.4579450426
 20
0.8687542804
 10
-20.4879158316
 20
0.8475461074
 10
-20.5146597413
 20
0.8247918338
 10
-20.5382741295
 20
0.8005757986
 10
-20.5588244269
 20
0.7749666018
 10
-20.5762458916
 20
0.748158813
 10
-20.5905033092
 20
0.7203391984
 10
-20.6015915578
 20
0.6916825678
 10
-20.609468874
 20
0.66251075
 10
-20.6141500179
 20
0.6330959043
 10
-20.6156755037
 20
0.6038340795
  0
LWPOLYLINE
  5
30A
100
AcDbEntity
  8
290140600
100
AcDbPolyline
 62
250
  6
CONTINUOUS
 90
22
 70
0
 10
-3.9160705203
 20
12.3387014076
 10
-3.9667552745
 20
12.3088285109
 10
-4.0165594075
 20
12.2752480023
 10
-4.0654829192
 20
12.237959882
 10
-4.113771447
 20
12.1967377844
 10
-4.1611793536
 20
12.151808075
 10
-4.2069697275
 20
12.1038498506
 10
-4.2511102053
 20
12.0528179268
 10
-4.2936331505
 20
11.998757488
 10
-4.3338987425
 20
11.9424831834
 10
-4.3718652053
 20
11.8839744501
 10
-4.407574315
 20
11.823251851
 10
-4.4405115797
 20
11.7611917248
 10
-4.4706421022
 20
11.6977625196
 10
-4.4980007796
 20
11.6329957872
 10
-4.5221778119
 20
11.5678625218
 10
-4.5431235538
 20
11.5023432219
 10
-4.5608876505
 20
11.4364573891
 10
-4.5752092386
 20
11.3712345224
 10
-4.5860013634
 20
11.3070177883
 10
-4.5933509795
 20
11.2434640203
 10
-4.597258087
 20
11.1805732186
  0
LWPOLYLINE
  5
30B
100
AcDbEntity
  8
290140580
100
AcDbPolyline
 62
250
  6
CONTINUOUS
 90
22
 70
0
 10
-3.9160705203
 20
12.3387014076
 10
-3.9667552745
 20
12.3088285109
 10
-4.0165594075
 20
12.2752480023
 10
-4.0654829192
 20
12.237959882
 10
-4.113771447
 20
12.1967377844
 10
-4.1611793536
 20
12.151808075
 10
-4.2069697275
 20
12.1038498506
 10
-4.2511102053
 20
12.0528179268
 10
-4.2936331505
 20
11.998757488
 10
-4.3338987425
 20
11.9424831834
 10
-4.3718652053
 20
11.8839744501
 10
-4.407574315
 20
11.823251851
 10
-4.4405115797
 20
11.7611917248
 10
-4.4706421022
 20
11.6977625196
 10
-4.4980007796
 20
11.6329957872
 10
-4.5221778119
 20
11.5678625218
 10
-4.5431235538
 20
11.5023432219
 10
-4.5608876505
 20
11.4364573891
 10
-4.5752092386
 20
11.3712345224
 10
-4.5860013634
 20
11.3070177883
 10
-4.5933509795
 20
11.2434640203
 10
-4.597258087
 20
11.1805732186
  0
LINE
  5
30C
100
AcDbEntity
  8
268140580
100
AcDbLine
 62
250
  6
CONTINUOUS
 10
0.5662129915
 20
14.9873424836
 11
-0.5154744013
 21
14.3968175414
  0
LINE
  5
30D
100
AcDbEntity
  8
290140600
100
AcDbLine
 62
250
  6
CONTINUOUS
 10
-1.8733502134
 20
13.4538824657
 11
-3.9160705203
 21
12.3387014076
  0
LINE
  5
30E
100
AcDbEntity
  8
290140580
100
AcDbLine
 62
250
  6
CONTINUOUS
 10
-1.8733502134
 20
13.4538824657
 11
-3.9160705203
 21
12.3387014076
  0
LINE
  5
30F
100
AcDbEntity
  8
290140600
100
AcDbLine
 62
7
  6
CONTINUOUS
 10
-1.2977907127
 20
12.9176029905
 11
-1.8733502134
 21
12.6033881413
  0
LINE
  5
310
100
AcDbEntity
  8
290140580
100
AcDbLine
 62
7
  6
CONTINUOUS
 10
-1.2977907127
 20
12.9176029905
 11
-1.8733502134
 21
12.6033881413
  0
LINE
  5
311
100
AcDbEntity
  8
CORPO_STAMPATO
100
AcDbLine
 62
250
  6
CONTINUOUS
 10
18.2502285302
 20
21.859475219
 11
1.2831490387
 21
13.2274262346
  0
LINE
  5
312
100
AcDbEntity
  8
715140040
100
AcDbLine
 62
7
  6
CONTINUOUS
 10
13.5518295087
 20
21.231800348
 11
12.7978404083
 21
20.8548057978
  0
LINE
  5
313
100
AcDbEntity
  8
CORPO_STAMPATO
100
AcDbLine
 62
250
  6
CONTINUOUS
 10
18.1433266906
 20
22.0438536187
 11
18.1806293887
 21
22.0622309996
  0
LINE
  5
314
100
AcDbEntity
  8
CORPO_STAMPATO
100
AcDbLine
 62
250
  6
CONTINUOUS
 10
18.2502285302
 20
21.859475219
 11
18.2875071622
 21
21.8778408574
  0
LINE
  5
315
100
AcDbEntity
  8
CORPO_STAMPATO
100
AcDbLine
 62
250
  6
CONTINUOUS
 10
7.2634922011
 20
17.5053977554
 11
17.643402843
 21
22.547429878
  0
LINE
  5
316
100
AcDbEntity
  8
CORPO_STAMPATO
100
AcDbLine
 62
250
  6
CONTINUOUS
 10
7.601160535
 20
16.9230060283
 11
18.1433266906
 21
22.0438536187
  0
LINE
  5
317
100
AcDbEntity
  8
268140580
100
AcDbLine
 62
7
  6
CONTINUOUS
 10
-0.5154744013
 20
13.4258253125
 11
0.0563182626
 21
13.7019121911
  0
LWPOLYLINE
  5
318
100
AcDbEntity
  8
CORPO_STAMPATO
100
AcDbPolyline
 62
250
  6
CONTINUOUS
 90
31
 70
0
 10
18.1806293887
 20
22.0622309996
 10
18.2162978366
 20
22.079457948
 10
18.233485868
 20
22.0876238611
 10
18.2502259765
 20
22.095483239
 10
18.2665057285
 20
22.1030302435
 10
18.2823129976
 20
22.1102592525
 10
18.297635997
 20
22.1171648751
 10
18.3124633222
 20
22.1237419718
 10
18.3267839586
 20
22.1299856569
 10
18.3405872591
 20
22.1358912883
 10
18.3538629606
 20
22.1414544749
 10
18.3666011897
 20
22.1466710794
 10
18.3787924727
 20
22.1515372218
 10
18.3904277436
 20
22.1560492836
 10
18.4014983511
 20
22.1602039098
 10
18.4119960629
 20
22.163998011
 10
18.421913073
 20
22.1674287659
 10
18.4312420072
 20
22.1704936236
 10
18.4399759284
 20
22.1731903048
 10
18.4481083422
 20
22.1755168043
 10
18.4556332011
 20
22.1774713923
 10
18.4625449099
 20
22.1790526152
 10
18.4688383289
 20
22.1802592972
 10
18.4745087784
 20
22.1810905412
 10
18.4795520418
 20
22.1815457288
 10
18.483964369
 20
22.1816245218
 10
18.4877424789
 20
22.1813268614
 10
18.4908835622
 20
22.1806529691
 10
18.4933852831
 20
22.1796033459
 10
18.4952457814
 20
22.1781787723
 10
18.4961699393
 20
22.1769519762
  0
LWPOLYLINE
  5
319
100
AcDbEntity
  8
CORPO_STAMPATO
100
AcDbPolyline
 62
250
  6
CONTINUOUS
 90
31
 70
0
 10
18.2875071622
 20
21.8778408574
 10
18.323153722
 20
21.8950575917
 10
18.3403316938
 20
21.9032190038
 10
18.357062344
 20
21.9110742906
 10
18.3733332484
 20
21.9186176186
 10
18.389132324
 20
21.9258433864
 10
18.4044478384
 20
21.9327462278
 10
18.4192684183
 20
21.9393210168
 10
18.4335830577
 20
21.945562871
 10
18.4473811266
 20
21.9514671551
 10
18.4606523783
 20
21.9570294846
 10
18.4733869577
 20
21.9622457289
 10
18.485575408
 20
21.9671120142
 10
18.4972086779
 20
21.971624727
 10
18.5082781284
 20
21.975780516
 10
18.5187755395
 20
21.9795762952
 10
18.5286931156
 20
21.9830092457
 10
18.5380234918
 20
21.9860768182
 10
18.5467597395
 20
21.9887767348
 10
18.554895371
 20
21.9911069904
 10
18.5624243447
 20
21.9930658546
 10
18.5693410697
 20
21.9946518728
 10
18.5756404094
 20
21.9958638672
 10
18.581317686
 20
21.9967009376
 10
18.5863686835
 20
21.9971624626
 10
18.5907896509
 20
21.9972480993
 10
18.5945773054
 20
21.9969577843
 10
18.597728834
 20
21.996291733
 10
18.6002418966
 20
21.9952504401
 10
18.6021146268
 20
21.9938346788
 10
18.6030717641
 20
21.9925736021
  0
LWPOLYLINE
  5
31A
100
AcDbEntity
  8
290140600
100
AcDbPolyline
 62
250
  6
CONTINUOUS
 90
16
 70
0
 10
-4.597258087
 20
11.1805732186
 10
-4.6362672164
 20
11.1654409774
 10
-4.6785798444
 20
11.1523977143
 10
-4.7237426117
 20
11.1415831814
 10
-4.7712716215
 20
11.1331132511
 10
-4.8206576236
 20
11.1270786746
 10
-4.8713714713
 20
11.1235441094
 10
-4.9228697904
 20
11.1225474266
 10
-4.9746008017
 20
11.1240993052
 10
-5.0260102327
 20
11.1281831177
 10
-5.0765472566
 20
11.1347551079
 10
-5.1256703938
 20
11.1437448601
 10
-5.172853314
 20
11.1550560538
 10
-5.2175904753
 20
11.168567495
 10
-5.2594025409
 20
11.1841344152
 10
-5.297841515
 20
11.2015900224
  0
LWPOLYLINE
  5
31B
100
AcDbEntity
  8
290140580
100
AcDbPolyline
 62
250
  6
CONTINUOUS
 90
16
 70
0
 10
-4.597258087
 20
11.1805732186
 10
-4.6362672164
 20
11.1654409774
 10
-4.6785798444
 20
11.1523977143
 10
-4.7237426117
 20
11.1415831814
 10
-4.7712716215
 20
11.1331132511
 10
-4.8206576236
 20
11.1270786746
 10
-4.8713714713
 20
11.1235441094
 10
-4.9228697904
 20
11.1225474266
 10
-4.9746008017
 20
11.1240993052
 10
-5.0260102327
 20
11.1281831177
 10
-5.0765472566
 20
11.1347551079
 10
-5.1256703938
 20
11.1437448601
 10
-5.172853314
 20
11.1550560538
 10
-5.2175904753
 20
11.168567495
 10
-5.2594025409
 20
11.1841344152
 10
-5.297841515
 20
11.2015900224
  0
LWPOLYLINE
  5
31C
100
AcDbEntity
  8
268140580
100
AcDbPolyline
 62
7
  6
CONTINUOUS
 90
15
 70
0
 10
0.1290615071
 20
-23.8571711323
 10
0.1290450214
 20
-23.8571428818
 10
0.1287108589
 20
-23.8565248117
 10
0.1280668588
 20
-23.8551817231
 10
0.1271935391
 20
-23.8531085435
 10
0.1261774208
 20
-23.8503467687
 10
0.1250785955
 20
-23.8469027546
 10
0.1239494309
 20
-23.8427775909
 10
0.1228405156
 20
-23.8379833842
 10
0.1217966901
 20
-23.832527121
 10
0.1208602906
 20
-23.8264206651
 10
0.1200694038
 20
-23.8196653874
 10
0.1194612348
 20
-23.8122669672
 10
0.1190721456
 20
-23.8042469464
 10
0.1189354763
 20
-23.7956266181
  0
LINE
  5
31D
100
AcDbEntity
  8
268140580
100
AcDbLine
 62
250
  6
CONTINUOUS
 10
0.2224888669
 20
16.3789775212
 11
0.7528189528
 21
17.0191425642
  0
LINE
  5
31E
100
AcDbEntity
  8
268140580
100
AcDbLine
 62
7
  6
CONTINUOUS
 10
0.2382312097
 20
16.3078778757
 11
0.7685612956
 21
16.9480429186
  0
LWPOLYLINE
  5
31F
100
AcDbEntity
  8
268140580
100
AcDbPolyline
 62
250
  6
CONTINUOUS
 90
9
 70
0
 10
0.2896594408
 20
15.472033885
 10
0.2908057795
 20
15.4732569924
 10
0.2911634339
 20
15.4738900871
 10
0.2912439128
 20
15.4745809342
 10
0.2911115844
 20
15.4752946707
 10
0.2907553768
 20
15.4759619992
 10
0.2901733076
 20
15.4765605826
 10
0.2893708724
 20
15.4771134517
 10
0.2883496433
 20
15.4776206052
  0
LINE
  5
320
100
AcDbEntity
  8
290140580
100
AcDbLine
 62
7
  6
CONTINUOUS
 10
-20.426527901
 20
0.8873235656
 11
-20.3992462284
 21
0.902042722
  0
LINE
  5
321
100
AcDbEntity
  8
290140600
100
AcDbLine
 62
7
  6
CONTINUOUS
 10
-20.426527901
 20
0.8873235656
 11
-20.3992462284
 21
0.902042722
  0
LWPOLYLINE
  5
322
100
AcDbEntity
  8
CORPO_STAMPATO
100
AcDbPolyline
 62
250
  6
CONTINUOUS
 90
30
 70
0
 10
18.6643790059
 20
20.4278416444
 10
18.6830401444
 20
20.4377709874
 10
18.7011532395
 20
20.4479508854
 10
18.7187048401
 20
20.4583737787
 10
18.7356819123
 20
20.4690319272
 10
18.7520718489
 20
20.4799174162
 10
18.7678624786
 20
20.491022162
 10
18.7830420752
 20
20.5023379181
 10
18.7975993663
 20
20.5138562815
 10
18.8115235415
 20
20.5255686985
 10
18.8248042607
 20
20.5374664714
 10
18.8374316615
 20
20.5495407649
 10
18.8493963668
 20
20.5617826125
 10
18.8606894914
 20
20.5741829233
 10
18.8713026492
 20
20.5867324889
 10
18.8812279585
 20
20.5994219899
 10
18.890458049
 20
20.6122420028
 10
18.8989860662
 20
20.6251830077
 10
18.9068056773
 20
20.6382353943
 10
18.9139110752
 20
20.6513894699
 10
18.9202969836
 20
20.6646354662
 10
18.9259586602
 20
20.6779635467
 10
18.9308919006
 20
20.6913638138
 10
18.9350930414
 20
20.7048263165
 10
18.9385589627
 20
20.7183410575
 10
18.9412870908
 20
20.7318980005
 10
18.9432753998
 20
20.7454870781
 10
18.9445224131
 20
20.7590981991
 10
18.9450272046
 20
20.7727212557
 10
18.9450392055
 20
20.7751693198
  0
LINE
  5
323
100
AcDbEntity
  8
CORPO_STAMPATO
100
AcDbLine
 62
250
  6
CONTINUOUS
 10
18.6643790059
 20
20.4278416444
 11
1.2831490387
 21
11.5850924511
  0
LWPOLYLINE
  5
324
100
AcDbEntity
  8
290140580
100
AcDbPolyline
 62
250
  6
CONTINUOUS
 90
5
 70
0
 10
-20.4264442188
 20
0.8873687822
 10
-20.4210040801
 20
0.89002799
 10
-20.405538012
 20
0.8949703835
 10
-20.3888052721
 20
0.8967722425
 10
-20.3886869776
 20
0.8967630966
  0
LWPOLYLINE
  5
325
100
AcDbEntity
  8
290140600
100
AcDbPolyline
 62
250
  6
CONTINUOUS
 90
5
 70
0
 10
-20.4264442188
 20
0.8873687822
 10
-20.4210040801
 20
0.89002799
 10
-20.405538012
 20
0.8949703835
 10
-20.3888052721
 20
0.8967722425
 10
-20.3886869776
 20
0.8967630966
  0
LINE
  5
326
100
AcDbEntity
  8
290140580
100
AcDbLine
 62
250
  6
CONTINUOUS
 10
-5.6020944792
 20
-7.0077800288
 11
-20.4692281366
 21
0.4257867999
  0
LINE
  5
327
100
AcDbEntity
  8
290140600
100
AcDbLine
 62
250
  6
CONTINUOUS
 10
-5.6020944792
 20
-7.0077800288
 11
-20.4692281366
 21
0.4257867999
  0
LWPOLYLINE
  5
328
100
AcDbEntity
  8
290140580
100
AcDbPolyline
 62
250
  6
CONTINUOUS
 90
10
 70
0
 10
-20.4692174705
 20
0.4257921388
 10
-20.4983801378
 20
0.441709523
 10
-20.5247193961
 20
0.4588632025
 10
-20.547993028
 20
0.4771194441
 10
-20.5680311044
 20
0.4963375849
 10
-20.5847043286
 20
0.5163740911
 10
-20.5978842058
 20
0.5370860217
 10
-20.6074714816
 20
0.5583209824
 10
-20.613412379
 20
0.5799182012
 10
-20.6156755092
 20
0.6038425505
  0
LWPOLYLINE
  5
329
100
AcDbEntity
  8
290140600
100
AcDbPolyline
 62
250
  6
CONTINUOUS
 90
10
 70
0
 10
-20.4692174705
 20
0.4257921388
 10
-20.4983801378
 20
0.441709523
 10
-20.5247193961
 20
0.4588632025
 10
-20.547993028
 20
0.4771194441
 10
-20.5680311044
 20
0.4963375849
 10
-20.5847043286
 20
0.5163740911
 10
-20.5978842058
 20
0.5370860217
 10
-20.6074714816
 20
0.5583209824
 10
-20.613412379
 20
0.5799182012
 10
-20.6156755092
 20
0.6038425505
  0
LWPOLYLINE
  5
32A
100
AcDbEntity
  8
290140580
100
AcDbPolyline
 62
250
  6
CONTINUOUS
 90
13
 70
0
 10
-20.3302749659
 20
0.6685781212
 10
-20.3478352822
 20
0.6781807135
 10
-20.3635134512
 20
0.6884014209
 10
-20.3773094732
 20
0.6992402432
 10
-20.3893132759
 20
0.7107937882
 10
-20.3994349316
 20
0.7229654483
 10
-20.4074046561
 20
0.7354653999
 10
-20.4131602538
 20
0.7482955516
 10
-20.4167639203
 20
0.7614539948
 10
-20.4181324584
 20
0.7746451808
 10
-20.4172134774
 20
0.7878690605
 10
-20.4140593678
 20
0.8011256831
 10
-20.4087441046
 20
0.8141196464
  0
LWPOLYLINE
  5
32B
100
AcDbEntity
  8
290140600
100
AcDbPolyline
 62
250
  6
CONTINUOUS
 90
13
 70
0
 10
-20.3302749659
 20
0.6685781212
 10
-20.3478352822
 20
0.6781807135
 10
-20.3635134512
 20
0.6884014209
 10
-20.3773094732
 20
0.6992402432
 10
-20.3893132759
 20
0.7107937882
 10
-20.3994349316
 20
0.7229654483
 10
-20.4074046561
 20
0.7354653999
 10
-20.4131602538
 20
0.7482955516
 10
-20.4167639203
 20
0.7614539948
 10
-20.4181324584
 20
0.7746451808
 10
-20.4172134774
 20
0.7878690605
 10
-20.4140593678
 20
0.8011256831
 10
-20.4087441046
 20
0.8141196464
  0
LWPOLYLINE
  5
32C
100
AcDbEntity
  8
268140580
100
AcDbPolyline
 62
7
  6
CONTINUOUS
 90
25
 70
0
 10
-13.1771846366
 20
22.3444026043
 10
-13.1754397045
 20
22.3301990368
 10
-13.1741355994
 20
22.3163656521
 10
-13.1732723214
 20
22.3029024502
 10
-13.1727805066
 20
22.2898002766
 10
-13.1727295188
 20
22.2770682859
 10
-13.1733274493
 20
22.2647339412
 10
-13.1746352482
 20
22.2527891432
 10
-13.1765919654
 20
22.2412419913
 10
-13.1792228414
 20
22.2301442474
 10
-13.1825630806
 20
22.2195141126
 10
-13.1865774786
 20
22.2093333858
 10
-13.1911856627
 20
22.199599225
 10
-13.1963843806
 20
22.1903321055
 10
-13.2021768846
 20
22.1815115519
 10
-13.2084925582
 20
22.1730732971
 10
-13.2153369667
 20
22.1650026361
 10
-13.2227045449
 20
22.1573142738
 10
-13.2305079805
 20
22.1499880571
 10
-13.2387498425
 20
22.1430210897
 10
-13.2474275618
 20
22.1364162679
 10
-13.2564461189
 20
22.1301621274
 10
-13.2657738407
 20
22.1242548466
 10
-13.2754424002
 20
22.1186982469
 10
-13.2854517976
 20
22.1134923285
  0
LWPOLYLINE
  5
32D
100
AcDbEntity
  8
290140580
100
AcDbPolyline
 62
250
  6
CONTINUOUS
 90
13
 70
0
 10
-5.2978415153
 20
-24.3297577509
 10
-5.2920850832
 20
-24.4180605657
 10
-5.281054866
 20
-24.5030638506
 10
-5.2648059048
 20
-24.5843481063
 10
-5.2434185226
 20
-24.661509286
 10
-5.2169990991
 20
-24.734170978
 10
-5.185676925
 20
-24.8019837755
 10
-5.1495976557
 20
-24.864620663
 10
-5.1089414254
 20
-24.921761003
 10
-5.0639252223
 20
-24.9731055102
 10
-5.0147813405
 20
-25.0183960981
 10
-4.9617437506
 20
-25.0574244387
 10
-4.9054601888
 20
-25.0898083067
  0
LWPOLYLINE
  5
32E
100
AcDbEntity
  8
290140600
100
AcDbPolyline
 62
250
  6
CONTINUOUS
 90
13
 70
0
 10
-5.2978415153
 20
-24.3297577509
 10
-5.2920850832
 20
-24.4180605657
 10
-5.281054866
 20
-24.5030638506
 10
-5.2648059048
 20
-24.5843481063
 10
-5.2434185226
 20
-24.661509286
 10
-5.2169990991
 20
-24.734170978
 10
-5.185676925
 20
-24.8019837755
 10
-5.1495976557
 20
-24.864620663
 10
-5.1089414254
 20
-24.921761003
 10
-5.0639252223
 20
-24.9731055102
 10
-5.0147813405
 20
-25.0183960981
 10
-4.9617437506
 20
-25.0574244387
 10
-4.9054601888
 20
-25.0898083067
  0
LWPOLYLINE
  5
32F
100
AcDbEntity
  8
268140580
100
AcDbPolyline
 62
250
  6
CONTINUOUS
 90
27
 70
0
 10
-1.3685013908
 20
15.9584823924
 10
-1.3733695458
 20
15.9464775894
 10
-1.3787088902
 20
15.9347479571
 10
-1.3845047891
 20
15.9233256455
 10
-1.3907413565
 20
15.9122419624
 10
-1.3974014984
 20
15.9015272875
 10
-1.4044669596
 20
15.8912109888
 10
-1.4119183744
 20
15.8813213428
 10
-1.4197353189
 20
15.8718854561
 10
-1.4278963674
 20
15.8629291919
 10
-1.436379151
 20
15.8544770987
 10
-1.445160419
 20
15.8465523431
 10
-1.4542161026
 20
15.8391766463
 10
-1.4635213808
 20
15.8323702246
 10
-1.4730507484
 20
15.8261517338
 10
-1.4827780861
 20
15.8205382186
 10
-1.492676732
 20
15.815545065
 10
-1.5027195545
 20
15.8111859591
 10
-1.512879027
 20
15.8074728487
 10
-1.5231273031
 20
15.8044159113
 10
-1.5334362929
 20
15.8020235258
 10
-1.5437777403
 20
15.8003022494
 10
-1.5541233
 20
15.7992568002
 10
-1.5644446156
 20
15.7988900435
 10
-1.574713397
 20
15.7992029847
 10
-1.5849014984
 20
15.800194766
 10
-1.5959788387
 20
15.802065851
  0
LWPOLYLINE
  5
330
100
AcDbEntity
  8
268140580
100
AcDbPolyline
 62
250
  6
CONTINUOUS
 90
25
 70
0
 10
-0.8381713049
 20
15.8486474353
 10
-0.8436097283
 20
15.8353251108
 10
-0.8496279086
 20
15.8223469485
 10
-0.8562054816
 20
15.8097568625
 10
-0.8633201905
 20
15.7975974536
 10
-0.8709479607
 20
15.7859098652
 10
-0.8790629815
 20
15.7747336448
 10
-0.8876377936
 20
15.7641066089
 10
-0.8966433821
 20
15.7540647156
 10
-0.9060492743
 20
15.7446419432
 10
-0.9158236431
 20
15.735870175
 10
-0.9259334149
 20
15.7277790913
 10
-0.9363443811
 20
15.7203960691
 10
-0.9470213138
 20
15.7137460896
 10
-0.9579280856
 20
15.7078516534
 10
-0.9690277916
 20
15.7027327048
 10
-0.9802828735
 20
15.6984065639
 10
-0.9916552479
 20
15.6948878683
 10
-1.0031064347
 20
15.6921885234
 10
-1.0145976868
 20
15.6903176622
 10
-1.0260901216
 20
15.6892816145
 10
-1.0375448531
 20
15.6890838855
 10
-1.0489231224
 20
15.6897251437
 10
-1.0601864293
 20
15.6912032189
 10
-1.0656487528
 20
15.692230894
  0
LWPOLYLINE
  5
331
100
AcDbEntity
  8
715140040
100
AcDbPolyline
 62
250
  6
CONTINUOUS
 90
9
 70
0
 10
9.1304221859
 20
21.0891899172
 10
9.1505809312
 20
21.1123438924
 10
9.2096598017
 20
21.1716031096
 10
9.2747525811
 20
21.2292110428
 10
9.3456284129
 20
21.2849845104
 10
9.4221215507
 20
21.338812446
 10
9.5041129545
 20
21.3906136297
 10
9.5913615514
 20
21.440231269
 10
9.6118587129
 20
21.4511676372
  0
LWPOLYLINE
  5
332
100
AcDbEntity
  8
290140600
100
AcDbPolyline
 62
7
  6
CONTINUOUS
 90
14
 70
0
 10
-5.5504534217
 20
-6.5223433765
 10
-5.5094466636
 20
-6.540728994
 10
-5.466166921
 20
-6.5561080669
 10
-5.4214006943
 20
-6.5684104173
 10
-5.3753430888
 20
-6.5777969802
 10
-5.3283460593
 20
-6.5843143163
 10
-5.2807328407
 20
-6.5880084255
 10
-5.2327910826
 20
-6.5888812484
 10
-5.185008037
 20
-6.5869194743
 10
-5.1376713484
 20
-6.5821135736
 10
-5.091114565
 20
-6.5744034363
 10
-5.0457072393
 20
-6.563732579
 10
-5.0016464352
 20
-6.549939603
 10
-4.9559689779
 20
-6.5313412708
  0
LWPOLYLINE
  5
333
100
AcDbEntity
  8
290140580
100
AcDbPolyline
 62
7
  6
CONTINUOUS
 90
14
 70
0
 10
-5.5504534217
 20
-6.5223433765
 10
-5.5094466636
 20
-6.540728994
 10
-5.466166921
 20
-6.5561080669
 10
-5.4214006943
 20
-6.5684104173
 10
-5.3753430888
 20
-6.5777969802
 10
-5.3283460593
 20
-6.5843143163
 10
-5.2807328407
 20
-6.5880084255
 10
-5.2327910826
 20
-6.5888812484
 10
-5.185008037
 20
-6.5869194743
 10
-5.1376713484
 20
-6.5821135736
 10
-5.091114565
 20
-6.5744034363
 10
-5.0457072393
 20
-6.563732579
 10
-5.0016464352
 20
-6.549939603
 10
-4.9559689779
 20
-6.5313412708
  0
LWPOLYLINE
  5
334
100
AcDbEntity
  8
290140600
100
AcDbPolyline
 62
250
  6
CONTINUOUS
 90
19
 70
0
 10
-5.60208382
 20
-6.4142063085
 10
-5.5702831704
 20
-6.4288047016
 10
-5.5360802767
 20
-6.4420265634
 10
-5.4997420765
 20
-6.4537505208
 10
-5.4615461676
 20
-6.4638897455
 10
-5.4217777105
 20
-6.4723786352
 10
-5.3807234784
 20
-6.4791533884
 10
-5.3386832032
 20
-6.4841618493
 10
-5.2959735771
 20
-6.4873747037
 10
-5.2529114037
 20
-6.4887671639
 10
-5.2098166035
 20
-6.4883173611
 10
-5.167009349
 20
-6.4860364747
 10
-5.1248068981
 20
-6.4819486711
 10
-5.0835270245
 20
-6.4760744747
 10
-5.0434728858
 20
-6.4684553386
 10
-5.0049328611
 20
-6.459154533
 10
-4.9681933579
 20
-6.4482325144
 10
-4.9335345672
 20
-6.4357625087
 10
-4.9012261128
 20
-6.421857183
  0
LWPOLYLINE
  5
335
100
AcDbEntity
  8
290140580
100
AcDbPolyline
 62
250
  6
CONTINUOUS
 90
19
 70
0
 10
-5.60208382
 20
-6.4142063085
 10
-5.5702831704
 20
-6.4288047016
 10
-5.5360802767
 20
-6.4420265634
 10
-5.4997420765
 20
-6.4537505208
 10
-5.4615461676
 20
-6.4638897455
 10
-5.4217777105
 20
-6.4723786352
 10
-5.3807234784
 20
-6.4791533884
 10
-5.3386832032
 20
-6.4841618493
 10
-5.2959735771
 20
-6.4873747037
 10
-5.2529114037
 20
-6.4887671639
 10
-5.2098166035
 20
-6.4883173611
 10
-5.167009349
 20
-6.4860364747
 10
-5.1248068981
 20
-6.4819486711
 10
-5.0835270245
 20
-6.4760744747
 10
-5.0434728858
 20
-6.4684553386
 10
-5.0049328611
 20
-6.459154533
 10
-4.9681933579
 20
-6.4482325144
 10
-4.9335345672
 20
-6.4357625087
 10
-4.9012261128
 20
-6.421857183
  0
LINE
  5
336
100
AcDbEntity
  8
290140580
100
AcDbLine
 62
250
  6
CONTINUOUS
 10
-5.4631413086
 20
-6.7649887075
 11
-20.3302749659
 21
0.6685781212
  0
LINE
  5
337
100
AcDbEntity
  8
290140600
100
AcDbLine
 62
250
  6
CONTINUOUS
 10
-5.4631413086
 20
-6.7649887075
 11
-20.3302749659
 21
0.6685781212
  0
LINE
  5
338
100
AcDbEntity
  8
290140600
100
AcDbLine
 62
7
  6
CONTINUOUS
 10
-20.4172495424
 20
0.911044379
 11
-5.5501158875
 21
-6.5225224485
  0
LINE
  5
339
100
AcDbEntity
  8
290140580
100
AcDbLine
 62
7
  6
CONTINUOUS
 10
-20.4172495424
 20
0.911044379
 11
-5.5501158875
 21
-6.5225224485
  0
LINE
  5
33A
100
AcDbEntity
  8
290140600
100
AcDbLine
 62
250
  6
CONTINUOUS
 10
-20.4692281366
 20
1.0193551964
 11
-5.6020944792
 21
-6.4142116323
  0
LINE
  5
33B
100
AcDbEntity
  8
290140580
100
AcDbLine
 62
250
  6
CONTINUOUS
 10
-20.4692281366
 20
1.0193551964
 11
-5.6020944792
 21
-6.4142116323
  0
LWPOLYLINE
  5
33C
100
AcDbEntity
  8
290140580
100
AcDbPolyline
 62
250
  6
CONTINUOUS
 90
22
 70
0
 10
-4.597258087
 20
-24.3151566043
 10
-4.5933509795
 20
-24.3742743563
 10
-4.5860013634
 20
-24.4307306824
 10
-4.5752092386
 20
-24.4845255827
 10
-4.5608876505
 20
-24.5359182526
 10
-4.5431235538
 20
-24.5846494966
 10
-4.522177812
 20
-24.6299417288
 10
-4.4980007796
 20
-24.6717275054
 10
-4.4706421022
 20
-24.7100742701
 10
-4.4405115797
 20
-24.744406768
 10
-4.407574315
 20
-24.7746597474
 10
-4.3718652053
 20
-24.8008984601
 10
-4.3338987425
 20
-24.8227434065
 10
-4.2936331505
 20
-24.8401336808
 10
-4.2511102053
 20
-24.8531301888
 10
-4.2069697275
 20
-24.8615361486
 10
-4.1611793536
 20
-24.8652751229
 10
-4.113771447
 20
-24.8644235491
 10
-4.0654829192
 20
-24.8590139575
 10
-4.0165594074
 20
-24.8490571917
 10
-3.9667552745
 20
-24.8345424081
 10
-3.9160705203
 20
-24.8154696067
  0
LWPOLYLINE
  5
33D
100
AcDbEntity
  8
290140600
100
AcDbPolyline
 62
250
  6
CONTINUOUS
 90
22
 70
0
 10
-4.597258087
 20
-24.3151566043
 10
-4.5933509795
 20
-24.3742743563
 10
-4.5860013634
 20
-24.4307306824
 10
-4.5752092386
 20
-24.4845255827
 10
-4.5608876505
 20
-24.5359182526
 10
-4.5431235538
 20
-24.5846494966
 10
-4.522177812
 20
-24.6299417288
 10
-4.4980007796
 20
-24.6717275054
 10
-4.4706421022
 20
-24.7100742701
 10
-4.4405115797
 20
-24.744406768
 10
-4.407574315
 20
-24.7746597474
 10
-4.3718652053
 20
-24.8008984601
 10
-4.3338987425
 20
-24.8227434065
 10
-4.2936331505
 20
-24.8401336808
 10
-4.2511102053
 20
-24.8531301888
 10
-4.2069697275
 20
-24.8615361486
 10
-4.1611793536
 20
-24.8652751229
 10
-4.113771447
 20
-24.8644235491
 10
-4.0654829192
 20
-24.8590139575
 10
-4.0165594074
 20
-24.8490571917
 10
-3.9667552745
 20
-24.8345424081
 10
-3.9160705203
 20
-24.8154696067
  0
LWPOLYLINE
  5
33E
100
AcDbEntity
  8
290140580
100
AcDbPolyline
 62
250
  6
CONTINUOUS
 90
13
 70
0
 10
-4.9012147673
 20
-7.0062478793
 10
-4.9027305931
 20
-6.9831901007
 10
-4.9065968669
 20
-6.9592964242
 10
-4.912747423
 20
-6.9349755519
 10
-4.9210770343
 20
-6.9106434628
 10
-4.9314431926
 20
-6.8867163581
 10
-4.9436685313
 20
-6.863603538
 10
-4.9575439044
 20
-6.8417003073
 10
-4.9728319627
 20
-6.821381251
 10
-4.989271177
 20
-6.8029938781
 10
-5.0065803513
 20
-6.7868526209
 10
-5.0244634391
 20
-6.7732334677
 10
-5.0426145843
 20
-6.76236927
  0
LWPOLYLINE
  5
33F
100
AcDbEntity
  8
290140600
100
AcDbPolyline
 62
250
  6
CONTINUOUS
 90
13
 70
0
 10
-4.9012147673
 20
-7.0062478793
 10
-4.9027305931
 20
-6.9831901007
 10
-4.9065968669
 20
-6.9592964242
 10
-4.912747423
 20
-6.9349755519
 10
-4.9210770343
 20
-6.9106434628
 10
-4.9314431926
 20
-6.8867163581
 10
-4.9436685313
 20
-6.863603538
 10
-4.9575439044
 20
-6.8417003073
 10
-4.9728319627
 20
-6.821381251
 10
-4.989271177
 20
-6.8029938781
 10
-5.0065803513
 20
-6.7868526209
 10
-5.0244634391
 20
-6.7732334677
 10
-5.0426145843
 20
-6.76236927
  0
LWPOLYLINE
  5
340
100
AcDbEntity
  8
290140600
100
AcDbPolyline
 62
250
  6
CONTINUOUS
 90
8
 70
0
 10
-5.6020944792
 20
-6.4142116323
 10
-5.6009243775
 20
-6.4359976678
 10
-5.5974049988
 20
-6.4562365134
 10
-5.5915953267
 20
-6.4745891822
 10
-5.5835926995
 20
-6.4907483006
 10
-5.5735311959
 20
-6.5044432178
 10
-5.5615794034
 20
-6.5154445576
 10
-5.5504571311
 20
-6.522350739
  0
LWPOLYLINE
  5
341
100
AcDbEntity
  8
290140580
100
AcDbPolyline
 62
250
  6
CONTINUOUS
 90
8
 70
0
 10
-5.6020944792
 20
-6.4142116323
 10
-5.6009243775
 20
-6.4359976678
 10
-5.5974049988
 20
-6.4562365134
 10
-5.5915953267
 20
-6.4745891822
 10
-5.5835926995
 20
-6.4907483006
 10
-5.5735311959
 20
-6.5044432178
 10
-5.5615794034
 20
-6.5154445576
 10
-5.5504571311
 20
-6.522350739
  0
LWPOLYLINE
  5
342
100
AcDbEntity
  8
290140580
100
AcDbPolyline
 62
250
  6
CONTINUOUS
 90
5
 70
0
 10
-4.804615897
 20
-16.6590335521
 10
-4.7636159006
 20
-18.5785998404
 10
-4.715389681
 20
-20.4944708277
 10
-4.6599370765
 20
-22.4066564156
 10
-4.597258087
 20
-24.3151566043
  0
LWPOLYLINE
  5
343
100
AcDbEntity
  8
290140600
100
AcDbPolyline
 62
250
  6
CONTINUOUS
 90
5
 70
0
 10
-4.804615897
 20
-16.6590335521
 10
-4.7636159006
 20
-18.5785998404
 10
-4.715389681
 20
-20.4944708277
 10
-4.6599370765
 20
-22.4066564156
 10
-4.597258087
 20
-24.3151566043
  0
LWPOLYLINE
  5
344
100
AcDbEntity
  8
290140580
100
AcDbPolyline
 62
250
  6
CONTINUOUS
 90
5
 70
0
 10
-4.8963487981
 20
-8.9441124412
 10
-4.8842559589
 20
-10.8783213091
 10
-4.8649362495
 20
-12.808874483
 10
-4.8383895083
 20
-14.7357818646
 10
-4.804615897
 20
-16.6590335521
  0
LWPOLYLINE
  5
345
100
AcDbEntity
  8
290140600
100
AcDbPolyline
 62
250
  6
CONTINUOUS
 90
5
 70
0
 10
-4.8963487981
 20
-8.9441124412
 10
-4.8842559589
 20
-10.8783213091
 10
-4.8649362495
 20
-12.808874483
 10
-4.8383895083
 20
-14.7357818646
 10
-4.804615897
 20
-16.6590335521
  0
LWPOLYLINE
  5
346
100
AcDbEntity
  8
290140580
100
AcDbPolyline
 62
250
  6
CONTINUOUS
 90
10
 70
0
 10
-5.6020944792
 20
-7.0077800288
 10
-5.597211324
 20
-8.9470457214
 10
-5.5850960402
 20
-10.8827289358
 10
-5.5657493557
 20
-12.814791005
 10
-5.5391725958
 20
-14.7431636489
 10
-5.5053665381
 20
-16.667838165
 10
-5.4643303171
 20
-18.5888648539
 10
-5.4160634629
 20
-20.5062343574
 10
-5.3605669959
 20
-22.4198782346
 10
-5.2978415153
 20
-24.3297577509
  0
LWPOLYLINE
  5
347
100
AcDbEntity
  8
290140600
100
AcDbPolyline
 62
250
  6
CONTINUOUS
 90
10
 70
0
 10
-5.6020944792
 20
-7.0077800288
 10
-5.597211324
 20
-8.9470457214
 10
-5.5850960402
 20
-10.8827289358
 10
-5.5657493557
 20
-12.814791005
 10
-5.5391725958
 20
-14.7431636489
 10
-5.5053665381
 20
-16.667838165
 10
-5.4643303171
 20
-18.5888648539
 10
-5.4160634629
 20
-20.5062343574
 10
-5.3605669959
 20
-22.4198782346
 10
-5.2978415153
 20
-24.3297577509
  0
LINE
  5
348
100
AcDbEntity
  8
290140580
100
AcDbLine
 62
250
  6
CONTINUOUS
 10
-4.9012147672
 20
-7.0062478793
 11
-4.8963487981
 21
-8.9441124412
  0
LINE
  5
349
100
AcDbEntity
  8
290140600
100
AcDbLine
 62
250
  6
CONTINUOUS
 10
-4.9012147672
 20
-7.0062478793
 11
-4.8963487981
 21
-8.9441124412
  0
LINE
  5
34A
100
AcDbEntity
  8
268140580
100
AcDbLine
 62
250
  6
CONTINUOUS
 10
-5.4697207217
 20
22.6626006558
 11
-5.4697207217
 21
21.3934988164
  0
LINE
  5
34B
100
AcDbEntity
  8
268140580
100
AcDbLine
 62
250
  6
CONTINUOUS
 10
-5.1133199682
 20
17.4185556645
 11
-5.1133199682
 21
18.6839353872
  0
LINE
  5
34C
100
AcDbEntity
  8
268140580
100
AcDbLine
 62
250
  6
CONTINUOUS
 10
-4.687837632
 20
17.432862679
 11
-4.687837632
 21
18.682267674
  0
LINE
  5
34D
100
AcDbEntity
  8
268140580
100
AcDbLine
 62
7
  6
CONTINUOUS
 10
-4.5037948954
 20
22.7920101784
 11
-4.5037948954
 21
22.1857923957
  0
LINE
  5
34E
100
AcDbEntity
  8
268140580
100
AcDbLine
 62
7
  6
CONTINUOUS
 10
-4.1262178374
 20
24.0570758039
 11
-4.1262178374
 21
23.334352098
  0
LWPOLYLINE
  5
34F
100
AcDbEntity
  8
290140600
100
AcDbPolyline
 62
250
  6
CONTINUOUS
 90
6
 70
0
 10
-4.804615897
 20
3.3242070569
 10
-4.8383895083
 20
1.368340572
 10
-4.8649362495
 20
-0.5842026996
 10
-4.8842559589
 20
-2.5334126999
 10
-4.8963487981
 20
-4.4792994869
 10
-4.9012147672
 20
-6.4218630606
  0
LWPOLYLINE
  5
350
100
AcDbEntity
  8
290140580
100
AcDbPolyline
 62
250
  6
CONTINUOUS
 90
6
 70
0
 10
-4.804615897
 20
3.3242070569
 10
-4.8383895083
 20
1.368340572
 10
-4.8649362495
 20
-0.5842026996
 10
-4.8842559589
 20
-2.5334126999
 10
-4.8963487981
 20
-4.4792994869
 10
-4.9012147672
 20
-6.4218630606
  0
LWPOLYLINE
  5
351
100
AcDbEntity
  8
290140600
100
AcDbPolyline
 62
250
  6
CONTINUOUS
 90
9
 70
0
 10
-5.3605669959
 20
9.2311351242
 10
-5.4160634629
 20
7.2638970533
 10
-5.4643303171
 20
5.2999151436
 10
-5.5053665381
 20
3.3392588616
 10
-5.5391725958
 20
1.3819370902
 10
-5.5657493557
 20
-0.5721013524
 10
-5.5850960402
 20
-2.5228469916
 10
-5.597211324
 20
-4.4702302164
 10
-5.6020944792
 20
-6.4142116323
  0
LWPOLYLINE
  5
352
100
AcDbEntity
  8
290140580
100
AcDbPolyline
 62
250
  6
CONTINUOUS
 90
9
 70
0
 10
-5.3605669959
 20
9.2311351242
 10
-5.4160634629
 20
7.2638970533
 10
-5.4643303171
 20
5.2999151436
 10
-5.5053665381
 20
3.3392588616
 10
-5.5391725958
 20
1.3819370902
 10
-5.5657493557
 20
-0.5721013524
 10
-5.5850960402
 20
-2.5228469916
 10
-5.597211324
 20
-4.4702302164
 10
-5.6020944792
 20
-6.4142116323
  0
LWPOLYLINE
  5
353
100
AcDbEntity
  8
290140600
100
AcDbPolyline
 62
250
  6
CONTINUOUS
 90
4
 70
0
 10
-4.6599370765
 20
9.2115446333
 10
-4.715389681
 20
7.2458090876
 10
-4.7636159006
 20
5.2833665814
 10
-4.804615897
 20
3.3242070569
  0
LWPOLYLINE
  5
354
100
AcDbEntity
  8
290140580
100
AcDbPolyline
 62
250
  6
CONTINUOUS
 90
4
 70
0
 10
-4.6599370765
 20
9.2115446333
 10
-4.715389681
 20
7.2458090876
 10
-4.7636159006
 20
5.2833665814
 10
-4.804615897
 20
3.3242070569
  0
LINE
  5
355
100
AcDbEntity
  8
290140600
100
AcDbLine
 62
250
  6
CONTINUOUS
 10
-5.2978415153
 20
11.2015900223
 11
-5.3605669959
 21
9.2311351242
  0
LINE
  5
356
100
AcDbEntity
  8
290140580
100
AcDbLine
 62
250
  6
CONTINUOUS
 10
-5.2978415153
 20
11.2015900223
 11
-5.3605669959
 21
9.2311351242
  0
LINE
  5
357
100
AcDbEntity
  8
290140600
100
AcDbLine
 62
250
  6
CONTINUOUS
 10
-4.597258087
 20
11.1805732186
 11
-4.6599370765
 21
9.2115446333
  0
LINE
  5
358
100
AcDbEntity
  8
290140580
100
AcDbLine
 62
250
  6
CONTINUOUS
 10
-4.597258087
 20
11.1805732186
 11
-4.6599370765
 21
9.2115446333
  0
LWPOLYLINE
  5
359
100
AcDbEntity
  8
290140580
100
AcDbPolyline
 62
250
  6
CONTINUOUS
 90
13
 70
0
 10
-5.6020944792
 20
-7.0077800288
 10
-5.6009244502
 20
-6.9848246252
 10
-5.5974052694
 20
-6.9610670623
 10
-5.5915958815
 20
-6.9369052694
 10
-5.5835935915
 20
-6.9127439469
 10
-5.5735324344
 20
-6.8889877869
 10
-5.5615809308
 20
-6.8660346952
 10
-5.5479392635
 20
-6.8442691268
 10
-5.5328359248
 20
-6.8240556459
 10
-5.5165238895
 20
-6.8057328202
 10
-5.4992763776
 20
-6.7896075495
 10
-5.4813822776
 20
-6.7759499253
 10
-5.4631413086
 20
-6.7649887075
  0
LWPOLYLINE
  5
35A
100
AcDbEntity
  8
290140600
100
AcDbPolyline
 62
250
  6
CONTINUOUS
 90
13
 70
0
 10
-5.6020944792
 20
-7.0077800288
 10
-5.6009244502
 20
-6.9848246252
 10
-5.5974052694
 20
-6.9610670623
 10
-5.5915958815
 20
-6.9369052694
 10
-5.5835935915
 20
-6.9127439469
 10
-5.5735324344
 20
-6.8889877869
 10
-5.5615809308
 20
-6.8660346952
 10
-5.5479392635
 20
-6.8442691268
 10
-5.5328359248
 20
-6.8240556459
 10
-5.5165238895
 20
-6.8057328202
 10
-5.4992763776
 20
-6.7896075495
 10
-5.4813822776
 20
-6.7759499253
 10
-5.4631413086
 20
-6.7649887075
  0
LWPOLYLINE
  5
35B
100
AcDbEntity
  8
290140600
100
AcDbPolyline
 62
250
  6
CONTINUOUS
 90
8
 70
0
 10
-4.9012147673
 20
-6.4218630606
 10
-4.9027305036
 20
-6.4440060812
 10
-4.9065965546
 20
-6.4645400416
 10
-4.9127467966
 20
-6.483113736
 10
-4.921076038
 20
-6.4994094867
 10
-4.9314418183
 20
-6.5131485765
 10
-4.9436668446
 20
-6.524096017
 10
-4.9559652266
 20
-6.5313493274
  0
LWPOLYLINE
  5
35C
100
AcDbEntity
  8
290140580
100
AcDbPolyline
 62
250
  6
CONTINUOUS
 90
8
 70
0
 10
-4.9012147673
 20
-6.4218630606
 10
-4.9027305036
 20
-6.4440060812
 10
-4.9065965546
 20
-6.4645400416
 10
-4.9127467966
 20
-6.483113736
 10
-4.921076038
 20
-6.4994094867
 10
-4.9314418183
 20
-6.5131485765
 10
-4.9436668446
 20
-6.524096017
 10
-4.9559652266
 20
-6.5313493274
  0
LWPOLYLINE
  5
35D
100
AcDbEntity
  8
268140580
100
AcDbPolyline
 62
250
  6
CONTINUOUS
 90
5
 70
0
 10
0.1137706317
 20
15.6510723805
 10
0.1162958859
 20
15.6582330947
 10
0.1179841508
 20
15.6654551092
 10
0.1188297138
 20
15.6727139872
 10
0.1189354763
 20
15.6763495771
  0
LWPOLYLINE
  5
35E
100
AcDbEntity
  8
715140040
100
AcDbPolyline
 62
250
  6
CONTINUOUS
 90
47
 70
0
 10
9.2081483722
 20
21.0564420711
 10
9.2160102358
 20
21.0669511364
 10
9.2652934541
 20
21.1237318138
 10
9.3204271288
 20
21.1793224282
 10
9.3809306071
 20
21.2332649505
 10
9.4468029587
 20
21.28551785
 10
9.518045114
 20
21.3361226574
 10
9.5941792117
 20
21.3847459359
 10
9.6751958407
 20
21.4313736785
 10
9.7611044121
 20
21.4760198921
 10
9.8514552978
 20
21.5183931612
 10
9.946505578
 20
21.5585523592
 10
10.0459981725
 20
21.5964386127
 10
10.1487122129
 20
21.6315838858
 10
10.2550530816
 20
21.6639616057
 10
10.3646153962
 20
21.6935983453
 10
10.4749621406
 20
21.7201057875
 10
10.5860666575
 20
21.7433051809
 10
10.6979556043
 20
21.7633752769
 10
10.8082719364
 20
21.7804640127
 10
10.9166624263
 20
21.7944379086
 10
11.0234803015
 20
21.8054304442
 10
11.1274282007
 20
21.8139899954
 10
11.2282640351
 20
21.8200925649
 10
11.3262298934
 20
21.8237621501
 10
11.4207546797
 20
21.8256191189
 10
11.5116764198
 20
21.8256849878
 10
11.599157088
 20
21.8239382403
 10
11.6831115113
 20
21.8209346949
 10
11.7634155847
 20
21.8167158943
 10
11.8401934133
 20
21.8112402958
 10
11.9137321398
 20
21.8049390902
 10
11.9839986735
 20
21.7978530564
 10
12.051026105
 20
21.7899414155
 10
12.1152008492
 20
21.7815130213
 10
12.176508596
 20
21.7726023808
 10
12.2349636554
 20
21.763174987
 10
12.2909953719
 20
21.7534361732
 10
12.3445999555
 20
21.7434146514
 10
12.3957811961
 20
21.7330817097
 10
12.4449798084
 20
21.722556545
 10
12.4921989533
 20
21.7118620058
 10
12.5374354699
 20
21.7009752437
 10
12.5811205898
 20
21.68994691
 10
12.6233980569
 20
21.6787938887
 10
12.6641241273
 20
21.6674992959
 10
12.703298801
 20
21.6560631316
  0
LWPOLYLINE
  5
35F
100
AcDbEntity
  8
CORPO_STAMPATO
100
AcDbPolyline
 62
7
  6
CONTINUOUS
 90
10
 70
0
 10
20.5457659871
 20
17.1187440821
 10
20.5443369225
 20
17.1179533506
 10
20.542879884
 20
17.1172599319
 10
20.5413945495
 20
17.1166640462
 10
20.5398847123
 20
17.1161630427
 10
20.5383460102
 20
17.115759995
 10
20.5367655726
 20
17.1154638597
 10
20.5351385422
 20
17.1152779489
 10
20.5334684294
 20
17.1151997709
 10
20.5317545943
 20
17.1152297374
  0
LINE
  5
360
100
AcDbEntity
  8
290140580
100
AcDbLine
 62
7
  6
CONTINUOUS
 10
-1.4803375507
 20
-4.9261902409
 11
-1.4391905298
 21
-4.9467637514
  0
LINE
  5
361
100
AcDbEntity
  8
290140600
100
AcDbLine
 62
7
  6
CONTINUOUS
 10
-1.4803375507
 20
-4.9261902409
 11
-1.4391905298
 21
-4.9467637514
  0
LWPOLYLINE
  5
362
100
AcDbEntity
  8
290140600
100
AcDbPolyline
 62
250
  6
CONTINUOUS
 90
16
 70
0
 10
-3.9160705203
 20
12.3387014076
 10
-3.9199371525
 20
12.383909725
 10
-3.9275624234
 20
12.4305913574
 10
-3.9388628983
 20
12.4782354544
 10
-3.9537149237
 20
12.5263206321
 10
-3.9719559784
 20
12.5743206732
 10
-3.9933864498
 20
12.6217102857
 10
-4.017771824
 20
12.6679708623
 10
-4.0448452472
 20
12.7125961463
 10
-4.0743104423
 20
12.7550977671
 10
-4.1058449619
 20
12.7950106035
 10
-4.1391037105
 20
12.8318978611
 10
-4.1737227131
 20
12.8653558469
 10
-4.209323113
 20
12.8950184042
 10
-4.245515319
 20
12.9205609171
 10
-4.2819032596
 20
12.9417038537
  0
LWPOLYLINE
  5
363
100
AcDbEntity
  8
290140580
100
AcDbPolyline
 62
250
  6
CONTINUOUS
 90
16
 70
0
 10
-3.9160705203
 20
12.3387014076
 10
-3.9199371525
 20
12.383909725
 10
-3.9275624234
 20
12.4305913574
 10
-3.9388628983
 20
12.4782354544
 10
-3.9537149237
 20
12.5263206321
 10
-3.9719559784
 20
12.5743206732
 10
-3.9933864498
 20
12.6217102857
 10
-4.017771824
 20
12.6679708623
 10
-4.0448452472
 20
12.7125961463
 10
-4.0743104423
 20
12.7550977671
 10
-4.1058449619
 20
12.7950106035
 10
-4.1391037105
 20
12.8318978611
 10
-4.1737227131
 20
12.8653558469
 10
-4.209323113
 20
12.8950184042
 10
-4.245515319
 20
12.9205609171
 10
-4.2819032596
 20
12.9417038537
  0
LWPOLYLINE
  5
364
100
AcDbEntity
  8
268140580
100
AcDbPolyline
 62
250
  6
CONTINUOUS
 90
16
 70
0
 10
-3.1387809703
 20
16.7186221822
 10
-3.138438354
 20
16.7120801876
 10
-3.1374114442
 20
16.7055561243
 10
-3.1357030555
 20
16.699067874
 10
-3.1333178705
 20
16.6926332208
 10
-3.1302624269
 20
16.6862698015
 10
-3.1265450994
 20
16.6799950579
 10
-3.122176077
 20
16.6738261885
 10
-3.1171673348
 20
16.6677801018
 10
-3.1115326014
 20
16.6618733697
 10
-3.1052873213
 20
16.6561221822
 10
-3.0984486123
 20
16.6505423028
 10
-3.0910352189
 20
16.6451490256
 10
-3.0830674607
 20
16.6399571333
 10
-3.0745671767
 20
16.6349808564
 10
-3.0655576656
 20
16.6302338345
  0
LWPOLYLINE
  5
365
100
AcDbEntity
  8
268140580
100
AcDbPolyline
 62
250
  6
CONTINUOUS
 90
16
 70
0
 10
-3.1387809703
 20
17.0869327107
 10
-3.1384404664
 20
17.0804109003
 10
-3.1374153756
 20
17.0738853689
 10
-3.1357085006
 20
17.0673956
 10
-3.1333245202
 20
17.0609593964
 10
-3.1302699654
 20
17.0545944004
 10
-3.1265532096
 20
17.048318069
 10
-3.1221844406
 20
17.0421476126
 10
-3.1171756351
 20
17.0360999528
 10
-3.1115405303
 20
17.0301916796
 10
-3.1052945716
 20
17.0244389902
 10
-3.0984548894
 20
17.0188576646
 10
-3.0910402639
 20
17.0134630262
 10
-3.0830710407
 20
17.0082698724
 10
-3.0745690688
 20
17.0032924357
 10
-3.0655576656
 20
16.9985443631
  0
LWPOLYLINE
  5
366
100
AcDbEntity
  8
268140580
100
AcDbPolyline
 62
250
  6
CONTINUOUS
 90
17
 70
0
 10
-3.0655576656
 20
-25.0376808334
 10
-3.0652552561
 20
-25.0501882112
 10
-3.0643490621
 20
-25.0623503869
 10
-3.062842184
 20
-25.0741257494
 10
-3.0607397775
 20
-25.0854740106
 10
-3.0580490356
 20
-25.0963563439
 10
-3.0547791645
 20
-25.1067355168
 10
-3.0509413515
 20
-25.1165760183
 10
-3.0465487273
 20
-25.1258441803
 10
-3.0416163206
 20
-25.134508293
 10
-3.0361610071
 20
-25.1425387133
 10
-3.0302014515
 20
-25.149907966
 10
-3.0237580435
 20
-25.1565908381
 10
-3.0168528285
 20
-25.1625644652
 10
-3.0095094319
 20
-25.1678084091
 10
-3.001752978
 20
-25.1723047284
 10
-3.0005900798
 20
-25.172896428
  0
LWPOLYLINE
  5
367
100
AcDbEntity
  8
268140580
100
AcDbPolyline
 62
250
  6
CONTINUOUS
 90
16
 70
0
 10
-3.0655576656
 20
16.6302338345
 10
-3.0652585875
 20
16.6177946489
 10
-3.0643623649
 20
16.6056966317
 10
-3.0628720304
 20
16.5939807188
 10
-3.0607926269
 20
16.5826865532
 10
-3.0581311905
 20
16.5718523508
 10
-3.0548967264
 20
16.5615147709
 10
-3.0511001793
 20
16.5517087929
 10
-3.0467543953
 20
16.5424675969
 10
-3.0418740793
 20
16.5338224522
 10
-3.0364757446
 20
16.5258026114
 10
-3.0305776576
 20
16.5184352109
 10
-3.0241997755
 20
16.5117451798
 10
-3.0173636789
 20
16.505755155
 10
-3.0100924993
 20
16.5004854048
 10
-3.0025458774
 20
16.4960334232
  0
LWPOLYLINE
  5
368
100
AcDbEntity
  8
268140580
100
AcDbPolyline
 62
7
  6
CONTINUOUS
 90
22
 70
0
 10
-4.1262178374
 20
24.0570758039
 10
-4.126539026
 20
24.0755862385
 10
-4.1275244183
 20
24.0937196611
 10
-4.1291740144
 20
24.1114760715
 10
-4.1314936984
 20
24.1289086311
 10
-4.1344775863
 20
24.1459641787
 10
-4.1381080252
 20
24.1624832305
 10
-4.1423950549
 20
24.1784519572
 10
-4.1473286356
 20
24.1938841881
 10
-4.1528609962
 20
24.2086619275
 10
-4.1589840275
 20
24.2227553054
 10
-4.1657058387
 20
24.2361941917
 10
-4.1730029859
 20
24.2489501999
 10
-4.1808730235
 20
24.2610288054
 10
-4.1893183971
 20
24.2724245327
 10
-4.1983229996
 20
24.2830925688
 10
-4.2079086893
 20
24.2930484528
 10
-4.2180536079
 20
24.3022766456
 10
-4.2286760729
 20
24.3106857168
 10
-4.2397845298
 20
24.3182608986
 10
-4.2513705331
 20
24.3250169589
 10
-4.2561677492
 20
24.3275060711
  0
LINE
  5
369
100
AcDbEntity
  8
268140580
100
AcDbLine
 62
250
  6
CONTINUOUS
 10
-4.0555071593
 20
22.0563828732
 11
-4.0555071593
 21
21.5326964831
  0
LINE
  5
36A
100
AcDbEntity
  8
268140580
100
AcDbLine
 62
7
  6
CONTINUOUS
 10
-3.1387809703
 20
-24.7058286902
 11
-3.1387809703
 21
-24.9492924858
  0
LINE
  5
36B
100
AcDbEntity
  8
268140580
100
AcDbLine
 62
7
  6
CONTINUOUS
 10
-3.1387809703
 20
16.7186221822
 11
-3.1387809703
 21
17.0869327107
  0
LINE
  5
36C
100
AcDbEntity
  8
268140580
100
AcDbLine
 62
250
  6
CONTINUOUS
 10
-3.0655576656
 20
-24.6750925212
 11
-3.0655576656
 21
-25.0376808334
  0
LINE
  5
36D
100
AcDbEntity
  8
268140580
100
AcDbLine
 62
250
  6
CONTINUOUS
 10
-3.0655576656
 20
16.6302338345
 11
-3.0655576656
 21
16.9985443631
  0
LINE
  5
36E
100
AcDbEntity
  8
268140580
100
AcDbLine
 62
7
  6
CONTINUOUS
 10
-2.4316741892
 20
15.7565861927
 11
-2.4316741892
 21
16.2105602944
  0
LINE
  5
36F
100
AcDbEntity
  8
268140580
100
AcDbLine
 62
250
  6
CONTINUOUS
 10
-2.3584508845
 20
15.6648744979
 11
-2.3584508845
 21
16.173948642
  0
LWPOLYLINE
  5
370
100
AcDbEntity
  8
268140580
100
AcDbPolyline
 62
250
  6
CONTINUOUS
 90
28
 70
0
 10
-1.7220547814
 20
16.326792921
 10
-1.7217523718
 20
16.3396027083
 10
-1.7208461778
 20
16.3526710781
 10
-1.7193392997
 20
16.3659533186
 10
-1.7172368932
 20
16.3794039863
 10
-1.7145461514
 20
16.3929770614
 10
-1.7112762803
 20
16.4066261055
 10
-1.7074384673
 20
16.4203044199
 10
-1.7030458431
 20
16.4339652062
 10
-1.6981134364
 20
16.4475617256
 10
-1.6926581229
 20
16.4610474593
 10
-1.6866985672
 20
16.4743762677
 10
-1.6802551592
 20
16.4875025478
 10
-1.6733499443
 20
16.5003813899
 10
-1.6660065476
 20
16.5129687304
 10
-1.6582500938
 20
16.5252215036
 10
-1.6501071205
 20
16.537097788
 10
-1.6416054879
 20
16.5485569504
 10
-1.6327742834
 20
16.5595597848
 10
-1.6236437216
 20
16.5700686463
 10
-1.6142450417
 20
16.5800475803
 10
-1.6046104001
 20
16.589462445
 10
-1.5947727604
 20
16.5982810287
 10
-1.584765781
 20
16.6064731597
 10
-1.5746236995
 20
16.6140108096
 10
-1.5643812156
 20
16.6208681894
 10
-1.5540733728
 20
16.6270218374
 10
-1.543735438
 20
16.6324506997
  0
LINE
  5
371
100
AcDbEntity
  8
CORPO_STAMPATO
100
AcDbLine
 62
7
  6
CONTINUOUS
 10
19.9095863712
 20
15.1877591376
 11
18.9450392055
 21
14.5638981744
  0
LWPOLYLINE
  5
372
100
AcDbEntity
  8
CORPO_STAMPATO
100
AcDbPolyline
 62
7
  6
CONTINUOUS
 90
21
 70
0
 10
20.5443369225
 20
16.3481511051
 10
20.5516272239
 20
16.3527179397
 10
20.5572619331
 20
16.3564924069
 10
20.5626647708
 20
16.3603705996
 10
20.5678306147
 20
16.3643489871
 10
20.5727545784
 20
16.3684237343
 10
20.5774320145
 20
16.3725907059
 10
20.5818585065
 20
16.3768460863
 10
20.5860298749
 20
16.3811858999
 10
20.58994219
 20
16.3856056736
 10
20.5935917723
 20
16.3901014056
 10
20.5969751926
 20
16.3946689477
 10
20.6000892761
 20
16.3993035265
 10
20.6029311124
 20
16.4040009884
 10
20.6054980511
 20
16.4087570489
 10
20.6077877029
 20
16.4135666741
 10
20.6097979506
 20
16.4184255951
 10
20.6115269449
 20
16.4233294278
 10
20.6129731035
 20
16.42827292
 10
20.6141351201
 20
16.4332517249
 10
20.6150119609
 20
16.4382613966
  0
LWPOLYLINE
  5
373
100
AcDbEntity
  8
CORPO_STAMPATO
100
AcDbPolyline
 62
7
  6
CONTINUOUS
 90
24
 70
0
 10
20.5457659871
 20
17.1187440821
 10
20.5516272239
 20
17.1222858805
 10
20.5572619331
 20
17.1258977826
 10
20.5626647708
 20
17.1295762241
 10
20.5678306147
 20
17.1333174417
 10
20.5727545784
 20
17.1371178328
 10
20.5774320145
 20
17.14097396
 10
20.5818585065
 20
17.1448819177
 10
20.5860298749
 20
17.1488378202
 10
20.58994219
 20
17.1528381621
 10
20.5935917723
 20
17.1568788527
 10
20.5969751926
 20
17.1609558327
 10
20.6000892761
 20
17.1650655624
 10
20.6029311124
 20
17.1692038014
 10
20.6054980511
 20
17.173366352
 10
20.6077877029
 20
17.1775496754
 10
20.6097979506
 20
17.181749418
 10
20.6115269449
 20
17.1859612804
 10
20.6129731035
 20
17.1901817603
 10
20.6141351201
 20
17.1944064285
 10
20.6150119609
 20
17.1986309214
 10
20.615602864
 20
17.2028518094
 10
20.6159073441
 20
17.2070646261
 10
20.6159526542
 20
17.2094280033
  0
LWPOLYLINE
  5
374
100
AcDbEntity
  8
268140580
100
AcDbPolyline
 62
250
  6
CONTINUOUS
 90
13
 70
0
 10
-13.2854471074
 20
22.1134946736
 10
-13.2907327778
 20
22.1245704025
 10
-13.2955649367
 20
22.1360555754
 10
-13.2999435841
 20
22.1479501925
 10
-13.3038733579
 20
22.1602849564
 10
-13.3073496202
 20
22.1730291643
 10
-13.3103584569
 20
22.1860907085
 10
-13.3128938119
 20
22.1994692384
 10
-13.3149617413
 20
22.2131651046
 10
-13.3165664987
 20
22.2270872506
 10
-13.317709502
 20
22.2412053244
 10
-13.3183893334
 20
22.2555496781
 10
-13.3186059928
 20
22.2701203116
  0
LWPOLYLINE
  5
375
100
AcDbEntity
  8
268140580
100
AcDbPolyline
 62
7
  6
CONTINUOUS
 90
25
 70
0
 10
-1.6513441033
 20
23.3522101707
 10
-1.6518306694
 20
23.3842703975
 10
-1.6533040172
 20
23.4157603903
 10
-1.6557641465
 20
23.446680149
 10
-1.6592189418
 20
23.4770961245
 10
-1.6636605187
 20
23.506941866
 10
-1.6690652238
 20
23.5360180205
 10
-1.675440693
 20
23.5643026629
 10
-1.6827792904
 20
23.5918177183
 10
-1.6910344544
 20
23.618429609
 10
-1.7001929381
 20
23.6441009606
 10
-1.7102679885
 20
23.6688691476
 10
-1.7212527849
 20
23.6927127153
 10
-1.7331657571
 20
23.7156688205
 10
-1.7459884754
 20
23.7377003064
 10
-1.7596588291
 20
23.7586742485
 10
-1.7741899112
 20
23.7785840788
 10
-1.7895686287
 20
23.7974363652
 10
-1.8056935927
 20
23.8151178869
 10
-1.8225476212
 20
23.8316008726
 10
-1.8401478961
 20
23.8469130935
 10
-1.8584445749
 20
23.8610246428
 10
-1.8774360708
 20
23.8739385473
 10
-1.8971239706
 20
23.8856517801
 10
-1.9112362478
 20
23.8930860539
  0
LWPOLYLINE
  5
376
100
AcDbEntity
  8
268140580
100
AcDbPolyline
 62
250
  6
CONTINUOUS
 90
31
 70
0
 10
-1.3685013908
 20
16.326792921
 10
-1.3686619626
 20
16.3382574724
 10
-1.3693048829
 20
16.3499392578
 10
-1.370429302
 20
16.3618067358
 10
-1.3720334328
 20
16.373830284
 10
-1.3741135918
 20
16.3859747432
 10
-1.3766632165
 20
16.3981993029
 10
-1.3796746082
 20
16.4104677617
 10
-1.3831400139
 20
16.4227491362
 10
-1.3870500377
 20
16.4350100689
 10
-1.3913940737
 20
16.4472171582
 10
-1.396160177
 20
16.4593367084
 10
-1.4013351594
 20
16.4713351452
 10
-1.4069047563
 20
16.4831794247
 10
-1.4128537536
 20
16.4948372197
 10
-1.419165894
 20
16.5062766677
 10
-1.4258239045
 20
16.5174664439
 10
-1.4328095087
 20
16.5283758119
 10
-1.4401035295
 20
16.5389748131
 10
-1.4476859595
 20
16.5492343708
 10
-1.4555360164
 20
16.5591263613
 10
-1.4636321722
 20
16.5686236524
 10
-1.4719522286
 20
16.5777002005
 10
-1.4804733707
 20
16.5863311125
 10
-1.489172225
 20
16.5944927112
 10
-1.4980249456
 20
16.6021626211
 10
-1.50700725
 20
16.6093198019
 10
-1.5160944766
 20
16.6159446043
 10
-1.5252616956
 20
16.6220188598
 10
-1.5344837789
 20
16.6275259238
 10
-1.543735438
 20
16.6324506997
  0
LINE
  5
377
100
AcDbEntity
  8
290140600
100
AcDbLine
 62
7
  6
CONTINUOUS
 10
-1.8733502134
 20
13.4538824657
 11
-1.8733502134
 21
12.6033881413
  0
LINE
  5
378
100
AcDbEntity
  8
290140580
100
AcDbLine
 62
7
  6
CONTINUOUS
 10
-1.8733502134
 20
13.4538824657
 11
-1.8733502134
 21
12.6033881413
  0
LINE
  5
379
100
AcDbEntity
  8
290140580
100
AcDbLine
 62
7
  6
CONTINUOUS
 10
-1.8733502134
 20
-23.9580185944
 11
-1.8733502134
 21
-23.10752427
  0
LINE
  5
37A
100
AcDbEntity
  8
290140600
100
AcDbLine
 62
7
  6
CONTINUOUS
 10
-1.8733502134
 20
-23.9580185944
 11
-1.8733502134
 21
-23.10752427
  0
LINE
  5
37B
100
AcDbEntity
  8
268140580
100
AcDbLine
 62
250
  6
CONTINUOUS
 10
-1.7220547814
 20
16.326792921
 11
-1.7220547814
 21
15.9584823924
  0
LINE
  5
37C
100
AcDbEntity
  8
268140580
100
AcDbLine
 62
250
  6
CONTINUOUS
 10
-1.7220547814
 20
-25.341121747
 11
-1.7220547814
 21
-25.7094322756
  0
LINE
  5
37D
100
AcDbEntity
  8
268140580
100
AcDbLine
 62
7
  6
CONTINUOUS
 10
-1.6698579954
 20
14.0030171096
 11
-1.6698579954
 21
13.1036366319
  0
LINE
  5
37E
100
AcDbEntity
  8
268140580
100
AcDbLine
 62
7
  6
CONTINUOUS
 10
-1.6513441033
 20
23.3522101707
 11
-1.6513441033
 21
23.0058000091
  0
LINE
  5
37F
100
AcDbEntity
  8
268140580
100
AcDbLine
 62
250
  6
CONTINUOUS
 10
-1.3685013908
 20
16.326792921
 11
-1.3685013908
 21
15.9584823924
  0
LINE
  5
380
100
AcDbEntity
  8
268140580
100
AcDbLine
 62
250
  6
CONTINUOUS
 10
-1.3685013908
 20
-25.341121747
 11
-1.3685013908
 21
-25.7094322756
  0
LINE
  5
381
100
AcDbEntity
  8
268140580
100
AcDbLine
 62
7
  6
CONTINUOUS
 10
-1.3101333075
 20
13.8231547656
 11
-1.3101333075
 21
12.9237742879
  0
LINE
  5
382
100
AcDbEntity
  8
268140580
100
AcDbLine
 62
7
  6
CONTINUOUS
 10
-1.3101333075
 20
-5.1139275131
 11
-1.3101333075
 21
-4.8220546717
  0
LINE
  5
383
100
AcDbEntity
  8
290140600
100
AcDbLine
 62
7
  6
CONTINUOUS
 10
-1.2977907127
 20
12.9176029905
 11
-1.2977907127
 21
-4.7576824188
  0
LINE
  5
384
100
AcDbEntity
  8
290140580
100
AcDbLine
 62
7
  6
CONTINUOUS
 10
-1.2977907127
 20
12.9176029905
 11
-1.2977907127
 21
-4.7576824188
  0
LINE
  5
385
100
AcDbEntity
  8
290140580
100
AcDbLine
 62
7
  6
CONTINUOUS
 10
-1.2977907127
 20
-22.86592777
 11
-1.2977907127
 21
-5.1906423607
  0
LINE
  5
386
100
AcDbEntity
  8
290140600
100
AcDbLine
 62
7
  6
CONTINUOUS
 10
-1.2977907127
 20
-22.86592777
 11
-1.2977907127
 21
-5.1906423607
  0
LINE
  5
387
100
AcDbEntity
  8
268140580
100
AcDbLine
 62
250
  6
CONTINUOUS
 10
-1.0149480002
 20
15.562035783
 11
-1.0149480002
 21
14.9931230558
  0
LINE
  5
388
100
AcDbEntity
  8
268140580
100
AcDbLine
 62
250
  6
CONTINUOUS
 10
-1.0149480002
 20
-23.6686556291
 11
-1.0149480002
 21
-24.2375683564
  0
LINE
  5
389
100
AcDbEntity
  8
268140580
100
AcDbLine
 62
250
  6
CONTINUOUS
 10
-0.6613946096
 20
15.562035783
 11
-0.6613946096
 21
15.0044696728
  0
LINE
  5
38A
100
AcDbEntity
  8
268140580
100
AcDbLine
 62
250
  6
CONTINUOUS
 10
-0.6613946096
 20
-23.802119339
 11
-0.6613946096
 21
-24.2375683564
  0
LINE
  5
38B
100
AcDbEntity
  8
268140580
100
AcDbLine
 62
7
  6
CONTINUOUS
 10
-0.5154744013
 20
-23.5718237137
 11
-0.5154744013
 21
-22.6008314849
  0
LINE
  5
38C
100
AcDbEntity
  8
268140580
100
AcDbLine
 62
7
  6
CONTINUOUS
 10
-0.5154744013
 20
13.4258253125
 11
-0.5154744013
 21
14.3968175414
  0
LINE
  5
38D
100
AcDbEntity
  8
268140580
100
AcDbLine
 62
250
  6
CONTINUOUS
 10
-0.3642112829
 20
13.4988618603
 11
-0.3642112829
 21
-22.3229096535
  0
LINE
  5
38E
100
AcDbEntity
  8
268140580
100
AcDbLine
 62
250
  6
CONTINUOUS
 10
0.0457121716
 20
-23.8840149658
 11
0.0457121716
 21
-23.5563870216
  0
LINE
  5
38F
100
AcDbEntity
  8
268140580
100
AcDbLine
 62
250
  6
CONTINUOUS
 10
0.0457121716
 20
15.5879612294
 11
0.0457121716
 21
15.9155891736
  0
LINE
  5
390
100
AcDbEntity
  8
268140580
100
AcDbLine
 62
250
  6
CONTINUOUS
 10
0.0563182626
 20
13.7019121911
 11
0.0563182626
 21
-22.3247446064
  0
LINE
  5
391
100
AcDbEntity
  8
268140580
100
AcDbLine
 62
7
  6
CONTINUOUS
 10
0.1189354763
 20
-23.7956266181
 11
0.1189354763
 21
-23.4788311474
  0
LINE
  5
392
100
AcDbEntity
  8
268140580
100
AcDbLine
 62
7
  6
CONTINUOUS
 10
0.1189354763
 20
15.6763495771
 11
0.1189354763
 21
16.0039775212
  0
LWPOLYLINE
  5
393
100
AcDbEntity
  8
268140580
100
AcDbPolyline
 62
250
  6
CONTINUOUS
 90
18
 70
0
 10
-1.3685013908
 20
-25.7094322756
 10
-1.3686629211
 20
-25.7206014099
 10
-1.3693085414
 20
-25.7314976641
 10
-1.3704364819
 20
-25.7420911722
 10
-1.3720436511
 20
-25.7523528983
 10
-1.3741256439
 20
-25.7622547156
 10
-1.3766767536
 20
-25.771769484
 10
-1.3796899879
 20
-25.7808711241
 10
-1.3831570876
 20
-25.7895346889
 10
-1.3870685497
 20
-25.7977364323
 10
-1.3914136531
 20
-25.8054538739
 10
-1.3961804883
 20
-25.8126658605
 10
-1.4013559896
 20
-25.8193526248
 10
-1.4069259714
 20
-25.8254958388
 10
-1.4128751667
 20
-25.8310786642
 10
-1.4191872692
 20
-25.836085799
 10
-1.4258449778
 20
-25.8405035191
 10
-1.4315749868
 20
-25.8436907451
  0
LWPOLYLINE
  5
394
100
AcDbEntity
  8
268140580
100
AcDbPolyline
 62
7
  6
CONTINUOUS
 90
28
 70
0
 10
0.1189354763
 20
16.0039775212
 10
0.1190638257
 20
16.0125784583
 10
0.1194640754
 20
16.0216648966
 10
0.1201577916
 20
16.0312165341
 10
0.1211650742
 20
16.041213017
 10
0.1225036654
 20
16.0516262352
 10
0.1241883479
 20
16.0624218877
 10
0.126233358
 20
16.0735750265
 10
0.1286497413
 20
16.0850517754
 10
0.1314427828
 20
16.0968033003
 10
0.1346189703
 20
16.1087976099
 10
0.1381819587
 20
16.1209984771
 10
0.1421268225
 20
16.1333496209
 10
0.1464520492
 20
16.1458154203
 10
0.1511533947
 20
16.1583576661
 10
0.1562154473
 20
16.1709161405
 10
0.1616286323
 20
16.1834538392
 10
0.1673810716
 20
16.1959329538
 10
0.173447556
 20
16.208293411
 10
0.1798111088
 20
16.2204995963
 10
0.186452938
 20
16.2325163777
 10
0.1933392376
 20
16.244287278
 10
0.2004466435
 20
16.2557805144
 10
0.2077507688
 20
16.2669661627
 10
0.215211196
 20
16.2777948386
 10
0.2227948499
 20
16.2882344323
 10
0.2304779005
 20
16.2982690326
 10
0.2382312097
 20
16.3078778757
  0
LWPOLYLINE
  5
395
100
AcDbEntity
  8
268140580
100
AcDbPolyline
 62
250
  6
CONTINUOUS
 90
25
 70
0
 10
-0.6613946096
 20
-24.2375683564
 10
-0.6617136709
 20
-24.2563688434
 10
-0.6626965408
 20
-24.275462494
 10
-0.6643432195
 20
-24.294849308
 10
-0.6666551089
 20
-24.3145746759
 10
-0.669630807
 20
-24.3345932073
 10
-0.6732661078
 20
-24.3547687308
 10
-0.6775678196
 20
-24.3751022322
 10
-0.682529134
 20
-24.3955927257
 10
-0.6881254209
 20
-24.4161010825
 10
-0.6943628441
 20
-24.4366270285
 10
-0.7012352398
 20
-24.4571708378
 10
-0.7086994858
 20
-24.4775942038
 10
-0.7167610681
 20
-24.4978956972
 10
-0.7254145007
 20
-24.5180767474
 10
-0.734600204
 20
-24.5380033362
 10
-0.7443237364
 20
-24.5576737206
 10
-0.7545795395
 20
-24.5770896438
 10
-0.7652913578
 20
-24.5961223164
 10
-0.7764639499
 20
-24.6147679129
 10
-0.7880925574
 20
-24.6330302588
 10
-0.8000866496
 20
-24.6507920421
 10
-0.8124160499
 20
-24.6680141587
 10
-0.825110935
 20
-24.6847357127
 10
-0.8381713049
 20
-24.700956704
  0
LWPOLYLINE
  5
396
100
AcDbEntity
  8
268140580
100
AcDbPolyline
 62
250
  6
CONTINUOUS
 90
25
 70
0
 10
0.0457121716
 20
15.9155891736
 10
0.0460312328
 20
15.9343896606
 10
0.0470141028
 20
15.9534833112
 10
0.0486607815
 20
15.9728701252
 10
0.0509726709
 20
15.9925954931
 10
0.053948369
 20
16.0126140245
 10
0.0575836698
 20
16.0327895479
 10
0.0618853815
 20
16.0531230493
 10
0.066846696
 20
16.0736135429
 10
0.0724429829
 20
16.0941218997
 10
0.0786804061
 20
16.1146478457
 10
0.0855528017
 20
16.135191655
 10
0.0930170477
 20
16.155615021
 10
0.10107863
 20
16.1759165144
 10
0.1097320627
 20
16.1960975646
 10
0.118917766
 20
16.2160241534
 10
0.1286412984
 20
16.2356945378
 10
0.1388971014
 20
16.255110461
 10
0.1496089198
 20
16.2741431336
 10
0.1607815119
 20
16.2927887301
 10
0.1724101193
 20
16.311051076
 10
0.1844042116
 20
16.3288128593
 10
0.1967336119
 20
16.3460349759
 10
0.209428497
 20
16.3627565299
 10
0.2224888669
 20
16.3789775212
  0
LWPOLYLINE
  5
397
100
AcDbEntity
  8
268140580
100
AcDbPolyline
 62
250
  6
CONTINUOUS
 90
25
 70
0
 10
-1.0149480002
 20
-24.2375683564
 10
-1.0151112687
 20
-24.2469530121
 10
-1.0156028699
 20
-24.2565144327
 10
-1.0164250385
 20
-24.2662361678
 10
-1.017579825
 20
-24.2761045071
 10
-1.0190679729
 20
-24.2860985938
 10
-1.0208878041
 20
-24.2961901658
 10
-1.0230380651
 20
-24.3063608297
 10
-1.0255166813
 20
-24.3165910455
 10
-1.0283176844
 20
-24.3268499482
 10
-1.0314365109
 20
-24.3371173039
 10
-1.0348682511
 20
-24.3473737812
 10
-1.038603503
 20
-24.3575896871
 10
-1.0426350478
 20
-24.3677450888
 10
-1.046955222
 20
-24.3778205057
 10
-1.0515514377
 20
-24.3877874231
 10
-1.0564144404
 20
-24.3976274618
 10
-1.061533927
 20
-24.4073213679
 10
-1.0668934134
 20
-24.4168405297
 10
-1.072481124
 20
-24.4261675056
 10
-1.0782851226
 20
-24.4352856904
 10
-1.0842866507
 20
-24.4441696444
 10
-1.0904702714
 20
-24.4528014966
 10
-1.0968246765
 20
-24.461170264
 10
-1.1033363479
 20
-24.4692625302
  0
LWPOLYLINE
  5
398
100
AcDbEntity
  8
268140580
100
AcDbPolyline
 62
250
  6
CONTINUOUS
 90
19
 70
0
 10
-1.7220547814
 20
-25.341121747
 10
-1.7217557032
 20
-25.3283834832
 10
-1.7208594806
 20
-25.3153892434
 10
-1.7193691462
 20
-25.3021829961
 10
-1.7172897427
 20
-25.288809427
 10
-1.7146283062
 20
-25.275313788
 10
-1.7113938422
 20
-25.2617417442
 10
-1.707597295
 20
-25.248139219
 10
-1.7032515111
 20
-25.234552239
 10
-1.698371195
 20
-25.2210267783
 10
-1.6929728604
 20
-25.2076086028
 10
-1.6870747733
 20
-25.1943431153
 10
-1.6806968912
 20
-25.1812752021
 10
-1.6738607947
 20
-25.1684490808
 10
-1.666589615
 20
-25.1559081509
 10
-1.6589079555
 20
-25.143694847
 10
-1.6508418085
 20
-25.1318504951
 10
-1.6424184673
 20
-25.1204151726
 10
-1.6336664337
 20
-25.1094275732
  0
LWPOLYLINE
  5
399
100
AcDbEntity
  8
290140580
100
AcDbPolyline
 62
250
  6
CONTINUOUS
 90
10
 70
0
 10
-3.9160705203
 20
-24.8154696067
 10
-3.9199371863
 20
-24.8606089047
 10
-3.9275625285
 20
-24.9032862009
 10
-3.9388630991
 20
-24.9430344569
 10
-3.9537152305
 20
-24.9794186885
 10
-3.9719563887
 20
-25.0120407254
 10
-3.9933869518
 20
-25.0405435689
 10
-4.0177723949
 20
-25.0646152986
 10
-4.0448458563
 20
-25.083992486
 10
-4.0698777655
 20
-25.096665305
  0
LWPOLYLINE
  5
39A
100
AcDbEntity
  8
290140600
100
AcDbPolyline
 62
250
  6
CONTINUOUS
 90
10
 70
0
 10
-3.9160705203
 20
-24.8154696067
 10
-3.9199371863
 20
-24.8606089047
 10
-3.9275625285
 20
-24.9032862009
 10
-3.9388630991
 20
-24.9430344569
 10
-3.9537152305
 20
-24.9794186885
 10
-3.9719563887
 20
-25.0120407254
 10
-3.9933869518
 20
-25.0405435689
 10
-4.0177723949
 20
-25.0646152986
 10
-4.0448458563
 20
-25.083992486
 10
-4.0698777655
 20
-25.096665305
  0
LWPOLYLINE
  5
39B
100
AcDbEntity
  8
CORPO_STAMPATO
100
AcDbPolyline
 62
7
  6
CONTINUOUS
 90
43
 70
0
 10
18.6643790059
 20
14.7459331052
 10
18.6736480755
 20
14.7528506229
 10
18.6827410608
 20
14.7594118383
 10
18.6916582758
 20
14.7656149755
 10
18.7003802705
 20
14.7714441877
 10
18.7089279098
 20
14.7769115702
 10
18.7173593484
 20
14.7820584553
 10
18.7256758629
 20
14.7868942764
 10
18.7338716373
 20
14.7914085004
 10
18.7419891686
 20
14.7956145573
 10
18.7500179649
 20
14.7995181488
 10
18.7579595315
 20
14.8031139819
 10
18.7658685511
 20
14.8064010806
 10
18.7737400658
 20
14.8093910873
 10
18.7815620893
 20
14.8120750391
 10
18.7893720055
 20
14.8144231953
 10
18.7971537631
 20
14.8164450703
 10
18.8048990049
 20
14.8181352389
 10
18.8126488813
 20
14.8194436732
 10
18.8203907157
 20
14.8203810232
 10
18.8281009049
 20
14.8209426625
 10
18.8357957387
 20
14.8210575851
 10
18.8434543986
 20
14.820731177
 10
18.8510502514
 20
14.8199647228
 10
18.858583272
 20
14.8186823187
 10
18.8660285605
 20
14.8168830027
 10
18.873351401
 20
14.8145741397
 10
18.8805308575
 20
14.8116928153
 10
18.8875316098
 20
14.8082347627
 10
18.8943196213
 20
14.8042086656
 10
18.9008700933
 20
14.7995710149
 10
18.9071357591
 20
14.7943229562
 10
18.9130830238
 20
14.7884648718
 10
18.9186955384
 20
14.7819525013
 10
18.9239138638
 20
14.7747927643
 10
18.9286925479
 20
14.7669771567
 10
18.9330098069
 20
14.7584393098
 10
18.9367994039
 20
14.7491421134
 10
18.939971691
 20
14.7391163747
 10
18.9424478365
 20
14.7283966194
 10
18.9441464305
 20
14.7169204556
 10
18.9449725263
 20
14.7047314973
 10
18.9450392054
 20
14.7000924066
  0
LWPOLYLINE
  5
39C
100
AcDbEntity
  8
CORPO_STAMPATO
100
AcDbPolyline
 62
7
  6
CONTINUOUS
 90
9
 70
0
 10
20.5443369225
 20
16.3481511051
 10
20.542879884
 20
16.3471467518
 10
20.5413945495
 20
16.3460379226
 10
20.5398847123
 20
16.344832333
 10
20.5383460102
 20
16.3435226902
 10
20.5367655726
 20
16.3420868524
 10
20.5351385422
 20
16.3405177654
 10
20.5334684294
 20
16.3388233036
 10
20.5317545943
 20
16.3370038789
  0
LWPOLYLINE
  5
39D
100
AcDbEntity
  8
CORPO_STAMPATO
100
AcDbPolyline
 62
7
  6
CONTINUOUS
 90
34
 70
0
 10
19.9095863712
 20
15.1877591376
 10
19.9423994839
 20
15.2096918376
 10
19.9746769146
 20
15.2327031987
 10
20.0063978488
 20
15.2567884274
 10
20.037536547
 20
15.2819376726
 10
20.0680783824
 20
15.3081488407
 10
20.0980190242
 20
15.3354296069
 10
20.1273395572
 20
15.3637755993
 10
20.1560190576
 20
15.3931796337
 10
20.1840494642
 20
15.4236476364
 10
20.2114139243
 20
15.4551770991
 10
20.2380905234
 20
15.4877589542
 10
20.2640636733
 20
15.5213908249
 10
20.2893179704
 20
15.5560706246
 10
20.3138322385
 20
15.5917877179
 10
20.337583644
 20
15.6285268349
 10
20.3605579917
 20
15.6662843258
 10
20.3827365489
 20
15.7050484999
 10
20.4040925569
 20
15.7447903056
 10
20.4246134849
 20
15.7855033747
 10
20.4442838651
 20
15.8271749294
 10
20.4630766482
 20
15.8697632646
 10
20.4809813442
 20
15.9132582093
 10
20.497986326
 20
15.9576461824
 10
20.5140677445
 20
16.0028765048
 10
20.5292175387
 20
16.0489348483
 10
20.543427927
 20
16.0958069524
 10
20.556680598
 20
16.1434381362
 10
20.5689701774
 20
16.1918104151
 10
20.5802922657
 20
16.2409086603
 10
20.5906348277
 20
16.2906785972
 10
20.599993336
 20
16.3410890251
 10
20.6083683869
 20
16.3921338126
 10
20.6151541286
 20
16.4392745219
  0
LWPOLYLINE
  5
39E
100
AcDbEntity
  8
CORPO_STAMPATO
100
AcDbPolyline
 62
7
  6
CONTINUOUS
 90
40
 70
0
 10
18.6643790059
 20
4.8214259098
 10
18.7470237359
 20
4.8440510398
 10
18.827274548
 20
4.8657181038
 10
18.9051314422
 20
4.8864271017
 10
18.9805259516
 20
4.9061499264
 10
19.0535265431
 20
4.924914685
 10
19.1243386174
 20
4.9428056989
 10
19.1929704755
 20
4.9598261857
 10
19.2594138164
 20
4.9759729277
 10
19.323849137
 20
4.9913205937
 10
19.3862818357
 20
5.0058715282
 10
19.4467065142
 20
5.0196233866
 10
19.5052874747
 20
5.0326438036
 10
19.5620293126
 20
5.0449348689
 10
19.6169274326
 20
5.0564944929
 10
19.6701323507
 20
5.0673840417
 10
19.7216481475
 20
5.0776054518
 10
19.7714707425
 20
5.0871567868
 10
19.8197384099
 20
5.0960936028
 10
19.8664557873
 20
5.1044178671
 10
19.9116182371
 20
5.1121276124
 10
19.955350121
 20
5.1192724937
 10
19.9976544188
 20
5.1258541509
 10
20.0385281506
 20
5.1318709442
 10
20.0780867391
 20
5.137367609
 10
20.1163336603
 20
5.1423458642
 10
20.1532654382
 20
5.146803991
 10
20.1889870665
 20
5.1507815679
 10
20.2235009853
 20
5.1542802366
 10
20.2568047547
 20
5.1572983556
 10
20.2889960481
 20
5.1598705789
 10
20.3200807782
 20
5.1619986852
 10
20.3500530325
 20
5.163680896
 10
20.3789927466
 20
5.1649465292
 10
20.4069026019
 20
5.1657969011
 10
20.433779917
 20
5.1662306954
 10
20.4596965846
 20
5.166273282
 10
20.4846765687
 20
5.1659331175
 10
20.5086959053
 20
5.1652017452
 10
20.5317545943
 20
5.1640791652
  0
LINE
  5
39F
100
AcDbEntity
  8
290140600
100
AcDbLine
 62
250
  6
CONTINUOUS
 10
-9.7682195603
 20
4.9405061137
 11
-16.132180591
 21
8.122486629
  0
LWPOLYLINE
  5
3A0
100
AcDbEntity
  8
268140580
100
AcDbPolyline
 62
7
  6
CONTINUOUS
 90
15
 70
0
 10
-13.2398378153
 20
22.3159905521
 10
-13.2397568972
 20
22.3158551604
 10
-13.239361449
 20
22.3151509891
 10
-13.2393640867
 20
22.3151633105
 10
-13.2396743513
 20
22.3158981288
 10
-13.2401925673
 20
22.3172999494
 10
-13.240854534
 20
22.3193635695
 10
-13.2416053445
 20
22.3220923489
 10
-13.2423872622
 20
22.3254570132
 10
-13.2431540456
 20
22.3294472252
 10
-13.2438639223
 20
22.334056258
 10
-13.2444778646
 20
22.3392777068
 10
-13.244958987
 20
22.3451057116
 10
-13.2452715894
 20
22.3515225378
 10
-13.2453826881
 20
22.3585086593
  0
LWPOLYLINE
  5
3A1
100
AcDbEntity
  8
268140580
100
AcDbPolyline
 62
250
  6
CONTINUOUS
 90
34
 70
0
 10
0.5662129915
 20
14.9873424836
 10
0.5651826246
 20
15.0036102401
 10
0.5635258708
 20
15.0201667161
 10
0.5612464791
 20
15.0369744495
 10
0.5583496068
 20
15.0539954096
 10
0.5548418087
 20
15.0711910832
 10
0.5507310219
 20
15.088522562
 10
0.5460265478
 20
15.1059506301
 10
0.5407390311
 20
15.1234358533
 10
0.5348804359
 20
15.140938668
 10
0.5284640183
 20
15.1584194707
 10
0.5215042967
 20
15.1758387079
 10
0.5140170188
 20
15.1931569652
 10
0.5060191259
 20
15.2103350569
 10
0.4975287149
 20
15.2273341142
 10
0.4885649967
 20
15.2441156736
 10
0.4791482536
 20
15.2606417637
 10
0.4692997927
 20
15.276874991
 10
0.4590418979
 20
15.2927786248
 10
0.4483977798
 20
15.3083166801
 10
0.4373915227
 20
15.3234539993
 10
0.4260480302
 20
15.3381563311
 10
0.4143929691
 20
15.3523904089
 10
0.4024527113
 20
15.3661240254
 10
0.3902542738
 20
15.3793261056
 10
0.3778252578
 20
15.3919667774
 10
0.3651937864
 20
15.4040174388
 10
0.3523884407
 20
15.4154508231
 10
0.3394381951
 20
15.4262410599
 10
0.3263723521
 20
15.4363637343
 10
0.3132204755
 20
15.445795942
 10
0.300012324
 20
15.4545163406
 10
0.2867777834
 20
15.4625051988
 10
0.2735467995
 20
15.4697444402
  0
LWPOLYLINE
  5
3A2
100
AcDbEntity
  8
268140580
100
AcDbPolyline
 62
250
  6
CONTINUOUS
 90
34
 70
0
 10
0.5662129915
 20
14.9873424836
 10
0.5658982904
 20
15.0039876599
 10
0.5649548867
 20
15.0209211963
 10
0.5633848972
 20
15.0381047436
 10
0.5611918501
 20
15.0554994429
 10
0.5583806978
 20
15.0730658386
 10
0.5549578264
 20
15.0907639628
 10
0.5509310025
 20
15.1085536668
 10
0.5463093375
 20
15.1263947066
 10
0.541103303
 20
15.1442466559
 10
0.5353246939
 20
15.1620690701
 10
0.5289865997
 20
15.1798215789
 10
0.5221033781
 20
15.1974639671
 10
0.5146906218
 20
15.2149562691
 10
0.5067651234
 20
15.2322588581
 10
0.4983448372
 20
15.249332537
 10
0.4894488382
 20
15.2661386276
 10
0.4800972789
 20
15.2826390586
 10
0.4703113439
 20
15.2987964505
 10
0.4601132016
 20
15.3145742015
 10
0.4495259546
 20
15.3299365691
 10
0.438573587
 20
15.3448487516
 10
0.4272809103
 20
15.3592769674
 10
0.415673506
 20
15.373188532
 10
0.4037776687
 20
15.3865519313
 10
0.391620344
 20
15.399336895
 10
0.379229075
 20
15.411514458
 10
0.3666319394
 20
15.4230570274
 10
0.3538574341
 20
15.4339384897
 10
0.3409345375
 20
15.4441341582
 10
0.3278926559
 20
15.453620846
 10
0.3147613804
 20
15.4623770575
 10
0.3015704157
 20
15.4703830143
 10
0.2883496433
 20
15.4776206052
  0
LINE
  5
3A3
100
AcDbEntity
  8
268140580
100
AcDbLine
 62
250
  6
CONTINUOUS
 10
0.7528189528
 20
-24.6260990362
 11
0.7528189528
 21
-24.2804615752
  0
LINE
  5
3A4
100
AcDbEntity
  8
268140580
100
AcDbLine
 62
250
  6
CONTINUOUS
 10
0.7528189528
 20
17.0191425642
 11
0.7528189528
 21
17.3647800251
  0
LINE
  5
3A5
100
AcDbEntity
  8
268140580
100
AcDbLine
 62
7
  6
CONTINUOUS
 10
0.8260422575
 20
-24.5377106885
 11
0.8260422575
 21
-24.1920732276
  0
LINE
  5
3A6
100
AcDbEntity
  8
268140580
100
AcDbLine
 62
7
  6
CONTINUOUS
 10
0.8260422575
 20
17.1075309118
 11
0.8260422575
 21
17.4531683728
  0
LINE
  5
3A7
100
AcDbEntity
  8
CORPO_STAMPATO
100
AcDbLine
 62
7
  6
CONTINUOUS
 10
1.2831490387
 20
11.5850924511
 11
1.2831490387
 21
-19.0231881574
  0
LINE
  5
3A8
100
AcDbEntity
  8
268140580
100
AcDbLine
 62
7
  6
CONTINUOUS
 10
1.2831490387
 20
-22.7716067364
 11
1.2831490387
 21
15.3335110301
  0
LINE
  5
3A9
100
AcDbEntity
  8
268140580
100
AcDbLine
 62
7
  6
CONTINUOUS
 10
1.4273442321
 20
21.2802947691
 11
1.4273442321
 21
20.5575710632
  0
LWPOLYLINE
  5
3AA
100
AcDbEntity
  8
268140580
100
AcDbPolyline
 62
250
  6
CONTINUOUS
 90
18
 70
0
 10
0.7528189528
 20
-24.6260990362
 10
0.7526584059
 20
-24.6372412445
 10
0.7520155573
 20
-24.6481188696
 10
0.7508912352
 20
-24.6587016516
 10
0.7492871964
 20
-24.6689622
 10
0.7472071074
 20
-24.6788694438
 10
0.7446575504
 20
-24.6883895131
 10
0.7416462437
 20
-24.697494309
 10
0.738180926
 20
-24.7061610439
 10
0.7342709781
 20
-24.7143661904
 10
0.7299269904
 20
-24.7220873623
 10
0.7251609116
 20
-24.7293031759
 10
0.7199859434
 20
-24.7359935997
 10
0.7144163562
 20
-24.7421402137
 10
0.7084673588
 20
-24.7477262607
 10
0.7021552096
 20
-24.7527364696
 10
0.6954971815
 20
-24.757157109
 10
0.6897453568
 20
-24.7603575057
  0
LWPOLYLINE
  5
3AB
100
AcDbEntity
  8
268140580
100
AcDbPolyline
 62
250
  6
CONTINUOUS
 90
5
 70
0
 10
0.0457121716
 20
-23.5563870216
 10
0.045929649
 20
-23.5416126558
 10
0.0466075519
 20
-23.5266102113
 10
0.0477458801
 20
-23.5113796881
 10
0.0480331702
 20
-23.5085930555
  0
LWPOLYLINE
  5
3AC
100
AcDbEntity
  8
268140580
100
AcDbPolyline
 62
250
  6
CONTINUOUS
 90
20
 70
0
 10
0.5662129915
 20
-23.1177752829
 10
0.5658982666
 20
-23.1340951885
 10
0.5649548047
 20
-23.150052217
 10
0.5633847433
 20
-23.1656102206
 10
0.5611916388
 20
-23.1807339556
 10
0.5583804595
 20
-23.1953891617
 10
0.5549575735
 20
-23.2095426402
 10
0.5509307348
 20
-23.2231623289
 10
0.5463090655
 20
-23.2362173749
 10
0.5411030352
 20
-23.2486782042
 10
0.5353244371
 20
-23.2605165891
 10
0.5289863616
 20
-23.2717057118
 10
0.5221031666
 20
-23.2822202254
 10
0.5146904447
 20
-23.2920363111
 10
0.5067649881
 20
-23.3011317324
 10
0.4983447504
 20
-23.309485885
 10
0.4894488063
 20
-23.3170798444
 10
0.480097308
 20
-23.3238964075
 10
0.4703114394
 20
-23.3299201329
 10
0.462274324
 20
-23.3341158811
  0
LWPOLYLINE
  5
3AD
100
AcDbEntity
  8
268140580
100
AcDbPolyline
 62
250
  6
CONTINUOUS
 90
17
 70
0
 10
0.5662129915
 20
-23.1177752829
 10
0.5651826757
 20
-23.134408326
 10
0.5635259996
 20
-23.1506784043
 10
0.5612466916
 20
-23.1665486934
 10
0.5583498784
 20
-23.1819833227
 10
0.5548421015
 20
-23.1969473003
 10
0.5507313231
 20
-23.211406608
 10
0.5460268595
 20
-23.2253284843
 10
0.5407393425
 20
-23.2386814736
 10
0.5348807388
 20
-23.2514353539
 10
0.5284643061
 20
-23.2635612641
 10
0.5215045617
 20
-23.2750317696
 10
0.5140172534
 20
-23.2858209161
 10
0.5060193226
 20
-23.2959042909
 10
0.4975288663
 20
-23.305259078
 10
0.4885650965
 20
-23.3138641095
 10
0.4791482958
 20
-23.3216999147
  0
LWPOLYLINE
  5
3AE
100
AcDbEntity
  8
268140580
100
AcDbPolyline
 62
250
  6
CONTINUOUS
 90
15
 70
0
 10
-12.6114992117
 20
23.7013016464
 10
-12.6071201247
 20
23.6939306805
 10
-12.6032354607
 20
23.6868196426
 10
-12.5998562738
 20
23.6799882217
 10
-12.5969920038
 20
23.673454769
 10
-12.5946512802
 20
23.6672381041
 10
-12.5928414011
 20
23.6613571557
 10
-12.5915674311
 20
23.6558285948
 10
-12.5908326494
 20
23.6506669557
 10
-12.590639072
 20
23.6458862702
 10
-12.5909872808
 20
23.6414996019
 10
-12.59187637
 20
23.6375190908
 10
-12.5933039003
 20
23.6339557651
 10
-12.5952659374
 20
23.6308194209
 10
-12.5957568689
 20
23.6302020009
  0
LWPOLYLINE
  5
3AF
100
AcDbEntity
  8
268140580
100
AcDbPolyline
 62
250
  6
CONTINUOUS
 90
13
 70
0
 10
-13.1418292976
 20
23.0611366034
 10
-13.1369890504
 20
23.0529536498
 10
-13.1327633375
 20
23.0450974629
 10
-13.1291664573
 20
23.0375946255
 10
-13.1262105805
 20
23.0304705249
 10
-13.1239057089
 20
23.0237492668
 10
-13.1222596414
 20
23.0174535938
 10
-13.1212779479
 20
23.0116048085
 10
-13.1209639499
 20
23.0062227013
 10
-13.1213187101
 20
23.0013254835
 10
-13.122341028
 20
22.9969297259
 10
-13.1240274444
 20
22.9930503021
 10
-13.1260869548
 20
22.9900369579
  0
LWPOLYLINE
  5
3B0
100
AcDbEntity
  8
268140580
100
AcDbPolyline
 62
7
  6
CONTINUOUS
 90
25
 70
0
 10
0.1871335278
 20
15.6622435221
 10
0.1888784599
 20
15.6480399546
 10
0.190182565
 20
15.6342065699
 10
0.1910458431
 20
15.620743368
 10
0.1915376579
 20
15.6076411944
 10
0.1915886456
 20
15.5949092036
 10
0.1909907152
 20
15.582574859
 10
0.1896829162
 20
15.570630061
 10
0.187726199
 20
15.5590829091
 10
0.1850953231
 20
15.5479851651
 10
0.1817550838
 20
15.5373550304
 10
0.1777406858
 20
15.5271743036
 10
0.1731325017
 20
15.5174401428
 10
0.1679337838
 20
15.5081730232
 10
0.1621412798
 20
15.4993524697
 10
0.1558256062
 20
15.4909142148
 10
0.1489811977
 20
15.4828435539
 10
0.1416136195
 20
15.4751551916
 10
0.1338101839
 20
15.4678289748
 10
0.125568322
 20
15.4608620075
 10
0.1168906026
 20
15.4542571857
 10
0.1078720455
 20
15.4480030452
 10
0.0985443238
 20
15.4420957643
 10
0.0888757642
 20
15.4365391647
 10
0.0788663668
 20
15.4313332463
  0
LWPOLYLINE
  5
3B1
100
AcDbEntity
  8
CORPO_STAMPATO
100
AcDbPolyline
 62
7
  6
CONTINUOUS
 90
40
 70
0
 10
20.5317545943
 20
16.3370038789
 10
20.5086959448
 20
16.3120033699
 10
20.4846766502
 20
16.2863992902
 10
20.4596967105
 20
16.2601916398
 10
20.4337800912
 20
16.2333967791
 10
20.4069028268
 20
16.2059983477
 10
20.3789930209
 20
16.1779472647
 10
20.3500533526
 20
16.1492449884
 10
20.3200811428
 20
16.1198900605
 10
20.2889964572
 20
16.089829025
 10
20.2568052091
 20
16.0590662266
 10
20.2235014851
 20
16.0275973205
 10
20.1889876114
 20
15.9953558168
 10
20.1532660288
 20
15.9623426015
 10
20.1163342964
 20
15.9285567886
 10
20.0780874173
 20
15.8939292297
 10
20.0385288667
 20
15.8584618049
 10
19.9976551693
 20
15.8221526343
 10
19.9553509023
 20
15.7849269298
 10
19.9116190457
 20
15.7467861374
 10
19.8664566196
 20
15.7077288112
 10
19.8197392613
 20
15.6676758254
 10
19.7714716085
 20
15.6266300153
 10
19.7216490237
 20
15.5845885455
 10
19.6701332308
 20
15.5414637842
 10
19.6169283105
 20
15.4972580202
 10
19.5620301822
 20
15.4519689647
 10
19.5052883285
 20
15.4055021189
 10
19.4467073446
 20
15.3578601518
 10
19.3862826353
 20
15.3090403945
 10
19.3238498974
 20
15.2589403415
 10
19.2594145292
 20
15.207563238
 10
19.1929711324
 20
15.1549058387
 10
19.1243392094
 20
15.1008559018
 10
19.0535270615
 20
15.0454188061
 10
18.9805263873
 20
14.9885891727
 10
18.9051317848
 20
14.9302386238
 10
18.8272747868
 20
14.8703243665
 10
18.7470238605
 20
14.8088891937
 10
18.6643790059
 20
14.7459331052
  0
LINE
  5
3B2
100
AcDbEntity
  8
290140580
100
AcDbLine
 62
250
  6
CONTINUOUS
 10
-1.4391905298
 20
-4.9467637514
 11
-5.0426145843
 21
-6.76236927
  0
LINE
  5
3B3
100
AcDbEntity
  8
290140600
100
AcDbLine
 62
250
  6
CONTINUOUS
 10
-1.4391905298
 20
-4.9467637514
 11
-5.0426145843
 21
-6.76236927
  0
LINE
  5
3B4
100
AcDbEntity
  8
290140580
100
AcDbLine
 62
250
  6
CONTINUOUS
 10
-1.2977907127
 20
-5.1906423607
 11
-4.9012147672
 21
-7.0062478793
  0
LINE
  5
3B5
100
AcDbEntity
  8
290140600
100
AcDbLine
 62
250
  6
CONTINUOUS
 10
-1.2977907127
 20
-5.1906423607
 11
-4.9012147672
 21
-7.0062478793
  0
LWPOLYLINE
  5
3B6
100
AcDbEntity
  8
290140580
100
AcDbPolyline
 62
250
  6
CONTINUOUS
 90
19
 70
0
 10
-5.0426145843
 20
-6.76236927
 10
-5.062087402
 20
-6.7713721798
 10
-5.082697346
 20
-6.7794158553
 10
-5.1044444161
 20
-6.7865002965
 10
-5.1275211354
 20
-6.7926716573
 10
-5.151734981
 20
-6.7978837838
 10
-5.1765083838
 20
-6.801998214
 10
-5.2018411176
 20
-6.804983442
 10
-5.2277334087
 20
-6.8068709738
 10
-5.2536083674
 20
-6.8076168648
 10
-5.2794671861
 20
-6.8071943724
 10
-5.3053086723
 20
-6.8056302391
 10
-5.3305523593
 20
-6.8029607485
 10
-5.3551958115
 20
-6.7991541117
 10
-5.3792414644
 20
-6.7942421175
 10
-5.4021161567
 20
-6.7883564151
 10
-5.4236288346
 20
-6.7815408875
 10
-5.4439705519
 20
-6.7737516516
 10
-5.4631413086
 20
-6.7649887075
  0
LWPOLYLINE
  5
3B7
100
AcDbEntity
  8
290140600
100
AcDbPolyline
 62
250
  6
CONTINUOUS
 90
19
 70
0
 10
-5.0426145843
 20
-6.76236927
 10
-5.062087402
 20
-6.7713721798
 10
-5.082697346
 20
-6.7794158553
 10
-5.1044444161
 20
-6.7865002965
 10
-5.1275211354
 20
-6.7926716573
 10
-5.151734981
 20
-6.7978837838
 10
-5.1765083838
 20
-6.801998214
 10
-5.2018411176
 20
-6.804983442
 10
-5.2277334087
 20
-6.8068709738
 10
-5.2536083674
 20
-6.8076168648
 10
-5.2794671861
 20
-6.8071943724
 10
-5.3053086723
 20
-6.8056302391
 10
-5.3305523593
 20
-6.8029607485
 10
-5.3551958115
 20
-6.7991541117
 10
-5.3792414644
 20
-6.7942421175
 10
-5.4021161567
 20
-6.7883564151
 10
-5.4236288346
 20
-6.7815408875
 10
-5.4439705519
 20
-6.7737516516
 10
-5.4631413086
 20
-6.7649887075
  0
LINE
  5
3B8
100
AcDbEntity
  8
290140600
100
AcDbLine
 62
250
  6
CONTINUOUS
 10
-4.9012147672
 20
-6.4218630606
 11
-1.2977907127
 21
-4.7576824188
  0
LINE
  5
3B9
100
AcDbEntity
  8
290140580
100
AcDbLine
 62
250
  6
CONTINUOUS
 10
-4.9012147672
 20
-6.4218630606
 11
-1.2977907127
 21
-4.7576824188
  0
LINE
  5
3BA
100
AcDbEntity
  8
290140600
100
AcDbLine
 62
7
  6
CONTINUOUS
 10
-4.9562906987
 20
-6.5315005938
 11
-1.35185238
 21
-4.8668515312
  0
LINE
  5
3BB
100
AcDbEntity
  8
290140580
100
AcDbLine
 62
7
  6
CONTINUOUS
 10
-4.9562906987
 20
-6.5315005938
 11
-1.35185238
 21
-4.8668515312
  0
LWPOLYLINE
  5
3BC
100
AcDbEntity
  8
290140580
100
AcDbPolyline
 62
250
  6
CONTINUOUS
 90
19
 70
0
 10
-4.9012261126
 20
-7.0062420017
 10
-4.9335345669
 20
-7.0209456456
 10
-4.9681933572
 20
-7.0342147449
 10
-5.0049328603
 20
-7.0459258215
 10
-5.043472885
 20
-7.0559928991
 10
-5.0835270237
 20
-7.0643500551
 10
-5.1248068974
 20
-7.070935249
 10
-5.1670093484
 20
-7.075699112
 10
-5.209816603
 20
-7.0786127634
 10
-5.2529114031
 20
-7.0796527903
 10
-5.2959735765
 20
-7.0788011998
 10
-5.3386832027
 20
-7.0760731569
 10
-5.380723478
 20
-7.071494342
 10
-5.4217777101
 20
-7.065089218
 10
-5.4615461673
 20
-7.0569048836
 10
-5.4997420762
 20
-7.0470060318
 10
-5.5360802764
 20
-7.0354563573
 10
-5.5702831702
 20
-7.0223389607
 10
-5.6020838199
 20
-7.0077746864
  0
LWPOLYLINE
  5
3BD
100
AcDbEntity
  8
290140600
100
AcDbPolyline
 62
250
  6
CONTINUOUS
 90
19
 70
0
 10
-4.9012261126
 20
-7.0062420017
 10
-4.9335345669
 20
-7.0209456456
 10
-4.9681933572
 20
-7.0342147449
 10
-5.0049328603
 20
-7.0459258215
 10
-5.043472885
 20
-7.0559928991
 10
-5.0835270237
 20
-7.0643500551
 10
-5.1248068974
 20
-7.070935249
 10
-5.1670093484
 20
-7.075699112
 10
-5.209816603
 20
-7.0786127634
 10
-5.2529114031
 20
-7.0796527903
 10
-5.2959735765
 20
-7.0788011998
 10
-5.3386832027
 20
-7.0760731569
 10
-5.380723478
 20
-7.071494342
 10
-5.4217777101
 20
-7.065089218
 10
-5.4615461673
 20
-7.0569048836
 10
-5.4997420762
 20
-7.0470060318
 10
-5.5360802764
 20
-7.0354563573
 10
-5.5702831702
 20
-7.0223389607
 10
-5.6020838199
 20
-7.0077746864
  0
LINE
  5
3BE
100
AcDbEntity
  8
268140580
100
AcDbLine
 62
7
  6
CONTINUOUS
 10
6.2418989111
 20
-17.6289936448
 11
6.2418989111
 21
-17.4670382322
  0
LINE
  5
3BF
100
AcDbEntity
  8
268140580
100
AcDbLine
 62
7
  6
CONTINUOUS
 10
6.2418989111
 20
18.9725759616
 11
6.2418989111
 21
19.3742836898
  0
LWPOLYLINE
  5
3C0
100
AcDbEntity
  8
CORPO_STAMPATO
100
AcDbPolyline
 62
7
  6
CONTINUOUS
 90
24
 70
0
 10
20.5457659871
 20
5.1675935099
 10
20.5516272239
 20
5.1711353083
 10
20.5572619331
 20
5.1747472104
 10
20.5626647708
 20
5.1784256519
 10
20.5678306147
 20
5.1821668694
 10
20.5727545784
 20
5.1859672606
 10
20.5774320145
 20
5.1898233878
 10
20.5818585065
 20
5.1937313455
 10
20.5860298749
 20
5.197687248
 10
20.58994219
 20
5.2016875898
 10
20.5935917723
 20
5.2057282804
 10
20.5969751926
 20
5.2098052605
 10
20.6000892761
 20
5.2139149902
 10
20.6029311124
 20
5.2180532292
 10
20.6054980511
 20
5.2222157798
 10
20.6077877029
 20
5.2263991032
 10
20.6097979506
 20
5.2305988458
 10
20.6115269449
 20
5.2348107082
 10
20.6129731035
 20
5.239031188
 10
20.6141351201
 20
5.2432558563
 10
20.6150119609
 20
5.2474803492
 10
20.615602864
 20
5.2517012371
 10
20.6159073441
 20
5.2559140539
 10
20.6159526542
 20
5.258277431
  0
LWPOLYLINE
  5
3C1
100
AcDbEntity
  8
CORPO_STAMPATO
100
AcDbPolyline
 62
7
  6
CONTINUOUS
 90
10
 70
0
 10
20.5457659871
 20
5.1675935099
 10
20.5443369225
 20
5.1668027784
 10
20.542879884
 20
5.1661093596
 10
20.5413945495
 20
5.165513474
 10
20.5398847123
 20
5.1650124705
 10
20.5383460102
 20
5.1646094228
 10
20.5367655726
 20
5.1643132875
 10
20.5351385422
 20
5.1641273767
 10
20.5334684294
 20
5.1640491986
 10
20.5317545943
 20
5.1640791652
  0
LWPOLYLINE
  5
3C2
100
AcDbEntity
  8
268140580
100
AcDbPolyline
 62
250
  6
CONTINUOUS
 90
13
 70
0
 10
0.078871057
 20
15.4313355914
 10
0.0735853866
 20
15.4424113202
 10
0.0687532277
 20
15.4538964932
 10
0.0643745804
 20
15.4657911103
 10
0.0604448065
 20
15.4781258742
 10
0.0569685442
 20
15.4908700821
 10
0.0539597075
 20
15.5039316263
 10
0.0514243525
 20
15.5173101562
 10
0.0493564231
 20
15.5310060224
 10
0.0477516657
 20
15.5449281684
 10
0.0466086624
 20
15.5590462422
 10
0.045928831
 20
15.5733905959
 10
0.0457121716
 20
15.5879612294
  0
LWPOLYLINE
  5
3C3
100
AcDbEntity
  8
CORPO_STAMPATO
100
AcDbPolyline
 62
7
  6
CONTINUOUS
 90
35
 70
0
 10
8.5033546534
 20
21.5497632161
 10
8.5037178234
 20
21.5716256036
 10
8.505501759
 20
21.6028989431
 10
8.5087740428
 20
21.6341341711
 10
8.513532724
 20
21.6653085047
 10
8.5197743565
 20
21.6964005816
 10
8.5274961268
 20
21.7273972556
 10
8.5366956758
 20
21.7582880939
 10
8.5473700012
 20
21.7890589502
 10
8.5595132979
 20
21.8196895581
 10
8.5731180535
 20
21.8501603734
 10
8.588176135
 20
21.8804523796
 10
8.6046805158
 20
21.9105507092
 10
8.622623947
 20
21.9404421756
 10
8.6419979775
 20
21.9701109873
 10
8.6627921215
 20
21.999539492
 10
8.6849951273
 20
22.0287118405
 10
8.7085953203
 20
22.0576114759
 10
8.7335804711
 20
22.0862222748
 10
8.7599371986
 20
22.1145292665
 10
8.7876511552
 20
22.1425160146
 10
8.8167081287
 20
22.170167187
 10
8.8470939315
 20
22.1974696811
 10
8.8787935587
 20
22.2244087659
 10
8.9117894637
 20
22.2509683291
 10
8.946062519
 20
22.2771334903
 10
8.9815932757
 20
22.3028885566
 10
9.0183638304
 20
22.3282197305
 10
9.0563563132
 20
22.3531152914
 10
9.0955508078
 20
22.377561127
 10
9.1359262281
 20
22.4015430487
 10
9.1774622123
 20
22.4250494733
 10
9.220137092
 20
22.4480675508
 10
9.2639277986
 20
22.470583214
 10
9.3088110051
 20
22.4925833981
  0
LWPOLYLINE
  5
3C4
100
AcDbEntity
  8
268140580
100
AcDbPolyline
 62
250
  6
CONTINUOUS
 90
28
 70
0
 10
0.2224888669
 20
-24.1706266181
 10
0.2273291298
 20
-24.1570052133
 10
0.2315548531
 20
-24.1431308226
 10
0.2351517388
 20
-24.1290503929
 10
0.2381076165
 20
-24.1148115684
 10
0.2404124849
 20
-24.1004625291
 10
0.2420585454
 20
-24.0860518286
 10
0.2430402288
 20
-24.0716282283
 10
0.2433542141
 20
-24.0572405334
 10
0.2429994393
 20
-24.0429374275
 10
0.2419771056
 20
-24.0287673081
 10
0.2402906727
 20
-24.014778122
 10
0.2379458478
 20
-24.0010172042
 10
0.2349505655
 20
-23.9875311172
 10
0.2313149615
 20
-23.9743654932
 10
0.227051338
 20
-23.9615648798
 10
0.2221741223
 20
-23.9491725901
 10
0.2166998178
 20
-23.9372305551
 10
0.210646948
 20
-23.9257791818
 10
0.2040359943
 20
-23.9148572177
 10
0.1968893262
 20
-23.9045016186
 10
0.1892311257
 20
-23.8947474236
 10
0.1810873059
 20
-23.8856276372
 10
0.1724854229
 20
-23.8771731175
 10
0.1634545821
 20
-23.8694124707
 10
0.1540253407
 20
-23.8623719561
 10
0.1442296046
 20
-23.8560753963
 10
0.1341005192
 20
-23.8505440967
  0
LWPOLYLINE
  5
3C5
100
AcDbEntity
  8
268140580
100
AcDbPolyline
 62
250
  6
CONTINUOUS
 90
31
 70
0
 10
0.7528189528
 20
-24.2804615752
 10
0.7572025751
 20
-24.2682145059
 10
0.7610896497
 20
-24.2557587386
 10
0.7644695222
 20
-24.2431284138
 10
0.7673329286
 20
-24.2303581503
 10
0.7696720207
 20
-24.2174829505
 10
0.771480387
 20
-24.2045381043
 10
0.772753071
 20
-24.1915590929
 10
0.7734865843
 20
-24.1785814906
 10
0.7736789164
 20
-24.1656408682
 10
0.7733295402
 20
-24.1527726951
 10
0.7724394133
 20
-24.140012242
 10
0.7710109754
 20
-24.1273944845
 10
0.7690481418
 20
-24.1149540069
 10
0.7665562925
 20
-24.1027249077
 10
0.7635422575
 20
-24.0907407061
 10
0.760014298
 20
-24.0790342498
 10
0.7559820839
 20
-24.0676376256
 10
0.7514566673
 20
-24.0565820707
 10
0.7464504519
 20
-24.0458978876
 10
0.7409771596
 20
-24.0356143609
 10
0.7350517921
 20
-24.0257596772
 10
0.7286905906
 20
-24.0163608473
 10
0.7219109906
 20
-24.0074436328
 10
0.7147315745
 20
-23.9990324753
 10
0.7071720207
 20
-23.991150429
 10
0.6992530493
 20
-23.9838190981
 10
0.6909963656
 20
-23.9770585774
 10
0.6824246008
 20
-23.9708873968
 10
0.6735612493
 20
-23.9653224712
 10
0.6644306051
 20
-23.9603790537
  0
LWPOLYLINE
  5
3C6
100
AcDbEntity
  8
CORPO_STAMPATO
100
AcDbPolyline
 62
7
  6
CONTINUOUS
 90
43
 70
0
 10
18.6643790059
 20
2.794782533
 10
18.6736480755
 20
2.8017000506
 10
18.6827410608
 20
2.8082612661
 10
18.6916582758
 20
2.8144644033
 10
18.7003802705
 20
2.8202936154
 10
18.7089279098
 20
2.8257609979
 10
18.7173593484
 20
2.8309078831
 10
18.7256758629
 20
2.8357437042
 10
18.7338716373
 20
2.8402579282
 10
18.7419891686
 20
2.8444639851
 10
18.7500179649
 20
2.8483675765
 10
18.7579595315
 20
2.8519634096
 10
18.7658685511
 20
2.8552505083
 10
18.7737400658
 20
2.8582405151
 10
18.7815620893
 20
2.8609244668
 10
18.7893720055
 20
2.863272623
 10
18.7971537631
 20
2.865294498
 10
18.8048990049
 20
2.8669846667
 10
18.8126488813
 20
2.868293101
 10
18.8203907157
 20
2.869230451
 10
18.8281009049
 20
2.8697920903
 10
18.8357957387
 20
2.8699070129
 10
18.8434543986
 20
2.8695806047
 10
18.8510502514
 20
2.8688141506
 10
18.858583272
 20
2.8675317465
 10
18.8660285605
 20
2.8657324304
 10
18.873351401
 20
2.8634235674
 10
18.8805308575
 20
2.8605422431
 10
18.8875316098
 20
2.8570841905
 10
18.8943196213
 20
2.8530580933
 10
18.9008700933
 20
2.8484204426
 10
18.9071357591
 20
2.843172384
 10
18.9130830238
 20
2.8373142996
 10
18.9186955384
 20
2.8308019291
 10
18.9239138638
 20
2.8236421921
 10
18.9286925479
 20
2.8158265844
 10
18.9330098069
 20
2.8072887376
 10
18.9367994039
 20
2.7979915412
 10
18.939971691
 20
2.7879658025
 10
18.9424478365
 20
2.7772460472
 10
18.9441464305
 20
2.7657698834
 10
18.9449725263
 20
2.753580925
 10
18.9450392054
 20
2.7489418344
  0
LWPOLYLINE
  5
3C7
100
AcDbEntity
  8
CORPO_STAMPATO
100
AcDbPolyline
 62
7
  6
CONTINUOUS
 90
9
 70
0
 10
20.5443369225
 20
4.3970005329
 10
20.542879884
 20
4.3959961796
 10
20.5413945495
 20
4.3948873504
 10
20.5398847123
 20
4.3936817608
 10
20.5383460102
 20
4.392372118
 10
20.5367655726
 20
4.3909362802
 10
20.5351385422
 20
4.3893671931
 10
20.5334684294
 20
4.3876727314
 10
20.5317545943
 20
4.3858533067
  0
LWPOLYLINE
  5
3C8
100
AcDbEntity
  8
CORPO_STAMPATO
100
AcDbPolyline
 62
7
  6
CONTINUOUS
 90
34
 70
0
 10
19.9095863712
 20
3.2366085654
 10
19.9423994979
 20
3.2585412751
 10
19.9746769279
 20
3.2815526363
 10
20.0063978615
 20
3.3056378651
 10
20.0375365591
 20
3.3307871104
 10
20.0680783938
 20
3.3569982786
 10
20.098019035
 20
3.3842790448
 10
20.1273395674
 20
3.4126250372
 10
20.1560190671
 20
3.4420290715
 10
20.1840494732
 20
3.4724970742
 10
20.2114139327
 20
3.5040265368
 10
20.2380905312
 20
3.5366083918
 10
20.2640636805
 20
3.5702402623
 10
20.2893179771
 20
3.6049200619
 10
20.3138322447
 20
3.6406371549
 10
20.3375836496
 20
3.6773762717
 10
20.3605579969
 20
3.7151337623
 10
20.3827365536
 20
3.7538979361
 10
20.4040925611
 20
3.7936397415
 10
20.4246134887
 20
3.8343528102
 10
20.4442838685
 20
3.8760243646
 10
20.4630766511
 20
3.9186126993
 10
20.4809813467
 20
3.9621076436
 10
20.4979863282
 20
4.0064956162
 10
20.5140677464
 20
4.0517259381
 10
20.5292175403
 20
4.0977842811
 10
20.5434279283
 20
4.1446563847
 10
20.5566805991
 20
4.1922875679
 10
20.5689701782
 20
4.2406598461
 10
20.5802922663
 20
4.2897580907
 10
20.5906348281
 20
4.339528027
 10
20.5999933363
 20
4.3899384543
 10
20.608368387
 20
4.4409832411
 10
20.6151541286
 20
4.4881239496
  0
LINE
  5
3C9
100
AcDbEntity
  8
CORPO_STAMPATO
100
AcDbLine
 62
7
  6
CONTINUOUS
 10
19.9095863712
 20
3.2366085654
 11
18.9450392055
 21
2.6127476022
  0
LWPOLYLINE
  5
3CA
100
AcDbEntity
  8
CORPO_STAMPATO
100
AcDbPolyline
 62
7
  6
CONTINUOUS
 90
21
 70
0
 10
20.5443369225
 20
4.3970005329
 10
20.5516272239
 20
4.4015673675
 10
20.5572619331
 20
4.4053418347
 10
20.5626647708
 20
4.4092200274
 10
20.5678306147
 20
4.4131984149
 10
20.5727545784
 20
4.4172731621
 10
20.5774320145
 20
4.4214401337
 10
20.5818585065
 20
4.4256955141
 10
20.5860298749
 20
4.4300353277
 10
20.58994219
 20
4.4344551014
 10
20.5935917723
 20
4.4389508333
 10
20.5969751926
 20
4.4435183755
 10
20.6000892761
 20
4.4481529542
 10
20.6029311124
 20
4.4528504162
 10
20.6054980511
 20
4.4576064767
 10
20.6077877029
 20
4.4624161018
 10
20.6097979506
 20
4.4672750229
 10
20.6115269449
 20
4.4721788555
 10
20.6129731035
 20
4.4771223478
 10
20.6141351201
 20
4.4821011527
 10
20.6150119609
 20
4.4871108244
  0
LINE
  5
3CB
100
AcDbEntity
  8
290140600
100
AcDbLine
 62
250
  6
CONTINUOUS
 10
-20.1754042041
 20
18.6403713667
 11
-5.2978415153
 21
11.2015900223
  0
LINE
  5
3CC
100
AcDbEntity
  8
290140580
100
AcDbLine
 62
250
  6
CONTINUOUS
 10
-20.1754042041
 20
18.6403713667
 11
-5.2978415153
 21
11.2015900223
  0
LWPOLYLINE
  5
3CD
100
AcDbEntity
  8
268140580
100
AcDbPolyline
 62
250
  6
CONTINUOUS
 90
18
 70
0
 10
-14.4259024861
 20
22.3674039192
 10
-14.4207830415
 20
22.3628357535
 10
-14.4159187148
 20
22.3578641807
 10
-14.4113199281
 20
22.3524978251
 10
-14.4069961677
 20
22.346745607
 10
-14.402960413
 20
22.3406235309
 10
-14.3992206582
 20
22.3341435689
 10
-14.3957840763
 20
22.3273179832
 10
-14.3926599519
 20
22.3201662126
 10
-14.3898529145
 20
22.3127009011
 10
-14.3873684678
 20
22.3049389616
 10
-14.3852138889
 20
22.296909368
 10
-14.3833914657
 20
22.2886321512
 10
-14.3819015748
 20
22.280122552
 10
-14.3807453465
 20
22.2714047407
 10
-14.3799220101
 20
22.2624994245
 10
-14.3794296827
 20
22.2534232317
 10
-14.3792661646
 20
22.2441948652
  0
LWPOLYLINE
  5
3CE
100
AcDbEntity
  8
268140580
100
AcDbPolyline
 62
7
  6
CONTINUOUS
 90
12
 70
0
 10
-1.8733502134
 20
13.3525295042
 10
-1.8659393573
 20
13.3438524992
 10
-1.850628379
 20
13.3247857711
 10
-1.8358166443
 20
13.3051869982
 10
-1.82153473
 20
13.2850975456
 10
-1.8077520594
 20
13.2644760482
 10
-1.7944911339
 20
13.2433554357
 10
-1.7817238415
 20
13.2216882506
 10
-1.7694782943
 20
13.1995219503
 10
-1.7578613294
 20
13.177031836
 10
-1.7468791575
 20
13.1542050833
 10
-1.7399333566
 20
13.1386743124
  0
LWPOLYLINE
  5
3CF
100
AcDbEntity
  8
268140580
100
AcDbPolyline
 62
7
  6
CONTINUOUS
 90
15
 70
0
 10
0.1244803491
 20
15.6338314699
 10
0.1245612672
 20
15.6336960782
 10
0.1249567154
 20
15.6329919069
 10
0.1249540777
 20
15.6330042282
 10
0.1246438132
 20
15.6337390465
 10
0.1241255971
 20
15.6351408672
 10
0.1234636304
 20
15.6372044873
 10
0.1227128199
 20
15.6399332667
 10
0.1219309022
 20
15.643297931
 10
0.1211641188
 20
15.647288143
 10
0.1204542421
 20
15.6518971758
 10
0.1198402998
 20
15.6571186246
 10
0.1193591775
 20
15.6629466294
 10
0.119046575
 20
15.6693634556
 10
0.1189354763
 20
15.6763495771
  0
LWPOLYLINE
  5
3D0
100
AcDbEntity
  8
268140580
100
AcDbPolyline
 62
250
  6
CONTINUOUS
 90
13
 70
0
 10
0.2224888669
 20
16.3789775212
 10
0.227329114
 20
16.3707945676
 10
0.2315548269
 20
16.3629383806
 10
0.2351517071
 20
16.3554355433
 10
0.2381075839
 20
16.3483114427
 10
0.2404124555
 20
16.3415901846
 10
0.242058523
 20
16.3352945116
 10
0.2430402166
 20
16.3294457263
 10
0.2433542145
 20
16.3240636191
 10
0.2429994543
 20
16.3191664013
 10
0.2419771364
 20
16.3147706437
 10
0.24029072
 20
16.3108912199
 10
0.2382312097
 20
16.3078778757
  0
LINE
  5
3D1
100
AcDbEntity
  8
CORPO_STAMPATO
100
AcDbLine
 62
250
  6
CONTINUOUS
 10
9.3088110051
 20
22.0640666224
 11
9.3088110051
 21
22.4925833981
  0
LINE
  5
3D2
100
AcDbEntity
  8
CORPO_STAMPATO
100
AcDbLine
 62
7
  6
CONTINUOUS
 10
9.9805624472
 20
22.3927625387
 11
9.9805624472
 21
21.9656619901
  0
LINE
  5
3D3
100
AcDbEntity
  8
715140040
100
AcDbLine
 62
7
  6
CONTINUOUS
 10
10.9420898286
 20
21.1220788092
 11
10.9420898286
 21
20.6908392291
  0
LWPOLYLINE
  5
3D4
100
AcDbEntity
  8
CORPO_STAMPATO
100
AcDbPolyline
 62
250
  6
CONTINUOUS
 90
32
 70
0
 10
18.419863026
 20
-2.0444268214
 10
18.4266965991
 20
-2.0406481111
 10
18.4412364761
 20
-2.0319742997
 10
18.455399694
 20
-2.0226418789
 10
18.4691755016
 20
-2.012657933
 10
18.4825534417
 20
-2.0020300407
 10
18.4955233594
 20
-1.9907662695
 10
18.5080754093
 20
-1.9788751697
 10
18.5202000631
 20
-1.9663657677
 10
18.5318881173
 20
-1.9532475592
 10
18.5431306994
 20
-1.9395305023
 10
18.5539192754
 20
-1.9252250093
 10
18.5642456556
 20
-1.9103419395
 10
18.5741020015
 20
-1.8948925905
 10
18.5834808312
 20
-1.8788886898
 10
18.5923750253
 20
-1.8623423857
 10
18.6007778323
 20
-1.8452662385
 10
18.6086828736
 20
-1.8276732105
 10
18.6160841487
 20
-1.8095766564
 10
18.6229760393
 20
-1.7909903131
 10
18.6293533138
 20
-1.7719282895
 10
18.6352111312
 20
-1.7524050552
 10
18.640545045
 20
-1.7324354303
 10
18.6453510063
 20
-1.7120345735
 10
18.6496253668
 20
-1.6912179709
 10
18.6533648819
 20
-1.6700014243
 10
18.6565667131
 20
-1.6484010388
 10
18.6592284298
 20
-1.6264332113
 10
18.6613480115
 20
-1.6041146172
 10
18.6629238492
 20
-1.5814621985
 10
18.6639547469
 20
-1.5584931504
 10
18.6644399219
 20
-1.5352249086
  0
LINE
  5
3D5
100
AcDbEntity
  8
CORPO_STAMPATO
100
AcDbLine
 62
250
  6
CONTINUOUS
 10
12.7406954609
 20
-4.7076383074
 11
18.6643790059
 21
-1.5116751356
  0
LINE
  5
3D6
100
AcDbEntity
  8
CORPO_STAMPATO
100
AcDbLine
 62
7
  6
CONTINUOUS
 10
12.4961794811
 20
-5.2403899932
 11
18.419863026
 21
-2.0444268214
  0
LWPOLYLINE
  5
3D7
100
AcDbEntity
  8
CORPO_STAMPATO
100
AcDbPolyline
 62
250
  6
CONTINUOUS
 90
30
 70
0
 10
18.6643790059
 20
-1.5116751356
 10
18.6830401444
 20
-1.5017457926
 10
18.7011532393
 20
-1.4915658947
 10
18.7187048398
 20
-1.4811430014
 10
18.735681912
 20
-1.470484853
 10
18.7520718485
 20
-1.459599364
 10
18.7678624782
 20
-1.4484946183
 10
18.7830420748
 20
-1.4371788622
 10
18.7975993658
 20
-1.4256604989
 10
18.811523541
 20
-1.4139480819
 10
18.8248042602
 20
-1.4020503091
 10
18.837431661
 20
-1.3899760157
 10
18.8493963662
 20
-1.3777341681
 10
18.8606894909
 20
-1.3653338573
 10
18.8713026486
 20
-1.3527842918
 10
18.881227958
 20
-1.3400947909
 10
18.8904580484
 20
-1.327274778
 10
18.8989860657
 20
-1.3143337732
 10
18.9068056767
 20
-1.3012813866
 10
18.9139110747
 20
-1.2881273111
 10
18.9202969832
 20
-1.2748813148
 10
18.9259586598
 20
-1.2615532343
 10
18.9308919003
 20
-1.2481529672
 10
18.9350930411
 20
-1.2346904645
 10
18.9385589625
 20
-1.2211757237
 10
18.9412870907
 20
-1.2076187807
 10
18.9432753997
 20
-1.194029703
 10
18.944522413
 20
-1.1804185821
 10
18.9450272046
 20
-1.1667955255
 10
18.9450392055
 20
-1.1643459504
  0
LWPOLYLINE
  5
3D8
100
AcDbEntity
  8
CORPO_STAMPATO
100
AcDbPolyline
 62
250
  6
CONTINUOUS
 90
30
 70
0
 10
11.7167371418
 20
-6.5366485031
 10
11.7353982818
 20
-6.5267191593
 10
11.7535113782
 20
-6.5165392605
 10
11.77106298
 20
-6.5061163663
 10
11.7880400532
 20
-6.495458217
 10
11.8044299907
 20
-6.4845727272
 10
11.8202206212
 20
-6.4734679806
 10
11.8354002185
 20
-6.4621522237
 10
11.8499575101
 20
-6.4506338596
 10
11.8638816857
 20
-6.4389214418
 10
11.8771624051
 20
-6.4270236682
 10
11.889789806
 20
-6.4149493741
 10
11.9017545113
 20
-6.4027075258
 10
11.9130476359
 20
-6.3903072144
 10
11.9236607935
 20
-6.3777576482
 10
11.9335861026
 20
-6.3650681467
 10
11.9428161927
 20
-6.3522481333
 10
11.9513442096
 20
-6.339307128
 10
11.9591638201
 20
-6.326254741
 10
11.9662692176
 20
-6.313100665
 10
11.9726551254
 20
-6.2998546684
 10
11.9783168013
 20
-6.2865265876
 10
11.9832500411
 20
-6.2731263202
 10
11.9874511811
 20
-6.2596638174
 10
11.9909171018
 20
-6.2461490763
 10
11.9936452291
 20
-6.2325921332
 10
11.9956335374
 20
-6.2190030555
 10
11.9968805499
 20
-6.2053919346
 10
11.9973853407
 20
-6.1917688781
 10
11.9973973414
 20
-6.1893193178
  0
LWPOLYLINE
  5
3D9
100
AcDbEntity
  8
CORPO_STAMPATO
100
AcDbPolyline
 62
7
  6
CONTINUOUS
 90
40
 70
0
 10
18.6643790059
 20
16.772576482
 10
18.7470237359
 20
16.7952016121
 10
18.827274548
 20
16.816868676
 10
18.9051314422
 20
16.8375776739
 10
18.9805259516
 20
16.8573004986
 10
19.0535265431
 20
16.8760652572
 10
19.1243386174
 20
16.8939562712
 10
19.1929704755
 20
16.9109767579
 10
19.2594138164
 20
16.9271235
 10
19.323849137
 20
16.9424711659
 10
19.3862818357
 20
16.9570221004
 10
19.4467065142
 20
16.9707739588
 10
19.5052874747
 20
16.9837943759
 10
19.5620293126
 20
16.9960854411
 10
19.6169274326
 20
17.0076450651
 10
19.6701323507
 20
17.0185346139
 10
19.7216481475
 20
17.0287560241
 10
19.7714707425
 20
17.038307359
 10
19.8197384099
 20
17.0472441751
 10
19.8664557873
 20
17.0555684393
 10
19.9116182371
 20
17.0632781846
 10
19.955350121
 20
17.0704230659
 10
19.9976544188
 20
17.0770047232
 10
20.0385281506
 20
17.0830215164
 10
20.0780867391
 20
17.0885181812
 10
20.1163336603
 20
17.0934964364
 10
20.1532654382
 20
17.0979545632
 10
20.1889870665
 20
17.1019321402
 10
20.2235009853
 20
17.1054308089
 10
20.2568047547
 20
17.1084489278
 10
20.2889960481
 20
17.1110211511
 10
20.3200807782
 20
17.1131492575
 10
20.3500530325
 20
17.1148314682
 10
20.3789927466
 20
17.1160971014
 10
20.4069026019
 20
17.1169474733
 10
20.433779917
 20
17.1173812676
 10
20.4596965846
 20
17.1174238543
 10
20.4846765687
 20
17.1170836897
 10
20.5086959053
 20
17.1163523174
 10
20.5317545943
 20
17.1152297374
  0
LINE
  5
3DA
100
AcDbEntity
  8
290140600
100
AcDbLine
 62
250
  6
CONTINUOUS
 10
-19.1828383292
 20
20.3921713878
 11
-4.2819032603
 21
12.9417038534
  0
LINE
  5
3DB
100
AcDbEntity
  8
290140580
100
AcDbLine
 62
250
  6
CONTINUOUS
 10
-19.1828383292
 20
20.3921713878
 11
-4.2819032603
 21
12.9417038534
  0
LINE
  5
3DC
100
AcDbEntity
  8
290140600
100
AcDbLine
 62
7
  6
CONTINUOUS
 10
-1.2977907127
 20
12.9176029905
 11
-1.8733502134
 21
13.2053827409
  0
LINE
  5
3DD
100
AcDbEntity
  8
290140580
100
AcDbLine
 62
7
  6
CONTINUOUS
 10
-1.2977907127
 20
12.9176029905
 11
-1.8733502134
 21
13.2053827409
  0
LWPOLYLINE
  5
3DE
100
AcDbEntity
  8
268140580
100
AcDbPolyline
 62
250
  6
CONTINUOUS
 90
18
 70
0
 10
-1.0615843217
 20
15.685244837
 10
-1.0564648771
 20
15.6806766713
 10
-1.0516005504
 20
15.6757050985
 10
-1.0470017637
 20
15.6703387429
 10
-1.0426780032
 20
15.6645865248
 10
-1.0386422486
 20
15.6584644487
 10
-1.0349024938
 20
15.6519844867
 10
-1.0314659119
 20
15.645158901
 10
-1.0283417875
 20
15.6380071303
 10
-1.02553475
 20
15.6305418189
 10
-1.0230503034
 20
15.6227798794
 10
-1.0208957245
 20
15.6147502857
 10
-1.0190733013
 20
15.606473069
 10
-1.0175834104
 20
15.5979634698
 10
-1.0164271821
 20
15.5892456585
 10
-1.0156038457
 20
15.5803403423
 10
-1.0151115183
 20
15.5712641495
 10
-1.0149480002
 20
15.562035783
  0
LWPOLYLINE
  5
3DF
100
AcDbEntity
  8
268140580
100
AcDbPolyline
 62
250
  6
CONTINUOUS
 90
15
 70
0
 10
0.7528189528
 20
17.0191425642
 10
0.7571980398
 20
17.0117715983
 10
0.7610827037
 20
17.0046605604
 10
0.7644618906
 20
16.9978291395
 10
0.7673261606
 20
16.9912956868
 10
0.7696668842
 20
16.9850790219
 10
0.7714767633
 20
16.9791980735
 10
0.7727507333
 20
16.9736695126
 10
0.773485515
 20
16.9685078735
 10
0.7736790924
 20
16.963727188
 10
0.7733308836
 20
16.9593405197
 10
0.7724417944
 20
16.9553600085
 10
0.7710142641
 20
16.9517966829
 10
0.769052227
 20
16.9486603387
 10
0.7685612956
 20
16.9480429186
  0
LWPOLYLINE
  5
3E0
100
AcDbEntity
  8
CORPO_STAMPATO
100
AcDbPolyline
 62
250
  6
CONTINUOUS
 90
33
 70
0
 10
12.7406954609
 20
-4.7076383074
 10
12.7407563769
 20
-4.7311880804
 10
12.740271202
 20
-4.7544563223
 10
12.7392403043
 20
-4.7774253704
 10
12.7376644665
 20
-4.8000777891
 10
12.7355448848
 20
-4.8223963831
 10
12.7328831682
 20
-4.8443642106
 10
12.729681337
 20
-4.8659645961
 10
12.7259418219
 20
-4.8871811427
 10
12.7216674614
 20
-4.9079977453
 10
12.7168615001
 20
-4.9283986021
 10
12.7115275863
 20
-4.948368227
 10
12.7056697688
 20
-4.9678914613
 10
12.6992924944
 20
-4.9869534849
 10
12.6924006038
 20
-5.0055398282
 10
12.6849993287
 20
-5.0236363823
 10
12.6770942874
 20
-5.0412294103
 10
12.6686914804
 20
-5.0583055575
 10
12.6597972863
 20
-5.0748518616
 10
12.6504184566
 20
-5.0908557624
 10
12.6405621107
 20
-5.1063051114
 10
12.6302357304
 20
-5.1211881811
 10
12.6194471545
 20
-5.1354936741
 10
12.6082045724
 20
-5.1492107311
 10
12.5965165182
 20
-5.1623289395
 10
12.5843918644
 20
-5.1748383415
 10
12.5718398145
 20
-5.1867294414
 10
12.5588698968
 20
-5.1979932125
 10
12.5454919566
 20
-5.2086211049
 10
12.5317161491
 20
-5.2186050507
 10
12.5175529312
 20
-5.2279374715
 10
12.5030130541
 20
-5.236611283
 10
12.4961794811
 20
-5.2403899932
  0
LINE
  5
3E1
100
AcDbEntity
  8
715140040
100
AcDbLine
 62
7
  6
CONTINUOUS
 10
11.39183449
 20
21.0003309761
 11
11.39183449
 21
20.6801440876
  0
LINE
  5
3E2
100
AcDbEntity
  8
CORPO_STAMPATO
100
AcDbLine
 62
7
  6
CONTINUOUS
 10
11.4301313487
 20
21.8522683591
 11
11.4301313487
 21
22.3340851375
  0
LINE
  5
3E3
100
AcDbEntity
  8
CORPO_STAMPATO
100
AcDbLine
 62
250
  6
CONTINUOUS
 10
11.7167371418
 20
-13.5270084245
 11
11.7167371418
 21
-6.5366485031
  0
LWPOLYLINE
  5
3E4
100
AcDbEntity
  8
CORPO_STAMPATO
100
AcDbPolyline
 62
7
  6
CONTINUOUS
 90
79
 70
0
 10
11.9973973414
 20
-13.1796792392
 10
11.9974152042
 20
-6.1845867201
 10
11.9975626691
 20
-6.1747899385
 10
11.9978700234
 20
-6.1645133393
 10
11.9983501726
 20
-6.1537605959
 10
11.9990154775
 20
-6.1425419027
 10
11.9998773366
 20
-6.1308742552
 10
12.0009470382
 20
-6.1187663555
 10
12.0022354351
 20
-6.1062273548
 10
12.0037518734
 20
-6.0932766277
 10
12.0055057759
 20
-6.0799266408
 10
12.0075063123
 20
-6.066187905
 10
12.009761125
 20
-6.0520780369
 10
12.0122780565
 20
-6.0376104687
 10
12.0150645073
 20
-6.0227984042
 10
12.0181263732
 20
-6.0076598731
 10
12.0214698845
 20
-5.9922088818
 10
12.0251004927
 20
-5.9764613495
 10
12.0290216416
 20
-5.9604388142
 10
12.0332381301
 20
-5.944154577
 10
12.0377528539
 20
-5.9276282748
 10
12.0425644602
 20
-5.9108916115
 10
12.0476746452
 20
-5.8939617508
 10
12.053084274
 20
-5.8768572662
 10
12.0587883789
 20
-5.8596126101
 10
12.0647858803
 20
-5.8422466682
 10
12.0710751834
 20
-5.8247781314
 10
12.0776482932
 20
-5.8072415082
 10
12.084501693
 20
-5.7896560619
 10
12.0916312176
 20
-5.772040918
 10
12.0990258123
 20
-5.7544303648
 10
12.1066795929
 20
-5.736843633
 10
12.1145860387
 20
-5.7192996665
 10
12.1227311923
 20
-5.7018319391
 10
12.1311071207
 20
-5.6844587899
 10
12.1397050121
 20
-5.6671988043
 10
12.1485077624
 20
-5.6500850615
 10
12.1575054035
 20
-5.6331347852
 10
12.1666871826
 20
-5.6163653548
 10
12.1760330881
 20
-5.5998088955
 10
12.1855310727
 20
-5.5834813961
 10
12.1951689549
 20
-5.5673980809
 10
12.2049248903
 20
-5.5515883222
 10
12.21478467
 20
-5.5360670003
 10
12.2247354322
 20
-5.5208461457
 10
12.2347559377
 20
-5.5059490576
 10
12.2448315093
 20
-5.4913874115
 10
12.2549478143
 20
-5.4771717709
 10
12.2650830328
 20
-5.463321928
 10
12.27522196
 20
-5.4498469017
 10
12.2853495325
 20
-5.4367547985
 10
12.2954434465
 20
-5.4240621075
 10
12.3054881663
 20
-5.4117752496
 10
12.3154684403
 20
-5.3998994631
 10
12.3253620799
 20
-5.3884474439
 10
12.335153798
 20
-5.3774226361
 10
12.3448283684
 20
-5.3668276194
 10
12.3543636147
 20
-5.3566716953
 10
12.3637433696
 20
-5.3469567458
 10
12.372954285
 20
-5.337681027
 10
12.3819785398
 20
-5.3288466259
 10
12.3907994879
 20
-5.3204537775
 10
12.3994056275
 20
-5.3124973033
 10
12.40778676
 20
-5.3049705452
 10
12.4159290014
 20
-5.2978698665
 10
12.4238190874
 20
-5.2911907447
 10
12.4314470796
 20
-5.2849254768
 10
12.438800275
 20
-5.2790682995
 10
12.4458649492
 20
-5.27361379
 10
12.45262888
 20
-5.268554977
 10
12.4590802969
 20
-5.26388409
 10
12.4652053201
 20
-5.2595943438
 10
12.4709878445
 20
-5.2556798292
 10
12.4764159527
 20
-5.2521311767
 10
12.4814776435
 20
-5.2489385609
 10
12.4861562638
 20
-5.2460943942
 10
12.4904383697
 20
-5.243588338
 10
12.4943144294
 20
-5.241407265
 10
12.4961769703
 20
-5.2403913323
  0
LWPOLYLINE
  5
3E5
100
AcDbEntity
  8
CORPO_STAMPATO
100
AcDbPolyline
 62
250
  6
CONTINUOUS
 90
67
 70
0
 10
11.7167371418
 20
-6.5366485031
 10
11.7170143825
 20
-6.5062663212
 10
11.7178631879
 20
-6.4755750028
 10
11.719283558
 20
-6.4445745478
 10
11.7212745784
 20
-6.4132412905
 10
11.7238371636
 20
-6.3815988966
 10
11.7269740563
 20
-6.3497183636
 10
11.7306876027
 20
-6.3175994921
 10
11.7349754567
 20
-6.2852424815
 10
11.7398333229
 20
-6.2527189274
 10
11.7452635871
 20
-6.2200278537
 10
11.7512638635
 20
-6.1871702366
 10
11.7578226992
 20
-6.1542206004
 10
11.7649422148
 20
-6.1211791604
 10
11.7726202895
 20
-6.0880457013
 10
11.7808391087
 20
-6.0548941013
 10
11.7895988812
 20
-6.0217297019
 10
11.798899398
 20
-5.9885471616
 10
11.8087222175
 20
-5.9554043346
 10
11.8190664584
 20
-5.922306079
 10
11.8299330019
 20
-5.8892475365
 10
11.8413060498
 20
-5.8562719863
 10
11.8531858682
 20
-5.8233791686
 10
11.8655721909
 20
-5.7905693431
 10
11.878448421
 20
-5.7578865683
 10
11.8918162308
 20
-5.725327947
 10
11.9056739479
 20
-5.6928963764
 10
11.919999958
 20
-5.6606446069
 10
11.9347958517
 20
-5.6285712987
 10
11.9500600384
 20
-5.5966777916
 10
11.9657661323
 20
-5.5650208547
 10
11.9819150022
 20
-5.5336010694
 10
11.9985057792
 20
-5.5024178544
 10
12.0155094713
 20
-5.4715262343
 10
12.0329269187
 20
-5.4409268141
 10
12.0507572811
 20
-5.4106189888
 10
12.0689690448
 20
-5.3806559673
 10
12.0875630806
 20
-5.351038336
 10
12.1065385176
 20
-5.3217655085
 10
12.1258612299
 20
-5.2928889337
 10
12.1455309342
 20
-5.264410687
 10
12.1655479138
 20
-5.2363286929
 10
12.1858788919
 20
-5.2086881745
 10
12.2065223012
 20
-5.181492096
 10
12.2274797092
 20
-5.1547374932
 10
12.2487225411
 20
-5.1284606953
 10
12.2702505175
 20
-5.1026623273
 10
12.2920639178
 20
-5.0773417644
 10
12.3141350051
 20
-5.0525334608
 10
12.3364670369
 20
-5.028234629
 10
12.3590567557
 20
-5.0044480565
 10
12.3818666518
 20
-4.9812165613
 10
12.4049011299
 20
-4.9585379007
 10
12.4281557854
 20
-4.9364143173
 10
12.4515798939
 20
-4.9148953564
 10
12.4751748089
 20
-4.893982788
 10
12.4989391769
 20
-4.8736748421
 10
12.5228182137
 20
-4.8540157546
 10
12.5468121885
 20
-4.8350083572
 10
12.570920832
 20
-4.8166498183
 10
12.5950885516
 20
-4.7989758785
 10
12.6193164023
 20
-4.7819888958
 10
12.6436033291
 20
-4.7656865121
 10
12.6678905741
 20
-4.7500973947
 10
12.6921585515
 20
-4.7352310994
 10
12.7164268471
 20
-4.7210780703
 10
12.7406954609
 20
-4.7076383074
  0
LWPOLYLINE
  5
3E6
100
AcDbEntity
  8
CORPO_STAMPATO
100
AcDbPolyline
 62
7
  6
CONTINUOUS
 90
40
 70
0
 10
20.5317545943
 20
4.3858533067
 10
20.5086959448
 20
4.3608527977
 10
20.4846766502
 20
4.335248718
 10
20.4596967105
 20
4.3090410676
 10
20.4337800912
 20
4.2822462069
 10
20.4069028268
 20
4.2548477755
 10
20.3789930209
 20
4.2267966925
 10
20.3500533526
 20
4.1980944162
 10
20.3200811428
 20
4.1687394883
 10
20.2889964572
 20
4.1386784528
 10
20.2568052091
 20
4.1079156543
 10
20.2235014851
 20
4.0764467483
 10
20.1889876114
 20
4.0442052446
 10
20.1532660288
 20
4.0111920293
 10
20.1163342964
 20
3.9774062163
 10
20.0780874173
 20
3.9427786575
 10
20.0385288667
 20
3.9073112327
 10
19.9976551693
 20
3.8710020621
 10
19.9553509023
 20
3.8337763576
 10
19.9116190457
 20
3.7956355652
 10
19.8664566196
 20
3.756578239
 10
19.8197392613
 20
3.7165252532
 10
19.7714716085
 20
3.6754794431
 10
19.7216490237
 20
3.6334379733
 10
19.6701332308
 20
3.590313212
 10
19.6169283105
 20
3.546107448
 10
19.5620301822
 20
3.5008183924
 10
19.5052883285
 20
3.4543515466
 10
19.4467073446
 20
3.4067095796
 10
19.3862826353
 20
3.3578898223
 10
19.3238498974
 20
3.3077897692
 10
19.2594145292
 20
3.2564126658
 10
19.1929711324
 20
3.2037552665
 10
19.1243392094
 20
3.1497053296
 10
19.0535270615
 20
3.0942682339
 10
18.9805263873
 20
3.0374386005
 10
18.9051317848
 20
2.9790880515
 10
18.8272747868
 20
2.9191737943
 10
18.7470238605
 20
2.8577386215
 10
18.6643790059
 20
2.794782533
  0
LINE
  5
3E7
100
AcDbEntity
  8
290140600
100
AcDbLine
 62
7
  6
CONTINUOUS
 10
-2.2266344794
 20
14.0637354923
 11
-17.1980883382
 21
21.5494624217
  0
LINE
  5
3E8
100
AcDbEntity
  8
290140580
100
AcDbLine
 62
7
  6
CONTINUOUS
 10
-2.2266344794
 20
14.0637354923
 11
-17.1980883382
 21
21.5494624217
  0
LINE
  5
3E9
100
AcDbEntity
  8
268140580
100
AcDbLine
 62
7
  6
CONTINUOUS
 10
-16.2222426478
 20
21.2792094358
 11
-15.0678590536
 21
20.7020176387
  0
LINE
  5
3EA
100
AcDbEntity
  8
268140580
100
AcDbLine
 62
7
  6
CONTINUOUS
 10
-0.5154744013
 20
13.4258253125
 11
-1.6698579954
 21
14.0030171096
  0
LINE
  5
3EB
100
AcDbEntity
  8
268140580
100
AcDbLine
 62
7
  6
CONTINUOUS
 10
-0.798101814
 20
14.8846999627
 11
-1.0149480002
 21
14.9931230558
  0
LINE
  5
3EC
100
AcDbEntity
  8
268140580
100
AcDbLine
 62
7
  6
CONTINUOUS
 10
-2.3584508845
 20
15.6648744979
 11
-14.3792661646
 21
21.675282138
  0
LINE
  5
3ED
100
AcDbEntity
  8
268140580
100
AcDbLine
 62
7
  6
CONTINUOUS
 10
-15.7227690489
 20
22.3470335801
 11
-15.9396152351
 21
22.4554566732
  0
LINE
  5
3EE
100
AcDbEntity
  8
268140580
100
AcDbLine
 62
7
  6
CONTINUOUS
 10
-10.9172902997
 20
20.3205408302
 11
-5.1133199682
 21
17.4185556645
  0
LINE
  5
3EF
100
AcDbEntity
  8
268140580
100
AcDbLine
 62
7
  6
CONTINUOUS
 10
-16.3649025336
 20
23.1771744666
 11
-15.0213996494
 21
22.5054230245
  0
LINE
  5
3F0
100
AcDbEntity
  8
268140580
100
AcDbLine
 62
7
  6
CONTINUOUS
 10
-3.0005843692
 20
16.4950153844
 11
-1.657081485
 21
15.8232639423
  0
LINE
  5
3F1
100
AcDbEntity
  8
268140580
100
AcDbLine
 62
250
  6
CONTINUOUS
 10
-1.0149480002
 20
15.562035783
 11
-1.4236110679
 21
15.7663673168
  0
LINE
  5
3F2
100
AcDbEntity
  8
268140580
100
AcDbLine
 62
250
  6
CONTINUOUS
 10
-14.3792661646
 20
22.2441948652
 11
-14.7879292323
 21
22.4485263991
  0
LINE
  5
3F3
100
AcDbEntity
  8
268140580
100
AcDbLine
 62
250
  6
CONTINUOUS
 10
-16.4298758301
 20
23.3123929167
 11
-15.0863729458
 21
22.6406414746
  0
LINE
  5
3F4
100
AcDbEntity
  8
268140580
100
AcDbLine
 62
250
  6
CONTINUOUS
 10
-3.0655576656
 20
16.6302338345
 11
-1.7220547814
 21
15.9584823924
  0
LWPOLYLINE
  5
3F5
100
AcDbEntity
  8
268140580
100
AcDbPolyline
 62
250
  6
CONTINUOUS
 90
17
 70
0
 10
-15.0214098359
 20
22.5054281185
 10
-15.0232261199
 20
22.5063614005
 10
-15.0309077794
 20
22.5108930449
 10
-15.0381789591
 20
22.5161627951
 10
-15.0450150556
 20
22.5221528199
 10
-15.0513929378
 20
22.528842851
 10
-15.0572910248
 20
22.5362102515
 10
-15.0626893594
 20
22.5442300923
 10
-15.0675696755
 20
22.552875237
 10
-15.0719154595
 20
22.562116433
 10
-15.0757120066
 20
22.571922411
 10
-15.0789464706
 20
22.5822599908
 10
-15.0816079071
 20
22.5930941933
 10
-15.0836873106
 20
22.6043883589
 10
-15.085177645
 20
22.6161042718
 10
-15.0860738676
 20
22.628202289
 10
-15.0863729458
 20
22.6406414746
  0
LWPOLYLINE
  5
3F6
100
AcDbEntity
  8
268140580
100
AcDbPolyline
 62
250
  6
CONTINUOUS
 90
17
 70
0
 10
-1.6570916714
 20
15.8232690363
 10
-1.6589079555
 20
15.8242023183
 10
-1.666589615
 20
15.8287339627
 10
-1.6738607947
 20
15.8340037129
 10
-1.6806968912
 20
15.8399937377
 10
-1.6870747733
 20
15.8466837688
 10
-1.6929728604
 20
15.8540511693
 10
-1.698371195
 20
15.8620710101
 10
-1.7032515111
 20
15.8707161548
 10
-1.707597295
 20
15.8799573507
 10
-1.7113938422
 20
15.8897633288
 10
-1.7146283062
 20
15.9001009086
 10
-1.7172897427
 20
15.9109351111
 10
-1.7193691462
 20
15.9222292767
 10
-1.7208594806
 20
15.9339451896
 10
-1.7217557032
 20
15.9460432068
 10
-1.7220547814
 20
15.9584823924
  0
LINE
  5
3F7
100
AcDbEntity
  8
268140580
100
AcDbLine
 62
250
  6
CONTINUOUS
 10
-16.3668640418
 20
23.1781925054
 11
-16.3649025336
 21
23.1771744666
  0
LINE
  5
3F8
100
AcDbEntity
  8
268140580
100
AcDbLine
 62
250
  6
CONTINUOUS
 10
-3.0025458774
 20
16.4960334232
 11
-3.0005843692
 21
16.4950153844
  0
LWPOLYLINE
  5
3F9
100
AcDbEntity
  8
268140580
100
AcDbPolyline
 62
250
  6
CONTINUOUS
 90
4
 70
0
 10
-14.4382913056
 20
22.3761140135
 10
-14.4368444327
 20
22.375288821
 10
-14.4312603023
 20
22.3715567543
 10
-14.4259024861
 20
22.3674039192
  0
LWPOLYLINE
  5
3FA
100
AcDbEntity
  8
268140580
100
AcDbPolyline
 62
250
  6
CONTINUOUS
 90
4
 70
0
 10
-1.0739731412
 20
15.6939549313
 10
-1.0725262683
 20
15.6931297388
 10
-1.0669421379
 20
15.6893976721
 10
-1.0615843217
 20
15.685244837
  0
LWPOLYLINE
  5
3FB
100
AcDbEntity
  8
CORPO_STAMPATO
100
AcDbPolyline
 62
7
  6
CONTINUOUS
 90
6
 70
0
 10
8.5115316117
 20
21.446057729
 10
8.5114545612
 20
21.4464838901
 10
8.5072911029
 20
21.4777555343
 10
8.5046134787
 20
21.5090437263
 10
8.5034221402
 20
21.5403364068
 10
8.5033546534
 20
21.5497632161
  0
LWPOLYLINE
  5
3FC
100
AcDbEntity
  8
CORPO_STAMPATO
100
AcDbPolyline
 62
7
  6
CONTINUOUS
 90
10
 70
0
 10
13.5514516922
 20
24.4222780157
 10
13.5513919349
 20
24.4335021321
 10
13.5512129346
 20
24.4446609322
 10
13.5509146914
 20
24.4557544159
 10
13.5504971147
 20
24.4667844334
 10
13.5499602951
 20
24.4777491345
 10
13.5493045044
 20
24.4886429689
 10
13.5485298331
 20
24.4994640865
 10
13.5476361906
 20
24.5102143374
 10
13.546623577
 20
24.5208937216
  0
LINE
  5
3FD
100
AcDbEntity
  8
CORPO_STAMPATO
100
AcDbLine
 62
7
  6
CONTINUOUS
 10
13.5514516922
 20
24.4222780157
 11
13.5514516922
 21
24.1400408307
  0
LINE
  5
3FE
100
AcDbEntity
  8
268140580
100
AcDbLine
 62
250
  6
CONTINUOUS
 10
-1.1033363479
 20
-24.4692625302
 11
-1.6336664337
 21
-25.1094275732
  0
LINE
  5
3FF
100
AcDbEntity
  8
268140580
100
AcDbLine
 62
250
  6
CONTINUOUS
 10
-0.8381713049
 20
-24.700956704
 11
-1.3685013908
 21
-25.341121747
  0
LINE
  5
400
100
AcDbEntity
  8
268140580
100
AcDbLine
 62
7
  6
CONTINUOUS
 10
-1.5959788387
 20
15.802065851
 11
-1.0656487528
 21
15.692230894
  0
LINE
  5
401
100
AcDbEntity
  8
268140580
100
AcDbLine
 62
250
  6
CONTINUOUS
 10
-1.3685013908
 20
15.9584823924
 11
-0.8381713049
 21
15.8486474353
  0
LWPOLYLINE
  5
402
100
AcDbEntity
  8
268140580
100
AcDbPolyline
 62
250
  6
CONTINUOUS
 90
25
 70
0
 10
-0.8381713049
 20
15.8486474353
 10
-0.8251448253
 20
15.8454980008
 10
-0.8124779503
 20
15.8414835711
 10
-0.8001706799
 20
15.8366041464
 10
-0.7881920833
 20
15.8308513301
 10
-0.7765730913
 20
15.8242335187
 10
-0.7654064963
 20
15.8167759017
 10
-0.7546974194
 20
15.8084698977
 10
-0.7444407395
 20
15.799324088
 10
-0.7347138852
 20
15.7893894068
 10
-0.7255223213
 20
15.7786582576
 10
-0.7168605831
 20
15.7671382369
 10
-0.708789705
 20
15.754903068
 10
-0.7013154483
 20
15.7419464129
 10
-0.6944320518
 20
15.7282746097
 10
-0.688183266
 20
15.7139803962
 10
-0.6825745739
 20
15.6990537976
 10
-0.6776004926
 20
15.6835047888
 10
-0.6732883231
 20
15.6674560321
 10
-0.6696462564
 20
15.6509068715
 10
-0.6666661015
 20
15.6338579629
 10
-0.6643505866
 20
15.6164339367
 10
-0.662700621
 20
15.5986763364
 10
-0.6617152953
 20
15.5805436185
 10
-0.6613946096
 20
15.562035783
  0
LINE
  5
403
100
AcDbEntity
  8
268140580
100
AcDbLine
 62
250
  6
CONTINUOUS
 10
-1.7220547814
 20
16.326792921
 11
-3.0655576656
 21
16.9985443631
  0
LINE
  5
404
100
AcDbEntity
  8
268140580
100
AcDbLine
 62
250
  6
CONTINUOUS
 10
-15.0863729458
 20
23.0089520032
 11
-16.4298758301
 21
23.6807034453
  0
LINE
  5
405
100
AcDbEntity
  8
268140580
100
AcDbLine
 62
250
  6
CONTINUOUS
 10
0.2735411167
 20
15.4736828265
 11
0.2187906935
 21
15.5010580381
  0
LINE
  5
406
100
AcDbEntity
  8
268140580
100
AcDbLine
 62
250
  6
CONTINUOUS
 10
-3.1237008249
 20
17.1723037973
 11
-4.2006053887
 21
17.7107560792
  0
LINE
  5
407
100
AcDbEntity
  8
268140580
100
AcDbLine
 62
250
  6
CONTINUOUS
 10
-11.0051582653
 20
21.1130325175
 11
-13.1455274709
 21
22.1832171203
  0
LINE
  5
408
100
AcDbEntity
  8
268140580
100
AcDbLine
 62
250
  6
CONTINUOUS
 10
0.2809425386
 20
15.477620909
 11
0.2261921154
 21
15.5049961206
  0
LINE
  5
409
100
AcDbEntity
  8
268140580
100
AcDbLine
 62
250
  6
CONTINUOUS
 10
-3.1212326798
 20
17.1787085182
 11
-4.1932465964
 21
17.7147154765
  0
LINE
  5
40A
100
AcDbEntity
  8
268140580
100
AcDbLine
 62
250
  6
CONTINUOUS
 10
-11.0051582653
 20
21.1206713109
 11
-13.138126049
 21
22.1871552028
  0
LINE
  5
40B
100
AcDbEntity
  8
268140580
100
AcDbLine
 62
250
  6
CONTINUOUS
 10
0.1871335278
 20
15.6622435221
 11
0.1189354763
 21
15.6963425478
  0
LINE
  5
40C
100
AcDbEntity
  8
268140580
100
AcDbLine
 62
250
  6
CONTINUOUS
 10
-13.1771846366
 20
22.3444026043
 11
-13.2453826881
 21
22.3785016301
  0
LINE
  5
40D
100
AcDbEntity
  8
268140580
100
AcDbLine
 62
250
  6
CONTINUOUS
 10
-1.543735438
 20
16.6324506997
 11
-2.8872383222
 21
17.3042021419
  0
LINE
  5
40E
100
AcDbEntity
  8
268140580
100
AcDbLine
 62
250
  6
CONTINUOUS
 10
-14.9080536024
 20
23.3146097819
 11
-16.2515564867
 21
23.9863612241
  0
LINE
  5
40F
100
AcDbEntity
  8
268140580
100
AcDbLine
 62
7
  6
CONTINUOUS
 10
-10.9172902997
 20
21.5859205529
 11
-5.1133199682
 21
18.6839353872
  0
LINE
  5
410
100
AcDbEntity
  8
268140580
100
AcDbLine
 62
7
  6
CONTINUOUS
 10
-13.1797044043
 20
22.9113479131
 11
-11.7276157352
 21
22.1853035785
  0
LINE
  5
411
100
AcDbEntity
  8
268140580
100
AcDbLine
 62
7
  6
CONTINUOUS
 10
0.1846137601
 20
16.2291888309
 11
1.0002632413
 21
15.8213640903
  0
LINE
  5
412
100
AcDbEntity
  8
268140580
100
AcDbLine
 62
7
  6
CONTINUOUS
 10
-9.0759653057
 20
22.0643562399
 11
-4.1262178374
 21
19.5894825057
  0
LWPOLYLINE
  5
413
100
AcDbEntity
  8
268140580
100
AcDbPolyline
 62
250
  6
CONTINUOUS
 90
15
 70
0
 10
0.2735467995
 20
15.4697444402
 10
0.2745574377
 20
15.4692322359
 10
0.2756513041
 20
15.4688347822
 10
0.2768294911
 20
15.4685534955
 10
0.2781352679
 20
15.4683953562
 10
0.27952631
 20
15.4683550827
 10
0.2808741872
 20
15.4684154765
 10
0.2821222679
 20
15.4685987567
 10
0.2833247538
 20
15.4688830841
 10
0.2845197963
 20
15.4691852645
 10
0.2857914341
 20
15.4694465148
 10
0.2870556674
 20
15.4697255014
 10
0.2880980525
 20
15.4701154382
 10
0.2887717483
 20
15.4706851315
 10
0.2896594408
 20
15.472033885
  0
LWPOLYLINE
  5
414
100
AcDbEntity
  8
268140580
100
AcDbPolyline
 62
250
  6
CONTINUOUS
 90
31
 70
0
 10
-12.7867332589
 20
24.3525968861
 10
-12.7774835956
 20
24.3476732372
 10
-12.7682635133
 20
24.3421675633
 10
-12.7590982836
 20
24.336094955
 10
-12.7500130278
 20
24.3294720569
 10
-12.7410326478
 20
24.322317022
 10
-12.7321817584
 20
24.3146494617
 10
-12.7234846191
 20
24.3064903922
 10
-12.7149650682
 20
24.2978621771
 10
-12.7066464572
 20
24.2887884655
 10
-12.6985515869
 20
24.279294128
 10
-12.6907026447
 20
24.2694051878
 10
-12.683121144
 20
24.2591487499
 10
-12.6758278652
 20
24.2485529264
 10
-12.6688427987
 20
24.2376467598
 10
-12.66218509
 20
24.2264601431
 10
-12.6558729875
 20
24.215023738
 10
-12.6499237922
 20
24.2033688909
 10
-12.6443538104
 20
24.191527547
 10
-12.6391783091
 20
24.1795321626
 10
-12.634411474
 20
24.1674156161
 10
-12.6300663705
 20
24.1552111182
 10
-12.6261549084
 20
24.1429521206
 10
-12.6226878087
 20
24.1306722242
 10
-12.6196745745
 20
24.1184050876
 10
-12.6171234648
 20
24.106184334
 10
-12.615041472
 20
24.0940434596
 10
-12.6134343028
 20
24.0820157418
 10
-12.6123063623
 20
24.0701341477
 10
-12.611660742
 20
24.058431244
 10
-12.6114992117
 20
24.0469391074
  0
LINE
  5
415
100
AcDbEntity
  8
CORPO_STAMPATO
100
AcDbLine
 62
7
  6
CONTINUOUS
 10
7.601160535
 20
16.9230060283
 11
6.5179652654
 21
18.7912415142
  0
LINE
  5
416
100
AcDbEntity
  8
268140580
100
AcDbLine
 62
7
  6
CONTINUOUS
 10
6.2418989111
 20
19.3742836898
 11
6.2163385072
 21
19.4183688654
  0
LINE
  5
417
100
AcDbEntity
  8
CORPO_STAMPATO
100
AcDbLine
 62
7
  6
CONTINUOUS
 10
6.5179652654
 20
-17.3220178236
 11
7.601160535
 21
-16.5369776073
  0
LINE
  5
418
100
AcDbEntity
  8
268140580
100
AcDbLine
 62
7
  6
CONTINUOUS
 10
6.2163385072
 20
-17.6475184165
 11
6.2418989111
 21
-17.6289936448
  0
LWPOLYLINE
  5
419
100
AcDbEntity
  8
CORPO_STAMPATO
100
AcDbPolyline
 62
250
  6
CONTINUOUS
 90
29
 70
0
 10
11.7353982803
 20
-13.5170790815
 10
11.7535113752
 20
-13.5068991836
 10
11.7710629757
 20
-13.4964762903
 10
11.7880400479
 20
-13.4858181418
 10
11.8044299844
 20
-13.4749326529
 10
11.8202206141
 20
-13.4638279072
 10
11.8354002107
 20
-13.4525121511
 10
11.8499575017
 20
-13.4409937877
 10
11.8638816769
 20
-13.4292813708
 10
11.8771623961
 20
-13.417383598
 10
11.8897897969
 20
-13.4053093045
 10
11.9017545021
 20
-13.393067457
 10
11.9130476268
 20
-13.3806671462
 10
11.9236607845
 20
-13.3681175807
 10
11.9335860939
 20
-13.3554280798
 10
11.9428161843
 20
-13.3426080668
 10
11.9513442016
 20
-13.3296670621
 10
11.9591638127
 20
-13.3166146755
 10
11.9662692106
 20
-13.3034605999
 10
11.9726551191
 20
-13.2902146037
 10
11.9783167957
 20
-13.2768865232
 10
11.9832500362
 20
-13.2634862561
 10
11.987451177
 20
-13.2500237534
 10
11.9909170984
 20
-13.2365090125
 10
11.9936452266
 20
-13.2229520695
 10
11.9956335356
 20
-13.2093629919
 10
11.9968805489
 20
-13.1957518709
 10
11.9973853405
 20
-13.1821288144
 10
11.9973973414
 20
-13.1796802602
  0
LINE
  5
41A
100
AcDbEntity
  8
CORPO_STAMPATO
100
AcDbLine
 62
250
  6
CONTINUOUS
 10
1.2831490387
 20
-19.0231881574
 11
11.7353982803
 21
-13.5170790815
  0
LWPOLYLINE
  5
41B
100
AcDbEntity
  8
268140580
100
AcDbPolyline
 62
250
  6
CONTINUOUS
 90
13
 70
0
 10
-0.6556572279
 20
18.3485266127
 10
-0.6611650395
 20
18.3510614587
 10
-0.669510199
 20
18.3541270197
 10
-0.6781831204
 20
18.3564256071
 10
-0.6871547823
 20
18.3579495295
 10
-0.6963951639
 20
18.3586936873
 10
-0.7058733448
 20
18.3586555906
 10
-0.7155576092
 20
18.3578353668
 10
-0.7254155515
 20
18.3562357606
 10
-0.7354141852
 20
18.3538621245
 10
-0.7455200528
 20
18.3507224012
 10
-0.7556993379
 20
18.3468270969
 10
-0.7659179787
 20
18.342189246
  0
LWPOLYLINE
  5
41C
100
AcDbEntity
  8
268140580
100
AcDbPolyline
 62
250
  6
CONTINUOUS
 90
13
 70
0
 10
-14.0199753923
 20
25.0306856949
 10
-14.0254832039
 20
25.0332205409
 10
-14.0338283634
 20
25.0362861019
 10
-14.0425012848
 20
25.0385846894
 10
-14.0514729468
 20
25.0401086117
 10
-14.0607133283
 20
25.0408527696
 10
-14.0701915092
 20
25.0408146729
 10
-14.0798757736
 20
25.0399944491
 10
-14.089733716
 20
25.0383948428
 10
-14.0997323497
 20
25.0360212067
 10
-14.1098382172
 20
25.0328814834
 10
-14.1200175023
 20
25.0289861791
 10
-14.1302361431
 20
25.0243483282
  0
LWPOLYLINE
  5
41D
100
AcDbEntity
  8
CORPO_STAMPATO
100
AcDbPolyline
 62
7
  6
CONTINUOUS
 90
21
 70
0
 10
-5.1885367819
 20
21.4279434488
 10
-5.200277282
 20
21.4333745456
 10
-5.2119527704
 20
21.4383571074
 10
-5.2235510026
 20
21.4428855566
 10
-5.2350589517
 20
21.4469549265
 10
-5.2464652237
 20
21.4505606118
 10
-5.2577600563
 20
21.453698225
 10
-5.2689311172
 20
21.456364234
 10
-5.2799665706
 20
21.4585554723
 10
-5.2908574551
 20
21.4602686226
 10
-5.3015916569
 20
21.4615016443
 10
-5.3121575463
 20
21.4622528146
 10
-5.3225469759
 20
21.462519832
 10
-5.3327479883
 20
21.4623021819
 10
-5.3427494067
 20
21.4615996402
 10
-5.3525443683
 20
21.4604108824
 10
-5.3621214649
 20
21.4587368856
 10
-5.3714697309
 20
21.4565789132
 10
-5.3805831432
 20
21.4539366997
 10
-5.3894502029
 20
21.4508130285
 10
-5.3980610819
 20
21.4472106288
  0
LWPOLYLINE
  5
41E
100
AcDbEntity
  8
CORPO_STAMPATO
100
AcDbPolyline
 62
7
  6
CONTINUOUS
 90
64
 70
0
 10
-4.1079810864
 20
21.5589334432
 10
-4.1190897139
 20
21.5643462524
 10
-4.1365357588
 20
21.5723025122
 10
-4.154449327
 20
21.5798312784
 10
-4.1727993596
 20
21.5869264484
 10
-4.1915768488
 20
21.5935936022
 10
-4.21079396
 20
21.5998457492
 10
-4.2304282223
 20
21.6056842263
 10
-4.2504575993
 20
21.6111122203
 10
-4.2708907077
 20
21.6161412901
 10
-4.2916765328
 20
21.6207683906
 10
-4.3128261155
 20
21.6250054577
 10
-4.3344394044
 20
21.6288769488
 10
-4.3564690966
 20
21.6323759632
 10
-4.3789330386
 20
21.6355066953
 10
-4.4020296612
 20
21.6382909097
 10
-4.4258303251
 20
21.6407230491
 10
-4.4502403788
 20
21.6427793273
 10
-4.4752073615
 20
21.6444443574
 10
-4.5008317416
 20
21.6457116365
 10
-4.5269857083
 20
21.6465612408
 10
-4.5532711206
 20
21.6469785796
 10
-4.5796551845
 20
21.64697043
 10
-4.6061434662
 20
21.6465428486
 10
-4.6323960598
 20
21.6457133885
 10
-4.6583275806
 20
21.6445046404
 10
-4.6840048228
 20
21.6429318178
 10
-4.70931845
 20
21.6410191281
 10
-4.7342482853
 20
21.6387868386
 10
-4.7588029757
 20
21.6362517773
 10
-4.7829175743
 20
21.6334381988
 10
-4.8065715719
 20
21.630366694
 10
-4.829780173
 20
21.6270526466
 10
-4.8525322717
 20
21.6235141134
 10
-4.8748190184
 20
21.6197686337
 10
-4.8966475423
 20
21.6158306143
 10
-4.9180296824
 20
21.6117126761
 10
-4.9389658373
 20
21.6074288629
 10
-4.9594555023
 20
21.6029930579
 10
-4.9795075336
 20
21.5984166905
 10
-4.9991241335
 20
21.5937121794
 10
-5.0183038205
 20
21.588892603
 10
-5.0370482511
 20
21.5839701167
 10
-5.0553683511
 20
21.5789540951
 10
-5.0732541061
 20
21.5738594239
 10
-5.0906749325
 20
21.5687075596
 10
-5.1076186131
 20
21.5635154854
 10
-5.1241003136
 20
21.5582918041
 10
-5.1401293419
 20
21.5530463705
 10
-5.1556840911
 20
21.5477991946
 10
-5.1707879401
 20
21.5425552448
 10
-5.1855128353
 20
21.5373009572
 10
-5.1998574183
 20
21.5320472276
 10
-5.2138166646
 20
21.5268064369
 10
-5.2274493315
 20
21.5215663864
 10
-5.2407384145
 20
21.5163430011
 10
-5.253684101
 20
21.5111459222
 10
-5.2663607607
 20
21.5059542119
 10
-5.2787310833
 20
21.5007918088
 10
-5.2907961547
 20
21.4956675601
 10
-5.3026701806
 20
21.4905412843
 10
-5.3143069859
 20
21.4854409497
 10
-5.325673706
 20
21.4803902774
 10
-5.3478970093
 20
21.4703418188
  0
LINE
  5
41F
100
AcDbEntity
  8
CORPO_STAMPATO
100
AcDbLine
 62
250
  6
CONTINUOUS
 10
-4.1090543118
 20
21.5594563849
 11
-4.1079844416
 21
21.5589351242
  0
LINE
  5
420
100
AcDbEntity
  8
268140580
100
AcDbLine
 62
250
  6
CONTINUOUS
 10
-14.1302361431
 20
25.0243483282
 11
-12.7867332589
 21
24.3525968861
  0
LINE
  5
421
100
AcDbEntity
  8
268140580
100
AcDbLine
 62
250
  6
CONTINUOUS
 10
-0.7659179787
 20
18.342189246
 11
0.5775849056
 21
17.6704378039
  0
LINE
  5
422
100
AcDbEntity
  8
268140580
100
AcDbLine
 62
7
  6
CONTINUOUS
 10
-14.0199753923
 20
25.0306856949
 11
-12.6764725081
 21
24.3589342528
  0
LINE
  5
423
100
AcDbEntity
  8
268140580
100
AcDbLine
 62
7
  6
CONTINUOUS
 10
-0.6556572279
 20
18.3485266127
 11
0.6878456563
 21
17.6767751705
  0
LINE
  5
424
100
AcDbEntity
  8
CORPO_STAMPATO
100
AcDbLine
 62
7
  6
CONTINUOUS
 10
-5.1869318571
 20
21.4271569231
 11
-2.8047766196
 21
20.2360793044
  0
LINE
  5
425
100
AcDbEntity
  8
CORPO_STAMPATO
100
AcDbLine
 62
250
  6
CONTINUOUS
 10
-2.1747508316
 20
20.5443583652
 11
-4.1974495283
 21
21.5556948064
  0
LINE
  5
426
100
AcDbEntity
  8
CORPO_STAMPATO
100
AcDbLine
 62
7
  6
CONTINUOUS
 10
-2.1262727346
 20
20.5680792707
 11
-4.1079844416
 21
21.5589351242
  0
LINE
  5
427
100
AcDbEntity
  8
268140580
100
AcDbLine
 62
7
  6
CONTINUOUS
 10
-1.5969286158
 20
20.8270936014
 11
-4.0555071593
 21
22.0563828732
  0
LWPOLYLINE
  5
428
100
AcDbEntity
  8
268140580
100
AcDbPolyline
 62
250
  6
CONTINUOUS
 90
31
 70
0
 10
0.5775849056
 20
17.6704378039
 10
0.5868345688
 20
17.665514155
 10
0.5960546511
 20
17.6600084811
 10
0.6052198808
 20
17.6539358728
 10
0.6143051366
 20
17.6473129747
 10
0.6232855166
 20
17.6401579398
 10
0.6321364061
 20
17.6324903795
 10
0.6408335454
 20
17.62433131
 10
0.6493530963
 20
17.6157030949
 10
0.6576717072
 20
17.6066293833
 10
0.6657665776
 20
17.5971350458
 10
0.6736155198
 20
17.5872461056
 10
0.6811970204
 20
17.5769896677
 10
0.6884902992
 20
17.5663938442
 10
0.6954753657
 20
17.5554876776
 10
0.7021330744
 20
17.5443010609
 10
0.7084451769
 20
17.5328646558
 10
0.7143943722
 20
17.5212098087
 10
0.719964354
 20
17.5093684648
 10
0.7251398553
 20
17.4973730804
 10
0.7299066904
 20
17.4852565339
 10
0.7342517939
 20
17.473052036
 10
0.738163256
 20
17.4607930383
 10
0.7416303557
 20
17.448513142
 10
0.7446435899
 20
17.4362460054
 10
0.7471946997
 20
17.4240252517
 10
0.7492766924
 20
17.4118843774
 10
0.7508838616
 20
17.3998566596
 10
0.7520118022
 20
17.3879750655
 10
0.7526574224
 20
17.3762721617
 10
0.7528189528
 20
17.3647800251
  0
LINE
  5
429
100
AcDbEntity
  8
CORPO_STAMPATO
100
AcDbLine
 62
250
  6
CONTINUOUS
 10
8.9659449872
 20
23.4245895511
 11
9.3088110051
 21
22.4925833981
  0
LINE
  5
42A
100
AcDbEntity
  8
715140040
100
AcDbLine
 62
7
  6
CONTINUOUS
 10
10.4366202464
 20
20.8798388535
 11
10.2351208885
 21
21.4755632793
  0
LWPOLYLINE
  5
42B
100
AcDbEntity
  8
CORPO_STAMPATO
100
AcDbPolyline
 62
7
  6
CONTINUOUS
 90
31
 70
0
 10
18.9450391977
 20
20.7751693198
 10
18.944743855
 20
20.8101272394
 10
18.943599431
 20
20.8525544241
 10
18.9416006956
 20
20.8950448049
 10
18.9387539581
 20
20.9376035837
 10
18.9350666771
 20
20.9802103718
 10
18.9305497561
 20
21.0228158804
 10
18.925211127
 20
21.0654140249
 10
18.9190580114
 20
21.107997086
 10
18.912104897
 20
21.150511213
 10
18.9043603493
 20
21.1929498556
 10
18.8958318621
 20
21.235306455
 10
18.8865377097
 20
21.2775255687
 10
18.8764873742
 20
21.3195984669
 10
18.8656884974
 20
21.3615209019
 10
18.8541611912
 20
21.403242777
 10
18.8419174444
 20
21.4447479283
 10
18.8289632286
 20
21.4860398294
 10
18.8153115846
 20
21.5270965622
 10
18.8009715684
 20
21.5679084598
 10
18.7859496945
 20
21.6084719654
 10
18.770255423
 20
21.648773013
 10
18.7538955116
 20
21.6888045161
 10
18.7368757803
 20
21.728559556
 10
18.7192049806
 20
21.7680234424
 10
18.7008889416
 20
21.8071878572
 10
18.681931991
 20
21.8460456214
 10
18.6623408878
 20
21.884584105
 10
18.6421199732
 20
21.9227942666
 10
18.6212724745
 20
21.9606684149
 10
18.603071759
 20
21.9925735992
  0
LWPOLYLINE
  5
42C
100
AcDbEntity
  8
CORPO_STAMPATO
100
AcDbPolyline
 62
250
  6
CONTINUOUS
 90
37
 70
0
 10
18.6643790059
 20
20.4278416444
 10
18.6641490769
 20
20.4658439205
 10
18.6632405933
 20
20.5041614733
 10
18.6616539472
 20
20.5427760435
 10
18.659389822
 20
20.5816691416
 10
18.6564492968
 20
20.6208223277
 10
18.6528338338
 20
20.6602172239
 10
18.6485451069
 20
20.6998351877
 10
18.6435851217
 20
20.7396572356
 10
18.6379563174
 20
20.7796643241
 10
18.6316613666
 20
20.8198373476
 10
18.6247032251
 20
20.8601572335
 10
18.6170852403
 20
20.9006048709
 10
18.6088110266
 20
20.9411610105
 10
18.5998844967
 20
20.9818063426
 10
18.5903099132
 20
21.0225215915
 10
18.5800918207
 20
21.0632874136
 10
18.5692350695
 20
21.1040843757
 10
18.557744843
 20
21.1448930346
 10
18.5456266156
 20
21.1856939775
 10
18.5328861455
 20
21.2264677879
 10
18.5195294982
 20
21.2671950246
 10
18.5055630567
 20
21.3078562898
 10
18.49099346
 20
21.3484322669
 10
18.4758275962
 20
21.3889036861
 10
18.4600727056
 20
21.4292513036
 10
18.443736294
 20
21.4694559282
 10
18.4268260683
 20
21.5094984587
 10
18.4093500796
 20
21.5493599193
 10
18.3913166835
 20
21.5890212929
 10
18.3727344551
 20
21.6284635485
 10
18.3536123359
 20
21.6676678291
 10
18.3339594028
 20
21.706615612
 10
18.3137848212
 20
21.7452885388
 10
18.2930981494
 20
21.783668277
 10
18.2719093445
 20
21.8217365345
 10
18.2502285302
 20
21.859475219
  0
LINE
  5
42D
100
AcDbEntity
  8
CORPO_STAMPATO
100
AcDbLine
 62
250
  6
CONTINUOUS
 10
18.6644399219
 20
-1.5352249086
 11
18.6643790059
 21
2.794782533
  0
LINE
  5
42E
100
AcDbEntity
  8
CORPO_STAMPATO
100
AcDbLine
 62
250
  6
CONTINUOUS
 10
18.6643790059
 20
4.8214259098
 11
18.6643790059
 21
14.7459331052
  0
LINE
  5
42F
100
AcDbEntity
  8
CORPO_STAMPATO
100
AcDbLine
 62
250
  6
CONTINUOUS
 10
18.6643790059
 20
16.772576482
 11
18.6643790059
 21
20.4278416444
  0
LINE
  5
430
100
AcDbEntity
  8
CORPO_STAMPATO
100
AcDbLine
 62
7
  6
CONTINUOUS
 10
18.9450392055
 20
-1.1643459504
 11
18.9450392055
 21
2.7489631782
  0
LWPOLYLINE
  5
431
100
AcDbEntity
  8
CORPO_STAMPATO
100
AcDbPolyline
 62
7
  6
CONTINUOUS
 90
43
 70
0
 10
18.9450392055
 20
20.7751708296
 10
18.9449692817
 20
17.4964996601
 10
18.9441352508
 20
17.4536344654
 10
18.9424298729
 20
17.4124834314
 10
18.939948109
 20
17.3731870347
 10
18.9367713812
 20
17.3356235163
 10
18.932978272
 20
17.299816431
 10
18.9286581876
 20
17.2658691469
 10
18.923877335
 20
17.2336845753
 10
18.9186574871
 20
17.2029846137
 10
18.9130440517
 20
17.1737299558
 10
18.9070964076
 20
17.145961476
 10
18.9008309521
 20
17.1195223662
 10
18.8942813136
 20
17.0943880308
 10
18.8874946879
 20
17.0705815211
 10
18.8804957858
 20
17.048017894
 10
18.8733184655
 20
17.0266981974
 10
18.8659981495
 20
17.006616963
 10
18.858556154
 20
16.9876794445
 10
18.8510273679
 20
16.9698970765
 10
18.8434365712
 20
16.953251994
 10
18.8357837797
 20
16.9376059903
 10
18.8280959855
 20
16.9229592146
 10
18.8203936933
 20
16.9093048202
 10
18.8126594977
 20
16.8964953876
 10
18.8049167489
 20
16.8845289116
 10
18.7971782099
 20
16.8734014097
 10
18.7894019931
 20
16.8629644728
 10
18.7815960121
 20
16.8532019104
 10
18.7737765318
 20
16.8441258916
 10
18.7659064007
 20
16.835632675
 10
18.7579974757
 20
16.8277156484
 10
18.7500546974
 20
16.8203787962
 10
18.7420238373
 20
16.8135363987
 10
18.7339033104
 20
16.8071749379
 10
18.725703611
 20
16.8013075561
 10
18.7173828801
 20
16.7958905871
 10
18.7089469284
 20
16.790919058
 10
18.7003944768
 20
16.7863990495
 10
18.6916680741
 20
16.7823054977
 10
18.6827471209
 20
16.7786317178
 10
18.6736508608
 20
16.775388124
 10
18.6643790059
 20
16.772576482
  0
LWPOLYLINE
  5
432
100
AcDbEntity
  8
CORPO_STAMPATO
100
AcDbPolyline
 62
7
  6
CONTINUOUS
 90
43
 70
0
 10
18.9450392055
 20
14.7001137504
 10
18.9449692817
 20
5.5453490879
 10
18.9441352508
 20
5.5024838932
 10
18.9424298729
 20
5.4613328592
 10
18.939948109
 20
5.4220364625
 10
18.9367713812
 20
5.3844729441
 10
18.932978272
 20
5.3486658587
 10
18.9286581876
 20
5.3147185747
 10
18.923877335
 20
5.282534003
 10
18.9186574871
 20
5.2518340414
 10
18.9130440517
 20
5.2225793836
 10
18.9070964076
 20
5.1948109038
 10
18.9008309521
 20
5.168371794
 10
18.8942813136
 20
5.1432374585
 10
18.8874946879
 20
5.1194309489
 10
18.8804957858
 20
5.0968673218
 10
18.8733184655
 20
5.0755476251
 10
18.8659981495
 20
5.0554663908
 10
18.858556154
 20
5.0365288723
 10
18.8510273679
 20
5.0187465043
 10
18.8434365712
 20
5.0021014218
 10
18.8357837797
 20
4.9864554181
 10
18.8280959855
 20
4.9718086424
 10
18.8203936933
 20
4.958154248
 10
18.8126594977
 20
4.9453448154
 10
18.8049167489
 20
4.9333783394
 10
18.7971782099
 20
4.9222508375
 10
18.7894019931
 20
4.9118139006
 10
18.7815960121
 20
4.9020513382
 10
18.7737765318
 20
4.8929753194
 10
18.7659064007
 20
4.8844821028
 10
18.7579974757
 20
4.8765650762
 10
18.7500546974
 20
4.8692282239
 10
18.7420238373
 20
4.8623858264
 10
18.7339033104
 20
4.8560243657
 10
18.725703611
 20
4.8501569839
 10
18.7173828801
 20
4.8447400149
 10
18.7089469284
 20
4.8397684857
 10
18.7003944768
 20
4.8352484773
 10
18.6916680741
 20
4.8311549255
 10
18.6827471209
 20
4.8274811456
 10
18.6736508608
 20
4.8242375518
 10
18.6643790059
 20
4.8214259098
  0
LWPOLYLINE
  5
433
100
AcDbEntity
  8
CORPO_STAMPATO
100
AcDbPolyline
 62
7
  6
CONTINUOUS
 90
4
 70
0
 10
20.615154128
 20
16.439274673
 10
20.615602864
 20
16.4432965092
 10
20.6159073441
 20
16.4483526755
 10
20.6159526542
 20
16.4512031216
  0
LWPOLYLINE
  5
434
100
AcDbEntity
  8
CORPO_STAMPATO
100
AcDbPolyline
 62
7
  6
CONTINUOUS
 90
4
 70
0
 10
20.615154128
 20
4.4881241008
 10
20.615602864
 20
4.492145937
 10
20.6159073441
 20
4.4972021032
 10
20.6159526542
 20
4.5000525493
  0
LWPOLYLINE
  5
435
100
AcDbEntity
  8
CORPO_STAMPATO
100
AcDbPolyline
 62
250
  6
CONTINUOUS
 90
33
 70
0
 10
20.5457659871
 20
16.3490507624
 10
20.5386248557
 20
16.2990693521
 10
20.5305563853
 20
16.2497495329
 10
20.5215642193
 20
16.2011135678
 10
20.5116524208
 20
16.1531834232
 10
20.5008254629
 20
16.105980722
 10
20.4890882248
 20
16.0595267358
 10
20.4764459972
 20
16.0138424129
 10
20.4629044917
 20
15.9689484002
 10
20.4484698308
 20
15.924864996
 10
20.4331485388
 20
15.881612119
 10
20.4169475263
 20
15.839209273
 10
20.3998740964
 20
15.7976755718
 10
20.3819359481
 20
15.757029749
 10
20.3631411848
 20
15.7172901704
 10
20.3434983013
 20
15.6784747977
 10
20.3230161727
 20
15.640601165
 10
20.3017040389
 20
15.6036863546
 10
20.2795715106
 20
15.5677470132
 10
20.2566285717
 20
15.5327993551
 10
20.2328855845
 20
15.4988591672
 10
20.2083532758
 20
15.4659417833
 10
20.1830427256
 20
15.434062069
 10
20.1569653549
 20
15.4032344077
 10
20.1301329284
 20
15.3734727073
 10
20.1025575549
 20
15.3447903992
 10
20.0742516855
 20
15.3172004355
 10
20.0452281023
 20
15.2907152751
 10
20.015499909
 20
15.2653468752
 10
19.9850805236
 20
15.2411066855
 10
19.9539836769
 20
15.2180056477
 10
19.922223407
 20
15.1960541901
 10
19.9095863712
 20
15.1877591376
  0
LWPOLYLINE
  5
436
100
AcDbEntity
  8
CORPO_STAMPATO
100
AcDbPolyline
 62
250
  6
CONTINUOUS
 90
33
 70
0
 10
20.5457659871
 20
4.3979001902
 10
20.5386248556
 20
4.3479187794
 10
20.5305563851
 20
4.2985989596
 10
20.521564219
 20
4.2499629939
 10
20.5116524203
 20
4.2020328488
 10
20.5008254623
 20
4.1548301472
 10
20.489088224
 20
4.1083761606
 10
20.4764459962
 20
4.0626918372
 10
20.4629044904
 20
4.017797824
 10
20.4484698293
 20
3.9737144194
 10
20.433148537
 20
3.930461542
 10
20.4169475243
 20
3.8880586957
 10
20.3998740941
 20
3.8465249942
 10
20.3819359454
 20
3.805879171
 10
20.3631411818
 20
3.7661395921
 10
20.343498298
 20
3.7273242191
 10
20.323016169
 20
3.6894505862
 10
20.3017040348
 20
3.6525357756
 10
20.2795715061
 20
3.6165964339
 10
20.2566285668
 20
3.5816487757
 10
20.2328855792
 20
3.5477085876
 10
20.20835327
 20
3.5147912036
 10
20.1830427194
 20
3.4829114892
 10
20.1569653481
 20
3.4520838278
 10
20.1301329212
 20
3.4223221273
 10
20.1025575472
 20
3.3936398192
 10
20.0742516773
 20
3.3660498555
 10
20.0452280936
 20
3.3395646952
 10
20.0154998997
 20
3.3141962953
 10
19.9850805137
 20
3.2899561057
 10
19.9539836665
 20
3.266855068
 10
19.922223396
 20
3.2449036105
 10
19.9095863712
 20
3.2366085654
  0
LWPOLYLINE
  5
437
100
AcDbEntity
  8
CORPO_STAMPATO
100
AcDbPolyline
 62
250
  6
CONTINUOUS
 90
34
 70
0
 10
11.3661429571
 20
-14.4932455493
 10
11.3863175387
 20
-14.4745659168
 10
11.4059704718
 20
-14.4551019901
 10
11.4250925911
 20
-14.4348628859
 10
11.4436748194
 20
-14.4138581836
 10
11.4617082155
 20
-14.3920979525
 10
11.4791842042
 20
-14.3695925825
 10
11.4960944299
 20
-14.3463528303
 10
11.5124308415
 20
-14.3223897415
 10
11.5281857321
 20
-14.2977146664
 10
11.5433515959
 20
-14.2723393512
 10
11.5579211926
 20
-14.2462758832
 10
11.5718876341
 20
-14.2195366166
 10
11.5852442814
 20
-14.1921342532
 10
11.5979847515
 20
-14.1640818562
 10
11.6101029789
 20
-14.1353927926
 10
11.6215932054
 20
-14.1060807083
 10
11.6324499566
 20
-14.076159554
 10
11.6426680491
 20
-14.0456435983
 10
11.6522426326
 20
-14.0145473759
 10
11.6611691625
 20
-13.9828856613
 10
11.6694433762
 20
-13.9506734951
 10
11.677061361
 20
-13.9179261907
 10
11.6840195025
 20
-13.884659322
 10
11.6903144533
 20
-13.8508886968
 10
11.6959432577
 20
-13.8166303106
 10
11.7009032428
 20
-13.7819005016
 10
11.7051919697
 20
-13.7467159396
 10
11.7088074327
 20
-13.7110934493
 10
11.7117479579
 20
-13.6750498651
 10
11.7140120831
 20
-13.6386021796
 10
11.7155987292
 20
-13.6017676607
 10
11.7165072128
 20
-13.5645638516
 10
11.7167371418
 20
-13.5270084245
  0
LWPOLYLINE
  5
438
100
AcDbEntity
  8
CORPO_STAMPATO
100
AcDbPolyline
 62
250
  6
CONTINUOUS
 90
4
 70
0
 10
11.3025866661
 20
-14.5444915235
 10
11.3242674804
 20
-14.5282167334
 10
11.3454562853
 20
-14.5111320209
 10
11.3661429571
 20
-14.4932455493
  0
LWPOLYLINE
  5
439
100
AcDbEntity
  8
CORPO_STAMPATO
100
AcDbPolyline
 62
7
  6
CONTINUOUS
 90
40
 70
0
 10
11.3771643323
 20
-14.4981220784
 10
11.3977306045
 20
-14.4829248781
 10
11.425771644
 20
-14.4612347906
 10
11.4533214504
 20
-14.438777782
 10
11.4803520935
 20
-14.4155713781
 10
11.5068505823
 20
-14.3916216497
 10
11.5328182121
 20
-14.3669210403
 10
11.5582351423
 20
-14.3414808516
 10
11.5830821254
 20
-14.3153128089
 10
11.6073599159
 20
-14.2884070357
 10
11.6310493662
 20
-14.2607744186
 10
11.6541307386
 20
-14.2324277551
 10
11.6766022294
 20
-14.2033572781
 10
11.6984453593
 20
-14.17357303
 10
11.7196402568
 20
-14.1430886961
 10
11.7401815916
 20
-14.1118969489
 10
11.7600505581
 20
-14.0800092632
 10
11.7792288276
 20
-14.0474378973
 10
11.7977106732
 20
-14.0141737337
 10
11.8154766113
 20
-13.9802305012
 10
11.8325100149
 20
-13.9456177519
 10
11.8488077296
 20
-13.9103166018
 10
11.86435352
 20
-13.8743322567
 10
11.8791265643
 20
-13.8376810085
 10
11.8931154548
 20
-13.8003570753
 10
11.9063079281
 20
-13.762353562
 10
11.9186796046
 20
-13.723697606
 10
11.9302039859
 20
-13.6844325976
 10
11.9408670784
 20
-13.6445682376
 10
11.9506543401
 20
-13.6041159523
 10
11.9595448897
 20
-13.563120791
 10
11.9675281054
 20
-13.5215910579
 10
11.9745923385
 20
-13.479538698
 10
11.9807214953
 20
-13.4370133904
 10
11.9859074426
 20
-13.3940244606
 10
11.9901415422
 20
-13.3505818904
 10
11.9934128247
 20
-13.3067349427
 10
11.9957144954
 20
-13.2625051406
 10
11.9970412181
 20
-13.2178893161
 10
11.9973973336
 20
-13.1796802602
  0
LINE
  5
43A
100
AcDbEntity
  8
CORPO_STAMPATO
100
AcDbLine
 62
250
  6
CONTINUOUS
 10
11.1233835802
 20
-14.6743680409
 11
11.3025866661
 21
-14.5444915235
  0
LINE
  5
43B
100
AcDbEntity
  8
CORPO_STAMPATO
100
AcDbLine
 62
7
  6
CONTINUOUS
 10
11.1979511742
 20
-14.6280059081
 11
11.3771542602
 21
-14.4981293907
  0
LWPOLYLINE
  5
43C
100
AcDbEntity
  8
268140580
100
AcDbPolyline
 62
250
  6
CONTINUOUS
 90
4
 70
0
 10
0.4791482958
 20
-23.3216999147
 10
0.4692997715
 20
-23.3287487634
 10
0.4590418082
 20
-23.3349947061
 10
0.4483976166
 20
-23.34042361
  0
LWPOLYLINE
  5
43D
100
AcDbEntity
  8
CORPO_STAMPATO
100
AcDbPolyline
 62
250
  6
CONTINUOUS
 90
4
 70
0
 10
11.0785956502
 20
-14.7023027349
 10
11.0937436487
 20
-14.6938314379
 10
11.1087740797
 20
-14.6844660543
 10
11.1233835802
 20
-14.6743680409
  0
LWPOLYLINE
  5
43E
100
AcDbEntity
  8
CORPO_STAMPATO
100
AcDbPolyline
 62
250
  6
CONTINUOUS
 90
5
 70
0
 10
11.3025866661
 20
-14.5444915235
 10
11.3214231815
 20
-14.5341313156
 10
11.3398652982
 20
-14.5231430785
 10
11.3578993212
 20
-14.511534972
 10
11.3771542602
 20
-14.4981293907
  0
LWPOLYLINE
  5
43F
100
AcDbEntity
  8
CORPO_STAMPATO
100
AcDbPolyline
 62
250
  6
CONTINUOUS
 90
5
 70
0
 10
11.1233835802
 20
-14.6743680409
 10
11.1422200955
 20
-14.6640078331
 10
11.1606622122
 20
-14.653019596
 10
11.178696235
 20
-14.6414114895
 10
11.1979511742
 20
-14.6280059081
  0
LINE
  5
440
100
AcDbEntity
  8
CORPO_STAMPATO
100
AcDbLine
 62
250
  6
CONTINUOUS
 10
11.1233835802
 20
-14.6743680409
 11
7.601160535
 21
-16.5369776073
  0
LINE
  5
441
100
AcDbEntity
  8
CORPO_STAMPATO
100
AcDbLine
 62
7
  6
CONTINUOUS
 10
11.0785956502
 20
-14.7023027349
 11
7.5794684327
 21
-16.5526988471
  0
LINE
  5
442
100
AcDbEntity
  8
CORPO_STAMPATO
100
AcDbLine
 62
250
  6
CONTINUOUS
 10
1.2831490387
 20
-19.8225060932
 11
11.3025866661
 21
-14.5444915235
  0
LINE
  5
443
100
AcDbEntity
  8
CORPO_STAMPATO
100
AcDbLine
 62
7
  6
CONTINUOUS
 10
1.2831490387
 20
-20.0719189838
 11
6.5179652654
 21
-17.3220178236
  0
LINE
  5
444
100
AcDbEntity
  8
268140580
100
AcDbLine
 62
7
  6
CONTINUOUS
 10
6.2418989111
 20
-17.6289936448
 11
1.2831490387
 21
-20.1741705174
  0
LINE
  5
445
100
AcDbEntity
  8
268140580
100
AcDbLine
 62
7
  6
CONTINUOUS
 10
4.8108518126
 20
-18.5179072542
 11
1.2831490387
 21
-20.3258403725
  0
LINE
  5
446
100
AcDbEntity
  8
268140580
100
AcDbLine
 62
7
  6
CONTINUOUS
 10
0.0563182626
 20
-22.3247446064
 11
-0.5154744013
 21
-22.6008314849
  0
LWPOLYLINE
  5
447
100
AcDbEntity
  8
290140580
100
AcDbPolyline
 62
250
  6
CONTINUOUS
 90
16
 70
0
 10
-4.597258087
 20
-24.3151566043
 10
-4.6362671794
 20
-24.3339707919
 10
-4.6785796567
 20
-24.3506565598
 10
-4.7237421696
 20
-24.3650351316
 10
-4.7712708324
 20
-24.3769524504
 10
-4.8206564081
 20
-24.3862808304
 10
-4.8713697637
 20
-24.3929203243
 10
-4.9228675402
 20
-24.3967997944
 10
-4.974597974
 20
-24.3978776749
 10
-5.0260068088
 20
-24.396142417
 10
-5.0765432339
 20
-24.3916126128
 10
-5.1256657859
 20
-24.384336796
 10
-5.1728481503
 20
-24.3743929222
 10
-5.2175848
 20
-24.3618875333
 10
-5.2593964124
 20
-24.3469546158
 10
-5.2978350045
 20
-24.3297541659
  0
LWPOLYLINE
  5
448
100
AcDbEntity
  8
290140600
100
AcDbPolyline
 62
250
  6
CONTINUOUS
 90
16
 70
0
 10
-4.597258087
 20
-24.3151566043
 10
-4.6362671794
 20
-24.3339707919
 10
-4.6785796567
 20
-24.3506565598
 10
-4.7237421696
 20
-24.3650351316
 10
-4.7712708324
 20
-24.3769524504
 10
-4.8206564081
 20
-24.3862808304
 10
-4.8713697637
 20
-24.3929203243
 10
-4.9228675402
 20
-24.3967997944
 10
-4.974597974
 20
-24.3978776749
 10
-5.0260068088
 20
-24.396142417
 10
-5.0765432339
 20
-24.3916126128
 10
-5.1256657859
 20
-24.384336796
 10
-5.1728481503
 20
-24.3743929222
 10
-5.2175848
 20
-24.3618875333
 10
-5.2593964124
 20
-24.3469546158
 10
-5.2978350045
 20
-24.3297541659
  0
LINE
  5
449
100
AcDbEntity
  8
268140580
100
AcDbLine
 62
7
  6
CONTINUOUS
 10
-14.9602970031
 20
22.4842249332
 11
-14.4299669172
 21
22.3743899762
  0
LINE
  5
44A
100
AcDbEntity
  8
268140580
100
AcDbLine
 62
250
  6
CONTINUOUS
 10
-14.7328195552
 20
22.6406414746
 11
-14.2024894693
 21
22.5308065176
  0
LWPOLYLINE
  5
44B
100
AcDbEntity
  8
268140580
100
AcDbPolyline
 62
250
  6
CONTINUOUS
 90
25
 70
0
 10
-14.2024894693
 20
22.5308065176
 10
-14.1894629897
 20
22.527657083
 10
-14.1767961147
 20
22.5236426533
 10
-14.1644888443
 20
22.5187632286
 10
-14.1525102477
 20
22.5130104123
 10
-14.1408912558
 20
22.5063926009
 10
-14.1297246607
 20
22.4989349839
 10
-14.1190155838
 20
22.4906289799
 10
-14.1087589039
 20
22.4814831702
 10
-14.0990320496
 20
22.471548489
 10
-14.0898404857
 20
22.4608173398
 10
-14.0811787475
 20
22.4492973191
 10
-14.0731078694
 20
22.4370621502
 10
-14.0656336127
 20
22.4241054951
 10
-14.0587502162
 20
22.4104336919
 10
-14.0525014304
 20
22.3961394784
 10
-14.0468927384
 20
22.3812128799
 10
-14.041918657
 20
22.3656638711
 10
-14.0376064875
 20
22.3496151143
 10
-14.0339644208
 20
22.3330659537
 10
-14.030984266
 20
22.3160170451
 10
-14.028668751
 20
22.2985930189
 10
-14.0270187854
 20
22.2808354186
 10
-14.0260334598
 20
22.2627027007
 10
-14.025712774
 20
22.2441948652
  0
LINE
  5
44C
100
AcDbEntity
  8
268140580
100
AcDbLine
 62
7
  6
CONTINUOUS
 10
-0.1840429234
 20
21.5184352618
 11
-3.0112760434
 21
22.9320518217
  0
LINE
  5
44D
100
AcDbEntity
  8
CORPO_STAMPATO
100
AcDbLine
 62
7
  6
CONTINUOUS
 10
6.1989755254
 20
18.9507363842
 11
6.5179652654
 21
18.7912415142
  0
LINE
  5
44E
100
AcDbEntity
  8
268140580
100
AcDbLine
 62
250
  6
CONTINUOUS
 10
-5.0825191067
 20
24.6177545583
 11
-4.4766859318
 21
24.3148379708
  0
LINE
  5
44F
100
AcDbEntity
  8
268140580
100
AcDbLine
 62
250
  6
CONTINUOUS
 10
0.4730615365
 20
21.8399642367
 11
1.0788947114
 21
21.5370476492
  0
LINE
  5
450
100
AcDbEntity
  8
268140580
100
AcDbLine
 62
7
  6
CONTINUOUS
 10
-1.6513441033
 20
23.0058000091
 11
0.6147585152
 21
21.8727486999
  0
LINE
  5
451
100
AcDbEntity
  8
268140580
100
AcDbLine
 62
7
  6
CONTINUOUS
 10
1.3611765262
 20
21.4995396944
 11
1.3788610186
 21
21.4906974482
  0
LINE
  5
452
100
AcDbEntity
  8
268140580
100
AcDbLine
 62
7
  6
CONTINUOUS
 10
-4.8607274784
 20
24.6297942282
 11
-4.2561644303
 21
24.3275127041
  0
LINE
  5
453
100
AcDbEntity
  8
268140580
100
AcDbLine
 62
7
  6
CONTINUOUS
 10
0.693583038
 20
21.85263897
 11
1.2981460862
 21
21.5503574459
  0
LWPOLYLINE
  5
454
100
AcDbEntity
  8
CORPO_STAMPATO
100
AcDbPolyline
 62
250
  6
CONTINUOUS
 90
58
 70
0
 10
18.9450392055
 20
8.0737622336
 10
18.9591134359
 20
8.0628872139
 10
19.0021444002
 20
8.0284565802
 10
19.0449416326
 20
7.9930260514
 10
19.0874858348
 20
7.9566116015
 10
19.1297577798
 20
7.9192296851
 10
19.1717383544
 20
7.8808972042
 10
19.2134085891
 20
7.8416314822
 10
19.2547496929
 20
7.8014502277
 10
19.2957430313
 20
7.7603715525
 10
19.3363701156
 20
7.718413982
 10
19.3766125887
 20
7.6755964724
 10
19.416452261
 20
7.6319383771
 10
19.4558711344
 20
7.5874594211
 10
19.4948514294
 20
7.5421796678
 10
19.533375569
 20
7.4961195349
 10
19.571426174
 20
7.4492997998
 10
19.6089860556
 20
7.4017416111
 10
19.6460382437
 20
7.3534664562
 10
19.682566004
 20
7.3044961393
 10
19.7185528564
 20
7.2548527554
 10
19.7539825667
 20
7.2045586997
 10
19.7888391467
 20
7.153636667
 10
19.8231068555
 20
7.1021096522
 10
19.8567702176
 20
7.0500009254
 10
19.889814034
 20
6.9973340142
 10
19.9222233912
 20
6.9441326887
 10
19.9539836619
 20
6.8904209605
 10
19.9850805096
 20
6.8362230751
 10
20.015499896
 20
6.7815634991
 10
20.0452280902
 20
6.726466905
 10
20.074251674
 20
6.6709581609
 10
20.1025575438
 20
6.6150623276
 10
20.130132918
 20
6.5588046453
 10
20.1569653453
 20
6.5022105173
 10
20.1830427171
 20
6.4453054837
 10
20.2083532681
 20
6.388115218
 10
20.2328855772
 20
6.3306655251
 10
20.2566285647
 20
6.27298235
 10
20.2795715041
 20
6.2150917525
 10
20.3017040332
 20
6.1570198812
 10
20.3230161679
 20
6.0987929352
 10
20.3434982972
 20
6.0404371724
 10
20.3631411809
 20
5.9819789159
 10
20.3819359444
 20
5.9234445742
 10
20.399874093
 20
5.8648606026
 10
20.4169475236
 20
5.8062534699
 10
20.4331485367
 20
5.7476496093
 10
20.4484698293
 20
5.6890754386
 10
20.4629044903
 20
5.6305573733
 10
20.4764459958
 20
5.5721218554
 10
20.4890882236
 20
5.5137953047
 10
20.5008254621
 20
5.4556040786
 10
20.5116524205
 20
5.3975744171
 10
20.5215642193
 20
5.3397324723
 10
20.5305563854
 20
5.2821043405
 10
20.5386248557
 20
5.224716051
 10
20.5457659871
 20
5.1675935099
  0
LWPOLYLINE
  5
455
100
AcDbEntity
  8
CORPO_STAMPATO
100
AcDbPolyline
 62
7
  6
CONTINUOUS
 90
49
 70
0
 10
8.181049436
 20
21.7847151939
 10
8.1554437774
 20
21.8228428561
 10
8.1333581455
 20
21.858586466
 10
8.1129801804
 20
21.8945377764
 10
8.0943109322
 20
21.9307007623
 10
8.0773493507
 20
21.9670714486
 10
8.0621261196
 20
22.0035838675
 10
8.04864587
 20
22.0402332945
 10
8.0369039708
 20
22.0770244541
 10
8.026917212
 20
22.1139055507
 10
8.0186871077
 20
22.150882459
 10
8.0122121438
 20
22.1879493043
 10
8.0075045684
 20
22.2250366676
 10
8.0045678464
 20
22.2621384377
 10
8.0033985128
 20
22.2992607257
 10
8.0039984206
 20
22.3363524454
 10
8.0063705543
 20
22.3734194044
 10
8.0105119293
 20
22.4104557952
 10
8.0164154446
 20
22.4473931094
 10
8.0240832481
 20
22.4842263816
 10
8.0335131918
 20
22.5209605772
 10
8.0446917307
 20
22.5575420841
 10
8.0576227647
 20
22.5939743289
 10
8.072302394
 20
22.6302538849
 10
8.0887053734
 20
22.6663168605
 10
8.1068335695
 20
22.7021605087
 10
8.1266851157
 20
22.7377875764
 10
8.1482291676
 20
22.7731424121
 10
8.1714690913
 20
22.8082257726
 10
8.1964015208
 20
22.8430369011
 10
8.2229855133
 20
22.8775178752
 10
8.2512237801
 20
22.9116679704
 10
8.28111361
 20
22.9454879112
 10
8.3126059271
 20
22.9789219492
 10
8.3457027556
 20
23.0119689302
 10
8.3804020712
 20
23.0446300085
 10
8.4166487249
 20
23.0768528984
 10
8.4544463725
 20
23.1086378009
 10
8.4937913582
 20
23.1399845151
 10
8.534617565
 20
23.170840152
 10
8.5769261022
 20
23.2012029224
 10
8.6207158604
 20
23.2310746154
 10
8.6659173943
 20
23.26040771
 10
8.7125331116
 20
23.2892015923
 10
8.7605606047
 20
23.3174568761
 10
8.8099232056
 20
23.3451278818
 10
8.8605953583
 20
23.372199383
 10
8.9126026188
 20
23.3986866061
 10
8.9659449872
 20
23.4245895511
  0
LWPOLYLINE
  5
456
100
AcDbEntity
  8
CORPO_STAMPATO
100
AcDbPolyline
 62
7
  6
CONTINUOUS
 90
4
 70
0
 10
20.6159526542
 20
5.258277431
 10
20.61592519
 20
5.2601144095
 10
20.6156564649
 20
5.2642989821
 10
20.6155223445
 20
5.2655310924
  0
LWPOLYLINE
  5
457
100
AcDbEntity
  8
CORPO_STAMPATO
100
AcDbPolyline
 62
7
  6
CONTINUOUS
 90
4
 70
0
 10
20.6159526542
 20
17.2094280033
 10
20.61592519
 20
17.2112649817
 10
20.6156564649
 20
17.2154495543
 10
20.6155223445
 20
17.2166816646
  0
LINE
  5
458
100
AcDbEntity
  8
CORPO_STAMPATO
100
AcDbLine
 62
250
  6
CONTINUOUS
 10
20.5317545943
 20
17.1152297374
 11
20.5317545943
 21
16.3370038789
  0
LINE
  5
459
100
AcDbEntity
  8
CORPO_STAMPATO
100
AcDbLine
 62
250
  6
CONTINUOUS
 10
20.5317545943
 20
5.1640791652
 11
20.5317545943
 21
4.3858533067
  0
LINE
  5
45A
100
AcDbEntity
  8
CORPO_STAMPATO
100
AcDbLine
 62
7
  6
CONTINUOUS
 10
20.6159526542
 20
17.2094280462
 11
20.6159526542
 21
16.4512030813
  0
LINE
  5
45B
100
AcDbEntity
  8
CORPO_STAMPATO
100
AcDbLine
 62
7
  6
CONTINUOUS
 10
20.6159526542
 20
5.258277474
 11
20.6159526542
 21
4.500052509
  0
LWPOLYLINE
  5
45C
100
AcDbEntity
  8
268140580
100
AcDbPolyline
 62
250
  6
CONTINUOUS
 90
13
 70
0
 10
0.0457121716
 20
-23.5563870216
 10
0.0556917648
 20
-23.5510981456
 10
0.0650394295
 20
-23.545528087
 10
0.0737235362
 20
-23.5396956936
 10
0.0817147012
 20
-23.5336207005
 10
0.088985885
 20
-23.5273236637
 10
0.0955124847
 20
-23.5208258906
 10
0.1012724167
 20
-23.5141493677
 10
0.1062461915
 20
-23.5073166865
 10
0.1104169801
 20
-23.5003509665
 10
0.11377067
 20
-23.4932757778
 10
0.116295914
 20
-23.4861150605
 10
0.1178967081
 20
-23.4792671801
  0
LWPOLYLINE
  5
45D
100
AcDbEntity
  8
268140580
100
AcDbPolyline
 62
250
  6
CONTINUOUS
 90
15
 70
0
 10
0.0457121716
 20
-23.8840149658
 10
0.0556917441
 20
-23.8787261013
 10
0.0650393925
 20
-23.8731560546
 10
0.0737234874
 20
-23.8673236727
 10
0.0817146444
 20
-23.8612486907
 10
0.0889858241
 20
-23.8549516644
 10
0.095512423
 20
-23.8484539009
 10
0.1012723573
 20
-23.8417773866
 10
0.1062461372
 20
-23.8349447127
 10
0.1104169329
 20
-23.8279789988
 10
0.1137706317
 20
-23.8209038147
 10
0.1162958859
 20
-23.8137431006
 10
0.1179841508
 20
-23.806521086
 10
0.1188297138
 20
-23.799262208
 10
0.1189354763
 20
-23.7956266181
  0
LWPOLYLINE
  5
45E
100
AcDbEntity
  8
268140580
100
AcDbPolyline
 62
250
  6
CONTINUOUS
 90
16
 70
0
 10
0.7528189528
 20
-24.2804615752
 10
0.7618188624
 20
-24.2757198848
 10
0.7703130083
 20
-24.2707479938
 10
0.7782777068
 20
-24.2655593198
 10
0.7856913616
 20
-24.2601673777
 10
0.7925324076
 20
-24.2545872557
 10
0.7987799203
 20
-24.248835745
 10
0.8044162261
 20
-24.2429292263
 10
0.8094265463
 20
-24.2368833093
 10
0.8137972501
 20
-24.2307144085
 10
0.8175163649
 20
-24.2244393188
 10
0.8205735661
 20
-24.2180753384
 10
0.8229603703
 20
-24.2116400716
 10
0.8246702212
 20
-24.2051512211
 10
0.8256984563
 20
-24.1986265169
 10
0.8260422563
 20
-24.1920851012
  0
LWPOLYLINE
  5
45F
100
AcDbEntity
  8
268140580
100
AcDbPolyline
 62
250
  6
CONTINUOUS
 90
16
 70
0
 10
0.7528189528
 20
-24.6260990362
 10
0.7618284638
 20
-24.6213520143
 10
0.7703287478
 20
-24.6163757374
 10
0.7782965061
 20
-24.6111838451
 10
0.7857098995
 20
-24.6057905679
 10
0.7925486084
 20
-24.6002106885
 10
0.7987938885
 20
-24.594459501
 10
0.8044286219
 20
-24.5885527689
 10
0.8094373641
 20
-24.5825066822
 10
0.8138063865
 20
-24.5763378128
 10
0.817523714
 20
-24.5700630692
 10
0.8205791577
 20
-24.5636996499
 10
0.8229643426
 20
-24.5572649967
 10
0.8246727313
 20
-24.5507767464
 10
0.8256996412
 20
-24.5442526831
 10
0.8260422575
 20
-24.5377106885
  0
LINE
  5
460
100
AcDbEntity
  8
268140580
100
AcDbLine
 62
250
  6
CONTINUOUS
 10
-1.3685013908
 20
-25.7094322756
 11
0.7528189528
 21
-24.6260990362
  0
LINE
  5
461
100
AcDbEntity
  8
268140580
100
AcDbLine
 62
250
  6
CONTINUOUS
 10
0.5662129915
 20
-23.1177752829
 11
1.2831490387
 21
-22.7716067364
  0
LINE
  5
462
100
AcDbEntity
  8
268140580
100
AcDbLine
 62
7
  6
CONTINUOUS
 10
0.462274324
 20
-23.3341158811
 11
1.1773316538
 21
-22.9888544627
  0
LWPOLYLINE
  5
463
100
AcDbEntity
  8
268140580
100
AcDbPolyline
 62
250
  6
CONTINUOUS
 90
31
 70
0
 10
-1.3685013908
 20
-25.341121747
 10
-1.3779954345
 20
-25.3456265025
 10
-1.3879479883
 20
-25.3498766445
 10
-1.398331773
 20
-25.3538605236
 10
-1.4091183273
 20
-25.3575672203
 10
-1.4202780861
 20
-25.3609865748
 10
-1.4317804612
 20
-25.3641092149
 10
-1.4435939253
 20
-25.3669265815
 10
-1.4556860987
 20
-25.3694309526
 10
-1.4680238375
 20
-25.3716154639
 10
-1.4805733248
 20
-25.3734741276
 10
-1.4933001634
 20
-25.3750018494
 10
-1.5061694698
 20
-25.3761944419
 10
-1.5191459703
 20
-25.3770486363
 10
-1.532194097
 20
-25.3775620912
 10
-1.5452780861
 20
-25.3777333993
 10
-1.5583620752
 20
-25.3775620912
 10
-1.5714102019
 20
-25.3770486363
 10
-1.5843867024
 20
-25.3761944419
 10
-1.5972560088
 20
-25.3750018494
 10
-1.6099828474
 20
-25.3734741276
 10
-1.6225323347
 20
-25.3716154639
 10
-1.6348700735
 20
-25.3694309526
 10
-1.6469622469
 20
-25.3669265815
 10
-1.658775711
 20
-25.3641092149
 10
-1.6702780861
 20
-25.3609865748
 10
-1.6814378448
 20
-25.3575672203
 10
-1.6922243992
 20
-25.3538605236
 10
-1.7026081839
 20
-25.3498766445
 10
-1.7125607377
 20
-25.3456265025
 10
-1.7220547814
 20
-25.341121747
  0
LWPOLYLINE
  5
464
100
AcDbEntity
  8
268140580
100
AcDbPolyline
 62
250
  6
CONTINUOUS
 90
28
 70
0
 10
-0.6613946096
 20
-24.2375683564
 10
-0.6719723761
 20
-24.2425581594
 10
-0.6831125083
 20
-24.247231997
 10
-0.6947773107
 20
-24.2515740545
 10
-0.7069273128
 20
-24.25556964
 10
-0.7195214024
 20
-24.2592052338
 10
-0.7325169638
 20
-24.2624685344
 10
-0.7458700236
 20
-24.2653485
 10
-0.759535399
 20
-24.2678353861
 10
-0.7734668499
 20
-24.2699207781
 10
-0.7876172363
 20
-24.27159762
 10
-0.8019386776
 20
-24.2728602383
 10
-0.8163827143
 20
-24.2737043611
 10
-0.8309004723
 20
-24.2741271325
 10
-0.845442828
 20
-24.2741271225
 10
-0.8599605751
 20
-24.2737043314
 10
-0.8744045902
 20
-24.2728601901
 10
-0.8887259996
 20
-24.2715975553
 10
-0.9028763449
 20
-24.2699206997
 10
-0.9168077462
 20
-24.2678352974
 10
-0.9304730643
 20
-24.2653484051
 10
-0.9438260614
 20
-24.2624684376
 10
-0.9568215554
 20
-24.25920514
 10
-0.9694155742
 20
-24.2555695545
 10
-0.981565505
 20
-24.2515739824
 10
-0.9932302368
 20
-24.2472319435
 10
-1.0043702999
 20
-24.2425581299
 10
-1.0149480002
 20
-24.2375683564
  0
LWPOLYLINE
  5
465
100
AcDbEntity
  8
268140580
100
AcDbPolyline
 62
7
  6
CONTINUOUS
 90
31
 70
0
 10
0.0563182626
 20
-22.3247446064
 10
0.0449273256
 20
-22.3299728375
 10
0.0330350059
 20
-22.3348876591
 10
0.0206413034
 20
-22.3394890714
 10
0.0076920512
 20
-22.3437945021
 10
-0.0057585836
 20
-22.3477865234
 10
-0.0195481005
 20
-22.3514128516
 10
-0.0336645384
 20
-22.3546625668
 10
-0.0481198583
 20
-22.3575465889
 10
-0.0627874431
 20
-22.3600453939
 10
-0.0776366745
 20
-22.3621551268
 10
-0.0926981708
 20
-22.3638796426
 10
-0.1079371698
 20
-22.3652109819
 10
-0.1234037402
 20
-22.3661509652
 10
-0.1390478132
 20
-22.3666977719
 10
-0.1546844206
 20
-22.3668379804
 10
-0.1703132155
 20
-22.3665620731
 10
-0.1859345448
 20
-22.3658795677
 10
-0.2013644798
 20
-22.3648055959
 10
-0.2165523154
 20
-22.3633426491
 10
-0.2315487568
 20
-22.3614882358
 10
-0.2463219901
 20
-22.359250014
 10
-0.2609042779
 20
-22.3566235846
 10
-0.2752633577
 20
-22.3536133467
 10
-0.2892706287
 20
-22.3502401554
 10
-0.3029372161
 20
-22.346492853
 10
-0.3162519946
 20
-22.3423825973
 10
-0.3290529882
 20
-22.3379637167
 10
-0.3412862047
 20
-22.3332543206
 10
-0.3530056363
 20
-22.3282362995
 10
-0.3642112829
 20
-22.3229096535
  0
LINE
  5
466
100
AcDbEntity
  8
268140580
100
AcDbLine
 62
250
  6
CONTINUOUS
 10
0.4483976166
 20
-23.34042361
 11
0.4431671951
 21
-23.3427318416
  0
LINE
  5
467
100
AcDbEntity
  8
290140580
100
AcDbLine
 62
7
  6
CONTINUOUS
 10
-1.2977907127
 20
-22.86592777
 11
-1.8733502134
 21
-23.10752427
  0
LINE
  5
468
100
AcDbEntity
  8
290140600
100
AcDbLine
 62
7
  6
CONTINUOUS
 10
-1.2977907127
 20
-22.86592777
 11
-1.8733502134
 21
-23.10752427
  0
LINE
  5
469
100
AcDbEntity
  8
290140580
100
AcDbLine
 62
250
  6
CONTINUOUS
 10
-3.9160705203
 20
-24.8154696067
 11
-1.8733502134
 21
-23.9580185944
  0
LINE
  5
46A
100
AcDbEntity
  8
290140600
100
AcDbLine
 62
250
  6
CONTINUOUS
 10
-3.9160705203
 20
-24.8154696067
 11
-1.8733502134
 21
-23.9580185944
  0
LINE
  5
46B
100
AcDbEntity
  8
268140580
100
AcDbLine
 62
250
  6
CONTINUOUS
 10
-0.5154744013
 20
-23.5718237137
 11
0.5662129915
 21
-23.1177752829
  0
LINE
  5
46C
100
AcDbEntity
  8
268140580
100
AcDbLine
 62
7
  6
CONTINUOUS
 10
-0.6284870042
 20
-23.7925687454
 11
0.4431671951
 21
-23.3427318416
  0
LINE
  5
46D
100
AcDbEntity
  8
290140580
100
AcDbLine
 62
7
  6
CONTINUOUS
 10
-2.0146159672
 20
-24.2339498839
 11
-4.0700346383
 21
-25.096731074
  0
LINE
  5
46E
100
AcDbEntity
  8
290140600
100
AcDbLine
 62
7
  6
CONTINUOUS
 10
-2.0146159672
 20
-24.2339498839
 11
-4.0700346383
 21
-25.096731074
  0
LINE
  5
46F
100
AcDbEntity
  8
CORPO_STAMPATO
100
AcDbLine
 62
250
  6
CONTINUOUS
 10
-4.8630576389
 20
21.5619189321
 11
-4.8531687878
 21
21.5646958219
  0
LINE
  5
470
100
AcDbEntity
  8
CORPO_STAMPATO
100
AcDbLine
 62
250
  6
CONTINUOUS
 10
-4.8531687878
 20
21.5646958219
 11
-4.8431006515
 21
21.5674335562
  0
LINE
  5
471
100
AcDbEntity
  8
CORPO_STAMPATO
100
AcDbLine
 62
250
  6
CONTINUOUS
 10
-4.8431006515
 20
21.5674335562
 11
-4.8328527137
 21
21.5701281349
  0
LWPOLYLINE
  5
472
100
AcDbEntity
  8
CORPO_STAMPATO
100
AcDbPolyline
 62
250
  6
CONTINUOUS
 90
3
 70
0
 10
-4.8328527137
 20
21.5701281349
 10
-4.8224249279
 20
21.5727754212
 10
-4.8171435746
 20
21.5740808158
  0
LWPOLYLINE
  5
473
100
AcDbEntity
  8
CORPO_STAMPATO
100
AcDbPolyline
 62
250
  6
CONTINUOUS
 90
3
 70
0
 10
-4.8171435746
 20
21.5740808158
 10
-4.8064463477
 20
21.5766508522
 10
-4.8010304742
 20
21.5779154939
  0
LWPOLYLINE
  5
474
100
AcDbEntity
  8
CORPO_STAMPATO
100
AcDbPolyline
 62
250
  6
CONTINUOUS
 90
4
 70
0
 10
-4.8010304742
 20
21.5779154939
 10
-4.7900658509
 20
21.580399489
 10
-4.7845171012
 20
21.5816188424
 10
-4.7789244698
 20
21.5828216248
  0
LWPOLYLINE
  5
475
100
AcDbEntity
  8
CORPO_STAMPATO
100
AcDbPolyline
 62
250
  6
CONTINUOUS
 90
125
 70
0
 10
-4.7789244698
 20
21.5828216248
 10
-4.7676071049
 20
21.5851775654
 10
-4.7618837048
 20
21.5863290684
 10
-4.756116678
 20
21.5874625274
 10
-4.7503068743
 20
21.5885778048
 10
-4.7444579482
 20
21.5896728765
 10
-4.7385689436
 20
21.5907478403
 10
-4.7326408166
 20
21.5918025985
 10
-4.7266800906
 20
21.5928348351
 10
-4.7206849978
 20
21.593844698
 10
-4.7146573059
 20
21.5948320393
 10
-4.7086088422
 20
21.5957940989
 10
-4.7025388696
 20
21.5967307697
 10
-4.6964481252
 20
21.5976421588
 10
-4.6903506472
 20
21.5985258279
 10
-4.6842454537
 20
21.5993816491
 10
-4.6781335265
 20
21.6002097502
 10
-4.6720318493
 20
21.6010080764
 10
-4.6659443252
 20
21.6017759448
 10
-4.6598670511
 20
21.6025140382
 10
-4.6538053017
 20
21.60322235
 10
-4.6477604426
 20
21.6039006921
 10
-4.6417311083
 20
21.6045492527
 10
-4.6357184767
 20
21.6051685896
 10
-4.6297221921
 20
21.6057587352
 10
-4.6237426103
 20
21.6063196571
 10
-4.6177819763
 20
21.6068518172
 10
-4.6118403174
 20
21.6073551998
 10
-4.6059176064
 20
21.6078298205
 10
-4.6000160071
 20
21.6082761872
 10
-4.5941356039
 20
21.6086942832
 10
-4.5882763124
 20
21.6090841252
 10
-4.5824400429
 20
21.609446271
 10
-4.5766267606
 20
21.6097807132
 10
-4.5708365004
 20
21.6100874592
 10
-4.5650712767
 20
21.6103670903
 10
-4.5593308952
 20
21.6106195986
 10
-4.5536155504
 20
21.610844992
 10
-4.5479278402
 20
21.6110438752
 10
-4.5422677214
 20
21.6112162252
 10
-4.5366352371
 20
21.6113620649
 10
-4.5310331156
 20
21.6114820679
 10
-4.525461584
 20
21.6115762092
 10
-4.519920415
 20
21.6116445137
 10
-4.5144116555
 20
21.61168773
 10
-4.5089354884
 20
21.611705846
 10
-4.5034917308
 20
21.6116988737
 10
-4.4980818806
 20
21.611667598
 10
-4.4927059872
 20
21.6116120128
 10
-4.4873640013
 20
21.6115321241
 10
-4.4820572725
 20
21.6114287342
 10
-4.4767858064
 20
21.6113018369
 10
-4.4715495974
 20
21.6111514385
 10
-4.4663499791
 20
21.6109783606
 10
-4.4611869912
 20
21.6107825976
 10
-4.4560605939
 20
21.6105641551
 10
-4.4509720009
 20
21.610323872
 10
-4.4459212653
 20
21.6100617442
 10
-4.4409083339
 20
21.6097777758
 10
-4.4359342618
 20
21.6094728168
 10
-4.4309990803
 20
21.6091468632
 10
-4.426102758
 20
21.6087999191
 10
-4.4212462555
 20
21.6084328471
 10
-4.4164295021
 20
21.6080456321
 10
-4.4116525685
 20
21.6076382892
 10
-4.4069166275
 20
21.6072117257
 10
-4.402221889
 20
21.6067659534
 10
-4.3975681432
 20
21.6063009605
 10
-4.3929559328
 20
21.605817619
 10
-4.388385433
 20
21.6053159494
 10
-4.3838564687
 20
21.6047959311
 10
-4.379369057
 20
21.6042583749
 10
-4.3749232439
 20
21.603703293
 10
-4.3705189836
 20
21.6031306731
 10
-4.3661561553
 20
21.6025412897
 10
-4.3618347687
 20
21.6019351507
 10
-4.3575548142
 20
21.6013122482
 10
-4.3533161423
 20
21.6006733326
 10
-4.3491187705
 20
21.6000184126
 10
-4.3449626813
 20
21.5993474797
 10
-4.3408476726
 20
21.5986612583
 10
-4.3367737838
 20
21.5979597616
 10
-4.3327409755
 20
21.5972429765
 10
-4.3287489273
 20
21.5965115886
 10
-4.3247977116
 20
21.59576562
 10
-4.3208872561
 20
21.5950050485
 10
-4.3170170238
 20
21.5942304928
 10
-4.3131870545
 20
21.5934419728
 10
-4.3093973086
 20
21.5926394687
 10
-4.3056471301
 20
21.5918235399
 10
-4.3019365308
 20
21.5909942019
 10
-4.298265499
 20
21.5901514393
 10
-4.2946333442
 20
21.5892957651
 10
-4.291040094
 20
21.5884272
 10
-4.2874857207
 20
21.5875457234
 10
-4.2839694511
 20
21.5866517867
 10
-4.2804913034
 20
21.5857454103
 10
-4.2770512593
 20
21.5848265738
 10
-4.2736484907
 20
21.5838956675
 10
-4.2702829988
 20
21.5829527086
 10
-4.2669547823
 20
21.5819976798
 10
-4.2636630093
 20
21.5810309205
 10
-4.2604076895
 20
21.5800524512
 10
-4.2571888132
 20
21.5790622513
 10
-4.2540055202
 20
21.5780605981
 10
-4.2508578161
 20
21.577047513
 10
-4.2477456952
 20
21.5760229746
 10
-4.2446682806
 20
21.574987197
 10
-4.241625564
 20
21.5739401981
 10
-4.2386175537
 20
21.5728819601
 10
-4.2356433969
 20
21.5718126431
 10
-4.2327030711
 20
21.5707322598
 10
-4.2297965988
 20
21.5696407975
 10
-4.2269231952
 20
21.5685383788
 10
-4.2240828286
 20
21.567425012
 10
-4.2212755306
 20
21.5663006888
 10
-4.218500611
 20
21.5651655066
 10
-4.2157580487
 20
21.5640194758
 10
-4.2130478648
 20
21.5628625861
 10
-4.2103694326
 20
21.5616949044
 10
-4.2077227414
 20
21.5605164476
 10
-4.205107802
 20
21.5593271989
 10
-4.2025240194
 20
21.558127174
 10
-4.1999711954
 20
21.5569163783
 10
-4.1974495283
 20
21.5556948064
  0
LWPOLYLINE
  5
476
100
AcDbEntity
  8
268140580
100
AcDbPolyline
 62
7
  6
CONTINUOUS
 90
16
 70
0
 10
-4.5037948954
 20
22.1857923957
 10
-4.4703252708
 20
22.1809942996
 10
-4.4372716812
 20
22.1756282161
 10
-4.4046341268
 20
22.1696941452
 10
-4.3723867201
 20
22.163188743
 10
-4.3405553486
 20
22.1561153535
 10
-4.309217674
 20
22.1484840084
 10
-4.278345127
 20
22.1402847357
 10
-4.2479662771
 20
22.1315275074
 10
-4.2182444942
 20
22.1222522722
 10
-4.1891798568
 20
22.112450855
 10
-4.1607722865
 20
22.1021314308
 10
-4.1331849182
 20
22.0913584731
 10
-4.10647213
 20
22.0801534732
 10
-4.0805795437
 20
22.0684949399
 10
-4.0555071593
 20
22.0563828732
  0
LWPOLYLINE
  5
477
100
AcDbEntity
  8
268140580
100
AcDbPolyline
 62
7
  6
CONTINUOUS
 90
17
 70
0
 10
-4.2561677492
 20
24.3275060711
 10
-4.2633270633
 20
24.3309067709
 10
-4.2756324145
 20
24.335914144
 10
-4.2883082927
 20
24.340055269
 10
-4.3013127959
 20
24.3433315911
 10
-4.3146428013
 20
24.3457480269
 10
-4.3283014318
 20
24.3472996599
 10
-4.3422561543
 20
24.3479731866
 10
-4.3565350636
 20
24.3477648439
 10
-4.3711100649
 20
24.3466783949
 10
-4.3858643413
 20
24.3447118254
 10
-4.4008047023
 20
24.3418492
 10
-4.4159243385
 20
24.338106454
 10
-4.4310860041
 20
24.3335293789
 10
-4.4462439505
 20
24.3281332386
 10
-4.4614439265
 20
24.3219027693
 10
-4.4766859318
 20
24.3148379708
  0
LWPOLYLINE
  5
478
100
AcDbEntity
  8
268140580
100
AcDbPolyline
 62
7
  6
CONTINUOUS
 90
20
 70
0
 10
-1.9112362478
 20
23.8930860539
 10
-1.9174631915
 20
23.8961253543
 10
-1.938483488
 20
23.905365377
 10
-1.9601551056
 20
23.913365741
 10
-1.9823436985
 20
23.9200691372
 10
-2.0050489083
 20
23.9254594394
 10
-2.0282710933
 20
23.9295527737
 10
-2.0518769823
 20
23.9323402097
 10
-2.0758286692
 20
23.9338182509
 10
-2.1001640601
 20
23.9339903937
 10
-2.1248636022
 20
23.9328581972
 10
-2.1499638223
 20
23.9304198441
 10
-2.1754281936
 20
23.9266771518
 10
-2.2011275822
 20
23.9216371316
 10
-2.2270763557
 20
23.9152830454
 10
-2.2532601464
 20
23.9076316314
 10
-2.2795067183
 20
23.8987401156
 10
-2.3057586593
 20
23.8886275735
 10
-2.3320733813
 20
23.8772749295
 10
-2.3584508845
 20
23.8646821838
  0
LWPOLYLINE
  5
479
100
AcDbEntity
  8
CORPO_STAMPATO
100
AcDbPolyline
 62
250
  6
CONTINUOUS
 90
24
 70
0
 10
-2.5877580103
 20
25.7431077893
 10
-2.6081767693
 20
25.7530911957
 10
-2.6285886957
 20
25.7623285418
 10
-2.6489765244
 20
25.7708120144
 10
-2.669323011
 20
25.778534438
 10
-2.6896109456
 20
25.7854892806
 10
-2.7098231684
 20
25.7916706597
 10
-2.7299425831
 20
25.7970733469
 10
-2.7499521723
 20
25.8016927725
 10
-2.7698350112
 20
25.8055250292
 10
-2.7895742824
 20
25.8085668756
 10
-2.8091532899
 20
25.8108157388
 10
-2.8285554732
 20
25.8122697167
 10
-2.8477644213
 20
25.8129275794
 10
-2.8667638869
 20
25.8127887705
 10
-2.8855377996
 20
25.8118534074
 10
-2.9040702799
 20
25.8101222813
 10
-2.9223456525
 20
25.8075968564
 10
-2.9403484597
 20
25.8042792688
 10
-2.9580634741
 20
25.8001723246
 10
-2.9754757119
 20
25.7952794976
 10
-2.9925704453
 20
25.7896049261
 10
-3.0093332152
 20
25.7831534101
 10
-3.0266427608
 20
25.7755107243
  0
LINE
  5
47A
100
AcDbEntity
  8
268140580
100
AcDbLine
 62
250
  6
CONTINUOUS
 10
-5.2851128944
 20
25.3280131888
 11
-2.3584508845
 21
23.8646821838
  0
LINE
  5
47B
100
AcDbEntity
  8
268140580
100
AcDbLine
 62
250
  6
CONTINUOUS
 10
1.8841898027
 20
21.7433618403
 11
4.8108518126
 21
20.2800308353
  0
LINE
  5
47C
100
AcDbEntity
  8
268140580
100
AcDbLine
 62
7
  6
CONTINUOUS
 10
-4.9917641668
 20
25.43334741
 11
-1.911237289
 21
23.8930839711
  0
LINE
  5
47D
100
AcDbEntity
  8
268140580
100
AcDbLine
 62
7
  6
CONTINUOUS
 10
2.3314033982
 20
21.7717636275
 11
5.411930276
 21
20.2315001886
  0
LINE
  5
47E
100
AcDbEntity
  8
CORPO_STAMPATO
100
AcDbLine
 62
250
  6
CONTINUOUS
 10
3.3168615213
 20
22.7907980235
 11
-2.5877580103
 21
25.7431077893
  0
LINE
  5
47F
100
AcDbEntity
  8
CORPO_STAMPATO
100
AcDbLine
 62
7
  6
CONTINUOUS
 10
3.7546370463
 20
22.8117212115
 11
-2.1528851297
 21
25.7654711189
  0
LWPOLYLINE
  5
480
100
AcDbEntity
  8
CORPO_STAMPATO
100
AcDbPolyline
 62
7
  6
CONTINUOUS
 90
59
 70
0
 10
20.6155223449
 20
5.2655309651
 10
20.6091341679
 20
5.3161584753
 10
20.6009986429
 20
5.3737664285
 10
20.5919278684
 20
5.431515292
 10
20.5819290559
 20
5.4893812252
 10
20.5710095459
 20
5.5473409352
 10
20.5591768403
 20
5.6053713286
 10
20.5464426845
 20
5.6634314745
 10
20.5328117495
 20
5.721514961
 10
20.5182789131
 20
5.7796501881
 10
20.5028414115
 20
5.837846142
 10
20.4865135609
 20
5.8960464696
 10
20.4693160333
 20
5.9541812524
 10
20.4512619743
 20
6.012213808
 10
20.4323569334
 20
6.0701333102
 10
20.412613062
 20
6.127908504
 10
20.3920433582
 20
6.1855077942
 10
20.370655444
 20
6.2429157058
 10
20.3484534581
 20
6.3001249682
 10
20.3254444228
 20
6.3571194857
 10
20.3016414982
 20
6.4138683262
 10
20.2770580069
 20
6.4703418597
 10
20.2517064584
 20
6.5265136915
 10
20.2255967391
 20
6.5823639537
 10
20.198738732
 20
6.6378729209
 10
20.1711433767
 20
6.6930189119
 10
20.1428230478
 20
6.7477778887
 10
20.1137899956
 20
6.802126717
 10
20.084058351
 20
6.8560394713
 10
20.0536386936
 20
6.9094972864
 10
20.0225378628
 20
6.9624876454
 10
19.9907681666
 20
7.0149884445
 10
19.9583423402
 20
7.066977342
 10
19.9252673836
 20
7.1184412598
 10
19.8915498852
 20
7.1693671295
 10
19.8572085778
 20
7.2197237099
 10
19.8222691788
 20
7.2694714106
 10
19.7867515011
 20
7.3185811466
 10
19.7506637736
 20
7.3670405013
 10
19.7140148143
 20
7.4148357747
 10
19.6768227286
 20
7.4619412728
 10
19.6390977056
 20
7.508341859
 10
19.6008357121
 20
7.5540389185
 10
19.5620369316
 20
7.5990268563
 10
19.5227284155
 20
7.643268807
 10
19.4829464494
 20
7.6867200957
 10
19.4427101251
 20
7.7293571869
 10
19.4020302925
 20
7.7711657422
 10
19.3609317521
 20
7.8121175279
 10
19.3194449217
 20
7.8521804694
 10
19.2775704386
 20
7.8913520119
 10
19.2352874376
 20
7.9296472666
 10
19.1925878244
 20
7.9670663928
 10
19.1495086046
 20
8.0035696278
 10
19.1060959868
 20
8.0391126413
 10
19.0623597565
 20
8.073683161
 10
19.0183210905
 20
8.10726
 10
18.9740443727
 20
8.1397916951
 10
18.9450392055
 20
8.1603075265
  0
LINE
  5
481
100
AcDbEntity
  8
268140580
100
AcDbLine
 62
7
  6
CONTINUOUS
 10
-1.4315749868
 20
-25.8436907451
 11
0.6897453568
 21
-24.7603575057
  0
LWPOLYLINE
  5
482
100
AcDbEntity
  8
268140580
100
AcDbPolyline
 62
250
  6
CONTINUOUS
 90
31
 70
0
 10
-1.3685013908
 20
-25.7094322756
 10
-1.377972308
 20
-25.7139266182
 10
-1.3879059948
 20
-25.7181701665
 10
-1.3982761536
 20
-25.7221508414
 10
-1.4090575019
 20
-25.7258579924
 10
-1.4202191086
 20
-25.7292800727
 10
-1.4317237185
 20
-25.732405283
 10
-1.4435371749
 20
-25.7352244724
 10
-1.4556295558
 20
-25.7377306249
 10
-1.467968027
 20
-25.7399169219
 10
-1.4805190027
 20
-25.7417773751
 10
-1.4932478652
 20
-25.7433068169
 10
-1.5061193612
 20
-25.7445009997
 10
-1.5190980349
 20
-25.7453566434
 10
-1.5321484556
 20
-25.7458714217
 10
-1.5452349556
 20
-25.746043926
 10
-1.558321707
 20
-25.7458736759
 10
-1.5713727697
 20
-25.7453611305
 10
-1.5843523076
 20
-25.7445076931
 10
-1.5972247147
 20
-25.7433157028
 10
-1.6099547068
 20
-25.7417884254
 10
-1.6225073695
 20
-25.7399300476
 10
-1.6348482825
 20
-25.737745663
 10
-1.6469436019
 20
-25.7352412603
 10
-1.6587601483
 20
-25.7324237079
 10
-1.6702655273
 20
-25.7293007286
 10
-1.6814281785
 20
-25.7258808874
 10
-1.6922174552
 20
-25.7221735747
 10
-1.7026037628
 20
-25.7181889631
 10
-1.7125586363
 20
-25.7139379772
 10
-1.7220547814
 20
-25.7094322756
  0
LINE
  5
483
100
AcDbEntity
  8
268140580
100
AcDbLine
 62
7
  6
CONTINUOUS
 10
-3.0112760434
 20
22.9320518217
 11
-1.6513441033
 21
23.0058000091
  0
LWPOLYLINE
  5
484
100
AcDbEntity
  8
715140040
100
AcDbPolyline
 62
7
  6
CONTINUOUS
 90
9
 70
0
 10
12.7848972887
 20
21.6671782058
 10
12.7787805481
 20
21.6687777035
 10
12.7690103344
 20
21.6703105174
 10
12.758684139
 20
21.6707259617
 10
12.7478969418
 20
21.6700241893
 10
12.7369336829
 20
21.6682056579
 10
12.7258893422
 20
21.6652705204
 10
12.7146689397
 20
21.661218624
 10
12.7032724754
 20
21.6560499688
  0
LINE
  5
485
100
AcDbEntity
  8
715140040
100
AcDbLine
 62
7
  6
CONTINUOUS
 10
11.39183449
 20
21.0003309761
 11
10.9420898286
 21
21.1220788092
  0
LWPOLYLINE
  5
486
100
AcDbEntity
  8
715140040
100
AcDbPolyline
 62
7
  6
CONTINUOUS
 90
28
 70
0
 10
12.7848871525
 20
21.6671542534
 10
12.6761718059
 20
21.6984400991
 10
12.5613167629
 20
21.7277937762
 10
12.444055339
 20
21.7541208463
 10
12.3246821742
 20
21.7773829381
 10
12.2034618025
 20
21.7975534909
 10
12.080632433
 20
21.8146127662
 10
11.9564836357
 20
21.8285366077
 10
11.8313001726
 20
21.8393072767
 10
11.7053196551
 20
21.8469146764
 10
11.5788332689
 20
21.8513480551
 10
11.452130546
 20
21.8526026098
 10
11.3254488005
 20
21.8506778367
 10
11.1990775308
 20
21.8455765017
 10
11.0733079402
 20
21.8373072896
 10
10.9483783408
 20
21.8258794141
 10
10.8245794662
 20
21.8113095819
 10
10.7021947138
 20
21.7936195603
 10
10.5814462777
 20
21.7728253849
 10
10.4626113566
 20
21.7489537849
 10
10.3459755331
 20
21.7220387331
 10
10.2317639601
 20
21.6921039658
 10
10.1202487819
 20
21.6591868619
 10
10.0117025855
 20
21.6233302271
 10
9.9063356939
 20
21.5845586095
 10
9.8043889115
 20
21.5429058012
 10
9.7061427741
 20
21.4984250267
 10
9.6118587129
 20
21.4511676372
  0
LWPOLYLINE
  5
487
100
AcDbEntity
  8
CORPO_STAMPATO
100
AcDbPolyline
 62
250
  6
CONTINUOUS
 90
25
 70
0
 10
5.4195092487
 20
22.7593441944
 10
5.4003673139
 20
22.7689144368
 10
5.3812305419
 20
22.777815438
 10
5.3621134594
 20
22.7860404413
 10
5.3430305779
 20
22.7935832033
 10
5.323996383
 20
22.8004379983
 10
5.3050253236
 20
22.8065996229
 10
5.2861318003
 20
22.8120633999
 10
5.2673301551
 20
22.8168251817
 10
5.2486346601
 20
22.8208813538
 10
5.230059507
 20
22.8242288371
 10
5.2116187959
 20
22.8268650907
 10
5.1933265251
 20
22.8287881133
 10
5.1751965801
 20
22.8299964453
 10
5.1572427232
 20
22.8304891694
 10
5.1394785829
 20
22.8302659116
 10
5.1219176439
 20
22.8293268414
 10
5.1045732365
 20
22.8276726716
 10
5.0874585268
 20
22.825304658
 10
5.0705865063
 20
22.822224598
 10
5.0539699825
 20
22.8184348297
 10
5.0376215688
 20
22.81393823
 10
5.0215536751
 20
22.8087382121
 10
5.0057784985
 20
22.8028387234
 10
4.9903080138
 20
22.7962442421
  0
LINE
  5
488
100
AcDbEntity
  8
715140040
100
AcDbLine
 62
7
  6
CONTINUOUS
 10
10.4471150818
 20
20.8745914358
 11
9.7401461416
 21
21.2280759059
  0
LINE
  5
489
100
AcDbEntity
  8
715140040
100
AcDbLine
 62
7
  6
CONTINUOUS
 10
10.9420898286
 20
21.1220788092
 11
10.2351208885
 21
21.4755632793
  0
LINE
  5
48A
100
AcDbEntity
  8
CORPO_STAMPATO
100
AcDbLine
 62
7
  6
CONTINUOUS
 10
9.5488476504
 20
22.1815193885
 11
9.9805624472
 21
21.9656619901
  0
LINE
  5
48B
100
AcDbEntity
  8
715140040
100
AcDbLine
 62
7
  6
CONTINUOUS
 10
10.4471150818
 20
20.8745914358
 11
10.6168024696
 21
20.7178822879
  0
LWPOLYLINE
  5
48C
100
AcDbEntity
  8
CORPO_STAMPATO
100
AcDbPolyline
 62
7
  6
CONTINUOUS
 90
59
 70
0
 10
20.6155223449
 20
17.2166815373
 10
20.6091341679
 20
17.2673090477
 10
20.6009986428
 20
17.3249170012
 10
20.5919278682
 20
17.382665865
 10
20.5819290558
 20
17.4405317985
 10
20.5710095456
 20
17.4984915087
 10
20.5591768399
 20
17.5565219024
 10
20.5464426841
 20
17.6145820486
 10
20.5328117489
 20
17.6726655353
 10
20.5182789124
 20
17.7308007627
 10
20.5028414107
 20
17.7889967169
 10
20.4865135601
 20
17.8471970447
 10
20.4693160324
 20
17.9053318278
 10
20.4512619732
 20
17.9633643836
 10
20.4323569321
 20
18.0212838861
 10
20.4126130606
 20
18.0790590802
 10
20.3920433567
 20
18.1366583706
 10
20.3706554423
 20
18.1940662824
 10
20.3484534562
 20
18.2512755451
 10
20.3254444208
 20
18.3082700628
 10
20.301641496
 20
18.3650189036
 10
20.2770580045
 20
18.4214924373
 10
20.2517064559
 20
18.4776642693
 10
20.2255967363
 20
18.5335145317
 10
20.1987387291
 20
18.5890234991
 10
20.1711433735
 20
18.6441694904
 10
20.1428230444
 20
18.6989284673
 10
20.113789992
 20
18.7532772958
 10
20.0840583472
 20
18.8071900503
 10
20.0536386896
 20
18.8606478656
 10
20.0225378585
 20
18.9136382248
 10
19.9907681621
 20
18.9661390241
 10
19.9583423355
 20
19.0181279218
 10
19.9252673786
 20
19.0695918397
 10
19.89154988
 20
19.1205177095
 10
19.8572085723
 20
19.17087429
 10
19.8222691731
 20
19.2206219908
 10
19.7867514951
 20
19.269731727
 10
19.7506637673
 20
19.3181910818
 10
19.7140148078
 20
19.3659863553
 10
19.6768227218
 20
19.4130918535
 10
19.6390976986
 20
19.4594924398
 10
19.6008357047
 20
19.5051894994
 10
19.562036924
 20
19.5501774372
 10
19.5227284076
 20
19.594419388
 10
19.4829464413
 20
19.6378706767
 10
19.4427101167
 20
19.6805077679
 10
19.4020302838
 20
19.7223163232
 10
19.3609317431
 20
19.763268109
 10
19.3194449124
 20
19.8033310505
 10
19.2775704291
 20
19.842502593
 10
19.2352874277
 20
19.8807978475
 10
19.1925878143
 20
19.9182169738
 10
19.1495085942
 20
19.9547202087
 10
19.1060959762
 20
19.9902632221
 10
19.0623597456
 20
20.0248337417
 10
19.0183210793
 20
20.0584105806
 10
18.9740443612
 20
20.0909422756
 10
18.9450392055
 20
20.1114580986
  0
LWPOLYLINE
  5
48D
100
AcDbEntity
  8
715140040
100
AcDbPolyline
 62
7
  6
CONTINUOUS
 90
3
 70
0
 10
12.7969379705
 20
21.6623604252
 10
12.7880897602
 20
21.6661276728
 10
12.7848972887
 20
21.6671782058
  0
LINE
  5
48E
100
AcDbEntity
  8
CORPO_STAMPATO
100
AcDbLine
 62
7
  6
CONTINUOUS
 10
13.6064859562
 20
22.060800386
 11
14.1011554654
 21
21.8134656314
  0
LINE
  5
48F
100
AcDbEntity
  8
715140040
100
AcDbLine
 62
7
  6
CONTINUOUS
 10
13.6454661079
 20
21.2380963565
 11
13.7187260031
 21
21.2014384656
  0
LWPOLYLINE
  5
490
100
AcDbEntity
  8
715140040
100
AcDbPolyline
 62
7
  6
CONTINUOUS
 90
6
 70
0
 10
13.2288113538
 20
21.4445098261
 10
13.1388041244
 20
21.4902484579
 10
13.0506174964
 20
21.5349032609
 10
12.964237053
 20
21.578472811
 10
12.879677211
 20
21.6209585324
 10
12.7969379705
 20
21.6623604252
  0
LINE
  5
491
100
AcDbEntity
  8
715140040
100
AcDbLine
 62
7
  6
CONTINUOUS
 10
13.4144317851
 20
21.3497953187
 11
13.2288113538
 21
21.4445098261
  0
LINE
  5
492
100
AcDbEntity
  8
715140040
100
AcDbLine
 62
7
  6
CONTINUOUS
 10
13.6075220406
 20
21.2507640114
 11
13.4144317851
 21
21.3497953187
  0
LINE
  5
493
100
AcDbEntity
  8
715140040
100
AcDbLine
 62
7
  6
CONTINUOUS
 10
13.6152804693
 20
21.2461775394
 11
13.6075220406
 21
21.2507640114
  0
LWPOLYLINE
  5
494
100
AcDbEntity
  8
715140040
100
AcDbPolyline
 62
250
  6
CONTINUOUS
 90
4
 70
0
 10
13.6454661079
 20
21.2380963565
 10
13.6699890982
 20
21.2175919781
 10
13.6943548599
 20
21.1963137137
 10
13.6990507234
 20
21.1920214439
  0
LWPOLYLINE
  5
495
100
AcDbEntity
  8
715140040
100
AcDbPolyline
 62
250
  6
CONTINUOUS
 90
5
 70
0
 10
13.5518295087
 20
21.231800348
 10
13.5746899381
 20
21.2122216146
 10
13.5972674764
 20
21.191868568
 10
13.6195621236
 20
21.1707412084
 10
13.6309757136
 20
21.1594392466
  0
LINE
  5
496
100
AcDbEntity
  8
CORPO_STAMPATO
100
AcDbLine
 62
250
  6
CONTINUOUS
 10
18.2502285302
 20
21.859475219
 11
18.1433266906
 21
22.0438536187
  0
LWPOLYLINE
  5
497
100
AcDbEntity
  8
CORPO_STAMPATO
100
AcDbPolyline
 62
250
  6
CONTINUOUS
 90
26
 70
0
 10
11.9885360094
 20
25.6146630647
 10
11.9812525191
 20
25.6182070131
 10
11.9660048175
 20
25.6250128372
 10
11.9504417444
 20
25.6311467689
 10
11.934574857
 20
25.6366042532
 10
11.9184159383
 20
25.6413812373
 10
11.9019769878
 20
25.6454741738
 10
11.8852702132
 20
25.6488800232
 10
11.8683080211
 20
25.6515962564
 10
11.8511030077
 20
25.6536208562
 10
11.8336679496
 20
25.6549523192
 10
11.816015794
 20
25.6555896567
 10
11.7981596496
 20
25.6555323953
 10
11.7801127765
 20
25.6547805775
 10
11.7618885763
 20
25.6533347618
 10
11.7435005825
 20
25.6511960216
 10
11.7249624501
 20
25.6483659453
 10
11.7062879455
 20
25.6448466346
 10
11.6874909367
 20
25.6406407028
 10
11.6685853823
 20
25.6357512733
 10
11.6495853217
 20
25.6301819771
 10
11.6305048645
 20
25.6239369498
 10
11.61135818
 20
25.6170208292
 10
11.5921594864
 20
25.6094387512
 10
11.572923041
 20
25.6011963462
 10
11.5536631288
 20
25.5922997351
  0
LINE
  5
498
100
AcDbEntity
  8
CORPO_STAMPATO
100
AcDbLine
 62
7
  6
CONTINUOUS
 10
13.5514516922
 20
24.1400408307
 11
16.6360579386
 21
22.5977377075
  0
LINE
  5
499
100
AcDbEntity
  8
CORPO_STAMPATO
100
AcDbLine
 62
250
  6
CONTINUOUS
 10
17.643402843
 20
22.547429878
 11
17.0993263131
 21
22.8194681429
  0
LWPOLYLINE
  5
49A
100
AcDbEntity
  8
CORPO_STAMPATO
100
AcDbPolyline
 62
250
  6
CONTINUOUS
 90
26
 70
0
 10
12.5031322354
 20
25.1175651818
 10
11.5345211965
 20
25.6018699762
 10
11.515384427
 20
25.6107709764
 10
11.4962673467
 20
25.618995979
 10
11.4771844674
 20
25.6265387404
 10
11.4581502747
 20
25.633393535
 10
11.4391792172
 20
25.6395551594
 10
11.4202856957
 20
25.6450189364
 10
11.4014840522
 20
25.6497807184
 10
11.3827885588
 20
25.6538368908
 10
11.3642134071
 20
25.6571843746
 10
11.3457726974
 20
25.6598206287
 10
11.3274804277
 20
25.6617436521
 10
11.3093504837
 20
25.6629519849
 10
11.2913966277
 20
25.6634447099
 10
11.2736324881
 20
25.6632214531
 10
11.2560715497
 20
25.662282384
 10
11.2387271428
 20
25.6606282154
 10
11.2216124335
 20
25.6582602029
 10
11.2047404132
 20
25.6551801442
 10
11.1881238895
 20
25.6513903772
 10
11.1717754758
 20
25.6468937787
 10
11.155707582
 20
25.6416937621
 10
11.1399324051
 20
25.6357942747
 10
11.12446192
 20
25.6291997946
 10
11.1220437037
 20
25.6280934414
  0
LINE
  5
49B
100
AcDbEntity
  8
CORPO_STAMPATO
100
AcDbLine
 62
7
  6
CONTINUOUS
 10
11.9885360094
 20
25.6146630647
 11
13.0255676115
 21
25.0961472636
  0
LINE
  5
49C
100
AcDbEntity
  8
CORPO_STAMPATO
100
AcDbLine
 62
7
  6
CONTINUOUS
 10
18.0782757235
 20
22.5697932076
 11
17.4466366982
 21
22.8856127203
  0
LWPOLYLINE
  5
49D
100
AcDbEntity
  8
CORPO_STAMPATO
100
AcDbPolyline
 62
250
  6
CONTINUOUS
 90
58
 70
0
 10
18.9450392055
 20
20.0249128057
 10
18.9591134627
 20
20.0140377651
 10
19.0021444264
 20
19.9796071312
 10
19.0449416581
 20
19.9441766021
 10
19.0874858597
 20
19.907762152
 10
19.1297578041
 20
19.8703802355
 10
19.1717383781
 20
19.8320477545
 10
19.213408612
 20
19.7927820324
 10
19.2547497153
 20
19.7526007778
 10
19.295743053
 20
19.7115221027
 10
19.3363701367
 20
19.6695645321
 10
19.3766126091
 20
19.6267470226
 10
19.4164522808
 20
19.5830889274
 10
19.4558711535
 20
19.5386099714
 10
19.4948514478
 20
19.4933302183
 10
19.5333755869
 20
19.4472700855
 10
19.5714261912
 20
19.4004503506
 10
19.6089860722
 20
19.3528921621
 10
19.6460382596
 20
19.3046170074
 10
19.6825660193
 20
19.2556466907
 10
19.7185528711
 20
19.2060033072
 10
19.7539825807
 20
19.1557092517
 10
19.7888391601
 20
19.1047872193
 10
19.8231068683
 20
19.0532602049
 10
19.8567702298
 20
19.0011514785
 10
19.8898140456
 20
18.9484845677
 10
19.9222234022
 20
18.8952832426
 10
19.9539836724
 20
18.8415715148
 10
19.9850805195
 20
18.7873736298
 10
20.0154999053
 20
18.7327140543
 10
20.0452280989
 20
18.6776174606
 10
20.0742516822
 20
18.6221087171
 10
20.1025575516
 20
18.5662128843
 10
20.1301329253
 20
18.5099552025
 10
20.1569653521
 20
18.4533610751
 10
20.1830427234
 20
18.396456042
 10
20.2083532739
 20
18.3392657769
 10
20.2328855826
 20
18.2818160845
 10
20.2566285696
 20
18.22413291
 10
20.2795715086
 20
18.1662423131
 10
20.3017040373
 20
18.1081704425
 10
20.3230161716
 20
18.049943497
 10
20.3434983005
 20
17.9915877349
 10
20.3631411839
 20
17.9331294791
 10
20.381935947
 20
17.874595138
 10
20.3998740953
 20
17.8160111671
 10
20.4169475256
 20
17.757404035
 10
20.4331485385
 20
17.698800175
 10
20.4484698308
 20
17.640226005
 10
20.4629044916
 20
17.5817079403
 10
20.4764459968
 20
17.5232724231
 10
20.4890882244
 20
17.464945873
 10
20.5008254628
 20
17.4067546476
 10
20.511652421
 20
17.3487249868
 10
20.5215642197
 20
17.2908830426
 10
20.5305563856
 20
17.2332549115
 10
20.5386248558
 20
17.1758666226
 10
20.5457659871
 20
17.1187440821
  0
LWPOLYLINE
  5
49E
100
AcDbEntity
  8
CORPO_STAMPATO
100
AcDbPolyline
 62
250
  6
CONTINUOUS
 90
28
 70
0
 10
18.1433266906
 20
22.0438536187
 10
18.1287171901
 20
22.0688479378
 10
18.113686759
 20
22.0935094389
 10
18.0982481105
 20
22.1178172626
 10
18.082414303
 20
22.1417508486
 10
18.0661987292
 20
22.1652899533
 10
18.0496151046
 20
22.1884146665
 10
18.0326774562
 20
22.2111054288
 10
18.0154001103
 20
22.2333430477
 10
17.9977976805
 20
22.255108714
 10
17.9798850556
 20
22.2763840177
 10
17.9616773864
 20
22.2971509635
 10
17.9431900736
 20
22.3173919862
 10
17.9244387542
 20
22.3370899653
 10
17.9054392887
 20
22.3562282397
 10
17.8862077472
 20
22.3747906218
 10
17.8667603965
 20
22.392761411
 10
17.8471136855
 20
22.410125407
 10
17.8272842321
 20
22.4268679229
 10
17.8072888085
 20
22.4429747974
 10
17.7871443274
 20
22.458432407
 10
17.7668678277
 20
22.473227677
 10
17.7464764597
 20
22.4873480933
 10
17.725987471
 20
22.5007817123
 10
17.7054181918
 20
22.5135171717
 10
17.6847860201
 20
22.5255436993
 10
17.6641084073
 20
22.5368511228
 10
17.643402843
 20
22.547429878
  0
LINE
  5
49F
100
AcDbEntity
  8
CORPO_STAMPATO
100
AcDbLine
 62
7
  6
CONTINUOUS
 10
18.603071779
 20
21.9925735765
 11
18.4961699393
 21
22.1769519762
  0
ARC
  5
4A0
100
AcDbEntity
  8
CORPO_STAMPATO
100
AcDbCircle
 62
7
  6
CONTINUOUS
 10
11.5413224139
 20
24.7202358737
 40
1.0
100
AcDbArc
 50
63.4349488229
 51
114.7894524371
  0
ARC
  5
4A1
100
AcDbEntity
  8
CORPO_STAMPATO
100
AcDbCircle
 62
7
  6
CONTINUOUS
 10
17.9450392055
 20
-1.1643459504
 40
1.0
100
AcDbArc
 50
298.3476707551
 51
360.0
  0
ARC
  5
4A2
100
AcDbEntity
  8
CORPO_STAMPATO
100
AcDbCircle
 62
7
  6
CONTINUOUS
 10
17.631062128
 20
21.6753660166
 40
1.0
100
AcDbArc
 50
30.1049527557
 51
63.4349488229
  0
ARC
  5
4A3
100
AcDbEntity
  8
CORPO_STAMPATO
100
AcDbCircle
 62
7
  6
CONTINUOUS
 10
10.6111190177
 20
-13.8182973062
 40
1.0
100
AcDbArc
 50
297.8702635617
 51
305.9325291988
  0
ARC
  5
4A4
100
AcDbEntity
  8
CORPO_STAMPATO
100
AcDbCircle
 62
7
  6
CONTINUOUS
 10
-2.6000987252
 20
24.8710439279
 40
1.0
100
AcDbArc
 50
63.4349373369
 51
115.2504241015
  0
ARC
  5
4A5
100
AcDbEntity
  8
268140580
100
AcDbCircle
 62
7
  6
CONTINUOUS
 10
0.2883496433
 20
-22.9739073228
 40
0.4
100
AcDbArc
 50
292.7706722359
 51
295.7733104952
  0
ARC
  5
4A6
100
AcDbEntity
  8
268140580
100
AcDbCircle
 62
7
  6
CONTINUOUS
 10
-14.1317787912
 20
24.8070788971
 40
0.25
100
AcDbArc
 50
63.4349488229
 51
116.0730493911
  0
ARC
  5
4A7
100
AcDbEntity
  8
268140580
100
AcDbCircle
 62
7
  6
CONTINUOUS
 10
-16.2530991348
 20
23.769091793
 40
0.25
100
AcDbArc
 50
116.0730493911
 51
179.9983644966
  0
ARC
  5
4A8
100
AcDbEntity
  8
268140580
100
AcDbCircle
 62
7
  6
CONTINUOUS
 10
-16.2530991348
 20
23.4007812644
 40
0.25
100
AcDbArc
 50
180.0
 51
243.4365640263
  0
ARC
  5
4A9
100
AcDbEntity
  8
268140580
100
AcDbCircle
 62
7
  6
CONTINUOUS
 10
-14.9095962505
 20
22.7290298223
 40
0.25
100
AcDbArc
 50
243.4323386214
 51
258.2990804918
  0
ARC
  5
4AA
100
AcDbEntity
  8
268140580
100
AcDbCircle
 62
7
  6
CONTINUOUS
 10
-12.788275907
 20
24.135327455
 40
0.25
100
AcDbArc
 50
0.0000683861
 51
63.4331826614
  0
ARC
  5
4AB
100
AcDbEntity
  8
268140580
100
AcDbCircle
 62
7
  6
CONTINUOUS
 10
-12.788275907
 20
23.789689994
 40
0.25
100
AcDbArc
 50
320.360686548
 51
360.0
  0
ARC
  5
4AC
100
AcDbEntity
  8
268140580
100
AcDbCircle
 62
7
  6
CONTINUOUS
 10
-0.7674606268
 20
18.1249198149
 40
0.25
100
AcDbArc
 50
63.4349488229
 51
116.0730493911
  0
ARC
  5
4AD
100
AcDbEntity
  8
268140580
100
AcDbCircle
 62
7
  6
CONTINUOUS
 10
-2.8887809703
 20
17.0869327107
 40
0.25
100
AcDbArc
 50
116.0730493911
 51
179.9983644966
  0
ARC
  5
4AE
100
AcDbEntity
  8
268140580
100
AcDbCircle
 62
7
  6
CONTINUOUS
 10
-2.8887809703
 20
16.7186221822
 40
0.25
100
AcDbArc
 50
180.0
 51
243.4365640263
  0
ARC
  5
4AF
100
AcDbEntity
  8
268140580
100
AcDbCircle
 62
7
  6
CONTINUOUS
 10
-1.5452780861
 20
16.04687074
 40
0.25
100
AcDbArc
 50
243.4323386214
 51
258.2990804918
  0
ARC
  5
4B0
100
AcDbEntity
  8
268140580
100
AcDbCircle
 62
7
  6
CONTINUOUS
 10
0.5760422575
 20
17.4531683728
 40
0.25
100
AcDbArc
 50
0.0000683861
 51
63.4331826614
  0
ARC
  5
4B1
100
AcDbEntity
  8
268140580
100
AcDbCircle
 62
7
  6
CONTINUOUS
 10
0.5760422575
 20
17.1075309118
 40
0.25
100
AcDbArc
 50
320.360686548
 51
360.0
  0
ARC
  5
4B2
100
AcDbEntity
  8
268140580
100
AcDbCircle
 62
7
  6
CONTINUOUS
 10
-2.8887809703
 20
-24.9492924858
 40
0.25
100
AcDbArc
 50
179.999777014
 51
243.4334855434
  0
ARC
  5
4B3
100
AcDbEntity
  8
268140580
100
AcDbCircle
 62
7
  6
CONTINUOUS
 10
0.5760422575
 20
-24.1920732276
 40
0.25
100
AcDbArc
 50
359.9972787629
 51
63.444674315
  0
ARC
  5
4B4
100
AcDbEntity
  8
268140580
100
AcDbCircle
 62
7
  6
CONTINUOUS
 10
0.5760422575
 20
-24.5377106885
 40
0.25
100
AcDbArc
 50
297.051035757
 51
360.0
  0
ARC
  5
4B5
100
AcDbEntity
  8
268140580
100
AcDbCircle
 62
7
  6
CONTINUOUS
 10
-1.5452780861
 20
-25.6210439279
 40
0.25
100
AcDbArc
 50
243.433722507
 51
297.0528641899
  0
ELLIPSE
  5
4B6
100
AcDbEntity
  8
290140580
100
AcDbEllipse
 62
7
  6
CONTINUOUS
 10
-1.4392336114
 20
-5.1199736754
 30
0.0
 11
-0.0894323102
 21
0.1788913307
 31
0.0
 40
0.6125552124
 41
-2.255296188
 42
-0.6848044477
  0
ELLIPSE
  5
4B7
100
AcDbEntity
  8
290140580
100
AcDbEllipse
 62
7
  6
CONTINUOUS
 10
-2.2269574601
 20
-23.7808189195
 30
0.0
 11
-0.2234618187
 21
0.4480306886
 31
0.0
 40
0.6116748051
 41
-3.1815309152
 42
-2.2548620396
  0
ELLIPSE
  5
4B8
100
AcDbEntity
  8
290140600
100
AcDbEllipse
 62
7
  6
CONTINUOUS
 10
-1.4392336114
 20
-5.1199736754
 30
0.0
 11
-0.0894323102
 21
0.1788913307
 31
0.0
 40
0.6125552124
 41
-2.255296188
 42
-0.6848044477
  0
ELLIPSE
  5
4B9
100
AcDbEntity
  8
290140600
100
AcDbEllipse
 62
7
  6
CONTINUOUS
 10
-2.2269574601
 20
-23.7808189195
 30
0.0
 11
-0.2234618187
 21
0.4480306886
 31
0.0
 40
0.6116748051
 41
-3.1815309152
 42
-2.2548620396
  0
ELLIPSE
  5
4BA
100
AcDbEntity
  8
290140600
100
AcDbEllipse
 62
250
  6
CONTINUOUS
 10
351.4777753502
 20
168.3456520747
 30
0.0
 11
499.3666179528
 21
308.6255427419
 31
0.0
 40
0.0815198604
 41
2.327856785
 42
2.3368599773
  0
ELLIPSE
  5
4BB
100
AcDbEntity
  8
290140600
100
AcDbEllipse
 62
250
  6
CONTINUOUS
 10
329.5574651334
 20
179.305807183
 30
0.0
 11
-370.8956999625
 21
600.1218488205
 31
0.0
 40
0.5587454355
 41
1.5424586217
 42
1.5514618139
  0
ELLIPSE
  5
4BC
100
AcDbEntity
  8
290140600
100
AcDbEllipse
 62
7
  6
CONTINUOUS
 10
-17.1977653575
 20
21.1156939862
 30
0.0
 11
-0.2234618187
 21
0.4480306886
 31
0.0
 40
0.6116748051
 41
-0.6831523243
 42
0.0399382621
  0
ELLIPSE
  5
4BD
100
AcDbEntity
  8
290140600
100
AcDbEllipse
 62
7
  6
CONTINUOUS
 10
-1.4392336114
 20
-4.6869082055
 30
0.0
 11
-0.0894803643
 21
0.1789340454
 31
0.0
 40
0.6121897086
 41
-3.1606090032
 42
-2.2557347926
  0
ELLIPSE
  5
4BE
100
AcDbEntity
  8
290140600
100
AcDbEllipse
 62
7
  6
CONTINUOUS
 10
-2.2269574601
 20
13.6302900375
 30
0.0
 11
-0.2230998035
 21
0.4477110033
 31
0.0
 40
0.6127700112
 41
-2.2535417632
 42
-0.6836588249
  0
ELLIPSE
  5
4BF
100
AcDbEntity
  8
290140600
100
AcDbEllipse
 62
250
  6
CONTINUOUS
 10
351.4777753502
 20
168.2590495343
 30
0.0
 11
-370.8956999625
 21
600.1218488205
 31
0.0
 40
0.5587454355
 41
1.4894518793
 42
1.4984550715
  0
ELLIPSE
  5
4C0
100
AcDbEntity
  8
290140600
100
AcDbEllipse
 62
250
  6
CONTINUOUS
 10
329.5574651334
 20
179.2192046427
 30
0.0
 11
499.3666179528
 21
308.6255427419
 31
0.0
 40
0.0815198604
 41
2.2748500427
 42
2.2838532349
  0
ELLIPSE
  5
4C1
100
AcDbEntity
  8
290140580
100
AcDbEllipse
 62
7
  6
CONTINUOUS
 10
-17.1977653575
 20
21.1156939862
 30
0.0
 11
-0.2234618187
 21
0.4480306886
 31
0.0
 40
0.6116748051
 41
-0.6831523243
 42
0.0399382621
  0
ELLIPSE
  5
4C2
100
AcDbEntity
  8
290140580
100
AcDbEllipse
 62
7
  6
CONTINUOUS
 10
-1.4392336114
 20
-4.6869082055
 30
0.0
 11
-0.0894803643
 21
0.1789340454
 31
0.0
 40
0.6121897086
 41
-3.1606090032
 42
-2.2557347926
  0
ELLIPSE
  5
4C3
100
AcDbEntity
  8
290140580
100
AcDbEllipse
 62
7
  6
CONTINUOUS
 10
-2.2269574601
 20
13.6302900375
 30
0.0
 11
-0.2230998035
 21
0.4477110033
 31
0.0
 40
0.6127700112
 41
-2.2535417632
 42
-0.6836588249
  0
ELLIPSE
  5
4C4
100
AcDbEntity
  8
268140580
100
AcDbEllipse
 62
7
  6
CONTINUOUS
 10
-5.0856221731
 20
24.1832245812
 30
0.0
 11
0.2256808774
 21
0.4461742732
 31
0.0
 40
0.6158912572
 41
0.0028576383
 42
0.678850188
  0
ELLIPSE
  5
4C5
100
AcDbEntity
  8
268140580
100
AcDbEllipse
 62
7
  6
CONTINUOUS
 10
5.5179585938
 20
-18.005435241
 30
0.0
 11
0.9927147821
 21
0.620457446
 31
0.0
 40
0.0764819879
 41
-2.4101692607
 42
-0.8393729339
  0
ELLIPSE
  5
4C6
100
AcDbEntity
  8
268140580
100
AcDbEllipse
 62
7
  6
CONTINUOUS
 10
-5.9922196756
 20
24.8155411756
 30
0.0
 11
1.004787277
 21
0.6140102217
 31
0.0
 40
0.0864918533
 41
0.0540071275
 42
0.7387263463
  0
ELLIPSE
  5
4C7
100
AcDbEntity
  8
268140580
100
AcDbEllipse
 62
7
  6
CONTINUOUS
 10
1.0002632413
 20
-22.6301638377
 30
0.0
 11
-0.178948659
 21
0.3577665147
 31
0.0
 40
0.6123910759
 41
-3.1501448428
 42
-2.2556797026
  0
ELLIPSE
  5
4C8
100
AcDbEntity
  8
268140580
100
AcDbEllipse
 62
7
  6
CONTINUOUS
 10
1.0002632413
 20
15.4749539288
 30
0.0
 11
-0.178948659
 21
0.3577665147
 31
0.0
 40
0.6123910759
 41
-2.2556797026
 42
-0.6848833758
  0
ELLIPSE
  5
4C9
100
AcDbEntity
  8
268140580
100
AcDbEllipse
 62
7
  6
CONTINUOUS
 10
5.5179585938
 20
19.0604520409
 30
0.0
 11
-0.7356038977
 21
1.2035991204
 31
0.0
 40
0.5552491559
 41
4.67069225
 42
6.2414885768
  0
ELLIPSE
  5
4CA
100
AcDbEntity
  8
268140580
100
AcDbEllipse
 62
7
  6
CONTINUOUS
 10
-10.7051582653
 20
21.6897192633
 30
0.0
 11
0.2999981629
 21
-0.0021225547
 31
0.0
 40
0.4946372042
 41
2.3539345592
 42
3.9304904725
  0
ELLIPSE
  5
4CB
100
AcDbEntity
  8
268140580
100
AcDbEllipse
 62
7
  6
CONTINUOUS
 10
-0.7983601986
 20
-23.4300639738
 30
0.0
 11
-0.1787694549
 21
0.3584245509
 31
0.0
 40
0.6116748051
 41
2.4584403293
 42
4.0283232676
  0
ELLIPSE
  5
4CC
100
AcDbEntity
  8
268140580
100
AcDbEllipse
 62
7
  6
CONTINUOUS
 10
-4.1932465964
 20
17.5415103957
 30
0.0
 11
0.0886237691
 21
0.1792940454
 31
0.0
 40
0.6088373611
 41
0.6819330809
 42
0.7342929585
  0
ELLIPSE
  5
4CD
100
AcDbEntity
  8
268140580
100
AcDbEllipse
 62
7
  6
CONTINUOUS
 10
1.0758271854
 20
21.1024999019
 30
0.0
 11
0.2215594226
 21
0.4482351134
 31
0.0
 40
0.6088373611
 41
5.3943220613
 42
6.9563917418
  0
ELLIPSE
  5
4CE
100
AcDbEntity
  8
268140580
100
AcDbEllipse
 62
7
  6
CONTINUOUS
 10
-0.8381713049
 20
15.0928580205
 30
0.0
 11
0.249929385
 21
0.0111824824
 31
0.0
 40
0.5313301283
 41
-2.3799630874
 42
-0.8091667606
  0
ELLIPSE
  5
4CF
100
AcDbEntity
  8
268140580
100
AcDbEllipse
 62
7
  6
CONTINUOUS
 10
-2.1816741892
 20
15.7646094626
 30
0.0
 11
0.249929385
 21
0.0111824824
 31
0.0
 40
0.5313301283
 41
3.1178240563
 42
3.9032222197
  0
ELLIPSE
  5
4D0
100
AcDbEntity
  8
268140580
100
AcDbEllipse
 62
7
  6
CONTINUOUS
 10
-14.2024894693
 20
21.7750171027
 30
0.0
 11
0.249929385
 21
0.0111824824
 31
0.0
 40
0.5313301283
 41
-2.3799630874
 42
-0.8091667606
  0
ELLIPSE
  5
4D1
100
AcDbEntity
  8
268140580
100
AcDbEllipse
 62
7
  6
CONTINUOUS
 10
-15.9393568505
 20
22.1084419248
 30
0.0
 11
-0.1787694549
 21
0.3584245509
 31
0.0
 40
0.6116748051
 41
-0.6831523243
 42
0.886730614
  0
ELLIPSE
  5
4D2
100
AcDbEntity
  8
268140580
100
AcDbEllipse
 62
7
  6
CONTINUOUS
 10
-0.7983601986
 20
14.5379435988
 30
0.0
 11
-0.1784798428
 21
0.3581688027
 31
0.0
 40
0.6127700112
 41
-2.2535417632
 42
-0.6836588249
  0
ELLIPSE
  5
4D3
100
AcDbEntity
  8
268140580
100
AcDbEllipse
 62
7
  6
CONTINUOUS
 10
-15.5459923536
 20
22.4467685448
 30
0.0
 11
0.249929385
 21
0.0111824824
 31
0.0
 40
0.5313301283
 41
3.1178240563
 42
3.9032222197
  0
ELLIPSE
  5
4D4
100
AcDbEntity
  8
268140580
100
AcDbEllipse
 62
7
  6
CONTINUOUS
 10
-4.9011879339
 20
17.5382376221
 30
0.0
 11
0.2999152621
 21
0.0134189789
 31
0.0
 40
0.5313301283
 41
-2.3799630874
 42
-0.8034071741
  0
ELLIPSE
  5
4D5
100
AcDbEntity
  8
268140580
100
AcDbEllipse
 62
7
  6
CONTINUOUS
 10
-4.9011879339
 20
18.7877340976
 30
0.0
 11
0.2999981629
 21
-0.0021225547
 31
0.0
 40
0.4946372042
 41
-2.3526948347
 42
-0.7761389213
  0
ELLIPSE
  5
4D6
100
AcDbEntity
  8
268140580
100
AcDbEllipse
 62
7
  6
CONTINUOUS
 10
-10.7051582653
 20
20.4402227878
 30
0.0
 11
0.2999152621
 21
0.0134189789
 31
0.0
 40
0.5313301283
 41
3.1178240578
 42
3.9032222197
  0
ELLIPSE
  5
4D7
100
AcDbEntity
  8
CORPO_STAMPATO
100
AcDbEllipse
 62
7
  6
CONTINUOUS
 10
11.9251060955
 20
20.993390166
 30
0.0
 11
2.7499831596
 21
-0.0194567514
 31
0.0
 40
0.4946372042
 41
0.4291636923
 42
2.3596941457
  0
ELLIPSE
  5
4D8
100
AcDbEntity
  8
CORPO_STAMPATO
100
AcDbEllipse
 62
7
  6
CONTINUOUS
 10
11.2533546534
 20
21.0917947982
 30
0.0
 11
2.7499831596
 21
-0.0194567514
 31
0.0
 40
0.4946372042
 41
2.3596941457
 42
2.9254696648
  0
ELLIPSE
  5
4D9
100
AcDbEntity
  8
CORPO_STAMPATO
100
AcDbEllipse
 62
7
  6
CONTINUOUS
 10
16.6787373077
 20
22.1515284268
 30
0.0
 11
0.7964780511
 21
0.7125399777
 31
0.0
 40
0.2888664458
 41
0.1139832129
 42
0.7812491238
  0
ELLIPSE
  5
4DA
100
AcDbEntity
  8
CORPO_STAMPATO
100
AcDbEllipse
 62
7
  6
CONTINUOUS
 10
12.8990398109
 20
24.0413771752
 30
0.0
 11
-0.309899001
 21
1.1085475855
 31
0.0
 40
0.6753891016
 41
4.9647984111
 42
6.4012160802
  0
ELLIPSE
  5
4DB
100
AcDbEntity
  8
CORPO_STAMPATO
100
AcDbEllipse
 62
7
  6
CONTINUOUS
 10
11.9251060955
 20
21.4204907145
 30
0.0
 11
2.7499831596
 21
-0.0194567514
 31
0.0
 40
0.4946372042
 41
0.1760698615
 42
2.3596941457
  0
ELLIPSE
  5
4DC
100
AcDbEntity
  8
CORPO_STAMPATO
100
AcDbEllipse
 62
7
  6
CONTINUOUS
 10
-6.3695294493
 20
20.44781191
 30
0.0
 11
1.2141619185
 21
0.9541526469
 31
0.0
 40
0.2329077568
 41
0.1095198182
 42
0.114024621
  0
ENDSEC
  0
SECTION
  2
OBJECTS
  0
DICTIONARY
  5
C
100
AcDbDictionary
280
0
281
1
  3
ACAD_GROUP
350
D
  3
ACAD_MLINESTYLE
350
17
  3
ACAD_LAYOUT
350
1A
  3
ACAD_PLOTSETTINGS
350
19
  3
ACAD_PLOTSTYLENAME
350
E
  0
DICTIONARY
  5
D
102
{ACAD_REACTORS
330
C
102
}
100
AcDbDictionary
280
0
281
1
  0
ACDBDICTIONARYWDFLT
  5
E
102
{ACAD_REACTORS
330
C
102
}
100
AcDbDictionary
281
1
  3
Normal
350
F
100
AcDbDictionaryWithDefault
340
F
  0
DICTIONARY
  5
17
102
{ACAD_REACTORS
330
C
102
}
100
AcDbDictionary
280
0
281
1
  3
Standard
350
18
  0
DICTIONARY
  5
19
102
{ACAD_REACTORS
330
C
102
}
100
AcDbDictionary
281
1
  0
DICTIONARY
  5
1A
102
{ACAD_REACTORS
330
C
102
}
100
AcDbDictionary
281
1
  3
Model
350
4DD
  3
Layout1
350
4DE
  0
ACDBPLACEHOLDER
  5
F
102
{ACAD_REACTORS
330
E
102
}
  0
MLINESTYLE
  5
18
102
{ACAD_REACTORS
330
17
102
}
100
AcDbMlineStyle
  2
STANDARD
 70
0
  3

 62
256
 51
90.0
 52
90.0
 71
2
 49
0.5
 62
256
  6
BYLAYER
 49
-0.5
 62
256
  6
BYLAYER
  0
LAYOUT
  5
4DD
102
{ACAD_REACTORS
330
1A
102
}
100
AcDbPlotSettings
  1

  2
none_device
  4
ANSI_C_(22.00_x_17.00_Inches)
  6

 40
0.0
 41
0.0
 42
0.0
 43
0.0
 44
558.8
 45
431.8
 46
0.0
 47
0.0
 48
0.0
 49
0.0
140
0.0
141
0.0
142
1.0
143
1.0
 70
1024
 72
1
 73
0
 74
0
  7

 75
0
147
1.0
148
0.0
149
0.0
100
AcDbLayout
  1
Model
 70
0
 71
0
 10
0.0
 20
0.0
 11
558.8
 21
431.8
 12
0.0
 22
0.0
 32
0.0
 14
0.0
 24
0.0
 34
0.0
 15
0.0
 25
0.0
 35
0.0
146
0.0
 13
0.0
 23
0.0
 33
0.0
 16
1.0
 26
0.0
 36
0.0
 17
0.0
 27
1.0
 37
0.0
 76
0
330
22A
345
0
346
0
  0
LAYOUT
  5
4DE
102
{ACAD_REACTORS
330
1A
102
}
100
AcDbPlotSettings
  1

  2
none_device
  4
ANSI_C_(22.00_x_17.00_Inches)
  6

 40
0.0
 41
0.0
 42
0.0
 43
0.0
 44
558.8
 45
431.8
 46
0.0
 47
0.0
 48
0.0
 49
0.0
140
0.0
141
0.0
142
1.0
143
1.0
 70
0
 72
1
 73
0
 74
0
  7

 75
0
147
1.0
148
0.0
149
0.0
100
AcDbLayout
  1
Layout1
 70
0
 71
1
 10
0.0
 20
0.0
 11
558.8
 21
431.8
 12
0.0
 22
0.0
 32
0.0
 14
0.0
 24
0.0
 34
0.0
 15
0.0
 25
0.0
 35
0.0
146
0.0
 13
0.0
 23
0.0
 33
0.0
 16
1.0
 26
0.0
 36
0.0
 17
0.0
 27
1.0
 37
0.0
 76
0
330
22B
345
0
346
0
  0
ENDSEC
  0
EOF
