  0
SECTION
  2
HEADER
  9
$ACADVER
  1
AC1021
  9
$DWGCODEPAGE
  3
ANSI_1252
  9
$EXTMAX
 10
558.8
 20
431.8
 30
0.0
  9
$EXTMIN
 10
0.0
 20
0.0
 30
0.0
  9
$LIMMIN
 10
0.0
 20
0.0
  9
$LIMMAX
 10
558.8
 20
431.8
  9
$VIEWCTR
 10
279.4
 20
215.9
  9
$VIEWSIZE
 40
431.8
  9
$CLAYER
  8
0
  9
$LTSCALE
 40
30.734
  9
$CELTYPE
  6
BYLAYER
  9
$DIMSCALE
 40
1.0
  9
$DIMASZ
 40
3.0
  9
$DIMEXO
 40
0.5
  9
$DIMDLI
 40
21.2344
  9
$DIMEXE
 40
1.5
  9
$DIMCEN
 40
5.0292
  9
$DIMLFAC
 40
1.0
  9
$DIMBLK
  1
_FILLED
  9
$DIMALT
 70
0
  9
$DIMALTF
 40
25.4
  9
$DIMTXT
 40
3.0
  9
$DIMTOL
 70
1
  9
$DIMLIM
 70
0
  9
$DIMTFAC
 40
1.0
  9
$DIMTP
 40
0.01
  9
$DIMTM
 40
0.01
  9
$DIMGAP
 40
0.625
  9
$DIMDSEP
 70
44
  9
$AUNITS
 70
0
  9
$PDMODE
 70
3
  9
$PDSIZE
 40
3.0
  9
$HANDSEED
  5
4CB
  9
$TILEMODE
 70
1
  9
$MEASUREMENT
 70
1
  9
$INSUNITS
 70
4
  0
ENDSEC
  0
SECTION
  2
CLASSES
  0
CLASS
  1
ACDBDICTIONARYWDFLT
  2
AcDbDictionaryWithDefault
  3
AutoCAD 2000
 90
0
 91
1
280
0
281
0
  0
CLASS
  1
ACDBPLACEHOLDER
  2
AcDbPlaceHolder
  3
AutoCAD 2000
 90
0
 91
1
280
0
281
0
  0
CLASS
  1
LAYOUT
  2
AcDbLayout
  3
AutoCAD 2000
 90
0
 91
0
280
0
281
0
  0
ENDSEC
  0
SECTION
  2
TABLES
  0
TABLE
  2
VPORT
  5
8
100
AcDbSymbolTable
 70
2
  0
VPORT
  5
1F4
100
AcDbSymbolTableRecord
100
AcDbViewportTableRecord
  2
*ACTIVE
 70
0
 10
0.0
 20
0.0
 11
1.0
 21
1.0
 12
279.4
 22
215.9
 13
0.0
 23
0.0
 14
1.0
 24
1.0
 15
0.0
 25
0.0
 16
0.0
 26
0.0
 36
1.0
 17
0.0
 27
0.0
 37
0.0
 40
431.8
 41
1.2941176471
 42
50.0
 43
0.0
 44
0.0
 50
0.0
 51
0.0
 71
0
 72
100
 73
1
 74
1
 75
0
 76
0
 77
0
 78
0
  0
ENDTAB
  0
TABLE
  2
LTYPE
  5
5
100
AcDbSymbolTable
 70
6
  0
LTYPE
  5
14
100
AcDbSymbolTableRecord
100
AcDbLinetypeTableRecord
  2
BYBLOCK
 70
0
  3

 72
65
 73
0
 40
0.0
  0
LTYPE
  5
15
100
AcDbSymbolTableRecord
100
AcDbLinetypeTableRecord
  2
BYLAYER
 70
0
  3

 72
65
 73
0
 40
0.0
  0
LTYPE
  5
16
100
AcDbSymbolTableRecord
100
AcDbLinetypeTableRecord
  2
CONTINUOUS
 70
64
  3
Solid line
 72
65
 73
0
 40
0.0
  0
LTYPE
  5
1F5
100
AcDbSymbolTableRecord
100
AcDbLinetypeTableRecord
  2
CENTER
 70
64
  3
____ _ ____ _ ____ _ ____ _ ____ _ ____ _ ____
 72
65
 73
4
 40
0.6
 49
0.375
 74
0
 49
-0.075
 74
0
 49
0.075
 74
0
 49
-0.075
 74
0
  0
LTYPE
  5
1F6
100
AcDbSymbolTableRecord
100
AcDbLinetypeTableRecord
  2
HIDDEN
 70
64
  3
- - - - - - - - - - - - - - - - - - - -
 72
65
 73
2
 40
0.2
 49
0.1
 74
0
 49
-0.1
 74
0
  0
LTYPE
  5
1F7
100
AcDbSymbolTableRecord
100
AcDbLinetypeTableRecord
  2
PHANTOM
 70
64
  3
_____ _ _ _____ _ _ _____ _ _ _____
 72
65
 73
6
 40
0.8
 49
0.45
 74
0
 49
-0.05
 74
0
 49
0.1
 74
0
 49
-0.05
 74
0
 49
0.1
 74
0
 49
-0.05
 74
0
  0
LTYPE
  5
1F8
100
AcDbSymbolTableRecord
100
AcDbLinetypeTableRecord
  2
DOT
 70
64
  3
. . . . . . . . . . . . . . . . . . . .
 72
65
 73
2
 40
0.2
 49
0.1
 74
0
 49
-0.1
 74
0
  0
LTYPE
  5
1F9
100
AcDbSymbolTableRecord
100
AcDbLinetypeTableRecord
  2
DASHED
 70
64
  3
- - - - - - - - - - - - - - - - - - - -
 72
65
 73
2
 40
0.2
 49
0.1
 74
0
 49
-0.1
 74
0
  0
ENDTAB
  0
TABLE
  2
LAYER
  5
2
100
AcDbSymbolTable
 70
36
  0
LAYER
  5
10
100
AcDbSymbolTableRecord
100
AcDbLayerTableRecord
  2
0
 70
0
 62
7
  6
CONTINUOUS
370
-3
390
F
  0
LAYER
  5
1FA
100
AcDbSymbolTableRecord
100
AcDbLayerTableRecord
  2
DEFAULT_1
 70
0
 62
7
  6
CENTER
370
-3
390
F
  0
LAYER
  5
1FB
100
AcDbSymbolTableRecord
100
AcDbLayerTableRecord
  2
DEFAULT_2
 70
0
 62
7
  6
HIDDEN
370
-3
390
F
  0
LAYER
  5
1FC
100
AcDbSymbolTableRecord
100
AcDbLayerTableRecord
  2
DEFAULT_3
 70
0
 62
7
  6
PHANTOM
370
-3
390
F
  0
LAYER
  5
1FD
100
AcDbSymbolTableRecord
100
AcDbLayerTableRecord
  2
206140620
 70
0
 62
7
  6
CONTINUOUS
370
-3
390
F
  0
LAYER
  5
1FE
100
AcDbSymbolTableRecord
100
AcDbLayerTableRecord
  2
268140580
 70
0
 62
7
  6
CONTINUOUS
370
-3
390
F
  0
LAYER
  5
1FF
100
AcDbSymbolTableRecord
100
AcDbLayerTableRecord
  2
284140580
 70
0
 62
7
  6
CONTINUOUS
370
-3
390
F
  0
LAYER
  5
200
100
AcDbSymbolTableRecord
100
AcDbLayerTableRecord
  2
290140580
 70
0
 62
7
  6
CONTINUOUS
370
-3
390
F
  0
LAYER
  5
201
100
AcDbSymbolTableRecord
100
AcDbLayerTableRecord
  2
290140600
 70
0
 62
7
  6
CONTINUOUS
370
-3
390
F
  0
LAYER
  5
202
100
AcDbSymbolTableRecord
100
AcDbLayerTableRecord
  2
340016100
 70
0
 62
7
  6
CONTINUOUS
370
-3
390
F
  0
LAYER
  5
203
100
AcDbSymbolTableRecord
100
AcDbLayerTableRecord
  2
712140660
 70
0
 62
7
  6
CONTINUOUS
370
-3
390
F
  0
LAYER
  5
204
100
AcDbSymbolTableRecord
100
AcDbLayerTableRecord
  2
715140040
 70
0
 62
7
  6
CONTINUOUS
370
-3
390
F
  0
LAYER
  5
205
100
AcDbSymbolTableRecord
100
AcDbLayerTableRecord
  2
ASSI
 70
0
 62
7
  6
CONTINUOUS
370
-3
390
F
  0
LAYER
  5
206
100
AcDbSymbolTableRecord
100
AcDbLayerTableRecord
  2
COLOR5
 70
0
 62
7
  6
CONTINUOUS
370
-3
390
F
  0
LAYER
  5
207
100
AcDbSymbolTableRecord
100
AcDbLayerTableRecord
  2
COORDINATE
 70
0
 62
7
  6
CONTINUOUS
370
-3
390
F
  0
LAYER
  5
208
100
AcDbSymbolTableRecord
100
AcDbLayerTableRecord
  2
COORD_ORIGINE
 70
0
 62
7
  6
CONTINUOUS
370
-3
390
F
  0
LAYER
  5
209
100
AcDbSymbolTableRecord
100
AcDbLayerTableRecord
  2
COPY-PUBBLISH
 70
0
 62
7
  6
CONTINUOUS
370
-3
390
F
  0
LAYER
  5
20A
100
AcDbSymbolTableRecord
100
AcDbLayerTableRecord
  2
CORPO_INCISO
 70
0
 62
7
  6
CONTINUOUS
370
-3
390
F
  0
LAYER
  5
20B
100
AcDbSymbolTableRecord
100
AcDbLayerTableRecord
  2
CORPO_STAMPATO
 70
0
 62
7
  6
CONTINUOUS
370
-3
390
F
  0
LAYER
  5
20C
100
AcDbSymbolTableRecord
100
AcDbLayerTableRecord
  2
COSMETICHE
 70
0
 62
7
  6
CONTINUOUS
370
-3
390
F
  0
LAYER
  5
20D
100
AcDbSymbolTableRecord
100
AcDbLayerTableRecord
  2
CURVA_CENTRALE
 70
0
 62
7
  6
CONTINUOUS
370
-3
390
F
  0
LAYER
  5
20E
100
AcDbSymbolTableRecord
100
AcDbLayerTableRecord
  2
CURVE
 70
0
 62
7
  6
CONTINUOUS
370
-3
390
F
  0
LAYER
  5
20F
100
AcDbSymbolTableRecord
100
AcDbLayerTableRecord
  2
DRAFT
 70
0
 62
7
  6
CONTINUOUS
370
-3
390
F
  0
LAYER
  5
210
100
AcDbSymbolTableRecord
100
AcDbLayerTableRecord
  2
IGES_INCISIONI
 70
0
 62
7
  6
CONTINUOUS
370
-3
390
F
  0
LAYER
  5
211
100
AcDbSymbolTableRecord
100
AcDbLayerTableRecord
  2
INCISIONI_LASER
 70
0
 62
7
  6
CONTINUOUS
370
-3
390
F
  0
LAYER
  5
212
100
AcDbSymbolTableRecord
100
AcDbLayerTableRecord
  2
INTF_1
 70
0
 62
7
  6
CONTINUOUS
370
-3
390
F
  0
LAYER
  5
213
100
AcDbSymbolTableRecord
100
AcDbLayerTableRecord
  2
INTF_11
 70
0
 62
7
  6
CONTINUOUS
370
-3
390
F
  0
LAYER
  5
214
100
AcDbSymbolTableRecord
100
AcDbLayerTableRecord
  2
INTF_2
 70
0
 62
7
  6
CONTINUOUS
370
-3
390
F
  0
LAYER
  5
215
100
AcDbSymbolTableRecord
100
AcDbLayerTableRecord
  2
INTF_RED
 70
0
 62
7
  6
CONTINUOUS
370
-3
390
F
  0
LAYER
  5
216
100
AcDbSymbolTableRecord
100
AcDbLayerTableRecord
  2
INTF_YELLOW
 70
0
 62
7
  6
CONTINUOUS
370
-3
390
F
  0
LAYER
  5
217
100
AcDbSymbolTableRecord
100
AcDbLayerTableRecord
  2
NOTE
 70
0
 62
7
  6
CONTINUOUS
370
-3
390
F
  0
LAYER
  5
218
100
AcDbSymbolTableRecord
100
AcDbLayerTableRecord
  2
PIANI
 70
0
 62
7
  6
CONTINUOUS
370
-3
390
F
  0
LAYER
  5
219
100
AcDbSymbolTableRecord
100
AcDbLayerTableRecord
  2
PIANI_CONTATTI
 70
0
 62
7
  6
CONTINUOUS
370
-3
390
F
  0
LAYER
  5
21A
100
AcDbSymbolTableRecord
100
AcDbLayerTableRecord
  2
PIANI_ORIGINE
 70
0
 62
7
  6
CONTINUOUS
370
-3
390
F
  0
LAYER
  5
21B
100
AcDbSymbolTableRecord
100
AcDbLayerTableRecord
  2
PIANI_RIFERIMENTO
 70
0
 62
7
  6
CONTINUOUS
370
-3
390
F
  0
LAYER
  5
21C
100
AcDbSymbolTableRecord
100
AcDbLayerTableRecord
  2
PIANI_SFORMI
 70
0
 62
7
  6
CONTINUOUS
370
-3
390
F
  0
LAYER
  5
21D
100
AcDbSymbolTableRecord
100
AcDbLayerTableRecord
  2
PUNTI
 70
0
 62
7
  6
CONTINUOUS
370
-3
390
F
  0
LAYER
  5
21E
100
AcDbSymbolTableRecord
100
AcDbLayerTableRecord
  2
RACCORDO
 70
0
 62
7
  6
CONTINUOUS
370
-3
390
F
  0
LAYER
  5
21F
100
AcDbSymbolTableRecord
100
AcDbLayerTableRecord
  2
RGB__255__255__255__
 70
0
 62
7
  6
CONTINUOUS
370
-3
390
F
  0
LAYER
  5
220
100
AcDbSymbolTableRecord
100
AcDbLayerTableRecord
  2
SMUSSO
 70
0
 62
7
  6
CONTINUOUS
370
-3
390
F
  0
LAYER
  5
221
100
AcDbSymbolTableRecord
100
AcDbLayerTableRecord
  2
SNAPLINE
 70
0
 62
7
  6
CONTINUOUS
370
-3
390
F
  0
LAYER
  5
222
100
AcDbSymbolTableRecord
100
AcDbLayerTableRecord
  2
SUPERFICI
 70
0
 62
7
  6
CONTINUOUS
370
-3
390
F
  0
LAYER
  5
223
100
AcDbSymbolTableRecord
100
AcDbLayerTableRecord
  2
TRACCIABILITA
 70
0
 62
7
  6
CONTINUOUS
370
-3
390
F
  0
LAYER
  5
224
100
AcDbSymbolTableRecord
100
AcDbLayerTableRecord
  2
TRASH
 70
0
 62
7
  6
CONTINUOUS
370
-3
390
F
  0
LAYER
  5
225
100
AcDbSymbolTableRecord
100
AcDbLayerTableRecord
  2
WHITE
 70
0
 62
7
  6
CONTINUOUS
370
-3
390
F
  0
LAYER
  5
226
100
AcDbSymbolTableRecord
100
AcDbLayerTableRecord
  2
XSEC_DATUMS
 70
0
 62
7
  6
CONTINUOUS
370
-3
390
F
  0
ENDTAB
  0
TABLE
  2
STYLE
  5
3
100
AcDbSymbolTable
 70
1
  0
STYLE
  5
11
100
AcDbSymbolTableRecord
100
AcDbTextStyleTableRecord
  2
STANDARD
 70
0
 40
0.0
 41
0.8
 50
0.0
 71
0
 42
0.2
  3
txt
  4

  0
STYLE
  5
227
100
AcDbSymbolTableRecord
100
AcDbTextStyleTableRecord
  2
TEXTSTYLE_1
 70
0
 40
0.0
 41
0.8
 50
0.0
 71
0
 42
0.2
  3
gdt
  4

  0
ENDTAB
  0
TABLE
  2
VIEW
  5
6
100
AcDbSymbolTable
 70
0
  0
ENDTAB
  0
TABLE
  2
UCS
  5
7
100
AcDbSymbolTable
 70
0
  0
ENDTAB
  0
TABLE
  2
APPID
  5
9
100
AcDbSymbolTable
 70
1
  0
APPID
  5
228
100
AcDbSymbolTableRecord
100
AcDbRegAppTableRecord
  2
ACAD
 70
0
  0
ENDTAB
  0
TABLE
  2
BLOCK_RECORD
  5
1
100
AcDbSymbolTable
 70
0
  0
BLOCK_RECORD
  5
229
100
AcDbSymbolTableRecord
100
AcDbBlockTableRecord
  2
*Model_Space
  0
BLOCK_RECORD
  5
22A
100
AcDbSymbolTableRecord
100
AcDbBlockTableRecord
  2
*Paper_Space
  0
BLOCK_RECORD
  5
22B
100
AcDbSymbolTableRecord
100
AcDbBlockTableRecord
  2
_FILLED
  0
ENDTAB
  0
TABLE
  2
DIMSTYLE
  5
A
100
AcDbSymbolTable
 70
1
100
AcDbDimStyleTable
 71
0
  0
DIMSTYLE
105
22C
100
AcDbSymbolTableRecord
100
AcDbDimStyleTableRecord
  2
STANDARD
 70
0
  3

  4

 40
1.0
 41
3.0
 42
0.5
 43
0.38
 44
1.5
 45
0.0
 46
0.0
 47
0.01
 48
0.01
140
3.0
141
0.09
142
0.0
143
25.4
144
1.0
145
0.0
146
1.0
147
0.625
 71
1.0
 72
0.0
 73
0
 74
0
 75
0
 76
0
 77
1
 78
8
 79
2
170
0
171
1
172
0
173
0
174
0
175
0
176
0
177
0
178
0
270
2
179
2
271
2
272
2
273
2
274
2
275
0
280
0
281
0
282
0
283
1
284
8
285
0
286
0
287
3
288
0
340
11
278
44
341
22B
342
22B
343
22B
344
22B
  0
ENDTAB
  0
ENDSEC
  0
SECTION
  2
BLOCKS
  0
BLOCK
  5
20
100
AcDbEntity
  8
0
100
AcDbBlockBegin
  2
*Model_Space
 70
0
 10
0.0
 20
0.0
 30
0.0
  3
*Model_Space
  1

  0
ENDBLK
  5
21
100
AcDbEntity
  8
0
100
AcDbBlockEnd
  0
BLOCK
  5
1C
100
AcDbEntity
  8
0
100
AcDbBlockBegin
  2
*Paper_Space
 70
0
 10
0.0
 20
0.0
 30
0.0
  3
*Paper_Space
  1

  0
ENDBLK
  5
1D
100
AcDbEntity
  8
0
100
AcDbBlockEnd
  0
BLOCK
  5
22D
100
AcDbEntity
  8
0
100
AcDbBlockBegin
  2
_FILLED
 70
64
 10
0.0
 20
0.0
  3
_FILLED
  1

  0
SOLID
  5
22E
100
AcDbEntity
  8
0
  6
BYBLOCK
 62
0
100
AcDbTrace
 10
0.0
 20
0.0
 11
-1.0
 21
0.3166666667
 12
-1.0
 22
-0.3166666667
 13
-1.0
 23
-0.3166666667
  0
ENDBLK
  5
22F
100
AcDbEntity
  8
0
  6
BYBLOCK
 62
0
100
AcDbBlockEnd
  0
ENDSEC
  0
SECTION
  2
ENTITIES
  0
LWPOLYLINE
  5
230
100
AcDbEntity
  8
290140600
100
AcDbPolyline
 62
250
  6
CONTINUOUS
 90
4
 70
0
 10
-18.8495237537
 20
21.5213684211
 10
-18.7901924943
 20
21.5628143843
 10
-18.7298761536
 20
21.5973810354
 10
-18.6688778151
 20
21.6248961003
  0
LWPOLYLINE
  5
231
100
AcDbEntity
  8
290140580
100
AcDbPolyline
 62
250
  6
CONTINUOUS
 90
4
 70
0
 10
-18.8495237537
 20
21.5213684211
 10
-18.7901924943
 20
21.5628143843
 10
-18.7298761536
 20
21.5973810354
 10
-18.6688778151
 20
21.6248961003
  0
LWPOLYLINE
  5
232
100
AcDbEntity
  8
268140580
100
AcDbPolyline
 62
250
  6
CONTINUOUS
 90
28
 70
0
 10
-16.2420469233
 20
24.8270417434
 10
-16.2506894345
 20
24.8241953663
 10
-16.2592885463
 20
24.8205198011
 10
-16.2678148378
 20
24.8160276232
 10
-16.2762391373
 20
24.8107342021
 10
-16.2845326223
 20
24.8046576485
 10
-16.2926669176
 20
24.7978187526
 10
-16.3006141928
 20
24.7902409128
 10
-16.3083472572
 20
24.7819500557
 10
-16.3158396531
 20
24.7729745476
 10
-16.3230657463
 20
24.7633450968
 10
-16.3300008136
 20
24.7530946494
 10
-16.3366211275
 20
24.742258276
 10
-16.3429040375
 20
24.7308730519
 10
-16.3488280474
 20
24.7189779301
 10
-16.354372889
 20
24.7066136083
 10
-16.3595195912
 20
24.6938223896
 10
-16.3642505452
 20
24.6806480374
 10
-16.3685495648
 20
24.6671356261
 10
-16.3724019413
 20
24.6533313867
 10
-16.3757944944
 20
24.6392825486
 10
-16.3787156168
 20
24.6250371783
 10
-16.3811553143
 20
24.6106440144
 10
-16.3831052398
 20
24.5961523014
 10
-16.3845587219
 20
24.5816116207
 10
-16.3855107876
 20
24.5670717216
 10
-16.3859581796
 20
24.5525823503
 10
-16.3858993671
 20
24.5381930805
  0
LWPOLYLINE
  5
233
100
AcDbEntity
  8
268140580
100
AcDbPolyline
 62
250
  6
CONTINUOUS
 90
14
 70
0
 10
-12.7298848594
 20
24.860176785
 10
-12.7224383018
 20
24.8624903769
 10
-12.715557405
 20
24.8648689131
 10
-12.7092620788
 20
24.8673060136
 10
-12.703569539
 20
24.8697956551
 10
-12.6984979766
 20
24.8723305922
 10
-12.6940651526
 20
24.8749022891
 10
-12.6902839962
 20
24.8775031077
 10
-12.6871638096
 20
24.8801264888
 10
-12.6847130841
 20
24.8827653174
 10
-12.6829385678
 20
24.8854124128
 10
-12.6818452405
 20
24.8880604643
 10
-12.6814361611
 20
24.8907021278
 10
-12.6814351926
 20
24.8911709046
  0
LWPOLYLINE
  5
234
100
AcDbEntity
  8
290140600
100
AcDbPolyline
 62
7
  6
CONTINUOUS
 90
22
 70
0
 10
-18.8268399419
 20
21.605345483
 10
-18.8523254584
 20
21.5948151333
 10
-18.9223651756
 20
21.5611658333
 10
-18.9916128727
 20
21.5206964459
 10
-19.0600606629
 20
21.4729875963
 10
-19.1269070906
 20
21.4181554089
 10
-19.1908082442
 20
21.3571560535
 10
-19.2515476691
 20
21.2902394575
 10
-19.3091177679
 20
21.2173976785
 10
-19.3628130617
 20
21.1396312676
 10
-19.4125209933
 20
21.0573223917
 10
-19.4582771008
 20
20.9705496809
 10
-19.4997396172
 20
20.8801798646
 10
-19.5368729555
 20
20.7865279351
 10
-19.5696290833
 20
20.6898801735
 10
-19.5977512702
 20
20.591315527
 10
-19.6212297861
 20
20.4912427482
 10
-19.6400681834
 20
20.3899904997
 10
-19.6541686296
 20
20.2886591027
 10
-19.6635717446
 20
20.1878692272
 10
-19.6683936777
 20
20.0877588618
 10
-19.6691111522
 20
20.0370239787
  0
LWPOLYLINE
  5
235
100
AcDbEntity
  8
290140580
100
AcDbPolyline
 62
7
  6
CONTINUOUS
 90
22
 70
0
 10
-18.8268399419
 20
21.605345483
 10
-18.8523254584
 20
21.5948151333
 10
-18.9223651756
 20
21.5611658333
 10
-18.9916128727
 20
21.5206964459
 10
-19.0600606629
 20
21.4729875963
 10
-19.1269070906
 20
21.4181554089
 10
-19.1908082442
 20
21.3571560535
 10
-19.2515476691
 20
21.2902394575
 10
-19.3091177679
 20
21.2173976785
 10
-19.3628130617
 20
21.1396312676
 10
-19.4125209933
 20
21.0573223917
 10
-19.4582771008
 20
20.9705496809
 10
-19.4997396172
 20
20.8801798646
 10
-19.5368729555
 20
20.7865279351
 10
-19.5696290833
 20
20.6898801735
 10
-19.5977512702
 20
20.591315527
 10
-19.6212297861
 20
20.4912427482
 10
-19.6400681834
 20
20.3899904997
 10
-19.6541686296
 20
20.2886591027
 10
-19.6635717446
 20
20.1878692272
 10
-19.6683936777
 20
20.0877588618
 10
-19.6691111522
 20
20.0370239787
  0
LINE
  5
236
100
AcDbEntity
  8
268140580
100
AcDbLine
 62
7
  6
CONTINUOUS
 10
-16.1253716083
 20
22.8209090258
 11
-15.8566361277
 21
22.9270693493
  0
LINE
  5
237
100
AcDbEntity
  8
268140580
100
AcDbLine
 62
250
  6
CONTINUOUS
 10
-15.9999222892
 20
22.8361812899
 11
-15.855895676
 21
22.8930770591
  0
LINE
  5
238
100
AcDbEntity
  8
290140600
100
AcDbLine
 62
7
  6
CONTINUOUS
 10
-18.8268418209
 20
21.6053502369
 11
-17.1790937994
 21
22.2562711574
  0
LINE
  5
239
100
AcDbEntity
  8
290140580
100
AcDbLine
 62
7
  6
CONTINUOUS
 10
-18.8268418209
 20
21.6053502369
 11
-17.1790937994
 21
22.2562711574
  0
LINE
  5
23A
100
AcDbEntity
  8
290140600
100
AcDbLine
 62
250
  6
CONTINUOUS
 10
-18.6688778151
 20
21.6248961003
 11
-17.0222821506
 21
22.2753614877
  0
LINE
  5
23B
100
AcDbEntity
  8
290140580
100
AcDbLine
 62
250
  6
CONTINUOUS
 10
-18.6688778151
 20
21.6248961003
 11
-17.0222821506
 21
22.2753614877
  0
LINE
  5
23C
100
AcDbEntity
  8
268140580
100
AcDbLine
 62
7
  6
CONTINUOUS
 10
-13.1373319769
 20
22.9227304624
 11
-13.8723201293
 21
22.6415221855
  0
LWPOLYLINE
  5
23D
100
AcDbEntity
  8
290140600
100
AcDbPolyline
 62
250
  6
CONTINUOUS
 90
5
 70
0
 10
-18.8264495943
 20
21.6055054907
 10
-18.7936267345
 20
21.6163906577
 10
-18.753099169
 20
21.6245334655
 10
-18.711363953
 20
21.627378993
 10
-18.6688778151
 20
21.6248961003
  0
LWPOLYLINE
  5
23E
100
AcDbEntity
  8
290140580
100
AcDbPolyline
 62
250
  6
CONTINUOUS
 90
5
 70
0
 10
-18.8264495943
 20
21.6055054907
 10
-18.7936267345
 20
21.6163906577
 10
-18.753099169
 20
21.6245334655
 10
-18.711363953
 20
21.627378993
 10
-18.6688778151
 20
21.6248961003
  0
LWPOLYLINE
  5
23F
100
AcDbEntity
  8
268140580
100
AcDbPolyline
 62
250
  6
CONTINUOUS
 90
12
 70
0
 10
-13.2944754411
 20
23.4466180267
 10
-13.2862169956
 20
23.4491991166
 10
-13.278668282
 20
23.4518579484
 10
-13.2718548426
 20
23.4545855253
 10
-13.2657997314
 20
23.4573726181
 10
-13.2605234364
 20
23.460209796
 10
-13.2560438105
 20
23.4630874589
 10
-13.2523760109
 20
23.4659958695
 10
-13.2495324475
 20
23.4689251867
 10
-13.2475227415
 20
23.4718654987
 10
-13.2463536925
 20
23.4748068563
 10
-13.2460259245
 20
23.4776191557
  0
LWPOLYLINE
  5
240
100
AcDbEntity
  8
268140580
100
AcDbPolyline
 62
250
  6
CONTINUOUS
 90
12
 70
0
 10
-13.2864051069
 20
23.0761291421
 10
-13.2781466831
 20
23.0787102247
 10
-13.2705979857
 20
23.0813690495
 10
-13.2637845569
 20
23.0840966198
 10
-13.2577294514
 20
23.0868837065
 10
-13.2524531576
 20
23.0897208789
 10
-13.2479735289
 20
23.0925985369
 10
-13.2443057229
 20
23.0955069433
 10
-13.2414621503
 20
23.0984362572
 10
-13.2394524328
 20
23.1013765666
 10
-13.2382833708
 20
23.1043179225
 10
-13.2379555903
 20
23.107130271
  0
LWPOLYLINE
  5
241
100
AcDbEntity
  8
268140580
100
AcDbPolyline
 62
250
  6
CONTINUOUS
 90
14
 70
0
 10
-12.7213709036
 20
24.4693223427
 10
-12.7139068271
 20
24.4716416724
 10
-12.7070154825
 20
24.4740246941
 10
-12.7007157584
 20
24.476464876
 10
-12.695024922
 20
24.4789555299
 10
-12.6899585714
 20
24.481489829
 10
-12.6855305933
 20
24.484060827
 10
-12.6817531242
 20
24.4866614769
 10
-12.6786365182
 20
24.4892846505
 10
-12.6761893174
 20
24.491923158
 10
-12.6744182296
 20
24.4945697673
 10
-12.6733281091
 20
24.4972172242
 10
-12.672921944
 20
24.4998582723
 10
-12.672921387
 20
24.5003234716
  0
LINE
  5
242
100
AcDbEntity
  8
268140580
100
AcDbLine
 62
7
  6
CONTINUOUS
 10
-13.2544011809
 20
22.8884509464
 11
-13.1311456535
 21
22.9248263315
  0
LINE
  5
243
100
AcDbEntity
  8
268140580
100
AcDbLine
 62
250
  6
CONTINUOUS
 10
-13.1558179228
 20
23.9143232293
 11
-12.7213709036
 21
24.4693223427
  0
LINE
  5
244
100
AcDbEntity
  8
268140580
100
AcDbLine
 62
7
  6
CONTINUOUS
 10
-13.1604500621
 20
23.7857808799
 11
-12.7260030429
 21
24.3407799932
  0
LINE
  5
245
100
AcDbEntity
  8
268140580
100
AcDbLine
 62
7
  6
CONTINUOUS
 10
-5.4942648122
 20
23.5632346192
 11
-4.5732791916
 21
23.8350374937
  0
LINE
  5
246
100
AcDbEntity
  8
268140580
100
AcDbLine
 62
7
  6
CONTINUOUS
 10
-4.7819744659
 20
23.6034047466
 11
-2.9871388034
 21
24.1330997619
  0
LINE
  5
247
100
AcDbEntity
  8
268140580
100
AcDbLine
 62
7
  6
CONTINUOUS
 10
-10.5279693314
 20
23.3445617385
 11
-11.7367000902
 21
22.9962730547
  0
LWPOLYLINE
  5
248
100
AcDbEntity
  8
268140580
100
AcDbPolyline
 62
250
  6
CONTINUOUS
 90
31
 70
0
 10
1.763016102
 20
-25.1055209844
 10
1.755019449
 20
-25.1077650053
 10
1.7464894435
 20
-25.109934525
 10
1.7374484111
 20
-25.1120234694
 10
1.727918107
 20
-25.1140263753
 10
1.7179255969
 20
-25.1159371399
 10
1.7075041194
 20
-25.1177492378
 10
1.6966846544
 20
-25.1194573389
 10
1.6854946438
 20
-25.1210571657
 10
1.6739644675
 20
-25.1225443687
 10
1.6621254999
 20
-25.1239148853
 10
1.6500103839
 20
-25.1251649212
 10
1.6376526693
 20
-25.1262910097
 10
1.6250863997
 20
-25.1272900526
 10
1.6123458828
 20
-25.1281593263
 10
1.5994659387
 20
-25.1288964545
 10
1.5864818274
 20
-25.1294994157
 10
1.5734292045
 20
-25.1299665508
 10
1.5603439093
 20
-25.1302965755
 10
1.5472618371
 20
-25.1304885838
 10
1.5342188464
 20
-25.1305420485
 10
1.5212507095
 20
-25.1304568223
 10
1.5083929854
 20
-25.1302331381
 10
1.4956809343
 20
-25.1298716085
 10
1.4831494274
 20
-25.1293732247
 10
1.4708328185
 20
-25.1287393524
 10
1.4587648927
 20
-25.1279717298
 10
1.4469787828
 20
-25.1270724648
 10
1.4355068184
 20
-25.1260440255
 10
1.4243804415
 20
-25.1248892322
 10
1.4136301591
 20
-25.1236112523
  0
LWPOLYLINE
  5
249
100
AcDbEntity
  8
268140580
100
AcDbPolyline
 62
250
  6
CONTINUOUS
 90
31
 70
0
 10
1.7539436492
 20
-24.6890273386
 10
1.7459272993
 20
-24.6912766192
 10
1.7373806483
 20
-24.6934496855
 10
1.7283271221
 20
-24.6955405815
 10
1.7187915356
 20
-24.6975435759
 10
1.7088000252
 20
-24.6994531789
 10
1.698379977
 20
-24.7012641562
 10
1.6875599516
 20
-24.7029715442
 10
1.676369606
 20
-24.704570663
 10
1.6648396121
 20
-24.7060571295
 10
1.6530015728
 20
-24.7074268694
 10
1.6408879354
 20
-24.7086761284
 10
1.6285319024
 20
-24.7098014823
 10
1.615967341
 20
-24.7107998466
 10
1.6032286897
 20
-24.7116684849
 10
1.5903508643
 20
-24.7124050163
 10
1.577369162
 20
-24.7130074219
 10
1.5643191647
 20
-24.7134740508
 10
1.5512366416
 20
-24.7138036238
 10
1.538157451
 20
-24.7139952376
 10
1.525117442
 20
-24.714048367
 10
1.5121523563
 20
-24.7139628664
 10
1.4992977305
 20
-24.7137389702
 10
1.486588798
 20
-24.713377292
 10
1.4740603933
 20
-24.7128788232
 10
1.4617468557
 20
-24.71224493
 10
1.4496819359
 20
-24.7114773499
 10
1.437898703
 20
-24.7105781868
 10
1.4264294539
 20
-24.7095499052
 10
1.4153056251
 20
-24.7083953236
 10
1.4045577063
 20
-24.7071176065
  0
LWPOLYLINE
  5
24A
100
AcDbEntity
  8
268140580
100
AcDbPolyline
 62
250
  6
CONTINUOUS
 90
28
 70
0
 10
2.3270481867
 20
-23.6663230226
 10
2.3181079484
 20
-23.668817638
 10
2.3085161766
 20
-23.6712173354
 10
2.2983053275
 20
-23.673513995
 10
2.2875099519
 20
-23.6756998457
 10
2.2761665788
 20
-23.6777674914
 10
2.2643135914
 20
-23.6797099356
 10
2.2519910972
 20
-23.681520606
 10
2.2392407922
 20
-23.6831933759
 10
2.2261058201
 20
-23.6847225851
 10
2.212630626
 20
-23.6861030596
 10
2.1988608059
 20
-23.6873301282
 10
2.184842953
 20
-23.6883996392
 10
2.1706244994
 20
-23.6893079739
 10
2.1562535561
 20
-23.6900520587
 10
2.1417787494
 20
-23.6906293762
 10
2.1272490577
 20
-23.6910379731
 10
2.1127136447
 20
-23.6912764668
 10
2.0982216927
 20
-23.6913440507
 10
2.083822238
 20
-23.6912404961
 10
2.0695640033
 20
-23.6909661535
 10
2.0554952328
 20
-23.6905219513
 10
2.0416635306
 20
-23.6899093926
 10
2.0281156983
 20
-23.6891305503
 10
2.0148975761
 20
-23.6881880596
 10
2.0020538894
 20
-23.6870851096
 10
1.9896280971
 20
-23.6858254325
 10
1.9776622438
 20
-23.6844132905
  0
LWPOLYLINE
  5
24B
100
AcDbEntity
  8
268140580
100
AcDbPolyline
 62
250
  6
CONTINUOUS
 90
15
 70
0
 10
0.3770004217
 20
-23.7240350674
 10
0.365417672
 20
-23.722870876
 10
0.3541399571
 20
-23.7223542196
 10
0.3432054372
 20
-23.7224868463
 10
0.3326511113
 20
-23.7232683074
 10
0.3225126919
 20
-23.7246959587
 10
0.3128244841
 20
-23.7267649695
 10
0.3036192699
 20
-23.7294683388
 10
0.2949281967
 20
-23.7327969193
 10
0.2867806724
 20
-23.7367394482
 10
0.2792042655
 20
-23.7412825853
 10
0.2722246124
 20
-23.7464109578
 10
0.2658653299
 20
-23.7521072131
 10
0.2601479358
 20
-23.7583520769
 10
0.2587073597
 20
-23.7601416764
  0
LWPOLYLINE
  5
24C
100
AcDbEntity
  8
268140580
100
AcDbPolyline
 62
250
  6
CONTINUOUS
 90
16
 70
0
 10
-0.0574465975
 20
-24.2790341807
 10
-0.0678851787
 20
-24.2779572368
 10
-0.078079759
 20
-24.2774046886
 10
-0.08800239
 20
-24.2773780513
 10
-0.0976258549
 20
-24.2778773972
 10
-0.106923786
 20
-24.2789013575
 10
-0.1158707314
 20
-24.2804471331
 10
-0.1244421833
 20
-24.2825105008
 10
-0.1326146098
 20
-24.2850858069
 10
-0.1403655652
 20
-24.2881659828
 10
-0.1476737887
 20
-24.2917425782
 10
-0.1545192567
 20
-24.2958057919
 10
-0.1608832018
 20
-24.3003444844
 10
-0.1667481815
 20
-24.3053462168
 10
-0.1720981111
 20
-24.3107972731
 10
-0.1757391172
 20
-24.315140097
  0
LWPOLYLINE
  5
24D
100
AcDbEntity
  8
268140580
100
AcDbPolyline
 62
250
  6
CONTINUOUS
 90
16
 70
0
 10
-15.2901807499
 20
-22.3469486107
 10
-15.3006193311
 20
-22.3458716667
 10
-15.3108139114
 20
-22.3453191185
 10
-15.3207365424
 20
-22.3452924813
 10
-15.3303600073
 20
-22.3457918272
 10
-15.3396579384
 20
-22.3468157874
 10
-15.3486048838
 20
-22.3483615631
 10
-15.3571763357
 20
-22.3504249307
 10
-15.3653487623
 20
-22.3530002369
 10
-15.3730997176
 20
-22.3560804128
 10
-15.3804079411
 20
-22.3596570081
 10
-15.3872534092
 20
-22.3637202218
 10
-15.3936173543
 20
-22.3682589143
 10
-15.3994823339
 20
-22.3732606468
 10
-15.4048322635
 20
-22.3787117031
 10
-15.4084732696
 20
-22.383054527
  0
LWPOLYLINE
  5
24E
100
AcDbEntity
  8
290140580
100
AcDbPolyline
 62
7
  6
CONTINUOUS
 90
7
 70
0
 10
-0.9256396087
 20
-23.529071413
 10
-0.8865766778
 20
-23.5331340642
 10
-0.8386538112
 20
-23.5356605785
 10
-0.7904644562
 20
-23.5355071608
 10
-0.7421836843
 20
-23.5326626801
 10
-0.6939549152
 20
-23.5271295539
 10
-0.6453764442
 20
-23.5188125905
  0
LWPOLYLINE
  5
24F
100
AcDbEntity
  8
290140600
100
AcDbPolyline
 62
7
  6
CONTINUOUS
 90
7
 70
0
 10
-0.9256396087
 20
-23.529071413
 10
-0.8865766778
 20
-23.5331340642
 10
-0.8386538112
 20
-23.5356605785
 10
-0.7904644562
 20
-23.5355071608
 10
-0.7421836843
 20
-23.5326626801
 10
-0.6939549152
 20
-23.5271295539
 10
-0.6453764442
 20
-23.5188125905
  0
LINE
  5
250
100
AcDbEntity
  8
268140580
100
AcDbLine
 62
7
  6
CONTINUOUS
 10
-15.23399971
 20
-23.2016608693
 11
-13.702666647
 21
-23.3958916938
  0
LINE
  5
251
100
AcDbEntity
  8
268140580
100
AcDbLine
 62
7
  6
CONTINUOUS
 10
-0.0012655576
 20
-25.1337464393
 11
1.5300675054
 21
-25.3279772638
  0
LINE
  5
252
100
AcDbEntity
  8
268140580
100
AcDbLine
 62
250
  6
CONTINUOUS
 10
-15.3504370562
 20
-22.9972948578
 11
-13.8191039933
 21
-23.1915256823
  0
LINE
  5
253
100
AcDbEntity
  8
268140580
100
AcDbLine
 62
250
  6
CONTINUOUS
 10
-0.1177029038
 20
-24.9293804278
 11
1.4136301591
 21
-25.1236112523
  0
LINE
  5
254
100
AcDbEntity
  8
268140580
100
AcDbLine
 62
250
  6
CONTINUOUS
 10
1.4045577063
 20
-24.7071176065
 11
-0.1267753567
 21
-24.512886782
  0
LINE
  5
255
100
AcDbEntity
  8
268140580
100
AcDbLine
 62
250
  6
CONTINUOUS
 10
-13.8281764462
 20
-22.7750320365
 11
-15.3595095091
 21
-22.580801212
  0
LINE
  5
256
100
AcDbEntity
  8
268140580
100
AcDbLine
 62
250
  6
CONTINUOUS
 10
1.4738864654
 20
-24.4732650052
 11
-0.0574465975
 21
-24.2790341807
  0
LINE
  5
257
100
AcDbEntity
  8
268140580
100
AcDbLine
 62
250
  6
CONTINUOUS
 10
-13.758847687
 20
-22.5411794352
 11
-15.2901807499
 21
-22.3469486107
  0
LINE
  5
258
100
AcDbEntity
  8
268140580
100
AcDbLine
 62
7
  6
CONTINUOUS
 10
-2.7831660643
 20
-23.7667447048
 11
-9.3985680623
 21
-22.9276620679
  0
LINE
  5
259
100
AcDbEntity
  8
268140580
100
AcDbLine
 62
250
  6
CONTINUOUS
 10
1.9083334846
 20
-23.9182658919
 11
0.3770004217
 21
-23.7240350674
  0
LINE
  5
25A
100
AcDbEntity
  8
268140580
100
AcDbLine
 62
250
  6
CONTINUOUS
 10
-13.3244006678
 20
-21.9861803218
 11
-14.8557337308
 21
-21.7919494973
  0
LINE
  5
25B
100
AcDbEntity
  8
290140580
100
AcDbLine
 62
7
  6
CONTINUOUS
 10
-0.9251962339
 20
-23.5291267751
 11
-17.9038800696
 21
-21.3755888935
  0
LINE
  5
25C
100
AcDbEntity
  8
290140600
100
AcDbLine
 62
7
  6
CONTINUOUS
 10
-0.9251962339
 20
-23.5291267751
 11
-17.9038800696
 21
-21.3755888935
  0
LINE
  5
25D
100
AcDbEntity
  8
268140580
100
AcDbLine
 62
250
  6
CONTINUOUS
 10
1.9776622438
 20
-23.6844132906
 11
0.4463291808
 21
-23.4901824661
  0
LINE
  5
25E
100
AcDbEntity
  8
268140580
100
AcDbLine
 62
250
  6
CONTINUOUS
 10
-13.702666647
 20
-23.3958916938
 11
-13.7027349709
 21
-23.3958829996
  0
LINE
  5
25F
100
AcDbEntity
  8
268140580
100
AcDbLine
 62
250
  6
CONTINUOUS
 10
1.5300675054
 20
-25.3279772638
 11
1.5299991815
 21
-25.3279685696
  0
LWPOLYLINE
  5
260
100
AcDbEntity
  8
268140580
100
AcDbPolyline
 62
250
  6
CONTINUOUS
 90
19
 70
0
 10
-15.3504370562
 20
-22.9972948578
 10
-15.3607817942
 20
-22.995897193
 10
-15.3706926461
 20
-22.9943836717
 10
-15.3801424315
 20
-22.9927584435
 10
-15.3891052441
 20
-22.9910259621
 10
-15.3975564916
 20
-22.9891909792
 10
-15.4054729693
 20
-22.9872585325
 10
-15.4128329645
 20
-22.9852339231
 10
-15.4196163029
 20
-22.9831227016
 10
-15.4258043797
 20
-22.9809306595
 10
-15.4313802286
 20
-22.9786638084
 10
-15.4363285641
 20
-22.9763283645
 10
-15.4406358187
 20
-22.9739307333
 10
-15.4442901895
 20
-22.9714774873
 10
-15.4472816551
 20
-22.9689753562
 10
-15.4496020099
 20
-22.9664312111
 10
-15.451244898
 20
-22.9638520398
 10
-15.4522058378
 20
-22.9612449042
 10
-15.4524830149
 20
-22.9590923439
  0
LWPOLYLINE
  5
261
100
AcDbEntity
  8
268140580
100
AcDbPolyline
 62
250
  6
CONTINUOUS
 90
19
 70
0
 10
-0.1177029038
 20
-24.9293804278
 10
-0.1280476418
 20
-24.927982763
 10
-0.1379584937
 20
-24.9264692418
 10
-0.1474082791
 20
-24.9248440136
 10
-0.1563710917
 20
-24.9231115322
 10
-0.1648223392
 20
-24.9212765492
 10
-0.1727388169
 20
-24.9193441025
 10
-0.1800988121
 20
-24.9173194932
 10
-0.1868821505
 20
-24.9152082716
 10
-0.1930702273
 20
-24.9130162295
 10
-0.1986460761
 20
-24.9107493785
 10
-0.2035944116
 20
-24.9084139346
 10
-0.2079016663
 20
-24.9060163034
 10
-0.211556037
 20
-24.9035630573
 10
-0.2145475027
 20
-24.9010609263
 10
-0.2168678575
 20
-24.8985167811
 10
-0.2185107456
 20
-24.8959376098
 10
-0.2194716854
 20
-24.8933304743
 10
-0.2197488625
 20
-24.891177914
  0
LWPOLYLINE
  5
262
100
AcDbEntity
  8
268140580
100
AcDbPolyline
 62
250
  6
CONTINUOUS
 90
19
 70
0
 10
-15.3595095091
 20
-22.580801212
 10
-15.3698520587
 20
-22.5794038617
 10
-15.3797608909
 20
-22.5778907081
 10
-15.3892088462
 20
-22.5762658988
 10
-15.3981700285
 20
-22.5745338872
 10
-15.4066198757
 20
-22.5726994206
 10
-15.4145352275
 20
-22.5707675272
 10
-15.4218943884
 20
-22.5687435021
 10
-15.4286771874
 20
-22.5666328932
 10
-15.4348650334
 20
-22.5644414853
 10
-15.4404409659
 20
-22.562175285
 10
-15.4453897017
 20
-22.5598405039
 10
-15.4496976766
 20
-22.5574435413
 10
-15.4533530827
 20
-22.5549909672
 10
-15.456345901
 20
-22.5524895039
 10
-15.4586679282
 20
-22.5499460077
 10
-15.4603127998
 20
-22.5473674503
 10
-15.4612760074
 20
-22.5447608992
 10
-15.4615554678
 20
-22.5425986981
  0
LWPOLYLINE
  5
263
100
AcDbEntity
  8
268140580
100
AcDbPolyline
 62
250
  6
CONTINUOUS
 90
19
 70
0
 10
-0.1267753567
 20
-24.512886782
 10
-0.1371179063
 20
-24.5114894317
 10
-0.1470267385
 20
-24.5099762782
 10
-0.1564746938
 20
-24.5083514688
 10
-0.1654358761
 20
-24.5066194572
 10
-0.1738857233
 20
-24.5047849906
 10
-0.1818010751
 20
-24.5028530972
 10
-0.1891602359
 20
-24.5008290722
 10
-0.195943035
 20
-24.4987184632
 10
-0.2021308809
 20
-24.4965270553
 10
-0.2077068135
 20
-24.4942608551
 10
-0.2126555492
 20
-24.4919260739
 10
-0.2169635241
 20
-24.4895291113
 10
-0.2206189303
 20
-24.4870765372
 10
-0.2236117486
 20
-24.4845750739
 10
-0.2259337757
 20
-24.4820315778
 10
-0.2275786474
 20
-24.4794530203
 10
-0.2285418549
 20
-24.4768464692
 10
-0.2288213154
 20
-24.4746842682
  0
LINE
  5
264
100
AcDbEntity
  8
290140580
100
AcDbLine
 62
250
  6
CONTINUOUS
 10
-17.9038791212
 20
-21.3755890138
 11
-17.9151362094
 21
-21.3740294859
  0
LINE
  5
265
100
AcDbEntity
  8
290140600
100
AcDbLine
 62
250
  6
CONTINUOUS
 10
-17.9038791212
 20
-21.3755890138
 11
-17.9151362094
 21
-21.3740294859
  0
LWPOLYLINE
  5
266
100
AcDbEntity
  8
268140580
100
AcDbPolyline
 62
250
  6
CONTINUOUS
 90
24
 70
0
 10
-13.7027349709
 20
-23.3958829996
 10
-13.7074976119
 20
-23.3951372516
 10
-13.71582403
 20
-23.39315627
 10
-13.7239978042
 20
-23.3903361023
 10
-13.7319909691
 20
-23.3866863973
 10
-13.7397761769
 20
-23.3822196421
 10
-13.7473267917
 20
-23.376951119
 10
-13.7546169798
 20
-23.3708988537
 10
-13.761621799
 20
-23.3640835532
 10
-13.768317283
 20
-23.3565285353
 10
-13.7746805241
 20
-23.3482596483
 10
-13.7806897513
 20
-23.3393051834
 10
-13.7863244048
 20
-23.329695777
 10
-13.7915652064
 20
-23.3194643066
 10
-13.7963942251
 20
-23.3086457778
 10
-13.8007949393
 20
-23.2972772049
 10
-13.8047522925
 20
-23.2853974839
 10
-13.8082527449
 20
-23.27304726
 10
-13.8112843203
 20
-23.2602687876
 10
-13.8138366466
 20
-23.2471057869
 10
-13.8159009912
 20
-23.2336032934
 10
-13.8174702913
 20
-23.2198075041
 10
-13.8185391777
 20
-23.2057656195
 10
-13.8191039933
 20
-23.1915256823
  0
LWPOLYLINE
  5
267
100
AcDbEntity
  8
268140580
100
AcDbPolyline
 62
250
  6
CONTINUOUS
 90
24
 70
0
 10
1.5299991815
 20
-25.3279685696
 10
1.5252365405
 20
-25.3272228217
 10
1.5169101224
 20
-25.3252418401
 10
1.5087363482
 20
-25.3224216724
 10
1.5007431834
 20
-25.3187719674
 10
1.4929579755
 20
-25.3143052121
 10
1.4854073608
 20
-25.3090366891
 10
1.4781171726
 20
-25.3029844238
 10
1.4711123534
 20
-25.2961691233
 10
1.4644168694
 20
-25.2886141053
 10
1.4580536283
 20
-25.2803452184
 10
1.4520444011
 20
-25.2713907534
 10
1.4464097476
 20
-25.2617813471
 10
1.4411689461
 20
-25.2515498767
 10
1.4363399273
 20
-25.2407313479
 10
1.4319392131
 20
-25.2293627749
 10
1.42798186
 20
-25.217483054
 10
1.4244814075
 20
-25.20513283
 10
1.4214498321
 20
-25.1923543577
 10
1.4188975058
 20
-25.179191357
 10
1.4168331612
 20
-25.1656888634
 10
1.4152638611
 20
-25.1518930741
 10
1.4141949747
 20
-25.1378511896
 10
1.4136301591
 20
-25.1236112523
  0
LWPOLYLINE
  5
268
100
AcDbEntity
  8
290140580
100
AcDbPolyline
 62
250
  6
CONTINUOUS
 90
19
 70
0
 10
-17.9151362094
 20
-21.3740294859
 10
-17.9745006686
 20
-21.3613581134
 10
-18.0325897608
 20
-21.341397247
 10
-18.0891353343
 20
-21.3142409739
 10
-18.1438613335
 20
-21.2800165707
 10
-18.1964830793
 20
-21.2388957094
 10
-18.2467341861
 20
-21.1910931902
 10
-18.2943544223
 20
-21.1368618331
 10
-18.3391165459
 20
-21.0764643865
 10
-18.3808223235
 20
-21.010176846
 10
-18.419269135
 20
-20.9383087298
 10
-18.4542522829
 20
-20.8612264597
 10
-18.4855943019
 20
-20.7793303311
 10
-18.5131361209
 20
-20.693039403
 10
-18.5367442832
 20
-20.6027707627
 10
-18.5563092899
 20
-20.5089561497
 10
-18.5717345155
 20
-20.4120535819
 10
-18.5829388623
 20
-20.3125470669
 10
-18.5898652706
 20
-20.2109285148
  0
LWPOLYLINE
  5
269
100
AcDbEntity
  8
290140600
100
AcDbPolyline
 62
250
  6
CONTINUOUS
 90
19
 70
0
 10
-17.9151362094
 20
-21.3740294859
 10
-17.9745006686
 20
-21.3613581134
 10
-18.0325897608
 20
-21.341397247
 10
-18.0891353343
 20
-21.3142409739
 10
-18.1438613335
 20
-21.2800165707
 10
-18.1964830793
 20
-21.2388957094
 10
-18.2467341861
 20
-21.1910931902
 10
-18.2943544223
 20
-21.1368618331
 10
-18.3391165459
 20
-21.0764643865
 10
-18.3808223235
 20
-21.010176846
 10
-18.419269135
 20
-20.9383087298
 10
-18.4542522829
 20
-20.8612264597
 10
-18.4855943019
 20
-20.7793303311
 10
-18.5131361209
 20
-20.693039403
 10
-18.5367442832
 20
-20.6027707627
 10
-18.5563092899
 20
-20.5089561497
 10
-18.5717345155
 20
-20.4120535819
 10
-18.5829388623
 20
-20.3125470669
 10
-18.5898652706
 20
-20.2109285148
  0
LINE
  5
26A
100
AcDbEntity
  8
268140580
100
AcDbLine
 62
250
  6
CONTINUOUS
 10
-11.7040534985
 20
-22.233178304
 11
-11.8409225166
 21
-22.1446007257
  0
LWPOLYLINE
  5
26B
100
AcDbEntity
  8
290140580
100
AcDbPolyline
 62
250
  6
CONTINUOUS
 90
10
 70
0
 10
-18.7942273303
 20
-20.1267452013
 10
-18.7912220769
 20
-20.1382238576
 10
-18.7828794454
 20
-20.1498123604
 10
-18.7693069036
 20
-20.1609053957
 10
-18.7506498746
 20
-20.1713841068
 10
-18.7271082593
 20
-20.1811362195
 10
-18.6989342947
 20
-20.1900572449
 10
-18.6664298509
 20
-20.1980515985
 10
-18.6299431973
 20
-20.2050336248
 10
-18.5898652703
 20
-20.2109285147
  0
LWPOLYLINE
  5
26C
100
AcDbEntity
  8
290140600
100
AcDbPolyline
 62
250
  6
CONTINUOUS
 90
10
 70
0
 10
-18.7942273303
 20
-20.1267452013
 10
-18.7912220769
 20
-20.1382238576
 10
-18.7828794454
 20
-20.1498123604
 10
-18.7693069036
 20
-20.1609053957
 10
-18.7506498746
 20
-20.1713841068
 10
-18.7271082593
 20
-20.1811362195
 10
-18.6989342947
 20
-20.1900572449
 10
-18.6664298509
 20
-20.1980515985
 10
-18.6299431973
 20
-20.2050336248
 10
-18.5898652703
 20
-20.2109285147
  0
LWPOLYLINE
  5
26D
100
AcDbEntity
  8
268140580
100
AcDbPolyline
 62
250
  6
CONTINUOUS
 90
31
 70
0
 10
-14.4961079084
 20
23.9455588782
 10
-14.500012432
 20
23.9333550032
 10
-14.5044585269
 20
23.9212546273
 10
-14.5094340067
 20
23.9092909168
 10
-14.514925234
 20
23.8974966634
 10
-14.5209171576
 20
23.8859041942
 10
-14.5273933541
 20
23.8745452835
 10
-14.5343360728
 20
23.8634510652
 10
-14.541726284
 20
23.8526519479
 10
-14.5495437319
 20
23.842177531
 10
-14.5577669892
 20
23.8320565244
 10
-14.5663735166
 20
23.8223166689
 10
-14.5753397242
 20
23.8129846609
 10
-14.5846410363
 20
23.8040860787
 10
-14.5942519585
 20
23.7956453127
 10
-14.6041461481
 20
23.7876854984
 10
-14.6142964858
 20
23.7802284533
 10
-14.6246751501
 20
23.7732946164
 10
-14.6352536939
 20
23.766902993
 10
-14.6460031221
 20
23.7610711021
 10
-14.6568939713
 20
23.7558149284
 10
-14.6678963905
 20
23.7511488788
 10
-14.6789802227
 20
23.7470857427
 10
-14.690115088
 20
23.7436366567
 10
-14.7012704664
 20
23.7408110745
 10
-14.7124157819
 20
23.738616741
 10
-14.7235204859
 20
23.7370596706
 10
-14.7345541411
 20
23.7361441312
 10
-14.7454865052
 20
23.7358726321
 10
-14.7562876132
 20
23.7362459175
 10
-14.7669278601
 20
23.7372629643
  0
LINE
  5
26E
100
AcDbEntity
  8
268140580
100
AcDbLine
 62
7
  6
CONTINUOUS
 10
-2.9418533588
 20
21.6295589989
 11
-3.347850562
 21
21.4725845218
  0
LWPOLYLINE
  5
26F
100
AcDbEntity
  8
268140580
100
AcDbPolyline
 62
250
  6
CONTINUOUS
 90
28
 70
0
 10
-1.0093127709
 20
22.8949561734
 10
-1.0179552821
 20
22.8921097963
 10
-1.0265543939
 20
22.888434231
 10
-1.0350806853
 20
22.8839420531
 10
-1.0435049849
 20
22.878648632
 10
-1.0517984699
 20
22.8725720784
 10
-1.0599327652
 20
22.8657331825
 10
-1.0678800403
 20
22.8581553427
 10
-1.0756131047
 20
22.8498644857
 10
-1.0831055007
 20
22.8408889775
 10
-1.0903315939
 20
22.8312595268
 10
-1.0972666612
 20
22.8210090794
 10
-1.1038869751
 20
22.810172706
 10
-1.1101698851
 20
22.7987874818
 10
-1.116093895
 20
22.78689236
 10
-1.1216387365
 20
22.7745280383
 10
-1.1267854387
 20
22.7617368195
 10
-1.1315163928
 20
22.7485624673
 10
-1.1358154124
 20
22.735050056
 10
-1.1396677889
 20
22.7212458166
 10
-1.143060342
 20
22.7071969786
 10
-1.1459814644
 20
22.6929516083
 10
-1.1484211619
 20
22.6785584444
 10
-1.1503710874
 20
22.6640667313
 10
-1.1518245695
 20
22.6495260507
 10
-1.1527766352
 20
22.6349861515
 10
-1.1532240271
 20
22.6204967803
 10
-1.1531652147
 20
22.6061075105
  0
LWPOLYLINE
  5
270
100
AcDbEntity
  8
268140580
100
AcDbPolyline
 62
250
  6
CONTINUOUS
 90
14
 70
0
 10
2.502849293
 20
22.928091215
 10
2.5102958507
 20
22.9304048068
 10
2.5171767474
 20
22.932783343
 10
2.5234720736
 20
22.9352204435
 10
2.5291646134
 20
22.937710085
 10
2.5342361758
 20
22.9402450221
 10
2.5386689998
 20
22.942816719
 10
2.5424501562
 20
22.9454175376
 10
2.5455703428
 20
22.9480409188
 10
2.5480210683
 20
22.9506797473
 10
2.5497955846
 20
22.9533268428
 10
2.5508889119
 20
22.9559748943
 10
2.5512979913
 20
22.9586165578
 10
2.5512989598
 20
22.9590853346
  0
LINE
  5
271
100
AcDbEntity
  8
268140580
100
AcDbLine
 62
7
  6
CONTINUOUS
 10
-2.9357156248
 20
21.6316610309
 11
-1.228600229
 21
22.1411649956
  0
LINE
  5
272
100
AcDbEntity
  8
268140580
100
AcDbLine
 62
7
  6
CONTINUOUS
 10
1.8486498164
 20
23.5197392634
 11
1.7467400463
 21
23.4896634752
  0
LWPOLYLINE
  5
273
100
AcDbEntity
  8
268140580
100
AcDbPolyline
 62
7
  6
CONTINUOUS
 90
31
 70
0
 10
2.981843351
 20
-21.4860184941
 10
2.9721718157
 20
-21.4886480556
 10
2.9619097858
 20
-21.4911805794
 10
2.9510572615
 20
-21.4936160655
 10
2.9395659981
 20
-21.4959641081
 10
2.9274842402
 20
-21.498215113
 10
2.9149567213
 20
-21.5003402978
 10
2.9019919507
 20
-21.5023347757
 10
2.8885814191
 20
-21.5042034334
 10
2.8748443317
 20
-21.5059321493
 10
2.8608097771
 20
-21.5075178475
 10
2.8464486667
 20
-21.5089636039
 10
2.8317929398
 20
-21.5102645237
 10
2.8167936698
 20
-21.5114238817
 10
2.8014997833
 20
-21.5124384031
 10
2.7860899992
 20
-21.5132933696
 10
2.7705617743
 20
-21.5139850375
 10
2.7549176517
 20
-21.5145171503
 10
2.7393439798
 20
-21.5148862209
 10
2.7238916212
 20
-21.5150906299
 10
2.7085097133
 20
-21.5151319966
 10
2.6932320164
 20
-21.515011691
 10
2.6780253148
 20
-21.5147296418
 10
2.6629228243
 20
-21.5142859202
 10
2.6480579529
 20
-21.5136821105
 10
2.6334163237
 20
-21.5129144139
 10
2.6190123135
 20
-21.5119866293
 10
2.6050224611
 20
-21.5109117368
 10
2.5915056125
 20
-21.5096940634
 10
2.5784029216
 20
-21.5083292822
 10
2.5657143884
 20
-21.5068173932
  0
LINE
  5
274
100
AcDbEntity
  8
268140580
100
AcDbLine
 62
250
  6
CONTINUOUS
 10
3.2188416574
 20
-22.8834294331
 11
3.2043669859
 21
-22.8872536004
  0
LINE
  5
275
100
AcDbEntity
  8
268140580
100
AcDbLine
 62
250
  6
CONTINUOUS
 10
3.2043669859
 20
-22.8872536004
 11
3.1970001083
 21
-22.8888456319
  0
LINE
  5
276
100
AcDbEntity
  8
268140580
100
AcDbLine
 62
7
  6
CONTINUOUS
 10
2.2938593668
 20
-23.0696619194
 11
3.1970001083
 21
-22.8888456319
  0
LINE
  5
277
100
AcDbEntity
  8
268140580
100
AcDbLine
 62
250
  6
CONTINUOUS
 10
2.5244146974
 20
-22.7213758679
 11
3.4366821093
 21
-22.5387323451
  0
LINE
  5
278
100
AcDbEntity
  8
290140580
100
AcDbLine
 62
250
  6
CONTINUOUS
 10
-0.3456026743
 20
-23.0811422688
 11
1.3771752559
 21
-22.7362277996
  0
LINE
  5
279
100
AcDbEntity
  8
290140600
100
AcDbLine
 62
250
  6
CONTINUOUS
 10
-0.3456026743
 20
-23.0811422688
 11
1.3771752559
 21
-22.7362277996
  0
LINE
  5
27A
100
AcDbEntity
  8
290140580
100
AcDbLine
 62
7
  6
CONTINUOUS
 10
1.8416374787
 20
-21.6772865687
 11
1.3562253534
 21
-21.7744701131
  0
LINE
  5
27B
100
AcDbEntity
  8
290140600
100
AcDbLine
 62
7
  6
CONTINUOUS
 10
1.8416374787
 20
-21.6772865687
 11
1.3562253534
 21
-21.7744701131
  0
LINE
  5
27C
100
AcDbEntity
  8
290140580
100
AcDbLine
 62
7
  6
CONTINUOUS
 10
1.0889810927
 20
-23.171585364
 11
-0.6453753774
 21
-23.5188179034
  0
LINE
  5
27D
100
AcDbEntity
  8
290140600
100
AcDbLine
 62
7
  6
CONTINUOUS
 10
1.0889810927
 20
-23.171585364
 11
-0.6453753774
 21
-23.5188179034
  0
LWPOLYLINE
  5
27E
100
AcDbEntity
  8
268140580
100
AcDbPolyline
 62
250
  6
CONTINUOUS
 90
15
 70
0
 10
-14.8557337308
 20
-21.7919494973
 10
-14.8673164805
 20
-21.7907853059
 10
-14.8785941953
 20
-21.7902686495
 10
-14.8895287152
 20
-21.7904012763
 10
-14.9000830411
 20
-21.7911827374
 10
-14.9102214605
 20
-21.7926103887
 10
-14.9199096683
 20
-21.7946793994
 10
-14.9291148825
 20
-21.7973827687
 10
-14.9378059557
 20
-21.8007113493
 10
-14.9459534801
 20
-21.8046538782
 10
-14.9535298869
 20
-21.8091970152
 10
-14.96050954
 20
-21.8143253878
 10
-14.9668688225
 20
-21.8200216431
 10
-14.9725862166
 20
-21.8262665069
 10
-14.9740267927
 20
-21.8280561063
  0
LINE
  5
27F
100
AcDbEntity
  8
268140580
100
AcDbLine
 62
7
  6
CONTINUOUS
 10
1.9636484334
 20
-23.0410742667
 11
2.2108110844
 21
-23.0724238187
  0
LINE
  5
280
100
AcDbEntity
  8
290140580
100
AcDbLine
 62
250
  6
CONTINUOUS
 10
-1.6323254629
 20
-22.3617845356
 11
-18.5898652706
 21
-20.2109285148
  0
LINE
  5
281
100
AcDbEntity
  8
290140600
100
AcDbLine
 62
250
  6
CONTINUOUS
 10
-1.6323254629
 20
-22.3617845356
 11
-18.5898652706
 21
-20.2109285148
  0
LINE
  5
282
100
AcDbEntity
  8
268140580
100
AcDbLine
 62
7
  6
CONTINUOUS
 10
2.500496616
 20
-21.6233565009
 11
1.838634065
 21
-21.5394073509
  0
LWPOLYLINE
  5
283
100
AcDbEntity
  8
268140580
100
AcDbPolyline
 62
250
  6
CONTINUOUS
 90
17
 70
0
 10
0.4463291808
 20
-23.4901824661
 10
0.434863753
 20
-23.4886226372
 10
0.4239375458
 20
-23.4869203995
 10
0.4135875303
 20
-23.4850815126
 10
0.4038487276
 20
-23.4831121987
 10
0.3947540907
 20
-23.4810191213
 10
0.3863343922
 20
-23.4788093624
 10
0.378618122
 20
-23.4764903991
 10
0.3716313898
 20
-23.4740700779
 10
0.3653978363
 20
-23.4715565882
 10
0.3599385543
 20
-23.4689584347
 10
0.3552720169
 20
-23.4662844087
 10
0.3514140145
 20
-23.4635435581
 10
0.348377602
 20
-23.460745157
 10
0.3461730543
 20
-23.4578986742
 10
0.3448078315
 20
-23.4550137412
 10
0.3442832221
 20
-23.4519799522
  0
LWPOLYLINE
  5
284
100
AcDbEntity
  8
268140580
100
AcDbPolyline
 62
250
  6
CONTINUOUS
 90
31
 70
0
 10
-13.4787905033
 20
-22.7569417685
 10
-13.4831733582
 20
-22.7469631282
 10
-13.4880967532
 20
-22.7369390527
 10
-13.4935476659
 20
-22.7268969482
 10
-13.4995121943
 20
-22.7168633672
 10
-13.5059739327
 20
-22.7068667684
 10
-13.5129135552
 20
-22.6969373906
 10
-13.5203112553
 20
-22.6871034574
 10
-13.5281474419
 20
-22.6773909037
 10
-13.5364008497
 20
-22.6678261115
 10
-13.5450490343
 20
-22.6584351554
 10
-13.5540681806
 20
-22.6492439566
 10
-13.5634333489
 20
-22.6402779524
 10
-13.5731187734
 20
-22.6315618028
 10
-13.5830979862
 20
-22.6231193195
 10
-13.5933436545
 20
-22.6149736281
 10
-13.6038277087
 20
-22.6071470501
 10
-13.6145213915
 20
-22.5996610582
 10
-13.62539536
 20
-22.5925361955
 10
-13.6364197938
 20
-22.5857920003
 10
-13.6475644773
 20
-22.5794469564
 10
-13.6587988568
 20
-22.5735184592
 10
-13.6700921497
 20
-22.5680227539
 10
-13.6814133777
 20
-22.5629749167
 10
-13.6927314505
 20
-22.5583888067
 10
-13.7040153056
 20
-22.554277002
 10
-13.715234043
 20
-22.5506507539
 10
-13.7263569568
 20
-22.5475199842
 10
-13.73735357
 20
-22.5448932718
 10
-13.7481937193
 20
-22.5427778225
 10
-13.758847687
 20
-22.5411794352
  0
LWPOLYLINE
  5
285
100
AcDbEntity
  8
290140600
100
AcDbPolyline
 62
7
  6
CONTINUOUS
 90
19
 70
0
 10
-19.4830651679
 20
0.2142697854
 10
-19.481174144
 20
0.1901688635
 10
-19.4761020475
 20
0.1647694072
 10
-19.4681706899
 20
0.1406955027
 10
-19.457682488
 20
0.1181923179
 10
-19.4448885314
 20
0.097362027
 10
-19.4301476186
 20
0.0784416722
 10
-19.4139552272
 20
0.0616760493
 10
-19.396532931
 20
0.0469247062
 10
-19.3781549404
 20
0.034109568
 10
-19.3593763868
 20
0.0232678058
 10
-19.3404651893
 20
0.0141730704
 10
-19.3211727158
 20
0.0064074184
 10
-19.301212586
 20
-0.0003357388
 10
-19.2805637863
 20
-0.0062070922
 10
-19.2589061344
 20
-0.0113984056
 10
-19.2355678134
 20
-0.0160967014
 10
-19.2102540282
 20
-0.020339428
 10
-19.1857238076
 20
-0.0237545426
  0
LWPOLYLINE
  5
286
100
AcDbEntity
  8
290140580
100
AcDbPolyline
 62
7
  6
CONTINUOUS
 90
19
 70
0
 10
-19.4830651679
 20
0.2142697854
 10
-19.481174144
 20
0.1901688635
 10
-19.4761020475
 20
0.1647694072
 10
-19.4681706899
 20
0.1406955027
 10
-19.457682488
 20
0.1181923179
 10
-19.4448885314
 20
0.097362027
 10
-19.4301476186
 20
0.0784416722
 10
-19.4139552272
 20
0.0616760493
 10
-19.396532931
 20
0.0469247062
 10
-19.3781549404
 20
0.034109568
 10
-19.3593763868
 20
0.0232678058
 10
-19.3404651893
 20
0.0141730704
 10
-19.3211727158
 20
0.0064074184
 10
-19.301212586
 20
-0.0003357388
 10
-19.2805637863
 20
-0.0062070922
 10
-19.2589061344
 20
-0.0113984056
 10
-19.2355678134
 20
-0.0160967014
 10
-19.2102540282
 20
-0.020339428
 10
-19.1857238076
 20
-0.0237545426
  0
LWPOLYLINE
  5
287
100
AcDbEntity
  8
290140600
100
AcDbPolyline
 62
250
  6
CONTINUOUS
 90
12
 70
0
 10
-19.2790286387
 20
0.1399085351
 10
-19.2774987276
 20
0.1149004934
 10
-19.2740126452
 20
0.0908936043
 10
-19.2686287822
 20
0.0682899735
 10
-19.2614373161
 20
0.0474682024
 10
-19.2525587009
 20
0.0287770473
 10
-19.2421416495
 20
0.0125295773
 10
-19.2303606433
 20
-0.0010020692
 10
-19.2174130093
 20
-0.0115912426
 10
-19.2035156151
 20
-0.0190605786
 10
-19.1889012363
 20
-0.0232849689
 10
-19.1858754472
 20
-0.0237381165
  0
LWPOLYLINE
  5
288
100
AcDbEntity
  8
290140580
100
AcDbPolyline
 62
250
  6
CONTINUOUS
 90
12
 70
0
 10
-19.2790286387
 20
0.1399085351
 10
-19.2774987276
 20
0.1149004934
 10
-19.2740126452
 20
0.0908936043
 10
-19.2686287822
 20
0.0682899735
 10
-19.2614373161
 20
0.0474682024
 10
-19.2525587009
 20
0.0287770473
 10
-19.2421416495
 20
0.0125295773
 10
-19.2303606433
 20
-0.0010020692
 10
-19.2174130093
 20
-0.0115912426
 10
-19.2035156151
 20
-0.0190605786
 10
-19.1889012363
 20
-0.0232849689
 10
-19.1858754472
 20
-0.0237381165
  0
LWPOLYLINE
  5
289
100
AcDbEntity
  8
290140580
100
AcDbPolyline
 62
7
  6
CONTINUOUS
 90
21
 70
0
 10
-18.7942242867
 20
-20.1267047953
 10
-18.7907337457
 20
-20.1845743407
 10
-18.7807183176
 20
-20.2855068302
 10
-18.7656792868
 20
-20.384993901
 10
-18.745401216
 20
-20.4831037181
 10
-18.7198275041
 20
-20.5790290199
 10
-18.689226522
 20
-20.6712272545
 10
-18.6536012447
 20
-20.759510058
 10
-18.6129494663
 20
-20.8436263505
 10
-18.5678618017
 20
-20.9222728639
 10
-18.5185114121
 20
-20.9953218683
 10
-18.4650356064
 20
-21.0626917193
 10
-18.4083748607
 20
-21.1234428539
 10
-18.3493352998
 20
-21.1772309605
 10
-18.2879557257
 20
-21.2245285954
 10
-18.2242446774
 20
-21.2656266305
 10
-18.1588463098
 20
-21.3003526524
 10
-18.091991313
 20
-21.3288431223
 10
-18.0230130625
 20
-21.3514561304
 10
-17.9519472984
 20
-21.3680461814
 10
-17.9031209903
 20
-21.3756853696
  0
LWPOLYLINE
  5
28A
100
AcDbEntity
  8
290140600
100
AcDbPolyline
 62
7
  6
CONTINUOUS
 90
21
 70
0
 10
-18.7942242867
 20
-20.1267047953
 10
-18.7907337457
 20
-20.1845743407
 10
-18.7807183176
 20
-20.2855068302
 10
-18.7656792868
 20
-20.384993901
 10
-18.745401216
 20
-20.4831037181
 10
-18.7198275041
 20
-20.5790290199
 10
-18.689226522
 20
-20.6712272545
 10
-18.6536012447
 20
-20.759510058
 10
-18.6129494663
 20
-20.8436263505
 10
-18.5678618017
 20
-20.9222728639
 10
-18.5185114121
 20
-20.9953218683
 10
-18.4650356064
 20
-21.0626917193
 10
-18.4083748607
 20
-21.1234428539
 10
-18.3493352998
 20
-21.1772309605
 10
-18.2879557257
 20
-21.2245285954
 10
-18.2242446774
 20
-21.2656266305
 10
-18.1588463098
 20
-21.3003526524
 10
-18.091991313
 20
-21.3288431223
 10
-18.0230130625
 20
-21.3514561304
 10
-17.9519472984
 20
-21.3680461814
 10
-17.9031209903
 20
-21.3756853696
  0
LWPOLYLINE
  5
28B
100
AcDbEntity
  8
290140580
100
AcDbPolyline
 62
250
  6
CONTINUOUS
 90
10
 70
0
 10
-18.5898652706
 20
-20.2109285148
 10
-18.6880092467
 20
-18.0323219547
 10
-18.7803569402
 20
-15.8516336177
 10
-18.8669068882
 20
-13.6689074969
 10
-18.9476565332
 20
-11.4842213142
 10
-19.0226060491
 20
-9.2975854998
 10
-19.0917574255
 20
-7.1089428889
 10
-19.1551097931
 20
-4.9183035672
 10
-19.2126603396
 20
-2.7257451725
 10
-19.2644074947
 20
-0.5313116618
  0
LWPOLYLINE
  5
28C
100
AcDbEntity
  8
290140600
100
AcDbPolyline
 62
250
  6
CONTINUOUS
 90
10
 70
0
 10
-18.5898652706
 20
-20.2109285148
 10
-18.6880092467
 20
-18.0323219547
 10
-18.7803569402
 20
-15.8516336177
 10
-18.8669068882
 20
-13.6689074969
 10
-18.9476565332
 20
-11.4842213142
 10
-19.0226060491
 20
-9.2975854998
 10
-19.0917574255
 20
-7.1089428889
 10
-19.1551097931
 20
-4.9183035672
 10
-19.2126603396
 20
-2.7257451725
 10
-19.2644074947
 20
-0.5313116618
  0
LWPOLYLINE
  5
28D
100
AcDbEntity
  8
290140580
100
AcDbPolyline
 62
7
  6
CONTINUOUS
 90
10
 70
0
 10
-19.4685467798
 20
-0.452776001
 10
-19.4177629729
 20
-2.6086704754
 10
-19.360033055
 20
-4.8115528731
 10
-19.2964429727
 20
-7.0125522101
 10
-19.2269940798
 20
-9.2116182309
 10
-19.1516877413
 20
-11.4087090178
 10
-19.0705252717
 20
-13.6037855232
 10
-18.9835081605
 20
-15.7968054794
 10
-18.8906384731
 20
-17.9877184559
 10
-18.7942273303
 20
-20.1267452013
  0
LWPOLYLINE
  5
28E
100
AcDbEntity
  8
290140600
100
AcDbPolyline
 62
7
  6
CONTINUOUS
 90
10
 70
0
 10
-19.4685467798
 20
-0.452776001
 10
-19.4177629729
 20
-2.6086704754
 10
-19.360033055
 20
-4.8115528731
 10
-19.2964429727
 20
-7.0125522101
 10
-19.2269940798
 20
-9.2116182309
 10
-19.1516877413
 20
-11.4087090178
 10
-19.0705252717
 20
-13.6037855232
 10
-18.9835081605
 20
-15.7968054794
 10
-18.8906384731
 20
-17.9877184559
 10
-18.7942273303
 20
-20.1267452013
  0
LWPOLYLINE
  5
28F
100
AcDbEntity
  8
290140600
100
AcDbPolyline
 62
250
  6
CONTINUOUS
 90
10
 70
0
 10
-19.2790286388
 20
0.1399085351
 10
-19.3229360293
 20
2.3367362574
 10
-19.3610355782
 20
4.5352347909
 10
-19.3933269327
 20
6.7353598189
 10
-19.4198095087
 20
8.9370330489
 10
-19.4404837275
 20
11.1402440116
 10
-19.4553500993
 20
13.3450503008
 10
-19.4644080011
 20
15.551441719
 10
-19.4676565932
 20
17.7593400397
 10
-19.4650954156
 20
19.968700974
  0
LWPOLYLINE
  5
290
100
AcDbEntity
  8
290140580
100
AcDbPolyline
 62
250
  6
CONTINUOUS
 90
10
 70
0
 10
-19.2790286388
 20
0.1399085351
 10
-19.3229360293
 20
2.3367362574
 10
-19.3610355782
 20
4.5352347909
 10
-19.3933269327
 20
6.7353598189
 10
-19.4198095087
 20
8.9370330489
 10
-19.4404837275
 20
11.1402440116
 10
-19.4553500993
 20
13.3450503008
 10
-19.4644080011
 20
15.551441719
 10
-19.4676565932
 20
17.7593400397
 10
-19.4650954156
 20
19.968700974
  0
LWPOLYLINE
  5
291
100
AcDbEntity
  8
290140600
100
AcDbPolyline
 62
7
  6
CONTINUOUS
 90
10
 70
0
 10
-19.6691159767
 20
20.0370186149
 10
-19.6716796066
 20
17.8636486703
 10
-19.6684926442
 20
15.6453957996
 10
-19.6594393841
 20
13.4286077871
 10
-19.6445199298
 20
11.2133356523
 10
-19.6237346002
 20
8.9996220121
 10
-19.5970837468
 20
6.7875062113
 10
-19.5645677964
 20
4.5770304637
 10
-19.5261875474
 20
2.3682452046
 10
-19.4830750707
 20
0.2141815245
  0
LWPOLYLINE
  5
292
100
AcDbEntity
  8
290140580
100
AcDbPolyline
 62
7
  6
CONTINUOUS
 90
10
 70
0
 10
-19.6691159767
 20
20.0370186149
 10
-19.6716796066
 20
17.8636486703
 10
-19.6684926442
 20
15.6453957996
 10
-19.6594393841
 20
13.4286077871
 10
-19.6445199298
 20
11.2133356523
 10
-19.6237346002
 20
8.9996220121
 10
-19.5970837468
 20
6.7875062113
 10
-19.5645677964
 20
4.5770304637
 10
-19.5261875474
 20
2.3682452046
 10
-19.4830750707
 20
0.2141815245
  0
LWPOLYLINE
  5
293
100
AcDbEntity
  8
290140580
100
AcDbPolyline
 62
250
  6
CONTINUOUS
 90
13
 70
0
 10
-19.2644074947
 20
-0.5313116618
 10
-19.26397962
 20
-0.5057250395
 10
-19.2615771198
 20
-0.4799796606
 10
-19.2572402642
 20
-0.4545067718
 10
-19.2510417183
 20
-0.4297330278
 10
-19.2430853365
 20
-0.4060734002
 10
-19.2335044345
 20
-0.3839242183
 10
-19.2224595261
 20
-0.3636564485
 10
-19.2101356343
 20
-0.3456095174
 10
-19.196739217
 20
-0.3300856674
 10
-19.1824946809
 20
-0.317344849
 10
-19.1676406172
 20
-0.307600379
 10
-19.1524258213
 20
-0.3010153884
  0
LWPOLYLINE
  5
294
100
AcDbEntity
  8
290140600
100
AcDbPolyline
 62
250
  6
CONTINUOUS
 90
13
 70
0
 10
-19.2644074947
 20
-0.5313116618
 10
-19.26397962
 20
-0.5057250395
 10
-19.2615771198
 20
-0.4799796606
 10
-19.2572402642
 20
-0.4545067718
 10
-19.2510417183
 20
-0.4297330278
 10
-19.2430853365
 20
-0.4060734002
 10
-19.2335044345
 20
-0.3839242183
 10
-19.2224595261
 20
-0.3636564485
 10
-19.2101356343
 20
-0.3456095174
 10
-19.196739217
 20
-0.3300856674
 10
-19.1824946809
 20
-0.317344849
 10
-19.1676406172
 20
-0.307600379
 10
-19.1524258213
 20
-0.3010153884
  0
LWPOLYLINE
  5
295
100
AcDbEntity
  8
290140600
100
AcDbPolyline
 62
250
  6
CONTINUOUS
 90
19
 70
0
 10
-19.4650954156
 20
19.968700974
 10
-19.462657725
 20
20.0731482386
 10
-19.4559065486
 20
20.1780756507
 10
-19.4448769235
 20
20.2829641205
 10
-19.4296279906
 20
20.3872896737
 10
-19.4102352837
 20
20.4905420635
 10
-19.3867881219
 20
20.5922266126
 10
-19.3594002201
 20
20.6918541286
 10
-19.3282104592
 20
20.7889167797
 10
-19.2933765626
 20
20.8829085636
 10
-19.2550847632
 20
20.9733482333
 10
-19.2135216825
 20
21.0598108499
 10
-19.1688708916
 20
21.1418993135
 10
-19.1213453715
 20
21.2192216662
 10
-19.0711910697
 20
21.2913749936
 10
-19.018661442
 20
21.3579805228
 10
-18.964030105
 20
21.4187020647
 10
-18.9075640727
 20
21.4732518229
 10
-18.8495237537
 20
21.5213684211
  0
LWPOLYLINE
  5
296
100
AcDbEntity
  8
290140580
100
AcDbPolyline
 62
250
  6
CONTINUOUS
 90
19
 70
0
 10
-19.4650954156
 20
19.968700974
 10
-19.462657725
 20
20.0731482386
 10
-19.4559065486
 20
20.1780756507
 10
-19.4448769235
 20
20.2829641205
 10
-19.4296279906
 20
20.3872896737
 10
-19.4102352837
 20
20.4905420635
 10
-19.3867881219
 20
20.5922266126
 10
-19.3594002201
 20
20.6918541286
 10
-19.3282104592
 20
20.7889167797
 10
-19.2933765626
 20
20.8829085636
 10
-19.2550847632
 20
20.9733482333
 10
-19.2135216825
 20
21.0598108499
 10
-19.1688708916
 20
21.1418993135
 10
-19.1213453715
 20
21.2192216662
 10
-19.0711910697
 20
21.2913749936
 10
-19.018661442
 20
21.3579805228
 10
-18.964030105
 20
21.4187020647
 10
-18.9075640727
 20
21.4732518229
 10
-18.8495237537
 20
21.5213684211
  0
LWPOLYLINE
  5
297
100
AcDbEntity
  8
268140580
100
AcDbPolyline
 62
250
  6
CONTINUOUS
 90
28
 70
0
 10
-14.0431864252
 20
23.6524414971
 10
-14.0475584415
 20
23.6388873687
 10
-14.0525974501
 20
23.6254655832
 10
-14.0582863998
 20
23.6122215559
 10
-14.0646060405
 20
23.5992001002
 10
-14.0715349879
 20
23.586445277
 10
-14.0790497958
 20
23.5740002448
 10
-14.0871250358
 20
23.5619071138
 10
-14.0957333834
 20
23.5502068031
 10
-14.1048457098
 20
23.5389389027
 10
-14.1144311813
 20
23.5281415394
 10
-14.1244573633
 20
23.5178512476
 10
-14.1348903298
 20
23.508102846
 10
-14.1456947786
 20
23.4989293197
 10
-14.1568341505
 20
23.4903617083
 10
-14.1682707536
 20
23.4824290011
 10
-14.1799658896
 20
23.4751580395
 10
-14.191879986
 20
23.4685734253
 10
-14.2039727295
 20
23.4626974379
 10
-14.2162032022
 20
23.4575499593
 10
-14.2285300202
 20
23.4531484063
 10
-14.2409114742
 20
23.4495076716
 10
-14.2533056694
 20
23.4466400739
 10
-14.2656706682
 20
23.4445553156
 10
-14.2779646324
 20
23.4432604506
 10
-14.2901459636
 20
23.44275986
 10
-14.3021734441
 20
23.4430552374
 10
-14.3140063769
 20
23.4441455832
  0
LINE
  5
298
100
AcDbEntity
  8
268140580
100
AcDbLine
 62
250
  6
CONTINUOUS
 10
2.1588365747
 20
20.9831159658
 11
2.1593516095
 21
20.9833036065
  0
LINE
  5
299
100
AcDbEntity
  8
268140580
100
AcDbLine
 62
250
  6
CONTINUOUS
 10
2.1593516095
 20
20.9833036065
 11
2.1598668138
 21
20.9834875473
  0
LINE
  5
29A
100
AcDbEntity
  8
268140580
100
AcDbLine
 62
250
  6
CONTINUOUS
 10
2.1598668138
 20
20.9834875473
 11
2.160382178
 21
20.9836677845
  0
LINE
  5
29B
100
AcDbEntity
  8
268140580
100
AcDbLine
 62
250
  6
CONTINUOUS
 10
2.160382178
 20
20.9836677845
 11
2.1608976921
 21
20.9838443148
  0
LINE
  5
29C
100
AcDbEntity
  8
268140580
100
AcDbLine
 62
250
  6
CONTINUOUS
 10
2.1608976921
 20
20.9838443148
 11
2.1614133464
 21
20.9840171348
  0
LINE
  5
29D
100
AcDbEntity
  8
268140580
100
AcDbLine
 62
250
  6
CONTINUOUS
 10
2.1614133464
 20
20.9840171348
 11
2.161929131
 21
20.9841862412
  0
LINE
  5
29E
100
AcDbEntity
  8
268140580
100
AcDbLine
 62
250
  6
CONTINUOUS
 10
2.161929131
 20
20.9841862412
 11
2.1624450362
 21
20.9843516309
  0
LWPOLYLINE
  5
29F
100
AcDbEntity
  8
268140580
100
AcDbPolyline
 62
250
  6
CONTINUOUS
 90
12
 70
0
 10
1.9382587113
 20
21.5145324567
 10
1.9465171569
 20
21.5171135465
 10
1.9540658704
 20
21.5197723783
 10
1.9608793098
 20
21.5224999553
 10
1.9669344211
 20
21.5252870481
 10
1.972210716
 20
21.528124226
 10
1.9766903419
 20
21.5310018888
 10
1.9803581416
 20
21.5339102994
 10
1.983201705
 20
21.5368396167
 10
1.9852114109
 20
21.5397799286
 10
1.9863804599
 20
21.5427212862
 10
1.9867082279
 20
21.5455335856
  0
LWPOLYLINE
  5
2A0
100
AcDbEntity
  8
268140580
100
AcDbPolyline
 62
250
  6
CONTINUOUS
 90
12
 70
0
 10
1.9463290455
 20
21.144043572
 10
1.9545874693
 20
21.1466246547
 10
1.9621361667
 20
21.1492834794
 10
1.9689495955
 20
21.1520110498
 10
1.975004701
 20
21.1547981365
 10
1.9802809948
 20
21.1576353088
 10
1.9847606235
 20
21.1605129668
 10
1.9884284295
 20
21.1634213733
 10
1.9912720021
 20
21.1663506872
 10
1.9932817196
 20
21.1692909966
 10
1.9944507816
 20
21.1722323525
 10
1.9947785621
 20
21.175044701
  0
LINE
  5
2A1
100
AcDbEntity
  8
268140580
100
AcDbLine
 62
250
  6
CONTINUOUS
 10
2.1624450362
 20
20.9843516309
 11
2.1629610521
 21
20.9845133005
  0
LWPOLYLINE
  5
2A2
100
AcDbEntity
  8
268140580
100
AcDbPolyline
 62
250
  6
CONTINUOUS
 90
14
 70
0
 10
2.5113632488
 20
22.5372367726
 10
2.5188273253
 20
22.5395561023
 10
2.5257186699
 20
22.541939124
 10
2.532018394
 20
22.544379306
 10
2.5377092304
 20
22.5468699599
 10
2.542775581
 20
22.549404259
 10
2.5472035591
 20
22.5519752569
 10
2.5509810282
 20
22.5545759068
 10
2.5540976343
 20
22.5571990805
 10
2.556544835
 20
22.5598375879
 10
2.5583159228
 20
22.5624841972
 10
2.5594060433
 20
22.5651316542
 10
2.5598122084
 20
22.5677727023
 10
2.5598127654
 20
22.5682379016
  0
LINE
  5
2A3
100
AcDbEntity
  8
268140580
100
AcDbLine
 62
250
  6
CONTINUOUS
 10
2.1629610521
 20
20.9845133005
 11
2.1634771688
 21
20.9846712472
  0
LINE
  5
2A4
100
AcDbEntity
  8
268140580
100
AcDbLine
 62
7
  6
CONTINUOUS
 10
5.1844776381
 20
23.0966304023
 11
2.3819820733
 21
22.2493295262
  0
LINE
  5
2A5
100
AcDbEntity
  8
268140580
100
AcDbLine
 62
250
  6
CONTINUOUS
 10
2.1634771688
 20
20.9846712472
 11
2.1639933767
 21
20.9848254678
  0
LINE
  5
2A6
100
AcDbEntity
  8
268140580
100
AcDbLine
 62
7
  6
CONTINUOUS
 10
1.9783329715
 20
20.9563653763
 11
2.1015884989
 21
20.9927407615
  0
LINE
  5
2A7
100
AcDbEntity
  8
268140580
100
AcDbLine
 62
7
  6
CONTINUOUS
 10
6.6233119776
 20
22.1518369166
 11
2.947502632
 21
21.0707662421
  0
LINE
  5
2A8
100
AcDbEntity
  8
268140580
100
AcDbLine
 62
250
  6
CONTINUOUS
 10
2.7706166609
 20
21.1561977882
 11
2.1713132636
 21
20.9852043482
  0
LINE
  5
2A9
100
AcDbEntity
  8
268140580
100
AcDbLine
 62
250
  6
CONTINUOUS
 10
3.1015846667
 20
20.7235726304
 11
2.4980532692
 21
20.551372856
  0
LINE
  5
2AA
100
AcDbEntity
  8
268140580
100
AcDbLine
 62
7
  6
CONTINUOUS
 10
1.8359077791
 20
-21.4142503725
 11
2.5657143884
 21
-21.5068173932
  0
LWPOLYLINE
  5
2AB
100
AcDbEntity
  8
268140580
100
AcDbPolyline
 62
250
  6
CONTINUOUS
 90
28
 70
0
 10
-13.0443434841
 20
-22.2019426552
 10
-13.0492525814
 20
-22.1908399426
 10
-13.0548268503
 20
-22.1796883223
 10
-13.0610474293
 20
-22.1685255279
 10
-13.0678932698
 20
-22.1573893307
 10
-13.0753412076
 20
-22.1463174121
 10
-13.0833660414
 20
-22.135347236
 10
-13.0919406177
 20
-22.124515922
 10
-13.1010359227
 20
-22.1138601198
 10
-13.1106211809
 20
-22.1034158853
 10
-13.1206639587
 20
-22.0932185585
 10
-13.1311302746
 20
-22.0833026438
 10
-13.141984714
 20
-22.0737016936
 10
-13.1531905487
 20
-22.0644481945
 10
-13.1647098618
 20
-22.0555734575
 10
-13.1765036756
 20
-22.0471075116
 10
-13.1885320836
 20
-22.0390790032
 10
-13.2007543854
 20
-22.0315150981
 10
-13.2131292246
 20
-22.0244413901
 10
-13.2256147288
 20
-22.0178818145
 10
-13.2381686508
 20
-22.0118585668
 10
-13.2507485123
 20
-22.0063920277
 10
-13.2633117468
 20
-22.0015006943
 10
-13.2758158446
 20
-21.9972011173
 10
-13.2882184955
 20
-21.9935078452
 10
-13.300477733
 20
-21.9904333747
 10
-13.3125520757
 20
-21.9879881089
 10
-13.3244006678
 20
-21.9861803218
  0
LWPOLYLINE
  5
2AC
100
AcDbEntity
  8
290140600
100
AcDbPolyline
 62
250
  6
CONTINUOUS
 90
12
 70
0
 10
-19.4830635039
 20
0.2141821908
 10
-19.4816851822
 20
0.2074253564
 10
-19.4766318229
 20
0.1992475788
 10
-19.4678929338
 20
0.1912393333
 10
-19.4555535275
 20
0.1834575552
 10
-19.4397115138
 20
0.1759621773
 10
-19.4204679845
 20
0.1688096933
 10
-19.3979663992
 20
0.1620508343
 10
-19.372377222
 20
0.1557356619
 10
-19.3438714307
 20
0.1499122984
 10
-19.3126589873
 20
0.1446242777
 10
-19.2790197139
 20
0.1399111568
  0
LWPOLYLINE
  5
2AD
100
AcDbEntity
  8
290140580
100
AcDbPolyline
 62
250
  6
CONTINUOUS
 90
12
 70
0
 10
-19.4830635039
 20
0.2141821908
 10
-19.4816851822
 20
0.2074253564
 10
-19.4766318229
 20
0.1992475788
 10
-19.4678929338
 20
0.1912393333
 10
-19.4555535275
 20
0.1834575552
 10
-19.4397115138
 20
0.1759621773
 10
-19.4204679845
 20
0.1688096933
 10
-19.3979663992
 20
0.1620508343
 10
-19.372377222
 20
0.1557356619
 10
-19.3438714307
 20
0.1499122984
 10
-19.3126589873
 20
0.1446242777
 10
-19.2790197139
 20
0.1399111568
  0
LWPOLYLINE
  5
2AE
100
AcDbEntity
  8
268140580
100
AcDbPolyline
 62
250
  6
CONTINUOUS
 90
16
 70
0
 10
2.1589406166
 20
20.9810126101
 10
2.1591945684
 20
20.9811362907
 10
2.1594001539
 20
20.9812627072
 10
2.1595573734
 20
20.9813918597
 10
2.1596657244
 20
20.981525324
 10
2.1597257093
 20
20.9816615242
 10
2.1597388348
 20
20.9817957326
 10
2.1597051008
 20
20.9819279493
 10
2.1596245074
 20
20.9820581742
 10
2.1594985614
 20
20.9821816796
 10
2.1593272627
 20
20.9822984655
 10
2.1591106113
 20
20.982408532
 10
2.158850114
 20
20.9825071514
 10
2.158546273
 20
20.9825927476
 10
2.1581985861
 20
20.9826668968
 10
2.1578070532
 20
20.9827295987
  0
LWPOLYLINE
  5
2AF
100
AcDbEntity
  8
290140600
100
AcDbPolyline
 62
250
  6
CONTINUOUS
 90
22
 70
0
 10
-1.6846980213
 20
19.4706611238
 10
-1.7476841687
 20
19.4433981881
 10
-1.8099519661
 20
19.4090790553
 10
-1.8711983301
 20
19.3678759997
 10
-1.9311263276
 20
19.3199988304
 10
-1.9894436863
 20
19.2656838902
 10
-2.0458632187
 20
19.205189159
 10
-2.1001173231
 20
19.1388023586
 10
-2.1519329708
 20
19.0668597525
 10
-2.2010316888
 20
18.9897369406
 10
-2.2471658468
 20
18.907836624
 10
-2.2901241468
 20
18.8215509738
 10
-2.3297030493
 20
18.7312745574
 10
-2.365714637
 20
18.6374321492
 10
-2.3979739731
 20
18.5405051605
 10
-2.4263072532
 20
18.4409975542
 10
-2.4505736037
 20
18.3394169092
 10
-2.4706613025
 20
18.2362526705
 10
-2.4864709288
 20
18.1319982344
 10
-2.4979235815
 20
18.0271634205
 10
-2.5049634869
 20
17.9222726301
 10
-2.5075556079
 20
17.8178449532
  0
LWPOLYLINE
  5
2B0
100
AcDbEntity
  8
290140580
100
AcDbPolyline
 62
250
  6
CONTINUOUS
 90
22
 70
0
 10
-1.6846980213
 20
19.4706611238
 10
-1.7476841687
 20
19.4433981881
 10
-1.8099519661
 20
19.4090790553
 10
-1.8711983301
 20
19.3678759997
 10
-1.9311263276
 20
19.3199988304
 10
-1.9894436863
 20
19.2656838902
 10
-2.0458632187
 20
19.205189159
 10
-2.1001173231
 20
19.1388023586
 10
-2.1519329708
 20
19.0668597525
 10
-2.2010316888
 20
18.9897369406
 10
-2.2471658468
 20
18.907836624
 10
-2.2901241468
 20
18.8215509738
 10
-2.3297030493
 20
18.7312745574
 10
-2.365714637
 20
18.6374321492
 10
-2.3979739731
 20
18.5405051605
 10
-2.4263072532
 20
18.4409975542
 10
-2.4505736037
 20
18.3394169092
 10
-2.4706613025
 20
18.2362526705
 10
-2.4864709288
 20
18.1319982344
 10
-2.4979235815
 20
18.0271634205
 10
-2.5049634869
 20
17.9222726301
 10
-2.5075556079
 20
17.8178449532
  0
LWPOLYLINE
  5
2B1
100
AcDbEntity
  8
290140600
100
AcDbPolyline
 62
250
  6
CONTINUOUS
 90
22
 70
0
 10
-1.2608072056
 20
18.9336114312
 10
-1.3033416488
 20
18.9153310448
 10
-1.3450329651
 20
18.8925886956
 10
-1.3858811545
 20
18.8653843837
 10
-1.4260903448
 20
18.8335372513
 10
-1.4654564082
 20
18.797228156
 10
-1.5033669609
 20
18.7569996714
 10
-1.5397932607
 20
18.7127908044
 10
-1.5747640497
 20
18.664662548
 10
-1.6077531712
 20
18.613340454
 10
-1.6387244537
 20
18.5587884932
 10
-1.6677140687
 20
18.5010426948
 10
-1.6943043736
 20
18.4409366985
 10
-1.718464799
 20
18.3784241523
 10
-1.7402259143
 20
18.3135514082
 10
-1.7592617856
 20
18.2472911617
 10
-1.7755295495
 20
18.1796061772
 10
-1.7890720693
 20
18.1105336903
 10
-1.7996920014
 20
18.0411581032
 10
-1.8073235646
 20
17.9718408834
 10
-1.81203254
 20
17.9022205635
 10
-1.8138189277
 20
17.8322971434
  0
LWPOLYLINE
  5
2B2
100
AcDbEntity
  8
290140580
100
AcDbPolyline
 62
250
  6
CONTINUOUS
 90
22
 70
0
 10
-1.2608072056
 20
18.9336114312
 10
-1.3033416488
 20
18.9153310448
 10
-1.3450329651
 20
18.8925886956
 10
-1.3858811545
 20
18.8653843837
 10
-1.4260903448
 20
18.8335372513
 10
-1.4654564082
 20
18.797228156
 10
-1.5033669609
 20
18.7569996714
 10
-1.5397932607
 20
18.7127908044
 10
-1.5747640497
 20
18.664662548
 10
-1.6077531712
 20
18.613340454
 10
-1.6387244537
 20
18.5587884932
 10
-1.6677140687
 20
18.5010426948
 10
-1.6943043736
 20
18.4409366985
 10
-1.718464799
 20
18.3784241523
 10
-1.7402259143
 20
18.3135514082
 10
-1.7592617856
 20
18.2472911617
 10
-1.7755295495
 20
18.1796061772
 10
-1.7890720693
 20
18.1105336903
 10
-1.7996920014
 20
18.0411581032
 10
-1.8073235646
 20
17.9718408834
 10
-1.81203254
 20
17.9022205635
 10
-1.8138189277
 20
17.8322971434
  0
LINE
  5
2B3
100
AcDbEntity
  8
268140580
100
AcDbLine
 62
7
  6
CONTINUOUS
 10
2.0954021755
 20
20.9906448924
 11
1.3604140231
 21
20.7094366154
  0
LINE
  5
2B4
100
AcDbEntity
  8
268140580
100
AcDbLine
 62
250
  6
CONTINUOUS
 10
2.1578070532
 20
20.9827295987
 11
2.1583217193
 21
20.9829246287
  0
LINE
  5
2B5
100
AcDbEntity
  8
268140580
100
AcDbLine
 62
250
  6
CONTINUOUS
 10
2.1589406166
 20
20.9810126101
 11
1.2584702281
 21
20.6471657914
  0
LINE
  5
2B6
100
AcDbEntity
  8
290140600
100
AcDbLine
 62
250
  6
CONTINUOUS
 10
0.0422754049
 20
20.1109315776
 11
-1.6846980213
 21
19.4706611238
  0
LINE
  5
2B7
100
AcDbEntity
  8
290140580
100
AcDbLine
 62
250
  6
CONTINUOUS
 10
0.0422754049
 20
20.1109315776
 11
-1.6846980213
 21
19.4706611238
  0
LINE
  5
2B8
100
AcDbEntity
  8
268140580
100
AcDbLine
 62
250
  6
CONTINUOUS
 10
2.4980532692
 20
20.551372856
 11
1.5891476312
 21
20.2143986927
  0
LINE
  5
2B9
100
AcDbEntity
  8
290140600
100
AcDbLine
 62
250
  6
CONTINUOUS
 10
0.4556221587
 20
19.5699727042
 11
-1.2608072056
 21
18.9336114312
  0
LINE
  5
2BA
100
AcDbEntity
  8
290140580
100
AcDbLine
 62
250
  6
CONTINUOUS
 10
0.4556221587
 20
19.5699727042
 11
-1.2608072056
 21
18.9336114312
  0
LINE
  5
2BB
100
AcDbEntity
  8
290140600
100
AcDbLine
 62
7
  6
CONTINUOUS
 10
0.9601954063
 20
18.7875169884
 11
0.4765720612
 21
18.6082150177
  0
LINE
  5
2BC
100
AcDbEntity
  8
290140580
100
AcDbLine
 62
7
  6
CONTINUOUS
 10
0.9601954063
 20
18.7875169884
 11
0.4765720612
 21
18.6082150177
  0
LINE
  5
2BD
100
AcDbEntity
  8
268140580
100
AcDbLine
 62
250
  6
CONTINUOUS
 10
2.1583217193
 20
20.9829246287
 11
2.1588365747
 21
20.9831159658
  0
LINE
  5
2BE
100
AcDbEntity
  8
CORPO_STAMPATO
100
AcDbLine
 62
7
  6
CONTINUOUS
 10
3.1082230282
 20
20.4188220379
 11
6.9489358868
 21
21.6086999156
  0
LINE
  5
2BF
100
AcDbEntity
  8
268140580
100
AcDbLine
 62
7
  6
CONTINUOUS
 10
6.6332070909
 20
21.697576983
 11
3.103449833
 21
20.6379475034
  0
LINE
  5
2C0
100
AcDbEntity
  8
268140580
100
AcDbLine
 62
7
  6
CONTINUOUS
 10
1.6130657126
 20
19.1163793257
 11
2.0944124476
 21
19.2537173325
  0
LWPOLYLINE
  5
2C1
100
AcDbEntity
  8
268140580
100
AcDbPolyline
 62
250
  6
CONTINUOUS
 90
31
 70
0
 10
-13.4697180504
 20
-23.1734354143
 10
-13.4777147034
 20
-23.1756794352
 10
-13.4862447089
 20
-23.177848955
 10
-13.4952857413
 20
-23.1799378993
 10
-13.5048160455
 20
-23.1819408053
 10
-13.5148085555
 20
-23.1838515699
 10
-13.525230033
 20
-23.1856636677
 10
-13.536049498
 20
-23.1873717689
 10
-13.5472395086
 20
-23.1889715956
 10
-13.5587696849
 20
-23.1904587987
 10
-13.5706086525
 20
-23.1918293153
 10
-13.5827237685
 20
-23.1930793512
 10
-13.5950814831
 20
-23.1942054397
 10
-13.6076477527
 20
-23.1952044826
 10
-13.6203882696
 20
-23.1960737563
 10
-13.6332682137
 20
-23.1968108844
 10
-13.646252325
 20
-23.1974138456
 10
-13.6593049479
 20
-23.1978809808
 10
-13.6723902431
 20
-23.1982110055
 10
-13.6854723153
 20
-23.1984030137
 10
-13.698515306
 20
-23.1984564785
 10
-13.7114834429
 20
-23.1983712523
 10
-13.7243411671
 20
-23.1981475681
 10
-13.7370532181
 20
-23.1977860385
 10
-13.749584725
 20
-23.1972876547
 10
-13.761901334
 20
-23.1966537824
 10
-13.7739692597
 20
-23.1958861597
 10
-13.7857553697
 20
-23.1949868947
 10
-13.797227334
 20
-23.1939584555
 10
-13.808353711
 20
-23.1928036622
 10
-13.8191039933
 20
-23.1915256823
  0
LWPOLYLINE
  5
2C2
100
AcDbEntity
  8
268140580
100
AcDbPolyline
 62
250
  6
CONTINUOUS
 90
31
 70
0
 10
-13.4787905033
 20
-22.7569417685
 10
-13.4868068531
 20
-22.7591910491
 10
-13.4953535041
 20
-22.7613641155
 10
-13.5044070304
 20
-22.7634550114
 10
-13.5139426169
 20
-22.7654580059
 10
-13.5239341272
 20
-22.7673676088
 10
-13.5343541754
 20
-22.7691785862
 10
-13.5451742008
 20
-22.7708859741
 10
-13.5563645464
 20
-22.7724850929
 10
-13.5678945403
 20
-22.7739715594
 10
-13.5797325796
 20
-22.7753412993
 10
-13.5918462171
 20
-22.7765905583
 10
-13.60420225
 20
-22.7777159122
 10
-13.6167668114
 20
-22.7787142765
 10
-13.6295054627
 20
-22.7795829148
 10
-13.6423832881
 20
-22.7803194462
 10
-13.6553649904
 20
-22.7809218519
 10
-13.6684149877
 20
-22.7813884807
 10
-13.6814975108
 20
-22.7817180537
 10
-13.6945767014
 20
-22.7819096675
 10
-13.7076167104
 20
-22.781962797
 10
-13.7205817961
 20
-22.7818772964
 10
-13.7334364219
 20
-22.7816534002
 10
-13.7461453544
 20
-22.781291722
 10
-13.7586737591
 20
-22.7807932532
 10
-13.7709872967
 20
-22.78015936
 10
-13.7830522165
 20
-22.7793917799
 10
-13.7948354495
 20
-22.7784926167
 10
-13.8063046985
 20
-22.7774643351
 10
-13.8174285273
 20
-22.7763097535
 10
-13.8281764462
 20
-22.7750320365
  0
LINE
  5
2C3
100
AcDbEntity
  8
268140580
100
AcDbLine
 62
250
  6
CONTINUOUS
 10
3.528680654
 20
-24.165263874
 11
3.0757591707
 21
-23.872146493
  0
LINE
  5
2C4
100
AcDbEntity
  8
268140580
100
AcDbLine
 62
7
  6
CONTINUOUS
 10
3.4630187885
 20
-23.9298253296
 11
3.0126691541
 21
-23.6383723729
  0
LWPOLYLINE
  5
2C5
100
AcDbEntity
  8
268140580
100
AcDbPolyline
 62
250
  6
CONTINUOUS
 90
25
 70
0
 10
3.0757591707
 20
-23.872146493
 10
3.0646229528
 20
-23.8644360242
 10
3.0537707088
 20
-23.8558619365
 10
3.0432024388
 20
-23.8464242297
 10
3.0328916777
 20
-23.8361035572
 10
3.0228648906
 20
-23.8249192657
 10
3.0132014726
 20
-23.812929395
 10
3.00390556
 20
-23.800125872
 10
2.9949730165
 20
-23.7865167698
 10
2.9864708288
 20
-23.7721843472
 10
2.9784034489
 20
-23.7571217545
 10
2.9707664248
 20
-23.7413358415
 10
2.9636133868
 20
-23.7249294161
 10
2.9569490697
 20
-23.707897146
 10
2.9507687387
 20
-23.6902443634
 10
2.9451118195
 20
-23.6720898734
 10
2.9399827214
 20
-23.6534241424
 10
2.9353770351
 20
-23.6342567039
 10
2.931320959
 20
-23.6147349627
 10
2.9278214306
 20
-23.5948607859
 10
2.9248715125
 20
-23.5746323063
 10
2.9224765906
 20
-23.5541913276
 10
2.9206384603
 20
-23.5335851178
 10
2.9193553262
 20
-23.512766409
 10
2.9186271883
 20
-23.4917352011
  0
LWPOLYLINE
  5
2C6
100
AcDbEntity
  8
268140580
100
AcDbPolyline
 62
250
  6
CONTINUOUS
 90
24
 70
0
 10
-15.3504370562
 20
-22.9972948578
 10
-15.3498722406
 20
-23.011534795
 10
-15.3488033542
 20
-23.0255766796
 10
-15.3472340541
 20
-23.0393724689
 10
-15.3451697095
 20
-23.0528749624
 10
-15.3426173833
 20
-23.0660379631
 10
-15.3395858079
 20
-23.0788164354
 10
-15.3360853554
 20
-23.0911666594
 10
-15.3321280023
 20
-23.1030463804
 10
-15.3277272881
 20
-23.1144149533
 10
-15.3228982693
 20
-23.1252334821
 10
-15.3176574678
 20
-23.1354649525
 10
-15.3120228143
 20
-23.1450743589
 10
-15.3060135871
 20
-23.1540288238
 10
-15.2996503459
 20
-23.1622977108
 10
-15.2929548619
 20
-23.1698527287
 10
-15.2859500428
 20
-23.1766680292
 10
-15.2786598546
 20
-23.1827202945
 10
-15.2711092398
 20
-23.1879888176
 10
-15.263324032
 20
-23.1924555728
 10
-15.2553308671
 20
-23.1961052778
 10
-15.2471570929
 20
-23.1989254455
 10
-15.2388306748
 20
-23.2009064271
 10
-15.23399971
 20
-23.2016608693
  0
LWPOLYLINE
  5
2C7
100
AcDbEntity
  8
268140580
100
AcDbPolyline
 62
250
  6
CONTINUOUS
 90
19
 70
0
 10
-16.3768269143
 20
24.1216994347
 10
-16.3762666065
 20
24.1075376717
 10
-16.3752077656
 20
24.093571515
 10
-16.3736539744
 20
24.0798482219
 10
-16.3716104904
 20
24.0664142274
 10
-16.3690842281
 20
24.0533149881
 10
-16.3660837356
 20
24.0405948276
 10
-16.3626191655
 20
24.0282967868
 10
-16.358702241
 20
24.0164624786
 10
-16.3543462156
 20
24.0051319464
 10
-16.3495658288
 20
23.9943435291
 10
-16.3443772558
 20
23.9841337314
 10
-16.3387980531
 20
23.9745371
 10
-16.3328470991
 20
23.9655861068
 10
-16.3265445299
 20
23.9573110391
 10
-16.3199116712
 20
23.9497398973
 10
-16.3129709668
 20
23.9428982996
 10
-16.3057459016
 20
23.9368093958
 10
-16.298260923
 20
23.9314937888
  0
LWPOLYLINE
  5
2C8
100
AcDbEntity
  8
268140580
100
AcDbPolyline
 62
250
  6
CONTINUOUS
 90
25
 70
0
 10
-15.7667734486
 20
23.4481707618
 10
-15.7671395837
 20
23.4586584832
 10
-15.7677811082
 20
23.4690788511
 10
-15.7686994288
 20
23.4794114165
 10
-15.7698957344
 20
23.4896379755
 10
-15.7713701692
 20
23.4997353575
 10
-15.7731211782
 20
23.5096758698
 10
-15.7751480664
 20
23.5194421584
 10
-15.7774483979
 20
23.5290108428
 10
-15.7800152814
 20
23.5383468409
 10
-15.7828436279
 20
23.5474292744
 10
-15.7859291959
 20
23.5562423707
 10
-15.7892636244
 20
23.5647611906
 10
-15.7928405219
 20
23.572969583
 10
-15.7966528073
 20
23.5808514637
 10
-15.8006890672
 20
23.5883846002
 10
-15.804941029
 20
23.5955558839
 10
-15.8093996325
 20
23.6023522427
 10
-15.8140503673
 20
23.6087548594
 10
-15.8188828636
 20
23.6147537446
 10
-15.8238868726
 20
23.6203402832
 10
-15.8290464741
 20
23.6255015195
 10
-15.8343485422
 20
23.6302301302
 10
-15.8397833635
 20
23.6345230646
 10
-15.8453394398
 20
23.6383764077
  0
LINE
  5
2C9
100
AcDbEntity
  8
268140580
100
AcDbLine
 62
7
  6
CONTINUOUS
 10
-15.4615554678
 20
-22.5425986981
 11
-15.4524830149
 21
-22.9590923439
  0
LINE
  5
2CA
100
AcDbEntity
  8
268140580
100
AcDbLine
 62
7
  6
CONTINUOUS
 10
-16.478872873
 20
24.1599019486
 11
-16.4879453258
 21
24.5763955944
  0
LINE
  5
2CB
100
AcDbEntity
  8
268140580
100
AcDbLine
 62
250
  6
CONTINUOUS
 10
-15.3595095091
 20
-22.580801212
 11
-15.3504370562
 21
-22.9972948578
  0
LINE
  5
2CC
100
AcDbEntity
  8
268140580
100
AcDbLine
 62
250
  6
CONTINUOUS
 10
-16.3768269143
 20
24.1216994347
 11
-16.3858993671
 21
24.5381930805
  0
LINE
  5
2CD
100
AcDbEntity
  8
268140580
100
AcDbLine
 62
7
  6
CONTINUOUS
 10
-16.3069801498
 20
22.1846341986
 11
-16.3135259022
 21
22.4851333391
  0
LINE
  5
2CE
100
AcDbEntity
  8
268140580
100
AcDbLine
 62
7
  6
CONTINUOUS
 10
-15.8549187258
 20
22.8482277183
 11
-15.8688194073
 21
23.4863732756
  0
LINE
  5
2CF
100
AcDbEntity
  8
268140580
100
AcDbLine
 62
250
  6
CONTINUOUS
 10
-15.7527596382
 20
22.8048317379
 11
-15.7667734486
 21
23.4481707618
  0
LWPOLYLINE
  5
2D0
100
AcDbEntity
  8
268140580
100
AcDbPolyline
 62
250
  6
CONTINUOUS
 90
28
 70
0
 10
-14.8545663042
 20
24.343962256
 10
-14.8546251166
 20
24.3583515258
 10
-14.8541777246
 20
24.3728408971
 10
-14.8532256589
 20
24.3873807962
 10
-14.8517721769
 20
24.4019214769
 10
-14.8498222514
 20
24.4164131899
 10
-14.8473825539
 20
24.4308063538
 10
-14.8444614315
 20
24.4450517241
 10
-14.8410688784
 20
24.4591005622
 10
-14.8372165019
 20
24.4729048016
 10
-14.8329174823
 20
24.4864172129
 10
-14.8281865282
 20
24.4995915651
 10
-14.823039826
 20
24.5123827838
 10
-14.8174949845
 20
24.5247471056
 10
-14.8115709746
 20
24.5366422274
 10
-14.8052880646
 20
24.5480274515
 10
-14.7986677507
 20
24.5588638249
 10
-14.7917326834
 20
24.5691142723
 10
-14.7845065902
 20
24.5787437231
 10
-14.7770141942
 20
24.5877192312
 10
-14.7692811298
 20
24.5960100883
 10
-14.7613338547
 20
24.6035879281
 10
-14.7531995594
 20
24.610426824
 10
-14.7449060744
 20
24.6165033776
 10
-14.7364817748
 20
24.6217967987
 10
-14.7279554833
 20
24.6262889766
 10
-14.7193563716
 20
24.6299645418
 10
-14.7107138603
 20
24.6328109189
  0
LWPOLYLINE
  5
2D1
100
AcDbEntity
  8
268140580
100
AcDbPolyline
 62
250
  6
CONTINUOUS
 90
9
 70
0
 10
2.1742650156
 20
20.9829876155
 10
2.1750395454
 20
20.9835583539
 10
2.1752063522
 20
20.9838386006
 10
2.1750816834
 20
20.9841271207
 10
2.1747391895
 20
20.9844121567
 10
2.1741885159
 20
20.9846648894
 10
2.1734344803
 20
20.9848764849
 10
2.1724755955
 20
20.9850564127
 10
2.1713132636
 20
20.9852043482
  0
LINE
  5
2D2
100
AcDbEntity
  8
CORPO_STAMPATO
100
AcDbLine
 62
250
  6
CONTINUOUS
 10
17.1434110411
 20
22.1646540877
 11
3.1594636567
 21
18.0664927909
  0
LINE
  5
2D3
100
AcDbEntity
  8
CORPO_STAMPATO
100
AcDbLine
 62
250
  6
CONTINUOUS
 10
17.6456264446
 20
20.7200226661
 11
3.1939180327
 21
16.4847784637
  0
LWPOLYLINE
  5
2D4
100
AcDbEntity
  8
268140580
100
AcDbPolyline
 62
250
  6
CONTINUOUS
 90
31
 70
0
 10
-14.5051803613
 20
24.362052524
 10
-14.5056662422
 20
24.3748897656
 10
-14.5067012702
 20
24.3877697937
 10
-14.5082836489
 20
24.4006574608
 10
-14.5104105769
 20
24.4135201717
 10
-14.5130769696
 20
24.4263198919
 10
-14.5162743485
 20
24.4390134302
 10
-14.5199930779
 20
24.4515632584
 10
-14.5242235997
 20
24.4639377444
 10
-14.5289544421
 20
24.4761032709
 10
-14.5341727688
 20
24.4880266769
 10
-14.5398642274
 20
24.4996750306
 10
-14.5460130682
 20
24.5110160565
 10
-14.5526023429
 20
24.5220185267
 10
-14.5596140529
 20
24.5326524169
 10
-14.5670290363
 20
24.542888662
 10
-14.574827002
 20
24.5526992273
 10
-14.5829865437
 20
24.5620571597
 10
-14.5914852612
 20
24.5709367584
 10
-14.6002998426
 20
24.5793136626
 10
-14.6094061286
 20
24.5871649081
 10
-14.6187791456
 20
24.5944689589
 10
-14.6283931946
 20
24.6012057842
 10
-14.6382219121
 20
24.6073569063
 10
-14.6482383378
 20
24.61290545
 10
-14.658415014
 20
24.6178362024
 10
-14.6687240267
 20
24.6221356362
 10
-14.6791370717
 20
24.6257919486
 10
-14.689625582
 20
24.6287951154
 10
-14.7001608079
 20
24.631136911
 10
-14.7107138603
 20
24.6328109189
  0
LINE
  5
2D5
100
AcDbEntity
  8
268140580
100
AcDbLine
 62
250
  6
CONTINUOUS
 10
-14.8545663042
 20
24.343962256
 11
-14.8454938513
 21
23.9274686102
  0
LINE
  5
2D6
100
AcDbEntity
  8
268140580
100
AcDbLine
 62
250
  6
CONTINUOUS
 10
-13.8281764462
 20
-22.7750320365
 11
-13.8191039933
 21
-23.1915256823
  0
LINE
  5
2D7
100
AcDbEntity
  8
268140580
100
AcDbLine
 62
250
  6
CONTINUOUS
 10
-14.5051803613
 20
24.362052524
 11
-14.4961079084
 21
23.9455588782
  0
LINE
  5
2D8
100
AcDbEntity
  8
268140580
100
AcDbLine
 62
250
  6
CONTINUOUS
 10
-13.4787905033
 20
-22.7569417685
 11
-13.4697180504
 21
-23.1734354143
  0
LINE
  5
2D9
100
AcDbEntity
  8
268140580
100
AcDbLine
 62
250
  6
CONTINUOUS
 10
-14.2354403856
 20
23.2539399373
 11
-14.2214265753
 21
22.6106009134
  0
LINE
  5
2DA
100
AcDbEntity
  8
268140580
100
AcDbLine
 62
250
  6
CONTINUOUS
 10
-13.8860544427
 20
23.2720302052
 11
-13.8723201293
 21
22.6415221855
  0
LINE
  5
2DB
100
AcDbEntity
  8
268140580
100
AcDbLine
 62
250
  6
CONTINUOUS
 10
-13.2864051069
 20
23.0761291421
 11
-13.2944754411
 21
23.4466180267
  0
LINE
  5
2DC
100
AcDbEntity
  8
268140580
100
AcDbLine
 62
7
  6
CONTINUOUS
 10
-13.2379555903
 20
23.107130271
 11
-13.2460259245
 21
23.4776191557
  0
LWPOLYLINE
  5
2DD
100
AcDbEntity
  8
268140580
100
AcDbPolyline
 62
7
  6
CONTINUOUS
 90
28
 70
0
 10
-13.2460259245
 20
23.4776191557
 10
-13.2461574496
 20
23.4911561218
 10
-13.2459624826
 20
23.5048950435
 10
-13.2454352647
 20
23.5187966378
 10
-13.2445713322
 20
23.5328282709
 10
-13.2433688545
 20
23.5469413968
 10
-13.2418304278
 20
23.5610719074
 10
-13.2399589775
 20
23.5751811541
 10
-13.237759962
 20
23.5892249538
 10
-13.2352463232
 20
23.6031315232
 10
-13.2324292408
 20
23.6168598575
 10
-13.2293211522
 20
23.6303722039
 10
-13.2259435211
 20
23.6436039815
 10
-13.2223136391
 20
23.6565209758
 10
-13.2184509098
 20
23.6690881558
 10
-13.2143861406
 20
23.6812438671
 10
-13.210143515
 20
23.6929583275
 10
-13.2057471061
 20
23.7042074214
 10
-13.2012329794
 20
23.7149436823
 10
-13.1966298541
 20
23.725146183
 10
-13.191965268
 20
23.7348008639
 10
-13.1872775873
 20
23.7438766276
 10
-13.1825987501
 20
23.7523616635
 10
-13.177957503
 20
23.7602534232
 10
-13.173390284
 20
23.7675398071
 10
-13.1689305502
 20
23.7742182227
 10
-13.164607101
 20
23.7802960578
 10
-13.1604500621
 20
23.7857808799
  0
LWPOLYLINE
  5
2DE
100
AcDbEntity
  8
268140580
100
AcDbPolyline
 62
250
  6
CONTINUOUS
 90
25
 70
0
 10
-13.2944754411
 20
23.4466180267
 10
-13.294667684
 20
23.4677764079
 10
-13.2943036175
 20
23.4890548773
 10
-13.2933832418
 20
23.510453435
 10
-13.2919064846
 20
23.532022963
 10
-13.2898734181
 20
23.5537125793
 10
-13.2872842587
 20
23.5753696379
 10
-13.2841332509
 20
23.5969930852
 10
-13.2804261502
 20
23.6185839748
 10
-13.2761804389
 20
23.6399928218
 10
-13.2713908776
 20
23.6612173529
 10
-13.2660627058
 20
23.6822598414
 10
-13.2602291244
 20
23.7029776218
 10
-13.2538854411
 20
23.7233673304
 10
-13.2470363483
 20
23.7434323309
 10
-13.2397291241
 20
23.7630400493
 10
-13.2319590067
 20
23.7821867441
 10
-13.2237307579
 20
23.8008761567
 10
-13.2151059411
 20
23.8189869374
 10
-13.2060804225
 20
23.8365132443
 10
-13.1966583359
 20
23.8534609193
 10
-13.1869136462
 20
23.8697261378
 10
-13.1768710082
 20
23.8852742915
 10
-13.1665057671
 20
23.9001399887
 10
-13.1558179228
 20
23.9143232293
  0
LWPOLYLINE
  5
2DF
100
AcDbEntity
  8
268140580
100
AcDbPolyline
 62
250
  6
CONTINUOUS
 90
25
 70
0
 10
-13.4697180504
 20
-23.1734354143
 10
-13.4696475386
 20
-23.1861933875
 10
-13.4701294934
 20
-23.1988463428
 10
-13.4711625939
 20
-23.2113595994
 10
-13.4727440083
 20
-23.2236988594
 10
-13.4748694021
 20
-23.2358303017
 10
-13.4775329498
 20
-23.2477206748
 10
-13.4807273507
 20
-23.259337388
 10
-13.4844438493
 20
-23.2706486009
 10
-13.4886722588
 20
-23.28162331
 10
-13.4934009895
 20
-23.2922314345
 10
-13.4986170803
 20
-23.3024438983
 10
-13.5043062342
 20
-23.3122327097
 10
-13.5104528576
 20
-23.3215710383
 10
-13.5170401031
 20
-23.3304332883
 10
-13.5240499155
 20
-23.3387951689
 10
-13.5314630814
 20
-23.3466337608
 10
-13.5392592818
 20
-23.353927579
 10
-13.5474171479
 20
-23.3606566317
 10
-13.5559143195
 20
-23.3668024749
 10
-13.5647275065
 20
-23.3723482633
 10
-13.5738325525
 20
-23.3772787963
 10
-13.5832045013
 20
-23.3815805596
 10
-13.5928176649
 20
-23.3852417625
 10
-13.5972573351
 20
-23.3866906096
  0
LWPOLYLINE
  5
2E0
100
AcDbEntity
  8
268140580
100
AcDbPolyline
 62
250
  6
CONTINUOUS
 90
19
 70
0
 10
-13.8281764462
 20
-22.7750320365
 10
-13.8282363249
 20
-22.7607225859
 10
-13.827795572
 20
-22.7463138666
 10
-13.8268556789
 20
-22.7318546329
 10
-13.8254198258
 20
-22.7173938105
 10
-13.8234928712
 20
-22.7029803301
 10
-13.8210813353
 20
-22.6886629623
 10
-13.818193378
 20
-22.6744901527
 10
-13.8148387712
 20
-22.6605098575
 10
-13.8110288659
 20
-22.6467693816
 10
-13.8067765535
 20
-22.6333152185
 10
-13.8020962226
 20
-22.6201928928
 10
-13.7970037099
 20
-22.6074468062
 10
-13.7915162468
 20
-22.5951200875
 10
-13.7856524013
 20
-22.5832544464
 10
-13.7794320146
 20
-22.5718900325
 10
-13.7728761346
 20
-22.5610652994
 10
-13.7660069443
 20
-22.5508168744
 10
-13.758847687
 20
-22.5411794352
  0
LWPOLYLINE
  5
2E1
100
AcDbEntity
  8
CORPO_STAMPATO
100
AcDbPolyline
 62
250
  6
CONTINUOUS
 90
24
 70
0
 10
17.6456264446
 20
20.7200226661
 10
17.6610571681
 20
20.7248645894
 10
17.6758703428
 20
20.729776557
 10
17.6900549686
 20
20.7347549212
 10
17.7036005117
 20
20.739795985
 10
17.7164969133
 20
20.7448960049
 10
17.7287345963
 20
20.7500511936
 10
17.740304473
 20
20.7552577228
 10
17.7511979516
 20
20.7605117262
 10
17.7614069424
 20
20.765809302
 10
17.7709238643
 20
20.7711465164
 10
17.7797416499
 20
20.7765194057
 10
17.7878537511
 20
20.7819239802
 10
17.7952541437
 20
20.7873562263
 10
17.8019373323
 20
20.7928121099
 10
17.8078983539
 20
20.7982875797
 10
17.8131327816
 20
20.8037785693
 10
17.8176367286
 20
20.8092810013
 10
17.82140685
 20
20.8147907893
 10
17.8244403462
 20
20.820303842
 10
17.8267349645
 20
20.8258160651
 10
17.8282890008
 20
20.8313233654
 10
17.8291013012
 20
20.8368216531
 10
17.8292227875
 20
20.8409645748
  0
LINE
  5
2E2
100
AcDbEntity
  8
290140600
100
AcDbLine
 62
250
  6
CONTINUOUS
 10
-14.1206440847
 20
-11.5128148469
 11
-6.866961155
 21
-12.4328555945
  0
LINE
  5
2E3
100
AcDbEntity
  8
268140580
100
AcDbLine
 62
7
  6
CONTINUOUS
 10
3.0134075204
 20
-23.6391524911
 11
3.0126691541
 21
-23.6383723729
  0
LWPOLYLINE
  5
2E4
100
AcDbEntity
  8
268140580
100
AcDbPolyline
 62
7
  6
CONTINUOUS
 90
24
 70
0
 10
3.0126691541
 20
-23.6383723729
 10
3.0123697129
 20
-23.6380469948
 10
3.0111573447
 20
-23.6366037211
 10
3.0095852856
 20
-23.6345602613
 10
3.0077008396
 20
-23.6318913349
 10
3.0055614925
 20
-23.6285942894
 10
3.0032109632
 20
-23.6246549366
 10
3.0006924235
 20
-23.6200642238
 10
2.9980455547
 20
-23.6148125506
 10
2.99530795
 20
-23.6088907911
 10
2.9925195064
 20
-23.6022998073
 10
2.9897164717
 20
-23.5950377824
 10
2.9869334485
 20
-23.5871030351
 10
2.9842073915
 20
-23.5785058683
 10
2.9815740838
 20
-23.5692610864
 10
2.9790654162
 20
-23.5593774773
 10
2.9767142735
 20
-23.548874761
 10
2.9745538662
 20
-23.5377866824
 10
2.9726118287
 20
-23.5261326644
 10
2.9709157224
 20
-23.5139426721
 10
2.9694932638
 20
-23.5012707932
 10
2.9683667841
 20
-23.4881582263
 10
2.9675552476
 20
-23.4746330389
 10
2.9670767049
 20
-23.4607340721
  0
LWPOLYLINE
  5
2E5
100
AcDbEntity
  8
290140600
100
AcDbPolyline
 62
250
  6
CONTINUOUS
 90
10
 70
0
 10
-19.669111166
 20
20.0370186027
 10
-19.6661513545
 20
20.0278391238
 10
-19.6578731201
 20
20.0192248193
 10
-19.6443581582
 20
20.0107879263
 10
-19.6257512724
 20
20.0026188403
 10
-19.6022518228
 20
19.9948050876
 10
-19.5741115901
 20
19.9874303873
 10
-19.5416320775
 20
19.9805737543
 10
-19.5051612811
 20
19.9743086527
 10
-19.4650899604
 20
19.9687022088
  0
LWPOLYLINE
  5
2E6
100
AcDbEntity
  8
290140580
100
AcDbPolyline
 62
250
  6
CONTINUOUS
 90
10
 70
0
 10
-19.669111166
 20
20.0370186027
 10
-19.6661513545
 20
20.0278391238
 10
-19.6578731201
 20
20.0192248193
 10
-19.6443581582
 20
20.0107879263
 10
-19.6257512724
 20
20.0026188403
 10
-19.6022518228
 20
19.9948050876
 10
-19.5741115901
 20
19.9874303873
 10
-19.5416320775
 20
19.9805737543
 10
-19.5051612811
 20
19.9743086527
 10
-19.4650899604
 20
19.9687022088
  0
LWPOLYLINE
  5
2E7
100
AcDbEntity
  8
268140580
100
AcDbPolyline
 62
250
  6
CONTINUOUS
 90
19
 70
0
 10
-16.478872873
 20
24.1599019486
 10
-16.4785934125
 20
24.1577397475
 10
-16.477630205
 20
24.1551331964
 10
-16.4759853333
 20
24.152554639
 10
-16.4736633062
 20
24.1500111428
 10
-16.4706704879
 20
24.1475096795
 10
-16.4670150817
 20
24.1450571054
 10
-16.4627071068
 20
24.1426601428
 10
-16.457758371
 20
24.1403253617
 10
-16.4521824385
 20
24.1380591614
 10
-16.4459945926
 20
24.1358677535
 10
-16.4392117935
 20
24.1337571446
 10
-16.4318526327
 20
24.1317331195
 10
-16.4239372809
 20
24.1298012261
 10
-16.4154874337
 20
24.1279667595
 10
-16.4065262514
 20
24.1262347479
 10
-16.3970782961
 20
24.1246099386
 10
-16.3871694639
 20
24.123096785
 10
-16.3768269143
 20
24.1216994347
  0
LWPOLYLINE
  5
2E8
100
AcDbEntity
  8
268140580
100
AcDbPolyline
 62
250
  6
CONTINUOUS
 90
19
 70
0
 10
-16.4879453258
 20
24.5763955944
 10
-16.4876681486
 20
24.5742430341
 10
-16.4867072089
 20
24.5716358986
 10
-16.4850643208
 20
24.5690567272
 10
-16.482743966
 20
24.5665125821
 10
-16.4797525003
 20
24.5640104511
 10
-16.4760981296
 20
24.561557205
 10
-16.4717908749
 20
24.5591595738
 10
-16.4668425394
 20
24.5568241299
 10
-16.4612666906
 20
24.5545572789
 10
-16.4550786138
 20
24.5523652367
 10
-16.4482952754
 20
24.5502540152
 10
-16.4409352802
 20
24.5482294058
 10
-16.4330188025
 20
24.5462969592
 10
-16.424567555
 20
24.5444619762
 10
-16.4156047424
 20
24.5427294948
 10
-16.4061549569
 20
24.5411042666
 10
-16.3962441051
 20
24.5395907454
 10
-16.3858993671
 20
24.5381930805
  0
LINE
  5
2E9
100
AcDbEntity
  8
268140580
100
AcDbLine
 62
250
  6
CONTINUOUS
 10
-11.6955395426
 20
-22.6240327463
 11
-11.7040534985
 21
-22.233178304
  0
LINE
  5
2EA
100
AcDbEntity
  8
268140580
100
AcDbLine
 62
250
  6
CONTINUOUS
 10
-12.7213709036
 20
24.4693223427
 11
-12.7298848594
 21
24.860176785
  0
LINE
  5
2EB
100
AcDbEntity
  8
268140580
100
AcDbLine
 62
7
  6
CONTINUOUS
 10
-11.647090026
 20
-22.5930316174
 11
-11.6556039819
 21
-22.202177175
  0
LINE
  5
2EC
100
AcDbEntity
  8
268140580
100
AcDbLine
 62
7
  6
CONTINUOUS
 10
-12.672921387
 20
24.5003234716
 11
-12.6814353429
 21
24.891177914
  0
LWPOLYLINE
  5
2ED
100
AcDbEntity
  8
268140580
100
AcDbPolyline
 62
250
  6
CONTINUOUS
 90
24
 70
0
 10
-11.6955395426
 20
-22.6240327463
 10
-11.6954685304
 20
-22.6367597116
 10
-11.6959477791
 20
-22.6493903282
 10
-11.696977039
 20
-22.6618898661
 10
-11.6985549473
 20
-22.6742264623
 10
-11.70067807
 20
-22.6863632635
 10
-11.7033397455
 20
-22.6982590016
 10
-11.7065318998
 20
-22.709878484
 10
-11.7102463156
 20
-22.7211925436
 10
-11.7144729394
 20
-22.7321704779
 10
-11.7192003266
 20
-22.7427823681
 10
-11.7244154771
 20
-22.7529988595
 10
-11.7301039465
 20
-22.7627916028
 10
-11.7362500478
 20
-22.7721336271
 10
-11.7428369971
 20
-22.7809994535
 10
-11.7498467926
 20
-22.7893648464
 10
-11.7572602529
 20
-22.7972068904
 10
-11.7650570278
 20
-22.8045040353
 10
-11.7732157107
 20
-22.8112362352
 10
-11.7817139209
 20
-22.8173850189
 10
-11.7905283666
 20
-22.8229335301
 10
-11.7996348757
 20
-22.8278665485
 10
-11.8090084797
 20
-22.8321705445
 10
-11.8181201313
 20
-22.8356419455
  0
LINE
  5
2EE
100
AcDbEntity
  8
268140580
100
AcDbLine
 62
250
  6
CONTINUOUS
 10
2.0769162296
 20
21.9822376593
 11
2.5113632488
 21
22.5372367726
  0
LINE
  5
2EF
100
AcDbEntity
  8
268140580
100
AcDbLine
 62
7
  6
CONTINUOUS
 10
2.0722840903
 20
21.8536953098
 11
2.5067311095
 21
22.4086944232
  0
LWPOLYLINE
  5
2F0
100
AcDbEntity
  8
268140580
100
AcDbPolyline
 62
250
  6
CONTINUOUS
 90
17
 70
0
 10
-15.8688194073
 20
23.4863732756
 10
-15.8682947994
 20
23.4833394912
 10
-15.8669295779
 20
23.4804545582
 10
-15.8647250315
 20
23.4776080752
 10
-15.8616886201
 20
23.4748096739
 10
-15.8578306187
 20
23.4720688231
 10
-15.8531640821
 20
23.4693947968
 10
-15.8477048007
 20
23.466796643
 10
-15.8414712475
 20
23.4642831529
 10
-15.8344845152
 20
23.4618628313
 10
-15.8267682448
 20
23.4595438676
 10
-15.8183485457
 20
23.4573341083
 10
-15.8092539079
 20
23.4552410304
 10
-15.7995151041
 20
23.4532717162
 10
-15.7891650871
 20
23.4514328289
 10
-15.7782388783
 20
23.4497305909
 10
-15.7667734486
 20
23.4481707618
  0
LINE
  5
2F1
100
AcDbEntity
  8
268140580
100
AcDbLine
 62
7
  6
CONTINUOUS
 10
-10.5367986836
 20
23.7498952439
 11
-10.5057874277
 21
22.3262459546
  0
LINE
  5
2F2
100
AcDbEntity
  8
268140580
100
AcDbLine
 62
7
  6
CONTINUOUS
 10
-9.5306990781
 20
-22.4376242449
 11
-9.5210458184
 21
-22.880781281
  0
LINE
  5
2F3
100
AcDbEntity
  8
268140580
100
AcDbLine
 62
250
  6
CONTINUOUS
 10
-10.4143661389
 20
23.7050899975
 11
-10.3831965226
 21
22.2741707781
  0
LINE
  5
2F4
100
AcDbEntity
  8
268140580
100
AcDbLine
 62
250
  6
CONTINUOUS
 10
-9.4089060212
 20
-22.453072201
 11
-9.3985680623
 21
-22.9276620679
  0
LWPOLYLINE
  5
2F5
100
AcDbEntity
  8
CORPO_STAMPATO
100
AcDbPolyline
 62
7
  6
CONTINUOUS
 90
19
 70
0
 10
19.3148574214
 20
16.3536881299
 10
19.3195582793
 20
16.3553282077
 10
19.324008846
 20
16.356970392
 10
19.3282049213
 20
16.3586130139
 10
19.3321425519
 20
16.3602542521
 10
19.3358180335
 20
16.3618925322
 10
19.339227913
 20
16.3635265287
 10
19.3423689974
 20
16.3651544535
 10
19.3452383472
 20
16.3667746048
 10
19.3478332765
 20
16.3683857669
 10
19.3501513772
 20
16.3699861174
 10
19.3521905034
 20
16.3715739244
 10
19.3539487629
 20
16.3731480961
 10
19.3554245532
 20
16.3747067912
 10
19.3566165397
 20
16.376248263
 10
19.3575236426
 20
16.3777715566
 10
19.3581450779
 20
16.3792748281
 10
19.3584803332
 20
16.3807563309
 10
19.3585429638
 20
16.3818974961
  0
LWPOLYLINE
  5
2F6
100
AcDbEntity
  8
CORPO_STAMPATO
100
AcDbPolyline
 62
7
  6
CONTINUOUS
 90
10
 70
0
 10
19.3148574214
 20
16.3536881299
 10
19.3137001122
 20
16.3533457243
 10
19.3125137903
 20
16.3531146603
 10
19.3112980702
 20
16.3529950075
 10
19.3100560606
 20
16.3529820902
 10
19.3087839628
 20
16.3530807205
 10
19.3074706735
 20
16.3533052426
 10
19.3061118323
 20
16.3536605366
 10
19.3047102199
 20
16.3541419745
 10
19.3032650791
 20
16.3547496848
  0
LWPOLYLINE
  5
2F7
100
AcDbEntity
  8
268140580
100
AcDbPolyline
 62
250
  6
CONTINUOUS
 90
31
 70
0
 10
1.7539436492
 20
-24.6890273386
 10
1.7495607942
 20
-24.6790486982
 10
1.7446373993
 20
-24.6690246228
 10
1.7391864866
 20
-24.6589825182
 10
1.7332219581
 20
-24.6489489373
 10
1.7267602197
 20
-24.6389523385
 10
1.7198205973
 20
-24.6290229606
 10
1.7124228972
 20
-24.6191890275
 10
1.7045867105
 20
-24.6094764737
 10
1.6963333027
 20
-24.5999116816
 10
1.6876851181
 20
-24.5905207255
 10
1.6786659718
 20
-24.5813295267
 10
1.6693008035
 20
-24.5723635225
 10
1.659615379
 20
-24.5636473729
 10
1.6496361662
 20
-24.5552048896
 10
1.6393904979
 20
-24.5470591982
 10
1.6289064437
 20
-24.5392326201
 10
1.618212761
 20
-24.5317466283
 10
1.6073387924
 20
-24.5246217655
 10
1.5963143587
 20
-24.5178775703
 10
1.5851696751
 20
-24.5115325264
 10
1.5739352957
 20
-24.5056040293
 10
1.5626420027
 20
-24.5001083239
 10
1.5513207747
 20
-24.4950604867
 10
1.5400027019
 20
-24.4904743767
 10
1.5287188468
 20
-24.486362572
 10
1.5175001094
 20
-24.482736324
 10
1.5063771956
 20
-24.4796055542
 10
1.4953805824
 20
-24.4769788419
 10
1.4845404331
 20
-24.4748633925
 10
1.4738864654
 20
-24.4732650052
  0
LINE
  5
2F8
100
AcDbEntity
  8
290140580
100
AcDbLine
 62
250
  6
CONTINUOUS
 10
-19.2459757409
 20
-0.224240338
 11
-19.2339708537
 21
-0.2189880704
  0
LINE
  5
2F9
100
AcDbEntity
  8
290140600
100
AcDbLine
 62
250
  6
CONTINUOUS
 10
-19.2459757409
 20
-0.224240338
 11
-19.2339708537
 21
-0.2189880704
  0
LWPOLYLINE
  5
2FA
100
AcDbEntity
  8
CORPO_STAMPATO
100
AcDbPolyline
 62
7
  6
CONTINUOUS
 90
10
 70
0
 10
19.3338169836
 20
15.4833019963
 10
19.3326623575
 20
15.4828364152
 10
19.3314836947
 20
15.4822537394
 10
19.3302806097
 20
15.4815540389
 10
19.329055956
 20
15.4807443601
 10
19.32780619
 20
15.4798177928
 10
19.3265209745
 20
15.4787535142
 10
19.3251962045
 20
15.477544682
 10
19.3238344054
 20
15.4761983908
 10
19.32243482
 20
15.4747147688
  0
LWPOLYLINE
  5
2FB
100
AcDbEntity
  8
CORPO_STAMPATO
100
AcDbPolyline
 62
7
  6
CONTINUOUS
 90
18
 70
0
 10
19.3338169836
 20
15.4833019963
 10
19.3385147531
 20
15.4850838555
 10
19.3429613153
 20
15.486909872
 10
19.3471524703
 20
15.4887783769
 10
19.3510842587
 20
15.490687812
 10
19.3547529822
 20
15.49263634
 10
19.3581552048
 20
15.4946218462
 10
19.3612877312
 20
15.4966426443
 10
19.3641476243
 20
15.4986969306
 10
19.3667322219
 20
15.5007823955
 10
19.3690391137
 20
15.5028973168
 10
19.3710661561
 20
15.5050398623
 10
19.3728114873
 20
15.5072075447
 10
19.3742735024
 20
15.5093986215
 10
19.3754508692
 20
15.5116112474
 10
19.3763425447
 20
15.5138427768
 10
19.3769477426
 20
15.5160914617
 10
19.3772174764
 20
15.5178267897
  0
LINE
  5
2FC
100
AcDbEntity
  8
290140580
100
AcDbLine
 62
250
  6
CONTINUOUS
 10
-19.2339708537
 20
-0.2189880704
 11
-19.219914093
 21
-0.2138518088
  0
LINE
  5
2FD
100
AcDbEntity
  8
290140600
100
AcDbLine
 62
250
  6
CONTINUOUS
 10
-19.2339708537
 20
-0.2189880704
 11
-19.219914093
 21
-0.2138518088
  0
LWPOLYLINE
  5
2FE
100
AcDbEntity
  8
290140580
100
AcDbPolyline
 62
7
  6
CONTINUOUS
 90
16
 70
0
 10
-19.2768392013
 20
-0.2193484193
 10
-19.2917227626
 20
-0.2245933048
 10
-19.3124883829
 20
-0.2329110149
 10
-19.332419044
 20
-0.2422413581
 10
-19.3515679161
 20
-0.2527770221
 10
-19.3699082292
 20
-0.264693496
 10
-19.3875224634
 20
-0.2782905331
 10
-19.4042042366
 20
-0.2937193146
 10
-19.4194393254
 20
-0.3107702513
 10
-19.4330039221
 20
-0.329390293
 10
-19.4447347825
 20
-0.3495899042
 10
-19.4542809218
 20
-0.3709717255
 10
-19.4614670017
 20
-0.3932306025
 10
-19.4662162884
 20
-0.416235458
 10
-19.468427116
 20
-0.4397167127
 10
-19.4685340864
 20
-0.4528236133
  0
LWPOLYLINE
  5
2FF
100
AcDbEntity
  8
290140600
100
AcDbPolyline
 62
7
  6
CONTINUOUS
 90
16
 70
0
 10
-19.2768392013
 20
-0.2193484193
 10
-19.2917227626
 20
-0.2245933048
 10
-19.3124883829
 20
-0.2329110149
 10
-19.332419044
 20
-0.2422413581
 10
-19.3515679161
 20
-0.2527770221
 10
-19.3699082292
 20
-0.264693496
 10
-19.3875224634
 20
-0.2782905331
 10
-19.4042042366
 20
-0.2937193146
 10
-19.4194393254
 20
-0.3107702513
 10
-19.4330039221
 20
-0.329390293
 10
-19.4447347825
 20
-0.3495899042
 10
-19.4542809218
 20
-0.3709717255
 10
-19.4614670017
 20
-0.3932306025
 10
-19.4662162884
 20
-0.416235458
 10
-19.468427116
 20
-0.4397167127
 10
-19.4685340864
 20
-0.4528236133
  0
LWPOLYLINE
  5
300
100
AcDbEntity
  8
268140580
100
AcDbPolyline
 62
250
  6
CONTINUOUS
 90
28
 70
0
 10
2.1883906683
 20
-24.1340282252
 10
2.183481571
 20
-24.1229255126
 10
2.1779073021
 20
-24.1117738923
 10
2.1716867232
 20
-24.1006110979
 10
2.1648408827
 20
-24.0894749007
 10
2.1573929448
 20
-24.0784029822
 10
2.149368111
 20
-24.0674328061
 10
2.1407935347
 20
-24.0566014921
 10
2.1316982297
 20
-24.0459456899
 10
2.1221129715
 20
-24.0355014554
 10
2.1120701937
 20
-24.0253041285
 10
2.1016038778
 20
-24.0153882138
 10
2.0907494385
 20
-24.0057872637
 10
2.0795436037
 20
-23.9965337646
 10
2.0680242906
 20
-23.9876590275
 10
2.0562304768
 20
-23.9791930817
 10
2.0442020688
 20
-23.9711645733
 10
2.031979767
 20
-23.9636006681
 10
2.0196049278
 20
-23.9565269602
 10
2.0071194237
 20
-23.9499673846
 10
1.9945655016
 20
-23.9439441368
 10
1.9819856402
 20
-23.9384775978
 10
1.9694224056
 20
-23.9335862644
 10
1.9569183079
 20
-23.9292866874
 10
1.9445156569
 20
-23.9255934152
 10
1.9322564194
 20
-23.9225189447
 10
1.9201820767
 20
-23.9200736789
 10
1.9083334846
 20
-23.9182658919
  0
LINE
  5
301
100
AcDbEntity
  8
268140580
100
AcDbLine
 62
7
  6
CONTINUOUS
 10
-4.7819744659
 20
23.6034047466
 11
-4.7791235805
 21
23.4725277218
  0
LINE
  5
302
100
AcDbEntity
  8
268140580
100
AcDbLine
 62
7
  6
CONTINUOUS
 10
-4.5910817691
 20
24.652309355
 11
-4.5732791916
 21
23.8350374937
  0
LWPOLYLINE
  5
303
100
AcDbEntity
  8
268140580
100
AcDbPolyline
 62
250
  6
CONTINUOUS
 90
7
 70
0
 10
-11.7040534985
 20
-22.233178304
 10
-11.7007012482
 20
-22.2209043799
 10
-11.6979104596
 20
-22.2085940487
 10
-11.695688782
 20
-22.1962810522
 10
-11.6940423049
 20
-22.1839991393
 10
-11.6929755411
 20
-22.171781974
 10
-11.6926410345
 20
-22.1634084137
  0
LWPOLYLINE
  5
304
100
AcDbEntity
  8
268140580
100
AcDbPolyline
 62
250
  6
CONTINUOUS
 90
13
 70
0
 10
-12.9443045385
 20
-22.0046502439
 10
-12.9462759658
 20
-22.0109867562
 10
-12.9531250586
 20
-22.0310517567
 10
-12.9604322828
 20
-22.0506594751
 10
-12.9682024002
 20
-22.0698061699
 10
-12.976430649
 20
-22.0884955825
 10
-12.9850554657
 20
-22.1066063632
 10
-12.9940809843
 20
-22.1241326702
 10
-13.0035030709
 20
-22.1410803452
 10
-13.0132477607
 20
-22.1573455636
 10
-13.0232903987
 20
-22.1728937174
 10
-13.0336556398
 20
-22.1877594145
 10
-13.0443434841
 20
-22.2019426552
  0
LWPOLYLINE
  5
305
100
AcDbEntity
  8
268140580
100
AcDbPolyline
 62
250
  6
CONTINUOUS
 90
31
 70
0
 10
0.736626244
 20
22.0134733081
 10
0.7327217204
 20
22.0012694332
 10
0.7282756255
 20
21.9891690573
 10
0.7233001457
 20
21.9772053468
 10
0.7178089185
 20
21.9654110933
 10
0.7118169948
 20
21.9538186242
 10
0.7053407983
 20
21.9424597135
 10
0.6983980796
 20
21.9313654952
 10
0.6910078684
 20
21.9205663778
 10
0.6831904205
 20
21.910091961
 10
0.6749671632
 20
21.8999709543
 10
0.6663606358
 20
21.8902310989
 10
0.6573944282
 20
21.8808990908
 10
0.6480931162
 20
21.8720005086
 10
0.6384821939
 20
21.8635597426
 10
0.6285880043
 20
21.8555999284
 10
0.6184376667
 20
21.8481428832
 10
0.6080590023
 20
21.8412090463
 10
0.5974804585
 20
21.8348174229
 10
0.5867310303
 20
21.828985532
 10
0.5758401811
 20
21.8237293584
 10
0.5648377619
 20
21.8190633088
 10
0.5537539297
 20
21.8150001726
 10
0.5426190644
 20
21.8115510866
 10
0.531463686
 20
21.8087255045
 10
0.5203183705
 20
21.806531171
 10
0.5092136666
 20
21.8049741006
 10
0.4981800113
 20
21.8040585611
 10
0.4872476472
 20
21.803787062
 10
0.4764465392
 20
21.8041603474
 10
0.4658062923
 20
21.8051773943
  0
LWPOLYLINE
  5
306
100
AcDbEntity
  8
268140580
100
AcDbPolyline
 62
250
  6
CONTINUOUS
 90
28
 70
0
 10
1.1895477272
 20
21.720355927
 10
1.1851757109
 20
21.7068017986
 10
1.1801367023
 20
21.6933800132
 10
1.1744477527
 20
21.6801359858
 10
1.168128112
 20
21.6671145302
 10
1.1611991645
 20
21.6543597069
 10
1.1536843566
 20
21.6419146748
 10
1.1456091166
 20
21.6298215438
 10
1.137000769
 20
21.618121233
 10
1.1278884426
 20
21.6068533326
 10
1.1183029711
 20
21.5960559693
 10
1.1082767892
 20
21.5857656776
 10
1.0978438226
 20
21.576017276
 10
1.0870393739
 20
21.5668437496
 10
1.0759000019
 20
21.5582761382
 10
1.0644633988
 20
21.5503434311
 10
1.0527682628
 20
21.5430724694
 10
1.0408541665
 20
21.5364878552
 10
1.0287614229
 20
21.5306118679
 10
1.0165309502
 20
21.5254643893
 10
1.0042041323
 20
21.5210628363
 10
0.9918226782
 20
21.5174221016
 10
0.979428483
 20
21.5145545038
 10
0.9670634842
 20
21.5124697456
 10
0.9547695201
 20
21.5111748806
 10
0.9425881888
 20
21.5106742899
 10
0.9305607083
 20
21.5109696674
 10
0.9187277756
 20
21.5120600132
  0
LWPOLYLINE
  5
307
100
AcDbEntity
  8
268140580
100
AcDbPolyline
 62
7
  6
CONTINUOUS
 90
11
 70
0
 10
-14.9313114065
 20
-21.7526227839
 10
-14.9332438754
 20
-21.7572189087
 10
-14.9378470007
 20
-21.7674214095
 10
-14.9425115868
 20
-21.7770760904
 10
-14.9471992675
 20
-21.7861518541
 10
-14.9518781047
 20
-21.7946368899
 10
-14.9565193518
 20
-21.8025286496
 10
-14.9610865708
 20
-21.8098150335
 10
-14.9655463047
 20
-21.8164934492
 10
-14.9698697538
 20
-21.8225712843
 10
-14.9740267927
 20
-21.8280561063
  0
LWPOLYLINE
  5
308
100
AcDbEntity
  8
CORPO_STAMPATO
100
AcDbPolyline
 62
7
  6
CONTINUOUS
 90
49
 70
0
 10
18.0527547948
 20
13.4791729545
 10
18.0965155037
 20
13.4998323057
 10
18.139838761
 20
13.521604745
 10
18.1827048036
 20
13.5444828482
 10
18.2250859553
 20
13.5684539114
 10
18.2669712925
 20
13.5935137727
 10
18.3083657108
 20
13.6196689436
 10
18.3492649675
 20
13.6469223382
 10
18.3896336724
 20
13.6752559849
 10
18.4294305507
 20
13.7046445
 10
18.4686211026
 20
13.7350638092
 10
18.5072048341
 20
13.7665149032
 10
18.5451917056
 20
13.7990098877
 10
18.5825811985
 20
13.8325551546
 10
18.6193366138
 20
13.8671247058
 10
18.6554142999
 20
13.9026815866
 10
18.6907819958
 20
13.9391952179
 10
18.7254409465
 20
13.9766681132
 10
18.7593984151
 20
14.0151123202
 10
18.792654528
 20
14.0545354042
 10
18.8251755479
 20
14.0949049775
 10
18.8569189815
 20
14.1361723236
 10
18.8878566581
 20
14.1783011951
 10
18.9179906149
 20
14.2212947903
 10
18.947324823
 20
14.2651624613
 10
18.975859133
 20
14.3099111963
 10
19.003564914
 20
14.3555035866
 10
19.030404806
 20
14.4018813191
 10
19.0563556937
 20
14.4490030721
 10
19.0814202441
 20
14.4968723648
 10
19.1056012017
 20
14.5454969348
 10
19.1288983019
 20
14.594882869
 10
19.1512885649
 20
14.6449884676
 10
19.1727421941
 20
14.6957487568
 10
19.1932416997
 20
14.7471183194
 10
19.212790135
 20
14.7991007726
 10
19.2313900268
 20
14.8517035986
 10
19.2490409565
 20
14.9049315918
 10
19.2657259115
 20
14.9587399819
 10
19.2814239701
 20
15.0130610988
 10
19.2961235278
 20
15.0678470127
 10
19.309827587
 20
15.1231009311
 10
19.3225385277
 20
15.1788310437
 10
19.334255866
 20
15.2350413199
 10
19.3449682942
 20
15.2916845166
 10
19.354663278
 20
15.3486914332
 10
19.3633364333
 20
15.4060231126
 10
19.3709887539
 20
15.4636719748
 10
19.3772174785
 20
15.5178266979
  0
LINE
  5
309
100
AcDbEntity
  8
CORPO_STAMPATO
100
AcDbLine
 62
7
  6
CONTINUOUS
 10
18.0527547949
 20
13.4791729546
 11
17.9902069979
 21
13.4505816368
  0
LINE
  5
30A
100
AcDbEntity
  8
290140580
100
AcDbLine
 62
7
  6
CONTINUOUS
 10
-19.2771501965
 20
-0.2194474364
 11
-18.8285309317
 21
-0.0690628871
  0
LINE
  5
30B
100
AcDbEntity
  8
290140600
100
AcDbLine
 62
7
  6
CONTINUOUS
 10
-19.2771501965
 20
-0.2194474364
 11
-18.8285309317
 21
-0.0690628871
  0
LINE
  5
30C
100
AcDbEntity
  8
290140580
100
AcDbLine
 62
250
  6
CONTINUOUS
 10
-19.219914093
 20
-0.2138518088
 11
-18.7991169462
 21
-0.0727936906
  0
LINE
  5
30D
100
AcDbEntity
  8
290140600
100
AcDbLine
 62
250
  6
CONTINUOUS
 10
-19.219914093
 20
-0.2138518088
 11
-18.7991169462
 21
-0.0727936906
  0
LWPOLYLINE
  5
30E
100
AcDbEntity
  8
268140580
100
AcDbPolyline
 62
250
  6
CONTINUOUS
 90
13
 70
0
 10
-13.254397257
 20
22.8884521044
 10
-13.2591572737
 20
22.9026603027
 10
-13.2635423741
 20
22.9171870631
 10
-13.2675525583
 20
22.9320323855
 10
-13.2711925198
 20
22.9472324663
 10
-13.274457565
 20
22.9627511092
 10
-13.2773336128
 20
22.9784797248
 10
-13.2798155136
 20
22.9944159878
 10
-13.281908417
 20
23.0105622234
 10
-13.2836136912
 20
23.026816818
 10
-13.2849317923
 20
23.0431459004
 10
-13.2858622642
 20
23.0595833417
 10
-13.2864051069
 20
23.0761291421
  0
LWPOLYLINE
  5
30F
100
AcDbEntity
  8
290140580
100
AcDbPolyline
 62
250
  6
CONTINUOUS
 90
22
 70
0
 10
-0.9394661461
 20
-22.3070547838
 10
-0.9346743682
 20
-22.3751013196
 10
-0.9270092299
 20
-22.4411910534
 10
-0.9164707312
 20
-22.5053239852
 10
-0.902978253
 20
-22.5678198115
 10
-0.8866124144
 20
-22.6283588359
 10
-0.8676150723
 20
-22.6859819689
 10
-0.845945505
 20
-22.7406281264
 10
-0.8216444342
 20
-22.7923583926
 10
-0.795075882
 20
-22.8403969305
 10
-0.7662116636
 20
-22.8846806242
 10
-0.7350799638
 20
-22.9252725895
 10
-0.7021293597
 20
-22.9615863369
 10
-0.6673256867
 20
-22.9935657687
 10
-0.6307031094
 20
-23.0212669826
 10
-0.592812699
 20
-23.0442717817
 10
-0.5536287089
 20
-23.0625036263
 10
-0.5131768855
 20
-23.0760390562
 10
-0.4720855394
 20
-23.0846894932
 10
-0.4305641072
 20
-23.0883920779
 10
-0.3884031522
 20
-23.0872096698
 10
-0.3456026743
 20
-23.0811422688
  0
LWPOLYLINE
  5
310
100
AcDbEntity
  8
290140600
100
AcDbPolyline
 62
250
  6
CONTINUOUS
 90
22
 70
0
 10
-0.9394661461
 20
-22.3070547838
 10
-0.9346743682
 20
-22.3751013196
 10
-0.9270092299
 20
-22.4411910534
 10
-0.9164707312
 20
-22.5053239852
 10
-0.902978253
 20
-22.5678198115
 10
-0.8866124144
 20
-22.6283588359
 10
-0.8676150723
 20
-22.6859819689
 10
-0.845945505
 20
-22.7406281264
 10
-0.8216444342
 20
-22.7923583926
 10
-0.795075882
 20
-22.8403969305
 10
-0.7662116636
 20
-22.8846806242
 10
-0.7350799638
 20
-22.9252725895
 10
-0.7021293597
 20
-22.9615863369
 10
-0.6673256867
 20
-22.9935657687
 10
-0.6307031094
 20
-23.0212669826
 10
-0.592812699
 20
-23.0442717817
 10
-0.5536287089
 20
-23.0625036263
 10
-0.5131768855
 20
-23.0760390562
 10
-0.4720855394
 20
-23.0846894932
 10
-0.4305641072
 20
-23.0883920779
 10
-0.3884031522
 20
-23.0872096698
 10
-0.3456026743
 20
-23.0811422688
  0
LWPOLYLINE
  5
311
100
AcDbEntity
  8
290140580
100
AcDbPolyline
 62
250
  6
CONTINUOUS
 90
20
 70
0
 10
-1.6323254629
 20
-22.3617845356
 10
-1.6252446242
 20
-22.4634226753
 10
-1.6137515484
 20
-22.5629658121
 10
-1.5979032952
 20
-22.6599220358
 10
-1.5777775951
 20
-22.7538077659
 10
-1.5534744409
 20
-22.8441645574
 10
-1.5251134332
 20
-22.9305593895
 10
-1.4928260359
 20
-23.0125754277
 10
-1.4567733128
 20
-23.0897933603
 10
-1.4171488101
 20
-23.1618108522
 10
-1.3741559294
 20
-23.228261646
 10
-1.3279985867
 20
-23.2888360591
 10
-1.2788949833
 20
-23.3432555631
 10
-1.2270706786
 20
-23.3912576231
 10
-1.172787587
 20
-23.4325892058
 10
-1.1163371109
 20
-23.4670323377
 10
-1.0580033422
 20
-23.4944154215
 10
-0.9980629235
 20
-23.5146111059
 10
-0.9368107858
 20
-23.5275219073
 10
-0.9255867788
 20
-23.5290770914
  0
LWPOLYLINE
  5
312
100
AcDbEntity
  8
290140600
100
AcDbPolyline
 62
250
  6
CONTINUOUS
 90
20
 70
0
 10
-1.6323254629
 20
-22.3617845356
 10
-1.6252446242
 20
-22.4634226753
 10
-1.6137515484
 20
-22.5629658121
 10
-1.5979032952
 20
-22.6599220358
 10
-1.5777775951
 20
-22.7538077659
 10
-1.5534744409
 20
-22.8441645574
 10
-1.5251134332
 20
-22.9305593895
 10
-1.4928260359
 20
-23.0125754277
 10
-1.4567733128
 20
-23.0897933603
 10
-1.4171488101
 20
-23.1618108522
 10
-1.3741559294
 20
-23.228261646
 10
-1.3279985867
 20
-23.2888360591
 10
-1.2788949833
 20
-23.3432555631
 10
-1.2270706786
 20
-23.3912576231
 10
-1.172787587
 20
-23.4325892058
 10
-1.1163371109
 20
-23.4670323377
 10
-1.0580033422
 20
-23.4944154215
 10
-0.9980629235
 20
-23.5146111059
 10
-0.9368107858
 20
-23.5275219073
 10
-0.9255867788
 20
-23.5290770914
  0
LWPOLYLINE
  5
313
100
AcDbEntity
  8
290140600
100
AcDbPolyline
 62
250
  6
CONTINUOUS
 90
12
 70
0
 10
-2.333375907
 20
-2.009439756
 10
-2.3318459197
 20
-2.0344485706
 10
-2.3283596593
 20
-2.0584560482
 10
-2.3229755492
 20
-2.0810600688
 10
-2.3157837945
 20
-2.1018820441
 10
-2.3069048865
 20
-2.1205732118
 10
-2.2964875952
 20
-2.1368204922
 10
-2.2847064427
 20
-2.1503517952
 10
-2.2717587808
 20
-2.1609405415
 10
-2.2578615132
 20
-2.1684094319
 10
-2.2432474326
 20
-2.1726334452
 10
-2.2404843981
 20
-2.1730527003
  0
LWPOLYLINE
  5
314
100
AcDbEntity
  8
290140580
100
AcDbPolyline
 62
250
  6
CONTINUOUS
 90
12
 70
0
 10
-2.333375907
 20
-2.009439756
 10
-2.3318459197
 20
-2.0344485706
 10
-2.3283596593
 20
-2.0584560482
 10
-2.3229755492
 20
-2.0810600688
 10
-2.3157837945
 20
-2.1018820441
 10
-2.3069048865
 20
-2.1205732118
 10
-2.2964875952
 20
-2.1368204922
 10
-2.2847064427
 20
-2.1503517952
 10
-2.2717587808
 20
-2.1609405415
 10
-2.2578615132
 20
-2.1684094319
 10
-2.2432474326
 20
-2.1726334452
 10
-2.2404843981
 20
-2.1730527003
  0
LWPOLYLINE
  5
315
100
AcDbEntity
  8
268140580
100
AcDbPolyline
 62
7
  6
CONTINUOUS
 90
32
 70
0
 10
-4.5910817691
 20
24.652309355
 10
-4.5918103979
 20
24.6733436622
 10
-4.593093606
 20
24.6941631891
 10
-4.5949313933
 20
24.7147679357
 10
-4.5973300647
 20
24.735219892
 10
-4.6002833154
 20
24.755457068
 10
-4.6037722309
 20
24.7752934936
 10
-4.6078049935
 20
24.7947167279
 10
-4.6123734209
 20
24.8137392117
 10
-4.6174340518
 20
24.8322122973
 10
-4.6229792664
 20
24.8500996245
 10
-4.6290166846
 20
24.8674375535
 10
-4.6355257047
 20
24.8841865171
 10
-4.6425043856
 20
24.9003519282
 10
-4.6499546684
 20
24.9159283739
 10
-4.6578617755
 20
24.9308600485
 10
-4.6662446459
 20
24.9451714858
 10
-4.6750843406
 20
24.9588381521
 10
-4.6843092641
 20
24.9717306392
 10
-4.6939262225
 20
24.9838349375
 10
-4.7039284098
 20
24.9951650567
 10
-4.7142238125
 20
25.0056336186
 10
-4.7247936049
 20
25.015215401
 10
-4.7356566129
 20
25.0239356262
 10
-4.7467772999
 20
25.0317825826
 10
-4.7581531359
 20
25.038760835
 10
-4.769786651
 20
25.0448658188
 10
-4.7816498991
 20
25.0500721278
 10
-4.793766638
 20
25.0543844552
 10
-4.8061131098
 20
25.0577981079
 10
-4.818590095
 20
25.0602736012
 10
-4.8239567491
 20
25.0610391069
  0
LWPOLYLINE
  5
316
100
AcDbEntity
  8
290140580
100
AcDbPolyline
 62
250
  6
CONTINUOUS
 90
9
 70
0
 10
-2.2668167678
 20
-4.8751176692
 10
-2.2087928902
 20
-7.0677361002
 10
-2.1446847004
 20
-9.2584712886
 10
-2.0744950048
 20
-11.4472455976
 10
-1.9982246785
 20
-13.6340489406
 10
-1.9158717502
 20
-15.8189384802
 10
-1.827436052
 20
-18.0019037853
 10
-1.7329201353
 20
-20.1828671348
 10
-1.6323254629
 20
-22.3617845356
  0
LWPOLYLINE
  5
317
100
AcDbEntity
  8
290140600
100
AcDbPolyline
 62
250
  6
CONTINUOUS
 90
9
 70
0
 10
-2.2668167678
 20
-4.8751176692
 10
-2.2087928902
 20
-7.0677361002
 10
-2.1446847004
 20
-9.2584712886
 10
-2.0744950048
 20
-11.4472455976
 10
-1.9982246785
 20
-13.6340489406
 10
-1.9158717502
 20
-15.8189384802
 10
-1.827436052
 20
-18.0019037853
 10
-1.7329201353
 20
-20.1828671348
 10
-1.6323254629
 20
-22.3617845356
  0
LINE
  5
318
100
AcDbEntity
  8
290140580
100
AcDbLine
 62
250
  6
CONTINUOUS
 10
-2.318754763
 20
-2.6806599528
 11
-2.2668167678
 21
-4.8751176692
  0
LINE
  5
319
100
AcDbEntity
  8
290140600
100
AcDbLine
 62
250
  6
CONTINUOUS
 10
-2.318754763
 20
-2.6806599528
 11
-2.2668167678
 21
-4.8751176692
  0
LINE
  5
31A
100
AcDbEntity
  8
268140580
100
AcDbLine
 62
250
  6
CONTINUOUS
 10
-2.7831660643
 20
-23.7667447048
 11
-2.7935040232
 21
-23.2921548379
  0
LINE
  5
31B
100
AcDbEntity
  8
268140580
100
AcDbLine
 62
250
  6
CONTINUOUS
 10
-3.7677945245
 20
21.4350881412
 11
-3.7989641409
 21
22.8660073606
  0
LINE
  5
31C
100
AcDbEntity
  8
268140580
100
AcDbLine
 62
250
  6
CONTINUOUS
 10
-2.3629409451
 20
-23.7421555228
 11
-2.3715775398
 21
-23.3456710394
  0
LINE
  5
31D
100
AcDbEntity
  8
268140580
100
AcDbLine
 62
250
  6
CONTINUOUS
 10
-3.347850562
 20
21.4725845218
 11
-3.3786266789
 21
22.8854391679
  0
LWPOLYLINE
  5
31E
100
AcDbEntity
  8
290140600
100
AcDbPolyline
 62
250
  6
CONTINUOUS
 90
10
 70
0
 10
-2.5075556079
 20
17.8178449532
 10
-2.5125674818
 20
15.6087948596
 10
-2.5114871129
 20
13.4011715515
 10
-2.5043149614
 20
11.1950193176
 10
-2.4910518728
 20
8.9904163852
 10
-2.4716984643
 20
6.7873729511
 10
-2.4462542077
 20
4.5858314192
 10
-2.4147186753
 20
2.3858022579
 10
-2.3770924576
 20
0.1873637607
 10
-2.333375907
 20
-2.009439756
  0
LWPOLYLINE
  5
31F
100
AcDbEntity
  8
290140580
100
AcDbPolyline
 62
250
  6
CONTINUOUS
 90
10
 70
0
 10
-2.5075556079
 20
17.8178449532
 10
-2.5125674818
 20
15.6087948596
 10
-2.5114871129
 20
13.4011715515
 10
-2.5043149614
 20
11.1950193176
 10
-2.4910518728
 20
8.9904163852
 10
-2.4716984643
 20
6.7873729511
 10
-2.4462542077
 20
4.5858314192
 10
-2.4147186753
 20
2.3858022579
 10
-2.3770924576
 20
0.1873637607
 10
-2.333375907
 20
-2.009439756
  0
LWPOLYLINE
  5
320
100
AcDbEntity
  8
290140600
100
AcDbPolyline
 62
250
  6
CONTINUOUS
 90
10
 70
0
 10
-1.8138189277
 20
17.8322971434
 10
-1.8188265363
 20
15.6248449654
 10
-1.8177459941
 20
13.4189066372
 10
-1.8105773012
 20
11.2144821589
 10
-1.7973203477
 20
9.0115602062
 10
-1.7779752435
 20
6.8101521034
 10
-1.7525423176
 20
4.6102918232
 10
-1.7210216796
 20
2.41199069
 10
-1.6834132199
 20
0.2152373794
 10
-1.6397169385
 20
-1.9799681085
  0
LWPOLYLINE
  5
321
100
AcDbEntity
  8
290140580
100
AcDbPolyline
 62
250
  6
CONTINUOUS
 90
10
 70
0
 10
-1.8138189277
 20
17.8322971434
 10
-1.8188265363
 20
15.6248449654
 10
-1.8177459941
 20
13.4189066372
 10
-1.8105773012
 20
11.2144821589
 10
-1.7973203477
 20
9.0115602062
 10
-1.7779752435
 20
6.8101521034
 10
-1.7525423176
 20
4.6102918232
 10
-1.7210216796
 20
2.41199069
 10
-1.6834132199
 20
0.2152373794
 10
-1.6397169385
 20
-1.9799681085
  0
LWPOLYLINE
  5
322
100
AcDbEntity
  8
290140580
100
AcDbPolyline
 62
250
  6
CONTINUOUS
 90
13
 70
0
 10
-2.318754763
 20
-2.6806599528
 10
-2.3183269359
 20
-2.65507414
 10
-2.31592459
 20
-2.6293294478
 10
-2.3115879635
 20
-2.6038570892
 10
-2.3053896932
 20
-2.5790837159
 10
-2.2974335975
 20
-2.5554242717
 10
-2.2878529382
 20
-2.5332750426
 10
-2.2768081875
 20
-2.5130070191
 10
-2.2644843402
 20
-2.4949596823
 10
-2.2510878158
 20
-2.4794353177
 10
-2.2368430007
 20
-2.466693952
 10
-2.2219884896
 20
-2.4569489979
 10
-2.2067730896
 20
-2.4503636795
  0
LWPOLYLINE
  5
323
100
AcDbEntity
  8
290140600
100
AcDbPolyline
 62
250
  6
CONTINUOUS
 90
13
 70
0
 10
-2.318754763
 20
-2.6806599528
 10
-2.3183269359
 20
-2.65507414
 10
-2.31592459
 20
-2.6293294478
 10
-2.3115879635
 20
-2.6038570892
 10
-2.3053896932
 20
-2.5790837159
 10
-2.2974335975
 20
-2.5554242717
 10
-2.2878529382
 20
-2.5332750426
 10
-2.2768081875
 20
-2.5130070191
 10
-2.2644843402
 20
-2.4949596823
 10
-2.2510878158
 20
-2.4794353177
 10
-2.2368430007
 20
-2.466693952
 10
-2.2219884896
 20
-2.4569489979
 10
-2.2067730896
 20
-2.4503636795
  0
LWPOLYLINE
  5
324
100
AcDbEntity
  8
268140580
100
AcDbPolyline
 62
250
  6
CONTINUOUS
 90
6
 70
0
 10
-14.8371088206
 20
-21.764571227
 10
-14.8374654457
 20
-21.7651889413
 10
-14.8418545713
 20
-21.7722977051
 10
-14.8463670074
 20
-21.77913164
 10
-14.8509960257
 20
-21.7856846859
 10
-14.8557337308
 20
-21.7919494973
  0
LWPOLYLINE
  5
325
100
AcDbEntity
  8
CORPO_STAMPATO
100
AcDbPolyline
 62
7
  6
CONTINUOUS
 90
38
 70
0
 10
17.7855867317
 20
14.2947955301
 10
17.7932212069
 20
14.2994959632
 10
17.8006800029
 20
14.3037567433
 10
17.8079639684
 20
14.3075771913
 10
17.8150579451
 20
14.310948138
 10
17.8219796271
 20
14.3138773563
 10
17.8287761789
 20
14.3163899132
 10
17.8354481793
 20
14.3184953457
 10
17.8419908973
 20
14.320183454
 10
17.8484379522
 20
14.3214502439
 10
17.85477988
 20
14.3223043994
 10
17.8610171401
 20
14.3227369368
 10
17.8671918627
 20
14.3227178797
 10
17.8732977956
 20
14.3222573115
 10
17.879323634
 20
14.3213453308
 10
17.8852966022
 20
14.3199224779
 10
17.8912009044
 20
14.3179994895
 10
17.8970269758
 20
14.315565981
 10
17.9028030597
 20
14.3125312437
 10
17.9085142592
 20
14.3089010786
 10
17.9141377927
 20
14.3046701865
 10
17.9196811192
 20
14.2997315335
 10
17.9251219019
 20
14.2940858167
 10
17.9304335628
 20
14.2877325225
 10
17.9356093142
 20
14.2805629033
 10
17.9406222763
 20
14.2725684999
 10
17.9454384745
 20
14.2637572279
 10
17.9500342143
 20
14.2540447807
 10
17.9543744746
 20
14.243423936
 10
17.958424398
 20
14.2319000964
 10
17.9621548221
 20
14.219407589
 10
17.965522092
 20
14.2059534736
 10
17.9684894909
 20
14.191527151
 10
17.9710262279
 20
14.1760359965
 10
17.9730781381
 20
14.1594973863
 10
17.974596212
 20
14.1418879569
 10
17.9755309751
 20
14.123053025
 10
17.9756789557
 20
14.1175277648
  0
LINE
  5
326
100
AcDbEntity
  8
CORPO_STAMPATO
100
AcDbLine
 62
250
  6
CONTINUOUS
 10
18.0965155037
 20
13.4998323057
 11
18.0934123975
 21
13.4983584383
  0
LWPOLYLINE
  5
327
100
AcDbEntity
  8
290140580
100
AcDbPolyline
 62
250
  6
CONTINUOUS
 90
19
 70
0
 10
-1.6253350036
 20
-2.6408015932
 10
-1.6529158579
 20
-2.6485059449
 10
-1.6832543877
 20
-2.6557692549
 10
-1.7161200791
 20
-2.6625253919
 10
-1.7512603347
 20
-2.6687216484
 10
-1.7884113485
 20
-2.674315542
 10
-1.827307122
 20
-2.6792684847
 10
-1.8676619363
 20
-2.6835427119
 10
-1.9091693557
 20
-2.6871075688
 10
-1.9515230655
 20
-2.6899379353
 10
-1.9944111735
 20
-2.6920078666
 10
-2.0375119986
 20
-2.6933044518
 10
-2.0805048099
 20
-2.6938218644
 10
-2.1230685556
 20
-2.6935516832
 10
-2.1648920527
 20
-2.6924951403
 10
-2.2056724184
 20
-2.6906632178
 10
-2.2451082764
 20
-2.6880655545
 10
-2.2828995868
 20
-2.6847191004
 10
-2.3187458464
 20
-2.6806573091
  0
LWPOLYLINE
  5
328
100
AcDbEntity
  8
290140600
100
AcDbPolyline
 62
250
  6
CONTINUOUS
 90
19
 70
0
 10
-1.6253350036
 20
-2.6408015932
 10
-1.6529158579
 20
-2.6485059449
 10
-1.6832543877
 20
-2.6557692549
 10
-1.7161200791
 20
-2.6625253919
 10
-1.7512603347
 20
-2.6687216484
 10
-1.7884113485
 20
-2.674315542
 10
-1.827307122
 20
-2.6792684847
 10
-1.8676619363
 20
-2.6835427119
 10
-1.9091693557
 20
-2.6871075688
 10
-1.9515230655
 20
-2.6899379353
 10
-1.9944111735
 20
-2.6920078666
 10
-2.0375119986
 20
-2.6933044518
 10
-2.0805048099
 20
-2.6938218644
 10
-2.1230685556
 20
-2.6935516832
 10
-2.1648920527
 20
-2.6924951403
 10
-2.2056724184
 20
-2.6906632178
 10
-2.2451082764
 20
-2.6880655545
 10
-2.2828995868
 20
-2.6847191004
 10
-2.3187458464
 20
-2.6806573091
  0
LWPOLYLINE
  5
329
100
AcDbEntity
  8
290140600
100
AcDbPolyline
 62
7
  6
CONTINUOUS
 90
15
 70
0
 10
-2.2404840804
 20
-2.1730500616
 10
-2.2008351517
 20
-2.1773821858
 10
-2.1630208612
 20
-2.1803521297
 10
-2.1253115741
 20
-2.1823394795
 10
-2.0877725551
 20
-2.1834509321
 10
-2.0499279758
 20
-2.1837487625
 10
-2.0121325101
 20
-2.1832497306
 10
-1.9747058501
 20
-2.1819667439
 10
-1.9371519944
 20
-2.1798578189
 10
-1.8997725103
 20
-2.1768836441
 10
-1.8630395248
 20
-2.1730057455
 10
-1.8264434088
 20
-2.168045893
 10
-1.7899111983
 20
-2.1617499834
 10
-1.7541724772
 20
-2.1539076466
 10
1.2867878406
 20
-1.3726031819
  0
LWPOLYLINE
  5
32A
100
AcDbEntity
  8
290140580
100
AcDbPolyline
 62
7
  6
CONTINUOUS
 90
15
 70
0
 10
-2.2404840804
 20
-2.1730500616
 10
-2.2008351517
 20
-2.1773821858
 10
-2.1630208612
 20
-2.1803521297
 10
-2.1253115741
 20
-2.1823394795
 10
-2.0877725551
 20
-2.1834509321
 10
-2.0499279758
 20
-2.1837487625
 10
-2.0121325101
 20
-2.1832497306
 10
-1.9747058501
 20
-2.1819667439
 10
-1.9371519944
 20
-2.1798578189
 10
-1.8997725103
 20
-2.1768836441
 10
-1.8630395248
 20
-2.1730057455
 10
-1.8264434088
 20
-2.168045893
 10
-1.7899111983
 20
-2.1617499834
 10
-1.7541724772
 20
-2.1539076466
 10
1.2867878406
 20
-1.3726031819
  0
LWPOLYLINE
  5
32B
100
AcDbEntity
  8
290140600
100
AcDbPolyline
 62
250
  6
CONTINUOUS
 90
19
 70
0
 10
-2.3333669901
 20
-2.0094371333
 10
-2.2975198902
 20
-2.0135375069
 10
-2.2597260066
 20
-2.0170020927
 10
-2.2202858556
 20
-2.0197968389
 10
-2.1794995689
 20
-2.0219005803
 10
-2.1376685698
 20
-2.0233015209
 10
-2.0950957193
 20
-2.0239896869
 10
-2.0520923247
 20
-2.0239581276
 10
-2.0089795575
 20
-2.0232097779
 10
-1.9660781265
 20
-2.0217514739
 10
-1.9237098779
 20
-2.0195885458
 10
-1.8821868718
 20
-2.0167392334
 10
-1.8418154044
 20
-2.0132295091
 10
-1.8029021173
 20
-2.009080578
 10
-1.7657329242
 20
-2.0043212533
 10
-1.7305737933
 20
-1.998991514
 10
-1.6976886652
 20
-1.9931276612
 10
-1.6673304514
 20
-1.9867679841
 10
-1.6397299323
 20
-1.9799663881
  0
LWPOLYLINE
  5
32C
100
AcDbEntity
  8
290140580
100
AcDbPolyline
 62
250
  6
CONTINUOUS
 90
19
 70
0
 10
-2.3333669901
 20
-2.0094371333
 10
-2.2975198902
 20
-2.0135375069
 10
-2.2597260066
 20
-2.0170020927
 10
-2.2202858556
 20
-2.0197968389
 10
-2.1794995689
 20
-2.0219005803
 10
-2.1376685698
 20
-2.0233015209
 10
-2.0950957193
 20
-2.0239896869
 10
-2.0520923247
 20
-2.0239581276
 10
-2.0089795575
 20
-2.0232097779
 10
-1.9660781265
 20
-2.0217514739
 10
-1.9237098779
 20
-2.0195885458
 10
-1.8821868718
 20
-2.0167392334
 10
-1.8418154044
 20
-2.0132295091
 10
-1.8029021173
 20
-2.009080578
 10
-1.7657329242
 20
-2.0043212533
 10
-1.7305737933
 20
-1.998991514
 10
-1.6976886652
 20
-1.9931276612
 10
-1.6673304514
 20
-1.9867679841
 10
-1.6397299323
 20
-1.9799663881
  0
LINE
  5
32D
100
AcDbEntity
  8
290140580
100
AcDbLine
 62
250
  6
CONTINUOUS
 10
-2.318754763
 20
-2.6806599528
 11
-19.2644074947
 21
-0.5313116618
  0
LINE
  5
32E
100
AcDbEntity
  8
290140600
100
AcDbLine
 62
250
  6
CONTINUOUS
 10
-2.318754763
 20
-2.6806599528
 11
-19.2644074947
 21
-0.5313116618
  0
LINE
  5
32F
100
AcDbEntity
  8
290140580
100
AcDbLine
 62
250
  6
CONTINUOUS
 10
-2.2067730896
 20
-2.4503636795
 11
-19.1524258213
 21
-0.3010153884
  0
LINE
  5
330
100
AcDbEntity
  8
290140600
100
AcDbLine
 62
250
  6
CONTINUOUS
 10
-2.2067730896
 20
-2.4503636795
 11
-19.1524258213
 21
-0.3010153884
  0
LINE
  5
331
100
AcDbEntity
  8
290140600
100
AcDbLine
 62
7
  6
CONTINUOUS
 10
-19.1858754472
 20
-0.0237381165
 11
-2.2402227161
 21
-2.1730864074
  0
LINE
  5
332
100
AcDbEntity
  8
290140580
100
AcDbLine
 62
7
  6
CONTINUOUS
 10
-19.1858754472
 20
-0.0237381165
 11
-2.2402227161
 21
-2.1730864074
  0
LINE
  5
333
100
AcDbEntity
  8
290140600
100
AcDbLine
 62
250
  6
CONTINUOUS
 10
-19.2790286387
 20
0.1399085351
 11
-2.333375907
 21
-2.009439756
  0
LINE
  5
334
100
AcDbEntity
  8
290140580
100
AcDbLine
 62
250
  6
CONTINUOUS
 10
-19.2790286387
 20
0.1399085351
 11
-2.333375907
 21
-2.009439756
  0
LINE
  5
335
100
AcDbEntity
  8
290140600
100
AcDbLine
 62
7
  6
CONTINUOUS
 10
-2.2404843981
 20
-2.1730527003
 11
-2.2402227161
 21
-2.1730864074
  0
LINE
  5
336
100
AcDbEntity
  8
290140580
100
AcDbLine
 62
7
  6
CONTINUOUS
 10
-2.2404843981
 20
-2.1730527003
 11
-2.2402227161
 21
-2.1730864074
  0
LWPOLYLINE
  5
337
100
AcDbEntity
  8
290140580
100
AcDbPolyline
 62
250
  6
CONTINUOUS
 90
12
 70
0
 10
-19.2643985704
 20
-0.5313090192
 10
-19.2980386842
 20
-0.5265573159
 10
-19.3292537006
 20
-0.5211511635
 10
-19.3577637849
 20
-0.515130717
 10
-19.3833588831
 20
-0.5085437257
 10
-19.4058679704
 20
-0.5014404689
 10
-19.4251206047
 20
-0.4938700002
 10
-19.4409732018
 20
-0.4858887691
 10
-19.4533245503
 20
-0.4775587556
 10
-19.4620767624
 20
-0.4689388828
 10
-19.4671446604
 20
-0.4600936667
 10
-19.4685340763
 20
-0.4528240679
  0
LWPOLYLINE
  5
338
100
AcDbEntity
  8
290140600
100
AcDbPolyline
 62
250
  6
CONTINUOUS
 90
12
 70
0
 10
-19.2643985704
 20
-0.5313090192
 10
-19.2980386842
 20
-0.5265573159
 10
-19.3292537006
 20
-0.5211511635
 10
-19.3577637849
 20
-0.515130717
 10
-19.3833588831
 20
-0.5085437257
 10
-19.4058679704
 20
-0.5014404689
 10
-19.4251206047
 20
-0.4938700002
 10
-19.4409732018
 20
-0.4858887691
 10
-19.4533245503
 20
-0.4775587556
 10
-19.4620767624
 20
-0.4689388828
 10
-19.4671446604
 20
-0.4600936667
 10
-19.4685340763
 20
-0.4528240679
  0
LWPOLYLINE
  5
339
100
AcDbEntity
  8
290140580
100
AcDbPolyline
 62
250
  6
CONTINUOUS
 90
17
 70
0
 10
-19.1524258213
 20
-0.3010153884
 10
-19.1726857371
 20
-0.298141996
 10
-19.1912640052
 20
-0.2949061949
 10
-19.2081606257
 20
-0.2913079851
 10
-19.2234934557
 20
-0.2873133492
 10
-19.2371446381
 20
-0.2829563047
 10
-19.2487606014
 20
-0.2783389036
 10
-19.2582802694
 20
-0.2734567056
 10
-19.2657647183
 20
-0.268314151
 10
-19.2710436054
 20
-0.2630266128
 10
-19.2740649904
 20
-0.2575910247
 10
-19.2748808136
 20
-0.2520104528
 10
-19.2734765538
 20
-0.2464094685
 10
-19.2697913006
 20
-0.2407841225
 10
-19.2638859644
 20
-0.2351383641
 10
-19.2559287545
 20
-0.2296086116
 10
-19.2459757409
 20
-0.224240338
  0
LWPOLYLINE
  5
33A
100
AcDbEntity
  8
290140600
100
AcDbPolyline
 62
250
  6
CONTINUOUS
 90
17
 70
0
 10
-19.1524258213
 20
-0.3010153884
 10
-19.1726857371
 20
-0.298141996
 10
-19.1912640052
 20
-0.2949061949
 10
-19.2081606257
 20
-0.2913079851
 10
-19.2234934557
 20
-0.2873133492
 10
-19.2371446381
 20
-0.2829563047
 10
-19.2487606014
 20
-0.2783389036
 10
-19.2582802694
 20
-0.2734567056
 10
-19.2657647183
 20
-0.268314151
 10
-19.2710436054
 20
-0.2630266128
 10
-19.2740649904
 20
-0.2575910247
 10
-19.2748808136
 20
-0.2520104528
 10
-19.2734765538
 20
-0.2464094685
 10
-19.2697913006
 20
-0.2407841225
 10
-19.2638859644
 20
-0.2351383641
 10
-19.2559287545
 20
-0.2296086116
 10
-19.2459757409
 20
-0.224240338
  0
LWPOLYLINE
  5
33B
100
AcDbEntity
  8
268140580
100
AcDbPolyline
 62
250
  6
CONTINUOUS
 90
17
 70
0
 10
-12.7213709036
 20
24.4693223427
 10
-12.7175391122
 20
24.459413598
 10
-12.7142680216
 20
24.4495990971
 10
-12.7115670619
 20
24.4399057903
 10
-12.7094439423
 20
24.430359445
 10
-12.7079052529
 20
24.4209872746
 10
-12.7069558925
 20
24.4118176881
 10
-12.70659847
 20
24.4028767279
 10
-12.7068338375
 20
24.3941879518
 10
-12.707661378
 20
24.3857749666
 10
-12.7090788967
 20
24.3776607215
 10
-12.711082543
 20
24.3698676288
 10
-12.7136667956
 20
24.3624172622
 10
-12.7168245379
 20
24.3553301108
 10
-12.7205471342
 20
24.348625534
 10
-12.7248243899
 20
24.3423218975
 10
-12.7260030429
 20
24.3407799932
  0
LWPOLYLINE
  5
33C
100
AcDbEntity
  8
268140580
100
AcDbPolyline
 62
250
  6
CONTINUOUS
 90
15
 70
0
 10
-13.1558179228
 20
23.9143232293
 10
-13.1515906079
 20
23.9033069925
 10
-13.1480593793
 20
23.8924145068
 10
-13.1452361855
 20
23.881682629
 10
-13.1431305795
 20
23.8711476725
 10
-13.1417496858
 20
23.8608452841
 10
-13.141098177
 20
23.8508103239
 10
-13.1411782575
 20
23.841076747
 10
-13.1419896565
 20
23.8316774887
 10
-13.1435296283
 20
23.8226443532
 10
-13.1457929623
 20
23.8140079058
 10
-13.148772
 20
23.8057973694
 10
-13.1524566612
 20
23.7980405259
 10
-13.1568344783
 20
23.790763622
 10
-13.1604500621
 20
23.7857808799
  0
LWPOLYLINE
  5
33D
100
AcDbEntity
  8
268140580
100
AcDbPolyline
 62
7
  6
CONTINUOUS
 90
34
 70
0
 10
-2.3829078038
 20
23.461678006
 10
-2.3839888251
 20
23.4720989813
 10
-2.3884946156
 20
23.5072638734
 10
-2.3937990826
 20
23.5418652623
 10
-2.3999081686
 20
23.5758807865
 10
-2.4068159313
 20
23.6093328074
 10
-2.4144795525
 20
23.6420554424
 10
-2.4228868657
 20
23.6740022083
 10
-2.4320500375
 20
23.7052195882
 10
-2.4419627491
 20
23.7356811483
 10
-2.4526415614
 20
23.7654347764
 10
-2.4640699135
 20
23.7944325847
 10
-2.4761918032
 20
23.8225044766
 10
-2.4890181838
 20
23.8496471951
 10
-2.5025381021
 20
23.8758639972
 10
-2.5166626963
 20
23.9009945572
 10
-2.5313766961
 20
23.925001998
 10
-2.5466953719
 20
23.9479231967
 10
-2.5625756738
 20
23.9697084587
 10
-2.5790163295
 20
23.9903607014
 10
-2.5960186113
 20
24.0098770074
 10
-2.6135432866
 20
24.0281989301
 10
-2.6316157655
 20
24.0453428527
 10
-2.6502106378
 20
24.0612923921
 10
-2.669212441
 20
24.0759399516
 10
-2.6886204736
 20
24.0892671815
 10
-2.7084354371
 20
24.1012924316
 10
-2.7285439728
 20
24.1119631553
 10
-2.7489138147
 20
24.1212633255
 10
-2.7695772288
 20
24.1292089693
 10
-2.7905176543
 20
24.1357956221
 10
-2.8117660557
 20
24.1410328629
 10
-2.8332914685
 20
24.1449111126
 10
-2.839976991
 20
24.1458288683
  0
LWPOLYLINE
  5
33E
100
AcDbEntity
  8
290140580
100
AcDbPolyline
 62
250
  6
CONTINUOUS
 90
13
 70
0
 10
-1.62532201
 20
-2.6408033137
 10
-1.6275152458
 20
-2.6151445244
 10
-1.6323923721
 20
-2.589564666
 10
-1.6398699281
 20
-2.5645012682
 10
-1.649819986
 20
-2.5403829968
 10
-1.662072316
 20
-2.5176223829
 10
-1.6764172806
 20
-2.4966087545
 10
-1.6926094744
 20
-2.4777014904
 10
-1.7103719191
 20
-2.4612239148
 10
-1.7294007582
 20
-2.4474578093
 10
-1.7493705016
 20
-2.4366385462
 10
-1.7699395995
 20
-2.4289510778
 10
-1.7907562585
 20
-2.4245267942
  0
LWPOLYLINE
  5
33F
100
AcDbEntity
  8
290140600
100
AcDbPolyline
 62
250
  6
CONTINUOUS
 90
13
 70
0
 10
-1.62532201
 20
-2.6408033137
 10
-1.6275152458
 20
-2.6151445244
 10
-1.6323923721
 20
-2.589564666
 10
-1.6398699281
 20
-2.5645012682
 10
-1.649819986
 20
-2.5403829968
 10
-1.662072316
 20
-2.5176223829
 10
-1.6764172806
 20
-2.4966087545
 10
-1.6926094744
 20
-2.4777014904
 10
-1.7103719191
 20
-2.4612239148
 10
-1.7294007582
 20
-2.4474578093
 10
-1.7493705016
 20
-2.4366385462
 10
-1.7699395995
 20
-2.4289510778
 10
-1.7907562585
 20
-2.4245267942
  0
LWPOLYLINE
  5
340
100
AcDbEntity
  8
268140580
100
AcDbPolyline
 62
250
  6
CONTINUOUS
 90
24
 70
0
 10
-0.1177029038
 20
-24.9293804278
 10
-0.1171380882
 20
-24.9436203651
 10
-0.1160692018
 20
-24.9576622496
 10
-0.1144999017
 20
-24.9714580389
 10
-0.1124355571
 20
-24.9849605325
 10
-0.1098832309
 20
-24.9981235332
 10
-0.1068516554
 20
-25.0109020055
 10
-0.103351203
 20
-25.0232522295
 10
-0.0993938499
 20
-25.0351319504
 10
-0.0949931357
 20
-25.0465005234
 10
-0.0901641169
 20
-25.0573190522
 10
-0.0849233154
 20
-25.0675505226
 10
-0.0792886619
 20
-25.0771599289
 10
-0.0732794347
 20
-25.0861143939
 10
-0.0669161935
 20
-25.0943832808
 10
-0.0602207095
 20
-25.1019382988
 10
-0.0532158904
 20
-25.1087535993
 10
-0.0459257022
 20
-25.1148058646
 10
-0.0383750874
 20
-25.1200743876
 10
-0.0305898796
 20
-25.1245411429
 10
-0.0225967147
 20
-25.1281908479
 10
-0.0144229405
 20
-25.1310110156
 10
-0.0060965224
 20
-25.1329919972
 10
-0.0012655576
 20
-25.1337464393
  0
LWPOLYLINE
  5
341
100
AcDbEntity
  8
268140580
100
AcDbPolyline
 62
250
  6
CONTINUOUS
 90
19
 70
0
 10
-1.1440927619
 20
22.1896138647
 10
-1.1435324541
 20
22.1754521016
 10
-1.1424736132
 20
22.161485945
 10
-1.140919822
 20
22.1477626518
 10
-1.138876338
 20
22.1343286574
 10
-1.1363500757
 20
22.121229418
 10
-1.1333495831
 20
22.1085092575
 10
-1.1298850131
 20
22.0962112168
 10
-1.1259680886
 20
22.0843769085
 10
-1.1216120632
 20
22.0730463763
 10
-1.1168316763
 20
22.062257959
 10
-1.1116431034
 20
22.0520481613
 10
-1.1060639007
 20
22.0424515299
 10
-1.1001129467
 20
22.0335005367
 10
-1.0938103774
 20
22.0252254691
 10
-1.0871775188
 20
22.0176543272
 10
-1.0802368144
 20
22.0108127295
 10
-1.0730117492
 20
22.0047238257
 10
-1.0655267706
 20
21.9994082188
  0
LWPOLYLINE
  5
342
100
AcDbEntity
  8
268140580
100
AcDbPolyline
 62
250
  6
CONTINUOUS
 90
25
 70
0
 10
-0.5340392962
 20
21.5160851917
 10
-0.5344054312
 20
21.5265729131
 10
-0.5350469558
 20
21.5369932811
 10
-0.5359652764
 20
21.5473258465
 10
-0.537161582
 20
21.5575524054
 10
-0.5386360168
 20
21.5676497874
 10
-0.5403870258
 20
21.5775902998
 10
-0.542413914
 20
21.5873565883
 10
-0.5447142455
 20
21.5969252728
 10
-0.547281129
 20
21.6062612709
 10
-0.5501094755
 20
21.6153437044
 10
-0.5531950434
 20
21.6241568006
 10
-0.5565294719
 20
21.6326756205
 10
-0.5601063695
 20
21.640884013
 10
-0.5639186548
 20
21.6487658937
 10
-0.5679549148
 20
21.6562990302
 10
-0.5722068766
 20
21.6634703139
 10
-0.57666548
 20
21.6702666727
 10
-0.5813162149
 20
21.6766692894
 10
-0.5861487111
 20
21.6826681745
 10
-0.5911527202
 20
21.6882547131
 10
-0.5963123217
 20
21.6934159495
 10
-0.6016143898
 20
21.6981445601
 10
-0.6070492111
 20
21.7024374945
 10
-0.6126052874
 20
21.7062908377
  0
LWPOLYLINE
  5
343
100
AcDbEntity
  8
290140580
100
AcDbPolyline
 62
250
  6
CONTINUOUS
 90
9
 70
0
 10
-1.5734331844
 20
-4.8336713022
 10
-1.5154647269
 20
-7.0246154916
 10
-1.4514166376
 20
-9.2136358818
 10
-1.3812885345
 20
-11.4007437195
 10
-1.3050807995
 20
-13.5859277581
 10
-1.2227945786
 20
-15.7691542577
 10
-1.1344302537
 20
-17.950411972
 10
-1.0399874429
 20
-20.1297121473
 10
-0.9394661461
 20
-22.3070547838
  0
LWPOLYLINE
  5
344
100
AcDbEntity
  8
290140600
100
AcDbPolyline
 62
250
  6
CONTINUOUS
 90
9
 70
0
 10
-1.5734331844
 20
-4.8336713022
 10
-1.5154647269
 20
-7.0246154916
 10
-1.4514166376
 20
-9.2136358818
 10
-1.3812885345
 20
-11.4007437195
 10
-1.3050807995
 20
-13.5859277581
 10
-1.2227945786
 20
-15.7691542577
 10
-1.1344302537
 20
-17.950411972
 10
-1.0399874429
 20
-20.1297121473
 10
-0.9394661461
 20
-22.3070547838
  0
LINE
  5
345
100
AcDbEntity
  8
290140580
100
AcDbLine
 62
250
  6
CONTINUOUS
 10
-1.62532201
 20
-2.6408033137
 11
-1.5734331844
 21
-4.8336713022
  0
LINE
  5
346
100
AcDbEntity
  8
290140600
100
AcDbLine
 62
250
  6
CONTINUOUS
 10
-1.62532201
 20
-2.6408033137
 11
-1.5734331844
 21
-4.8336713022
  0
LINE
  5
347
100
AcDbEntity
  8
268140580
100
AcDbLine
 62
7
  6
CONTINUOUS
 10
-0.2288213154
 20
-24.4746842682
 11
-0.2197488625
 21
-24.891177914
  0
LINE
  5
348
100
AcDbEntity
  8
268140580
100
AcDbLine
 62
7
  6
CONTINUOUS
 10
-1.2461387205
 20
22.2278163785
 11
-1.2552111734
 21
22.6443100244
  0
LINE
  5
349
100
AcDbEntity
  8
268140580
100
AcDbLine
 62
250
  6
CONTINUOUS
 10
-0.1267753567
 20
-24.512886782
 11
-0.1177029038
 21
-24.9293804278
  0
LINE
  5
34A
100
AcDbEntity
  8
268140580
100
AcDbLine
 62
250
  6
CONTINUOUS
 10
-1.1440927619
 20
22.1896138647
 11
-1.1531652147
 21
22.6061075105
  0
LINE
  5
34B
100
AcDbEntity
  8
268140580
100
AcDbLine
 62
7
  6
CONTINUOUS
 10
0.3414355448
 20
-23.3212501996
 11
0.3442832221
 21
-23.4519799522
  0
LINE
  5
34C
100
AcDbEntity
  8
268140580
100
AcDbLine
 62
7
  6
CONTINUOUS
 10
-0.6221845734
 20
20.9161421483
 11
-0.6360852548
 21
21.5542877056
  0
LINE
  5
34D
100
AcDbEntity
  8
268140580
100
AcDbLine
 62
250
  6
CONTINUOUS
 10
0.4422098515
 20
-23.3010743454
 11
0.4463291808
 21
-23.4901824661
  0
LINE
  5
34E
100
AcDbEntity
  8
268140580
100
AcDbLine
 62
250
  6
CONTINUOUS
 10
-0.5200254858
 20
20.8727461679
 11
-0.5340392962
 21
21.5160851917
  0
LWPOLYLINE
  5
34F
100
AcDbEntity
  8
268140580
100
AcDbPolyline
 62
250
  6
CONTINUOUS
 90
28
 70
0
 10
0.4463291808
 20
-23.4901824661
 10
0.4464249296
 20
-23.4995893871
 10
0.4463032503
 20
-23.5090613357
 10
0.4459633036
 20
-23.5185845782
 10
0.4454050185
 20
-23.5281388143
 10
0.4446280502
 20
-23.5377163417
 10
0.4436303342
 20
-23.5473220851
 10
0.4424090648
 20
-23.5569559126
 10
0.4409651127
 20
-23.5665885809
 10
0.4393027767
 20
-23.5761812584
 10
0.4374251057
 20
-23.5857135161
 10
0.435333382
 20
-23.5951763319
 10
0.4330318306
 20
-23.6045484946
 10
0.4305237839
 20
-23.613815523
 10
0.4278128635
 20
-23.6229631995
 10
0.4249050559
 20
-23.6319713567
 10
0.4218048482
 20
-23.640826827
 10
0.4185173244
 20
-23.6495157759
 10
0.4150506636
 20
-23.6580181094
 10
0.411410718
 20
-23.6663216797
 10
0.4076037038
 20
-23.6744144013
 10
0.4036396061
 20
-23.6822778172
 10
0.3995256142
 20
-23.6899010744
 10
0.3952687067
 20
-23.6972745113
 10
0.3908795811
 20
-23.7043832752
 10
0.386367145
 20
-23.7112172101
 10
0.3817381267
 20
-23.7177702559
 10
0.3770004217
 20
-23.7240350674
  0
LWPOLYLINE
  5
350
100
AcDbEntity
  8
268140580
100
AcDbPolyline
 62
7
  6
CONTINUOUS
 90
28
 70
0
 10
0.3442832221
 20
-23.4519799522
 10
0.3444147472
 20
-23.4655169183
 10
0.3442197802
 20
-23.47925584
 10
0.3436925623
 20
-23.4931574343
 10
0.3428286298
 20
-23.5071890674
 10
0.3416261521
 20
-23.5213021933
 10
0.3400877254
 20
-23.5354327039
 10
0.3382162751
 20
-23.5495419506
 10
0.3360172596
 20
-23.5635857503
 10
0.3335036208
 20
-23.5774923198
 10
0.3306865384
 20
-23.591220654
 10
0.3275784498
 20
-23.6047330005
 10
0.3242008187
 20
-23.617964778
 10
0.3205709367
 20
-23.6308817723
 10
0.3167082074
 20
-23.6434489523
 10
0.3126434382
 20
-23.6556046636
 10
0.3084008126
 20
-23.667319124
 10
0.3040044037
 20
-23.678568218
 10
0.299490277
 20
-23.6893044788
 10
0.2948871517
 20
-23.6995069795
 10
0.2902225656
 20
-23.7091616604
 10
0.2855348849
 20
-23.7182374241
 10
0.2808560477
 20
-23.72672246
 10
0.2762148006
 20
-23.7346142197
 10
0.2716475816
 20
-23.7419006036
 10
0.2671878478
 20
-23.7485790192
 10
0.2628643986
 20
-23.7546568543
 10
0.2587073597
 20
-23.7601416764
  0
LWPOLYLINE
  5
351
100
AcDbEntity
  8
290140600
100
AcDbPolyline
 62
250
  6
CONTINUOUS
 90
11
 70
0
 10
-1.6397169385
 20
-1.9799681085
 10
-1.6407966614
 20
-2.0054233448
 10
-1.6445791684
 20
-2.030083144
 10
-1.6509997646
 20
-2.0535257332
 10
-1.6599486345
 20
-2.0753501587
 10
-1.6712727198
 20
-2.095183143
 10
-1.6847783369
 20
-2.1126854697
 10
-1.7002344904
 20
-2.1275577851
 10
-1.7173768238
 20
-2.1395457183
 10
-1.7359121405
 20
-2.1484442318
 10
-1.7479518877
 20
-2.1523371642
  0
LWPOLYLINE
  5
352
100
AcDbEntity
  8
290140580
100
AcDbPolyline
 62
250
  6
CONTINUOUS
 90
11
 70
0
 10
-1.6397169385
 20
-1.9799681085
 10
-1.6407966614
 20
-2.0054233448
 10
-1.6445791684
 20
-2.030083144
 10
-1.6509997646
 20
-2.0535257332
 10
-1.6599486345
 20
-2.0753501587
 10
-1.6712727198
 20
-2.095183143
 10
-1.6847783369
 20
-2.1126854697
 10
-1.7002344904
 20
-2.1275577851
 10
-1.7173768238
 20
-2.1395457183
 10
-1.7359121405
 20
-2.1484442318
 10
-1.7479518877
 20
-2.1523371642
  0
LWPOLYLINE
  5
353
100
AcDbEntity
  8
268140580
100
AcDbPolyline
 62
250
  6
CONTINUOUS
 90
5
 70
0
 10
-13.3058054109
 20
-21.9587982904
 10
-13.3088468099
 20
-21.9638721876
 10
-13.313883679
 20
-21.9716637523
 10
-13.3190720135
 20
-21.979103419
 10
-13.3244006678
 20
-21.9861803218
  0
LINE
  5
354
100
AcDbEntity
  8
290140600
100
AcDbLine
 62
250
  6
CONTINUOUS
 10
-1.7479518877
 20
-2.1523371642
 11
-1.7490494916
 21
-2.152624639
  0
LINE
  5
355
100
AcDbEntity
  8
290140580
100
AcDbLine
 62
250
  6
CONTINUOUS
 10
-1.7479518877
 20
-2.1523371642
 11
-1.7490494916
 21
-2.152624639
  0
LINE
  5
356
100
AcDbEntity
  8
290140600
100
AcDbLine
 62
250
  6
CONTINUOUS
 10
-1.6397169385
 20
-1.9799681085
 11
1.3955839739
 21
-1.200084478
  0
LINE
  5
357
100
AcDbEntity
  8
290140580
100
AcDbLine
 62
250
  6
CONTINUOUS
 10
-1.6397169385
 20
-1.9799681085
 11
1.3955839739
 21
-1.200084478
  0
LINE
  5
358
100
AcDbEntity
  8
290140580
100
AcDbLine
 62
7
  6
CONTINUOUS
 10
1.0089261341
 20
-1.4439963659
 11
1.2408146626
 21
-1.4734085828
  0
LINE
  5
359
100
AcDbEntity
  8
290140600
100
AcDbLine
 62
7
  6
CONTINUOUS
 10
1.0089261341
 20
-1.4439963659
 11
1.2408146626
 21
-1.4734085828
  0
LWPOLYLINE
  5
35A
100
AcDbEntity
  8
268140580
100
AcDbPolyline
 62
7
  6
CONTINUOUS
 90
19
 70
0
 10
-15.9073041949
 20
23.6542334929
 10
-15.9049536655
 20
23.6502941401
 10
-15.9024351259
 20
23.6457034273
 10
-15.8997882571
 20
23.6404517541
 10
-15.8970506524
 20
23.6345299946
 10
-15.8942622088
 20
23.6279390108
 10
-15.8914591741
 20
23.6206769859
 10
-15.8886761509
 20
23.6127422386
 10
-15.8859500939
 20
23.6041450718
 10
-15.8833167862
 20
23.5949002899
 10
-15.8808081186
 20
23.5850166808
 10
-15.8784569759
 20
23.5745139645
 10
-15.8762965686
 20
23.5634258859
 10
-15.8743545311
 20
23.5517718679
 10
-15.8726584248
 20
23.5395818756
 10
-15.8712359662
 20
23.5269099967
 10
-15.8701094865
 20
23.5137974298
 10
-15.86929795
 20
23.5002722424
 10
-15.8688194073
 20
23.4863732756
  0
LWPOLYLINE
  5
35B
100
AcDbEntity
  8
290140600
100
AcDbPolyline
 62
250
  6
CONTINUOUS
 90
16
 70
0
 10
-1.2608072056
 20
18.9336114312
 10
-1.2657515112
 20
18.9845105296
 10
-1.2749945325
 20
19.0354286128
 10
-1.2884351328
 20
19.0858084647
 10
-1.3059262402
 20
19.1350987581
 10
-1.3272764541
 20
19.1827600829
 10
-1.3522521383
 20
19.2282708491
 10
-1.380579983
 20
19.2711330064
 10
-1.4119499912
 20
19.3108774842
 10
-1.4460188659
 20
19.3470693226
 10
-1.4824137802
 20
19.3793124484
 10
-1.520736449
 20
19.4072539983
 10
-1.5605674789
 20
19.4305881771
 10
-1.6014709748
 20
19.4490596185
 10
-1.6429993113
 20
19.4624661749
 10
-1.6846980207
 20
19.470661124
  0
LWPOLYLINE
  5
35C
100
AcDbEntity
  8
290140580
100
AcDbPolyline
 62
250
  6
CONTINUOUS
 90
16
 70
0
 10
-1.2608072056
 20
18.9336114312
 10
-1.2657515112
 20
18.9845105296
 10
-1.2749945325
 20
19.0354286128
 10
-1.2884351328
 20
19.0858084647
 10
-1.3059262402
 20
19.1350987581
 10
-1.3272764541
 20
19.1827600829
 10
-1.3522521383
 20
19.2282708491
 10
-1.380579983
 20
19.2711330064
 10
-1.4119499912
 20
19.3108774842
 10
-1.4460188659
 20
19.3470693226
 10
-1.4824137802
 20
19.3793124484
 10
-1.520736449
 20
19.4072539983
 10
-1.5605674789
 20
19.4305881771
 10
-1.6014709748
 20
19.4490596185
 10
-1.6429993113
 20
19.4624661749
 10
-1.6846980207
 20
19.470661124
  0
LWPOLYLINE
  5
35D
100
AcDbEntity
  8
268140580
100
AcDbPolyline
 62
250
  6
CONTINUOUS
 90
31
 70
0
 10
0.7275537911
 20
22.4299669539
 10
0.7270679102
 20
22.4428041956
 10
0.7260328822
 20
22.4556842237
 10
0.7244505035
 20
22.4685718907
 10
0.7223235756
 20
22.4814346016
 10
0.7196571828
 20
22.4942343219
 10
0.7164598039
 20
22.5069278601
 10
0.7127410745
 20
22.5194776884
 10
0.7085105527
 20
22.5318521744
 10
0.7037797103
 20
22.5440177009
 10
0.6985613836
 20
22.5559411069
 10
0.692869925
 20
22.5675894605
 10
0.6867210842
 20
22.5789304865
 10
0.6801318095
 20
22.5899329567
 10
0.6731200995
 20
22.6005668468
 10
0.6657051161
 20
22.610803092
 10
0.6579071504
 20
22.6206136573
 10
0.6497476088
 20
22.6299715897
 10
0.6412488913
 20
22.6388511884
 10
0.6324343098
 20
22.6472280926
 10
0.6233280238
 20
22.6550793381
 10
0.6139550068
 20
22.6623833889
 10
0.6043409578
 20
22.6691202141
 10
0.5945122404
 20
22.6752713363
 10
0.5844958146
 20
22.68081988
 10
0.5743191384
 20
22.6857506324
 10
0.5640101257
 20
22.6900500661
 10
0.5535970807
 20
22.6937063786
 10
0.5431085704
 20
22.6967095454
 10
0.5325733445
 20
22.6990513409
 10
0.5220202921
 20
22.7007253489
  0
LINE
  5
35E
100
AcDbEntity
  8
268140580
100
AcDbLine
 62
250
  6
CONTINUOUS
 10
0.3781678482
 20
22.411876686
 11
0.3872403011
 21
21.9953830402
  0
LINE
  5
35F
100
AcDbEntity
  8
268140580
100
AcDbLine
 62
250
  6
CONTINUOUS
 10
1.4045577063
 20
-24.7071176065
 11
1.4136301591
 21
-25.1236112523
  0
LINE
  5
360
100
AcDbEntity
  8
290140600
100
AcDbLine
 62
7
  6
CONTINUOUS
 10
0.4556221587
 20
19.5699727042
 11
0.4765720612
 21
18.6082150177
  0
LINE
  5
361
100
AcDbEntity
  8
290140580
100
AcDbLine
 62
7
  6
CONTINUOUS
 10
0.4556221587
 20
19.5699727042
 11
0.4765720612
 21
18.6082150177
  0
LINE
  5
362
100
AcDbEntity
  8
290140580
100
AcDbLine
 62
7
  6
CONTINUOUS
 10
1.3771752559
 20
-22.7362277996
 11
1.3562253534
 21
-21.7744701131
  0
LINE
  5
363
100
AcDbEntity
  8
290140600
100
AcDbLine
 62
7
  6
CONTINUOUS
 10
1.3771752559
 20
-22.7362277996
 11
1.3562253534
 21
-21.7744701131
  0
LINE
  5
364
100
AcDbEntity
  8
268140580
100
AcDbLine
 62
7
  6
CONTINUOUS
 10
0.60284188
 20
19.2445138333
 11
0.6118341246
 21
18.831702346
  0
LINE
  5
365
100
AcDbEntity
  8
268140580
100
AcDbLine
 62
7
  6
CONTINUOUS
 10
1.0536217845
 20
-1.4496654612
 11
1.0532502193
 21
-1.4326078316
  0
LINE
  5
366
100
AcDbEntity
  8
268140580
100
AcDbLine
 62
250
  6
CONTINUOUS
 10
0.7275537911
 20
22.4299669539
 11
0.736626244
 21
22.0134733081
  0
LINE
  5
367
100
AcDbEntity
  8
268140580
100
AcDbLine
 62
250
  6
CONTINUOUS
 10
1.7539436492
 20
-24.6890273386
 11
1.763016102
 21
-25.1055209844
  0
LINE
  5
368
100
AcDbEntity
  8
290140600
100
AcDbLine
 62
7
  6
CONTINUOUS
 10
0.9601954063
 20
18.7875169884
 11
1.3955839739
 21
-1.200084478
  0
LINE
  5
369
100
AcDbEntity
  8
290140580
100
AcDbLine
 62
7
  6
CONTINUOUS
 10
0.9601954063
 20
18.7875169884
 11
1.3955839739
 21
-1.200084478
  0
LINE
  5
36A
100
AcDbEntity
  8
290140580
100
AcDbLine
 62
7
  6
CONTINUOUS
 10
1.8416374787
 20
-21.6772865687
 11
1.4062489111
 21
-1.6896851023
  0
LINE
  5
36B
100
AcDbEntity
  8
290140600
100
AcDbLine
 62
7
  6
CONTINUOUS
 10
1.8416374787
 20
-21.6772865687
 11
1.4062489111
 21
-1.6896851023
  0
LINE
  5
36C
100
AcDbEntity
  8
268140580
100
AcDbLine
 62
250
  6
CONTINUOUS
 10
0.9972937668
 20
21.3218543672
 11
1.0113075771
 21
20.6785153434
  0
LINE
  5
36D
100
AcDbEntity
  8
268140580
100
AcDbLine
 62
250
  6
CONTINUOUS
 10
1.9636484334
 20
-23.0410742667
 11
1.9776622438
 21
-23.6844132906
  0
LINE
  5
36E
100
AcDbEntity
  8
268140580
100
AcDbLine
 62
250
  6
CONTINUOUS
 10
1.3466797097
 20
21.3399446352
 11
1.3604140231
 21
20.7094366154
  0
LINE
  5
36F
100
AcDbEntity
  8
268140580
100
AcDbLine
 62
250
  6
CONTINUOUS
 10
2.3139634818
 20
-23.0656369083
 11
2.3270481867
 21
-23.6663230226
  0
LINE
  5
370
100
AcDbEntity
  8
268140580
100
AcDbLine
 62
7
  6
CONTINUOUS
 10
2.5244146974
 20
-22.7213758679
 11
2.500496616
 21
-21.6233565009
  0
LINE
  5
371
100
AcDbEntity
  8
268140580
100
AcDbLine
 62
7
  6
CONTINUOUS
 10
1.6130657126
 20
19.1163793257
 11
1.5891476312
 21
20.2143986927
  0
LINE
  5
372
100
AcDbEntity
  8
268140580
100
AcDbLine
 62
250
  6
CONTINUOUS
 10
1.6804035363
 20
19.1355921754
 11
2.5657143884
 21
-21.5068173932
  0
LINE
  5
373
100
AcDbEntity
  8
268140580
100
AcDbLine
 62
7
  6
CONTINUOUS
 10
1.7389033123
 20
23.8494283546
 11
1.7514072158
 21
23.2754053825
  0
LINE
  5
374
100
AcDbEntity
  8
268140580
100
AcDbLine
 62
250
  6
CONTINUOUS
 10
2.9186271883
 20
-23.4917352011
 11
2.910556854
 21
-23.1212463165
  0
LINE
  5
375
100
AcDbEntity
  8
268140580
100
AcDbLine
 62
250
  6
CONTINUOUS
 10
1.9463290455
 20
21.144043572
 11
1.9382587113
 21
21.5145324567
  0
LWPOLYLINE
  5
376
100
AcDbEntity
  8
268140580
100
AcDbPolyline
 62
7
  6
CONTINUOUS
 90
28
 70
0
 10
1.9867082279
 20
21.5455335856
 10
1.9865767028
 20
21.5590705518
 10
1.9867716698
 20
21.5728094734
 10
1.9872988877
 20
21.5867110678
 10
1.9881628202
 20
21.6007427009
 10
1.9893652979
 20
21.6148558267
 10
1.9909037246
 20
21.6289863374
 10
1.9927751749
 20
21.643095584
 10
1.9949741904
 20
21.6571393837
 10
1.9974878292
 20
21.6710459532
 10
2.0003049116
 20
21.6847742875
 10
2.0034130002
 20
21.6982866339
 10
2.0067906313
 20
21.7115184114
 10
2.0104205133
 20
21.7244354058
 10
2.0142832426
 20
21.7370025858
 10
2.0183480118
 20
21.7491582971
 10
2.0225906374
 20
21.7608727575
 10
2.0269870463
 20
21.7721218514
 10
2.031501173
 20
21.7828581122
 10
2.0361042983
 20
21.793060613
 10
2.0407688844
 20
21.8027152939
 10
2.0454565651
 20
21.8117910575
 10
2.0501354023
 20
21.8202760934
 10
2.0547766494
 20
21.8281678531
 10
2.0593438684
 20
21.835454237
 10
2.0638036023
 20
21.8421326527
 10
2.0681270514
 20
21.8482104878
 10
2.0722840903
 20
21.8536953098
  0
LWPOLYLINE
  5
377
100
AcDbEntity
  8
268140580
100
AcDbPolyline
 62
250
  6
CONTINUOUS
 90
25
 70
0
 10
2.3270481867
 20
-23.6663230226
 10
2.3272404295
 20
-23.6874814038
 10
2.3268763631
 20
-23.7087598732
 10
2.3259559873
 20
-23.7301584309
 10
2.3244792301
 20
-23.7517279589
 10
2.3224461637
 20
-23.7734175751
 10
2.3198570042
 20
-23.7950746338
 10
2.3167059964
 20
-23.816698081
 10
2.3129988957
 20
-23.8382889707
 10
2.3087531844
 20
-23.8596978177
 10
2.3039636231
 20
-23.8809223488
 10
2.2986354513
 20
-23.9019648373
 10
2.2928018699
 20
-23.9226826177
 10
2.2864581867
 20
-23.9430723263
 10
2.2796090938
 20
-23.9631373268
 10
2.2723018696
 20
-23.9827450451
 10
2.2645317522
 20
-24.0018917399
 10
2.2563035034
 20
-24.0205811526
 10
2.2476786867
 20
-24.0386919333
 10
2.2386531681
 20
-24.0562182402
 10
2.2292310815
 20
-24.0731659152
 10
2.2194863917
 20
-24.0894311337
 10
2.2094437537
 20
-24.1049792874
 10
2.1990785126
 20
-24.1198449846
 10
2.1883906683
 20
-24.1340282252
  0
LWPOLYLINE
  5
378
100
AcDbEntity
  8
268140580
100
AcDbPolyline
 62
250
  6
CONTINUOUS
 90
25
 70
0
 10
1.9382587113
 20
21.5145324567
 10
1.9380664684
 20
21.5356908378
 10
1.9384305349
 20
21.5569693073
 10
1.9393509106
 20
21.578367865
 10
1.9408276678
 20
21.5999373929
 10
1.9428607343
 20
21.6216270092
 10
1.9454498937
 20
21.6432840678
 10
1.9486009015
 20
21.6649075151
 10
1.9523080023
 20
21.6864984048
 10
1.9565537135
 20
21.7079072517
 10
1.9613432748
 20
21.7291317829
 10
1.9666714466
 20
21.7501742713
 10
1.972505028
 20
21.7708920517
 10
1.9788487113
 20
21.7912817603
 10
1.9856978041
 20
21.8113467608
 10
1.9930050284
 20
21.8309544792
 10
2.0007751457
 20
21.850101174
 10
2.0090033945
 20
21.8687905866
 10
2.0176282113
 20
21.8869013673
 10
2.0266537299
 20
21.9044276743
 10
2.0360758165
 20
21.9213753493
 10
2.0458205062
 20
21.9376405678
 10
2.0558631442
 20
21.9531887215
 10
2.0662283853
 20
21.9680544186
 10
2.0769162296
 20
21.9822376593
  0
LWPOLYLINE
  5
379
100
AcDbEntity
  8
268140580
100
AcDbPolyline
 62
250
  6
CONTINUOUS
 90
25
 70
0
 10
1.9776622438
 20
-23.6844132906
 10
1.977754808
 20
-23.6949736636
 10
1.9775729932
 20
-23.7056293501
 10
1.977114497
 20
-23.7163610358
 10
1.9763772409
 20
-23.7271525639
 10
1.9753600801
 20
-23.7379801121
 10
1.9740637429
 20
-23.7488122556
 10
1.9724888404
 20
-23.7596285937
 10
1.9706366525
 20
-23.7704076913
 10
1.9685114856
 20
-23.7811165464
 10
1.9661167153
 20
-23.7917337314
 10
1.9634560336
 20
-23.8022389498
 10
1.9605366908
 20
-23.8126016188
 10
1.957364324
 20
-23.822801497
 10
1.9539449593
 20
-23.8328189963
 10
1.9502885805
 20
-23.842625881
 10
1.9464025915
 20
-23.852204315
 10
1.9422952646
 20
-23.8615358073
 10
1.937979889
 20
-23.8705932534
 10
1.9334660318
 20
-23.8793606806
 10
1.9287634169
 20
-23.887823113
 10
1.9238873425
 20
-23.8959577576
 10
1.9188504734
 20
-23.9037493224
 10
1.9136621389
 20
-23.9111889891
 10
1.9083334846
 20
-23.9182658919
  0
LWPOLYLINE
  5
37A
100
AcDbEntity
  8
268140580
100
AcDbPolyline
 62
250
  6
CONTINUOUS
 90
25
 70
0
 10
1.763016102
 20
-25.1055209844
 10
1.7630866138
 20
-25.1182789575
 10
1.762604659
 20
-25.1309319129
 10
1.7615715585
 20
-25.1434451695
 10
1.7599901441
 20
-25.1557844295
 10
1.7578647503
 20
-25.1679158717
 10
1.7552012026
 20
-25.1798062448
 10
1.7520068017
 20
-25.1914229581
 10
1.7482903031
 20
-25.2027341709
 10
1.7440618936
 20
-25.21370888
 10
1.7393331629
 20
-25.2243170046
 10
1.7341170721
 20
-25.2345294684
 10
1.7284279183
 20
-25.2443182797
 10
1.7222812948
 20
-25.2536566083
 10
1.7156940493
 20
-25.2625188583
 10
1.7086842369
 20
-25.2708807389
 10
1.701271071
 20
-25.2787193309
 10
1.6934748706
 20
-25.2860131491
 10
1.6853170045
 20
-25.2927422017
 10
1.6768198329
 20
-25.2988880449
 10
1.6680066459
 20
-25.3044338333
 10
1.6589015999
 20
-25.3093643663
 10
1.6495296511
 20
-25.3136661297
 10
1.6399164875
 20
-25.3173273326
 10
1.6354768174
 20
-25.3187761797
  0
LWPOLYLINE
  5
37B
100
AcDbEntity
  8
268140580
100
AcDbPolyline
 62
250
  6
CONTINUOUS
 90
19
 70
0
 10
1.4045577063
 20
-24.7071176065
 10
1.4044978275
 20
-24.692808156
 10
1.4049385804
 20
-24.6783994366
 10
1.4058784735
 20
-24.663940203
 10
1.4073143267
 20
-24.6494793805
 10
1.4092412813
 20
-24.6350659001
 10
1.4116528171
 20
-24.6207485324
 10
1.4145407744
 20
-24.6065757227
 10
1.4178953812
 20
-24.5925954276
 10
1.4217052865
 20
-24.5788549517
 10
1.4259575989
 20
-24.5654007886
 10
1.4306379298
 20
-24.5522784628
 10
1.4357304425
 20
-24.5395323762
 10
1.4412179056
 20
-24.5272056576
 10
1.4470817512
 20
-24.5153400165
 10
1.4533021378
 20
-24.5039756026
 10
1.4598580178
 20
-24.4931508694
 10
1.4667272081
 20
-24.4829024445
 10
1.4738864654
 20
-24.4732650052
  0
LWPOLYLINE
  5
37C
100
AcDbEntity
  8
268140580
100
AcDbPolyline
 62
250
  6
CONTINUOUS
 90
28
 70
0
 10
0.3781678482
 20
22.411876686
 10
0.3781090358
 20
22.4262659558
 10
0.3785564278
 20
22.440755327
 10
0.3795084935
 20
22.4552952262
 10
0.3809619755
 20
22.4698359068
 10
0.382911901
 20
22.4843276199
 10
0.3853515985
 20
22.4987207838
 10
0.388272721
 20
22.5129661541
 10
0.391665274
 20
22.5270149921
 10
0.3955176506
 20
22.5408192315
 10
0.3998166701
 20
22.5543316428
 10
0.4045476242
 20
22.567505995
 10
0.4096943264
 20
22.5802972138
 10
0.4152391679
 20
22.5926615355
 10
0.4211631778
 20
22.6045566573
 10
0.4274460878
 20
22.6159418815
 10
0.4340664018
 20
22.6267782549
 10
0.4410014691
 20
22.6370287023
 10
0.4482275623
 20
22.646658153
 10
0.4557199582
 20
22.6556336612
 10
0.4634530226
 20
22.6639245182
 10
0.4714002977
 20
22.671502358
 10
0.479534593
 20
22.6783412539
 10
0.487828078
 20
22.6844178075
 10
0.4962523776
 20
22.6897112286
 10
0.5047786691
 20
22.6942034065
 10
0.5133777808
 20
22.6978789718
 10
0.5220202921
 20
22.7007253489
  0
LWPOLYLINE
  5
37D
100
AcDbEntity
  8
290140580
100
AcDbPolyline
 62
250
  6
CONTINUOUS
 90
14
 70
0
 10
-0.3456026743
 20
-23.0811422688
 10
-0.3483215171
 20
-23.1324102482
 10
-0.3553634726
 20
-23.182541232
 10
-0.3666514773
 20
-23.2309866125
 10
-0.3820620011
 20
-23.2772162285
 10
-0.4014263991
 20
-23.3207241671
 10
-0.4245327575
 20
-23.3610342998
 10
-0.4511282122
 20
-23.3977054935
 10
-0.4809217163
 20
-23.4303364375
 10
-0.5135872251
 20
-23.4585700356
 10
-0.5487672641
 20
-23.4820973139
 10
-0.5860768412
 20
-23.5006608022
 10
-0.6251076597
 20
-23.5140573511
 10
-0.6452051753
 20
-23.5187838773
  0
LWPOLYLINE
  5
37E
100
AcDbEntity
  8
290140600
100
AcDbPolyline
 62
250
  6
CONTINUOUS
 90
14
 70
0
 10
-0.3456026743
 20
-23.0811422688
 10
-0.3483215171
 20
-23.1324102482
 10
-0.3553634726
 20
-23.182541232
 10
-0.3666514773
 20
-23.2309866125
 10
-0.3820620011
 20
-23.2772162285
 10
-0.4014263991
 20
-23.3207241671
 10
-0.4245327575
 20
-23.3610342998
 10
-0.4511282122
 20
-23.3977054935
 10
-0.4809217163
 20
-23.4303364375
 10
-0.5135872251
 20
-23.4585700356
 10
-0.5487672641
 20
-23.4820973139
 10
-0.5860768412
 20
-23.5006608022
 10
-0.6251076597
 20
-23.5140573511
 10
-0.6452051753
 20
-23.5187838773
  0
LWPOLYLINE
  5
37F
100
AcDbEntity
  8
268140580
100
AcDbPolyline
 62
250
  6
CONTINUOUS
 90
19
 70
0
 10
-15.2901807499
 20
-22.3469486107
 10
-15.2973400073
 20
-22.3565860499
 10
-15.3042091975
 20
-22.3668344749
 10
-15.3107650775
 20
-22.377659208
 10
-15.3169854642
 20
-22.3890236219
 10
-15.3228493098
 20
-22.400889263
 10
-15.3283367728
 20
-22.4132159817
 10
-15.3334292856
 20
-22.4259620683
 10
-15.3381096165
 20
-22.439084394
 10
-15.3423619288
 20
-22.4525385571
 10
-15.3461718342
 20
-22.466279033
 10
-15.3495264409
 20
-22.4802593282
 10
-15.3524143982
 20
-22.4944321378
 10
-15.3548259341
 20
-22.5087495056
 10
-15.3567528887
 20
-22.523162986
 10
-15.3581887418
 20
-22.5376238084
 10
-15.359128635
 20
-22.5520830421
 10
-15.3595693878
 20
-22.5664917614
 10
-15.3595095091
 20
-22.580801212
  0
LINE
  5
380
100
AcDbEntity
  8
268140580
100
AcDbLine
 62
7
  6
CONTINUOUS
 10
-14.9740267927
 20
-21.8280561063
 11
-15.4084738119
 21
-22.3830552197
  0
LINE
  5
381
100
AcDbEntity
  8
268140580
100
AcDbLine
 62
250
  6
CONTINUOUS
 10
-14.8557337308
 20
-21.7919494973
 11
-15.2901807499
 21
-22.3469486107
  0
LINE
  5
382
100
AcDbEntity
  8
290140580
100
AcDbLine
 62
250
  6
CONTINUOUS
 10
1.2408146626
 20
-1.4734085828
 11
-1.7907562585
 21
-2.4245267942
  0
LINE
  5
383
100
AcDbEntity
  8
290140600
100
AcDbLine
 62
250
  6
CONTINUOUS
 10
1.2408146626
 20
-1.4734085828
 11
-1.7907562585
 21
-2.4245267942
  0
LINE
  5
384
100
AcDbEntity
  8
290140580
100
AcDbLine
 62
250
  6
CONTINUOUS
 10
1.4062489111
 20
-1.6896851023
 11
-1.62532201
 21
-2.6408033137
  0
LINE
  5
385
100
AcDbEntity
  8
290140600
100
AcDbLine
 62
250
  6
CONTINUOUS
 10
1.4062489111
 20
-1.6896851023
 11
-1.62532201
 21
-2.6408033137
  0
LWPOLYLINE
  5
386
100
AcDbEntity
  8
290140580
100
AcDbPolyline
 62
250
  6
CONTINUOUS
 90
19
 70
0
 10
-1.7907562585
 20
-2.4245267942
 10
-1.8073792321
 20
-2.4293375631
 10
-1.8254144782
 20
-2.4338249537
 10
-1.8448619967
 20
-2.4379889657
 10
-1.8658988783
 20
-2.4418597222
 10
-1.8883480324
 20
-2.4454071002
 10
-1.9116781869
 20
-2.4485407312
 10
-1.935898486
 20
-2.4512477807
 10
-1.9609997855
 20
-2.4535410833
 10
-1.9864233813
 20
-2.4553687744
 10
-2.0121784071
 20
-2.4567200413
 10
-2.0382557292
 20
-2.4576056966
 10
-2.0640692414
 20
-2.4580063139
 10
-2.0896259827
 20
-2.4579088132
 10
-2.1149189141
 20
-2.4573262744
 10
-2.1393408128
 20
-2.4562785103
 10
-2.1626892711
 20
-2.4547721253
 10
-2.1851666967
 20
-2.452800515
 10
-2.2067730896
 20
-2.4503636795
  0
LWPOLYLINE
  5
387
100
AcDbEntity
  8
290140600
100
AcDbPolyline
 62
250
  6
CONTINUOUS
 90
19
 70
0
 10
-1.7907562585
 20
-2.4245267942
 10
-1.8073792321
 20
-2.4293375631
 10
-1.8254144782
 20
-2.4338249537
 10
-1.8448619967
 20
-2.4379889657
 10
-1.8658988783
 20
-2.4418597222
 10
-1.8883480324
 20
-2.4454071002
 10
-1.9116781869
 20
-2.4485407312
 10
-1.935898486
 20
-2.4512477807
 10
-1.9609997855
 20
-2.4535410833
 10
-1.9864233813
 20
-2.4553687744
 10
-2.0121784071
 20
-2.4567200413
 10
-2.0382557292
 20
-2.4576056966
 10
-2.0640692414
 20
-2.4580063139
 10
-2.0896259827
 20
-2.4579088132
 10
-2.1149189141
 20
-2.4573262744
 10
-2.1393408128
 20
-2.4562785103
 10
-2.1626892711
 20
-2.4547721253
 10
-2.1851666967
 20
-2.452800515
 10
-2.2067730896
 20
-2.4503636795
  0
LWPOLYLINE
  5
388
100
AcDbEntity
  8
268140580
100
AcDbPolyline
 62
250
  6
CONTINUOUS
 90
19
 70
0
 10
-1.2461387205
 20
22.2278163785
 10
-1.2458592601
 20
22.2256541775
 10
-1.2448960525
 20
22.2230476264
 10
-1.2432511809
 20
22.2204690689
 10
-1.2409291537
 20
22.2179255728
 10
-1.2379363355
 20
22.2154241095
 10
-1.2342809293
 20
22.2129715354
 10
-1.2299729544
 20
22.2105745728
 10
-1.2250242186
 20
22.2082397916
 10
-1.2194482861
 20
22.2059735914
 10
-1.2132604401
 20
22.2037821835
 10
-1.2064776411
 20
22.2016715745
 10
-1.1991184802
 20
22.1996475495
 10
-1.1912031285
 20
22.1977156561
 10
-1.1827532812
 20
22.1958811895
 10
-1.173792099
 20
22.1941491779
 10
-1.1643441436
 20
22.1925243685
 10
-1.1544353115
 20
22.191011215
 10
-1.1440927619
 20
22.1896138647
  0
LWPOLYLINE
  5
389
100
AcDbEntity
  8
268140580
100
AcDbPolyline
 62
250
  6
CONTINUOUS
 90
19
 70
0
 10
-1.2552111734
 20
22.6443100244
 10
-1.2549339962
 20
22.642157464
 10
-1.2539730564
 20
22.6395503285
 10
-1.2523301684
 20
22.6369711572
 10
-1.2500098136
 20
22.6344270121
 10
-1.2470183479
 20
22.631924881
 10
-1.2433639772
 20
22.6294716349
 10
-1.2390567225
 20
22.6270740038
 10
-1.234108387
 20
22.6247385599
 10
-1.2285325382
 20
22.6224717088
 10
-1.2223444614
 20
22.6202796667
 10
-1.2155611229
 20
22.6181684451
 10
-1.2082011278
 20
22.6161438358
 10
-1.20028465
 20
22.6142113891
 10
-1.1918334025
 20
22.6123764062
 10
-1.18287059
 20
22.6106439247
 10
-1.1734208045
 20
22.6090186965
 10
-1.1635099527
 20
22.6075051753
 10
-1.1531652147
 20
22.6061075105
  0
LWPOLYLINE
  5
38A
100
AcDbEntity
  8
268140580
100
AcDbPolyline
 62
250
  6
CONTINUOUS
 90
34
 70
0
 10
2.4980532692
 20
20.551372856
 10
2.4966852934
 20
20.5698513402
 10
2.4946004095
 20
20.5883832799
 10
2.4918033351
 20
20.6069267431
 10
2.488300399
 20
20.6254397717
 10
2.4840995273
 20
20.6438804766
 10
2.4792102252
 20
20.6622071321
 10
2.4736435557
 20
20.6803782707
 10
2.4674121145
 20
20.6983527768
 10
2.4605300013
 20
20.7160899797
 10
2.4530127883
 20
20.7335497457
 10
2.4448774845
 20
20.7506925687
 10
2.4361424976
 20
20.7674796599
 10
2.4268275922
 20
20.7838730352
 10
2.4169538449
 20
20.7998356017
 10
2.4065435971
 20
20.8153312409
 10
2.3956204038
 20
20.8303248912
 10
2.3842089808
 20
20.8447826264
 10
2.3723351487
 20
20.8586717334
 10
2.3600257741
 20
20.8719607853
 10
2.3473087095
 20
20.8846197132
 10
2.3342127295
 20
20.8966198738
 10
2.3207674662
 20
20.9079341146
 10
2.3070033422
 20
20.9185368349
 10
2.2929515013
 20
20.9284040441
 10
2.2786437384
 20
20.9375134158
 10
2.2641124276
 20
20.9458443382
 10
2.2493904487
 20
20.9533779612
 10
2.234511113
 20
20.9600972385
 10
2.2195080878
 20
20.9659869663
 10
2.2044153201
 20
20.9710338183
 10
2.1892669603
 20
20.9752263747
 10
2.1740972844
 20
20.9785551493
 10
2.1589406166
 20
20.9810126101
  0
LWPOLYLINE
  5
38B
100
AcDbEntity
  8
268140580
100
AcDbPolyline
 62
250
  6
CONTINUOUS
 90
34
 70
0
 10
2.4980532692
 20
20.551372856
 10
2.4972868753
 20
20.570059015
 10
2.4958014111
 20
20.5887984166
 10
2.4936002187
 20
20.6075486134
 10
2.4906882507
 20
20.6262671939
 10
2.487072087
 20
20.6449116902
 10
2.4827599443
 20
20.6634396772
 10
2.4777616066
 20
20.6818091242
 10
2.4720883834
 20
20.6999784766
 10
2.4657531289
 20
20.7179065638
 10
2.4587701964
 20
20.735552769
 10
2.4511554033
 20
20.7528771209
 10
2.4429259995
 20
20.7698403744
 10
2.4341006271
 20
20.786404102
 10
2.424699279
 20
20.8025307808
 10
2.4147432527
 20
20.8181838773
 10
2.4042551024
 20
20.8333279317
 10
2.3932585872
 20
20.8479286375
 10
2.3817786181
 20
20.8619529189
 10
2.3698412012
 20
20.8753690063
 10
2.3574733789
 20
20.8881465073
 10
2.3447031694
 20
20.9002564758
 10
2.3315595021
 20
20.9116714784
 10
2.3180721515
 20
20.9223656565
 10
2.304271671
 20
20.9323147844
 10
2.2901893205
 20
20.9414963256
 10
2.2758570044
 20
20.9498894788
 10
2.2613071985
 20
20.9574752263
 10
2.2465728171
 20
20.9642364052
 10
2.2316872846
 20
20.9701576753
 10
2.2166844729
 20
20.9752255778
 10
2.2015984217
 20
20.9794286471
 10
2.1864632569
 20
20.982757408
 10
2.1713132636
 20
20.9852043482
  0
LINE
  5
38C
100
AcDbEntity
  8
268140580
100
AcDbLine
 62
7
  6
CONTINUOUS
 10
2.9670767049
 20
-23.4607340721
 11
2.9590063706
 21
-23.0902451875
  0
LINE
  5
38D
100
AcDbEntity
  8
268140580
100
AcDbLine
 62
7
  6
CONTINUOUS
 10
1.9947785621
 20
21.175044701
 11
1.9867082279
 21
21.5455335856
  0
LINE
  5
38E
100
AcDbEntity
  8
268140580
100
AcDbLine
 62
250
  6
CONTINUOUS
 10
2.0944124476
 20
19.2537173325
 11
2.981843351
 21
-21.4860184941
  0
LINE
  5
38F
100
AcDbEntity
  8
268140580
100
AcDbLine
 62
250
  6
CONTINUOUS
 10
3.5371946098
 20
-24.5561183164
 11
3.528680654
 21
-24.165263874
  0
LINE
  5
390
100
AcDbEntity
  8
268140580
100
AcDbLine
 62
250
  6
CONTINUOUS
 10
2.5113632488
 20
22.5372367726
 11
2.502849293
 21
22.928091215
  0
LINE
  5
391
100
AcDbEntity
  8
268140580
100
AcDbLine
 62
7
  6
CONTINUOUS
 10
3.5856441264
 20
-24.5251171874
 11
3.5771301706
 21
-24.1342627451
  0
LINE
  5
392
100
AcDbEntity
  8
268140580
100
AcDbLine
 62
7
  6
CONTINUOUS
 10
2.5598127654
 20
22.5682379016
 11
2.5512988096
 21
22.9590923439
  0
LINE
  5
393
100
AcDbEntity
  8
CORPO_STAMPATO
100
AcDbLine
 62
7
  6
CONTINUOUS
 10
3.1939180327
 20
16.4847784637
 11
3.9478801409
 21
-18.1277384041
  0
LINE
  5
394
100
AcDbEntity
  8
268140580
100
AcDbLine
 62
7
  6
CONTINUOUS
 10
4.0402135068
 20
-22.3665325708
 11
3.1015846667
 21
20.7235726304
  0
LWPOLYLINE
  5
395
100
AcDbEntity
  8
268140580
100
AcDbPolyline
 62
250
  6
CONTINUOUS
 90
12
 70
0
 10
2.910556854
 20
-23.1212463165
 10
2.910377547
 20
-23.1046084067
 10
2.9105834932
 20
-23.0878592289
 10
2.9111746926
 20
-23.0709987833
 10
2.9121481332
 20
-23.0540034013
 10
2.913506827
 20
-23.0368967514
 10
2.9152598099
 20
-23.0197498386
 10
2.9174117276
 20
-23.0025481734
 10
2.9199579344
 20
-22.9853062454
 10
2.9228935289
 20
-22.9681385285
 10
2.9262168774
 20
-22.9510831807
 10
2.928051658
 20
-22.9426913484
  0
LWPOLYLINE
  5
396
100
AcDbEntity
  8
268140580
100
AcDbPolyline
 62
7
  6
CONTINUOUS
 90
14
 70
0
 10
2.9590063706
 20
-23.0902451875
 10
2.9588971137
 20
-23.0776662499
 10
2.9591176929
 20
-23.0648704838
 10
2.9596748676
 20
-23.0519042805
 10
2.9605736667
 20
-23.038806184
 10
2.9618156093
 20
-23.0256337035
 10
2.9633963858
 20
-23.0124628522
 10
2.96531129
 20
-22.9993389258
 10
2.9675522052
 20
-22.9863141271
 10
2.9701011103
 20
-22.9734736411
 10
2.9729429131
 20
-22.9608627835
 10
2.9760600506
 20
-22.9485266632
 10
2.9794217817
 20
-22.9365459366
 10
2.9807859177
 20
-22.932133511
  0
LWPOLYLINE
  5
397
100
AcDbEntity
  8
268140580
100
AcDbPolyline
 62
250
  6
CONTINUOUS
 90
24
 70
0
 10
3.5371946098
 20
-24.5561183164
 10
3.537265622
 20
-24.5688452817
 10
3.5367863733
 20
-24.5814758982
 10
3.5357571134
 20
-24.5939754361
 10
3.5341792051
 20
-24.6063120324
 10
3.5320560824
 20
-24.6184488336
 10
3.5293944069
 20
-24.6303445717
 10
3.5262022527
 20
-24.6419640541
 10
3.5224878369
 20
-24.6532781137
 10
3.5182612131
 20
-24.6642560479
 10
3.5135338259
 20
-24.6748679382
 10
3.5083186753
 20
-24.6850844296
 10
3.5026302059
 20
-24.6948771728
 10
3.4964841047
 20
-24.7042191972
 10
3.4898971553
 20
-24.7130850236
 10
3.4828873598
 20
-24.7214504165
 10
3.4754738995
 20
-24.7292924605
 10
3.4676771246
 20
-24.7365896053
 10
3.4595184417
 20
-24.7433218053
 10
3.4510202316
 20
-24.7494705889
 10
3.4422057858
 20
-24.7550191002
 10
3.4330992767
 20
-24.7599521186
 10
3.4237256727
 20
-24.7642561146
 10
3.4146140211
 20
-24.7677275155
  0
LWPOLYLINE
  5
398
100
AcDbEntity
  8
268140580
100
AcDbPolyline
 62
250
  6
CONTINUOUS
 90
28
 70
0
 10
3.4366821093
 20
-22.5387323451
 10
3.4367277047
 20
-22.557323836
 10
3.4360523555
 20
-22.5757778338
 10
3.4346575917
 20
-22.5940525342
 10
3.4325465729
 20
-22.6121065391
 10
3.4297240811
 20
-22.6298989505
 10
3.4261965102
 20
-22.6473894627
 10
3.4219718514
 20
-22.6645384542
 10
3.4170596748
 20
-22.6813070769
 10
3.4114711081
 20
-22.6976573446
 10
3.4052188112
 20
-22.7135522187
 10
3.3983169475
 20
-22.728955692
 10
3.3907811521
 20
-22.7438328709
 10
3.3826284958
 20
-22.7581500536
 10
3.3738774471
 20
-22.7718748073
 10
3.3645478299
 20
-22.7849760408
 10
3.3546607788
 20
-22.7974240758
 10
3.3442386912
 20
-22.8091907133
 10
3.3333051764
 20
-22.8202492982
 10
3.3218850024
 20
-22.8305747793
 10
3.3100040395
 20
-22.8401437659
 10
3.297689202
 20
-22.8489345813
 10
3.2849683869
 20
-22.8569273114
 10
3.2718704109
 20
-22.8641038501
 10
3.2584249451
 20
-22.8704479403
 10
3.244662448
 20
-22.8759452105
 10
3.2306140958
 20
-22.8805832078
 10
3.2282234368
 20
-22.8812786642
  0
LWPOLYLINE
  5
399
100
AcDbEntity
  8
268140580
100
AcDbPolyline
 62
250
  6
CONTINUOUS
 90
25
 70
0
 10
3.4366821093
 20
-22.5387323451
 10
3.4361246166
 20
-22.5574588067
 10
3.4348484193
 20
-22.5760478372
 10
3.4328563818
 20
-22.5944573727
 10
3.4301529784
 20
-22.6126458138
 10
3.4267443088
 20
-22.630571936
 10
3.4226381084
 20
-22.6481949926
 10
3.4178436834
 20
-22.6654750525
 10
3.4123718691
 20
-22.6823730717
 10
3.4062350493
 20
-22.6988508048
 10
3.3994471113
 20
-22.7148709641
 10
3.3920234131
 20
-22.7303973039
 10
3.383980752
 20
-22.745394693
 10
3.3753373261
 20
-22.7598291968
 10
3.366112693
 20
-22.7736681537
 10
3.356327726
 20
-22.7868802493
 10
3.3460045657
 20
-22.7994355883
 10
3.3351665705
 20
-22.8113057616
 10
3.3238382636
 20
-22.8224639105
 10
3.3120452776
 20
-22.8328847872
 10
3.299814297
 20
-22.8425448121
 10
3.2871729975
 20
-22.8514221271
 10
3.2741499831
 20
-22.859496645
 10
3.260774721
 20
-22.8667500959
 10
3.2470774753
 20
-22.8731660677
  0
LINE
  5
39A
100
AcDbEntity
  8
268140580
100
AcDbLine
 62
250
  6
CONTINUOUS
 10
-13.3244006678
 20
-21.9861803218
 11
-13.758847687
 21
-22.5411794352
  0
LINE
  5
39B
100
AcDbEntity
  8
268140580
100
AcDbLine
 62
250
  6
CONTINUOUS
 10
-13.0443434841
 20
-22.2019426552
 11
-13.4787905033
 21
-22.7569417685
  0
LWPOLYLINE
  5
39C
100
AcDbEntity
  8
CORPO_STAMPATO
100
AcDbPolyline
 62
7
  6
CONTINUOUS
 90
40
 70
0
 10
19.32243482
 20
15.4747147688
 10
19.3035894525
 20
15.4540908404
 10
19.2839481807
 20
15.4331029704
 10
19.2635110046
 20
15.4117511589
 10
19.2422977479
 20
15.3900459584
 10
19.2202885869
 20
15.3679768165
 10
19.197424051
 20
15.345512075
 10
19.1737063656
 20
15.3226524945
 10
19.1491333052
 20
15.2993973145
 10
19.1236387232
 20
15.2757125953
 10
19.0972275033
 20
15.2516012887
 10
19.0698947618
 20
15.227060443
 10
19.0415597009
 20
15.2020472622
 10
19.0122243591
 20
15.1765619389
 10
18.9818866979
 20
15.1506042807
 10
18.9504598046
 20
15.1241309145
 10
18.917946566
 20
15.0971428137
 10
18.8843440953
 20
15.069639005
 10
18.8495568195
 20
15.0415731953
 10
18.8135872178
 20
15.0129460316
 10
18.776432811
 20
14.983756867
 10
18.7379905876
 20
14.9539574681
 10
18.6982643922
 20
14.9235495031
 10
18.6572503802
 20
14.8925313037
 10
18.6148340074
 20
14.8608496319
 10
18.5710186612
 20
14.8285057226
 10
18.5258009542
 20
14.7954983408
 10
18.4790561794
 20
14.7617705432
 10
18.4307881492
 20
14.7273238238
 10
18.3809930512
 20
14.6921566886
 10
18.3295347407
 20
14.6562077116
 10
18.2764176937
 20
14.6194787726
 10
18.2216374343
 20
14.5819679918
 10
18.1650443893
 20
14.5436083042
 10
18.1066454328
 20
14.5044030392
 10
18.0464336909
 20
14.4643488673
 10
17.9842389692
 20
14.4233687358
 10
17.9200045364
 20
14.3814369603
 10
17.8537871239
 20
14.338579225
 10
17.7855867317
 20
14.2947955301
  0
LWPOLYLINE
  5
39D
100
AcDbEntity
  8
CORPO_STAMPATO
100
AcDbPolyline
 62
7
  6
CONTINUOUS
 90
19
 70
0
 10
19.6092455577
 20
2.8390642259
 10
19.6139464155
 20
2.8407043037
 10
19.6183969822
 20
2.842346488
 10
19.6225930576
 20
2.8439891099
 10
19.6265306881
 20
2.8456303481
 10
19.6302061697
 20
2.8472686282
 10
19.6336160492
 20
2.8489026247
 10
19.6367571336
 20
2.8505305495
 10
19.6396264834
 20
2.8521507008
 10
19.6422214127
 20
2.8537618629
 10
19.6445395134
 20
2.8553622134
 10
19.6465786396
 20
2.8569500204
 10
19.6483368992
 20
2.8585241921
 10
19.6498126894
 20
2.8600828872
 10
19.6510046759
 20
2.861624359
 10
19.6519117789
 20
2.8631476526
 10
19.6525332141
 20
2.8646509241
 10
19.6528684694
 20
2.8661324269
 10
19.6529311001
 20
2.8672735921
  0
LWPOLYLINE
  5
39E
100
AcDbEntity
  8
CORPO_STAMPATO
100
AcDbPolyline
 62
7
  6
CONTINUOUS
 90
10
 70
0
 10
19.6092455577
 20
2.8390642259
 10
19.6080882485
 20
2.8387218203
 10
19.6069019265
 20
2.8384907563
 10
19.6056862064
 20
2.8383711035
 10
19.6044441968
 20
2.8383581862
 10
19.603172099
 20
2.8384568165
 10
19.6018588097
 20
2.8386813386
 10
19.6004999685
 20
2.8390366326
 10
19.5990983561
 20
2.8395180705
 10
19.5976532153
 20
2.8401257808
  0
LWPOLYLINE
  5
39F
100
AcDbEntity
  8
CORPO_STAMPATO
100
AcDbPolyline
 62
7
  6
CONTINUOUS
 90
40
 70
0
 10
18.0300533342
 20
3.0719445278
 10
18.0992470784
 20
3.0701211292
 10
18.1664439871
 20
3.0680082502
 10
18.2316440605
 20
3.0656058907
 10
18.2947902056
 20
3.062904973
 10
18.3559395154
 20
3.0599145747
 10
18.4152632681
 20
3.0566619291
 10
18.4727683906
 20
3.0531479216
 10
18.528447956
 20
3.0493716668
 10
18.5824524622
 20
3.0453577413
 10
18.6347864075
 20
3.0411070062
 10
18.6854452936
 20
3.0366186003
 10
18.7345661234
 20
3.0319145173
 10
18.7821527239
 20
3.026995596
 10
18.8282012682
 20
3.0218609975
 10
18.8728372781
 20
3.0165301986
 10
18.91606415
 20
3.011004036
 10
18.9578784876
 20
3.005281673
 10
18.998395624
 20
2.9993800765
 10
19.037619425
 20
2.9932999329
 10
19.0755460248
 20
2.9870405558
 10
19.11227916
 20
2.9806168525
 10
19.147821305
 20
2.9740296894
 10
19.1821699854
 20
2.9672782002
 10
19.2154215142
 20
2.9603746939
 10
19.247578783
 20
2.9533199616
 10
19.2786389003
 20
2.9461132121
 10
19.3086895045
 20
2.9387643818
 10
19.3377326147
 20
2.9312745177
 10
19.3657662119
 20
2.9236425726
 10
19.3928718777
 20
2.9158753418
 10
19.4190545585
 20
2.9079728757
 10
19.4443093079
 20
2.8999351238
 10
19.4687028685
 20
2.8917687297
 10
19.4922374707
 20
2.8834742924
 10
19.5149108842
 20
2.875051213
 10
19.5367831602
 20
2.8665043375
 10
19.557874316
 20
2.8578352813
 10
19.5781643344
 20
2.8490424291
 10
19.5976532153
 20
2.8401257808
  0
LWPOLYLINE
  5
3A0
100
AcDbEntity
  8
268140580
100
AcDbPolyline
 62
7
  6
CONTINUOUS
 90
6
 70
0
 10
-15.9144118565
 20
23.6640115764
 10
-15.9141124153
 20
23.6636861983
 10
-15.9129000471
 20
23.6622429246
 10
-15.911327988
 20
23.6601994648
 10
-15.909443542
 20
23.6575305384
 10
-15.9073041949
 20
23.6542334929
  0
LWPOLYLINE
  5
3A1
100
AcDbEntity
  8
268140580
100
AcDbPolyline
 62
250
  6
CONTINUOUS
 90
17
 70
0
 10
-0.6360852548
 20
21.5542877056
 10
-0.635560647
 20
21.5512539212
 10
-0.6341954255
 20
21.5483689881
 10
-0.6319908791
 20
21.5455225052
 10
-0.6289544677
 20
21.5427241039
 10
-0.6250964663
 20
21.539983253
 10
-0.6204299297
 20
21.5373092267
 10
-0.6149706483
 20
21.5347110729
 10
-0.6087370951
 20
21.5321975828
 10
-0.6017503628
 20
21.5297772612
 10
-0.5940340923
 20
21.5274582975
 10
-0.5856143933
 20
21.5252485382
 10
-0.5765197555
 20
21.5231554604
 10
-0.5667809517
 20
21.5211861461
 10
-0.5564309347
 20
21.5193472589
 10
-0.5455047259
 20
21.5176450208
 10
-0.5340392962
 20
21.5160851917
  0
LWPOLYLINE
  5
3A2
100
AcDbEntity
  8
CORPO_STAMPATO
100
AcDbPolyline
 62
7
  6
CONTINUOUS
 90
10
 70
0
 10
19.6282051198
 20
1.9686780923
 10
19.6270504937
 20
1.9682125112
 10
19.6258718309
 20
1.9676298354
 10
19.624668746
 20
1.9669301349
 10
19.6234440922
 20
1.9661204561
 10
19.6221943262
 20
1.9651938888
 10
19.6209091107
 20
1.9641296102
 10
19.6195843408
 20
1.962920778
 10
19.6182225416
 20
1.9615744868
 10
19.6168229562
 20
1.9600908648
  0
LWPOLYLINE
  5
3A3
100
AcDbEntity
  8
CORPO_STAMPATO
100
AcDbPolyline
 62
7
  6
CONTINUOUS
 90
18
 70
0
 10
19.6282051198
 20
1.9686780923
 10
19.6329028893
 20
1.9704599515
 10
19.6373494516
 20
1.972285968
 10
19.6415406065
 20
1.9741544729
 10
19.6454723949
 20
1.976063908
 10
19.6491411184
 20
1.978012436
 10
19.652543341
 20
1.9799979422
 10
19.6556758674
 20
1.9820187402
 10
19.6585357605
 20
1.9840730266
 10
19.6611203581
 20
1.9861584915
 10
19.6634272499
 20
1.9882734127
 10
19.6654542923
 20
1.9904159583
 10
19.6671996235
 20
1.9925836407
 10
19.6686616386
 20
1.9947747175
 10
19.6698390054
 20
1.9969873433
 10
19.6707306809
 20
1.9992188728
 10
19.6713358789
 20
2.0014675577
 10
19.6716056126
 20
2.0032028857
  0
LWPOLYLINE
  5
3A4
100
AcDbEntity
  8
290140580
100
AcDbPolyline
 62
250
  6
CONTINUOUS
 90
4
 70
0
 10
-19.2768406305
 20
-0.2193441108
 10
-19.2619378466
 20
-0.2153846133
 10
-19.241161816
 20
-0.2129408918
 10
-19.219914093
 20
-0.2138518088
  0
LWPOLYLINE
  5
3A5
100
AcDbEntity
  8
290140600
100
AcDbPolyline
 62
250
  6
CONTINUOUS
 90
4
 70
0
 10
-19.2768406305
 20
-0.2193441108
 10
-19.2619378466
 20
-0.2153846133
 10
-19.241161816
 20
-0.2129408918
 10
-19.219914093
 20
-0.2138518088
  0
LWPOLYLINE
  5
3A6
100
AcDbEntity
  8
268140580
100
AcDbPolyline
 62
7
  6
CONTINUOUS
 90
23
 70
0
 10
-13.2034302292
 20
22.9635336475
 10
-13.2037718182
 20
22.963941265
 10
-13.2045237047
 20
22.9649157242
 10
-13.2056343549
 20
22.9664835672
 10
-13.2070311817
 20
22.9686298229
 10
-13.208667361
 20
22.9713640017
 10
-13.2105024303
 20
22.9746993033
 10
-13.212493046
 20
22.9786374939
 10
-13.2146018965
 20
22.9831854397
 10
-13.216791695
 20
22.9883447899
 10
-13.2190276769
 20
22.9941176894
 10
-13.2212766741
 20
23.0005059108
 10
-13.2235039297
 20
23.0075015777
 10
-13.2256764208
 20
23.0150952094
 10
-13.2277636872
 20
23.0232799959
 10
-13.2297343223
 20
23.0320388775
 10
-13.2315573018
 20
23.0413455287
 10
-13.2332058946
 20
23.0511837551
 10
-13.2346532082
 20
23.0615262299
 10
-13.2358725345
 20
23.0723257879
 10
-13.2368418614
 20
23.0835455159
 10
-13.2375422085
 20
23.0951589838
 10
-13.2379555903
 20
23.107130271
  0
LINE
  5
3A7
100
AcDbEntity
  8
268140580
100
AcDbLine
 62
7
  6
CONTINUOUS
 10
7.5347996023
 20
-19.6922828918
 11
7.5268106787
 21
-19.3255313632
  0
LINE
  5
3A8
100
AcDbEntity
  8
268140580
100
AcDbLine
 62
7
  6
CONTINUOUS
 10
6.6332070909
 20
21.697576983
 11
6.6233119776
 21
22.1518369166
  0
LWPOLYLINE
  5
3A9
100
AcDbEntity
  8
CORPO_STAMPATO
100
AcDbPolyline
 62
7
  6
CONTINUOUS
 90
38
 70
0
 10
18.0799748679
 20
0.7801716261
 10
18.0876093431
 20
0.7848720592
 10
18.0950681391
 20
0.7891328393
 10
18.1023521047
 20
0.7929532873
 10
18.1094460813
 20
0.796324234
 10
18.1163677633
 20
0.7992534523
 10
18.1231643151
 20
0.8017660092
 10
18.1298363155
 20
0.8038714417
 10
18.1363790335
 20
0.80555955
 10
18.1428260884
 20
0.8068263399
 10
18.1491680162
 20
0.8076804954
 10
18.1554052764
 20
0.8081130328
 10
18.1615799989
 20
0.8080939757
 10
18.1676859318
 20
0.8076334075
 10
18.1737117702
 20
0.8067214268
 10
18.1796847384
 20
0.8052985739
 10
18.1855890406
 20
0.8033755855
 10
18.191415112
 20
0.800942077
 10
18.1971911959
 20
0.7979073397
 10
18.2029023954
 20
0.7942771745
 10
18.2085259289
 20
0.7900462825
 10
18.2140692554
 20
0.7851076295
 10
18.2195100382
 20
0.7794619127
 10
18.224821699
 20
0.7731086185
 10
18.2299974505
 20
0.7659389993
 10
18.2350104125
 20
0.7579445959
 10
18.2398266107
 20
0.7491333239
 10
18.2444223505
 20
0.7394208767
 10
18.2487626108
 20
0.728800032
 10
18.2528125342
 20
0.7172761924
 10
18.2565429583
 20
0.7047836849
 10
18.2599102282
 20
0.6913295696
 10
18.2628776271
 20
0.676903247
 10
18.2654143641
 20
0.6614120925
 10
18.2674662744
 20
0.6448734823
 10
18.2689843482
 20
0.6272640529
 10
18.2699191113
 20
0.608429121
 10
18.2700670919
 20
0.6029038608
  0
LINE
  5
3AA
100
AcDbEntity
  8
CORPO_STAMPATO
100
AcDbLine
 62
250
  6
CONTINUOUS
 10
18.3909036698
 20
-0.0147915838
 11
18.3878005115
 21
-0.0162654764
  0
LWPOLYLINE
  5
3AB
100
AcDbEntity
  8
CORPO_STAMPATO
100
AcDbPolyline
 62
7
  6
CONTINUOUS
 90
49
 70
0
 10
18.3471429311
 20
-0.0354509494
 10
18.3909036698
 20
-0.0147915838
 10
18.4342269262
 20
0.006980856
 10
18.4770929678
 20
0.0298589596
 10
18.5194741186
 20
0.0538300231
 10
18.5613594548
 20
0.0788898848
 10
18.6027538722
 20
0.1050450559
 10
18.643653128
 20
0.1322984508
 10
18.684021832
 20
0.1606320977
 10
18.7238187094
 20
0.190020613
 10
18.7630092604
 20
0.2204399224
 10
18.801592991
 20
0.2518910164
 10
18.8395798616
 20
0.284386001
 10
18.8769693536
 20
0.3179312679
 10
18.9137247681
 20
0.3525008191
 10
18.9498024533
 20
0.3880576999
 10
18.9851701484
 20
0.4245713312
 10
19.0198290982
 20
0.4620442264
 10
19.053786566
 20
0.5004884333
 10
19.0870426781
 20
0.5399115171
 10
19.1195636972
 20
0.5802810902
 10
19.15130713
 20
0.621548436
 10
19.1822448059
 20
0.6636773073
 10
19.212378762
 20
0.7066709022
 10
19.2417129693
 20
0.7505385728
 10
19.2702472787
 20
0.7952873074
 10
19.2979530589
 20
0.8408796974
 10
19.3247929503
 20
0.8872574295
 10
19.3507438373
 20
0.934379182
 10
19.3758083871
 20
0.9822484742
 10
19.3999893442
 20
1.0308730436
 10
19.4232864438
 20
1.0802589774
 10
19.4456767063
 20
1.1303645753
 10
19.4671303349
 20
1.181124864
 10
19.48762984
 20
1.232494426
 10
19.5071782749
 20
1.2844768785
 10
19.5257781662
 20
1.3370797039
 10
19.5434290955
 20
1.3903076964
 10
19.5601140501
 20
1.4441160858
 10
19.5758121083
 20
1.4984372019
 10
19.5905116657
 20
1.5532231152
 10
19.6042157246
 20
1.6084770328
 10
19.616926665
 20
1.6642071446
 10
19.6286440031
 20
1.72041742
 10
19.639356431
 20
1.7770606159
 10
19.6490514146
 20
1.8340675317
 10
19.6577245698
 20
1.8913992103
 10
19.6653768902
 20
1.9490480716
 10
19.6716056147
 20
2.0032027939
  0
LINE
  5
3AC
100
AcDbEntity
  8
CORPO_STAMPATO
100
AcDbLine
 62
7
  6
CONTINUOUS
 10
18.3471429311
 20
-0.0354509494
 11
18.2845951342
 21
-0.0640422672
  0
LINE
  5
3AD
100
AcDbEntity
  8
290140600
100
AcDbLine
 62
250
  6
CONTINUOUS
 10
-7.3341423277
 20
9.0142649488
 11
-14.5878252574
 21
9.9343056964
  0
LINE
  5
3AE
100
AcDbEntity
  8
268140580
100
AcDbLine
 62
7
  6
CONTINUOUS
 10
-13.2135172849
 20
22.9808463669
 11
-13.2113885492
 21
22.9789151771
  0
LWPOLYLINE
  5
3AF
100
AcDbEntity
  8
268140580
100
AcDbPolyline
 62
7
  6
CONTINUOUS
 90
24
 70
0
 10
-13.2113885492
 20
22.9789151771
 10
-13.20590571
 20
22.9735664811
 10
-13.2009707363
 20
22.9683401465
 10
-13.1965123066
 20
22.9632361389
 10
-13.1926017424
 20
22.9582544927
 10
-13.1894530087
 20
22.9533953118
 10
-13.1871238816
 20
22.9486523068
 10
-13.185556585
 20
22.944031767
 10
-13.1847917554
 20
22.9395526646
 10
-13.1848697007
 20
22.9352203234
 10
-13.1857501131
 20
22.9310294194
 10
-13.1873527054
 20
22.9269829526
 10
-13.1896804718
 20
22.9230891049
 10
-13.1927304182
 20
22.9193396943
 10
-13.1964132755
 20
22.9157131751
 10
-13.2007300852
 20
22.9122035058
 10
-13.2056798059
 20
22.9088167279
 10
-13.2111700443
 20
22.9055494194
 10
-13.217202461
 20
22.902400315
 10
-13.2237753954
 20
22.89937068
 10
-13.2307914722
 20
22.8964608883
 10
-13.2382182328
 20
22.8936710644
 10
-13.2460881357
 20
22.8910010838
 10
-13.2544011809
 20
22.8884509464
  0
LWPOLYLINE
  5
3B0
100
AcDbEntity
  8
268140580
100
AcDbPolyline
 62
250
  6
CONTINUOUS
 90
13
 70
0
 10
1.9783368954
 20
20.9563665343
 10
1.9735768787
 20
20.9705747327
 10
1.9691917783
 20
20.985101493
 10
1.9651815942
 20
20.9999468154
 10
1.9615416327
 20
21.0151468963
 10
1.9582765874
 20
21.0306655392
 10
1.9554005396
 20
21.0463941547
 10
1.9529186388
 20
21.0623304177
 10
1.9508257354
 20
21.0784766534
 10
1.9491204612
 20
21.094731248
 10
1.9478023602
 20
21.1110603303
 10
1.9468718883
 20
21.1274977717
 10
1.9463290455
 20
21.144043572
  0
LWPOLYLINE
  5
3B1
100
AcDbEntity
  8
268140580
100
AcDbPolyline
 62
250
  6
CONTINUOUS
 90
22
 70
0
 10
3.0757591707
 20
-23.872146493
 10
3.0794493999
 20
-23.8585058882
 10
3.0824453547
 20
-23.8448249664
 10
3.0847368981
 20
-23.8311500198
 10
3.0863162768
 20
-23.81752732
 10
3.0871781472
 20
-23.8040029624
 10
3.0873195934
 20
-23.7906227097
 10
3.0867401375
 20
-23.7774318367
 10
3.0854417409
 20
-23.7644749769
 10
3.0834287975
 20
-23.7517959724
 10
3.0807081193
 20
-23.7394377249
 10
3.0772889128
 20
-23.7274420505
 10
3.0731827481
 20
-23.7158495383
 10
3.0684035199
 20
-23.7046994136
 10
3.0629674002
 20
-23.6940294043
 10
3.0568927835
 20
-23.6838756136
 10
3.0502002249
 20
-23.6742723983
 10
3.0429123703
 20
-23.6652522521
 10
3.0350538797
 20
-23.6568456953
 10
3.026651344
 20
-23.6490811725
 10
3.017733195
 20
-23.641984956
 10
3.0134274743
 20
-23.6390093603
  0
LWPOLYLINE
  5
3B2
100
AcDbEntity
  8
268140580
100
AcDbPolyline
 62
250
  6
CONTINUOUS
 90
25
 70
0
 10
3.528680654
 20
-24.165263874
 10
3.5320329042
 20
-24.15298995
 10
3.5348236928
 20
-24.1406796188
 10
3.5370453704
 20
-24.1283666222
 10
3.5386918475
 20
-24.1160847094
 10
3.5397586113
 20
-24.1038675441
 10
3.5402427379
 20
-24.0917486128
 10
3.5401429002
 20
-24.0797611325
 10
3.5394593719
 20
-24.0679379603
 10
3.5381940266
 20
-24.0563115025
 10
3.5363503324
 20
-24.0449136265
 10
3.5339333428
 20
-24.0337755731
 10
3.5309496826
 20
-24.0229278708
 10
3.5274075298
 20
-24.0124002525
 10
3.5233165932
 20
-24.0022215737
 10
3.5186880858
 20
-23.9924197334
 10
3.5135346939
 20
-23.9830215978
 10
3.5078705427
 20
-23.9740529265
 10
3.5017111573
 20
-23.965538302
 10
3.4950734199
 20
-23.9575010622
 10
3.4879755244
 20
-23.9499632369
 10
3.4804369254
 20
-23.9429454865
 10
3.4724782857
 20
-23.9364670462
 10
3.4641214195
 20
-23.930545673
 10
3.4630187885
 20
-23.9298253296
  0
LWPOLYLINE
  5
3B3
100
AcDbEntity
  8
CORPO_STAMPATO
100
AcDbPolyline
 62
250
  6
CONTINUOUS
 90
45
 70
0
 10
17.6877219234
 20
-4.9386475145
 10
17.7062864783
 20
-4.9320998786
 10
17.7266629176
 20
-4.9241484861
 10
17.7467685318
 20
-4.9154883698
 10
17.766588059
 20
-4.9061261037
 10
17.7861064543
 20
-4.8960687945
 10
17.8053089016
 20
-4.8853240766
 10
17.8241808243
 20
-4.8739001063
 10
17.8427078969
 20
-4.8618055555
 10
17.8608760558
 20
-4.8490496049
 10
17.8786715095
 20
-4.8356419375
 10
17.8960807498
 20
-4.821592731
 10
17.9130905615
 20
-4.80691265
 10
17.9296880324
 20
-4.791612838
 10
17.9458605637
 20
-4.7757049089
 10
17.9615958789
 20
-4.7592009385
 10
17.9768820335
 20
-4.7421134545
 10
17.9917074238
 20
-4.7244554282
 10
18.006060796
 20
-4.7062402634
 10
18.0199312547
 20
-4.6874817872
 10
18.0333082708
 20
-4.668194239
 10
18.0461816901
 20
-4.6483922597
 10
18.0585417403
 20
-4.628090881
 10
18.070379039
 20
-4.6073055134
 10
18.0816846008
 20
-4.5860519348
 10
18.0924498436
 20
-4.5643462788
 10
18.1026665956
 20
-4.5422050219
 10
18.1123271014
 20
-4.5196449713
 10
18.1214240277
 20
-4.4966832521
 10
18.1299504692
 20
-4.4733372945
 10
18.1378999535
 20
-4.4496248201
 10
18.1452664463
 20
-4.4255638289
 10
18.1520443556
 20
-4.4011725854
 10
18.1582285365
 20
-4.3764696047
 10
18.1638142946
 20
-4.3514736386
 10
18.1687973897
 20
-4.3262036615
 10
18.1731740393
 20
-4.3006788555
 10
18.176940921
 20
-4.2749185963
 10
18.1800951755
 20
-4.2489424383
 10
18.1826344084
 20
-4.2227700998
 10
18.1845566922
 20
-4.1964214479
 10
18.1858605677
 20
-4.1699164837
 10
18.1865450451
 20
-4.1432753269
 10
18.1866096049
 20
-4.1165182006
 10
18.0799748679
 20
0.7801716261
  0
LINE
  5
3B4
100
AcDbEntity
  8
CORPO_STAMPATO
100
AcDbLine
 62
250
  6
CONTINUOUS
 10
13.265268482
 20
-5.7391936466
 11
18.186054198
 21
-4.0896654158
  0
LINE
  5
3B5
100
AcDbEntity
  8
CORPO_STAMPATO
100
AcDbLine
 62
7
  6
CONTINUOUS
 10
12.8345193102
 20
-6.5655207787
 11
17.6877219234
 21
-4.9386475145
  0
LWPOLYLINE
  5
3B6
100
AcDbEntity
  8
CORPO_STAMPATO
100
AcDbPolyline
 62
250
  6
CONTINUOUS
 90
24
 70
0
 10
18.186054198
 20
-4.0896654158
 10
18.2014849214
 20
-4.0848234925
 10
18.2162980961
 20
-4.0799115249
 10
18.2304827218
 20
-4.0749331608
 10
18.2440282649
 20
-4.069892097
 10
18.2569246664
 20
-4.0647920772
 10
18.2691623494
 20
-4.0596368885
 10
18.2807322261
 20
-4.0544303593
 10
18.2916257046
 20
-4.0491763559
 10
18.3018346954
 20
-4.0438787801
 10
18.3113516173
 20
-4.0385415658
 10
18.3201694029
 20
-4.0331686765
 10
18.3282815041
 20
-4.027764102
 10
18.3356818968
 20
-4.022331856
 10
18.3423650854
 20
-4.0168759723
 10
18.3483261069
 20
-4.0114005026
 10
18.3535605347
 20
-4.005909513
 10
18.3580644817
 20
-4.0004070811
 10
18.3618346032
 20
-3.994897293
 10
18.3648680994
 20
-3.9893842404
 10
18.3671627177
 20
-3.9838720172
 10
18.3687167541
 20
-3.9783647169
 10
18.3695290546
 20
-3.9728664293
 10
18.3696505396
 20
-3.9687234472
  0
LWPOLYLINE
  5
3B7
100
AcDbEntity
  8
CORPO_STAMPATO
100
AcDbPolyline
 62
250
  6
CONTINUOUS
 90
24
 70
0
 10
12.4461144982
 20
-7.4678918881
 10
12.4615452229
 20
-7.4630499644
 10
12.4763583987
 20
-7.4581379964
 10
12.4905430254
 20
-7.4531596319
 10
12.5040885693
 20
-7.4481185677
 10
12.5169849715
 20
-7.4430185474
 10
12.529222655
 20
-7.4378633584
 10
12.5407925321
 20
-7.4326568288
 10
12.551686011
 20
-7.4274028251
 10
12.5618950019
 20
-7.422105249
 10
12.5714119239
 20
-7.4167680344
 10
12.5802297094
 20
-7.4113951447
 10
12.5883418104
 20
-7.40599057
 10
12.5957422028
 20
-7.4005583237
 10
12.6024253911
 20
-7.3951024398
 10
12.6083864122
 20
-7.3896269699
 10
12.6136208395
 20
-7.3841359801
 10
12.6181247859
 20
-7.378633548
 10
12.6218949068
 20
-7.3731237597
 10
12.6249284023
 20
-7.367610707
 10
12.6272230199
 20
-7.3620984837
 10
12.6287770556
 20
-7.3565911834
 10
12.6295893553
 20
-7.3510928957
 10
12.6297108398
 20
-7.3469499195
  0
LWPOLYLINE
  5
3B8
100
AcDbEntity
  8
268140580
100
AcDbPolyline
 62
250
  6
CONTINUOUS
 90
19
 70
0
 10
-14.7669278601
 20
23.7372629643
 10
-14.7744128387
 20
23.7425785713
 10
-14.7816379038
 20
23.7486674751
 10
-14.7885786083
 20
23.7555090728
 10
-14.7952114669
 20
23.7630802146
 10
-14.8015140362
 20
23.7713552823
 10
-14.8074649902
 20
23.7803062755
 10
-14.8130441928
 20
23.7899029069
 10
-14.8182327658
 20
23.8001127046
 10
-14.8230131527
 20
23.8109011219
 10
-14.827369178
 20
23.8222316541
 10
-14.8312861026
 20
23.8340659623
 10
-14.8347506726
 20
23.8463640031
 10
-14.8377511651
 20
23.8590841636
 10
-14.8402774274
 20
23.8721834029
 10
-14.8423209115
 20
23.8856173973
 10
-14.8438747027
 20
23.8993406905
 10
-14.8449335436
 20
23.9133068472
 10
-14.8454938513
 20
23.9274686102
  0
LWPOLYLINE
  5
3B9
100
AcDbEntity
  8
268140580
100
AcDbPolyline
 62
7
  6
CONTINUOUS
 90
19
 70
0
 10
-0.6745700425
 20
21.7221479229
 10
-0.6722195131
 20
21.71820857
 10
-0.6697009735
 20
21.7136178573
 10
-0.6670541047
 20
21.7083661841
 10
-0.6643165
 20
21.7024444246
 10
-0.6615280564
 20
21.6958534408
 10
-0.6587250217
 20
21.6885914159
 10
-0.6559419985
 20
21.6806566685
 10
-0.6532159414
 20
21.6720595017
 10
-0.6505826338
 20
21.6628147198
 10
-0.6480739662
 20
21.6529311108
 10
-0.6457228235
 20
21.6424283945
 10
-0.6435624162
 20
21.6313403159
 10
-0.6416203787
 20
21.6196862978
 10
-0.6399242724
 20
21.6074963056
 10
-0.6385018138
 20
21.5948244267
 10
-0.6373753341
 20
21.5817118598
 10
-0.6365637976
 20
21.5681866723
 10
-0.6360852548
 20
21.5542877056
  0
LWPOLYLINE
  5
3BA
100
AcDbEntity
  8
268140580
100
AcDbPolyline
 62
250
  6
CONTINUOUS
 90
17
 70
0
 10
2.5113632488
 20
22.5372367726
 10
2.5151950402
 20
22.527328028
 10
2.5184661308
 20
22.517513527
 10
2.5211670905
 20
22.5078202203
 10
2.5232902101
 20
22.498273875
 10
2.5248288995
 20
22.4889017046
 10
2.5257782599
 20
22.479732118
 10
2.5261356824
 20
22.4707911578
 10
2.5259003149
 20
22.4621023817
 10
2.5250727744
 20
22.4536893965
 10
2.5236552558
 20
22.4455751515
 10
2.5216516094
 20
22.4377820588
 10
2.5190673568
 20
22.4303316921
 10
2.5159096145
 20
22.4232445408
 10
2.5121870182
 20
22.416539964
 10
2.5079097625
 20
22.4102363274
 10
2.5067311095
 20
22.4086944232
  0
LWPOLYLINE
  5
3BB
100
AcDbEntity
  8
268140580
100
AcDbPolyline
 62
250
  6
CONTINUOUS
 90
15
 70
0
 10
2.0769162296
 20
21.9822376593
 10
2.0811435445
 20
21.9712214224
 10
2.0846747731
 20
21.9603289367
 10
2.0874979669
 20
21.949597059
 10
2.0896035729
 20
21.9390621024
 10
2.0909844666
 20
21.928759714
 10
2.0916359755
 20
21.9187247538
 10
2.0915558949
 20
21.9089911769
 10
2.0907444959
 20
21.8995919187
 10
2.0892045241
 20
21.8905587832
 10
2.0869411901
 20
21.8819223358
 10
2.0839621525
 20
21.8737117993
 10
2.0802774912
 20
21.8659549558
 10
2.0758996741
 20
21.8586780519
 10
2.0722840903
 20
21.8536953098
  0
LWPOLYLINE
  5
3BC
100
AcDbEntity
  8
CORPO_STAMPATO
100
AcDbPolyline
 62
7
  6
CONTINUOUS
 90
9
 70
0
 10
11.5886010814
 20
22.5843303235
 10
11.5881742512
 20
22.5970059527
 10
11.5876478005
 20
22.6096457005
 10
11.5870216067
 20
22.6222516878
 10
11.5862957922
 20
22.6348217935
 10
11.5854707246
 20
22.6473496547
 10
11.5845465263
 20
22.6598331503
 10
11.5835230748
 20
22.6722744014
 10
11.58240037
 20
22.6846734079
  0
LINE
  5
3BD
100
AcDbEntity
  8
CORPO_STAMPATO
100
AcDbLine
 62
7
  6
CONTINUOUS
 10
11.5886010814
 20
22.5843303235
 11
11.5958805319
 21
22.2524587968
  0
LINE
  5
3BE
100
AcDbEntity
  8
CORPO_STAMPATO
100
AcDbLine
 62
250
  6
CONTINUOUS
 10
12.6183053694
 20
-15.3727446234
 11
12.4461144982
 21
-7.4678918881
  0
LWPOLYLINE
  5
3BF
100
AcDbEntity
  8
CORPO_STAMPATO
100
AcDbPolyline
 62
7
  6
CONTINUOUS
 90
62
 70
0
 10
12.8019017109
 20
-15.2518026549
 10
12.6295213689
 20
-7.3365917869
 10
12.6293612005
 20
-7.3178405797
 10
12.6294355805
 20
-7.2988598579
 10
12.6297492286
 20
-7.2796626125
 10
12.6303064069
 20
-7.2602745915
 10
12.6311099239
 20
-7.2407349479
 10
12.6321621313
 20
-7.2210634176
 10
12.6334649459
 20
-7.2012800196
 10
12.6350181435
 20
-7.1814250456
 10
12.636821699
 20
-7.1615193881
 10
12.6388750301
 20
-7.1415837086
 10
12.6411748757
 20
-7.1216580928
 10
12.6437189487
 20
-7.1017633526
 10
12.6465043178
 20
-7.0819200679
 10
12.6495246903
 20
-7.0621677155
 10
12.6527755098
 20
-7.0425268997
 10
12.6562516606
 20
-7.0230172729
 10
12.6599440763
 20
-7.0036762001
 10
12.6638461611
 20
-6.9845230225
 10
12.667950781
 20
-6.9655763223
 10
12.6722462906
 20
-6.9468712536
 10
12.6767242308
 20
-6.9284253127
 10
12.6813756338
 20
-6.910255587
 10
12.6861864345
 20
-6.8923951801
 10
12.6911462122
 20
-6.8748601771
 10
12.6962446204
 20
-6.857664767
 10
12.7014661241
 20
-6.8408375021
 10
12.7067989654
 20
-6.8243915414
 10
12.7122313933
 20
-6.8083390746
 10
12.7177463823
 20
-6.7927053021
 10
12.7233308358
 20
-6.7775012074
 10
12.7289721485
 20
-6.7627355844
 10
12.734652838
 20
-6.748428306
 10
12.7403584861
 20
-6.7345889211
 10
12.7460763493
 20
-6.7212217879
 10
12.7517908554
 20
-6.7083372389
 10
12.7574880502
 20
-6.6959404462
 10
12.7631541997
 20
-6.6840350039
 10
12.7687737262
 20
-6.6726275769
 10
12.7743326464
 20
-6.6617206723
 10
12.7798171709
 20
-6.6513154845
 10
12.7852117539
 20
-6.641415583
 10
12.7905022174
 20
-6.6320213127
 10
12.7956750632
 20
-6.6231311854
 10
12.8007155133
 20
-6.6147451182
 10
12.80560958
 20
-6.6068609212
 10
12.8103437646
 20
-6.5994752346
 10
12.8149035904
 20
-6.5925856074
 10
12.8192749406
 20
-6.5861882616
 10
12.8234448606
 20
-6.5802771481
 10
12.8274002478
 20
-6.574846155
 10
12.8311258475
 20
-6.5698915028
 10
12.8346104996
 20
-6.5654033283
 10
12.8378457057
 20
-6.5613683352
 10
12.8408183112
 20
-6.5577791104
 10
12.8435136075
 20
-6.5546294872
 10
12.845917469
 20
-6.5519118308
 10
12.8480163715
 20
-6.5496171636
 10
12.8497923039
 20
-6.5477406565
 10
12.8512194089
 20
-6.5462841175
 10
12.8520508877
 20
-6.5454615862
  0
LWPOLYLINE
  5
3C0
100
AcDbEntity
  8
CORPO_STAMPATO
100
AcDbPolyline
 62
250
  6
CONTINUOUS
 90
67
 70
0
 10
12.4461144982
 20
-7.4678918881
 10
12.445600093
 20
-7.433626993
 10
12.445560466
 20
-7.399202074
 10
12.4459956172
 20
-7.3646171309
 10
12.446904192
 20
-7.3298450987
 10
12.448287545
 20
-7.2949130425
 10
12.45014974
 20
-7.2599021574
 10
12.4524927522
 20
-7.2248129959
 10
12.4553146064
 20
-7.1896450055
 10
12.458613441
 20
-7.1544777236
 10
12.4623912455
 20
-7.1193108376
 10
12.4666460304
 20
-7.0841446601
 10
12.4713699652
 20
-7.0490596666
 10
12.4765648451
 20
-7.0140568039
 10
12.4822288749
 20
-6.9791351251
 10
12.488348839
 20
-6.9443722654
 10
12.4949250452
 20
-6.9097743342
 10
12.5019571858
 20
-6.875335222
 10
12.509431121
 20
-6.8411142354
 10
12.517346227
 20
-6.807116576
 10
12.5257031277
 20
-6.7733370421
 10
12.5344895556
 20
-6.7398193354
 10
12.5437057292
 20
-6.7065632503
 10
12.55335143
 20
-6.6735689923
 10
12.5634137358
 20
-6.6408808796
 10
12.5738939865
 20
-6.6084961903
 10
12.5847908422
 20
-6.5764176463
 10
12.59608736
 20
-6.5446977304
 10
12.6077848492
 20
-6.5133354553
 10
12.6198820005
 20
-6.4823318084
 10
12.632357943
 20
-6.4517422349
 10
12.6452134243
 20
-6.4215676806
 10
12.6584476967
 20
-6.3918071996
 10
12.6720376467
 20
-6.3625134
 10
12.6859839984
 20
-6.3336872451
 10
12.7002860276
 20
-6.3053277715
 10
12.7149184478
 20
-6.277484698
 10
12.7298820086
 20
-6.2501589766
 10
12.7451759604
 20
-6.2233496552
 10
12.7607727687
 20
-6.1971035958
 10
12.7766722455
 20
-6.1714230514
 10
12.7928745787
 20
-6.146305769
 10
12.8093527973
 20
-6.1217918518
 10
12.8261056515
 20
-6.0978841322
 10
12.843134391
 20
-6.0745797777
 10
12.8604157941
 20
-6.0519103939
 10
12.8779496405
 20
-6.0298765948
 10
12.8957361504
 20
-6.0084777665
 10
12.913752763
 20
-5.987743672
 10
12.932002159
 20
-5.9676722392
 10
12.9504816577
 20
-5.9482655402
 10
12.9691606561
 20
-5.9295595546
 10
12.9880428165
 20
-5.9115532072
 10
13.0071244767
 20
-5.8942475732
 10
13.0263640465
 20
-5.8776818572
 10
13.0457627118
 20
-5.8618585096
 10
13.0653192866
 20
-5.84677508
 10
13.0849886233
 20
-5.8324634227
 10
13.1047710191
 20
-5.8189268291
 10
13.1246661769
 20
-5.8061620078
 10
13.1446280575
 20
-5.7941909382
 10
13.1646576096
 20
-5.7830166367
 10
13.1847538846
 20
-5.7726360871
 10
13.2048679978
 20
-5.7630622201
 10
13.2249836543
 20
-5.7542993462
 10
13.245117149
 20
-5.7463431551
 10
13.265268482
 20
-5.7391936466
  0
LINE
  5
3C1
100
AcDbEntity
  8
CORPO_STAMPATO
100
AcDbLine
 62
250
  6
CONTINUOUS
 10
12.8653207383
 20
-6.5455970253
 11
12.8458023429
 21
-6.5556543345
  0
LINE
  5
3C2
100
AcDbEntity
  8
CORPO_STAMPATO
100
AcDbLine
 62
250
  6
CONTINUOUS
 10
12.8458023429
 20
-6.5556543345
 11
12.8405060089
 21
-6.5581561949
  0
LWPOLYLINE
  5
3C3
100
AcDbEntity
  8
268140580
100
AcDbPolyline
 62
250
  6
CONTINUOUS
 90
8
 70
0
 10
-16.3647614909
 20
23.9554645331
 10
-16.3571372483
 20
23.9508398155
 10
-16.3480529243
 20
23.9460788814
 10
-16.3386420759
 20
23.9419190859
 10
-16.3289304636
 20
23.9383718104
 10
-16.318944697
 20
23.9354467753
 10
-16.308712166
 20
23.9331520045
 10
-16.298260923
 20
23.9314937888
  0
LWPOLYLINE
  5
3C4
100
AcDbEntity
  8
268140580
100
AcDbPolyline
 62
250
  6
CONTINUOUS
 90
8
 70
0
 10
-15.9118400077
 20
23.662347152
 10
-15.9100724506
 20
23.6612203471
 10
-15.9002152302
 20
23.6555304101
 10
-15.8899377409
 20
23.6505737126
 10
-15.8792747586
 20
23.6463670264
 10
-15.8682623632
 20
23.6429245857
 10
-15.8569378174
 20
23.6402580385
 10
-15.8453394398
 20
23.6383764077
  0
LINE
  5
3C5
100
AcDbEntity
  8
268140580
100
AcDbLine
 62
7
  6
CONTINUOUS
 10
-15.9118400077
 20
23.662347152
 11
-16.3647614909
 21
23.9554645331
  0
LINE
  5
3C6
100
AcDbEntity
  8
268140580
100
AcDbLine
 62
250
  6
CONTINUOUS
 10
-15.8453394398
 20
23.6383764077
 11
-16.298260923
 21
23.9314937888
  0
LINE
  5
3C7
100
AcDbEntity
  8
268140580
100
AcDbLine
 62
250
  6
CONTINUOUS
 10
-14.7669278601
 20
23.7372629643
 11
-14.3140063769
 21
23.4441455832
  0
LINE
  5
3C8
100
AcDbEntity
  8
268140580
100
AcDbLine
 62
250
  6
CONTINUOUS
 10
-14.4961079084
 20
23.9455588782
 11
-14.0431864252
 21
23.6524414971
  0
LWPOLYLINE
  5
3C9
100
AcDbEntity
  8
268140580
100
AcDbPolyline
 62
250
  6
CONTINUOUS
 90
25
 70
0
 10
-14.0431864252
 20
23.6524414971
 10
-14.0320502072
 20
23.6447310284
 10
-14.0211979633
 20
23.6361569406
 10
-14.0106296933
 20
23.6267192338
 10
-14.0003189322
 20
23.6163985614
 10
-13.9902921451
 20
23.6052142699
 10
-13.9806287271
 20
23.5932243991
 10
-13.9713328145
 20
23.5804208761
 10
-13.962400271
 20
23.5668117739
 10
-13.9538980832
 20
23.5524793513
 10
-13.9458307034
 20
23.5374167586
 10
-13.9381936793
 20
23.5216308456
 10
-13.9310406412
 20
23.5052244202
 10
-13.9243763242
 20
23.4881921501
 10
-13.9181959931
 20
23.4705393676
 10
-13.912539074
 20
23.4523848775
 10
-13.9074099758
 20
23.4337191465
 10
-13.9028042895
 20
23.414551708
 10
-13.8987482135
 20
23.3950299668
 10
-13.8952486851
 20
23.37515579
 10
-13.892298767
 20
23.3549273104
 10
-13.8899038451
 20
23.3344863318
 10
-13.8880657148
 20
23.313880122
 10
-13.8867825806
 20
23.2930614131
 10
-13.8860544427
 20
23.2720302052
  0
LWPOLYLINE
  5
3CA
100
AcDbEntity
  8
268140580
100
AcDbPolyline
 62
250
  6
CONTINUOUS
 90
25
 70
0
 10
-14.3140063769
 20
23.4441455832
 10
-14.3084503006
 20
23.4402922401
 10
-14.3030154793
 20
23.4359993057
 10
-14.2977134112
 20
23.431270695
 10
-14.2925538096
 20
23.4261094587
 10
-14.2875498006
 20
23.4205229201
 10
-14.2827173043
 20
23.4145240349
 10
-14.2780665695
 20
23.4081214182
 10
-14.2736079661
 20
23.4013250594
 10
-14.2693560043
 20
23.3941537757
 10
-14.2653197443
 20
23.3866206392
 10
-14.261507459
 20
23.3787387585
 10
-14.2579305614
 20
23.3705303661
 10
-14.2545961329
 20
23.3620115462
 10
-14.251510565
 20
23.3531984499
 10
-14.2486822185
 20
23.3441160164
 10
-14.2461153349
 20
23.3347800183
 10
-14.2438150034
 20
23.3252113339
 10
-14.2417881153
 20
23.3154450453
 10
-14.2400371063
 20
23.305504533
 10
-14.2385626715
 20
23.295407151
 10
-14.2373663659
 20
23.285180592
 10
-14.2364480453
 20
23.2748480266
 10
-14.2358065207
 20
23.2644276587
 10
-14.2354403856
 20
23.2539399373
  0
LWPOLYLINE
  5
3CB
100
AcDbEntity
  8
CORPO_STAMPATO
100
AcDbPolyline
 62
250
  6
CONTINUOUS
 90
40
 70
0
 10
13.265268482
 20
-5.7391936466
 10
13.2658238888
 20
-5.7660464314
 10
13.265759329
 20
-5.7928035577
 10
13.2650748516
 20
-5.8194447145
 10
13.2637709761
 20
-5.8459496787
 10
13.2618486923
 20
-5.8722983306
 10
13.2593094594
 20
-5.8984706692
 10
13.2561552049
 20
-5.9244468272
 10
13.2523883232
 20
-5.9502070864
 10
13.2480116736
 20
-5.9757318924
 10
13.2430285785
 20
-6.0010018695
 10
13.2374428204
 20
-6.0259978355
 10
13.2312586395
 20
-6.0507008162
 10
13.2244807302
 20
-6.0750920597
 10
13.2171142375
 20
-6.0991530509
 10
13.2091647531
 20
-6.1228655253
 10
13.2006383116
 20
-6.146211483
 10
13.1915413853
 20
-6.1691732021
 10
13.1818808795
 20
-6.1917332527
 10
13.1716641275
 20
-6.2138745096
 10
13.1608988847
 20
-6.2355801657
 10
13.1495933229
 20
-6.2568337442
 10
13.1377560242
 20
-6.2776191118
 10
13.125395974
 20
-6.2979204906
 10
13.1125225547
 20
-6.3177224698
 10
13.0991455386
 20
-6.3370100181
 10
13.08527508
 20
-6.3557684942
 10
13.0709217077
 20
-6.373983659
 10
13.0560963174
 20
-6.3916416854
 10
13.0408101628
 20
-6.4087291693
 10
13.0250748476
 20
-6.4252331398
 10
13.0089023163
 20
-6.4411410688
 10
12.9923048454
 20
-6.4564408808
 10
12.9752950337
 20
-6.4711209618
 10
12.9578857934
 20
-6.4851701683
 10
12.9400903397
 20
-6.4985778357
 10
12.9219221808
 20
-6.5113337863
 10
12.9033951082
 20
-6.5234283372
 10
12.8845231855
 20
-6.5348523075
 10
12.8653207383
 20
-6.5455970253
  0
LWPOLYLINE
  5
3CC
100
AcDbEntity
  8
268140580
100
AcDbPolyline
 62
250
  6
CONTINUOUS
 90
19
 70
0
 10
-0.0574465975
 20
-24.2790341807
 10
-0.0646058549
 20
-24.28867162
 10
-0.0714750451
 20
-24.2989200449
 10
-0.0780309251
 20
-24.3097447781
 10
-0.0842513118
 20
-24.321109192
 10
-0.0901151574
 20
-24.332974833
 10
-0.0956026204
 20
-24.3453015517
 10
-0.1006951331
 20
-24.3580476383
 10
-0.1053754641
 20
-24.3711699641
 10
-0.1096277764
 20
-24.3846241272
 10
-0.1134376817
 20
-24.3983646031
 10
-0.1167922885
 20
-24.4123448982
 10
-0.1196802458
 20
-24.4265177079
 10
-0.1220917817
 20
-24.4408350756
 10
-0.1240187363
 20
-24.455248556
 10
-0.1254545894
 20
-24.4697093785
 10
-0.1263944825
 20
-24.4841686121
 10
-0.1268352354
 20
-24.4985773315
 10
-0.1267753567
 20
-24.512886782
  0
LINE
  5
3CD
100
AcDbEntity
  8
268140580
100
AcDbLine
 62
7
  6
CONTINUOUS
 10
0.2587073597
 20
-23.7601416764
 11
-0.1757396595
 21
-24.3151407897
  0
LINE
  5
3CE
100
AcDbEntity
  8
268140580
100
AcDbLine
 62
250
  6
CONTINUOUS
 10
0.3770004217
 20
-23.7240350674
 11
-0.0574465975
 21
-24.2790341807
  0
LWPOLYLINE
  5
3CF
100
AcDbEntity
  8
CORPO_STAMPATO
100
AcDbPolyline
 62
7
  6
CONTINUOUS
 90
40
 70
0
 10
19.6168229562
 20
1.9600908648
 10
19.5979775887
 20
1.9394669364
 10
19.5783363169
 20
1.9184790664
 10
19.5578991408
 20
1.8971272548
 10
19.5366858841
 20
1.8754220544
 10
19.5146767231
 20
1.8533529124
 10
19.4918121872
 20
1.8308881709
 10
19.4680945018
 20
1.8080285905
 10
19.4435214414
 20
1.7847734105
 10
19.4180268594
 20
1.7610886913
 10
19.3916156395
 20
1.7369773847
 10
19.364282898
 20
1.712436539
 10
19.3359478372
 20
1.6874233582
 10
19.3066124953
 20
1.6619380349
 10
19.2762748341
 20
1.6359803767
 10
19.2448479408
 20
1.6095070105
 10
19.2123347022
 20
1.5825189097
 10
19.1787322316
 20
1.5550151009
 10
19.1439449557
 20
1.5269492913
 10
19.107975354
 20
1.4983221276
 10
19.0708209472
 20
1.469132963
 10
19.0323787238
 20
1.4393335641
 10
18.9926525284
 20
1.4089255991
 10
18.9516385164
 20
1.3779073997
 10
18.9092221436
 20
1.3462257279
 10
18.8654067974
 20
1.3138818186
 10
18.8201890904
 20
1.2808744368
 10
18.7734443156
 20
1.2471466392
 10
18.7251762854
 20
1.2126999198
 10
18.6753811874
 20
1.1775327846
 10
18.6239228769
 20
1.1415838076
 10
18.5708058299
 20
1.1048548686
 10
18.5160255705
 20
1.0673440878
 10
18.4594325256
 20
1.0289844002
 10
18.401033569
 20
0.9897791352
 10
18.3408218271
 20
0.9497249633
 10
18.2786271054
 20
0.9087448318
 10
18.2143926726
 20
0.8668130563
 10
18.1481752601
 20
0.823955321
 10
18.0799748679
 20
0.7801716261
  0
LWPOLYLINE
  5
3D0
100
AcDbEntity
  8
CORPO_STAMPATO
100
AcDbPolyline
 62
250
  6
CONTINUOUS
 90
49
 70
0
 10
18.1694210193
 20
5.2233136201
 10
18.1828304193
 20
5.2146253028
 10
18.2292581127
 20
5.1831419854
 10
18.2752523579
 20
5.1505386003
 10
18.3207923766
 20
5.1168298786
 10
18.3658576283
 20
5.0820310262
 10
18.4104277922
 20
5.0461577346
 10
18.4544827614
 20
5.0092261857
 10
18.498002635
 20
4.9712530608
 10
18.54096775
 20
4.9322555168
 10
18.5833587016
 20
4.8922511679
 10
18.6251563644
 20
4.851258064
 10
18.6663418826
 20
4.8092946981
 10
18.706896671
 20
4.7663800055
 10
18.7468024154
 20
4.7225333651
 10
18.7860410939
 20
4.6777745784
 10
18.8245949902
 20
4.6321238544
 10
18.8624467044
 20
4.5856017969
 10
18.8995791525
 20
4.538229403
 10
18.9359755731
 20
4.4900280563
 10
18.9716195355
 20
4.4410195167
 10
19.0064949506
 20
4.3912259056
 10
19.0405860768
 20
4.3406696977
 10
19.0738775227
 20
4.2893737177
 10
19.1063542554
 20
4.2373611287
 10
19.1380016104
 20
4.1846554173
 10
19.1688053063
 20
4.1312803691
 10
19.1987514454
 20
4.0772600648
 10
19.227826515
 20
4.0226188788
 10
19.2560173836
 20
3.9673814875
 10
19.2833113153
 20
3.9115728457
 10
19.3096959828
 20
3.855218162
 10
19.3351594837
 20
3.7983428611
 10
19.3596903349
 20
3.7409725915
 10
19.3832774698
 20
3.6831332313
 10
19.4059102318
 20
3.6248509088
 10
19.4275783916
 20
3.5661519655
 10
19.448272161
 20
3.5070629226
 10
19.4679822079
 20
3.4476104313
 10
19.4866996472
 20
3.3878212919
 10
19.5044160363
 20
3.3277224672
 10
19.5211233682
 20
3.267341113
 10
19.5368140892
 20
3.2067045286
 10
19.5514811106
 20
3.1458401162
 10
19.5651178205
 20
3.0847753218
 10
19.5777180731
 20
3.0235376652
 10
19.5892761822
 20
2.9621547745
 10
19.5997869257
 20
2.900654374
 10
19.6092455577
 20
2.8390642259
  0
LWPOLYLINE
  5
3D1
100
AcDbEntity
  8
268140580
100
AcDbPolyline
 62
7
  6
CONTINUOUS
 90
6
 70
0
 10
-0.6816777041
 20
21.7319260064
 10
-0.6813782629
 20
21.7316006282
 10
-0.6801658946
 20
21.7301573545
 10
-0.6785938355
 20
21.7281138947
 10
-0.6767093896
 20
21.7254449684
 10
-0.6745700425
 20
21.7221479229
  0
LWPOLYLINE
  5
3D2
100
AcDbEntity
  8
268140580
100
AcDbPolyline
 62
7
  6
CONTINUOUS
 90
23
 70
0
 10
2.0293039233
 20
21.0314480774
 10
2.0289623342
 20
21.0318556949
 10
2.0282104477
 20
21.0328301542
 10
2.0270997975
 20
21.0343979972
 10
2.0257029708
 20
21.0365442528
 10
2.0240667914
 20
21.0392784317
 10
2.0222317222
 20
21.0426137333
 10
2.0202411064
 20
21.0465519239
 10
2.0181322559
 20
21.0510998697
 10
2.0159424574
 20
21.0562592198
 10
2.0137064755
 20
21.0620321193
 10
2.0114574783
 20
21.0684203407
 10
2.0092302227
 20
21.0754160076
 10
2.0070577316
 20
21.0830096394
 10
2.0049704652
 20
21.0911944258
 10
2.0029998301
 20
21.0999533075
 10
2.0011768507
 20
21.1092599587
 10
1.9995282578
 20
21.119098185
 10
1.9980809442
 20
21.1294406598
 10
1.9968616179
 20
21.1402402179
 10
1.995892291
 20
21.1514599459
 10
1.995191944
 20
21.1630734138
 10
1.9947785621
 20
21.175044701
  0
LINE
  5
3D3
100
AcDbEntity
  8
268140580
100
AcDbLine
 62
250
  6
CONTINUOUS
 10
1.9083334846
 20
-23.9182658919
 11
1.4738864654
 21
-24.4732650052
  0
LINE
  5
3D4
100
AcDbEntity
  8
268140580
100
AcDbLine
 62
250
  6
CONTINUOUS
 10
2.1883906683
 20
-24.1340282252
 11
1.7539436492
 21
-24.6890273386
  0
LWPOLYLINE
  5
3D5
100
AcDbEntity
  8
CORPO_STAMPATO
100
AcDbPolyline
 62
250
  6
CONTINUOUS
 90
23
 70
0
 10
17.1434110411
 20
22.1646540877
 10
17.1590544334
 20
22.1688842653
 10
17.1742665929
 20
22.1726485458
 10
17.1890362233
 20
22.1759441339
 10
17.2033523563
 20
22.1787685821
 10
17.2172043608
 20
22.1811197932
 10
17.2305819503
 20
22.1829960209
 10
17.2434751903
 20
22.1843958721
 10
17.2558745065
 20
22.1853183073
 10
17.2677706908
 20
22.1857626413
 10
17.2791549093
 20
22.1857285443
 10
17.2900187078
 20
22.1852160415
 10
17.3003540189
 20
22.1842255135
 10
17.3101531675
 20
22.182757696
 10
17.3194088768
 20
22.1808136789
 10
17.3281142733
 20
22.1783949059
 10
17.3362628924
 20
22.1755031731
 10
17.3438486829
 20
22.172140628
 10
17.3508660115
 20
22.1683097676
 10
17.3573096672
 20
22.1640134368
 10
17.3631748648
 20
22.159254826
 10
17.3684572488
 20
22.1540374689
 10
17.372627974
 20
22.1490600427
  0
LINE
  5
3D6
100
AcDbEntity
  8
CORPO_STAMPATO
100
AcDbLine
 62
250
  6
CONTINUOUS
 10
8.2162472528
 20
19.9519106234
 11
17.0339921284
 21
22.3323974223
  0
LWPOLYLINE
  5
3D7
100
AcDbEntity
  8
CORPO_STAMPATO
100
AcDbPolyline
 62
7
  6
CONTINUOUS
 90
40
 70
0
 10
17.735665198
 20
16.5865684318
 10
17.8048589422
 20
16.5847450332
 10
17.8720558509
 20
16.5826321542
 10
17.9372559243
 20
16.5802297947
 10
18.0004020694
 20
16.577528877
 10
18.0615513792
 20
16.5745384787
 10
18.1208751319
 20
16.5712858331
 10
18.1783802543
 20
16.5677718257
 10
18.2340598198
 20
16.5639955708
 10
18.288064326
 20
16.5599816453
 10
18.3403982713
 20
16.5557309102
 10
18.3910571574
 20
16.5512425043
 10
18.4401779872
 20
16.5465384213
 10
18.4877645877
 20
16.5416195
 10
18.533813132
 20
16.5364849015
 10
18.5784491419
 20
16.5311541026
 10
18.6216760138
 20
16.52562794
 10
18.6634903514
 20
16.519905577
 10
18.7040074878
 20
16.5140039805
 10
18.7432312888
 20
16.5079238369
 10
18.7811578886
 20
16.5016644598
 10
18.8178910238
 20
16.4952407565
 10
18.8534331688
 20
16.4886535934
 10
18.8877818491
 20
16.4819021042
 10
18.921033378
 20
16.4749985979
 10
18.9531906468
 20
16.4679438656
 10
18.9842507641
 20
16.4607371161
 10
19.0143013683
 20
16.4533882858
 10
19.0433444785
 20
16.4458984217
 10
19.0713780757
 20
16.4382664766
 10
19.0984837415
 20
16.4304992458
 10
19.1246664223
 20
16.4225967797
 10
19.1499211717
 20
16.4145590278
 10
19.1743147323
 20
16.4063926337
 10
19.1978493345
 20
16.3980981964
 10
19.2205227479
 20
16.389675117
 10
19.242395024
 20
16.3811282415
 10
19.2634861798
 20
16.3724591853
 10
19.2837761981
 20
16.3636663331
 10
19.3032650791
 20
16.3547496848
  0
LINE
  5
3D8
100
AcDbEntity
  8
290140600
100
AcDbLine
 62
250
  6
CONTINUOUS
 10
-19.4650954156
 20
19.968700974
 11
-2.5075556079
 21
17.8178449532
  0
LINE
  5
3D9
100
AcDbEntity
  8
290140580
100
AcDbLine
 62
250
  6
CONTINUOUS
 10
-19.4650954156
 20
19.968700974
 11
-2.5075556079
 21
17.8178449532
  0
LINE
  5
3DA
100
AcDbEntity
  8
268140580
100
AcDbLine
 62
7
  6
CONTINUOUS
 10
2.0192168675
 20
21.0487607969
 11
2.0213456032
 21
21.0468296071
  0
LWPOLYLINE
  5
3DB
100
AcDbEntity
  8
268140580
100
AcDbPolyline
 62
7
  6
CONTINUOUS
 90
24
 70
0
 10
2.0213456032
 20
21.0468296071
 10
2.0268284424
 20
21.041480911
 10
2.0317634161
 20
21.0362545765
 10
2.0362218458
 20
21.0311505688
 10
2.04013241
 20
21.0261689226
 10
2.0432811437
 20
21.0213097417
 10
2.0456102708
 20
21.0165667367
 10
2.0471775674
 20
21.011946197
 10
2.047942397
 20
21.0074670945
 10
2.0478644517
 20
21.0031347533
 10
2.0469840393
 20
20.9989438494
 10
2.045381447
 20
20.9948973826
 10
2.0430536806
 20
20.9910035349
 10
2.0400037342
 20
20.9872541243
 10
2.0363208769
 20
20.983627605
 10
2.0320040672
 20
20.9801179358
 10
2.0270543465
 20
20.9767311578
 10
2.0215641082
 20
20.9734638493
 10
2.0155316914
 20
20.9703147449
 10
2.008958757
 20
20.9672851099
 10
2.0019426803
 20
20.9643753182
 10
1.9945159197
 20
20.9615854943
 10
1.9866460167
 20
20.9589155137
 10
1.9783329715
 20
20.9563653763
  0
LINE
  5
3DC
100
AcDbEntity
  8
CORPO_STAMPATO
100
AcDbLine
 62
250
  6
CONTINUOUS
 10
7.622221262
 20
22.642525926
 11
7.9879505347
 21
21.8430536789
  0
LWPOLYLINE
  5
3DD
100
AcDbEntity
  8
CORPO_STAMPATO
100
AcDbPolyline
 62
7
  6
CONTINUOUS
 90
31
 70
0
 10
17.8292227784
 20
20.8409645746
 10
17.8280118232
 20
20.8803368757
 10
17.825625735
 20
20.927620169
 10
17.8222255006
 20
20.9748850373
 10
17.8178129872
 20
21.0221210878
 10
17.812391249
 20
21.0693041417
 10
17.805965766
 20
21.1163934517
 10
17.7985399348
 20
21.1633732259
 10
17.7901167349
 20
21.2102255152
 10
17.7807046277
 20
21.2569060564
 10
17.7703077569
 20
21.3033986278
 10
17.7589296024
 20
21.3496866263
 10
17.7465814078
 20
21.3957260419
 10
17.7332677202
 20
21.4415007313
 10
17.7189929714
 20
21.4869942475
 10
17.7037708608
 20
21.5321628286
 10
17.6876064256
 20
21.5769909318
 10
17.6705051622
 20
21.6214619946
 10
17.6524835733
 20
21.665531477
 10
17.6335479234
 20
21.7091837632
 10
17.6137043125
 20
21.7524028748
 10
17.592971946
 20
21.7951450755
 10
17.5713583037
 20
21.8373947993
 10
17.5488699256
 20
21.8791366912
 10
17.5255284171
 20
21.9203292889
 10
17.5013426728
 20
21.9609563226
 10
17.4763198132
 20
22.001003311
 10
17.4504815884
 20
22.040433972
 10
17.4238411433
 20
22.0792269799
 10
17.3964036735
 20
22.11737313
 10
17.3726279676
 20
22.1490600378
  0
LWPOLYLINE
  5
3DE
100
AcDbEntity
  8
CORPO_STAMPATO
100
AcDbPolyline
 62
250
  6
CONTINUOUS
 90
37
 70
0
 10
17.6456264446
 20
20.7200226661
 10
17.6444008944
 20
20.7628195227
 10
17.6424041385
 20
20.8056916482
 10
17.639637096
 20
20.8486186315
 10
17.6361010293
 20
20.8915799495
 10
17.6317976226
 20
20.934555238
 10
17.6267289661
 20
20.977524302
 10
17.6208974253
 20
21.0204668141
 10
17.6143057504
 20
21.0633622081
 10
17.6069571513
 20
21.1061899515
 10
17.5988551255
 20
21.1489295989
 10
17.5900034921
 20
21.1915608716
 10
17.58040649
 20
21.2340635508
 10
17.5700686769
 20
21.2764174125
 10
17.5589949518
 20
21.3186022985
 10
17.5471905914
 20
21.3605981951
 10
17.5346612001
 20
21.4023851497
 10
17.5214127315
 20
21.4439432459
 10
17.5074515077
 20
21.485252675
 10
17.4927841775
 20
21.5262937839
 10
17.4774177134
 20
21.5670470439
 10
17.4613594341
 20
21.6074930262
 10
17.4446170074
 20
21.6476124637
 10
17.4271983913
 20
21.6873862978
 10
17.4091118304
 20
21.7267956468
 10
17.3903659505
 20
21.7658217652
 10
17.3709696787
 20
21.8044460877
 10
17.350932181
 20
21.8426502738
 10
17.3302629854
 20
21.8804162087
 10
17.3089719681
 20
21.9177258687
 10
17.2870692754
 20
21.9545613664
 10
17.2645654316
 20
21.9909050837
 10
17.2414711088
 20
22.0267398454
 10
17.2177971035
 20
22.0620487768
 10
17.1935546315
 20
22.0968151355
 10
17.168755333
 20
22.1310223293
 10
17.1434110411
 20
22.1646540877
  0
LINE
  5
3DF
100
AcDbEntity
  8
CORPO_STAMPATO
100
AcDbLine
 62
250
  6
CONTINUOUS
 10
18.0300533342
 20
3.0719445278
 11
17.7855867317
 21
14.2947955301
  0
LINE
  5
3E0
100
AcDbEntity
  8
CORPO_STAMPATO
100
AcDbLine
 62
250
  6
CONTINUOUS
 10
17.735665198
 20
16.5865684318
 11
17.6456264446
 21
20.7200226661
  0
LINE
  5
3E1
100
AcDbEntity
  8
CORPO_STAMPATO
100
AcDbLine
 62
7
  6
CONTINUOUS
 10
18.3696505396
 20
-3.9687234472
 11
18.2700671013
 21
0.6029034275
  0
LWPOLYLINE
  5
3E2
100
AcDbEntity
  8
CORPO_STAMPATO
100
AcDbPolyline
 62
7
  6
CONTINUOUS
 90
38
 70
0
 10
17.8292227862
 20
20.8409646347
 10
17.9129270795
 20
16.9969709797
 10
17.9130341304
 20
16.9677575669
 10
17.9124974418
 20
16.9401290759
 10
17.9113748853
 20
16.9138504492
 10
17.9097165984
 20
16.8888909668
 10
17.9075755196
 20
16.8652873241
 10
17.9049873893
 20
16.8429046402
 10
17.9019895311
 20
16.8217260745
 10
17.8986249611
 20
16.8017719985
 10
17.8949259431
 20
16.7829628877
 10
17.8909269703
 20
16.765304473
 10
17.8866633537
 20
16.7487928378
 10
17.8821629188
 20
16.7333336814
 10
17.8774593069
 20
16.7189402465
 10
17.8725797917
 20
16.705599826
 10
17.8675364355
 20
16.6931790712
 10
17.8623560482
 20
16.6816799029
 10
17.8570607872
 20
16.6711002085
 10
17.8516477478
 20
16.6613006973
 10
17.8461396605
 20
16.6522792511
 10
17.8405512977
 20
16.6440374917
 10
17.8348587182
 20
16.6364420721
 10
17.8290716432
 20
16.6294790758
 10
17.8232054644
 20
16.6231620821
 10
17.8172364016
 20
16.6173994222
 10
17.8111760187
 20
16.6121833878
 10
17.8050301479
 20
16.6075215181
 10
17.7987591418
 20
16.6033455053
 10
17.7923629287
 20
16.5996430655
 10
17.7858504986
 20
16.5964267913
 10
17.7791894891
 20
16.5936662045
 10
17.7723850073
 20
16.5913539676
 10
17.7654360884
 20
16.5894980835
 10
17.7582957508
 20
16.5880916222
 10
17.7509463957
 20
16.5871328532
 10
17.7434031515
 20
16.5866248975
 10
17.735665198
 20
16.5865684318
  0
LWPOLYLINE
  5
3E3
100
AcDbEntity
  8
CORPO_STAMPATO
100
AcDbPolyline
 62
7
  6
CONTINUOUS
 90
38
 70
0
 10
17.9756789651
 20
14.1175273315
 10
18.2073152157
 20
3.4823470757
 10
18.2074222666
 20
3.4531336629
 10
18.2068855781
 20
3.4255051719
 10
18.2057630215
 20
3.3992265452
 10
18.2041047346
 20
3.3742670628
 10
18.2019636558
 20
3.3506634201
 10
18.1993755255
 20
3.3282807362
 10
18.1963776673
 20
3.3071021705
 10
18.1930130973
 20
3.2871480945
 10
18.1893140793
 20
3.2683389837
 10
18.1853151065
 20
3.250680569
 10
18.1810514899
 20
3.2341689338
 10
18.176551055
 20
3.2187097774
 10
18.1718474431
 20
3.2043163425
 10
18.166967928
 20
3.190975922
 10
18.1619245717
 20
3.1785551672
 10
18.1567441844
 20
3.1670559989
 10
18.1514489234
 20
3.1564763045
 10
18.1460358841
 20
3.1466767933
 10
18.1405277968
 20
3.1376553471
 10
18.1349394339
 20
3.1294135877
 10
18.1292468544
 20
3.1218181681
 10
18.1234597794
 20
3.1148551718
 10
18.1175936007
 20
3.1085381781
 10
18.1116245378
 20
3.1027755182
 10
18.1055641549
 20
3.0975594838
 10
18.0994182841
 20
3.0928976141
 10
18.093147278
 20
3.0887216013
 10
18.0867510649
 20
3.0850191614
 10
18.0802386348
 20
3.0818028873
 10
18.0735776253
 20
3.0790423005
 10
18.0667731435
 20
3.0767300636
 10
18.0598242246
 20
3.0748741795
 10
18.052683887
 20
3.0734677182
 10
18.0453345319
 20
3.0725089492
 10
18.0377912877
 20
3.0720009935
 10
18.0300533342
 20
3.0719445278
  0
LINE
  5
3E4
100
AcDbEntity
  8
CORPO_STAMPATO
100
AcDbLine
 62
7
  6
CONTINUOUS
 10
19.3772174764
 20
15.5178267897
 11
19.3773147402
 21
15.5201321369
  0
LWPOLYLINE
  5
3E5
100
AcDbEntity
  8
CORPO_STAMPATO
100
AcDbPolyline
 62
250
  6
CONTINUOUS
 90
45
 70
0
 10
19.3338169836
 20
15.4833019963
 10
19.3269966023
 20
15.4237766408
 10
19.3191143589
 20
15.3646091651
 10
19.310173813
 20
15.3058262781
 10
19.3001790042
 20
15.2474545298
 10
19.2891344436
 20
15.1895202544
 10
19.2770451083
 20
15.1320495596
 10
19.2639164477
 20
15.0750683606
 10
19.2497543927
 20
15.0186024092
 10
19.2345653467
 20
14.9626772357
 10
19.2183561747
 20
14.9073181103
 10
19.2011341884
 20
14.8525499967
 10
19.1829071508
 20
14.7983975826
 10
19.1636832809
 20
14.7448852921
 10
19.1434712632
 20
14.6920373043
 10
19.1222802328
 20
14.6398775056
 10
19.1001197644
 20
14.5884294586
 10
19.0769998551
 20
14.5377163694
 10
19.0529309309
 20
14.4877611065
 10
19.027923849
 20
14.4385862073
 10
19.0019899042
 20
14.3902138849
 10
18.9751408128
 20
14.3426659932
 10
18.9473887015
 20
14.2959640055
 10
18.9187460928
 20
14.2501289933
 10
18.889225909
 20
14.2051816351
 10
18.8588414714
 20
14.1611422152
 10
18.8276064999
 20
14.1180306201
 10
18.7955350989
 20
14.0758663178
 10
18.7626417484
 20
14.0346683443
 10
18.7289412949
 20
13.9944552942
 10
18.6944489503
 20
13.9552453188
 10
18.6591802855
 20
13.9170561186
 10
18.6231512209
 20
13.8799049322
 10
18.5863780176
 20
13.8438085274
 10
18.548877272
 20
13.8087831958
 10
18.5106659158
 20
13.7748447519
 10
18.4717612057
 20
13.7420085226
 10
18.4321807107
 20
13.7102893354
 10
18.3919422919
 20
13.6797015029
 10
18.3510641013
 20
13.6502588237
 10
18.3095645817
 20
13.6219745827
 10
18.267462476
 20
13.5948615557
 10
18.2247768071
 20
13.568931993
 10
18.1815268575
 20
13.544197606
 10
18.1377321385
 20
13.5206695515
  0
LWPOLYLINE
  5
3E6
100
AcDbEntity
  8
CORPO_STAMPATO
100
AcDbPolyline
 62
250
  6
CONTINUOUS
 90
45
 70
0
 10
19.6282051198
 20
1.9686780923
 10
19.6213847384
 20
1.9091527361
 10
19.613502495
 20
1.8499852598
 10
19.6045619489
 20
1.7912023721
 10
19.59456714
 20
1.7328306232
 10
19.5835225792
 20
1.6748963472
 10
19.5714332437
 20
1.6174256518
 10
19.5583045828
 20
1.5604444522
 10
19.5441425277
 20
1.5039785002
 10
19.5289534813
 20
1.4480533262
 10
19.5127443091
 20
1.3926942002
 10
19.4955223225
 20
1.3379260861
 10
19.4772952845
 20
1.2837736714
 10
19.4580714143
 20
1.2302613805
 10
19.4378593962
 20
1.1774133922
 10
19.4166683654
 20
1.125253593
 10
19.3945078966
 20
1.0738055456
 10
19.3713879869
 20
1.0230924559
 10
19.3473190622
 20
0.9731371926
 10
19.3223119799
 20
0.9239622931
 10
19.2963780346
 20
0.8755899703
 10
19.2695289427
 20
0.8280420783
 10
19.2417768309
 20
0.7813400902
 10
19.2131342216
 20
0.7355050777
 10
19.1836140372
 20
0.6905577193
 10
19.1532295991
 20
0.6465182991
 10
19.121994627
 20
0.6034067039
 10
19.0899232255
 20
0.5612424014
 10
19.0570298743
 20
0.5200444277
 10
19.0233294202
 20
0.4798313775
 10
18.9888370749
 20
0.4406214019
 10
18.9535684095
 20
0.4024322017
 10
18.9175393442
 20
0.3652810153
 10
18.8807661403
 20
0.3291846105
 10
18.843265394
 20
0.2941592789
 10
18.8050540372
 20
0.260220835
 10
18.7661493263
 20
0.2273846058
 10
18.7265688306
 20
0.1956654186
 10
18.6863304111
 20
0.1650775863
 10
18.6454522198
 20
0.1356349072
 10
18.6039526995
 20
0.1073506665
 10
18.5618505931
 20
0.0802376397
 10
18.5191649233
 20
0.0543080772
 10
18.4759149731
 20
0.0295736906
 10
18.4321202533
 20
0.0060456363
  0
LINE
  5
3E7
100
AcDbEntity
  8
CORPO_STAMPATO
100
AcDbLine
 62
7
  6
CONTINUOUS
 10
7.8385000375
 20
-19.2289679682
 11
9.0404542746
 21
-17.8853747439
  0
LINE
  5
3E8
100
AcDbEntity
  8
268140580
100
AcDbLine
 62
7
  6
CONTINUOUS
 10
7.5064368161
 20
-19.7239879653
 11
7.5347996023
 21
-19.6922828918
  0
LWPOLYLINE
  5
3E9
100
AcDbEntity
  8
268140580
100
AcDbPolyline
 62
250
  6
CONTINUOUS
 90
13
 70
0
 10
-11.6880754661
 20
-22.6217134166
 10
-11.6811841215
 20
-22.619330395
 10
-11.6748843974
 20
-22.616890213
 10
-11.669193561
 20
-22.6143995591
 10
-11.6641272105
 20
-22.61186526
 10
-11.6596992323
 20
-22.6092942621
 10
-11.6559217633
 20
-22.6066936121
 10
-11.6528051572
 20
-22.6040704385
 10
-11.6503579564
 20
-22.6014319311
 10
-11.6485868686
 20
-22.5987853218
 10
-11.6474967481
 20
-22.5961378648
 10
-11.647090583
 20
-22.5934968167
 10
-11.647090026
 20
-22.5930316174
  0
LINE
  5
3EA
100
AcDbEntity
  8
268140580
100
AcDbLine
 62
250
  6
CONTINUOUS
 10
-11.8181201313
 20
-22.8356419455
 11
-11.8230788273
 21
-22.8372879416
  0
LWPOLYLINE
  5
3EB
100
AcDbEntity
  8
CORPO_STAMPATO
100
AcDbPolyline
 62
250
  6
CONTINUOUS
 90
24
 70
0
 10
3.9478801409
 20
-18.1277384041
 10
12.6337360928
 20
-15.3679027001
 10
12.6485492675
 20
-15.3629907326
 10
12.6627338932
 20
-15.3580123684
 10
12.6762794363
 20
-15.3529713047
 10
12.6891758378
 20
-15.3478712848
 10
12.7014135208
 20
-15.3427160961
 10
12.7129833974
 20
-15.3375095669
 10
12.723876876
 20
-15.3322555636
 10
12.7340858668
 20
-15.3269579877
 10
12.7436027887
 20
-15.3216207734
 10
12.7524205743
 20
-15.3162478841
 10
12.7605326755
 20
-15.3108433097
 10
12.7679330681
 20
-15.3054110636
 10
12.7746162567
 20
-15.2999551799
 10
12.7805772783
 20
-15.2944797102
 10
12.7858117061
 20
-15.2889887206
 10
12.7903156531
 20
-15.2834862887
 10
12.7940857745
 20
-15.2779765006
 10
12.7971192708
 20
-15.272463448
 10
12.7994138891
 20
-15.2669512248
 10
12.8009679255
 20
-15.2614439246
 10
12.801780226
 20
-15.2559456369
 10
12.8019017111
 20
-15.2518026613
  0
LWPOLYLINE
  5
3EC
100
AcDbEntity
  8
268140580
100
AcDbPolyline
 62
250
  6
CONTINUOUS
 90
14
 70
0
 10
-11.7040534985
 20
-22.233178304
 10
-11.6965972938
 20
-22.2308615527
 10
-11.6897106851
 20
-22.2284805621
 10
-11.683413009
 20
-22.2260417966
 10
-11.6777215095
 20
-22.223551652
 10
-11.6726529229
 20
-22.2210171383
 10
-11.6682228365
 20
-22.2184458996
 10
-11.6644437488
 20
-22.2158452528
 10
-11.6613255319
 20
-22.2132220648
 10
-11.6588766791
 20
-22.210583459
 10
-11.6571039301
 20
-22.2079366228
 10
-11.6560122428
 20
-22.2052888563
 10
-11.6556046636
 20
-22.2026474851
 10
-11.6556038334
 20
-22.2021840979
  0
LINE
  5
3ED
100
AcDbEntity
  8
268140580
100
AcDbLine
 62
250
  6
CONTINUOUS
 10
-13.4697180504
 20
-23.1734354143
 11
-11.6880754661
 21
-22.6217134166
  0
LINE
  5
3EE
100
AcDbEntity
  8
268140580
100
AcDbLine
 62
7
  6
CONTINUOUS
 10
-13.5972573351
 20
-23.3866906096
 11
-11.8230788273
 21
-22.8372879416
  0
LINE
  5
3EF
100
AcDbEntity
  8
CORPO_STAMPATO
100
AcDbLine
 62
7
  6
CONTINUOUS
 10
9.6362896117
 20
21.7026236972
 11
11.5958805319
 21
22.2524587968
  0
LINE
  5
3F0
100
AcDbEntity
  8
CORPO_STAMPATO
100
AcDbLine
 62
250
  6
CONTINUOUS
 10
7.8900019645
 20
20.378419621
 11
16.4422750227
 21
22.6872314959
  0
LINE
  5
3F1
100
AcDbEntity
  8
CORPO_STAMPATO
100
AcDbLine
 62
7
  6
CONTINUOUS
 10
15.8221331617
 20
22.7658888878
 11
12.8609922668
 21
21.9780520527
  0
LINE
  5
3F2
100
AcDbEntity
  8
CORPO_STAMPATO
100
AcDbLine
 62
7
  6
CONTINUOUS
 10
8.2643053067
 20
21.8018658664
 11
11.58240037
 21
22.6846734079
  0
LWPOLYLINE
  5
3F3
100
AcDbEntity
  8
CORPO_STAMPATO
100
AcDbPolyline
 62
7
  6
CONTINUOUS
 90
104
 70
0
 10
12.8609922668
 20
21.9780520527
 10
12.8155852136
 20
21.9661414008
 10
12.7688246248
 20
21.9544304169
 10
12.7207105005
 20
21.9429191012
 10
12.6712153964
 20
21.9316015224
 10
12.6203667568
 20
21.9204836116
 10
12.568246914
 20
21.9095831627
 10
12.5148543156
 20
21.898900571
 10
12.4601905141
 20
21.8884354412
 10
12.4043424992
 20
21.8782043815
 10
12.3473065125
 20
21.8682074539
 10
12.2890863123
 20
21.8584445964
 10
12.2297801638
 20
21.848932232
 10
12.1693879989
 20
21.8396710513
 10
12.1079098857
 20
21.8306603637
 10
12.0454442934
 20
21.8219145203
 10
11.9819886277
 20
21.8134338024
 10
11.9175454831
 20
21.8052179287
 10
11.852221112
 20
21.7972804063
 10
11.7860136988
 20
21.7896216776
 10
11.7189250592
 20
21.7822413002
 10
11.6510668924
 20
21.7751514543
 10
11.5824402908
 20
21.7683528214
 10
11.5130441621
 20
21.7618447199
 10
11.4429869283
 20
21.7556372855
 10
11.3722627984
 20
21.7497306431
 10
11.3008775635
 20
21.7441246679
 10
11.2289570186
 20
21.7388291204
 10
11.1565075799
 20
21.7338449938
 10
11.0835228313
 20
21.7291712949
 10
11.0101093193
 20
21.7248148047
 10
10.9362567345
 20
21.7207755229
 10
10.8619753864
 20
21.7170534497
 10
10.7874027501
 20
21.7136553668
 10
10.7125501702
 20
21.7105822889
 10
10.637406302
 20
21.7078332013
 10
10.5620745871
 20
21.7054118422
 10
10.4865422306
 20
21.703318363
 10
10.4108220273
 20
21.7015526124
 10
10.3350558026
 20
21.7001178748
 10
10.2592552275
 20
21.6990148988
 10
10.183408631
 20
21.6982429359
 10
10.1076228252
 20
21.6978030249
 10
10.0318876657
 20
21.697695643
 10
9.9562132969
 20
21.697920313
 10
9.8807369641
 20
21.6984766424
 10
9.8054665613
 20
21.6993651424
 10
9.7303941945
 20
21.7005853017
 10
9.6556334268
 20
21.7021351942
 10
9.5811806909
 20
21.7040154015
 10
9.507039554
 20
21.706225342
 10
9.4333342819
 20
21.7087613443
 10
9.3600657604
 20
21.7116239916
 10
9.2872331036
 20
21.7148127008
 10
9.2149579192
 20
21.7183220508
 10
9.1432449392
 20
21.7221523122
 10
9.0720894317
 20
21.7263032144
 10
9.001598808
 20
21.7307685247
 10
8.9317666972
 20
21.7355493032
 10
8.8625994704
 20
21.7406444898
 10
8.7942236524
 20
21.746044671
 10
8.7266509612
 20
21.7517494464
 10
8.659869679
 20
21.7577592164
 10
8.5939711773
 20
21.764065769
 10
8.5289445979
 20
21.7706708322
 10
8.4648007991
 20
21.7775726781
 10
8.4016637278
 20
21.7847579107
 10
8.3395483345
 20
21.792225409
 10
8.2784396687
 20
21.799976294
 10
8.2184168268
 20
21.8080005335
 10
8.1594688039
 20
21.8163002982
 10
8.1016066049
 20
21.8248734174
 10
8.0449423399
 20
21.8337033458
 10
7.9894886526
 20
21.8427888305
 10
7.9352328993
 20
21.8521311245
 10
7.8822492595
 20
21.8617174417
 10
7.8305315425
 20
21.871549653
 10
7.7800859391
 20
21.8816258875
 10
7.7310052007
 20
21.8919277459
 10
7.6832969821
 20
21.9024545097
 10
7.6369536286
 20
21.9132068975
 10
7.5920449281
 20
21.9241686664
 10
7.5485705813
 20
21.9353407253
 10
7.5065308875
 20
21.9467221655
 10
7.4659965331
 20
21.9582940176
 10
7.426970173
 20
21.9700566408
 10
7.3894491522
 20
21.982009676
 10
7.3534961921
 20
21.9941330776
 10
7.3191155178
 20
22.006426439
 10
7.2863029042
 20
22.0188901667
 10
7.255108397
 20
22.0315054353
 10
7.2255318012
 20
22.0442737819
 10
7.1975733118
 20
22.0571936693
 10
7.1712835594
 20
22.0702416604
 10
7.1466685675
 20
22.0834161817
 10
7.1237223126
 20
22.0967188066
 10
7.1024773547
 20
22.1101308187
 10
7.0829333684
 20
22.123654488
 10
7.0650906791
 20
22.1372875445
 10
7.0489828225
 20
22.1510044612
 10
7.0346151023
 20
22.1648030938
 10
7.0219822148
 20
22.1786855867
 10
7.011101785
 20
22.1926328459
 10
7.0040844627
 20
22.2031501755
  0
LWPOLYLINE
  5
3F4
100
AcDbEntity
  8
CORPO_STAMPATO
100
AcDbPolyline
 62
250
  6
CONTINUOUS
 90
22
 70
0
 10
17.0339921284
 20
22.3323974223
 10
17.0492138963
 20
22.3361637248
 10
17.063992547
 20
22.3394607148
 10
17.0783170848
 20
22.3422859385
 10
17.092176863
 20
22.3446372956
 10
17.1055615904
 20
22.3465130384
 10
17.1184613247
 20
22.3479117705
 10
17.1308664564
 20
22.3488324468
 10
17.142767735
 20
22.3492743794
 10
17.154156303
 20
22.3492372399
 10
17.1650237003
 20
22.3487210564
 10
17.1753618473
 20
22.3477262125
 10
17.1851630571
 20
22.3462534478
 10
17.1944200406
 20
22.3443038571
 10
17.2031259128
 20
22.3418788905
 10
17.2112741997
 20
22.3389803512
 10
17.2188588428
 20
22.3356103945
 10
17.2258742021
 20
22.3317715263
 10
17.2323150609
 20
22.3274666011
 10
17.2381766299
 20
22.3226988202
 10
17.2434545503
 20
22.3174717288
 10
17.2475546416
 20
22.3125716811
  0
LWPOLYLINE
  5
3F5
100
AcDbEntity
  8
CORPO_STAMPATO
100
AcDbPolyline
 62
250
  6
CONTINUOUS
 90
10
 70
0
 10
16.4422750227
 20
22.6872314959
 10
16.4584062963
 20
22.6911575715
 10
16.474533763
 20
22.6943513308
 10
16.4906454463
 20
22.6968104022
 10
16.5067293816
 20
22.6985329594
 10
16.522773625
 20
22.6995177233
 10
16.5387662618
 20
22.6997639626
 10
16.5546954159
 20
22.6992714944
 10
16.5705492582
 20
22.6980406845
 10
16.5791093867
 20
22.6970649682
  0
LWPOLYLINE
  5
3F6
100
AcDbEntity
  8
290140600
100
AcDbPolyline
 62
250
  6
CONTINUOUS
 90
16
 70
0
 10
-1.8138189277
 20
17.8322971434
 10
-1.8472674573
 20
17.8257385803
 10
-1.8846193928
 20
17.8198141837
 10
-1.9254745266
 20
17.8145874308
 10
-1.9693951157
 20
17.8101143236
 10
-2.0159105727
 20
17.8064427892
 10
-2.0645225072
 20
17.8036121664
 10
-2.114710066
 20
17.8016527839
 10
-2.1659355141
 20
17.8005856355
 10
-2.2176499959
 20
17.8004221552
 10
-2.2692994159
 20
17.8011640946
 10
-2.320330376
 20
17.8028035042
 10
-2.3701961044
 20
17.8053228186
 10
-2.4183623142
 20
17.8086950447
 10
-2.4643129281
 20
17.8128840506
 10
-2.5075556076
 20
17.8178449532
  0
LWPOLYLINE
  5
3F7
100
AcDbEntity
  8
290140580
100
AcDbPolyline
 62
250
  6
CONTINUOUS
 90
16
 70
0
 10
-1.8138189277
 20
17.8322971434
 10
-1.8472674573
 20
17.8257385803
 10
-1.8846193928
 20
17.8198141837
 10
-1.9254745266
 20
17.8145874308
 10
-1.9693951157
 20
17.8101143236
 10
-2.0159105727
 20
17.8064427892
 10
-2.0645225072
 20
17.8036121664
 10
-2.114710066
 20
17.8016527839
 10
-2.1659355141
 20
17.8005856355
 10
-2.2176499959
 20
17.8004221552
 10
-2.2692994159
 20
17.8011640946
 10
-2.320330376
 20
17.8028035042
 10
-2.3701961044
 20
17.8053228186
 10
-2.4183623142
 20
17.8086950447
 10
-2.4643129281
 20
17.8128840506
 10
-2.5075556076
 20
17.8178449532
  0
LINE
  5
3F8
100
AcDbEntity
  8
290140600
100
AcDbLine
 62
7
  6
CONTINUOUS
 10
0.9601954063
 20
18.7875169884
 11
0.4713156135
 21
18.8495253963
  0
LINE
  5
3F9
100
AcDbEntity
  8
290140580
100
AcDbLine
 62
7
  6
CONTINUOUS
 10
0.9601954063
 20
18.7875169884
 11
0.4713156135
 21
18.8495253963
  0
LINE
  5
3FA
100
AcDbEntity
  8
290140600
100
AcDbLine
 62
250
  6
CONTINUOUS
 10
-18.6688778151
 20
21.6248961003
 11
-1.6846980213
 21
19.4706611238
  0
LINE
  5
3FB
100
AcDbEntity
  8
290140580
100
AcDbLine
 62
250
  6
CONTINUOUS
 10
-18.6688778151
 20
21.6248961003
 11
-1.6846980213
 21
19.4706611238
  0
LINE
  5
3FC
100
AcDbEntity
  8
268140580
100
AcDbLine
 62
7
  6
CONTINUOUS
 10
1.6130657126
 20
19.1163793257
 11
0.4623233689
 21
19.2623368836
  0
LWPOLYLINE
  5
3FD
100
AcDbEntity
  8
268140580
100
AcDbPolyline
 62
250
  6
CONTINUOUS
 90
8
 70
0
 10
-1.1320273385
 20
22.023378963
 10
-1.1244030959
 20
22.0187542454
 10
-1.1153187719
 20
22.0139933113
 10
-1.1059079235
 20
22.0098335159
 10
-1.0961963112
 20
22.0062862404
 10
-1.0862105446
 20
22.0033612052
 10
-1.0759780136
 20
22.0010664345
 10
-1.0655267706
 20
21.9994082188
  0
LWPOLYLINE
  5
3FE
100
AcDbEntity
  8
268140580
100
AcDbPolyline
 62
250
  6
CONTINUOUS
 90
8
 70
0
 10
-0.6791058552
 20
21.7302615819
 10
-0.6773382981
 20
21.7291347771
 10
-0.6674810778
 20
21.7234448401
 10
-0.6572035885
 20
21.7184881425
 10
-0.6465406061
 20
21.7142814563
 10
-0.6355282108
 20
21.7108390156
 10
-0.624203665
 20
21.7081724685
 10
-0.6126052874
 20
21.7062908377
  0
LINE
  5
3FF
100
AcDbEntity
  8
268140580
100
AcDbLine
 62
7
  6
CONTINUOUS
 10
-0.6791058553
 20
21.7302615819
 11
-1.1320273385
 21
22.023378963
  0
LINE
  5
400
100
AcDbEntity
  8
268140580
100
AcDbLine
 62
250
  6
CONTINUOUS
 10
-0.6126052874
 20
21.7062908377
 11
-1.0655267706
 21
21.9994082188
  0
LINE
  5
401
100
AcDbEntity
  8
268140580
100
AcDbLine
 62
250
  6
CONTINUOUS
 10
0.4658062923
 20
21.8051773943
 11
0.9187277756
 21
21.5120600132
  0
LINE
  5
402
100
AcDbEntity
  8
268140580
100
AcDbLine
 62
250
  6
CONTINUOUS
 10
0.736626244
 20
22.0134733081
 11
1.1895477272
 21
21.720355927
  0
LWPOLYLINE
  5
403
100
AcDbEntity
  8
268140580
100
AcDbPolyline
 62
250
  6
CONTINUOUS
 90
25
 70
0
 10
1.1895477272
 20
21.720355927
 10
1.2006839452
 20
21.7126454583
 10
1.2115361892
 20
21.7040713706
 10
1.2221044592
 20
21.6946336638
 10
1.2324152202
 20
21.6843129913
 10
1.2424420073
 20
21.6731286998
 10
1.2521054253
 20
21.6611388291
 10
1.2614013379
 20
21.6483353061
 10
1.2703338814
 20
21.6347262038
 10
1.2788360692
 20
21.6203937812
 10
1.2869034491
 20
21.6053311886
 10
1.2945404732
 20
21.5895452756
 10
1.3016935112
 20
21.5731388501
 10
1.3083578283
 20
21.55610658
 10
1.3145381593
 20
21.5384537975
 10
1.3201950784
 20
21.5202993074
 10
1.3253241766
 20
21.5016335765
 10
1.3299298629
 20
21.482466138
 10
1.333985939
 20
21.4629443968
 10
1.3374854673
 20
21.4430702199
 10
1.3404353854
 20
21.4228417403
 10
1.3428303073
 20
21.4024007617
 10
1.3446684377
 20
21.3817945519
 10
1.3459515718
 20
21.3609758431
 10
1.3466797097
 20
21.3399446352
  0
LWPOLYLINE
  5
404
100
AcDbEntity
  8
268140580
100
AcDbPolyline
 62
250
  6
CONTINUOUS
 90
25
 70
0
 10
0.9187277756
 20
21.5120600132
 10
0.9242838518
 20
21.50820667
 10
0.9297186731
 20
21.5039137356
 10
0.9350207412
 20
21.499185125
 10
0.9401803428
 20
21.4940238886
 10
0.9451843518
 20
21.48843735
 10
0.9500168481
 20
21.4824384649
 10
0.9546675829
 20
21.4760358482
 10
0.9591261863
 20
21.4692394894
 10
0.9633781481
 20
21.4620682057
 10
0.9674144081
 20
21.4545350692
 10
0.9712266934
 20
21.4466531885
 10
0.974803591
 20
21.438444796
 10
0.9781380195
 20
21.4299259761
 10
0.9812235875
 20
21.4211128799
 10
0.9840519339
 20
21.4120304464
 10
0.9866188175
 20
21.4026944483
 10
0.988919149
 20
21.3931257638
 10
0.9909460371
 20
21.3833594753
 10
0.9926970461
 20
21.3734189629
 10
0.9941714809
 20
21.3633215809
 10
0.9953677865
 20
21.353095022
 10
0.9962861071
 20
21.3427624566
 10
0.9969276317
 20
21.3323420886
 10
0.9972937668
 20
21.3218543672
  0
LWPOLYLINE
  5
405
100
AcDbEntity
  8
268140580
100
AcDbPolyline
 62
250
  6
CONTINUOUS
 90
19
 70
0
 10
0.4658062923
 20
21.8051773943
 10
0.4583213138
 20
21.8104930012
 10
0.4510962486
 20
21.816581905
 10
0.4441555441
 20
21.8234235027
 10
0.4375226855
 20
21.8309946446
 10
0.4312201162
 20
21.8392697122
 10
0.4252691622
 20
21.8482207054
 10
0.4196899596
 20
21.8578173368
 10
0.4145013866
 20
21.8680271345
 10
0.4097209998
 20
21.8788155518
 10
0.4053649744
 20
21.890146084
 10
0.4014480498
 20
21.9019803923
 10
0.3979834798
 20
21.914278433
 10
0.3949829873
 20
21.9269985935
 10
0.392456725
 20
21.9400978329
 10
0.390413241
 20
21.9535318273
 10
0.3888594497
 20
21.9672551205
 10
0.3878006089
 20
21.9812212771
 10
0.3872403011
 20
21.9953830402
  0
LINE
  5
406
100
AcDbEntity
  8
CORPO_STAMPATO
100
AcDbLine
 62
7
  6
CONTINUOUS
 10
8.2162472528
 20
19.9519106234
 11
6.9489358868
 21
21.6086999156
  0
LINE
  5
407
100
AcDbEntity
  8
268140580
100
AcDbLine
 62
7
  6
CONTINUOUS
 10
6.6233119776
 20
22.1518369166
 11
6.5934069444
 21
22.1909325486
  0
LWPOLYLINE
  5
408
100
AcDbEntity
  8
CORPO_STAMPATO
100
AcDbPolyline
 62
7
  6
CONTINUOUS
 90
34
 70
0
 10
7.0040844627
 20
22.2031501755
 10
7.0019749571
 20
22.2066471795
 10
6.9946005869
 20
22.2207262795
 10
6.9889928663
 20
22.2348441268
 10
6.9851554472
 20
22.2489989506
 10
6.9830846776
 20
22.2631925217
 10
6.9827837943
 20
22.2774041347
 10
6.9842555795
 20
22.2916352437
 10
6.9874972509
 20
22.3058843945
 10
6.9925036979
 20
22.3201265192
 10
6.9992776087
 20
22.3343606672
 10
7.007816295
 20
22.3485877892
 10
7.0181065812
 20
22.3627856685
 10
7.0301515495
 20
22.3769547344
 10
7.0439481177
 20
22.3910945576
 10
7.0594738642
 20
22.4051816344
 10
7.0767316841
 20
22.4192158095
 10
7.0957186823
 20
22.4331972381
 10
7.116403752
 20
22.4471028817
 10
7.1387892445
 20
22.4609323944
 10
7.1628728085
 20
22.4746861221
 10
7.1886162834
 20
22.4883420643
 10
7.2160232086
 20
22.5019004541
 10
7.2450900446
 20
22.5153610583
 10
7.275768012
 20
22.5287011776
 10
7.308058757
 20
22.5419201881
 10
7.3419606334
 20
22.5550187136
 10
7.3774199228
 20
22.5679759257
 10
7.4144391868
 20
22.5807916978
 10
7.4530158638
 20
22.5934661566
 10
7.4930885501
 20
22.6059788537
 10
7.534636778
 20
22.6183229728
 10
7.5776810153
 20
22.6305053303
 10
7.622221262
 20
22.642525926
  0
LINE
  5
409
100
AcDbEntity
  8
CORPO_STAMPATO
100
AcDbLine
 62
7
  6
CONTINUOUS
 10
19.6529311001
 20
2.8672735921
 11
19.6528557675
 21
2.8681740348
  0
LINE
  5
40A
100
AcDbEntity
  8
CORPO_STAMPATO
100
AcDbLine
 62
7
  6
CONTINUOUS
 10
19.3585429638
 20
16.3818974961
 11
19.3584676313
 21
16.3827979388
  0
LINE
  5
40B
100
AcDbEntity
  8
CORPO_STAMPATO
100
AcDbLine
 62
250
  6
CONTINUOUS
 10
19.3032650791
 20
16.3547496848
 11
19.32243482
 21
15.4747147688
  0
LINE
  5
40C
100
AcDbEntity
  8
CORPO_STAMPATO
100
AcDbLine
 62
250
  6
CONTINUOUS
 10
19.5976532153
 20
2.8401257808
 11
19.6168229562
 21
1.9600908648
  0
LINE
  5
40D
100
AcDbEntity
  8
CORPO_STAMPATO
100
AcDbLine
 62
7
  6
CONTINUOUS
 10
19.3585429618
 20
16.38189759
 11
19.3773147422
 21
15.5201320448
  0
LINE
  5
40E
100
AcDbEntity
  8
CORPO_STAMPATO
100
AcDbLine
 62
7
  6
CONTINUOUS
 10
19.652931098
 20
2.867273686
 11
19.6717028785
 21
2.0055081408
  0
LINE
  5
40F
100
AcDbEntity
  8
CORPO_STAMPATO
100
AcDbLine
 62
7
  6
CONTINUOUS
 10
19.6716056126
 20
2.0032028857
 11
19.6717028765
 21
2.0055082329
  0
LWPOLYLINE
  5
410
100
AcDbEntity
  8
CORPO_STAMPATO
100
AcDbPolyline
 62
250
  6
CONTINUOUS
 90
37
 70
0
 10
12.1764181233
 20
-16.6976281988
 10
12.2004319219
 20
-16.6701803322
 10
12.2238726583
 20
-16.6420193346
 10
12.2467291462
 20
-16.6131586258
 10
12.2689904078
 20
-16.5836120219
 10
12.2906458972
 20
-16.5533935378
 10
12.3116854947
 20
-16.5225173683
 10
12.3320992205
 20
-16.4909981165
 10
12.3518772629
 20
-16.4588508751
 10
12.3710102001
 20
-16.4260910264
 10
12.3894888895
 20
-16.3927342154
 10
12.4073045425
 20
-16.3587962764
 10
12.4244487432
 20
-16.3242933041
 10
12.4409133265
 20
-16.2892417176
 10
12.4566904386
 20
-16.2536582016
 10
12.4717726137
 20
-16.2175596354
 10
12.4861526826
 20
-16.1809631676
 10
12.4998237769
 20
-16.1438862385
 10
12.5127793862
 20
-16.1063465198
 10
12.5250133525
 20
-16.0683618704
 10
12.5365198487
 20
-16.0299503653
 10
12.5472933832
 20
-15.991130318
 10
12.5573288389
 20
-15.9519202235
 10
12.5666214522
 20
-15.9123387109
 10
12.5751667913
 20
-15.872404572
 10
12.5829608103
 20
-15.8321368012
 10
12.5899998092
 20
-15.7915545534
 10
12.5962804094
 20
-15.7506770967
 10
12.6017996553
 20
-15.709523808
 10
12.6065549227
 20
-15.6681143226
 10
12.6105438814
 20
-15.6264684935
 10
12.6137646632
 20
-15.584606247
 10
12.6162157766
 20
-15.5425473739
 10
12.6178960024
 20
-15.5003116767
 10
12.6188045363
 20
-15.4579191709
 10
12.6189410033
 20
-15.4153900794
 10
12.6183053694
 20
-15.3727446234
  0
LWPOLYLINE
  5
411
100
AcDbEntity
  8
CORPO_STAMPATO
100
AcDbPolyline
 62
7
  6
CONTINUOUS
 90
34
 70
0
 10
12.3264961648
 20
-16.6027504364
 10
12.3486198836
 20
-16.5775328558
 10
12.3758680135
 20
-16.5450732261
 10
12.4024313692
 20
-16.5118244031
 10
12.4282910591
 20
-16.4777992783
 10
12.453427161
 20
-16.4430139663
 10
12.4778184224
 20
-16.4074879912
 10
12.5014492239
 20
-16.3712337498
 10
12.5243019466
 20
-16.3342681882
 10
12.5463542958
 20
-16.2966174651
 10
12.5675914277
 20
-16.2582969099
 10
12.5879988617
 20
-16.2193230361
 10
12.6075569853
 20
-16.1797235555
 10
12.6262529121
 20
-16.1395147904
 10
12.644074409
 20
-16.098713389
 10
12.6610047786
 20
-16.057347129
 10
12.6770339126
 20
-16.0154301031
 10
12.6921501227
 20
-15.9729818195
 10
12.7063366334
 20
-15.9300379369
 10
12.719585832
 20
-15.8866108741
 10
12.7318873129
 20
-15.8427223972
 10
12.7432239635
 20
-15.7984225778
 10
12.7535896677
 20
-15.7537282935
 10
12.7629777515
 20
-15.7086576416
 10
12.7713755243
 20
-15.6632633355
 10
12.7787792874
 20
-15.6175619754
 10
12.7851844996
 20
-15.571571969
 10
12.79058295
 20
-15.5253497158
 10
12.7949729529
 20
-15.47891298
 10
12.7983523694
 20
-15.4322792946
 10
12.8007177568
 20
-15.3855045893
 10
12.8020689682
 20
-15.3386184314
 10
12.8024069454
 20
-15.2916266492
 10
12.8019017021
 20
-15.2518026615
  0
LINE
  5
412
100
AcDbEntity
  8
CORPO_STAMPATO
100
AcDbLine
 62
250
  6
CONTINUOUS
 10
11.9775676349
 20
-16.9199113446
 11
12.1764181233
 21
-16.6976281988
  0
LINE
  5
413
100
AcDbEntity
  8
CORPO_STAMPATO
100
AcDbLine
 62
7
  6
CONTINUOUS
 10
12.1276434418
 20
-16.8250360944
 11
12.3264939302
 21
-16.6027529486
  0
LINE
  5
414
100
AcDbEntity
  8
CORPO_STAMPATO
100
AcDbLine
 62
250
  6
CONTINUOUS
 10
12.1224912505
 20
-16.8306445508
 11
12.1276434418
 21
-16.8250360944
  0
LWPOLYLINE
  5
415
100
AcDbEntity
  8
CORPO_STAMPATO
100
AcDbPolyline
 62
250
  6
CONTINUOUS
 90
13
 70
0
 10
12.1764181233
 20
-16.6976281988
 10
12.192035969
 20
-16.6922252384
 10
12.2072002009
 20
-16.6862607174
 10
12.2218995581
 20
-16.6797390652
 10
12.2361231248
 20
-16.6726651248
 10
12.2498603385
 20
-16.6650441492
 10
12.2631009978
 20
-16.656881798
 10
12.2758352701
 20
-16.6481841325
 10
12.2880536989
 20
-16.6389576116
 10
12.2997472107
 20
-16.629209087
 10
12.3109071219
 20
-16.618945798
 10
12.3215251451
 20
-16.6081753663
 10
12.3264939302
 20
-16.6027529486
  0
LWPOLYLINE
  5
416
100
AcDbEntity
  8
CORPO_STAMPATO
100
AcDbPolyline
 62
250
  6
CONTINUOUS
 90
12
 70
0
 10
11.9775676349
 20
-16.9199113446
 10
11.9931854805
 20
-16.9145083842
 10
12.0083497124
 20
-16.9085438633
 10
12.0230490695
 20
-16.9020222111
 10
12.0372726362
 20
-16.8949482707
 10
12.0510098498
 20
-16.8873272952
 10
12.064250509
 20
-16.879164944
 10
12.0769847813
 20
-16.8704672785
 10
12.0892032101
 20
-16.8612407577
 10
12.1008967219
 20
-16.8514922331
 10
12.1120566331
 20
-16.8412289442
 10
12.1224912505
 20
-16.8306445508
  0
LWPOLYLINE
  5
417
100
AcDbEntity
  8
CORPO_STAMPATO
100
AcDbPolyline
 62
250
  6
CONTINUOUS
 90
16
 70
0
 10
11.694618285
 20
-17.1082975899
 10
11.7108540408
 20
-17.1027106352
 10
11.732272329
 20
-17.0945579217
 10
11.7533946386
 20
-17.0856132995
 10
11.7742031038
 20
-17.0758843343
 10
11.7946801243
 20
-17.0653792551
 10
11.81480838
 20
-17.0541069474
 10
11.8345708458
 20
-17.0420769455
 10
11.8539508061
 20
-17.0292994249
 10
11.8729318689
 20
-17.015785193
 10
11.8914979792
 20
-17.0015456807
 10
11.9096334336
 20
-16.9865929321
 10
11.9273228924
 20
-16.9709395946
 10
11.9445513934
 20
-16.9545989083
 10
11.9613043643
 20
-16.9375846946
 10
11.9775676349
 20
-16.9199113446
  0
LINE
  5
418
100
AcDbEntity
  8
CORPO_STAMPATO
100
AcDbLine
 62
250
  6
CONTINUOUS
 10
11.9775676349
 20
-16.9199113446
 11
9.0404542746
 21
-17.8853747439
  0
LINE
  5
419
100
AcDbEntity
  8
CORPO_STAMPATO
100
AcDbLine
 62
7
  6
CONTINUOUS
 10
11.694618285
 20
-17.1082975899
 11
8.9195899993
 21
-18.0204817358
  0
LWPOLYLINE
  5
41A
100
AcDbEntity
  8
290140580
100
AcDbPolyline
 62
250
  6
CONTINUOUS
 90
16
 70
0
 10
-0.9394661461
 20
-22.3070547838
 10
-0.9728240813
 20
-22.3177773379
 10
-1.0100862771
 20
-22.3278211059
 10
-1.0508534945
 20
-22.3370784756
 10
-1.0946889405
 20
-22.3454502606
 10
-1.1411229481
 20
-22.3528467629
 10
-1.1896580087
 20
-22.3591887341
 10
-1.2397741021
 20
-22.3644082242
 10
-1.2909342685
 20
-22.3684493099
 10
-1.3425903615
 20
-22.3712686937
 10
-1.3941889215
 20
-22.3728361679
 10
-1.4451771048
 20
-22.373134938
 10
-1.495008608
 20
-22.372161803
 10
-1.5431495203
 20
-22.3699271895
 10
-1.5890840447
 20
-22.3664550397
 10
-1.632320024
 20
-22.3617825553
  0
LWPOLYLINE
  5
41B
100
AcDbEntity
  8
290140600
100
AcDbPolyline
 62
250
  6
CONTINUOUS
 90
16
 70
0
 10
-0.9394661461
 20
-22.3070547838
 10
-0.9728240813
 20
-22.3177773379
 10
-1.0100862771
 20
-22.3278211059
 10
-1.0508534945
 20
-22.3370784756
 10
-1.0946889405
 20
-22.3454502606
 10
-1.1411229481
 20
-22.3528467629
 10
-1.1896580087
 20
-22.3591887341
 10
-1.2397741021
 20
-22.3644082242
 10
-1.2909342685
 20
-22.3684493099
 10
-1.3425903615
 20
-22.3712686937
 10
-1.3941889215
 20
-22.3728361679
 10
-1.4451771048
 20
-22.373134938
 10
-1.495008608
 20
-22.372161803
 10
-1.5431495203
 20
-22.3699271895
 10
-1.5890840447
 20
-22.3664550397
 10
-1.632320024
 20
-22.3617825553
  0
LINE
  5
41C
100
AcDbEntity
  8
CORPO_STAMPATO
100
AcDbLine
 62
250
  6
CONTINUOUS
 10
3.9735041382
 20
-19.3040721064
 11
12.1764181233
 21
-16.6976281988
  0
LINE
  5
41D
100
AcDbEntity
  8
CORPO_STAMPATO
100
AcDbLine
 62
7
  6
CONTINUOUS
 10
3.9977871789
 20
-20.418845846
 11
7.8385000375
 21
-19.2289679682
  0
LINE
  5
41E
100
AcDbEntity
  8
268140580
100
AcDbLine
 62
7
  6
CONTINUOUS
 10
7.5347996023
 20
-19.6922828918
 11
4.0055079847
 21
-20.7732887504
  0
LINE
  5
41F
100
AcDbEntity
  8
268140580
100
AcDbLine
 62
7
  6
CONTINUOUS
 10
6.1401724572
 20
-20.776931257
 11
4.0195533195
 21
-21.4180749848
  0
LINE
  5
420
100
AcDbEntity
  8
268140580
100
AcDbLine
 62
7
  6
CONTINUOUS
 10
2.981843351
 20
-21.4860184941
 11
2.500496616
 21
-21.6233565009
  0
LWPOLYLINE
  5
421
100
AcDbEntity
  8
268140580
100
AcDbPolyline
 62
250
  6
CONTINUOUS
 90
31
 70
0
 10
0.736626244
 20
22.0134733081
 10
0.7286189758
 20
22.0112264525
 10
0.7200800628
 20
22.0090550364
 10
0.7110324336
 20
22.0069650687
 10
0.7014995253
 20
22.0049621597
 10
0.6915078897
 20
22.0030520745
 10
0.6810875412
 20
22.0012406271
 10
0.6702681759
 20
21.9995329531
 10
0.659078405
 20
21.9979335429
 10
0.6475486038
 20
21.996446744
 10
0.6357101515
 20
21.9950766189
 10
0.6235956716
 20
21.9938269584
 10
0.6112386714
 20
21.9927012248
 10
0.5986731452
 20
21.9917025128
 10
0.5859334284
 20
21.9908335496
 10
0.5730544156
 20
21.9900967157
 10
0.5600713928
 20
21.9894940313
 10
0.5470199738
 20
21.989027151
 10
0.5339359715
 20
21.9886973564
 10
0.520855267
 20
21.9885055518
 10
0.5078137113
 20
21.9884522627
 10
0.4948470587
 20
21.9885376352
 10
0.4819908384
 20
21.9887614357
 10
0.4692803165
 20
21.9891230506
 10
0.4567503974
 20
21.9896214858
 10
0.4444354661
 20
21.9902553709
 10
0.4323692429
 20
21.9910229675
 10
0.4205847519
 20
21.9919221736
 10
0.4091142833
 20
21.9929505256
 10
0.3979893001
 20
21.994105203
 10
0.3872403011
 20
21.9953830402
  0
LINE
  5
422
100
AcDbEntity
  8
268140580
100
AcDbLine
 62
250
  6
CONTINUOUS
 10
2.502849293
 20
22.928091215
 11
0.7195374413
 21
22.4277176733
  0
LWPOLYLINE
  5
423
100
AcDbEntity
  8
268140580
100
AcDbPolyline
 62
250
  6
CONTINUOUS
 90
28
 70
0
 10
1.3466797097
 20
21.3399446352
 10
1.3377395035
 20
21.3374500283
 10
1.3281477658
 20
21.3350503381
 10
1.3179369518
 20
21.3327536844
 10
1.3071416119
 20
21.3305678384
 10
1.2957982739
 20
21.3285001962
 10
1.2839453202
 20
21.3265577541
 10
1.2716228574
 20
21.3247470847
 10
1.2588725808
 20
21.3230743147
 10
1.2457376333
 20
21.3215451044
 10
1.2322624595
 20
21.3201646279
 10
1.218492655
 20
21.3189375565
 10
1.2044748124
 20
21.3178680421
 10
1.1902563639
 20
21.3169597037
 10
1.17588542
 20
21.3162156147
 10
1.1614106075
 20
21.315638293
 10
1.1468809046
 20
21.3152296919
 10
1.1323454751
 20
21.3149911942
 10
1.1178535025
 20
21.3149236067
 10
1.1034540229
 20
21.3150271583
 10
1.0891957596
 20
21.3153014984
 10
1.0751269581
 20
21.3157456988
 10
1.0612952227
 20
21.3163582565
 10
1.0477473557
 20
21.3171370988
 10
1.0345291988
 20
21.3180795904
 10
1.0216854779
 20
21.319182542
 10
1.0092596522
 20
21.3204422218
 10
0.9972937668
 20
21.3218543672
  0
LINE
  5
424
100
AcDbEntity
  8
CORPO_STAMPATO
100
AcDbLine
 62
7
  6
CONTINUOUS
 10
7.622221262
 20
22.642525926
 11
10.5833621569
 21
23.4303627611
  0
LINE
  5
425
100
AcDbEntity
  8
CORPO_STAMPATO
100
AcDbLine
 62
250
  6
CONTINUOUS
 10
9.5011512795
 20
23.5676279428
 11
6.1142932843
 21
22.6974159982
  0
LINE
  5
426
100
AcDbEntity
  8
CORPO_STAMPATO
100
AcDbLine
 62
7
  6
CONTINUOUS
 10
9.2633012526
 20
23.553950358
 11
6.0708955422
 21
22.7337005616
  0
LWPOLYLINE
  5
427
100
AcDbEntity
  8
268140580
100
AcDbPolyline
 62
250
  6
CONTINUOUS
 90
30
 70
0
 10
0.7195374413
 20
22.4277176733
 10
0.7109907903
 20
22.425544607
 10
0.701937264
 20
22.4234537111
 10
0.6924016775
 20
22.4214507166
 10
0.6824101672
 20
22.4195411136
 10
0.671990119
 20
22.4177301363
 10
0.6611700936
 20
22.4160227483
 10
0.649979748
 20
22.4144236295
 10
0.6384497541
 20
22.412937163
 10
0.6266117148
 20
22.4115674231
 10
0.6144980773
 20
22.4103181641
 10
0.6021420444
 20
22.4091928102
 10
0.589577483
 20
22.4081944459
 10
0.5768388317
 20
22.4073258076
 10
0.5639610063
 20
22.4065892763
 10
0.550979304
 20
22.4059868706
 10
0.5379293067
 20
22.4055202417
 10
0.5248467836
 20
22.4051906687
 10
0.511767593
 20
22.4049990549
 10
0.498727584
 20
22.4049459255
 10
0.4857624983
 20
22.4050314261
 10
0.4729078724
 20
22.4052553223
 10
0.46019894
 20
22.4056170005
 10
0.4476705352
 20
22.4061154693
 10
0.4353569977
 20
22.4067493625
 10
0.4232920779
 20
22.4075169426
 10
0.4115088449
 20
22.4084161057
 10
0.4000395959
 20
22.4094443873
 10
0.3889157671
 20
22.410598969
 10
0.3781678482
 20
22.411876686
  0
LWPOLYLINE
  5
428
100
AcDbEntity
  8
268140580
100
AcDbPolyline
 62
250
  6
CONTINUOUS
 90
16
 70
0
 10
2.1713132636
 20
20.9852043482
 10
2.1709538446
 20
20.9851202873
 10
2.1705594198
 20
20.9850435144
 10
2.1701299891
 20
20.9849740297
 10
2.169659082
 20
20.9849114005
 10
2.1691531691
 20
20.9848560594
 10
2.1686316615
 20
20.984809304
 10
2.1680945593
 20
20.9847711343
 10
2.1675418626
 20
20.9847415503
 10
2.1669929825
 20
20.9847218496
 10
2.1664479191
 20
20.9847120322
 10
2.1659066724
 20
20.9847120981
 10
2.1653886537
 20
20.9847233448
 10
2.1649003334
 20
20.9847462049
 10
2.164435241
 20
20.9847802459
 10
2.1639933767
 20
20.9848254678
  0
LINE
  5
429
100
AcDbEntity
  8
290140600
100
AcDbLine
 62
7
  6
CONTINUOUS
 10
0.0422754049
 20
20.1109315776
 11
-17.0222821506
 21
22.2753614877
  0
LINE
  5
42A
100
AcDbEntity
  8
290140580
100
AcDbLine
 62
7
  6
CONTINUOUS
 10
0.0422754049
 20
20.1109315776
 11
-17.0222821506
 21
22.2753614877
  0
LINE
  5
42B
100
AcDbEntity
  8
268140580
100
AcDbLine
 62
7
  6
CONTINUOUS
 10
1.2584702281
 20
20.6471657914
 11
1.0113075771
 21
20.6785153434
  0
LINE
  5
42C
100
AcDbEntity
  8
268140580
100
AcDbLine
 62
7
  6
CONTINUOUS
 10
-0.5200254858
 20
20.8727461679
 11
-14.2214265753
 21
22.6106009134
  0
LINE
  5
42D
100
AcDbEntity
  8
268140580
100
AcDbLine
 62
7
  6
CONTINUOUS
 10
-15.7527596382
 20
22.8048317379
 11
-15.9999222892
 21
22.8361812899
  0
LINE
  5
42E
100
AcDbEntity
  8
268140580
100
AcDbLine
 62
7
  6
CONTINUOUS
 10
-10.3831965226
 20
22.2741707781
 11
-3.7677945245
 21
21.4350881412
  0
LINE
  5
42F
100
AcDbEntity
  8
268140580
100
AcDbLine
 62
250
  6
CONTINUOUS
 10
2.1578070532
 20
20.9827295987
 11
2.0954021755
 21
20.9906448924
  0
LINE
  5
430
100
AcDbEntity
  8
268140580
100
AcDbLine
 62
250
  6
CONTINUOUS
 10
-0.6313411751
 20
21.3364988558
 11
-2.9418533588
 21
21.6295589989
  0
LINE
  5
431
100
AcDbEntity
  8
268140580
100
AcDbLine
 62
250
  6
CONTINUOUS
 10
-10.5115257749
 20
22.5896791387
 11
-13.1373319769
 21
22.9227304624
  0
LINE
  5
432
100
AcDbEntity
  8
268140580
100
AcDbLine
 62
250
  6
CONTINUOUS
 10
2.1639933767
 20
20.9848254678
 11
2.1015884989
 21
20.9927407615
  0
LINE
  5
433
100
AcDbEntity
  8
268140580
100
AcDbLine
 62
250
  6
CONTINUOUS
 10
-0.6314040953
 20
21.3393873648
 11
-2.9357156248
 21
21.6316610309
  0
LINE
  5
434
100
AcDbEntity
  8
268140580
100
AcDbLine
 62
250
  6
CONTINUOUS
 10
-10.5115886951
 20
22.5925676478
 11
-13.1311456535
 21
22.9248263315
  0
LINE
  5
435
100
AcDbEntity
  8
268140580
100
AcDbLine
 62
250
  6
CONTINUOUS
 10
0.9972937668
 20
21.3218543672
 11
-0.5340392962
 21
21.5160851917
  0
LINE
  5
436
100
AcDbEntity
  8
268140580
100
AcDbLine
 62
250
  6
CONTINUOUS
 10
-14.2354403856
 20
23.2539399373
 11
-15.7667734486
 21
23.4481707618
  0
LINE
  5
437
100
AcDbEntity
  8
268140580
100
AcDbLine
 62
7
  6
CONTINUOUS
 10
-13.2396934121
 20
23.1869093305
 11
-11.7367000902
 21
22.9962730547
  0
LINE
  5
438
100
AcDbEntity
  8
268140580
100
AcDbLine
 62
7
  6
CONTINUOUS
 10
1.9930407403
 20
21.2548237604
 11
2.7706166609
 21
21.1561977882
  0
LINE
  5
439
100
AcDbEntity
  8
268140580
100
AcDbLine
 62
250
  6
CONTINUOUS
 10
0.9187277756
 20
21.5120600132
 11
-0.6126052874
 21
21.7062908377
  0
LINE
  5
43A
100
AcDbEntity
  8
268140580
100
AcDbLine
 62
250
  6
CONTINUOUS
 10
-14.3140063769
 20
23.4441455832
 11
-15.8453394398
 21
23.6383764077
  0
LWPOLYLINE
  5
43B
100
AcDbEntity
  8
268140580
100
AcDbPolyline
 62
250
  6
CONTINUOUS
 90
15
 70
0
 10
2.1589406166
 20
20.9810126101
 10
2.1600939356
 20
20.9808619474
 10
2.1612963098
 20
20.9807647095
 10
2.1625485651
 20
20.9807219727
 10
2.1638917777
 20
20.9807398348
 10
2.1652852655
 20
20.9808128468
 10
2.1666063009
 20
20.9809249829
 10
2.1677924943
 20
20.9810828683
 10
2.1689038579
 20
20.981280271
 10
2.1700018065
 20
20.9814825661
 10
2.1711862667
 20
20.9816685359
 10
2.1723572922
 20
20.981859106
 10
2.1732762174
 20
20.9820838069
 10
2.1737783001
 20
20.9823653236
 10
2.1742650156
 20
20.9829876155
  0
LWPOLYLINE
  5
43C
100
AcDbEntity
  8
CORPO_STAMPATO
100
AcDbPolyline
 62
7
  6
CONTINUOUS
 90
50
 70
0
 10
19.6528557705
 20
2.8681739025
 10
19.6441429575
 20
2.9246341677
 10
19.6337176891
 20
2.9855351057
 10
19.6222468827
 20
3.046303442
 10
19.6097356481
 20
3.106914259
 10
19.5961896074
 20
3.1673418441
 10
19.5816149711
 20
3.2275596891
 10
19.5660177926
 20
3.2875435534
 10
19.5494049181
 20
3.3472674676
 10
19.5317845293
 20
3.4067025
 10
19.5131646443
 20
3.4658222572
 10
19.4935526432
 20
3.5246036238
 10
19.4729564077
 20
3.5830227928
 10
19.4513842069
 20
3.6410557603
 10
19.428844985
 20
3.6986776804
 10
19.4053481071
 20
3.7558636958
 10
19.380900179
 20
3.8125961846
 10
19.3555135987
 20
3.8688446621
 10
19.3292078965
 20
3.9245657779
 10
19.3019988187
 20
3.9797277884
 10
19.2738939068
 20
4.0343167553
 10
19.2449014406
 20
4.0883167264
 10
19.2150337804
 20
4.1417042519
 10
19.1843026243
 20
4.1944578189
 10
19.1527148699
 20
4.2465642185
 10
19.1202759307
 20
4.2980118301
 10
19.0870048975
 20
4.3487675801
 10
19.0529302384
 20
4.3987870896
 10
19.0180697136
 20
4.4480447862
 10
18.9824344035
 20
4.496525342
 10
18.9460445318
 20
4.544201547
 10
18.9089229852
 20
4.5910445137
 10
18.8710779371
 20
4.6370448579
 10
18.8325071526
 20
4.6822043499
 10
18.7932139845
 20
4.7265160836
 10
18.7532248324
 20
4.7699472185
 10
18.7125721938
 20
4.8124610456
 10
18.6712671164
 20
4.8540451737
 10
18.6293316725
 20
4.8946764301
 10
18.5868175383
 20
4.934305895
 10
18.5437682719
 20
4.9728971795
 10
18.5001783647
 20
5.010459265
 10
18.4560259833
 20
5.047011505
 10
18.4113125422
 20
5.0825503349
 10
18.3660714712
 20
5.1170467122
 10
18.3203279211
 20
5.1504800264
 10
18.2740753056
 20
5.1828527556
 10
18.2273567618
 20
5.2141323007
 10
18.1802750295
 20
5.2442522659
 10
18.1688124725
 20
5.2512504873
  0
LWPOLYLINE
  5
43D
100
AcDbEntity
  8
CORPO_STAMPATO
100
AcDbPolyline
 62
7
  6
CONTINUOUS
 90
50
 70
0
 10
19.3584676343
 20
16.3827978065
 10
19.3497548212
 20
16.4392580722
 10
19.3393295527
 20
16.5001590107
 10
19.3278587462
 20
16.5609273476
 10
19.3153475115
 20
16.6215381651
 10
19.3018014706
 20
16.6819657507
 10
19.2872268341
 20
16.7421835962
 10
19.2716296554
 20
16.8021674611
 10
19.2550167807
 20
16.8618913757
 10
19.2373963917
 20
16.9213264086
 10
19.2187765064
 20
16.9804461663
 10
19.199164505
 20
17.0392275334
 10
19.1785682693
 20
17.0976467029
 10
19.1569960682
 20
17.1556796708
 10
19.134456846
 20
17.2133015913
 10
19.1109599678
 20
17.2704876072
 10
19.0865120394
 20
17.3272200964
 10
19.0611254587
 20
17.3834685743
 10
19.0348197561
 20
17.4391896905
 10
19.0076106779
 20
17.4943517014
 10
18.9795057656
 20
17.5489406686
 10
18.9505132991
 20
17.6029406401
 10
18.9206456384
 20
17.656328166
 10
18.8899144819
 20
17.7090817333
 10
18.858326727
 20
17.7611881332
 10
18.8258877874
 20
17.8126357452
 10
18.7926167537
 20
17.8633914954
 10
18.7585420942
 20
17.9134110051
 10
18.7236815689
 20
17.9626687021
 10
18.6880462582
 20
18.011149258
 10
18.6516563861
 20
18.0588254632
 10
18.6145348389
 20
18.1056684302
 10
18.5766897903
 20
18.1516687745
 10
18.5381190053
 20
18.1968282666
 10
18.4988258366
 20
18.2411400004
 10
18.4588366841
 20
18.2845711355
 10
18.4181840448
 20
18.3270849627
 10
18.3768789669
 20
18.3686690908
 10
18.3349435225
 20
18.4093003472
 10
18.2924293877
 20
18.4489298122
 10
18.2493801207
 20
18.4875210967
 10
18.2057902129
 20
18.5250831821
 10
18.161637831
 20
18.5616354221
 10
18.1169243893
 20
18.5971742519
 10
18.0716833178
 20
18.6316706291
 10
18.0259397671
 20
18.6651039431
 10
17.979687151
 20
18.6974766722
 10
17.9329686066
 20
18.7287562172
 10
17.8858868737
 20
18.7588761821
 10
17.8744243362
 20
18.7658743915
  0
LWPOLYLINE
  5
43E
100
AcDbEntity
  8
268140580
100
AcDbPolyline
 62
250
  6
CONTINUOUS
 90
3
 70
0
 10
3.2470774753
 20
-22.8731660677
 10
3.233089236
 20
-22.8787300438
 10
3.2188416574
 20
-22.8834294331
  0
LINE
  5
43F
100
AcDbEntity
  8
268140580
100
AcDbLine
 62
7
  6
CONTINUOUS
 10
-2.3629409451
 20
-23.7421555228
 11
-1.4642418394
 21
-23.4607554488
  0
LWPOLYLINE
  5
440
100
AcDbEntity
  8
268140580
100
AcDbPolyline
 62
250
  6
CONTINUOUS
 90
12
 70
0
 10
2.910556854
 20
-23.1212463165
 10
2.9188152947
 20
-23.1186652282
 10
2.9263640046
 20
-23.116006398
 10
2.9331774417
 20
-23.1132788225
 10
2.9392325516
 20
-23.1104917311
 10
2.9445088464
 20
-23.1076545544
 10
2.9489884729
 20
-23.1047768926
 10
2.952656274
 20
-23.1018684829
 10
2.9554998395
 20
-23.0989391664
 10
2.957509548
 20
-23.095998855
 10
2.9586785998
 20
-23.0930574978
 10
2.9590063706
 20
-23.0902451875
  0
LWPOLYLINE
  5
441
100
AcDbEntity
  8
268140580
100
AcDbPolyline
 62
250
  6
CONTINUOUS
 90
12
 70
0
 10
2.9186271883
 20
-23.4917352011
 10
2.926885612
 20
-23.4891541185
 10
2.9344343095
 20
-23.4864952937
 10
2.9412477382
 20
-23.4837677233
 10
2.9473028437
 20
-23.4809806367
 10
2.9525791375
 20
-23.4781434643
 10
2.9570587662
 20
-23.4752658063
 10
2.9607265723
 20
-23.4723573998
 10
2.9635701449
 20
-23.4694280859
 10
2.9655798623
 20
-23.4664877765
 10
2.9667489244
 20
-23.4635464207
 10
2.9670767049
 20
-23.4607340721
  0
LINE
  5
442
100
AcDbEntity
  8
268140580
100
AcDbLine
 62
250
  6
CONTINUOUS
 10
3.4366821093
 20
-22.5387323451
 11
4.0402135068
 21
-22.3665325708
  0
LINE
  5
443
100
AcDbEntity
  8
268140580
100
AcDbLine
 62
7
  6
CONTINUOUS
 10
3.2282234368
 20
-22.8812786642
 11
3.8288776193
 21
-22.7098998178
  0
LINE
  5
444
100
AcDbEntity
  8
268140580
100
AcDbLine
 62
7
  6
CONTINUOUS
 10
-3.3786266789
 20
22.8854391679
 11
1.4373299814
 21
24.2522460328
  0
LINE
  5
445
100
AcDbEntity
  8
268140580
100
AcDbLine
 62
250
  6
CONTINUOUS
 10
2.2973157939
 20
23.1988496099
 11
0.5220202921
 21
22.7007253489
  0
LINE
  5
446
100
AcDbEntity
  8
268140580
100
AcDbLine
 62
250
  6
CONTINUOUS
 10
-1.0093127709
 20
22.8949561734
 11
0.765982731
 21
23.3930804344
  0
LINE
  5
447
100
AcDbEntity
  8
268140580
100
AcDbLine
 62
7
  6
CONTINUOUS
 10
-1.0728088844
 20
22.8904587696
 11
0.7024866174
 21
23.3885830306
  0
LINE
  5
448
100
AcDbEntity
  8
268140580
100
AcDbLine
 62
7
  6
CONTINUOUS
 10
0.7467975068
 20
24.3398316111
 11
-3.1022581104
 21
23.2598378957
  0
LWPOLYLINE
  5
449
100
AcDbEntity
  8
268140580
100
AcDbPolyline
 62
250
  6
CONTINUOUS
 90
8
 70
0
 10
-1.0728088844
 20
22.8904587696
 10
-1.071379129
 20
22.8908525983
 10
-1.0613247906
 20
22.8932156852
 10
-1.0511168113
 20
22.8949114619
 10
-1.0407831703
 20
22.8959352802
 10
-1.0303521914
 20
22.896284334
 10
-1.0198524652
 20
22.8959576666
 10
-1.0093127709
 20
22.8949561734
  0
LWPOLYLINE
  5
44A
100
AcDbEntity
  8
268140580
100
AcDbPolyline
 62
7
  6
CONTINUOUS
 90
8
 70
0
 10
1.8486498164
 20
23.5197392634
 10
1.8707324192
 20
23.5255780102
 10
1.8927922718
 20
23.5300344188
 10
1.9148293742
 20
23.5331084892
 10
1.9368919958
 20
23.5348035062
 10
1.9589318671
 20
23.535116185
 10
1.9808041806
 20
23.5340366716
 10
1.9958116289
 20
23.5324683699
  0
LINE
  5
44B
100
AcDbEntity
  8
268140580
100
AcDbLine
 62
250
  6
CONTINUOUS
 10
0.7024866174
 20
23.3885830306
 11
0.7058299157
 21
23.3894262864
  0
LWPOLYLINE
  5
44C
100
AcDbEntity
  8
268140580
100
AcDbPolyline
 62
7
  6
CONTINUOUS
 90
7
 70
0
 10
0.7467975068
 20
24.3398316111
 10
0.7595629595
 20
24.3429659623
 10
0.7723132837
 20
24.3451702225
 10
0.7850484793
 20
24.3464443916
 10
0.797807008
 20
24.3467911593
 10
0.810550408
 20
24.3462078359
 10
0.8177966407
 20
24.3454518588
  0
LWPOLYLINE
  5
44D
100
AcDbEntity
  8
268140580
100
AcDbPolyline
 62
250
  6
CONTINUOUS
 90
7
 70
0
 10
0.7058299157
 20
23.3894262864
 10
0.7139590885
 20
23.3913376176
 10
0.7241693168
 20
23.3930344816
 10
0.734505268
 20
23.3940590741
 10
0.7449385874
 20
23.39440859
 10
0.7554406747
 20
23.3940820768
 10
0.765982731
 20
23.3930804344
  0
LWPOLYLINE
  5
44E
100
AcDbEntity
  8
268140580
100
AcDbPolyline
 62
250
  6
CONTINUOUS
 90
6
 70
0
 10
2.2973157939
 20
23.1988496099
 10
2.305876517
 20
23.2008394899
 10
2.3144221205
 20
23.2020022169
 10
2.3229240091
 20
23.2023339002
 10
2.3313537339
 20
23.2018334299
 10
2.3327588645
 20
23.201668034
  0
LWPOLYLINE
  5
44F
100
AcDbEntity
  8
268140580
100
AcDbPolyline
 62
7
  6
CONTINUOUS
 90
8
 70
0
 10
-2.839976991
 20
24.1458288683
 10
-2.8549844392
 20
24.1473971701
 10
-2.8768567527
 20
24.1484766835
 10
-2.8988966241
 20
24.1481640046
 10
-2.9209592456
 20
24.1464689876
 10
-2.9429963481
 20
24.1433949172
 10
-2.9650562006
 20
24.1389385086
 10
-2.9871388034
 20
24.1330997619
  0
LWPOLYLINE
  5
450
100
AcDbEntity
  8
268140580
100
AcDbPolyline
 62
250
  6
CONTINUOUS
 90
6
 70
0
 10
0.8014792671
 20
23.3958920964
 10
0.800020671
 20
23.3960642544
 10
0.7915909462
 20
23.3965647247
 10
0.7830890575
 20
23.3962330414
 10
0.774543454
 20
23.3950703144
 10
0.765982731
 20
23.3930804344
  0
LWPOLYLINE
  5
451
100
AcDbEntity
  8
268140580
100
AcDbPolyline
 62
250
  6
CONTINUOUS
 90
6
 70
0
 10
-14.4312548853
 20
25.3279776664
 10
-14.4327134814
 20
25.3281498245
 10
-14.4411432062
 20
25.3286502947
 10
-14.4496450949
 20
25.3283186114
 10
-14.4581906984
 20
25.3271558844
 10
-14.4667514214
 20
25.3251660045
  0
LINE
  5
452
100
AcDbEntity
  8
268140580
100
AcDbLine
 62
250
  6
CONTINUOUS
 10
2.3327588645
 20
23.201668034
 11
2.3328155046
 21
23.2016608693
  0
LINE
  5
453
100
AcDbEntity
  8
268140580
100
AcDbLine
 62
250
  6
CONTINUOUS
 10
-12.8999752879
 20
25.1337536041
 11
-12.8999186478
 21
25.1337464393
  0
LINE
  5
454
100
AcDbEntity
  8
268140580
100
AcDbLine
 62
250
  6
CONTINUOUS
 10
-16.298260923
 20
23.9314937888
 11
-14.7669278601
 21
23.7372629643
  0
LINE
  5
455
100
AcDbEntity
  8
268140580
100
AcDbLine
 62
250
  6
CONTINUOUS
 10
-1.0655267706
 20
21.9994082188
 11
0.4658062923
 21
21.8051773943
  0
LINE
  5
456
100
AcDbEntity
  8
268140580
100
AcDbLine
 62
250
  6
CONTINUOUS
 10
-16.3768269143
 20
24.1216994347
 11
-14.8454938513
 21
23.9274686102
  0
LINE
  5
457
100
AcDbEntity
  8
268140580
100
AcDbLine
 62
250
  6
CONTINUOUS
 10
-1.1440927619
 20
22.1896138647
 11
0.3872403011
 21
21.9953830402
  0
LINE
  5
458
100
AcDbEntity
  8
268140580
100
AcDbLine
 62
7
  6
CONTINUOUS
 10
-10.4143661389
 20
23.7050899975
 11
-3.7989641409
 21
22.8660073606
  0
LINE
  5
459
100
AcDbEntity
  8
268140580
100
AcDbLine
 62
250
  6
CONTINUOUS
 10
0.3781678482
 20
22.411876686
 11
-1.1531652147
 21
22.6061075105
  0
LINE
  5
45A
100
AcDbEntity
  8
268140580
100
AcDbLine
 62
250
  6
CONTINUOUS
 10
-14.8545663042
 20
24.343962256
 11
-16.3858993671
 21
24.5381930805
  0
LINE
  5
45B
100
AcDbEntity
  8
CORPO_STAMPATO
100
AcDbLine
 62
7
  6
CONTINUOUS
 10
6.5188592144
 20
21.6632498687
 11
6.9489358868
 21
21.6086999156
  0
LINE
  5
45C
100
AcDbEntity
  8
268140580
100
AcDbLine
 62
250
  6
CONTINUOUS
 10
0.5220202921
 20
22.7007253489
 11
-1.0093127709
 21
22.8949561734
  0
LINE
  5
45D
100
AcDbEntity
  8
268140580
100
AcDbLine
 62
250
  6
CONTINUOUS
 10
-14.7107138603
 20
24.6328109189
 11
-16.2420469233
 21
24.8270417434
  0
LINE
  5
45E
100
AcDbEntity
  8
268140580
100
AcDbLine
 62
7
  6
CONTINUOUS
 10
-8.7440115002
 20
23.9754251438
 11
-3.1022581104
 21
23.2598378957
  0
LINE
  5
45F
100
AcDbEntity
  8
268140580
100
AcDbLine
 62
250
  6
CONTINUOUS
 10
-14.4667514214
 20
25.3251660045
 11
-12.9354183585
 21
25.13093518
  0
LINE
  5
460
100
AcDbEntity
  8
268140580
100
AcDbLine
 62
250
  6
CONTINUOUS
 10
0.765982731
 20
23.3930804344
 11
2.2973157939
 21
23.1988496099
  0
LINE
  5
461
100
AcDbEntity
  8
268140580
100
AcDbLine
 62
7
  6
CONTINUOUS
 10
-14.4312517107
 20
25.3279772638
 11
-12.8999186478
 21
25.1337464393
  0
LINE
  5
462
100
AcDbEntity
  8
268140580
100
AcDbLine
 62
7
  6
CONTINUOUS
 10
0.8014824417
 20
23.3958916938
 11
2.3328155046
 21
23.2016608693
  0
LINE
  5
463
100
AcDbEntity
  8
CORPO_STAMPATO
100
AcDbLine
 62
7
  6
CONTINUOUS
 10
11.5958805319
 20
22.2524587968
 11
13.1509996702
 21
22.0552110002
  0
LINE
  5
464
100
AcDbEntity
  8
268140580
100
AcDbLine
 62
250
  6
CONTINUOUS
 10
-4.5841843355
 20
24.3356654074
 11
-2.9871388034
 21
24.1330997619
  0
LINE
  5
465
100
AcDbEntity
  8
268140580
100
AcDbLine
 62
250
  6
CONTINUOUS
 10
1.8486498164
 20
23.5197392634
 11
5.1844776381
 21
23.0966304023
  0
LINE
  5
466
100
AcDbEntity
  8
268140580
100
AcDbLine
 62
7
  6
CONTINUOUS
 10
-4.5848701491
 20
24.367149396
 11
-2.8399767132
 21
24.1458310565
  0
LINE
  5
467
100
AcDbEntity
  8
268140580
100
AcDbLine
 62
7
  6
CONTINUOUS
 10
1.9958119066
 20
23.5324705581
 11
5.3542802356
 21
23.1064900262
  0
LWPOLYLINE
  5
468
100
AcDbEntity
  8
268140580
100
AcDbPolyline
 62
250
  6
CONTINUOUS
 90
31
 70
0
 10
-12.9354183585
 20
25.13093518
 10
-12.9248675844
 20
25.1292616059
 10
-12.9143346496
 20
25.1269205381
 10
-12.9038484241
 20
25.1239183933
 10
-12.8934376499
 20
25.1202634003
 10
-12.8831308622
 20
25.115965577
 10
-12.8729563112
 20
25.1110367035
 10
-12.8629418847
 20
25.1054902895
 10
-12.8531150315
 20
25.0993415373
 10
-12.8435026863
 20
25.0926073003
 10
-12.8341311959
 20
25.0853060365
 10
-12.8250262468
 20
25.0774577582
 10
-12.8162127952
 20
25.0690839769
 10
-12.8077149981
 20
25.0602076447
 10
-12.7995561473
 20
25.0508530908
 10
-12.7917586058
 20
25.0410459556
 10
-12.7843437459
 20
25.0308131197
 10
-12.7773318914
 20
25.0201826305
 10
-12.7707422612
 20
25.0091836255
 10
-12.764592917
 20
24.9978462523
 10
-12.7589007139
 20
24.9862015857
 10
-12.7536812536
 20
24.9742815429
 10
-12.7489488425
 20
24.9621187961
 10
-12.7447164516
 20
24.9497466824
 10
-12.7409956818
 20
24.937199113
 10
-12.7377967313
 20
24.9245104798
 10
-12.7351283682
 20
24.9117155616
 10
-12.7329979064
 20
24.8988494282
 10
-12.7314111854
 20
24.8859473449
 10
-12.7303725541
 20
24.8730446754
 10
-12.7298848594
 20
24.860176785
  0
LWPOLYLINE
  5
469
100
AcDbEntity
  8
268140580
100
AcDbPolyline
 62
250
  6
CONTINUOUS
 90
31
 70
0
 10
2.2973157939
 20
23.1988496099
 10
2.307866568
 20
23.1971760358
 10
2.3183995028
 20
23.194834968
 10
2.3288857283
 20
23.1918328233
 10
2.3392965025
 20
23.1881778302
 10
2.3496032902
 20
23.1838800069
 10
2.3597778412
 20
23.1789511334
 10
2.3697922677
 20
23.1734047194
 10
2.3796191209
 20
23.1672559673
 10
2.3892314661
 20
23.1605217302
 10
2.3986029566
 20
23.1532204664
 10
2.4077079056
 20
23.1453721881
 10
2.4165213572
 20
23.1369984069
 10
2.4250191543
 20
23.1281220746
 10
2.4331780051
 20
23.1187675208
 10
2.4409755467
 20
23.1089603856
 10
2.4483904065
 20
23.0987275496
 10
2.4554022611
 20
23.0880970604
 10
2.4619918912
 20
23.0770980555
 10
2.4681412354
 20
23.0657606822
 10
2.4738334385
 20
23.0541160156
 10
2.4790528988
 20
23.0421959729
 10
2.4837853099
 20
23.0300332261
 10
2.4880177008
 20
23.0176611124
 10
2.4917384707
 20
23.005113543
 10
2.4949374212
 20
22.9924249098
 10
2.4976057842
 20
22.9796299915
 10
2.499736246
 20
22.9667638581
 10
2.501322967
 20
22.9538617749
 10
2.5023615983
 20
22.9409591054
 10
2.502849293
 20
22.928091215
  0
LWPOLYLINE
  5
46A
100
AcDbEntity
  8
268140580
100
AcDbPolyline
 62
250
  6
CONTINUOUS
 90
13
 70
0
 10
3.5446586863
 20
-24.5537989867
 10
3.5515500309
 20
-24.551415965
 10
3.557849755
 20
-24.548975783
 10
3.5635405914
 20
-24.5464851291
 10
3.568606942
 20
-24.5439508301
 10
3.5730349201
 20
-24.5413798321
 10
3.5768123892
 20
-24.5387791822
 10
3.5799289953
 20
-24.5361560086
 10
3.582376196
 20
-24.5335175011
 10
3.5841472838
 20
-24.5308708918
 10
3.5852374043
 20
-24.5282234349
 10
3.5856435694
 20
-24.5255823867
 10
3.5856441264
 20
-24.5251171874
  0
LINE
  5
46B
100
AcDbEntity
  8
268140580
100
AcDbLine
 62
250
  6
CONTINUOUS
 10
3.4146140211
 20
-24.7677275155
 11
3.4096553251
 21
-24.7693735117
  0
LWPOLYLINE
  5
46C
100
AcDbEntity
  8
268140580
100
AcDbPolyline
 62
250
  6
CONTINUOUS
 90
14
 70
0
 10
3.528680654
 20
-24.165263874
 10
3.5361368586
 20
-24.1629471228
 10
3.5430234673
 20
-24.1605661321
 10
3.5493211435
 20
-24.1581273666
 10
3.5550126429
 20
-24.155637222
 10
3.5600812295
 20
-24.1531027084
 10
3.564511316
 20
-24.1505314696
 10
3.5682904036
 20
-24.1479308228
 10
3.5714086205
 20
-24.1453076349
 10
3.5738574733
 20
-24.1426690291
 10
3.5756302224
 20
-24.1400221929
 10
3.5767219096
 20
-24.1373744263
 10
3.5771294889
 20
-24.1347330552
 10
3.577130319
 20
-24.1342696679
  0
LINE
  5
46D
100
AcDbEntity
  8
268140580
100
AcDbLine
 62
250
  6
CONTINUOUS
 10
1.763016102
 20
-25.1055209844
 11
3.5446586863
 21
-24.5537989867
  0
LINE
  5
46E
100
AcDbEntity
  8
268140580
100
AcDbLine
 62
7
  6
CONTINUOUS
 10
1.6354768174
 20
-25.3187761797
 11
3.4096553251
 21
-24.7693735117
  0
LINE
  5
46F
100
AcDbEntity
  8
268140580
100
AcDbLine
 62
7
  6
CONTINUOUS
 10
-4.894955883
 20
25.0554188593
 11
-8.7440115002
 21
23.9754251438
  0
LINE
  5
470
100
AcDbEntity
  8
268140580
100
AcDbLine
 62
7
  6
CONTINUOUS
 10
-10.4775995181
 20
23.7858568373
 11
-5.5854883576
 21
25.1430044376
  0
LWPOLYLINE
  5
471
100
AcDbEntity
  8
268140580
100
AcDbPolyline
 62
7
  6
CONTINUOUS
 90
21
 70
0
 10
-5.4453118088
 20
23.5570255309
 10
-5.4168237293
 20
23.5613030719
 10
-5.3869057259
 20
23.5655044404
 10
-5.3563094275
 20
23.5695167677
 10
-5.3250694429
 20
23.5733348674
 10
-5.2933068049
 20
23.5769410772
 10
-5.2610004201
 20
23.5803354482
 10
-5.2281713819
 20
23.5835179294
 10
-5.1950040035
 20
23.5864707054
 10
-5.1615159164
 20
23.5891902449
 10
-5.1276894892
 20
23.5916800792
 10
-5.0936561404
 20
23.5939329862
 10
-5.0594299955
 20
23.5959476419
 10
-5.0249969291
 20
23.5977253704
 10
-4.9904459834
 20
23.5992629225
 10
-4.9557649303
 20
23.600560448
 10
-4.920965998
 20
23.6016177971
 10
-4.8861749127
 20
23.6024312713
 10
-4.8514335833
 20
23.6029996379
 10
-4.8167001011
 20
23.6033241297
 10
-4.7819744659
 20
23.6034047466
  0
LWPOLYLINE
  5
472
100
AcDbEntity
  8
268140580
100
AcDbPolyline
 62
7
  6
CONTINUOUS
 90
7
 70
0
 10
-4.8239567491
 20
25.0610391069
 10
-4.8312029817
 20
25.061795084
 10
-4.8439463818
 20
25.0623784074
 10
-4.8567049104
 20
25.0620316398
 10
-4.8694401061
 20
25.0607574706
 10
-4.8821904303
 20
25.0585532104
 10
-4.894955883
 20
25.0554188593
  0
LWPOLYLINE
  5
473
100
AcDbEntity
  8
CORPO_STAMPATO
100
AcDbPolyline
 62
250
  6
CONTINUOUS
 90
10
 70
0
 10
9.6379856435
 20
23.577461415
 10
9.629425515
 20
23.5784371314
 10
9.6135716727
 20
23.5796679413
 10
9.5976425186
 20
23.5801604095
 10
9.5816498817
 20
23.5799141702
 10
9.5656056384
 20
23.5789294063
 10
9.549521703
 20
23.5772068491
 10
9.5334100197
 20
23.5747477777
 10
9.5172825531
 20
23.5715540184
 10
9.5011512795
 20
23.5676279428
  0
LWPOLYLINE
  5
474
100
AcDbEntity
  8
CORPO_STAMPATO
100
AcDbPolyline
 62
250
  6
CONTINUOUS
 90
12
 70
0
 10
9.5011512795
 20
23.5676279428
 10
9.4792398343
 20
23.5701466613
 10
9.4573533755
 20
23.5719178743
 10
9.4355085169
 20
23.5729402372
 10
9.4137218408
 20
23.5732129739
 10
9.3920098852
 20
23.5727358774
 10
9.3703891316
 20
23.57150931
 10
9.348875992
 20
23.5695342025
 10
9.3274867969
 20
23.5668120545
 10
9.3062377826
 20
23.5633449321
 10
9.2851450792
 20
23.5591354673
 10
9.2633059377
 20
23.5539515618
  0
LINE
  5
475
100
AcDbEntity
  8
268140580
100
AcDbLine
 62
250
  6
CONTINUOUS
 10
-5.5854883576
 20
25.1430044376
 11
-4.894955883
 21
25.0554188593
  0
LINE
  5
476
100
AcDbEntity
  8
268140580
100
AcDbLine
 62
250
  6
CONTINUOUS
 10
0.7467975068
 20
24.3398316111
 11
1.4373299814
 21
24.2522460328
  0
LINE
  5
477
100
AcDbEntity
  8
268140580
100
AcDbLine
 62
7
  6
CONTINUOUS
 10
-5.513934413
 20
25.1485566218
 11
-4.8239564616
 21
25.0610413779
  0
LINE
  5
478
100
AcDbEntity
  8
268140580
100
AcDbLine
 62
7
  6
CONTINUOUS
 10
0.8177969281
 20
24.3454541298
 11
1.5077748795
 21
24.2579388859
  0
LINE
  5
479
100
AcDbEntity
  8
CORPO_STAMPATO
100
AcDbLine
 62
250
  6
CONTINUOUS
 10
16.4422750227
 20
22.6872314959
 11
15.8221331617
 21
22.7658888878
  0
LINE
  5
47A
100
AcDbEntity
  8
CORPO_STAMPATO
100
AcDbLine
 62
250
  6
CONTINUOUS
 10
9.5011512795
 20
23.5676279428
 11
10.5833621569
 21
23.4303627611
  0
LINE
  5
47B
100
AcDbEntity
  8
CORPO_STAMPATO
100
AcDbLine
 62
7
  6
CONTINUOUS
 10
16.5791093867
 20
22.6970649682
 11
15.9464162815
 21
22.7773143316
  0
LINE
  5
47C
100
AcDbEntity
  8
CORPO_STAMPATO
100
AcDbLine
 62
7
  6
CONTINUOUS
 10
9.6379856435
 20
23.577461415
 11
10.7327477651
 21
23.438604262
  0
LWPOLYLINE
  5
47D
100
AcDbEntity
  8
CORPO_STAMPATO
100
AcDbPolyline
 62
250
  6
CONTINUOUS
 90
49
 70
0
 10
17.8750328831
 20
18.737937524
 10
17.8884423074
 20
18.7292491907
 10
17.93487
 20
18.697765873
 10
17.9808642445
 20
18.6651624878
 10
18.0264042625
 20
18.6314537659
 10
18.0714695134
 20
18.5966549133
 10
18.1160396766
 20
18.5607816217
 10
18.1600946451
 20
18.5238500727
 10
18.203614518
 20
18.4858769478
 10
18.2465796322
 20
18.4468794038
 10
18.2889705831
 20
18.4068750548
 10
18.3307682452
 20
18.365881951
 10
18.3719537627
 20
18.3239185852
 10
18.4125085504
 20
18.2810038927
 10
18.452414294
 20
18.2371572525
 10
18.4916529719
 20
18.1923984658
 10
18.5302068676
 20
18.1467477421
 10
18.568058581
 20
18.1002256848
 10
18.6051910285
 20
18.0528532911
 10
18.6415874485
 20
18.0046519447
 10
18.6772314102
 20
17.9556434054
 10
18.7121068247
 20
17.9058497946
 10
18.7461979503
 20
17.8552935871
 10
18.7794893956
 20
17.8039976074
 10
18.8119661277
 20
17.7519850188
 10
18.8436134822
 20
17.6992793078
 10
18.8744171775
 20
17.64590426
 10
18.9043633161
 20
17.5918839562
 10
18.9334383851
 20
17.5372427706
 10
18.9616292532
 20
17.4820053798
 10
18.9889231845
 20
17.4261967385
 10
19.0153078515
 20
17.3698420553
 10
19.0407713519
 20
17.312966755
 10
19.0653022027
 20
17.255596486
 10
19.0888893372
 20
17.1977571263
 10
19.1115220987
 20
17.1394748044
 10
19.1331902582
 20
17.0807758616
 10
19.1538840272
 20
17.0216868194
 10
19.1735940738
 20
16.9622343287
 10
19.1923115128
 20
16.9024451899
 10
19.2100279016
 20
16.8423463659
 10
19.2267352333
 20
16.7819650123
 10
19.242425954
 20
16.7213284286
 10
19.2570929752
 20
16.6604640168
 10
19.2707296848
 20
16.5993992231
 10
19.2833299373
 20
16.5381615672
 10
19.2948880462
 20
16.4767786771
 10
19.3053987896
 20
16.4152782773
 10
19.3148574214
 20
16.3536881299
  0
LWPOLYLINE
  5
47E
100
AcDbEntity
  8
268140580
100
AcDbPolyline
 62
250
  6
CONTINUOUS
 90
31
 70
0
 10
-14.4961079084
 20
23.9455588782
 10
-14.5041151766
 20
23.9433120225
 10
-14.5126540896
 20
23.9411406064
 10
-14.5217017188
 20
23.9390506388
 10
-14.5312346271
 20
23.9370477298
 10
-14.5412262627
 20
23.9351376445
 10
-14.5516466112
 20
23.9333261971
 10
-14.5624659765
 20
23.9316185232
 10
-14.5736557475
 20
23.9300191129
 10
-14.5851855486
 20
23.9285323141
 10
-14.5970240009
 20
23.9271621889
 10
-14.6091384808
 20
23.9259125285
 10
-14.621495481
 20
23.9247867949
 10
-14.6340610073
 20
23.9237880829
 10
-14.646800724
 20
23.9229191196
 10
-14.6596797368
 20
23.9221822857
 10
-14.6726627596
 20
23.9215796013
 10
-14.6857141786
 20
23.9211127211
 10
-14.6987981809
 20
23.9207829265
 10
-14.7118788854
 20
23.9205911219
 10
-14.7249204412
 20
23.9205378328
 10
-14.7378870937
 20
23.9206232053
 10
-14.750743314
 20
23.9208470057
 10
-14.7634538359
 20
23.9212086206
 10
-14.775983755
 20
23.9217070558
 10
-14.7882986863
 20
23.9223409409
 10
-14.8003649095
 20
23.9231085375
 10
-14.8121494005
 20
23.9240077436
 10
-14.8236198691
 20
23.9250360957
 10
-14.8347448523
 20
23.9261907731
 10
-14.8454938513
 20
23.9274686102
  0
LINE
  5
47F
100
AcDbEntity
  8
268140580
100
AcDbLine
 62
250
  6
CONTINUOUS
 10
-12.7298848594
 20
24.860176785
 11
-14.5131967111
 21
24.3598032434
  0
LINE
  5
480
100
AcDbEntity
  8
268140580
100
AcDbLine
 62
250
  6
CONTINUOUS
 10
-12.9354183585
 20
25.13093518
 11
-14.7107138603
 21
24.6328109189
  0
LWPOLYLINE
  5
481
100
AcDbEntity
  8
268140580
100
AcDbPolyline
 62
250
  6
CONTINUOUS
 90
28
 70
0
 10
-13.8860544427
 20
23.2720302052
 10
-13.8949946489
 20
23.2695355983
 10
-13.9045863867
 20
23.2671359082
 10
-13.9147972006
 20
23.2648392545
 10
-13.9255925406
 20
23.2626534084
 10
-13.9369358785
 20
23.2605857662
 10
-13.9487888322
 20
23.2586433241
 10
-13.961111295
 20
23.2568326547
 10
-13.9738615716
 20
23.2551598848
 10
-13.9869965191
 20
23.2536306744
 10
-14.000471693
 20
23.252250198
 10
-14.0142414975
 20
23.2510231265
 10
-14.02825934
 20
23.2499536121
 10
-14.0424777885
 20
23.2490452737
 10
-14.0568487324
 20
23.2483011847
 10
-14.0713235449
 20
23.247723863
 10
-14.0858532479
 20
23.247315262
 10
-14.1003886773
 20
23.2470767642
 10
-14.1148806499
 20
23.2470091768
 10
-14.1292801295
 20
23.2471127283
 10
-14.1435383928
 20
23.2473870684
 10
-14.1576071943
 20
23.2478312689
 10
-14.1714389297
 20
23.2484438266
 10
-14.1849867967
 20
23.2492226689
 10
-14.1982049537
 20
23.2501651604
 10
-14.2110486745
 20
23.2512681121
 10
-14.2234745002
 20
23.2525277918
 10
-14.2354403856
 20
23.2539399373
  0
LWPOLYLINE
  5
482
100
AcDbEntity
  8
268140580
100
AcDbPolyline
 62
250
  6
CONTINUOUS
 90
30
 70
0
 10
-14.5131967111
 20
24.3598032434
 10
-14.5217433621
 20
24.357630177
 10
-14.5307968884
 20
24.3555392811
 10
-14.5403324749
 20
24.3535362866
 10
-14.5503239853
 20
24.3516266837
 10
-14.5607440334
 20
24.3498157063
 10
-14.5715640588
 20
24.3481083184
 10
-14.5827544044
 20
24.3465091996
 10
-14.5942843983
 20
24.3450227331
 10
-14.6061224376
 20
24.3436529932
 10
-14.6182360751
 20
24.3424037342
 10
-14.630592108
 20
24.3412783803
 10
-14.6431566694
 20
24.340280016
 10
-14.6558953207
 20
24.3394113777
 10
-14.6687731461
 20
24.3386748463
 10
-14.6817548484
 20
24.3380724406
 10
-14.6948048457
 20
24.3376058118
 10
-14.7078873688
 20
24.3372762388
 10
-14.7209665594
 20
24.337084625
 10
-14.7340065685
 20
24.3370314955
 10
-14.7469716541
 20
24.3371169961
 10
-14.75982628
 20
24.3373408923
 10
-14.7725352124
 20
24.3377025705
 10
-14.7850636172
 20
24.3382010394
 10
-14.7973771547
 20
24.3388349325
 10
-14.8094420745
 20
24.3396025126
 10
-14.8212253075
 20
24.3405016758
 10
-14.8326945565
 20
24.3415299574
 10
-14.8438183853
 20
24.342684539
 10
-14.8545663042
 20
24.343962256
  0
LWPOLYLINE
  5
483
100
AcDbEntity
  8
268140580
100
AcDbPolyline
 62
250
  6
CONTINUOUS
 90
7
 70
0
 10
-14.5269042367
 20
25.3215118565
 10
-14.5187750639
 20
25.3234231877
 10
-14.5085648356
 20
25.3251200516
 10
-14.4982288844
 20
25.3261446441
 10
-14.487795565
 20
25.32649416
 10
-14.4772934777
 20
25.3261676468
 10
-14.4667514214
 20
25.3251660045
  0
LWPOLYLINE
  5
484
100
AcDbEntity
  8
268140580
100
AcDbPolyline
 62
250
  6
CONTINUOUS
 90
6
 70
0
 10
-12.9354183585
 20
25.13093518
 10
-12.9268576354
 20
25.1329250599
 10
-12.9183120319
 20
25.1340877869
 10
-12.9098101433
 20
25.1344194702
 10
-12.9013804185
 20
25.133919
 10
-12.8999752879
 20
25.1337536041
  0
LWPOLYLINE
  5
485
100
AcDbEntity
  8
CORPO_STAMPATO
100
AcDbPolyline
 62
250
  6
CONTINUOUS
 90
28
 70
0
 10
17.0183385632
 20
22.3281646091
 10
17.0012108765
 20
22.3501744404
 10
16.9836197344
 20
22.3716385763
 10
16.9655800158
 20
22.3925388616
 10
16.9471069793
 20
22.4128576183
 10
16.9282162499
 20
22.4325776604
 10
16.908923806
 20
22.4516823079
 10
16.8892459655
 20
22.4701554017
 10
16.8691993726
 20
22.4879813167
 10
16.8488009833
 20
22.5051449752
 10
16.828068051
 20
22.5216318597
 10
16.8070181123
 20
22.5374280252
 10
16.7856689718
 20
22.5525201109
 10
16.7640386871
 20
22.5668953513
 10
16.7421455539
 20
22.5805415876
 10
16.7200080899
 20
22.5934472773
 10
16.6976450196
 20
22.6056015046
 10
16.6750752584
 20
22.6169939889
 10
16.6523178963
 20
22.6276150942
 10
16.6293921821
 20
22.6374558368
 10
16.6063175072
 20
22.6465078933
 10
16.5831133886
 20
22.6547636071
 10
16.5597994532
 20
22.6622159953
 10
16.5363954204
 20
22.6688587545
 10
16.512921086
 20
22.6746862659
 10
16.4893963054
 20
22.6796936007
 10
16.4658409764
 20
22.6838765233
 10
16.4422750227
 20
22.6872314959
  0
LINE
  5
486
100
AcDbEntity
  8
CORPO_STAMPATO
100
AcDbLine
 62
250
  6
CONTINUOUS
 10
17.1434110411
 20
22.1646540877
 11
17.0183385632
 21
22.3281646091
  0
LINE
  5
487
100
AcDbEntity
  8
CORPO_STAMPATO
100
AcDbLine
 62
7
  6
CONTINUOUS
 10
17.3726279869
 20
22.1490600258
 11
17.247555509
 21
22.3125705472
  0
LINE
  5
488
100
AcDbEntity
  8
268140580
100
AcDbLine
 62
250
  6
CONTINUOUS
 10
-16.2420469233
 20
24.8270417434
 11
-14.4667514214
 21
25.3251660045
  0
LINE
  5
489
100
AcDbEntity
  8
268140580
100
AcDbLine
 62
7
  6
CONTINUOUS
 10
-16.3055430368
 20
24.8225443396
 11
-14.530247535
 21
25.3206686006
  0
LWPOLYLINE
  5
48A
100
AcDbEntity
  8
268140580
100
AcDbPolyline
 62
250
  6
CONTINUOUS
 90
8
 70
0
 10
-16.3055430368
 20
24.8225443396
 10
-16.3041132814
 20
24.8229381684
 10
-16.2940589431
 20
24.8253012553
 10
-16.2838509637
 20
24.8269970319
 10
-16.2735173227
 20
24.8280208503
 10
-16.2630863438
 20
24.8283699041
 10
-16.2525866177
 20
24.8280432367
 10
-16.2420469233
 20
24.8270417434
  0
LINE
  5
48B
100
AcDbEntity
  8
268140580
100
AcDbLine
 62
250
  6
CONTINUOUS
 10
-14.530247535
 20
25.3206686006
 11
-14.5269042367
 21
25.3215118565
  0
ARC
  5
48C
100
AcDbEntity
  8
CORPO_STAMPATO
100
AcDbCircle
 62
7
  6
CONTINUOUS
 10
9.5121560269
 20
22.5854095477
 40
1.0
100
AcDbArc
 50
82.771332396
 51
104.4094768279
  0
ARC
  5
48D
100
AcDbEntity
  8
CORPO_STAMPATO
100
AcDbCircle
 62
7
  6
CONTINUOUS
 10
17.3698877032
 20
-3.9905012133
 40
1.0
100
AcDbArc
 50
288.5319162457
 51
1.2478727352
  0
ARC
  5
48E
100
AcDbEntity
  8
CORPO_STAMPATO
100
AcDbCircle
 62
7
  6
CONTINUOUS
 10
16.4532797702
 20
21.7050131008
 40
1.0
100
AcDbArc
 50
37.4131810137
 51
82.771332396
  0
ARC
  5
48F
100
AcDbEntity
  8
CORPO_STAMPATO
100
AcDbCircle
 62
7
  6
CONTINUOUS
 10
11.3823447631
 20
-16.1583053544
 40
1.0
100
AcDbArc
 50
288.1960468062
 51
318.1847595759
  0
ARC
  5
490
100
AcDbEntity
  8
268140580
100
AcDbCircle
 62
7
  6
CONTINUOUS
 10
3.1184750931
 20
-22.496629082
 40
0.4
100
AcDbArc
 50
281.2948302396
 51
285.9242573399
  0
ARC
  5
491
100
AcDbEntity
  8
268140580
100
AcDbCircle
 62
7
  6
CONTINUOUS
 10
-14.4627091149
 20
25.079964297
 40
0.25
100
AcDbArc
 50
82.7720657825
 51
105.6741167912
  0
ARC
  5
492
100
AcDbEntity
  8
268140580
100
AcDbCircle
 62
7
  6
CONTINUOUS
 10
-16.2380046167
 20
24.5818400359
 40
0.25
100
AcDbArc
 50
105.6734119313
 51
181.2465424566
  0
ARC
  5
493
100
AcDbEntity
  8
268140580
100
AcDbCircle
 62
7
  6
CONTINUOUS
 10
-16.2289321639
 20
24.1653463901
 40
0.25
100
AcDbArc
 50
181.2478727352
 51
237.0898683252
  0
ARC
  5
494
100
AcDbEntity
  8
268140580
100
AcDbCircle
 62
7
  6
CONTINUOUS
 10
-12.9313760519
 20
24.8857334725
 40
0.25
100
AcDbArc
 50
1.2462659439
 51
82.7844167924
  0
ARC
  5
495
100
AcDbEntity
  8
268140580
100
AcDbCircle
 62
7
  6
CONTINUOUS
 10
-12.9228620961
 20
24.4948790301
 40
0.25
100
AcDbArc
 50
321.9463613376
 51
1.2478727352
  0
ARC
  5
496
100
AcDbEntity
  8
268140580
100
AcDbCircle
 62
7
  6
CONTINUOUS
 10
0.7700250375
 20
23.1478787269
 40
0.25
100
AcDbArc
 50
82.7720657825
 51
105.6741167912
  0
ARC
  5
497
100
AcDbEntity
  8
268140580
100
AcDbCircle
 62
7
  6
CONTINUOUS
 10
-1.0052704643
 20
22.6497544659
 40
0.25
100
AcDbArc
 50
105.6734119313
 51
181.2465424566
  0
ARC
  5
498
100
AcDbEntity
  8
268140580
100
AcDbCircle
 62
7
  6
CONTINUOUS
 10
-0.9961980115
 20
22.2332608201
 40
0.25
100
AcDbArc
 50
181.2478727352
 51
237.0898683252
  0
ARC
  5
499
100
AcDbEntity
  8
268140580
100
AcDbCircle
 62
7
  6
CONTINUOUS
 10
2.3013581005
 20
22.9536479024
 40
0.25
100
AcDbArc
 50
1.2462659439
 51
82.7844167924
  0
ARC
  5
49A
100
AcDbEntity
  8
268140580
100
AcDbCircle
 62
7
  6
CONTINUOUS
 10
2.3098720563
 20
22.5627934601
 40
0.25
100
AcDbArc
 50
321.9463613376
 51
1.2478727352
  0
ARC
  5
49B
100
AcDbEntity
  8
268140580
100
AcDbCircle
 62
7
  6
CONTINUOUS
 10
0.0301918466
 20
-24.8857334725
 40
0.25
100
AcDbArc
 50
181.246676773
 51
262.7849598983
  0
ARC
  5
49C
100
AcDbEntity
  8
268140580
100
AcDbCircle
 62
7
  6
CONTINUOUS
 10
0.0211193937
 20
-24.4692398266
 40
0.25
100
AcDbArc
 50
141.9463613376
 51
181.2478727352
  0
ARC
  5
49D
100
AcDbEntity
  8
268140580
100
AcDbCircle
 62
7
  6
CONTINUOUS
 10
3.3271894615
 20
-24.1397071866
 40
0.25
100
AcDbArc
 50
1.2462857773
 51
57.090250797
  0
ARC
  5
49E
100
AcDbEntity
  8
268140580
100
AcDbCircle
 62
7
  6
CONTINUOUS
 10
3.3357034173
 20
-24.5305616289
 40
0.25
100
AcDbArc
 50
287.2054196073
 51
1.2478727352
  0
ARC
  5
49F
100
AcDbEntity
  8
268140580
100
AcDbCircle
 62
7
  6
CONTINUOUS
 10
1.5615249095
 20
-25.079964297
 40
0.25
100
AcDbArc
 50
262.7555474491
 51
287.2059727967
  0
ARC
  5
4A0
100
AcDbEntity
  8
268140580
100
AcDbCircle
 62
7
  6
CONTINUOUS
 10
-15.2025423058
 20
-22.9536479024
 40
0.25
100
AcDbArc
 50
181.246676773
 51
262.7849598983
  0
ARC
  5
4A1
100
AcDbEntity
  8
268140580
100
AcDbCircle
 62
7
  6
CONTINUOUS
 10
-15.2116147587
 20
-22.5371542566
 40
0.25
100
AcDbArc
 50
141.9463613376
 51
181.2478727352
  0
ARC
  5
4A2
100
AcDbEntity
  8
268140580
100
AcDbCircle
 62
7
  6
CONTINUOUS
 10
-11.9055446909
 20
-22.2076216166
 40
0.25
100
AcDbArc
 50
1.2462857773
 51
9.1929853099
  0
ARC
  5
4A3
100
AcDbEntity
  8
268140580
100
AcDbCircle
 62
7
  6
CONTINUOUS
 10
-11.8970307351
 20
-22.5984760589
 40
0.25
100
AcDbArc
 50
287.2054196073
 51
1.2478727352
  0
ARC
  5
4A4
100
AcDbEntity
  8
268140580
100
AcDbCircle
 62
7
  6
CONTINUOUS
 10
-13.6712092429
 20
-23.1478787269
 40
0.25
100
AcDbArc
 50
262.7555474491
 51
287.2059727967
  0
ELLIPSE
  5
4A5
100
AcDbEntity
  8
290140580
100
AcDbEllipse
 62
7
  6
CONTINUOUS
 10
1.2450327026
 20
-1.6692963046
 30
0.0
 11
-0.0565185723
 21
0.191860174
 31
0.0
 40
0.7872648931
 41
-1.9023893177
 42
-0.3318975774
  0
ELLIPSE
  5
4A6
100
AcDbEntity
  8
290140580
100
AcDbEllipse
 62
7
  6
CONTINUOUS
 10
0.9741217296
 20
-22.684658775
 30
0.0
 11
-0.1417096748
 21
0.480292717
 31
0.0
 40
0.7859192993
 41
-3.2118561923
 42
-1.9034400775
  0
ELLIPSE
  5
4A7
100
AcDbEntity
  8
290140600
100
AcDbEllipse
 62
7
  6
CONTINUOUS
 10
1.2450327026
 20
-1.6692963046
 30
0.0
 11
-0.0565185723
 21
0.191860174
 31
0.0
 40
0.7872648931
 41
-1.9023893177
 42
-0.3318975774
  0
ELLIPSE
  5
4A8
100
AcDbEntity
  8
290140600
100
AcDbEllipse
 62
7
  6
CONTINUOUS
 10
0.9741217296
 20
-22.684658775
 30
0.0
 11
-0.1417096748
 21
0.480292717
 31
0.0
 40
0.7859192993
 41
-3.2118561923
 42
-1.9034400775
  0
ELLIPSE
  5
4A9
100
AcDbEntity
  8
290140600
100
AcDbEllipse
 62
250
  6
CONTINUOUS
 10
297.4819051833
 20
84.4879595293
 30
0.0
 11
481.3258084699
 21
433.5337952241
 31
0.0
 40
0.2275138856
 41
2.0367017166
 42
2.0457049089
  0
ELLIPSE
  5
4AA
100
AcDbEntity
  8
290140600
100
AcDbEllipse
 62
250
  6
CONTINUOUS
 10
272.4969973143
 20
87.6569887712
 30
0.0
 11
-462.8416249555
 21
513.8644824911
 31
0.0
 40
0.4099367649
 41
1.3991363885
 42
1.4081395808
  0
ELLIPSE
  5
4AB
100
AcDbEntity
  8
290140600
100
AcDbEllipse
 62
7
  6
CONTINUOUS
 10
-17.0112331405
 20
21.7849825245
 30
0.0
 11
-0.1417096748
 21
0.480292717
 31
0.0
 40
0.7859192993
 41
-0.3317303622
 42
0.0702635266
  0
ELLIPSE
  5
4AC
100
AcDbEntity
  8
290140600
100
AcDbEllipse
 62
7
  6
CONTINUOUS
 10
1.234365166
 20
-1.179576347
 30
0.0
 11
-0.056719553
 21
0.1918400343
 31
0.0
 40
0.7869692034
 41
-3.1699072294
 42
-1.9037146256
  0
ELLIPSE
  5
4AD
100
AcDbEntity
  8
290140600
100
AcDbEllipse
 62
7
  6
CONTINUOUS
 10
0.052588144
 20
19.6206460013
 30
0.0
 11
-0.1402036525
 21
0.4804419637
 31
0.0
 40
0.786801543
 41
-1.8994699446
 42
-0.3295870063
  0
ELLIPSE
  5
4AE
100
AcDbEntity
  8
290140600
100
AcDbEllipse
 62
250
  6
CONTINUOUS
 10
272.4991305616
 20
87.5590567139
 30
0.0
 11
481.3258084699
 21
433.5337952241
 31
0.0
 40
0.2275138856
 41
1.9836949742
 42
1.9926981665
  0
ELLIPSE
  5
4AF
100
AcDbEntity
  8
290140600
100
AcDbEllipse
 62
250
  6
CONTINUOUS
 10
297.4840384307
 20
84.390027472
 30
0.0
 11
-462.8416249555
 21
513.8644824911
 31
0.0
 40
0.4099367649
 41
1.3461296461
 42
1.3551328384
  0
ELLIPSE
  5
4B0
100
AcDbEntity
  8
290140580
100
AcDbEllipse
 62
7
  6
CONTINUOUS
 10
-17.0112331405
 20
21.7849825245
 30
0.0
 11
-0.1417096748
 21
0.480292717
 31
0.0
 40
0.7859192993
 41
-0.3317303622
 42
0.0702635266
  0
ELLIPSE
  5
4B1
100
AcDbEntity
  8
290140580
100
AcDbEllipse
 62
7
  6
CONTINUOUS
 10
1.234365166
 20
-1.179576347
 30
0.0
 11
-0.056719553
 21
0.1918400343
 31
0.0
 40
0.7869692034
 41
-3.1699072294
 42
-1.9037146256
  0
ELLIPSE
  5
4B2
100
AcDbEntity
  8
290140580
100
AcDbEllipse
 62
7
  6
CONTINUOUS
 10
0.052588144
 20
19.6206460013
 30
0.0
 11
-0.1402036525
 21
0.4804419637
 31
0.0
 40
0.786801543
 41
-1.8994699446
 42
-0.3295870063
  0
ELLIPSE
  5
4B3
100
AcDbEntity
  8
268140580
100
AcDbEllipse
 62
7
  6
CONTINUOUS
 10
-5.5774239992
 20
24.6526035916
 30
0.0
 11
0.0637926686
 21
0.4959143153
 31
0.0
 40
0.587602191
 41
0.0010399694
 42
0.2425552264
  0
ELLIPSE
  5
4B4
100
AcDbEntity
  8
268140580
100
AcDbEllipse
 62
7
  6
CONTINUOUS
 10
6.9248047535
 20
-19.899837434
 30
0.0
 11
0.95734844
 21
0.8687739337
 31
0.0
 40
0.2226842811
 41
-2.7030919682
 42
-1.1322956414
  0
ELLIPSE
  5
4B5
100
AcDbEntity
  8
268140580
100
AcDbEllipse
 62
7
  6
CONTINUOUS
 10
3.7177784904
 20
-22.3256356421
 30
0.0
 11
-0.1132974496
 21
0.3836259593
 31
0.0
 40
0.7872115018
 41
-3.148862144
 42
-1.9032523963
  0
ELLIPSE
  5
4B6
100
AcDbEntity
  8
268140580
100
AcDbEllipse
 62
7
  6
CONTINUOUS
 10
2.7791496503
 20
20.7644695591
 30
0.0
 11
-0.1132974496
 21
0.3836259593
 31
0.0
 40
0.7872115018
 41
-1.9032523963
 42
-0.3324560695
  0
ELLIPSE
  5
4B7
100
AcDbEntity
  8
268140580
100
AcDbEllipse
 62
7
  6
CONTINUOUS
 10
-2.6057482135
 20
-23.711804438
 30
0.0
 11
0.2998939192
 21
0.0081285249
 31
0.0
 40
0.2080502686
 41
-2.2094681895
 42
-0.6329122762
  0
ELLIPSE
  5
4B8
100
AcDbEntity
  8
268140580
100
AcDbEllipse
 62
7
  6
CONTINUOUS
 10
-9.2211502116
 20
-22.8727218011
 30
0.0
 11
0.2998939192
 21
0.0081285249
 31
0.0
 40
0.2080502686
 41
3.140486123
 42
4.0737171177
  0
ELLIPSE
  5
4B9
100
AcDbEntity
  8
268140580
100
AcDbEllipse
 62
7
  6
CONTINUOUS
 10
-10.2368365887
 20
23.7549024237
 30
0.0
 11
0.2999632411
 21
0.004947291
 31
0.0
 40
0.1943125363
 41
2.4992952714
 42
4.0758511847
  0
ELLIPSE
  5
4BA
100
AcDbEntity
  8
268140580
100
AcDbEllipse
 62
7
  6
CONTINUOUS
 10
6.0117748818
 20
22.0150830798
 30
0.0
 11
-0.9209076391
 21
1.0300882823
 31
0.0
 40
0.4056995341
 41
4.5256264883
 42
6.0964228151
  0
ELLIPSE
  5
4BB
100
AcDbEntity
  8
268140580
100
AcDbEllipse
 62
7
  6
CONTINUOUS
 10
-2.93144913
 20
21.4357969164
 30
0.0
 11
0.0248203337
 21
0.1984541049
 31
0.0
 40
0.5785351898
 41
0.2492342504
 42
0.3015941279
  0
ELLIPSE
  5
4BC
100
AcDbEntity
  8
268140580
100
AcDbEllipse
 62
7
  6
CONTINUOUS
 10
2.2019718764
 20
-22.6801206482
 30
0.0
 11
-0.1133677399
 21
0.3842341736
 31
0.0
 40
0.7859192993
 41
2.8098622913
 42
4.3797452296
  0
ELLIPSE
  5
4BD
100
AcDbEntity
  8
268140580
100
AcDbEllipse
 62
7
  6
CONTINUOUS
 10
1.4454348491
 20
23.7618400487
 30
0.0
 11
0.0620508342
 21
0.4961352623
 31
0.0
 40
0.5785351898
 41
4.9616232308
 42
6.5236929113
  0
ELLIPSE
  5
4BE
100
AcDbEntity
  8
268140580
100
AcDbEllipse
 62
7
  6
CONTINUOUS
 10
1.1589228306
 20
20.7349933029
 30
0.0
 11
0.249756243
 21
0.0135579953
 31
0.0
 40
0.2421976321
 41
-2.2162240977
 42
-0.6454277709
  0
ELLIPSE
  5
4BF
100
AcDbEntity
  8
268140580
100
AcDbEllipse
 62
7
  6
CONTINUOUS
 10
-0.3724102323
 20
20.9292241274
 30
0.0
 11
0.249756243
 21
0.0135579953
 31
0.0
 40
0.2421976321
 41
3.1337302013
 42
4.0669612095
  0
ELLIPSE
  5
4C0
100
AcDbEntity
  8
268140580
100
AcDbEllipse
 62
7
  6
CONTINUOUS
 10
-15.9910830812
 20
22.4438781194
 30
0.0
 11
-0.1133677399
 21
0.3842341736
 31
0.0
 40
0.7859192993
 41
-0.3317303622
 42
1.238152576
  0
ELLIPSE
  5
4C1
100
AcDbEntity
  8
268140580
100
AcDbEllipse
 62
7
  6
CONTINUOUS
 10
-14.0738113218
 20
22.6670788729
 30
0.0
 11
0.249756243
 21
0.0135579953
 31
0.0
 40
0.2421976321
 41
-2.2162240977
 42
-0.6454277709
  0
ELLIPSE
  5
4C2
100
AcDbEntity
  8
268140580
100
AcDbEllipse
 62
7
  6
CONTINUOUS
 10
1.2667204194
 20
20.2549373304
 30
0.0
 11
-0.112162922
 21
0.384353571
 31
0.0
 40
0.786801543
 41
-1.8994699446
 42
-0.3295870063
  0
ELLIPSE
  5
4C3
100
AcDbEntity
  8
268140580
100
AcDbEllipse
 62
7
  6
CONTINUOUS
 10
-15.6051443847
 20
22.8613096974
 30
0.0
 11
0.249756243
 21
0.0135579953
 31
0.0
 40
0.2421976321
 41
3.1337302013
 42
4.0669612095
  0
ELLIPSE
  5
4C4
100
AcDbEntity
  8
268140580
100
AcDbEllipse
 62
7
  6
CONTINUOUS
 10
-3.5906562203
 20
21.5028616925
 30
0.0
 11
0.2997074917
 21
0.0162695944
 31
0.0
 40
0.2421976321
 41
-2.2162240977
 42
-0.6396681843
  0
ELLIPSE
  5
4C5
100
AcDbEntity
  8
268140580
100
AcDbEllipse
 62
7
  6
CONTINUOUS
 10
-3.6214345907
 20
22.9158197867
 30
0.0
 11
0.2999632411
 21
0.004947291
 31
0.0
 40
0.1943125363
 41
-2.2073341225
 42
-0.6307782091
  0
ELLIPSE
  5
4C6
100
AcDbEntity
  8
268140580
100
AcDbEllipse
 62
7
  6
CONTINUOUS
 10
-10.2060582183
 20
22.3419443295
 30
0.0
 11
0.2997074917
 21
0.0162695944
 31
0.0
 40
0.2421976321
 41
3.1337302148
 42
4.0669612095
  0
ELLIPSE
  5
4C7
100
AcDbEntity
  8
CORPO_STAMPATO
100
AcDbEllipse
 62
7
  6
CONTINUOUS
 10
15.3678139322
 20
21.8426911342
 30
0.0
 11
0.6633061833
 21
0.9022175529
 31
0.0
 40
0.3786875282
 41
0.2076884309
 42
0.4404770396
  0
ELLIPSE
  5
4C8
100
AcDbEntity
  8
CORPO_STAMPATO
100
AcDbEllipse
 62
7
  6
CONTINUOUS
 10
11.0596908812
 20
22.3891237246
 30
0.0
 11
-0.5455860079
 21
1.0139232964
 31
0.0
 40
0.5214407309
 41
4.7233129936
 42
6.1597306626
  0
ENDSEC
  0
SECTION
  2
OBJECTS
  0
DICTIONARY
  5
C
100
AcDbDictionary
280
0
281
1
  3
ACAD_GROUP
350
D
  3
ACAD_MLINESTYLE
350
17
  3
ACAD_LAYOUT
350
1A
  3
ACAD_PLOTSETTINGS
350
19
  3
ACAD_PLOTSTYLENAME
350
E
  0
DICTIONARY
  5
D
102
{ACAD_REACTORS
330
C
102
}
100
AcDbDictionary
280
0
281
1
  0
ACDBDICTIONARYWDFLT
  5
E
102
{ACAD_REACTORS
330
C
102
}
100
AcDbDictionary
281
1
  3
Normal
350
F
100
AcDbDictionaryWithDefault
340
F
  0
DICTIONARY
  5
17
102
{ACAD_REACTORS
330
C
102
}
100
AcDbDictionary
280
0
281
1
  3
Standard
350
18
  0
DICTIONARY
  5
19
102
{ACAD_REACTORS
330
C
102
}
100
AcDbDictionary
281
1
  0
DICTIONARY
  5
1A
102
{ACAD_REACTORS
330
C
102
}
100
AcDbDictionary
281
1
  3
Model
350
4C9
  3
Layout1
350
4CA
  0
ACDBPLACEHOLDER
  5
F
102
{ACAD_REACTORS
330
E
102
}
  0
MLINESTYLE
  5
18
102
{ACAD_REACTORS
330
17
102
}
100
AcDbMlineStyle
  2
STANDARD
 70
0
  3

 62
256
 51
90.0
 52
90.0
 71
2
 49
0.5
 62
256
  6
BYLAYER
 49
-0.5
 62
256
  6
BYLAYER
  0
LAYOUT
  5
4C9
102
{ACAD_REACTORS
330
1A
102
}
100
AcDbPlotSettings
  1

  2
none_device
  4
ANSI_C_(22.00_x_17.00_Inches)
  6

 40
0.0
 41
0.0
 42
0.0
 43
0.0
 44
558.8
 45
431.8
 46
0.0
 47
0.0
 48
0.0
 49
0.0
140
0.0
141
0.0
142
1.0
143
1.0
 70
1024
 72
1
 73
0
 74
0
  7

 75
0
147
1.0
148
0.0
149
0.0
100
AcDbLayout
  1
Model
 70
0
 71
0
 10
0.0
 20
0.0
 11
558.8
 21
431.8
 12
0.0
 22
0.0
 32
0.0
 14
0.0
 24
0.0
 34
0.0
 15
0.0
 25
0.0
 35
0.0
146
0.0
 13
0.0
 23
0.0
 33
0.0
 16
1.0
 26
0.0
 36
0.0
 17
0.0
 27
1.0
 37
0.0
 76
0
330
229
345
0
346
0
  0
LAYOUT
  5
4CA
102
{ACAD_REACTORS
330
1A
102
}
100
AcDbPlotSettings
  1

  2
none_device
  4
ANSI_C_(22.00_x_17.00_Inches)
  6

 40
0.0
 41
0.0
 42
0.0
 43
0.0
 44
558.8
 45
431.8
 46
0.0
 47
0.0
 48
0.0
 49
0.0
140
0.0
141
0.0
142
1.0
143
1.0
 70
0
 72
1
 73
0
 74
0
  7

 75
0
147
1.0
148
0.0
149
0.0
100
AcDbLayout
  1
Layout1
 70
0
 71
1
 10
0.0
 20
0.0
 11
558.8
 21
431.8
 12
0.0
 22
0.0
 32
0.0
 14
0.0
 24
0.0
 34
0.0
 15
0.0
 25
0.0
 35
0.0
146
0.0
 13
0.0
 23
0.0
 33
0.0
 16
1.0
 26
0.0
 36
0.0
 17
0.0
 27
1.0
 37
0.0
 76
0
330
22A
345
0
346
0
  0
ENDSEC
  0
EOF
