  0
SECTION
  2
HEADER
  9
$ACADVER
  1
AC1024
  9
$DWGCODEPAGE
  3
ANSI_1252
  9
$EXTMAX
 10
297.0
 20
210.0
 30
0.0
  9
$EXTMIN
 10
0.0
 20
0.0
 30
0.0
  9
$LIMMIN
 10
0.0
 20
0.0
  9
$LIMMAX
 10
297.0
 20
210.0
  9
$VIEWCTR
 10
148.5
 20
105.0
  9
$VIEWSIZE
 40
210.0
  9
$CLAYER
  8
0
  9
$LTSCALE
 40
16.335
  9
$CELTYPE
  6
BYLAYER
  9
$DIMSCALE
 40
1.0
  9
$DIMASZ
 40
3.0
  9
$DIMEXO
 40
0.5
  9
$DIMDLI
 40
11.286
  9
$DIMEXE
 40
1.5
  9
$DIMCEN
 40
2.673
  9
$DIMLFAC
 40
1.0
  9
$DIMBLK
  1
_FILLED
  9
$DIMALT
 70
0
  9
$DIMALTF
 40
0.0393700787
  9
$DIMTXT
 40
3.0
  9
$DIMTOL
 70
1
  9
$DIMLIM
 70
0
  9
$DIMTFAC
 40
1.0
  9
$DIMTP
 40
0.01
  9
$DIMTM
 40
0.01
  9
$DIMGAP
 40
0.625
  9
$DIMDSEP
 70
44
  9
$AUNITS
 70
0
  9
$PDMODE
 70
3
  9
$PDSIZE
 40
3.0
  9
$HANDSEED
  5
4C0
  9
$TILEMODE
 70
1
  9
$MEASUREMENT
 70
1
  9
$INSUNITS
 70
4
  0
ENDSEC
  0
SECTION
  2
CLASSES
  0
CLASS
  1
ACDBDICTIONARYWDFLT
  2
AcDbDictionaryWithDefault
  3
AutoCAD 2000
 90
0
 91
1
280
0
281
0
  0
CLASS
  1
ACDBPLACEHOLDER
  2
AcDbPlaceHolder
  3
AutoCAD 2000
 90
0
 91
1
280
0
281
0
  0
CLASS
  1
LAYOUT
  2
AcDbLayout
  3
AutoCAD 2000
 90
0
 91
0
280
0
281
0
  0
ENDSEC
  0
SECTION
  2
TABLES
  0
TABLE
  2
VPORT
  5
8
100
AcDbSymbolTable
 70
2
  0
VPORT
  5
1F4
100
AcDbSymbolTableRecord
100
AcDbViewportTableRecord
  2
*ACTIVE
 70
0
 10
0.0
 20
0.0
 11
1.0
 21
1.0
 12
148.5
 22
105.0
 13
0.0
 23
0.0
 14
1.0
 24
1.0
 15
0.0
 25
0.0
 16
0.0
 26
0.0
 36
1.0
 17
0.0
 27
0.0
 37
0.0
 40
210.0
 41
1.4142857143
 42
50.0
 43
0.0
 44
0.0
 50
0.0
 51
0.0
 71
0
 72
100
 73
1
 74
1
 75
0
 76
0
 77
0
 78
0
  0
ENDTAB
  0
TABLE
  2
LTYPE
  5
5
100
AcDbSymbolTable
 70
6
  0
LTYPE
  5
14
100
AcDbSymbolTableRecord
100
AcDbLinetypeTableRecord
  2
BYBLOCK
 70
0
  3

 72
65
 73
0
 40
0.0
  0
LTYPE
  5
15
100
AcDbSymbolTableRecord
100
AcDbLinetypeTableRecord
  2
BYLAYER
 70
0
  3

 72
65
 73
0
 40
0.0
  0
LTYPE
  5
16
100
AcDbSymbolTableRecord
100
AcDbLinetypeTableRecord
  2
CONTINUOUS
 70
64
  3
Solid line
 72
65
 73
0
 40
0.0
  0
LTYPE
  5
1F5
100
AcDbSymbolTableRecord
100
AcDbLinetypeTableRecord
  2
CENTER
 70
64
  3
____ _ ____ _ ____ _ ____ _ ____ _ ____ _ ____
 72
65
 73
4
 40
0.6
 49
0.375
 74
0
 49
-0.075
 74
0
 49
0.075
 74
0
 49
-0.075
 74
0
  0
LTYPE
  5
1F6
100
AcDbSymbolTableRecord
100
AcDbLinetypeTableRecord
  2
HIDDEN
 70
64
  3
- - - - - - - - - - - - - - - - - - - -
 72
65
 73
2
 40
0.2
 49
0.1
 74
0
 49
-0.1
 74
0
  0
LTYPE
  5
1F7
100
AcDbSymbolTableRecord
100
AcDbLinetypeTableRecord
  2
PHANTOM
 70
64
  3
_____ _ _ _____ _ _ _____ _ _ _____
 72
65
 73
6
 40
0.8
 49
0.45
 74
0
 49
-0.05
 74
0
 49
0.1
 74
0
 49
-0.05
 74
0
 49
0.1
 74
0
 49
-0.05
 74
0
  0
LTYPE
  5
1F8
100
AcDbSymbolTableRecord
100
AcDbLinetypeTableRecord
  2
DOT
 70
64
  3
. . . . . . . . . . . . . . . . . . . .
 72
65
 73
2
 40
0.2
 49
0.1
 74
0
 49
-0.1
 74
0
  0
LTYPE
  5
1F9
100
AcDbSymbolTableRecord
100
AcDbLinetypeTableRecord
  2
DASHED
 70
64
  3
- - - - - - - - - - - - - - - - - - - -
 72
65
 73
2
 40
0.2
 49
0.1
 74
0
 49
-0.1
 74
0
  0
ENDTAB
  0
TABLE
  2
LAYER
  5
2
100
AcDbSymbolTable
 70
36
  0
LAYER
  5
10
100
AcDbSymbolTableRecord
100
AcDbLayerTableRecord
  2
0
 70
0
 62
7
  6
CONTINUOUS
370
-3
390
F
  0
LAYER
  5
1FA
100
AcDbSymbolTableRecord
100
AcDbLayerTableRecord
  2
DEFAULT_1
 70
0
 62
7
  6
CENTER
370
-3
390
F
  0
LAYER
  5
1FB
100
AcDbSymbolTableRecord
100
AcDbLayerTableRecord
  2
DEFAULT_2
 70
0
 62
7
  6
HIDDEN
370
-3
390
F
  0
LAYER
  5
1FC
100
AcDbSymbolTableRecord
100
AcDbLayerTableRecord
  2
DEFAULT_3
 70
0
 62
7
  6
PHANTOM
370
-3
390
F
  0
LAYER
  5
1FD
100
AcDbSymbolTableRecord
100
AcDbLayerTableRecord
  2
218140580
 70
0
 62
7
  6
CONTINUOUS
370
-3
390
F
  0
LAYER
  5
1FE
100
AcDbSymbolTableRecord
100
AcDbLayerTableRecord
  2
268140580
 70
0
 62
7
  6
CONTINUOUS
370
-3
390
F
  0
LAYER
  5
1FF
100
AcDbSymbolTableRecord
100
AcDbLayerTableRecord
  2
ASSI
 70
0
 62
7
  6
CONTINUOUS
370
-3
390
F
  0
LAYER
  5
200
100
AcDbSymbolTableRecord
100
AcDbLayerTableRecord
  2
COLOR5
 70
0
 62
7
  6
CONTINUOUS
370
-3
390
F
  0
LAYER
  5
201
100
AcDbSymbolTableRecord
100
AcDbLayerTableRecord
  2
COORDINATE
 70
0
 62
7
  6
CONTINUOUS
370
-3
390
F
  0
LAYER
  5
202
100
AcDbSymbolTableRecord
100
AcDbLayerTableRecord
  2
COORD_ORIGINE
 70
0
 62
7
  6
CONTINUOUS
370
-3
390
F
  0
LAYER
  5
203
100
AcDbSymbolTableRecord
100
AcDbLayerTableRecord
  2
COPY-PUBBLISH
 70
0
 62
7
  6
CONTINUOUS
370
-3
390
F
  0
LAYER
  5
204
100
AcDbSymbolTableRecord
100
AcDbLayerTableRecord
  2
COSMETICHE
 70
0
 62
7
  6
CONTINUOUS
370
-3
390
F
  0
LAYER
  5
205
100
AcDbSymbolTableRecord
100
AcDbLayerTableRecord
  2
CURVA_CENTRALE
 70
0
 62
7
  6
CONTINUOUS
370
-3
390
F
  0
LAYER
  5
206
100
AcDbSymbolTableRecord
100
AcDbLayerTableRecord
  2
CURVE
 70
0
 62
7
  6
CONTINUOUS
370
-3
390
F
  0
LAYER
  5
207
100
AcDbSymbolTableRecord
100
AcDbLayerTableRecord
  2
DRAFT
 70
0
 62
7
  6
CONTINUOUS
370
-3
390
F
  0
LAYER
  5
208
100
AcDbSymbolTableRecord
100
AcDbLayerTableRecord
  2
IGES_INCISIONI
 70
0
 62
7
  6
CONTINUOUS
370
-3
390
F
  0
LAYER
  5
209
100
AcDbSymbolTableRecord
100
AcDbLayerTableRecord
  2
INCISIONI_LASER
 70
0
 62
7
  6
CONTINUOUS
370
-3
390
F
  0
LAYER
  5
20A
100
AcDbSymbolTableRecord
100
AcDbLayerTableRecord
  2
INTF_1
 70
0
 62
7
  6
CONTINUOUS
370
-3
390
F
  0
LAYER
  5
20B
100
AcDbSymbolTableRecord
100
AcDbLayerTableRecord
  2
INTF_11
 70
0
 62
7
  6
CONTINUOUS
370
-3
390
F
  0
LAYER
  5
20C
100
AcDbSymbolTableRecord
100
AcDbLayerTableRecord
  2
INTF_2
 70
0
 62
7
  6
CONTINUOUS
370
-3
390
F
  0
LAYER
  5
20D
100
AcDbSymbolTableRecord
100
AcDbLayerTableRecord
  2
INTF_RED
 70
0
 62
7
  6
CONTINUOUS
370
-3
390
F
  0
LAYER
  5
20E
100
AcDbSymbolTableRecord
100
AcDbLayerTableRecord
  2
INTF_YELLOW
 70
0
 62
7
  6
CONTINUOUS
370
-3
390
F
  0
LAYER
  5
20F
100
AcDbSymbolTableRecord
100
AcDbLayerTableRecord
  2
NOTE
 70
0
 62
7
  6
CONTINUOUS
370
-3
390
F
  0
LAYER
  5
210
100
AcDbSymbolTableRecord
100
AcDbLayerTableRecord
  2
PIANI
 70
0
 62
7
  6
CONTINUOUS
370
-3
390
F
  0
LAYER
  5
211
100
AcDbSymbolTableRecord
100
AcDbLayerTableRecord
  2
PIANI_CONTATTI
 70
0
 62
7
  6
CONTINUOUS
370
-3
390
F
  0
LAYER
  5
212
100
AcDbSymbolTableRecord
100
AcDbLayerTableRecord
  2
PIANI_ORIGINE
 70
0
 62
7
  6
CONTINUOUS
370
-3
390
F
  0
LAYER
  5
213
100
AcDbSymbolTableRecord
100
AcDbLayerTableRecord
  2
PIANI_RIFERIMENTO
 70
0
 62
7
  6
CONTINUOUS
370
-3
390
F
  0
LAYER
  5
214
100
AcDbSymbolTableRecord
100
AcDbLayerTableRecord
  2
PIANI_SFORMI
 70
0
 62
7
  6
CONTINUOUS
370
-3
390
F
  0
LAYER
  5
215
100
AcDbSymbolTableRecord
100
AcDbLayerTableRecord
  2
PUNTI
 70
0
 62
7
  6
CONTINUOUS
370
-3
390
F
  0
LAYER
  5
216
100
AcDbSymbolTableRecord
100
AcDbLayerTableRecord
  2
RACCORDO
 70
0
 62
7
  6
CONTINUOUS
370
-3
390
F
  0
LAYER
  5
217
100
AcDbSymbolTableRecord
100
AcDbLayerTableRecord
  2
RGB__255__255__255__
 70
0
 62
7
  6
CONTINUOUS
370
-3
390
F
  0
LAYER
  5
218
100
AcDbSymbolTableRecord
100
AcDbLayerTableRecord
  2
SMUSSO
 70
0
 62
7
  6
CONTINUOUS
370
-3
390
F
  0
LAYER
  5
219
100
AcDbSymbolTableRecord
100
AcDbLayerTableRecord
  2
SNAPLINE
 70
0
 62
7
  6
CONTINUOUS
370
-3
390
F
  0
LAYER
  5
21A
100
AcDbSymbolTableRecord
100
AcDbLayerTableRecord
  2
SUPERFICI
 70
0
 62
7
  6
CONTINUOUS
370
-3
390
F
  0
LAYER
  5
21B
100
AcDbSymbolTableRecord
100
AcDbLayerTableRecord
  2
TRACCIBILITA
 70
0
 62
7
  6
CONTINUOUS
370
-3
390
F
  0
LAYER
  5
21C
100
AcDbSymbolTableRecord
100
AcDbLayerTableRecord
  2
TRASH
 70
0
 62
7
  6
CONTINUOUS
370
-3
390
F
  0
LAYER
  5
21D
100
AcDbSymbolTableRecord
100
AcDbLayerTableRecord
  2
WHITE
 70
0
 62
7
  6
CONTINUOUS
370
-3
390
F
  0
LAYER
  5
21E
100
AcDbSymbolTableRecord
100
AcDbLayerTableRecord
  2
XSEC_DATUMS
 70
0
 62
7
  6
CONTINUOUS
370
-3
390
F
  0
ENDTAB
  0
TABLE
  2
STYLE
  5
3
100
AcDbSymbolTable
 70
1
  0
STYLE
  5
11
100
AcDbSymbolTableRecord
100
AcDbTextStyleTableRecord
  2
STANDARD
 70
0
 40
0.0
 41
0.8
 50
0.0
 71
0
 42
0.2
  3
txt
  4

  0
STYLE
  5
21F
100
AcDbSymbolTableRecord
100
AcDbTextStyleTableRecord
  2
TEXTSTYLE_1
 70
0
 40
0.0
 41
0.8
 50
0.0
 71
0
 42
0.2
  3
gdt
  4

  0
ENDTAB
  0
TABLE
  2
VIEW
  5
6
100
AcDbSymbolTable
 70
0
  0
ENDTAB
  0
TABLE
  2
UCS
  5
7
100
AcDbSymbolTable
 70
0
  0
ENDTAB
  0
TABLE
  2
APPID
  5
9
100
AcDbSymbolTable
 70
1
  0
APPID
  5
220
100
AcDbSymbolTableRecord
100
AcDbRegAppTableRecord
  2
ACAD
 70
0
  0
ENDTAB
  0
TABLE
  2
BLOCK_RECORD
  5
1
100
AcDbSymbolTable
 70
0
  0
BLOCK_RECORD
  5
221
100
AcDbSymbolTableRecord
100
AcDbBlockTableRecord
  2
*Model_Space
  0
BLOCK_RECORD
  5
222
100
AcDbSymbolTableRecord
100
AcDbBlockTableRecord
  2
*Paper_Space
  0
BLOCK_RECORD
  5
223
100
AcDbSymbolTableRecord
100
AcDbBlockTableRecord
  2
_FILLED
  0
ENDTAB
  0
TABLE
  2
DIMSTYLE
  5
A
100
AcDbSymbolTable
 70
1
100
AcDbDimStyleTable
 71
0
  0
DIMSTYLE
105
224
100
AcDbSymbolTableRecord
100
AcDbDimStyleTableRecord
  2
STANDARD
 70
0
  3

  4

 40
1.0
 41
3.0
 42
0.5
 43
0.38
 44
1.5
 45
0.0
 46
0.0
 47
0.01
 48
0.01
140
3.0
141
0.09
142
0.0
143
25.4
144
1.0
145
0.0
146
1.0
147
0.625
 71
1
 72
0
 73
0
 74
0
 75
0
 76
0
 77
1
 78
8
 79
2
170
0
171
1
172
0
173
0
174
0
175
0
176
0
177
0
178
0
270
2
179
2
271
2
272
2
273
2
274
2
275
0
280
0
281
0
282
0
283
1
284
8
285
0
286
0
287
3
288
0
340
11
278
44
341
223
342
223
343
223
344
223
  0
ENDTAB
  0
ENDSEC
  0
SECTION
  2
BLOCKS
  0
BLOCK
  5
20
100
AcDbEntity
  8
0
100
AcDbBlockBegin
  2
*Model_Space
 70
0
 10
0.0
 20
0.0
 30
0.0
  3
*Model_Space
  1

  0
ENDBLK
  5
21
100
AcDbEntity
  8
0
100
AcDbBlockEnd
  0
BLOCK
  5
1C
100
AcDbEntity
  8
0
100
AcDbBlockBegin
  2
*Paper_Space
 70
0
 10
0.0
 20
0.0
 30
0.0
  3
*Paper_Space
  1

  0
ENDBLK
  5
1D
100
AcDbEntity
  8
0
100
AcDbBlockEnd
  0
BLOCK
  5
225
100
AcDbEntity
  8
0
100
AcDbBlockBegin
  2
_FILLED
 70
64
 10
0.0
 20
0.0
  3
_FILLED
  1

  0
SOLID
  5
226
100
AcDbEntity
  8
0
  6
BYBLOCK
 62
0
100
AcDbTrace
 10
0.0
 20
0.0
 11
-1.0
 21
0.3166666667
 12
-1.0
 22
-0.3166666667
 13
-1.0
 23
-0.3166666667
  0
ENDBLK
  5
227
100
AcDbEntity
  8
0
  6
BYBLOCK
 62
0
100
AcDbBlockEnd
  0
ENDSEC
  0
SECTION
  2
ENTITIES
  0
LWPOLYLINE
  5
228
100
AcDbEntity
  8
RACCORDO
100
AcDbPolyline
 62
7
  6
CONTINUOUS
 90
19
 70
0
 10
-61.2252490266
 20
25.0043526922
 10
-61.2767862243
 20
24.9727686287
 10
-61.3634086886
 20
24.9125620894
 10
-61.4465855753
 20
24.8457704557
 10
-61.5261723077
 20
24.7728163967
 10
-61.6020316333
 20
24.6941160672
 10
-61.6738860531
 20
24.6101648119
 10
-61.7415622885
 20
24.521359523
 10
-61.8048383811
 20
24.4281075139
 10
-61.8633026343
 20
24.3310798543
 10
-61.9167513853
 20
24.2307164444
 10
-61.964943229
 20
24.1274350595
 10
-62.0075101691
 20
24.0219974324
 10
-62.044247362
 20
23.9148598048
 10
-62.0749186646
 20
23.8064446623
 10
-62.099250448
 20
23.6974157688
 10
-62.1170123832
 20
23.5882119182
 10
-62.1279844504
 20
23.4791815548
 10
-62.1310606485
 20
23.4186764258
  0
LINE
  5
229
100
AcDbEntity
  8
268140580
100
AcDbLine
 62
7
  6
CONTINUOUS
 10
-56.945965043
 20
27.5172365081
 11
-56.6152199414
 21
27.7100911963
  0
LINE
  5
22A
100
AcDbEntity
  8
RACCORDO
100
AcDbLine
 62
7
  6
CONTINUOUS
 10
-61.225369458
 20
25.0042871915
 11
-59.2411681948
 21
26.1612582669
  0
LINE
  5
22B
100
AcDbEntity
  8
268140580
100
AcDbLine
 62
250
  6
CONTINUOUS
 10
-56.7588428229
 20
27.5104785603
 11
-56.6152199414
 21
27.5942238551
  0
LINE
  5
22C
100
AcDbEntity
  8
RACCORDO
100
AcDbLine
 62
250
  6
CONTINUOUS
 10
-60.9920154106
 20
24.9955197983
 11
-59.0072654197
 21
26.1528108322
  0
LWPOLYLINE
  5
22D
100
AcDbEntity
  8
268140580
100
AcDbPolyline
 62
250
  6
CONTINUOUS
 90
16
 70
0
 10
-53.4307267995
 20
29.1019609945
 10
-53.4217386561
 20
29.1066961523
 10
-53.4132519168
 20
29.1116627415
 10
-53.4052907592
 20
29.1168476252
 10
-53.3978764714
 20
29.1222381994
 10
-53.391032211
 20
29.1278189829
 10
-53.3847816897
 20
29.1335712708
 10
-53.3791432417
 20
29.1394779483
 10
-53.3741308597
 20
29.1455240893
 10
-53.369758166
 20
29.1516932991
 10
-53.3660371365
 20
29.1579688008
 10
-53.362978125
 20
29.1643332724
 10
-53.360589641
 20
29.1707690664
 10
-53.3588782468
 20
29.1772584478
 10
-53.3578485934
 20
29.1837837075
 10
-53.3575034948
 20
29.1903493422
  0
LWPOLYLINE
  5
22E
100
AcDbEntity
  8
268140580
100
AcDbPolyline
 62
250
  6
CONTINUOUS
 90
16
 70
0
 10
-53.4307267995
 20
28.7563235336
 10
-53.4217172884
 20
28.7610705554
 10
-53.4132170044
 20
28.7660468323
 10
-53.4052492462
 20
28.7712387247
 10
-53.3978358528
 20
28.7766320018
 10
-53.3909971438
 20
28.7822118812
 10
-53.3847518637
 20
28.7879630687
 10
-53.3791171303
 20
28.7938698008
 10
-53.3741083881
 20
28.7999158875
 10
-53.3697393657
 20
28.8060847569
 10
-53.3660220382
 20
28.8123595006
 10
-53.3629665946
 20
28.8187229198
 10
-53.3605814096
 20
28.8251575731
 10
-53.3588730209
 20
28.8316458233
 10
-53.3578461111
 20
28.8381698867
 10
-53.3575034948
 20
28.8447118812
  0
LWPOLYLINE
  5
22F
100
AcDbEntity
  8
268140580
100
AcDbPolyline
 62
250
  6
CONTINUOUS
 90
28
 70
0
 10
-57.0707840745
 20
29.0413831112
 10
-57.0811220092
 20
29.0359542489
 10
-57.0914298521
 20
29.0298006009
 10
-57.1016723359
 20
29.0229432211
 10
-57.1118144175
 20
29.0154055712
 10
-57.1218213969
 20
29.0072134402
 10
-57.1316590365
 20
28.9983948565
 10
-57.1412936782
 20
28.9889799918
 10
-57.1506923581
 20
28.9790010578
 10
-57.1598229198
 20
28.9684921963
 10
-57.1686541244
 20
28.9574893619
 10
-57.177155757
 20
28.9460301995
 10
-57.1852987303
 20
28.9341539151
 10
-57.1930551841
 20
28.9219011419
 10
-57.2003985807
 20
28.9093138014
 10
-57.2073037957
 20
28.8964349593
 10
-57.2137472037
 20
28.8833086792
 10
-57.2197067594
 20
28.8699798708
 10
-57.2251620729
 20
28.8564941371
 10
-57.2300944795
 20
28.8428976177
 10
-57.2344871038
 20
28.8292368314
 10
-57.2383249167
 20
28.815558517
 10
-57.2415947879
 20
28.8019094729
 10
-57.2442855297
 20
28.7883363978
 10
-57.2463879362
 20
28.7748857301
 10
-57.2478948143
 20
28.7616034896
 10
-57.2488010083
 20
28.7485351198
 10
-57.2491034179
 20
28.7357253325
  0
LINE
  5
230
100
AcDbEntity
  8
268140580
100
AcDbLine
 62
7
  6
CONTINUOUS
 10
-57.1822059
 20
29.0486722835
 11
-55.0608855565
 21
30.0866593877
  0
LINE
  5
231
100
AcDbEntity
  8
268140580
100
AcDbLine
 62
250
  6
CONTINUOUS
 10
-57.0707840745
 20
29.0413831112
 11
-54.9494637309
 21
30.0793702154
  0
LINE
  5
232
100
AcDbEntity
  8
268140580
100
AcDbLine
 62
250
  6
CONTINUOUS
 10
-53.6059608467
 20
29.4076187733
 11
-55.7272811902
 21
28.3696316691
  0
LINE
  5
233
100
AcDbEntity
  8
268140580
100
AcDbLine
 62
250
  6
CONTINUOUS
 10
-53.4307267995
 20
29.1019609945
 11
-55.552047143
 21
28.0639738903
  0
LWPOLYLINE
  5
234
100
AcDbEntity
  8
RACCORDO
100
AcDbPolyline
 62
250
  6
CONTINUOUS
 90
8
 70
0
 10
-61.225251052
 20
25.0043561719
 10
-61.1997780157
 20
25.016591967
 10
-61.1692709558
 20
25.0254838881
 10
-61.1366216095
 20
25.0294169714
 10
-61.1021872745
 20
25.0283481754
 10
-61.0663447823
 20
25.0222891962
 10
-61.0294863745
 20
25.0113063403
 10
-60.9920154106
 20
24.9955197983
  0
LWPOLYLINE
  5
235
100
AcDbEntity
  8
268140580
100
AcDbPolyline
 62
250
  6
CONTINUOUS
 90
31
 70
0
 10
-55.552047143
 20
28.0639738903
 10
-55.5615411867
 20
28.0594691348
 10
-55.5714937406
 20
28.0552189928
 10
-55.5818775252
 20
28.0512351137
 10
-55.5926640796
 20
28.047528417
 10
-55.6038238383
 20
28.0441090625
 10
-55.6153262134
 20
28.0409864225
 10
-55.6271396775
 20
28.0381690558
 10
-55.6392318509
 20
28.0356646847
 10
-55.6515695897
 20
28.0334801735
 10
-55.664119077
 20
28.0316215097
 10
-55.6768459156
 20
28.0300937879
 10
-55.6897152221
 20
28.0289011954
 10
-55.7026917225
 20
28.0280470011
 10
-55.7157398493
 20
28.0275335462
 10
-55.7288238383
 20
28.027362238
 10
-55.7419078274
 20
28.0275335462
 10
-55.7549559541
 20
28.0280470011
 10
-55.7679324546
 20
28.0289011954
 10
-55.780801761
 20
28.0300937879
 10
-55.7935285996
 20
28.0316215097
 10
-55.8060780869
 20
28.0334801735
 10
-55.8184158257
 20
28.0356646847
 10
-55.8305079991
 20
28.0381690558
 10
-55.8423214633
 20
28.0409864225
 10
-55.8538238383
 20
28.0441090625
 10
-55.8649835971
 20
28.047528417
 10
-55.8757701514
 20
28.0512351137
 10
-55.8861539361
 20
28.0552189928
 10
-55.8961064899
 20
28.0594691348
 10
-55.9056005336
 20
28.0639738903
  0
LWPOLYLINE
  5
236
100
AcDbEntity
  8
268140580
100
AcDbPolyline
 62
250
  6
CONTINUOUS
 90
31
 70
0
 10
-55.552047143
 20
27.6956633618
 10
-55.5615305238
 20
27.691163407
 10
-55.5714743058
 20
27.686916334
 10
-55.5818516537
 20
27.6829339848
 10
-55.592635538
 20
27.6792271574
 10
-55.603795782
 20
27.6758066343
 10
-55.6152988034
 20
27.672682878
 10
-55.6271118408
 20
27.6698647251
 10
-55.6392036748
 20
27.667359565
 10
-55.6515414764
 20
27.6651742131
 10
-55.6640916559
 20
27.6633146557
 10
-55.6768196166
 20
27.6617860551
 10
-55.6896901502
 20
27.660592653
 10
-55.7026678513
 20
27.6597377276
 10
-55.7157172595
 20
27.65922361
 10
-55.7288026317
 20
27.6590517099
 10
-55.7418881155
 20
27.6592225014
 10
-55.754937815
 20
27.6597355196
 10
-55.7679159215
 20
27.6605893578
 10
-55.7807868446
 20
27.6617816743
 10
-55.7935153083
 20
27.6633092006
 10
-55.8060664166
 20
27.6651677491
 10
-55.8184057788
 20
27.6673522279
 10
-55.8304995462
 20
27.6698566456
 10
-55.8423145091
 20
27.6726741223
 10
-55.8538182462
 20
27.6757969197
 10
-55.8649792607
 20
27.6792164804
 10
-55.8757670065
 20
27.6829234427
 10
-55.8861519247
 20
27.6869076499
 10
-55.8961055295
 20
27.6911581739
 10
-55.9056005336
 20
27.6956633618
  0
LWPOLYLINE
  5
237
100
AcDbEntity
  8
268140580
100
AcDbPolyline
 62
250
  6
CONTINUOUS
 90
13
 70
0
 10
-53.6059608467
 20
29.4076187733
 10
-53.5957422059
 20
29.4122566241
 10
-53.5855629207
 20
29.4161519285
 10
-53.5754570532
 20
29.4192916517
 10
-53.5654584195
 20
29.4216652878
 10
-53.5556004772
 20
29.4232648941
 10
-53.5459162128
 20
29.4240851179
 10
-53.5364380318
 20
29.4241232146
 10
-53.5271976503
 20
29.4233790567
 10
-53.5182259883
 20
29.4218551344
 10
-53.5095530669
 20
29.419556547
 10
-53.5012079074
 20
29.4164909859
 10
-53.4957000959
 20
29.4139561399
  0
LWPOLYLINE
  5
238
100
AcDbEntity
  8
268140580
100
AcDbPolyline
 62
250
  6
CONTINUOUS
 90
14
 70
0
 10
-55.0608855565
 20
30.0866593877
 10
-55.0536858249
 20
30.0898207121
 10
-55.0460118302
 20
30.0924521522
 10
-55.0380772988
 20
30.0944519356
 10
-55.0299039901
 20
30.0958145744
 10
-55.0215143139
 20
30.0965363286
 10
-55.0129312768
 20
30.0966152156
 10
-55.0041784227
 20
30.0960510166
 10
-54.995279747
 20
30.0948452762
 10
-54.9862596576
 20
30.0930012995
 10
-54.9771429168
 20
30.0905241502
 10
-54.9679545343
 20
30.0874206286
 10
-54.9587196978
 20
30.0836992474
 10
-54.9494637309
 20
30.0793702154
  0
LWPOLYLINE
  5
239
100
AcDbEntity
  8
268140580
100
AcDbPolyline
 62
250
  6
CONTINUOUS
 90
14
 70
0
 10
-57.1822059
 20
29.0486722835
 10
-57.1749854285
 20
29.0518417095
 10
-57.1673124377
 20
29.0544709017
 10
-57.1593790978
 20
29.0564687007
 10
-57.1512071533
 20
29.0578296309
 10
-57.142819003
 20
29.0585499618
 10
-57.1342376383
 20
29.0586277192
 10
-57.1254865801
 20
29.0580626899
 10
-57.1165898144
 20
29.0568564226
 10
-57.1075717266
 20
29.0550122237
 10
-57.0984570348
 20
29.0525351479
 10
-57.0892707216
 20
29.0494319847
 10
-57.080037966
 20
29.0457112397
 10
-57.0707840745
 20
29.0413831112
  0
LINE
  5
23A
100
AcDbEntity
  8
268140580
100
AcDbLine
 62
250
  6
CONTINUOUS
 10
-53.9610568854
 20
28.1161584906
 11
-53.4307267995
 21
28.7563235336
  0
LINE
  5
23B
100
AcDbEntity
  8
268140580
100
AcDbLine
 62
7
  6
CONTINUOUS
 10
-53.9453145426
 20
28.0450588451
 11
-53.4149844567
 21
28.685223888
  0
LINE
  5
23C
100
AcDbEntity
  8
268140580
100
AcDbLine
 62
7
  6
CONTINUOUS
 10
-53.9647550587
 20
27.2382390075
 11
-54.8449403618
 21
26.7416506422
  0
LINE
  5
23D
100
AcDbEntity
  8
268140580
100
AcDbLine
 62
7
  6
CONTINUOUS
 10
-55.7475691442
 20
24.8814679196
 11
-56.0950305828
 21
24.6966934138
  0
LWPOLYLINE
  5
23E
100
AcDbEntity
  8
268140580
100
AcDbPolyline
 62
250
  6
CONTINUOUS
 90
15
 70
0
 10
-54.1378335806
 20
27.652770143
 10
-54.1278539814
 20
27.6580590224
 10
-54.1185063121
 20
27.6636290843
 10
-54.1098222019
 20
27.669461481
 10
-54.1018310347
 20
27.6755364773
 10
-54.0945598497
 20
27.6818335171
 10
-54.0880332498
 20
27.688331293
 10
-54.0822733186
 20
27.6950078182
 10
-54.0772995452
 20
27.7018405015
 10
-54.0731287587
 20
27.7088062231
 10
-54.0697750713
 20
27.7158814131
 10
-54.0672498303
 20
27.7230421312
 10
-54.0655615795
 20
27.7302641478
 10
-54.0647160311
 20
27.737523026
 10
-54.0646102759
 20
27.7411584906
  0
LWPOLYLINE
  5
23F
100
AcDbEntity
  8
268140580
100
AcDbPolyline
 62
250
  6
CONTINUOUS
 90
11
 70
0
 10
-54.1378335806
 20
27.3251421988
 10
-54.1278540081
 20
27.3304310632
 10
-54.1185063597
 20
27.33600111
 10
-54.1098222649
 20
27.3418334919
 10
-54.1018311078
 20
27.3479084739
 10
-54.0945599281
 20
27.3542055002
 10
-54.0880333292
 20
27.3607032637
 10
-54.0822733949
 20
27.367379778
 10
-54.0772996151
 20
27.3742124519
 10
-54.0731288194
 20
27.3811781658
 10
-54.0697751205
 20
27.3882533499
  0
LWPOLYLINE
  5
240
100
AcDbEntity
  8
268140580
100
AcDbPolyline
 62
7
  6
CONTINUOUS
 90
52
 70
0
 10
-55.7475673908
 20
24.8814644916
 10
-55.745343942
 20
24.8826277091
 10
-55.7310803002
 20
24.8893159443
 10
-55.7163980353
 20
24.8949135597
 10
-55.7013386897
 20
24.899409182
 10
-55.6858607211
 20
24.9028141845
 10
-55.6699682382
 20
24.9051309759
 10
-55.6536239559
 20
24.9063682647
 10
-55.6368651593
 20
24.9065173424
 10
-55.6198078127
 20
24.9055544923
 10
-55.6024366573
 20
24.9034632887
 10
-55.5847669518
 20
24.9002601572
 10
-55.5669604368
 20
24.8959706588
 10
-55.5490316285
 20
24.8905859292
 10
-55.5309660108
 20
24.8841148326
 10
-55.5128817758
 20
24.8766095222
 10
-55.4948079352
 20
24.8680857982
 10
-55.4767154773
 20
24.8585278603
 10
-55.4586355601
 20
24.8479404617
 10
-55.4405125541
 20
24.8362832983
 10
-55.4224020888
 20
24.8235966741
 10
-55.4045022102
 20
24.8100062549
 10
-55.38681362
 20
24.7954850225
 10
-55.3693356164
 20
24.7800599951
 10
-55.3522641408
 20
24.7639378929
 10
-55.335637074
 20
24.7471372538
 10
-55.3194165353
 20
24.7296395399
 10
-55.3036848235
 20
24.7115958581
 10
-55.2884700649
 20
24.6930443158
 10
-55.2737441333
 20
24.6739468055
 10
-55.2595049484
 20
24.6543401121
 10
-55.2457246932
 20
24.6341885358
 10
-55.2324311848
 20
24.6135277764
 10
-55.2197057938
 20
24.5925017176
 10
-55.2075529104
 20
24.5711051643
 10
-55.1959681444
 20
24.5493433117
 10
-55.1850196962
 20
24.5273756286
 10
-55.1747232334
 20
24.5052303138
 10
-55.1650630884
 20
24.4828791686
 10
-55.1560604588
 20
24.4603970663
 10
-55.1477107234
 20
24.437776506
 10
-55.1400185035
 20
24.4150249886
 10
-55.1330188601
 20
24.3922398904
 10
-55.1267095322
 20
24.3694021394
 10
-55.1210927809
 20
24.3465308075
 10
-55.1162104505
 20
24.3237804863
 10
-55.1120695835
 20
24.3011492615
 10
-55.1086631374
 20
24.2786390475
 10
-55.1060118297
 20
24.2564101788
 10
-55.1041225663
 20
24.2345161002
 10
-55.1029884412
 20
24.212903367
 10
-55.1027691896
 20
24.2005627172
  0
LINE
  5
241
100
AcDbEntity
  8
268140580
100
AcDbLine
 62
7
  6
CONTINUOUS
 10
-53.9573536368
 20
27.24217709
 11
-54.1046793854
 21
27.1685142157
  0
LINE
  5
242
100
AcDbEntity
  8
268140580
100
AcDbLine
 62
7
  6
CONTINUOUS
 10
-46.1043404822
 20
30.383035076
 11
-52.546843323
 21
27.2403254657
  0
LWPOLYLINE
  5
243
100
AcDbEntity
  8
268140580
100
AcDbPolyline
 62
250
  6
CONTINUOUS
 90
13
 70
0
 10
-53.9964122244
 20
27.3994244915
 10
-54.0024246261
 20
27.3965748911
 10
-54.0084553755
 20
27.3940320894
 10
-54.0144932207
 20
27.3918054417
 10
-54.0205267959
 20
27.3899038033
 10
-54.0265441314
 20
27.3883356592
 10
-54.0325326884
 20
27.3871089923
 10
-54.0384875942
 20
27.3862301781
 10
-54.0443888257
 20
27.3857076391
 10
-54.0502018394
 20
27.3855473246
 10
-54.0559123671
 20
27.3857502562
 10
-54.0615118885
 20
27.3863167713
 10
-54.0626971853
 20
27.3865179033
  0
LWPOLYLINE
  5
244
100
AcDbEntity
  8
268140580
100
AcDbPolyline
 62
250
  6
CONTINUOUS
 90
28
 70
0
 10
-54.8449403618
 20
27.2992167524
 10
-54.8555180907
 20
27.2942269661
 10
-54.8666581843
 20
27.2895531419
 10
-54.878322948
 20
27.2852110945
 10
-54.890472912
 20
27.281215516
 10
-54.9030669647
 20
27.2775799261
 10
-54.9160624917
 20
27.2743166266
 10
-54.9294155203
 20
27.2714366595
 10
-54.9430808681
 20
27.2689497696
 10
-54.9570122959
 20
27.2668643717
 10
-54.971162664
 20
27.2651875223
 10
-54.9854840923
 20
27.2639248952
 10
-54.9999281214
 20
27.2630807628
 10
-55.0144458774
 20
27.2626579813
 10
-55.0289882368
 20
27.2626579813
 10
-55.0435059928
 20
27.2630807628
 10
-55.057950022
 20
27.2639248952
 10
-55.0722714502
 20
27.2651875223
 10
-55.0864218184
 20
27.2668643717
 10
-55.1003532462
 20
27.2689497696
 10
-55.114018594
 20
27.2714366595
 10
-55.1273716226
 20
27.2743166266
 10
-55.1403671496
 20
27.2775799261
 10
-55.1529612022
 20
27.281215516
 10
-55.1651111662
 20
27.2852110945
 10
-55.1767759299
 20
27.2895531419
 10
-55.1879160235
 20
27.2942269661
 10
-55.1984937524
 20
27.2992167524
  0
LINE
  5
245
100
AcDbEntity
  8
RACCORDO
100
AcDbLine
 62
7
  6
CONTINUOUS
 10
-43.8458703486
 20
30.8305326115
 11
-45.2093201165
 21
30.1875334781
  0
LWPOLYLINE
  5
246
100
AcDbEntity
  8
RACCORDO
100
AcDbPolyline
 62
250
  6
CONTINUOUS
 90
26
 70
0
 10
-43.4069855981
 20
30.7981296765
 10
-43.3877129936
 20
30.8070319381
 10
-43.3684638814
 20
30.8152791328
 10
-43.349252575
 20
30.8228651263
 10
-43.3300933673
 20
30.8297842738
 10
-43.3110004974
 20
30.8360314318
 10
-43.2919881398
 20
30.8416019597
 10
-43.2730704126
 20
30.8464917161
 10
-43.2542614036
 20
30.8506970547
 10
-43.2355751368
 20
30.854214838
 10
-43.2170255203
 20
30.8570424486
 10
-43.1986263343
 20
30.8591777865
 10
-43.1803912581
 20
30.8606192639
 10
-43.1623338498
 20
30.8613658089
 10
-43.1444675386
 20
30.8614168658
 10
-43.1268056121
 20
30.8607723966
 10
-43.1093612045
 20
30.8594328805
 10
-43.0921472866
 20
30.8573993136
 10
-43.0751766587
 20
30.8546732081
 10
-43.0584619402
 20
30.851256591
 10
-43.04201556
 20
30.847152003
 10
-43.0258497477
 20
30.8423624962
 10
-43.0099765242
 20
30.8368916321
 10
-42.9944076928
 20
30.8307434789
 10
-42.9791548304
 20
30.8239226083
 10
-42.9721127175
 20
30.8204930061
  0
LWPOLYLINE
  5
247
100
AcDbEntity
  8
RACCORDO
100
AcDbPolyline
 62
7
  6
CONTINUOUS
 90
12
 70
0
 10
-46.7146606927
 20
-20.5730506917
 10
-46.6775959956
 20
-20.5905858806
 10
-46.6030961963
 20
-20.6198146695
 10
-46.5256524259
 20
-20.6424477006
 10
-46.4456525993
 20
-20.6582656952
 10
-46.3632186597
 20
-20.6670827695
 10
-46.2787973824
 20
-20.6686742459
 10
-46.1928712116
 20
-20.6628771873
 10
-46.1054784333
 20
-20.6494850809
 10
-46.0168600508
 20
-20.6282583349
 10
-45.9275905752
 20
-20.5990928112
 10
-45.8792133981
 20
-20.5799811994
  0
LINE
  5
248
100
AcDbEntity
  8
RACCORDO
100
AcDbLine
 62
7
  6
CONTINUOUS
 10
-46.7135504111
 20
-20.573607302
 11
-61.6001647992
 21
-13.1303001079
  0
LINE
  5
249
100
AcDbEntity
  8
RACCORDO
100
AcDbLine
 62
250
  6
CONTINUOUS
 10
-47.1070185967
 20
-19.8130118808
 11
-61.9845812856
 21
-12.3742305363
  0
LWPOLYLINE
  5
24A
100
AcDbEntity
  8
RACCORDO
100
AcDbPolyline
 62
250
  6
CONTINUOUS
 90
13
 70
0
 10
-61.6001648543
 20
-13.1303000804
 10
-61.656218193
 20
-13.0980298881
 10
-61.7080316985
 20
-13.0596135897
 10
-61.7560463506
 20
-13.0148876167
 10
-61.8000293157
 20
-12.9640597285
 10
-61.8397471627
 20
-12.9073885801
 10
-61.8749970118
 20
-12.8451664026
 10
-61.9056004772
 20
-12.7777129595
 10
-61.9314101552
 20
-12.7053561403
 10
-61.9523056174
 20
-12.6284409206
 10
-61.9681834388
 20
-12.5473422348
 10
-61.9789603418
 20
-12.4624656069
 10
-61.9845812856
 20
-12.3742305363
  0
LWPOLYLINE
  5
24B
100
AcDbEntity
  8
RACCORDO
100
AcDbPolyline
 62
250
  6
CONTINUOUS
 90
9
 70
0
 10
-62.1310438715
 20
-12.1966196299
 10
-62.1301952533
 20
-12.2079264464
 10
-62.1243763931
 20
-12.2348055442
 10
-62.1132747504
 20
-12.261095225
 10
-62.097009274
 20
-12.2865138077
 10
-62.0757542403
 20
-12.3107889446
 10
-62.0497373868
 20
-12.3336605397
 10
-62.0192374712
 20
-12.3548835348
 10
-61.9845812853
 20
-12.3742305362
  0
LINE
  5
24C
100
AcDbEntity
  8
268140580
100
AcDbLine
 62
7
  6
CONTINUOUS
 10
-46.2889483095
 20
27.717622543
 11
-44.9454454252
 21
28.3893739851
  0
LINE
  5
24D
100
AcDbEntity
  8
268140580
100
AcDbLine
 62
7
  6
CONTINUOUS
 10
-45.3230224832
 20
27.8470320655
 11
-43.1776784723
 21
28.919704071
  0
LINE
  5
24E
100
AcDbEntity
  8
268140580
100
AcDbLine
 62
7
  6
CONTINUOUS
 10
-45.2959135196
 20
29.369859858
 11
-49.8951928935
 21
27.1193781271
  0
LINE
  5
24F
100
AcDbEntity
  8
268140580
100
AcDbLine
 62
7
  6
CONTINUOUS
 10
-51.7352925829
 20
26.8514032428
 11
-45.9017466945
 21
29.6727764454
  0
LWPOLYLINE
  5
250
100
AcDbEntity
  8
268140580
100
AcDbPolyline
 62
7
  6
CONTINUOUS
 90
31
 70
0
 10
-46.2889483095
 20
27.717622543
 10
-46.2638991387
 20
27.7297238176
 10
-46.2380308365
 20
27.7413725147
 10
-46.2113434028
 20
27.7525686344
 10
-46.1837823464
 20
27.7633337056
 10
-46.1554021585
 20
27.7736461993
 10
-46.126366313
 20
27.7834415284
 10
-46.096676824
 20
27.7927110725
 10
-46.0663316775
 20
27.801463452
 10
-46.0354883046
 20
27.8096599407
 10
-46.004193074
 20
27.8172886222
 10
-45.9723996171
 20
27.824361413
 10
-45.9401262588
 20
27.8308753359
 10
-45.9073354199
 20
27.8368387275
 10
-45.8740646795
 20
27.8422432513
 10
-45.8404451008
 20
27.8470609205
 10
-45.8064561231
 20
27.8512891783
 10
-45.7721183069
 20
27.8549305814
 10
-45.7376243971
 20
27.8579648139
 10
-45.7029942082
 20
27.8603854453
 10
-45.6682079256
 20
27.862198906
 10
-45.6333988501
 20
27.8634041708
 10
-45.5985817223
 20
27.8639997838
 10
-45.5637418014
 20
27.8639872009
 10
-45.5289681664
 20
27.8633697652
 10
-45.4942488074
 20
27.8621462892
 10
-45.4595957341
 20
27.8603179604
 10
-45.4251340542
 20
27.8578916832
 10
-45.3909054704
 20
27.854869759
 10
-45.3568682801
 20
27.8512498865
 10
-45.3230224832
 20
27.8470320655
  0
LINE
  5
251
100
AcDbEntity
  8
RACCORDO
100
AcDbLine
 62
250
  6
CONTINUOUS
 10
-43.4069855981
 20
30.7981296765
 11
-44.9629425434
 21
30.0643446915
  0
LINE
  5
252
100
AcDbEntity
  8
268140580
100
AcDbLine
 62
250
  6
CONTINUOUS
 10
-40.066408635
 20
-19.225439688
 11
-40.5967387209
 21
-19.115604731
  0
LINE
  5
253
100
AcDbEntity
  8
268140580
100
AcDbLine
 62
250
  6
CONTINUOUS
 10
-40.1547969827
 20
-18.9053571666
 11
-40.6851270686
 21
-18.7955222095
  0
LWPOLYLINE
  5
254
100
AcDbEntity
  8
268140580
100
AcDbPolyline
 62
250
  6
CONTINUOUS
 90
25
 70
0
 10
-40.5967387209
 20
-19.115604731
 10
-40.6097652006
 20
-19.1124552964
 10
-40.6224320756
 20
-19.1084408668
 10
-40.634739346
 20
-19.1035614421
 10
-40.6467179425
 20
-19.0978086257
 10
-40.6583369345
 20
-19.0911908143
 10
-40.6695035295
 20
-19.0837331974
 10
-40.6802126064
 20
-19.0754271933
 10
-40.6904692864
 20
-19.0662813837
 10
-40.7001961407
 20
-19.0563467025
 10
-40.7093877045
 20
-19.0456155533
 10
-40.7180494428
 20
-19.0340955325
 10
-40.7261203209
 20
-19.0218603636
 10
-40.7335945775
 20
-19.0089037085
 10
-40.740477974
 20
-18.9952319053
 10
-40.7467267599
 20
-18.9809376918
 10
-40.7523354519
 20
-18.9660110933
 10
-40.7573095332
 20
-18.9504620845
 10
-40.7616217027
 20
-18.9344133278
 10
-40.7652637694
 20
-18.9178641671
 10
-40.7682439243
 20
-18.9008152585
 10
-40.7705594392
 20
-18.8833912323
 10
-40.7722094048
 20
-18.865633632
 10
-40.7731947305
 20
-18.8475009141
 10
-40.7735154162
 20
-18.8289930786
  0
LWPOLYLINE
  5
255
100
AcDbEntity
  8
268140580
100
AcDbPolyline
 62
250
  6
CONTINUOUS
 90
3
 70
0
 10
-40.6851270686
 20
-18.7955222095
 10
-40.6916260667
 20
-18.7939451533
 10
-40.6936999879
 20
-18.7932881681
  0
LWPOLYLINE
  5
256
100
AcDbEntity
  8
268140580
100
AcDbPolyline
 62
250
  6
CONTINUOUS
 90
4
 70
0
 10
-40.1547969827
 20
-18.9053571666
 10
-40.1460449492
 20
-18.9075927325
 10
-40.1376216079
 20
-18.9106047137
 10
-40.1314198912
 20
-18.9134255735
  0
LWPOLYLINE
  5
257
100
AcDbEntity
  8
268140580
100
AcDbPolyline
 62
250
  6
CONTINUOUS
 90
17
 70
0
 10
-43.2660668199
 20
-18.7424892009
 10
-43.2761959315
 20
-18.7375923264
 10
-43.2859916912
 20
-18.7331969228
 10
-43.2954209533
 20
-18.7293178629
 10
-43.3044518121
 20
-18.7259682723
 10
-43.31305371
 20
-18.7231594847
 10
-43.321197541
 20
-18.7209010044
 10
-43.3288557488
 20
-18.7192004732
 10
-43.3360024207
 20
-18.7180636453
 10
-43.3426133744
 20
-18.7174943673
 10
-43.3486662406
 20
-18.7174945654
 10
-43.3541405383
 20
-18.7180642391
 10
-43.3590177442
 20
-18.7192014606
 10
-43.3632813555
 20
-18.720902382
 10
-43.3669169453
 20
-18.7231612479
 10
-43.3699122121
 20
-18.7259704151
 10
-43.3701975104
 20
-18.7263070339
  0
LINE
  5
258
100
AcDbEntity
  8
268140580
100
AcDbLine
 62
7
  6
CONTINUOUS
 10
-43.819811957
 20
-20.1178773964
 11
-42.4763090728
 21
-20.7896288385
  0
LINE
  5
259
100
AcDbEntity
  8
268140580
100
AcDbLine
 62
250
  6
CONTINUOUS
 10
-43.8847852534
 20
-19.9826589463
 11
-42.5412823692
 21
-20.6544103884
  0
LINE
  5
25A
100
AcDbEntity
  8
268140580
100
AcDbLine
 62
250
  6
CONTINUOUS
 10
-42.5412823692
 20
-20.2860998598
 11
-43.7625275044
 21
-19.6754772922
  0
LINE
  5
25B
100
AcDbEntity
  8
268140580
100
AcDbLine
 62
250
  6
CONTINUOUS
 10
-42.4528940215
 20
-20.054405686
 11
-43.6818538249
 21
-19.4399257843
  0
LINE
  5
25C
100
AcDbEntity
  8
268140580
100
AcDbLine
 62
250
  6
CONTINUOUS
 10
-41.9225639357
 20
-19.4142406431
 11
-43.2660668199
 21
-18.7424892009
  0
LWPOLYLINE
  5
25D
100
AcDbEntity
  8
268140580
100
AcDbPolyline
 62
250
  6
CONTINUOUS
 90
17
 70
0
 10
-42.4763138586
 20
-20.7896264454
 10
-42.4774776816
 20
-20.7890342834
 10
-42.4852341354
 20
-20.7845379641
 10
-42.4925775321
 20
-20.7792940202
 10
-42.499482747
 20
-20.7733203931
 10
-42.505926155
 20
-20.7666375209
 10
-42.5118857107
 20
-20.7592682682
 10
-42.5173410242
 20
-20.751237848
 10
-42.5222734309
 20
-20.7425737353
 10
-42.5266660551
 20
-20.7333055733
 10
-42.5305038681
 20
-20.7234650718
 10
-42.5337737392
 20
-20.7130858989
 10
-42.536464481
 20
-20.7022035655
 10
-42.5385668875
 20
-20.6908553043
 10
-42.5400737656
 20
-20.6790799419
 10
-42.5409799596
 20
-20.6669177661
 10
-42.5412823692
 20
-20.6544103884
  0
LWPOLYLINE
  5
25E
100
AcDbEntity
  8
268140580
100
AcDbPolyline
 62
250
  6
CONTINUOUS
 90
16
 70
0
 10
-43.8847852534
 20
-19.9826589463
 10
-43.8937966566
 20
-19.9779108737
 10
-43.9022986285
 20
-19.972933437
 10
-43.9102678517
 20
-19.9677402832
 10
-43.9176824772
 20
-19.9623456448
 10
-43.9245221594
 20
-19.9567643192
 10
-43.9307681181
 20
-19.9510116297
 10
-43.9364032229
 20
-19.9451033565
 10
-43.9414120284
 20
-19.9390556968
 10
-43.9457807974
 20
-19.9328852403
 10
-43.9494975532
 20
-19.926608909
 10
-43.952552108
 20
-19.9202439129
 10
-43.9549360884
 20
-19.9138077094
 10
-43.9566429634
 20
-19.9073179404
 10
-43.9576680542
 20
-19.9007924091
 10
-43.9580085581
 20
-19.8942705986
  0
LWPOLYLINE
  5
25F
100
AcDbEntity
  8
RACCORDO
100
AcDbPolyline
 62
250
  6
CONTINUOUS
 90
10
 70
0
 10
-62.4248335112
 20
5.7959537599
 10
-62.4225894604
 20
5.774693108
 10
-62.4166485631
 20
5.7535807007
 10
-62.4070612874
 20
5.732775386
 10
-62.3938814103
 20
5.7124330846
 10
-62.3772081861
 20
5.6927011336
 10
-62.3571701097
 20
5.6737233655
 10
-62.3338964777
 20
5.6556414069
 10
-62.3075572192
 20
5.6385921927
 10
-62.2783945518
 20
5.6227089273
  0
LWPOLYLINE
  5
260
100
AcDbEntity
  8
RACCORDO
100
AcDbPolyline
 62
250
  6
CONTINUOUS
 90
8
 70
0
 10
-62.278405218
 20
5.6227036069
 10
-62.2772351876
 20
5.600918233
 10
-62.2737160058
 20
5.5806798514
 10
-62.2679066175
 20
5.5623274467
 10
-62.2599043275
 20
5.5461684141
 10
-62.249843171
 20
5.5324734109
 10
-62.237891668
 20
5.5214718225
 10
-62.2264967343
 20
5.5144278905
  0
LWPOLYLINE
  5
261
100
AcDbEntity
  8
RACCORDO
100
AcDbPolyline
 62
7
  6
CONTINUOUS
 90
15
 70
0
 10
-62.131037794
 20
-12.1966194223
 10
-62.1279983461
 20
-12.2540723309
 10
-62.1175768325
 20
-12.3516271568
 10
-62.1008463408
 20
-12.4450692819
 10
-62.0780302244
 20
-12.5341252806
 10
-62.0493425504
 20
-12.6187103536
 10
-62.0149391885
 20
-12.6987569328
 10
-61.9750330984
 20
-12.7740090662
 10
-61.9298806984
 20
-12.8442294415
 10
-61.8797272696
 20
-12.9092063075
 10
-61.8249093739
 20
-12.968623312
 10
-61.7658259808
 20
-13.0221981139
 10
-61.7029271078
 20
-13.0696988385
 10
-61.6367231215
 20
-13.1109095814
 10
-61.5992312242
 20
-13.1307655386
  0
LWPOLYLINE
  5
262
100
AcDbEntity
  8
RACCORDO
100
AcDbPolyline
 62
250
  6
CONTINUOUS
 90
9
 70
0
 10
-62.1310606485
 20
23.4186764258
 10
-62.1301890315
 20
23.400657599
 10
-62.1243698008
 20
23.376127539
 10
-62.1132679
 20
23.3518804726
 10
-62.0970022783
 20
23.3281761906
 10
-62.0757472108
 20
23.3052686684
 10
-62.049730431
 20
23.2834033445
 10
-62.0192306911
 20
23.2628144908
 10
-61.9845747748
 20
23.2437227029
  0
LWPOLYLINE
  5
263
100
AcDbEntity
  8
RACCORDO
100
AcDbPolyline
 62
250
  6
CONTINUOUS
 90
10
 70
0
 10
-61.9845812856
 20
-12.3742305363
 10
-62.0451566674
 20
-10.4654260695
 10
-62.098750861
 20
-8.5527333289
 10
-62.1453632672
 20
-6.6361910495
 10
-62.1849928603
 20
-4.7158676744
 10
-62.2176401156
 20
-2.7917725596
 10
-62.2433059144
 20
-0.8638553963
 10
-62.2619894843
 20
1.0678751156
 10
-62.2736894948
 20
3.0033506934
 10
-62.278405218
 20
4.94253267
  0
LWPOLYLINE
  5
264
100
AcDbEntity
  8
RACCORDO
100
AcDbPolyline
 62
7
  6
CONTINUOUS
 90
13
 70
0
 10
-62.4248525608
 20
5.7982158966
 10
-62.4248366034
 20
5.7950597454
 10
-62.422902545
 20
5.765530291
 10
-62.4177240637
 20
5.7361102155
 10
-62.4092673905
 20
5.7070051706
 10
-62.3975258841
 20
5.6784962771
 10
-62.3825540681
 20
5.6509156924
 10
-62.3643759376
 20
5.6244571757
 10
-62.3430302305
 20
5.5992953813
 10
-62.3185843463
 20
5.5756122113
 10
-62.2909776081
 20
5.5534727421
 10
-62.2600975647
 20
5.5329431438
 10
-62.2264930487
 20
5.5144352299
  0
LWPOLYLINE
  5
265
100
AcDbEntity
  8
RACCORDO
100
AcDbPolyline
 62
7
  6
CONTINUOUS
 90
10
 70
0
 10
-62.4248526311
 20
5.1205994177
 10
-62.4202837044
 20
3.215317918
 10
-62.4086341442
 20
1.2700562807
 10
-62.3899297905
 20
-0.6714767177
 10
-62.3641709142
 20
-2.6092367102
 10
-62.3313580153
 20
-4.5431868113
 10
-62.2914916072
 20
-6.473292719
 10
-62.244572328
 20
-8.3995172794
 10
-62.1906012926
 20
-10.3218162177
 10
-62.1310450886
 20
-12.1965835445
  0
LWPOLYLINE
  5
266
100
AcDbEntity
  8
RACCORDO
100
AcDbPolyline
 62
250
  6
CONTINUOUS
 90
10
 70
0
 10
-62.278405218
 20
5.6227036069
 10
-62.2736894948
 20
7.5667687388
 10
-62.2619894843
 20
9.5143596002
 10
-62.2433059144
 20
11.4654367967
 10
-62.2176401156
 20
13.4199307199
 10
-62.1849928603
 20
15.3778318925
 10
-62.1453632672
 20
17.3391914885
 10
-62.098750861
 20
19.3040006222
 10
-62.0451566674
 20
21.2721898297
 10
-61.9845812856
 20
23.2437197772
  0
LWPOLYLINE
  5
267
100
AcDbEntity
  8
RACCORDO
100
AcDbPolyline
 62
7
  6
CONTINUOUS
 90
10
 70
0
 10
-62.131063714
 20
23.4187631754
 10
-62.1907228127
 20
21.4787695639
 10
-62.2446763826
 20
19.5007412457
 10
-62.2915791779
 20
17.5260704017
 10
-62.3314299536
 20
15.5548025163
 10
-62.3642279416
 20
13.5869754682
 10
-62.389972498
 20
11.6226241691
 10
-62.4086629928
 20
9.6617860997
 10
-62.4202990252
 20
7.7045059809
 10
-62.4248526324
 20
5.7981871969
  0
LWPOLYLINE
  5
268
100
AcDbEntity
  8
RACCORDO
100
AcDbPolyline
 62
250
  6
CONTINUOUS
 90
13
 70
0
 10
-62.278405218
 20
4.94253267
 10
-62.2772351124
 20
4.9654888093
 10
-62.2737157312
 20
4.9892470348
 10
-62.2679060578
 20
5.0134093763
 10
-62.2599034309
 20
5.0375711217
 10
-62.2498419288
 20
5.0613275418
 10
-62.2378901377
 20
5.0842806734
 10
-62.2242482896
 20
5.1060460688
 10
-62.2091449083
 20
5.1262592034
 10
-62.1928330133
 20
5.1445815349
 10
-62.1755858467
 20
5.1607062247
 10
-62.1576922905
 20
5.1743632678
 10
-62.1394520474
 20
5.1853239913
  0
LWPOLYLINE
  5
269
100
AcDbEntity
  8
RACCORDO
100
AcDbPolyline
 62
250
  6
CONTINUOUS
 90
22
 70
0
 10
-61.9845812856
 20
23.2437197772
 10
-61.9789603418
 20
23.3377112799
 10
-61.9681834388
 20
23.4336181249
 10
-61.9523056174
 20
23.5309657719
 10
-61.9314101552
 20
23.6292683739
 10
-61.9056004772
 20
23.7280446166
 10
-61.8749970118
 20
23.8268202338
 10
-61.8397471627
 20
23.9251216805
 10
-61.8000293157
 20
24.0224490592
 10
-61.7560463506
 20
24.1182931505
 10
-61.7080316985
 20
24.2121630053
 10
-61.656218193
 20
24.3036168936
 10
-61.6008371917
 20
24.3922327637
 10
-61.5421515233
 20
24.4775904571
 10
-61.4804639702
 20
24.5592479073
 10
-61.4160891893
 20
24.6367743595
 10
-61.3493607488
 20
24.7097787334
 10
-61.2806033043
 20
24.7779149165
 10
-61.2101370037
 20
24.8408539173
 10
-61.1383058774
 20
24.898286274
 10
-61.0654772083
 20
24.9499265627
 10
-60.9920154106
 20
24.9955197983
  0
LWPOLYLINE
  5
26A
100
AcDbEntity
  8
268140580
100
AcDbPolyline
 62
250
  6
CONTINUOUS
 90
27
 70
0
 10
-55.552047143
 20
27.6956633618
 10
-55.556915298
 20
27.6836585588
 10
-55.5622546424
 20
27.6719289265
 10
-55.5680505414
 20
27.6605066149
 10
-55.5742871088
 20
27.6494229318
 10
-55.5809472506
 20
27.6387082569
 10
-55.5880127119
 20
27.6283919582
 10
-55.5954641266
 20
27.6185023121
 10
-55.6032810711
 20
27.6090664254
 10
-55.6114421196
 20
27.6001101612
 10
-55.6199249032
 20
27.591658068
 10
-55.6287061712
 20
27.5837333124
 10
-55.6377618548
 20
27.5763576157
 10
-55.647067133
 20
27.5695511939
 10
-55.6565965006
 20
27.5633327032
 10
-55.6663238383
 20
27.5577191879
 10
-55.6762224842
 20
27.5527260344
 10
-55.6862653067
 20
27.5483669284
 10
-55.6964247792
 20
27.5446538181
 10
-55.7066730553
 20
27.5415968807
 10
-55.7169820451
 20
27.5392044952
 10
-55.7273234925
 20
27.5374832188
 10
-55.7376690522
 20
27.5364377696
 10
-55.7479903678
 20
27.5360710129
 10
-55.7582591493
 20
27.5363839541
 10
-55.7684472506
 20
27.5373757354
 10
-55.7795245909
 20
27.5392468204
  0
LWPOLYLINE
  5
26B
100
AcDbEntity
  8
268140580
100
AcDbPolyline
 62
250
  6
CONTINUOUS
 90
25
 70
0
 10
-55.0217170571
 20
27.5858284047
 10
-55.0271554805
 20
27.5725060801
 10
-55.0331736608
 20
27.5595279179
 10
-55.0397512339
 20
27.5469378319
 10
-55.0468659428
 20
27.534778423
 10
-55.054493713
 20
27.5230908346
 10
-55.0626087337
 20
27.5119146142
 10
-55.0711835458
 20
27.5012875783
 10
-55.0801891343
 20
27.4912456849
 10
-55.0895950265
 20
27.4818229126
 10
-55.0993693953
 20
27.4730511444
 10
-55.1094791671
 20
27.4649600607
 10
-55.1198901333
 20
27.4575770384
 10
-55.130567066
 20
27.4509270589
 10
-55.1414738379
 20
27.4450326228
 10
-55.1525735438
 20
27.4399136742
 10
-55.1638286257
 20
27.4355875333
 10
-55.1752010001
 20
27.4320688377
 10
-55.186652187
 20
27.4293694927
 10
-55.198143439
 20
27.4274986315
 10
-55.2096358738
 20
27.4264625839
 10
-55.2210906054
 20
27.4262648548
 10
-55.2324688747
 20
27.426906113
 10
-55.2437321816
 20
27.4283841882
 10
-55.249194505
 20
27.4294118633
  0
LINE
  5
26C
100
AcDbEntity
  8
268140580
100
AcDbLine
 62
7
  6
CONTINUOUS
 10
-45.3230224832
 20
27.2408142829
 11
-43.8305036312
 21
27.9870737089
  0
LWPOLYLINE
  5
26D
100
AcDbEntity
  8
RACCORDO
100
AcDbPolyline
 62
7
  6
CONTINUOUS
 90
6
 70
0
 10
-46.2183554049
 20
26.5017446141
 10
-46.2256400441
 20
26.4981516409
 10
-46.233721417
 20
26.4935962942
 10
-46.2415230166
 20
26.4885708516
 10
-46.2490428871
 20
26.4830768169
 10
-46.2563646286
 20
26.4770378963
  0
LINE
  5
26E
100
AcDbEntity
  8
RACCORDO
100
AcDbLine
 62
250
  6
CONTINUOUS
 10
-45.9453959728
 20
26.5104656456
 11
-45.8984657308
 21
26.5331132319
  0
LINE
  5
26F
100
AcDbEntity
  8
RACCORDO
100
AcDbLine
 62
250
  6
CONTINUOUS
 10
-45.8984657308
 20
26.5331132319
 11
-45.8866302901
 21
26.5387499083
  0
LINE
  5
270
100
AcDbEntity
  8
RACCORDO
100
AcDbLine
 62
250
  6
CONTINUOUS
 10
-45.9558441909
 20
26.5054907246
 11
-45.9453959728
 21
26.5104656456
  0
LINE
  5
271
100
AcDbEntity
  8
RACCORDO
100
AcDbLine
 62
250
  6
CONTINUOUS
 10
-45.8866302901
 20
26.5387499083
 11
-45.8775090865
 21
26.5430410667
  0
LINE
  5
272
100
AcDbEntity
  8
RACCORDO
100
AcDbLine
 62
250
  6
CONTINUOUS
 10
-45.9635814551
 20
26.5018556924
 11
-45.9558441909
 21
26.5054907246
  0
LINE
  5
273
100
AcDbEntity
  8
RACCORDO
100
AcDbLine
 62
250
  6
CONTINUOUS
 10
-45.8775090865
 20
26.5430410667
 11
-45.868161965
 21
26.5473812702
  0
LINE
  5
274
100
AcDbEntity
  8
RACCORDO
100
AcDbLine
 62
250
  6
CONTINUOUS
 10
-46.0061594449
 20
26.4821788103
 11
-45.9635814551
 21
26.5018556924
  0
LINE
  5
275
100
AcDbEntity
  8
RACCORDO
100
AcDbLine
 62
7
  6
CONTINUOUS
 10
-46.1671245971
 20
26.525363706
 11
-46.2183565106
 21
26.5017441035
  0
LINE
  5
276
100
AcDbEntity
  8
RACCORDO
100
AcDbLine
 62
250
  6
CONTINUOUS
 10
-45.868161965
 20
26.5473812702
 11
-45.8585749768
 21
26.5517651728
  0
LWPOLYLINE
  5
277
100
AcDbEntity
  8
RACCORDO
100
AcDbPolyline
 62
250
  6
CONTINUOUS
 90
17
 70
0
 10
-45.0141866058
 20
26.6094843456
 10
-45.0083731604
 20
26.612120213
 10
-45.0025737294
 20
26.6144564694
 10
-44.9967981271
 20
26.616489161
 10
-44.9910561271
 20
26.6182148482
 10
-44.9853574464
 20
26.6196306106
 10
-44.9797117285
 20
26.6207340523
 10
-44.9741285276
 20
26.6215233062
 10
-44.9686172918
 20
26.6219970366
 10
-44.9631873475
 20
26.6221544417
 10
-44.9578478835
 20
26.6219952554
 10
-44.9526079356
 20
26.6215197468
 10
-44.9474763712
 20
26.6207287208
 10
-44.942461874
 20
26.6196235159
 10
-44.93757293
 20
26.6182060024
 10
-44.9328178124
 20
26.6164785792
 10
-44.9282818996
 20
26.6144782721
  0
LWPOLYLINE
  5
278
100
AcDbEntity
  8
RACCORDO
100
AcDbPolyline
 62
250
  6
CONTINUOUS
 90
22
 70
0
 10
-46.1845101614
 20
26.5173754691
 10
-46.1813818484
 20
26.5187854011
 10
-46.1721333859
 20
26.5225592952
 10
-46.1626737717
 20
26.5258417507
 10
-46.1530131314
 20
26.5286292539
 10
-46.1431618057
 20
26.5309188211
 10
-46.1331303397
 20
26.5327080015
 10
-46.1229294712
 20
26.5339948799
 10
-46.1125701193
 20
26.534778079
 10
-46.1020633727
 20
26.5350567602
 10
-46.091420478
 20
26.5348306254
 10
-46.0806528274
 20
26.5340999165
 10
-46.0697719467
 20
26.5328654158
 10
-46.0587894829
 20
26.5311284446
 10
-46.0477171918
 20
26.5288908622
 10
-46.0365669253
 20
26.5261550638
 10
-46.0253506187
 20
26.5229239777
 10
-46.014080278
 20
26.5192010626
 10
-46.0027679672
 20
26.5149903035
 10
-45.9914257951
 20
26.5102962076
 10
-45.9800659025
 20
26.5051237996
 10
-45.968700449
 20
26.499478616
  0
LINE
  5
279
100
AcDbEntity
  8
RACCORDO
100
AcDbLine
 62
250
  6
CONTINUOUS
 10
-45.8585749768
 20
26.5517651728
 11
-45.8520438651
 21
26.5547093393
  0
LINE
  5
27A
100
AcDbEntity
  8
RACCORDO
100
AcDbLine
 62
250
  6
CONTINUOUS
 10
-45.8520438651
 20
26.5547093393
 11
-45.8453953563
 21
26.557668601
  0
LINE
  5
27B
100
AcDbEntity
  8
RACCORDO
100
AcDbLine
 62
250
  6
CONTINUOUS
 10
-45.8453953563
 20
26.557668601
 11
-45.8386262821
 21
26.5606417233
  0
LINE
  5
27C
100
AcDbEntity
  8
RACCORDO
100
AcDbLine
 62
250
  6
CONTINUOUS
 10
-45.8386262821
 20
26.5606417233
 11
-45.8317317312
 21
26.5636269015
  0
LINE
  5
27D
100
AcDbEntity
  8
RACCORDO
100
AcDbLine
 62
250
  6
CONTINUOUS
 10
-45.8317317312
 20
26.5636269015
 11
-45.8247076476
 21
26.5666218967
  0
LINE
  5
27E
100
AcDbEntity
  8
RACCORDO
100
AcDbLine
 62
250
  6
CONTINUOUS
 10
-45.8247076476
 20
26.5666218967
 11
-45.8175512856
 21
26.569625225
  0
LINE
  5
27F
100
AcDbEntity
  8
RACCORDO
100
AcDbLine
 62
250
  6
CONTINUOUS
 10
-45.8175512856
 20
26.569625225
 11
-45.8102585859
 21
26.5726346195
  0
LINE
  5
280
100
AcDbEntity
  8
RACCORDO
100
AcDbLine
 62
250
  6
CONTINUOUS
 10
-45.8102585859
 20
26.5726346195
 11
-45.8028255299
 21
26.5756477414
  0
LINE
  5
281
100
AcDbEntity
  8
RACCORDO
100
AcDbLine
 62
250
  6
CONTINUOUS
 10
-45.8028255299
 20
26.5756477414
 11
-45.7952494915
 21
26.5786629969
  0
LINE
  5
282
100
AcDbEntity
  8
RACCORDO
100
AcDbLine
 62
250
  6
CONTINUOUS
 10
-45.7952494915
 20
26.5786629969
 11
-45.7875266305
 21
26.5816779376
  0
LINE
  5
283
100
AcDbEntity
  8
RACCORDO
100
AcDbLine
 62
250
  6
CONTINUOUS
 10
-45.7875266305
 20
26.5816779376
 11
-45.7796530067
 21
26.5846900872
  0
LINE
  5
284
100
AcDbEntity
  8
RACCORDO
100
AcDbLine
 62
250
  6
CONTINUOUS
 10
-45.7796530067
 20
26.5846900872
 11
-45.7716260794
 21
26.5876977445
  0
LINE
  5
285
100
AcDbEntity
  8
RACCORDO
100
AcDbLine
 62
250
  6
CONTINUOUS
 10
-45.7716260794
 20
26.5876977445
 11
-45.7634420719
 21
26.5906983192
  0
LINE
  5
286
100
AcDbEntity
  8
RACCORDO
100
AcDbLine
 62
250
  6
CONTINUOUS
 10
-45.7634420719
 20
26.5906983192
 11
-45.7550977076
 21
26.5936889627
  0
LINE
  5
287
100
AcDbEntity
  8
RACCORDO
100
AcDbLine
 62
250
  6
CONTINUOUS
 10
-45.7550977076
 20
26.5936889627
 11
-45.7465908697
 21
26.5966677396
  0
LINE
  5
288
100
AcDbEntity
  8
RACCORDO
100
AcDbLine
 62
250
  6
CONTINUOUS
 10
-45.7465908697
 20
26.5966677396
 11
-45.737918502
 21
26.5996316817
  0
LINE
  5
289
100
AcDbEntity
  8
RACCORDO
100
AcDbLine
 62
250
  6
CONTINUOUS
 10
-45.737918502
 20
26.5996316817
 11
-45.7290779049
 21
26.6025776354
  0
LINE
  5
28A
100
AcDbEntity
  8
RACCORDO
100
AcDbLine
 62
250
  6
CONTINUOUS
 10
-45.7290779049
 20
26.6025776354
 11
-45.720067399
 21
26.6055034478
  0
LINE
  5
28B
100
AcDbEntity
  8
RACCORDO
100
AcDbLine
 62
250
  6
CONTINUOUS
 10
-45.720067399
 20
26.6055034478
 11
-45.7108846348
 21
26.6084058131
  0
LINE
  5
28C
100
AcDbEntity
  8
RACCORDO
100
AcDbLine
 62
250
  6
CONTINUOUS
 10
-45.7108846348
 20
26.6084058131
 11
-45.7015277266
 21
26.6112812302
  0
LINE
  5
28D
100
AcDbEntity
  8
RACCORDO
100
AcDbLine
 62
250
  6
CONTINUOUS
 10
-45.7015277266
 20
26.6112812302
 11
-45.6919953386
 21
26.6141273765
  0
LINE
  5
28E
100
AcDbEntity
  8
RACCORDO
100
AcDbLine
 62
250
  6
CONTINUOUS
 10
-45.6919953386
 20
26.6141273765
 11
-45.6822852267
 21
26.6169408192
  0
LINE
  5
28F
100
AcDbEntity
  8
268140580
100
AcDbLine
 62
250
  6
CONTINUOUS
 10
-40.1314198912
 20
-18.9134255735
 11
-40.1313819315
 21
-18.9134445426
  0
LINE
  5
290
100
AcDbEntity
  8
268140580
100
AcDbLine
 62
250
  6
CONTINUOUS
 10
-41.834175588
 20
-19.1825464692
 11
-43.1776784723
 21
-18.5107950271
  0
LINE
  5
291
100
AcDbEntity
  8
268140580
100
AcDbLine
 62
7
  6
CONTINUOUS
 10
-41.834175588
 20
-18.613633742
 11
-41.6173294018
 21
-18.7220568351
  0
LINE
  5
292
100
AcDbEntity
  8
268140580
100
AcDbLine
 62
250
  6
CONTINUOUS
 10
-40.6851270686
 20
-18.7955222095
 11
-40.6944247742
 21
-18.7908733567
  0
LINE
  5
293
100
AcDbEntity
  8
268140580
100
AcDbLine
 62
250
  6
CONTINUOUS
 10
-40.7002921115
 20
-18.6326096022
 11
-40.1547969827
 21
-18.9053571666
  0
LINE
  5
294
100
AcDbEntity
  8
268140580
100
AcDbLine
 62
7
  6
CONTINUOUS
 10
-40.7002921115
 20
-18.6289894526
 11
-40.1313819315
 21
-18.9134445426
  0
LINE
  5
295
100
AcDbEntity
  8
268140580
100
AcDbLine
 62
7
  6
CONTINUOUS
 10
-41.3347019891
 20
-17.5458095977
 11
-42.4890855832
 21
-16.9686178006
  0
LINE
  5
296
100
AcDbEntity
  8
268140580
100
AcDbLine
 62
7
  6
CONTINUOUS
 10
-42.1293608953
 20
-16.794926754
 11
-41.1834388707
 21
-17.2678877663
  0
LWPOLYLINE
  5
297
100
AcDbEntity
  8
268140580
100
AcDbPolyline
 62
250
  6
CONTINUOUS
 90
15
 70
0
 10
-43.1776784723
 20
-18.5107950271
 10
-43.1876580201
 20
-18.5055061765
 10
-43.197005648
 20
-18.4999361444
 10
-43.2056897264
 20
-18.494103778
 10
-43.2136808709
 20
-18.4880288121
 10
-43.2209520423
 20
-18.4817318021
 10
-43.2274786376
 20
-18.4752340545
 10
-43.2332385725
 20
-18.4685575555
 10
-43.238212357
 20
-18.4617248959
 10
-43.2423831613
 20
-18.4547591949
 10
-43.2457368722
 20
-18.4476840218
 10
-43.2482621412
 20
-18.4405233168
 10
-43.2499504232
 20
-18.433301309
 10
-43.2507960048
 20
-18.4260424353
 10
-43.250901777
 20
-18.4224066795
  0
LWPOLYLINE
  5
298
100
AcDbEntity
  8
268140580
100
AcDbPolyline
 62
250
  6
CONTINUOUS
 90
5
 70
0
 10
-54.0697751205
 20
27.3882533499
 10
-54.0672498663
 20
27.395414064
 10
-54.0655616014
 20
27.4026360786
 10
-54.0647160384
 20
27.4098949566
 10
-54.0646102759
 20
27.4135305464
  0
LWPOLYLINE
  5
299
100
AcDbEntity
  8
RACCORDO
100
AcDbPolyline
 62
250
  6
CONTINUOUS
 90
7
 70
0
 10
-62.2179211861
 20
5.3308655165
 10
-62.2103830812
 20
5.3435975957
 10
-62.2006838226
 20
5.3560670157
 10
-62.1890824493
 20
5.3679760495
 10
-62.1756653075
 20
5.3792254549
 10
-62.160346051
 20
5.3899144741
 10
-62.1431246798
 20
5.4000431071
  0
LINE
  5
29A
100
AcDbEntity
  8
RACCORDO
100
AcDbLine
 62
7
  6
CONTINUOUS
 10
-47.1122974762
 20
25.7279304184
 11
-46.2563642521
 21
26.4770380765
  0
LINE
  5
29B
100
AcDbEntity
  8
RACCORDO
100
AcDbLine
 62
250
  6
CONTINUOUS
 10
-46.9583949215
 20
25.650979141
 11
-46.0077643697
 21
26.482965336
  0
LINE
  5
29C
100
AcDbEntity
  8
268140580
100
AcDbLine
 62
7
  6
CONTINUOUS
 10
-38.9350377851
 20
26.7983837274
 11
-39.4482075603
 21
26.5417988399
  0
LINE
  5
29D
100
AcDbEntity
  8
268140580
100
AcDbLine
 62
7
  6
CONTINUOUS
 10
-45.5070652198
 20
23.7372895612
 11
-39.7403328764
 21
26.5920695364
  0
LINE
  5
29E
100
AcDbEntity
  8
268140580
100
AcDbLine
 62
7
  6
CONTINUOUS
 10
-40.3461660513
 20
26.8949861238
 11
-44.9454454252
 21
24.6445043929
  0
LWPOLYLINE
  5
29F
100
AcDbEntity
  8
268140580
100
AcDbPolyline
 62
7
  6
CONTINUOUS
 90
20
 70
0
 10
-38.9350377851
 20
26.7983837274
 10
-38.908660282
 20
26.8109764731
 10
-38.8823455599
 20
26.8223291171
 10
-38.856093619
 20
26.8324416592
 10
-38.8298470471
 20
26.841333175
 10
-38.8036632563
 20
26.848984589
 10
-38.7777144829
 20
26.8553386752
 10
-38.7520150943
 20
26.8603786954
 10
-38.726550723
 20
26.8641213877
 10
-38.7014505029
 20
26.8665597408
 10
-38.6767509608
 20
26.8676919373
 10
-38.6524155699
 20
26.8675197945
 10
-38.628463883
 20
26.8660417533
 10
-38.604857994
 20
26.8632543173
 10
-38.5816358089
 20
26.859160983
 10
-38.5589305991
 20
26.8537706808
 10
-38.5367420063
 20
26.8470672846
 10
-38.5150703887
 20
26.8390669206
 10
-38.4940500922
 20
26.8298268979
 10
-38.4878231484
 20
26.8267875975
  0
LWPOLYLINE
  5
2A0
100
AcDbEntity
  8
268140580
100
AcDbPolyline
 62
7
  6
CONTINUOUS
 90
17
 70
0
 10
-40.3461660513
 20
26.8949861238
 10
-40.3309240459
 20
26.9020509223
 10
-40.31572407
 20
26.9082813916
 10
-40.3005661236
 20
26.9136775319
 10
-40.285404458
 20
26.918254607
 10
-40.2702848218
 20
26.921997353
 10
-40.2553444608
 20
26.9248599784
 10
-40.2405901844
 20
26.9268265479
 10
-40.2260151831
 20
26.9279129969
 10
-40.2117362738
 20
26.9281213396
 10
-40.1977815513
 20
26.9274478129
 10
-40.1841229208
 20
26.9258961799
 10
-40.1707929154
 20
26.9234797441
 10
-40.1577884122
 20
26.920203422
 10
-40.145112534
 20
26.916062297
 10
-40.1328071828
 20
26.9110549239
 10
-40.1256478687
 20
26.9076542241
  0
LWPOLYLINE
  5
2A1
100
AcDbEntity
  8
RACCORDO
100
AcDbPolyline
 62
250
  6
CONTINUOUS
 90
26
 70
0
 10
-37.5023660665
 20
27.8458199107
 10
-37.4831061543
 20
27.8547165218
 10
-37.4638697089
 20
27.8629589268
 10
-37.4446710154
 20
27.8705410048
 10
-37.4255243308
 20
27.8774571254
 10
-37.4064438736
 20
27.8837021526
 10
-37.387443813
 20
27.8892714489
 10
-37.3685382587
 20
27.8941608784
 10
-37.3497412498
 20
27.8983668102
 10
-37.3310667453
 20
27.9018861209
 10
-37.3125286128
 20
27.9047161972
 10
-37.294140619
 20
27.9068549373
 10
-37.2759164189
 20
27.9083007531
 10
-37.2578695457
 20
27.9090525709
 10
-37.2400134014
 20
27.9091098323
 10
-37.2223612458
 20
27.9084724948
 10
-37.2049261876
 20
27.9071410318
 10
-37.1877211742
 20
27.905116432
 10
-37.1707589821
 20
27.9024001988
 10
-37.1540522076
 20
27.8989943494
 10
-37.1376132571
 20
27.8949014129
 10
-37.1214543383
 20
27.8901244288
 10
-37.1055874509
 20
27.8846669445
 10
-37.0900243779
 20
27.8785330128
 10
-37.0747766763
 20
27.8717271887
 10
-37.067493186
 20
27.8681832403
  0
LINE
  5
2A2
100
AcDbEntity
  8
RACCORDO
100
AcDbLine
 62
250
  6
CONTINUOUS
 10
-29.265564459
 20
30.6473216222
 11
-35.3997183391
 21
27.8143660816
  0
LWPOLYLINE
  5
2A3
100
AcDbEntity
  8
RACCORDO
100
AcDbPolyline
 62
7
  6
CONTINUOUS
 90
81
 70
0
 10
-29.6971838841
 20
30.6831153286
 10
-35.8340439376
 20
27.8489190891
 10
-35.8406598242
 20
27.8459596944
 10
-35.8478024231
 20
27.8428730031
 10
-35.8554792493
 20
27.8396695507
 10
-35.8636929625
 20
27.836361832
 10
-35.8724408366
 20
27.83296427
 10
-35.8817265635
 20
27.8294883768
 10
-35.8915522857
 20
27.8259460311
 10
-35.9019108689
 20
27.8223521178
 10
-35.9128016306
 20
27.8187188912
 10
-35.924225335
 20
27.8150578352
 10
-35.9361751206
 20
27.8113824845
 10
-35.9486485284
 20
27.8077046232
 10
-35.9616434683
 20
27.8040358392
 10
-35.9751524374
 20
27.8003888769
 10
-35.9891714871
 20
27.796775043
 10
-36.0036955984
 20
27.7932057382
 10
-36.0187145316
 20
27.78969343
 10
-36.034224498
 20
27.7862486165
 10
-36.0502157085
 20
27.7828827762
 10
-36.0666673239
 20
27.7796092911
 10
-36.0835729636
 20
27.7764381177
 10
-36.1009198781
 20
27.7733799918
 10
-36.1186754225
 20
27.7704483382
 10
-36.136827238
 20
27.7676525139
 10
-36.1553626411
 20
27.7650015126
 10
-36.1742462216
 20
27.762506716
 10
-36.1934626557
 20
27.7601759867
 10
-36.2129973022
 20
27.7580168625
 10
-36.2328140671
 20
27.756038407
 10
-36.2528958019
 20
27.7542467693
 10
-36.2732257662
 20
27.7526479072
 10
-36.2937672739
 20
27.7512485994
 10
-36.3145020606
 20
27.7500532896
 10
-36.3354115247
 20
27.7490661577
 10
-36.3564576182
 20
27.7482917239
 10
-36.3776219129
 20
27.7477327082
 10
-36.3988839022
 20
27.7473914137
 10
-36.4202018756
 20
27.7472699555
 10
-36.4415561529
 20
27.7473692326
 10
-36.4629263745
 20
27.747689547
 10
-36.4842696565
 20
27.7482302619
 10
-36.5055657054
 20
27.7489903599
 10
-36.5267948432
 20
27.7499682207
 10
-36.5479153962
 20
27.751160454
 10
-36.5689070288
 20
27.7525640965
 10
-36.5897513543
 20
27.7541757397
 10
-36.610410298
 20
27.7559896125
 10
-36.6308655194
 20
27.7580009853
 10
-36.6510988669
 20
27.7602047365
 10
-36.6710735596
 20
27.7625928109
 10
-36.6907729918
 20
27.7651587063
 10
-36.7101804352
 20
27.7678956948
 10
-36.729260284
 20
27.7707935084
 10
-36.7479979887
 20
27.7738440397
 10
-36.7663788563
 20
27.777039001
 10
-36.7843688409
 20
27.7803660001
 10
-36.8019556471
 20
27.7838155704
 10
-36.8191273234
 20
27.7873779926
 10
-36.8358526291
 20
27.791039028
 10
-36.85211931
 20
27.7947875112
 10
-36.8679212946
 20
27.7986132338
 10
-36.8832388922
 20
27.802502406
 10
-36.8980629108
 20
27.8064432782
 10
-36.9123897647
 20
27.81042515
 10
-36.9262097606
 20
27.8144352733
 10
-36.9395184342
 20
27.8184621922
 10
-36.9523121463
 20
27.8224944203
 10
-36.9645836336
 20
27.826518882
 10
-36.9763310859
 20
27.8305238876
 10
-36.9875526523
 20
27.8344976686
 10
-36.9982422153
 20
27.838426541
 10
-37.0084010911
 20
27.8422990691
 10
-37.0180289741
 20
27.8461029736
 10
-37.0271192278
 20
27.8498231786
 10
-37.0356743661
 20
27.853447826
 10
-37.0436985975
 20
27.8569655406
 10
-37.0511898287
 20
27.8603618938
 10
-37.0581511798
 20
27.8636245241
 10
-37.0645905415
 20
27.8667430987
  0
LWPOLYLINE
  5
2A4
100
AcDbEntity
  8
RACCORDO
100
AcDbPolyline
 62
250
  6
CONTINUOUS
 90
67
 70
0
 10
-35.3997183391
 20
27.8143660816
 10
-35.4251319681
 20
27.8029011777
 10
-35.4511277872
 20
27.791727686
 10
-35.4777057964
 20
27.7808456062
 10
-35.5048854519
 20
27.7702451589
 10
-35.5326472974
 20
27.7599361235
 10
-35.5609329649
 20
27.7499478393
 10
-35.5897437516
 20
27.7402820058
 10
-35.6190783603
 20
27.7309369235
 10
-35.6488745304
 20
27.7219368327
 10
-35.6791344138
 20
27.7132830778
 10
-35.7098558587
 20
27.7049743145
 10
-35.7409701492
 20
27.6970307505
 10
-35.7724779253
 20
27.6894540537
 10
-35.804378547
 20
27.6822425563
 10
-35.8366013793
 20
27.6754114624
 10
-35.8691419703
 20
27.6689629333
 10
-35.9020047718
 20
27.6628948076
 10
-35.9351325046
 20
27.6572158057
 10
-35.9685209542
 20
27.6519270649
 10
-36.0021743352
 20
27.6470274478
 10
-36.0360480118
 20
27.6425222629
 10
-36.0701426604
 20
27.6384115701
 10
-36.1044576047
 20
27.6346953093
 10
-36.1389461793
 20
27.6313786087
 10
-36.1736117375
 20
27.6284615838
 10
-36.2084509262
 20
27.6259441189
 10
-36.243407021
 20
27.6238309958
 10
-36.278481885
 20
27.622122864
 10
-36.3136736553
 20
27.6208190739
 10
-36.3489200183
 20
27.6199224587
 10
-36.384220935
 20
27.6194338661
 10
-36.4195764446
 20
27.6193524485
 10
-36.4549243511
 20
27.6196784957
 10
-36.4902646486
 20
27.6204128419
 10
-36.5255973432
 20
27.6215546529
 10
-36.5608602565
 20
27.6231017161
 10
-36.5960533465
 20
27.6250548758
 10
-36.6311766554
 20
27.6274132877
 10
-36.6661681313
 20
27.6301722065
 10
-36.7010257342
 20
27.6333321963
 10
-36.7357515042
 20
27.6368926928
 10
-36.7702895101
 20
27.6408472587
 10
-36.8046363912
 20
27.6451958792
 10
-36.8387955082
 20
27.6499385689
 10
-36.872721012
 20
27.6550689342
 10
-36.9064125323
 20
27.6605870548
 10
-36.9398704394
 20
27.6664928509
 10
-36.9730499961
 20
27.672779689
 10
-37.0059556934
 20
27.6794489371
 10
-37.0385830402
 20
27.6864992271
 10
-37.0708738258
 20
27.6939198219
 10
-37.1028322872
 20
27.7017130482
 10
-37.1344541875
 20
27.7098765792
 10
-37.1656686051
 20
27.7183926981
 10
-37.1964744543
 20
27.727262974
 10
-37.2268728208
 20
27.7364858377
 10
-37.2567960413
 20
27.7460388647
 10
-37.2862418991
 20
27.7559233231
 10
-37.3152126109
 20
27.7661379448
 10
-37.3436471632
 20
27.7766565013
 10
-37.3715439971
 20
27.78748055
 10
-37.3989046716
 20
27.7986085336
 10
-37.4256728494
 20
27.8100095515
 10
-37.4518297517
 20
27.8216733035
 10
-37.4773941574
 20
27.8336100899
 10
-37.5023660665
 20
27.8458199107
  0
LWPOLYLINE
  5
2A5
100
AcDbEntity
  8
268140580
100
AcDbPolyline
 62
250
  6
CONTINUOUS
 90
16
 70
0
 10
-57.2491034179
 20
28.3674148039
 10
-57.2488043397
 20
28.3549756183
 10
-57.2479081171
 20
28.3428776011
 10
-57.2464177827
 20
28.3311616882
 10
-57.2443383792
 20
28.3198675226
 10
-57.2416769427
 20
28.3090333201
 10
-57.2384424787
 20
28.2986957403
 10
-57.2346459315
 20
28.2888897622
 10
-57.2303001475
 20
28.2796485663
 10
-57.2254198315
 20
28.2710034216
 10
-57.2200214968
 20
28.2629835808
 10
-57.2141234098
 20
28.2556161803
 10
-57.2077455277
 20
28.2489261492
 10
-57.2009094312
 20
28.2429361244
 10
-57.1936382515
 20
28.2376663742
 10
-57.1860916296
 20
28.2332143926
  0
LINE
  5
2A6
100
AcDbEntity
  8
268140580
100
AcDbLine
 62
7
  6
CONTINUOUS
 10
-57.3223267226
 20
28.4558031515
 11
-57.3223267226
 21
28.8241136801
  0
LINE
  5
2A7
100
AcDbEntity
  8
268140580
100
AcDbLine
 62
250
  6
CONTINUOUS
 10
-57.2491034179
 20
28.3674148039
 11
-57.2491034179
 21
28.7357253325
  0
LINE
  5
2A8
100
AcDbEntity
  8
268140580
100
AcDbLine
 62
7
  6
CONTINUOUS
 10
-57.0414702356
 20
26.334231323
 11
-57.0414702356
 21
27.3052235518
  0
LINE
  5
2A9
100
AcDbEntity
  8
268140580
100
AcDbLine
 62
7
  6
CONTINUOUS
 10
-56.6152199414
 20
27.4937671621
 11
-56.6152199414
 21
27.9477412638
  0
LINE
  5
2AA
100
AcDbEntity
  8
268140580
100
AcDbLine
 62
7
  6
CONTINUOUS
 10
-45.0198329765
 20
22.7657779664
 11
-45.5070652198
 21
22.4878845661
  0
LWPOLYLINE
  5
2AB
100
AcDbEntity
  8
268140580
100
AcDbPolyline
 62
250
  6
CONTINUOUS
 90
28
 70
0
 10
-43.70646591
 20
22.359224029
 10
-43.7168038448
 20
22.3537951667
 10
-43.7271116876
 20
22.3476415187
 10
-43.7373541715
 20
22.3407841389
 10
-43.7474962531
 20
22.3332464889
 10
-43.7575032325
 20
22.325054358
 10
-43.7673408721
 20
22.3162357743
 10
-43.7769755137
 20
22.3068209096
 10
-43.7863741936
 20
22.2968419756
 10
-43.7955047554
 20
22.2863331141
 10
-43.80433596
 20
22.2753302797
 10
-43.8128375926
 20
22.2638711173
 10
-43.8209805658
 20
22.2519948329
 10
-43.8287370197
 20
22.2397420597
 10
-43.8360804163
 20
22.2271547191
 10
-43.8429856313
 20
22.2142758771
 10
-43.8494290393
 20
22.201149597
 10
-43.8553885949
 20
22.1878207886
 10
-43.8608439084
 20
22.1743350549
 10
-43.8657763151
 20
22.1607385355
 10
-43.8701689393
 20
22.1470777492
 10
-43.8740067523
 20
22.1333994348
 10
-43.8772766234
 20
22.1197503907
 10
-43.8799673653
 20
22.1061773156
 10
-43.8820697718
 20
22.0927266478
 10
-43.8835766499
 20
22.0794444073
 10
-43.8844828439
 20
22.0663760376
 10
-43.8847852534
 20
22.0535662503
  0
LINE
  5
2AC
100
AcDbEntity
  8
268140580
100
AcDbLine
 62
7
  6
CONTINUOUS
 10
-36.0083757752
 20
25.3350527225
 11
-40.615563676
 21
22.97388793
  0
LINE
  5
2AD
100
AcDbEntity
  8
268140580
100
AcDbLine
 62
7
  6
CONTINUOUS
 10
-45.0124741842
 20
22.7697373637
 11
-39.3918833557
 21
25.6125929503
  0
LINE
  5
2AE
100
AcDbEntity
  8
268140580
100
AcDbLine
 62
7
  6
CONTINUOUS
 10
-43.8178877356
 20
22.3665132013
 11
-41.696567392
 21
23.4045003055
  0
LINE
  5
2AF
100
AcDbEntity
  8
268140580
100
AcDbLine
 62
250
  6
CONTINUOUS
 10
-43.70646591
 20
22.359224029
 11
-41.5851455665
 21
23.3972111332
  0
LINE
  5
2B0
100
AcDbEntity
  8
0
100
AcDbLine
 62
7
  6
CONTINUOUS
 10
-27.2677758956
 20
29.1950627179
 11
-31.5104165827
 21
27.1190885095
  0
LINE
  5
2B1
100
AcDbEntity
  8
268140580
100
AcDbLine
 62
250
  6
CONTINUOUS
 10
-40.2416426822
 20
22.7254596911
 11
-42.3629630258
 21
21.6874725869
  0
LINE
  5
2B2
100
AcDbEntity
  8
RACCORDO
100
AcDbLine
 62
7
  6
CONTINUOUS
 10
-31.8532826006
 20
28.4796114382
 11
-28.3160953524
 21
30.1725870689
  0
LINE
  5
2B3
100
AcDbEntity
  8
RACCORDO
100
AcDbLine
 62
7
  6
CONTINUOUS
 10
-31.5104165827
 20
27.5476052853
 11
-27.2726040108
 21
29.5759156087
  0
LWPOLYLINE
  5
2B4
100
AcDbEntity
  8
268140580
100
AcDbPolyline
 62
250
  6
CONTINUOUS
 90
13
 70
0
 10
-40.2416426822
 20
22.7254596911
 10
-40.2314240414
 20
22.7300975419
 10
-40.2212447563
 20
22.7339928463
 10
-40.2111388888
 20
22.7371325695
 10
-40.2011402551
 20
22.7395062056
 10
-40.1912823127
 20
22.7411058119
 10
-40.1815980483
 20
22.7419260357
 10
-40.1721198674
 20
22.7419641324
 10
-40.1628794859
 20
22.7412199745
 10
-40.1539078239
 20
22.7396960522
 10
-40.1452349025
 20
22.7373974647
 10
-40.136889743
 20
22.7343319037
 10
-40.1313819315
 20
22.7317970577
  0
LWPOLYLINE
  5
2B5
100
AcDbEntity
  8
268140580
100
AcDbPolyline
 62
250
  6
CONTINUOUS
 90
14
 70
0
 10
-41.696567392
 20
23.4045003055
 10
-41.6893676605
 20
23.4076616299
 10
-41.6816936658
 20
23.41029307
 10
-41.6737591344
 20
23.4122928534
 10
-41.6655858257
 20
23.4136554922
 10
-41.6571961495
 20
23.4143772464
 10
-41.6486131124
 20
23.4144561334
 10
-41.6398602583
 20
23.4138919344
 10
-41.6309615826
 20
23.412686194
 10
-41.6219414932
 20
23.4108422173
 10
-41.6128247523
 20
23.4083650679
 10
-41.6036363699
 20
23.4052615464
 10
-41.5944015333
 20
23.4015401652
 10
-41.5851455665
 20
23.3972111332
  0
LWPOLYLINE
  5
2B6
100
AcDbEntity
  8
268140580
100
AcDbPolyline
 62
250
  6
CONTINUOUS
 90
14
 70
0
 10
-43.8178877356
 20
22.3665132013
 10
-43.8106672641
 20
22.3696826273
 10
-43.8029942733
 20
22.3723118195
 10
-43.7950609333
 20
22.3743096185
 10
-43.7868889889
 20
22.3756705486
 10
-43.7785008386
 20
22.3763908796
 10
-43.7699194739
 20
22.376468637
 10
-43.7611684157
 20
22.3759036077
 10
-43.75227165
 20
22.3746973404
 10
-43.7432535622
 20
22.3728531415
 10
-43.7341388704
 20
22.3703760657
 10
-43.7249525571
 20
22.3672729025
 10
-43.7157198016
 20
22.3635521575
 10
-43.70646591
 20
22.359224029
  0
LWPOLYLINE
  5
2B7
100
AcDbEntity
  8
268140580
100
AcDbPolyline
 62
250
  6
CONTINUOUS
 90
16
 70
0
 10
-57.3223267226
 20
28.4558031515
 10
-57.3219841063
 20
28.449261157
 10
-57.3209571964
 20
28.4427370936
 10
-57.3192488077
 20
28.4362488434
 10
-57.3168636228
 20
28.4298141902
 10
-57.3138081791
 20
28.4234507709
 10
-57.3100908516
 20
28.4171760273
 10
-57.3057218292
 20
28.4110071579
 10
-57.300713087
 20
28.4049610712
 10
-57.2950783536
 20
28.3990543391
 10
-57.2888330735
 20
28.3933031515
 10
-57.2819943646
 20
28.3877232722
 10
-57.2745809712
 20
28.382329995
 10
-57.2666132129
 20
28.3771381027
 10
-57.2581129289
 20
28.3721618258
 10
-57.2491034179
 20
28.3674148039
  0
LWPOLYLINE
  5
2B8
100
AcDbEntity
  8
268140580
100
AcDbPolyline
 62
250
  6
CONTINUOUS
 90
16
 70
0
 10
-57.3223267226
 20
28.8241136801
 10
-57.3219862186
 20
28.8175918697
 10
-57.3209611278
 20
28.8110663383
 10
-57.3192542529
 20
28.8045765694
 10
-57.3168702724
 20
28.7981403658
 10
-57.3138157176
 20
28.7917753697
 10
-57.3100989619
 20
28.7854990384
 10
-57.3057301928
 20
28.7793285819
 10
-57.3007213873
 20
28.7732809222
 10
-57.2950862825
 20
28.767372649
 10
-57.2888403239
 20
28.7616199595
 10
-57.2820006416
 20
28.7560386339
 10
-57.2745860161
 20
28.7506439956
 10
-57.266616793
 20
28.7454508418
 10
-57.2581148211
 20
28.740473405
 10
-57.2491034179
 20
28.7357253325
  0
LWPOLYLINE
  5
2B9
100
AcDbEntity
  8
268140580
100
AcDbPolyline
 62
250
  6
CONTINUOUS
 90
31
 70
0
 10
-55.552047143
 20
28.0639738903
 10
-55.5522077148
 20
28.0754384418
 10
-55.5528506351
 20
28.0871202272
 10
-55.5539750543
 20
28.0989877052
 10
-55.555579185
 20
28.1110112534
 10
-55.557659344
 20
28.1231557126
 10
-55.5602089688
 20
28.1353802722
 10
-55.5632203605
 20
28.1476487311
 10
-55.5666857661
 20
28.1599301055
 10
-55.5705957899
 20
28.1721910383
 10
-55.5749398259
 20
28.1843981276
 10
-55.5797059292
 20
28.1965176778
 10
-55.5848809116
 20
28.2085161146
 10
-55.5904505085
 20
28.2203603941
 10
-55.5963995058
 20
28.2320181891
 10
-55.6027116462
 20
28.2434576371
 10
-55.6093696567
 20
28.2546474133
 10
-55.6163552609
 20
28.2655567813
 10
-55.6236492817
 20
28.2761557825
 10
-55.6312317117
 20
28.2864153401
 10
-55.6390817686
 20
28.2963073306
 10
-55.6471779244
 20
28.3058046218
 10
-55.6554979808
 20
28.3148811698
 10
-55.6640191229
 20
28.3235120818
 10
-55.6727179772
 20
28.3316736806
 10
-55.6815706978
 20
28.3393435905
 10
-55.6905530022
 20
28.3465007713
 10
-55.6996402288
 20
28.3531255737
 10
-55.7088074478
 20
28.3591998292
 10
-55.7180295311
 20
28.3647068932
 10
-55.7272811902
 20
28.3696316691
  0
LINE
  5
2BA
100
AcDbEntity
  8
268140580
100
AcDbLine
 62
7
  6
CONTINUOUS
 10
-56.5734945385
 20
24.9359253916
 11
-56.5734945385
 21
26.1002434744
  0
LINE
  5
2BB
100
AcDbEntity
  8
268140580
100
AcDbLine
 62
250
  6
CONTINUOUS
 10
-56.5419966367
 20
27.4020554673
 11
-56.5419966367
 21
27.9111296114
  0
LINE
  5
2BC
100
AcDbEntity
  8
268140580
100
AcDbLine
 62
250
  6
CONTINUOUS
 10
-56.4856265728
 20
24.8919914088
 11
-56.4856265728
 21
26.0563094916
  0
LINE
  5
2BD
100
AcDbEntity
  8
268140580
100
AcDbLine
 62
250
  6
CONTINUOUS
 10
-55.9056005336
 20
28.0639738903
 11
-55.9056005336
 21
27.6956633618
  0
LINE
  5
2BE
100
AcDbEntity
  8
268140580
100
AcDbLine
 62
7
  6
CONTINUOUS
 10
-55.8870866414
 20
24.8072747179
 11
-55.8870866414
 21
25.7570395259
  0
LINE
  5
2BF
100
AcDbEntity
  8
268140580
100
AcDbLine
 62
250
  6
CONTINUOUS
 10
-55.552047143
 20
28.0639738903
 11
-55.552047143
 21
27.6956633618
  0
LINE
  5
2C0
100
AcDbEntity
  8
268140580
100
AcDbLine
 62
250
  6
CONTINUOUS
 10
-55.1984937524
 20
27.2992167524
 11
-55.1984937524
 21
26.7303040251
  0
LINE
  5
2C1
100
AcDbEntity
  8
268140580
100
AcDbLine
 62
250
  6
CONTINUOUS
 10
-54.8449403618
 20
27.2992167524
 11
-54.8449403618
 21
26.7416506422
  0
LWPOLYLINE
  5
2C2
100
AcDbEntity
  8
268140580
100
AcDbPolyline
 62
7
  6
CONTINUOUS
 90
28
 70
0
 10
-54.0646102759
 20
27.7411584906
 10
-54.0644819265
 20
27.7497594277
 10
-54.0640816769
 20
27.758845866
 10
-54.0633879606
 20
27.7683975034
 10
-54.0623806781
 20
27.7783939864
 10
-54.0610420868
 20
27.7888072046
 10
-54.0593574043
 20
27.7996028571
 10
-54.0573123942
 20
27.8107559958
 10
-54.0548960109
 20
27.8222327448
 10
-54.0521029694
 20
27.8339842697
 10
-54.0489267819
 20
27.8459785793
 10
-54.0453637936
 20
27.8581794465
 10
-54.0414189297
 20
27.8705305903
 10
-54.037093703
 20
27.8829963897
 10
-54.0323923575
 20
27.8955386354
 10
-54.0273303049
 20
27.9080971098
 10
-54.0219171199
 20
27.9206348085
 10
-54.0161646806
 20
27.9331139232
 10
-54.0100981962
 20
27.9454743803
 10
-54.0037346434
 20
27.9576805657
 10
-53.9970928143
 20
27.9696973471
 10
-53.9902065146
 20
27.9814682474
 10
-53.9830991087
 20
27.9929614838
 10
-53.9757949835
 20
28.0041471321
 10
-53.9683345562
 20
28.014975808
 10
-53.9607509023
 20
28.0254154016
 10
-53.9530678518
 20
28.0354500019
 10
-53.9453145426
 20
28.0450588451
  0
LWPOLYLINE
  5
2C3
100
AcDbEntity
  8
268140580
100
AcDbPolyline
 62
250
  6
CONTINUOUS
 90
25
 70
0
 10
-54.1378335806
 20
27.652770143
 10
-54.1375145194
 20
27.67157063
 10
-54.1365316494
 20
27.6906642805
 10
-54.1348849707
 20
27.7100510945
 10
-54.1325730814
 20
27.7297764625
 10
-54.1295973833
 20
27.7497949938
 10
-54.1259620824
 20
27.7699705173
 10
-54.1216603707
 20
27.7903040187
 10
-54.1166990562
 20
27.8107945122
 10
-54.1111027694
 20
27.831302869
 10
-54.1048653461
 20
27.851828815
 10
-54.0979929505
 20
27.8723726243
 10
-54.0905287045
 20
27.8927959904
 10
-54.0824671222
 20
27.9130974838
 10
-54.0738136895
 20
27.9332785339
 10
-54.0646279862
 20
27.9532051227
 10
-54.0549044538
 20
27.9728755072
 10
-54.0446486508
 20
27.9922914304
 10
-54.0339368324
 20
28.011324103
 10
-54.0227642403
 20
28.0299696994
 10
-54.0111356329
 20
28.0482320454
 10
-53.9991415406
 20
28.0659938287
 10
-53.9868121404
 20
28.0832159453
 10
-53.9741172553
 20
28.0999374993
 10
-53.9610568854
 20
28.1161584906
  0
LWPOLYLINE
  5
2C4
100
AcDbEntity
  8
268140580
100
AcDbPolyline
 62
250
  6
CONTINUOUS
 90
28
 70
0
 10
-55.9056005336
 20
28.0639738903
 10
-55.9052981241
 20
28.0767836776
 10
-55.90439193
 20
28.0898520474
 10
-55.902885052
 20
28.1031342879
 10
-55.9007826455
 20
28.1165849556
 10
-55.8980919036
 20
28.1301580308
 10
-55.8948220325
 20
28.1438070749
 10
-55.8909842195
 20
28.1574853893
 10
-55.8865915953
 20
28.1711461756
 10
-55.8816591886
 20
28.1847426949
 10
-55.8762038751
 20
28.1982284287
 10
-55.8702443194
 20
28.211557237
 10
-55.8638009115
 20
28.2246835172
 10
-55.8568956965
 20
28.2375623592
 10
-55.8495522998
 20
28.2501496998
 10
-55.841795846
 20
28.262402473
 10
-55.8336528727
 20
28.2742787574
 10
-55.8251512402
 20
28.2857379198
 10
-55.8163200356
 20
28.2967407542
 10
-55.8071894738
 20
28.3072496157
 10
-55.7977907939
 20
28.3172285497
 10
-55.7881561523
 20
28.3266434144
 10
-55.7783185126
 20
28.335461998
 10
-55.7683115332
 20
28.343654129
 10
-55.7581694517
 20
28.351191779
 10
-55.7479269678
 20
28.3580491588
 10
-55.737619125
 20
28.3642028068
 10
-55.7272811902
 20
28.3696316691
  0
LWPOLYLINE
  5
2C5
100
AcDbEntity
  8
RACCORDO
100
AcDbPolyline
 62
250
  6
CONTINUOUS
 90
22
 70
0
 10
-46.0910803418
 20
17.5450522639
 10
-46.1662861278
 20
17.5003310224
 10
-46.240826892
 20
17.4495467813
 10
-46.3143382199
 20
17.3929545254
 10
-46.3864606604
 20
17.3308435945
 10
-46.4568423513
 20
17.2635195347
 10
-46.5251396507
 20
17.1912995902
 10
-46.5910273877
 20
17.114529616
 10
-46.6541725094
 20
17.0336009501
 10
-46.7142384104
 20
16.9489333731
 10
-46.7709208321
 20
16.8609682131
 10
-46.823958422
 20
16.7701263671
 10
-46.8731023038
 20
16.6768211271
 10
-46.9181185069
 20
16.5814936548
 10
-46.9587747371
 20
16.4846354678
 10
-46.9948540065
 20
16.3867487311
 10
-47.0261761805
 20
16.2883324683
 10
-47.0525956041
 20
16.1898610983
 10
-47.0739829863
 20
16.0918044564
 10
-47.0902319475
 20
15.9946423793
 10
-47.1012621647
 20
15.8988621913
 10
-47.1070185967
 20
15.8049384328
  0
LINE
  5
2C6
100
AcDbEntity
  8
268140580
100
AcDbLine
 62
7
  6
CONTINUOUS
 10
-40.6004368943
 20
20.5560799252
 11
-41.4806221974
 21
20.05949156
  0
LINE
  5
2C7
100
AcDbEntity
  8
268140580
100
AcDbLine
 62
250
  6
CONTINUOUS
 10
-40.5456864711
 20
20.5287047137
 11
-40.5447619871
 21
20.5292225799
  0
LINE
  5
2C8
100
AcDbEntity
  8
268140580
100
AcDbLine
 62
250
  6
CONTINUOUS
 10
-40.5447619871
 20
20.5292225799
 11
-40.5438372256
 21
20.5297331731
  0
LINE
  5
2C9
100
AcDbEntity
  8
RACCORDO
100
AcDbLine
 62
250
  6
CONTINUOUS
 10
-44.0358115608
 20
18.6670839028
 11
-46.0910803418
 21
17.5450522639
  0
LINE
  5
2CA
100
AcDbEntity
  8
268140580
100
AcDbLine
 62
250
  6
CONTINUOUS
 10
-40.5456807883
 20
20.5247663273
 11
-41.6173294018
 21
19.9397218498
  0
LINE
  5
2CB
100
AcDbEntity
  8
268140580
100
AcDbLine
 62
250
  6
CONTINUOUS
 10
-40.5438372256
 20
20.5297331731
 11
-40.5429122263
 21
20.5302364715
  0
LINE
  5
2CC
100
AcDbEntity
  8
268140580
100
AcDbLine
 62
250
  6
CONTINUOUS
 10
-40.5429122263
 20
20.5302364715
 11
-40.5419870287
 21
20.5307324533
  0
LWPOLYLINE
  5
2CD
100
AcDbEntity
  8
268140580
100
AcDbPolyline
 62
250
  6
CONTINUOUS
 90
15
 70
0
 10
-40.7735154162
 20
20.9706110607
 10
-40.763535817
 20
20.9758999402
 10
-40.7541881477
 20
20.9814700021
 10
-40.7455040375
 20
20.9873023988
 10
-40.7375128703
 20
20.9933773951
 10
-40.7302416853
 20
20.9996744349
 10
-40.7237150854
 20
21.0061722107
 10
-40.7179551542
 20
21.012848736
 10
-40.7129813807
 20
21.0196814193
 10
-40.7088105943
 20
21.0266471409
 10
-40.7054569069
 20
21.0337223309
 10
-40.7029316658
 20
21.040883049
 10
-40.7012434151
 20
21.0481050656
 10
-40.7003978667
 20
21.0553639437
 10
-40.7002921115
 20
21.0589994084
  0
LWPOLYLINE
  5
2CE
100
AcDbEntity
  8
268140580
100
AcDbPolyline
 62
250
  6
CONTINUOUS
 90
11
 70
0
 10
-40.7735154162
 20
20.6429831166
 10
-40.7635358437
 20
20.648271981
 10
-40.7541881953
 20
20.6538420278
 10
-40.7455041004
 20
20.6596744097
 10
-40.7375129434
 20
20.6657493917
 10
-40.7302417637
 20
20.672046418
 10
-40.7237151648
 20
20.6785441815
 10
-40.7179552305
 20
20.6852206958
 10
-40.7129814506
 20
20.6920533697
 10
-40.7088106549
 20
20.6990190836
 10
-40.7054569561
 20
20.7060942677
  0
LINE
  5
2CF
100
AcDbEntity
  8
0
100
AcDbLine
 62
7
  6
CONTINUOUS
 10
-31.7991147884
 20
26.1941502035
 11
-31.2073688749
 21
26.5061895244
  0
LWPOLYLINE
  5
2D0
100
AcDbEntity
  8
268140580
100
AcDbPolyline
 62
250
  6
CONTINUOUS
 90
16
 70
0
 10
-40.066408635
 20
22.4198019123
 10
-40.0574204917
 20
22.42453707
 10
-40.0489337524
 20
22.4295036593
 10
-40.0409725948
 20
22.434688543
 10
-40.033558307
 20
22.4400791172
 10
-40.0267140466
 20
22.4456599007
 10
-40.0204635253
 20
22.4514121886
 10
-40.0148250773
 20
22.4573188661
 10
-40.0098126952
 20
22.4633650071
 10
-40.0054400016
 20
22.4695342169
 10
-40.0017189721
 20
22.4758097186
 10
-39.9986599606
 20
22.4821741902
 10
-39.9962714765
 20
22.4886099842
 10
-39.9945600823
 20
22.4950993656
 10
-39.993530429
 20
22.5016246253
 10
-39.9931853303
 20
22.50819026
  0
LWPOLYLINE
  5
2D1
100
AcDbEntity
  8
268140580
100
AcDbPolyline
 62
250
  6
CONTINUOUS
 90
16
 70
0
 10
-40.066408635
 20
22.0741644513
 10
-40.057399124
 20
22.0789114732
 10
-40.04889884
 20
22.0838877501
 10
-40.0409310817
 20
22.0890796425
 10
-40.0335176883
 20
22.0944729196
 10
-40.0266789794
 20
22.100052799
 10
-40.0204336993
 20
22.1058039865
 10
-40.0147989659
 20
22.1117107186
 10
-40.0097902237
 20
22.1177568053
 10
-40.0054212013
 20
22.1239256747
 10
-40.0017038738
 20
22.1302004183
 10
-39.9986484301
 20
22.1365638376
 10
-39.9962632452
 20
22.1429984909
 10
-39.9945548565
 20
22.1494867411
 10
-39.9935279466
 20
22.1560108045
 10
-39.9931853303
 20
22.162552799
  0
LINE
  5
2D2
100
AcDbEntity
  8
DRAFT
100
AcDbLine
 62
7
  6
CONTINUOUS
 10
-39.888576011
 20
20.9111918097
 11
-34.3012623224
 21
23.8462634014
  0
LINE
  5
2D3
100
AcDbEntity
  8
268140580
100
AcDbLine
 62
250
  6
CONTINUOUS
 10
-40.5419870287
 20
20.5307324533
 11
-40.5410616726
 21
20.5312210975
  0
LINE
  5
2D4
100
AcDbEntity
  8
268140580
100
AcDbLine
 62
250
  6
CONTINUOUS
 10
-40.5410616726
 20
20.5312210975
 11
-40.5401361976
 21
20.5317023831
  0
LINE
  5
2D5
100
AcDbEntity
  8
268140580
100
AcDbLine
 62
250
  6
CONTINUOUS
 10
-40.5401361976
 20
20.5317023831
 11
-40.5392106432
 21
20.5321762894
  0
LINE
  5
2D6
100
AcDbEntity
  8
268140580
100
AcDbLine
 62
7
  6
CONTINUOUS
 10
-34.5773286767
 20
24.0275978487
 11
-40.2989866427
 21
21.1163971256
  0
LINE
  5
2D7
100
AcDbEntity
  8
268140580
100
AcDbLine
 62
7
  6
CONTINUOUS
 10
-34.5773286767
 20
24.4293055769
 11
-40.5261691636
 21
21.4290820654
  0
LINE
  5
2D8
100
AcDbEntity
  8
268140580
100
AcDbLine
 62
250
  6
CONTINUOUS
 10
-40.5392106432
 20
20.5321762894
 11
-40.5382850492
 21
20.5326427962
  0
LINE
  5
2D9
100
AcDbEntity
  8
0
100
AcDbLine
 62
7
  6
CONTINUOUS
 10
-31.0790814462
 20
26.283097793
 11
-30.5841066993
 21
26.5305851664
  0
LINE
  5
2DA
100
AcDbEntity
  8
268140580
100
AcDbLine
 62
7
  6
CONTINUOUS
 10
-40.5930354724
 20
20.5600180077
 11
-40.740361221
 21
20.4863551335
  0
LINE
  5
2DB
100
AcDbEntity
  8
RACCORDO
100
AcDbLine
 62
7
  6
CONTINUOUS
 10
-28.1159287868
 20
26.7110850187
 11
-29.4273930978
 21
26.0553528632
  0
LINE
  5
2DC
100
AcDbEntity
  8
268140580
100
AcDbLine
 62
250
  6
CONTINUOUS
 10
-40.066408635
 20
22.4198019123
 11
-42.1877289786
 21
21.3818148081
  0
LINE
  5
2DD
100
AcDbEntity
  8
268140580
100
AcDbLine
 62
250
  6
CONTINUOUS
 10
-39.8189643465
 20
20.8763859774
 11
-40.5308779445
 21
20.5326424923
  0
LWPOLYLINE
  5
2DE
100
AcDbEntity
  8
268140580
100
AcDbPolyline
 62
250
  6
CONTINUOUS
 90
31
 70
0
 10
-42.1877289786
 20
21.3818148081
 10
-42.1972230223
 20
21.3773100526
 10
-42.2071755761
 20
21.3730599106
 10
-42.2175593608
 20
21.3690760315
 10
-42.2283459151
 20
21.3653693348
 10
-42.2395056739
 20
21.3619499803
 10
-42.251008049
 20
21.3588273403
 10
-42.2628215131
 20
21.3560099736
 10
-42.2749136865
 20
21.3535056025
 10
-42.2872514253
 20
21.3513210912
 10
-42.2998009126
 20
21.3494624275
 10
-42.3125277512
 20
21.3479347057
 10
-42.3253970576
 20
21.3467421132
 10
-42.3383735581
 20
21.3458879189
 10
-42.3514216848
 20
21.3453744639
 10
-42.3645056739
 20
21.3452031558
 10
-42.377589663
 20
21.3453744639
 10
-42.3906377897
 20
21.3458879189
 10
-42.4036142902
 20
21.3467421132
 10
-42.4164835966
 20
21.3479347057
 10
-42.4292104352
 20
21.3494624275
 10
-42.4417599225
 20
21.3513210912
 10
-42.4540976613
 20
21.3535056025
 10
-42.4661898347
 20
21.3560099736
 10
-42.4780032988
 20
21.3588273403
 10
-42.4895056739
 20
21.3619499803
 10
-42.5006654326
 20
21.3653693348
 10
-42.511451987
 20
21.3690760315
 10
-42.5218357717
 20
21.3730599106
 10
-42.5317883255
 20
21.3773100526
 10
-42.5412823692
 20
21.3818148081
  0
LWPOLYLINE
  5
2DF
100
AcDbEntity
  8
268140580
100
AcDbPolyline
 62
250
  6
CONTINUOUS
 90
31
 70
0
 10
-42.1877289786
 20
21.0135042796
 10
-42.1972123594
 20
21.0090043248
 10
-42.2071561414
 20
21.0047572518
 10
-42.2175334893
 20
21.0007749025
 10
-42.2283173736
 20
20.9970680752
 10
-42.2394776175
 20
20.9936475521
 10
-42.250980639
 20
20.9905237958
 10
-42.2627936764
 20
20.9877056429
 10
-42.2748855104
 20
20.9852004828
 10
-42.287223312
 20
20.9830151309
 10
-42.2997734914
 20
20.9811555735
 10
-42.3125014521
 20
20.9796269729
 10
-42.3253719857
 20
20.9784335708
 10
-42.3383496869
 20
20.9775786453
 10
-42.3513990951
 20
20.9770645278
 10
-42.3644844673
 20
20.9768926277
 10
-42.3775699511
 20
20.9770634192
 10
-42.3906196506
 20
20.9775764374
 10
-42.4035977571
 20
20.9784302756
 10
-42.4164686801
 20
20.9796225921
 10
-42.4291971439
 20
20.9811501184
 10
-42.4417482522
 20
20.9830086669
 10
-42.4540876143
 20
20.9851931457
 10
-42.4661813818
 20
20.9876975634
 10
-42.4779963447
 20
20.9905150401
 10
-42.4895000818
 20
20.9936378375
 10
-42.5006610963
 20
20.9970573982
 10
-42.5114488421
 20
21.0007643605
 10
-42.5218337603
 20
21.0047485677
 10
-42.5317873651
 20
21.0089990916
 10
-42.5412823692
 20
21.0135042796
  0
LWPOLYLINE
  5
2E0
100
AcDbEntity
  8
268140580
100
AcDbPolyline
 62
250
  6
CONTINUOUS
 90
13
 70
0
 10
-40.63209406
 20
20.7172654092
 10
-40.6381064617
 20
20.7144158088
 10
-40.6441372111
 20
20.7118730072
 10
-40.6501750563
 20
20.7096463595
 10
-40.6562086314
 20
20.707744721
 10
-40.662225967
 20
20.706176577
 10
-40.6682145239
 20
20.7049499101
 10
-40.6741694298
 20
20.7040710959
 10
-40.6800706612
 20
20.7035485569
 10
-40.6858836749
 20
20.7033882424
 10
-40.6915942027
 20
20.703591174
 10
-40.6971937241
 20
20.7041576891
 10
-40.6983790208
 20
20.7043588211
  0
LWPOLYLINE
  5
2E1
100
AcDbEntity
  8
268140580
100
AcDbPolyline
 62
250
  6
CONTINUOUS
 90
28
 70
0
 10
-41.4806221974
 20
20.6170576702
 10
-41.4911999263
 20
20.6120678839
 10
-41.5023400199
 20
20.6073940597
 10
-41.5140047836
 20
20.6030520123
 10
-41.5261547476
 20
20.5990564338
 10
-41.5387488003
 20
20.5954208439
 10
-41.5517443273
 20
20.5921575444
 10
-41.5650973559
 20
20.5892775773
 10
-41.5787627037
 20
20.5867906874
 10
-41.5926941314
 20
20.5847052895
 10
-41.6068444996
 20
20.5830284401
 10
-41.6211659279
 20
20.581765813
 10
-41.635609957
 20
20.5809216805
 10
-41.650127713
 20
20.580498899
 10
-41.6646700724
 20
20.580498899
 10
-41.6791878284
 20
20.5809216805
 10
-41.6936318575
 20
20.581765813
 10
-41.7079532858
 20
20.5830284401
 10
-41.722103654
 20
20.5847052895
 10
-41.7360350817
 20
20.5867906874
 10
-41.7497004295
 20
20.5892775773
 10
-41.7630534581
 20
20.5921575444
 10
-41.7760489851
 20
20.5954208439
 10
-41.7886430378
 20
20.5990564338
 10
-41.8007930018
 20
20.6030520123
 10
-41.8124577655
 20
20.6073940597
 10
-41.8235978591
 20
20.6120678839
 10
-41.834175588
 20
20.6170576702
  0
LWPOLYLINE
  5
2E2
100
AcDbEntity
  8
SMUSSO
100
AcDbPolyline
 62
7
  6
CONTINUOUS
 90
88
 70
0
 10
-27.2570885229
 20
26.1815143994
 10
-27.3111913771
 20
26.1559916973
 10
-27.366459149
 20
26.1311347299
 10
-27.4228918388
 20
26.1069434973
 10
-27.4805211229
 20
26.0834058332
 10
-27.5393153248
 20
26.0605339038
 10
-27.5991794148
 20
26.0383642079
 10
-27.6601145948
 20
26.0168979363
 10
-27.7221196629
 20
25.9961338981
 10
-27.7850959834
 20
25.9761050195
 10
-27.8490471888
 20
25.9568118819
 10
-27.9139696467
 20
25.9382539038
 10
-27.9797538242
 20
25.9204622662
 10
-28.0463992306
 20
25.9034387527
 10
-28.1139063565
 20
25.8871815796
 10
-28.1821671418
 20
25.8717165769
 10
-28.251183901
 20
25.85704476
 10
-28.3209543196
 20
25.8431651135
 10
-28.3913633929
 20
25.8301004215
 10
-28.4624125426
 20
25.817852026
 10
-28.534100347
 20
25.806418585
 10
-28.6063075365
 20
25.7958188574
 10
-28.6790324908
 20
25.7860544729
 10
-28.7522768302
 20
25.7771238018
 10
-28.8259261464
 20
25.7690407136
 10
-28.8999860123
 20
25.7618061813
 10
-28.974450855
 20
25.755419232
 10
-29.049189548
 20
25.7498908168
 10
-29.1241950034
 20
25.7452227681
 10
-29.1994743091
 20
25.7414132535
 10
-29.2749176026
 20
25.7384677263
 10
-29.3505349849
 20
25.7363873456
 10
-29.426316355
 20
25.7351709523
 10
-29.502121548
 20
25.734820523
 10
-29.57793863
 20
25.7353373903
 10
-29.6537795349
 20
25.7367202216
 10
-29.729539899
 20
25.7389669945
 10
-29.8052321357
 20
25.7420795373
 10
-29.8808438316
 20
25.7460560218
 10
-29.9562333829
 20
25.7508889414
 10
-30.0313887507
 20
25.7565789081
 10
-30.106321974
 20
25.7631253098
 10
-30.1809275657
 20
25.7705188034
 10
-30.2552150797
 20
25.7787617571
 10
-30.3291749622
 20
25.7878518027
 10
-30.4026730654
 20
25.7977724925
 10
-30.4757012424
 20
25.8085242532
 10
-30.5482676401
 20
25.8201066581
 10
-30.6202625511
 20
25.8325019793
 10
-30.6916890009
 20
25.8457121142
 10
-30.762543964
 20
25.8597351655
 10
-30.8327086564
 20
25.8745477136
 10
-30.902181739
 20
25.8901511589
 10
-30.9709645509
 20
25.9065441011
 10
-31.0389423244
 20
25.9236989199
 10
-31.106110205
 20
25.941615779
 10
-31.1724730473
 20
25.9602945147
 10
-31.2379306476
 20
25.9797070163
 10
-31.3024883921
 20
25.9998567269
 10
-31.3661408946
 20
26.0207402033
 10
-31.428771793
 20
26.0423190051
 10
-31.4903699304
 20
26.0645907842
 10
-31.5509464638
 20
26.0875578886
 10
-31.6104185023
 20
26.1111889217
 10
-31.6687952893
 20
26.1354895488
 10
-31.7260675816
 20
26.1604541045
 10
-31.7821247577
 20
26.186034197
 10
-31.8369530757
 20
26.2122252612
 10
-31.8905662776
 20
26.2390318622
 10
-31.9428949691
 20
26.2664193026
 10
-31.9939481792
 20
26.2943944033
 10
-32.0437168789
 20
26.3229503435
 10
-32.0921045864
 20
26.3520319638
 10
-32.1390999258
 20
26.3816346196
 10
-32.184714273
 20
26.4117629555
 10
-32.2288852739
 20
26.4423757455
 10
-32.2716174831
 20
26.4734784976
 10
-32.3129063461
 20
26.5050657039
 10
-32.3526758441
 20
26.5370796145
 10
-32.3909190581
 20
26.5695175201
 10
-32.4276429071
 20
26.60238213
 10
-32.4627921304
 20
26.6356238229
 10
-32.4963662875
 20
26.6692449694
 10
-32.5283658188
 20
26.7032431988
 10
-32.5587367843
 20
26.7375617776
 10
-32.587476293
 20
26.7722013299
 10
-32.6145872358
 20
26.8071612316
 10
-32.6381781518
 20
26.8397370811
  0
LWPOLYLINE
  5
2E3
100
AcDbEntity
  8
RACCORDO
100
AcDbPolyline
 62
7
  6
CONTINUOUS
 90
10
 70
0
 10
-27.267426975
 20
26.2868077872
 10
-27.2560305107
 20
26.2919764425
 10
-27.2448101082
 20
26.2960283388
 10
-27.2337657675
 20
26.2989634764
 10
-27.2228025086
 20
26.3007820077
 10
-27.2120153114
 20
26.3014837802
 10
-27.201689116
 20
26.3010683358
 10
-27.1919189022
 20
26.2995355219
 10
-27.1826096902
 20
26.2968854912
 10
-27.1737614799
 20
26.2931182436
  0
LWPOLYLINE
  5
2E4
100
AcDbEntity
  8
268140580
100
AcDbPolyline
 62
250
  6
CONTINUOUS
 90
16
 70
0
 10
-40.5308779445
 20
20.5326424923
 10
-40.5312909678
 20
20.5324817469
 10
-40.5317325573
 20
20.5323433522
 10
-40.532202713
 20
20.5322273083
 10
-40.5327080559
 20
20.5321333756
 10
-40.5332419649
 20
20.5320617936
 10
-40.5337845769
 20
20.5320132808
 10
-40.5343358918
 20
20.5319878371
 10
-40.5348959096
 20
20.5319854626
 10
-40.535444767
 20
20.5320068757
 10
-40.5359824642
 20
20.5320520764
 10
-40.536509001
 20
20.5321210646
 10
-40.5370045142
 20
20.5322145589
 10
-40.5374623828
 20
20.5323327986
 10
-40.5378892278
 20
20.5324755444
 10
-40.5382850492
 20
20.5326427962
  0
LINE
  5
2E5
100
AcDbEntity
  8
268140580
100
AcDbLine
 62
7
  6
CONTINUOUS
 10
-42.3414606209
 20
-10.3971245029
 11
-42.7099314939
 21
-10.2128890664
  0
LINE
  5
2E6
100
AcDbEntity
  8
268140580
100
AcDbLine
 62
7
  6
CONTINUOUS
 10
-43.1069677941
 20
-9.074811183
 11
-42.9220457234
 21
-9.1672722184
  0
LWPOLYLINE
  5
2E7
100
AcDbEntity
  8
268140580
100
AcDbPolyline
 62
250
  6
CONTINUOUS
 90
28
 70
0
 10
-41.6573988927
 20
-19.6459348169
 10
-41.6628372962
 20
-19.637452785
 10
-41.6688554543
 20
-19.6287003755
 10
-41.6754330034
 20
-19.6197072037
 10
-41.6825476872
 20
-19.6105036996
 10
-41.6901754317
 20
-19.6011210051
 10
-41.6982904272
 20
-19.5915908681
 10
-41.7068652151
 20
-19.5819455356
 10
-41.715870781
 20
-19.5722176444
 10
-41.7252766529
 20
-19.5624401106
 10
-41.7350510043
 20
-19.5526460183
 10
-41.745160762
 20
-19.5428685075
 10
-41.7555717176
 20
-19.5331406623
 10
-41.7662486439
 20
-19.5234953987
 10
-41.7771554134
 20
-19.513965353
 10
-41.7882551211
 20
-19.5045827721
 10
-41.7995102092
 20
-19.4953794036
 10
-41.810882594
 20
-19.4863863887
 10
-41.8223337948
 20
-19.4776341571
 10
-41.8338250646
 20
-19.4691523234
 10
-41.8453175204
 20
-19.4609695875
 10
-41.8567722754
 20
-19.4531136372
 10
-41.8681505704
 20
-19.4456110545
 10
-41.8794139048
 20
-19.4384872259
 10
-41.890524167
 20
-19.4317662561
 10
-41.9014437636
 20
-19.4254708866
 10
-41.9121357458
 20
-19.4196224192
 10
-41.9225639357
 20
-19.4142406431
  0
LWPOLYLINE
  5
2E8
100
AcDbEntity
  8
268140580
100
AcDbPolyline
 62
250
  6
CONTINUOUS
 90
31
 70
0
 10
-42.1877289786
 20
-20.2860998598
 10
-42.1925915368
 20
-20.2784871583
 10
-42.1979258368
 20
-20.2706513024
 10
-42.2037176731
 20
-20.2626135568
 10
-42.2099521726
 20
-20.2543949894
 10
-42.2166120941
 20
-20.2460187255
 10
-42.223677482
 20
-20.2375100227
 10
-42.2311281836
 20
-20.2288930961
 10
-42.238944479
 20
-20.2201907
 10
-42.2471051543
 20
-20.2114264656
 10
-42.2555880102
 20
-20.202624265
 10
-42.2643696804
 20
-20.1938083741
 10
-42.2734258796
 20
-20.1850031837
 10
-42.2827316927
 20
-20.1762329144
 10
-42.2922616901
 20
-20.1675215288
 10
-42.3019897692
 20
-20.1588928882
 10
-42.3118892778
 20
-20.1503706351
 10
-42.3219330615
 20
-20.1419781487
 10
-42.3320935605
 20
-20.1337384586
 10
-42.342342911
 20
-20.1256741607
 10
-42.352653022
 20
-20.1178073571
 10
-42.3629956274
 20
-20.1101596152
 10
-42.3733423885
 20
-20.1027518905
 10
-42.3836649229
 20
-20.0956045036
 10
-42.3939348834
 20
-20.0887370808
 10
-42.404124085
 20
-20.0821684645
 10
-42.4142046262
 20
-20.0759166373
 10
-42.4241489167
 20
-20.0699987084
 10
-42.4339297089
 20
-20.0644308936
 10
-42.4435201745
 20
-20.0592284654
 10
-42.4528940215
 20
-20.054405686
  0
LINE
  5
2E9
100
AcDbEntity
  8
268140580
100
AcDbLine
 62
250
  6
CONTINUOUS
 10
-54.1378335806
 20
27.3251421988
 11
-54.1378335806
 21
27.652770143
  0
LINE
  5
2EA
100
AcDbEntity
  8
268140580
100
AcDbLine
 62
7
  6
CONTINUOUS
 10
-54.0646102759
 20
27.4135305464
 11
-54.0646102759
 21
27.7411584906
  0
LINE
  5
2EB
100
AcDbEntity
  8
268140580
100
AcDbLine
 62
250
  6
CONTINUOUS
 10
-53.4307267995
 20
28.7563235336
 11
-53.4307267995
 21
29.1019609945
  0
LINE
  5
2EC
100
AcDbEntity
  8
268140580
100
AcDbLine
 62
7
  6
CONTINUOUS
 10
-53.3575034948
 20
28.8447118812
 11
-53.3575034948
 21
29.1903493422
  0
LWPOLYLINE
  5
2ED
100
AcDbEntity
  8
268140580
100
AcDbPolyline
 62
250
  6
CONTINUOUS
 90
16
 70
0
 10
-40.5456807883
 20
20.5247663273
 10
-40.5453600004
 20
20.5249959113
 10
-40.5450837825
 20
20.5252392779
 10
-40.5448521344
 20
20.5254964273
 10
-40.5446645465
 20
20.5257708873
 10
-40.5445215285
 20
20.52605913
 10
-40.5444246099
 20
20.5263505714
 10
-40.5443737908
 20
20.5266452116
 10
-40.5443690712
 20
20.5269430505
 10
-40.5444119806
 20
20.5272335043
 10
-40.544502519
 20
20.5275165728
 10
-40.5446406864
 20
20.5277922561
 10
-40.5448280124
 20
20.5280499702
 10
-40.5450650068
 20
20.5282861872
 10
-40.5453511597
 20
20.528504435
 10
-40.5456864711
 20
20.5287047137
  0
LWPOLYLINE
  5
2EE
100
AcDbEntity
  8
RACCORDO
100
AcDbPolyline
 62
7
  6
CONTINUOUS
 90
12
 70
0
 10
-62.2357005161
 20
5.404061188
 10
-62.267122124
 20
5.3855001505
 10
-62.297092913
 20
5.3642919775
 10
-62.3238368227
 20
5.3415377039
 10
-62.3474512109
 20
5.3173216687
 10
-62.3680015084
 20
5.2917124719
 10
-62.3854229731
 20
5.2649046831
 10
-62.3996803906
 20
5.2370850686
 10
-62.4107686393
 20
5.208428438
 10
-62.4186459555
 20
5.1792566202
 10
-62.4233270994
 20
5.1498417745
 10
-62.4248525852
 20
5.1205799496
  0
LWPOLYLINE
  5
2EF
100
AcDbEntity
  8
RACCORDO
100
AcDbPolyline
 62
250
  6
CONTINUOUS
 90
22
 70
0
 10
-45.7252476018
 20
16.9420498182
 10
-45.7759323559
 20
16.9121769214
 10
-45.8257364889
 20
16.8785964128
 10
-45.8746600007
 20
16.8413082925
 10
-45.9229485285
 20
16.8000861949
 10
-45.970356435
 20
16.7551564855
 10
-46.016146809
 20
16.7071982611
 10
-46.0602872868
 20
16.6561663373
 10
-46.1028102319
 20
16.6021058985
 10
-46.143075824
 20
16.5458315939
 10
-46.1810422868
 20
16.4873228606
 10
-46.2167513965
 20
16.4266002615
 10
-46.2496886612
 20
16.3645401353
 10
-46.2798191836
 20
16.3011109301
 10
-46.307177861
 20
16.2363441977
 10
-46.3313548934
 20
16.1712109323
 10
-46.3523006352
 20
16.1056916324
 10
-46.370064732
 20
16.0398057996
 10
-46.38438632
 20
15.9745829329
 10
-46.3951784449
 20
15.9103661988
 10
-46.402528061
 20
15.8468124308
 10
-46.4064351684
 20
15.7839216291
  0
LINE
  5
2F0
100
AcDbEntity
  8
268140580
100
AcDbLine
 62
250
  6
CONTINUOUS
 10
-40.2530145963
 20
20.0423643708
 11
-41.3347019891
 21
19.4518394286
  0
LINE
  5
2F1
100
AcDbEntity
  8
RACCORDO
100
AcDbLine
 62
250
  6
CONTINUOUS
 10
-43.6825272949
 20
18.0572308762
 11
-45.7252476018
 21
16.9420498182
  0
LINE
  5
2F2
100
AcDbEntity
  8
DRAFT
100
AcDbLine
 62
7
  6
CONTINUOUS
 10
-43.1069677941
 20
17.520951401
 11
-43.6825272949
 21
17.2067365519
  0
LINE
  5
2F3
100
AcDbEntity
  8
268140580
100
AcDbLine
 62
7
  6
CONTINUOUS
 10
-43.1322889251
 20
18.5756082499
 11
-43.7200619723
 21
18.2701443377
  0
LINE
  5
2F4
100
AcDbEntity
  8
RACCORDO
100
AcDbLine
 62
250
  6
CONTINUOUS
 10
-22.5689990576
 20
26.9144971062
 11
-39.5360785491
 21
18.2824481217
  0
LINE
  5
2F5
100
AcDbEntity
  8
RACCORDO
100
AcDbLine
 62
7
  6
CONTINUOUS
 10
-27.2673980791
 20
26.2868222352
 11
-28.0213871795
 21
25.909827685
  0
LINE
  5
2F6
100
AcDbEntity
  8
RACCORDO
100
AcDbLine
 62
250
  6
CONTINUOUS
 10
-22.6759008972
 20
27.0988755059
 11
-22.6385981991
 21
27.1172528868
  0
LINE
  5
2F7
100
AcDbEntity
  8
RACCORDO
100
AcDbLine
 62
250
  6
CONTINUOUS
 10
-22.5689990576
 20
26.9144971062
 11
-22.5317204256
 21
26.9328627445
  0
LINE
  5
2F8
100
AcDbEntity
  8
268140580
100
AcDbLine
 62
250
  6
CONTINUOUS
 10
-42.4890855832
 20
17.8848428927
 11
-43.1687941482
 21
17.551864578
  0
LINE
  5
2F9
100
AcDbEntity
  8
RACCORDO
100
AcDbLine
 62
250
  6
CONTINUOUS
 10
-33.5557353867
 20
22.5604196425
 11
-23.1758247448
 21
27.6024517652
  0
LINE
  5
2FA
100
AcDbEntity
  8
RACCORDO
100
AcDbLine
 62
250
  6
CONTINUOUS
 10
-33.2180670528
 20
21.9780279155
 11
-22.6759008972
 21
27.0988755059
  0
LWPOLYLINE
  5
2FB
100
AcDbEntity
  8
268140580
100
AcDbPolyline
 62
7
  6
CONTINUOUS
 90
51
 70
0
 10
-43.1322928573
 20
18.5756159994
 10
-43.1219881768
 20
18.5806150405
 10
-43.1077096173
 20
18.5864313372
 10
-43.0929014973
 20
18.5912272409
 10
-43.0775941555
 20
18.5949919015
 10
-43.0619010951
 20
18.597682564
 10
-43.0458087217
 20
18.5992837382
 10
-43.0293306296
 20
18.5998109142
 10
-43.0126211059
 20
18.5992678072
 10
-42.9957148264
 20
18.5976507655
 10
-42.9785771151
 20
18.5949634407
 10
-42.9612582315
 20
18.5912205031
 10
-42.943742752
 20
18.5864200435
 10
-42.9260461002
 20
18.5805639712
 10
-42.9082648064
 20
18.5736726846
 10
-42.8903747871
 20
18.5657248872
 10
-42.8724001258
 20
18.5567418756
 10
-42.8545096032
 20
18.546807938
 10
-42.8367270421
 20
18.5359256099
 10
-42.8190286198
 20
18.5240923558
 10
-42.8015116483
 20
18.5113848581
 10
-42.7841919715
 20
18.4978169026
 10
-42.7670537455
 20
18.4833747036
 10
-42.7501467509
 20
18.4680935859
 10
-42.7334363208
 20
18.4519353745
 10
-42.7169571221
 20
18.4349382445
 10
-42.7008629358
 20
18.4172520456
 10
-42.6851669451
 20
18.3988743864
 10
-42.6698559668
 20
18.3798076582
 10
-42.6550442321
 20
18.3602088854
 10
-42.6407623178
 20
18.3401194327
 10
-42.6269796472
 20
18.3194979354
 10
-42.6137187217
 20
18.2983773228
 10
-42.6009514293
 20
18.2767101378
 10
-42.5887058821
 20
18.2545438375
 10
-42.5770889172
 20
18.2320537232
 10
-42.5661067453
 20
18.2092269705
 10
-42.5557531558
 20
18.1860764038
 10
-42.5461163548
 20
18.1628157977
 10
-42.5372209099
 20
18.1394989248
 10
-42.5290422536
 20
18.1160720125
 10
-42.521594889
 20
18.0925875171
 10
-42.5148679166
 20
18.0690131511
 10
-42.5088722358
 20
18.0453812021
 10
-42.503655048
 20
18.0218409894
 10
-42.4992213127
 20
17.9983675427
 10
-42.4955660704
 20
17.9749858324
 10
-42.492721644
 20
17.9519200891
 10
-42.4906988078
 20
17.9292450565
 10
-42.4894867876
 20
17.906885991
 10
-42.4890855832
 20
17.8848428927
  0
LINE
  5
2FC
100
AcDbEntity
  8
268140580
100
AcDbLine
 62
250
  6
CONTINUOUS
 10
-39.5360785491
 20
20.3885329173
 11
-40.2530145963
 21
20.0423643708
  0
LINE
  5
2FD
100
AcDbEntity
  8
268140580
100
AcDbLine
 62
7
  6
CONTINUOUS
 10
-41.3347019891
 20
18.4808471997
 11
-40.7629093252
 21
18.7569340782
  0
LWPOLYLINE
  5
2FE
100
AcDbEntity
  8
RACCORDO
100
AcDbPolyline
 62
250
  6
CONTINUOUS
 90
31
 70
0
 10
-22.6385981991
 20
27.1172528868
 10
-22.6029297512
 20
27.1344798352
 10
-22.5857417198
 20
27.1426457482
 10
-22.5690016113
 20
27.1505051261
 10
-22.5527218593
 20
27.1580521307
 10
-22.5369145902
 20
27.1652811396
 10
-22.5215915908
 20
27.1721867622
 10
-22.5067642656
 20
27.1787638589
 10
-22.4924436292
 20
27.185007544
 10
-22.4786403287
 20
27.1909131755
 10
-22.4653646272
 20
27.1964763621
 10
-22.4526263981
 20
27.2016929665
 10
-22.4404351151
 20
27.2065591089
 10
-22.4287998442
 20
27.2110711707
 10
-22.4177292367
 20
27.2152257969
 10
-22.4072315249
 20
27.2190198981
 10
-22.3973145148
 20
27.2224506531
 10
-22.3879855806
 20
27.2255155107
 10
-22.3792516594
 20
27.2282121919
 10
-22.3711192456
 20
27.2305386915
 10
-22.3635943867
 20
27.2324932794
 10
-22.3566826779
 20
27.2340745023
 10
-22.3503892589
 20
27.2352811844
 10
-22.3447188094
 20
27.2361124283
 10
-22.339675546
 20
27.236567616
 10
-22.3352632188
 20
27.2366464089
 10
-22.3314851089
 20
27.2363487486
 10
-22.3283440256
 20
27.2356748562
 10
-22.3258423047
 20
27.234625233
 10
-22.3239818064
 20
27.2332006594
 10
-22.3230576485
 20
27.2319738633
  0
LWPOLYLINE
  5
2FF
100
AcDbEntity
  8
RACCORDO
100
AcDbPolyline
 62
250
  6
CONTINUOUS
 90
31
 70
0
 10
-22.5317204256
 20
26.9328627445
 10
-22.4960738658
 20
26.9500794789
 10
-22.478895894
 20
26.9582408909
 10
-22.4621652438
 20
26.9660961777
 10
-22.4458943394
 20
26.9736395058
 10
-22.4300952638
 20
26.9808652735
 10
-22.4147797494
 20
26.9877681149
 10
-22.3999591695
 20
26.994342904
 10
-22.3856445301
 20
27.0005847582
 10
-22.3718464612
 20
27.0064890423
 10
-22.3585752095
 20
27.0120513718
 10
-22.3458406301
 20
27.017267616
 10
-22.3336521798
 20
27.0221339014
 10
-22.3220189099
 20
27.0266466142
 10
-22.3109494594
 20
27.0308024032
 10
-22.3004520483
 20
27.0345981823
 10
-22.2905344722
 20
27.0380311328
 10
-22.281204096
 20
27.0410987054
 10
-22.2724678483
 20
27.0437986219
 10
-22.2643322168
 20
27.0461288776
 10
-22.2568032431
 20
27.0480877418
 10
-22.2498865181
 20
27.04967376
 10
-22.2435871784
 20
27.0508857543
 10
-22.2379099018
 20
27.0517228248
 10
-22.2328589043
 20
27.0521843498
 10
-22.2284379369
 20
27.0522699865
 10
-22.2246502824
 20
27.0519796714
 10
-22.2214987538
 20
27.0513136201
 10
-22.2189856912
 20
27.0502723272
 10
-22.217112961
 20
27.048856566
 10
-22.2161558237
 20
27.0475954893
  0
LINE
  5
300
100
AcDbEntity
  8
RACCORDO
100
AcDbLine
 62
7
  6
CONTINUOUS
 10
-23.7199012747
 20
27.8744900301
 11
-27.2570885229
 21
26.1815143994
  0
LWPOLYLINE
  5
301
100
AcDbEntity
  8
RACCORDO
100
AcDbPolyline
 62
250
  6
CONTINUOUS
 90
26
 70
0
 10
-23.1758247448
 20
27.6024517652
 10
-23.1565648326
 20
27.6113483762
 10
-23.1373283872
 20
27.6195907812
 10
-23.1181296937
 20
27.6271728593
 10
-23.0989830091
 20
27.6340889799
 10
-23.0799025519
 20
27.6403340071
 10
-23.0609024913
 20
27.6459033034
 10
-23.0419969369
 20
27.6507927329
 10
-23.0231999281
 20
27.6549986646
 10
-23.0045254236
 20
27.6585179754
 10
-22.9859872911
 20
27.6613480517
 10
-22.9675992973
 20
27.6634867918
 10
-22.9493750972
 20
27.6649326076
 10
-22.931328224
 20
27.6656844254
 10
-22.9134720796
 20
27.6657416868
 10
-22.8958199241
 20
27.6651043493
 10
-22.8783848659
 20
27.6637728863
 10
-22.8611798525
 20
27.6617482865
 10
-22.8442176604
 20
27.6590320533
 10
-22.8275108858
 20
27.6556262038
 10
-22.8110719354
 20
27.6515332674
 10
-22.7949130166
 20
27.6467562833
 10
-22.7790461292
 20
27.641298799
 10
-22.7634830562
 20
27.6351648673
 10
-22.7482353546
 20
27.6283590432
 10
-22.7409518643
 20
27.6248150948
  0
LWPOLYLINE
  5
302
100
AcDbEntity
  8
RACCORDO
100
AcDbPolyline
 62
250
  6
CONTINUOUS
 90
16
 70
0
 10
-46.4064351684
 20
15.7839216291
 10
-46.4454442979
 20
15.768789388
 10
-46.4877569259
 20
15.7557461249
 10
-46.5329196932
 20
15.7449315919
 10
-46.580448703
 20
15.7364616616
 10
-46.6298347051
 20
15.7304270851
 10
-46.6805485528
 20
15.7268925199
 10
-46.7320468719
 20
15.7258958371
 10
-46.7837778832
 20
15.7274477158
 10
-46.8351873142
 20
15.7315315282
 10
-46.8857243381
 20
15.7381035184
 10
-46.9348474753
 20
15.7470932707
 10
-46.9820303955
 20
15.7584044643
 10
-47.0267675568
 20
15.7719159055
 10
-47.0685796223
 20
15.7874828257
 10
-47.1070185964
 20
15.8049384329
  0
LWPOLYLINE
  5
303
100
AcDbEntity
  8
268140580
100
AcDbPolyline
 62
7
  6
CONTINUOUS
 90
15
 70
0
 10
-40.6901660807
 20
-18.8021492452
 10
-40.6901825664
 20
-18.8021209946
 10
-40.6905167289
 20
-18.8015029246
 10
-40.691160729
 20
-18.8001598359
 10
-40.6920340487
 20
-18.7980866564
 10
-40.693050167
 20
-18.7953248816
 10
-40.6941489923
 20
-18.7918808675
 10
-40.6952781569
 20
-18.7877557037
 10
-40.6963870722
 20
-18.7829614971
 10
-40.6974308977
 20
-18.7775052338
 10
-40.6983672972
 20
-18.7713987779
 10
-40.699158184
 20
-18.7646435002
 10
-40.699766353
 20
-18.7572450801
 10
-40.7001554422
 20
-18.7492250593
 10
-40.7002921115
 20
-18.740604731
  0
LINE
  5
304
100
AcDbEntity
  8
268140580
100
AcDbLine
 62
7
  6
CONTINUOUS
 10
-51.8243858531
 20
26.7463443785
 11
-51.8243858531
 21
25.4856167511
  0
LINE
  5
305
100
AcDbEntity
  8
268140580
100
AcDbLine
 62
250
  6
CONTINUOUS
 10
-51.7365178875
 20
26.6409424401
 11
-51.7365178875
 21
25.3755627173
  0
LINE
  5
306
100
AcDbEntity
  8
268140580
100
AcDbLine
 62
250
  6
CONTINUOUS
 10
-40.5967387209
 20
21.4339994084
 11
-40.066408635
 21
22.0741644513
  0
LINE
  5
307
100
AcDbEntity
  8
268140580
100
AcDbLine
 62
7
  6
CONTINUOUS
 10
-40.5809963781
 20
21.3628997629
 11
-40.0506662922
 21
22.0030648058
  0
LWPOLYLINE
  5
308
100
AcDbEntity
  8
268140580
100
AcDbPolyline
 62
250
  6
CONTINUOUS
 90
9
 70
0
 10
-40.529568147
 20
20.5270557722
 10
-40.5284218083
 20
20.5282788796
 10
-40.5280641539
 20
20.5289119742
 10
-40.527983675
 20
20.5296028213
 10
-40.5281160034
 20
20.5303165579
 10
-40.528472211
 20
20.5309838864
 10
-40.5290542802
 20
20.5315824698
 10
-40.5298567154
 20
20.5321353389
 10
-40.5308779445
 20
20.5326424923
  0
LINE
  5
309
100
AcDbEntity
  8
RACCORDO
100
AcDbLine
 62
7
  6
CONTINUOUS
 10
-62.2357049825
 20
5.4040694357
 11
-62.1251134214
 21
5.4637361883
  0
LINE
  5
30A
100
AcDbEntity
  8
RACCORDO
100
AcDbLine
 62
250
  6
CONTINUOUS
 10
-62.1431246798
 20
5.4000431071
 11
-62.0731899939
 21
5.4377744745
  0
LWPOLYLINE
  5
30B
100
AcDbEntity
  8
RACCORDO
100
AcDbPolyline
 62
250
  6
CONTINUOUS
 90
30
 70
0
 10
-22.1548485819
 20
25.4828635315
 10
-22.1361874434
 20
25.4927928745
 10
-22.1180743483
 20
25.5029727725
 10
-22.1005227477
 20
25.5133956658
 10
-22.0835456755
 20
25.5240538144
 10
-22.0671557389
 20
25.5349393034
 10
-22.0513651092
 20
25.5460440491
 10
-22.0361855126
 20
25.5573598053
 10
-22.0216282215
 20
25.5688781687
 10
-22.0077040463
 20
25.5805905857
 10
-21.9944233271
 20
25.5924883586
 10
-21.9817959263
 20
25.604562652
 10
-21.969831221
 20
25.6168044996
 10
-21.9585380964
 20
25.6292048105
 10
-21.9479249386
 20
25.6417543761
 10
-21.9379996293
 20
25.654443877
 10
-21.9287695388
 20
25.66726389
 10
-21.9202415216
 20
25.6802048948
 10
-21.9124219105
 20
25.6932572814
 10
-21.9053165126
 20
25.706411357
 10
-21.8989306042
 20
25.7196573534
 10
-21.8932689276
 20
25.7329854338
 10
-21.8883356872
 20
25.746385701
 10
-21.8841345464
 20
25.7598482037
 10
-21.8806686251
 20
25.7733629446
 10
-21.877940497
 20
25.7869198876
 10
-21.875952188
 20
25.8005089653
 10
-21.8747051747
 20
25.8141200863
 10
-21.8742003832
 20
25.8277431429
 10
-21.8741883823
 20
25.830191207
  0
LINE
  5
30C
100
AcDbEntity
  8
RACCORDO
100
AcDbLine
 62
250
  6
CONTINUOUS
 10
-22.1548485819
 20
25.4828635315
 11
-39.5360785491
 21
16.6401143382
  0
LWPOLYLINE
  5
30D
100
AcDbEntity
  8
RACCORDO
100
AcDbPolyline
 62
250
  6
CONTINUOUS
 90
7
 70
0
 10
-62.2356213003
 20
5.4041146524
 10
-62.2301811616
 20
5.4067738601
 10
-62.2147150935
 20
5.4117162536
 10
-62.1979823536
 20
5.4135181126
 10
-62.1802691328
 20
5.4121486188
 10
-62.1618783919
 20
5.4076311955
 10
-62.1431246798
 20
5.4000431071
  0
LWPOLYLINE
  5
30E
100
AcDbEntity
  8
RACCORDO
100
AcDbPolyline
 62
7
  6
CONTINUOUS
 90
14
 70
0
 10
-47.3596305031
 20
-1.918994966
 10
-47.3186237451
 20
-1.9373805835
 10
-47.2753440024
 20
-1.9527596564
 10
-47.2305777757
 20
-1.9650620068
 10
-47.1845201703
 20
-1.9744485697
 10
-47.1375231407
 20
-1.9809659058
 10
-47.0899099222
 20
-1.984660015
 10
-47.0419681641
 20
-1.9855328379
 10
-46.9941851184
 20
-1.9835710638
 10
-46.9468484298
 20
-1.9787651631
 10
-46.9002916465
 20
-1.9710550258
 10
-46.8548843207
 20
-1.9603841685
 10
-46.8108235167
 20
-1.9465911925
 10
-46.7651460594
 20
-1.9279928602
  0
LWPOLYLINE
  5
30F
100
AcDbEntity
  8
RACCORDO
100
AcDbPolyline
 62
250
  6
CONTINUOUS
 90
19
 70
0
 10
-47.4112609015
 20
-1.810857898
 10
-47.3794602518
 20
-1.8254562911
 10
-47.3452573581
 20
-1.8386781529
 10
-47.308919158
 20
-1.8504021103
 10
-47.2707232491
 20
-1.860541335
 10
-47.230954792
 20
-1.8690302247
 10
-47.1899005599
 20
-1.8758049779
 10
-47.1478602846
 20
-1.8808134388
 10
-47.1051506585
 20
-1.8840262932
 10
-47.0620884852
 20
-1.8854187534
 10
-47.018993685
 20
-1.8849689506
 10
-46.9761864305
 20
-1.8826880642
 10
-46.9339839795
 20
-1.8786002605
 10
-46.8927041059
 20
-1.8727260642
 10
-46.8526499673
 20
-1.865106928
 10
-46.8141099426
 20
-1.8558061225
 10
-46.7773704394
 20
-1.8448841039
 10
-46.7427116487
 20
-1.8324140982
 10
-46.7104031942
 20
-1.8185087724
  0
LINE
  5
310
100
AcDbEntity
  8
RACCORDO
100
AcDbLine
 62
250
  6
CONTINUOUS
 10
-47.4112715607
 20
-2.4910341586
 11
-62.278405218
 21
4.94253267
  0
LINE
  5
311
100
AcDbEntity
  8
RACCORDO
100
AcDbLine
 62
250
  6
CONTINUOUS
 10
-47.2723183901
 20
-2.2482428373
 11
-62.1394520474
 21
5.1853239913
  0
LINE
  5
312
100
AcDbEntity
  8
RACCORDO
100
AcDbLine
 62
7
  6
CONTINUOUS
 10
-62.2264266239
 20
5.5143927895
 11
-47.359292969
 21
-1.919174038
  0
LINE
  5
313
100
AcDbEntity
  8
RACCORDO
100
AcDbLine
 62
250
  6
CONTINUOUS
 10
-62.278405218
 20
5.6227036069
 11
-47.4112715607
 21
-1.8108632218
  0
LWPOLYLINE
  5
314
100
AcDbEntity
  8
RACCORDO
100
AcDbPolyline
 62
250
  6
CONTINUOUS
 90
10
 70
0
 10
-62.2783945519
 20
4.9425380089
 10
-62.3075572193
 20
4.9584553931
 10
-62.3338964776
 20
4.9756090727
 10
-62.3571701094
 20
4.9938653142
 10
-62.3772081859
 20
5.0130834551
 10
-62.3938814101
 20
5.0331199613
 10
-62.4070612873
 20
5.0538318919
 10
-62.4166485631
 20
5.0750668525
 10
-62.4225894604
 20
5.0966640713
 10
-62.4248525907
 20
5.1205884206
  0
LWPOLYLINE
  5
315
100
AcDbEntity
  8
RACCORDO
100
AcDbPolyline
 62
250
  6
CONTINUOUS
 90
13
 70
0
 10
-62.1394520474
 20
5.1853239913
 10
-62.1570123636
 20
5.1949265837
 10
-62.1726905327
 20
5.205147291
 10
-62.1864865546
 20
5.2159861133
 10
-62.1984903574
 20
5.2275396584
 10
-62.208612013
 20
5.2397113184
 10
-62.2165817375
 20
5.2522112701
 10
-62.2223373352
 20
5.2650414217
 10
-62.2259410018
 20
5.2781998649
 10
-62.2273095399
 20
5.2913910509
 10
-62.2263905588
 20
5.3046149307
 10
-62.2232364493
 20
5.3178715532
 10
-62.2179211861
 20
5.3308655165
  0
LWPOLYLINE
  5
316
100
AcDbEntity
  8
268140580
100
AcDbPolyline
 62
7
  6
CONTINUOUS
 90
25
 70
0
 10
-53.9964122244
 20
27.3994244915
 10
-53.9946672923
 20
27.385220924
 10
-53.9933631872
 20
27.3713875393
 10
-53.9924999092
 20
27.3579243373
 10
-53.9920080944
 20
27.3448221638
 10
-53.9919571066
 20
27.332090173
 10
-53.9925550371
 20
27.3197558284
 10
-53.993862836
 20
27.3078110304
 10
-53.9958195532
 20
27.2962638785
 10
-53.9984504292
 20
27.2851661345
 10
-54.0017906684
 20
27.2745359998
 10
-54.0058050664
 20
27.264355273
 10
-54.0104132505
 20
27.2546211122
 10
-54.0156119684
 20
27.2453539926
 10
-54.0214044724
 20
27.2365334391
 10
-54.027720146
 20
27.2280951842
 10
-54.0345645545
 20
27.2200245232
 10
-54.0419321327
 20
27.2123361609
 10
-54.0497355683
 20
27.2050099442
 10
-54.0579774303
 20
27.1980429769
 10
-54.0666551496
 20
27.1914381551
 10
-54.0756737067
 20
27.1851840145
 10
-54.0850014285
 20
27.1792767337
 10
-54.094669988
 20
27.1737201341
 10
-54.1046793854
 20
27.1685142157
  0
LWPOLYLINE
  5
317
100
AcDbEntity
  8
RACCORDO
100
AcDbPolyline
 62
250
  6
CONTINUOUS
 90
22
 70
0
 10
-46.4064351684
 20
-19.7984107341
 10
-46.402528061
 20
-19.8575284861
 10
-46.3951784449
 20
-19.9139848123
 10
-46.3843863201
 20
-19.9677797126
 10
-46.370064732
 20
-20.0191723825
 10
-46.3523006352
 20
-20.0679036265
 10
-46.3313548934
 20
-20.1131958586
 10
-46.3071778611
 20
-20.1549816352
 10
-46.2798191836
 20
-20.1933283999
 10
-46.2496886612
 20
-20.2276608979
 10
-46.2167513965
 20
-20.2579138773
 10
-46.1810422868
 20
-20.28415259
 10
-46.143075824
 20
-20.3059975363
 10
-46.1028102319
 20
-20.3233878106
 10
-46.0602872868
 20
-20.3363843186
 10
-46.016146809
 20
-20.3447902785
 10
-45.970356435
 20
-20.3485292528
 10
-45.9229485284
 20
-20.347677679
 10
-45.8746600007
 20
-20.3422680874
 10
-45.8257364889
 20
-20.3323113215
 10
-45.7759323559
 20
-20.3177965379
 10
-45.7252476018
 20
-20.2987237366
  0
LWPOLYLINE
  5
318
100
AcDbEntity
  8
RACCORDO
100
AcDbPolyline
 62
250
  6
CONTINUOUS
 90
13
 70
0
 10
-47.1070185967
 20
-19.8130118808
 10
-47.1012621647
 20
-19.9013146955
 10
-47.0902319475
 20
-19.9863179805
 10
-47.0739829863
 20
-20.0676022362
 10
-47.0525956041
 20
-20.1447634159
 10
-47.0261761805
 20
-20.2174251079
 10
-46.9948540065
 20
-20.2852379053
 10
-46.9587747371
 20
-20.3478747928
 10
-46.9181185069
 20
-20.4050151329
 10
-46.8731023038
 20
-20.4563596401
 10
-46.823958422
 20
-20.5016502279
 10
-46.7709208321
 20
-20.5406785685
 10
-46.7146372703
 20
-20.5730624366
  0
LWPOLYLINE
  5
319
100
AcDbEntity
  8
RACCORDO
100
AcDbPolyline
 62
250
  6
CONTINUOUS
 90
8
 70
0
 10
-47.4112715607
 20
-1.8108632218
 10
-47.4101014589
 20
-1.8326492573
 10
-47.4065820802
 20
-1.8528881029
 10
-47.4007724082
 20
-1.8712407717
 10
-47.392769781
 20
-1.88739989
 10
-47.3827082774
 20
-1.9010948073
 10
-47.3707564849
 20
-1.9120961471
 10
-47.3596342126
 20
-1.9190023284
  0
LWPOLYLINE
  5
31A
100
AcDbEntity
  8
268140580
100
AcDbPolyline
 62
250
  6
CONTINUOUS
 90
27
 70
0
 10
-42.1877289786
 20
21.0135042796
 10
-42.1925971336
 20
21.0014994766
 10
-42.197936478
 20
20.9897698442
 10
-42.2037323769
 20
20.9783475327
 10
-42.2099689443
 20
20.9672638496
 10
-42.2166290862
 20
20.9565491746
 10
-42.2236945474
 20
20.946232876
 10
-42.2311459622
 20
20.9363432299
 10
-42.2389629067
 20
20.9269073432
 10
-42.2471239552
 20
20.917951079
 10
-42.2556067388
 20
20.9094989858
 10
-42.2643880068
 20
20.9015742302
 10
-42.2734436904
 20
20.8941985334
 10
-42.2827489686
 20
20.8873921117
 10
-42.2922783362
 20
20.881173621
 10
-42.3020056739
 20
20.8755601057
 10
-42.3119043198
 20
20.8705669522
 10
-42.3219471423
 20
20.8662078462
 10
-42.3321066148
 20
20.8624947359
 10
-42.3423548909
 20
20.8594377985
 10
-42.3526638807
 20
20.8570454129
 10
-42.3630053281
 20
20.8553241366
 10
-42.3733508878
 20
20.8542786873
 10
-42.3836722034
 20
20.8539119307
 10
-42.3939409848
 20
20.8542248719
 10
-42.4041290862
 20
20.8552166532
 10
-42.4152064265
 20
20.8570877382
  0
LWPOLYLINE
  5
31B
100
AcDbEntity
  8
RACCORDO
100
AcDbPolyline
 62
250
  6
CONTINUOUS
 90
9
 70
0
 10
-31.6888054019
 20
26.1442118043
 10
-31.6686466566
 20
26.1673657795
 10
-31.6095677861
 20
26.2266249968
 10
-31.5444750067
 20
26.28423293
 10
-31.4735991749
 20
26.3400063976
 10
-31.3971060371
 20
26.3938343331
 10
-31.3151146333
 20
26.4456355168
 10
-31.2278660364
 20
26.4952531562
 10
-31.2073688749
 20
26.5061895244
  0
LINE
  5
31C
100
AcDbEntity
  8
RACCORDO
100
AcDbLine
 62
7
  6
CONTINUOUS
 10
-42.9220457234
 20
12.5861027016
 11
-43.1069677941
 21
12.4906844325
  0
LINE
  5
31D
100
AcDbEntity
  8
268140580
100
AcDbLine
 62
250
  6
CONTINUOUS
 10
-42.1293608953
 20
13.1997457063
 11
-43.1069677941
 21
12.7482544436
  0
LINE
  5
31E
100
AcDbEntity
  8
268140580
100
AcDbLine
 62
7
  6
CONTINUOUS
 10
-42.2104533963
 20
13.0359920376
 11
-43.1069677941
 21
12.6219519792
  0
LWPOLYLINE
  5
31F
100
AcDbEntity
  8
RACCORDO
100
AcDbPolyline
 62
250
  6
CONTINUOUS
 90
13
 70
0
 10
-46.7103918487
 20
-2.4895020092
 10
-46.7119076745
 20
-2.4664442305
 10
-46.7157739483
 20
-2.442550554
 10
-46.7219245045
 20
-2.4182296818
 10
-46.7302541158
 20
-2.3938975927
 10
-46.7406202741
 20
-2.369970488
 10
-46.7528456128
 20
-2.3468576679
 10
-46.7667209858
 20
-2.3249544372
 10
-46.7820090442
 20
-2.3046353809
 10
-46.7984482585
 20
-2.286248008
 10
-46.8157574328
 20
-2.2701067508
 10
-46.8336405205
 20
-2.2564875976
 10
-46.8517916658
 20
-2.2456233999
  0
LWPOLYLINE
  5
320
100
AcDbEntity
  8
RACCORDO
100
AcDbPolyline
 62
250
  6
CONTINUOUS
 90
5
 70
0
 10
-46.6137929784
 20
-12.142287682
 10
-46.5727929821
 20
-14.0618539703
 10
-46.5245667625
 20
-15.9777249575
 10
-46.4691141579
 20
-17.8899105455
 10
-46.4064351684
 20
-19.7984107341
  0
LWPOLYLINE
  5
321
100
AcDbEntity
  8
RACCORDO
100
AcDbPolyline
 62
250
  6
CONTINUOUS
 90
10
 70
0
 10
-47.4112715607
 20
-2.4910341586
 10
-47.4063884054
 20
-4.4302998513
 10
-47.3942731217
 20
-6.3659830657
 10
-47.3749264372
 20
-8.2980451349
 10
-47.3483496773
 20
-10.2264177787
 10
-47.3145436195
 20
-12.1510922948
 10
-47.2735073986
 20
-14.0721189838
 10
-47.2252405444
 20
-15.9894884872
 10
-47.1697440774
 20
-17.9031323645
 10
-47.1070185967
 20
-19.8130118808
  0
LWPOLYLINE
  5
322
100
AcDbEntity
  8
RACCORDO
100
AcDbPolyline
 62
250
  6
CONTINUOUS
 90
6
 70
0
 10
-46.7103918487
 20
-2.4895020092
 10
-46.7055258796
 20
-4.4273665711
 10
-46.6934330404
 20
-6.361575439
 10
-46.674113331
 20
-8.2921286128
 10
-46.6475665898
 20
-10.2190359944
 10
-46.6137929784
 20
-12.142287682
  0
LINE
  5
323
100
AcDbEntity
  8
268140580
100
AcDbLine
 62
250
  6
CONTINUOUS
 10
-46.2889483095
 20
27.717622543
 11
-46.2889483095
 21
26.4485207036
  0
LINE
  5
324
100
AcDbEntity
  8
268140580
100
AcDbLine
 62
250
  6
CONTINUOUS
 10
-45.932547556
 20
22.4735775516
 11
-45.932547556
 21
23.7389572743
  0
LINE
  5
325
100
AcDbEntity
  8
268140580
100
AcDbLine
 62
250
  6
CONTINUOUS
 10
-45.5070652198
 20
22.4878845661
 11
-45.5070652198
 21
23.7372895612
  0
LWPOLYLINE
  5
326
100
AcDbEntity
  8
RACCORDO
100
AcDbPolyline
 62
250
  6
CONTINUOUS
 90
6
 70
0
 10
-46.6137929784
 20
7.9275554675
 10
-46.6475665898
 20
5.9716889825
 10
-46.674113331
 20
4.0191457109
 10
-46.6934330404
 20
2.0699357106
 10
-46.7055258796
 20
0.1240489236
 10
-46.7103918487
 20
-1.81851465
  0
LWPOLYLINE
  5
327
100
AcDbEntity
  8
RACCORDO
100
AcDbPolyline
 62
250
  6
CONTINUOUS
 90
9
 70
0
 10
-47.1697440774
 20
13.8344835347
 10
-47.2252405444
 20
11.8672454638
 10
-47.2735073986
 20
9.9032635542
 10
-47.3145436195
 20
7.9426072721
 10
-47.3483496773
 20
5.9852855007
 10
-47.3749264372
 20
4.0312470581
 10
-47.3942731217
 20
2.0805014189
 10
-47.4063884054
 20
0.1331181941
 10
-47.4112715607
 20
-1.8108632218
  0
LWPOLYLINE
  5
328
100
AcDbEntity
  8
RACCORDO
100
AcDbPolyline
 62
250
  6
CONTINUOUS
 90
4
 70
0
 10
-46.4691141579
 20
13.8148930438
 10
-46.5245667625
 20
11.8491574981
 10
-46.5727929821
 20
9.886714992
 10
-46.6137929784
 20
7.9275554675
  0
LINE
  5
329
100
AcDbEntity
  8
RACCORDO
100
AcDbLine
 62
250
  6
CONTINUOUS
 10
-47.1070185967
 20
15.8049384328
 11
-47.1697440774
 21
13.8344835347
  0
LINE
  5
32A
100
AcDbEntity
  8
RACCORDO
100
AcDbLine
 62
250
  6
CONTINUOUS
 10
-46.4064351684
 20
15.7839216291
 11
-46.4691141579
 21
13.8148930438
  0
LWPOLYLINE
  5
32B
100
AcDbEntity
  8
RACCORDO
100
AcDbPolyline
 62
250
  6
CONTINUOUS
 90
13
 70
0
 10
-47.4112715607
 20
-2.4910341586
 10
-47.4101015317
 20
-2.4680787551
 10
-47.4065823508
 20
-2.4443211921
 10
-47.400772963
 20
-2.4201593993
 10
-47.3927706729
 20
-2.3959980767
 10
-47.3827095158
 20
-2.3722419167
 10
-47.3707580122
 20
-2.3492888251
 10
-47.357116345
 20
-2.3275232566
 10
-47.3420130063
 20
-2.3073097758
 10
-47.325700971
 20
-2.2889869501
 10
-47.308453459
 20
-2.2728616793
 10
-47.2905593591
 20
-2.2592040552
 10
-47.2723183901
 20
-2.2482428373
  0
LWPOLYLINE
  5
32C
100
AcDbEntity
  8
RACCORDO
100
AcDbPolyline
 62
250
  6
CONTINUOUS
 90
8
 70
0
 10
-46.7103918487
 20
-1.81851465
 10
-46.7119075851
 20
-1.8406576706
 10
-46.7157736361
 20
-1.861191631
 10
-46.721923878
 20
-1.8797653255
 10
-46.7302531194
 20
-1.8960610761
 10
-46.7406188998
 20
-1.909800166
 10
-46.7528439261
 20
-1.9207476064
 10
-46.765142308
 20
-1.9280009169
  0
LWPOLYLINE
  5
32D
100
AcDbEntity
  8
268140580
100
AcDbPolyline
 62
250
  6
CONTINUOUS
 90
5
 70
0
 10
-40.7054569561
 20
20.7060942677
 10
-40.7029317019
 20
20.7132549818
 10
-40.701243437
 20
20.7204769964
 10
-40.700397874
 20
20.7277358744
 10
-40.7002921115
 20
20.7313714642
  0
LWPOLYLINE
  5
32E
100
AcDbEntity
  8
268140580
100
AcDbPolyline
 62
250
  6
CONTINUOUS
 90
25
 70
0
 10
-41.6573988927
 20
20.9036693225
 10
-41.6628373161
 20
20.8903469979
 10
-41.6688554964
 20
20.8773688357
 10
-41.6754330694
 20
20.8647787497
 10
-41.6825477783
 20
20.8526193407
 10
-41.6901755485
 20
20.8409317524
 10
-41.6982905693
 20
20.829755532
 10
-41.7068653814
 20
20.819128496
 10
-41.7158709699
 20
20.8090866027
 10
-41.7252768621
 20
20.7996638304
 10
-41.7350512309
 20
20.7908920622
 10
-41.7451610027
 20
20.7828009785
 10
-41.7555719689
 20
20.7754179562
 10
-41.7662489016
 20
20.7687679767
 10
-41.7771556734
 20
20.7628735406
 10
-41.7882553794
 20
20.757754592
 10
-41.7995104613
 20
20.7534284511
 10
-41.8108828357
 20
20.7499097555
 10
-41.8223340225
 20
20.7472104105
 10
-41.8338252746
 20
20.7453395493
 10
-41.8453177094
 20
20.7443035017
 10
-41.8567724409
 20
20.7441057726
 10
-41.8681507102
 20
20.7447470308
 10
-41.8794140171
 20
20.746225106
 10
-41.8848763406
 20
20.7472527811
  0
LWPOLYLINE
  5
32F
100
AcDbEntity
  8
RACCORDO
100
AcDbPolyline
 62
250
  6
CONTINUOUS
 90
47
 70
0
 10
-31.6110792156
 20
26.1114639583
 10
-31.603217352
 20
26.1219730236
 10
-31.5539341337
 20
26.178753701
 10
-31.498800459
 20
26.2343443154
 10
-31.4382969807
 20
26.2882868376
 10
-31.3724246291
 20
26.3405397371
 10
-31.3011824738
 20
26.3911445446
 10
-31.2250483761
 20
26.4397678231
 10
-31.1440317471
 20
26.4863955656
 10
-31.0581231757
 20
26.5310417792
 10
-30.96777229
 20
26.5734150483
 10
-30.8727220098
 20
26.6135742463
 10
-30.7732294153
 20
26.6514604998
 10
-30.6705153749
 20
26.686605773
 10
-30.5641745062
 20
26.7189834929
 10
-30.4546121916
 20
26.7486202324
 10
-30.3442654472
 20
26.7751276746
 10
-30.2331609303
 20
26.7983270681
 10
-30.1212719835
 20
26.8183971641
 10
-30.0109556514
 20
26.8354858999
 10
-29.9025651615
 20
26.8494597957
 10
-29.7957472863
 20
26.8604523313
 10
-29.6917993871
 20
26.8690118826
 10
-29.5909635527
 20
26.8751144521
 10
-29.4929976944
 20
26.8787840373
 10
-29.3984729081
 20
26.8806410061
 10
-29.307551168
 20
26.880706875
 10
-29.2200704998
 20
26.8789601274
 10
-29.1361160765
 20
26.8759565821
 10
-29.0558120031
 20
26.8717377814
 10
-28.9790341745
 20
26.8662621829
 10
-28.905495448
 20
26.8599609773
 10
-28.8352289143
 20
26.8528749435
 10
-28.7682014828
 20
26.8449633026
 10
-28.7040267386
 20
26.8365349085
 10
-28.6427189918
 20
26.8276242679
 10
-28.5842639324
 20
26.8181968741
 10
-28.5282322159
 20
26.8084580603
 10
-28.4746276323
 20
26.7984365386
 10
-28.4234463917
 20
26.7881035968
 10
-28.3742477794
 20
26.7775784321
 10
-28.3270286345
 20
26.766883893
 10
-28.2817921179
 20
26.7559971308
 10
-28.238106998
 20
26.7449687972
 10
-28.1958295309
 20
26.7338157759
 10
-28.1551034605
 20
26.7225211831
 10
-28.1159287868
 20
26.7110850187
  0
LWPOLYLINE
  5
330
100
AcDbEntity
  8
RACCORDO
100
AcDbPolyline
 62
7
  6
CONTINUOUS
 90
10
 70
0
 10
-20.2734616007
 20
22.1737659693
 10
-20.2748906653
 20
22.1729752378
 10
-20.2763477038
 20
22.172281819
 10
-20.2778330383
 20
22.1716859334
 10
-20.2793428755
 20
22.1711849299
 10
-20.2808815776
 20
22.1707818821
 10
-20.2824620152
 20
22.1704857469
 10
-20.2840890456
 20
22.1702998361
 10
-20.2857591584
 20
22.170221658
 10
-20.2874729935
 20
22.1702516246
  0
LINE
  5
331
100
AcDbEntity
  8
RACCORDO
100
AcDbLine
 62
7
  6
CONTINUOUS
 10
-42.9220457234
 20
9.0715204566
 11
-43.1069677941
 21
8.9787606593
  0
LINE
  5
332
100
AcDbEntity
  8
268140580
100
AcDbLine
 62
7
  6
CONTINUOUS
 10
-43.0609099968
 20
-0.8003309822
 11
-43.1069677941
 21
-0.7773020836
  0
LINE
  5
333
100
AcDbEntity
  8
RACCORDO
100
AcDbLine
 62
7
  6
CONTINUOUS
 10
-43.3795536804
 20
-0.3644248467
 11
-43.2483676112
 21
-0.4300178813
  0
LWPOLYLINE
  5
334
100
AcDbEntity
  8
RACCORDO
100
AcDbPolyline
 62
250
  6
CONTINUOUS
 90
16
 70
0
 10
-45.7252476018
 20
16.9420498182
 10
-45.729114234
 20
16.9872581355
 10
-45.7367395048
 20
17.0339397679
 10
-45.7480399797
 20
17.0815838649
 10
-45.7628920052
 20
17.1296690426
 10
-45.7811330598
 20
17.1776690837
 10
-45.8025635313
 20
17.2250586962
 10
-45.8269489054
 20
17.2713192729
 10
-45.8540223287
 20
17.3159445568
 10
-45.8834875237
 20
17.3584461776
 10
-45.9150220433
 20
17.398359014
 10
-45.948280792
 20
17.4352462716
 10
-45.9828997946
 20
17.4687042574
 10
-46.0185001944
 20
17.4983668147
 10
-46.0546924005
 20
17.5239093276
 10
-46.0910803411
 20
17.5450522643
  0
LWPOLYLINE
  5
335
100
AcDbEntity
  8
268140580
100
AcDbPolyline
 62
250
  6
CONTINUOUS
 90
17
 70
0
 10
-43.8847852534
 20
-19.9826589463
 10
-43.8844828439
 20
-19.995166324
 10
-43.8835766499
 20
-20.0073284998
 10
-43.8820697718
 20
-20.0191038622
 10
-43.8799673653
 20
-20.0304521234
 10
-43.8772766234
 20
-20.0413344567
 10
-43.8740067523
 20
-20.0517136296
 10
-43.8701689393
 20
-20.0615541311
 10
-43.8657763151
 20
-20.0708222932
 10
-43.8608439084
 20
-20.0794864059
 10
-43.8553885949
 20
-20.0875168261
 10
-43.8494290393
 20
-20.0948860788
 10
-43.8429856313
 20
-20.101568951
 10
-43.8360804163
 20
-20.107542578
 10
-43.8287370197
 20
-20.112786522
 10
-43.8209805658
 20
-20.1172828413
 10
-43.8198176676
 20
-20.1178745408
  0
LWPOLYLINE
  5
336
100
AcDbEntity
  8
268140580
100
AcDbPolyline
 62
250
  6
CONTINUOUS
 90
16
 70
0
 10
-43.8847852534
 20
21.6852557217
 10
-43.8844861753
 20
21.672816536
 10
-43.8835899527
 20
21.6607185189
 10
-43.8820996182
 20
21.649002606
 10
-43.8800202147
 20
21.6377084404
 10
-43.8773587783
 20
21.6268742379
 10
-43.8741243142
 20
21.6165366581
 10
-43.8703277671
 20
21.60673068
 10
-43.8659819831
 20
21.597489484
 10
-43.8611016671
 20
21.5888443394
 10
-43.8557033324
 20
21.5808244985
 10
-43.8498052454
 20
21.5734570981
 10
-43.8434273633
 20
21.566767067
 10
-43.8365912667
 20
21.5607770422
 10
-43.8293200871
 20
21.555507292
 10
-43.8217734652
 20
21.5510553104
  0
LWPOLYLINE
  5
337
100
AcDbEntity
  8
268140580
100
AcDbPolyline
 62
7
  6
CONTINUOUS
 90
22
 70
0
 10
-44.9454454252
 20
29.1120976911
 10
-44.9457666138
 20
29.1306081257
 10
-44.9467520061
 20
29.1487415482
 10
-44.9484016022
 20
29.1664979587
 10
-44.9507212862
 20
29.1839305183
 10
-44.9537051741
 20
29.2009860658
 10
-44.957335613
 20
29.2175051176
 10
-44.9616226427
 20
29.2334738443
 10
-44.9665562234
 20
29.2489060753
 10
-44.972088584
 20
29.2636838146
 10
-44.9782116153
 20
29.2777771926
 10
-44.9849334265
 20
29.2912160789
 10
-44.9922305737
 20
29.303972087
 10
-45.0001006113
 20
29.3160506925
 10
-45.0085459849
 20
29.3274464198
 10
-45.0175505874
 20
29.3381144559
 10
-45.0271362771
 20
29.3480703399
 10
-45.0372811957
 20
29.3572985327
 10
-45.0479036607
 20
29.365707604
 10
-45.0590121176
 20
29.3732827858
 10
-45.0705981209
 20
29.380038846
 10
-45.075395337
 20
29.3825279582
  0
LINE
  5
338
100
AcDbEntity
  8
268140580
100
AcDbLine
 62
7
  6
CONTINUOUS
 10
-45.3230224832
 20
27.8470320655
 11
-45.3230224832
 21
27.2408142829
  0
LINE
  5
339
100
AcDbEntity
  8
268140580
100
AcDbLine
 62
7
  6
CONTINUOUS
 10
-44.9454454252
 20
29.1120976911
 11
-44.9454454252
 21
28.3893739851
  0
LINE
  5
33A
100
AcDbEntity
  8
268140580
100
AcDbLine
 62
250
  6
CONTINUOUS
 10
-44.8747347471
 20
27.1114047603
 11
-44.8747347471
 21
26.5877183702
  0
LINE
  5
33B
100
AcDbEntity
  8
268140580
100
AcDbLine
 62
7
  6
CONTINUOUS
 10
-43.9580085581
 20
-19.773542233
 11
-43.9580085581
 21
-19.8942705986
  0
LINE
  5
33C
100
AcDbEntity
  8
268140580
100
AcDbLine
 62
7
  6
CONTINUOUS
 10
-43.9580085581
 20
21.7736440693
 11
-43.9580085581
 21
22.1419545979
  0
LINE
  5
33D
100
AcDbEntity
  8
268140580
100
AcDbLine
 62
250
  6
CONTINUOUS
 10
-43.8847852534
 20
-19.742806064
 11
-43.8847852534
 21
-19.9826589463
  0
LINE
  5
33E
100
AcDbEntity
  8
268140580
100
AcDbLine
 62
250
  6
CONTINUOUS
 10
-43.8847852534
 20
21.6852557217
 11
-43.8847852534
 21
22.0535662503
  0
LINE
  5
33F
100
AcDbEntity
  8
RACCORDO
100
AcDbLine
 62
7
  6
CONTINUOUS
 10
-43.6825272949
 20
18.0572308762
 11
-43.6825272949
 21
17.2067365519
  0
LINE
  5
340
100
AcDbEntity
  8
RACCORDO
100
AcDbLine
 62
7
  6
CONTINUOUS
 10
-43.6825272949
 20
-19.4412727242
 11
-43.6825272949
 21
-18.5907783999
  0
LINE
  5
341
100
AcDbEntity
  8
268140580
100
AcDbLine
 62
7
  6
CONTINUOUS
 10
-43.250901777
 20
-18.4095995395
 11
-43.250901777
 21
-18.4224066795
  0
LINE
  5
342
100
AcDbEntity
  8
268140580
100
AcDbLine
 62
7
  6
CONTINUOUS
 10
-43.250901777
 20
20.8116080799
 11
-43.250901777
 21
21.2655821816
  0
LWPOLYLINE
  5
343
100
AcDbEntity
  8
RACCORDO
100
AcDbPolyline
 62
250
  6
CONTINUOUS
 90
10
 70
0
 10
-45.7252476018
 20
-20.2987237366
 10
-45.7291142678
 20
-20.3438630346
 10
-45.7367396099
 20
-20.3865403307
 10
-45.7480401805
 20
-20.4262885868
 10
-45.762892312
 20
-20.4626728184
 10
-45.7811334701
 20
-20.4952948552
 10
-45.8025640333
 20
-20.5237976987
 10
-45.8269494764
 20
-20.5478694285
 10
-45.8540229377
 20
-20.5672466158
 10
-45.879054847
 20
-20.5799194349
  0
LWPOLYLINE
  5
344
100
AcDbEntity
  8
RACCORDO
100
AcDbPolyline
 62
7
  6
CONTINUOUS
 90
21
 70
0
 10
-20.2748906653
 20
21.4031729923
 10
-20.2676003639
 20
21.4077398269
 10
-20.2619656547
 20
21.4115142941
 10
-20.256562817
 20
21.4153924868
 10
-20.2513969731
 20
21.4193708743
 10
-20.2464730094
 20
21.4234456215
 10
-20.2417955733
 20
21.4276125931
 10
-20.2373690813
 20
21.4318679735
 10
-20.2331977129
 20
21.4362077871
 10
-20.2292853978
 20
21.4406275608
 10
-20.2256358155
 20
21.4451232927
 10
-20.2222523952
 20
21.4496908349
 10
-20.2191383117
 20
21.4543254136
 10
-20.2162964754
 20
21.4590228756
 10
-20.2137295367
 20
21.4637789361
 10
-20.2114398849
 20
21.4685885612
 10
-20.2094296372
 20
21.4734474823
 10
-20.2077006429
 20
21.4783513149
 10
-20.2062544843
 20
21.4832948072
 10
-20.2050924677
 20
21.4882736121
 10
-20.2042156269
 20
21.4932832838
  0
LWPOLYLINE
  5
345
100
AcDbEntity
  8
RACCORDO
100
AcDbPolyline
 62
7
  6
CONTINUOUS
 90
24
 70
0
 10
-20.2734616007
 20
22.1737659693
 10
-20.2676003639
 20
22.1773077677
 10
-20.2619656547
 20
22.1809196698
 10
-20.256562817
 20
22.1845981113
 10
-20.2513969731
 20
22.1883393288
 10
-20.2464730094
 20
22.19213972
 10
-20.2417955733
 20
22.1959958472
 10
-20.2373690813
 20
22.1999038048
 10
-20.2331977129
 20
22.2038597074
 10
-20.2292853978
 20
22.2078600492
 10
-20.2256358155
 20
22.2119007398
 10
-20.2222523952
 20
22.2159777199
 10
-20.2191383117
 20
22.2200874496
 10
-20.2162964754
 20
22.2242256886
 10
-20.2137295367
 20
22.2283882391
 10
-20.2114398849
 20
22.2325715625
 10
-20.2094296372
 20
22.2367713052
 10
-20.2077006429
 20
22.2409831675
 10
-20.2062544843
 20
22.2452036474
 10
-20.2050924677
 20
22.2494283157
 10
-20.2042156269
 20
22.2536528086
 10
-20.2036247238
 20
22.2578736965
 10
-20.2033202437
 20
22.2620865133
 10
-20.2032749336
 20
22.2644498904
  0
LINE
  5
346
100
AcDbEntity
  8
268140580
100
AcDbLine
 62
7
  6
CONTINUOUS
 10
-42.8462367785
 20
8.8470789147
 11
-43.1069677941
 21
8.7095967902
  0
LINE
  5
347
100
AcDbEntity
  8
268140580
100
AcDbLine
 62
250
  6
CONTINUOUS
 10
-42.7099314939
 20
8.8396698169
 11
-43.1069677941
 21
8.6303146164
  0
LINE
  5
348
100
AcDbEntity
  8
268140580
100
AcDbLine
 62
250
  6
CONTINUOUS
 10
-43.1069677941
 20
8.2697292767
 11
-42.3414606209
 21
8.6554343804
  0
LINE
  5
349
100
AcDbEntity
  8
268140580
100
AcDbLine
 62
250
  6
CONTINUOUS
 10
-43.1069677941
 20
7.7970437206
 11
-42.1293608953
 21
8.2896164664
  0
LWPOLYLINE
  5
34A
100
AcDbEntity
  8
268140580
100
AcDbPolyline
 62
250
  6
CONTINUOUS
 90
13
 70
0
 10
-54.1046746952
 20
27.1685165607
 10
-54.1099603656
 20
27.1795922896
 10
-54.1147925245
 20
27.1910774626
 10
-54.1191711719
 20
27.2029720797
 10
-54.1231009457
 20
27.2153068435
 10
-54.126577208
 20
27.2280510515
 10
-54.1295860447
 20
27.2411125957
 10
-54.1321213997
 20
27.2544911256
 10
-54.1341893291
 20
27.2681869917
 10
-54.1357940865
 20
27.2821091377
 10
-54.1369370898
 20
27.2962272115
 10
-54.1376169212
 20
27.3105715652
 10
-54.1378335806
 20
27.3251421988
  0
LWPOLYLINE
  5
34B
100
AcDbEntity
  8
268140580
100
AcDbPolyline
 62
250
  6
CONTINUOUS
 90
16
 70
0
 10
-43.9580085581
 20
21.7736440693
 10
-43.9576659418
 20
21.7671020748
 10
-43.956639032
 20
21.7605780114
 10
-43.9549306433
 20
21.7540897612
 10
-43.9525454583
 20
21.747655108
 10
-43.9494900147
 20
21.7412916887
 10
-43.9457726872
 20
21.735016945
 10
-43.9414036648
 20
21.7288480756
 10
-43.9363949226
 20
21.722801989
 10
-43.9307601892
 20
21.7168952569
 10
-43.9245149091
 20
21.7111440693
 10
-43.9176762001
 20
21.70556419
 10
-43.9102628067
 20
21.7001709128
 10
-43.9022950485
 20
21.6949790205
 10
-43.8937947645
 20
21.6900027435
 10
-43.8847852534
 20
21.6852557217
  0
LWPOLYLINE
  5
34C
100
AcDbEntity
  8
268140580
100
AcDbPolyline
 62
250
  6
CONTINUOUS
 90
16
 70
0
 10
-43.9580085581
 20
22.1419545979
 10
-43.9576680542
 20
22.1354327875
 10
-43.9566429634
 20
22.1289072561
 10
-43.9549360884
 20
22.1224174872
 10
-43.952552108
 20
22.1159812836
 10
-43.9494975532
 20
22.1096162875
 10
-43.9457807974
 20
22.1033399562
 10
-43.9414120284
 20
22.0971694997
 10
-43.9364032229
 20
22.09112184
 10
-43.9307681181
 20
22.0852135668
 10
-43.9245221594
 20
22.0794608773
 10
-43.9176824772
 20
22.0738795517
 10
-43.9102678517
 20
22.0684849134
 10
-43.9022986285
 20
22.0632917596
 10
-43.8937966566
 20
22.0583143228
 10
-43.8847852534
 20
22.0535662503
  0
LWPOLYLINE
  5
34D
100
AcDbEntity
  8
268140580
100
AcDbPolyline
 62
7
  6
CONTINUOUS
 90
25
 70
0
 10
-42.4705716911
 20
28.4072320578
 10
-42.4710582572
 20
28.4392922847
 10
-42.472531605
 20
28.4707822774
 10
-42.4749917343
 20
28.5017020361
 10
-42.4784465296
 20
28.5321180117
 10
-42.4828881065
 20
28.5619637532
 10
-42.4882928116
 20
28.5910399077
 10
-42.4946682808
 20
28.6193245501
 10
-42.5020068782
 20
28.6468396054
 10
-42.5102620422
 20
28.6734514961
 10
-42.5194205259
 20
28.6991228478
 10
-42.5294955763
 20
28.7238910347
 10
-42.5404803727
 20
28.7477346024
 10
-42.5523933449
 20
28.7706907076
 10
-42.5652160632
 20
28.7927221936
 10
-42.5788864169
 20
28.8136961356
 10
-42.593417499
 20
28.8336059659
 10
-42.6087962165
 20
28.8524582524
 10
-42.6249211805
 20
28.8701397741
 10
-42.641775209
 20
28.8866227597
 10
-42.6593754839
 20
28.9019349807
 10
-42.6776721627
 20
28.91604653
 10
-42.6966636586
 20
28.9289604344
 10
-42.7163515584
 20
28.9406736673
 10
-42.7304638356
 20
28.948107941
  0
LWPOLYLINE
  5
34E
100
AcDbEntity
  8
268140580
100
AcDbPolyline
 62
250
  6
CONTINUOUS
 90
31
 70
0
 10
-42.1877289786
 20
21.3818148081
 10
-42.1878895504
 20
21.3932793595
 10
-42.1885324707
 20
21.404961145
 10
-42.1896568898
 20
21.416828623
 10
-42.1912610206
 20
21.4288521712
 10
-42.1933411796
 20
21.4409966304
 10
-42.1958908043
 20
21.45322119
 10
-42.198902196
 20
21.4654896488
 10
-42.2023676017
 20
21.4777710233
 10
-42.2062776255
 20
21.4900319561
 10
-42.2106216615
 20
21.5022390454
 10
-42.2153877648
 20
21.5143585956
 10
-42.2205627472
 20
21.5263570324
 10
-42.2261323441
 20
21.5382013119
 10
-42.2320813414
 20
21.5498591069
 10
-42.2383934818
 20
21.5612985549
 10
-42.2450514923
 20
21.5724883311
 10
-42.2520370965
 20
21.5833976991
 10
-42.2593311173
 20
21.5939967002
 10
-42.2669135473
 20
21.6042562579
 10
-42.2747636042
 20
21.6141482484
 10
-42.28285976
 20
21.6236455396
 10
-42.2911798164
 20
21.6327220876
 10
-42.2997009585
 20
21.6413529996
 10
-42.3083998128
 20
21.6495145984
 10
-42.3172525334
 20
21.6571845083
 10
-42.3262348378
 20
21.664341689
 10
-42.3353220644
 20
21.6709664915
 10
-42.3444892834
 20
21.6770407469
 10
-42.3537113667
 20
21.682547811
 10
-42.3629630258
 20
21.6874725869
  0
LINE
  5
34F
100
AcDbEntity
  8
268140580
100
AcDbLine
 62
250
  6
CONTINUOUS
 10
-43.1776784723
 20
-18.3788633704
 11
-43.1776784723
 21
-18.5107950271
  0
LINE
  5
350
100
AcDbEntity
  8
268140580
100
AcDbLine
 62
250
  6
CONTINUOUS
 10
-43.1776784723
 20
20.719896385
 11
-43.1776784723
 21
21.2289705292
  0
LINE
  5
351
100
AcDbEntity
  8
RACCORDO
100
AcDbLine
 62
7
  6
CONTINUOUS
 10
-43.1069677941
 20
17.520951401
 11
-43.1069677941
 21
-0.1543340083
  0
LINE
  5
352
100
AcDbEntity
  8
RACCORDO
100
AcDbLine
 62
7
  6
CONTINUOUS
 10
-43.1069677941
 20
-18.3491818999
 11
-43.1069677941
 21
-0.6738964906
  0
LINE
  5
353
100
AcDbEntity
  8
268140580
100
AcDbLine
 62
7
  6
CONTINUOUS
 10
-42.9220457234
 20
-10.2454536356
 11
-42.9220457234
 21
-9.1672722184
  0
LINE
  5
354
100
AcDbEntity
  8
268140580
100
AcDbLine
 62
7
  6
CONTINUOUS
 10
-42.9220457234
 20
8.8071052477
 11
-42.9220457234
 21
9.1491650717
  0
LINE
  5
355
100
AcDbEntity
  8
268140580
100
AcDbLine
 62
7
  6
CONTINUOUS
 10
-42.9220457234
 20
12.3967603359
 11
-42.9220457234
 21
12.7073551196
  0
LINE
  5
356
100
AcDbEntity
  8
268140580
100
AcDbLine
 62
7
  6
CONTINUOUS
 10
-42.8488102712
 20
2.9081879992
 11
-42.8488102712
 21
-1.1661488962
  0
LINE
  5
357
100
AcDbEntity
  8
268140580
100
AcDbLine
 62
250
  6
CONTINUOUS
 10
-42.5412823692
 20
21.3818148081
 11
-42.5412823692
 21
21.0135042796
  0
LINE
  5
358
100
AcDbEntity
  8
268140580
100
AcDbLine
 62
250
  6
CONTINUOUS
 10
-42.5412823692
 20
-20.2860998598
 11
-42.5412823692
 21
-20.6544103884
  0
LINE
  5
359
100
AcDbEntity
  8
268140580
100
AcDbLine
 62
7
  6
CONTINUOUS
 10
-42.4890855832
 20
19.0580389968
 11
-42.4890855832
 21
17.8848428927
  0
LINE
  5
35A
100
AcDbEntity
  8
268140580
100
AcDbLine
 62
7
  6
CONTINUOUS
 10
-42.4890855832
 20
-15.7954216965
 11
-42.4890855832
 21
-16.9686178006
  0
LINE
  5
35B
100
AcDbEntity
  8
268140580
100
AcDbLine
 62
7
  6
CONTINUOUS
 10
-42.4705716911
 20
28.4072320578
 11
-42.4705716911
 21
28.0608218963
  0
LINE
  5
35C
100
AcDbEntity
  8
268140580
100
AcDbLine
 62
250
  6
CONTINUOUS
 10
-42.1877289786
 20
21.3818148081
 11
-42.1877289786
 21
21.0135042796
  0
LINE
  5
35D
100
AcDbEntity
  8
268140580
100
AcDbLine
 62
250
  6
CONTINUOUS
 10
-42.1877289786
 20
-20.2860998598
 11
-42.1877289786
 21
-20.6544103884
  0
LINE
  5
35E
100
AcDbEntity
  8
268140580
100
AcDbLine
 62
7
  6
CONTINUOUS
 10
-42.1293608953
 20
18.8781766528
 11
-42.1293608953
 21
13.1997457063
  0
LINE
  5
35F
100
AcDbEntity
  8
268140580
100
AcDbLine
 62
7
  6
CONTINUOUS
 10
-42.1293608953
 20
-10.7629424169
 11
-42.1293608953
 21
-16.794926754
  0
LINE
  5
360
100
AcDbEntity
  8
268140580
100
AcDbLine
 62
7
  6
CONTINUOUS
 10
-42.1293608953
 20
-5.852813177
 11
-42.1293608953
 21
8.2896164664
  0
LINE
  5
361
100
AcDbEntity
  8
268140580
100
AcDbLine
 62
250
  6
CONTINUOUS
 10
-41.834175588
 20
20.6170576702
 11
-41.834175588
 21
20.0481449429
  0
LINE
  5
362
100
AcDbEntity
  8
268140580
100
AcDbLine
 62
250
  6
CONTINUOUS
 10
-41.834175588
 20
-18.613633742
 11
-41.834175588
 21
-19.1825464692
  0
LINE
  5
363
100
AcDbEntity
  8
268140580
100
AcDbLine
 62
250
  6
CONTINUOUS
 10
-41.4806221974
 20
20.6170576702
 11
-41.4806221974
 21
20.05949156
  0
LINE
  5
364
100
AcDbEntity
  8
268140580
100
AcDbLine
 62
250
  6
CONTINUOUS
 10
-41.4806221974
 20
-18.7470974518
 11
-41.4806221974
 21
-19.1825464692
  0
LINE
  5
365
100
AcDbEntity
  8
268140580
100
AcDbLine
 62
7
  6
CONTINUOUS
 10
-41.3347019891
 20
-18.5168018266
 11
-41.3347019891
 21
-17.5458095977
  0
LINE
  5
366
100
AcDbEntity
  8
268140580
100
AcDbLine
 62
7
  6
CONTINUOUS
 10
-41.3347019891
 20
18.4808471997
 11
-41.3347019891
 21
19.4518394286
  0
LINE
  5
367
100
AcDbEntity
  8
268140580
100
AcDbLine
 62
250
  6
CONTINUOUS
 10
-41.1834388707
 20
18.5538837474
 11
-41.1834388707
 21
-17.2678877663
  0
LWPOLYLINE
  5
368
100
AcDbEntity
  8
268140580
100
AcDbPolyline
 62
250
  6
CONTINUOUS
 90
18
 70
0
 10
-42.1877289786
 20
-20.6544103884
 10
-42.1878905089
 20
-20.6655795227
 10
-42.1885361292
 20
-20.6764757769
 10
-42.1896640697
 20
-20.6870692851
 10
-42.1912712389
 20
-20.6973310111
 10
-42.1933532317
 20
-20.7072328285
 10
-42.1959043414
 20
-20.7167475968
 10
-42.1989175757
 20
-20.7258492369
 10
-42.2023846754
 20
-20.7345128018
 10
-42.2062961375
 20
-20.7427145452
 10
-42.2106412409
 20
-20.7504319867
 10
-42.2154080761
 20
-20.7576439734
 10
-42.2205835774
 20
-20.7643307377
 10
-42.2261535592
 20
-20.7704739516
 10
-42.2321027545
 20
-20.776056777
 10
-42.238414857
 20
-20.7810639119
 10
-42.2450725656
 20
-20.7854816319
 10
-42.2508025746
 20
-20.7886688579
  0
LWPOLYLINE
  5
369
100
AcDbEntity
  8
268140580
100
AcDbPolyline
 62
7
  6
CONTINUOUS
 90
28
 70
0
 10
-43.250901777
 20
-18.4224066795
 10
-43.2510301264
 20
-18.4310076165
 10
-43.251430376
 20
-18.4400940548
 10
-43.2521240923
 20
-18.4496456923
 10
-43.2531313748
 20
-18.4596421752
 10
-43.2544699661
 20
-18.4700553934
 10
-43.2561546486
 20
-18.480851046
 10
-43.2581996587
 20
-18.4920041847
 10
-43.260616042
 20
-18.5034809336
 10
-43.2634090835
 20
-18.5152324586
 10
-43.266585271
 20
-18.5272267682
 10
-43.2701482594
 20
-18.5394276353
 10
-43.2740931232
 20
-18.5517787791
 10
-43.2784183499
 20
-18.5642445785
 10
-43.2831196954
 20
-18.5767868243
 10
-43.288181748
 20
-18.5893452987
 10
-43.293594933
 20
-18.6018829974
 10
-43.2993473723
 20
-18.6143621121
 10
-43.3054138567
 20
-18.6267225692
 10
-43.3117774095
 20
-18.6389287545
 10
-43.3184192387
 20
-18.650945536
 10
-43.3253055383
 20
-18.6627164363
 10
-43.3324129442
 20
-18.6742096727
 10
-43.3397170695
 20
-18.6853953209
 10
-43.3471774967
 20
-18.6962239968
 10
-43.3547611506
 20
-18.7066635905
 10
-43.3624442011
 20
-18.7166981908
 10
-43.3701975104
 20
-18.7263070339
  0
LWPOLYLINE
  5
36A
100
AcDbEntity
  8
268140580
100
AcDbPolyline
 62
250
  6
CONTINUOUS
 90
28
 70
0
 10
-43.1776784723
 20
-18.5107950271
 10
-43.1778081182
 20
-18.5191502008
 10
-43.1781976754
 20
-18.5276360856
 10
-43.1788477854
 20
-18.5362407173
 10
-43.1797580072
 20
-18.5449460199
 10
-43.1809285511
 20
-18.5537452415
 10
-43.1823619966
 20
-18.5626434635
 10
-43.1840616723
 20
-18.5716415069
 10
-43.1860257875
 20
-18.580713007
 10
-43.1882482324
 20
-18.5898219036
 10
-43.1907248572
 20
-18.5989489625
 10
-43.1934539056
 20
-18.6080857105
 10
-43.1964298111
 20
-18.6172118223
 10
-43.1996482414
 20
-18.626313272
 10
-43.2031045274
 20
-18.6353761716
 10
-43.2067910375
 20
-18.6443805373
 10
-43.2107021017
 20
-18.6533131278
 10
-43.2148313244
 20
-18.6621599077
 10
-43.2191684717
 20
-18.6709002253
 10
-43.223706279
 20
-18.6795212917
 10
-43.2284370509
 20
-18.6880102523
 10
-43.2333484512
 20
-18.6963473107
 10
-43.2384316606
 20
-18.7045203854
 10
-43.2436781409
 20
-18.7125185276
 10
-43.2490748031
 20
-18.7203249163
 10
-43.2546108053
 20
-18.7279275167
 10
-43.260278
 20
-18.735318675
 10
-43.2660668199
 20
-18.7424892009
  0
LWPOLYLINE
  5
36B
100
AcDbEntity
  8
268140580
100
AcDbPolyline
 62
250
  6
CONTINUOUS
 90
25
 70
0
 10
-41.4806221974
 20
-19.1825464692
 10
-41.4809412587
 20
-19.2013469563
 10
-41.4819241286
 20
-19.2204406068
 10
-41.4835708073
 20
-19.2398274208
 10
-41.4858826967
 20
-19.2595527887
 10
-41.4888583948
 20
-19.2795713201
 10
-41.4924936956
 20
-19.2997468436
 10
-41.4967954074
 20
-19.320080345
 10
-41.5017567218
 20
-19.3405708385
 10
-41.5073530087
 20
-19.3610791953
 10
-41.5135904319
 20
-19.3816051413
 10
-41.5204628276
 20
-19.4021489506
 10
-41.5279270736
 20
-19.4225723167
 10
-41.5359886559
 20
-19.4428738101
 10
-41.5446420885
 20
-19.4630548602
 10
-41.5538277918
 20
-19.482981449
 10
-41.5635513242
 20
-19.5026518335
 10
-41.5738071273
 20
-19.5220677566
 10
-41.5845189456
 20
-19.5411004293
 10
-41.5956915377
 20
-19.5597460257
 10
-41.6073201452
 20
-19.5780083716
 10
-41.6193142374
 20
-19.5957701549
 10
-41.6316436377
 20
-19.6129922716
 10
-41.6443385228
 20
-19.6297138255
 10
-41.6573988927
 20
-19.6459348169
  0
LWPOLYLINE
  5
36C
100
AcDbEntity
  8
268140580
100
AcDbPolyline
 62
250
  6
CONTINUOUS
 90
25
 70
0
 10
-40.7735154162
 20
20.9706110607
 10
-40.773196355
 20
20.9894115478
 10
-40.772213485
 20
21.0085051983
 10
-40.7705668063
 20
21.0278920123
 10
-40.7682549169
 20
21.0476173802
 10
-40.7652792188
 20
21.0676359116
 10
-40.761643918
 20
21.0878114351
 10
-40.7573422063
 20
21.1081449365
 10
-40.7523808918
 20
21.12863543
 10
-40.7467846049
 20
21.1491437868
 10
-40.7405471817
 20
21.1696697328
 10
-40.7336747861
 20
21.1902135421
 10
-40.7262105401
 20
21.2106369082
 10
-40.7181489578
 20
21.2309384016
 10
-40.7094955251
 20
21.2511194517
 10
-40.7003098218
 20
21.2710460405
 10
-40.6905862894
 20
21.290716425
 10
-40.6803304864
 20
21.3101323481
 10
-40.669618668
 20
21.3291650208
 10
-40.6584460759
 20
21.3478106172
 10
-40.6468174685
 20
21.3660729632
 10
-40.6348233762
 20
21.3838347465
 10
-40.6224939759
 20
21.4010568631
 10
-40.6097990908
 20
21.4177784171
 10
-40.5967387209
 20
21.4339994084
  0
LWPOLYLINE
  5
36D
100
AcDbEntity
  8
268140580
100
AcDbPolyline
 62
250
  6
CONTINUOUS
 90
25
 70
0
 10
-41.834175588
 20
-19.1825464692
 10
-41.8343388565
 20
-19.191931125
 10
-41.8348304577
 20
-19.2014925456
 10
-41.8356526263
 20
-19.2112142806
 10
-41.8368074128
 20
-19.22108262
 10
-41.8382955607
 20
-19.2310767066
 10
-41.8401153919
 20
-19.2411682787
 10
-41.8422656529
 20
-19.2513389425
 10
-41.8447442691
 20
-19.2615691583
 10
-41.8475452722
 20
-19.271828061
 10
-41.8506640987
 20
-19.2820954167
 10
-41.8540958389
 20
-19.292351894
 10
-41.8578310908
 20
-19.3025677999
 10
-41.8618626356
 20
-19.3127232016
 10
-41.8661828098
 20
-19.3227986185
 10
-41.8707790255
 20
-19.332765536
 10
-41.8756420282
 20
-19.3426055746
 10
-41.8807615148
 20
-19.3522994807
 10
-41.8861210012
 20
-19.3618186425
 10
-41.8917087118
 20
-19.3711456184
 10
-41.8975127104
 20
-19.3802638032
 10
-41.9035142385
 20
-19.3891477572
 10
-41.9096978592
 20
-19.3977796094
 10
-41.9160522643
 20
-19.4061483768
 10
-41.9225639357
 20
-19.4142406431
  0
LWPOLYLINE
  5
36E
100
AcDbEntity
  8
268140580
100
AcDbPolyline
 62
7
  6
CONTINUOUS
 90
21
 70
0
 10
-42.4890855832
 20
-15.7954216965
 10
-42.4894848929
 20
-15.8170300346
 10
-42.4906934691
 20
-15.8381480173
 10
-42.4927113119
 20
-15.8587756445
 10
-42.4955486796
 20
-15.8789767506
 10
-42.499195314
 20
-15.8986875011
 10
-42.5036204397
 20
-15.9177163931
 10
-42.508829306
 20
-15.9360344358
 10
-42.5148166636
 20
-15.9536706198
 10
-42.5215359904
 20
-15.9705204141
 10
-42.5289767852
 20
-15.9865623488
 10
-42.5371495492
 20
-16.0018178938
 10
-42.5460392638
 20
-16.0162469278
 10
-42.5556702717
 20
-16.0298779449
 10
-42.5660182302
 20
-16.0426824511
 10
-42.5769950922
 20
-16.0545348427
 10
-42.5886071629
 20
-16.0654161515
 10
-42.6008481371
 20
-16.0753453457
 10
-42.6136110519
 20
-16.084253727
 10
-42.6268677794
 20
-16.0921218655
 10
-42.6379347262
 20
-16.0977216172
  0
LWPOLYLINE
  5
36F
100
AcDbEntity
  8
268140580
100
AcDbPolyline
 62
250
  6
CONTINUOUS
 90
28
 70
0
 10
-42.5412823692
 20
21.3818148081
 10
-42.5409799596
 20
21.3946245954
 10
-42.5400737656
 20
21.4076929652
 10
-42.5385668875
 20
21.4209752057
 10
-42.536464481
 20
21.4344258734
 10
-42.5337737392
 20
21.4479989486
 10
-42.5305038681
 20
21.4616479926
 10
-42.5266660551
 20
21.4753263071
 10
-42.5222734309
 20
21.4889870934
 10
-42.5173410242
 20
21.5025836127
 10
-42.5118857107
 20
21.5160693465
 10
-42.505926155
 20
21.5293981548
 10
-42.499482747
 20
21.542524435
 10
-42.4925775321
 20
21.555403277
 10
-42.4852341354
 20
21.5679906176
 10
-42.4774776816
 20
21.5802433908
 10
-42.4693347083
 20
21.5921196751
 10
-42.4608330757
 20
21.6035788376
 10
-42.4520018712
 20
21.614581672
 10
-42.4428713094
 20
21.6250905335
 10
-42.4334726295
 20
21.6350694674
 10
-42.4238379879
 20
21.6444843321
 10
-42.4140003482
 20
21.6533029158
 10
-42.4039933688
 20
21.6614950468
 10
-42.3938512873
 20
21.6690326968
 10
-42.3836088034
 20
21.6758900766
 10
-42.3733009606
 20
21.6820437246
 10
-42.3629630258
 20
21.6874725869
  0
LWPOLYLINE
  5
370
100
AcDbEntity
  8
268140580
100
AcDbPolyline
 62
250
  6
CONTINUOUS
 90
19
 70
0
 10
-42.5412823692
 20
-20.2860998598
 10
-42.540983291
 20
-20.273361596
 10
-42.5400870684
 20
-20.2603673562
 10
-42.538596734
 20
-20.2471611089
 10
-42.5365173305
 20
-20.2337875398
 10
-42.533855894
 20
-20.2202919009
 10
-42.53062143
 20
-20.206719857
 10
-42.5268248828
 20
-20.1931173318
 10
-42.5224790989
 20
-20.1795303518
 10
-42.5175987828
 20
-20.1660048912
 10
-42.5122004482
 20
-20.1525867157
 10
-42.5063023611
 20
-20.1393212282
 10
-42.499924479
 20
-20.1262533149
 10
-42.4930883825
 20
-20.1134271936
 10
-42.4858172028
 20
-20.1008862637
 10
-42.4781355433
 20
-20.0886729598
 10
-42.4700693963
 20
-20.0768286079
 10
-42.4616460551
 20
-20.0653932855
 10
-42.4528940215
 20
-20.054405686
  0
LWPOLYLINE
  5
371
100
AcDbEntity
  8
DRAFT
100
AcDbPolyline
 62
7
  6
CONTINUOUS
 90
43
 70
0
 10
-22.1548485819
 20
19.8009549924
 10
-22.1455795123
 20
19.80787251
 10
-22.136486527
 20
19.8144337255
 10
-22.127569312
 20
19.8206368627
 10
-22.1188473173
 20
19.8264660748
 10
-22.110299678
 20
19.8319334573
 10
-22.1018682394
 20
19.8370803425
 10
-22.0935517249
 20
19.8419161636
 10
-22.0853559505
 20
19.8464303876
 10
-22.0772384192
 20
19.8506364445
 10
-22.0692096229
 20
19.8545400359
 10
-22.0612680563
 20
19.858135869
 10
-22.0533590367
 20
19.8614229677
 10
-22.045487522
 20
19.8644129744
 10
-22.0376654985
 20
19.8670969262
 10
-22.0298555823
 20
19.8694450824
 10
-22.0220738247
 20
19.8714669574
 10
-22.0143285829
 20
19.8731571261
 10
-22.0065787065
 20
19.8744655604
 10
-21.9988368721
 20
19.8754029104
 10
-21.9911266829
 20
19.8759645497
 10
-21.9834318491
 20
19.8760794722
 10
-21.9757731892
 20
19.8757530641
 10
-21.9681773364
 20
19.87498661
 10
-21.9606443158
 20
19.8737042058
 10
-21.9531990273
 20
19.8719048898
 10
-21.9458761868
 20
19.8695960268
 10
-21.9386967303
 20
19.8667147025
 10
-21.931695978
 20
19.8632566498
 10
-21.9249079665
 20
19.8592305527
 10
-21.9183574945
 20
19.854592902
 10
-21.9120918287
 20
19.8493448434
 10
-21.906144564
 20
19.843486759
 10
-21.9005320494
 20
19.8369743885
 10
-21.895313724
 20
19.8298146515
 10
-21.8905350399
 20
19.8219990438
 10
-21.8862177809
 20
19.813461197
 10
-21.8824281839
 20
19.8041640006
 10
-21.8792558968
 20
19.7941382619
 10
-21.8767797513
 20
19.7834185066
 10
-21.8750811573
 20
19.7719423428
 10
-21.8742550615
 20
19.7597533844
 10
-21.8741883824
 20
19.7551142938
  0
LWPOLYLINE
  5
372
100
AcDbEntity
  8
RACCORDO
100
AcDbPolyline
 62
7
  6
CONTINUOUS
 90
9
 70
0
 10
-20.2748906653
 20
21.4031729923
 10
-20.2763477038
 20
21.4021686389
 10
-20.2778330383
 20
21.4010598098
 10
-20.2793428755
 20
21.3998542202
 10
-20.2808815776
 20
21.3985445774
 10
-20.2824620152
 20
21.3971087396
 10
-20.2840890456
 20
21.3955396525
 10
-20.2857591584
 20
21.3938451908
 10
-20.2874729935
 20
21.3920257661
  0
LWPOLYLINE
  5
373
100
AcDbEntity
  8
RACCORDO
100
AcDbPolyline
 62
7
  6
CONTINUOUS
 90
34
 70
0
 10
-20.9096412166
 20
20.2427810248
 10
-20.8768281039
 20
20.2647137248
 10
-20.8445506732
 20
20.2877250858
 10
-20.812829739
 20
20.3118103145
 10
-20.7816910408
 20
20.3369595598
 10
-20.7511492054
 20
20.3631707279
 10
-20.7212085636
 20
20.390451494
 10
-20.6918880306
 20
20.4187974864
 10
-20.6632085302
 20
20.4482015209
 10
-20.6351781236
 20
20.4786695235
 10
-20.6078136635
 20
20.5101989863
 10
-20.5811370644
 20
20.5427808414
 10
-20.5551639145
 20
20.5764127121
 10
-20.5299096174
 20
20.6110925118
 10
-20.5053953493
 20
20.646809605
 10
-20.4816439438
 20
20.6835487221
 10
-20.4586695961
 20
20.7213062129
 10
-20.4364910389
 20
20.7600703871
 10
-20.4151350309
 20
20.7998121928
 10
-20.3946141029
 20
20.8405252618
 10
-20.3749437227
 20
20.8821968166
 10
-20.3561509396
 20
20.9247851517
 10
-20.3382462436
 20
20.9682800965
 10
-20.3212412618
 20
21.0126680696
 10
-20.3051598433
 20
21.057898392
 10
-20.2900100491
 20
21.1039567355
 10
-20.2757996608
 20
21.1508288396
 10
-20.2625469898
 20
21.1984600234
 10
-20.2502574104
 20
21.2468323022
 10
-20.2389353221
 20
21.2959305475
 10
-20.2285927601
 20
21.3457004844
 10
-20.2192342518
 20
21.3961109123
 10
-20.2108592009
 20
21.4471556998
 10
-20.2040734592
 20
21.494296409
  0
LINE
  5
374
100
AcDbEntity
  8
DRAFT
100
AcDbLine
 62
7
  6
CONTINUOUS
 10
-20.9096412166
 20
20.2427810248
 11
-21.8741883823
 21
19.6189200616
  0
LWPOLYLINE
  5
375
100
AcDbEntity
  8
RACCORDO
100
AcDbPolyline
 62
7
  6
CONTINUOUS
 90
40
 70
0
 10
-22.1548485819
 20
9.876447797
 10
-22.0722038519
 20
9.899072927
 10
-21.9919530398
 20
9.920739991
 10
-21.9140961456
 20
9.9414489888
 10
-21.8387016362
 20
9.9611718135
 10
-21.7657010447
 20
9.9799365722
 10
-21.6948889704
 20
9.9978275861
 10
-21.6262571123
 20
10.0148480728
 10
-21.5598137714
 20
10.0309948149
 10
-21.4953784508
 20
10.0463424808
 10
-21.4329457521
 20
10.0608934153
 10
-21.3725210736
 20
10.0746452737
 10
-21.3139401131
 20
10.0876656908
 10
-21.2571982752
 20
10.0999567561
 10
-21.2023001552
 20
10.1115163801
 10
-21.1490952371
 20
10.1224059288
 10
-21.0975794403
 20
10.132627339
 10
-21.0477568453
 20
10.142178674
 10
-20.9994891779
 20
10.15111549
 10
-20.9527718005
 20
10.1594397542
 10
-20.9076093507
 20
10.1671494995
 10
-20.8638774668
 20
10.1742943809
 10
-20.821573169
 20
10.1808760381
 10
-20.7806994372
 20
10.1868928314
 10
-20.7411408487
 20
10.1923894961
 10
-20.7028939275
 20
10.1973677514
 10
-20.6659621496
 20
10.2018258781
 10
-20.6302405213
 20
10.2058034551
 10
-20.5957266025
 20
10.2093021238
 10
-20.5624228331
 20
10.2123202427
 10
-20.5302315397
 20
10.214892466
 10
-20.4991468096
 20
10.2170205724
 10
-20.4691745553
 20
10.2187027831
 10
-20.4402348412
 20
10.2199684164
 10
-20.4123249859
 20
10.2208187882
 10
-20.3854476708
 20
10.2212525826
 10
-20.3595310032
 20
10.2212951692
 10
-20.334551019
 20
10.2209550047
 10
-20.3105316825
 20
10.2202236324
 10
-20.2874729935
 20
10.2191010523
  0
LWPOLYLINE
  5
376
100
AcDbEntity
  8
268140580
100
AcDbPolyline
 62
250
  6
CONTINUOUS
 90
34
 70
0
 10
-40.2530145963
 20
20.0423643708
 10
-40.2540449632
 20
20.0586321273
 10
-40.255701717
 20
20.0751886033
 10
-40.2579811087
 20
20.0919963367
 10
-40.260877981
 20
20.1090172967
 10
-40.2643857791
 20
20.1262129704
 10
-40.2684965659
 20
20.1435444491
 10
-40.27320104
 20
20.1609725172
 10
-40.2784885567
 20
20.1784577405
 10
-40.2843471519
 20
20.1959605551
 10
-40.2907635695
 20
20.2134413579
 10
-40.2977232911
 20
20.2308605951
 10
-40.305210569
 20
20.2481788524
 10
-40.3132084619
 20
20.2653569441
 10
-40.3216988729
 20
20.2823560014
 10
-40.3306625911
 20
20.2991375608
 10
-40.3400793342
 20
20.3156636508
 10
-40.3499277951
 20
20.3318968781
 10
-40.3601856899
 20
20.3478005119
 10
-40.370829808
 20
20.3633385673
 10
-40.3818360651
 20
20.3784758864
 10
-40.3931795576
 20
20.3931782183
 10
-40.4048346187
 20
20.4074122961
 10
-40.4167748765
 20
20.4211459125
 10
-40.428973314
 20
20.4343479928
 10
-40.44140233
 20
20.4469886645
 10
-40.4540338014
 20
20.459039326
 10
-40.4668391471
 20
20.4704727102
 10
-40.4797893927
 20
20.481262947
 10
-40.4928552357
 20
20.4913856215
 10
-40.5060071123
 20
20.5008178291
 10
-40.5192152638
 20
20.5095382278
 10
-40.5324498044
 20
20.517527086
 10
-40.5456807883
 20
20.5247663273
  0
LWPOLYLINE
  5
377
100
AcDbEntity
  8
268140580
100
AcDbPolyline
 62
250
  6
CONTINUOUS
 90
34
 70
0
 10
-40.2530145963
 20
20.0423643708
 10
-40.2533292974
 20
20.059009547
 10
-40.2542727011
 20
20.0759430835
 10
-40.2558426906
 20
20.0931266308
 10
-40.2580357377
 20
20.1105213301
 10
-40.26084689
 20
20.1280877257
 10
-40.2642697614
 20
20.14578585
 10
-40.2682965853
 20
20.163575554
 10
-40.2729182503
 20
20.1814165938
 10
-40.2781242848
 20
20.1992685431
 10
-40.2839028939
 20
20.2170909573
 10
-40.2902409881
 20
20.234843466
 10
-40.2971242097
 20
20.2524858543
 10
-40.304536966
 20
20.2699781563
 10
-40.3124624644
 20
20.2872807453
 10
-40.3208827506
 20
20.3043544242
 10
-40.3297787496
 20
20.3211605148
 10
-40.3391303089
 20
20.3376609457
 10
-40.3489162439
 20
20.3538183377
 10
-40.3591143862
 20
20.3695960886
 10
-40.3697016332
 20
20.3849584562
 10
-40.3806540008
 20
20.3998706388
 10
-40.3919466775
 20
20.4142988546
 10
-40.4035540818
 20
20.4282104192
 10
-40.4154499191
 20
20.4415738184
 10
-40.4276072438
 20
20.4543587821
 10
-40.4399985128
 20
20.4665363451
 10
-40.4525956484
 20
20.4780789146
 10
-40.4653701537
 20
20.4889603769
 10
-40.4782930503
 20
20.4991560454
 10
-40.4913349319
 20
20.5086427331
 10
-40.5044662074
 20
20.5173989447
 10
-40.5176571721
 20
20.5254049014
 10
-40.5308779445
 20
20.5326424923
  0
LINE
  5
378
100
AcDbEntity
  8
268140580
100
AcDbLine
 62
250
  6
CONTINUOUS
 10
-40.7735154162
 20
-18.8289930786
 11
-40.7735154162
 21
-18.5013651345
  0
LINE
  5
379
100
AcDbEntity
  8
268140580
100
AcDbLine
 62
250
  6
CONTINUOUS
 10
-40.7735154162
 20
20.6429831166
 11
-40.7735154162
 21
20.9706110607
  0
LINE
  5
37A
100
AcDbEntity
  8
268140580
100
AcDbLine
 62
250
  6
CONTINUOUS
 10
-40.7629093252
 20
18.7569340782
 11
-40.7629093252
 21
-17.2697227192
  0
LINE
  5
37B
100
AcDbEntity
  8
268140580
100
AcDbLine
 62
7
  6
CONTINUOUS
 10
-40.7002921115
 20
-18.740604731
 11
-40.7002921115
 21
-18.4238092602
  0
LINE
  5
37C
100
AcDbEntity
  8
268140580
100
AcDbLine
 62
7
  6
CONTINUOUS
 10
-40.7002921115
 20
20.7313714642
 11
-40.7002921115
 21
21.0589994084
  0
LINE
  5
37D
100
AcDbEntity
  8
268140580
100
AcDbLine
 62
250
  6
CONTINUOUS
 10
-40.066408635
 20
-19.571077149
 11
-40.066408635
 21
-19.225439688
  0
LINE
  5
37E
100
AcDbEntity
  8
268140580
100
AcDbLine
 62
250
  6
CONTINUOUS
 10
-40.066408635
 20
22.0741644513
 11
-40.066408635
 21
22.4198019123
  0
LINE
  5
37F
100
AcDbEntity
  8
268140580
100
AcDbLine
 62
7
  6
CONTINUOUS
 10
-39.9931853303
 20
-19.4826888014
 11
-39.9931853303
 21
-19.1370513404
  0
LINE
  5
380
100
AcDbEntity
  8
268140580
100
AcDbLine
 62
7
  6
CONTINUOUS
 10
-39.9931853303
 20
22.162552799
 11
-39.9931853303
 21
22.50819026
  0
LINE
  5
381
100
AcDbEntity
  8
RACCORDO
100
AcDbLine
 62
7
  6
CONTINUOUS
 10
-39.5360785491
 20
16.6401143382
 11
-39.5360785491
 21
-13.9681662702
  0
LINE
  5
382
100
AcDbEntity
  8
268140580
100
AcDbLine
 62
7
  6
CONTINUOUS
 10
-39.5360785491
 20
-17.7165848493
 11
-39.5360785491
 21
20.3885329173
  0
LINE
  5
383
100
AcDbEntity
  8
268140580
100
AcDbLine
 62
7
  6
CONTINUOUS
 10
-39.3918833557
 20
26.3353166563
 11
-39.3918833557
 21
25.6125929503
  0
LWPOLYLINE
  5
384
100
AcDbEntity
  8
268140580
100
AcDbPolyline
 62
250
  6
CONTINUOUS
 90
18
 70
0
 10
-40.066408635
 20
-19.571077149
 10
-40.0665691819
 20
-19.5822193573
 10
-40.0672120305
 20
-19.5930969825
 10
-40.0683363526
 20
-19.6036797644
 10
-40.0699403914
 20
-19.6139403128
 10
-40.0720204804
 20
-19.6238475566
 10
-40.0745700374
 20
-19.6333676259
 10
-40.0775813441
 20
-19.6424724219
 10
-40.0810466618
 20
-19.6511391567
 10
-40.0849566097
 20
-19.6593443032
 10
-40.0893005974
 20
-19.6670654751
 10
-40.0940666762
 20
-19.6742812888
 10
-40.0992416444
 20
-19.6809717125
 10
-40.1048112316
 20
-19.6871183265
 10
-40.110760229
 20
-19.6927043736
 10
-40.1170723782
 20
-19.6977145825
 10
-40.1237304063
 20
-19.7021352218
 10
-40.129482231
 20
-19.7053356186
  0
LWPOLYLINE
  5
385
100
AcDbEntity
  8
268140580
100
AcDbPolyline
 62
250
  6
CONTINUOUS
 90
5
 70
0
 10
-40.7735154162
 20
-18.5013651345
 10
-40.7732979388
 20
-18.4865907687
 10
-40.7726200359
 20
-18.4715883242
 10
-40.7714817077
 20
-18.4563578009
 10
-40.7711944176
 20
-18.4535711683
  0
LWPOLYLINE
  5
386
100
AcDbEntity
  8
268140580
100
AcDbPolyline
 62
7
  6
CONTINUOUS
 90
28
 70
0
 10
-40.7002921115
 20
21.0589994084
 10
-40.7001637621
 20
21.0676003455
 10
-40.6997635124
 20
21.0766867838
 10
-40.6990697962
 20
21.0862384212
 10
-40.6980625136
 20
21.0962349042
 10
-40.6967239224
 20
21.1066481223
 10
-40.6950392399
 20
21.1174437749
 10
-40.6929942298
 20
21.1285969136
 10
-40.6905778465
 20
21.1400736625
 10
-40.687784805
 20
21.1518251875
 10
-40.6846086175
 20
21.1638194971
 10
-40.6810456291
 20
21.1760203642
 10
-40.6771007653
 20
21.1883715081
 10
-40.6727755386
 20
21.2008373075
 10
-40.6680741931
 20
21.2133795532
 10
-40.6630121405
 20
21.2259380276
 10
-40.6575989555
 20
21.2384757263
 10
-40.6518465162
 20
21.250954841
 10
-40.6457800318
 20
21.2633152981
 10
-40.639416479
 20
21.2755214835
 10
-40.6327746498
 20
21.2875382649
 10
-40.6258883502
 20
21.2993091652
 10
-40.6187809443
 20
21.3108024016
 10
-40.611476819
 20
21.3219880499
 10
-40.6040163918
 20
21.3328167257
 10
-40.5964327379
 20
21.3432563194
 10
-40.5887496873
 20
21.3532909197
 10
-40.5809963781
 20
21.3628997629
  0
LWPOLYLINE
  5
387
100
AcDbEntity
  8
268140580
100
AcDbPolyline
 62
250
  6
CONTINUOUS
 90
20
 70
0
 10
-40.2530145963
 20
-18.0627533958
 10
-40.2533293212
 20
-18.0790733013
 10
-40.2542727831
 20
-18.0950303298
 10
-40.2558428445
 20
-18.1105883335
 10
-40.258035949
 20
-18.1257120684
 10
-40.2608471283
 20
-18.1403672745
 10
-40.2642700143
 20
-18.154520753
 10
-40.268296853
 20
-18.1681404417
 10
-40.2729185223
 20
-18.1811954877
 10
-40.2781245526
 20
-18.193656317
 10
-40.2839031507
 20
-18.2054947019
 10
-40.2902412262
 20
-18.2166838247
 10
-40.2971244212
 20
-18.2271983383
 10
-40.3045371431
 20
-18.237014424
 10
-40.3124625997
 20
-18.2461098452
 10
-40.3208828374
 20
-18.2544639979
 10
-40.3297787815
 20
-18.2620579572
 10
-40.3391302798
 20
-18.2688745204
 10
-40.3489161484
 20
-18.2748982457
 10
-40.3569532638
 20
-18.279093994
  0
LWPOLYLINE
  5
388
100
AcDbEntity
  8
268140580
100
AcDbPolyline
 62
250
  6
CONTINUOUS
 90
17
 70
0
 10
-40.2530145963
 20
-18.0627533958
 10
-40.2540449121
 20
-18.0793864389
 10
-40.2557015882
 20
-18.0956565171
 10
-40.2579808962
 20
-18.1115268062
 10
-40.2608777094
 20
-18.1269614356
 10
-40.2643854863
 20
-18.1419254131
 10
-40.2684962647
 20
-18.1563847208
 10
-40.2732007283
 20
-18.1703065972
 10
-40.2784882453
 20
-18.1836595865
 10
-40.284346849
 20
-18.1964134667
 10
-40.2907632817
 20
-18.208539377
 10
-40.2977230261
 20
-18.2200098824
 10
-40.3052103344
 20
-18.2307990289
 10
-40.3132082652
 20
-18.2408824038
 10
-40.3216987215
 20
-18.2502371908
 10
-40.3306624913
 20
-18.2588422224
 10
-40.340079292
 20
-18.2666780275
  0
LINE
  5
389
100
AcDbEntity
  8
268140580
100
AcDbLine
 62
250
  6
CONTINUOUS
 10
-43.1069677941
 20
2.7889623
 11
-42.8488102712
 21
2.9081879992
  0
LINE
  5
38A
100
AcDbEntity
  8
268140580
100
AcDbLine
 62
7
  6
CONTINUOUS
 10
-43.1069677941
 20
2.6626598357
 11
-42.9299027722
 21
2.7444343305
  0
LWPOLYLINE
  5
38B
100
AcDbEntity
  8
268140580
100
AcDbPolyline
 62
7
  6
CONTINUOUS
 90
15
 70
0
 10
-54.0590654031
 20
27.3710124392
 10
-54.058984485
 20
27.3708770476
 10
-54.0585890368
 20
27.3701728762
 10
-54.0585916745
 20
27.3701851976
 10
-54.0589019391
 20
27.3709200159
 10
-54.0594201551
 20
27.3723218365
 10
-54.0600821218
 20
27.3743854566
 10
-54.0608329323
 20
27.3771142361
 10
-54.06161485
 20
27.3804789003
 10
-54.0623816334
 20
27.3844691124
 10
-54.0630915101
 20
27.3890781451
 10
-54.0637054524
 20
27.394299594
 10
-54.0641865748
 20
27.4001275987
 10
-54.0644991772
 20
27.406544425
 10
-54.0646102759
 20
27.4135305464
  0
LWPOLYLINE
  5
38C
100
AcDbEntity
  8
268140580
100
AcDbPolyline
 62
250
  6
CONTINUOUS
 90
15
 70
0
 10
-53.4307267995
 20
28.7563235336
 10
-53.4263477125
 20
28.7489525677
 10
-53.4224630485
 20
28.7418415298
 10
-53.4190838616
 20
28.7350101089
 10
-53.4162195916
 20
28.7284766562
 10
-53.413878868
 20
28.7222599912
 10
-53.4120689889
 20
28.7163790429
 10
-53.4107950189
 20
28.710850482
 10
-53.4100602372
 20
28.7056888428
 10
-53.4098666598
 20
28.7009081573
 10
-53.4102148686
 20
28.6965214891
 10
-53.4111039578
 20
28.6925409779
 10
-53.4125314881
 20
28.6889776522
 10
-53.4144935252
 20
28.6858413081
 10
-53.4149844567
 20
28.685223888
  0
LWPOLYLINE
  5
38D
100
AcDbEntity
  8
268140580
100
AcDbPolyline
 62
250
  6
CONTINUOUS
 90
13
 70
0
 10
-53.9610568854
 20
28.1161584906
 10
-53.9562166382
 20
28.107975537
 10
-53.9519909253
 20
28.10011935
 10
-53.9483940451
 20
28.0926165126
 10
-53.9454381683
 20
28.0854924121
 10
-53.9431332967
 20
28.078771154
 10
-53.9414872292
 20
28.072475481
 10
-53.9405055357
 20
28.0666266957
 10
-53.9401915377
 20
28.0612445885
 10
-53.9405462979
 20
28.0563473707
 10
-53.9415686158
 20
28.051951613
 10
-53.9432550322
 20
28.0480721893
 10
-53.9453145426
 20
28.0450588451
  0
LWPOLYLINE
  5
38E
100
AcDbEntity
  8
RACCORDO
100
AcDbPolyline
 62
7
  6
CONTINUOUS
 90
40
 70
0
 10
-20.2874729935
 20
21.3920257661
 10
-20.310531643
 20
21.3670252571
 10
-20.3345509376
 20
21.3414211774
 10
-20.3595308773
 20
21.315213527
 10
-20.3854474966
 20
21.2884186663
 10
-20.412324761
 20
21.2610202349
 10
-20.4402345669
 20
21.2329691518
 10
-20.4691742352
 20
21.2042668756
 10
-20.499146445
 20
21.1749119477
 10
-20.5302311306
 20
21.1448509122
 10
-20.5624223787
 20
21.1140881137
 10
-20.5957261027
 20
21.0826192077
 10
-20.6302399764
 20
21.050377704
 10
-20.665961559
 20
21.0173644887
 10
-20.7028932914
 20
20.9835786757
 10
-20.7411401705
 20
20.9489511169
 10
-20.7806987211
 20
20.9134836921
 10
-20.8215724185
 20
20.8771745215
 10
-20.8638766855
 20
20.839948817
 10
-20.9076085421
 20
20.8018080246
 10
-20.9527709682
 20
20.7627506984
 10
-20.9994883265
 20
20.7226977126
 10
-21.0477559793
 20
20.6816519024
 10
-21.0975785641
 20
20.6396104327
 10
-21.149094357
 20
20.5964856714
 10
-21.2022992773
 20
20.5522799074
 10
-21.2571974056
 20
20.5069908518
 10
-21.3139392593
 20
20.460524006
 10
-21.3725202432
 20
20.412882039
 10
-21.4329449525
 20
20.3640622817
 10
-21.4953776904
 20
20.3139622286
 10
-21.5598130586
 20
20.2625851251
 10
-21.6262564554
 20
20.2099277259
 10
-21.6948883784
 20
20.155877789
 10
-21.7657005263
 20
20.1004406932
 10
-21.8387012005
 20
20.0436110599
 10
-21.914095803
 20
19.9852605109
 10
-21.991952801
 20
19.9253462537
 10
-22.0722037273
 20
19.8639110808
 10
-22.1548485819
 20
19.8009549924
  0
LINE
  5
38F
100
AcDbEntity
  8
RACCORDO
100
AcDbLine
 62
250
  6
CONTINUOUS
 10
-43.2483676112
 20
-0.4300178813
 11
-46.8517916658
 21
-2.2456233999
  0
LINE
  5
390
100
AcDbEntity
  8
RACCORDO
100
AcDbLine
 62
250
  6
CONTINUOUS
 10
-43.1069677941
 20
-0.6738964906
 11
-46.7103918487
 21
-2.4895020092
  0
LINE
  5
391
100
AcDbEntity
  8
268140580
100
AcDbLine
 62
250
  6
CONTINUOUS
 10
-43.0609099968
 20
-0.8003309822
 11
-43.1069677941
 21
-0.823537463
  0
LWPOLYLINE
  5
392
100
AcDbEntity
  8
RACCORDO
100
AcDbPolyline
 62
250
  6
CONTINUOUS
 90
19
 70
0
 10
-46.8517916658
 20
-2.2456233999
 10
-46.8712644835
 20
-2.2546263097
 10
-46.8918744274
 20
-2.2626699852
 10
-46.9136214976
 20
-2.2697544263
 10
-46.9366982169
 20
-2.2759257872
 10
-46.9609120624
 20
-2.2811379137
 10
-46.9856854653
 20
-2.2852523438
 10
-47.0110181991
 20
-2.2882375719
 10
-47.0369104901
 20
-2.2901251037
 10
-47.0627854488
 20
-2.2908709946
 10
-47.0886442675
 20
-2.2904485022
 10
-47.1144857538
 20
-2.288884369
 10
-47.1397294407
 20
-2.2862148783
 10
-47.164372893
 20
-2.2824082416
 10
-47.1884185459
 20
-2.2774962474
 10
-47.2112932382
 20
-2.271610545
 10
-47.2328059161
 20
-2.2647950173
 10
-47.2531476334
 20
-2.2570057815
 10
-47.2723183901
 20
-2.2482428373
  0
LINE
  5
393
100
AcDbEntity
  8
RACCORDO
100
AcDbLine
 62
250
  6
CONTINUOUS
 10
-46.7103918487
 20
-1.81851465
 11
-43.1069677941
 21
-0.1543340083
  0
LINE
  5
394
100
AcDbEntity
  8
RACCORDO
100
AcDbLine
 62
7
  6
CONTINUOUS
 10
-46.7654677802
 20
-1.9281521833
 11
-43.1610294615
 21
-0.2635031207
  0
LWPOLYLINE
  5
395
100
AcDbEntity
  8
RACCORDO
100
AcDbPolyline
 62
250
  6
CONTINUOUS
 90
19
 70
0
 10
-46.710403194
 20
-2.4894961316
 10
-46.7427116483
 20
-2.5041997754
 10
-46.7773704387
 20
-2.5174688748
 10
-46.8141099418
 20
-2.5291799514
 10
-46.8526499665
 20
-2.539247029
 10
-46.8927041052
 20
-2.547604185
 10
-46.9339839789
 20
-2.5541893788
 10
-46.9761864299
 20
-2.5589532418
 10
-47.0189936844
 20
-2.5618668933
 10
-47.0620884846
 20
-2.5629069202
 10
-47.105150658
 20
-2.5620553296
 10
-47.1478602841
 20
-2.5593272867
 10
-47.1899005594
 20
-2.5547484719
 10
-47.2309547916
 20
-2.5483433479
 10
-47.2707232488
 20
-2.5401590134
 10
-47.3089191577
 20
-2.5302601616
 10
-47.3452573579
 20
-2.5187104871
 10
-47.3794602516
 20
-2.5055930905
 10
-47.4112609013
 20
-2.4910288162
  0
LINE
  5
396
100
AcDbEntity
  8
268140580
100
AcDbLine
 62
7
  6
CONTINUOUS
 10
-42.3414606209
 20
8.6554343804
 11
-42.7099314939
 21
8.8396698169
  0
LINE
  5
397
100
AcDbEntity
  8
268140580
100
AcDbLine
 62
7
  6
CONTINUOUS
 10
-43.1069677941
 20
9.241626107
 11
-42.9220457234
 21
9.1491650717
  0
LWPOLYLINE
  5
398
100
AcDbEntity
  8
268140580
100
AcDbPolyline
 62
7
  6
CONTINUOUS
 90
25
 70
0
 10
-40.63209406
 20
20.7172654092
 10
-40.6303491279
 20
20.7030618417
 10
-40.6290450228
 20
20.689228457
 10
-40.6281817447
 20
20.6757652551
 10
-40.6276899299
 20
20.6626630816
 10
-40.6276389422
 20
20.6499310908
 10
-40.6282368726
 20
20.6375967462
 10
-40.6295446716
 20
20.6256519481
 10
-40.6315013888
 20
20.6141047962
 10
-40.6341322647
 20
20.6030070523
 10
-40.637472504
 20
20.5923769176
 10
-40.641486902
 20
20.5821961908
 10
-40.6460950861
 20
20.57246203
 10
-40.651293804
 20
20.5631949104
 10
-40.657086308
 20
20.5543743569
 10
-40.6634019816
 20
20.545936102
 10
-40.6702463901
 20
20.537865441
 10
-40.6776139683
 20
20.5301770787
 10
-40.6854174039
 20
20.522850862
 10
-40.6936592658
 20
20.5158838946
 10
-40.7023369852
 20
20.5092790729
 10
-40.7113555423
 20
20.5030249323
 10
-40.720683264
 20
20.4971176515
 10
-40.7303518236
 20
20.4915610519
 10
-40.740361221
 20
20.4863551335
  0
LINE
  5
399
100
AcDbEntity
  8
268140580
100
AcDbLine
 62
7
  6
CONTINUOUS
 10
-34.5773286767
 20
-12.5739717577
 11
-34.5773286767
 21
-12.412016345
  0
LINE
  5
39A
100
AcDbEntity
  8
268140580
100
AcDbLine
 62
7
  6
CONTINUOUS
 10
-34.5773286767
 20
24.0275978487
 11
-34.5773286767
 21
24.4293055769
  0
LWPOLYLINE
  5
39B
100
AcDbEntity
  8
RACCORDO
100
AcDbPolyline
 62
7
  6
CONTINUOUS
 90
24
 70
0
 10
-20.2734616007
 20
10.2226153971
 10
-20.2676003639
 20
10.2261571954
 10
-20.2619656547
 20
10.2297690976
 10
-20.256562817
 20
10.2334475391
 10
-20.2513969731
 20
10.2371887566
 10
-20.2464730094
 20
10.2409891478
 10
-20.2417955733
 20
10.2448452749
 10
-20.2373690813
 20
10.2487532326
 10
-20.2331977129
 20
10.2527091352
 10
-20.2292853978
 20
10.256709477
 10
-20.2256358155
 20
10.2607501676
 10
-20.2222523952
 20
10.2648271476
 10
-20.2191383117
 20
10.2689368774
 10
-20.2162964754
 20
10.2730751163
 10
-20.2137295367
 20
10.2772376669
 10
-20.2114398849
 20
10.2814209903
 10
-20.2094296372
 20
10.2856207329
 10
-20.2077006429
 20
10.2898325953
 10
-20.2062544843
 20
10.2940530752
 10
-20.2050924677
 20
10.2982777434
 10
-20.2042156269
 20
10.3025022364
 10
-20.2036247238
 20
10.3067231243
 10
-20.2033202437
 20
10.3109359411
 10
-20.2032749336
 20
10.3132993182
  0
LWPOLYLINE
  5
39C
100
AcDbEntity
  8
RACCORDO
100
AcDbPolyline
 62
7
  6
CONTINUOUS
 90
10
 70
0
 10
-20.2734616007
 20
10.2226153971
 10
-20.2748906653
 20
10.2218246656
 10
-20.2763477038
 20
10.2211312468
 10
-20.2778330383
 20
10.2205353611
 10
-20.2793428755
 20
10.2200343577
 10
-20.2808815776
 20
10.2196313099
 10
-20.2824620152
 20
10.2193351747
 10
-20.2840890456
 20
10.2191492638
 10
-20.2857591584
 20
10.2190710858
 10
-20.2874729935
 20
10.2191010523
  0
LINE
  5
39D
100
AcDbEntity
  8
268140580
100
AcDbLine
 62
250
  6
CONTINUOUS
 10
-42.8488102712
 20
-1.1661488962
 11
-43.1069677941
 21
-1.2962230191
  0
LINE
  5
39E
100
AcDbEntity
  8
268140580
100
AcDbLine
 62
7
  6
CONTINUOUS
 10
-42.9220457234
 20
12.3967603359
 11
-43.1069677941
 21
12.4892213712
  0
LWPOLYLINE
  5
39F
100
AcDbEntity
  8
SMUSSO
100
AcDbPolyline
 62
7
  6
CONTINUOUS
 90
35
 70
0
 10
-32.3158729344
 20
26.6047851033
 10
-32.3155097644
 20
26.6266474907
 10
-32.3137258288
 20
26.6579208303
 10
-32.310453545
 20
26.6891560583
 10
-32.3056948638
 20
26.7203303919
 10
-32.2994532313
 20
26.7514224688
 10
-32.291731461
 20
26.7824191427
 10
-32.282531912
 20
26.813309981
 10
-32.2718575866
 20
26.8440808374
 10
-32.2597142899
 20
26.8747114453
 10
-32.2461095343
 20
26.9051822605
 10
-32.2310514528
 20
26.9354742667
 10
-32.214547072
 20
26.9655725964
 10
-32.1966036408
 20
26.9954640627
 10
-32.1772296103
 20
27.0251328745
 10
-32.1564354663
 20
27.0545613791
 10
-32.1342324605
 20
27.0837337277
 10
-32.1106322675
 20
27.1126333631
 10
-32.0856471167
 20
27.141244162
 10
-32.0592903892
 20
27.1695511536
 10
-32.0315764326
 20
27.1975379018
 10
-32.0025194591
 20
27.2251890742
 10
-31.9721336563
 20
27.2524915683
 10
-31.9404340291
 20
27.2794306531
 10
-31.9074381241
 20
27.3059902163
 10
-31.8731650688
 20
27.3321553774
 10
-31.8376343121
 20
27.3579104438
 10
-31.8008637574
 20
27.3832416176
 10
-31.7628712746
 20
27.4081371786
 10
-31.72367678
 20
27.4325830142
 10
-31.6833013597
 20
27.4565649358
 10
-31.6417653755
 20
27.4800713604
 10
-31.5990904958
 20
27.5030894379
 10
-31.5552997892
 20
27.5256051012
 10
-31.5104165827
 20
27.5476052853
  0
LWPOLYLINE
  5
3A0
100
AcDbEntity
  8
268140580
100
AcDbPolyline
 62
250
  6
CONTINUOUS
 90
28
 70
0
 10
-40.5967387209
 20
-19.115604731
 10
-40.591898458
 20
-19.1019833261
 10
-40.5876727347
 20
-19.0881089354
 10
-40.584075849
 20
-19.0740285058
 10
-40.5811199713
 20
-19.0597896812
 10
-40.5788151029
 20
-19.0454406419
 10
-40.5771690424
 20
-19.0310299414
 10
-40.576187359
 20
-19.0166063412
 10
-40.5758733737
 20
-19.0022186462
 10
-40.5762281485
 20
-18.9879155404
 10
-40.5772504822
 20
-18.9737454209
 10
-40.5789369151
 20
-18.9597562349
 10
-40.58128174
 20
-18.9459953171
 10
-40.5842770223
 20
-18.93250923
 10
-40.5879126263
 20
-18.919343606
 10
-40.5921762498
 20
-18.9065429927
 10
-40.5970534655
 20
-18.894150703
 10
-40.60252777
 20
-18.8822086679
 10
-40.6085806398
 20
-18.8707572947
 10
-40.6151915935
 20
-18.8598353305
 10
-40.6223382616
 20
-18.8494797315
 10
-40.6299964621
 20
-18.8397255364
 10
-40.6381402819
 20
-18.83060575
 10
-40.6467421649
 20
-18.8221512303
 10
-40.6557730057
 20
-18.8143905836
 10
-40.6652022471
 20
-18.8073500689
 10
-40.6749979832
 20
-18.8010535092
 10
-40.6851270686
 20
-18.7955222095
  0
LWPOLYLINE
  5
3A1
100
AcDbEntity
  8
RACCORDO
100
AcDbPolyline
 62
7
  6
CONTINUOUS
 90
9
 70
0
 10
-20.2748906653
 20
9.4520224201
 10
-20.2763477038
 20
9.4510180667
 10
-20.2778330383
 20
9.4499092376
 10
-20.2793428755
 20
9.4487036479
 10
-20.2808815776
 20
9.4473940051
 10
-20.2824620152
 20
9.4459581674
 10
-20.2840890456
 20
9.4443890803
 10
-20.2857591584
 20
9.4426946185
 10
-20.2874729935
 20
9.4408751939
  0
LWPOLYLINE
  5
3A2
100
AcDbEntity
  8
RACCORDO
100
AcDbPolyline
 62
7
  6
CONTINUOUS
 90
34
 70
0
 10
-20.9096412166
 20
8.2916304526
 10
-20.8768280899
 20
8.3135631623
 10
-20.8445506599
 20
8.3365745234
 10
-20.8128297263
 20
8.3606597522
 10
-20.7816910287
 20
8.3858089976
 10
-20.751149194
 20
8.4120201657
 10
-20.7212085528
 20
8.4393009319
 10
-20.6918880204
 20
8.4676469243
 10
-20.6632085207
 20
8.4970509587
 10
-20.6351781146
 20
8.5275189613
 10
-20.6078136551
 20
8.5590484239
 10
-20.5811370566
 20
8.591630279
 10
-20.5551639073
 20
8.6252621495
 10
-20.5299096107
 20
8.659941949
 10
-20.5053953431
 20
8.695659042
 10
-20.4816439382
 20
8.7323981588
 10
-20.4586695909
 20
8.7701556495
 10
-20.4364910342
 20
8.8089198233
 10
-20.4151350267
 20
8.8486616287
 10
-20.3946140991
 20
8.8893746974
 10
-20.3749437193
 20
8.9310462517
 10
-20.3561509367
 20
8.9736345864
 10
-20.3382462411
 20
9.0171295307
 10
-20.3212412596
 20
9.0615175034
 10
-20.3051598414
 20
9.1067478253
 10
-20.2900100475
 20
9.1528061683
 10
-20.2757996595
 20
9.1996782718
 10
-20.2625469887
 20
9.247309455
 10
-20.2502574096
 20
9.2956817333
 10
-20.2389353215
 20
9.3447799779
 10
-20.2285927597
 20
9.3945499142
 10
-20.2192342515
 20
9.4449603414
 10
-20.2108592008
 20
9.4960051283
 10
-20.2040734592
 20
9.5431458368
  0
LINE
  5
3A3
100
AcDbEntity
  8
DRAFT
100
AcDbLine
 62
7
  6
CONTINUOUS
 10
-20.9096412166
 20
8.2916304526
 11
-21.8741883823
 21
7.6677694894
  0
LWPOLYLINE
  5
3A4
100
AcDbEntity
  8
RACCORDO
100
AcDbPolyline
 62
7
  6
CONTINUOUS
 90
21
 70
0
 10
-20.2748906653
 20
9.4520224201
 10
-20.2676003639
 20
9.4565892546
 10
-20.2619656547
 20
9.4603637219
 10
-20.256562817
 20
9.4642419146
 10
-20.2513969731
 20
9.468220302
 10
-20.2464730094
 20
9.4722950492
 10
-20.2417955733
 20
9.4764620208
 10
-20.2373690813
 20
9.4807174012
 10
-20.2331977129
 20
9.4850572149
 10
-20.2292853978
 20
9.4894769885
 10
-20.2256358155
 20
9.4939727205
 10
-20.2222523952
 20
9.4985402627
 10
-20.2191383117
 20
9.5031748414
 10
-20.2162964754
 20
9.5078723034
 10
-20.2137295367
 20
9.5126283639
 10
-20.2114398849
 20
9.517437989
 10
-20.2094296372
 20
9.52229691
 10
-20.2077006429
 20
9.5272007427
 10
-20.2062544843
 20
9.532144235
 10
-20.2050924677
 20
9.5371230399
 10
-20.2042156269
 20
9.5421327116
  0
LINE
  5
3A5
100
AcDbEntity
  8
RACCORDO
100
AcDbLine
 62
250
  6
CONTINUOUS
 10
-61.9845812856
 20
23.2437197772
 11
-47.1070185967
 21
15.8049384328
  0
LINE
  5
3A6
100
AcDbEntity
  8
RACCORDO
100
AcDbLine
 62
250
  6
CONTINUOUS
 10
-60.9920154106
 20
24.9955197983
 11
-46.0910803418
 21
17.5450522639
  0
LWPOLYLINE
  5
3A7
100
AcDbEntity
  8
268140580
100
AcDbPolyline
 62
250
  6
CONTINUOUS
 90
18
 70
0
 10
-55.2451300739
 20
27.4224258064
 10
-55.2400106293
 20
27.4178576406
 10
-55.2351463026
 20
27.4128860678
 10
-55.2305475159
 20
27.4075197123
 10
-55.2262237555
 20
27.4017674941
 10
-55.2221880008
 20
27.3956454181
 10
-55.218448246
 20
27.3891654561
 10
-55.2150116641
 20
27.3823398703
 10
-55.2118875397
 20
27.3751880997
 10
-55.2090805023
 20
27.3677227883
 10
-55.2065960556
 20
27.3599608487
 10
-55.2044414767
 20
27.3519312551
 10
-55.2026190535
 20
27.3436540384
 10
-55.2011291626
 20
27.3351444391
 10
-55.1999729343
 20
27.3264266279
 10
-55.1991495979
 20
27.3175213117
 10
-55.1986572705
 20
27.3084451189
 10
-55.1984937524
 20
27.2992167524
  0
LWPOLYLINE
  5
3A8
100
AcDbEntity
  8
268140580
100
AcDbPolyline
 62
7
  6
CONTINUOUS
 90
15
 70
0
 10
-40.6947472387
 20
20.688853357
 10
-40.6946663206
 20
20.6887179653
 10
-40.6942708724
 20
20.688013794
 10
-40.6942735101
 20
20.6880261154
 10
-40.6945837746
 20
20.6887609337
 10
-40.6951019907
 20
20.6901627543
 10
-40.6957639574
 20
20.6922263744
 10
-40.6965147679
 20
20.6949551539
 10
-40.6972966856
 20
20.6983198181
 10
-40.698063469
 20
20.7023100302
 10
-40.6987733457
 20
20.7069190629
 10
-40.699387288
 20
20.7121405117
 10
-40.6998684103
 20
20.7179685165
 10
-40.7001810128
 20
20.7243853428
 10
-40.7002921115
 20
20.7313714642
  0
LWPOLYLINE
  5
3A9
100
AcDbEntity
  8
268140580
100
AcDbPolyline
 62
250
  6
CONTINUOUS
 90
13
 70
0
 10
-40.5967387209
 20
21.4339994084
 10
-40.5918984738
 20
21.4258164547
 10
-40.5876727609
 20
21.4179602678
 10
-40.5840758807
 20
21.4104574304
 10
-40.5811200039
 20
21.4033333298
 10
-40.5788151323
 20
21.3966120718
 10
-40.5771690648
 20
21.3903163988
 10
-40.5761873712
 20
21.3844676135
 10
-40.5758733733
 20
21.3790855063
 10
-40.5762281335
 20
21.3741882885
 10
-40.5772504514
 20
21.3697925308
 10
-40.5789368678
 20
21.3659131071
 10
-40.5809963781
 20
21.3628997629
  0
LWPOLYLINE
  5
3AA
100
AcDbEntity
  8
268140580
100
AcDbPolyline
 62
250
  6
CONTINUOUS
 90
13
 70
0
 10
-40.7403565308
 20
20.4863574785
 10
-40.7456422012
 20
20.4974332074
 10
-40.7504743601
 20
20.5089183804
 10
-40.7548530074
 20
20.5208129975
 10
-40.7587827813
 20
20.5331477613
 10
-40.7622590436
 20
20.5458919693
 10
-40.7652678803
 20
20.5589535135
 10
-40.7678032353
 20
20.5723320434
 10
-40.7698711647
 20
20.5860279095
 10
-40.7714759221
 20
20.5999500555
 10
-40.7726189254
 20
20.6140681293
 10
-40.7732987568
 20
20.628412483
 10
-40.7735154162
 20
20.6429831166
  0
LINE
  5
3AB
100
AcDbEntity
  8
SMUSSO
100
AcDbLine
 62
250
  6
CONTINUOUS
 10
-31.5104165827
 20
27.1190885095
 11
-31.5104165827
 21
27.5476052853
  0
LINE
  5
3AC
100
AcDbEntity
  8
0
100
AcDbLine
 62
7
  6
CONTINUOUS
 10
-30.8386651406
 20
27.4477844258
 11
-30.8386651406
 21
27.0206838773
  0
LWPOLYLINE
  5
3AD
100
AcDbEntity
  8
268140580
100
AcDbPolyline
 62
250
  6
CONTINUOUS
 90
31
 70
0
 10
-40.066408635
 20
-19.225439688
 10
-40.0620250127
 20
-19.2131926187
 10
-40.0581379381
 20
-19.2007368515
 10
-40.0547580656
 20
-19.1881065267
 10
-40.0518946592
 20
-19.1753362631
 10
-40.0495555671
 20
-19.1624610633
 10
-40.0477472008
 20
-19.1495162172
 10
-40.0464745168
 20
-19.1365372057
 10
-40.0457410035
 20
-19.1235596034
 10
-40.0455486714
 20
-19.1106189811
 10
-40.0458980476
 20
-19.0977508079
 10
-40.0467881745
 20
-19.0849903549
 10
-40.0482166124
 20
-19.0723725973
 10
-40.050179446
 20
-19.0599321197
 10
-40.0526712953
 20
-19.0477030206
 10
-40.0556853303
 20
-19.0357188189
 10
-40.0592132898
 20
-19.0240123627
 10
-40.0632455039
 20
-19.0126157384
 10
-40.0677709205
 20
-19.0015601835
 10
-40.0727771359
 20
-18.9908760004
 10
-40.0782504282
 20
-18.9805924738
 10
-40.0841757957
 20
-18.97073779
 10
-40.0905369972
 20
-18.9613389601
 10
-40.0973165972
 20
-18.9524217457
 10
-40.1044960133
 20
-18.9440105881
 10
-40.1120555671
 20
-18.9361285418
 10
-40.1199745385
 20
-18.928797211
 10
-40.1282312222
 20
-18.9220366902
 10
-40.136802987
 20
-18.9158655096
 10
-40.1456663385
 20
-18.9103005841
 10
-40.1547969827
 20
-18.9053571666
  0
LWPOLYLINE
  5
3AE
100
AcDbEntity
  8
DRAFT
100
AcDbPolyline
 62
7
  6
CONTINUOUS
 90
43
 70
0
 10
-22.1548485819
 20
7.8498044202
 10
-22.1455795123
 20
7.8567219378
 10
-22.136486527
 20
7.8632831532
 10
-22.127569312
 20
7.8694862904
 10
-22.1188473173
 20
7.8753155026
 10
-22.110299678
 20
7.8807828851
 10
-22.1018682394
 20
7.8859297703
 10
-22.0935517249
 20
7.8907655914
 10
-22.0853559505
 20
7.8952798154
 10
-22.0772384192
 20
7.8994858723
 10
-22.0692096229
 20
7.9033894637
 10
-22.0612680563
 20
7.9069852968
 10
-22.0533590367
 20
7.9102723955
 10
-22.045487522
 20
7.9132624022
 10
-22.0376654985
 20
7.915946354
 10
-22.0298555823
 20
7.9182945102
 10
-22.0220738247
 20
7.9203163852
 10
-22.0143285829
 20
7.9220065539
 10
-22.0065787065
 20
7.9233149882
 10
-21.9988368721
 20
7.9242523382
 10
-21.9911266829
 20
7.9248139775
 10
-21.9834318491
 20
7.9249289
 10
-21.9757731892
 20
7.9246024919
 10
-21.9681773364
 20
7.9238360378
 10
-21.9606443158
 20
7.9225536336
 10
-21.9531990273
 20
7.9207543176
 10
-21.9458761868
 20
7.9184454546
 10
-21.9386967303
 20
7.9155641303
 10
-21.931695978
 20
7.9121060776
 10
-21.9249079665
 20
7.9080799805
 10
-21.9183574945
 20
7.9034423298
 10
-21.9120918287
 20
7.8981942712
 10
-21.906144564
 20
7.8923361867
 10
-21.9005320494
 20
7.8858238162
 10
-21.895313724
 20
7.8786640793
 10
-21.8905350399
 20
7.8708484716
 10
-21.8862177809
 20
7.8623106248
 10
-21.8824281839
 20
7.8530134284
 10
-21.8792558968
 20
7.8429876896
 10
-21.8767797513
 20
7.8322679344
 10
-21.8750811573
 20
7.8207917706
 10
-21.8742550615
 20
7.8086028122
 10
-21.8741883824
 20
7.8039637215
  0
LWPOLYLINE
  5
3AF
100
AcDbEntity
  8
RACCORDO
100
AcDbPolyline
 62
250
  6
CONTINUOUS
 90
33
 70
0
 10
-22.3993645618
 20
3.0105950658
 10
-22.3925309887
 20
3.014373776
 10
-22.3779911117
 20
3.0230475875
 10
-22.3638278938
 20
3.0323800082
 10
-22.3500520862
 20
3.0423639541
 10
-22.3366741461
 20
3.0529918464
 10
-22.3237042284
 20
3.0642556176
 10
-22.3111521785
 20
3.0761467174
 10
-22.2990275247
 20
3.0886561195
 10
-22.2873394705
 20
3.1017743279
 10
-22.2760968884
 20
3.1154913849
 10
-22.2653083124
 20
3.1297968778
 10
-22.2549819322
 20
3.1446799476
 10
-22.2451255863
 20
3.1601292966
 10
-22.2357467566
 20
3.1761331974
 10
-22.2268525625
 20
3.1926795014
 10
-22.2184497555
 20
3.2097556486
 10
-22.2105447142
 20
3.2273486767
 10
-22.2031434391
 20
3.2454452308
 10
-22.1962515485
 20
3.264031574
 10
-22.189874274
 20
3.2830935977
 10
-22.1840164566
 20
3.3026168319
 10
-22.1786825428
 20
3.3225864568
 10
-22.1738765815
 20
3.3429873137
 10
-22.169602221
 20
3.3638039162
 10
-22.1658627059
 20
3.3850204629
 10
-22.1626608747
 20
3.4066208483
 10
-22.159999158
 20
3.4285886759
 10
-22.1578795763
 20
3.4509072699
 10
-22.1563037386
 20
3.4735596886
 10
-22.1552728409
 20
3.4965287367
 10
-22.1547876659
 20
3.5197969786
 10
-22.1548485819
 20
3.5433467516
  0
LINE
  5
3B0
100
AcDbEntity
  8
RACCORDO
100
AcDbLine
 62
250
  6
CONTINUOUS
 10
-28.0785321269
 20
0.3473835797
 11
-22.1548485819
 21
3.5433467516
  0
LINE
  5
3B1
100
AcDbEntity
  8
RACCORDO
100
AcDbLine
 62
7
  6
CONTINUOUS
 10
-28.3230481067
 20
-0.185368106
 11
-22.3993645618
 21
3.0105950658
  0
LWPOLYLINE
  5
3B2
100
AcDbEntity
  8
RACCORDO
100
AcDbPolyline
 62
250
  6
CONTINUOUS
 90
30
 70
0
 10
-22.1548485819
 20
3.5433467516
 10
-22.1361874434
 20
3.5532760945
 10
-22.1180743485
 20
3.5634559924
 10
-22.100522748
 20
3.5738788857
 10
-22.0835456758
 20
3.5845370342
 10
-22.0671557393
 20
3.5954225231
 10
-22.0513651096
 20
3.6065272689
 10
-22.036185513
 20
3.617843025
 10
-22.021628222
 20
3.6293613883
 10
-22.0077040468
 20
3.6410738052
 10
-21.9944233276
 20
3.6529715781
 10
-21.9817959268
 20
3.6650458715
 10
-21.9698312216
 20
3.677287719
 10
-21.9585380969
 20
3.6896880298
 10
-21.9479249392
 20
3.7022375954
 10
-21.9379996298
 20
3.7149270963
 10
-21.9287695394
 20
3.7277471092
 10
-21.9202415221
 20
3.740688114
 10
-21.9124219111
 20
3.7537405005
 10
-21.9053165131
 20
3.7668945761
 10
-21.8989306046
 20
3.7801405724
 10
-21.893268928
 20
3.7934686528
 10
-21.8883356875
 20
3.8068689199
 10
-21.8841345467
 20
3.8203314226
 10
-21.8806686253
 20
3.8338461635
 10
-21.8779404971
 20
3.8474031065
 10
-21.8759521881
 20
3.8609921841
 10
-21.8747051748
 20
3.8746033051
 10
-21.8742003832
 20
3.8882263617
 10
-21.8741883823
 20
3.8906759368
  0
LINE
  5
3B3
100
AcDbEntity
  8
268140580
100
AcDbLine
 62
250
  6
CONTINUOUS
 10
-42.1293608953
 20
-5.852813177
 11
-43.1069677941
 21
-6.3043044397
  0
LINE
  5
3B4
100
AcDbEntity
  8
268140580
100
AcDbLine
 62
7
  6
CONTINUOUS
 10
-42.2104533963
 20
-6.0165668457
 11
-43.1069677941
 21
-6.4306069041
  0
LWPOLYLINE
  5
3B5
100
AcDbEntity
  8
RACCORDO
100
AcDbPolyline
 62
7
  6
CONTINUOUS
 90
40
 70
0
 10
-22.1548485819
 20
21.8275983692
 10
-22.0722038519
 20
21.8502234992
 10
-21.9919530398
 20
21.8718905632
 10
-21.9140961456
 20
21.8925995611
 10
-21.8387016362
 20
21.9123223858
 10
-21.7657010447
 20
21.9310871444
 10
-21.6948889704
 20
21.9489781583
 10
-21.6262571123
 20
21.9659986451
 10
-21.5598137714
 20
21.9821453871
 10
-21.4953784508
 20
21.9974930531
 10
-21.4329457521
 20
22.0120439875
 10
-21.3725210736
 20
22.0257958459
 10
-21.3139401131
 20
22.038816263
 10
-21.2571982752
 20
22.0511073283
 10
-21.2023001552
 20
22.0626669523
 10
-21.1490952371
 20
22.073556501
 10
-21.0975794403
 20
22.0837779112
 10
-21.0477568453
 20
22.0933292462
 10
-20.9994891779
 20
22.1022660622
 10
-20.9527718005
 20
22.1105903264
 10
-20.9076093507
 20
22.1183000717
 10
-20.8638774668
 20
22.1254449531
 10
-20.821573169
 20
22.1320266103
 10
-20.7806994372
 20
22.1380434036
 10
-20.7411408487
 20
22.1435400684
 10
-20.7028939275
 20
22.1485183236
 10
-20.6659621496
 20
22.1529764504
 10
-20.6302405213
 20
22.1569540273
 10
-20.5957266025
 20
22.160452696
 10
-20.5624228331
 20
22.163470815
 10
-20.5302315397
 20
22.1660430383
 10
-20.4991468096
 20
22.1681711446
 10
-20.4691745553
 20
22.1698533554
 10
-20.4402348412
 20
22.1711189886
 10
-20.4123249859
 20
22.1719693604
 10
-20.3854476708
 20
22.1724031548
 10
-20.3595310032
 20
22.1724457414
 10
-20.334551019
 20
22.1721055769
 10
-20.3105316825
 20
22.1713742046
 10
-20.2874729935
 20
22.1702516246
  0
LINE
  5
3B6
100
AcDbEntity
  8
DRAFT
100
AcDbLine
 62
7
  6
CONTINUOUS
 10
-43.1069677941
 20
17.520951401
 11
-43.6825272949
 21
17.8087311514
  0
LINE
  5
3B7
100
AcDbEntity
  8
RACCORDO
100
AcDbLine
 62
7
  6
CONTINUOUS
 10
-44.0358115608
 20
18.6670839028
 11
-59.0072654197
 21
26.1528108322
  0
LWPOLYLINE
  5
3B8
100
AcDbEntity
  8
268140580
100
AcDbPolyline
 62
250
  6
CONTINUOUS
 90
18
 70
0
 10
-41.8808119095
 20
20.7402667241
 10
-41.8756924649
 20
20.7356985584
 10
-41.8708281382
 20
20.7307269856
 10
-41.8662293515
 20
20.72536063
 10
-41.861905591
 20
20.7196084119
 10
-41.8578698364
 20
20.7134863359
 10
-41.8541300816
 20
20.7070063739
 10
-41.8506934997
 20
20.7001807881
 10
-41.8475693753
 20
20.6930290175
 10
-41.8447623378
 20
20.6855637061
 10
-41.8422778912
 20
20.6778017665
 10
-41.8401233123
 20
20.6697721729
 10
-41.8383008891
 20
20.6614949562
 10
-41.8368109982
 20
20.6529853569
 10
-41.8356547699
 20
20.6442675457
 10
-41.8348314335
 20
20.6353622295
 10
-41.8343391061
 20
20.6262860367
 10
-41.834175588
 20
20.6170576702
  0
LWPOLYLINE
  5
3B9
100
AcDbEntity
  8
268140580
100
AcDbPolyline
 62
250
  6
CONTINUOUS
 90
15
 70
0
 10
-40.066408635
 20
22.0741644513
 10
-40.062029548
 20
22.0667934854
 10
-40.0581448841
 20
22.0596824476
 10
-40.0547656972
 20
22.0528510267
 10
-40.0519014272
 20
22.046317574
 10
-40.0495607036
 20
22.040100909
 10
-40.0477508245
 20
22.0342199607
 10
-40.0464768545
 20
22.0286913998
 10
-40.0457420728
 20
22.0235297606
 10
-40.0455484954
 20
22.0187490751
 10
-40.0458967042
 20
22.0143624069
 10
-40.0467857934
 20
22.0103818957
 10
-40.0482133237
 20
22.00681857
 10
-40.0501753608
 20
22.0036822259
 10
-40.0506662922
 20
22.0030648058
  0
LWPOLYLINE
  5
3BA
100
AcDbEntity
  8
RACCORDO
100
AcDbPolyline
 62
250
  6
CONTINUOUS
 90
33
 70
0
 10
-28.0785321269
 20
0.3473835797
 10
-28.0784712109
 20
0.3238338068
 10
-28.0789563858
 20
0.3005655649
 10
-28.0799872835
 20
0.2775965168
 10
-28.0815631213
 20
0.2549440981
 10
-28.083682703
 20
0.2326255041
 10
-28.0863444196
 20
0.2106576765
 10
-28.0895462508
 20
0.1890572911
 10
-28.0932857659
 20
0.1678407444
 10
-28.0975601264
 20
0.1470241418
 10
-28.1023660877
 20
0.126623285
 10
-28.1077000015
 20
0.1066536601
 10
-28.113557819
 20
0.0871304259
 10
-28.1199350934
 20
0.0680684022
 10
-28.126826984
 20
0.049482059
 10
-28.1342282591
 20
0.0313855049
 10
-28.1421333004
 20
0.0137924768
 10
-28.1505361074
 20
-0.0032836704
 10
-28.1594303015
 20
-0.0198299744
 10
-28.1688091312
 20
-0.0358338752
 10
-28.1786654771
 20
-0.0512832242
 10
-28.1889918574
 20
-0.066166294
 10
-28.1997804333
 20
-0.0804717869
 10
-28.2110230154
 20
-0.0941888439
 10
-28.2227110696
 20
-0.1073070523
 10
-28.2348357234
 20
-0.1198164544
 10
-28.2473877733
 20
-0.1317075542
 10
-28.260357691
 20
-0.1429713254
 10
-28.2737356312
 20
-0.1535992177
 10
-28.2875114387
 20
-0.1635831636
 10
-28.3016746566
 20
-0.1729155843
 10
-28.3162145337
 20
-0.1815893958
 10
-28.3230481067
 20
-0.185368106
  0
LINE
  5
3BB
100
AcDbEntity
  8
0
100
AcDbLine
 62
7
  6
CONTINUOUS
 10
-29.8771377592
 20
26.1771006964
 11
-29.8771377592
 21
25.7458611163
  0
LINE
  5
3BC
100
AcDbEntity
  8
0
100
AcDbLine
 62
7
  6
CONTINUOUS
 10
-29.4273930978
 20
26.0553528632
 11
-29.4273930978
 21
25.7351659748
  0
LINE
  5
3BD
100
AcDbEntity
  8
DRAFT
100
AcDbLine
 62
7
  6
CONTINUOUS
 10
-29.3890962391
 20
26.9072902463
 11
-29.3890962391
 21
27.3891070246
  0
LINE
  5
3BE
100
AcDbEntity
  8
RACCORDO
100
AcDbLine
 62
250
  6
CONTINUOUS
 10
-29.102490446
 20
-8.4719865373
 11
-29.102490446
 21
-1.4816266159
  0
LWPOLYLINE
  5
3BF
100
AcDbEntity
  8
RACCORDO
100
AcDbPolyline
 62
7
  6
CONTINUOUS
 90
79
 70
0
 10
-28.8218302464
 20
-8.1246573521
 10
-28.8218123836
 20
-1.1295648329
 10
-28.8216649187
 20
-1.1197680513
 10
-28.8213575644
 20
-1.1094914522
 10
-28.8208774152
 20
-1.0987387087
 10
-28.8202121103
 20
-1.0875200155
 10
-28.8193502512
 20
-1.075852368
 10
-28.8182805496
 20
-1.0637444684
 10
-28.8169921527
 20
-1.0512054677
 10
-28.8154757144
 20
-1.0382547406
 10
-28.8137218119
 20
-1.0249047536
 10
-28.8117212755
 20
-1.0111660179
 10
-28.8094664628
 20
-0.9970561498
 10
-28.8069495313
 20
-0.9825885816
 10
-28.8041630805
 20
-0.967776517
 10
-28.8011012146
 20
-0.952637986
 10
-28.7977577033
 20
-0.9371869946
 10
-28.7941270951
 20
-0.9214394623
 10
-28.7902059462
 20
-0.9054169271
 10
-28.7859894577
 20
-0.8891326898
 10
-28.7814747339
 20
-0.8726063876
 10
-28.7766631276
 20
-0.8558697243
 10
-28.7715529426
 20
-0.8389398637
 10
-28.7661433138
 20
-0.821835379
 10
-28.7604392089
 20
-0.8045907229
 10
-28.7544417075
 20
-0.7872247811
 10
-28.7481524044
 20
-0.7697562443
 10
-28.7415792946
 20
-0.7522196211
 10
-28.7347258948
 20
-0.7346341748
 10
-28.7275963702
 20
-0.7170190308
 10
-28.7202017755
 20
-0.6994084776
 10
-28.7125479949
 20
-0.6818217458
 10
-28.7046415491
 20
-0.6642777794
 10
-28.6964963955
 20
-0.6468100519
 10
-28.6881204671
 20
-0.6294369027
 10
-28.6795225757
 20
-0.6121769171
 10
-28.6707198254
 20
-0.5950631743
 10
-28.6617221843
 20
-0.578112898
 10
-28.6525404052
 20
-0.5613434677
 10
-28.6431944997
 20
-0.5447870083
 10
-28.6336965151
 20
-0.528459509
 10
-28.6240586329
 20
-0.5123761937
 10
-28.6143026975
 20
-0.4965664351
 10
-28.6044429178
 20
-0.4810451132
 10
-28.5944921556
 20
-0.4658242585
 10
-28.5844716501
 20
-0.4509271705
 10
-28.5743960785
 20
-0.4363655244
 10
-28.5642797735
 20
-0.4221498837
 10
-28.554144555
 20
-0.4083000409
 10
-28.5440056278
 20
-0.3948250145
 10
-28.5338780553
 20
-0.3817329113
 10
-28.5237841413
 20
-0.3690402203
 10
-28.5137394215
 20
-0.3567533625
 10
-28.5037591475
 20
-0.344877576
 10
-28.4938655079
 20
-0.3334255568
 10
-28.4840737898
 20
-0.322400749
 10
-28.4743992194
 20
-0.3118057322
 10
-28.4648639731
 20
-0.3016498082
 10
-28.4554842182
 20
-0.2919348586
 10
-28.4462733028
 20
-0.2826591398
 10
-28.437249048
 20
-0.2738247387
 10
-28.4284280999
 20
-0.2654318904
 10
-28.4198219603
 20
-0.2574754161
 10
-28.4114408278
 20
-0.2499486581
 10
-28.4032985864
 20
-0.2428479793
 10
-28.3954085004
 20
-0.2361688576
 10
-28.3877805082
 20
-0.2299035896
 10
-28.3804273128
 20
-0.2240464124
 10
-28.3733626386
 20
-0.2185919028
 10
-28.3665987078
 20
-0.2135330898
 10
-28.3601472909
 20
-0.2088622028
 10
-28.3540222677
 20
-0.2045724567
 10
-28.3482397433
 20
-0.200657942
 10
-28.3428116351
 20
-0.1971092895
 10
-28.3377499443
 20
-0.1939166738
 10
-28.333071324
 20
-0.1910725071
 10
-28.3287892181
 20
-0.1885664508
 10
-28.3249131584
 20
-0.1863853778
 10
-28.3230506175
 20
-0.1853694452
  0
LWPOLYLINE
  5
3C0
100
AcDbEntity
  8
RACCORDO
100
AcDbPolyline
 62
250
  6
CONTINUOUS
 90
67
 70
0
 10
-29.102490446
 20
-1.4816266159
 10
-29.1022132053
 20
-1.451244434
 10
-29.1013643999
 20
-1.4205531156
 10
-29.0999440298
 20
-1.3895526606
 10
-29.0979530094
 20
-1.3582194033
 10
-29.0953904242
 20
-1.3265770095
 10
-29.0922535315
 20
-1.2946964765
 10
-29.0885399851
 20
-1.262577605
 10
-29.0842521311
 20
-1.2302205943
 10
-29.0793942649
 20
-1.1976970402
 10
-29.0739640007
 20
-1.1650059666
 10
-29.0679637243
 20
-1.1321483495
 10
-29.0614048886
 20
-1.0991987132
 10
-29.054285373
 20
-1.0661572732
 10
-29.0466072983
 20
-1.0330238141
 10
-29.0383884791
 20
-0.9998722141
 10
-29.0296287066
 20
-0.9667078147
 10
-29.0203281898
 20
-0.9335252745
 10
-29.0105053703
 20
-0.9003824474
 10
-29.0001611294
 20
-0.8672841918
 10
-28.9892945859
 20
-0.8342256494
 10
-28.977921538
 20
-0.8012500992
 10
-28.9660417196
 20
-0.7683572814
 10
-28.9536553969
 20
-0.7355474559
 10
-28.9407791668
 20
-0.7028646812
 10
-28.927411357
 20
-0.6703060599
 10
-28.9135536399
 20
-0.6378744893
 10
-28.8992276298
 20
-0.6056227197
 10
-28.8844317361
 20
-0.5735494116
 10
-28.8691675494
 20
-0.5416559044
 10
-28.8534614555
 20
-0.5099989675
 10
-28.8373125856
 20
-0.4785791823
 10
-28.8207218086
 20
-0.4473959673
 10
-28.8037181165
 20
-0.4165043471
 10
-28.7863006691
 20
-0.385904927
 10
-28.7684703067
 20
-0.3555971017
 10
-28.750258543
 20
-0.3256340801
 10
-28.7316645072
 20
-0.2960164489
 10
-28.7126890702
 20
-0.2667436213
 10
-28.6933663579
 20
-0.2378670465
 10
-28.6736966536
 20
-0.2093887998
 10
-28.653679674
 20
-0.1813068058
 10
-28.6333486959
 20
-0.1536662873
 10
-28.6127052866
 20
-0.1264702089
 10
-28.5917478786
 20
-0.099715606
 10
-28.5705050467
 20
-0.0734388081
 10
-28.5489770703
 20
-0.0476404402
 10
-28.52716367
 20
-0.0223198772
 10
-28.5050925827
 20
0.0024884263
 10
-28.4827605509
 20
0.0267872582
 10
-28.4601708321
 20
0.0505738306
 10
-28.437360936
 20
0.0738053259
 10
-28.4143264579
 20
0.0964839865
 10
-28.3910718024
 20
0.1186075699
 10
-28.3676476939
 20
0.1401265307
 10
-28.3440527789
 20
0.1610390992
 10
-28.3202884109
 20
0.1813470451
 10
-28.2964093741
 20
0.2010061326
 10
-28.2724153993
 20
0.2200135299
 10
-28.2483067558
 20
0.2383720688
 10
-28.2241390362
 20
0.2560460086
 10
-28.1999111855
 20
0.2730329914
 10
-28.1756242587
 20
0.289335375
 10
-28.1513370137
 20
0.3049244924
 10
-28.1270690363
 20
0.3197907878
 10
-28.1028007407
 20
0.3339438169
 10
-28.0785321269
 20
0.3473835797
  0
LINE
  5
3C1
100
AcDbEntity
  8
268140580
100
AcDbLine
 62
7
  6
CONTINUOUS
 10
-43.3701975104
 20
-18.7263070339
 11
-43.6825272949
 21
-19.1033224348
  0
LWPOLYLINE
  5
3C2
100
AcDbEntity
  8
RACCORDO
100
AcDbPolyline
 62
7
  6
CONTINUOUS
 90
40
 70
0
 10
-20.2874729935
 20
9.4408751939
 10
-20.310531643
 20
9.4158746848
 10
-20.3345509376
 20
9.3902706051
 10
-20.3595308773
 20
9.3640629548
 10
-20.3854474966
 20
9.337268094
 10
-20.412324761
 20
9.3098696626
 10
-20.4402345669
 20
9.2818185796
 10
-20.4691742352
 20
9.2531163033
 10
-20.499146445
 20
9.2237613754
 10
-20.5302311306
 20
9.1937003399
 10
-20.5624223787
 20
9.1629375415
 10
-20.5957261027
 20
9.1314686355
 10
-20.6302399764
 20
9.0992271318
 10
-20.665961559
 20
9.0662139165
 10
-20.7028932914
 20
9.0324281035
 10
-20.7411401705
 20
8.9978005447
 10
-20.7806987211
 20
8.9623331199
 10
-20.8215724185
 20
8.9260239492
 10
-20.8638766855
 20
8.8887982448
 10
-20.9076085421
 20
8.8506574524
 10
-20.9527709682
 20
8.8116001262
 10
-20.9994883265
 20
8.7715471403
 10
-21.0477559793
 20
8.7305013302
 10
-21.0975785641
 20
8.6884598605
 10
-21.149094357
 20
8.6453350992
 10
-21.2022992773
 20
8.6011293352
 10
-21.2571974056
 20
8.5558402796
 10
-21.3139392593
 20
8.5093734338
 10
-21.3725202432
 20
8.4617314667
 10
-21.4329449525
 20
8.4129117095
 10
-21.4953776904
 20
8.3628116564
 10
-21.5598130586
 20
8.3114345529
 10
-21.6262564554
 20
8.2587771536
 10
-21.6948883784
 20
8.2047272168
 10
-21.7657005263
 20
8.149290121
 10
-21.8387012005
 20
8.0924604877
 10
-21.914095803
 20
8.0341099387
 10
-21.991952801
 20
7.9741956815
 10
-22.0722037273
 20
7.9127605086
 10
-22.1548485819
 20
7.8498044202
  0
LWPOLYLINE
  5
3C3
100
AcDbEntity
  8
RACCORDO
100
AcDbPolyline
 62
250
  6
CONTINUOUS
 90
30
 70
0
 10
-29.102490446
 20
-1.4816266159
 10
-29.083829306
 20
-1.4716972721
 10
-29.0657162096
 20
-1.4615173733
 10
-29.0481646078
 20
-1.4510944792
 10
-29.0311875346
 20
-1.4404363298
 10
-29.0147975971
 20
-1.42955084
 10
-28.9990069666
 20
-1.4184460935
 10
-28.9838273693
 20
-1.4071303365
 10
-28.9692700777
 20
-1.3956119724
 10
-28.9553459021
 20
-1.3838995547
 10
-28.9420651827
 20
-1.3720017811
 10
-28.9294377818
 20
-1.3599274869
 10
-28.9174730765
 20
-1.3476856387
 10
-28.9061799519
 20
-1.3352853272
 10
-28.8955667943
 20
-1.322735761
 10
-28.8856414852
 20
-1.3100462596
 10
-28.8764113951
 20
-1.2972262461
 10
-28.8678833782
 20
-1.2842852408
 10
-28.8600637677
 20
-1.2712328538
 10
-28.8529583702
 20
-1.2580787778
 10
-28.8465724624
 20
-1.2448327812
 10
-28.8409107865
 20
-1.2315047004
 10
-28.8359775467
 20
-1.2181044331
 10
-28.8317764067
 20
-1.2046419302
 10
-28.828310486
 20
-1.1911271892
 10
-28.8255823587
 20
-1.1775702461
 10
-28.8235940504
 20
-1.1639811684
 10
-28.8223470379
 20
-1.1503700474
 10
-28.8218422471
 20
-1.1367469909
 10
-28.8218302464
 20
-1.1342974307
  0
LINE
  5
3C4
100
AcDbEntity
  8
268140580
100
AcDbLine
 62
7
  6
CONTINUOUS
 10
-42.8462367785
 20
-10.2054799686
 11
-43.1069677941
 21
-10.3429620931
  0
LINE
  5
3C5
100
AcDbEntity
  8
268140580
100
AcDbLine
 62
250
  6
CONTINUOUS
 10
-42.7099314939
 20
-10.2128890664
 11
-43.1069677941
 21
-10.4222442668
  0
LINE
  5
3C6
100
AcDbEntity
  8
268140580
100
AcDbLine
 62
250
  6
CONTINUOUS
 10
-43.1069677941
 20
-10.7828296065
 11
-42.3414606209
 21
-10.3971245029
  0
LINE
  5
3C7
100
AcDbEntity
  8
RACCORDO
100
AcDbLine
 62
7
  6
CONTINUOUS
 10
-42.9220457234
 20
-9.2016155632
 11
-43.1069677941
 21
-9.2943753605
  0
LINE
  5
3C8
100
AcDbEntity
  8
268140580
100
AcDbLine
 62
7
  6
CONTINUOUS
 10
-57.0414702356
 20
26.334231323
 11
-55.8870866414
 21
25.7570395259
  0
LINE
  5
3C9
100
AcDbEntity
  8
268140580
100
AcDbLine
 62
7
  6
CONTINUOUS
 10
-41.3347019891
 20
18.4808471997
 11
-42.4890855832
 21
19.0580389968
  0
LINE
  5
3CA
100
AcDbEntity
  8
268140580
100
AcDbLine
 62
7
  6
CONTINUOUS
 10
-41.6173294018
 20
19.9397218498
 11
-41.834175588
 21
20.0481449429
  0
LINE
  5
3CB
100
AcDbEntity
  8
268140580
100
AcDbLine
 62
7
  6
CONTINUOUS
 10
-43.1776784723
 20
20.719896385
 11
-55.1984937524
 21
26.7303040251
  0
LINE
  5
3CC
100
AcDbEntity
  8
268140580
100
AcDbLine
 62
7
  6
CONTINUOUS
 10
-56.5419966367
 20
27.4020554673
 11
-56.7588428229
 21
27.5104785603
  0
LINE
  5
3CD
100
AcDbEntity
  8
268140580
100
AcDbLine
 62
7
  6
CONTINUOUS
 10
-51.7365178875
 20
25.3755627173
 11
-45.932547556
 21
22.4735775516
  0
LINE
  5
3CE
100
AcDbEntity
  8
268140580
100
AcDbLine
 62
7
  6
CONTINUOUS
 10
-57.1841301214
 20
28.2321963538
 11
-55.8406272372
 21
27.5604449117
  0
LINE
  5
3CF
100
AcDbEntity
  8
268140580
100
AcDbLine
 62
7
  6
CONTINUOUS
 10
-43.819811957
 20
21.5500372716
 11
-42.4763090728
 21
20.8782858295
  0
LWPOLYLINE
  5
3D0
100
AcDbEntity
  8
268140580
100
AcDbPolyline
 62
250
  6
CONTINUOUS
 90
17
 70
0
 10
-55.8406374237
 20
27.5604500057
 10
-55.8424537077
 20
27.5613832877
 10
-55.8501353672
 20
27.5659149321
 10
-55.8574065469
 20
27.5711846822
 10
-55.8642426434
 20
27.5771747071
 10
-55.8706205256
 20
27.5838647382
 10
-55.8765186126
 20
27.5912321386
 10
-55.8819169472
 20
27.5992519795
 10
-55.8867972633
 20
27.6078971241
 10
-55.8911430473
 20
27.6171383201
 10
-55.8949395944
 20
27.6269442982
 10
-55.8981740584
 20
27.637281878
 10
-55.9008354949
 20
27.6481160805
 10
-55.9029148984
 20
27.6594102461
 10
-55.9044052328
 20
27.671126159
 10
-55.9053014554
 20
27.6832241761
 10
-55.9056005336
 20
27.6956633618
  0
LWPOLYLINE
  5
3D1
100
AcDbEntity
  8
268140580
100
AcDbPolyline
 62
250
  6
CONTINUOUS
 90
17
 70
0
 10
-42.4763192592
 20
20.8782909235
 10
-42.4781355433
 20
20.8792242055
 10
-42.4858172028
 20
20.8837558498
 10
-42.4930883825
 20
20.8890256
 10
-42.499924479
 20
20.8950156248
 10
-42.5063023611
 20
20.901705656
 10
-42.5122004482
 20
20.9090730564
 10
-42.5175987828
 20
20.9170928973
 10
-42.5224790989
 20
20.9257380419
 10
-42.5268248828
 20
20.9349792379
 10
-42.53062143
 20
20.944785216
 10
-42.533855894
 20
20.9551227958
 10
-42.5365173305
 20
20.9659569983
 10
-42.538596734
 20
20.9772511639
 10
-42.5400870684
 20
20.9889670767
 10
-42.540983291
 20
21.0010650939
 10
-42.5412823692
 20
21.0135042796
  0
LINE
  5
3D2
100
AcDbEntity
  8
268140580
100
AcDbLine
 62
250
  6
CONTINUOUS
 10
-57.1860916296
 20
28.2332143926
 11
-57.1841301214
 21
28.2321963538
  0
LINE
  5
3D3
100
AcDbEntity
  8
268140580
100
AcDbLine
 62
250
  6
CONTINUOUS
 10
-43.8217734652
 20
21.5510553104
 11
-43.819811957
 21
21.5500372716
  0
LWPOLYLINE
  5
3D4
100
AcDbEntity
  8
268140580
100
AcDbPolyline
 62
250
  6
CONTINUOUS
 90
4
 70
0
 10
-55.2575188934
 20
27.4311359006
 10
-55.2560720205
 20
27.4303107082
 10
-55.2504878901
 20
27.4265786415
 10
-55.2451300739
 20
27.4224258064
  0
LWPOLYLINE
  5
3D5
100
AcDbEntity
  8
268140580
100
AcDbPolyline
 62
250
  6
CONTINUOUS
 90
4
 70
0
 10
-41.893200729
 20
20.7489768184
 10
-41.8917538561
 20
20.748151626
 10
-41.8861697257
 20
20.7444195592
 10
-41.8808119095
 20
20.7402667241
  0
LWPOLYLINE
  5
3D6
100
AcDbEntity
  8
SMUSSO
100
AcDbPolyline
 62
7
  6
CONTINUOUS
 90
6
 70
0
 10
-32.3076959761
 20
26.5010796161
 10
-32.3077730266
 20
26.5015057773
 10
-32.3119364849
 20
26.5327774214
 10
-32.3146141091
 20
26.5640656135
 10
-32.3158054476
 20
26.595358294
 10
-32.3158729344
 20
26.6047851033
  0
LWPOLYLINE
  5
3D7
100
AcDbEntity
  8
RACCORDO
100
AcDbPolyline
 62
7
  6
CONTINUOUS
 90
10
 70
0
 10
-27.2677758956
 20
29.4772999029
 10
-27.2678356529
 20
29.4885240193
 10
-27.2680146532
 20
29.4996828193
 10
-27.2683128964
 20
29.510776303
 10
-27.2687304731
 20
29.5218063205
 10
-27.2692672927
 20
29.5327710217
 10
-27.2699230834
 20
29.5436648561
 10
-27.2706977547
 20
29.5544859737
 10
-27.2715913972
 20
29.5652362246
 10
-27.2726040108
 20
29.5759156087
  0
LINE
  5
3D8
100
AcDbEntity
  8
RACCORDO
100
AcDbLine
 62
7
  6
CONTINUOUS
 10
-27.2677758956
 20
29.4772999029
 11
-27.2677758956
 21
29.1950627179
  0
LINE
  5
3D9
100
AcDbEntity
  8
268140580
100
AcDbLine
 62
250
  6
CONTINUOUS
 10
-43.2660668199
 20
-18.7424892009
 11
-43.6825272949
 21
-19.2452014644
  0
LINE
  5
3DA
100
AcDbEntity
  8
268140580
100
AcDbLine
 62
250
  6
CONTINUOUS
 10
-41.9225639357
 20
-19.4142406431
 11
-42.4528940215
 21
-20.054405686
  0
LINE
  5
3DB
100
AcDbEntity
  8
268140580
100
AcDbLine
 62
250
  6
CONTINUOUS
 10
-41.6573988927
 20
-19.6459348169
 11
-42.1877289786
 21
-20.2860998598
  0
LINE
  5
3DC
100
AcDbEntity
  8
268140580
100
AcDbLine
 62
250
  6
CONTINUOUS
 10
-43.1069677941
 20
-11.2555151626
 11
-42.1293608953
 21
-10.7629424169
  0
LINE
  5
3DD
100
AcDbEntity
  8
268140580
100
AcDbLine
 62
7
  6
CONTINUOUS
 10
-42.4152064265
 20
20.8570877382
 11
-41.8848763406
 21
20.7472527811
  0
LINE
  5
3DE
100
AcDbEntity
  8
268140580
100
AcDbLine
 62
250
  6
CONTINUOUS
 10
-42.1877289786
 20
21.0135042796
 11
-41.6573988927
 21
20.9036693225
  0
LWPOLYLINE
  5
3DF
100
AcDbEntity
  8
268140580
100
AcDbPolyline
 62
250
  6
CONTINUOUS
 90
25
 70
0
 10
-41.6573988927
 20
20.9036693225
 10
-41.6443724131
 20
20.9005198879
 10
-41.6317055381
 20
20.8965054583
 10
-41.6193982676
 20
20.8916260336
 10
-41.6074196711
 20
20.8858732173
 10
-41.5958006791
 20
20.8792554059
 10
-41.5846340841
 20
20.8717977889
 10
-41.5739250072
 20
20.8634917848
 10
-41.5636683273
 20
20.8543459752
 10
-41.553941473
 20
20.844411294
 10
-41.5447499091
 20
20.8336801448
 10
-41.5360881709
 20
20.822160124
 10
-41.5280172928
 20
20.8099249552
 10
-41.5205430361
 20
20.7969683
 10
-41.5136596396
 20
20.7832964968
 10
-41.5074108538
 20
20.7690022833
 10
-41.5018021617
 20
20.7540756848
 10
-41.4968280804
 20
20.738526676
 10
-41.4925159109
 20
20.7224779193
 10
-41.4888738442
 20
20.7059287586
 10
-41.4858936893
 20
20.68887985
 10
-41.4835781744
 20
20.6714558239
 10
-41.4819282088
 20
20.6536982235
 10
-41.4809428831
 20
20.6355655056
 10
-41.4806221974
 20
20.6170576702
  0
LINE
  5
3E0
100
AcDbEntity
  8
268140580
100
AcDbLine
 62
250
  6
CONTINUOUS
 10
-41.834175588
 20
20.6170576702
 11
-42.2428386557
 21
20.821389204
  0
LINE
  5
3E1
100
AcDbEntity
  8
268140580
100
AcDbLine
 62
250
  6
CONTINUOUS
 10
-55.1984937524
 20
27.2992167524
 11
-55.6071568201
 21
27.5035482862
  0
LINE
  5
3E2
100
AcDbEntity
  8
268140580
100
AcDbLine
 62
250
  6
CONTINUOUS
 10
-57.2491034179
 20
28.3674148039
 11
-55.9056005336
 21
27.6956633618
  0
LINE
  5
3E3
100
AcDbEntity
  8
268140580
100
AcDbLine
 62
250
  6
CONTINUOUS
 10
-43.8847852534
 20
21.6852557217
 11
-42.5412823692
 21
21.0135042796
  0
LINE
  5
3E4
100
AcDbEntity
  8
268140580
100
AcDbLine
 62
250
  6
CONTINUOUS
 10
-42.5412823692
 20
21.3818148081
 11
-43.8847852534
 21
22.0535662503
  0
LINE
  5
3E5
100
AcDbEntity
  8
268140580
100
AcDbLine
 62
250
  6
CONTINUOUS
 10
-55.9056005336
 20
28.0639738903
 11
-57.2491034179
 21
28.7357253325
  0
LINE
  5
3E6
100
AcDbEntity
  8
268140580
100
AcDbLine
 62
250
  6
CONTINUOUS
 10
-40.5456864711
 20
20.5287047137
 11
-40.6004368943
 21
20.5560799252
  0
LINE
  5
3E7
100
AcDbEntity
  8
268140580
100
AcDbLine
 62
250
  6
CONTINUOUS
 10
-43.9429284127
 20
22.2273256845
 11
-45.0198329765
 21
22.7657779664
  0
LINE
  5
3E8
100
AcDbEntity
  8
268140580
100
AcDbLine
 62
250
  6
CONTINUOUS
 10
-51.8243858531
 20
26.1680544047
 11
-53.9647550587
 21
27.2382390075
  0
LINE
  5
3E9
100
AcDbEntity
  8
268140580
100
AcDbLine
 62
250
  6
CONTINUOUS
 10
-40.5382850492
 20
20.5326427962
 11
-40.5930354724
 21
20.5600180077
  0
LINE
  5
3EA
100
AcDbEntity
  8
268140580
100
AcDbLine
 62
250
  6
CONTINUOUS
 10
-43.9404602676
 20
22.2337304054
 11
-45.0124741842
 21
22.7697373637
  0
LINE
  5
3EB
100
AcDbEntity
  8
268140580
100
AcDbLine
 62
250
  6
CONTINUOUS
 10
-51.8243858531
 20
26.1756931981
 11
-53.9573536368
 21
27.24217709
  0
LINE
  5
3EC
100
AcDbEntity
  8
268140580
100
AcDbLine
 62
250
  6
CONTINUOUS
 10
-40.63209406
 20
20.7172654092
 11
-40.7002921115
 21
20.751364435
  0
LINE
  5
3ED
100
AcDbEntity
  8
268140580
100
AcDbLine
 62
250
  6
CONTINUOUS
 10
-53.9964122244
 20
27.3994244915
 11
-54.0646102759
 21
27.4335235172
  0
LINE
  5
3EE
100
AcDbEntity
  8
268140580
100
AcDbLine
 62
250
  6
CONTINUOUS
 10
-42.3629630258
 20
21.6874725869
 11
-43.70646591
 21
22.359224029
  0
LINE
  5
3EF
100
AcDbEntity
  8
268140580
100
AcDbLine
 62
250
  6
CONTINUOUS
 10
-55.7272811902
 20
28.3696316691
 11
-57.0707840745
 21
29.0413831112
  0
LINE
  5
3F0
100
AcDbEntity
  8
268140580
100
AcDbLine
 62
7
  6
CONTINUOUS
 10
-51.7365178875
 20
26.6409424401
 11
-45.932547556
 21
23.7389572743
  0
LINE
  5
3F1
100
AcDbEntity
  8
268140580
100
AcDbLine
 62
7
  6
CONTINUOUS
 10
-53.9989319921
 20
27.9663698002
 11
-52.546843323
 21
27.2403254657
  0
LINE
  5
3F2
100
AcDbEntity
  8
268140580
100
AcDbLine
 62
7
  6
CONTINUOUS
 10
-40.6346138277
 20
21.284210718
 11
-39.8189643465
 21
20.8763859774
  0
LWPOLYLINE
  5
3F3
100
AcDbEntity
  8
268140580
100
AcDbPolyline
 62
250
  6
CONTINUOUS
 90
15
 70
0
 10
-40.5456807883
 20
20.5247663273
 10
-40.5446701501
 20
20.5242541231
 10
-40.5435762837
 20
20.5238566693
 10
-40.5423980967
 20
20.5235753827
 10
-40.5410923199
 20
20.5234172433
 10
-40.5397012778
 20
20.5233769699
 10
-40.5383534006
 20
20.5234373637
 10
-40.5371053199
 20
20.5236206438
 10
-40.535902834
 20
20.5239049712
 10
-40.5347077915
 20
20.5242071517
 10
-40.5334361537
 20
20.524468402
 10
-40.5321719204
 20
20.5247473886
 10
-40.5311295353
 20
20.5251373254
 10
-40.5304558395
 20
20.5257070187
 10
-40.529568147
 20
20.5270557722
  0
LWPOLYLINE
  5
3F4
100
AcDbEntity
  8
268140580
100
AcDbPolyline
 62
250
  6
CONTINUOUS
 90
31
 70
0
 10
-53.6059608467
 20
29.4076187733
 10
-53.5967111834
 20
29.4026951244
 10
-53.5874911011
 20
29.3971894504
 10
-53.5783258714
 20
29.3911168422
 10
-53.5692406156
 20
29.3844939441
 10
-53.5602602356
 20
29.3773389092
 10
-53.5514093462
 20
29.3696713489
 10
-53.5427122069
 20
29.3615122794
 10
-53.534192656
 20
29.3528840642
 10
-53.525874045
 20
29.3438103527
 10
-53.5177791747
 20
29.3343160151
 10
-53.5099302325
 20
29.324427075
 10
-53.5023487318
 20
29.3141706371
 10
-53.495055453
 20
29.3035748136
 10
-53.4880703865
 20
29.292668647
 10
-53.4814126778
 20
29.2814820302
 10
-53.4751005753
 20
29.2700456252
 10
-53.46915138
 20
29.2583907781
 10
-53.4635813982
 20
29.2465494342
 10
-53.4584058969
 20
29.2345540497
 10
-53.4536390618
 20
29.2224375033
 10
-53.4492939583
 20
29.2102330054
 10
-53.4453824962
 20
29.1979740077
 10
-53.4419153965
 20
29.1856941114
 10
-53.4389021623
 20
29.1734269747
 10
-53.4363510526
 20
29.1612062211
 10
-53.4342690598
 20
29.1490653468
 10
-53.4326618906
 20
29.137037629
 10
-53.4315339501
 20
29.1251560349
 10
-53.4308883298
 20
29.1134531311
 10
-53.4307267995
 20
29.1019609945
  0
LINE
  5
3F5
100
AcDbEntity
  8
RACCORDO
100
AcDbLine
 62
7
  6
CONTINUOUS
 10
-33.2180670528
 20
21.9780279155
 11
-34.3012623224
 21
23.8462634014
  0
LINE
  5
3F6
100
AcDbEntity
  8
268140580
100
AcDbLine
 62
7
  6
CONTINUOUS
 10
-34.5773286767
 20
24.4293055769
 11
-34.6028890806
 21
24.4733907526
  0
LWPOLYLINE
  5
3F7
100
AcDbEntity
  8
RACCORDO
100
AcDbPolyline
 62
250
  6
CONTINUOUS
 90
29
 70
0
 10
-29.0838293075
 20
-8.4620571944
 10
-29.0657162126
 20
-8.4518772964
 10
-29.0481646121
 20
-8.4414544032
 10
-29.0311875399
 20
-8.4307962547
 10
-29.0147976034
 20
-8.4199107657
 10
-28.9990069737
 20
-8.40880602
 10
-28.9838273771
 20
-8.3974902639
 10
-28.9692700861
 20
-8.3859719006
 10
-28.9553459109
 20
-8.3742594837
 10
-28.9420651917
 20
-8.3623617108
 10
-28.9294377909
 20
-8.3502874174
 10
-28.9174730857
 20
-8.3380455698
 10
-28.906179961
 20
-8.325645259
 10
-28.8955668033
 20
-8.3130956935
 10
-28.8856414939
 20
-8.3004061926
 10
-28.8764114035
 20
-8.2875861797
 10
-28.8678833862
 20
-8.2746451749
 10
-28.8600637751
 20
-8.2615927884
 10
-28.8529583772
 20
-8.2484387128
 10
-28.8465724687
 20
-8.2351927165
 10
-28.8409107921
 20
-8.221864636
 10
-28.8359775516
 20
-8.2084643689
 10
-28.8317764108
 20
-8.1950018663
 10
-28.8283104894
 20
-8.1814871254
 10
-28.8255823612
 20
-8.1679301824
 10
-28.8235940522
 20
-8.1543411047
 10
-28.8223470389
 20
-8.1407299838
 10
-28.8218422473
 20
-8.1271069272
 10
-28.8218302464
 20
-8.124658373
  0
LINE
  5
3F8
100
AcDbEntity
  8
RACCORDO
100
AcDbLine
 62
250
  6
CONTINUOUS
 10
-39.5360785491
 20
-13.9681662702
 11
-29.0838293075
 21
-8.4620571944
  0
LWPOLYLINE
  5
3F9
100
AcDbEntity
  8
268140580
100
AcDbPolyline
 62
250
  6
CONTINUOUS
 90
13
 70
0
 10
-41.4748848157
 20
23.4035484998
 10
-41.4803926273
 20
23.4060833458
 10
-41.4887377868
 20
23.4091489069
 10
-41.4974107082
 20
23.4114474943
 10
-41.5063823701
 20
23.4129714166
 10
-41.5156227517
 20
23.4137155745
 10
-41.5251009326
 20
23.4136774778
 10
-41.534785197
 20
23.412857254
 10
-41.5446431393
 20
23.4112576478
 10
-41.554641773
 20
23.4088840117
 10
-41.5647476406
 20
23.4057442884
 10
-41.5749269257
 20
23.4018489841
 10
-41.5851455665
 20
23.3972111332
  0
LWPOLYLINE
  5
3FA
100
AcDbEntity
  8
268140580
100
AcDbPolyline
 62
250
  6
CONTINUOUS
 90
13
 70
0
 10
-54.8392029801
 20
30.085707582
 10
-54.8447107917
 20
30.0882424281
 10
-54.8530559512
 20
30.0913079891
 10
-54.8617288726
 20
30.0936065765
 10
-54.8707005346
 20
30.0951304989
 10
-54.8799409161
 20
30.0958746567
 10
-54.889419097
 20
30.09583656
 10
-54.8991033614
 20
30.0950163362
 10
-54.9089613038
 20
30.09341673
 10
-54.9189599375
 20
30.0910430939
 10
-54.929065805
 20
30.0879033706
 10
-54.9392450901
 20
30.0840080663
 10
-54.9494637309
 20
30.0793702154
  0
LWPOLYLINE
  5
3FB
100
AcDbEntity
  8
RACCORDO
100
AcDbPolyline
 62
7
  6
CONTINUOUS
 90
21
 70
0
 10
-46.0077643697
 20
26.482965336
 10
-46.0195048698
 20
26.4883964328
 10
-46.0311803582
 20
26.4933789946
 10
-46.0427785904
 20
26.4979074437
 10
-46.0542865395
 20
26.5019768137
 10
-46.0656928115
 20
26.505582499
 10
-46.0769876441
 20
26.5087201122
 10
-46.088158705
 20
26.5113861212
 10
-46.0991941584
 20
26.5135773594
 10
-46.1100850429
 20
26.5152905098
 10
-46.1208192447
 20
26.5165235314
 10
-46.1313851341
 20
26.5172747018
 10
-46.1417745637
 20
26.5175417191
 10
-46.1519755761
 20
26.5173240691
 10
-46.1619769945
 20
26.5166215274
 10
-46.1717719561
 20
26.5154327696
 10
-46.1813490527
 20
26.5137587728
 10
-46.1906973187
 20
26.5116008004
 10
-46.199810731
 20
26.5089585869
 10
-46.2086777907
 20
26.5058349157
 10
-46.2172886697
 20
26.502232516
  0
LWPOLYLINE
  5
3FC
100
AcDbEntity
  8
RACCORDO
100
AcDbPolyline
 62
7
  6
CONTINUOUS
 90
64
 70
0
 10
-44.9272086742
 20
26.6139553304
 10
-44.9383173017
 20
26.6193681396
 10
-44.9557633466
 20
26.6273243994
 10
-44.9736769148
 20
26.6348531655
 10
-44.9920269474
 20
26.6419483355
 10
-45.0108044366
 20
26.6486154894
 10
-45.0300215478
 20
26.6548676364
 10
-45.0496558101
 20
26.6607061134
 10
-45.0696851871
 20
26.6661341075
 10
-45.0901182955
 20
26.6711631773
 10
-45.1109041206
 20
26.6757902778
 10
-45.1320537033
 20
26.6800273449
 10
-45.1536669922
 20
26.6838988359
 10
-45.1756966844
 20
26.6873978504
 10
-45.1981606264
 20
26.6905285825
 10
-45.221257249
 20
26.6933127968
 10
-45.2450579129
 20
26.6957449363
 10
-45.2694679666
 20
26.6978012145
 10
-45.2944349493
 20
26.6994662445
 10
-45.3200593294
 20
26.7007335237
 10
-45.3462132961
 20
26.701583128
 10
-45.3724987084
 20
26.7020004668
 10
-45.3988827723
 20
26.7019923172
 10
-45.425371054
 20
26.7015647358
 10
-45.4516236476
 20
26.7007352757
 10
-45.4775551684
 20
26.6995265275
 10
-45.5032324106
 20
26.6979537049
 10
-45.5285460378
 20
26.6960410153
 10
-45.5534758731
 20
26.6938087258
 10
-45.5780305635
 20
26.6912736645
 10
-45.6021451621
 20
26.6884600859
 10
-45.6257991597
 20
26.6853885812
 10
-45.6490077608
 20
26.6820745337
 10
-45.6717598595
 20
26.6785360005
 10
-45.6940466062
 20
26.6747905209
 10
-45.7158751301
 20
26.6708525015
 10
-45.7372572702
 20
26.6667345632
 10
-45.7581934251
 20
26.6624507501
 10
-45.7786830901
 20
26.6580149451
 10
-45.7987351214
 20
26.6534385777
 10
-45.8183517213
 20
26.6487340666
 10
-45.8375314083
 20
26.6439144902
 10
-45.8562758389
 20
26.6389920039
 10
-45.8745959389
 20
26.6339759823
 10
-45.8924816939
 20
26.6288813111
 10
-45.9099025203
 20
26.6237294468
 10
-45.9268462009
 20
26.6185373725
 10
-45.9433279014
 20
26.6133136913
 10
-45.9593569297
 20
26.6080682577
 10
-45.9749116789
 20
26.6028210817
 10
-45.9900155279
 20
26.5975771319
 10
-46.0047404231
 20
26.5923228444
 10
-46.0190850061
 20
26.5870691148
 10
-46.0330442524
 20
26.5818283241
 10
-46.0466769193
 20
26.5765882736
 10
-46.0599660023
 20
26.5713648883
 10
-46.0729116888
 20
26.5661678093
 10
-46.0855883485
 20
26.5609760991
 10
-46.0979586711
 20
26.5558136959
 10
-46.1100237425
 20
26.5506894473
 10
-46.1218977684
 20
26.5455631714
 10
-46.1335345737
 20
26.5404628368
 10
-46.1449012938
 20
26.5354121646
 10
-46.1671245971
 20
26.525363706
  0
LINE
  5
3FD
100
AcDbEntity
  8
RACCORDO
100
AcDbLine
 62
250
  6
CONTINUOUS
 10
-44.9282818996
 20
26.6144782721
 11
-44.9272120294
 21
26.6139570114
  0
LINE
  5
3FE
100
AcDbEntity
  8
268140580
100
AcDbLine
 62
7
  6
CONTINUOUS
 10
-49.8951928935
 20
27.1193781271
 11
-44.9454454252
 21
24.6445043929
  0
LINE
  5
3FF
100
AcDbEntity
  8
268140580
100
AcDbLine
 62
250
  6
CONTINUOUS
 10
-54.9494637309
 20
30.0793702154
 11
-53.6059608467
 21
29.4076187733
  0
LINE
  5
400
100
AcDbEntity
  8
268140580
100
AcDbLine
 62
250
  6
CONTINUOUS
 10
-41.5851455665
 20
23.3972111332
 11
-40.2416426822
 21
22.7254596911
  0
LINE
  5
401
100
AcDbEntity
  8
268140580
100
AcDbLine
 62
7
  6
CONTINUOUS
 10
-54.8392029801
 20
30.085707582
 11
-53.4957000959
 21
29.4139561399
  0
LINE
  5
402
100
AcDbEntity
  8
268140580
100
AcDbLine
 62
7
  6
CONTINUOUS
 10
-41.4748848157
 20
23.4035484998
 11
-40.1313819315
 21
22.7317970577
  0
LINE
  5
403
100
AcDbEntity
  8
RACCORDO
100
AcDbLine
 62
7
  6
CONTINUOUS
 10
-46.0061594449
 20
26.4821788103
 11
-43.6240042074
 21
25.2911011915
  0
LINE
  5
404
100
AcDbEntity
  8
RACCORDO
100
AcDbLine
 62
250
  6
CONTINUOUS
 10
-42.9939784194
 20
25.5993802524
 11
-45.0166771161
 21
26.6107166936
  0
LINE
  5
405
100
AcDbEntity
  8
RACCORDO
100
AcDbLine
 62
7
  6
CONTINUOUS
 10
-42.9455003224
 20
25.6231011579
 11
-44.9272120294
 21
26.6139570114
  0
LWPOLYLINE
  5
406
100
AcDbEntity
  8
268140580
100
AcDbPolyline
 62
250
  6
CONTINUOUS
 90
31
 70
0
 10
-40.2416426822
 20
22.7254596911
 10
-40.232393019
 20
22.7205360422
 10
-40.2231729367
 20
22.7150303682
 10
-40.214007707
 20
22.7089577599
 10
-40.2049224512
 20
22.7023348619
 10
-40.1959420712
 20
22.695179827
 10
-40.1870911817
 20
22.6875122667
 10
-40.1783940424
 20
22.6793531972
 10
-40.1698744915
 20
22.670724982
 10
-40.1615558806
 20
22.6616512705
 10
-40.1534610102
 20
22.6521569329
 10
-40.145612068
 20
22.6422679928
 10
-40.1380305674
 20
22.6320115549
 10
-40.1307372886
 20
22.6214157314
 10
-40.1237522221
 20
22.6105095648
 10
-40.1170945134
 20
22.599322948
 10
-40.1107824109
 20
22.5878865429
 10
-40.1048332156
 20
22.5762316959
 10
-40.0992632338
 20
22.564390352
 10
-40.0940877325
 20
22.5523949675
 10
-40.0893208974
 20
22.540278421
 10
-40.0849757939
 20
22.5280739231
 10
-40.0810643318
 20
22.5158149255
 10
-40.0775972321
 20
22.5035350292
 10
-40.0745839979
 20
22.4912678925
 10
-40.0720328881
 20
22.4790471389
 10
-40.0699508954
 20
22.4669062646
 10
-40.0683437262
 20
22.4548785468
 10
-40.0672157856
 20
22.4429969527
 10
-40.0665701654
 20
22.4312940489
 10
-40.066408635
 20
22.4198019123
  0
LINE
  5
407
100
AcDbEntity
  8
SMUSSO
100
AcDbLine
 62
250
  6
CONTINUOUS
 10
-31.8532826006
 20
28.4796114382
 11
-31.5104165827
 21
27.5476052853
  0
LINE
  5
408
100
AcDbEntity
  8
0
100
AcDbLine
 62
7
  6
CONTINUOUS
 10
-30.3826073414
 20
25.9348607406
 11
-30.5841066993
 21
26.5305851664
  0
LWPOLYLINE
  5
409
100
AcDbEntity
  8
RACCORDO
100
AcDbPolyline
 62
7
  6
CONTINUOUS
 90
31
 70
0
 10
-21.8741883901
 20
25.830191207
 10
-21.8744837328
 20
25.8651491265
 10
-21.8756281568
 20
25.9075763112
 10
-21.8776268922
 20
25.950066692
 10
-21.8804736297
 20
25.9926254708
 10
-21.8841609107
 20
26.035232259
 10
-21.8886778317
 20
26.0778377676
 10
-21.8940164608
 20
26.1204359121
 10
-21.9001695764
 20
26.1630189731
 10
-21.9071226908
 20
26.2055331001
 10
-21.9148672385
 20
26.2479717428
 10
-21.9233957257
 20
26.2903283422
 10
-21.9326898781
 20
26.3325474559
 10
-21.9427402136
 20
26.374620354
 10
-21.9535390904
 20
26.4165427891
 10
-21.9650663966
 20
26.4582646642
 10
-21.9773101433
 20
26.4997698155
 10
-21.9902643592
 20
26.5410617166
 10
-22.0039160032
 20
26.5821184493
 10
-22.0182560194
 20
26.622930347
 10
-22.0332778933
 20
26.6634938525
 10
-22.0489721648
 20
26.7037949002
 10
-22.0653320762
 20
26.7438264033
 10
-22.0823518075
 20
26.7835814431
 10
-22.1000226072
 20
26.8230453296
 10
-22.1183386462
 20
26.8622097444
 10
-22.1372955968
 20
26.9010675085
 10
-22.1568867
 20
26.9396059922
 10
-22.1771076146
 20
26.9778161537
 10
-22.1979551133
 20
27.0156903021
 10
-22.2161558288
 20
27.0475954863
  0
LWPOLYLINE
  5
40A
100
AcDbEntity
  8
RACCORDO
100
AcDbPolyline
 62
250
  6
CONTINUOUS
 90
37
 70
0
 10
-22.1548485819
 20
25.4828635315
 10
-22.1550785109
 20
25.5208658076
 10
-22.1559869945
 20
25.5591833604
 10
-22.1575736406
 20
25.5977979306
 10
-22.1598377658
 20
25.6366910288
 10
-22.162778291
 20
25.6758442148
 10
-22.166393754
 20
25.7152391111
 10
-22.1706824809
 20
25.7548570748
 10
-22.175642466
 20
25.7946791227
 10
-22.1812712704
 20
25.8346862113
 10
-22.1875662212
 20
25.8748592347
 10
-22.1945243627
 20
25.9151791206
 10
-22.2021423475
 20
25.9556267581
 10
-22.2104165612
 20
25.9961828977
 10
-22.2193430911
 20
26.0368282298
 10
-22.2289176746
 20
26.0775434787
 10
-22.2391357671
 20
26.1183093007
 10
-22.2499925183
 20
26.1591062629
 10
-22.2614827448
 20
26.1999149218
 10
-22.2736009722
 20
26.2407158647
 10
-22.2863414423
 20
26.2814896751
 10
-22.2996980896
 20
26.3222169118
 10
-22.3136645311
 20
26.3628781769
 10
-22.3282341278
 20
26.4034541541
 10
-22.3433999916
 20
26.4439255733
 10
-22.3591548822
 20
26.4842731908
 10
-22.3754912938
 20
26.5244778154
 10
-22.3924015195
 20
26.5645203458
 10
-22.4098775082
 20
26.6043818065
 10
-22.4279109043
 20
26.64404318
 10
-22.4464931327
 20
26.6834854357
 10
-22.4656152519
 20
26.7226897163
 10
-22.485268185
 20
26.7616374992
 10
-22.5054427666
 20
26.8003104259
 10
-22.5261294384
 20
26.8386901642
 10
-22.5473182433
 20
26.8767584216
 10
-22.5689990576
 20
26.9144971062
  0
LINE
  5
40B
100
AcDbEntity
  8
DRAFT
100
AcDbLine
 62
250
  6
CONTINUOUS
 10
-22.1548485819
 20
3.5433467516
 11
-22.1548485819
 21
7.8498044202
  0
LINE
  5
40C
100
AcDbEntity
  8
DRAFT
100
AcDbLine
 62
250
  6
CONTINUOUS
 10
-22.1548485819
 20
9.876447797
 11
-22.1548485819
 21
19.8009549924
  0
LINE
  5
40D
100
AcDbEntity
  8
DRAFT
100
AcDbLine
 62
250
  6
CONTINUOUS
 10
-22.1548485819
 20
21.8275983692
 11
-22.1548485819
 21
25.4828635315
  0
LINE
  5
40E
100
AcDbEntity
  8
RACCORDO
100
AcDbLine
 62
7
  6
CONTINUOUS
 10
-21.8741883823
 20
3.8906759368
 11
-21.8741883823
 21
7.8039850653
  0
LINE
  5
40F
100
AcDbEntity
  8
RACCORDO
100
AcDbLine
 62
7
  6
CONTINUOUS
 10
-21.8741883823
 20
10.6169255222
 11
-21.8741883823
 21
19.7551356376
  0
LINE
  5
410
100
AcDbEntity
  8
RACCORDO
100
AcDbLine
 62
7
  6
CONTINUOUS
 10
-21.8741883823
 20
22.5680760945
 11
-21.8741883823
 21
25.8301927168
  0
LWPOLYLINE
  5
411
100
AcDbEntity
  8
DRAFT
100
AcDbPolyline
 62
7
  6
CONTINUOUS
 90
43
 70
0
 10
-21.8741883824
 20
22.5680813573
 10
-21.8742583061
 20
22.5515215473
 10
-21.875092337
 20
22.5086563526
 10
-21.8767977149
 20
22.4675053185
 10
-21.8792794788
 20
22.4282089219
 10
-21.8824562066
 20
22.3906454035
 10
-21.8862493158
 20
22.3548383181
 10
-21.8905694002
 20
22.3208910341
 10
-21.8953502528
 20
22.2887064624
 10
-21.9005701007
 20
22.2580065008
 10
-21.9061835361
 20
22.228751843
 10
-21.9121311802
 20
22.2009833632
 10
-21.9183966357
 20
22.1745442534
 10
-21.9249462742
 20
22.1494099179
 10
-21.9317328999
 20
22.1256034083
 10
-21.938731802
 20
22.1030397812
 10
-21.9459091223
 20
22.0817200845
 10
-21.9532294383
 20
22.0616388502
 10
-21.9606714338
 20
22.0427013317
 10
-21.9682002199
 20
22.0249189636
 10
-21.9757910166
 20
22.0082738812
 10
-21.9834438081
 20
21.9926278775
 10
-21.9911316023
 20
21.9779811017
 10
-21.9988338945
 20
21.9643267074
 10
-22.0065680901
 20
21.9515172748
 10
-22.0143108389
 20
21.9395507988
 10
-22.0220493779
 20
21.9284232969
 10
-22.0298255947
 20
21.9179863599
 10
-22.0376315757
 20
21.9082237976
 10
-22.045451056
 20
21.8991477788
 10
-22.0533211871
 20
21.8906545622
 10
-22.0612301121
 20
21.8827375355
 10
-22.0691728904
 20
21.8754006833
 10
-22.0772037505
 20
21.8685582858
 10
-22.0853242774
 20
21.8621968251
 10
-22.0935239768
 20
21.8563294433
 10
-22.1018447077
 20
21.8509124743
 10
-22.1102806594
 20
21.8459409451
 10
-22.118833111
 20
21.8414209367
 10
-22.1275595137
 20
21.8373273849
 10
-22.1364804669
 20
21.833653605
 10
-22.145576727
 20
21.8304100111
 10
-22.1548485819
 20
21.8275983692
  0
LWPOLYLINE
  5
412
100
AcDbEntity
  8
DRAFT
100
AcDbPolyline
 62
7
  6
CONTINUOUS
 90
43
 70
0
 10
-21.8741883824
 20
10.6169307851
 10
-21.8742583061
 20
10.6003709751
 10
-21.875092337
 20
10.5575057804
 10
-21.8767977149
 20
10.5163547463
 10
-21.8792794788
 20
10.4770583496
 10
-21.8824562066
 20
10.4394948312
 10
-21.8862493158
 20
10.4036877459
 10
-21.8905694002
 20
10.3697404619
 10
-21.8953502528
 20
10.3375558902
 10
-21.9005701007
 20
10.3068559286
 10
-21.9061835361
 20
10.2776012708
 10
-21.9121311802
 20
10.2498327909
 10
-21.9183966357
 20
10.2233936811
 10
-21.9249462742
 20
10.1982593457
 10
-21.9317328999
 20
10.174452836
 10
-21.938731802
 20
10.151889209
 10
-21.9459091223
 20
10.1305695123
 10
-21.9532294383
 20
10.110488278
 10
-21.9606714338
 20
10.0915507594
 10
-21.9682002199
 20
10.0737683914
 10
-21.9757910166
 20
10.057123309
 10
-21.9834438081
 20
10.0414773053
 10
-21.9911316023
 20
10.0268305295
 10
-21.9988338945
 20
10.0131761352
 10
-22.0065680901
 20
10.0003667026
 10
-22.0143108389
 20
9.9884002265
 10
-22.0220493779
 20
9.9772727247
 10
-22.0298255947
 20
9.9668357877
 10
-22.0376315757
 20
9.9570732254
 10
-22.045451056
 20
9.9479972066
 10
-22.0533211871
 20
9.93950399
 10
-22.0612301121
 20
9.9315869633
 10
-22.0691728904
 20
9.9242501111
 10
-22.0772037505
 20
9.9174077136
 10
-22.0853242774
 20
9.9110462528
 10
-22.0935239768
 20
9.9051788711
 10
-22.1018447077
 20
9.8997619021
 10
-22.1102806594
 20
9.8947903729
 10
-22.118833111
 20
9.8902703645
 10
-22.1275595137
 20
9.8861768127
 10
-22.1364804669
 20
9.8825030327
 10
-22.145576727
 20
9.8792594389
 10
-22.1548485819
 20
9.876447797
  0
LWPOLYLINE
  5
413
100
AcDbEntity
  8
RACCORDO
100
AcDbPolyline
 62
7
  6
CONTINUOUS
 90
4
 70
0
 10
-20.2040734598
 20
21.4942965602
 10
-20.2036247238
 20
21.4983183964
 10
-20.2033202437
 20
21.5033745626
 10
-20.2032749336
 20
21.5062250087
  0
LWPOLYLINE
  5
414
100
AcDbEntity
  8
RACCORDO
100
AcDbPolyline
 62
250
  6
CONTINUOUS
 90
33
 70
0
 10
-20.2734616007
 20
21.4040726496
 10
-20.2806027321
 20
21.3540912393
 10
-20.2886712025
 20
21.3047714201
 10
-20.2976633685
 20
21.2561354549
 10
-20.307575167
 20
21.2082053103
 10
-20.3184021249
 20
21.1610026092
 10
-20.330139363
 20
21.114548623
 10
-20.3427815906
 20
21.0688643001
 10
-20.3563230961
 20
21.0239702873
 10
-20.370757757
 20
20.9798868831
 10
-20.386079049
 20
20.9366340061
 10
-20.4022800615
 20
20.8942311602
 10
-20.4193534914
 20
20.852697459
 10
-20.4372916397
 20
20.8120516361
 10
-20.456086403
 20
20.7723120576
 10
-20.4757292865
 20
20.7334966849
 10
-20.4962114151
 20
20.6956230521
 10
-20.5175235489
 20
20.6587082418
 10
-20.5396560772
 20
20.6227689003
 10
-20.5625990161
 20
20.5878212423
 10
-20.5863420033
 20
20.5538810544
 10
-20.610874312
 20
20.5209636705
 10
-20.6361848622
 20
20.4890839562
 10
-20.6622622329
 20
20.4582562948
 10
-20.6890946594
 20
20.4284945945
 10
-20.7166700329
 20
20.3998122863
 10
-20.7449759023
 20
20.3722223227
 10
-20.7739994855
 20
20.3457371623
 10
-20.8037276788
 20
20.3203687623
 10
-20.8341470642
 20
20.2961285727
 10
-20.8652439109
 20
20.2730275349
 10
-20.8970041808
 20
20.2510760772
 10
-20.9096412166
 20
20.2427810248
  0
LWPOLYLINE
  5
415
100
AcDbEntity
  8
RACCORDO
100
AcDbPolyline
 62
250
  6
CONTINUOUS
 90
33
 70
0
 10
-20.2734616007
 20
9.4529220773
 10
-20.2806027322
 20
9.4029406665
 10
-20.2886712027
 20
9.3536208468
 10
-20.2976633688
 20
9.3049848811
 10
-20.3075751675
 20
9.257054736
 10
-20.3184021255
 20
9.2098520344
 10
-20.3301393638
 20
9.1633980477
 10
-20.3427815916
 20
9.1177137244
 10
-20.3563230974
 20
9.0728197112
 10
-20.3707577585
 20
9.0287363065
 10
-20.3860790508
 20
8.9854834292
 10
-20.4022800635
 20
8.9430805828
 10
-20.4193534937
 20
8.9015468813
 10
-20.4372916424
 20
8.8609010582
 10
-20.456086406
 20
8.8211614793
 10
-20.4757292898
 20
8.7823461063
 10
-20.4962114188
 20
8.7444724733
 10
-20.517523553
 20
8.7075576627
 10
-20.5396560817
 20
8.6716183211
 10
-20.562599021
 20
8.6366706628
 10
-20.5863420086
 20
8.6027304748
 10
-20.6108743178
 20
8.5698130908
 10
-20.6361848684
 20
8.5379333763
 10
-20.6622622397
 20
8.5071057149
 10
-20.6890946666
 20
8.4773440145
 10
-20.7166700406
 20
8.4486617063
 10
-20.7449759105
 20
8.4210717427
 10
-20.7739994942
 20
8.3945865823
 10
-20.8037276881
 20
8.3692181824
 10
-20.8341470741
 20
8.3449779929
 10
-20.8652439213
 20
8.3218769552
 10
-20.8970041918
 20
8.2999254977
 10
-20.9096412166
 20
8.2916304526
  0
LWPOLYLINE
  5
416
100
AcDbEntity
  8
RACCORDO
100
AcDbPolyline
 62
250
  6
CONTINUOUS
 90
34
 70
0
 10
-29.4530846307
 20
-9.4382236621
 10
-29.4329100491
 20
-9.4195440296
 10
-29.413257116
 20
-9.4000801029
 10
-29.3941349967
 20
-9.3798409988
 10
-29.3755527684
 20
-9.3588362965
 10
-29.3575193723
 20
-9.3370760653
 10
-29.3400433836
 20
-9.3145706954
 10
-29.3231331579
 20
-9.2913309431
 10
-29.3067967463
 20
-9.2673678543
 10
-29.2910418557
 20
-9.2426927793
 10
-29.2758759919
 20
-9.217317464
 10
-29.2613063952
 20
-9.191253996
 10
-29.2473399537
 20
-9.1645147294
 10
-29.2339833064
 20
-9.137112366
 10
-29.2212428363
 20
-9.109059969
 10
-29.2091246089
 20
-9.0803709054
 10
-29.1976343824
 20
-9.0510588212
 10
-29.1867776312
 20
-9.0211376668
 10
-29.1765595387
 20
-8.9906217112
 10
-29.1669849552
 20
-8.9595254887
 10
-29.1580584253
 20
-8.9278637741
 10
-29.1497842116
 20
-8.895651608
 10
-29.1421662268
 20
-8.8629043035
 10
-29.1352080853
 20
-8.8296374348
 10
-29.1289131345
 20
-8.7958668096
 10
-29.1232843301
 20
-8.7616084235
 10
-29.118324345
 20
-8.7268786145
 10
-29.1140356181
 20
-8.6916940525
 10
-29.1104201551
 20
-8.6560715621
 10
-29.1074796299
 20
-8.620027978
 10
-29.1052155047
 20
-8.5835802924
 10
-29.1036288586
 20
-8.5467457736
 10
-29.102720375
 20
-8.5095419644
 10
-29.102490446
 20
-8.4719865373
  0
LWPOLYLINE
  5
417
100
AcDbEntity
  8
RACCORDO
100
AcDbPolyline
 62
250
  6
CONTINUOUS
 90
4
 70
0
 10
-29.5166409217
 20
-9.4894696363
 10
-29.4949601074
 20
-9.4731948462
 10
-29.4737713025
 20
-9.4561101337
 10
-29.4530846307
 20
-9.4382236621
  0
LWPOLYLINE
  5
418
100
AcDbEntity
  8
RACCORDO
100
AcDbPolyline
 62
7
  6
CONTINUOUS
 90
40
 70
0
 10
-29.4420632555
 20
-9.4431001912
 10
-29.4214969833
 20
-9.427902991
 10
-29.3934559438
 20
-9.4062129035
 10
-29.3659061374
 20
-9.3837558949
 10
-29.3388754943
 20
-9.3605494909
 10
-29.3123770055
 20
-9.3365997626
 10
-29.2864093757
 20
-9.3118991532
 10
-29.2609924455
 20
-9.2864589644
 10
-29.2361454624
 20
-9.2602909217
 10
-29.2118676719
 20
-9.2333851485
 10
-29.1881782216
 20
-9.2057525315
 10
-29.1650968492
 20
-9.177405868
 10
-29.1426253584
 20
-9.1483353909
 10
-29.1207822285
 20
-9.1185511428
 10
-29.099587331
 20
-9.0880668089
 10
-29.0790459962
 20
-9.0568750617
 10
-29.0591770297
 20
-9.0249873761
 10
-29.0399987602
 20
-8.9924160102
 10
-29.0215169146
 20
-8.9591518465
 10
-29.0037509765
 20
-8.925208614
 10
-28.9867175729
 20
-8.8905958647
 10
-28.9704198582
 20
-8.8552947147
 10
-28.9548740678
 20
-8.8193103696
 10
-28.9401010235
 20
-8.7826591213
 10
-28.926112133
 20
-8.7453351881
 10
-28.9129196597
 20
-8.7073316749
 10
-28.9005479832
 20
-8.6686757188
 10
-28.8890236019
 20
-8.6294107104
 10
-28.8783605094
 20
-8.5895463505
 10
-28.8685732477
 20
-8.5490940651
 10
-28.8596826981
 20
-8.5080989038
 10
-28.8516994824
 20
-8.4665691707
 10
-28.8446352493
 20
-8.4245168109
 10
-28.8385060925
 20
-8.3819915032
 10
-28.8333201452
 20
-8.3390025735
 10
-28.8290860456
 20
-8.2955600033
 10
-28.8258147631
 20
-8.2517130555
 10
-28.8235130924
 20
-8.2074832535
 10
-28.8221863697
 20
-8.162867429
 10
-28.8218302542
 20
-8.124658373
  0
LINE
  5
419
100
AcDbEntity
  8
RACCORDO
100
AcDbLine
 62
7
  6
CONTINUOUS
 10
-34.3012623224
 20
-12.2669959364
 11
-33.2180670528
 21
-11.4819557201
  0
LINE
  5
41A
100
AcDbEntity
  8
268140580
100
AcDbLine
 62
7
  6
CONTINUOUS
 10
-34.6028890806
 20
-12.5924965294
 11
-34.5773286767
 21
-12.5739717577
  0
LINE
  5
41B
100
AcDbEntity
  8
RACCORDO
100
AcDbLine
 62
250
  6
CONTINUOUS
 10
-29.6958440076
 20
-9.6193461538
 11
-29.5166409217
 21
-9.4894696363
  0
LINE
  5
41C
100
AcDbEntity
  8
RACCORDO
100
AcDbLine
 62
7
  6
CONTINUOUS
 10
-29.6212764136
 20
-9.572984021
 11
-29.4420733276
 21
-9.4431075035
  0
LWPOLYLINE
  5
41D
100
AcDbEntity
  8
268140580
100
AcDbPolyline
 62
250
  6
CONTINUOUS
 90
4
 70
0
 10
-40.340079292
 20
-18.2666780275
 10
-40.3499278163
 20
-18.2737268762
 10
-40.3601857796
 20
-18.2799728189
 10
-40.3708299712
 20
-18.2854017229
  0
LWPOLYLINE
  5
41E
100
AcDbEntity
  8
RACCORDO
100
AcDbPolyline
 62
250
  6
CONTINUOUS
 90
4
 70
0
 10
-29.7406319376
 20
-9.6472808478
 10
-29.7254839391
 20
-9.6388095507
 10
-29.7104535081
 20
-9.6294441671
 10
-29.6958440076
 20
-9.6193461538
  0
LWPOLYLINE
  5
41F
100
AcDbEntity
  8
RACCORDO
100
AcDbPolyline
 62
250
  6
CONTINUOUS
 90
5
 70
0
 10
-29.5166409217
 20
-9.4894696363
 10
-29.4978044063
 20
-9.4791094285
 10
-29.4793622896
 20
-9.4681211913
 10
-29.4613282666
 20
-9.4565130848
 10
-29.4420733276
 20
-9.4431075035
  0
LWPOLYLINE
  5
420
100
AcDbEntity
  8
RACCORDO
100
AcDbPolyline
 62
250
  6
CONTINUOUS
 90
5
 70
0
 10
-29.6958440076
 20
-9.6193461538
 10
-29.6770074923
 20
-9.608985946
 10
-29.6585653756
 20
-9.5979977088
 10
-29.6405313528
 20
-9.5863896024
 10
-29.6212764136
 20
-9.572984021
  0
LINE
  5
421
100
AcDbEntity
  8
RACCORDO
100
AcDbLine
 62
250
  6
CONTINUOUS
 10
-29.6958440076
 20
-9.6193461538
 11
-33.2180670528
 21
-11.4819557201
  0
LINE
  5
422
100
AcDbEntity
  8
RACCORDO
100
AcDbLine
 62
7
  6
CONTINUOUS
 10
-29.7406319376
 20
-9.6472808478
 11
-33.2397591551
 21
-11.49767696
  0
LINE
  5
423
100
AcDbEntity
  8
RACCORDO
100
AcDbLine
 62
250
  6
CONTINUOUS
 10
-39.5360785491
 20
-14.7674842061
 11
-29.5166409217
 21
-9.4894696363
  0
LINE
  5
424
100
AcDbEntity
  8
DRAFT
100
AcDbLine
 62
7
  6
CONTINUOUS
 10
-39.5360785491
 20
-15.0168970966
 11
-34.3012623224
 21
-12.2669959364
  0
LINE
  5
425
100
AcDbEntity
  8
268140580
100
AcDbLine
 62
7
  6
CONTINUOUS
 10
-34.5773286767
 20
-12.5739717577
 11
-39.5360785491
 21
-15.1191486302
  0
LINE
  5
426
100
AcDbEntity
  8
268140580
100
AcDbLine
 62
7
  6
CONTINUOUS
 10
-36.0083757752
 20
-13.4628853671
 11
-39.5360785491
 21
-15.2708184854
  0
LINE
  5
427
100
AcDbEntity
  8
268140580
100
AcDbLine
 62
7
  6
CONTINUOUS
 10
-42.1293608953
 20
-16.794926754
 11
-42.4890855832
 21
-16.9686178006
  0
LWPOLYLINE
  5
428
100
AcDbEntity
  8
RACCORDO
100
AcDbPolyline
 62
250
  6
CONTINUOUS
 90
16
 70
0
 10
-46.4064351685
 20
-19.7984107341
 10
-46.4454442608
 20
-19.8172249217
 10
-46.4877567382
 20
-19.8339106897
 10
-46.532919251
 20
-19.8482892614
 10
-46.5804479139
 20
-19.8602065803
 10
-46.6298334895
 20
-19.8695349603
 10
-46.6805468451
 20
-19.8761744542
 10
-46.7320446216
 20
-19.8800539243
 10
-46.7837750554
 20
-19.8811318048
 10
-46.8351838902
 20
-19.8793965469
 10
-46.8857203153
 20
-19.8748667427
 10
-46.9348428674
 20
-19.8675909259
 10
-46.9820252317
 20
-19.8576470521
 10
-47.0267618815
 20
-19.8451416631
 10
-47.0685734939
 20
-19.8302087456
 10
-47.107012086
 20
-19.8130082957
  0
LINE
  5
429
100
AcDbEntity
  8
268140580
100
AcDbLine
 62
250
  6
CONTINUOUS
 10
-43.1069677941
 20
-16.0894130354
 11
-42.4890855832
 21
-15.7954216965
  0
LINE
  5
42A
100
AcDbEntity
  8
268140580
100
AcDbLine
 62
7
  6
CONTINUOUS
 10
-43.1069677941
 20
-16.3177091584
 11
-42.6379384195
 21
-16.0977140523
  0
LINE
  5
42B
100
AcDbEntity
  8
268140580
100
AcDbLine
 62
7
  6
CONTINUOUS
 10
-55.7795245909
 20
27.5392468204
 11
-55.249194505
 21
27.4294118633
  0
LINE
  5
42C
100
AcDbEntity
  8
268140580
100
AcDbLine
 62
250
  6
CONTINUOUS
 10
-55.552047143
 20
27.6956633618
 11
-55.0217170571
 21
27.5858284047
  0
LWPOLYLINE
  5
42D
100
AcDbEntity
  8
268140580
100
AcDbPolyline
 62
250
  6
CONTINUOUS
 90
25
 70
0
 10
-55.0217170571
 20
27.5858284047
 10
-55.0086905775
 20
27.5826789702
 10
-54.9960237025
 20
27.5786645405
 10
-54.9837164321
 20
27.5737851158
 10
-54.9717378355
 20
27.5680322995
 10
-54.9601188436
 20
27.5614144881
 10
-54.9489522485
 20
27.5539568711
 10
-54.9382431716
 20
27.545650867
 10
-54.9279864917
 20
27.5365050574
 10
-54.9182596374
 20
27.5265703762
 10
-54.9090680735
 20
27.515839227
 10
-54.9004063353
 20
27.5043192062
 10
-54.8923354572
 20
27.4920840374
 10
-54.8848612005
 20
27.4791273823
 10
-54.877977804
 20
27.465455579
 10
-54.8717290182
 20
27.4511613656
 10
-54.8661203262
 20
27.436234767
 10
-54.8611462448
 20
27.4206857582
 10
-54.8568340753
 20
27.4046370015
 10
-54.8531920086
 20
27.3880878408
 10
-54.8502118538
 20
27.3710389322
 10
-54.8478963388
 20
27.3536149061
 10
-54.8462463732
 20
27.3358573058
 10
-54.8452610476
 20
27.3177245879
 10
-54.8449403618
 20
27.2992167524
  0
LINE
  5
42E
100
AcDbEntity
  8
268140580
100
AcDbLine
 62
7
  6
CONTINUOUS
 10
-42.4161562036
 20
25.8821154886
 11
-44.8747347471
 21
27.1114047603
  0
LINE
  5
42F
100
AcDbEntity
  8
268140580
100
AcDbLine
 62
7
  6
CONTINUOUS
 10
-41.0032705112
 20
26.5734571489
 11
-43.8305036312
 21
27.9870737089
  0
LINE
  5
430
100
AcDbEntity
  8
DRAFT
100
AcDbLine
 62
7
  6
CONTINUOUS
 10
-34.6202520624
 20
24.0057582714
 11
-34.3012623224
 21
23.8462634014
  0
LINE
  5
431
100
AcDbEntity
  8
268140580
100
AcDbLine
 62
250
  6
CONTINUOUS
 10
-45.9017466945
 20
29.6727764454
 11
-45.2959135196
 21
29.369859858
  0
LINE
  5
432
100
AcDbEntity
  8
268140580
100
AcDbLine
 62
250
  6
CONTINUOUS
 10
-40.3461660513
 20
26.8949861238
 11
-39.7403328764
 21
26.5920695364
  0
LINE
  5
433
100
AcDbEntity
  8
268140580
100
AcDbLine
 62
7
  6
CONTINUOUS
 10
-42.4705716911
 20
28.0608218963
 11
-40.2044690726
 21
26.9277705871
  0
LINE
  5
434
100
AcDbEntity
  8
268140580
100
AcDbLine
 62
7
  6
CONTINUOUS
 10
-39.4580510616
 20
26.5545615815
 11
-39.4403665692
 21
26.5457193354
  0
LINE
  5
435
100
AcDbEntity
  8
268140580
100
AcDbLine
 62
7
  6
CONTINUOUS
 10
-45.6799550662
 20
29.6848161154
 11
-45.0753920181
 21
29.3825345913
  0
LINE
  5
436
100
AcDbEntity
  8
268140580
100
AcDbLine
 62
7
  6
CONTINUOUS
 10
-40.1256445498
 20
26.9076608571
 11
-39.5210815016
 21
26.605379333
  0
LWPOLYLINE
  5
437
100
AcDbEntity
  8
RACCORDO
100
AcDbPolyline
 62
250
  6
CONTINUOUS
 90
58
 70
0
 10
-21.8741883823
 20
13.1287841207
 10
-21.8601141519
 20
13.117909101
 10
-21.8170831876
 20
13.0834784674
 10
-21.7742859552
 20
13.0480479386
 10
-21.731741753
 20
13.0116334886
 10
-21.689469808
 20
12.9742515722
 10
-21.6474892334
 20
12.9359190914
 10
-21.6058189987
 20
12.8966533694
 10
-21.5644778949
 20
12.8564721148
 10
-21.5234845565
 20
12.8153934397
 10
-21.4828574722
 20
12.7734358691
 10
-21.4426149991
 20
12.7306183595
 10
-21.4027753268
 20
12.6869602643
 10
-21.3633564534
 20
12.6424813082
 10
-21.3243761584
 20
12.597201555
 10
-21.2858520188
 20
12.551141422
 10
-21.2478014138
 20
12.504321687
 10
-21.2102415322
 20
12.4567634982
 10
-21.1731893441
 20
12.4084883434
 10
-21.1366615838
 20
12.3595180264
 10
-21.1006747314
 20
12.3098746426
 10
-21.0652450211
 20
12.2595805868
 10
-21.0303884411
 20
12.2086585541
 10
-20.9961207323
 20
12.1571315394
 10
-20.9624573702
 20
12.1050228126
 10
-20.9294135538
 20
12.0523559014
 10
-20.8970041966
 20
11.9991545759
 10
-20.8652439259
 20
11.9454428477
 10
-20.8341470782
 20
11.8912449623
 10
-20.8037276918
 20
11.8365853863
 10
-20.7739994976
 20
11.7814887921
 10
-20.7449759138
 20
11.7259800481
 10
-20.716670044
 20
11.6700842147
 10
-20.6890946698
 20
11.6138265325
 10
-20.6622622425
 20
11.5572324045
 10
-20.6361848707
 20
11.5003273709
 10
-20.6108743197
 20
11.4431371052
 10
-20.5863420106
 20
11.3856874122
 10
-20.5625990231
 20
11.3280042371
 10
-20.5396560837
 20
11.2701136396
 10
-20.5175235546
 20
11.2120417684
 10
-20.4962114199
 20
11.1538148223
 10
-20.4757292906
 20
11.0954590595
 10
-20.4560864069
 20
11.0370008031
 10
-20.4372916434
 20
10.9784664614
 10
-20.4193534948
 20
10.9198824898
 10
-20.4022800642
 20
10.8612753571
 10
-20.3860790511
 20
10.8026714964
 10
-20.3707577585
 20
10.7440973257
 10
-20.3563230975
 20
10.6855792604
 10
-20.342781592
 20
10.6271437426
 10
-20.3301393642
 20
10.5688171918
 10
-20.3184021257
 20
10.5106259657
 10
-20.3075751673
 20
10.4525963043
 10
-20.2976633685
 20
10.3947543594
 10
-20.2886712024
 20
10.3371262277
 10
-20.2806027321
 20
10.2797379381
 10
-20.2734616007
 20
10.2226153971
  0
LWPOLYLINE
  5
438
100
AcDbEntity
  8
SMUSSO
100
AcDbPolyline
 62
7
  6
CONTINUOUS
 90
49
 70
0
 10
-32.6381781518
 20
26.8397370811
 10
-32.6637838104
 20
26.8778647432
 10
-32.6858694423
 20
26.9136083532
 10
-32.7062474074
 20
26.9495596635
 10
-32.7249166556
 20
26.9857226494
 10
-32.7418782371
 20
27.0220933358
 10
-32.7571014682
 20
27.0586057546
 10
-32.7705817178
 20
27.0952551817
 10
-32.782323617
 20
27.1320463412
 10
-32.7923103758
 20
27.1689274378
 10
-32.8005404801
 20
27.2059043461
 10
-32.807015444
 20
27.2429711915
 10
-32.8117230194
 20
27.2800585547
 10
-32.8146597414
 20
27.3171603248
 10
-32.815829075
 20
27.3542826128
 10
-32.8152291672
 20
27.3913743326
 10
-32.8128570335
 20
27.4284412916
 10
-32.8087156585
 20
27.4654776824
 10
-32.8028121432
 20
27.5024149966
 10
-32.7951443397
 20
27.5392482688
 10
-32.785714396
 20
27.5759824644
 10
-32.7745358571
 20
27.6125639713
 10
-32.7616048231
 20
27.6489962161
 10
-32.7469251938
 20
27.6852757721
 10
-32.7305222144
 20
27.7213387476
 10
-32.7123940183
 20
27.7571823959
 10
-32.6925424721
 20
27.7928094636
 10
-32.6709984202
 20
27.8281642992
 10
-32.6477584965
 20
27.8632476597
 10
-32.622826067
 20
27.8980587882
 10
-32.5962420745
 20
27.9325397624
 10
-32.5680038077
 20
27.9666898575
 10
-32.5381139778
 20
28.0005097983
 10
-32.5066216607
 20
28.0339438364
 10
-32.4735248322
 20
28.0669908174
 10
-32.4388255166
 20
28.0996518957
 10
-32.4025788629
 20
28.1318747855
 10
-32.3647812153
 20
28.1636596881
 10
-32.3254362296
 20
28.1950064023
 10
-32.2846100228
 20
28.2258620392
 10
-32.2423014856
 20
28.2562248095
 10
-32.1985117274
 20
28.2860965026
 10
-32.1533101935
 20
28.3154295972
 10
-32.1066944762
 20
28.3442234795
 10
-32.0586669831
 20
28.3724787633
 10
-32.0093043822
 20
28.400149769
 10
-31.9586322295
 20
28.4272212701
 10
-31.906624969
 20
28.4537084932
 10
-31.8532826006
 20
28.4796114382
  0
LWPOLYLINE
  5
439
100
AcDbEntity
  8
RACCORDO
100
AcDbPolyline
 62
7
  6
CONTINUOUS
 90
4
 70
0
 10
-20.2032749336
 20
10.3132993182
 10
-20.2033023978
 20
10.3151362966
 10
-20.2035711229
 20
10.3193208692
 10
-20.2037052433
 20
10.3205529796
  0
LWPOLYLINE
  5
43A
100
AcDbEntity
  8
RACCORDO
100
AcDbPolyline
 62
7
  6
CONTINUOUS
 90
4
 70
0
 10
-20.2032749336
 20
22.2644498904
 10
-20.2033023978
 20
22.2662868688
 10
-20.2035711229
 20
22.2704714414
 10
-20.2037052433
 20
22.2717035518
  0
LINE
  5
43B
100
AcDbEntity
  8
RACCORDO
100
AcDbLine
 62
250
  6
CONTINUOUS
 10
-20.2874729935
 20
22.1702516246
 11
-20.2874729935
 21
21.3920257661
  0
LINE
  5
43C
100
AcDbEntity
  8
RACCORDO
100
AcDbLine
 62
250
  6
CONTINUOUS
 10
-20.2874729935
 20
10.2191010523
 11
-20.2874729935
 21
9.4408751939
  0
LINE
  5
43D
100
AcDbEntity
  8
RACCORDO
100
AcDbLine
 62
7
  6
CONTINUOUS
 10
-20.2032749336
 20
22.2644499334
 11
-20.2032749336
 21
21.5062249684
  0
LINE
  5
43E
100
AcDbEntity
  8
RACCORDO
100
AcDbLine
 62
7
  6
CONTINUOUS
 10
-20.2032749336
 20
10.3132993611
 11
-20.2032749336
 21
9.5550743962
  0
LWPOLYLINE
  5
43F
100
AcDbEntity
  8
RACCORDO
100
AcDbPolyline
 62
7
  6
CONTINUOUS
 90
4
 70
0
 10
-20.2040734598
 20
9.543145988
 10
-20.2036247238
 20
9.5471678242
 10
-20.2033202437
 20
9.5522239904
 10
-20.2032749336
 20
9.5550744365
  0
LWPOLYLINE
  5
440
100
AcDbEntity
  8
268140580
100
AcDbPolyline
 62
250
  6
CONTINUOUS
 90
13
 70
0
 10
-40.7735154162
 20
-18.5013651345
 10
-40.763535823
 20
-18.4960762584
 10
-40.7541881583
 20
-18.4905061999
 10
-40.7455040516
 20
-18.4846738064
 10
-40.7375128866
 20
-18.4785988133
 10
-40.7302417028
 20
-18.4723017765
 10
-40.7237151031
 20
-18.4658040034
 10
-40.7179551711
 20
-18.4591274805
 10
-40.7129813963
 20
-18.4522947993
 10
-40.7088106077
 20
-18.4453290794
 10
-40.7054569178
 20
-18.4382538906
 10
-40.7029316738
 20
-18.4310931734
 10
-40.7013308797
 20
-18.4242452929
  0
LWPOLYLINE
  5
441
100
AcDbEntity
  8
268140580
100
AcDbPolyline
 62
250
  6
CONTINUOUS
 90
15
 70
0
 10
-40.7735154162
 20
-18.8289930786
 10
-40.7635358437
 20
-18.8237042142
 10
-40.7541881953
 20
-18.8181341674
 10
-40.7455041004
 20
-18.8123017855
 10
-40.7375129434
 20
-18.8062268035
 10
-40.7302417637
 20
-18.7999297772
 10
-40.7237151648
 20
-18.7934320137
 10
-40.7179552305
 20
-18.7867554994
 10
-40.7129814506
 20
-18.7799228255
 10
-40.7088106549
 20
-18.7729571116
 10
-40.7054569561
 20
-18.7658819275
 10
-40.7029317019
 20
-18.7587212134
 10
-40.701243437
 20
-18.7514991988
 10
-40.700397874
 20
-18.7442403208
 10
-40.7002921115
 20
-18.740604731
  0
LWPOLYLINE
  5
442
100
AcDbEntity
  8
268140580
100
AcDbPolyline
 62
250
  6
CONTINUOUS
 90
16
 70
0
 10
-40.066408635
 20
-19.225439688
 10
-40.0574087254
 20
-19.2206979976
 10
-40.0489145795
 20
-19.2157261066
 10
-40.040949881
 20
-19.2105374327
 10
-40.0335362262
 20
-19.2051454906
 10
-40.0266951802
 20
-19.1995653686
 10
-40.0204476675
 20
-19.1938138578
 10
-40.0148113617
 20
-19.1879073391
 10
-40.0098010415
 20
-19.1818614222
 10
-40.0054303377
 20
-19.1756925213
 10
-40.0017112229
 20
-19.1694174316
 10
-39.9986540217
 20
-19.1630534513
 10
-39.9962672175
 20
-19.1566181845
 10
-39.9945573666
 20
-19.1501293339
 10
-39.9935291315
 20
-19.1436046298
 10
-39.9931853315
 20
-19.137063214
  0
LWPOLYLINE
  5
443
100
AcDbEntity
  8
268140580
100
AcDbPolyline
 62
250
  6
CONTINUOUS
 90
16
 70
0
 10
-40.066408635
 20
-19.571077149
 10
-40.057399124
 20
-19.5663301272
 10
-40.04889884
 20
-19.5613538502
 10
-40.0409310817
 20
-19.5561619579
 10
-40.0335176883
 20
-19.5507686807
 10
-40.0266789794
 20
-19.5451888014
 10
-40.0204336993
 20
-19.5394376138
 10
-40.0147989659
 20
-19.5335308817
 10
-40.0097902237
 20
-19.5274847951
 10
-40.0054212013
 20
-19.5213159257
 10
-40.0017038738
 20
-19.515041182
 10
-39.9986484301
 20
-19.5086777627
 10
-39.9962632452
 20
-19.5022431095
 10
-39.9945548565
 20
-19.4957548593
 10
-39.9935279466
 20
-19.4892307959
 10
-39.9931853303
 20
-19.4826888014
  0
LINE
  5
444
100
AcDbEntity
  8
268140580
100
AcDbLine
 62
250
  6
CONTINUOUS
 10
-42.1877289786
 20
-20.6544103884
 11
-40.066408635
 21
-19.571077149
  0
LINE
  5
445
100
AcDbEntity
  8
268140580
100
AcDbLine
 62
7
  6
CONTINUOUS
 10
-40.7629093252
 20
-17.2697227192
 11
-41.3347019891
 21
-17.5458095977
  0
LINE
  5
446
100
AcDbEntity
  8
268140580
100
AcDbLine
 62
250
  6
CONTINUOUS
 10
-40.2530145963
 20
-18.0627533958
 11
-39.5360785491
 21
-17.7165848493
  0
LINE
  5
447
100
AcDbEntity
  8
268140580
100
AcDbLine
 62
7
  6
CONTINUOUS
 10
-40.3569532638
 20
-18.279093994
 11
-39.641895934
 21
-17.9338325756
  0
LWPOLYLINE
  5
448
100
AcDbEntity
  8
268140580
100
AcDbPolyline
 62
250
  6
CONTINUOUS
 90
31
 70
0
 10
-42.1877289786
 20
-20.2860998598
 10
-42.1972230223
 20
-20.2906046154
 10
-42.2071755761
 20
-20.2948547574
 10
-42.2175593608
 20
-20.2988386365
 10
-42.2283459151
 20
-20.3025453332
 10
-42.2395056739
 20
-20.3059646876
 10
-42.251008049
 20
-20.3090873277
 10
-42.2628215131
 20
-20.3119046944
 10
-42.2749136865
 20
-20.3144090655
 10
-42.2872514253
 20
-20.3165935767
 10
-42.2998009126
 20
-20.3184522405
 10
-42.3125277512
 20
-20.3199799623
 10
-42.3253970576
 20
-20.3211725547
 10
-42.3383735581
 20
-20.3220267491
 10
-42.3514216848
 20
-20.322540204
 10
-42.3645056739
 20
-20.3227115122
 10
-42.377589663
 20
-20.322540204
 10
-42.3906377897
 20
-20.3220267491
 10
-42.4036142902
 20
-20.3211725547
 10
-42.4164835966
 20
-20.3199799623
 10
-42.4292104352
 20
-20.3184522405
 10
-42.4417599225
 20
-20.3165935767
 10
-42.4540976613
 20
-20.3144090655
 10
-42.4661898347
 20
-20.3119046944
 10
-42.4780032988
 20
-20.3090873277
 10
-42.4895056739
 20
-20.3059646876
 10
-42.5006654326
 20
-20.3025453332
 10
-42.511451987
 20
-20.2988386365
 10
-42.5218357717
 20
-20.2948547574
 10
-42.5317883255
 20
-20.2906046154
 10
-42.5412823692
 20
-20.2860998598
  0
LWPOLYLINE
  5
449
100
AcDbEntity
  8
268140580
100
AcDbPolyline
 62
250
  6
CONTINUOUS
 90
28
 70
0
 10
-41.4806221974
 20
-19.1825464692
 10
-41.4911999639
 20
-19.1875362722
 10
-41.5023400961
 20
-19.1922101098
 10
-41.5140048985
 20
-19.1965521673
 10
-41.5261549006
 20
-19.2005477528
 10
-41.5387489902
 20
-19.2041833467
 10
-41.5517445516
 20
-19.2074466473
 10
-41.5650976114
 20
-19.2103266129
 10
-41.5787629868
 20
-19.2128134989
 10
-41.5926944377
 20
-19.2148988909
 10
-41.6068448241
 20
-19.2165757328
 10
-41.6211662654
 20
-19.2178383511
 10
-41.6356103021
 20
-19.2186824739
 10
-41.6501280601
 20
-19.2191052454
 10
-41.6646704158
 20
-19.2191052353
 10
-41.6791881629
 20
-19.2186824442
 10
-41.693632178
 20
-19.2178383029
 10
-41.7079535874
 20
-19.2165756682
 10
-41.7221039327
 20
-19.2148988125
 10
-41.736035334
 20
-19.2128134102
 10
-41.7497006521
 20
-19.2103265179
 10
-41.7630536492
 20
-19.2074465504
 10
-41.7760491432
 20
-19.2041832529
 10
-41.788643162
 20
-19.2005476673
 10
-41.8007930928
 20
-19.1965520953
 10
-41.8124578246
 20
-19.1922100563
 10
-41.8235978877
 20
-19.1875362428
 10
-41.834175588
 20
-19.1825464692
  0
LWPOLYLINE
  5
44A
100
AcDbEntity
  8
268140580
100
AcDbPolyline
 62
7
  6
CONTINUOUS
 90
31
 70
0
 10
-40.7629093252
 20
-17.2697227192
 10
-40.7743002622
 20
-17.2749509503
 10
-40.7861925819
 20
-17.279865772
 10
-40.7985862844
 20
-17.2844671842
 10
-40.8115355366
 20
-17.2887726149
 10
-40.8249861714
 20
-17.2927646363
 10
-40.8387756883
 20
-17.2963909645
 10
-40.8528921262
 20
-17.2996406797
 10
-40.8673474461
 20
-17.3025247018
 10
-40.8820150309
 20
-17.3050235067
 10
-40.8968642623
 20
-17.3071332397
 10
-40.9119257586
 20
-17.3088577555
 10
-40.9271647576
 20
-17.3101890947
 10
-40.942631328
 20
-17.311129078
 10
-40.958275401
 20
-17.3116758847
 10
-40.9739120084
 20
-17.3118160933
 10
-40.9895408033
 20
-17.311540186
 10
-41.0051621326
 20
-17.3108576806
 10
-41.0205920676
 20
-17.3097837088
 10
-41.0357799032
 20
-17.3083207619
 10
-41.0507763446
 20
-17.3064663486
 10
-41.0655495779
 20
-17.3042281269
 10
-41.0801318657
 20
-17.3016016975
 10
-41.0944909455
 20
-17.2985914595
 10
-41.1084982165
 20
-17.2952182682
 10
-41.1221648039
 20
-17.2914709659
 10
-41.1354795824
 20
-17.2873607102
 10
-41.148280576
 20
-17.2829418295
 10
-41.1605137925
 20
-17.2782324334
 10
-41.1722332241
 20
-17.2732144123
 10
-41.1834388707
 20
-17.2678877663
  0
LINE
  5
44B
100
AcDbEntity
  8
268140580
100
AcDbLine
 62
250
  6
CONTINUOUS
 10
-40.3708299712
 20
-18.2854017229
 11
-40.3760603927
 21
-18.2877099545
  0
LINE
  5
44C
100
AcDbEntity
  8
DRAFT
100
AcDbLine
 62
7
  6
CONTINUOUS
 10
-43.1069677941
 20
-18.3491818999
 11
-43.6825272949
 21
-18.5907783999
  0
LINE
  5
44D
100
AcDbEntity
  8
RACCORDO
100
AcDbLine
 62
250
  6
CONTINUOUS
 10
-45.7252476018
 20
-20.2987237366
 11
-43.6825272949
 21
-19.4412727242
  0
LINE
  5
44E
100
AcDbEntity
  8
268140580
100
AcDbLine
 62
250
  6
CONTINUOUS
 10
-41.3347019891
 20
-18.5168018266
 11
-40.2530145963
 21
-18.0627533958
  0
LINE
  5
44F
100
AcDbEntity
  8
268140580
100
AcDbLine
 62
7
  6
CONTINUOUS
 10
-41.447714592
 20
-18.7375468582
 11
-40.3760603927
 21
-18.2877099545
  0
LINE
  5
450
100
AcDbEntity
  8
RACCORDO
100
AcDbLine
 62
7
  6
CONTINUOUS
 10
-43.8237930486
 20
-19.7172040138
 11
-45.8792117198
 21
-20.5799852039
  0
LINE
  5
451
100
AcDbEntity
  8
RACCORDO
100
AcDbLine
 62
250
  6
CONTINUOUS
 10
-45.6822852267
 20
26.6169408192
 11
-45.6723963756
 21
26.6197177091
  0
LINE
  5
452
100
AcDbEntity
  8
RACCORDO
100
AcDbLine
 62
250
  6
CONTINUOUS
 10
-45.6723963756
 20
26.6197177091
 11
-45.6623282393
 21
26.6224554433
  0
LINE
  5
453
100
AcDbEntity
  8
RACCORDO
100
AcDbLine
 62
250
  6
CONTINUOUS
 10
-45.6623282393
 20
26.6224554433
 11
-45.6520803015
 21
26.6251500221
  0
LWPOLYLINE
  5
454
100
AcDbEntity
  8
RACCORDO
100
AcDbPolyline
 62
250
  6
CONTINUOUS
 90
3
 70
0
 10
-45.6520803015
 20
26.6251500221
 10
-45.6416525157
 20
26.6277973083
 10
-45.6363711624
 20
26.629102703
  0
LWPOLYLINE
  5
455
100
AcDbEntity
  8
RACCORDO
100
AcDbPolyline
 62
250
  6
CONTINUOUS
 90
3
 70
0
 10
-45.6363711624
 20
26.629102703
 10
-45.6256739355
 20
26.6316727394
 10
-45.620258062
 20
26.632937381
  0
LWPOLYLINE
  5
456
100
AcDbEntity
  8
RACCORDO
100
AcDbPolyline
 62
250
  6
CONTINUOUS
 90
4
 70
0
 10
-45.620258062
 20
26.632937381
 10
-45.6092934387
 20
26.6354213761
 10
-45.603744689
 20
26.6366407296
 10
-45.5981520576
 20
26.637843512
  0
LWPOLYLINE
  5
457
100
AcDbEntity
  8
RACCORDO
100
AcDbPolyline
 62
250
  6
CONTINUOUS
 90
125
 70
0
 10
-45.5981520576
 20
26.637843512
 10
-45.5868346927
 20
26.6401994525
 10
-45.5811112926
 20
26.6413509556
 10
-45.5753442658
 20
26.6424844146
 10
-45.5695344621
 20
26.6435996919
 10
-45.563685536
 20
26.6446947637
 10
-45.5577965314
 20
26.6457697274
 10
-45.5518684044
 20
26.6468244857
 10
-45.5459076784
 20
26.6478567223
 10
-45.5399125856
 20
26.6488665852
 10
-45.5338848937
 20
26.6498539265
 10
-45.52783643
 20
26.6508159861
 10
-45.5217664574
 20
26.6517526569
 10
-45.515675713
 20
26.652664046
 10
-45.509578235
 20
26.6535477151
 10
-45.5034730415
 20
26.6544035362
 10
-45.4973611143
 20
26.6552316374
 10
-45.4912594371
 20
26.6560299635
 10
-45.485171913
 20
26.6567978319
 10
-45.4790946389
 20
26.6575359253
 10
-45.4730328895
 20
26.6582442372
 10
-45.4669880304
 20
26.6589225793
 10
-45.4609586961
 20
26.6595711398
 10
-45.4549460645
 20
26.6601904768
 10
-45.4489497799
 20
26.6607806223
 10
-45.4429701981
 20
26.6613415443
 10
-45.4370095641
 20
26.6618737043
 10
-45.4310679052
 20
26.662377087
 10
-45.4251451942
 20
26.6628517077
 10
-45.4192435949
 20
26.6632980744
 10
-45.4133631917
 20
26.6637161704
 10
-45.4075039002
 20
26.6641060123
 10
-45.4016676307
 20
26.6644681582
 10
-45.3958543484
 20
26.6648026003
 10
-45.3900640882
 20
26.6651093464
 10
-45.3842988645
 20
26.6653889775
 10
-45.378558483
 20
26.6656414858
 10
-45.3728431382
 20
26.6658668792
 10
-45.367155428
 20
26.6660657623
 10
-45.3614953092
 20
26.6662381123
 10
-45.3558628249
 20
26.6663839521
 10
-45.3502607034
 20
26.6665039551
 10
-45.3446891718
 20
26.6665980964
 10
-45.3391480028
 20
26.6666664008
 10
-45.3336392433
 20
26.6667096171
 10
-45.3281630762
 20
26.6667277331
 10
-45.3227193186
 20
26.6667207609
 10
-45.3173094684
 20
26.6666894851
 10
-45.311933575
 20
26.6666338999
 10
-45.3065915891
 20
26.6665540112
 10
-45.3012848603
 20
26.6664506214
 10
-45.2960133942
 20
26.6663237241
 10
-45.2907771852
 20
26.6661733256
 10
-45.2855775669
 20
26.6660002478
 10
-45.280414579
 20
26.6658044848
 10
-45.2752881817
 20
26.6655860423
 10
-45.2701995887
 20
26.6653457591
 10
-45.2651488531
 20
26.6650836314
 10
-45.2601359217
 20
26.6647996629
 10
-45.2551618496
 20
26.664494704
 10
-45.2502266681
 20
26.6641687504
 10
-45.2453303458
 20
26.6638218063
 10
-45.2404738433
 20
26.6634547342
 10
-45.2356570899
 20
26.6630675193
 10
-45.2308801563
 20
26.6626601764
 10
-45.2261442153
 20
26.6622336129
 10
-45.2214494768
 20
26.6617878406
 10
-45.216795731
 20
26.6613228477
 10
-45.2121835206
 20
26.6608395062
 10
-45.2076130208
 20
26.6603378365
 10
-45.2030840565
 20
26.6598178183
 10
-45.1985966448
 20
26.6592802621
 10
-45.1941508317
 20
26.6587251802
 10
-45.1897465714
 20
26.6581525603
 10
-45.1853837431
 20
26.6575631769
 10
-45.1810623565
 20
26.6569570379
 10
-45.176782402
 20
26.6563341353
 10
-45.1725437301
 20
26.6556952197
 10
-45.1683463583
 20
26.6550402998
 10
-45.1641902691
 20
26.6543693668
 10
-45.1600752604
 20
26.6536831455
 10
-45.1560013716
 20
26.6529816488
 10
-45.1519685633
 20
26.6522648637
 10
-45.1479765151
 20
26.6515334757
 10
-45.1440252994
 20
26.6507875071
 10
-45.1401148439
 20
26.6500269356
 10
-45.1362446116
 20
26.64925238
 10
-45.1324146423
 20
26.64846386
 10
-45.1286248964
 20
26.6476613559
 10
-45.1248747179
 20
26.6468454271
 10
-45.1211641186
 20
26.6460160891
 10
-45.1174930868
 20
26.6451733264
 10
-45.113860932
 20
26.6443176523
 10
-45.1102676818
 20
26.6434490871
 10
-45.1067133085
 20
26.6425676105
 10
-45.1031970389
 20
26.6416736738
 10
-45.0997188912
 20
26.6407672974
 10
-45.0962788471
 20
26.6398484609
 10
-45.0928760785
 20
26.6389175547
 10
-45.0895105866
 20
26.6379745957
 10
-45.0861823701
 20
26.637019567
 10
-45.0828905971
 20
26.6360528077
 10
-45.0796352773
 20
26.6350743384
 10
-45.076416401
 20
26.6340841384
 10
-45.073233108
 20
26.6330824853
 10
-45.0700854039
 20
26.6320694001
 10
-45.066973283
 20
26.6310448617
 10
-45.0638958684
 20
26.6300090841
 10
-45.0608531518
 20
26.6289620853
 10
-45.0578451415
 20
26.6279038473
 10
-45.0548709847
 20
26.6268345303
 10
-45.0519306589
 20
26.625754147
 10
-45.0490241866
 20
26.6246626847
 10
-45.046150783
 20
26.623560266
 10
-45.0433104164
 20
26.6224468992
 10
-45.0405031184
 20
26.6213225759
 10
-45.0377281988
 20
26.6201873938
 10
-45.0349856365
 20
26.619041363
 10
-45.0322754526
 20
26.6178844732
 10
-45.0295970204
 20
26.6167167915
 10
-45.0269503292
 20
26.6155383348
 10
-45.0243353898
 20
26.614349086
 10
-45.0217516072
 20
26.6131490612
 10
-45.0191987832
 20
26.6119382655
 10
-45.0166771161
 20
26.6107166936
  0
LWPOLYLINE
  5
458
100
AcDbEntity
  8
268140580
100
AcDbPolyline
 62
7
  6
CONTINUOUS
 90
16
 70
0
 10
-45.3230224832
 20
27.2408142829
 10
-45.2895528586
 20
27.2360161868
 10
-45.256499269
 20
27.2306501033
 10
-45.2238617146
 20
27.2247160324
 10
-45.1916143079
 20
27.2182106302
 10
-45.1597829364
 20
27.2111372406
 10
-45.1284452618
 20
27.2035058956
 10
-45.0975727148
 20
27.1953066228
 10
-45.0671938649
 20
27.1865493946
 10
-45.037472082
 20
27.1772741594
 10
-45.0084074446
 20
27.1674727421
 10
-44.9799998743
 20
27.1571533179
 10
-44.952412506
 20
27.1463803603
 10
-44.9256997178
 20
27.1351753604
 10
-44.8998071315
 20
27.1235168271
 10
-44.8747347471
 20
27.1114047603
  0
LWPOLYLINE
  5
459
100
AcDbEntity
  8
268140580
100
AcDbPolyline
 62
7
  6
CONTINUOUS
 90
17
 70
0
 10
-45.075395337
 20
29.3825279582
 10
-45.0825546511
 20
29.385928658
 10
-45.0948600023
 20
29.3909360312
 10
-45.1075358805
 20
29.3950771561
 10
-45.1205403837
 20
29.3983534783
 10
-45.1338703891
 20
29.400769914
 10
-45.1475290196
 20
29.402321547
 10
-45.1614837421
 20
29.4029950737
 10
-45.1757626514
 20
29.4027867311
 10
-45.1903376527
 20
29.4017002821
 10
-45.2050919291
 20
29.3997337125
 10
-45.2200322901
 20
29.3968710871
 10
-45.2351519263
 20
29.3931283411
 10
-45.2503135919
 20
29.3885512661
 10
-45.2654715383
 20
29.3831551258
 10
-45.2806715142
 20
29.3769246564
 10
-45.2959135196
 20
29.369859858
  0
LWPOLYLINE
  5
45A
100
AcDbEntity
  8
268140580
100
AcDbPolyline
 62
7
  6
CONTINUOUS
 90
20
 70
0
 10
-42.7304638356
 20
28.948107941
 10
-42.7366907793
 20
28.9511472414
 10
-42.7577110758
 20
28.9603872642
 10
-42.7793826934
 20
28.9683876282
 10
-42.8015712863
 20
28.9750910244
 10
-42.8242764961
 20
28.9804813265
 10
-42.8474986811
 20
28.9845746609
 10
-42.8711045701
 20
28.9873620969
 10
-42.895056257
 20
28.988840138
 10
-42.9193916479
 20
28.9890122808
 10
-42.94409119
 20
28.9878800844
 10
-42.9691914101
 20
28.9854417313
 10
-42.9946557814
 20
28.9816990389
 10
-43.02035517
 20
28.9766590187
 10
-43.0463039435
 20
28.9703049326
 10
-43.0724877342
 20
28.9626535186
 10
-43.0987343061
 20
28.9537620028
 10
-43.1249862471
 20
28.9436494606
 10
-43.1513009691
 20
28.9322968167
 10
-43.1776784723
 20
28.919704071
  0
LWPOLYLINE
  5
45B
100
AcDbEntity
  8
RACCORDO
100
AcDbPolyline
 62
250
  6
CONTINUOUS
 90
24
 70
0
 10
-43.4069855981
 20
30.7981296765
 10
-43.4274043571
 20
30.8081130829
 10
-43.4478162835
 20
30.817350429
 10
-43.4682041122
 20
30.8258339016
 10
-43.4885505988
 20
30.8335563251
 10
-43.5088385334
 20
30.8405111677
 10
-43.5290507562
 20
30.8466925469
 10
-43.5491701709
 20
30.8520952341
 10
-43.5691797601
 20
30.8567146597
 10
-43.589062599
 20
30.8605469164
 10
-43.6088018702
 20
30.8635887628
 10
-43.6283808777
 20
30.865837626
 10
-43.647783061
 20
30.8672916038
 10
-43.6669920091
 20
30.8679494665
 10
-43.6859914747
 20
30.8678106577
 10
-43.7047653874
 20
30.8668752946
 10
-43.7232978677
 20
30.8651441685
 10
-43.7415732403
 20
30.8626187436
 10
-43.7595760475
 20
30.859301156
 10
-43.7772910619
 20
30.8551942118
 10
-43.7947032997
 20
30.8503013847
 10
-43.8117980331
 20
30.8446268133
 10
-43.828560803
 20
30.8381752973
 10
-43.8458703486
 20
30.8305326115
  0
LINE
  5
45C
100
AcDbEntity
  8
268140580
100
AcDbLine
 62
250
  6
CONTINUOUS
 10
-46.1043404822
 20
30.383035076
 11
-43.1776784723
 21
28.919704071
  0
LINE
  5
45D
100
AcDbEntity
  8
268140580
100
AcDbLine
 62
250
  6
CONTINUOUS
 10
-38.9350377851
 20
26.7983837274
 11
-36.0083757752
 21
25.3350527225
  0
LINE
  5
45E
100
AcDbEntity
  8
268140580
100
AcDbLine
 62
7
  6
CONTINUOUS
 10
-45.8109917546
 20
30.4883692971
 11
-42.7304648768
 21
28.9481058582
  0
LINE
  5
45F
100
AcDbEntity
  8
268140580
100
AcDbLine
 62
7
  6
CONTINUOUS
 10
-38.4878241896
 20
26.8267855147
 11
-35.4072973118
 21
25.2865220758
  0
LINE
  5
460
100
AcDbEntity
  8
RACCORDO
100
AcDbLine
 62
250
  6
CONTINUOUS
 10
-37.5023660665
 20
27.8458199107
 11
-43.4069855981
 21
30.7981296765
  0
LINE
  5
461
100
AcDbEntity
  8
RACCORDO
100
AcDbLine
 62
7
  6
CONTINUOUS
 10
-37.0645905415
 20
27.8667430987
 11
-42.9721127175
 21
30.8204930061
  0
LWPOLYLINE
  5
462
100
AcDbEntity
  8
RACCORDO
100
AcDbPolyline
 62
7
  6
CONTINUOUS
 90
59
 70
0
 10
-20.2037052429
 20
10.3205528522
 10
-20.2100934199
 20
10.3711803624
 10
-20.2182289449
 20
10.4287883156
 10
-20.2272997194
 20
10.4865371791
 10
-20.2372985319
 20
10.5444031124
 10
-20.2482180419
 20
10.6023628223
 10
-20.2600507475
 20
10.6603932157
 10
-20.2727849033
 20
10.7184533617
 10
-20.2864158383
 20
10.7765368481
 10
-20.3009486747
 20
10.8346720753
 10
-20.3163861763
 20
10.8928680292
 10
-20.3327140269
 20
10.9510683567
 10
-20.3499115545
 20
11.0092031396
 10
-20.3679656135
 20
11.0672356951
 10
-20.3868706544
 20
11.1251551974
 10
-20.4066145258
 20
11.1829303912
 10
-20.4271842296
 20
11.2405296813
 10
-20.4485721438
 20
11.2979375929
 10
-20.4707741297
 20
11.3551468554
 10
-20.493783165
 20
11.4121413728
 10
-20.5175860896
 20
11.4688902134
 10
-20.5421695809
 20
11.5253637468
 10
-20.5675211294
 20
11.5815355786
 10
-20.5936308487
 20
11.6373858409
 10
-20.6204888558
 20
11.692894808
 10
-20.6480842111
 20
11.7480407991
 10
-20.67640454
 20
11.8027997758
 10
-20.7054375922
 20
11.8571486041
 10
-20.7351692368
 20
11.9110613584
 10
-20.7655888942
 20
11.9645191735
 10
-20.796689725
 20
12.0175095326
 10
-20.8284594212
 20
12.0700103317
 10
-20.8608852476
 20
12.1219992292
 10
-20.8939602042
 20
12.1734631469
 10
-20.9276777026
 20
12.2243890167
 10
-20.96201901
 20
12.274745597
 10
-20.996958409
 20
12.3244932977
 10
-21.0324760867
 20
12.3736030338
 10
-21.0685638142
 20
12.4220623884
 10
-21.1052127735
 20
12.4698576619
 10
-21.1424048592
 20
12.5169631599
 10
-21.1801298822
 20
12.5633637462
 10
-21.2183918757
 20
12.6090608057
 10
-21.2571906562
 20
12.6540487435
 10
-21.2964991723
 20
12.6982906942
 10
-21.3362811384
 20
12.7417419828
 10
-21.3765174627
 20
12.784379074
 10
-21.4171972953
 20
12.8261876293
 10
-21.4582958357
 20
12.8671394151
 10
-21.4997826661
 20
12.9072023566
 10
-21.5416571492
 20
12.9463738991
 10
-21.5839401502
 20
12.9846691537
 10
-21.6266397634
 20
13.02208828
 10
-21.6697189832
 20
13.058591515
 10
-21.713131601
 20
13.0941345285
 10
-21.7568678313
 20
13.1287050481
 10
-21.8009064973
 20
13.1622818872
 10
-21.8451832151
 20
13.1948135822
 10
-21.8741883823
 20
13.2153294136
  0
LINE
  5
463
100
AcDbEntity
  8
268140580
100
AcDbLine
 62
7
  6
CONTINUOUS
 10
-42.2508025746
 20
-20.7886688579
 11
-40.129482231
 21
-19.7053356186
  0
LWPOLYLINE
  5
464
100
AcDbEntity
  8
268140580
100
AcDbPolyline
 62
250
  6
CONTINUOUS
 90
31
 70
0
 10
-42.1877289786
 20
-20.6544103884
 10
-42.1971998958
 20
-20.658904731
 10
-42.2071335826
 20
-20.6631482793
 10
-42.2175037414
 20
-20.6671289543
 10
-42.2282850897
 20
-20.6708361052
 10
-42.2394466964
 20
-20.6742581855
 10
-42.2509513063
 20
-20.6773833958
 10
-42.2627647627
 20
-20.6802025853
 10
-42.2748571436
 20
-20.6827087377
 10
-42.2871956148
 20
-20.6848950347
 10
-42.2997465905
 20
-20.686755488
 10
-42.312475453
 20
-20.6882849298
 10
-42.325346949
 20
-20.6894791125
 10
-42.3383256227
 20
-20.6903347562
 10
-42.3513760434
 20
-20.6908495345
 10
-42.3644625434
 20
-20.6910220389
 10
-42.3775492948
 20
-20.6908517888
 10
-42.3906003575
 20
-20.6903392434
 10
-42.4035798954
 20
-20.6894858059
 10
-42.4164523025
 20
-20.6882938157
 10
-42.4291822946
 20
-20.6867665383
 10
-42.4417349573
 20
-20.6849081604
 10
-42.4540758703
 20
-20.6827237759
 10
-42.4661711897
 20
-20.6802193731
 10
-42.4779877361
 20
-20.6774018207
 10
-42.4894931151
 20
-20.6742788414
 10
-42.5006557663
 20
-20.6708590003
 10
-42.511445043
 20
-20.6671516875
 10
-42.5218313506
 20
-20.6631670759
 10
-42.5317862241
 20
-20.65891609
 10
-42.5412823692
 20
-20.6544103884
  0
LINE
  5
465
100
AcDbEntity
  8
268140580
100
AcDbLine
 62
7
  6
CONTINUOUS
 10
-43.8305036312
 20
27.9870737089
 11
-42.4705716911
 21
28.0608218963
  0
LWPOLYLINE
  5
466
100
AcDbEntity
  8
RACCORDO
100
AcDbPolyline
 62
7
  6
CONTINUOUS
 90
9
 70
0
 10
-28.0343302991
 20
26.7222000929
 10
-28.0404470397
 20
26.7237995907
 10
-28.0502172534
 20
26.7253324045
 10
-28.0605434488
 20
26.7257478489
 10
-28.071330646
 20
26.7250460764
 10
-28.0822939049
 20
26.7232275451
 10
-28.0933382456
 20
26.7202924076
 10
-28.1045586481
 20
26.7162405112
 10
-28.1159551124
 20
26.7110718559
  0
LINE
  5
467
100
AcDbEntity
  8
0
100
AcDbLine
 62
7
  6
CONTINUOUS
 10
-29.4273930978
 20
26.0553528632
 11
-29.8771377592
 21
26.1771006964
  0
LWPOLYLINE
  5
468
100
AcDbEntity
  8
RACCORDO
100
AcDbPolyline
 62
7
  6
CONTINUOUS
 90
28
 70
0
 10
-28.0343404353
 20
26.7221761405
 10
-28.1430557819
 20
26.7534619863
 10
-28.2579108249
 20
26.7828156633
 10
-28.3751722488
 20
26.8091427335
 10
-28.4945454136
 20
26.8324048252
 10
-28.6157657853
 20
26.852575378
 10
-28.7385951548
 20
26.8696346533
 10
-28.8627439521
 20
26.8835584949
 10
-28.9879274152
 20
26.8943291639
 10
-29.1139079327
 20
26.9019365636
 10
-29.2403943189
 20
26.9063699423
 10
-29.3670970418
 20
26.907624497
 10
-29.4937787873
 20
26.9056997239
 10
-29.620150057
 20
26.9005983889
 10
-29.7459196476
 20
26.8923291768
 10
-29.870849247
 20
26.8809013013
 10
-29.9946481216
 20
26.866331469
 10
-30.117032874
 20
26.8486414475
 10
-30.2377813101
 20
26.8278472721
 10
-30.3566162312
 20
26.8039756721
 10
-30.4732520547
 20
26.7770606203
 10
-30.5874636277
 20
26.747125853
 10
-30.6989788059
 20
26.7142087491
 10
-30.8075250023
 20
26.6783521143
 10
-30.9128918939
 20
26.6395804967
 10
-31.0148386763
 20
26.5979276884
 10
-31.1130848137
 20
26.5534469138
 10
-31.2073688749
 20
26.5061895244
  0
LWPOLYLINE
  5
469
100
AcDbEntity
  8
RACCORDO
100
AcDbPolyline
 62
250
  6
CONTINUOUS
 90
25
 70
0
 10
-35.3997183391
 20
27.8143660816
 10
-35.4188602739
 20
27.8239363239
 10
-35.4379970459
 20
27.8328373251
 10
-35.4571141284
 20
27.8410623285
 10
-35.4761970099
 20
27.8486050905
 10
-35.4952312048
 20
27.8554598855
 10
-35.5142022642
 20
27.8616215101
 10
-35.5330957875
 20
27.867085287
 10
-35.5518974327
 20
27.8718470689
 10
-35.5705929277
 20
27.8759032409
 10
-35.5891680808
 20
27.8792507243
 10
-35.6076087919
 20
27.8818869778
 10
-35.6259010626
 20
27.8838100005
 10
-35.6440310077
 20
27.8850183325
 10
-35.6619848646
 20
27.8855110566
 10
-35.6797490049
 20
27.8852877988
 10
-35.6973099439
 20
27.8843487286
 10
-35.7146543513
 20
27.8826945588
 10
-35.731769061
 20
27.8803265451
 10
-35.7486410815
 20
27.8772464852
 10
-35.7652576053
 20
27.8734567169
 10
-35.781606019
 20
27.8689601171
 10
-35.7976739127
 20
27.8637600993
 10
-35.8134490893
 20
27.8578606105
 10
-35.828919574
 20
27.8512661292
  0
LINE
  5
46A
100
AcDbEntity
  8
0
100
AcDbLine
 62
7
  6
CONTINUOUS
 10
-30.372112506
 20
25.929613323
 11
-31.0790814462
 21
26.283097793
  0
LINE
  5
46B
100
AcDbEntity
  8
0
100
AcDbLine
 62
7
  6
CONTINUOUS
 10
-29.8771377592
 20
26.1771006964
 11
-30.5841066993
 21
26.5305851664
  0
LINE
  5
46C
100
AcDbEntity
  8
DRAFT
100
AcDbLine
 62
7
  6
CONTINUOUS
 10
-31.2703799374
 20
27.2365412757
 11
-30.8386651406
 21
27.0206838773
  0
LINE
  5
46D
100
AcDbEntity
  8
0
100
AcDbLine
 62
7
  6
CONTINUOUS
 10
-30.372112506
 20
25.929613323
 11
-30.2024251182
 21
25.7729041751
  0
LWPOLYLINE
  5
46E
100
AcDbEntity
  8
RACCORDO
100
AcDbPolyline
 62
7
  6
CONTINUOUS
 90
59
 70
0
 10
-20.2037052429
 20
22.2717034245
 10
-20.2100934199
 20
22.3223309349
 10
-20.218228945
 20
22.3799388884
 10
-20.2272997196
 20
22.4376877522
 10
-20.237298532
 20
22.4955536857
 10
-20.2482180422
 20
22.5535133959
 10
-20.2600507479
 20
22.6115437895
 10
-20.2727849037
 20
22.6696039357
 10
-20.2864158389
 20
22.7276874224
 10
-20.3009486754
 20
22.7858226499
 10
-20.3163861771
 20
22.844018604
 10
-20.3327140277
 20
22.9022189319
 10
-20.3499115554
 20
22.960353715
 10
-20.3679656146
 20
23.0183862708
 10
-20.3868706557
 20
23.0763057733
 10
-20.4066145272
 20
23.1340809673
 10
-20.4271842311
 20
23.1916802577
 10
-20.4485721455
 20
23.2490881696
 10
-20.4707741315
 20
23.3062974323
 10
-20.493783167
 20
23.3632919499
 10
-20.5175860918
 20
23.4200407907
 10
-20.5421695833
 20
23.4765143244
 10
-20.5675211319
 20
23.5326861564
 10
-20.5936308515
 20
23.5885364189
 10
-20.6204888587
 20
23.6440453863
 10
-20.6480842143
 20
23.6991913775
 10
-20.6764045434
 20
23.7539503545
 10
-20.7054375958
 20
23.808299183
 10
-20.7351692406
 20
23.8622119375
 10
-20.7655888982
 20
23.9156697528
 10
-20.7966897293
 20
23.968660112
 10
-20.8284594257
 20
24.0211609112
 10
-20.8608852523
 20
24.0731498089
 10
-20.8939602092
 20
24.1246137268
 10
-20.9276777078
 20
24.1755395967
 10
-20.9620190155
 20
24.2258961772
 10
-20.9969584147
 20
24.275643878
 10
-21.0324760927
 20
24.3247536142
 10
-21.0685638205
 20
24.373212969
 10
-21.10521278
 20
24.4210082425
 10
-21.142404866
 20
24.4681137406
 10
-21.1801298892
 20
24.5145143269
 10
-21.2183918831
 20
24.5602113865
 10
-21.2571906638
 20
24.6051993244
 10
-21.2964991802
 20
24.6494412752
 10
-21.3362811465
 20
24.6928925638
 10
-21.3765174711
 20
24.735529655
 10
-21.417197304
 20
24.7773382104
 10
-21.4582958447
 20
24.8182899961
 10
-21.4997826754
 20
24.8583529376
 10
-21.5416571587
 20
24.8975244801
 10
-21.5839401601
 20
24.9358197347
 10
-21.6266397735
 20
24.9732388609
 10
-21.6697189936
 20
25.0097420959
 10
-21.7131316116
 20
25.0452851093
 10
-21.7568678422
 20
25.0798556288
 10
-21.8009065085
 20
25.1134324678
 10
-21.8451832266
 20
25.1459641627
 10
-21.8741883823
 20
25.1664799858
  0
LWPOLYLINE
  5
46F
100
AcDbEntity
  8
RACCORDO
100
AcDbPolyline
 62
7
  6
CONTINUOUS
 90
3
 70
0
 10
-28.0222896173
 20
26.7173823123
 10
-28.0311378276
 20
26.7211495599
 10
-28.0343302991
 20
26.7222000929
  0
LINE
  5
470
100
AcDbEntity
  8
DRAFT
100
AcDbLine
 62
7
  6
CONTINUOUS
 10
-27.2127416316
 20
27.1158222732
 11
-26.7180721224
 21
26.8684875186
  0
LINE
  5
471
100
AcDbEntity
  8
RACCORDO
100
AcDbLine
 62
7
  6
CONTINUOUS
 10
-27.1737614799
 20
26.2931182436
 11
-27.1005015847
 21
26.2564603527
  0
LWPOLYLINE
  5
472
100
AcDbEntity
  8
RACCORDO
100
AcDbPolyline
 62
7
  6
CONTINUOUS
 90
6
 70
0
 10
-27.590416234
 20
26.4995317133
 10
-27.6804234634
 20
26.545270345
 10
-27.7686100914
 20
26.5899251481
 10
-27.8549905348
 20
26.6334946982
 10
-27.9395503768
 20
26.6759804196
 10
-28.0222896173
 20
26.7173823123
  0
LINE
  5
473
100
AcDbEntity
  8
RACCORDO
100
AcDbLine
 62
7
  6
CONTINUOUS
 10
-27.4047958027
 20
26.4048172059
 11
-27.590416234
 21
26.4995317133
  0
LINE
  5
474
100
AcDbEntity
  8
RACCORDO
100
AcDbLine
 62
7
  6
CONTINUOUS
 10
-27.2117055472
 20
26.3057858986
 11
-27.4047958027
 21
26.4048172059
  0
LINE
  5
475
100
AcDbEntity
  8
RACCORDO
100
AcDbLine
 62
7
  6
CONTINUOUS
 10
-27.2039471185
 20
26.3011994265
 11
-27.2117055472
 21
26.3057858986
  0
LWPOLYLINE
  5
476
100
AcDbEntity
  8
RACCORDO
100
AcDbPolyline
 62
250
  6
CONTINUOUS
 90
4
 70
0
 10
-27.1737614799
 20
26.2931182436
 10
-27.1492384896
 20
26.2726138652
 10
-27.1248727279
 20
26.2513356008
 10
-27.1201768644
 20
26.247043331
  0
LWPOLYLINE
  5
477
100
AcDbEntity
  8
RACCORDO
100
AcDbPolyline
 62
250
  6
CONTINUOUS
 90
5
 70
0
 10
-27.2673980791
 20
26.2868222352
 10
-27.2445376497
 20
26.2672435017
 10
-27.2219601114
 20
26.2468904552
 10
-27.1996654642
 20
26.2257630956
 10
-27.1882518742
 20
26.2144611338
  0
LWPOLYLINE
  5
478
100
AcDbEntity
  8
RACCORDO
100
AcDbPolyline
 62
250
  6
CONTINUOUS
 90
26
 70
0
 10
-28.8306915784
 20
30.6696849519
 10
-28.8379750687
 20
30.6732289003
 10
-28.8532227703
 20
30.6800347244
 10
-28.8687858434
 20
30.6861686561
 10
-28.8846527308
 20
30.6916261404
 10
-28.9008116495
 20
30.6964031245
 10
-28.9172506
 20
30.7004960609
 10
-28.9339573746
 20
30.7039019104
 10
-28.9509195667
 20
30.7066181435
 10
-28.9681245801
 20
30.7086427434
 10
-28.9855596382
 20
30.7099742064
 10
-29.0032117938
 20
30.7106115439
 10
-29.0210679382
 20
30.7105542824
 10
-29.0391148113
 20
30.7098024647
 10
-29.0573390115
 20
30.7083566489
 10
-29.0757270053
 20
30.7062179088
 10
-29.0942651377
 20
30.7033878325
 10
-29.1129396423
 20
30.6998685217
 10
-29.1317366511
 20
30.6956625899
 10
-29.1506422055
 20
30.6907731605
 10
-29.1696422661
 20
30.6852038642
 10
-29.1887227233
 20
30.678958837
 10
-29.2078694078
 20
30.6720427164
 10
-29.2270681014
 20
30.6644606383
 10
-29.2463045468
 20
30.6562182333
 10
-29.265564459
 20
30.6473216222
  0
LINE
  5
479
100
AcDbEntity
  8
0
100
AcDbLine
 62
7
  6
CONTINUOUS
 10
-27.2677758956
 20
29.1950627179
 11
-24.1831696492
 21
27.6527595947
  0
LINE
  5
47A
100
AcDbEntity
  8
RACCORDO
100
AcDbLine
 62
250
  6
CONTINUOUS
 10
-23.1758247448
 20
27.6024517652
 11
-23.7199012747
 21
27.8744900301
  0
LWPOLYLINE
  5
47B
100
AcDbEntity
  8
RACCORDO
100
AcDbPolyline
 62
250
  6
CONTINUOUS
 90
26
 70
0
 10
-28.3160953524
 20
30.1725870689
 10
-29.2847063913
 20
30.6568918634
 10
-29.3038431608
 20
30.6657928636
 10
-29.3229602411
 20
30.6740178662
 10
-29.3420431204
 20
30.6815606276
 10
-29.3610773131
 20
30.6884154222
 10
-29.3800483706
 20
30.6945770466
 10
-29.3989418921
 20
30.7000408235
 10
-29.4177435356
 20
30.7048026055
 10
-29.436439029
 20
30.7088587779
 10
-29.4550141807
 20
30.7122062617
 10
-29.4734548904
 20
30.7148425159
 10
-29.4917471601
 20
30.7167655392
 10
-29.5098771041
 20
30.7179738721
 10
-29.5278309601
 20
30.7184665971
 10
-29.5455950997
 20
30.7182433403
 10
-29.5631560381
 20
30.7173042712
 10
-29.580500445
 20
30.7156501025
 10
-29.5976151543
 20
30.7132820901
 10
-29.6144871746
 20
30.7102020313
 10
-29.6311036983
 20
30.7064122643
 10
-29.647452112
 20
30.7019156659
 10
-29.6635200058
 20
30.6967156493
 10
-29.6792951827
 20
30.6908161618
 10
-29.6947656678
 20
30.6842216818
 10
-29.6971838841
 20
30.6831153286
  0
LINE
  5
47C
100
AcDbEntity
  8
RACCORDO
100
AcDbLine
 62
7
  6
CONTINUOUS
 10
-28.8306915784
 20
30.6696849519
 11
-27.7936599763
 21
30.1511691508
  0
LINE
  5
47D
100
AcDbEntity
  8
RACCORDO
100
AcDbLine
 62
7
  6
CONTINUOUS
 10
-22.7409518643
 20
27.6248150948
 11
-23.3725908896
 21
27.9406346075
  0
LWPOLYLINE
  5
47E
100
AcDbEntity
  8
RACCORDO
100
AcDbPolyline
 62
250
  6
CONTINUOUS
 90
58
 70
0
 10
-21.8741883823
 20
25.0799346928
 10
-21.8601141251
 20
25.0690596522
 10
-21.8170831614
 20
25.0346290183
 10
-21.7742859297
 20
24.9991984893
 10
-21.7317417281
 20
24.9627840392
 10
-21.6894697837
 20
24.9254021226
 10
-21.6474892097
 20
24.8870696417
 10
-21.6058189758
 20
24.8478039196
 10
-21.5644778725
 20
24.807622665
 10
-21.5234845348
 20
24.7665439898
 10
-21.4828574511
 20
24.7245864193
 10
-21.4426149787
 20
24.6817689097
 10
-21.402775307
 20
24.6381108146
 10
-21.3633564343
 20
24.5936318586
 10
-21.32437614
 20
24.5483521054
 10
-21.2858520009
 20
24.5022919726
 10
-21.2478013966
 20
24.4554722378
 10
-21.2102415156
 20
24.4079140492
 10
-21.1731893282
 20
24.3596388946
 10
-21.1366615685
 20
24.3106685779
 10
-21.1006747167
 20
24.2610251943
 10
-21.0652450071
 20
24.2107311389
 10
-21.0303884277
 20
24.1598091065
 10
-20.9961207195
 20
24.1082820921
 10
-20.962457358
 20
24.0561733656
 10
-20.9294135422
 20
24.0035064548
 10
-20.8970041856
 20
23.9503051297
 10
-20.8652439154
 20
23.896593402
 10
-20.8341470683
 20
23.842395517
 10
-20.8037276825
 20
23.7877359415
 10
-20.7739994889
 20
23.7326393478
 10
-20.7449759056
 20
23.6771306042
 10
-20.7166700362
 20
23.6212347714
 10
-20.6890946625
 20
23.5649770897
 10
-20.6622622357
 20
23.5083829622
 10
-20.6361848644
 20
23.4514779292
 10
-20.6108743139
 20
23.3942876641
 10
-20.5863420052
 20
23.3368379717
 10
-20.5625990182
 20
23.2791547972
 10
-20.5396560792
 20
23.2212642003
 10
-20.5175235505
 20
23.1631923296
 10
-20.4962114162
 20
23.1049653842
 10
-20.4757292873
 20
23.046609622
 10
-20.4560864039
 20
22.9881513662
 10
-20.4372916408
 20
22.9296170252
 10
-20.4193534925
 20
22.8710330542
 10
-20.4022800622
 20
22.8124259221
 10
-20.3860790493
 20
22.7538220622
 10
-20.370757757
 20
22.6952478921
 10
-20.3563230962
 20
22.6367298275
 10
-20.342781591
 20
22.5782943103
 10
-20.3301393634
 20
22.5199677602
 10
-20.318402125
 20
22.4617765347
 10
-20.3075751668
 20
22.4037468739
 10
-20.2976633681
 20
22.3459049297
 10
-20.2886712022
 20
22.2882767986
 10
-20.280602732
 20
22.2308885097
 10
-20.2734616007
 20
22.1737659693
  0
LWPOLYLINE
  5
47F
100
AcDbEntity
  8
RACCORDO
100
AcDbPolyline
 62
250
  6
CONTINUOUS
 90
27
 70
0
 10
-22.6905103977
 20
27.123869825
 10
-22.7055408288
 20
27.1485313261
 10
-22.7209794773
 20
27.1728391498
 10
-22.7368132848
 20
27.1967727358
 10
-22.7530288586
 20
27.2203118404
 10
-22.7696124832
 20
27.2434365537
 10
-22.7865501316
 20
27.266127316
 10
-22.8038274775
 20
27.2883649349
 10
-22.8214299073
 20
27.3101306012
 10
-22.8393425322
 20
27.3314059049
 10
-22.8575502014
 20
27.3521728507
 10
-22.8760375142
 20
27.3724138733
 10
-22.8947888336
 20
27.3921118524
 10
-22.9137882991
 20
27.4112501269
 10
-22.9330198406
 20
27.429812509
 10
-22.9524671913
 20
27.4477832981
 10
-22.9721139023
 20
27.4651472941
 10
-22.9919433557
 20
27.4818898101
 10
-23.0119387793
 20
27.4979966846
 10
-23.0320832604
 20
27.5134542941
 10
-23.0523597601
 20
27.5282495642
 10
-23.0727511281
 20
27.5423699804
 10
-23.0932401168
 20
27.5558035995
 10
-23.113809396
 20
27.5685390588
 10
-23.1344415677
 20
27.5805655864
 10
-23.1551191805
 20
27.5918730099
 10
-23.1758247448
 20
27.6024517652
  0
LINE
  5
480
100
AcDbEntity
  8
RACCORDO
100
AcDbLine
 62
250
  6
CONTINUOUS
 10
-22.5689990576
 20
26.9144971062
 11
-22.6905103977
 21
27.123869825
  0
LINE
  5
481
100
AcDbEntity
  8
RACCORDO
100
AcDbLine
 62
7
  6
CONTINUOUS
 10
-22.2161558088
 20
27.0475954636
 11
-22.3230576485
 21
27.2319738633
  0
ARC
  5
482
100
AcDbEntity
  8
RACCORDO
100
AcDbCircle
 62
7
  6
CONTINUOUS
 10
-29.2779051739
 20
29.7752577609
 40
1.0
100
AcDbArc
 50
63.4349488229
 51
114.7894524371
  0
ARC
  5
483
100
AcDbEntity
  8
RACCORDO
100
AcDbCircle
 62
7
  6
CONTINUOUS
 10
-22.8741883823
 20
3.8906759368
 40
1.0
100
AcDbArc
 50
298.3476707551
 51
360.0
  0
ARC
  5
484
100
AcDbEntity
  8
RACCORDO
100
AcDbCircle
 62
7
  6
CONTINUOUS
 10
-23.1881654598
 20
26.7303879038
 40
1.0
100
AcDbArc
 50
30.1049527557
 51
63.4349488229
  0
ARC
  5
485
100
AcDbEntity
  8
RACCORDO
100
AcDbCircle
 62
7
  6
CONTINUOUS
 10
-30.2081085701
 20
-8.763275419
 40
1.0
100
AcDbArc
 50
297.8702635617
 51
305.9325291988
  0
ARC
  5
486
100
AcDbEntity
  8
RACCORDO
100
AcDbCircle
 62
7
  6
CONTINUOUS
 10
-43.419326313
 20
29.9260658151
 40
1.0
100
AcDbArc
 50
63.4349373369
 51
115.2504241015
  0
ARC
  5
487
100
AcDbEntity
  8
268140580
100
AcDbCircle
 62
7
  6
CONTINUOUS
 10
-40.5308779445
 20
-17.9188854357
 40
0.4
100
AcDbArc
 50
292.7706722359
 51
295.7733104952
  0
ARC
  5
488
100
AcDbEntity
  8
268140580
100
AcDbCircle
 62
7
  6
CONTINUOUS
 10
-54.951006379
 20
29.8621007843
 40
0.25
100
AcDbArc
 50
63.4349488229
 51
116.0730493911
  0
ARC
  5
489
100
AcDbEntity
  8
268140580
100
AcDbCircle
 62
7
  6
CONTINUOUS
 10
-57.0723267226
 20
28.8241136801
 40
0.25
100
AcDbArc
 50
116.0730493911
 51
179.9983644966
  0
ARC
  5
48A
100
AcDbEntity
  8
268140580
100
AcDbCircle
 62
7
  6
CONTINUOUS
 10
-57.0723267226
 20
28.4558031515
 40
0.25
100
AcDbArc
 50
180.0
 51
243.4365640263
  0
ARC
  5
48B
100
AcDbEntity
  8
268140580
100
AcDbCircle
 62
7
  6
CONTINUOUS
 10
-55.7288238383
 20
27.7840517094
 40
0.25
100
AcDbArc
 50
243.4323386214
 51
258.2990804918
  0
ARC
  5
48C
100
AcDbEntity
  8
268140580
100
AcDbCircle
 62
7
  6
CONTINUOUS
 10
-53.6075034948
 20
29.1903493422
 40
0.25
100
AcDbArc
 50
0.0000683861
 51
63.4331826614
  0
ARC
  5
48D
100
AcDbEntity
  8
268140580
100
AcDbCircle
 62
7
  6
CONTINUOUS
 10
-53.6075034948
 20
28.8447118812
 40
0.25
100
AcDbArc
 50
320.360686548
 51
360.0
  0
ARC
  5
48E
100
AcDbEntity
  8
268140580
100
AcDbCircle
 62
7
  6
CONTINUOUS
 10
-41.5866882146
 20
23.1799417021
 40
0.25
100
AcDbArc
 50
63.4349488229
 51
116.0730493911
  0
ARC
  5
48F
100
AcDbEntity
  8
268140580
100
AcDbCircle
 62
7
  6
CONTINUOUS
 10
-43.7080085581
 20
22.1419545979
 40
0.25
100
AcDbArc
 50
116.0730493911
 51
179.9983644966
  0
ARC
  5
490
100
AcDbEntity
  8
268140580
100
AcDbCircle
 62
7
  6
CONTINUOUS
 10
-43.7080085581
 20
21.7736440693
 40
0.25
100
AcDbArc
 50
180.0
 51
243.4365640263
  0
ARC
  5
491
100
AcDbEntity
  8
268140580
100
AcDbCircle
 62
7
  6
CONTINUOUS
 10
-42.3645056739
 20
21.1018926272
 40
0.25
100
AcDbArc
 50
243.4323386214
 51
258.2990804918
  0
ARC
  5
492
100
AcDbEntity
  8
268140580
100
AcDbCircle
 62
7
  6
CONTINUOUS
 10
-40.2431853303
 20
22.50819026
 40
0.25
100
AcDbArc
 50
0.0000683861
 51
63.4331826614
  0
ARC
  5
493
100
AcDbEntity
  8
268140580
100
AcDbCircle
 62
7
  6
CONTINUOUS
 10
-40.2431853303
 20
22.162552799
 40
0.25
100
AcDbArc
 50
320.360686548
 51
360.0
  0
ARC
  5
494
100
AcDbEntity
  8
268140580
100
AcDbCircle
 62
7
  6
CONTINUOUS
 10
-43.7080085581
 20
-19.8942705986
 40
0.25
100
AcDbArc
 50
179.999777014
 51
243.4334855434
  0
ARC
  5
495
100
AcDbEntity
  8
268140580
100
AcDbCircle
 62
7
  6
CONTINUOUS
 10
-40.2431853303
 20
-19.1370513404
 40
0.25
100
AcDbArc
 50
359.9972787629
 51
63.444674315
  0
ARC
  5
496
100
AcDbEntity
  8
268140580
100
AcDbCircle
 62
7
  6
CONTINUOUS
 10
-40.2431853303
 20
-19.4826888014
 40
0.25
100
AcDbArc
 50
297.051035757
 51
360.0
  0
ARC
  5
497
100
AcDbEntity
  8
268140580
100
AcDbCircle
 62
7
  6
CONTINUOUS
 10
-42.3645056739
 20
-20.5660220407
 40
0.25
100
AcDbArc
 50
243.433722507
 51
297.0528641899
  0
ELLIPSE
  5
498
100
AcDbEntity
  8
RACCORDO
100
AcDbEllipse
 62
7
  6
CONTINUOUS
 10
-43.2484106928
 20
-0.6032278052
 30
0.0
 11
-0.0894323102
 21
0.1788913307
 31
0.0
 40
0.6125552124
 41
-2.255296188
 42
-0.6848044477
  0
ELLIPSE
  5
499
100
AcDbEntity
  8
RACCORDO
100
AcDbEllipse
 62
7
  6
CONTINUOUS
 10
-44.0361345416
 20
-19.2640730493
 30
0.0
 11
-0.2234618187
 21
0.4480306886
 31
0.0
 40
0.6116748051
 41
-3.1815309152
 42
-2.2548620396
  0
ELLIPSE
  5
49A
100
AcDbEntity
  8
RACCORDO
100
AcDbEllipse
 62
7
  6
CONTINUOUS
 10
-59.0069424389
 20
25.7190423967
 30
0.0
 11
-0.2234618187
 21
0.4480306886
 31
0.0
 40
0.6116748051
 41
-0.6831523243
 42
0.0399382621
  0
ELLIPSE
  5
49B
100
AcDbEntity
  8
RACCORDO
100
AcDbEllipse
 62
7
  6
CONTINUOUS
 10
-43.2484106928
 20
-0.083559795
 30
0.0
 11
-0.0894803643
 21
0.1789340454
 31
0.0
 40
0.6121897086
 41
-3.1606090032
 42
-2.2557347926
  0
ELLIPSE
  5
49C
100
AcDbEntity
  8
RACCORDO
100
AcDbEllipse
 62
7
  6
CONTINUOUS
 10
-44.0361345416
 20
18.233638448
 30
0.0
 11
-0.2230998035
 21
0.4477110033
 31
0.0
 40
0.6127700112
 41
-2.2535417632
 42
-0.6836588249
  0
ELLIPSE
  5
49D
100
AcDbEntity
  8
268140580
100
AcDbEllipse
 62
7
  6
CONTINUOUS
 10
-45.9048497609
 20
29.2382464683
 30
0.0
 11
0.2256808774
 21
0.4461742732
 31
0.0
 40
0.6158912572
 41
0.0028576383
 42
0.678850188
  0
ELLIPSE
  5
49E
100
AcDbEntity
  8
268140580
100
AcDbEllipse
 62
7
  6
CONTINUOUS
 10
-35.301268994
 20
-12.9504133539
 30
0.0
 11
0.9927147821
 21
0.620457446
 31
0.0
 40
0.0764819879
 41
-2.4101692607
 42
-0.8393729339
  0
ELLIPSE
  5
49F
100
AcDbEntity
  8
268140580
100
AcDbEllipse
 62
7
  6
CONTINUOUS
 10
-46.8114472634
 20
29.8705630628
 30
0.0
 11
1.004787277
 21
0.6140102217
 31
0.0
 40
0.0864918533
 41
0.0540071275
 42
0.7387263463
  0
ELLIPSE
  5
4A0
100
AcDbEntity
  8
268140580
100
AcDbEllipse
 62
7
  6
CONTINUOUS
 10
-39.8189643465
 20
-17.5751419506
 30
0.0
 11
-0.178948659
 21
0.3577665147
 31
0.0
 40
0.6123910759
 41
-3.1501448428
 42
-2.2556797026
  0
ELLIPSE
  5
4A1
100
AcDbEntity
  8
268140580
100
AcDbEllipse
 62
7
  6
CONTINUOUS
 10
-39.8189643465
 20
20.5299758159
 30
0.0
 11
-0.178948659
 21
0.3577665147
 31
0.0
 40
0.6123910759
 41
-2.2556797026
 42
-0.6848833758
  0
ELLIPSE
  5
4A2
100
AcDbEntity
  8
268140580
100
AcDbEllipse
 62
7
  6
CONTINUOUS
 10
-35.301268994
 20
24.1154739281
 30
0.0
 11
-0.7356038977
 21
1.2035991204
 31
0.0
 40
0.5552491559
 41
4.67069225
 42
6.2414885768
  0
ELLIPSE
  5
4A3
100
AcDbEntity
  8
268140580
100
AcDbEllipse
 62
7
  6
CONTINUOUS
 10
-51.5243858531
 20
26.7447411505
 30
0.0
 11
0.2999981629
 21
-0.0021225547
 31
0.0
 40
0.4946372042
 41
2.3539345592
 42
3.9304904725
  0
ELLIPSE
  5
4A4
100
AcDbEntity
  8
268140580
100
AcDbEllipse
 62
7
  6
CONTINUOUS
 10
-42.7099101705
 20
-10.4727469252
 30
0.0
 11
-0.1341541638
 21
0.268382513
 31
0.0
 40
0.6122954976
 41
-0.6845448057
 42
0.0132925713
  0
ELLIPSE
  5
4A5
100
AcDbEntity
  8
268140580
100
AcDbEllipse
 62
7
  6
CONTINUOUS
 10
-41.6175877864
 20
-18.3750420867
 30
0.0
 11
-0.1787694549
 21
0.3584245509
 31
0.0
 40
0.6116748051
 41
2.4584403293
 42
4.0283232676
  0
ELLIPSE
  5
4A6
100
AcDbEntity
  8
268140580
100
AcDbEllipse
 62
7
  6
CONTINUOUS
 10
-45.0124741842
 20
22.5965322829
 30
0.0
 11
0.0886237691
 21
0.1792940454
 31
0.0
 40
0.6088373611
 41
0.6819330809
 42
0.7342929585
  0
ELLIPSE
  5
4A7
100
AcDbEntity
  8
268140580
100
AcDbEllipse
 62
7
  6
CONTINUOUS
 10
-39.7434004024
 20
26.1575217891
 30
0.0
 11
0.2215594226
 21
0.4482351134
 31
0.0
 40
0.6088373611
 41
5.3943220613
 42
6.9563917418
  0
ELLIPSE
  5
4A8
100
AcDbEntity
  8
268140580
100
AcDbEllipse
 62
7
  6
CONTINUOUS
 10
-41.6573988927
 20
20.1478799076
 30
0.0
 11
0.249929385
 21
0.0111824824
 31
0.0
 40
0.5313301283
 41
-2.3799630874
 42
-0.8091667606
  0
ELLIPSE
  5
4A9
100
AcDbEntity
  8
268140580
100
AcDbEllipse
 62
7
  6
CONTINUOUS
 10
-42.7099101705
 20
8.579811958
 30
0.0
 11
-0.1341541638
 21
0.268382513
 31
0.0
 40
0.6122954976
 41
-0.6845448057
 42
0.0132925713
  0
ELLIPSE
  5
4AA
100
AcDbEntity
  8
268140580
100
AcDbEllipse
 62
7
  6
CONTINUOUS
 10
-43.000901777
 20
20.8196313497
 30
0.0
 11
0.249929385
 21
0.0111824824
 31
0.0
 40
0.5313301283
 41
3.1178240563
 42
3.9032222197
  0
ELLIPSE
  5
4AB
100
AcDbEntity
  8
268140580
100
AcDbEllipse
 62
7
  6
CONTINUOUS
 10
-55.0217170571
 20
26.8300389898
 30
0.0
 11
0.249929385
 21
0.0111824824
 31
0.0
 40
0.5313301283
 41
-2.3799630874
 42
-0.8091667606
  0
ELLIPSE
  5
4AC
100
AcDbEntity
  8
268140580
100
AcDbEllipse
 62
7
  6
CONTINUOUS
 10
-56.7585844383
 20
27.1634638119
 30
0.0
 11
-0.1787694549
 21
0.3584245509
 31
0.0
 40
0.6116748051
 41
-0.6831523243
 42
0.886730614
  0
ELLIPSE
  5
4AD
100
AcDbEntity
  8
268140580
100
AcDbEllipse
 62
7
  6
CONTINUOUS
 10
-41.6175877864
 20
19.592965486
 30
0.0
 11
-0.1784798428
 21
0.3581688027
 31
0.0
 40
0.6127700112
 41
-2.2535417632
 42
-0.6836588249
  0
ELLIPSE
  5
4AE
100
AcDbEntity
  8
268140580
100
AcDbEllipse
 62
7
  6
CONTINUOUS
 10
-56.3652199414
 20
27.501790432
 30
0.0
 11
0.249929385
 21
0.0111824824
 31
0.0
 40
0.5313301283
 41
3.1178240563
 42
3.9032222197
  0
ELLIPSE
  5
4AF
100
AcDbEntity
  8
268140580
100
AcDbEllipse
 62
7
  6
CONTINUOUS
 10
-45.7204155217
 20
22.5932595093
 30
0.0
 11
0.2999152621
 21
0.0134189789
 31
0.0
 40
0.5313301283
 41
-2.3799630874
 42
-0.8034071741
  0
ELLIPSE
  5
4B0
100
AcDbEntity
  8
268140580
100
AcDbEllipse
 62
7
  6
CONTINUOUS
 10
-45.7204155217
 20
23.8427559848
 30
0.0
 11
0.2999981629
 21
-0.0021225547
 31
0.0
 40
0.4946372042
 41
-2.3526948347
 42
-0.7761389213
  0
ELLIPSE
  5
4B1
100
AcDbEntity
  8
268140580
100
AcDbEllipse
 62
7
  6
CONTINUOUS
 10
-51.5243858531
 20
25.495244675
 30
0.0
 11
0.2999152621
 21
0.0134189789
 31
0.0
 40
0.5313301283
 41
3.1178240578
 42
3.9032222197
  0
ELLIPSE
  5
4B2
100
AcDbEntity
  8
268140580
100
AcDbEllipse
 62
7
  6
CONTINUOUS
 10
-42.3415252433
 20
13.3059070262
 30
0.0
 11
-0.1342205464
 21
0.2684010681
 31
0.0
 40
0.6121897086
 41
-3.160608991
 42
-2.2557347926
  0
ELLIPSE
  5
4B3
100
AcDbEntity
  8
268140580
100
AcDbEllipse
 62
7
  6
CONTINUOUS
 10
-42.3415252433
 20
8.3956194944
 30
0.0
 11
-0.1341484654
 21
0.2683369961
 31
0.0
 40
0.6125552124
 41
-2.255296188
 42
-0.6848044477
  0
ELLIPSE
  5
4B4
100
AcDbEntity
  8
268140580
100
AcDbEllipse
 62
7
  6
CONTINUOUS
 10
-43.0609746192
 20
3.0143493191
 30
0.0
 11
-0.1342205464
 21
0.2684010681
 31
0.0
 40
0.6121897086
 41
-3.1606089912
 42
-2.2557347926
  0
ELLIPSE
  5
4B5
100
AcDbEntity
  8
268140580
100
AcDbEllipse
 62
7
  6
CONTINUOUS
 10
-43.0609746192
 20
-1.0601458682
 30
0.0
 11
-0.1341484654
 21
0.2683369961
 31
0.0
 40
0.6125552124
 41
-2.255296188
 42
-0.6848044477
  0
ELLIPSE
  5
4B6
100
AcDbEntity
  8
268140580
100
AcDbEllipse
 62
7
  6
CONTINUOUS
 10
-42.3415252433
 20
-5.7466518571
 30
0.0
 11
-0.1342205464
 21
0.2684010681
 31
0.0
 40
0.6121897086
 41
-3.160608991
 42
-2.2557347926
  0
ELLIPSE
  5
4B7
100
AcDbEntity
  8
268140580
100
AcDbEllipse
 62
7
  6
CONTINUOUS
 10
-42.3415252433
 20
-10.6569393888
 30
0.0
 11
-0.1341484654
 21
0.2683369961
 31
0.0
 40
0.6125552124
 41
-2.255296188
 42
-0.6848044477
  0
ELLIPSE
  5
4B8
100
AcDbEntity
  8
DRAFT
100
AcDbEllipse
 62
7
  6
CONTINUOUS
 10
-28.8941214923
 20
26.0484120532
 30
0.0
 11
2.7499831596
 21
-0.0194567514
 31
0.0
 40
0.4946372042
 41
0.4291636923
 42
2.3596941457
  0
ELLIPSE
  5
4B9
100
AcDbEntity
  8
DRAFT
100
AcDbEllipse
 62
7
  6
CONTINUOUS
 10
-29.5658729344
 20
26.1468166854
 30
0.0
 11
2.7499831596
 21
-0.0194567514
 31
0.0
 40
0.4946372042
 41
2.3596941457
 42
2.9254696648
  0
ELLIPSE
  5
4BA
100
AcDbEntity
  8
RACCORDO
100
AcDbEllipse
 62
7
  6
CONTINUOUS
 10
-24.1404902801
 20
27.2065503139
 30
0.0
 11
0.7964780511
 21
0.7125399777
 31
0.0
 40
0.2888664458
 41
0.1139832129
 42
0.7812491238
  0
ELLIPSE
  5
4BB
100
AcDbEntity
  8
RACCORDO
100
AcDbEllipse
 62
7
  6
CONTINUOUS
 10
-27.9201877769
 20
29.0963990623
 30
0.0
 11
-0.309899001
 21
1.1085475855
 31
0.0
 40
0.6753891016
 41
4.9647984111
 42
6.4012160802
  0
ELLIPSE
  5
4BC
100
AcDbEntity
  8
0
100
AcDbEllipse
 62
7
  6
CONTINUOUS
 10
-28.8941214923
 20
26.4755126017
 30
0.0
 11
2.7499831596
 21
-0.0194567514
 31
0.0
 40
0.4946372042
 41
0.1760698615
 42
2.3596941457
  0
ELLIPSE
  5
4BD
100
AcDbEntity
  8
RACCORDO
100
AcDbEllipse
 62
7
  6
CONTINUOUS
 10
-47.1887570371
 20
25.5028337971
 30
0.0
 11
1.2141619185
 21
0.9541526469
 31
0.0
 40
0.2329077568
 41
0.1095198182
 42
0.114024621
  0
ENDSEC
  0
SECTION
  2
OBJECTS
  0
DICTIONARY
  5
C
100
AcDbDictionary
280
0
281
1
  3
ACAD_GROUP
350
D
  3
ACAD_MLINESTYLE
350
17
  3
ACAD_LAYOUT
350
1A
  3
ACAD_PLOTSETTINGS
350
19
  3
ACAD_PLOTSTYLENAME
350
E
  0
DICTIONARY
  5
D
102
{ACAD_REACTORS
330
C
102
}
100
AcDbDictionary
280
0
281
1
  0
ACDBDICTIONARYWDFLT
  5
E
102
{ACAD_REACTORS
330
C
102
}
100
AcDbDictionary
281
1
  3
Normal
350
F
100
AcDbDictionaryWithDefault
340
F
  0
DICTIONARY
  5
17
102
{ACAD_REACTORS
330
C
102
}
100
AcDbDictionary
280
0
281
1
  3
Standard
350
18
  0
DICTIONARY
  5
19
102
{ACAD_REACTORS
330
C
102
}
100
AcDbDictionary
281
1
  0
DICTIONARY
  5
1A
102
{ACAD_REACTORS
330
C
102
}
100
AcDbDictionary
281
1
  3
Model
350
4BE
  3
Layout1
350
4BF
  0
ACDBPLACEHOLDER
  5
F
102
{ACAD_REACTORS
330
E
102
}
  0
MLINESTYLE
  5
18
102
{ACAD_REACTORS
330
17
102
}
100
AcDbMlineStyle
  2
STANDARD
 70
0
  3

 62
256
 51
90.0
 52
90.0
 71
2
 49
0.5
 62
256
  6
BYLAYER
 49
-0.5
 62
256
  6
BYLAYER
  0
LAYOUT
  5
4BE
102
{ACAD_REACTORS
330
1A
102
}
100
AcDbPlotSettings
  1

  2
none_device
  4
ISO_A4_(297.00_x_210.00_MM)
  6

 40
0.0
 41
0.0
 42
0.0
 43
0.0
 44
297.0
 45
210.0
 46
0.0
 47
0.0
 48
0.0
 49
0.0
140
0.0
141
0.0
142
1.0
143
1.0
 70
1024
 72
1
 73
0
 74
0
  7

 75
0
147
1.0
148
0.0
149
0.0
100
AcDbLayout
  1
Model
 70
0
 71
0
 10
0.0
 20
0.0
 11
297.0
 21
210.0
 12
0.0
 22
0.0
 32
0.0
 14
0.0
 24
0.0
 34
0.0
 15
0.0
 25
0.0
 35
0.0
146
0.0
 13
0.0
 23
0.0
 33
0.0
 16
1.0
 26
0.0
 36
0.0
 17
0.0
 27
1.0
 37
0.0
 76
0
330
221
345
0
346
0
  0
LAYOUT
  5
4BF
102
{ACAD_REACTORS
330
1A
102
}
100
AcDbPlotSettings
  1

  2
none_device
  4
ISO_A4_(297.00_x_210.00_MM)
  6

 40
0.0
 41
0.0
 42
0.0
 43
0.0
 44
297.0
 45
210.0
 46
0.0
 47
0.0
 48
0.0
 49
0.0
140
0.0
141
0.0
142
1.0
143
1.0
 70
0
 72
1
 73
0
 74
0
  7

 75
0
147
1.0
148
0.0
149
0.0
100
AcDbLayout
  1
Layout1
 70
0
 71
1
 10
0.0
 20
0.0
 11
297.0
 21
210.0
 12
0.0
 22
0.0
 32
0.0
 14
0.0
 24
0.0
 34
0.0
 15
0.0
 25
0.0
 35
0.0
146
0.0
 13
0.0
 23
0.0
 33
0.0
 16
1.0
 26
0.0
 36
0.0
 17
0.0
 27
1.0
 37
0.0
 76
0
330
222
345
0
346
0
  0
ENDSEC
  0
EOF
