  0
SECTION
  2
HEADER
  9
$ACADVER
  1
AC1024
  9
$DWGCODEPAGE
  3
ANSI_1252
  9
$EXTMAX
 10
297.0
 20
210.0
 30
0.0
  9
$EXTMIN
 10
0.0
 20
0.0
 30
0.0
  9
$LIMMIN
 10
0.0
 20
0.0
  9
$LIMMAX
 10
297.0
 20
210.0
  9
$VIEWCTR
 10
148.5
 20
105.0
  9
$VIEWSIZE
 40
210.0
  9
$CLAYER
  8
0
  9
$LTSCALE
 40
16.335
  9
$CELTYPE
  6
BYLAYER
  9
$DIMSCALE
 40
1.0
  9
$DIMASZ
 40
3.0
  9
$DIMEXO
 40
0.5
  9
$DIMDLI
 40
11.286
  9
$DIMEXE
 40
1.5
  9
$DIMCEN
 40
2.673
  9
$DIMLFAC
 40
1.0
  9
$DIMBLK
  1
_FILLED
  9
$DIMALT
 70
0
  9
$DIMALTF
 40
0.0393700787
  9
$DIMTXT
 40
3.0
  9
$DIMTOL
 70
1
  9
$DIMLIM
 70
0
  9
$DIMTFAC
 40
1.0
  9
$DIMTP
 40
0.01
  9
$DIMTM
 40
0.01
  9
$DIMGAP
 40
0.625
  9
$DIMDSEP
 70
44
  9
$AUNITS
 70
0
  9
$PDMODE
 70
3
  9
$PDSIZE
 40
3.0
  9
$HANDSEED
  5
4A1
  9
$TILEMODE
 70
1
  9
$MEASUREMENT
 70
1
  9
$INSUNITS
 70
4
  0
ENDSEC
  0
SECTION
  2
CLASSES
  0
CLASS
  1
ACDBDICTIONARYWDFLT
  2
AcDbDictionaryWithDefault
  3
AutoCAD 2000
 90
0
 91
1
280
0
281
0
  0
CLASS
  1
ACDBPLACEHOLDER
  2
AcDbPlaceHolder
  3
AutoCAD 2000
 90
0
 91
1
280
0
281
0
  0
CLASS
  1
LAYOUT
  2
AcDbLayout
  3
AutoCAD 2000
 90
0
 91
0
280
0
281
0
  0
ENDSEC
  0
SECTION
  2
TABLES
  0
TABLE
  2
VPORT
  5
8
100
AcDbSymbolTable
 70
2
  0
VPORT
  5
1F4
100
AcDbSymbolTableRecord
100
AcDbViewportTableRecord
  2
*ACTIVE
 70
0
 10
0.0
 20
0.0
 11
1.0
 21
1.0
 12
148.5
 22
105.0
 13
0.0
 23
0.0
 14
1.0
 24
1.0
 15
0.0
 25
0.0
 16
0.0
 26
0.0
 36
1.0
 17
0.0
 27
0.0
 37
0.0
 40
210.0
 41
1.4142857143
 42
50.0
 43
0.0
 44
0.0
 50
0.0
 51
0.0
 71
0
 72
100
 73
1
 74
1
 75
0
 76
0
 77
0
 78
0
  0
ENDTAB
  0
TABLE
  2
LTYPE
  5
5
100
AcDbSymbolTable
 70
6
  0
LTYPE
  5
14
100
AcDbSymbolTableRecord
100
AcDbLinetypeTableRecord
  2
BYBLOCK
 70
0
  3

 72
65
 73
0
 40
0.0
  0
LTYPE
  5
15
100
AcDbSymbolTableRecord
100
AcDbLinetypeTableRecord
  2
BYLAYER
 70
0
  3

 72
65
 73
0
 40
0.0
  0
LTYPE
  5
16
100
AcDbSymbolTableRecord
100
AcDbLinetypeTableRecord
  2
CONTINUOUS
 70
64
  3
Solid line
 72
65
 73
0
 40
0.0
  0
LTYPE
  5
1F5
100
AcDbSymbolTableRecord
100
AcDbLinetypeTableRecord
  2
CENTER
 70
64
  3
____ _ ____ _ ____ _ ____ _ ____ _ ____ _ ____
 72
65
 73
4
 40
0.6
 49
0.375
 74
0
 49
-0.075
 74
0
 49
0.075
 74
0
 49
-0.075
 74
0
  0
LTYPE
  5
1F6
100
AcDbSymbolTableRecord
100
AcDbLinetypeTableRecord
  2
HIDDEN
 70
64
  3
- - - - - - - - - - - - - - - - - - - -
 72
65
 73
2
 40
0.2
 49
0.1
 74
0
 49
-0.1
 74
0
  0
LTYPE
  5
1F7
100
AcDbSymbolTableRecord
100
AcDbLinetypeTableRecord
  2
PHANTOM
 70
64
  3
_____ _ _ _____ _ _ _____ _ _ _____
 72
65
 73
6
 40
0.8
 49
0.45
 74
0
 49
-0.05
 74
0
 49
0.1
 74
0
 49
-0.05
 74
0
 49
0.1
 74
0
 49
-0.05
 74
0
  0
LTYPE
  5
1F8
100
AcDbSymbolTableRecord
100
AcDbLinetypeTableRecord
  2
DOT
 70
64
  3
. . . . . . . . . . . . . . . . . . . .
 72
65
 73
2
 40
0.2
 49
0.1
 74
0
 49
-0.1
 74
0
  0
LTYPE
  5
1F9
100
AcDbSymbolTableRecord
100
AcDbLinetypeTableRecord
  2
DASHED
 70
64
  3
- - - - - - - - - - - - - - - - - - - -
 72
65
 73
2
 40
0.2
 49
0.1
 74
0
 49
-0.1
 74
0
  0
ENDTAB
  0
TABLE
  2
LAYER
  5
2
100
AcDbSymbolTable
 70
36
  0
LAYER
  5
10
100
AcDbSymbolTableRecord
100
AcDbLayerTableRecord
  2
0
 70
0
 62
7
  6
CONTINUOUS
370
-3
390
F
  0
LAYER
  5
1FA
100
AcDbSymbolTableRecord
100
AcDbLayerTableRecord
  2
DEFAULT_1
 70
0
 62
7
  6
CENTER
370
-3
390
F
  0
LAYER
  5
1FB
100
AcDbSymbolTableRecord
100
AcDbLayerTableRecord
  2
DEFAULT_2
 70
0
 62
7
  6
HIDDEN
370
-3
390
F
  0
LAYER
  5
1FC
100
AcDbSymbolTableRecord
100
AcDbLayerTableRecord
  2
DEFAULT_3
 70
0
 62
7
  6
PHANTOM
370
-3
390
F
  0
LAYER
  5
1FD
100
AcDbSymbolTableRecord
100
AcDbLayerTableRecord
  2
218140580
 70
0
 62
7
  6
CONTINUOUS
370
-3
390
F
  0
LAYER
  5
1FE
100
AcDbSymbolTableRecord
100
AcDbLayerTableRecord
  2
268140580
 70
0
 62
7
  6
CONTINUOUS
370
-3
390
F
  0
LAYER
  5
1FF
100
AcDbSymbolTableRecord
100
AcDbLayerTableRecord
  2
ASSI
 70
0
 62
7
  6
CONTINUOUS
370
-3
390
F
  0
LAYER
  5
200
100
AcDbSymbolTableRecord
100
AcDbLayerTableRecord
  2
COLORE_TOP
 70
0
 62
7
  6
CONTINUOUS
370
-3
390
F
  0
LAYER
  5
201
100
AcDbSymbolTableRecord
100
AcDbLayerTableRecord
  2
COORDINATE
 70
0
 62
7
  6
CONTINUOUS
370
-3
390
F
  0
LAYER
  5
202
100
AcDbSymbolTableRecord
100
AcDbLayerTableRecord
  2
COORD_ORIGINE
 70
0
 62
7
  6
CONTINUOUS
370
-3
390
F
  0
LAYER
  5
203
100
AcDbSymbolTableRecord
100
AcDbLayerTableRecord
  2
COPY-PUBBLISH
 70
0
 62
7
  6
CONTINUOUS
370
-3
390
F
  0
LAYER
  5
204
100
AcDbSymbolTableRecord
100
AcDbLayerTableRecord
  2
COSMETICHE
 70
0
 62
7
  6
CONTINUOUS
370
-3
390
F
  0
LAYER
  5
205
100
AcDbSymbolTableRecord
100
AcDbLayerTableRecord
  2
CURVA_CENTRALE
 70
0
 62
7
  6
CONTINUOUS
370
-3
390
F
  0
LAYER
  5
206
100
AcDbSymbolTableRecord
100
AcDbLayerTableRecord
  2
CURVE
 70
0
 62
7
  6
CONTINUOUS
370
-3
390
F
  0
LAYER
  5
207
100
AcDbSymbolTableRecord
100
AcDbLayerTableRecord
  2
DRAFT
 70
0
 62
7
  6
CONTINUOUS
370
-3
390
F
  0
LAYER
  5
208
100
AcDbSymbolTableRecord
100
AcDbLayerTableRecord
  2
IMPORTED
 70
0
 62
7
  6
CONTINUOUS
370
-3
390
F
  0
LAYER
  5
209
100
AcDbSymbolTableRecord
100
AcDbLayerTableRecord
  2
INCISIONI
 70
0
 62
7
  6
CONTINUOUS
370
-3
390
F
  0
LAYER
  5
20A
100
AcDbSymbolTableRecord
100
AcDbLayerTableRecord
  2
INTF_1
 70
0
 62
7
  6
CONTINUOUS
370
-3
390
F
  0
LAYER
  5
20B
100
AcDbSymbolTableRecord
100
AcDbLayerTableRecord
  2
INTF_11
 70
0
 62
7
  6
CONTINUOUS
370
-3
390
F
  0
LAYER
  5
20C
100
AcDbSymbolTableRecord
100
AcDbLayerTableRecord
  2
INTF_12
 70
0
 62
7
  6
CONTINUOUS
370
-3
390
F
  0
LAYER
  5
20D
100
AcDbSymbolTableRecord
100
AcDbLayerTableRecord
  2
INTF_2
 70
0
 62
7
  6
CONTINUOUS
370
-3
390
F
  0
LAYER
  5
20E
100
AcDbSymbolTableRecord
100
AcDbLayerTableRecord
  2
NOTE
 70
0
 62
7
  6
CONTINUOUS
370
-3
390
F
  0
LAYER
  5
20F
100
AcDbSymbolTableRecord
100
AcDbLayerTableRecord
  2
PIANI
 70
0
 62
7
  6
CONTINUOUS
370
-3
390
F
  0
LAYER
  5
210
100
AcDbSymbolTableRecord
100
AcDbLayerTableRecord
  2
PIANI_CONTATTI
 70
0
 62
7
  6
CONTINUOUS
370
-3
390
F
  0
LAYER
  5
211
100
AcDbSymbolTableRecord
100
AcDbLayerTableRecord
  2
PIANI_ORIGINE
 70
0
 62
7
  6
CONTINUOUS
370
-3
390
F
  0
LAYER
  5
212
100
AcDbSymbolTableRecord
100
AcDbLayerTableRecord
  2
PIANI_RIFERIMENTO
 70
0
 62
7
  6
CONTINUOUS
370
-3
390
F
  0
LAYER
  5
213
100
AcDbSymbolTableRecord
100
AcDbLayerTableRecord
  2
PUNTI
 70
0
 62
7
  6
CONTINUOUS
370
-3
390
F
  0
LAYER
  5
214
100
AcDbSymbolTableRecord
100
AcDbLayerTableRecord
  2
RACCORDO
 70
0
 62
7
  6
CONTINUOUS
370
-3
390
F
  0
LAYER
  5
215
100
AcDbSymbolTableRecord
100
AcDbLayerTableRecord
  2
RGB__255__255__255__
 70
0
 62
7
  6
CONTINUOUS
370
-3
390
F
  0
LAYER
  5
216
100
AcDbSymbolTableRecord
100
AcDbLayerTableRecord
  2
SMUSSO
 70
0
 62
7
  6
CONTINUOUS
370
-3
390
F
  0
LAYER
  5
217
100
AcDbSymbolTableRecord
100
AcDbLayerTableRecord
  2
SUPERFICI
 70
0
 62
7
  6
CONTINUOUS
370
-3
390
F
  0
LAYER
  5
218
100
AcDbSymbolTableRecord
100
AcDbLayerTableRecord
  2
TRACCIABILITA
 70
0
 62
7
  6
CONTINUOUS
370
-3
390
F
  0
LAYER
  5
219
100
AcDbSymbolTableRecord
100
AcDbLayerTableRecord
  2
TRASH
 70
0
 62
7
  6
CONTINUOUS
370
-3
390
F
  0
LAYER
  5
21A
100
AcDbSymbolTableRecord
100
AcDbLayerTableRecord
  2
XSEC_DATUMS
 70
0
 62
7
  6
CONTINUOUS
370
-3
390
F
  0
ENDTAB
  0
TABLE
  2
STYLE
  5
3
100
AcDbSymbolTable
 70
1
  0
STYLE
  5
11
100
AcDbSymbolTableRecord
100
AcDbTextStyleTableRecord
  2
STANDARD
 70
0
 40
0.0
 41
0.8
 50
0.0
 71
0
 42
0.2
  3
txt
  4

  0
STYLE
  5
21B
100
AcDbSymbolTableRecord
100
AcDbTextStyleTableRecord
  2
TEXTSTYLE_1
 70
0
 40
0.0
 41
0.8
 50
0.0
 71
0
 42
0.2
  3
gdt
  4

  0
ENDTAB
  0
TABLE
  2
VIEW
  5
6
100
AcDbSymbolTable
 70
0
  0
ENDTAB
  0
TABLE
  2
UCS
  5
7
100
AcDbSymbolTable
 70
0
  0
ENDTAB
  0
TABLE
  2
APPID
  5
9
100
AcDbSymbolTable
 70
1
  0
APPID
  5
21C
100
AcDbSymbolTableRecord
100
AcDbRegAppTableRecord
  2
ACAD
 70
0
  0
ENDTAB
  0
TABLE
  2
BLOCK_RECORD
  5
1
100
AcDbSymbolTable
 70
0
  0
BLOCK_RECORD
  5
21D
100
AcDbSymbolTableRecord
100
AcDbBlockTableRecord
  2
*Model_Space
  0
BLOCK_RECORD
  5
21E
100
AcDbSymbolTableRecord
100
AcDbBlockTableRecord
  2
*Paper_Space
  0
BLOCK_RECORD
  5
21F
100
AcDbSymbolTableRecord
100
AcDbBlockTableRecord
  2
_FILLED
  0
ENDTAB
  0
TABLE
  2
DIMSTYLE
  5
A
100
AcDbSymbolTable
 70
1
100
AcDbDimStyleTable
 71
0
  0
DIMSTYLE
105
220
100
AcDbSymbolTableRecord
100
AcDbDimStyleTableRecord
  2
STANDARD
 70
0
  3

  4

 40
1.0
 41
3.0
 42
0.5
 43
0.38
 44
1.5
 45
0.0
 46
0.0
 47
0.01
 48
0.01
140
3.0
141
0.09
142
0.0
143
25.4
144
1.0
145
0.0
146
1.0
147
0.625
 71
1
 72
0
 73
0
 74
0
 75
0
 76
0
 77
1
 78
8
 79
2
170
0
171
1
172
0
173
0
174
0
175
0
176
0
177
0
178
0
270
2
179
2
271
2
272
2
273
2
274
2
275
0
280
0
281
0
282
0
283
1
284
8
285
0
286
0
287
3
288
0
340
11
278
44
341
21F
342
21F
343
21F
344
21F
  0
ENDTAB
  0
ENDSEC
  0
SECTION
  2
BLOCKS
  0
BLOCK
  5
20
100
AcDbEntity
  8
0
100
AcDbBlockBegin
  2
*Model_Space
 70
0
 10
0.0
 20
0.0
 30
0.0
  3
*Model_Space
  1

  0
ENDBLK
  5
21
100
AcDbEntity
  8
0
100
AcDbBlockEnd
  0
BLOCK
  5
1C
100
AcDbEntity
  8
0
100
AcDbBlockBegin
  2
*Paper_Space
 70
0
 10
0.0
 20
0.0
 30
0.0
  3
*Paper_Space
  1

  0
ENDBLK
  5
1D
100
AcDbEntity
  8
0
100
AcDbBlockEnd
  0
BLOCK
  5
221
100
AcDbEntity
  8
0
100
AcDbBlockBegin
  2
_FILLED
 70
64
 10
0.0
 20
0.0
  3
_FILLED
  1

  0
SOLID
  5
222
100
AcDbEntity
  8
0
  6
BYBLOCK
 62
0
100
AcDbTrace
 10
0.0
 20
0.0
 11
-1.0
 21
0.1333333333
 12
-1.0
 22
-0.1333333333
 13
-1.0
 23
-0.1333333333
  0
ENDBLK
  5
223
100
AcDbEntity
  8
0
  6
BYBLOCK
 62
0
100
AcDbBlockEnd
  0
ENDSEC
  0
SECTION
  2
ENTITIES
  0
LWPOLYLINE
  5
224
100
AcDbEntity
  8
RACCORDO
100
AcDbPolyline
 62
250
  6
CONTINUOUS
 90
22
 70
0
 10
-19.5960104862
 20
19.8724038739
 10
-19.6694787419
 20
19.8268063471
 10
-19.7423139966
 20
19.7751605188
 10
-19.8141517267
 20
19.7177213817
 10
-19.8846247394
 20
19.6547741891
 10
-19.9533886683
 20
19.586628609
 10
-20.0201226612
 20
19.5136143659
 10
-20.0845015568
 20
19.4360783312
 10
-20.1461922276
 20
19.3544112661
 10
-20.2048806998
 20
19.2690430235
 10
-20.2602644582
 20
19.1804150443
 10
-20.312080075
 20
19.0889481998
 10
-20.3600955767
 20
18.9950656164
 10
-20.4040779484
 20
18.899209568
 10
-20.4437939433
 20
18.8018708307
 10
-20.4790407334
 20
18.7035586896
 10
-20.5096398935
 20
18.6047733828
 10
-20.5354441051
 20
18.5059884103
 10
-20.556333086
 20
18.4076775143
 10
-20.572203378
 20
18.3103219384
 10
-20.5829716029
 20
18.2144079064
 10
-20.5885826779
 20
18.1204101212
  0
LWPOLYLINE
  5
225
100
AcDbEntity
  8
RACCORDO
100
AcDbPolyline
 62
7
  6
CONTINUOUS
 90
19
 70
0
 10
-19.8292304436
 20
19.8812449326
 10
-19.8765968861
 20
19.8523327759
 10
-19.9634273953
 20
19.7924131298
 10
-20.0468346584
 20
19.7258634896
 10
-20.1266718229
 20
19.653103117
 10
-20.2027970894
 20
19.5745485306
 10
-20.2749255184
 20
19.4907004247
 10
-20.3428829144
 20
19.4019540386
 10
-20.4064448922
 20
19.3087169901
 10
-20.4651910207
 20
19.2116714239
 10
-20.5189163496
 20
19.1112586633
 10
-20.5673778854
 20
19.0078979193
 10
-20.6102016155
 20
18.9023671904
 10
-20.6471809999
 20
18.7951269615
 10
-20.6780831024
 20
18.6865990108
 10
-20.7026329315
 20
18.5774581632
 10
-20.7206006416
 20
18.4681497518
 10
-20.7317739882
 20
18.3590271687
 10
-20.7350636655
 20
18.2953751867
  0
LINE
  5
226
100
AcDbEntity
  8
RACCORDO
100
AcDbLine
 62
7
  6
CONTINUOUS
 10
-15.5503545495
 20
22.3762260151
 11
-19.8293645435
 21
19.8811712614
  0
LINE
  5
227
100
AcDbEntity
  8
RACCORDO
100
AcDbLine
 62
250
  6
CONTINUOUS
 10
-15.3164517744
 20
22.3677785804
 11
-19.5960104862
 21
19.8724038739
  0
LWPOLYLINE
  5
228
100
AcDbEntity
  8
RACCORDO
100
AcDbPolyline
 62
250
  6
CONTINUOUS
 90
7
 70
0
 10
-12.1196233998
 20
24.0175609173
 10
-12.0988155191
 20
24.0295917907
 10
-12.0811212386
 20
24.0429424413
 10
-12.0669016408
 20
24.0574170646
 10
-12.056450779
 20
24.0728292425
 10
-12.0500641044
 20
24.0888994608
 10
-12.047936012
 20
24.1051745753
  0
LINE
  5
229
100
AcDbEntity
  8
RACCORDO
100
AcDbLine
 62
7
  6
CONTINUOUS
 10
-15.8490325768
 20
23.8917010937
 11
-14.2818514056
 21
24.7372312893
  0
LINE
  5
22A
100
AcDbEntity
  8
RACCORDO
100
AcDbLine
 62
250
  6
CONTINUOUS
 10
-15.7334118004
 20
23.8866116626
 11
-14.1671610542
 21
24.7316398725
  0
LINE
  5
22B
100
AcDbEntity
  8
RACCORDO
100
AcDbLine
 62
7
  6
CONTINUOUS
 10
-14.2818508871
 20
24.7372315386
 11
-14.2779499592
 21
24.7392201777
  0
LINE
  5
22C
100
AcDbEntity
  8
RACCORDO
100
AcDbLine
 62
7
  6
CONTINUOUS
 10
-15.5982123315
 20
22.4806266062
 11
-15.2855624352
 21
22.6391048032
  0
LINE
  5
22D
100
AcDbEntity
  8
RACCORDO
100
AcDbLine
 62
250
  6
CONTINUOUS
 10
-12.8236043221
 20
24.0598615065
 11
-14.4455044487
 21
23.2426579867
  0
LINE
  5
22E
100
AcDbEntity
  8
RACCORDO
100
AcDbLine
 62
250
  6
CONTINUOUS
 10
-12.6468545507
 20
23.7550132448
 11
-14.2687546774
 21
22.9378097251
  0
LINE
  5
22F
100
AcDbEntity
  8
RACCORDO
100
AcDbLine
 62
250
  6
CONTINUOUS
 10
-12.2963933639
 20
24.3224440064
 11
-12.8236245149
 21
24.0598716029
  0
LINE
  5
230
100
AcDbEntity
  8
RACCORDO
100
AcDbLine
 62
250
  6
CONTINUOUS
 10
-12.1196233998
 20
24.0175609173
 11
-12.6468545507
 21
23.7549885138
  0
LWPOLYLINE
  5
231
100
AcDbEntity
  8
RACCORDO
100
AcDbPolyline
 62
250
  6
CONTINUOUS
 90
7
 70
0
 10
-15.8488831378
 20
23.8917815459
 10
-15.8415753527
 20
23.8953113467
 10
-15.8220318487
 20
23.9013809677
 10
-15.8010390533
 20
23.9034634722
 10
-15.7790336786
 20
23.9016092672
 10
-15.7563615989
 20
23.895935491
 10
-15.7334118004
 20
23.8866116626
  0
LINE
  5
232
100
AcDbEntity
  8
RACCORDO
100
AcDbLine
 62
7
  6
CONTINUOUS
 10
-14.277950804
 20
24.7392197715
 11
-13.7404898147
 21
24.9976057074
  0
LINE
  5
233
100
AcDbEntity
  8
RACCORDO
100
AcDbLine
 62
250
  6
CONTINUOUS
 10
-14.1671408614
 20
24.7316297761
 11
-13.6306265444
 21
24.9895605966
  0
LWPOLYLINE
  5
234
100
AcDbEntity
  8
RACCORDO
100
AcDbPolyline
 62
7
  6
CONTINUOUS
 90
7
 70
0
 10
-14.2779499592
 20
24.7392201777
 10
-14.2750653281
 20
24.7405474697
 10
-14.2558119042
 20
24.7466816934
 10
-14.2350303283
 20
24.7488594735
 10
-14.2130748435
 20
24.7470435775
 10
-14.1903165993
 20
24.7412668685
 10
-14.1671408614
 20
24.7316297761
  0
LWPOLYLINE
  5
235
100
AcDbEntity
  8
RACCORDO
100
AcDbPolyline
 62
250
  6
CONTINUOUS
 90
7
 70
0
 10
-13.7404898147
 20
24.9976057074
 10
-13.7376125897
 20
24.9989293953
 10
-13.7184430654
 20
25.0050226906
 10
-13.6977975141
 20
25.0071342706
 10
-13.6760291527
 20
25.0052280089
 10
-13.6535104079
 20
24.9993365192
 10
-13.6306265444
 20
24.9895605966
  0
LWPOLYLINE
  5
236
100
AcDbEntity
  8
RACCORDO
100
AcDbPolyline
 62
250
  6
CONTINUOUS
 90
13
 70
0
 10
-14.2687546774
 20
22.9378097251
 10
-14.2928682729
 20
22.9275592171
 10
-14.3195659757
 20
22.9188613789
 10
-14.3484586344
 20
22.9118917576
 10
-14.3791756509
 20
22.906793081
 10
-14.4111658203
 20
22.9037078247
 10
-14.4436863675
 20
22.9027288057
 10
-14.4761173366
 20
22.9038679652
 10
-14.5079780367
 20
22.9071016969
 10
-14.5387200906
 20
22.9123732319
 10
-14.5678223245
 20
22.9195906268
 10
-14.5947985668
 20
22.9286305933
 10
-14.6191959653
 20
22.9393388525
  0
LWPOLYLINE
  5
237
100
AcDbEntity
  8
RACCORDO
100
AcDbPolyline
 62
250
  6
CONTINUOUS
 90
13
 70
0
 10
-14.2687546774
 20
22.6205409247
 10
-14.2934746032
 20
22.6100648165
 10
-14.3206922233
 20
22.6012767551
 10
-14.349949265
 20
22.5943234586
 10
-14.3807507776
 20
22.589321084
 10
-14.4125817729
 20
22.5863518691
 10
-14.4449166325
 20
22.5854646367
 10
-14.4772404235
 20
22.586676851
 10
-14.5089820277
 20
22.5899704343
 10
-14.5395386303
 20
22.5952761204
 10
-14.5683862133
 20
22.6024858
 10
-14.5950809853
 20
22.6114705208
 10
-14.6191959653
 20
22.6220700521
  0
LWPOLYLINE
  5
238
100
AcDbEntity
  8
RACCORDO
100
AcDbPolyline
 62
250
  6
CONTINUOUS
 90
7
 70
0
 10
-13.6306265444
 20
24.9895605966
 10
-13.6081917306
 20
24.9987854255
 10
-13.5859939397
 20
25.0043686697
 10
-13.5644095176
 20
25.0061408499
 10
-13.5437719088
 20
25.0039834882
 10
-13.5245083532
 20
24.997844372
 10
-13.5203657936
 20
24.9958979633
  0
LWPOLYLINE
  5
239
100
AcDbEntity
  8
RACCORDO
100
AcDbPolyline
 62
250
  6
CONTINUOUS
 90
7
 70
0
 10
-12.2963933639
 20
24.3224440064
 10
-12.2739585501
 20
24.3316688353
 10
-12.2517607593
 20
24.3372520795
 10
-12.2301763372
 20
24.3390242597
 10
-12.2095387284
 20
24.336866898
 10
-12.1902751727
 20
24.3307277818
 10
-12.1863170911
 20
24.3288733586
  0
LINE
  5
23A
100
AcDbEntity
  8
RACCORDO
100
AcDbLine
 62
250
  6
CONTINUOUS
 10
-12.6468545507
 20
23.0275754808
 11
-12.1196233998
 21
23.6719234563
  0
LINE
  5
23B
100
AcDbEntity
  8
RACCORDO
100
AcDbLine
 62
7
  6
CONTINUOUS
 10
-12.6468545507
 20
22.9383316899
 11
-12.0489684944
 21
23.6690295428
  0
LINE
  5
23C
100
AcDbEntity
  8
RACCORDO
100
AcDbLine
 62
7
  6
CONTINUOUS
 10
-13.5493053014
 20
21.698128376
 11
-12.6468545507
 21
22.1528332729
  0
LINE
  5
23D
100
AcDbEntity
  8
RACCORDO
100
AcDbLine
 62
7
  6
CONTINUOUS
 10
-11.2325332844
 20
22.1452217317
 11
-4.7512106002
 21
25.2066068574
  0
LINE
  5
23E
100
AcDbEntity
  8
RACCORDO
100
AcDbLine
 62
7
  6
CONTINUOUS
 10
-2.5316680139
 20
25.7430404186
 11
-3.9729379593
 21
25.0633415051
  0
LWPOLYLINE
  5
23F
100
AcDbEntity
  8
RACCORDO
100
AcDbPolyline
 62
7
  6
CONTINUOUS
 90
7
 70
0
 10
-4.5717991576
 20
24.5774116515
 10
-4.5618511644
 20
24.5820192498
 10
-4.5519654694
 20
24.5862714833
 10
-4.5421420727
 20
24.5901683519
 10
-4.5323809742
 20
24.5937098557
 10
-4.522682174
 20
24.5968959946
 10
-4.513045672
 20
24.5997267688
  0
LWPOLYLINE
  5
240
100
AcDbEntity
  8
RACCORDO
100
AcDbPolyline
 62
250
  6
CONTINUOUS
 90
26
 70
0
 10
-2.0927832635
 20
25.7106374836
 10
-2.073510659
 20
25.7195397453
 10
-2.0542615468
 20
25.7277869399
 10
-2.0350502403
 20
25.7353729335
 10
-2.0158910327
 20
25.742292081
 10
-1.9967981627
 20
25.7485392389
 10
-1.9777858052
 20
25.7541097668
 10
-1.9588680779
 20
25.7589995232
 10
-1.940059069
 20
25.7632048618
 10
-1.9213728022
 20
25.7667226452
 10
-1.9028231856
 20
25.7695502558
 10
-1.8844239996
 20
25.7716855936
 10
-1.8661889235
 20
25.7731270711
 10
-1.8481315152
 20
25.7738736161
 10
-1.830265204
 20
25.773924673
 10
-1.8126032775
 20
25.7732802038
 10
-1.7951588699
 20
25.7719406877
 10
-1.777944952
 20
25.7699071208
 10
-1.7609743241
 20
25.7671810152
 10
-1.7442596055
 20
25.7637643981
 10
-1.7278132254
 20
25.7596598101
 10
-1.7116474131
 20
25.7548703034
 10
-1.6957741896
 20
25.7493994393
 10
-1.6802053582
 20
25.7432512861
 10
-1.6649524958
 20
25.7364304155
 10
-1.6579103829
 20
25.7330008132
  0
LWPOLYLINE
  5
241
100
AcDbEntity
  8
RACCORDO
100
AcDbPolyline
 62
250
  6
CONTINUOUS
 90
13
 70
0
 10
-13.5493053014
 20
22.217923018
 10
-13.573972056
 20
22.2074666369
 10
-13.6011319463
 20
22.1986897785
 10
-13.6303305151
 20
22.1917393037
 10
-13.6610791935
 20
22.186731513
 10
-13.6928634729
 20
22.183750201
 10
-13.7251515139
 20
22.1828452537
 10
-13.7574030494
 20
22.1840318132
 10
-13.7890784255
 20
22.1872900252
 10
-13.819647628
 20
22.1925653709
 10
-13.8485991517
 20
22.1997695798
 10
-13.8754485598
 20
22.2087821058
 10
-13.8997465893
 20
22.2194521453
  0
LWPOLYLINE
  5
242
100
AcDbEntity
  8
RACCORDO
100
AcDbPolyline
 62
7
  6
CONTINUOUS
 90
7
 70
0
 10
-3.9260385403
 20
24.3041921016
 10
-3.9351706459
 20
24.3013695007
 10
-3.9443614188
 20
24.2982209777
 10
-3.9536108592
 20
24.2947465326
 10
-3.962918967
 20
24.2909461655
 10
-3.9722857423
 20
24.2868198764
 10
-3.981711185
 20
24.2823676652
  0
LWPOLYLINE
  5
243
100
AcDbEntity
  8
RACCORDO
100
AcDbPolyline
 62
7
  6
CONTINUOUS
 90
12
 70
0
 10
-5.400458358
 20
-25.6605428845
 10
-5.3633936608
 20
-25.6780780735
 10
-5.2888938617
 20
-25.7073068623
 10
-5.211450092
 20
-25.7299398933
 10
-5.1314502662
 20
-25.7457578878
 10
-5.0490163271
 20
-25.7545749622
 10
-4.9645950493
 20
-25.7561664388
 10
-4.8786688776
 20
-25.7503693802
 10
-4.7912760987
 20
-25.7369772738
 10
-4.7026577159
 20
-25.7157505277
 10
-4.6133882404
 20
-25.686585004
 10
-4.5650110634
 20
-25.6674733923
  0
LINE
  5
244
100
AcDbEntity
  8
RACCORDO
100
AcDbLine
 62
7
  6
CONTINUOUS
 10
-5.3993480764
 20
-25.6610994948
 11
-20.2859624645
 21
-18.2177923007
  0
LINE
  5
245
100
AcDbEntity
  8
RACCORDO
100
AcDbLine
 62
250
  6
CONTINUOUS
 10
-5.7928162621
 20
-24.9005040736
 11
-20.670378951
 21
-17.4617227292
  0
LWPOLYLINE
  5
246
100
AcDbEntity
  8
RACCORDO
100
AcDbPolyline
 62
250
  6
CONTINUOUS
 90
13
 70
0
 10
-20.2859625196
 20
-18.2177922732
 10
-20.3420158584
 20
-18.1855220809
 10
-20.3938293638
 20
-18.1471057825
 10
-20.441844016
 20
-18.1023798095
 10
-20.485826981
 20
-18.0515519213
 10
-20.5255448281
 20
-17.9948807729
 10
-20.5607946772
 20
-17.9326585955
 10
-20.5913981426
 20
-17.8652051524
 10
-20.6172078205
 20
-17.7928483332
 10
-20.6381032828
 20
-17.7159331134
 10
-20.6539811042
 20
-17.6348344277
 10
-20.6647580072
 20
-17.5499577998
 10
-20.670378951
 20
-17.4617227292
  0
LWPOLYLINE
  5
247
100
AcDbEntity
  8
RACCORDO
100
AcDbPolyline
 62
250
  6
CONTINUOUS
 90
9
 70
0
 10
-20.8168415369
 20
-17.2841118227
 10
-20.8159929186
 20
-17.2954186392
 10
-20.8101740584
 20
-17.3222977371
 10
-20.7990724158
 20
-17.3485874179
 10
-20.7828069393
 20
-17.3740060005
 10
-20.7615519057
 20
-17.3982811375
 10
-20.7355350522
 20
-17.4211527325
 10
-20.7050351366
 20
-17.4423757277
 10
-20.6703789506
 20
-17.461722729
  0
LWPOLYLINE
  5
248
100
AcDbEntity
  8
RACCORDO
100
AcDbPolyline
 62
250
  6
CONTINUOUS
 90
12
 70
0
 10
-14.2687546774
 20
22.6205409247
 10
-14.2819253413
 20
22.591267064
 10
-14.2978202205
 20
22.5640232588
 10
-14.3161679302
 20
22.5392710974
 10
-14.3366538226
 20
22.5174312183
 10
-14.3589306549
 20
22.4988703766
 10
-14.3826259517
 20
22.4838982345
 10
-14.4073594313
 20
22.4727619385
 10
-14.4326910512
 20
22.4656662005
 10
-14.4581314667
 20
22.4627346104
 10
-14.4832311576
 20
22.4639863931
 10
-14.494284518
 20
22.4658975772
  0
LINE
  5
249
100
AcDbEntity
  8
RACCORDO
100
AcDbLine
 62
7
  6
CONTINUOUS
 10
-9.9244934432
 20
22.0040882844
 11
-10.2779381898
 21
21.8133967349
  0
LINE
  5
24A
100
AcDbEntity
  8
RACCORDO
100
AcDbLine
 62
7
  6
CONTINUOUS
 10
-3.981711185
 20
24.2823676652
 11
-8.5809905589
 21
22.0318859342
  0
LINE
  5
24B
100
AcDbEntity
  8
RACCORDO
100
AcDbLine
 62
7
  6
CONTINUOUS
 10
-4.2676391937
 20
22.9300241474
 11
-3.9260385403
 21
23.0971733826
  0
LINE
  5
24C
100
AcDbEntity
  8
RACCORDO
100
AcDbLine
 62
7
  6
CONTINUOUS
 10
-1.8573055452
 20
23.7596543299
 11
-3.9140858031
 21
22.7532474521
  0
LINE
  5
24D
100
AcDbEntity
  8
RACCORDO
100
AcDbLine
 62
7
  6
CONTINUOUS
 10
-4.5717991576
 20
24.5774116515
 11
-9.9244934432
 21
22.0040882844
  0
LINE
  5
24E
100
AcDbEntity
  8
RACCORDO
100
AcDbLine
 62
250
  6
CONTINUOUS
 10
-2.0927832635
 20
25.7106374836
 11
-3.7265603863
 21
24.9401527186
  0
LINE
  5
24F
100
AcDbEntity
  8
RACCORDO
100
AcDbLine
 62
250
  6
CONTINUOUS
 10
1.2446947647
 20
-24.3098397653
 11
0.7174636137
 21
-24.2020061069
  0
LINE
  5
250
100
AcDbEntity
  8
RACCORDO
100
AcDbLine
 62
250
  6
CONTINUOUS
 10
1.2423874943
 20
-24.0084520829
 11
0.7174636137
 21
-23.9010903264
  0
LINE
  5
251
100
AcDbEntity
  8
RACCORDO
100
AcDbLine
 62
7
  6
CONTINUOUS
 10
-1.1899045044
 20
-25.81218042
 11
-2.4778118561
 21
-25.1682267442
  0
LINE
  5
252
100
AcDbEntity
  8
RACCORDO
100
AcDbLine
 62
250
  6
CONTINUOUS
 10
-1.2548778009
 20
-25.6769619699
 11
-2.5427851525
 21
-25.0330082941
  0
LINE
  5
253
100
AcDbEntity
  8
RACCORDO
100
AcDbLine
 62
250
  6
CONTINUOUS
 10
-1.2548778009
 20
-25.3596931695
 11
-2.4483251698
 21
-24.762969485
  0
LINE
  5
254
100
AcDbEntity
  8
RACCORDO
100
AcDbLine
 62
250
  6
CONTINUOUS
 10
-1.1664894532
 20
-25.1279989957
 11
-2.3676514903
 21
-24.5274179771
  0
LINE
  5
255
100
AcDbEntity
  8
RACCORDO
100
AcDbLine
 62
250
  6
CONTINUOUS
 10
-1.9333236651
 20
-23.8392518039
 11
-0.6269024212
 21
-24.4924624258
  0
LWPOLYLINE
  5
256
100
AcDbEntity
  8
RACCORDO
100
AcDbPolyline
 62
250
  6
CONTINUOUS
 90
8
 70
0
 10
-1.1899117583
 20
-25.8121767926
 10
-1.2046412713
 20
-25.8030269703
 10
-1.2196177125
 20
-25.7890800468
 10
-1.2321914361
 20
-25.7717284244
 10
-1.2420924619
 20
-25.7514102094
 10
-1.2491947232
 20
-25.7285764777
 10
-1.2534608252
 20
-25.7036113525
 10
-1.2548778009
 20
-25.6769619699
  0
LWPOLYLINE
  5
257
100
AcDbEntity
  8
RACCORDO
100
AcDbPolyline
 62
250
  6
CONTINUOUS
 90
8
 70
0
 10
-2.4778332814
 20
-25.1682160281
 10
-2.4925486229
 20
-25.1590732945
 10
-2.5075250642
 20
-25.145126371
 10
-2.5200987878
 20
-25.1277747486
 10
-2.5299998135
 20
-25.1074565336
 10
-2.5371020748
 20
-25.0846228019
 10
-2.5413681769
 20
-25.0596576767
 10
-2.5427851525
 20
-25.0330082941
  0
LWPOLYLINE
  5
258
100
AcDbEntity
  8
RACCORDO
100
AcDbPolyline
 62
7
  6
CONTINUOUS
 90
15
 70
0
 10
-20.8168354594
 20
-17.2841116152
 10
-20.8137960112
 20
-17.3415645266
 10
-20.8033744972
 20
-17.4391193541
 10
-20.7866440051
 20
-17.5325614796
 10
-20.7638278888
 20
-17.621617477
 10
-20.7351402153
 20
-17.7062025477
 10
-20.7007368538
 20
-17.7862491257
 10
-20.6608307633
 20
-17.8615012598
 10
-20.6156783622
 20
-17.9317216365
 10
-20.5655249324
 20
-17.9966985034
 10
-20.5107070361
 20
-18.0561155079
 10
-20.4516236428
 20
-18.1096903095
 10
-20.3887247699
 20
-18.1571910335
 10
-20.3225207843
 20
-18.1984017757
 10
-20.2850288896
 20
-18.2182577315
  0
LINE
  5
259
100
AcDbEntity
  8
RACCORDO
100
AcDbLine
 62
7
  6
CONTINUOUS
 10
-21.026668454
 20
0.8049779831
 11
-21.0251432517
 21
0.7695337224
  0
LWPOLYLINE
  5
25A
100
AcDbEntity
  8
RACCORDO
100
AcDbPolyline
 62
250
  6
CONTINUOUS
 90
10
 70
0
 10
-20.670378951
 20
-17.4617227292
 10
-20.7309543328
 20
-15.5529182623
 10
-20.7845485264
 20
-13.6402255218
 10
-20.8311609326
 20
-11.7236832423
 10
-20.8707905257
 20
-9.8033598673
 10
-20.903437781
 20
-7.8792647524
 10
-20.9291035798
 20
-5.9513475891
 10
-20.9477871497
 20
-4.0196170772
 10
-20.9594871602
 20
-2.0841414994
 10
-20.9642028834
 20
-0.1449595228
  0
LWPOLYLINE
  5
25B
100
AcDbEntity
  8
RACCORDO
100
AcDbPolyline
 62
250
  6
CONTINUOUS
 90
12
 70
0
 10
-20.8802728179
 20
0.6287726811
 10
-20.8800794028
 20
0.6103863883
 10
-20.8795932868
 20
0.592607087
 10
-20.8787288571
 20
0.575597475
 10
-20.8773826558
 20
0.5594872419
 10
-20.8755021781
 20
0.5445181725
 10
-20.8731181671
 20
0.5310146296
 10
-20.8702408319
 20
0.5191900141
 10
-20.8668361269
 20
0.509188866
 10
-20.8629202655
 20
0.5012042202
 10
-20.8585755552
 20
0.4954408481
 10
-20.8543715465
 20
0.4923008773
  0
LWPOLYLINE
  5
25C
100
AcDbEntity
  8
RACCORDO
100
AcDbPolyline
 62
7
  6
CONTINUOUS
 90
10
 70
0
 10
-21.1106502965
 20
0.0331072249
 10
-21.1060813698
 20
-1.8721742749
 10
-21.0944318095
 20
-3.8174359122
 10
-21.0757274559
 20
-5.7589689105
 10
-21.0499685796
 20
-7.696728903
 10
-21.0171556807
 20
-9.6306790041
 10
-20.9772892726
 20
-11.5607849118
 10
-20.9303699934
 20
-13.4870094722
 10
-20.876398958
 20
-15.4093084105
 10
-20.816842754
 20
-17.2840757373
  0
LINE
  5
25D
100
AcDbEntity
  8
RACCORDO
100
AcDbLine
 62
7
  6
CONTINUOUS
 10
-21.021970975
 20
2.7020458641
 11
-21.0267158075
 21
0.804858286
  0
LWPOLYLINE
  5
25E
100
AcDbEntity
  8
RACCORDO
100
AcDbPolyline
 62
7
  6
CONTINUOUS
 90
9
 70
0
 10
-20.7350648212
 20
18.2954611534
 10
-20.7939425566
 20
16.3748073366
 10
-20.8473641562
 20
14.4114287394
 10
-20.8938385524
 20
12.4513594093
 10
-20.9333645396
 20
10.4946437726
 10
-20.9659413753
 20
8.5413187318
 10
-20.9915684304
 20
6.5914183087
 10
-21.0102450946
 20
4.6449793427
 10
-21.021970975
 20
2.7020458641
  0
LWPOLYLINE
  5
25F
100
AcDbEntity
  8
RACCORDO
100
AcDbPolyline
 62
250
  6
CONTINUOUS
 90
10
 70
0
 10
-20.5885826779
 20
18.1204101212
 10
-20.6485117311
 20
16.1634580975
 10
-20.7015618065
 20
14.2097973006
 10
-20.7477323036
 20
12.2594662107
 10
-20.7870222123
 20
10.3125323443
 10
-20.8194319683
 20
8.3690048375
 10
-20.8449624056
 20
6.4288349426
 10
-20.8636127704
 20
4.49203236
 10
-20.8753817691
 20
2.5586647407
 10
-20.8802686906
 20
0.6287706175
  0
LWPOLYLINE
  5
260
100
AcDbEntity
  8
RACCORDO
100
AcDbPolyline
 62
250
  6
CONTINUOUS
 90
13
 70
0
 10
-20.9642028834
 20
-0.1449595228
 10
-20.9630327778
 20
-0.1220033836
 10
-20.9595133965
 20
-0.0982451581
 10
-20.9537037232
 20
-0.0740828165
 10
-20.9457010962
 20
-0.0499210711
 10
-20.9356395942
 20
-0.026164651
 10
-20.9236878031
 20
-0.0032115195
 10
-20.9100459549
 20
0.018553876
 10
-20.8949425736
 20
0.0387670105
 10
-20.8786306786
 20
0.057089342
 10
-20.861383512
 20
0.0732140318
 10
-20.8434899559
 20
0.0868710749
 10
-20.8252497128
 20
0.0978317985
  0
LWPOLYLINE
  5
261
100
AcDbEntity
  8
RACCORDO
100
AcDbPolyline
 62
250
  6
CONTINUOUS
 90
12
 70
0
 10
-13.7291676454
 20
22.5060774946
 10
-13.7423073
 20
22.4768639464
 10
-13.7581631898
 20
22.4496661684
 10
-13.7764670273
 20
22.4249443777
 10
-13.7969091084
 20
22.4031168921
 10
-13.8191435346
 20
22.384553071
 10
-13.8427940607
 20
22.369567055
 10
-13.8674604908
 20
22.3584124265
 10
-13.8927254502
 20
22.3512779307
 10
-13.9181614266
 20
22.3482842926
 10
-13.9433380164
 20
22.3494821673
 10
-13.9545988665
 20
22.3514132711
  0
LWPOLYLINE
  5
262
100
AcDbEntity
  8
RACCORDO
100
AcDbPolyline
 62
7
  6
CONTINUOUS
 90
3
 70
0
 10
-12.0489727685
 20
23.6689141904
 10
-12.0480778474
 20
23.6707643275
 10
-12.0479360141
 20
23.6720059833
  0
LINE
  5
263
100
AcDbEntity
  8
0
100
AcDbLine
 62
7
  6
CONTINUOUS
 10
-4.9747459748
 20
22.0239125675
 11
-4.2676391937
 21
22.3774659581
  0
LINE
  5
264
100
AcDbEntity
  8
0
100
AcDbLine
 62
7
  6
CONTINUOUS
 10
-3.9140858031
 20
22.2006892628
 11
-2.5163012966
 21
22.8995815161
  0
LWPOLYLINE
  5
265
100
AcDbEntity
  8
RACCORDO
100
AcDbPolyline
 62
7
  6
CONTINUOUS
 90
6
 70
0
 10
-4.9041530703
 20
21.4142524213
 10
-4.9114377095
 20
21.410659448
 10
-4.9195190824
 20
21.4061041013
 10
-4.927320682
 20
21.4010786588
 10
-4.9348405525
 20
21.3955846241
 10
-4.9421622939
 20
21.3895457034
  0
LINE
  5
266
100
AcDbEntity
  8
RACCORDO
100
AcDbLine
 62
250
  6
CONTINUOUS
 10
-4.6311936382
 20
21.4229734528
 11
-4.5842633962
 21
21.4456210391
  0
LINE
  5
267
100
AcDbEntity
  8
RACCORDO
100
AcDbLine
 62
250
  6
CONTINUOUS
 10
-4.5842633962
 20
21.4456210391
 11
-4.5724279555
 21
21.4512577154
  0
LINE
  5
268
100
AcDbEntity
  8
RACCORDO
100
AcDbLine
 62
250
  6
CONTINUOUS
 10
-4.6416418562
 20
21.4179985317
 11
-4.6311936382
 21
21.4229734528
  0
LINE
  5
269
100
AcDbEntity
  8
RACCORDO
100
AcDbLine
 62
250
  6
CONTINUOUS
 10
-4.5724279555
 20
21.4512577154
 11
-4.5633067519
 21
21.4555488739
  0
LINE
  5
26A
100
AcDbEntity
  8
RACCORDO
100
AcDbLine
 62
250
  6
CONTINUOUS
 10
-4.6493791205
 20
21.4143634995
 11
-4.6416418562
 21
21.4179985317
  0
LINE
  5
26B
100
AcDbEntity
  8
RACCORDO
100
AcDbLine
 62
250
  6
CONTINUOUS
 10
-4.5633067519
 20
21.4555488739
 11
-4.5539596304
 21
21.4598890774
  0
LINE
  5
26C
100
AcDbEntity
  8
RACCORDO
100
AcDbLine
 62
250
  6
CONTINUOUS
 10
-4.6919571103
 20
21.3946866175
 11
-4.6493791205
 21
21.4143634995
  0
LINE
  5
26D
100
AcDbEntity
  8
RACCORDO
100
AcDbLine
 62
7
  6
CONTINUOUS
 10
-4.8529225872
 20
21.4378713649
 11
-4.9041541759
 21
21.4142519107
  0
LINE
  5
26E
100
AcDbEntity
  8
RACCORDO
100
AcDbLine
 62
250
  6
CONTINUOUS
 10
-4.5539596304
 20
21.4598890774
 11
-4.5443726422
 21
21.46427298
  0
LWPOLYLINE
  5
26F
100
AcDbEntity
  8
RACCORDO
100
AcDbPolyline
 62
250
  6
CONTINUOUS
 90
17
 70
0
 10
-3.6999842712
 20
21.5219921528
 10
-3.6941708258
 20
21.5246280202
 10
-3.6883713948
 20
21.5269642765
 10
-3.6825957925
 20
21.5289969682
 10
-3.6768537925
 20
21.5307226554
 10
-3.6711551117
 20
21.5321384177
 10
-3.6655093939
 20
21.5332418595
 10
-3.659926193
 20
21.5340311134
 10
-3.6544149572
 20
21.5345048437
 10
-3.6489850128
 20
21.5346622489
 10
-3.6436455489
 20
21.5345030625
 10
-3.638405601
 20
21.534027554
 10
-3.6332740365
 20
21.5332365279
 10
-3.6282595394
 20
21.5321313231
 10
-3.6233705954
 20
21.5307138096
 10
-3.6186154778
 20
21.5289863864
 10
-3.6140795532
 20
21.526986074
  0
LWPOLYLINE
  5
270
100
AcDbEntity
  8
RACCORDO
100
AcDbPolyline
 62
250
  6
CONTINUOUS
 90
22
 70
0
 10
-4.8703078268
 20
21.4298832763
 10
-4.8671795138
 20
21.4312932083
 10
-4.8579310513
 20
21.4350671024
 10
-4.8484714371
 20
21.4383495578
 10
-4.8388107967
 20
21.441137061
 10
-4.8289594711
 20
21.4434266282
 10
-4.8189280051
 20
21.4452158086
 10
-4.8087271366
 20
21.4465026871
 10
-4.7983677847
 20
21.4472858861
 10
-4.7878610381
 20
21.4475645674
 10
-4.7772181434
 20
21.4473384325
 10
-4.7664504927
 20
21.4466077237
 10
-4.755569612
 20
21.4453732229
 10
-4.7445871483
 20
21.4436362517
 10
-4.7335148572
 20
21.4413986694
 10
-4.7223645907
 20
21.4386628709
 10
-4.711148284
 20
21.4354317849
 10
-4.6998779434
 20
21.4317088698
 10
-4.6885656326
 20
21.4274981107
 10
-4.6772234605
 20
21.4228040148
 10
-4.6658635678
 20
21.4176316067
 10
-4.6544981143
 20
21.4119864231
  0
LINE
  5
271
100
AcDbEntity
  8
RACCORDO
100
AcDbLine
 62
250
  6
CONTINUOUS
 10
-4.5443726422
 20
21.46427298
 11
-4.5378415305
 21
21.4672171464
  0
LINE
  5
272
100
AcDbEntity
  8
RACCORDO
100
AcDbLine
 62
250
  6
CONTINUOUS
 10
-4.5378415305
 20
21.4672171464
 11
-4.5311930217
 21
21.4701764081
  0
LINE
  5
273
100
AcDbEntity
  8
RACCORDO
100
AcDbLine
 62
250
  6
CONTINUOUS
 10
-4.5311930217
 20
21.4701764081
 11
-4.5244239474
 21
21.4731495304
  0
LINE
  5
274
100
AcDbEntity
  8
RACCORDO
100
AcDbLine
 62
250
  6
CONTINUOUS
 10
-4.5244239474
 20
21.4731495304
 11
-4.5175293966
 21
21.4761347087
  0
LINE
  5
275
100
AcDbEntity
  8
RACCORDO
100
AcDbLine
 62
250
  6
CONTINUOUS
 10
-4.5175293966
 20
21.4761347087
 11
-4.510505313
 21
21.4791297039
  0
LINE
  5
276
100
AcDbEntity
  8
RACCORDO
100
AcDbLine
 62
250
  6
CONTINUOUS
 10
-4.510505313
 20
21.4791297039
 11
-4.503348951
 21
21.4821330322
  0
LINE
  5
277
100
AcDbEntity
  8
RACCORDO
100
AcDbLine
 62
250
  6
CONTINUOUS
 10
-4.503348951
 20
21.4821330322
 11
-4.4960562513
 21
21.4851424267
  0
LINE
  5
278
100
AcDbEntity
  8
RACCORDO
100
AcDbLine
 62
250
  6
CONTINUOUS
 10
-4.4960562513
 20
21.4851424267
 11
-4.4886231953
 21
21.4881555486
  0
LINE
  5
279
100
AcDbEntity
  8
RACCORDO
100
AcDbLine
 62
250
  6
CONTINUOUS
 10
-4.4886231953
 20
21.4881555486
 11
-4.4810471568
 21
21.491170804
  0
LINE
  5
27A
100
AcDbEntity
  8
RACCORDO
100
AcDbLine
 62
250
  6
CONTINUOUS
 10
-4.4810471568
 20
21.491170804
 11
-4.4733242958
 21
21.4941857448
  0
LINE
  5
27B
100
AcDbEntity
  8
RACCORDO
100
AcDbLine
 62
250
  6
CONTINUOUS
 10
-4.4733242958
 20
21.4941857448
 11
-4.465450672
 21
21.4971978944
  0
LINE
  5
27C
100
AcDbEntity
  8
RACCORDO
100
AcDbLine
 62
250
  6
CONTINUOUS
 10
-4.465450672
 20
21.4971978944
 11
-4.4574237448
 21
21.5002055517
  0
LINE
  5
27D
100
AcDbEntity
  8
RACCORDO
100
AcDbLine
 62
250
  6
CONTINUOUS
 10
-4.4574237448
 20
21.5002055517
 11
-4.4492397373
 21
21.5032061264
  0
LINE
  5
27E
100
AcDbEntity
  8
RACCORDO
100
AcDbLine
 62
250
  6
CONTINUOUS
 10
-4.4492397373
 20
21.5032061264
 11
-4.440895373
 21
21.5061967699
  0
LINE
  5
27F
100
AcDbEntity
  8
RACCORDO
100
AcDbLine
 62
250
  6
CONTINUOUS
 10
-4.440895373
 20
21.5061967699
 11
-4.432388535
 21
21.5091755468
  0
LINE
  5
280
100
AcDbEntity
  8
RACCORDO
100
AcDbLine
 62
250
  6
CONTINUOUS
 10
-4.432388535
 20
21.5091755468
 11
-4.4237161673
 21
21.5121394889
  0
LINE
  5
281
100
AcDbEntity
  8
RACCORDO
100
AcDbLine
 62
250
  6
CONTINUOUS
 10
-4.4237161673
 20
21.5121394889
 11
-4.4148755703
 21
21.5150854425
  0
LINE
  5
282
100
AcDbEntity
  8
RACCORDO
100
AcDbLine
 62
250
  6
CONTINUOUS
 10
-4.4148755703
 20
21.5150854425
 11
-4.4058650643
 21
21.518011255
  0
LINE
  5
283
100
AcDbEntity
  8
RACCORDO
100
AcDbLine
 62
250
  6
CONTINUOUS
 10
-4.4058650643
 20
21.518011255
 11
-4.3966823001
 21
21.5209136202
  0
LWPOLYLINE
  5
284
100
AcDbEntity
  8
RACCORDO
100
AcDbPolyline
 62
7
  6
CONTINUOUS
 90
7
 70
0
 10
1.6158611455
 20
21.5352733596
 10
1.6063913825
 20
21.5323592171
 10
1.5968603987
 20
21.5290891707
 10
1.5872681941
 20
21.5254632202
 10
1.5776147688
 20
21.5214813657
 10
1.5679001228
 20
21.5171436072
 10
1.558124256
 20
21.5124499447
  0
LINE
  5
285
100
AcDbEntity
  8
RACCORDO
100
AcDbLine
 62
250
  6
CONTINUOUS
 10
-4.3966823001
 20
21.5209136202
 11
-4.387325392
 21
21.5237890374
  0
LINE
  5
286
100
AcDbEntity
  8
RACCORDO
100
AcDbLine
 62
250
  6
CONTINUOUS
 10
-4.387325392
 20
21.5237890374
 11
-4.377793004
 21
21.5266351837
  0
LINE
  5
287
100
AcDbEntity
  8
RACCORDO
100
AcDbLine
 62
250
  6
CONTINUOUS
 10
-4.377793004
 20
21.5266351837
 11
-4.3680828921
 21
21.5294486264
  0
LINE
  5
288
100
AcDbEntity
  8
RACCORDO
100
AcDbLine
 62
250
  6
CONTINUOUS
 10
-1.8480209661
 20
-23.6060148057
 11
-0.5354284249
 21
-24.2623110763
  0
LINE
  5
289
100
AcDbEntity
  8
RACCORDO
100
AcDbLine
 62
7
  6
CONTINUOUS
 10
-0.5354284249
 20
-23.7388032569
 11
-0.2367872148
 21
-23.888123862
  0
LINE
  5
28A
100
AcDbEntity
  8
RACCORDO
100
AcDbLine
 62
7
  6
CONTINUOUS
 10
0.7174636137
 20
-23.7459901426
 11
1.2423874943
 21
-24.0084520829
  0
LINE
  5
28B
100
AcDbEntity
  8
DRAFT
100
AcDbLine
 62
7
  6
CONTINUOUS
 10
-0.0204996544
 20
-22.6333017906
 11
-1.1613060184
 21
-22.0628986086
  0
LINE
  5
28C
100
AcDbEntity
  8
DRAFT
100
AcDbLine
 62
7
  6
CONTINUOUS
 10
0.5550598463
 20
-22.355396116
 11
-0.5906839315
 21
-21.7825242271
  0
LWPOLYLINE
  5
28D
100
AcDbEntity
  8
RACCORDO
100
AcDbPolyline
 62
250
  6
CONTINUOUS
 90
3
 70
0
 10
-21.019962331
 20
0.763997956
 10
-21.0257564563
 20
0.7896566592
 10
-21.0266686449
 20
0.8048576722
  0
LWPOLYLINE
  5
28E
100
AcDbEntity
  8
RACCORDO
100
AcDbPolyline
 62
7
  6
CONTINUOUS
 90
14
 70
0
 10
-21.0251432517
 20
0.7695337224
 10
-21.0209936079
 20
0.7378695951
 10
-21.014397358
 20
0.7073037791
 10
-21.0056449242
 20
0.6781923029
 10
-20.9950824513
 20
0.6509102965
 10
-20.9827362434
 20
0.6250873308
 10
-20.968955091
 20
0.6011849864
 10
-20.954077955
 20
0.5794161993
 10
-20.9380856894
 20
0.5594494827
 10
-20.9220370787
 20
0.5422082056
 10
-20.9058484781
 20
0.5271640122
 10
-20.8882765966
 20
0.5131634787
 10
-20.8699338262
 20
0.5009053149
 10
-20.8542421438
 20
0.4922360013
  0
LINE
  5
28F
100
AcDbEntity
  8
RACCORDO
100
AcDbLine
 62
7
  6
CONTINUOUS
 10
-17.6316386057
 20
7.3014194583
 11
-17.6319575951
 21
7.3305618883
  0
LINE
  5
290
100
AcDbEntity
  8
RACCORDO
100
AcDbLine
 62
7
  6
CONTINUOUS
 10
-17.6198253237
 20
10.3243332991
 11
-17.6198253237
 21
7.2932443787
  0
LINE
  5
291
100
AcDbEntity
  8
RACCORDO
100
AcDbLine
 62
250
  6
CONTINUOUS
 10
-17.56124668
 20
10.253622621
 11
-17.56124668
 21
7.2225337078
  0
LINE
  5
292
100
AcDbEntity
  8
RACCORDO
100
AcDbLine
 62
7
  6
CONTINUOUS
 10
-17.6263493228
 20
7.6701806111
 11
-17.6319575951
 21
7.3305618883
  0
LINE
  5
293
100
AcDbEntity
  8
RACCORDO
100
AcDbLine
 62
7
  6
CONTINUOUS
 10
-17.6198253237
 20
8.0494088489
 11
-17.6263493228
 21
7.6701806111
  0
LWPOLYLINE
  5
294
100
AcDbEntity
  8
RACCORDO
100
AcDbPolyline
 62
250
  6
CONTINUOUS
 90
16
 70
0
 10
-17.3491146456
 20
10.407364225
 10
-17.3483399439
 20
10.4258562304
 10
-17.3460243176
 20
10.4449203773
 10
-17.342193128
 20
10.4643478015
 10
-17.3368883413
 20
10.4839256581
 10
-17.3301680691
 20
10.5034394494
 10
-17.3221059334
 20
10.5226753757
 10
-17.3127902572
 20
10.5414226842
 10
-17.3023230991
 20
10.5594759716
 10
-17.2908191385
 20
10.5766374321
 10
-17.2784044112
 20
10.592719037
 10
-17.2652149337
 20
10.607544586
 10
-17.2513952182
 20
10.6209516342
 10
-17.2370966789
 20
10.6327932838
 10
-17.2224759727
 20
10.6429397914
 10
-17.209631985
 20
10.6501861971
  0
LWPOLYLINE
  5
295
100
AcDbEntity
  8
RACCORDO
100
AcDbPolyline
 62
250
  6
CONTINUOUS
 90
7
 70
0
 10
-20.9037188514
 20
0.2433733237
 10
-20.8961807465
 20
0.2561054029
 10
-20.886481488
 20
0.2685748228
 10
-20.8748801147
 20
0.2804838567
 10
-20.8614629729
 20
0.291733262
 10
-20.8461437164
 20
0.3024222812
 10
-20.8289223451
 20
0.3125509143
  0
LINE
  5
296
100
AcDbEntity
  8
RACCORDO
100
AcDbLine
 62
7
  6
CONTINUOUS
 10
-5.7980951416
 20
20.6404382256
 11
-4.9421619174
 21
21.3895458837
  0
LINE
  5
297
100
AcDbEntity
  8
RACCORDO
100
AcDbLine
 62
250
  6
CONTINUOUS
 10
-5.6441925868
 20
20.5634869482
 11
-4.6935620351
 21
21.3954731432
  0
LWPOLYLINE
  5
298
100
AcDbEntity
  8
RACCORDO
100
AcDbPolyline
 62
7
  6
CONTINUOUS
 90
4
 70
0
 10
-17.4797098539
 20
10.6355794181
 10
-17.4634638662
 20
10.6485839238
 10
-17.4461649053
 20
10.6597097857
 10
-17.4390531257
 20
10.6635893085
  0
LWPOLYLINE
  5
299
100
AcDbEntity
  8
RACCORDO
100
AcDbPolyline
 62
7
  6
CONTINUOUS
 90
12
 70
0
 10
-17.4574186653
 20
10.6508171425
 10
-17.482419381
 20
10.6334215472
 10
-17.5060250627
 20
10.6133375133
 10
-17.5279159111
 20
10.5907047896
 10
-17.5479047346
 20
10.5655900843
 10
-17.5659057151
 20
10.5379001255
 10
-17.5817418175
 20
10.5075825949
 10
-17.5950927894
 20
10.4748831186
 10
-17.6057141162
 20
10.440083824
 10
-17.613460319
 20
10.4033387493
 10
-17.6182104904
 20
10.3647130246
 10
-17.6198253237
 20
10.3243332991
  0
LINE
  5
29A
100
AcDbEntity
  8
RACCORDO
100
AcDbLine
 62
7
  6
CONTINUOUS
 10
-17.4313000871
 20
10.6654808774
 11
-17.4574186653
 21
10.6508171425
  0
LINE
  5
29B
100
AcDbEntity
  8
RACCORDO
100
AcDbLine
 62
7
  6
CONTINUOUS
 10
-3.7019537687
 20
18.8928184471
 11
-4.0679565182
 21
18.7084058991
  0
LINE
  5
29C
100
AcDbEntity
  8
RACCORDO
100
AcDbLine
 62
7
  6
CONTINUOUS
 10
1.558124256
 20
21.5124499447
 11
-3.7019537687
 21
18.8928184471
  0
LINE
  5
29D
100
AcDbEntity
  8
RACCORDO
100
AcDbLine
 62
7
  6
CONTINUOUS
 10
0.9680362833
 20
21.807493931
 11
-3.6312430906
 21
19.5570122001
  0
LINE
  5
29E
100
AcDbEntity
  8
RACCORDO
100
AcDbLine
 62
7
  6
CONTINUOUS
 10
2.3853351419
 20
21.6383339864
 11
1.7354081009
 21
21.3203170073
  0
LWPOLYLINE
  5
29F
100
AcDbEntity
  8
RACCORDO
100
AcDbPolyline
 62
7
  6
CONTINUOUS
 90
7
 70
0
 10
0.9680362833
 20
21.807493931
 10
0.977461726
 20
21.8119461422
 10
0.9868285013
 20
21.8160724314
 10
0.9961366091
 20
21.8198727985
 10
1.0053860495
 20
21.8233472435
 10
1.0145768224
 20
21.8264957665
 10
1.023708928
 20
21.8293183675
  0
LWPOLYLINE
  5
2A0
100
AcDbEntity
  8
RACCORDO
100
AcDbPolyline
 62
7
  6
CONTINUOUS
 90
12
 70
0
 10
2.3853351419
 20
21.6383339864
 10
2.4316302222
 20
21.6590886354
 10
2.477320427
 20
21.6759596363
 10
2.5224057562
 20
21.6889469892
 10
2.5670714866
 20
21.6980727372
 10
2.6111323415
 20
21.7033148371
 10
2.6540324906
 20
21.7046071595
 10
2.6957572297
 20
21.7018996674
 10
2.736321263
 20
21.6952423979
 10
2.7752128729
 20
21.6847193328
 10
2.8124108726
 20
21.6702814988
 10
2.826390977
 20
21.6636770366
  0
LWPOLYLINE
  5
2A1
100
AcDbEntity
  8
RACCORDO
100
AcDbPolyline
 62
250
  6
CONTINUOUS
 90
9
 70
0
 10
-17.3491146456
 20
6.8566600694
 10
-17.3483399246
 20
6.838942569
 10
-17.3460242497
 20
6.8221939062
 10
-17.3421929918
 20
6.8065975829
 10
-17.336888127
 20
6.7923244756
 10
-17.3301677765
 20
6.7795309636
 10
-17.3221055699
 20
6.7683572152
 10
-17.3127898385
 20
6.7589256523
 10
-17.3023226472
 20
6.7513396091
  0
LWPOLYLINE
  5
2A2
100
AcDbEntity
  8
RACCORDO
100
AcDbPolyline
 62
7
  6
CONTINUOUS
 90
19
 70
0
 10
-17.6198253237
 20
7.293244378
 10
-17.6185441795
 20
7.2564374626
 10
-17.6147859377
 20
7.2196219688
 10
-17.6086674395
 20
7.1829304607
 10
-17.6002701754
 20
7.146406392
 10
-17.5896837857
 20
7.1102186881
 10
-17.5770589954
 20
7.0746950282
 10
-17.56252581
 20
7.0400263643
 10
-17.546141188
 20
7.0062463947
 10
-17.527976092
 20
6.9734685934
 10
-17.5080694845
 20
6.9417775084
 10
-17.4864950682
 20
6.9113366189
 10
-17.4633684383
 20
6.8823607686
 10
-17.4386584931
 20
6.8548907532
 10
-17.4124696805
 20
6.8291489308
 10
-17.3851378065
 20
6.8055288774
 10
-17.3568168655
 20
6.7841849505
 10
-17.3274630066
 20
6.7651301971
 10
-17.2971360085
 20
6.7484853094
  0
LWPOLYLINE
  5
2A3
100
AcDbEntity
  8
RACCORDO
100
AcDbPolyline
 62
250
  6
CONTINUOUS
 90
22
 70
0
 10
-17.56124668
 20
7.2225337078
 10
-17.5606390027
 20
7.2027153353
 10
-17.5588760971
 20
7.1826157626
 10
-17.5559579631
 20
7.1622349897
 10
-17.5518560523
 20
7.1414489888
 10
-17.5465989131
 20
7.1203817877
 10
-17.5402721906
 20
7.0994054695
 10
-17.5328559205
 20
7.0785253122
 10
-17.5243700671
 20
7.0577360378
 10
-17.5149601682
 20
7.0373938954
 10
-17.5046134947
 20
7.0175123659
 10
-17.4933427757
 20
6.9980779684
 10
-17.4813317374
 20
6.9794065092
 10
-17.4685651013
 20
6.9615064053
 10
-17.4550581458
 20
6.9443692398
 10
-17.4410404322
 20
6.9282855686
 10
-17.4264978405
 20
6.9132717977
 10
-17.4114444907
 20
6.8993115211
 10
-17.3961523041
 20
6.8866460762
 10
-17.3807119213
 20
6.8753559089
 10
-17.3650327018
 20
6.8653605733
 10
-17.3491146456
 20
6.8566600694
  0
LINE
  5
2A4
100
AcDbEntity
  8
RACCORDO
100
AcDbLine
 62
7
  6
CONTINUOUS
 10
-15.9803266216
 20
23.3544120756
 11
-15.9803266216
 21
23.6716808759
  0
LINE
  5
2A5
100
AcDbEntity
  8
RACCORDO
100
AcDbLine
 62
250
  6
CONTINUOUS
 10
-15.9071033169
 20
23.2660237279
 11
-15.9071033169
 21
23.5832925283
  0
LINE
  5
2A6
100
AcDbEntity
  8
RACCORDO
100
AcDbLine
 62
7
  6
CONTINUOUS
 10
-15.2855624352
 20
22.4417358264
 11
-15.2855624352
 21
22.8525214852
  0
LWPOLYLINE
  5
2A7
100
AcDbEntity
  8
RACCORDO
100
AcDbPolyline
 62
250
  6
CONTINUOUS
 90
13
 70
0
 10
-15.9071033169
 20
23.5832925283
 10
-15.9056243422
 20
23.6119795337
 10
-15.9012121651
 20
23.6416655032
 10
-15.8939406133
 20
23.6718537105
 10
-15.8839313594
 20
23.7020390259
 10
-15.8713518852
 20
23.7317163678
 10
-15.856412679
 20
23.7603891544
 10
-15.8393637139
 20
23.787577613
 10
-15.8204902651
 20
23.8128268075
 10
-15.8001081361
 20
23.8357142509
 10
-15.7785583746
 20
23.8558569748
 10
-15.7562015662
 20
23.8729179373
 10
-15.7334118004
 20
23.8866116626
  0
LWPOLYLINE
  5
2A8
100
AcDbEntity
  8
RACCORDO
100
AcDbPolyline
 62
250
  6
CONTINUOUS
 90
13
 70
0
 10
-14.6191959653
 20
22.9393388525
 10
-14.6177055252
 20
22.9681392523
 10
-14.6132573705
 20
22.9979544894
 10
-14.6059236485
 20
23.0282822237
 10
-14.5958241566
 20
23.0586138416
 10
-14.5831275382
 20
23.0884332616
 10
-14.5680512132
 20
23.1172264355
 10
-14.5508119205
 20
23.1445617199
 10
-14.5317315796
 20
23.1699131365
 10
-14.5112743947
 20
23.1927074052
 10
-14.489858444
 20
23.2125724403
 10
-14.4678117545
 20
23.2292920897
 10
-14.4455044487
 20
23.2426579867
  0
LINE
  5
2A9
100
AcDbEntity
  8
RACCORDO
100
AcDbLine
 62
7
  6
CONTINUOUS
 10
-2.4847144123
 20
17.2095420115
 11
-0.9175332412
 21
18.0550722071
  0
LINE
  5
2AA
100
AcDbEntity
  8
RACCORDO
100
AcDbLine
 62
250
  6
CONTINUOUS
 10
-2.369093636
 20
17.2044525803
 11
-0.8028428898
 21
18.0494807903
  0
LINE
  5
2AB
100
AcDbEntity
  8
RACCORDO
100
AcDbLine
 62
7
  6
CONTINUOUS
 10
-0.9175337512
 20
18.0550719319
 11
-0.9136334712
 21
18.0570602407
  0
LINE
  5
2AC
100
AcDbEntity
  8
RACCORDO
100
AcDbLine
 62
7
  6
CONTINUOUS
 10
0.7153853985
 20
17.8780223672
 11
5.2792401969
 21
20.1913814589
  0
LINE
  5
2AD
100
AcDbEntity
  8
RACCORDO
100
AcDbLine
 62
7
  6
CONTINUOUS
 10
-3.7019537687
 20
17.6803828818
 11
-4.0679565182
 21
17.4959703338
  0
LINE
  5
2AE
100
AcDbEntity
  8
RACCORDO
100
AcDbLine
 62
250
  6
CONTINUOUS
 10
0.5407138424
 20
17.3777024243
 11
-1.0811862843
 21
16.5604989045
  0
LINE
  5
2AF
100
AcDbEntity
  8
RACCORDO
100
AcDbLine
 62
7
  6
CONTINUOUS
 10
1.6158611455
 20
20.3287685868
 11
-3.7019537687
 21
17.6803828818
  0
LINE
  5
2B0
100
AcDbEntity
  8
RACCORDO
100
AcDbLine
 62
250
  6
CONTINUOUS
 10
1.0679248005
 20
17.6402849242
 11
0.5406936495
 21
17.3777125207
  0
LWPOLYLINE
  5
2B1
100
AcDbEntity
  8
RACCORDO
100
AcDbPolyline
 62
250
  6
CONTINUOUS
 90
7
 70
0
 10
-2.4847144123
 20
17.2095420115
 10
-2.4783383886
 20
17.2126780926
 10
-2.4589415533
 20
17.218967951
 10
-2.4379444862
 20
17.2212925057
 10
-2.4157129348
 20
17.2196151113
 10
-2.392629739
 20
17.2139682835
 10
-2.369093636
 20
17.2044525803
  0
LINE
  5
2B2
100
AcDbEntity
  8
RACCORDO
100
AcDbLine
 62
7
  6
CONTINUOUS
 10
-0.9136326396
 20
18.0570606893
 11
-0.3761716503
 21
18.3154466252
  0
LINE
  5
2B3
100
AcDbEntity
  8
RACCORDO
100
AcDbLine
 62
250
  6
CONTINUOUS
 10
-0.802822697
 20
18.0494706939
 11
-0.2663083799
 21
18.3074015144
  0
LINE
  5
2B4
100
AcDbEntity
  8
RACCORDO
100
AcDbLine
 62
7
  6
CONTINUOUS
 10
-17.4390531257
 20
10.6635893085
 11
-17.4278265984
 21
10.6689806252
  0
LWPOLYLINE
  5
2B5
100
AcDbEntity
  8
RACCORDO
100
AcDbPolyline
 62
7
  6
CONTINUOUS
 90
7
 70
0
 10
-0.9136334712
 20
18.0570602407
 10
-0.9107487374
 20
18.0583875436
 10
-0.8914964619
 20
18.0645208311
 10
-0.8707121639
 20
18.0667003913
 10
-0.8487530262
 20
18.0648893121
 10
-0.8259988682
 20
18.0591170033
 10
-0.8028428898
 20
18.0494807903
  0
LWPOLYLINE
  5
2B6
100
AcDbEntity
  8
RACCORDO
100
AcDbPolyline
 62
250
  6
CONTINUOUS
 90
7
 70
0
 10
-0.3761716503
 20
18.3154466252
 10
-0.3726241382
 20
18.3170619113
 10
-0.3532426803
 20
18.3230412348
 10
-0.3325224214
 20
18.3249757519
 10
-0.3108947724
 20
18.3229226102
 10
-0.288696949
 20
18.3170056317
 10
-0.2663083799
 20
18.3074015144
  0
LWPOLYLINE
  5
2B7
100
AcDbEntity
  8
RACCORDO
100
AcDbPolyline
 62
250
  6
CONTINUOUS
 90
13
 70
0
 10
-0.9044365129
 20
16.2556506429
 10
-0.9292088832
 20
16.2451550882
 10
-0.9565003941
 20
16.2363512843
 10
-0.9858522356
 20
16.2293892192
 10
-1.0167728334
 20
16.2243876295
 10
-1.0487383191
 20
16.2214332852
 10
-1.0812006521
 20
16.2205777255
 10
-1.1136788153
 20
16.2218403658
 10
-1.1455532804
 20
16.2252038747
 10
-1.1760861361
 20
16.2305692768
 10
-1.2047315473
 20
16.2377897211
 10
-1.2311232176
 20
16.2467194542
 10
-1.2548778009
 20
16.2571797702
  0
LWPOLYLINE
  5
2B8
100
AcDbEntity
  8
RACCORDO
100
AcDbPolyline
 62
250
  6
CONTINUOUS
 90
7
 70
0
 10
-0.2663083799
 20
18.3074015144
 10
-0.2433757782
 20
18.31679089
 10
-0.2208573212
 20
18.3223449813
 10
-0.1991340428
 20
18.3239698077
 10
-0.1785735216
 20
18.3216378755
 10
-0.1595236615
 20
18.3153886433
 10
-0.1560476292
 20
18.313738881
  0
LWPOLYLINE
  5
2B9
100
AcDbEntity
  8
RACCORDO
100
AcDbPolyline
 62
250
  6
CONTINUOUS
 90
7
 70
0
 10
1.0679248005
 20
17.6402849242
 10
1.09094956
 20
17.6497045693
 10
1.1135622275
 20
17.6552584979
 10
1.1353762633
 20
17.6568482428
 10
1.1560201646
 20
17.6544424844
 10
1.1751375592
 20
17.6480782639
 10
1.1781855513
 20
17.6466222908
  0
LWPOLYLINE
  5
2BA
100
AcDbEntity
  8
RACCORDO
100
AcDbPolyline
 62
7
  6
CONTINUOUS
 90
3
 70
0
 10
-17.4278265984
 20
10.6689806252
 10
-17.4086829166
 20
10.6762773001
 10
-17.3887236076
 20
10.6815743391
  0
LWPOLYLINE
  5
2BB
100
AcDbEntity
  8
RACCORDO
100
AcDbPolyline
 62
7
  6
CONTINUOUS
 90
3
 70
0
 10
-17.6265359833
 20
7.2420063699
 10
-17.6298313826
 20
7.2719009613
 10
-17.6316386057
 20
7.3014194583
  0
LINE
  5
2BC
100
AcDbEntity
  8
RACCORDO
100
AcDbLine
 62
250
  6
CONTINUOUS
 10
-15.2123391305
 20
22.3522405965
 11
-15.2123391305
 21
22.8159098328
  0
LINE
  5
2BD
100
AcDbEntity
  8
RACCORDO
100
AcDbLine
 62
250
  6
CONTINUOUS
 10
-14.6191959653
 20
22.9393388525
 11
-14.6191959653
 21
22.6220700521
  0
LINE
  5
2BE
100
AcDbEntity
  8
RACCORDO
100
AcDbLine
 62
250
  6
CONTINUOUS
 10
-14.2687546774
 20
22.9378097251
 11
-14.2687546774
 21
22.6205409247
  0
LINE
  5
2BF
100
AcDbEntity
  8
RACCORDO
100
AcDbLine
 62
250
  6
CONTINUOUS
 10
-13.8997465893
 20
22.2194521453
 11
-13.8997465893
 21
21.6959443259
  0
LINE
  5
2C0
100
AcDbEntity
  8
RACCORDO
100
AcDbLine
 62
250
  6
CONTINUOUS
 10
-13.5493053014
 20
22.2179230179
 11
-13.5493053014
 21
21.698128376
  0
LWPOLYLINE
  5
2C1
100
AcDbEntity
  8
RACCORDO
100
AcDbPolyline
 62
250
  6
CONTINUOUS
 90
22
 70
0
 10
-4.7215072005
 20
12.4351522311
 10
-4.7967179427
 20
12.3904277967
 10
-4.8712643566
 20
12.3396389946
 10
-4.9447819171
 20
12.2830406798
 10
-5.0169115033
 20
12.2209216749
 10
-5.0873006141
 20
12.1535878007
 10
-5.1556041209
 20
12.0813576943
 10
-5.2214961051
 20
12.004578305
 10
-5.2846442549
 20
11.923640445
 10
-5.3447127426
 20
11.8389629788
 10
-5.4013974169
 20
11.750986965
 10
-5.4544365774
 20
11.6601337085
 10
-5.5035813105
 20
11.5668164576
 10
-5.5485977644
 20
11.4714759462
 10
-5.5892532212
 20
11.3746043546
 10
-5.62533003
 20
11.2767055134
 10
-5.6566478073
 20
11.1782797894
 10
-5.6830614837
 20
11.0798006039
 10
-5.7044422991
 20
10.9817359723
 10
-5.7206838218
 20
10.8845652471
 10
-5.7317054214
 20
10.7887765874
 10
-5.737451921
 20
10.6948447428
  0
LWPOLYLINE
  5
2C2
100
AcDbEntity
  8
RACCORDO
100
AcDbPolyline
 62
250
  6
CONTINUOUS
 90
7
 70
0
 10
1.2446947647
 20
17.335401835
 10
1.265931564
 20
17.3477160371
 10
1.283791796
 20
17.3613043781
 10
1.2979732483
 20
17.3759369304
 10
1.3082359572
 20
17.3913660971
 10
1.3144062678
 20
17.4073308019
 10
1.3163821524
 20
17.4230154931
  0
LINE
  5
2C3
100
AcDbEntity
  8
RACCORDO
100
AcDbLine
 62
250
  6
CONTINUOUS
 10
-0.2898944248
 20
14.8544999057
 11
-4.7215072005
 21
12.4351522311
  0
LINE
  5
2C4
100
AcDbEntity
  8
RACCORDO
100
AcDbLine
 62
7
  6
CONTINUOUS
 10
0.9830324479
 20
16.0374388655
 11
6.3338365444
 21
18.8661051769
  0
LINE
  5
2C5
100
AcDbEntity
  8
DRAFT
100
AcDbLine
 62
7
  6
CONTINUOUS
 10
1.4218423739
 20
15.8217118703
 11
7.0129400123
 21
18.7587712085
  0
LINE
  5
2C6
100
AcDbEntity
  8
RACCORDO
100
AcDbLine
 62
7
  6
CONTINUOUS
 10
0.780042801
 20
16.3326528623
 11
6.3338365444
 21
19.1477992281
  0
LINE
  5
2C7
100
AcDbEntity
  8
RACCORDO
100
AcDbLine
 62
250
  6
CONTINUOUS
 10
0.7174636137
 20
17.0728541626
 11
-0.9044365129
 21
16.2556506429
  0
LINE
  5
2C8
100
AcDbEntity
  8
RACCORDO
100
AcDbLine
 62
7
  6
CONTINUOUS
 10
-0.184987137
 20
15.0159692937
 11
0.7089442906
 21
15.4663816817
  0
LINE
  5
2C9
100
AcDbEntity
  8
RACCORDO
100
AcDbLine
 62
250
  6
CONTINUOUS
 10
1.2446947647
 20
17.335401835
 11
0.7174636137
 21
17.0728294315
  0
LINE
  5
2CA
100
AcDbEntity
  8
RACCORDO
100
AcDbLine
 62
250
  6
CONTINUOUS
 10
-17.6198253237
 20
7.3366040367
 11
-17.6319575951
 21
7.3305618883
  0
LINE
  5
2CB
100
AcDbEntity
  8
RACCORDO
100
AcDbLine
 62
250
  6
CONTINUOUS
 10
-17.2599751929
 20
6.7299049016
 11
-17.2852528514
 21
6.7173160476
  0
LINE
  5
2CC
100
AcDbEntity
  8
RACCORDO
100
AcDbLine
 62
250
  6
CONTINUOUS
 10
0.7126848502
 20
15.4805229156
 11
1.4244626847
 21
15.8167237471
  0
LINE
  5
2CD
100
AcDbEntity
  8
RACCORDO
100
AcDbLine
 62
7
  6
CONTINUOUS
 10
0.7089442906
 20
15.4663816817
 11
0.7174636137
 21
15.470405695
  0
LWPOLYLINE
  5
2CE
100
AcDbEntity
  8
RACCORDO
100
AcDbPolyline
 62
250
  6
CONTINUOUS
 90
13
 70
0
 10
-0.184987137
 20
15.5357639357
 10
-0.2096538916
 20
15.5253075547
 10
-0.2368137818
 20
15.5165306963
 10
-0.2660123507
 20
15.5095802215
 10
-0.2967610291
 20
15.5045724308
 10
-0.3285453085
 20
15.5015911188
 10
-0.3608333494
 20
15.5006861714
 10
-0.3930848849
 20
15.501872731
 10
-0.4247602611
 20
15.5051309429
 10
-0.4553294635
 20
15.5104062887
 10
-0.4842809873
 20
15.5176104975
 10
-0.5111303953
 20
15.5266230236
 10
-0.5354284249
 20
15.5372930631
  0
LWPOLYLINE
  5
2CF
100
AcDbEntity
  8
RACCORDO
100
AcDbPolyline
 62
250
  6
CONTINUOUS
 90
13
 70
0
 10
-0.9044365129
 20
15.9383818425
 10
-0.9291564388
 20
15.9279057342
 10
-0.9563740589
 20
15.9191176729
 10
-0.9856311006
 20
15.9121643764
 10
-1.0164326131
 20
15.9071620018
 10
-1.0482636085
 20
15.9041927869
 10
-1.080598468
 20
15.9033055545
 10
-1.1129222591
 20
15.9045177687
 10
-1.1446638632
 20
15.9078113521
 10
-1.1752204659
 20
15.9131170382
 10
-1.2040680489
 20
15.9203267178
 10
-1.2307628209
 20
15.9293114386
 10
-1.2548778009
 20
15.9399109699
  0
LINE
  5
2D0
100
AcDbEntity
  8
DRAFT
100
AcDbLine
 62
7
  6
CONTINUOUS
 10
-1.4038567299
 20
-15.0539523803
 11
-0.5906839315
 21
-15.4605387795
  0
LINE
  5
2D1
100
AcDbEntity
  8
DRAFT
100
AcDbLine
 62
7
  6
CONTINUOUS
 10
-1.7927654595
 20
-13.9501713415
 11
-1.4038567299
 21
-14.1446257063
  0
LWPOLYLINE
  5
2D2
100
AcDbEntity
  8
RACCORDO
100
AcDbPolyline
 62
250
  6
CONTINUOUS
 90
13
 70
0
 10
-0.3648494809
 20
-24.7256857269
 10
-0.3779891826
 20
-24.7062205878
 10
-0.3938451205
 20
-24.6855633254
 10
-0.4121489979
 20
-24.6640634802
 10
-0.4325910973
 20
-24.6420848489
 10
-0.4548255187
 20
-24.619999332
 10
-0.4784760317
 20
-24.5981806406
 10
-0.5031424456
 20
-24.5769979688
 10
-0.5284073818
 20
-24.5568097473
 10
-0.553843333
 20
-24.5379575802
 10
-0.5790198983
 20
-24.5207604645
 10
-0.6035110658
 20
-24.505509392
 10
-0.6269024212
 20
-24.4924624257
  0
LWPOLYLINE
  5
2D3
100
AcDbEntity
  8
RACCORDO
100
AcDbPolyline
 62
250
  6
CONTINUOUS
 90
13
 70
0
 10
-0.9044365129
 20
-25.3612222969
 10
-0.9174780038
 20
-25.341893115
 10
-0.9332365636
 20
-25.3213414175
 10
-0.9514641089
 20
-25.2999053735
 10
-0.9718830405
 20
-25.2779262697
 10
-0.9941480919
 20
-25.2557890531
 10
-1.0178401601
 20
-25.2339156577
 10
-1.0425393231
 20
-25.2126921363
 10
-1.0678420731
 20
-25.1924636488
 10
-1.0933179941
 20
-25.1735742025
 10
-1.1185343734
 20
-25.156344443
 10
-1.1430635862
 20
-25.1410663598
 10
-1.1664894532
 20
-25.1279989957
  0
LWPOLYLINE
  5
2D4
100
AcDbEntity
  8
RACCORDO
100
AcDbPolyline
 62
250
  6
CONTINUOUS
 90
13
 70
0
 10
-14.2687546774
 20
22.9378097251
 10
-14.2706493487
 20
22.9666309475
 10
-14.275481913
 20
22.9964971389
 10
-14.2831697157
 20
23.0268974785
 10
-14.2935812673
 20
23.0573120093
 10
-14.3065384923
 20
23.0872205318
 10
-14.3218197748
 20
23.1161115012
 10
-14.3391637491
 20
23.1434907762
 10
-14.3582737698
 20
23.1688900713
 10
-14.3788229859
 20
23.1918749658
 10
-14.4004599307
 20
23.212052334
 10
-14.4228145334
 20
23.2290770694
 10
-14.4455044487
 20
23.2426579867
  0
LWPOLYLINE
  5
2D5
100
AcDbEntity
  8
RACCORDO
100
AcDbPolyline
 62
7
  6
CONTINUOUS
 90
13
 70
0
 10
-12.6468545507
 20
23.7550132448
 10
-12.6484562769
 20
23.7839769893
 10
-12.6530473451
 20
23.813961223
 10
-12.6605457011
 20
23.8444554319
 10
-12.6708192446
 20
23.8749411468
 10
-12.6836916978
 20
23.904896653
 10
-12.6989450899
 20
23.9338060576
 10
-12.7163208369
 20
23.9611735933
 10
-12.735519312
 20
23.9865322562
 10
-12.7562078514
 20
24.0094482351
 10
-12.7780327621
 20
24.02952918
 10
-12.8006256983
 20
24.0464304184
 10
-12.8236043221
 20
24.0598615065
  0
LWPOLYLINE
  5
2D6
100
AcDbEntity
  8
RACCORDO
100
AcDbPolyline
 62
250
  6
CONTINUOUS
 90
8
 70
0
 10
-13.8997465893
 20
22.2194521453
 10
-13.9009929747
 20
22.2440565007
 10
-13.9046971888
 20
22.2671526817
 10
-13.9108063524
 20
22.2884315476
 10
-13.919239133
 20
22.3076086704
 10
-13.9298775183
 20
22.3244331659
 10
-13.9425728448
 20
22.3386857254
 10
-13.9571578648
 20
22.3501763378
  0
LWPOLYLINE
  5
2D7
100
AcDbEntity
  8
RACCORDO
100
AcDbPolyline
 62
250
  6
CONTINUOUS
 90
13
 70
0
 10
-12.1196233998
 20
24.0175609173
 10
-12.1209491672
 20
24.0466692471
 10
-12.1253029355
 20
24.0767785224
 10
-12.1326102175
 20
24.107373615
 10
-12.1427459959
 20
24.1379310851
 10
-12.1555368614
 20
24.1679281365
 10
-12.1707639799
 20
24.196851561
 10
-12.1881668365
 20
24.2242065187
 10
-12.2074476923
 20
24.2495250041
 10
-12.2282766784
 20
24.2723738527
 10
-12.2502974396
 20
24.2923621524
 10
-12.2731332311
 20
24.3091479308
 10
-12.2963933639
 20
24.3224440064
  0
LWPOLYLINE
  5
2D8
100
AcDbEntity
  8
RACCORDO
100
AcDbPolyline
 62
250
  6
CONTINUOUS
 90
13
 70
0
 10
-13.5493053014
 20
22.2179230179
 10
-13.5507941231
 20
22.2555365487
 10
-13.5548958608
 20
22.290979835
 10
-13.5616105146
 20
22.3242528766
 10
-13.5710250984
 20
22.3555504384
 10
-13.5830525982
 20
22.3846777557
 10
-13.5974319721
 20
22.4110505338
 10
-13.6142024224
 20
22.434629408
 10
-13.6333247467
 20
22.4554537432
 10
-13.6544202961
 20
22.4730573394
 10
-13.6773628542
 20
22.4872847967
 10
-13.7022786373
 20
22.4982915151
 10
-13.7291676454
 20
22.5060774946
  0
LINE
  5
2D9
100
AcDbEntity
  8
RACCORDO
100
AcDbLine
 62
7
  6
CONTINUOUS
 10
-12.6468545507
 20
22.1528332729
 11
-12.6468545507
 21
23.7549885138
  0
LINE
  5
2DA
100
AcDbEntity
  8
RACCORDO
100
AcDbLine
 62
250
  6
CONTINUOUS
 10
-12.1196233998
 20
23.6719234563
 11
-12.1196233998
 21
24.0175609173
  0
LINE
  5
2DB
100
AcDbEntity
  8
RACCORDO
100
AcDbLine
 62
7
  6
CONTINUOUS
 10
-12.047936012
 20
23.6719217882
 11
-12.047936012
 21
24.1051745753
  0
LWPOLYLINE
  5
2DC
100
AcDbEntity
  8
RACCORDO
100
AcDbPolyline
 62
7
  6
CONTINUOUS
 90
12
 70
0
 10
-20.9214981815
 20
0.3165689951
 10
-20.9529197894
 20
0.2980079577
 10
-20.9828905784
 20
0.2767997847
 10
-21.009634488
 20
0.2540455112
 10
-21.0332488761
 20
0.2298294761
 10
-21.0537991739
 20
0.2042202788
 10
-21.0712206398
 20
0.177412488
 10
-21.0854780584
 20
0.1495928704
 10
-21.096566307
 20
0.1209362381
 10
-21.104443622
 20
0.0917644216
 10
-21.109124765
 20
0.0623495789
 10
-21.1106502505
 20
0.0330877568
  0
LWPOLYLINE
  5
2DD
100
AcDbEntity
  8
RACCORDO
100
AcDbPolyline
 62
250
  6
CONTINUOUS
 90
22
 70
0
 10
-4.3556744605
 20
11.8321497854
 10
-4.4063135341
 20
11.802310833
 10
-4.4560839325
 20
11.7687575651
 10
-4.5049856557
 20
11.7314899817
 10
-4.5532682735
 20
11.6902793504
 10
-4.6006822161
 20
11.6453544036
 10
-4.6464787745
 20
11.5974013383
 10
-4.6906209584
 20
11.5463787546
 10
-4.7331457581
 20
11.4923280523
 10
-4.7734154361
 20
11.4360596285
 10
-4.8113893328
 20
11.3775516667
 10
-4.8471081079
 20
11.3168259832
 10
-4.8800560016
 20
11.2547584237
 10
-4.9101986829
 20
11.1913156855
 10
-4.937570483
 20
11.1265310713
 10
-4.9617586362
 20
11.0613803339
 10
-4.9827121865
 20
10.9958496993
 10
-5.0004820901
 20
10.9299529417
 10
-5.0148084492
 20
10.8647071358
 10
-5.0256046313
 20
10.8004513067
 10
-5.032957269
 20
10.7368464294
 10
-5.0368663623
 20
10.6738925039
  0
LINE
  5
2DE
100
AcDbEntity
  8
RACCORDO
100
AcDbLine
 62
250
  6
CONTINUOUS
 10
0.0633898411
 20
14.2446468791
 11
-4.3556744605
 21
11.8321497854
  0
LINE
  5
2DF
100
AcDbEntity
  8
RACCORDO
100
AcDbLine
 62
250
  6
CONTINUOUS
 10
11.7975614129
 20
18.2923727495
 11
1.7781237855
 21
13.1949559289
  0
LINE
  5
2E0
100
AcDbEntity
  8
RACCORDO
100
AcDbLine
 62
250
  6
CONTINUOUS
 10
11.618358327
 20
18.6014523529
 11
11.6556610252
 21
18.6198297338
  0
LINE
  5
2E1
100
AcDbEntity
  8
RACCORDO
100
AcDbLine
 62
250
  6
CONTINUOUS
 10
11.7975614129
 20
18.2923727495
 11
11.8348400449
 21
18.3107383879
  0
LINE
  5
2E2
100
AcDbEntity
  8
RACCORDO
100
AcDbLine
 62
250
  6
CONTINUOUS
 10
7.758466948
 20
17.4729274497
 11
11.1184344795
 21
19.1050286122
  0
LINE
  5
2E3
100
AcDbEntity
  8
RACCORDO
100
AcDbLine
 62
250
  6
CONTINUOUS
 10
8.0961352818
 20
16.8905357227
 11
11.618358327
 21
18.6014523529
  0
LWPOLYLINE
  5
2E4
100
AcDbEntity
  8
RACCORDO
100
AcDbPolyline
 62
250
  6
CONTINUOUS
 90
31
 70
0
 10
11.6556610252
 20
18.6198297338
 10
11.6913294731
 20
18.6370566822
 10
11.7085175045
 20
18.6452225952
 10
11.725257613
 20
18.6530819731
 10
11.7415373649
 20
18.6606289777
 10
11.7573446341
 20
18.6678579866
 10
11.7726676335
 20
18.6747636092
 10
11.7874949587
 20
18.681340706
 10
11.8018155951
 20
18.687584391
 10
11.8156188956
 20
18.6934900225
 10
11.828894597
 20
18.6990532091
 10
11.8416328262
 20
18.7042698135
 10
11.8538241092
 20
18.7091359559
 10
11.8654593801
 20
18.7136480177
 10
11.8765299875
 20
18.7178026439
 10
11.8870276994
 20
18.7215967451
 10
11.8969447095
 20
18.7250275001
 10
11.9062736437
 20
18.7280923577
 10
11.9150075649
 20
18.7307890389
 10
11.9231399786
 20
18.7331155385
 10
11.9306648376
 20
18.7350701264
 10
11.9375765464
 20
18.7366513493
 10
11.9438699654
 20
18.7378580314
 10
11.9495404149
 20
18.7386892753
 10
11.9545836783
 20
18.739144463
 10
11.9589960055
 20
18.7392232559
 10
11.9627741154
 20
18.7389255956
 10
11.9659151986
 20
18.7382517032
 10
11.9684169196
 20
18.73720208
 10
11.9702774178
 20
18.7357775064
 10
11.9712015758
 20
18.7345507103
  0
LWPOLYLINE
  5
2E5
100
AcDbEntity
  8
RACCORDO
100
AcDbPolyline
 62
250
  6
CONTINUOUS
 90
31
 70
0
 10
11.8348400449
 20
18.3107383879
 10
11.8704866047
 20
18.3279551222
 10
11.8876645765
 20
18.3361165343
 10
11.9043952267
 20
18.343971821
 10
11.9206661311
 20
18.3515151491
 10
11.9364652067
 20
18.3587409168
 10
11.9517807212
 20
18.3656437583
 10
11.966601301
 20
18.3722185473
 10
11.9809159404
 20
18.3784604015
 10
11.9947140093
 20
18.3843646856
 10
12.0079852611
 20
18.3899270151
 10
12.0207198405
 20
18.3951432594
 10
12.0329082907
 20
18.4000095447
 10
12.0445415606
 20
18.4045222575
 10
12.0556110112
 20
18.4086780465
 10
12.0661084222
 20
18.4124738256
 10
12.0760259983
 20
18.4159067761
 10
12.0853563746
 20
18.4189743487
 10
12.0940926222
 20
18.4216742653
 10
12.1022282537
 20
18.4240045209
 10
12.1097572275
 20
18.4259633851
 10
12.1166739524
 20
18.4275494033
 10
12.1229732921
 20
18.4287613977
 10
12.1286505687
 20
18.4295984681
 10
12.1337015662
 20
18.4300599931
 10
12.1381225337
 20
18.4301456298
 10
12.1419101881
 20
18.4298553148
 10
12.1450617168
 20
18.4291892635
 10
12.1475747793
 20
18.4281479706
 10
12.1494475095
 20
18.4267322093
 10
12.1504046468
 20
18.4254711326
  0
LINE
  5
2E6
100
AcDbEntity
  8
RACCORDO
100
AcDbLine
 62
250
  6
CONTINUOUS
 10
-0.0204996544
 20
14.3572370465
 11
1.7781237855
 21
15.2067980565
  0
LWPOLYLINE
  5
2E7
100
AcDbEntity
  8
RACCORDO
100
AcDbPolyline
 62
250
  6
CONTINUOUS
 90
26
 70
0
 10
11.1184344795
 20
19.1050286122
 10
11.1376943917
 20
19.1139252232
 10
11.1569308371
 20
19.1221676282
 10
11.1761295306
 20
19.1297497063
 10
11.1952762152
 20
19.1366658269
 10
11.2143566724
 20
19.1429108541
 10
11.2333567329
 20
19.1484801504
 10
11.2522622873
 20
19.1533695799
 10
11.2710592962
 20
19.1575755117
 10
11.2897338007
 20
19.1610948224
 10
11.3082719331
 20
19.1639248987
 10
11.3266599269
 20
19.1660636388
 10
11.3448841271
 20
19.1675094546
 10
11.3629310002
 20
19.1682612724
 10
11.3807871446
 20
19.1683185338
 10
11.3984393002
 20
19.1676811963
 10
11.4158743584
 20
19.1663497333
 10
11.4330793718
 20
19.1643251335
 10
11.4500415639
 20
19.1616089003
 10
11.4667483384
 20
19.1582030509
 10
11.4831872889
 20
19.1541101144
 10
11.4993462077
 20
19.1493331303
 10
11.515213095
 20
19.143875646
 10
11.5307761681
 20
19.1377417143
 10
11.5460238697
 20
19.1309358902
 10
11.55330736
 20
19.1273919418
  0
LWPOLYLINE
  5
2E8
100
AcDbEntity
  8
RACCORDO
100
AcDbPolyline
 62
250
  6
CONTINUOUS
 90
16
 70
0
 10
-5.0368663623
 20
10.6738925039
 10
-5.0758757131
 20
10.6587535904
 10
-5.1181885596
 20
10.6457037262
 10
-5.1633515404
 20
10.634882734
 10
-5.2108807563
 20
10.6264065556
 10
-5.260266955
 20
10.6203660091
 10
-5.3109809879
 20
10.6168258158
 10
-5.3624794787
 20
10.6158239073
 10
-5.4142106466
 20
10.6173710185
 10
-5.4656202175
 20
10.6214505728
 10
-5.5161573629
 20
10.6280188599
 10
-5.5652806023
 20
10.6370055038
 10
-5.6124636043
 20
10.6483142171
 10
-5.657200826
 20
10.6618238324
 10
-5.6990129303
 20
10.6773896008
 10
-5.7374519208
 20
10.6948447429
  0
LWPOLYLINE
  5
2E9
100
AcDbEntity
  8
RACCORDO
100
AcDbPolyline
 62
250
  6
CONTINUOUS
 90
7
 70
0
 10
-15.9803266216
 20
23.6716808759
 10
-15.9777821259
 20
23.6538920211
 10
-15.9710551079
 20
23.6379547885
 10
-15.9603243038
 20
23.6226883607
 10
-15.9458834152
 20
23.6083656551
 10
-15.928023949
 20
23.5951698199
 10
-15.9071033169
 20
23.5832925283
  0
LWPOLYLINE
  5
2EA
100
AcDbEntity
  8
RACCORDO
100
AcDbPolyline
 62
250
  6
CONTINUOUS
 90
7
 70
0
 10
-15.9803266216
 20
23.3544120756
 10
-15.9779439817
 20
23.3371954921
 10
-15.9714275567
 20
23.3213578053
 10
-15.9608768646
 20
23.3060732054
 10
-15.9464684469
 20
23.2915974447
 10
-15.9284433951
 20
23.2781727418
 10
-15.9071033169
 20
23.2660237279
  0
LWPOLYLINE
  5
2EB
100
AcDbEntity
  8
RACCORDO
100
AcDbPolyline
 62
250
  6
CONTINUOUS
 90
10
 70
0
 10
-9.5709400526
 20
2.9675727729
 10
-9.5701653479
 20
2.9498554706
 10
-9.5678497191
 20
2.9331069513
 10
-9.5640185275
 20
2.9175107177
 10
-9.558713739
 20
2.9032376488
 10
-9.5519934655
 20
2.8904441303
 10
-9.543931329
 20
2.8792703401
 10
-9.5346156524
 20
2.869838708
 10
-9.5241484945
 20
2.8622525786
 10
-9.5189614097
 20
2.85939801
  0
LWPOLYLINE
  5
2EC
100
AcDbEntity
  8
RACCORDO
100
AcDbPolyline
 62
250
  6
CONTINUOUS
 90
22
 70
0
 10
-9.3588080182
 20
6.1524032901
 10
-9.3594156954
 20
6.1722216625
 10
-9.3611786011
 20
6.1923212352
 10
-9.3640967351
 20
6.2127020082
 10
-9.3681986459
 20
6.233488009
 10
-9.373455785
 20
6.2545552102
 10
-9.3797825075
 20
6.2755315284
 10
-9.3871987777
 20
6.2964116857
 10
-9.3956846311
 20
6.3172009601
 10
-9.4050945299
 20
6.3375431024
 10
-9.4154412035
 20
6.357424632
 10
-9.4267119225
 20
6.3768590295
 10
-9.4387229608
 20
6.3955304887
 10
-9.4514895969
 20
6.4134305925
 10
-9.4649965524
 20
6.430567758
 10
-9.479014266
 20
6.4466514293
 10
-9.4935568577
 20
6.4616652001
 10
-9.5086102075
 20
6.4756254768
 10
-9.523902394
 20
6.4882909217
 10
-9.5393427768
 20
6.499581089
 10
-9.5550219963
 20
6.5095764246
 10
-9.5709400526
 20
6.5182769284
  0
LINE
  5
2ED
100
AcDbEntity
  8
RACCORDO
100
AcDbLine
 62
7
  6
CONTINUOUS
 10
-10.4182682897
 20
21.6345195519
 11
-10.4182682897
 21
20.4220839866
  0
LINE
  5
2EE
100
AcDbEntity
  8
RACCORDO
100
AcDbLine
 62
250
  6
CONTINUOUS
 10
-10.2718216803
 20
21.4555290921
 11
-10.2718216803
 21
20.2430935268
  0
LINE
  5
2EF
100
AcDbEntity
  8
RACCORDO
100
AcDbLine
 62
250
  6
CONTINUOUS
 10
-9.3588080182
 20
3.1213143769
 11
-9.3588080182
 21
6.1524032901
  0
LWPOLYLINE
  5
2F0
100
AcDbEntity
  8
RACCORDO
100
AcDbPolyline
 62
7
  6
CONTINUOUS
 90
10
 70
0
 10
-9.0884997051
 20
6.148127566
 10
-9.095819511
 20
5.8077023509
 10
-9.1029253893
 20
5.4673772267
 10
-9.1098173358
 20
5.1271523995
 10
-9.1164953462
 20
4.7870280753
 10
-9.1229594165
 20
4.4470044598
 10
-9.1292095429
 20
4.107081759
 10
-9.1352457215
 20
3.7672601785
 10
-9.1410679487
 20
3.427539924
 10
-9.1466762209
 20
3.0879212012
  0
LWPOLYLINE
  5
2F1
100
AcDbEntity
  8
RACCORDO
100
AcDbPolyline
 62
250
  6
CONTINUOUS
 90
15
 70
0
 10
-9.5709400526
 20
6.5182769284
 10
-9.5701653316
 20
6.5367691498
 10
-9.5678496566
 20
6.5558334876
 10
-9.5640183987
 20
6.5752610688
 10
-9.5587135339
 20
6.5948390409
 10
-9.5519931835
 20
6.6143529034
 10
-9.5439309769
 20
6.6335888584
 10
-9.5346152454
 20
6.6523361527
 10
-9.5241480542
 20
6.6703893871
 10
-9.5126440839
 20
6.6875507666
 10
-9.5002293744
 20
6.7036322675
 10
-9.487039944
 20
6.7184576975
 10
-9.4732202988
 20
6.731864626
 10
-9.4589218496
 20
6.7437061641
 10
-9.4443012534
 20
6.7538525732
  0
LWPOLYLINE
  5
2F2
100
AcDbEntity
  8
RACCORDO
100
AcDbPolyline
 62
7
  6
CONTINUOUS
 90
15
 70
0
 10
-9.1466762209
 20
3.0879212012
 10
-9.1479252516
 20
3.0595627799
 10
-9.1506477436
 20
3.0323091383
 10
-9.1548437541
 20
3.0061602492
 10
-9.1605438593
 20
2.9810138813
 10
-9.167717584
 20
2.9569722181
 10
-9.1762734611
 20
2.9343418299
 10
-9.1862293059
 20
2.9131407361
 10
-9.1975675132
 20
2.8933508176
 10
-9.2101435792
 20
2.8752243916
 10
-9.2239735054
 20
2.8587826792
 10
-9.2390415648
 20
2.8440043288
 10
-9.2551557323
 20
2.8310777648
 10
-9.2723295724
 20
2.8200266129
 10
-9.284694928
 20
2.8135261012
  0
LINE
  5
2F3
100
AcDbEntity
  8
RACCORDO
100
AcDbLine
 62
250
  6
CONTINUOUS
 10
0.7174636137
 20
16.3454163986
 11
1.2446947647
 21
16.9897643741
  0
LINE
  5
2F4
100
AcDbEntity
  8
RACCORDO
100
AcDbLine
 62
7
  6
CONTINUOUS
 10
0.7174636137
 20
16.2561726077
 11
1.3153496701
 21
16.9868704606
  0
LINE
  5
2F5
100
AcDbEntity
  8
RACCORDO
100
AcDbLine
 62
250
  6
CONTINUOUS
 10
-9.4443012534
 20
6.7538525732
 11
-9.4295186963
 21
6.7621926873
  0
LINE
  5
2F6
100
AcDbEntity
  8
RACCORDO
100
AcDbLine
 62
7
  6
CONTINUOUS
 10
-20.9215026478
 20
0.3165772429
 11
-20.7201707596
 21
0.4252004836
  0
LINE
  5
2F7
100
AcDbEntity
  8
RACCORDO
100
AcDbLine
 62
250
  6
CONTINUOUS
 10
-20.8289223451
 20
0.3125509143
 11
-20.6682473322
 21
0.3992387699
  0
LWPOLYLINE
  5
2F8
100
AcDbEntity
  8
RACCORDO
100
AcDbPolyline
 62
250
  6
CONTINUOUS
 90
30
 70
0
 10
12.2117118886
 20
16.8607391749
 10
12.2303730272
 20
16.8706685179
 10
12.2484861222
 20
16.8808484158
 10
12.2660377228
 20
16.8912713092
 10
12.283014795
 20
16.9019294577
 10
12.2994047316
 20
16.9128149467
 10
12.3151953613
 20
16.9239196925
 10
12.330374958
 20
16.9352354486
 10
12.3449322491
 20
16.946753812
 10
12.3588564243
 20
16.958466229
 10
12.3721371435
 20
16.9703640019
 10
12.3847645443
 20
16.9824382954
 10
12.3967292495
 20
16.994680143
 10
12.4080223742
 20
17.0070804538
 10
12.4186355319
 20
17.0196300194
 10
12.4285608413
 20
17.0323195203
 10
12.4377909317
 20
17.0451395333
 10
12.446318949
 20
17.0580805382
 10
12.45413856
 20
17.0711329248
 10
12.461243958
 20
17.0842870004
 10
12.4676298663
 20
17.0975329967
 10
12.4732915429
 20
17.1108610772
 10
12.4782247833
 20
17.1242613443
 10
12.4824259241
 20
17.137723847
 10
12.4858918455
 20
17.151238588
 10
12.4886199736
 20
17.164795531
 10
12.4906082825
 20
17.1783846086
 10
12.4918552958
 20
17.1919957296
 10
12.4923600874
 20
17.2056187862
 10
12.4923720882
 20
17.2080668502
  0
LINE
  5
2F9
100
AcDbEntity
  8
RACCORDO
100
AcDbLine
 62
250
  6
CONTINUOUS
 10
12.2117118886
 20
16.8607391749
 11
1.7781237855
 21
11.5526221454
  0
LWPOLYLINE
  5
2FA
100
AcDbEntity
  8
RACCORDO
100
AcDbPolyline
 62
250
  6
CONTINUOUS
 90
7
 70
0
 10
-20.9214189656
 20
0.3166224595
 10
-20.915978827
 20
0.3192816673
 10
-20.9005127588
 20
0.3242240608
 10
-20.8837800189
 20
0.3260259198
 10
-20.8660667981
 20
0.324656426
 10
-20.8476760573
 20
0.3201390026
 10
-20.8289223451
 20
0.3125509143
  0
LINE
  5
2FB
100
AcDbEntity
  8
RACCORDO
100
AcDbLine
 62
7
  6
CONTINUOUS
 10
12.4923720882
 20
15.6751616638
 11
13.0688176603
 21
15.9510611957
  0
LWPOLYLINE
  5
2FC
100
AcDbEntity
  8
RACCORDO
100
AcDbPolyline
 62
7
  6
CONTINUOUS
 90
40
 70
0
 10
19.3037788538
 20
-4.1783594664
 10
19.3785561337
 20
-4.1584175339
 10
19.4512449355
 20
-4.1393089015
 10
19.521845259
 20
-4.1210335692
 10
19.5902977354
 20
-4.1036154712
 10
19.6566617335
 20
-4.0870306732
 10
19.7211153606
 20
-4.0712073731
 10
19.7836680804
 20
-4.0561422616
 10
19.8443104292
 20
-4.0418386479
 10
19.9031921231
 20
-4.028234657
 10
19.960317211
 20
-4.0153284759
 10
20.0156816439
 20
-4.0031219176
 10
20.0694229918
 20
-3.9915585459
 10
20.1215448404
 20
-3.9806366918
 10
20.1720436039
 20
-3.9703580243
 10
20.2210460942
 20
-3.9606711141
 10
20.2685558516
 20
-3.951574342
 10
20.3145693359
 20
-3.9430693272
 10
20.3592027378
 20
-3.9351094986
 10
20.4024595918
 20
-3.9276932983
 10
20.4443363634
 20
-3.9208222841
 10
20.4849386408
 20
-3.9144545581
 10
20.5242688692
 20
-3.9085887631
 10
20.5623246034
 20
-3.9032262562
 10
20.5992040954
 20
-3.8983292111
 10
20.6349101186
 20
-3.8938962118
 10
20.6694398996
 20
-3.8899286743
 10
20.7028833709
 20
-3.8863930208
 10
20.7352427557
 20
-3.8832878667
 10
20.7665158308
 20
-3.8806145965
 10
20.7967858596
 20
-3.878343786
 10
20.8260578431
 20
-3.8764739835
 10
20.8543267802
 20
-3.8750066407
 10
20.8816609311
 20
-3.8739166887
 10
20.9080624013
 20
-3.8732030566
 10
20.9335290852
 20
-3.8728668154
 10
20.9581229267
 20
-3.8728861088
 10
20.9818645739
 20
-3.8732536513
 10
21.0047333787
 20
-3.8739767283
 10
21.0267293411
 20
-3.8750553399
  0
LWPOLYLINE
  5
2FD
100
AcDbEntity
  8
RACCORDO
100
AcDbPolyline
 62
7
  6
CONTINUOUS
 90
16
 70
0
 10
19.3037788538
 20
-4.1783594664
 10
19.2928682312
 20
-4.1810678777
 10
19.282112793
 20
-4.1832770853
 10
19.2715125392
 20
-4.1849870892
 10
19.2610543794
 20
-4.1861978433
 10
19.250751404
 20
-4.1869093938
 10
19.2406428835
 20
-4.1871218789
 10
19.2307326787
 20
-4.1868274424
 10
19.2210169287
 20
-4.1860339406
 10
19.2115233219
 20
-4.1847650814
 10
19.2022584324
 20
-4.1830136659
 10
19.1932156861
 20
-4.1807868931
 10
19.1844030484
 20
-4.1781300672
 10
19.1758231745
 20
-4.1750582898
 10
19.1674734093
 20
-4.1715564594
 10
19.1593537527
 20
-4.1676245759
  0
LWPOLYLINE
  5
2FE
100
AcDbEntity
  8
RACCORDO
100
AcDbPolyline
 62
7
  6
CONTINUOUS
 90
10
 70
0
 10
-5.8824148996
 20
-6.9926984069
 10
-5.8393147277
 20
-7.0088147186
 10
-5.7943544832
 20
-7.0210257691
 10
-5.7478146899
 20
-7.0290793998
 10
-5.7004226887
 20
-7.0327148461
 10
-5.6525858566
 20
-7.0318132479
 10
-5.6047580992
 20
-7.0262952391
 10
-5.5577661995
 20
-7.0162253285
 10
-5.5121598275
 20
-7.00176559
 10
-5.4722500697
 20
-6.9849768484
  0
LINE
  5
2FF
100
AcDbEntity
  8
RACCORDO
100
AcDbLine
 62
7
  6
CONTINUOUS
 10
-5.9108758396
 20
-6.9794644379
 11
-5.8824148996
 21
-6.9926984069
  0
LINE
  5
300
100
AcDbEntity
  8
RACCORDO
100
AcDbLine
 62
7
  6
CONTINUOUS
 10
-5.9047785119
 20
-6.9824388089
 11
-5.9000775604
 21
-6.9846386742
  0
LINE
  5
301
100
AcDbEntity
  8
RACCORDO
100
AcDbLine
 62
7
  6
CONTINUOUS
 10
-5.9094030361
 20
-6.9801828865
 11
-5.9047785119
 21
-6.9824388089
  0
LINE
  5
302
100
AcDbEntity
  8
RACCORDO
100
AcDbLine
 62
7
  6
CONTINUOUS
 10
-20.8543715465
 20
0.4923008773
 11
-20.8542567491
 21
0.4922441713
  0
LINE
  5
303
100
AcDbEntity
  8
RACCORDO
100
AcDbLine
 62
250
  6
CONTINUOUS
 10
-6.0970692261
 20
-7.5785263515
 11
-20.9642028834
 21
-0.1449595228
  0
LINE
  5
304
100
AcDbEntity
  8
RACCORDO
100
AcDbLine
 62
250
  6
CONTINUOUS
 10
-5.9581160554
 20
-7.3357350302
 11
-20.8252497128
 21
0.0978317985
  0
LINE
  5
305
100
AcDbEntity
  8
RACCORDO
100
AcDbLine
 62
7
  6
CONTINUOUS
 10
-5.9089882234
 20
-6.9803907845
 11
-20.854351798
 21
0.4922910029
  0
LINE
  5
306
100
AcDbEntity
  8
RACCORDO
100
AcDbLine
 62
250
  6
CONTINUOUS
 10
-6.0394869544
 20
-6.7916202506
 11
-20.8802728179
 21
0.6287726811
  0
LINE
  5
307
100
AcDbEntity
  8
RACCORDO
100
AcDbLine
 62
7
  6
CONTINUOUS
 10
-5.9176552612
 20
-6.9759196223
 11
-5.9110309919
 21
-6.9793664168
  0
LWPOLYLINE
  5
308
100
AcDbEntity
  8
RACCORDO
100
AcDbPolyline
 62
250
  6
CONTINUOUS
 90
10
 70
0
 10
-20.9641922173
 20
-0.1449541839
 10
-20.9933548847
 20
-0.1290367997
 10
-21.019694143
 20
-0.1118831202
 10
-21.0429677748
 20
-0.0936268786
 10
-21.0630058512
 20
-0.0744087377
 10
-21.0796790755
 20
-0.0543722316
 10
-21.0928589526
 20
-0.0336603009
 10
-21.1024462284
 20
-0.0124253403
 10
-21.1083871258
 20
0.0091718785
 10
-21.1106502561
 20
0.0330962278
  0
LWPOLYLINE
  5
309
100
AcDbEntity
  8
RACCORDO
100
AcDbPolyline
 62
250
  6
CONTINUOUS
 90
13
 70
0
 10
-20.8252497128
 20
0.0978317985
 10
-20.842810029
 20
0.1074343908
 10
-20.8584881981
 20
0.1176550982
 10
-20.87228422
 20
0.1284939205
 10
-20.8842880228
 20
0.1400474656
 10
-20.8944096784
 20
0.1522191256
 10
-20.9023794029
 20
0.1647190772
 10
-20.9081350006
 20
0.1775492289
 10
-20.9117386672
 20
0.1907076721
 10
-20.9131072053
 20
0.2038988581
 10
-20.9121882242
 20
0.2171227378
 10
-20.9090341146
 20
0.2303793604
 10
-20.9037188514
 20
0.2433733237
  0
LWPOLYLINE
  5
30A
100
AcDbEntity
  8
RACCORDO
100
AcDbPolyline
 62
250
  6
CONTINUOUS
 90
7
 70
0
 10
-20.8802669418
 20
0.6287756098
 10
-20.9149129122
 20
0.6477997744
 10
-20.9453999462
 20
0.6685494318
 10
-20.9714013047
 20
0.6907958277
 10
-20.9926383165
 20
0.7142937928
 10
-21.0088833653
 20
0.7387844304
 10
-21.019962331
 20
0.763997956
  0
LWPOLYLINE
  5
30B
100
AcDbEntity
  8
RACCORDO
100
AcDbPolyline
 62
250
  6
CONTINUOUS
 90
5
 70
0
 10
-5.9855145136
 20
-6.9242237583
 10
-5.9688720441
 20
-6.9405983501
 10
-5.9498609554
 20
-6.955847438
 10
-5.9284503224
 20
-6.9698466151
 10
-5.9176552612
 20
-6.9759196223
  0
LWPOLYLINE
  5
30C
100
AcDbEntity
  8
RACCORDO
100
AcDbPolyline
 62
250
  6
CONTINUOUS
 90
22
 70
0
 10
-5.0922328338
 20
-24.885902927
 10
-5.0883257264
 20
-24.945020679
 10
-5.0809761103
 20
-25.0014770051
 10
-5.0701839854
 20
-25.0552719054
 10
-5.0558623974
 20
-25.1066645753
 10
-5.0380983006
 20
-25.1553958193
 10
-5.0171525588
 20
-25.2006880515
 10
-4.9929755264
 20
-25.2424738281
 10
-4.965616849
 20
-25.2808205928
 10
-4.9354863266
 20
-25.3151530907
 10
-4.9025490619
 20
-25.3454060701
 10
-4.8668399522
 20
-25.3716447828
 10
-4.8288734894
 20
-25.3934897292
 10
-4.7886078973
 20
-25.4108800034
 10
-4.7460849521
 20
-25.4238765115
 10
-4.7019444744
 20
-25.4322824713
 10
-4.6561541004
 20
-25.4360214456
 10
-4.6087461938
 20
-25.4351698718
 10
-4.5604576661
 20
-25.4297602802
 10
-4.5115341543
 20
-25.4198035144
 10
-4.4617300213
 20
-25.4052887308
 10
-4.4110452671
 20
-25.3862159294
  0
LWPOLYLINE
  5
30D
100
AcDbEntity
  8
RACCORDO
100
AcDbPolyline
 62
250
  6
CONTINUOUS
 90
13
 70
0
 10
-5.7928162621
 20
-24.9005040736
 10
-5.78705983
 20
-24.9888068884
 10
-5.7760296129
 20
-25.0738101733
 10
-5.7597806516
 20
-25.155094429
 10
-5.7383932695
 20
-25.2322556087
 10
-5.7119738459
 20
-25.3049173007
 10
-5.6806516718
 20
-25.3727300982
 10
-5.6445724025
 20
-25.4353669857
 10
-5.6039161723
 20
-25.4925073257
 10
-5.5588999692
 20
-25.5438518329
 10
-5.5097560874
 20
-25.5891424208
 10
-5.4567184974
 20
-25.6281707614
 10
-5.4004349356
 20
-25.6605546294
  0
LWPOLYLINE
  5
30E
100
AcDbEntity
  8
RACCORDO
100
AcDbPolyline
 62
250
  6
CONTINUOUS
 90
8
 70
0
 10
-6.0394869544
 20
-6.7916202506
 10
-6.038338156
 20
-6.8116663181
 10
-6.0350303465
 20
-6.8315663195
 10
-6.029540002
 20
-6.8511805318
 10
-6.0218567947
 20
-6.8703119273
 10
-6.011979536
 20
-6.888885014
 10
-5.9998695287
 20
-6.9069021021
 10
-5.9855145136
 20
-6.9242237583
  0
LWPOLYLINE
  5
30F
100
AcDbEntity
  8
RACCORDO
100
AcDbPolyline
 62
250
  6
CONTINUOUS
 90
12
 70
0
 10
-0.3648494809
 20
15.8239184124
 10
-0.3779891355
 20
15.7947048642
 10
-0.3938450254
 20
15.7675070862
 10
-0.4121488629
 20
15.7427852955
 10
-0.432590944
 20
15.7209578099
 10
-0.4548253702
 20
15.7023939888
 10
-0.4784758963
 20
15.6874079728
 10
-0.5031423264
 20
15.6762533443
 10
-0.5284072858
 20
15.6691188485
 10
-0.5538432622
 20
15.6661252103
 10
-0.579019852
 20
15.667323085
 10
-0.5902807021
 20
15.6692541889
  0
LWPOLYLINE
  5
310
100
AcDbEntity
  8
RACCORDO
100
AcDbPolyline
 62
250
  6
CONTINUOUS
 90
12
 70
0
 10
-0.9044365129
 20
15.9383818425
 10
-0.9176071769
 20
15.9091079818
 10
-0.9335020561
 20
15.8818641766
 10
-0.9518497658
 20
15.8571120152
 10
-0.9723356581
 20
15.8352721361
 10
-0.9946124905
 20
15.8167112944
 10
-1.0183077873
 20
15.8017391522
 10
-1.0430412669
 20
15.7906028563
 10
-1.0683728868
 20
15.7835071183
 10
-1.0938133023
 20
15.7805755282
 10
-1.1189129932
 20
15.7818273109
 10
-1.1299663536
 20
15.783738495
  0
LINE
  5
311
100
AcDbEntity
  8
0
100
AcDbLine
 62
7
  6
CONTINUOUS
 10
12.4923720882
 20
14.314945911
 11
14.0464264391
 21
15.080899894
  0
LINE
  5
312
100
AcDbEntity
  8
DRAFT
100
AcDbLine
 62
7
  6
CONTINUOUS
 10
1.7781237855
 20
7.9398247923
 11
0.0633898411
 21
7.1118751313
  0
LINE
  5
313
100
AcDbEntity
  8
RACCORDO
100
AcDbLine
 62
250
  6
CONTINUOUS
 10
-9.4785795931
 20
2.8420211624
 11
-9.507171694
 21
2.8282754689
  0
LINE
  5
314
100
AcDbEntity
  8
RACCORDO
100
AcDbLine
 62
7
  6
CONTINUOUS
 10
12.4923720882
 20
14.7982741664
 11
14.0159272403
 21
15.5274811785
  0
LWPOLYLINE
  5
315
100
AcDbEntity
  8
RACCORDO
100
AcDbPolyline
 62
7
  6
CONTINUOUS
 90
11
 70
0
 10
-9.284694928
 20
2.8135261012
 10
-9.2905498177
 20
2.810827106
 10
-9.3095842387
 20
2.803596559
 10
-9.329443416
 20
2.7983601097
 10
-9.3501170434
 20
2.7950924895
 10
-9.3713415777
 20
2.7938353956
 10
-9.393124211
 20
2.7946145215
 10
-9.4154579612
 20
2.7974040736
 10
-9.4380580168
 20
2.8021685207
 10
-9.4608294805
 20
2.8088960004
 10
-9.4838673634
 20
2.817598321
  0
LWPOLYLINE
  5
316
100
AcDbEntity
  8
RACCORDO
100
AcDbPolyline
 62
250
  6
CONTINUOUS
 90
4
 70
0
 10
-9.12658899
 20
6.1340132109
 10
-9.1084591387
 20
6.139246822
 10
-9.0915227223
 20
6.1453993171
 10
-9.0885293917
 20
6.146746919
  0
LWPOLYLINE
  5
317
100
AcDbEntity
  8
RACCORDO
100
AcDbPolyline
 62
250
  6
CONTINUOUS
 90
13
 70
0
 10
-5.3961895141
 20
-7.576994202
 10
-5.3977053399
 20
-7.5539364234
 10
-5.4015716137
 20
-7.5300427469
 10
-5.4077221698
 20
-7.5057218746
 10
-5.4160517811
 20
-7.4813897855
 10
-5.4264179395
 20
-7.4574626808
 10
-5.4386432782
 20
-7.4343498607
 10
-5.4525186512
 20
-7.41244663
 10
-5.4678067095
 20
-7.3921275737
 10
-5.4842459238
 20
-7.3737402008
 10
-5.5015550981
 20
-7.3575989436
 10
-5.5194381859
 20
-7.3439797904
 10
-5.5375893312
 20
-7.3331155927
  0
LWPOLYLINE
  5
318
100
AcDbEntity
  8
RACCORDO
100
AcDbPolyline
 62
250
  6
CONTINUOUS
 90
5
 70
0
 10
-5.2995906438
 20
-17.2297798748
 10
-5.2585906475
 20
-19.1493461631
 10
-5.2103644279
 20
-21.0652171504
 10
-5.1549118233
 20
-22.9774027383
 10
-5.0922328338
 20
-24.885902927
  0
LWPOLYLINE
  5
319
100
AcDbEntity
  8
RACCORDO
100
AcDbPolyline
 62
250
  6
CONTINUOUS
 90
10
 70
0
 10
-6.0970692261
 20
-7.5785263515
 10
-6.0921860708
 20
-9.5177920441
 10
-6.0800707871
 20
-11.4534752585
 10
-6.0607241026
 20
-13.3855373277
 10
-6.0341473426
 20
-15.3139099715
 10
-6.0003412849
 20
-17.2385844877
 10
-5.959305064
 20
-19.1596111766
 10
-5.9110382097
 20
-21.0769806801
 10
-5.8555417427
 20
-22.9906245573
 10
-5.7928162621
 20
-24.9005040736
  0
LWPOLYLINE
  5
31A
100
AcDbEntity
  8
RACCORDO
100
AcDbPolyline
 62
250
  6
CONTINUOUS
 90
6
 70
0
 10
-5.3961895141
 20
-7.576994202
 10
-5.391323545
 20
-9.5148587639
 10
-5.3792307057
 20
-11.4490676318
 10
-5.3599109964
 20
-13.3796208057
 10
-5.3333642551
 20
-15.3065281873
 10
-5.2995906438
 20
-17.2297798748
  0
LINE
  5
31B
100
AcDbEntity
  8
DRAFT
100
AcDbLine
 62
250
  6
CONTINUOUS
 10
-4.9747459748
 20
22.0239125675
 11
-4.9747459748
 21
21.3610285107
  0
LINE
  5
31C
100
AcDbEntity
  8
RACCORDO
100
AcDbLine
 62
250
  6
CONTINUOUS
 10
-4.768839094
 20
17.4916022336
 11
-4.768839094
 21
18.7040377989
  0
LINE
  5
31D
100
AcDbEntity
  8
DRAFT
100
AcDbLine
 62
7
  6
CONTINUOUS
 10
-4.2676391937
 20
22.3774659581
 11
-4.2676391937
 21
22.9300241474
  0
LWPOLYLINE
  5
31E
100
AcDbEntity
  8
RACCORDO
100
AcDbPolyline
 62
250
  6
CONTINUOUS
 90
10
 70
0
 10
-5.737451921
 20
10.6948447428
 10
-5.7995081465
 20
8.7389558317
 10
-5.8544411888
 20
6.7862361996
 10
-5.9022504494
 20
4.8367243258
 10
-5.9429349244
 20
2.8904877731
 10
-5.9764950466
 20
0.9475356297
 10
-6.0029316365
 20
-0.9921809928
 10
-6.022243935
 20
-2.9286524407
 10
-6.0344306537
 20
-4.8618110163
 10
-6.0394910817
 20
-6.791618187
  0
LWPOLYLINE
  5
31F
100
AcDbEntity
  8
RACCORDO
100
AcDbPolyline
 62
250
  6
CONTINUOUS
 90
10
 70
0
 10
-5.0368663623
 20
10.6738925039
 10
-5.0988668098
 20
8.7197476736
 10
-5.1537490305
 20
6.7688457248
 10
-5.2015130243
 20
4.8211866577
 10
-5.2421589593
 20
2.8767607627
 10
-5.2756866673
 20
0.9355777493
 10
-5.3020956445
 20
-1.002333254
 10
-5.3213857227
 20
-2.9369625376
 10
-5.33355707
 20
-4.868319811
 10
-5.3386096865
 20
-6.7964050743
  0
LWPOLYLINE
  5
320
100
AcDbEntity
  8
RACCORDO
100
AcDbPolyline
 62
250
  6
CONTINUOUS
 90
13
 70
0
 10
-6.0970692261
 20
-7.5785263515
 10
-6.0958991971
 20
-7.5555709479
 10
-6.0923800162
 20
-7.531813385
 10
-6.0865706283
 20
-7.5076515921
 10
-6.0785683383
 20
-7.4834902696
 10
-6.0685071812
 20
-7.4597341096
 10
-6.0565556776
 20
-7.4367810179
 10
-6.0429140103
 20
-7.4150154494
 10
-6.0278106717
 20
-7.3948019686
 10
-6.0114986364
 20
-7.3764791429
 10
-5.9942511244
 20
-7.3603538722
 10
-5.9763570245
 20
-7.346696248
 10
-5.9581160554
 20
-7.3357350302
  0
LWPOLYLINE
  5
321
100
AcDbEntity
  8
RACCORDO
100
AcDbPolyline
 62
250
  6
CONTINUOUS
 90
12
 70
0
 10
-5.3386138868
 20
-6.7964070582
 10
-5.3398095703
 20
-6.8165783639
 10
-5.3431834247
 20
-6.8365570898
 10
-5.3487553896
 20
-6.8562018362
 10
-5.3565054759
 20
-6.8753070833
 10
-5.3664589116
 20
-6.8938033895
 10
-5.3787274158
 20
-6.911717372
 10
-5.3933884859
 20
-6.9289357176
 10
-5.4103985352
 20
-6.9451965087
 10
-5.4296946478
 20
-6.9602779989
 10
-5.4512441955
 20
-6.9740121775
 10
-5.472270182
 20
-6.9849850082
  0
LWPOLYLINE
  5
322
100
AcDbEntity
  8
RACCORDO
100
AcDbPolyline
 62
7
  6
CONTINUOUS
 90
3
 70
0
 10
1.315345396
 20
16.9867551081
 10
1.316240317
 20
16.9886052453
 10
1.3163821503
 20
16.9898469011
  0
LINE
  5
323
100
AcDbEntity
  8
DRAFT
100
AcDbLine
 62
7
  6
CONTINUOUS
 10
0.6913645157
 20
6.1409325521
 11
0.7121863558
 21
6.1516323812
  0
LINE
  5
324
100
AcDbEntity
  8
DRAFT
100
AcDbLine
 62
250
  6
CONTINUOUS
 10
0.6913645157
 20
6.7454507265
 11
0.7121863558
 21
6.7560449557
  0
LINE
  5
325
100
AcDbEntity
  8
RACCORDO
100
AcDbLine
 62
7
  6
CONTINUOUS
 10
13.1982735478
 20
12.8767362477
 11
12.4923720882
 21
12.5237855179
  0
LINE
  5
326
100
AcDbEntity
  8
RACCORDO
100
AcDbLine
 62
7
  6
CONTINUOUS
 10
14.0468042556
 20
12.4524734641
 11
12.7353373742
 21
11.7967400234
  0
LINE
  5
327
100
AcDbEntity
  8
RACCORDO
100
AcDbLine
 62
7
  6
CONTINUOUS
 10
17.5235903818
 20
13.723674835
 11
13.9842656591
 21
12.0296761619
  0
LWPOLYLINE
  5
328
100
AcDbEntity
  8
SMUSSO
100
AcDbPolyline
 62
7
  6
CONTINUOUS
 90
25
 70
0
 10
13.9842656591
 20
12.0296761619
 10
13.9318248153
 20
12.0049780004
 10
13.8782563515
 20
11.9809241494
 10
13.8235602676
 20
11.9575146088
 10
13.7677057031
 20
11.9347375
 10
13.7107235186
 20
11.9126047016
 10
13.6527062955
 20
11.8911518498
 10
13.593653049
 20
11.8703801911
 10
13.5335647639
 20
11.850288479
 10
13.4725369757
 20
11.83090861
 10
13.4105662765
 20
11.8122411776
 10
13.3476560741
 20
11.7942855883
 10
13.283912128
 20
11.7770719591
 10
13.2193347482
 20
11.7606019731
 10
13.1539236246
 20
11.7448739471
 10
13.0877835856
 20
11.7299129484
 10
13.0209126018
 20
11.7157200035
 10
12.9533127027
 20
11.7022940858
 10
12.8850948049
 20
11.6896571826
 10
12.8162572799
 20
11.6778105474
 10
12.7468017561
 20
11.6667529268
 10
12.6768440363
 20
11.6565025468
 10
12.6063859527
 20
11.6470610207
 10
12.535425673
 20
11.6384267354
 10
12.4923720882
 20
11.6337120085
  0
LWPOLYLINE
  5
329
100
AcDbEntity
  8
RACCORDO
100
AcDbPolyline
 62
7
  6
CONTINUOUS
 90
10
 70
0
 10
14.0467753597
 20
12.4524590162
 10
14.0581718239
 20
12.4576276714
 10
14.0693922264
 20
12.4616795678
 10
14.0804365671
 20
12.4646147053
 10
14.091399826
 20
12.4664332367
 10
14.1021870232
 20
12.4671350091
 10
14.1125132186
 20
12.4667195648
 10
14.1222834324
 20
12.4651867509
 10
14.1315926444
 20
12.4625367202
 10
14.1404408547
 20
12.4587694726
  0
LINE
  5
32A
100
AcDbEntity
  8
RACCORDO
100
AcDbLine
 62
7
  6
CONTINUOUS
 10
-2.1436722899
 20
-5.4127565675
 11
-1.9341652766
 21
-5.5175100741
  0
LINE
  5
32B
100
AcDbEntity
  8
DRAFT
100
AcDbLine
 62
7
  6
CONTINUOUS
 10
-1.9646054929
 20
-5.3860174315
 11
-1.1613060184
 21
-5.7876671688
  0
LWPOLYLINE
  5
32C
100
AcDbEntity
  8
RACCORDO
100
AcDbPolyline
 62
7
  6
CONTINUOUS
 90
19
 70
0
 10
-17.3541081904
 20
6.7601936087
 10
-17.3765082567
 20
6.7779292241
 10
-17.3985854347
 20
6.7973451383
 10
-17.4200580243
 20
6.8181936265
 10
-17.4409181687
 20
6.8404930632
 10
-17.4611735145
 20
6.8642251739
 10
-17.4805656102
 20
6.8890872634
 10
-17.4990832723
 20
6.9150938556
 10
-17.5167374097
 20
6.9422305571
 10
-17.5333027259
 20
6.9701512896
 10
-17.5487651387
 20
6.9988661447
 10
-17.5631384332
 20
7.0283651722
 10
-17.5762391574
 20
7.0582722087
 10
-17.5880508982
 20
7.0885925357
 10
-17.5985897941
 20
7.1193210023
 10
-17.6077212911
 20
7.1500657631
 10
-17.6154272863
 20
7.1808270834
 10
-17.6217256725
 20
7.2116047977
 10
-17.6265359833
 20
7.2420063699
  0
LWPOLYLINE
  5
32D
100
AcDbEntity
  8
RACCORDO
100
AcDbPolyline
 62
250
  6
CONTINUOUS
 90
7
 70
0
 10
-2.6160084572
 20
-24.9446199464
 10
-2.6136258173
 20
-24.9618365299
 10
-2.6071093923
 20
-24.9776742167
 10
-2.5965587001
 20
-24.9929588166
 10
-2.5821502824
 20
-25.0074345773
 10
-2.5641252307
 20
-25.0208592802
 10
-2.5427851525
 20
-25.0330082941
  0
LWPOLYLINE
  5
32E
100
AcDbEntity
  8
RACCORDO
100
AcDbPolyline
 62
250
  6
CONTINUOUS
 90
7
 70
0
 10
-1.92124427
 20
-23.5176366377
 10
-1.9188616531
 20
-23.5348429624
 10
-1.9123452397
 20
-23.5506806672
 10
-1.9017945504
 20
-23.565965285
 10
-1.8873861278
 20
-23.5804410619
 10
-1.8693610636
 20
-23.5938657795
 10
-1.8480209661
 20
-23.6060148057
  0
LWPOLYLINE
  5
32F
100
AcDbEntity
  8
RACCORDO
100
AcDbPolyline
 62
250
  6
CONTINUOUS
 90
16
 70
0
 10
-4.3556744605
 20
11.8321497854
 10
-4.3595410682
 20
11.8773579089
 10
-4.3671662896
 20
11.9240393694
 10
-4.378466699
 20
11.9716833245
 10
-4.3933186519
 20
12.0197683973
 10
-4.4115596354
 20
12.0677683732
 10
-4.4329900438
 20
12.1151579587
 10
-4.4573753701
 20
12.161418547
 10
-4.4844487662
 20
12.2060438778
 10
-4.5139139557
 20
12.2485455709
 10
-4.5454484947
 20
12.2884585008
 10
-4.5787072888
 20
12.325345866
 10
-4.6133263572
 20
12.3588039602
 10
-4.6489268397
 20
12.3884666192
 10
-4.6851191453
 20
12.4140092226
 10
-4.7215071993
 20
12.4351522318
  0
LWPOLYLINE
  5
330
100
AcDbEntity
  8
RACCORDO
100
AcDbPolyline
 62
7
  6
CONTINUOUS
 90
4
 70
0
 10
-3.8039302675
 20
24.3081852891
 10
-3.8041019872
 20
24.3105265489
 10
-3.8066340514
 20
24.3163515815
 10
-3.8115893693
 20
24.3202437949
  0
LINE
  5
331
100
AcDbEntity
  8
RACCORDO
100
AcDbLine
 62
250
  6
CONTINUOUS
 10
-4.0679565182
 20
17.4959703338
 11
-4.0679565182
 21
18.7084058991
  0
LINE
  5
332
100
AcDbEntity
  8
RACCORDO
100
AcDbLine
 62
250
  6
CONTINUOUS
 10
-3.9260385403
 20
23.0971733826
 11
-3.9260385403
 21
24.3041921016
  0
LINE
  5
333
100
AcDbEntity
  8
DRAFT
100
AcDbLine
 62
7
  6
CONTINUOUS
 10
-3.9140858031
 20
22.7532474521
 11
-3.9140858031
 21
22.2006892628
  0
LINE
  5
334
100
AcDbEntity
  8
RACCORDO
100
AcDbLine
 62
7
  6
CONTINUOUS
 10
-3.8039302669
 20
23.242343135
 11
-3.8039302669
 21
24.3081515831
  0
LINE
  5
335
100
AcDbEntity
  8
DRAFT
100
AcDbLine
 62
7
  6
CONTINUOUS
 10
-3.7019537687
 20
17.6803828818
 11
-3.7019537687
 21
18.8928184471
  0
LINE
  5
336
100
AcDbEntity
  8
ASSI
100
AcDbLine
 62
250
  6
CONTINUOUS
 10
-3.5605324125
 20
22.0239125675
 11
-3.5605324125
 21
21.5002261774
  0
LINE
  5
337
100
AcDbEntity
  8
RACCORDO
100
AcDbLine
 62
7
  6
CONTINUOUS
 10
-2.6160084572
 20
-24.9446199464
 11
-2.6160084572
 21
-24.8493660527
  0
LINE
  5
338
100
AcDbEntity
  8
RACCORDO
100
AcDbLine
 62
7
  6
CONTINUOUS
 10
-2.6160084572
 20
16.6722529934
 11
-2.6160084572
 21
16.9895217937
  0
LINE
  5
339
100
AcDbEntity
  8
RACCORDO
100
AcDbLine
 62
250
  6
CONTINUOUS
 10
-2.5427851525
 20
-25.0330082941
 11
-2.5427851525
 21
-24.8186298836
  0
LINE
  5
33A
100
AcDbEntity
  8
RACCORDO
100
AcDbLine
 62
250
  6
CONTINUOUS
 10
-2.5427851525
 20
16.5838646457
 11
-2.5427851525
 21
16.9011334461
  0
LINE
  5
33B
100
AcDbEntity
  8
RACCORDO
100
AcDbLine
 62
7
  6
CONTINUOUS
 10
-2.3683249603
 20
-24.5287649171
 11
-2.3683249603
 21
-23.6782705927
  0
LINE
  5
33C
100
AcDbEntity
  8
DRAFT
100
AcDbLine
 62
7
  6
CONTINUOUS
 10
-1.9646054929
 20
-5.3860174315
 11
-1.9646054929
 21
-5.3281762348
  0
LWPOLYLINE
  5
33D
100
AcDbEntity
  8
RACCORDO
100
AcDbPolyline
 62
250
  6
CONTINUOUS
 90
13
 70
0
 10
-2.5427851525
 20
16.9011334461
 10
-2.5413681769
 20
16.9291998043
 10
-2.5371020748
 20
16.9584310316
 10
-2.5299998135
 20
16.9883670246
 10
-2.5200987878
 20
17.0185862654
 10
-2.5075250642
 20
17.0485116113
 10
-2.4925486229
 20
17.0774349761
 10
-2.4754618967
 20
17.1048095348
 10
-2.4565248095
 20
17.1302345427
 10
-2.4360629209
 20
17.1532747374
 10
-2.4144249351
 20
17.1735412355
 10
-2.3919753757
 20
17.1906961705
 10
-2.369093636
 20
17.2044525803
  0
LWPOLYLINE
  5
33E
100
AcDbEntity
  8
RACCORDO
100
AcDbPolyline
 62
250
  6
CONTINUOUS
 90
13
 70
0
 10
-1.2548778009
 20
16.2571797702
 10
-1.2533988261
 20
16.2858667757
 10
-1.248986649
 20
16.3155527451
 10
-1.2417150972
 20
16.3457409525
 10
-1.2317058433
 20
16.3759262679
 10
-1.2191263691
 20
16.4056036098
 10
-1.2041871629
 20
16.4342763964
 10
-1.1871381979
 20
16.461464855
 10
-1.168264749
 20
16.4867140494
 10
-1.14788262
 20
16.5096014929
 10
-1.1263328585
 20
16.5297442168
 10
-1.1039760501
 20
16.5468051793
 10
-1.0811862843
 20
16.5604989045
  0
LWPOLYLINE
  5
33F
100
AcDbEntity
  8
RACCORDO
100
AcDbPolyline
 62
250
  6
CONTINUOUS
 90
10
 70
0
 10
-4.4110452671
 20
-25.3862159294
 10
-4.4149119331
 20
-25.4313552274
 10
-4.4225372753
 20
-25.4740325236
 10
-4.4338378459
 20
-25.5137807796
 10
-4.4486899773
 20
-25.5501650112
 10
-4.4669311355
 20
-25.5827870481
 10
-4.4883616986
 20
-25.6112898916
 10
-4.5127471417
 20
-25.6353616213
 10
-4.5398206031
 20
-25.6547388087
 10
-4.5648525124
 20
-25.6674116277
  0
LWPOLYLINE
  5
340
100
AcDbEntity
  8
RACCORDO
100
AcDbPolyline
 62
250
  6
CONTINUOUS
 90
30
 70
0
 10
12.2117118886
 20
9.8703792535
 10
12.2303730271
 20
9.8803085964
 10
12.2484861221
 20
9.8904884943
 10
12.2660377226
 20
9.9009113876
 10
12.2830147947
 20
9.9115695361
 10
12.2994047313
 20
9.922455025
 10
12.3151953609
 20
9.9335597708
 10
12.3303749575
 20
9.9448755269
 10
12.3449322486
 20
9.9563938902
 10
12.3588564238
 20
9.9681063071
 10
12.3721371429
 20
9.98000408
 10
12.3847645437
 20
9.9920783734
 10
12.3967292489
 20
10.0043202209
 10
12.4080223736
 20
10.0167205317
 10
12.4186355313
 20
10.0292700973
 10
12.4285608407
 20
10.0419595982
 10
12.4377909312
 20
10.0547796111
 10
12.4463189484
 20
10.0677206159
 10
12.4541385595
 20
10.0807730024
 10
12.4612439575
 20
10.093927078
 10
12.4676298659
 20
10.1071730743
 10
12.4732915425
 20
10.1205011547
 10
12.478224783
 20
10.1339014218
 10
12.4824259238
 20
10.1473639245
 10
12.4858918452
 20
10.1608786654
 10
12.4886199734
 20
10.1744356084
 10
12.4906082824
 20
10.188024686
 10
12.4918552957
 20
10.201635807
 10
12.4923600873
 20
10.2152588636
 10
12.4923720882
 20
10.217707315
  0
LWPOLYLINE
  5
341
100
AcDbEntity
  8
RACCORDO
100
AcDbPolyline
 62
250
  6
CONTINUOUS
 90
6
 70
0
 10
12.5286711224
 20
10.321101984
 10
12.5208773556
 20
10.3170671211
 10
12.5130751869
 20
10.3132637189
 10
12.5052691527
 20
10.3096951425
 10
12.4974625177
 20
10.3063638932
 10
12.4923720882
 20
10.3043476851
  0
LINE
  5
342
100
AcDbEntity
  8
RACCORDO
100
AcDbLine
 62
250
  6
CONTINUOUS
 10
18.4523546673
 20
13.2592926922
 11
12.5286711224
 21
10.321101984
  0
LINE
  5
343
100
AcDbEntity
  8
RACCORDO
100
AcDbLine
 62
250
  6
CONTINUOUS
 10
19.1593537527
 20
12.0398996456
 11
13.2356702078
 21
9.1017089374
  0
LINE
  5
344
100
AcDbEntity
  8
DRAFT
100
AcDbLine
 62
7
  6
CONTINUOUS
 10
0.6913645157
 20
4.1530774082
 11
0.0633898411
 21
3.8445229112
  0
LINE
  5
345
100
AcDbEntity
  8
DRAFT
100
AcDbLine
 62
7
  6
CONTINUOUS
 10
1.7781237855
 20
3.6096977733
 11
0.0633898411
 21
2.7817481124
  0
LWPOLYLINE
  5
346
100
AcDbEntity
  8
RACCORDO
100
AcDbPolyline
 62
250
  6
CONTINUOUS
 90
67
 70
0
 10
13.2356702078
 20
9.1017089374
 10
13.2114139507
 20
9.0900234945
 10
13.1871573287
 20
9.0790507343
 10
13.1629003419
 20
9.0687906566
 10
13.1386236108
 20
9.0592325275
 10
13.1143465148
 20
9.0503870811
 10
13.0901271924
 20
9.0422865191
 10
13.0659665036
 20
9.0349341913
 10
13.0418635883
 20
9.0283267479
 10
13.0178740054
 20
9.0224863421
 10
12.9939980074
 20
9.0174160703
 10
12.9702353417
 20
9.0131128359
 10
12.9466408091
 20
9.0095895024
 10
12.9232155014
 20
9.0068492515
 10
12.8999583267
 20
9.0048889014
 10
12.8769208111
 20
9.0037117696
 10
12.854107319
 20
9.0033202848
 10
12.8315134859
 20
9.0037120184
 10
12.8091777442
 20
9.0048830015
 10
12.7871035951
 20
9.0068338847
 10
12.7652875374
 20
9.0095640173
 10
12.7437574998
 20
9.013067479
 10
12.7225133956
 20
9.0173445623
 10
12.7015553116
 20
9.0223949746
 10
12.6809114365
 20
9.0282119178
 10
12.6605801835
 20
9.0347966849
 10
12.6405631396
 20
9.042147983
 10
12.6208932539
 20
9.0502551352
 10
12.6015701517
 20
9.0591199284
 10
12.5825942078
 20
9.0687405757
 10
12.5639994954
 20
9.0791010397
 10
12.5457868578
 20
9.0902028183
 10
12.5279554516
 20
9.1020444136
 10
12.5105368205
 20
9.1146052943
 10
12.4935318072
 20
9.1278869339
 10
12.476939569
 20
9.1418878589
 10
12.4607891205
 20
9.1565831171
 10
12.4450813114
 20
9.1719742154
 10
12.429815292
 20
9.188059647
 10
12.4150175285
 20
9.2048099394
 10
12.4006895708
 20
9.2222254948
 10
12.3868298689
 20
9.2403059111
 10
12.3734602386
 20
9.2590205093
 10
12.360582384
 20
9.2783681637
 10
12.348194601
 20
9.2983499999
 10
12.3363135933
 20
9.3189387161
 10
12.324939739
 20
9.3401341424
 10
12.3140726602
 20
9.3619364488
 10
12.3037279263
 20
9.3843188431
 10
12.2939047012
 20
9.4072849883
 10
12.284603821
 20
9.4308312214
 10
12.2758433641
 20
9.4549197616
 10
12.2676234344
 20
9.479556166
 10
12.2599439279
 20
9.5047348773
 10
12.2528226107
 20
9.5304014433
 10
12.2462614905
 20
9.5565585467
 10
12.2402585595
 20
9.5832035046
 10
12.2348255609
 20
9.6102738162
 10
12.2299648853
 20
9.6377709992
 10
12.2256741421
 20
9.6656935357
 10
12.2219579024
 20
9.6939743716
 10
12.2188185156
 20
9.7226159817
 10
12.2162536323
 20
9.7516158912
 10
12.2142607756
 20
9.780899621
 10
12.21283912
 20
9.8104423448
 10
12.211989491
 20
9.8402688889
 10
12.2117118886
 20
9.8703792535
  0
LINE
  5
347
100
AcDbEntity
  8
DRAFT
100
AcDbLine
 62
7
  6
CONTINUOUS
 10
-0.0204996544
 20
-4.6199733918
 11
-0.2365509883
 21
-4.5119477249
  0
LINE
  5
348
100
AcDbEntity
  8
RACCORDO
100
AcDbLine
 62
7
  6
CONTINUOUS
 10
-17.2852528514
 20
6.7173160476
 11
-17.3086458525
 21
6.7300021035
  0
LWPOLYLINE
  5
349
100
AcDbEntity
  8
RACCORDO
100
AcDbPolyline
 62
250
  6
CONTINUOUS
 90
9
 70
0
 10
-17.56124668
 20
7.2225337078
 10
-17.5752543642
 20
7.2303122512
 10
-17.5875591959
 20
7.2387802931
 10
-17.5980263533
 20
7.2478450611
 10
-17.6065411478
 20
7.257407245
 10
-17.6130102787
 20
7.2673620825
 10
-17.6173628572
 20
7.2776005073
 10
-17.619551185
 20
7.2880103474
 10
-17.6198253237
 20
7.293244378
  0
LWPOLYLINE
  5
34A
100
AcDbEntity
  8
RACCORDO
100
AcDbPolyline
 62
7
  6
CONTINUOUS
 90
3
 70
0
 10
-17.3086458525
 20
6.7300021035
 10
-17.3314791757
 20
6.7442208483
 10
-17.3541081904
 20
6.7601936087
  0
LWPOLYLINE
  5
34B
100
AcDbEntity
  8
RACCORDO
100
AcDbPolyline
 62
250
  6
CONTINUOUS
 90
13
 70
0
 10
-0.9044365129
 20
16.2556506429
 10
-0.9063448229
 20
16.2845906458
 10
-0.9112162161
 20
16.3145901479
 10
-0.9189689986
 20
16.3451322628
 10
-0.9294726175
 20
16.3756926296
 10
-0.9425472407
 20
16.405740605
 10
-0.9579646707
 20
16.4347490535
 10
-0.9754972384
 20
16.4622722896
 10
-0.9948107553
 20
16.487770421
 10
-1.0154304337
 20
16.5106591624
 10
-1.0369299864
 20
16.5305574211
 10
-1.0589739898
 20
16.5472416865
 10
-1.0811862843
 20
16.5604989045
  0
LWPOLYLINE
  5
34C
100
AcDbEntity
  8
RACCORDO
100
AcDbPolyline
 62
7
  6
CONTINUOUS
 90
7
 70
0
 10
1.3163821503
 20
-24.1346631207
 10
1.3152117463
 20
-24.114418495
 10
1.3098301445
 20
-24.0881240243
 10
1.2999490112
 20
-24.0640069829
 10
1.285494037
 20
-24.0426370294
 10
1.2665128447
 20
-24.0241272372
 10
1.2431588477
 20
-24.0088377596
  0
LWPOLYLINE
  5
34D
100
AcDbEntity
  8
RACCORDO
100
AcDbPolyline
 62
250
  6
CONTINUOUS
 90
8
 70
0
 10
-0.5354284249
 20
15.5372930631
 10
-0.5366748103
 20
15.5618974185
 10
-0.5403790243
 20
15.5849935994
 10
-0.5464881879
 20
15.6062724654
 10
-0.5549209685
 20
15.6254495882
 10
-0.5655593538
 20
15.6422740837
 10
-0.5782546804
 20
15.6565266432
 10
-0.5928397004
 20
15.6680172556
  0
LWPOLYLINE
  5
34E
100
AcDbEntity
  8
RACCORDO
100
AcDbPolyline
 62
7
  6
CONTINUOUS
 90
15
 70
0
 10
-1.1563693564
 20
23.2441299961
 10
-1.1579190738
 20
23.3000735223
 10
-1.1623980043
 20
23.3538429035
 10
-1.1698061478
 20
23.4054381397
 10
-1.1801995262
 20
23.4550587442
 10
-1.1935221177
 20
23.5025052036
 10
-1.209605857
 20
23.5471789783
 10
-1.2284857232
 20
23.5890449428
 10
-1.2501267373
 20
23.6281382225
 10
-1.2742558965
 20
23.6639656533
 10
-1.3009047216
 20
23.6964858625
 10
-1.3300416918
 20
23.7257402229
 10
-1.3612992426
 20
23.751359689
 10
-1.3947042383
 20
23.7732982128
 10
-1.4162497101
 20
23.7849973802
  0
LINE
  5
34F
100
AcDbEntity
  8
RACCORDO
100
AcDbLine
 62
7
  6
CONTINUOUS
 10
-1.9212442708
 20
-23.5176264588
 11
-1.9212442708
 21
-23.4906042791
  0
LINE
  5
350
100
AcDbEntity
  8
RACCORDO
100
AcDbLine
 62
7
  6
CONTINUOUS
 10
-1.9212442708
 20
15.7595767442
 11
-1.9212442708
 21
16.170362403
  0
LINE
  5
351
100
AcDbEntity
  8
RACCORDO
100
AcDbLine
 62
250
  6
CONTINUOUS
 10
-1.8480209661
 20
-23.6060148057
 11
-1.8480209661
 21
-23.45986811
  0
LINE
  5
352
100
AcDbEntity
  8
RACCORDO
100
AcDbLine
 62
250
  6
CONTINUOUS
 10
-1.8480209661
 20
15.6700815143
 11
-1.8480209661
 21
16.1337507506
  0
LINE
  5
353
100
AcDbEntity
  8
RACCORDO
100
AcDbLine
 62
7
  6
CONTINUOUS
 10
-1.7927654595
 20
-23.4366740927
 11
-1.7927654595
 21
-5.7613886834
  0
LINE
  5
354
100
AcDbEntity
  8
DRAFT
100
AcDbLine
 62
7
  6
CONTINUOUS
 10
-1.4038567299
 20
-15.0539523803
 11
-1.4038567299
 21
-14.1446257063
  0
LINE
  5
355
100
AcDbEntity
  8
RACCORDO
100
AcDbLine
 62
250
  6
CONTINUOUS
 10
-1.2548778009
 20
16.2571797702
 11
-1.2548778009
 21
15.9399109699
  0
LINE
  5
356
100
AcDbEntity
  8
RACCORDO
100
AcDbLine
 62
250
  6
CONTINUOUS
 10
-1.2548778009
 20
-25.3596931695
 11
-1.2548778009
 21
-25.6769619699
  0
LINE
  5
357
100
AcDbEntity
  8
DRAFT
100
AcDbLine
 62
7
  6
CONTINUOUS
 10
-1.1613060184
 20
-22.0628986086
 11
-1.1613060184
 21
-21.3640321342
  0
LINE
  5
358
100
AcDbEntity
  8
DRAFT
100
AcDbLine
 62
7
  6
CONTINUOUS
 10
-1.1613060184
 20
-5.7876671688
 11
-1.1613060184
 21
-4.9487461119
  0
LINE
  5
359
100
AcDbEntity
  8
RACCORDO
100
AcDbLine
 62
7
  6
CONTINUOUS
 10
-1.1563693564
 20
22.9733297035
 11
-1.1563693564
 21
23.2441299961
  0
LINE
  5
35A
100
AcDbEntity
  8
RACCORDO
100
AcDbLine
 62
250
  6
CONTINUOUS
 10
-0.9044365129
 20
16.2556506429
 11
-0.9044365129
 21
15.9383818425
  0
LINE
  5
35B
100
AcDbEntity
  8
RACCORDO
100
AcDbLine
 62
250
  6
CONTINUOUS
 10
-0.9044365129
 20
-25.3612222969
 11
-0.9044365129
 21
-25.6784910973
  0
LINE
  5
35C
100
AcDbEntity
  8
DRAFT
100
AcDbLine
 62
7
  6
CONTINUOUS
 10
-0.5906839315
 20
-21.7825242271
 11
-0.5906839315
 21
-15.4605387795
  0
LINE
  5
35D
100
AcDbEntity
  8
DRAFT
100
AcDbLine
 62
7
  6
CONTINUOUS
 10
-0.5906839315
 20
-11.1304117605
 11
-0.5906839315
 21
-4.6792187246
  0
LINE
  5
35E
100
AcDbEntity
  8
RACCORDO
100
AcDbLine
 62
250
  6
CONTINUOUS
 10
-0.5354284249
 20
15.5372930631
 11
-0.5354284249
 21
15.0137852437
  0
LINE
  5
35F
100
AcDbEntity
  8
RACCORDO
100
AcDbLine
 62
250
  6
CONTINUOUS
 10
-0.5354284249
 20
-23.7388032569
 11
-0.5354284249
 21
-24.2623110763
  0
LINE
  5
360
100
AcDbEntity
  8
RACCORDO
100
AcDbLine
 62
250
  6
CONTINUOUS
 10
-0.184987137
 20
15.5357639357
 11
-0.184987137
 21
15.0159692937
  0
LINE
  5
361
100
AcDbEntity
  8
RACCORDO
100
AcDbLine
 62
250
  6
CONTINUOUS
 10
-0.184987137
 20
-23.888123862
 11
-0.184987137
 21
-24.2638402037
  0
LINE
  5
362
100
AcDbEntity
  8
RACCORDO
100
AcDbLine
 62
7
  6
CONTINUOUS
 10
-0.0204996544
 20
-23.5971838302
 11
-0.0204996544
 21
-22.6333017906
  0
LINE
  5
363
100
AcDbEntity
  8
DRAFT
100
AcDbLine
 62
7
  6
CONTINUOUS
 10
-0.0204996544
 20
-4.6199733918
 11
-0.0204996544
 21
-4.4081645673
  0
LINE
  5
364
100
AcDbEntity
  8
RACCORDO
100
AcDbLine
 62
7
  6
CONTINUOUS
 10
0.0633898411
 20
-4.2448269769
 11
0.0633898411
 21
14.2446468791
  0
LWPOLYLINE
  5
365
100
AcDbEntity
  8
RACCORDO
100
AcDbPolyline
 62
7
  6
CONTINUOUS
 90
13
 70
0
 10
-1.9212441408
 20
-23.5176366375
 10
-1.9219398292
 20
-23.53834095
 10
-1.9242836893
 20
-23.5621636307
 10
-1.9284011298
 20
-23.5876738922
 10
-1.9343566622
 20
-23.6144676294
 10
-1.9421516843
 20
-23.6420845967
 10
-1.951735096
 20
-23.6700945785
 10
-1.9630028785
 20
-23.698076826
 10
-1.9758273527
 20
-23.7256497096
 10
-1.9900758894
 20
-23.7525000405
 10
-2.0055467329
 20
-23.7782636988
 10
-2.0219984184
 20
-23.8025881899
 10
-2.0391755202
 20
-23.8251701565
  0
LWPOLYLINE
  5
366
100
AcDbEntity
  8
RACCORDO
100
AcDbPolyline
 62
250
  6
CONTINUOUS
 90
10
 70
0
 10
-1.2548778009
 20
-25.3596931695
 10
-1.2537176053
 20
-25.3343488329
 10
-1.2502291396
 20
-25.3080443031
 10
-1.2444242469
 20
-25.2811184616
 10
-1.2363319089
 20
-25.2538825662
 10
-1.2260371517
 20
-25.2267511618
 10
-1.2137154282
 20
-25.2002302593
 10
-1.1995601816
 20
-25.174724032
 10
-1.1837461976
 20
-25.1505368388
 10
-1.1664894532
 20
-25.1279989957
  0
LWPOLYLINE
  5
367
100
AcDbEntity
  8
RACCORDO
100
AcDbPolyline
 62
250
  6
CONTINUOUS
 90
10
 70
0
 10
-9.3588080182
 20
3.1213143769
 10
-9.3432507402
 20
3.1143104588
 10
-9.326314469
 20
3.1081579982
 10
-9.3081847619
 20
3.1029244026
 10
-9.2890602519
 20
3.0986670123
 10
-9.269150471
 20
3.0954324724
 10
-9.248673555
 20
3.0932562209
 10
-9.2278538532
 20
3.0921621015
 10
-9.2069194707
 20
3.0921621015
 10
-9.186099769
 20
3.0932562209
  0
LWPOLYLINE
  5
368
100
AcDbEntity
  8
RACCORDO
100
AcDbPolyline
 62
250
  6
CONTINUOUS
 90
22
 70
0
 10
-9.5709400526
 20
2.9675727729
 10
-9.5550065024
 20
2.9603502474
 10
-9.5393149733
 20
2.9546635925
 10
-9.5238654651
 20
2.950512808
 10
-9.5085683645
 20
2.9478880519
 10
-9.4935132849
 20
2.9467991664
 10
-9.4789690664
 20
2.9472756781
 10
-9.464948169
 20
2.9493482681
 10
-9.4514381327
 20
2.9529862555
 10
-9.4386704181
 20
2.9581271235
 10
-9.426661229
 20
2.9647945644
 10
-9.4153943616
 20
2.9729648859
 10
-9.4050526649
 20
2.9825044952
 10
-9.3956492487
 20
2.9934386591
 10
-9.3871710031
 20
3.0057421108
 10
-9.3797614482
 20
3.0192054562
 10
-9.3734397438
 20
3.0338555686
 10
-9.36818673
 20
3.0496655747
 10
-9.3640884465
 20
3.06634546
 10
-9.3611735734
 20
3.0837985531
 10
-9.3594134306
 20
3.1021215254
 10
-9.3588080182
 20
3.1213143769
  0
LWPOLYLINE
  5
369
100
AcDbEntity
  8
RACCORDO
100
AcDbPolyline
 62
7
  6
CONTINUOUS
 90
11
 70
0
 10
-9.5189614085
 20
2.8593980094
 10
-9.4908038742
 20
2.8465539543
 10
-9.4627239346
 20
2.8361418473
 10
-9.4348463943
 20
2.8281034929
 10
-9.4073519238
 20
2.8223802523
 10
-9.3802864974
 20
2.8188728449
 10
-9.3535864042
 20
2.8174934439
 10
-9.3273982764
 20
2.8181861518
 10
-9.3018257831
 20
2.8208806784
 10
-9.2767766464
 20
2.8255433025
 10
-9.2545848151
 20
2.8315357467
  0
LINE
  5
36A
100
AcDbEntity
  8
RACCORDO
100
AcDbLine
 62
7
  6
CONTINUOUS
 10
-9.4838673634
 20
2.817598321
 11
-9.507171694
 21
2.8282754689
  0
LINE
  5
36B
100
AcDbEntity
  8
RACCORDO
100
AcDbLine
 62
7
  6
CONTINUOUS
 10
-17.2852528514
 20
6.7173160476
 11
-9.507171694
 21
2.8282754689
  0
LINE
  5
36C
100
AcDbEntity
  8
RACCORDO
100
AcDbLine
 62
7
  6
CONTINUOUS
 10
-17.2971360085
 20
6.7484853094
 11
-9.5189614097
 21
2.85939801
  0
LINE
  5
36D
100
AcDbEntity
  8
RACCORDO
100
AcDbLine
 62
250
  6
CONTINUOUS
 10
-17.3491146456
 20
6.8566600694
 11
-9.5709400526
 21
2.9675727729
  0
LWPOLYLINE
  5
36E
100
AcDbEntity
  8
RACCORDO
100
AcDbPolyline
 62
250
  6
CONTINUOUS
 90
7
 70
0
 10
-2.6160084572
 20
16.6722529934
 10
-2.6135715548
 20
16.6548424166
 10
-2.6069843882
 20
16.6389716145
 10
-2.5963730158
 20
16.6236933132
 10
-2.5819536567
 20
16.6092695217
 10
-2.563984215
 20
16.5959221357
 10
-2.5427851525
 20
16.5838646457
  0
LWPOLYLINE
  5
36F
100
AcDbEntity
  8
RACCORDO
100
AcDbPolyline
 62
250
  6
CONTINUOUS
 90
7
 70
0
 10
-2.6160084572
 20
16.9895217937
 10
-2.6136258173
 20
16.9723052103
 10
-2.6071093923
 20
16.9564675235
 10
-2.5965587001
 20
16.9411829235
 10
-2.5821502824
 20
16.9267071629
 10
-2.5641252307
 20
16.9132824599
 10
-2.5427851525
 20
16.9011334461
  0
LWPOLYLINE
  5
370
100
AcDbEntity
  8
RACCORDO
100
AcDbPolyline
 62
7
  6
CONTINUOUS
 90
13
 70
0
 10
0.7174636137
 20
17.0728541626
 10
0.7158618875
 20
17.1018179071
 10
0.7112708193
 20
17.1318021408
 10
0.7037724634
 20
17.1622963497
 10
0.6934989198
 20
17.1927820646
 10
0.6806264666
 20
17.2227375708
 10
0.6653730745
 20
17.2516469753
 10
0.6479973275
 20
17.2790145111
 10
0.6287988524
 20
17.304373174
 10
0.608110313
 20
17.3272891528
 10
0.5862854023
 20
17.3473700978
 10
0.5636924661
 20
17.3642713362
 10
0.5407138424
 20
17.3777024243
  0
LWPOLYLINE
  5
371
100
AcDbEntity
  8
RACCORDO
100
AcDbPolyline
 62
250
  6
CONTINUOUS
 90
13
 70
0
 10
1.2446947647
 20
17.335401835
 10
1.2434302267
 20
17.3638645134
 10
1.2392280144
 20
17.3935016757
 10
1.2320981638
 20
17.4238364286
 10
1.2220767601
 20
17.4544318802
 10
1.2092927812
 20
17.4846893013
 10
1.1940267847
 20
17.5138751324
 10
1.1765836748
 20
17.5414253255
 10
1.1572350149
 20
17.5669274346
 10
1.1363219375
 20
17.5899340556
 10
1.1142094294
 20
17.6100482309
 10
1.0912782754
 20
17.6269279035
 10
1.0679248005
 20
17.6402849242
  0
LWPOLYLINE
  5
372
100
AcDbEntity
  8
RACCORDO
100
AcDbPolyline
 62
250
  6
CONTINUOUS
 90
13
 70
0
 10
-0.184987137
 20
15.5357639357
 10
-0.1864759587
 20
15.5733774665
 10
-0.1905776964
 20
15.6088207528
 10
-0.1972923502
 20
15.6420937944
 10
-0.2067069339
 20
15.6733913562
 10
-0.2187344338
 20
15.7025186734
 10
-0.2331138077
 20
15.7288914516
 10
-0.249884258
 20
15.7524703258
 10
-0.2690065823
 20
15.773294661
 10
-0.2901021317
 20
15.7908982572
 10
-0.3130446898
 20
15.8051257145
 10
-0.3379604728
 20
15.8161324329
 10
-0.364849481
 20
15.8239184124
  0
LINE
  5
373
100
AcDbEntity
  8
DRAFT
100
AcDbLine
 62
7
  6
CONTINUOUS
 10
0.5550598463
 20
-22.355396116
 11
0.5550598463
 21
-4.3420677173
  0
LINE
  5
374
100
AcDbEntity
  8
DRAFT
100
AcDbLine
 62
7
  6
CONTINUOUS
 10
0.6913645157
 20
4.1530774082
 11
0.6913645157
 21
7.4150891784
  0
LINE
  5
375
100
AcDbEntity
  8
SMUSSO
100
AcDbLine
 62
7
  6
CONTINUOUS
 10
0.7121863558
 20
4.1426664882
 11
0.7121863558
 21
7.425142887
  0
LINE
  5
376
100
AcDbEntity
  8
RACCORDO
100
AcDbLine
 62
7
  6
CONTINUOUS
 10
0.7174636137
 20
-24.9294191398
 11
0.7174636137
 21
-23.4394584704
  0
LINE
  5
377
100
AcDbEntity
  8
RACCORDO
100
AcDbLine
 62
7
  6
CONTINUOUS
 10
0.7174636137
 20
15.470405695
 11
0.7174636137
 21
17.0728294315
  0
LINE
  5
378
100
AcDbEntity
  8
RACCORDO
100
AcDbLine
 62
250
  6
CONTINUOUS
 10
1.2446947647
 20
-24.6554772263
 11
1.2446947647
 21
-24.3098397653
  0
LINE
  5
379
100
AcDbEntity
  8
RACCORDO
100
AcDbLine
 62
250
  6
CONTINUOUS
 10
1.2446947647
 20
16.9897643741
 11
1.2446947647
 21
17.335401835
  0
LINE
  5
37A
100
AcDbEntity
  8
RACCORDO
100
AcDbLine
 62
7
  6
CONTINUOUS
 10
1.3163821524
 20
-24.5678635682
 11
1.3163821524
 21
-24.1346107812
  0
LINE
  5
37B
100
AcDbEntity
  8
RACCORDO
100
AcDbLine
 62
7
  6
CONTINUOUS
 10
1.3163821524
 20
16.989762706
 11
1.3163821524
 21
17.4230154931
  0
LINE
  5
37C
100
AcDbEntity
  8
RACCORDO
100
AcDbLine
 62
250
  6
CONTINUOUS
 10
1.6158611455
 20
21.5352733596
 11
1.6158611455
 21
20.3287685868
  0
LINE
  5
37D
100
AcDbEntity
  8
RACCORDO
100
AcDbLine
 62
7
  6
CONTINUOUS
 10
1.7354081009
 20
21.5384823992
 11
1.7354081009
 21
20.4726739511
  0
LINE
  5
37E
100
AcDbEntity
  8
RACCORDO
100
AcDbLine
 62
7
  6
CONTINUOUS
 10
1.7781237855
 20
-22.7098343742
 11
1.7781237855
 21
15.2067980565
  0
LINE
  5
37F
100
AcDbEntity
  8
RACCORDO
100
AcDbLine
 62
250
  6
CONTINUOUS
 10
1.3163820137
 20
-24.5679952116
 11
1.3163821524
 21
-24.5678635682
  0
LWPOLYLINE
  5
380
100
AcDbEntity
  8
RACCORDO
100
AcDbPolyline
 62
250
  6
CONTINUOUS
 90
8
 70
0
 10
1.2446947647
 20
-24.6554772263
 10
1.2433574713
 20
-24.6829905154
 10
1.2389660611
 20
-24.7085258481
 10
1.2315934992
 20
-24.7316404804
 10
1.221363214
 20
-24.7519346731
 10
1.2084500154
 20
-24.7690524442
 10
1.1930797594
 20
-24.7826911214
 10
1.1816480325
 20
-24.7897053517
  0
LWPOLYLINE
  5
381
100
AcDbEntity
  8
RACCORDO
100
AcDbPolyline
 62
7
  6
CONTINUOUS
 90
8
 70
0
 10
0.7174636137
 20
-24.9294438709
 10
0.7158618875
 20
-24.9569832438
 10
0.7112708193
 20
-24.9825376312
 10
0.7037724634
 20
-25.005667711
 10
0.6934989198
 20
-25.025975641
 10
0.6806264666
 20
-25.0431124944
 10
0.6653730745
 20
-25.0567849834
 10
0.6534797551
 20
-25.0641341463
  0
LWPOLYLINE
  5
382
100
AcDbEntity
  8
RACCORDO
100
AcDbPolyline
 62
250
  6
CONTINUOUS
 90
8
 70
0
 10
-0.9044365129
 20
-25.6784910973
 10
-0.9062605221
 20
-25.7056038656
 10
-0.9109413682
 20
-25.7309603775
 10
-0.9184574827
 20
-25.7540964495
 10
-0.9287623475
 20
-25.7746129076
 10
-0.9417178761
 20
-25.7920451053
 10
-0.9570401991
 20
-25.8059458015
 10
-0.973281428
 20
-25.8155380142
  0
LWPOLYLINE
  5
383
100
AcDbEntity
  8
RACCORDO
100
AcDbPolyline
 62
250
  6
CONTINUOUS
 90
50
 70
0
 10
19.3037789127
 20
5.8170060868
 10
19.3118516546
 20
5.8198241497
 10
19.3199640155
 20
5.8223895483
 10
19.328114522
 20
5.8247044359
 10
19.3362990324
 20
5.8267866596
 10
19.3445182948
 20
5.8286231784
 10
19.3527775452
 20
5.830170617
 10
19.3610816326
 20
5.8314365364
 10
19.3694202803
 20
5.8324207465
 10
19.3777748488
 20
5.8330697632
 10
19.3861416296
 20
5.8333905048
 10
19.3945163421
 20
5.8333865919
 10
19.402877907
 20
5.8330015695
 10
19.4112207718
 20
5.8322454652
 10
19.4195390965
 20
5.8311230789
 10
19.4278091839
 20
5.8295728574
 10
19.4360271199
 20
5.8276075014
 10
19.4441808241
 20
5.8252351012
 10
19.4522314864
 20
5.8223908009
 10
19.460174079
 20
5.8190887066
 10
19.4679918876
 20
5.8153431917
 10
19.4756253039
 20
5.8110939611
 10
19.4830619468
 20
5.8063614491
 10
19.4902862112
 20
5.8011624754
 10
19.497229896
 20
5.7954362221
 10
19.5038757387
 20
5.7892174343
 10
19.510205733
 20
5.7825195415
 10
19.5161448553
 20
5.775257472
 10
19.5216771729
 20
5.7674871449
 10
19.5267724352
 20
5.759217897
 10
19.5313235443
 20
5.7503095297
 10
19.5353244597
 20
5.7407760597
 10
19.5387132788
 20
5.7307031365
 10
19.5412924301
 20
5.720067669
 10
19.5430088739
 20
5.70881505
 10
19.5438405389
 20
5.6971162871
 10
19.5436596888
 20
5.6852529197
 10
19.5424156277
 20
5.6732698126
 10
19.5401352573
 20
5.6611681839
 10
19.5368426216
 20
5.6491113447
 10
19.5325268973
 20
5.6371138597
 10
19.5271979025
 20
5.6251746759
 10
19.5209299922
 20
5.6134037397
 10
19.5137330443
 20
5.6018083086
 10
19.5056106181
 20
5.5903715603
 10
19.4966379247
 20
5.579150584
 10
19.4868283173
 20
5.5681411802
 10
19.4761867745
 20
5.5573284098
 10
19.4647804026
 20
5.5467455907
 10
19.452619054
 20
5.5363807532
  0
LWPOLYLINE
  5
384
100
AcDbEntity
  8
RACCORDO
100
AcDbPolyline
 62
250
  6
CONTINUOUS
 90
13
 70
0
 10
-9.3588080182
 20
6.1524032901
 10
-9.3432509276
 20
6.1453994498
 10
-9.3263148408
 20
6.1392470355
 10
-9.3081853022
 20
6.1340134581
 10
-9.2890609325
 20
6.1297560619
 10
-9.2691512559
 20
6.1265214972
 10
-9.2486744052
 20
6.1243452084
 10
-9.2278547246
 20
6.1232510447
 10
-9.2069203185
 20
6.1232509996
 10
-9.1861005563
 20
6.1243450786
 10
-9.1656235449
 20
6.126521299
 10
-9.1457136391
 20
6.129755822
 10
-9.12658899
 20
6.1340132109
  0
LWPOLYLINE
  5
385
100
AcDbEntity
  8
RACCORDO
100
AcDbPolyline
 62
250
  6
CONTINUOUS
 90
22
 70
0
 10
-17.3491146456
 20
10.407364225
 10
-17.3650481958
 20
10.4145867505
 10
-17.3807397249
 20
10.4202734054
 10
-17.3961892331
 20
10.4244241898
 10
-17.4114863337
 20
10.4270489459
 10
-17.4265414133
 20
10.4281378315
 10
-17.4410856318
 20
10.4276613198
 10
-17.4551065292
 20
10.4255887297
 10
-17.4686165655
 20
10.4219507424
 10
-17.4813842801
 20
10.4168098743
 10
-17.4933934692
 20
10.4101424335
 10
-17.5046603366
 20
10.401972112
 10
-17.5150020333
 20
10.3924325027
 10
-17.5244054495
 20
10.3814983387
 10
-17.5328836951
 20
10.369194887
 10
-17.54029325
 20
10.3557315417
 10
-17.5466149544
 20
10.3410814293
 10
-17.5518679682
 20
10.3252714232
 10
-17.5559662516
 20
10.3085915379
 10
-17.5588811248
 20
10.2911384448
 10
-17.5606412676
 20
10.2728154725
 10
-17.56124668
 20
10.253622621
  0
LINE
  5
386
100
AcDbEntity
  8
RACCORDO
100
AcDbLine
 62
250
  6
CONTINUOUS
 10
-9.5709400526
 20
6.5182769284
 11
-17.3491146456
 21
10.407364225
  0
LINE
  5
387
100
AcDbEntity
  8
RACCORDO
100
AcDbLine
 62
7
  6
CONTINUOUS
 10
-17.2105999429
 20
10.6519018669
 11
-9.4322286894
 21
6.7627162402
  0
LWPOLYLINE
  5
388
100
AcDbEntity
  8
RACCORDO
100
AcDbPolyline
 62
7
  6
CONTINUOUS
 90
25
 70
0
 10
-9.4322286894
 20
6.7627162402
 10
-9.4089629913
 20
6.750101159
 10
-9.3860336401
 20
6.7357986021
 10
-9.3634406073
 20
6.7198085827
 10
-9.3410900733
 20
6.7020482571
 10
-9.3190757439
 20
6.6826005221
 10
-9.2976788556
 20
6.6617140121
 10
-9.2769073294
 20
6.6393702745
 10
-9.2567530341
 20
6.6155878599
 10
-9.2374731219
 20
6.5906709113
 10
-9.2190787761
 20
6.5646049389
 10
-9.2015585388
 20
6.5374045604
 10
-9.1851356175
 20
6.509417572
 10
-9.1698241175
 20
6.4806342381
 10
-9.1556096364
 20
6.4510644329
 10
-9.1426726638
 20
6.4210853467
 10
-9.1310294407
 20
6.3906918964
 10
-9.1206634519
 20
6.3598892931
 10
-9.1117061239
 20
6.3290701361
 10
-9.1041753843
 20
6.2982344765
 10
-9.098053096
 20
6.2673823611
 10
-9.0934166817
 20
6.2369063386
 10
-9.0902919353
 20
6.2069372653
 10
-9.0886529622
 20
6.1773443321
 10
-9.0884997051
 20
6.148127566
  0
LWPOLYLINE
  5
389
100
AcDbEntity
  8
RACCORDO
100
AcDbPolyline
 62
250
  6
CONTINUOUS
 90
9
 70
0
 10
-17.56124668
 20
10.253622621
 10
-17.575254516
 20
10.26140126
 10
-17.5875594373
 20
10.2698693956
 10
-17.5980266286
 20
10.2789342491
 10
-17.606541409
 20
10.2884965042
 10
-17.613010489
 20
10.2984513946
 10
-17.6173629919
 20
10.3086898526
 10
-17.6195512307
 20
10.3190997035
 10
-17.6198253237
 20
10.3243332991
  0
LWPOLYLINE
  5
38A
100
AcDbEntity
  8
RACCORDO
100
AcDbPolyline
 62
7
  6
CONTINUOUS
 90
4
 70
0
 10
1.7354081004
 20
21.5385126095
 10
1.7352853365
 20
21.5405034768
 10
1.7329297153
 20
21.5463947612
 10
1.7277492889
 20
21.5505773007
  0
LWPOLYLINE
  5
38B
100
AcDbEntity
  8
RACCORDO
100
AcDbPolyline
 62
7
  6
CONTINUOUS
 90
24
 70
0
 10
21.040740734
 20
8.0796095771
 10
21.0466019707
 20
8.0831513755
 10
21.0522366799
 20
8.0867632776
 10
21.0576395176
 20
8.0904417191
 10
21.0628053615
 20
8.0941829366
 10
21.0677293252
 20
8.0979833278
 10
21.0724067614
 20
8.101839455
 10
21.0768332533
 20
8.1057474127
 10
21.0810046217
 20
8.1097033152
 10
21.0849169368
 20
8.113703657
 10
21.0885665192
 20
8.1177443476
 10
21.0919499394
 20
8.1218213277
 10
21.095064023
 20
8.1259310574
 10
21.0979058593
 20
8.1300692964
 10
21.1004727979
 20
8.134231847
 10
21.1027624497
 20
8.1384151704
 10
21.1047726975
 20
8.142614913
 10
21.1065016918
 20
8.1468267753
 10
21.1079478503
 20
8.1510472552
 10
21.1091098669
 20
8.1552719235
 10
21.1099867077
 20
8.1594964164
 10
21.1105776108
 20
8.1637173043
 10
21.110882091
 20
8.1679301211
 10
21.110927401
 20
8.1702934982
  0
LWPOLYLINE
  5
38C
100
AcDbEntity
  8
RACCORDO
100
AcDbPolyline
 62
7
  6
CONTINUOUS
 90
10
 70
0
 10
21.040740734
 20
8.0796095771
 10
21.0393116689
 20
8.0788188454
 10
21.0378546301
 20
8.0781254265
 10
21.0363692951
 20
8.0775295407
 10
21.0348594571
 20
8.0770285372
 10
21.0333207542
 20
8.0766254894
 10
21.0317403164
 20
8.0763293542
 10
21.0301132864
 20
8.0761434435
 10
21.0284431746
 20
8.0760652656
 10
21.0267293411
 20
8.0760952324
  0
LINE
  5
38D
100
AcDbEntity
  8
RACCORDO
100
AcDbLine
 62
250
  6
CONTINUOUS
 10
-1.9341652766
 20
-5.5175100741
 11
-5.5375893312
 21
-7.3331155927
  0
LINE
  5
38E
100
AcDbEntity
  8
RACCORDO
100
AcDbLine
 62
250
  6
CONTINUOUS
 10
-1.7927654595
 20
-5.7613886834
 11
-5.3961895141
 21
-7.576994202
  0
LINE
  5
38F
100
AcDbEntity
  8
RACCORDO
100
AcDbLine
 62
7
  6
CONTINUOUS
 10
-1.1613060184
 20
-5.7876671688
 11
-1.7927654595
 21
-6.104624668
  0
LINE
  5
390
100
AcDbEntity
  8
DRAFT
100
AcDbLine
 62
7
  6
CONTINUOUS
 10
-0.0204996544
 20
-4.6199733918
 11
0.5550598463
 21
-4.3420677173
  0
LINE
  5
391
100
AcDbEntity
  8
RACCORDO
100
AcDbLine
 62
250
  6
CONTINUOUS
 10
-5.3386096865
 20
-6.7964050743
 11
0.0633898411
 21
-4.2448269769
  0
LINE
  5
392
100
AcDbEntity
  8
RACCORDO
100
AcDbLine
 62
7
  6
CONTINUOUS
 10
-5.4723920452
 20
-6.9850426028
 11
-0.0168294878
 21
-4.4081645673
  0
LWPOLYLINE
  5
393
100
AcDbEntity
  8
RACCORDO
100
AcDbPolyline
 62
250
  6
CONTINUOUS
 90
19
 70
0
 10
-5.5375893312
 20
-7.3331155927
 10
-5.5570621489
 20
-7.3421185025
 10
-5.5776720928
 20
-7.350162178
 10
-5.5994191629
 20
-7.3572466192
 10
-5.6224958823
 20
-7.36341798
 10
-5.6467097278
 20
-7.3686301065
 10
-5.6714831307
 20
-7.3727445367
 10
-5.6968158644
 20
-7.3757297647
 10
-5.7227081555
 20
-7.3776172965
 10
-5.7485831142
 20
-7.3783631875
 10
-5.7744419329
 20
-7.377940695
 10
-5.8002834192
 20
-7.3763765618
 10
-5.8255271061
 20
-7.3737070712
 10
-5.8501705584
 20
-7.3699004344
 10
-5.8742162112
 20
-7.3649884402
 10
-5.8970909035
 20
-7.3591027378
 10
-5.9186035814
 20
-7.3522872102
 10
-5.9389452987
 20
-7.3444979743
 10
-5.9581160554
 20
-7.3357350302
  0
LWPOLYLINE
  5
394
100
AcDbEntity
  8
RACCORDO
100
AcDbPolyline
 62
250
  6
CONTINUOUS
 90
19
 70
0
 10
-5.3962008594
 20
-7.5769883244
 10
-5.4285093137
 20
-7.5916919683
 10
-5.4631681041
 20
-7.6049610676
 10
-5.4999076072
 20
-7.6166721442
 10
-5.5384476318
 20
-7.6267392218
 10
-5.5785017706
 20
-7.6350963778
 10
-5.6197816442
 20
-7.6416815717
 10
-5.6619840953
 20
-7.6464454347
 10
-5.7047913498
 20
-7.6493590861
 10
-5.74788615
 20
-7.650399113
 10
-5.7909483234
 20
-7.6495475225
 10
-5.8336579495
 20
-7.6468194796
 10
-5.8756982248
 20
-7.6422406647
 10
-5.916752457
 20
-7.6358355407
 10
-5.9565209141
 20
-7.6276512062
 10
-5.9947168231
 20
-7.6177523545
 10
-6.0310550233
 20
-7.6062026799
 10
-6.065257917
 20
-7.5930852834
 10
-6.0970585667
 20
-7.5785210091
  0
LWPOLYLINE
  5
395
100
AcDbEntity
  8
RACCORDO
100
AcDbPolyline
 62
250
  6
CONTINUOUS
 90
16
 70
0
 10
-5.3386271891
 20
-6.7964001791
 10
-5.3776508506
 20
-6.8131529714
 10
-5.4199781368
 20
-6.8278376669
 10
-5.4651555178
 20
-6.8402907103
 10
-5.5126989168
 20
-6.8503720991
 10
-5.5620988981
 20
-6.8579669462
 10
-5.6128261248
 20
-6.8629867761
 10
-5.6643370299
 20
-6.8653705335
 10
-5.7160796417
 20
-6.8650853128
 10
-5.7674994989
 20
-6.8621267823
 10
-5.81804559
 20
-6.856519307
 10
-5.8671762583
 20
-6.8483157033
 10
-5.9143650074
 20
-6.8375967556
 10
-5.9591061424
 20
-6.8244704867
 10
-6.0009201899
 20
-6.8090710559
 10
-6.0393590363
 20
-6.791557332
  0
LWPOLYLINE
  5
396
100
AcDbEntity
  8
RACCORDO
100
AcDbPolyline
 62
7
  6
CONTINUOUS
 90
40
 70
0
 10
19.3037789142
 20
7.7727911221
 10
19.3785561909
 20
7.7927330535
 10
19.4512449894
 20
7.8118416848
 10
19.52184531
 20
7.8301170161
 10
19.5902977834
 20
7.8475351132
 10
19.6566617788
 20
7.8641199102
 10
19.7211154033
 20
7.8799432095
 10
19.7836681205
 20
7.8950083202
 10
19.8443104669
 20
7.9093119331
 10
19.9031921585
 20
7.9229159233
 10
19.9603172442
 20
7.9358221037
 10
20.0156816751
 20
7.9480286614
 10
20.0694230209
 20
7.9595920325
 10
20.1215448676
 20
7.970513886
 10
20.1720436293
 20
7.980792553
 10
20.2210461178
 20
7.9904794627
 10
20.2685558736
 20
7.9995762344
 10
20.3145693562
 20
8.0080812487
 10
20.3592027566
 20
8.0160410769
 10
20.4024596091
 20
8.0234572768
 10
20.4443363794
 20
8.0303282907
 10
20.4849386555
 20
8.0366960163
 10
20.5242688827
 20
8.0425618111
 10
20.5623246156
 20
8.0479243177
 10
20.5992041065
 20
8.0528213625
 10
20.6349101286
 20
8.0572543616
 10
20.6694399086
 20
8.0612218989
 10
20.702883379
 20
8.0647575522
 10
20.7352427628
 20
8.0678627062
 10
20.7665158371
 20
8.0705359762
 10
20.7967858651
 20
8.0728067866
 10
20.8260578478
 20
8.074676589
 10
20.8543267842
 20
8.0761439317
 10
20.8816609344
 20
8.0772338837
 10
20.9080624039
 20
8.0779475156
 10
20.9335290872
 20
8.0782837568
 10
20.9581229282
 20
8.0782644634
 10
20.9818645748
 20
8.0778969209
 10
21.0047333791
 20
8.0771738439
 10
21.0267293411
 20
8.0760952324
  0
LWPOLYLINE
  5
397
100
AcDbEntity
  8
RACCORDO
100
AcDbPolyline
 62
7
  6
CONTINUOUS
 90
16
 70
0
 10
19.3037789142
 20
7.7727911221
 10
19.2928682881
 20
7.7700827058
 10
19.282112846
 20
7.7678734939
 10
19.2715125879
 20
7.7661634866
 10
19.2610544235
 20
7.76495273
 10
19.250751443
 20
7.7642411778
 10
19.2406429176
 20
7.7640286914
 10
19.2307327082
 20
7.7643231273
 10
19.2210169537
 20
7.765116629
 10
19.2115233426
 20
7.7663854883
 10
19.2022584491
 20
7.7681369041
 10
19.1932156988
 20
7.7703636776
 10
19.1844030575
 20
7.7730205041
 10
19.1758231803
 20
7.7760922819
 10
19.1674734121
 20
7.7795941126
 10
19.1593537527
 20
7.7835259963
  0
LWPOLYLINE
  5
398
100
AcDbEntity
  8
RACCORDO
100
AcDbPolyline
 62
250
  6
CONTINUOUS
 90
3
 70
0
 10
-9.186099769
 20
3.0932562209
 10
-9.1656228529
 20
3.0954324724
 10
-9.1465008841
 20
3.0985390245
  0
LINE
  5
399
100
AcDbEntity
  8
DRAFT
100
AcDbLine
 62
7
  6
CONTINUOUS
 10
1.7781237855
 20
3.6096977733
 11
0.6913645157
 21
4.1530774082
  0
LINE
  5
39A
100
AcDbEntity
  8
RACCORDO
100
AcDbLine
 62
250
  6
CONTINUOUS
 10
6.3338365444
 20
19.1477992281
 11
6.3338365444
 21
18.8661051769
  0
LINE
  5
39B
100
AcDbEntity
  8
RACCORDO
100
AcDbLine
 62
250
  6
CONTINUOUS
 10
6.3338365444
 20
-17.7112279523
 11
6.3338365444
 21
-17.7591787472
  0
LINE
  5
39C
100
AcDbEntity
  8
RACCORDO
100
AcDbLine
 62
7
  6
CONTINUOUS
 10
6.4741666442
 20
19.3214638207
 11
6.4741666442
 21
19.0423758662
  0
LINE
  5
39D
100
AcDbEntity
  8
RACCORDO
100
AcDbLine
 62
7
  6
CONTINUOUS
 10
6.4741666442
 20
-17.6375111516
 11
6.4741666442
 21
-17.7044421169
  0
LWPOLYLINE
  5
39E
100
AcDbEntity
  8
RACCORDO
100
AcDbPolyline
 62
7
  6
CONTINUOUS
 90
9
 70
0
 10
21.0393116689
 20
7.3090165999
 10
21.0378546301
 20
7.3080122462
 10
21.0363692951
 20
7.3069034166
 10
21.0348594571
 20
7.3056978263
 10
21.0333207542
 20
7.3043881826
 10
21.0317403164
 20
7.3029523446
 10
21.0301132864
 20
7.3013832579
 10
21.0284431746
 20
7.2996887971
 10
21.0267293411
 20
7.2978693739
  0
LWPOLYLINE
  5
39F
100
AcDbEntity
  8
RACCORDO
100
AcDbPolyline
 62
7
  6
CONTINUOUS
 90
34
 70
0
 10
20.404561118
 20
6.1486246326
 10
20.4373742447
 20
6.1705573423
 10
20.4696516747
 20
6.1935687035
 10
20.5013726083
 20
6.2176539323
 10
20.5325113059
 20
6.2428031776
 10
20.5630531407
 20
6.2690143458
 10
20.5929937818
 20
6.2962951119
 10
20.6223143142
 20
6.3246411043
 10
20.6509938139
 20
6.3540451387
 10
20.67902422
 20
6.3845131413
 10
20.7063886795
 20
6.416042604
 10
20.733065278
 20
6.448624459
 10
20.7590384274
 20
6.4822563295
 10
20.7842927239
 20
6.516936129
 10
20.8088069915
 20
6.5526532221
 10
20.8325583965
 20
6.5893923389
 10
20.8555327437
 20
6.6271498295
 10
20.8777113004
 20
6.6659140033
 10
20.899067308
 20
6.7056558087
 10
20.9195882355
 20
6.7463688774
 10
20.9392586153
 20
6.7880404317
 10
20.958051398
 20
6.8306287665
 10
20.9759560936
 20
6.8741237108
 10
20.9929610751
 20
6.9185116834
 10
21.0090424933
 20
6.9637420053
 10
21.0241922871
 20
7.0098003483
 10
21.0384026751
 20
7.0566724518
 10
21.0516553459
 20
7.1043036351
 10
21.063944925
 20
7.1526759133
 10
21.0752670131
 20
7.2017741579
 10
21.0856095749
 20
7.2515440942
 10
21.0949680831
 20
7.3019545215
 10
21.1033431338
 20
7.3529993083
 10
21.1101288754
 20
7.4001400168
  0
LINE
  5
3A0
100
AcDbEntity
  8
DRAFT
100
AcDbLine
 62
7
  6
CONTINUOUS
 10
20.4045611181
 20
6.1486246326
 11
19.4459562047
 21
5.5286070681
  0
LWPOLYLINE
  5
3A1
100
AcDbEntity
  8
RACCORDO
100
AcDbPolyline
 62
7
  6
CONTINUOUS
 90
21
 70
0
 10
21.0393116689
 20
7.3090165999
 10
21.0466019707
 20
7.3135834347
 10
21.0522366799
 20
7.3173579019
 10
21.0576395176
 20
7.3212360946
 10
21.0628053615
 20
7.3252144821
 10
21.0677293252
 20
7.3292892293
 10
21.0724067614
 20
7.3334562009
 10
21.0768332533
 20
7.3377115813
 10
21.0810046217
 20
7.3420513949
 10
21.0849169368
 20
7.3464711686
 10
21.0885665192
 20
7.3509669005
 10
21.0919499394
 20
7.3555344427
 10
21.095064023
 20
7.3601690214
 10
21.0979058593
 20
7.3648664834
 10
21.1004727979
 20
7.3696225439
 10
21.1027624497
 20
7.374432169
 10
21.1047726975
 20
7.3792910901
 10
21.1065016918
 20
7.3841949227
 10
21.1079478503
 20
7.389138415
 10
21.1091098669
 20
7.3941172199
 10
21.1099867077
 20
7.3991268916
  0
LWPOLYLINE
  5
3A2
100
AcDbEntity
  8
RACCORDO
100
AcDbPolyline
 62
250
  6
CONTINUOUS
 90
9
 70
0
 10
-20.5885826776
 20
18.1204101213
 10
-20.6232388424
 20
18.1395025569
 10
-20.6537387147
 20
18.1600927767
 10
-20.6797555034
 20
18.1819601666
 10
-20.7010104514
 20
18.2048704284
 10
-20.7172758224
 20
18.2285780897
 10
-20.728377341
 20
18.2528291346
 10
-20.7341960597
 20
18.277363725
 10
-20.7350675656
 20
18.2953753114
  0
LWPOLYLINE
  5
3A3
100
AcDbEntity
  8
RACCORDO
100
AcDbPolyline
 62
250
  6
CONTINUOUS
 90
51
 70
0
 10
19.1593537527
 20
5.6567148478
 10
19.1662601637
 20
5.6624582937
 10
19.1731148307
 20
5.6679469961
 10
19.179916394
 20
5.6731809018
 10
19.1866563979
 20
5.6781599352
 10
19.1933407189
 20
5.6828839663
 10
19.199988758
 20
5.6873531663
 10
19.2066003191
 20
5.691571488
 10
19.2131712628
 20
5.6955354357
 10
19.2197137634
 20
5.6992345328
 10
19.2262258027
 20
5.702671152
 10
19.2327037917
 20
5.7058437187
 10
19.2391564579
 20
5.7087362203
 10
19.2455769147
 20
5.711349918
 10
19.2519652953
 20
5.7136845538
 10
19.2583393116
 20
5.7157223439
 10
19.264686187
 20
5.7174674945
 10
19.2710097031
 20
5.7189173008
 10
19.2773490374
 20
5.7200446848
 10
19.2836983923
 20
5.7208591747
 10
19.2900488536
 20
5.7213541749
 10
19.2964301612
 20
5.7214798151
 10
19.302836101
 20
5.7212431683
 10
19.3092520132
 20
5.7206412291
 10
19.3156906269
 20
5.7196100871
 10
19.3221419401
 20
5.7181525563
 10
19.3285894232
 20
5.7162704138
 10
19.3350325871
 20
5.7138988302
 10
19.3414528822
 20
5.7110409369
 10
19.3478374335
 20
5.7076980703
 10
19.3541902703
 20
5.703803298
 10
19.3604907579
 20
5.6993593506
 10
19.3667201875
 20
5.6943680416
 10
19.3728796386
 20
5.6887618363
 10
19.3789460878
 20
5.6825386838
 10
19.3848928175
 20
5.6757049736
 10
19.3907088654
 20
5.6682064143
 10
19.3963655416
 20
5.6600368187
 10
19.4018311183
 20
5.651205534
 10
19.4070838852
 20
5.6416817136
 10
19.412084305
 20
5.6314683542
 10
19.4168014385
 20
5.6205632296
 10
19.4212166356
 20
5.608927803
 10
19.4252800772
 20
5.5965719723
 10
19.4289520223
 20
5.5834837523
 10
19.4322081356
 20
5.5695922103
 10
19.4349847882
 20
5.5548914016
 10
19.4372190027
 20
5.5393807501
 10
19.4388546215
 20
5.5229970451
 10
19.4398114142
 20
5.5055040757
 10
19.4400139523
 20
5.492815842
  0
LINE
  5
3A4
100
AcDbEntity
  8
RACCORDO
100
AcDbLine
 62
250
  6
CONTINUOUS
 10
19.452619054
 20
5.5363807532
 11
19.4474399853
 21
5.5323042386
  0
LINE
  5
3A5
100
AcDbEntity
  8
RACCORDO
100
AcDbLine
 62
250
  6
CONTINUOUS
 10
-5.737451921
 20
10.6948447428
 11
-20.5885826779
 21
18.1204101212
  0
LINE
  5
3A6
100
AcDbEntity
  8
RACCORDO
100
AcDbLine
 62
250
  6
CONTINUOUS
 10
-4.7215072005
 20
12.4351522311
 11
-19.5960104862
 21
19.8724038739
  0
LWPOLYLINE
  5
3A7
100
AcDbEntity
  8
RACCORDO
100
AcDbPolyline
 62
7
  6
CONTINUOUS
 90
40
 70
0
 10
21.0267293411
 20
7.2978693739
 10
21.0047334102
 20
7.2740133104
 10
20.9818646388
 20
7.2496089275
 10
20.9581230267
 20
7.2246562254
 10
20.933529223
 20
7.199169301
 10
20.9080625787
 20
7.1731340572
 10
20.8816611471
 20
7.146508203
 10
20.8543270325
 20
7.1192928464
 10
20.8260581307
 20
7.0914868794
 10
20.7967861823
 20
7.0630446862
 10
20.7665161885
 20
7.0339699943
 10
20.7352431482
 20
7.0042590762
 10
20.7028837976
 20
6.9738551345
 10
20.6694403604
 20
6.9427590872
 10
20.634910613
 20
6.9109700162
 10
20.5992046209
 20
6.87842837
 10
20.5623251568
 20
6.8451356037
 10
20.524269448
 20
6.8110902623
 10
20.484939242
 20
6.7762284288
 10
20.4443369839
 20
6.7405512782
 10
20.4024602285
 20
6.7040576354
 10
20.3592033874
 20
6.6666800587
 10
20.314569995
 20
6.6284206504
 10
20.2685565167
 20
6.5892773081
 10
20.2210467605
 20
6.549176283
 10
20.1720442667
 20
6.508119622
 10
20.1215454948
 20
6.4661052782
 10
20.0694236319
 20
6.4230533626
 10
20.0156822634
 20
6.3789659191
 10
19.9603178038
 20
6.3338409037
 10
19.9031926835
 20
6.2875922954
 10
19.8443109511
 20
6.2402224736
 10
19.783668558
 20
6.191729059
 10
19.7211157896
 20
6.1420188921
 10
19.6566621098
 20
6.0910984641
 10
19.5902980546
 20
6.0389612838
 10
19.521845518
 20
5.9854947192
 10
19.4512451311
 20
5.9306612261
 10
19.3785562626
 20
5.8744983487
 10
19.3037789127
 20
5.8170060868
  0
LINE
  5
3A8
100
AcDbEntity
  8
RACCORDO
100
AcDbLine
 62
7
  6
CONTINUOUS
 10
-1.7927654595
 20
-11.7083159561
 11
-0.5906839315
 21
-11.1304117605
  0
LWPOLYLINE
  5
3A9
100
AcDbEntity
  8
RACCORDO
100
AcDbPolyline
 62
250
  6
CONTINUOUS
 90
8
 70
0
 10
-19.5960104862
 20
19.8724038739
 10
-19.6334816122
 20
19.8881904721
 10
-19.6703401596
 20
19.8991733391
 10
-19.7061827655
 20
19.905232289
 10
-19.7406171888
 20
19.9063010215
 10
-19.7732665932
 20
19.9023678463
 10
-19.8037736732
 20
19.8934758156
 10
-19.8292323752
 20
19.8812482513
  0
LWPOLYLINE
  5
3AA
100
AcDbEntity
  8
RACCORDO
100
AcDbPolyline
 62
250
  6
CONTINUOUS
 90
58
 70
0
 10
19.4400139523
 20
-0.9653722715
 10
19.4540881827
 20
-0.9762472911
 10
19.497119147
 20
-1.0106779248
 10
19.5399163794
 20
-1.0461084536
 10
19.5824605817
 20
-1.0825229036
 10
19.6247325266
 20
-1.11990482
 10
19.6667131013
 20
-1.1582373008
 10
19.7083833359
 20
-1.1975030228
 10
19.7497244398
 20
-1.2376842774
 10
19.7907177782
 20
-1.2787629525
 10
19.8313448625
 20
-1.320720523
 10
19.8715873356
 20
-1.3635380327
 10
19.9114270078
 20
-1.4071961279
 10
19.9508458812
 20
-1.4516750839
 10
19.9898261762
 20
-1.4969548372
 10
20.0283503159
 20
-1.5430149702
 10
20.0664009208
 20
-1.5898347052
 10
20.1039608025
 20
-1.6373928939
 10
20.1410129905
 20
-1.6856680488
 10
20.1775407509
 20
-1.7346383658
 10
20.2135276033
 20
-1.7842817496
 10
20.2489573135
 20
-1.8345758053
 10
20.2838138935
 20
-1.8854978381
 10
20.3180816024
 20
-1.9370248528
 10
20.3517449645
 20
-1.9891335796
 10
20.3847887808
 20
-2.0418004908
 10
20.417198138
 20
-2.0950018163
 10
20.4489584088
 20
-2.1487135445
 10
20.4800552564
 20
-2.2029114299
 10
20.5104746428
 20
-2.2575710059
 10
20.540202837
 20
-2.3126676001
 10
20.5692264208
 20
-2.3681763441
 10
20.5975322906
 20
-2.4240721774
 10
20.6251076649
 20
-2.4803298597
 10
20.6519400922
 20
-2.5369239877
 10
20.6780174639
 20
-2.5938290213
 10
20.7033280149
 20
-2.651019287
 10
20.7278603241
 20
-2.70846898
 10
20.7516033115
 20
-2.7661521551
 10
20.7745462509
 20
-2.8240427526
 10
20.79667878
 20
-2.8821146238
 10
20.8179909147
 20
-2.9403415699
 10
20.838473044
 20
-2.9986973327
 10
20.8581159278
 20
-3.0571555891
 10
20.8769106912
 20
-3.1156899308
 10
20.8948488398
 20
-3.1742739024
 10
20.9119222704
 20
-3.2328810351
 10
20.9281232836
 20
-3.2914848958
 10
20.9434445761
 20
-3.3500590665
 10
20.9578792371
 20
-3.4085771317
 10
20.9714207427
 20
-3.4670126496
 10
20.9840629704
 20
-3.5253392004
 10
20.995800209
 20
-3.5835304265
 10
21.0066271673
 20
-3.6415600879
 10
21.0165389662
 20
-3.6994020328
 10
21.0255311322
 20
-3.7570301645
 10
21.0335996026
 20
-3.8144184541
 10
21.040740734
 20
-3.8715409951
  0
LWPOLYLINE
  5
3AB
100
AcDbEntity
  8
RACCORDO
100
AcDbPolyline
 62
7
  6
CONTINUOUS
 90
31
 70
0
 10
12.4923720804
 20
17.2080668502
 10
12.4920767475
 20
17.2430241885
 10
12.4909323339
 20
17.2854514099
 10
12.4889336073
 20
17.327941828
 10
12.4860868769
 20
17.3705006445
 10
12.4823996014
 20
17.4131074709
 10
12.4778826843
 20
17.455713018
 10
12.4725440575
 20
17.4983112013
 10
12.4663909426
 20
17.5408943014
 10
12.4594378274
 20
17.5834084675
 10
12.4516932775
 20
17.6258471493
 10
12.4431647865
 20
17.6682037879
 10
12.4338706288
 20
17.7104229407
 10
12.4238202866
 20
17.7524958777
 10
12.4130214017
 20
17.7944183515
 10
12.4014940861
 20
17.8361402649
 10
12.3892503286
 20
17.8776454541
 10
12.3762961007
 20
17.9189373927
 10
12.3626444434
 20
17.9599941624
 10
12.3483044128
 20
18.0008060966
 10
12.3332825231
 20
18.0413696381
 10
12.3175882348
 20
18.0816707213
 10
12.3012283053
 20
18.1217022592
 10
12.2842085549
 20
18.1614573334
 10
12.2665377348
 20
18.2009212536
 10
12.2482216745
 20
18.2400857015
 10
12.2292647014
 20
18.278943498
 10
12.2096735745
 20
18.3174820134
 10
12.1894526352
 20
18.355692206
 10
12.1686051107
 20
18.3935663847
 10
12.1504046417
 20
18.4254711297
  0
LWPOLYLINE
  5
3AC
100
AcDbEntity
  8
RACCORDO
100
AcDbPolyline
 62
250
  6
CONTINUOUS
 90
37
 70
0
 10
12.2117118886
 20
16.8607391749
 10
12.2114819596
 20
16.898741451
 10
12.2105734761
 20
16.9370590038
 10
12.2089868299
 20
16.9756735739
 10
12.2067227047
 20
17.0145666721
 10
12.2037821796
 20
17.0537198581
 10
12.2001667165
 20
17.0931147544
 10
12.1958779896
 20
17.1327327182
 10
12.1909180045
 20
17.1725547661
 10
12.1852892002
 20
17.2125618546
 10
12.1789942493
 20
17.252734878
 10
12.1720361078
 20
17.293054764
 10
12.164418123
 20
17.3335024014
 10
12.1561439094
 20
17.374058541
 10
12.1472173795
 20
17.4147038731
 10
12.1376427959
 20
17.455419122
 10
12.1274247035
 20
17.4961849441
 10
12.1165679522
 20
17.5369819062
 10
12.1050777257
 20
17.5777905651
 10
12.0929594983
 20
17.618591508
 10
12.0802190283
 20
17.6593653184
 10
12.066862381
 20
17.7000925551
 10
12.0528959395
 20
17.7407538203
 10
12.0383263428
 20
17.7813297974
 10
12.0231604789
 20
17.8218012166
 10
12.0074055883
 20
17.8621488341
 10
11.9910691767
 20
17.9023534587
 10
11.9741589511
 20
17.9423959892
 10
11.9566829623
 20
17.9822574498
 10
11.9386495662
 20
18.0219188233
 10
11.9200673379
 20
18.061361079
 10
11.9009452186
 20
18.1005653596
 10
11.8812922856
 20
18.1395131425
 10
11.8611177039
 20
18.1781860693
 10
11.8404310322
 20
18.2165658075
 10
11.8192422272
 20
18.254634065
 10
11.7975614129
 20
18.2923727495
  0
LINE
  5
3AD
100
AcDbEntity
  8
RACCORDO
100
AcDbLine
 62
250
  6
CONTINUOUS
 10
12.2117118886
 20
9.8703792535
 11
12.2117118886
 21
16.8607391749
  0
LINE
  5
3AE
100
AcDbEntity
  8
RACCORDO
100
AcDbLine
 62
7
  6
CONTINUOUS
 10
12.4923915914
 20
10.2128144611
 11
12.4923720882
 21
17.2080683601
  0
LINE
  5
3AF
100
AcDbEntity
  8
0
100
AcDbLine
 62
7
  6
CONTINUOUS
 10
12.7353373742
 20
11.7967400234
 11
12.7353373742
 21
11.6650731369
  0
LWPOLYLINE
  5
3B0
100
AcDbEntity
  8
RACCORDO
100
AcDbPolyline
 62
250
  6
CONTINUOUS
 90
58
 70
0
 10
13.2356702078
 20
9.1017089374
 10
13.2357311237
 20
9.1258681703
 10
13.2352459487
 20
9.1502727188
 10
13.2342150508
 20
9.1749040575
 10
13.2326392128
 20
9.199743489
 10
13.2305196307
 20
9.2247721578
 10
13.2278579137
 20
9.249971065
 10
13.224656082
 20
9.2753210822
 10
13.2209165664
 20
9.3008029665
 10
13.2166422053
 20
9.3263973748
 10
13.2118362434
 20
9.3520848785
 10
13.206502329
 20
9.3778459785
 10
13.2006445108
 20
9.4036611198
 10
13.1942672356
 20
9.4295107063
 10
13.1873753444
 20
9.4553751158
 10
13.1799740685
 20
9.4812347149
 10
13.1720690265
 20
9.5070698737
 10
13.1636662188
 20
9.532860981
 10
13.154772024
 20
9.558588459
 10
13.1453931936
 20
9.5842327782
 10
13.135536847
 20
9.6097744722
 10
13.125210466
 20
9.6351941525
 10
13.1144218895
 20
9.6604725233
 10
13.1031793067
 20
9.6855903959
 10
13.091491252
 20
9.7105287036
 10
13.0793665977
 20
9.735268516
 10
13.0668145473
 20
9.7597910532
 10
13.0538446292
 20
9.7840777005
 10
13.0404666886
 20
9.808110022
 10
13.0266908807
 20
9.831869775
 10
13.0125276626
 20
9.8553389237
 10
12.9979877853
 20
9.8784996528
 10
12.9830822861
 20
9.9013343813
 10
12.9678224796
 20
9.9238257755
 10
12.9522199493
 20
9.9459567624
 10
12.9362865391
 20
9.9677105426
 10
12.9200343437
 20
9.9890706028
 10
12.9034757002
 20
10.010020729
 10
12.886623178
 20
10.0305450181
 10
12.8694895698
 20
10.0506278901
 10
12.8520878816
 20
10.0702541005
 10
12.8344313227
 20
10.0894087512
 10
12.8165332962
 20
10.1080773019
 10
12.7984073883
 20
10.1262455816
 10
12.7800673582
 20
10.1438997988
 10
12.7615271277
 20
10.1610265525
 10
12.7428007705
 20
10.1776128419
 10
12.7239025016
 20
10.1936460764
 10
12.7048466665
 20
10.2091140853
 10
12.6856477304
 20
10.2240051271
 10
12.6663202669
 20
10.2383078981
 10
12.6468789475
 20
10.2520115412
 10
12.6273385299
 20
10.265105654
 10
12.6077138469
 20
10.2775802969
 10
12.5880197956
 20
10.2894260006
 10
12.5682713254
 20
10.300633773
 10
12.5484834274
 20
10.3111951065
 10
12.4923720882
 20
10.339251501
  0
LWPOLYLINE
  5
3B1
100
AcDbEntity
  8
RACCORDO
100
AcDbPolyline
 62
7
  6
CONTINUOUS
 90
16
 70
0
 10
19.1593537527
 20
5.6567145807
 10
19.1674734116
 20
5.6690546173
 10
19.1758231795
 20
5.6812028858
 10
19.1844030564
 20
5.6931593863
 10
19.1932156977
 20
5.7049419699
 10
19.202258448
 20
5.7165327854
 10
19.2115233415
 20
5.7278782794
 10
19.2210169525
 20
5.7389780608
 10
19.2307327068
 20
5.7498325206
 10
19.2406429162
 20
5.7603892787
 10
19.2507514415
 20
5.7706444768
 10
19.2610544219
 20
5.7806019732
 10
19.2715125863
 20
5.7902209629
 10
19.2821128444
 20
5.7994878443
 10
19.2928682866
 20
5.8084162189
 10
19.3037789127
 20
5.8170060868
  0
LWPOLYLINE
  5
3B2
100
AcDbEntity
  8
RACCORDO
100
AcDbPolyline
 62
250
  6
CONTINUOUS
 90
10
 70
0
 10
-1.9333236651
 20
-23.8392518039
 10
-1.9167206483
 20
-23.8164679029
 10
-1.9015000816
 20
-23.7920926968
 10
-1.8878724409
 20
-23.7664564825
 10
-1.8760320444
 20
-23.7399091204
 10
-1.8661325995
 20
-23.7128055574
 10
-1.8582895213
 20
-23.6855000295
 10
-1.8526060529
 20
-23.6583558607
 10
-1.8491674512
 20
-23.6317414084
 10
-1.8480209661
 20
-23.6060148057
  0
LWPOLYLINE
  5
3B3
100
AcDbEntity
  8
RACCORDO
100
AcDbPolyline
 62
7
  6
CONTINUOUS
 90
12
 70
0
 10
19.4504294646
 20
5.5384092779
 10
19.4508750523
 20
5.5389866412
 10
19.4508570104
 20
5.5389545822
 10
19.4502786406
 20
5.5380287645
 10
19.4492380415
 20
5.5361551309
 10
19.4478031616
 20
5.5331889056
 10
19.4461103493
 20
5.5290653566
 10
19.4443286838
 20
5.5237682722
 10
19.442622569
 20
5.5172299161
 10
19.4411913166
 20
5.5094387971
 10
19.4402565274
 20
5.500454178
 10
19.440014638
 20
5.4928292267
  0
LINE
  5
3B4
100
AcDbEntity
  8
RACCORDO
100
AcDbLine
 62
7
  6
CONTINUOUS
 10
-2.3683249603
 20
-24.232470697
 11
-2.0393795715
 21
-23.8254225542
  0
LINE
  5
3B5
100
AcDbEntity
  8
RACCORDO
100
AcDbLine
 62
250
  6
CONTINUOUS
 10
-2.3683249603
 20
-24.37753711
 11
-1.9333236651
 21
-23.8392518039
  0
LWPOLYLINE
  5
3B6
100
AcDbEntity
  8
RACCORDO
100
AcDbPolyline
 62
7
  6
CONTINUOUS
 90
10
 70
0
 10
21.040740734
 20
-3.8715409951
 10
21.0393116689
 20
-3.8723317268
 10
21.0378546301
 20
-3.8730251458
 10
21.0363692951
 20
-3.8736210315
 10
21.0348594571
 20
-3.874122035
 10
21.0333207542
 20
-3.8745250828
 10
21.0317403164
 20
-3.874821218
 10
21.0301132864
 20
-3.8750071287
 10
21.0284431746
 20
-3.8750853066
 10
21.0267293411
 20
-3.8750553399
  0
LINE
  5
3B7
100
AcDbEntity
  8
RACCORDO
100
AcDbLine
 62
7
  6
CONTINUOUS
 10
-1.7927654595
 20
-15.2560239032
 11
-1.4038567299
 21
-15.0539523803
  0
LINE
  5
3B8
100
AcDbEntity
  8
RACCORDO
100
AcDbLine
 62
7
  6
CONTINUOUS
 10
-1.7927654595
 20
-16.0639168115
 11
-0.5906839315
 21
-15.4605387795
  0
LINE
  5
3B9
100
AcDbEntity
  8
RACCORDO
100
AcDbLine
 62
7
  6
CONTINUOUS
 10
-1.4038567299
 20
-14.1867848638
 11
-1.7927654595
 21
-14.3818675534
  0
LWPOLYLINE
  5
3BA
100
AcDbEntity
  8
RACCORDO
100
AcDbPolyline
 62
250
  6
CONTINUOUS
 90
50
 70
0
 10
19.3037788414
 20
-6.1341445401
 10
19.3118574527
 20
-6.1313241277
 10
19.319977635
 20
-6.1287566053
 10
19.3281379059
 20
-6.1264398054
 10
19.336333782
 20
-6.1243556049
 10
19.3445663324
 20
-6.1225172891
 10
19.3528417639
 20
-6.1209689816
 10
19.3611651615
 20
-6.1197028382
 10
19.3695259522
 20
-6.1187192458
 10
19.377905636
 20
-6.1180731121
 10
19.3863010364
 20
-6.1177573774
 10
19.3947072099
 20
-6.117768384
 10
19.403101385
 20
-6.1181641185
 10
19.4114776081
 20
-6.1189344519
 10
19.4198302398
 20
-6.1200744223
 10
19.4281347435
 20
-6.1216469642
 10
19.4363918291
 20
-6.1236421319
 10
19.4445843999
 20
-6.1260485625
 10
19.4526586175
 20
-6.1289238244
 10
19.4606082572
 20
-6.1322582539
 10
19.4684180917
 20
-6.1360334487
 10
19.4760184975
 20
-6.1402910252
 10
19.4833877173
 20
-6.1450060775
 10
19.4905217372
 20
-6.1501692602
 10
19.4973742451
 20
-6.1558411973
 10
19.5039279358
 20
-6.1619783786
 10
19.5101669499
 20
-6.1685790046
 10
19.5160397129
 20
-6.1757561622
 10
19.5215406836
 20
-6.1834618047
 10
19.5266275859
 20
-6.1916764861
 10
19.5311818702
 20
-6.2005397125
 10
19.5351956972
 20
-6.2100429658
 10
19.5386077937
 20
-6.2200935162
 10
19.5412142999
 20
-6.2306970911
 10
19.5429619195
 20
-6.2418914975
 10
19.5438312747
 20
-6.2535262261
 10
19.5436912326
 20
-6.265356043
 10
19.5424885046
 20
-6.2773503176
 10
19.5402473931
 20
-6.289485796
 10
19.5369874854
 20
-6.301579504
 10
19.5326944017
 20
-6.3136166349
 10
19.5273811456
 20
-6.3255978146
 10
19.521130793
 20
-6.3373979658
 10
19.5139612664
 20
-6.349000504
 10
19.505870496
 20
-6.360435507
 10
19.496921543
 20
-6.3716639832
 10
19.4871190333
 20
-6.3826982066
 10
19.476474883
 20
-6.3935419071
 10
19.4650670273
 20
-6.4041500787
 10
19.4529116088
 20
-6.4145302813
  0
LWPOLYLINE
  5
3BB
100
AcDbEntity
  8
RACCORDO
100
AcDbPolyline
 62
7
  6
CONTINUOUS
 90
9
 70
0
 10
-17.3887236076
 20
10.6815743391
 10
-17.3679591983
 20
10.6848970854
 10
-17.3466548459
 20
10.6862026102
 10
-17.3248036521
 20
10.685464867
 10
-17.3024127253
 20
10.6827098043
 10
-17.2797682261
 20
10.6779724891
 10
-17.2569655808
 20
10.6712645917
 10
-17.2339094769
 20
10.6625743888
 10
-17.2105999429
 20
10.6519018669
  0
LWPOLYLINE
  5
3BC
100
AcDbEntity
  8
ASSI
100
AcDbPolyline
 62
7
  6
CONTINUOUS
 90
38
 70
0
 10
12.4923720882
 20
13.3079409744
 10
12.5064715828
 20
13.3077933609
 10
12.5640072794
 20
13.3065871619
 10
12.621505078
 20
13.3047783192
 10
12.6788893744
 20
13.3023692126
 10
12.7361600191
 20
13.2993590527
 10
12.7933171617
 20
13.295748629
 10
12.850285646
 20
13.2915426901
 10
12.9070652239
 20
13.2867404526
 10
12.9636561436
 20
13.2813427
 10
13.0199839938
 20
13.2753565309
 10
13.0760484284
 20
13.2687811712
 10
13.1318497936
 20
13.2616173951
 10
13.1873147164
 20
13.2538746231
 10
13.2424427541
 20
13.2455520936
 10
13.2972343496
 20
13.2366505683
 10
13.3516174576
 20
13.2271817527
 10
13.4055915409
 20
13.2171449005
 10
13.4591571367
 20
13.2065407579
 10
13.5122438123
 20
13.1953832692
 10
13.5648509377
 20
13.1836717063
 10
13.6169791427
 20
13.1714067973
 10
13.6685598847
 20
13.1586046698
 10
13.7195924435
 20
13.1452646171
 10
13.7700775393
 20
13.131387346
 10
13.8199487897
 20
13.116991104
 10
13.8692053873
 20
13.1020752086
 10
13.9178481395
 20
13.0866403424
 10
13.9658130866
 20
13.0707068011
 10
14.013099337
 20
13.0542739286
 10
14.0597077822
 20
13.037342381
 10
14.1055771373
 20
13.0199344218
 10
14.1507064301
 20
13.0020494242
 10
14.1950966328
 20
12.9836880149
 10
14.238689377
 20
12.9648743375
 10
14.2814652066
 20
12.9456164397
 10
14.3234435778
 20
12.9259062738
 10
14.3646244906
 20
12.9057438398
  0
LINE
  5
3BD
100
AcDbEntity
  8
RACCORDO
100
AcDbLine
 62
7
  6
CONTINUOUS
 10
-0.2367872148
 20
14.8644646386
 11
-0.5354284249
 21
15.0137852437
  0
LINE
  5
3BE
100
AcDbEntity
  8
RACCORDO
100
AcDbLine
 62
7
  6
CONTINUOUS
 10
-1.8480209661
 20
15.6700815143
 11
-13.8997465893
 21
21.6959443259
  0
LINE
  5
3BF
100
AcDbEntity
  8
RACCORDO
100
AcDbLine
 62
7
  6
CONTINUOUS
 10
-15.2123391305
 20
22.3522405965
 11
-15.5109803407
 21
22.5015612016
  0
LINE
  5
3C0
100
AcDbEntity
  8
RACCORDO
100
AcDbLine
 62
7
  6
CONTINUOUS
 10
-4.768839094
 20
17.4916022336
 11
-10.2718216803
 21
20.2430935268
  0
LINE
  5
3C1
100
AcDbEntity
  8
RACCORDO
100
AcDbLine
 62
7
  6
CONTINUOUS
 10
-1.1899045044
 20
15.8046925198
 11
-2.4778118561
 21
16.4486461956
  0
LINE
  5
3C2
100
AcDbEntity
  8
RACCORDO
100
AcDbLine
 62
7
  6
CONTINUOUS
 10
-14.5542226689
 20
22.486851602
 11
-15.8421300205
 21
23.1308052778
  0
LWPOLYLINE
  5
3C3
100
AcDbEntity
  8
RACCORDO
100
AcDbPolyline
 62
250
  6
CONTINUOUS
 90
9
 70
0
 10
-14.5542226689
 20
22.486851602
 10
-14.5637307989
 20
22.4923216224
 10
-14.5778380751
 20
22.5035813974
 10
-14.5901140442
 20
22.5176388289
 10
-14.600392695
 20
22.5343038144
 10
-14.6085350261
 20
22.5533509885
 10
-14.6144309266
 20
22.5745227708
 10
-14.6180006645
 20
22.5975328493
 10
-14.6191959653
 20
22.6220700521
  0
LWPOLYLINE
  5
3C4
100
AcDbEntity
  8
RACCORDO
100
AcDbPolyline
 62
250
  6
CONTINUOUS
 90
9
 70
0
 10
-2.4778118561
 20
16.4486461956
 10
-2.4873199861
 20
16.454116216
 10
-2.5014272623
 20
16.465375991
 10
-2.5137032315
 20
16.4794334226
 10
-2.5239818822
 20
16.4960984081
 10
-2.5321242133
 20
16.5151455821
 10
-2.5380201138
 20
16.5363173644
 10
-2.5415898517
 20
16.5593274429
 10
-2.5427851525
 20
16.5838646457
  0
LWPOLYLINE
  5
3C5
100
AcDbEntity
  8
RACCORDO
100
AcDbPolyline
 62
250
  6
CONTINUOUS
 90
9
 70
0
 10
-1.1899045044
 20
15.8046925198
 10
-1.1994126345
 20
15.8101625402
 10
-1.2135199107
 20
15.8214223152
 10
-1.2257958798
 20
15.8354797467
 10
-1.2360745305
 20
15.8521447322
 10
-1.2442168617
 20
15.8711919063
 10
-1.2501127622
 20
15.8923636886
 10
-1.2536825001
 20
15.9153737671
 10
-1.2548778009
 20
15.9399109699
  0
LWPOLYLINE
  5
3C6
100
AcDbEntity
  8
RACCORDO
100
AcDbPolyline
 62
250
  6
CONTINUOUS
 90
9
 70
0
 10
-15.8421300205
 20
23.1308052778
 10
-15.8517856977
 20
23.1363722097
 10
-15.8659409443
 20
23.1477231904
 10
-15.8782626678
 20
23.1619223693
 10
-15.888557425
 20
23.1787590165
 10
-15.896649763
 20
23.197902574
 10
-15.9024546557
 20
23.2190235227
 10
-15.9059431214
 20
23.2418395869
 10
-15.9071033169
 20
23.2660237279
  0
LWPOLYLINE
  5
3C7
100
AcDbEntity
  8
RACCORDO
100
AcDbPolyline
 62
7
  6
CONTINUOUS
 90
13
 70
0
 10
14.0464264391
 20
15.2911293687
 10
14.0462120377
 20
15.3123149083
 10
14.0455723064
 20
15.3332493247
 10
14.0445072449
 20
15.3539326179
 10
14.0430156981
 20
15.37437696
 10
14.0410988211
 20
15.3945701788
 10
14.0387600806
 20
15.4144757581
 10
14.035998713
 20
15.4340931775
 10
14.0328154817
 20
15.4534229574
 10
14.0292161432
 20
15.4724301429
 10
14.0252026162
 20
15.4911030825
 10
14.0207729819
 20
15.5094534276
 10
14.0159272403
 20
15.5274811785
  0
LINE
  5
3C8
100
AcDbEntity
  8
RACCORDO
100
AcDbLine
 62
7
  6
CONTINUOUS
 10
14.0464264391
 20
15.080899894
 11
14.0464264391
 21
15.2911293687
  0
LWPOLYLINE
  5
3C9
100
AcDbEntity
  8
RACCORDO
100
AcDbPolyline
 62
7
  6
CONTINUOUS
 90
8
 70
0
 10
1.2446947647
 20
-24.3098397653
 10
1.2643495156
 20
-24.283226241
 10
1.2813783795
 20
-24.2558406569
 10
1.2954081301
 20
-24.2278260723
 10
1.3060807469
 20
-24.1991354671
 10
1.3131105585
 20
-24.1701904188
 10
1.316240317
 20
-24.1418733907
 10
1.3163821503
 20
-24.1346631207
  0
LWPOLYLINE
  5
3CA
100
AcDbEntity
  8
RACCORDO
100
AcDbPolyline
 62
250
  6
CONTINUOUS
 90
13
 70
0
 10
-0.364849481
 20
-24.725685727
 10
-0.3380128428
 20
-24.6920067897
 10
-0.3131370741
 20
-24.6570053169
 10
-0.2902221749
 20
-24.6206813087
 10
-0.2691413947
 20
-24.582764249
 10
-0.250021484
 20
-24.5435246538
 10
-0.2332426943
 20
-24.5037740715
 10
-0.2188394377
 20
-24.4634986754
 10
-0.2067773021
 20
-24.4227122923
 10
-0.1973333028
 20
-24.3822679507
 10
-0.190599778
 20
-24.3424499935
 10
-0.1864843894
 20
-24.3029740778
 10
-0.184987137
 20
-24.2638402037
  0
LWPOLYLINE
  5
3CB
100
AcDbEntity
  8
RACCORDO
100
AcDbPolyline
 62
250
  6
CONTINUOUS
 90
10
 70
0
 10
-0.6269024212
 20
-24.4924624258
 10
-0.6090764358
 20
-24.4702899873
 10
-0.5927602086
 20
-24.4464625945
 10
-0.5781642149
 20
-24.4213105457
 10
-0.5654734242
 20
-24.395188377
 10
-0.554850891
 20
-24.3684463611
 10
-0.546440073
 20
-24.3414247109
 10
-0.5403535606
 20
-24.3144820756
 10
-0.5366672616
 20
-24.2879914866
 10
-0.5354284249
 20
-24.2623110763
  0
LINE
  5
3CC
100
AcDbEntity
  8
RACCORDO
100
AcDbLine
 62
250
  6
CONTINUOUS
 10
-0.6269024212
 20
-24.4924624258
 11
-1.1664894532
 21
-25.1279989957
  0
LINE
  5
3CD
100
AcDbEntity
  8
RACCORDO
100
AcDbLine
 62
250
  6
CONTINUOUS
 10
-0.364849481
 20
-24.725685727
 11
-0.9044365129
 21
-25.3612222969
  0
LWPOLYLINE
  5
3CE
100
AcDbEntity
  8
RACCORDO
100
AcDbPolyline
 62
7
  6
CONTINUOUS
 90
9
 70
0
 10
21.0393116689
 20
-4.6421339724
 10
21.0378546301
 20
-4.643138326
 10
21.0363692951
 20
-4.6442471556
 10
21.0348594571
 20
-4.645452746
 10
21.0333207542
 20
-4.6467623896
 10
21.0317403164
 20
-4.6481982277
 10
21.0301132864
 20
-4.6497673143
 10
21.0284431746
 20
-4.6514617751
 10
21.0267293411
 20
-4.6532811983
  0
LWPOLYLINE
  5
3CF
100
AcDbEntity
  8
RACCORDO
100
AcDbPolyline
 62
7
  6
CONTINUOUS
 90
21
 70
0
 10
21.0393116689
 20
-4.6421339724
 10
21.0466019707
 20
-4.6375671376
 10
21.0522366799
 20
-4.6337926703
 10
21.0576395176
 20
-4.6299144776
 10
21.0628053615
 20
-4.6259360902
 10
21.0677293252
 20
-4.6218613429
 10
21.0724067614
 20
-4.6176943714
 10
21.0768332533
 20
-4.613438991
 10
21.0810046217
 20
-4.6090991773
 10
21.0849169368
 20
-4.6046794036
 10
21.0885665192
 20
-4.6001836717
 10
21.0919499394
 20
-4.5956161295
 10
21.095064023
 20
-4.5909815508
 10
21.0979058593
 20
-4.5862840888
 10
21.1004727979
 20
-4.5815280283
 10
21.1027624497
 20
-4.5767184032
 10
21.1047726975
 20
-4.5718594821
 10
21.1065016918
 20
-4.5669556495
 10
21.1079478503
 20
-4.5620121572
 10
21.1091098669
 20
-4.5570333523
 10
21.1099867077
 20
-4.5520236806
  0
LWPOLYLINE
  5
3D0
100
AcDbEntity
  8
RACCORDO
100
AcDbPolyline
 62
7
  6
CONTINUOUS
 90
24
 70
0
 10
21.040740734
 20
-3.8715409951
 10
21.0466019707
 20
-3.8679991968
 10
21.0522366799
 20
-3.8643872946
 10
21.0576395176
 20
-3.8607088531
 10
21.0628053615
 20
-3.8569676356
 10
21.0677293252
 20
-3.8531672444
 10
21.0724067614
 20
-3.8493111173
 10
21.0768332533
 20
-3.8454031596
 10
21.0810046217
 20
-3.841447257
 10
21.0849169368
 20
-3.8374469152
 10
21.0885665192
 20
-3.8334062246
 10
21.0919499394
 20
-3.8293292446
 10
21.095064023
 20
-3.8252195148
 10
21.0979058593
 20
-3.8210812759
 10
21.1004727979
 20
-3.8169187253
 10
21.1027624497
 20
-3.8127354019
 10
21.1047726975
 20
-3.8085356593
 10
21.1065016918
 20
-3.8043237969
 10
21.1079478503
 20
-3.800103317
 10
21.1091098669
 20
-3.7958786488
 10
21.1099867077
 20
-3.7916541558
 10
21.1105776108
 20
-3.7874332679
 10
21.110882091
 20
-3.7832204511
 10
21.110927401
 20
-3.780857074
  0
LWPOLYLINE
  5
3D1
100
AcDbEntity
  8
RACCORDO
100
AcDbPolyline
 62
250
  6
CONTINUOUS
 90
15
 70
0
 10
12.4923720882
 20
13.0169446491
 10
12.5460008518
 20
13.0106145316
 10
12.610175596
 20
13.0021861374
 10
12.6714833428
 20
12.9932754969
 10
12.7299384022
 20
12.9838481031
 10
12.7859701187
 20
12.9741092893
 10
12.8395747023
 20
12.9640877675
 10
12.890755943
 20
12.9537548258
 10
12.9399545552
 20
12.9432296611
 10
12.9871737002
 20
12.9325351219
 10
13.0324102167
 20
12.9216483598
 10
13.0760953366
 20
12.9106200261
 10
13.1183728037
 20
12.8994670048
 10
13.1590988741
 20
12.888172412
 10
13.1982735478
 20
12.8767362477
  0
LINE
  5
3D2
100
AcDbEntity
  8
RACCORDO
100
AcDbLine
 62
7
  6
CONTINUOUS
 10
-1.1299795755
 20
15.7837412991
 11
-0.5902807021
 21
15.6692541889
  0
LINE
  5
3D3
100
AcDbEntity
  8
RACCORDO
100
AcDbLine
 62
250
  6
CONTINUOUS
 10
-0.9044365129
 20
15.9383818425
 11
-0.364849481
 21
15.8239184124
  0
LWPOLYLINE
  5
3D4
100
AcDbEntity
  8
RACCORDO
100
AcDbPolyline
 62
7
  6
CONTINUOUS
 90
9
 70
0
 10
13.2798720355
 20
12.8878513219
 10
13.273755295
 20
12.8894508196
 10
13.2639850812
 20
12.8909836335
 10
13.2536588858
 20
12.8913990779
 10
13.2428716886
 20
12.8906973054
 10
13.2319084297
 20
12.888878774
 10
13.220864089
 20
12.8859436365
 10
13.2096436865
 20
12.8818917401
 10
13.1982472222
 20
12.8767230849
  0
LINE
  5
3D5
100
AcDbEntity
  8
RACCORDO
100
AcDbLine
 62
250
  6
CONTINUOUS
 10
-14.3177332774
 20
22.4284454893
 11
-13.8997465893
 21
22.2194521453
  0
LINE
  5
3D6
100
AcDbEntity
  8
RACCORDO
100
AcDbLine
 62
250
  6
CONTINUOUS
 10
-0.953415113
 20
15.7462864071
 11
-0.5354284249
 21
15.5372930631
  0
LINE
  5
3D7
100
AcDbEntity
  8
RACCORDO
100
AcDbLine
 62
250
  6
CONTINUOUS
 10
-1.2548778009
 20
15.9399109699
 11
-2.5427851525
 21
16.5838646457
  0
LINE
  5
3D8
100
AcDbEntity
  8
RACCORDO
100
AcDbLine
 62
250
  6
CONTINUOUS
 10
-14.6191959653
 20
22.6220700521
 11
-15.9071033169
 21
23.2660237279
  0
LINE
  5
3D9
100
AcDbEntity
  8
RACCORDO
100
AcDbLine
 62
250
  6
CONTINUOUS
 10
-1.2548778009
 20
16.2571797702
 11
-2.5427851525
 21
16.9011334461
  0
LINE
  5
3DA
100
AcDbEntity
  8
RACCORDO
100
AcDbLine
 62
250
  6
CONTINUOUS
 10
-14.6191959653
 20
22.9393388525
 11
-15.9071033169
 21
23.5832925283
  0
LINE
  5
3DB
100
AcDbEntity
  8
DRAFT
100
AcDbLine
 62
7
  6
CONTINUOUS
 10
-2.5793720502
 20
17.1190920226
 11
-3.7019537687
 21
17.6803828818
  0
LINE
  5
3DC
100
AcDbEntity
  8
DRAFT
100
AcDbLine
 62
7
  6
CONTINUOUS
 10
-10.4182682897
 20
21.0385401423
 11
-12.6468545507
 21
22.1528332729
  0
LINE
  5
3DD
100
AcDbEntity
  8
RACCORDO
100
AcDbLine
 62
250
  6
CONTINUOUS
 10
-1.0811862843
 20
16.5604989045
 11
-2.369093636
 21
17.2044525803
  0
LINE
  5
3DE
100
AcDbEntity
  8
RACCORDO
100
AcDbLine
 62
250
  6
CONTINUOUS
 10
-14.4455044487
 20
23.2426579867
 11
-15.7334118004
 21
23.8866116626
  0
LINE
  5
3DF
100
AcDbEntity
  8
RACCORDO
100
AcDbLine
 62
7
  6
CONTINUOUS
 10
-4.768839094
 20
18.7040377989
 11
-10.2718216803
 21
21.4555290921
  0
LINE
  5
3E0
100
AcDbEntity
  8
RACCORDO
100
AcDbLine
 62
7
  6
CONTINUOUS
 10
1.4244626847
 20
15.8167237471
 11
0.7174636137
 21
16.1702232826
  0
LINE
  5
3E1
100
AcDbEntity
  8
RACCORDO
100
AcDbLine
 62
7
  6
CONTINUOUS
 10
-11.2325332844
 20
22.1452217317
 11
-12.6468545507
 21
22.8523823648
  0
LINE
  5
3E2
100
AcDbEntity
  8
DRAFT
100
AcDbLine
 62
7
  6
CONTINUOUS
 10
-3.7019537687
 20
18.8928184471
 11
-9.9244934432
 21
22.0040882844
  0
LINE
  5
3E3
100
AcDbEntity
  8
RACCORDO
100
AcDbLine
 62
7
  6
CONTINUOUS
 10
-0.802822697
 20
18.0494706939
 11
0.5406936495
 21
17.3777125207
  0
LINE
  5
3E4
100
AcDbEntity
  8
RACCORDO
100
AcDbLine
 62
7
  6
CONTINUOUS
 10
-12.8236245149
 20
24.0598716029
 11
-14.1671408614
 21
24.7316297761
  0
LINE
  5
3E5
100
AcDbEntity
  8
DRAFT
100
AcDbLine
 62
7
  6
CONTINUOUS
 10
-8.5809905589
 20
22.0318859342
 11
-3.6312430906
 21
19.5570122001
  0
LINE
  5
3E6
100
AcDbEntity
  8
RACCORDO
100
AcDbLine
 62
7
  6
CONTINUOUS
 10
8.0961352818
 20
16.8905357227
 11
7.0129400123
 21
18.7587712085
  0
LWPOLYLINE
  5
3E7
100
AcDbEntity
  8
RACCORDO
100
AcDbPolyline
 62
7
  6
CONTINUOUS
 90
20
 70
0
 10
12.5008577195
 20
10.1311774609
 10
12.5009243732
 20
10.1309783862
 10
12.5008581386
 20
10.1311932379
 10
12.5006387439
 20
10.1319487694
 10
12.5002882283
 20
10.1332458676
 10
12.4998327189
 20
10.1350648693
 10
12.4992922761
 20
10.1374029836
 10
12.4986857087
 20
10.1402593914
 10
12.4980337559
 20
10.1436192701
 10
12.4973538349
 20
10.1474780799
 10
12.4966621957
 20
10.151834145
 10
12.4959754526
 20
10.1566797283
 10
12.4953090985
 20
10.1620093489
 10
12.4946775962
 20
10.1678211643
 10
12.4940947987
 20
10.174116457
 10
12.4935749772
 20
10.1808895213
 10
12.4931316339
 20
10.1881389593
 10
12.4927775209
 20
10.195876468
 10
12.4925262267
 20
10.2041047837
 10
12.4923915914
 20
10.2128144611
  0
LWPOLYLINE
  5
3E8
100
AcDbEntity
  8
RACCORDO
100
AcDbPolyline
 62
250
  6
CONTINUOUS
 90
8
 70
0
 10
-2.0393789985
 20
-23.8254218452
 10
-2.0337756957
 20
-23.8205308105
 10
-2.023747623
 20
-23.8166953817
 10
-2.0106938726
 20
-23.8156665031
 10
-1.9948353267
 20
-23.8174615842
 10
-1.9764403272
 20
-23.8220502505
 10
-1.9558201355
 20
-23.8293548574
 10
-1.933323665
 20
-23.8392518038
  0
LWPOLYLINE
  5
3E9
100
AcDbEntity
  8
RACCORDO
100
AcDbPolyline
 62
250
  6
CONTINUOUS
 90
51
 70
0
 10
19.1593537527
 20
-6.2944357244
 10
19.1662622034
 20
-6.2886903139
 10
19.1731201925
 20
-6.2831991226
 10
19.179926316
 20
-6.2779621839
 10
19.1866722906
 20
-6.2729792623
 10
19.1933637241
 20
-6.2682507586
 10
19.200019332
 20
-6.2637773641
 10
19.206638899
 20
-6.2595552333
 10
19.2132182505
 20
-6.255587737
 10
19.2197688949
 20
-6.2518858854
 10
19.2262887853
 20
-6.2484474441
 10
19.2327743529
 20
-6.2452738523
 10
19.239233777
 20
-6.2423812634
 10
19.2456599343
 20
-6.2397685731
 10
19.2520532396
 20
-6.2374359053
 10
19.2584316467
 20
-6.235400753
 10
19.2647819557
 20
-6.2336588464
 10
19.271108405
 20
-6.232212971
 10
19.2774516452
 20
-6.2310900999
 10
19.2838058287
 20
-6.2302803402
 10
19.2901619466
 20
-6.2297906124
 10
19.2965509807
 20
-6.2296716656
 10
19.3029666452
 20
-6.2299160956
 10
19.3093940008
 20
-6.2305271479
 10
19.3158465387
 20
-6.2315704237
 10
19.3223141762
 20
-6.2330429532
 10
19.3287798867
 20
-6.2349429853
 10
19.3352431921
 20
-6.2373372876
 10
19.3416855986
 20
-6.2402230081
 10
19.3480934083
 20
-6.2435983916
 10
19.3544693574
 20
-6.2475312755
 10
19.3607931502
 20
-6.2520200475
 10
19.3670449826
 20
-6.2570616896
 10
19.3732228579
 20
-6.2627212497
 10
19.3793088927
 20
-6.2690093875
 10
19.38527061
 20
-6.2759111001
 10
19.3910805938
 20
-6.2834529049
 10
19.3967091579
 20
-6.2916387222
 10
19.4021317743
 20
-6.3004625245
 10
19.4073262996
 20
-6.3099363103
 10
19.4122491571
 20
-6.3200358806
 10
19.4168835745
 20
-6.3307857702
 10
19.4212334618
 20
-6.3422703255
 10
19.4252508433
 20
-6.3544826964
 10
19.4288917513
 20
-6.3674311875
 10
19.4321366797
 20
-6.3812215775
 10
19.434923125
 20
-6.3958938904
 10
19.4371749916
 20
-6.411413661
 10
19.4388250948
 20
-6.427775542
 10
19.4397958284
 20
-6.4451684096
 10
19.4400139523
 20
-6.4583345749
  0
LINE
  5
3EA
100
AcDbEntity
  8
RACCORDO
100
AcDbLine
 62
250
  6
CONTINUOUS
 10
19.4529116088
 20
-6.4145302813
 11
19.4474410638
 21
-6.4188438195
  0
LWPOLYLINE
  5
3EB
100
AcDbEntity
  8
RACCORDO
100
AcDbPolyline
 62
7
  6
CONTINUOUS
 90
34
 70
0
 10
20.404561118
 20
-5.8025259396
 10
20.4373742447
 20
-5.7805932299
 10
20.4696516747
 20
-5.7575818688
 10
20.5013726083
 20
-5.73349664
 10
20.5325113059
 20
-5.7083473946
 10
20.5630531407
 20
-5.6821362264
 10
20.5929937818
 20
-5.6548554603
 10
20.6223143142
 20
-5.6265094679
 10
20.6509938139
 20
-5.5971054335
 10
20.67902422
 20
-5.5666374309
 10
20.7063886795
 20
-5.5351079682
 10
20.733065278
 20
-5.5025261132
 10
20.7590384274
 20
-5.4688942427
 10
20.7842927239
 20
-5.4342144432
 10
20.8088069915
 20
-5.3984973501
 10
20.8325583965
 20
-5.3617582333
 10
20.8555327437
 20
-5.3240007427
 10
20.8777113004
 20
-5.2852365689
 10
20.899067308
 20
-5.2454947635
 10
20.9195882355
 20
-5.2047816948
 10
20.9392586153
 20
-5.1631101405
 10
20.958051398
 20
-5.1205218057
 10
20.9759560936
 20
-5.0770268615
 10
20.9929610751
 20
-5.0326388888
 10
21.0090424933
 20
-4.9874085669
 10
21.0241922871
 20
-4.9413502239
 10
21.0384026751
 20
-4.8944781204
 10
21.0516553459
 20
-4.8468469372
 10
21.063944925
 20
-4.7984746589
 10
21.0752670131
 20
-4.7493764143
 10
21.0856095749
 20
-4.699606478
 10
21.0949680831
 20
-4.6491960508
 10
21.1033431338
 20
-4.5981512639
 10
21.1101288754
 20
-4.5510105554
  0
LINE
  5
3EC
100
AcDbEntity
  8
DRAFT
100
AcDbLine
 62
7
  6
CONTINUOUS
 10
20.4045611181
 20
-5.8025259396
 11
19.4459563053
 21
-6.4225434391
  0
LINE
  5
3ED
100
AcDbEntity
  8
RACCORDO
100
AcDbLine
 62
250
  6
CONTINUOUS
 10
1.7781237855
 20
-19.0556584631
 11
19.1780148913
 21
-9.8896877914
  0
LWPOLYLINE
  5
3EE
100
AcDbEntity
  8
RACCORDO
100
AcDbPolyline
 62
7
  6
CONTINUOUS
 90
7
 70
0
 10
1.2446947647
 20
16.9897643741
 10
1.2643495156
 20
16.9857055648
 10
1.2813783795
 20
16.9834127152
 10
1.2954081301
 20
16.9827427661
 10
1.3060807469
 20
16.9832621585
 10
1.3131105585
 20
16.9850298939
 10
1.315345396
 20
16.9867551081
  0
LWPOLYLINE
  5
3EF
100
AcDbEntity
  8
RACCORDO
100
AcDbPolyline
 62
7
  6
CONTINUOUS
 90
8
 70
0
 10
13.2798618993
 20
12.8878273695
 10
13.1711465527
 20
12.9191132152
 10
13.0562915098
 20
12.9484668923
 10
12.9390300858
 20
12.9747939624
 10
12.819656921
 20
12.9980560542
 10
12.6984365493
 20
13.018226607
 10
12.5756071799
 20
13.0352858823
 10
12.4923720882
 20
13.0446210692
  0
LWPOLYLINE
  5
3F0
100
AcDbEntity
  8
RACCORDO
100
AcDbPolyline
 62
7
  6
CONTINUOUS
 90
3
 70
0
 10
13.2919127173
 20
12.8830335413
 10
13.283064507
 20
12.8868007889
 10
13.2798720355
 20
12.8878513219
  0
LWPOLYLINE
  5
3F1
100
AcDbEntity
  8
RACCORDO
100
AcDbPolyline
 62
7
  6
CONTINUOUS
 90
21
 70
0
 10
-4.6935620351
 20
21.3954731432
 10
-4.7053025352
 20
21.40090424
 10
-4.7169780236
 20
21.4058868017
 10
-4.7285762558
 20
21.4104152509
 10
-4.7400842049
 20
21.4144846208
 10
-4.7514904769
 20
21.4180903061
 10
-4.7627853095
 20
21.4212279194
 10
-4.7739563704
 20
21.4238939283
 10
-4.7849918237
 20
21.4260851666
 10
-4.7958827083
 20
21.427798317
 10
-4.80661691
 20
21.4290313386
 10
-4.8171827995
 20
21.4297825089
 10
-4.8275722291
 20
21.4300495263
 10
-4.8377732415
 20
21.4298318763
 10
-4.8477746598
 20
21.4291293345
 10
-4.8575696215
 20
21.4279405767
 10
-4.8671467181
 20
21.42626658
 10
-4.8764949841
 20
21.4241086076
 10
-4.8856083963
 20
21.421466394
 10
-4.8944754561
 20
21.4183427228
 10
-4.9030863351
 20
21.4147403232
  0
LWPOLYLINE
  5
3F2
100
AcDbEntity
  8
RACCORDO
100
AcDbPolyline
 62
7
  6
CONTINUOUS
 90
64
 70
0
 10
-3.6130063393
 20
21.5264631374
 10
-3.6241145124
 20
21.5318757309
 10
-3.6415605926
 20
21.5398320229
 10
-3.6594741984
 20
21.5473608187
 10
-3.6778242703
 20
21.5544560158
 10
-3.6966018008
 20
21.5611231942
 10
-3.7158189556
 20
21.5673753634
 10
-3.7354532639
 20
21.5732138605
 10
-3.755482689
 20
21.5786418724
 10
-3.7759158476
 20
21.5836709579
 10
-3.7967017249
 20
21.5882980721
 10
-3.8178513616
 20
21.5925351507
 10
-3.8394647078
 20
21.5964066516
 10
-3.8614944598
 20
21.599905674
 10
-3.8839584647
 20
21.6030364121
 10
-3.9070551562
 20
21.6058206309
 10
-3.930855898
 20
21.6082527732
 10
-3.9552660355
 20
21.6103090521
 10
-3.980233102
 20
21.61197408
 10
-4.0058575675
 20
21.6132413543
 10
-4.0320116193
 20
21.614090951
 10
-4.0582971055
 20
21.6145082796
 10
-4.0846812297
 20
21.6145001178
 10
-4.1111695605
 20
21.6140725228
 10
-4.1374221886
 20
21.6132430485
 10
-4.1633537262
 20
21.6120342865
 10
-4.1890309708
 20
21.6104614508
 10
-4.2143445916
 20
21.608548749
 10
-4.2392744118
 20
21.6063164487
 10
-4.2638290786
 20
21.6037813781
 10
-4.2879436505
 20
21.6009677916
 10
-4.3115976195
 20
21.59789628
 10
-4.3348061891
 20
21.5945822271
 10
-4.3575582559
 20
21.5910436894
 10
-4.379844971
 20
21.5872982062
 10
-4.4016734632
 20
21.5833601841
 10
-4.4230555714
 20
21.5792422441
 10
-4.4439916945
 20
21.5749584301
 10
-4.4644813278
 20
21.570522625
 10
-4.4845333278
 20
21.5659462582
 10
-4.504149897
 20
21.5612417484
 10
-4.5233295537
 20
21.556422174
 10
-4.5420739548
 20
21.5514996902
 10
-4.5603940252
 20
21.5464836718
 10
-4.5782797513
 20
21.5413890044
 10
-4.5957005521
 20
21.5362371436
 10
-4.6126442104
 20
21.5310450724
 10
-4.6291258916
 20
21.5258213938
 10
-4.6451549056
 20
21.5205759616
 10
-4.6607096465
 20
21.5153287854
 10
-4.6758134918
 20
21.510084834
 10
-4.6905383866
 20
21.5048305438
 10
-4.7048829721
 20
21.4995768105
 10
-4.7188422238
 20
21.494336015
 10
-4.732474897
 20
21.4890959593
 10
-4.7457639878
 20
21.4838725683
 10
-4.7587096828
 20
21.4786754832
 10
-4.7713863491
 20
21.4734837677
 10
-4.7837566753
 20
21.4683213604
 10
-4.7958217484
 20
21.4631971086
 10
-4.8076957746
 20
21.4580708303
 10
-4.8193325794
 20
21.4529704938
 10
-4.8306992972
 20
21.4479198206
 10
-4.8529225872
 20
21.4378713649
  0
LINE
  5
3F3
100
AcDbEntity
  8
RACCORDO
100
AcDbLine
 62
250
  6
CONTINUOUS
 10
-3.6140795532
 20
21.526986074
 11
-3.6130096948
 21
21.5264648186
  0
LINE
  5
3F4
100
AcDbEntity
  8
RACCORDO
100
AcDbLine
 62
250
  6
CONTINUOUS
 10
1.0679248005
 20
17.6402849242
 11
-0.2663083799
 21
18.3074015144
  0
LINE
  5
3F5
100
AcDbEntity
  8
RACCORDO
100
AcDbLine
 62
250
  6
CONTINUOUS
 10
-12.2963933639
 20
24.3224440064
 11
-13.6306265444
 21
24.9895605966
  0
LINE
  5
3F6
100
AcDbEntity
  8
RACCORDO
100
AcDbLine
 62
7
  6
CONTINUOUS
 10
1.1781855513
 20
17.6466222908
 11
-0.1560476292
 21
18.313738881
  0
LINE
  5
3F7
100
AcDbEntity
  8
RACCORDO
100
AcDbLine
 62
7
  6
CONTINUOUS
 10
-12.1861326132
 20
24.328781373
 11
-13.5203657936
 21
24.9958979633
  0
LINE
  5
3F8
100
AcDbEntity
  8
RACCORDO
100
AcDbLine
 62
7
  6
CONTINUOUS
 10
-4.6919571103
 20
21.3946866175
 11
-2.3098018728
 21
20.2036089987
  0
LINE
  5
3F9
100
AcDbEntity
  8
RACCORDO
100
AcDbLine
 62
250
  6
CONTINUOUS
 10
-1.6797760847
 20
20.5118880596
 11
-3.7024747814
 21
21.5232245008
  0
LINE
  5
3FA
100
AcDbEntity
  8
RACCORDO
100
AcDbLine
 62
7
  6
CONTINUOUS
 10
-1.6312979878
 20
20.5356089651
 11
-3.6130096948
 21
21.5264648186
  0
LINE
  5
3FB
100
AcDbEntity
  8
DRAFT
100
AcDbLine
 62
7
  6
CONTINUOUS
 10
14.1028651889
 20
13.0209636381
 11
14.5950641037
 21
12.7748641807
  0
LWPOLYLINE
  5
3FC
100
AcDbEntity
  8
RACCORDO
100
AcDbPolyline
 62
7
  6
CONTINUOUS
 90
4
 70
0
 10
14.1404408547
 20
12.4587694726
 10
14.2229964784
 20
12.4174601717
 10
14.3074177326
 20
12.3750445078
 10
14.3937046173
 20
12.3315224808
  0
LWPOLYLINE
  5
3FD
100
AcDbEntity
  8
RACCORDO
100
AcDbPolyline
 62
7
  6
CONTINUOUS
 90
6
 70
0
 10
13.7237861007
 20
12.6651829422
 10
13.6337788712
 20
12.710921574
 10
13.5455922432
 20
12.755576377
 10
13.4592117998
 20
12.7991459271
 10
13.3746519579
 20
12.8416316486
 10
13.2919127173
 20
12.8830335413
  0
LINE
  5
3FE
100
AcDbEntity
  8
RACCORDO
100
AcDbLine
 62
7
  6
CONTINUOUS
 10
14.3937046173
 20
12.3315224808
 11
14.5011635766
 21
12.2770748764
  0
LWPOLYLINE
  5
3FF
100
AcDbEntity
  8
ASSI
100
AcDbPolyline
 62
7
  6
CONTINUOUS
 90
19
 70
0
 10
14.3646247543
 20
12.9057437079
 10
14.4049496134
 20
12.8851532506
 10
14.4443699362
 20
12.8641640642
 10
14.4828857228
 20
12.8427761487
 10
14.5205130687
 20
12.820979776
 10
14.5572358784
 20
12.7987846743
 10
14.5930058649
 20
12.7762200276
 10
14.6278217747
 20
12.7532853499
 10
14.6616848613
 20
12.7299811272
 10
14.6945505977
 20
12.7063380021
 10
14.726417672
 20
12.6823555287
 10
14.757287396
 20
12.6580341529
 10
14.7871191785
 20
12.6334058545
 10
14.8159116543
 20
12.6084702298
 10
14.8436661886
 20
12.5832276826
 10
14.870346286
 20
12.5577114039
 10
14.8959505333
 20
12.5319210338
 10
14.9204803438
 20
12.5058569322
 10
14.9380177377
 20
12.4861628881
  0
LINE
  5
400
100
AcDbEntity
  8
RACCORDO
100
AcDbLine
 62
7
  6
CONTINUOUS
 10
13.9094065319
 20
12.5704684349
 11
13.7237861007
 21
12.6651829422
  0
LINE
  5
401
100
AcDbEntity
  8
RACCORDO
100
AcDbLine
 62
7
  6
CONTINUOUS
 10
14.1024967874
 20
12.4714371275
 11
13.9094065319
 21
12.5704684349
  0
LINE
  5
402
100
AcDbEntity
  8
RACCORDO
100
AcDbLine
 62
7
  6
CONTINUOUS
 10
14.1102552161
 20
12.4668506555
 11
14.1024967874
 21
12.4714371275
  0
LINE
  5
403
100
AcDbEntity
  8
0
100
AcDbLine
 62
7
  6
CONTINUOUS
 10
12.8565987251
 20
11.6847531326
 11
12.7353373742
 21
11.7967400234
  0
LWPOLYLINE
  5
404
100
AcDbEntity
  8
RACCORDO
100
AcDbPolyline
 62
250
  6
CONTINUOUS
 90
51
 70
0
 10
19.4400139523
 20
-2.6404545712
 10
19.4528775308
 20
-2.6799732297
 10
19.4650327169
 20
-2.7204758028
 10
19.4764405734
 20
-2.7618837255
 10
19.4870850604
 20
-2.8041754632
 10
19.4968884162
 20
-2.8472533792
 10
19.5058387925
 20
-2.8911015677
 10
19.5139314833
 20
-2.9357354147
 10
19.5211033714
 20
-2.9811013643
 10
19.5273564394
 20
-3.0273046197
 10
19.5326728786
 20
-3.0742376098
 10
19.5369697836
 20
-3.1215215469
 10
19.5402343071
 20
-3.169242211
 10
19.5424805
 20
-3.2173011192
 10
19.5436880806
 20
-3.2650308309
 10
19.5438325463
 20
-3.3125625235
 10
19.5429670807
 20
-3.3597402667
 10
19.5412223618
 20
-3.4054490473
 10
19.5386176141
 20
-3.4493865709
 10
19.535206344
 20
-3.4918150614
 10
19.5311926772
 20
-3.532456539
 10
19.526638045
 20
-3.5711006576
 10
19.5215502305
 20
-3.6079255768
 10
19.5160477323
 20
-3.6432383757
 10
19.510172874
 20
-3.6770307094
 10
19.5039311806
 20
-3.7092912324
 10
19.4973740467
 20
-3.7403271458
 10
19.4905170231
 20
-3.7701923195
 10
19.4833777312
 20
-3.7988207361
 10
19.4760032573
 20
-3.8263424311
 10
19.4683975179
 20
-3.8527926461
 10
19.4605824333
 20
-3.8781276376
 10
19.45262883
 20
-3.9023599783
 10
19.4445524921
 20
-3.9254667633
 10
19.4363591688
 20
-3.9474642546
 10
19.4281023419
 20
-3.9684243387
 10
19.4197992077
 20
-3.9883267328
 10
19.4114489714
 20
-4.007186791
 10
19.4030755034
 20
-4.0251305158
 10
19.3946844023
 20
-4.0421634097
 10
19.3862816511
 20
-4.0582764749
 10
19.3778894461
 20
-4.073574535
 10
19.3695125421
 20
-4.0880593601
 10
19.36115429
 20
-4.101726588
 10
19.3528331602
 20
-4.1146722485
 10
19.3445596808
 20
-4.126889888
 10
19.3363288051
 20
-4.1383839939
 10
19.3281344238
 20
-4.1492673482
 10
19.3199755004
 20
-4.1595771228
 10
19.3118564832
 20
-4.1692747237
 10
19.3037788538
 20
-4.1783594664
  0
LINE
  5
405
100
AcDbEntity
  8
RACCORDO
100
AcDbLine
 62
250
  6
CONTINUOUS
 10
19.1593537527
 20
5.6567145807
 11
19.1593537527
 21
-4.1676245759
  0
LINE
  5
406
100
AcDbEntity
  8
RACCORDO
100
AcDbLine
 62
250
  6
CONTINUOUS
 10
19.1593537527
 20
-6.2944359917
 11
19.1593537527
 21
-9.8996171344
  0
LINE
  5
407
100
AcDbEntity
  8
RACCORDO
100
AcDbLine
 62
7
  6
CONTINUOUS
 10
19.4400139523
 20
12.3872288308
 11
19.4400139523
 21
8.642067015
  0
LINE
  5
408
100
AcDbEntity
  8
RACCORDO
100
AcDbLine
 62
7
  6
CONTINUOUS
 10
19.4400139523
 20
5.4928319224
 11
19.4400139523
 21
-3.3090832485
  0
LINE
  5
409
100
AcDbEntity
  8
RACCORDO
100
AcDbLine
 62
7
  6
CONTINUOUS
 10
19.4400139523
 20
-6.4583189756
 11
19.4400139523
 21
-9.5522879492
  0
LWPOLYLINE
  5
40A
100
AcDbEntity
  8
RACCORDO
100
AcDbPolyline
 62
250
  6
CONTINUOUS
 90
58
 70
0
 10
19.1593537527
 20
7.7835259963
 10
19.1594146687
 20
12.0640588765
 10
19.1589294937
 20
12.0884634229
 10
19.1578985961
 20
12.1130947597
 10
19.1563227583
 20
12.1379341892
 10
19.1542031766
 20
12.1629628563
 10
19.1515414599
 20
12.1881617617
 10
19.1483396288
 20
12.2135117772
 10
19.1446001136
 20
12.2389936599
 10
19.1403257531
 20
12.2645880666
 10
19.1355197919
 20
12.2902755689
 10
19.130185878
 20
12.3160366675
 10
19.1243280606
 20
12.3418518076
 10
19.1179507861
 20
12.367701393
 10
19.1110588955
 20
12.3935658014
 10
19.1036576204
 20
12.4194253996
 10
19.0957525791
 20
12.4452605575
 10
19.0873497721
 20
12.4710516642
 10
19.0784555781
 20
12.4967791416
 10
19.0690767484
 20
12.5224234602
 10
19.0592204024
 20
12.5479651538
 10
19.0488940222
 20
12.5733848339
 10
19.0381054462
 20
12.5986632044
 10
19.0268628641
 20
12.623781077
 10
19.01517481
 20
12.6487193847
 10
19.0030501561
 20
12.6734591972
 10
18.9904981063
 20
12.6979817347
 10
18.9775281886
 20
12.7222683822
 10
18.9641502484
 20
12.7463007041
 10
18.9503744408
 20
12.7700604576
 10
18.9362112229
 20
12.7935296069
 10
18.9216713459
 20
12.8166903367
 10
18.9067658468
 20
12.8395250659
 10
18.8915060404
 20
12.8620164608
 10
18.8759035101
 20
12.8841474486
 10
18.8599700998
 20
12.9059012296
 10
18.8437179044
 20
12.9272612908
 10
18.8271592607
 20
12.948211418
 10
18.8103067383
 20
12.968735708
 10
18.7931731297
 20
12.9888185812
 10
18.7757714411
 20
13.0084447926
 10
18.7581148818
 20
13.0275994444
 10
18.7402168548
 20
13.0462679962
 10
18.7220909463
 20
13.064436277
 10
18.7037509156
 20
13.0820904954
 10
18.6852106844
 20
13.0992172501
 10
18.6664843264
 20
13.1158035406
 10
18.6475860567
 20
13.1318367762
 10
18.6285302208
 20
13.1473047862
 10
18.6093312838
 20
13.162195829
 10
18.5900038194
 20
13.1764986009
 10
18.570562499
 20
13.1902022449
 10
18.5510220803
 20
13.2032963586
 10
18.5313973963
 20
13.2157710024
 10
18.5117033439
 20
13.2276167068
 10
18.4919548726
 20
13.23882448
 10
18.4721669735
 20
13.2493858141
 10
17.5235903818
 20
13.723674835
  0
LWPOLYLINE
  5
40B
100
AcDbEntity
  8
RACCORDO
100
AcDbPolyline
 62
250
  6
CONTINUOUS
 90
30
 70
0
 10
19.4400139523
 20
12.3872288308
 10
19.4400019514
 20
12.3847792557
 10
19.4394971598
 20
12.3711561992
 10
19.4382501465
 20
12.3575450782
 10
19.4362618375
 20
12.3439560006
 10
19.4335337093
 20
12.3303990576
 10
19.4300677879
 20
12.3168843167
 10
19.4258666471
 20
12.303421814
 10
19.4209334066
 20
12.2900215469
 10
19.41527173
 20
12.2766934664
 10
19.4088858216
 20
12.2634474701
 10
19.4017804236
 20
12.2502933946
 10
19.3939608125
 20
12.237241008
 10
19.3854327953
 20
12.2243000032
 10
19.3762027048
 20
12.2114799903
 10
19.3662773954
 20
12.1987904894
 10
19.3556642377
 20
12.1862409239
 10
19.344371113
 20
12.1738406131
 10
19.3324064078
 20
12.1615987656
 10
19.319779007
 20
12.1495244721
 10
19.3064982879
 20
12.1376266993
 10
19.2925741127
 20
12.1259142823
 10
19.2780168216
 20
12.114395919
 10
19.262837225
 20
12.1030801629
 10
19.2470465954
 20
12.0919754172
 10
19.2306566588
 20
12.0810899283
 10
19.2136795867
 20
12.0704317798
 10
19.1961279861
 20
12.0600088865
 10
19.1780148912
 20
12.0498289886
 10
19.1593537527
 20
12.0398996456
  0
LWPOLYLINE
  5
40C
100
AcDbEntity
  8
RACCORDO
100
AcDbPolyline
 62
250
  6
CONTINUOUS
 90
33
 70
0
 10
19.1593537527
 20
-9.8996171344
 10
19.1591238235
 20
-9.9371725661
 10
19.1582153397
 20
-9.9743763783
 10
19.1566286933
 20
-10.0112108988
 10
19.154364568
 20
-10.047658584
 10
19.1514240428
 20
-10.0837021664
 10
19.1478085797
 20
-10.1193246556
 10
19.1435198527
 20
-10.154509218
 10
19.1385598672
 20
-10.1892390281
 10
19.1329310625
 20
-10.2234974152
 10
19.1266361114
 20
-10.2572680411
 10
19.1196779696
 20
-10.2905349102
 10
19.1120599845
 20
-10.3232822149
 10
19.1037857708
 20
-10.3554943805
 10
19.0948592409
 20
-10.3871560943
 10
19.0852846573
 20
-10.4182523162
 10
19.0750665648
 20
-10.4487682716
 10
19.0642098133
 20
-10.4786894261
 10
19.0527195864
 20
-10.5080015107
 10
19.0406013583
 20
-10.5366905755
 10
19.0278608874
 20
-10.5647429738
 10
19.0145042392
 20
-10.5921453384
 10
19.0005377968
 20
-10.6188846058
 10
18.9859681994
 20
-10.6449480744
 10
18.970802335
 20
-10.6703233897
 10
18.9550474444
 20
-10.6949984638
 10
18.9387110333
 20
-10.7189615513
 10
18.9218008076
 20
-10.7422013029
 10
18.9043248179
 20
-10.7647066733
 10
18.8862914204
 20
-10.7864669055
 10
18.867709191
 20
-10.8074716082
 10
18.8485870711
 20
-10.8277107122
 10
18.8289341379
 20
-10.8471746383
  0
LWPOLYLINE
  5
40D
100
AcDbEntity
  8
RACCORDO
100
AcDbPolyline
 62
250
  6
CONTINUOUS
 90
51
 70
0
 10
19.4400139523
 20
8.6420692575
 10
19.4398119344
 20
8.6093114642
 10
19.4388557538
 20
8.5638014689
 10
19.4372206356
 20
8.5208399641
 10
19.4349868031
 20
8.4798745542
 10
19.4322102613
 20
8.44063124
 10
19.4289537632
 20
8.4031046184
 10
19.4252809489
 20
8.367306635
 10
19.4212163667
 20
8.3329889814
 10
19.4167997516
 20
8.300113293
 10
19.4120809708
 20
8.268720027
 10
19.4070791802
 20
8.238679515
 10
19.4018257856
 20
8.2099726595
 10
19.3963601562
 20
8.1826177512
 10
19.3907035595
 20
8.1565413466
 10
19.3848875942
 20
8.1317523963
 10
19.3789410876
 20
8.1082387864
 10
19.3728748341
 20
8.0858956402
 10
19.3667154609
 20
8.0647286401
 10
19.3604860503
 20
8.0447277699
 10
19.3541855596
 20
8.0257651892
 10
19.3478326876
 20
8.0078354095
 10
19.3414480684
 20
7.9909393772
 10
19.3350277372
 20
7.9749596745
 10
19.3285845919
 20
7.9598871229
 10
19.3221371634
 20
7.9457264317
 10
19.3156859483
 20
7.9323816028
 10
19.3092474865
 20
7.9198554174
 10
19.3028317733
 20
7.9081405018
 10
19.2964260622
 20
7.8971262627
 10
19.2900450144
 20
7.886812394
 10
19.2836948429
 20
7.8771951335
 10
19.277345783
 20
7.8681597812
 10
19.2710067464
 20
7.8596990686
 10
19.2646835311
 20
7.8518173321
 10
19.2583369377
 20
7.8444186732
 10
19.2519631747
 20
7.8374870521
 10
19.2455750248
 20
7.8310370083
 10
19.2391547769
 20
7.8250195854
 10
19.2327022936
 20
7.8194288404
 10
19.2262244628
 20
7.8142697139
 10
19.2197125684
 20
7.8095100814
 10
19.2131701978
 20
7.8051485421
 10
19.2065993691
 20
7.8011856992
 10
19.1999879219
 20
7.7975928192
 10
19.1933399947
 20
7.7943682562
 10
19.1866557841
 20
7.7915131992
 10
19.1799159058
 20
7.7890036907
 10
19.1731144892
 20
7.7868319322
 10
19.1662599848
 20
7.7850059274
 10
19.1593537527
 20
7.7835257294
  0
LWPOLYLINE
  5
40E
100
AcDbEntity
  8
RACCORDO
100
AcDbPolyline
 62
250
  6
CONTINUOUS
 90
51
 70
0
 10
19.4400139523
 20
-3.3090810709
 10
19.4397971847
 20
-3.3430133451
 10
19.4388275015
 20
-3.3882940138
 10
19.4371778209
 20
-3.4312265682
 10
19.4349258795
 20
-3.4722403935
 10
19.4321388382
 20
-3.5114230593
 10
19.4288927811
 20
-3.5486904566
 10
19.4252502883
 20
-3.5841211204
 10
19.4212308265
 20
-3.6180471904
 10
19.4168783789
 20
-3.6504887779
 10
19.412240923
 20
-3.6814243041
 10
19.4073144199
 20
-3.7111220662
 10
19.4021152012
 20
-3.7396604741
 10
19.3966871804
 20
-3.7669607542
 10
19.3910537264
 20
-3.793054704
 10
19.3852400786
 20
-3.8179448802
 10
19.3792756423
 20
-3.8416308956
 10
19.373187739
 20
-3.8641405639
 10
19.3670090743
 20
-3.88544493
 10
19.3607575503
 20
-3.9055773427
 10
19.3544346339
 20
-3.9246590145
 10
19.3480601386
 20
-3.9426929767
 10
19.3416544136
 20
-3.9596808486
 10
19.33521413
 20
-3.975741016
 10
19.3287527812
 20
-3.9908821037
 10
19.3222890048
 20
-4.0051000845
 10
19.315823146
 20
-4.0184937748
 10
19.3093721386
 20
-4.0310603242
 10
19.302946098
 20
-4.042807291
 10
19.2965315893
 20
-4.0538484413
 10
19.2901435178
 20
-4.0641842355
 10
19.2837881655
 20
-4.0738183624
 10
19.2774346677
 20
-4.0828683121
 10
19.2710920181
 20
-4.0913416505
 10
19.2647660625
 20
-4.0992337796
 10
19.2584163045
 20
-4.106642504
 10
19.2520385482
 20
-4.1135844769
 10
19.2456459532
 20
-4.1200445311
 10
19.2392206057
 20
-4.1260716406
 10
19.2327621223
 20
-4.1316719124
 10
19.2262776001
 20
-4.1368402226
 10
19.2197588137
 20
-4.1416081963
 10
19.213209336
 20
-4.1459771374
 10
19.2066312102
 20
-4.1499465381
 10
19.2000128664
 20
-4.1535449369
 10
19.193358477
 20
-4.1567738769
 10
19.1866682554
 20
-4.159632289
 10
19.1799234218
 20
-4.1621442858
 10
19.1731183433
 20
-4.1643177333
 10
19.1662613202
 20
-4.1661445973
 10
19.1593537527
 20
-4.1676248428
  0
LWPOLYLINE
  5
40F
100
AcDbEntity
  8
RACCORDO
100
AcDbPolyline
 62
250
  6
CONTINUOUS
 90
28
 70
0
 10
19.4400019514
 20
-9.5547375232
 10
19.4394971599
 20
-9.5683605798
 10
19.4382501466
 20
-9.5819717007
 10
19.4362618377
 20
-9.5955607784
 10
19.4335337095
 20
-9.6091177214
 10
19.4300677882
 20
-9.6226324623
 10
19.4258666474
 20
-9.636094965
 10
19.420933407
 20
-9.6494952322
 10
19.4152717304
 20
-9.6628233127
 10
19.408885822
 20
-9.676069309
 10
19.4017804241
 20
-9.6892233846
 10
19.393960813
 20
-9.7022757712
 10
19.3854327958
 20
-9.715216776
 10
19.3762027053
 20
-9.728036789
 10
19.3662773959
 20
-9.7407262899
 10
19.3556642382
 20
-9.7532758555
 10
19.3443711136
 20
-9.7656761663
 10
19.3324064083
 20
-9.7779180139
 10
19.3197790075
 20
-9.7899923074
 10
19.3064982883
 20
-9.8018900803
 10
19.2925741131
 20
-9.8136024973
 10
19.278016822
 20
-9.8251208606
 10
19.2628372254
 20
-9.8364366168
 10
19.2470465957
 20
-9.8475413626
 10
19.2306566591
 20
-9.8584268515
 10
19.2136795869
 20
-9.8690850001
 10
19.1961279863
 20
-9.8795078934
 10
19.1780148913
 20
-9.8896877914
  0
LWPOLYLINE
  5
410
100
AcDbEntity
  8
RACCORDO
100
AcDbPolyline
 62
7
  6
CONTINUOUS
 90
4
 70
0
 10
21.1101288748
 20
7.400140168
 10
21.1105776108
 20
7.4041620042
 10
21.110882091
 20
7.4092181704
 10
21.110927401
 20
7.4120686165
  0
LWPOLYLINE
  5
411
100
AcDbEntity
  8
RACCORDO
100
AcDbPolyline
 62
250
  6
CONTINUOUS
 90
33
 70
0
 10
21.040740734
 20
7.3099162574
 10
21.0335996024
 20
7.2599348466
 10
21.0255311319
 20
7.2106150268
 10
21.0165389658
 20
7.1619790611
 10
21.0066271672
 20
7.114048916
 10
20.9958002091
 20
7.0668462144
 10
20.9840629708
 20
7.0203922277
 10
20.971420743
 20
6.9747079044
 10
20.9578792373
 20
6.9298138912
 10
20.9434445762
 20
6.8857304866
 10
20.9281232839
 20
6.8424776092
 10
20.9119222711
 20
6.8000747629
 10
20.8948488409
 20
6.7585410614
 10
20.8769106923
 20
6.7178952382
 10
20.8581159286
 20
6.6781556593
 10
20.8384730448
 20
6.6393402863
 10
20.8179909158
 20
6.6014666533
 10
20.7966787817
 20
6.5645518428
 10
20.774546253
 20
6.5286125011
 10
20.7516033136
 20
6.4936648428
 10
20.727860326
 20
6.4597246548
 10
20.7033280168
 20
6.4268072708
 10
20.6780174662
 20
6.3949275564
 10
20.651940095
 20
6.364099895
 10
20.6251076681
 20
6.3343381945
 10
20.597532294
 20
6.3056558864
 10
20.5692264241
 20
6.2780659227
 10
20.5402028404
 20
6.2515807623
 10
20.5104746465
 20
6.2262123625
 10
20.4800552606
 20
6.2019721729
 10
20.4489584133
 20
6.1788711352
 10
20.4171981428
 20
6.1569196777
 10
20.404561118
 20
6.1486246326
  0
LWPOLYLINE
  5
412
100
AcDbEntity
  8
RACCORDO
100
AcDbPolyline
 62
7
  6
CONTINUOUS
 90
16
 70
0
 10
19.1593537527
 20
-6.2944359917
 10
19.1674734085
 20
-6.2820959585
 10
19.1758231729
 20
-6.2699476938
 10
19.1844030461
 20
-6.2579911976
 10
19.1932156831
 20
-6.246208619
 10
19.2022584288
 20
-6.234617809
 10
19.2115233176
 20
-6.2232723204
 10
19.2210169236
 20
-6.2121725445
 10
19.2307326726
 20
-6.20131809
 10
19.2406428765
 20
-6.1907613368
 10
19.250751396
 20
-6.1805061433
 10
19.2610543704
 20
-6.1705486511
 10
19.2715125292
 20
-6.1609296643
 10
19.2821127822
 20
-6.1516627841
 10
19.2928682196
 20
-6.1427344094
 10
19.3037788414
 20
-6.1341445401
  0
LWPOLYLINE
  5
413
100
AcDbEntity
  8
RACCORDO
100
AcDbPolyline
 62
7
  6
CONTINUOUS
 90
12
 70
0
 10
19.4504286336
 20
-6.4127423448
 10
19.4508747497
 20
-6.4121643481
 10
19.4508572354
 20
-6.4121956521
 10
19.4502792354
 20
-6.4131208062
 10
19.4492388674
 20
-6.4149938613
 10
19.4478040868
 20
-6.4179596097
 10
19.4461112387
 20
-6.4220828545
 10
19.4443294132
 20
-6.4273798478
 10
19.4426231081
 20
-6.4339182654
 10
19.4411916341
 20
-6.4417097265
 10
19.4402565853
 20
-6.4506950562
 10
19.4400146077
 20
-6.4583207837
  0
LWPOLYLINE
  5
414
100
AcDbEntity
  8
RACCORDO
100
AcDbPolyline
 62
7
  6
CONTINUOUS
 90
40
 70
0
 10
21.0267293411
 20
-4.6532811983
 10
21.0047334097
 20
-4.6771372624
 10
20.9818646377
 20
-4.7015416459
 10
20.958123025
 20
-4.7264943487
 10
20.9335292206
 20
-4.7519812737
 10
20.9080625755
 20
-4.7780165182
 10
20.8816611432
 20
-4.8046423731
 10
20.8543270278
 20
-4.8318577304
 10
20.8260581252
 20
-4.8596636983
 10
20.7967861758
 20
-4.8881058922
 10
20.7665161811
 20
-4.917180585
 10
20.7352431397
 20
-4.946891504
 10
20.7028837881
 20
-4.9772954466
 10
20.6694403497
 20
-5.0083914949
 10
20.6349106012
 20
-5.0401805669
 10
20.5992046078
 20
-5.0727222141
 10
20.5623251424
 20
-5.1060149814
 10
20.5242694322
 20
-5.140060324
 10
20.4849392247
 20
-5.1749221587
 10
20.4443369651
 20
-5.2105993105
 10
20.4024602081
 20
-5.2470929546
 10
20.3592033652
 20
-5.2844705326
 10
20.314569971
 20
-5.3227299423
 10
20.2685564909
 20
-5.3618732861
 10
20.2210467327
 20
-5.4019743126
 10
20.1720442368
 20
-5.4430309752
 10
20.1215454628
 20
-5.4850453206
 10
20.0694235976
 20
-5.5280972379
 10
20.0156822267
 20
-5.5721846832
 10
19.9603177646
 20
-5.6173097004
 10
19.9031926417
 20
-5.6635583105
 10
19.8443109065
 20
-5.7109281343
 10
19.7836685106
 20
-5.759421551
 10
19.7211157393
 20
-5.80913172
 10
19.6566620563
 20
-5.8600521503
 10
19.5902979979
 20
-5.9121893328
 10
19.5218454579
 20
-5.9656558998
 10
19.4512450674
 20
-6.0204893954
 10
19.3785561952
 20
-6.0766522755
 10
19.3037788414
 20
-6.1341445401
  0
LWPOLYLINE
  5
415
100
AcDbEntity
  8
RACCORDO
100
AcDbPolyline
 62
7
  6
CONTINUOUS
 90
40
 70
0
 10
18.8197810076
 20
-10.8707307311
 10
18.8409912096
 20
-10.8550481557
 10
18.8690171669
 20
-10.8333437747
 10
18.8965511929
 20
-10.8108732627
 10
18.9235653645
 20
-10.787654195
 10
18.950046795
 20
-10.7636926324
 10
18.9759969557
 20
-10.7389809437
 10
19.0013960278
 20
-10.7135304525
 10
19.0262248102
 20
-10.6873528793
 10
19.0504841925
 20
-10.6604382451
 10
19.0741550611
 20
-10.6327974705
 10
19.0972177004
 20
-10.6044433501
 10
19.1196704138
 20
-10.5753659735
 10
19.141494742
 20
-10.5455754163
 10
19.1626708698
 20
-10.5150853383
 10
19.1831936097
 20
-10.4838881678
 10
19.2030441642
 20
-10.4519953367
 10
19.2222042168
 20
-10.4194191236
 10
19.2406681261
 20
-10.3861502045
 10
19.258416447
 20
-10.3522021529
 10
19.2754324813
 20
-10.3175846151
 10
19.2917129826
 20
-10.2822788604
 10
19.3072417657
 20
-10.2462899025
 10
19.3219979302
 20
-10.2096341686
 10
19.3359698346
 20
-10.1723065426
 10
19.3491451705
 20
-10.1343003286
 10
19.3614996811
 20
-10.0956424518
 10
19.3730069287
 20
-10.0563763677
 10
19.3836529514
 20
-10.0165117692
 10
19.3934232433
 20
-9.9760600668
 10
19.402296986
 20
-9.9350663593
 10
19.4102635843
 20
-9.8935389452
 10
19.4173114301
 20
-9.8514897532
 10
19.423424493
 20
-9.8089684875
 10
19.4285946606
 20
-9.7659844682
 10
19.4328133404
 20
-9.7225476433
 10
19.4360696129
 20
-9.6787072428
 10
19.4383567092
 20
-9.634484788
 10
19.4396693327
 20
-9.5898771989
 10
19.440013945
 20
-9.5522889763
  0
LINE
  5
416
100
AcDbEntity
  8
RACCORDO
100
AcDbLine
 62
7
  6
CONTINUOUS
 10
7.0129400123
 20
-17.3544881293
 11
8.0961352818
 21
-16.569447913
  0
LINE
  5
417
100
AcDbEntity
  8
RACCORDO
100
AcDbLine
 62
250
  6
CONTINUOUS
 10
18.745203277
 20
-10.9171002333
 11
18.6383014374
 21
-10.9945767934
  0
LINE
  5
418
100
AcDbEntity
  8
RACCORDO
100
AcDbLine
 62
7
  6
CONTINUOUS
 10
18.8197708711
 20
-10.8707381005
 11
18.7128690314
 21
-10.9482146606
  0
LWPOLYLINE
  5
419
100
AcDbEntity
  8
RACCORDO
100
AcDbPolyline
 62
250
  6
CONTINUOUS
 90
5
 70
0
 10
18.7128689437
 20
-10.9482147242
 10
18.6936483297
 20
-10.9615973548
 10
18.6756034116
 20
-10.9732138876
 10
18.6571498734
 20
-10.9842097587
 10
18.6383014374
 20
-10.9945767934
  0
LWPOLYLINE
  5
41A
100
AcDbEntity
  8
RACCORDO
100
AcDbPolyline
 62
250
  6
CONTINUOUS
 90
5
 70
0
 10
18.8197708711
 20
-10.8707381005
 10
18.8005159319
 20
-10.884143682
 10
18.782481909
 20
-10.8957517884
 10
18.7640397923
 20
-10.9067400255
 10
18.745203277
 20
-10.9171002333
  0
LWPOLYLINE
  5
41B
100
AcDbEntity
  8
RACCORDO
100
AcDbPolyline
 62
250
  6
CONTINUOUS
 90
4
 70
0
 10
18.5935135074
 20
-11.0225114874
 10
18.6086615058
 20
-11.0140401903
 10
18.6236919369
 20
-11.0046748068
 10
18.6383014374
 20
-10.9945767934
  0
LINE
  5
41C
100
AcDbEntity
  8
RACCORDO
100
AcDbLine
 62
250
  6
CONTINUOUS
 10
18.6383014374
 20
-10.9945767934
 11
8.0961352818
 21
-16.569447913
  0
LINE
  5
41D
100
AcDbEntity
  8
RACCORDO
100
AcDbLine
 62
7
  6
CONTINUOUS
 10
18.5935135074
 20
-11.0225114874
 11
8.0744431796
 21
-16.5851691528
  0
LINE
  5
41E
100
AcDbEntity
  8
RACCORDO
100
AcDbLine
 62
7
  6
CONTINUOUS
 10
1.7781237855
 20
-20.167525413
 11
6.3338365444
 21
-17.7591787472
  0
LINE
  5
41F
100
AcDbEntity
  8
RACCORDO
100
AcDbLine
 62
7
  6
CONTINUOUS
 10
1.7781237855
 20
-20.3061123978
 11
5.2792401969
 21
-18.4552709417
  0
LINE
  5
420
100
AcDbEntity
  8
RACCORDO
100
AcDbLine
 62
250
  6
CONTINUOUS
 10
1.7781237855
 20
-19.8549763989
 11
18.745203277
 21
-10.9171002333
  0
LINE
  5
421
100
AcDbEntity
  8
DRAFT
100
AcDbLine
 62
7
  6
CONTINUOUS
 10
1.7781237855
 20
-20.1043892895
 11
7.0129400123
 21
-17.3544881293
  0
LINE
  5
422
100
AcDbEntity
  8
DRAFT
100
AcDbLine
 62
7
  6
CONTINUOUS
 10
-0.5906839315
 20
-21.7825242271
 11
-1.1613060184
 21
-22.0628986086
  0
LWPOLYLINE
  5
423
100
AcDbEntity
  8
RACCORDO
100
AcDbPolyline
 62
250
  6
CONTINUOUS
 90
16
 70
0
 10
-5.0922328338
 20
-24.885902927
 10
-5.1312419262
 20
-24.9047171146
 10
-5.1735544035
 20
-24.9214028825
 10
-5.2187169164
 20
-24.9357814543
 10
-5.2662455793
 20
-24.9476987731
 10
-5.3156311549
 20
-24.9570271531
 10
-5.3663445105
 20
-24.963666647
 10
-5.417842287
 20
-24.9675461171
 10
-5.4695727208
 20
-24.9686239976
 10
-5.5209815556
 20
-24.9668887397
 10
-5.5715179807
 20
-24.9623589355
 10
-5.6206405328
 20
-24.9550831187
 10
-5.6678228971
 20
-24.9451392449
 10
-5.7125595468
 20
-24.9326338559
 10
-5.7543711592
 20
-24.9177009385
 10
-5.7928097514
 20
-24.9005004886
  0
LINE
  5
424
100
AcDbEntity
  8
RACCORDO
100
AcDbLine
 62
7
  6
CONTINUOUS
 10
-1.7927654595
 20
-21.6676080996
 11
-1.1613060184
 21
-21.3640321342
  0
LINE
  5
425
100
AcDbEntity
  8
RACCORDO
100
AcDbLine
 62
7
  6
CONTINUOUS
 10
-14.49429774
 20
22.4659003814
 11
-13.9545988665
 21
22.3514132711
  0
LINE
  5
426
100
AcDbEntity
  8
RACCORDO
100
AcDbLine
 62
250
  6
CONTINUOUS
 10
-14.2687546774
 20
22.6205409247
 11
-13.7291676454
 21
22.5060774946
  0
LWPOLYLINE
  5
427
100
AcDbEntity
  8
0
100
AcDbPolyline
 62
7
  6
CONTINUOUS
 90
19
 70
0
 10
-3.5605324125
 20
22.0239125675
 10
-3.6257819869
 20
22.0536777935
 10
-3.6948175806
 20
22.0801642306
 10
-3.7676391937
 20
22.1033718788
 10
-3.8448555698
 20
22.1234268131
 10
-3.9258579653
 20
22.1402029585
 10
-4.0088201486
 20
22.1533220901
 10
-4.0937866384
 20
22.1627011347
 10
-4.180712916
 20
22.1684231654
 10
-4.2676391937
 20
22.1703591769
 10
-4.3545654713
 20
22.1684231654
 10
-4.4414917489
 20
22.1627011347
 10
-4.5264582388
 20
22.1533220901
 10
-4.609420422
 20
22.1402029585
 10
-4.6904228175
 20
22.1234268131
 10
-4.7676391937
 20
22.1033718788
 10
-4.8404608067
 20
22.0801642306
 10
-4.9094964004
 20
22.0536777935
 10
-4.9747459748
 20
22.0239125675
  0
LWPOLYLINE
  5
428
100
AcDbEntity
  8
RACCORDO
100
AcDbPolyline
 62
250
  6
CONTINUOUS
 90
26
 70
0
 10
18.8872210074
 20
13.281659292
 10
18.8799476247
 20
13.285198282
 10
18.8646998571
 20
13.2920043239
 10
18.8491367078
 20
13.2981384629
 10
18.8332697346
 20
13.3035961433
 10
18.8171107205
 20
13.3083733118
 10
18.8006716654
 20
13.3124664207
 10
18.7839647776
 20
13.3158724301
 10
18.7670024639
 20
13.3185888105
 10
18.7497973208
 20
13.3206135445
 10
18.7323621254
 20
13.3219451284
 10
18.7147098255
 20
13.3225825731
 10
18.6968535299
 20
13.3225254052
 10
18.6788064993
 20
13.321773667
 10
18.6605821357
 20
13.3203279168
 10
18.6421939729
 20
13.3181892279
 10
18.6236556667
 20
13.3153591888
 10
18.6049809842
 20
13.311839901
 10
18.5861837936
 20
13.307633978
 10
18.5672780539
 20
13.3027445431
 10
18.5482778042
 20
13.2971752271
 10
18.5291971552
 20
13.290930166
 10
18.5100502797
 20
13.2840139986
 10
18.4908513973
 20
13.2764318616
 10
18.4716147646
 20
13.2681893857
 10
18.4523546673
 20
13.2592926922
  0
LINE
  5
429
100
AcDbEntity
  8
0
100
AcDbLine
 62
7
  6
CONTINUOUS
 10
-1.101953869
 20
20.7946232958
 11
-3.5605324125
 21
22.0239125675
  0
LINE
  5
42A
100
AcDbEntity
  8
0
100
AcDbLine
 62
7
  6
CONTINUOUS
 10
-3.9140858031
 20
22.2006892628
 11
-4.2676391937
 21
22.3774659581
  0
LINE
  5
42B
100
AcDbEntity
  8
DRAFT
100
AcDbLine
 62
7
  6
CONTINUOUS
 10
-4.2676391937
 20
22.9300241474
 11
-3.9140858031
 21
22.7532474521
  0
LINE
  5
42C
100
AcDbEntity
  8
0
100
AcDbLine
 62
7
  6
CONTINUOUS
 10
0.3109318234
 20
21.4859649561
 11
-2.5163012966
 21
22.8995815161
  0
LINE
  5
42D
100
AcDbEntity
  8
0
100
AcDbLine
 62
7
  6
CONTINUOUS
 10
14.0464264391
 20
15.080899894
 11
17.1339027263
 21
13.5371617504
  0
LINE
  5
42E
100
AcDbEntity
  8
DRAFT
100
AcDbLine
 62
7
  6
CONTINUOUS
 10
6.4733887555
 20
19.0285468369
 11
7.0129400123
 21
18.7587712085
  0
LINE
  5
42F
100
AcDbEntity
  8
RACCORDO
100
AcDbLine
 62
250
  6
CONTINUOUS
 10
-4.5717991576
 20
24.5774116515
 11
-3.981711185
 21
24.2823676652
  0
LINE
  5
430
100
AcDbEntity
  8
RACCORDO
100
AcDbLine
 62
250
  6
CONTINUOUS
 10
0.9680362833
 20
21.807493931
 11
1.558124256
 21
21.5124499447
  0
LINE
  5
431
100
AcDbEntity
  8
0
100
AcDbLine
 62
7
  6
CONTINUOUS
 10
-1.1563693564
 20
22.9733297035
 11
1.1234577641
 21
21.8334161432
  0
LINE
  5
432
100
AcDbEntity
  8
0
100
AcDbLine
 62
7
  6
CONTINUOUS
 10
1.7309794466
 20
21.5296553019
 11
1.9447697649
 21
21.4227601428
  0
LINE
  5
433
100
AcDbEntity
  8
RACCORDO
100
AcDbLine
 62
7
  6
CONTINUOUS
 10
-4.3003807378
 20
24.5646379256
 11
-3.8115895285
 21
24.320242321
  0
LINE
  5
434
100
AcDbEntity
  8
RACCORDO
100
AcDbLine
 62
7
  6
CONTINUOUS
 10
1.23895763
 20
21.7949687417
 11
1.7277488393
 21
21.5505731371
  0
LINE
  5
435
100
AcDbEntity
  8
RACCORDO
100
AcDbLine
 62
250
  6
CONTINUOUS
 10
12.4923720882
 20
16.2392839818
 11
13.0688176603
 21
15.9510611957
  0
LWPOLYLINE
  5
436
100
AcDbEntity
  8
RACCORDO
100
AcDbPolyline
 62
250
  6
CONTINUOUS
 90
11
 70
0
 10
14.1404408547
 20
12.4587694726
 10
14.164963845
 20
12.4382650942
 10
14.1893296067
 20
12.4169868298
 10
14.2134663569
 20
12.3949245525
 10
14.2372312418
 20
12.3721362321
 10
14.2606210576
 20
12.3485477688
 10
14.2837443635
 20
12.3239461816
 10
14.306491937
 20
12.2983194174
 10
14.3287499347
 20
12.2716570286
 10
14.3505596188
 20
12.2437387004
 10
14.3714487273
 20
12.2149904959
  0
LWPOLYLINE
  5
437
100
AcDbEntity
  8
RACCORDO
100
AcDbPolyline
 62
250
  6
CONTINUOUS
 90
13
 70
0
 10
14.0468042556
 20
12.4524734641
 10
14.069664685
 20
12.4328947307
 10
14.0922422233
 20
12.4125416841
 10
14.1145368704
 20
12.3914143245
 10
14.1365823688
 20
12.3695844376
 10
14.158344976
 20
12.3469802376
 10
14.1797234653
 20
12.3233863671
 10
14.2007631684
 20
12.298804618
 10
14.2214187535
 20
12.2732331984
 10
14.2414529993
 20
12.2464513763
 10
14.2609233728
 20
12.218457222
 10
14.279772407
 20
12.1892526651
 10
14.2880268649
 20
12.1750629574
  0
LWPOLYLINE
  5
438
100
AcDbEntity
  8
RACCORDO
100
AcDbPolyline
 62
250
  6
CONTINUOUS
 90
27
 70
0
 10
11.6037488266
 20
18.626446672
 10
11.5887183955
 20
18.6511081731
 10
11.573279747
 20
18.6754159968
 10
11.5574459395
 20
18.6993495828
 10
11.5412303656
 20
18.7228886874
 10
11.5246467411
 20
18.7460134007
 10
11.5077090927
 20
18.768704163
 10
11.4904317468
 20
18.7909417819
 10
11.472829317
 20
18.8127074482
 10
11.4549166921
 20
18.8339827519
 10
11.4367090229
 20
18.8547496977
 10
11.4182217101
 20
18.8749907203
 10
11.3994703907
 20
18.8946886994
 10
11.3804709252
 20
18.9138269739
 10
11.3612393837
 20
18.932389356
 10
11.3417920329
 20
18.9503601451
 10
11.322145322
 20
18.9677241411
 10
11.3023158685
 20
18.9844666571
 10
11.282320445
 20
19.0005735316
 10
11.2621759639
 20
19.0160311411
 10
11.2418994642
 20
19.0308264112
 10
11.2215080961
 20
19.0449468274
 10
11.2010191074
 20
19.0583804465
 10
11.1804498282
 20
19.0711159058
 10
11.1598176566
 20
19.0831424334
 10
11.1391400438
 20
19.0944498569
 10
11.1184344795
 20
19.1050286122
  0
LINE
  5
439
100
AcDbEntity
  8
RACCORDO
100
AcDbLine
 62
250
  6
CONTINUOUS
 10
11.7975614129
 20
18.2923727495
 11
11.6037488266
 21
18.626446672
  0
LINE
  5
43A
100
AcDbEntity
  8
RACCORDO
100
AcDbLine
 62
7
  6
CONTINUOUS
 10
12.1504046617
 20
18.425471107
 11
11.9712015758
 21
18.7345507103
  0
LWPOLYLINE
  5
43B
100
AcDbEntity
  8
RACCORDO
100
AcDbPolyline
 62
7
  6
CONTINUOUS
 90
4
 70
0
 10
21.110927401
 20
-3.780857074
 10
21.1108999368
 20
-3.7790200956
 10
21.1106312117
 20
-3.774835523
 10
21.1104970913
 20
-3.7736034126
  0
LWPOLYLINE
  5
43C
100
AcDbEntity
  8
RACCORDO
100
AcDbPolyline
 62
7
  6
CONTINUOUS
 90
4
 70
0
 10
21.110927401
 20
8.1702934982
 10
21.1108999368
 20
8.1721304766
 10
21.1106312117
 20
8.1763150493
 10
21.1104970913
 20
8.1775471596
  0
LINE
  5
43D
100
AcDbEntity
  8
RACCORDO
100
AcDbLine
 62
250
  6
CONTINUOUS
 10
21.0267293411
 20
8.0760952324
 11
21.0267293411
 21
7.2978693739
  0
LINE
  5
43E
100
AcDbEntity
  8
RACCORDO
100
AcDbLine
 62
250
  6
CONTINUOUS
 10
21.0267293411
 20
-3.8750553399
 11
21.0267293411
 21
-4.6532811983
  0
LINE
  5
43F
100
AcDbEntity
  8
RACCORDO
100
AcDbLine
 62
7
  6
CONTINUOUS
 10
21.110927401
 20
8.1702935412
 11
21.110927401
 21
7.4120685762
  0
LINE
  5
440
100
AcDbEntity
  8
RACCORDO
100
AcDbLine
 62
7
  6
CONTINUOUS
 10
21.110927401
 20
-3.7808570311
 11
21.110927401
 21
-4.539081996
  0
LWPOLYLINE
  5
441
100
AcDbEntity
  8
RACCORDO
100
AcDbPolyline
 62
7
  6
CONTINUOUS
 90
4
 70
0
 10
21.1101288748
 20
-4.5510104042
 10
21.1105776108
 20
-4.546988568
 10
21.110882091
 20
-4.5419324018
 10
21.110927401
 20
-4.5390819557
  0
LWPOLYLINE
  5
442
100
AcDbEntity
  8
RACCORDO
100
AcDbPolyline
 62
250
  6
CONTINUOUS
 90
33
 70
0
 10
21.040740734
 20
-4.6412343149
 10
21.0335996024
 20
-4.6912157257
 10
21.0255311319
 20
-4.7405355454
 10
21.0165389658
 20
-4.7891715111
 10
21.0066271672
 20
-4.8371016562
 10
20.9958002091
 20
-4.8843043578
 10
20.9840629708
 20
-4.9307583445
 10
20.971420743
 20
-4.9764426678
 10
20.9578792373
 20
-5.021336681
 10
20.9434445762
 20
-5.0654200856
 10
20.9281232839
 20
-5.108672963
 10
20.9119222711
 20
-5.1510758094
 10
20.8948488409
 20
-5.1926095109
 10
20.8769106923
 20
-5.233255334
 10
20.8581159286
 20
-5.2729949129
 10
20.8384730448
 20
-5.3118102859
 10
20.8179909158
 20
-5.3496839189
 10
20.7966787817
 20
-5.3865987294
 10
20.774546253
 20
-5.4225380711
 10
20.7516033136
 20
-5.4574857294
 10
20.727860326
 20
-5.4914259174
 10
20.7033280168
 20
-5.5243433014
 10
20.6780174662
 20
-5.5562230159
 10
20.651940095
 20
-5.5870506773
 10
20.6251076681
 20
-5.6168123777
 10
20.597532294
 20
-5.6454946858
 10
20.5692264241
 20
-5.6730846495
 10
20.5402028404
 20
-5.6995698099
 10
20.5104746465
 20
-5.7249382098
 10
20.4800552606
 20
-5.7491783993
 10
20.4489584133
 20
-5.772279437
 10
20.4171981428
 20
-5.7942308945
 10
20.404561118
 20
-5.8025259396
  0
LWPOLYLINE
  5
443
100
AcDbEntity
  8
RACCORDO
100
AcDbPolyline
 62
250
  6
CONTINUOUS
 90
5
 70
0
 10
18.8289341379
 20
-10.8471746383
 10
18.8087595572
 20
-10.8658542691
 10
18.7880728878
 20
-10.8837407381
 10
18.7668840864
 20
-10.9008254472
 10
18.745203277
 20
-10.9171002333
  0
LWPOLYLINE
  5
444
100
AcDbEntity
  8
RACCORDO
100
AcDbPolyline
 62
250
  6
CONTINUOUS
 90
7
 70
0
 10
1.2446947647
 20
-24.6554772263
 10
1.2660108135
 20
-24.6431104912
 10
1.2839266619
 20
-24.6294557479
 10
1.2981331761
 20
-24.6147449692
 10
1.3083849465
 20
-24.5992269531
 10
1.3145013331
 20
-24.5831677518
 10
1.3163820137
 20
-24.5679952116
  0
LINE
  5
445
100
AcDbEntity
  8
RACCORDO
100
AcDbLine
 62
250
  6
CONTINUOUS
 10
0.7174636137
 20
-24.9294191398
 11
1.2446947647
 21
-24.6554772263
  0
LINE
  5
446
100
AcDbEntity
  8
RACCORDO
100
AcDbLine
 62
7
  6
CONTINUOUS
 10
0.653480389
 20
-25.0641338536
 11
1.1816480325
 21
-24.7897053517
  0
LINE
  5
447
100
AcDbEntity
  8
RACCORDO
100
AcDbLine
 62
250
  6
CONTINUOUS
 10
-0.0204996544
 20
-23.5971838302
 11
1.7781237855
 21
-22.7098343742
  0
LINE
  5
448
100
AcDbEntity
  8
RACCORDO
100
AcDbLine
 62
7
  6
CONTINUOUS
 10
-0.1513719222
 20
-23.8680977971
 11
1.6472515177
 21
-22.9807483411
  0
LINE
  5
449
100
AcDbEntity
  8
DRAFT
100
AcDbLine
 62
7
  6
CONTINUOUS
 10
-0.0204996544
 20
-22.6333017906
 11
0.5550598463
 21
-22.355396116
  0
LWPOLYLINE
  5
44A
100
AcDbEntity
  8
RACCORDO
100
AcDbPolyline
 62
250
  6
CONTINUOUS
 90
13
 70
0
 10
-0.184987137
 20
-24.2638402038
 10
-0.2096538061
 20
-24.2742965535
 10
-0.2368136227
 20
-24.2830733995
 10
-0.2660121391
 20
-24.2900238767
 10
-0.2967608022
 20
-24.2950316808
 10
-0.3285450998
 20
-24.2980130092
 10
-0.3608331681
 20
-24.2989179699
 10
-0.393084732
 20
-24.2977314202
 10
-0.4247601429
 20
-24.2944732136
 10
-0.4553293799
 20
-24.289197869
 10
-0.484280935
 20
-24.2819936576
 10
-0.5111303714
 20
-24.2729811253
 10
-0.5354284249
 20
-24.2623110763
  0
LINE
  5
44B
100
AcDbEntity
  8
DRAFT
100
AcDbLine
 62
7
  6
CONTINUOUS
 10
-1.7927654595
 20
-23.4366740927
 11
-2.3683249603
 21
-23.6782705927
  0
LINE
  5
44C
100
AcDbEntity
  8
RACCORDO
100
AcDbLine
 62
250
  6
CONTINUOUS
 10
-4.4110452671
 20
-25.3862159294
 11
-2.3683249603
 21
-24.5287649171
  0
LINE
  5
44D
100
AcDbEntity
  8
RACCORDO
100
AcDbLine
 62
7
  6
CONTINUOUS
 10
-2.509590714
 20
-24.8046962066
 11
-4.5650093852
 21
-25.6674773967
  0
LINE
  5
44E
100
AcDbEntity
  8
RACCORDO
100
AcDbLine
 62
250
  6
CONTINUOUS
 10
-4.3680828921
 20
21.5294486264
 11
-4.358194041
 21
21.5322255162
  0
LINE
  5
44F
100
AcDbEntity
  8
RACCORDO
100
AcDbLine
 62
250
  6
CONTINUOUS
 10
-4.358194041
 20
21.5322255162
 11
-4.3481259047
 21
21.5349632505
  0
LINE
  5
450
100
AcDbEntity
  8
RACCORDO
100
AcDbLine
 62
250
  6
CONTINUOUS
 10
-4.3481259047
 20
21.5349632505
 11
-4.3378779669
 21
21.5376578292
  0
LWPOLYLINE
  5
451
100
AcDbEntity
  8
RACCORDO
100
AcDbPolyline
 62
250
  6
CONTINUOUS
 90
3
 70
0
 10
-4.3378779669
 20
21.5376578292
 10
-4.3274501811
 20
21.5403051155
 10
-4.3221688278
 20
21.5416105102
  0
LWPOLYLINE
  5
452
100
AcDbEntity
  8
RACCORDO
100
AcDbPolyline
 62
250
  6
CONTINUOUS
 90
3
 70
0
 10
-4.3221688278
 20
21.5416105102
 10
-4.3114716009
 20
21.5441805465
 10
-4.3060557273
 20
21.5454451882
  0
LWPOLYLINE
  5
453
100
AcDbEntity
  8
RACCORDO
100
AcDbPolyline
 62
250
  6
CONTINUOUS
 90
4
 70
0
 10
-4.3060557273
 20
21.5454451882
 10
-4.2950911041
 20
21.5479291833
 10
-4.2895423543
 20
21.5491485367
 10
-4.2839497229
 20
21.5503513192
  0
LWPOLYLINE
  5
454
100
AcDbEntity
  8
RACCORDO
100
AcDbPolyline
 62
7
  6
CONTINUOUS
 90
8
 70
0
 10
1.023708928
 20
21.8293249719
 10
1.0493618285
 20
21.8349229843
 10
1.0769365017
 20
21.8371845157
 10
1.1062473798
 20
21.836029625
 10
1.137084364
 20
21.8313468767
 10
1.1692460719
 20
21.8231126097
 10
1.2025452722
 20
21.8113867956
 10
1.2389616549
 20
21.7949743643
  0
LWPOLYLINE
  5
455
100
AcDbEntity
  8
RACCORDO
100
AcDbPolyline
 62
250
  6
CONTINUOUS
 90
125
 70
0
 10
-4.2839497229
 20
21.5503513192
 10
-4.2726323581
 20
21.5527072597
 10
-4.266908958
 20
21.5538587628
 10
-4.2611419311
 20
21.5549922218
 10
-4.2553321274
 20
21.5561074991
 10
-4.2494832014
 20
21.5572025709
 10
-4.2435941967
 20
21.5582775346
 10
-4.2376660698
 20
21.5593322929
 10
-4.2317053438
 20
21.5603645294
 10
-4.2257102509
 20
21.5613743924
 10
-4.2196825591
 20
21.5623617336
 10
-4.2136340954
 20
21.5633237933
 10
-4.2075641228
 20
21.564260464
 10
-4.2014733784
 20
21.5651718532
 10
-4.1953759004
 20
21.5660555222
 10
-4.1892707068
 20
21.5669113434
 10
-4.1831587797
 20
21.5677394445
 10
-4.1770571025
 20
21.5685377707
 10
-4.1709695784
 20
21.5693056391
 10
-4.1648923042
 20
21.5700437325
 10
-4.1588305548
 20
21.5707520443
 10
-4.1527856958
 20
21.5714303864
 10
-4.1467563614
 20
21.572078947
 10
-4.1407437298
 20
21.572698284
 10
-4.1347474453
 20
21.5732884295
 10
-4.1287678634
 20
21.5738493515
 10
-4.1228072295
 20
21.5743815115
 10
-4.1168655706
 20
21.5748848942
 10
-4.1109428596
 20
21.5753595149
 10
-4.1050412603
 20
21.5758058816
 10
-4.0991608571
 20
21.5762239775
 10
-4.0933015656
 20
21.5766138195
 10
-4.0874652961
 20
21.5769759654
 10
-4.0816520138
 20
21.5773104075
 10
-4.0758617535
 20
21.5776171535
 10
-4.0700965299
 20
21.5778967846
 10
-4.0643561484
 20
21.5781492929
 10
-4.0586408036
 20
21.5783746863
 10
-4.0529530934
 20
21.5785735695
 10
-4.0472929745
 20
21.5787459195
 10
-4.0416604903
 20
21.5788917593
 10
-4.0360583688
 20
21.5790117623
 10
-4.0304868371
 20
21.5791059035
 10
-4.0249456681
 20
21.579174208
 10
-4.0194369086
 20
21.5792174243
 10
-4.0139607415
 20
21.5792355403
 10
-4.0085169839
 20
21.5792285681
 10
-4.0031071337
 20
21.5791972923
 10
-3.9977312404
 20
21.5791417071
 10
-3.9923892544
 20
21.5790618184
 10
-3.9870825257
 20
21.5789584286
 10
-3.9818110595
 20
21.5788315312
 10
-3.9765748506
 20
21.5786811328
 10
-3.9713752322
 20
21.5785080549
 10
-3.9662122444
 20
21.5783122919
 10
-3.9610858471
 20
21.5780938495
 10
-3.9559972541
 20
21.5778535663
 10
-3.9509465184
 20
21.5775914386
 10
-3.9459335871
 20
21.5773074701
 10
-3.940959515
 20
21.5770025111
 10
-3.9360243335
 20
21.5766765575
 10
-3.9311280112
 20
21.5763296135
 10
-3.9262715087
 20
21.5759625414
 10
-3.9214547553
 20
21.5755753264
 10
-3.9166778217
 20
21.5751679835
 10
-3.9119418807
 20
21.57474142
 10
-3.9072471422
 20
21.5742956477
 10
-3.9025933964
 20
21.5738306549
 10
-3.897981186
 20
21.5733473134
 10
-3.8934106862
 20
21.5728456437
 10
-3.8888817218
 20
21.5723256254
 10
-3.8843943102
 20
21.5717880693
 10
-3.8799484971
 20
21.5712329873
 10
-3.8755442367
 20
21.5706603675
 10
-3.8711814084
 20
21.5700709841
 10
-3.8668600219
 20
21.569464845
 10
-3.8625800674
 20
21.5688419425
 10
-3.8583413955
 20
21.5682030269
 10
-3.8541440237
 20
21.567548107
 10
-3.8499879345
 20
21.566877174
 10
-3.8458729258
 20
21.5661909527
 10
-3.841799037
 20
21.565489456
 10
-3.8377662287
 20
21.5647726709
 10
-3.8337741805
 20
21.5640412829
 10
-3.8298229648
 20
21.5632953143
 10
-3.8259125092
 20
21.5625347428
 10
-3.822042277
 20
21.5617601872
 10
-3.8182123077
 20
21.5609716672
 10
-3.8144225617
 20
21.560169163
 10
-3.8106723833
 20
21.5593532342
 10
-3.806961784
 20
21.5585238962
 10
-3.8032907522
 20
21.5576811336
 10
-3.7996585974
 20
21.5568254594
 10
-3.7960653471
 20
21.5559568943
 10
-3.7925109739
 20
21.5550754177
 10
-3.7889947042
 20
21.554181481
 10
-3.7855165566
 20
21.5532751046
 10
-3.7820765125
 20
21.5523562681
 10
-3.7786737439
 20
21.5514253619
 10
-3.7753082519
 20
21.5504824029
 10
-3.7719800354
 20
21.5495273742
 10
-3.7686882625
 20
21.5485606148
 10
-3.7654329427
 20
21.5475821455
 10
-3.7622140664
 20
21.5465919456
 10
-3.7590307734
 20
21.5455902925
 10
-3.7558830692
 20
21.5445772073
 10
-3.7527709484
 20
21.5435526689
 10
-3.7496935337
 20
21.5425168913
 10
-3.7466508172
 20
21.5414698925
 10
-3.7436428069
 20
21.5404116544
 10
-3.7406686501
 20
21.5393423375
 10
-3.7377283243
 20
21.5382619541
 10
-3.734821852
 20
21.5371704918
 10
-3.7319484483
 20
21.5360680731
 10
-3.7291080817
 20
21.5349547063
 10
-3.7263007838
 20
21.5338303831
 10
-3.7235258642
 20
21.5326952009
 10
-3.7207833019
 20
21.5315491701
 10
-3.718073118
 20
21.5303922804
 10
-3.7153946858
 20
21.5292245987
 10
-3.7127479946
 20
21.528046142
 10
-3.7101330551
 20
21.5268568932
 10
-3.7075492726
 20
21.5256568683
 10
-3.7049964486
 20
21.5244460726
 10
-3.7024747814
 20
21.5232245008
  0
LWPOLYLINE
  5
456
100
AcDbEntity
  8
RACCORDO
100
AcDbPolyline
 62
7
  6
CONTINUOUS
 90
4
 70
0
 10
1.6785392537
 20
21.550706054
 10
1.6598648662
 20
21.5468864918
 10
1.6389163736
 20
21.5417157717
 10
1.6158611455
 20
21.5352784276
  0
LWPOLYLINE
  5
457
100
AcDbEntity
  8
RACCORDO
100
AcDbPolyline
 62
7
  6
CONTINUOUS
 90
7
 70
0
 10
-12.1196233998
 20
23.6719234563
 10
-12.0999686488
 20
23.667864647
 10
-12.082939785
 20
23.6655717974
 10
-12.0689100344
 20
23.6649018483
 10
-12.0582374175
 20
23.6654212407
 10
-12.0512076059
 20
23.6671889762
 10
-12.0489727685
 20
23.6689141904
  0
LWPOLYLINE
  5
458
100
AcDbEntity
  8
RACCORDO
100
AcDbPolyline
 62
7
  6
CONTINUOUS
 90
5
 70
0
 10
-3.8115893693
 20
24.3202437949
 10
-3.8205495635
 20
24.3228764163
 10
-3.8317947336
 20
24.3235111564
 10
-3.8457619288
 20
24.3225830661
 10
-3.8623208882
 20
24.3201006223
  0
LWPOLYLINE
  5
459
100
AcDbEntity
  8
RACCORDO
100
AcDbPolyline
 62
7
  6
CONTINUOUS
 90
5
 70
0
 10
1.7277492889
 20
21.5505773007
 10
1.7194496123
 20
21.5531004095
 10
1.7084653962
 20
21.5538497771
 10
1.6947865596
 20
21.5530492401
 10
1.6785392537
 20
21.550706054
  0
LWPOLYLINE
  5
45A
100
AcDbEntity
  8
RACCORDO
100
AcDbPolyline
 62
7
  6
CONTINUOUS
 90
12
 70
0
 10
-1.4162497101
 20
23.7849973802
 10
-1.4302298146
 20
23.7916018424
 10
-1.4674278142
 20
23.8060396763
 10
-1.5063194241
 20
23.8165627415
 10
-1.5468834574
 20
23.823220011
 10
-1.5886081965
 20
23.8259275031
 10
-1.6315083456
 20
23.8246351806
 10
-1.6755692005
 20
23.8193930807
 10
-1.7202349309
 20
23.8102673328
 10
-1.7653202601
 20
23.7972799799
 10
-1.8110104649
 20
23.7804089789
 10
-1.8573055452
 20
23.7596543299
  0
LWPOLYLINE
  5
45B
100
AcDbEntity
  8
RACCORDO
100
AcDbPolyline
 62
250
  6
CONTINUOUS
 90
24
 70
0
 10
-2.0927832635
 20
25.7106374836
 10
-2.1132020225
 20
25.72062089
 10
-2.1336139488
 20
25.7298582362
 10
-2.1540017776
 20
25.7383417088
 10
-2.1743482641
 20
25.7460641323
 10
-2.1946361988
 20
25.7530189749
 10
-2.2148484216
 20
25.759200354
 10
-2.2349678363
 20
25.7646030412
 10
-2.2549774255
 20
25.7692224668
 10
-2.2748602644
 20
25.7730547235
 10
-2.2945995356
 20
25.7760965699
 10
-2.3141785431
 20
25.7783454331
 10
-2.3335807263
 20
25.779799411
 10
-2.3527896745
 20
25.7804572737
 10
-2.37178914
 20
25.7803184648
 10
-2.3905630527
 20
25.7793831018
 10
-2.4090955331
 20
25.7776519757
 10
-2.4273709057
 20
25.7751265508
 10
-2.4453737129
 20
25.7718089632
 10
-2.4630887273
 20
25.7677020189
 10
-2.4805009651
 20
25.7628091919
 10
-2.4975956985
 20
25.7571346205
 10
-2.5143584683
 20
25.7506831044
 10
-2.5316680139
 20
25.7430404186
  0
LINE
  5
45C
100
AcDbEntity
  8
RACCORDO
100
AcDbLine
 62
7
  6
CONTINUOUS
 10
12.4923720882
 20
16.4790837516
 11
13.5912530364
 21
15.9296432776
  0
LINE
  5
45D
100
AcDbEntity
  8
RACCORDO
100
AcDbLine
 62
7
  6
CONTINUOUS
 10
17.8709007669
 20
13.7898194123
 11
18.8872275478
 21
13.2816560218
  0
LINE
  5
45E
100
AcDbEntity
  8
RACCORDO
100
AcDbLine
 62
250
  6
CONTINUOUS
 10
-4.7512106002
 20
25.2066068574
 11
-1.8573055452
 21
23.7596543299
  0
LINE
  5
45F
100
AcDbEntity
  8
RACCORDO
100
AcDbLine
 62
250
  6
CONTINUOUS
 10
2.3853351419
 20
21.6383339864
 11
5.2792401969
 21
20.1913814589
  0
LINE
  5
460
100
AcDbEntity
  8
RACCORDO
100
AcDbLine
 62
7
  6
CONTINUOUS
 10
-4.4579953042
 20
25.3058701775
 11
-1.4162625421
 21
23.7850037965
  0
LINE
  5
461
100
AcDbEntity
  8
RACCORDO
100
AcDbLine
 62
7
  6
CONTINUOUS
 10
2.826378145
 20
21.663683453
 11
5.8681109071
 21
20.1428170719
  0
LINE
  5
462
100
AcDbEntity
  8
RACCORDO
100
AcDbLine
 62
250
  6
CONTINUOUS
 10
11.1184344795
 20
19.1050286122
 11
-2.0927832635
 21
25.7106374836
  0
LINE
  5
463
100
AcDbEntity
  8
RACCORDO
100
AcDbLine
 62
7
  6
CONTINUOUS
 10
11.55330736
 20
19.1273919418
 11
-1.6579103829
 21
25.7330008132
  0
LWPOLYLINE
  5
464
100
AcDbEntity
  8
RACCORDO
100
AcDbPolyline
 62
250
  6
CONTINUOUS
 90
58
 70
0
 10
19.4400139523
 20
10.9857783008
 10
19.4540881827
 20
10.9749032811
 10
19.497119147
 20
10.9404726474
 10
19.5399163794
 20
10.9050421186
 10
19.5824605817
 20
10.8686276687
 10
19.6247325266
 20
10.8312457523
 10
19.6667131013
 20
10.7929132714
 10
19.7083833359
 20
10.7536475494
 10
19.7497244398
 20
10.7134662949
 10
19.7907177782
 20
10.6723876197
 10
19.8313448625
 20
10.6304300492
 10
19.8715873356
 20
10.5876125396
 10
19.9114270078
 20
10.5439544443
 10
19.9508458812
 20
10.4994754883
 10
19.9898261762
 20
10.454195735
 10
20.0283503159
 20
10.4081356021
 10
20.0664009208
 20
10.361315867
 10
20.1039608025
 20
10.3137576783
 10
20.1410129905
 20
10.2654825234
 10
20.1775407509
 20
10.2165122065
 10
20.2135276033
 20
10.1668688226
 10
20.2489573135
 20
10.1165747669
 10
20.2838138935
 20
10.0656527341
 10
20.3180816024
 20
10.0141257194
 10
20.3517449645
 20
9.9620169926
 10
20.3847887808
 20
9.9093500814
 10
20.417198138
 20
9.8561487559
 10
20.4489584088
 20
9.8024370277
 10
20.4800552564
 20
9.7482391423
 10
20.5104746428
 20
9.6935795663
 10
20.540202837
 20
9.6384829722
 10
20.5692264208
 20
9.5829742281
 10
20.5975322906
 20
9.5270783948
 10
20.6251076649
 20
9.4708207125
 10
20.6519400922
 20
9.4142265845
 10
20.6780174639
 20
9.3573215509
 10
20.7033280149
 20
9.3001312852
 10
20.7278603241
 20
9.2426815923
 10
20.7516033115
 20
9.1849984172
 10
20.7745462509
 20
9.1271078197
 10
20.79667878
 20
9.0690359484
 10
20.8179909147
 20
9.0108090023
 10
20.838473044
 20
8.9524532396
 10
20.8581159278
 20
8.8939949831
 10
20.8769106912
 20
8.8354606414
 10
20.8948488398
 20
8.7768766698
 10
20.9119222704
 20
8.7182695371
 10
20.9281232836
 20
8.6596656765
 10
20.9434445761
 20
8.6010915058
 10
20.9578792371
 20
8.5425734405
 10
20.9714207427
 20
8.4841379226
 10
20.9840629704
 20
8.4258113719
 10
20.995800209
 20
8.3676201458
 10
21.0066271673
 20
8.3095904843
 10
21.0165389662
 20
8.2517485395
 10
21.0255311322
 20
8.1941204077
 10
21.0335996026
 20
8.1367321182
 10
21.040740734
 20
8.0796095771
  0
LWPOLYLINE
  5
465
100
AcDbEntity
  8
RACCORDO
100
AcDbPolyline
 62
250
  6
CONTINUOUS
 90
51
 70
0
 10
19.4400139523
 20
9.3106638541
 10
19.4526117879
 20
9.2720236854
 10
19.4647731298
 20
9.2315755128
 10
19.4761794949
 20
9.1902621012
 10
19.4868210811
 20
9.1480827462
 10
19.4966309238
 20
9.1050880304
 10
19.5056041688
 20
9.0612528641
 10
19.5137273054
 20
9.0166015054
 10
19.5209248622
 20
8.9712617783
 10
19.5271931442
 20
8.9251712969
 10
19.5325224752
 20
8.8783963606
 10
19.5368387466
 20
8.8312642272
 10
19.5401322251
 20
8.7837014628
 10
19.5424136285
 20
8.7357939932
 10
19.5436588133
 20
8.6881186695
 10
19.5438408611
 20
8.6404694052
 10
19.543010404
 20
8.5930745347
 10
19.5412950096
 20
8.5471799159
 10
19.5387167604
 20
8.5031580566
 10
19.5353286774
 20
8.4606777386
 10
19.5313281322
 20
8.4199396463
 10
19.5267769551
 20
8.3811361192
 10
19.5216812221
 20
8.3441065281
 10
19.5161479934
 20
8.3085191274
 10
19.5102073002
 20
8.2743299188
 10
19.5038752882
 20
8.2416019717
 10
19.4972276373
 20
8.2101600104
 10
19.4902825525
 20
8.1799819389
 10
19.4830571662
 20
8.1511027842
 10
19.4756198638
 20
8.1234309525
 10
19.4679864913
 20
8.0969686174
 10
19.460169225
 20
8.071722886
 10
19.4522271617
 20
8.0476084135
 10
19.4441768532
 20
8.0246385406
 10
19.4360234795
 20
8.0028066604
 10
19.4278057945
 20
7.9819966095
 10
19.4195358314
 20
7.9622123527
 10
19.4112175467
 20
7.9434547197
 10
19.4028747179
 20
7.9256020945
 10
19.3945131925
 20
7.9086498972
 10
19.3861385149
 20
7.8926061425
 10
19.3777718222
 20
7.8773675504
 10
19.3694174165
 20
7.862931785
 10
19.3610789849
 20
7.8493037323
 10
19.352775162
 20
7.8363905516
 10
19.3445162297
 20
7.8241987302
 10
19.3362973332
 20
7.8127237241
 10
19.328113215
 20
7.8018558142
 10
19.3199631191
 20
7.7915588481
 10
19.3118511945
 20
7.7818703908
 10
19.3037789142
 20
7.7727911221
  0
LWPOLYLINE
  5
466
100
AcDbEntity
  8
RACCORDO
100
AcDbPolyline
 62
7
  6
CONTINUOUS
 90
59
 70
0
 10
21.1104970918
 20
-3.77360354
 10
21.1041089147
 20
-3.7229760298
 10
21.0959733897
 20
-3.6653680766
 10
21.0869026152
 20
-3.607619213
 10
21.0769038028
 20
-3.5497532798
 10
21.0659842927
 20
-3.4917935699
 10
21.0541515871
 20
-3.4337631765
 10
21.0414174314
 20
-3.3757030305
 10
21.0277864963
 20
-3.3176195441
 10
21.0132536599
 20
-3.2594843169
 10
20.9978161583
 20
-3.201288363
 10
20.9814883078
 20
-3.1430880355
 10
20.9642907802
 20
-3.0849532526
 10
20.9462367211
 20
-3.0269206971
 10
20.9273316802
 20
-2.9690011948
 10
20.9075878088
 20
-2.911226001
 10
20.8870181051
 20
-2.8536267108
 10
20.8656301908
 20
-2.7962187993
 10
20.8434282049
 20
-2.7390095368
 10
20.8204191696
 20
-2.6820150194
 10
20.796616245
 20
-2.6252661788
 10
20.7720327537
 20
-2.5687926453
 10
20.7466812053
 20
-2.5126208136
 10
20.7205714859
 20
-2.4567705513
 10
20.6937134789
 20
-2.4012615842
 10
20.6661181235
 20
-2.3461155931
 10
20.6377977946
 20
-2.2913566164
 10
20.6087647424
 20
-2.2370077881
 10
20.5790330978
 20
-2.1830950338
 10
20.5486134405
 20
-2.1296372187
 10
20.5175126096
 20
-2.0766468596
 10
20.4857429135
 20
-2.0241460605
 10
20.4533170871
 20
-1.972157163
 10
20.4202421304
 20
-1.9206932453
 10
20.386524632
 20
-1.8697673755
 10
20.3521833246
 20
-1.8194107952
 10
20.3172439256
 20
-1.7696630945
 10
20.2817262479
 20
-1.7205533584
 10
20.2456385204
 20
-1.6720940037
 10
20.2089895611
 20
-1.6242987303
 10
20.1717974754
 20
-1.5771932323
 10
20.1340724524
 20
-1.530792646
 10
20.0958104589
 20
-1.4850955865
 10
20.0570116785
 20
-1.4401076487
 10
20.0177031623
 20
-1.395865698
 10
19.9779211963
 20
-1.3524144094
 10
19.9376848719
 20
-1.3097773182
 10
19.8970050393
 20
-1.2679687629
 10
19.8559064989
 20
-1.2270169771
 10
19.8144196685
 20
-1.1869540356
 10
19.7725451854
 20
-1.1477824931
 10
19.7302621844
 20
-1.1094872385
 10
19.6875625713
 20
-1.0720681122
 10
19.6444833514
 20
-1.0355648772
 10
19.6010707337
 20
-1.0000218637
 10
19.5573345034
 20
-0.9654513441
 10
19.5132958373
 20
-0.931874505
 10
19.4690191195
 20
-0.89934281
 10
19.4400139523
 20
-0.8788269786
  0
LWPOLYLINE
  5
467
100
AcDbEntity
  8
RACCORDO
100
AcDbPolyline
 62
7
  6
CONTINUOUS
 90
59
 70
0
 10
21.1104970918
 20
8.1775470323
 10
21.1041089147
 20
8.2281745425
 10
21.0959733897
 20
8.2857824957
 10
21.0869026152
 20
8.3435313592
 10
21.0769038028
 20
8.4013972924
 10
21.0659842927
 20
8.4593570024
 10
21.0541515871
 20
8.5173873958
 10
21.0414174314
 20
8.5754475417
 10
21.0277864963
 20
8.6335310282
 10
21.0132536599
 20
8.6916662553
 10
20.9978161583
 20
8.7498622092
 10
20.9814883078
 20
8.8080625368
 10
20.9642907802
 20
8.8661973196
 10
20.9462367211
 20
8.9242298752
 10
20.9273316802
 20
8.9821493774
 10
20.9075878088
 20
9.0399245712
 10
20.8870181051
 20
9.0975238614
 10
20.8656301908
 20
9.154931773
 10
20.8434282049
 20
9.2121410354
 10
20.8204191696
 20
9.2691355528
 10
20.796616245
 20
9.3258843934
 10
20.7720327537
 20
9.3823579269
 10
20.7466812053
 20
9.4385297587
 10
20.7205714859
 20
9.4943800209
 10
20.6937134789
 20
9.5498889881
 10
20.6661181235
 20
9.6050349791
 10
20.6377977946
 20
9.6597939559
 10
20.6087647424
 20
9.7141427842
 10
20.5790330978
 20
9.7680555385
 10
20.5486134405
 20
9.8215133536
 10
20.5175126096
 20
9.8745037126
 10
20.4857429135
 20
9.9270045117
 10
20.4533170871
 20
9.9789934092
 10
20.4202421304
 20
10.030457327
 10
20.386524632
 20
10.0813831967
 10
20.3521833246
 20
10.131739777
 10
20.3172439256
 20
10.1814874778
 10
20.2817262479
 20
10.2305972138
 10
20.2456385204
 20
10.2790565685
 10
20.2089895611
 20
10.3268518419
 10
20.1717974754
 20
10.37395734
 10
20.1340724524
 20
10.4203579262
 10
20.0958104589
 20
10.4660549857
 10
20.0570116785
 20
10.5110429235
 10
20.0177031623
 20
10.5552848742
 10
19.9779211963
 20
10.5987361629
 10
19.9376848719
 20
10.6413732541
 10
19.8970050393
 20
10.6831818094
 10
19.8559064989
 20
10.7241335951
 10
19.8144196685
 20
10.7641965366
 10
19.7725451854
 20
10.8033680791
 10
19.7302621844
 20
10.8416633338
 10
19.6875625713
 20
10.87908246
 10
19.6444833514
 20
10.915585695
 10
19.6010707337
 20
10.9511287085
 10
19.5573345034
 20
10.9856992281
 10
19.5132958373
 20
11.0192760672
 10
19.4690191195
 20
11.0518077623
 10
19.4400139523
 20
11.0723235937
  0
LINE
  5
468
100
AcDbEntity
  8
RACCORDO
100
AcDbLine
 62
7
  6
CONTINUOUS
 10
0.6534797551
 20
-25.0641341463
 11
0.6495684938
 21
-25.0660521409
  0
LINE
  5
469
100
AcDbEntity
  8
RACCORDO
100
AcDbLine
 62
250
  6
CONTINUOUS
 10
-0.9044365129
 20
-25.6784910973
 11
0.7174636137
 21
-24.9294438709
  0
LINE
  5
46A
100
AcDbEntity
  8
RACCORDO
100
AcDbLine
 62
7
  6
CONTINUOUS
 10
-0.973281428
 20
-25.8155380142
 11
0.6495694666
 21
-25.0660516916
  0
LWPOLYLINE
  5
46B
100
AcDbEntity
  8
RACCORDO
100
AcDbPolyline
 62
250
  6
CONTINUOUS
 90
13
 70
0
 10
-0.9044365129
 20
-25.3612222969
 10
-0.9291032757
 20
-25.3716786814
 10
-0.9562631728
 20
-25.3804555412
 10
-0.9854617462
 20
-25.387406016
 10
-1.0162104252
 20
-25.3924138055
 10
-1.0479947018
 20
-25.3953951161
 10
-1.0802827394
 20
-25.3963000622
 10
-1.1125342725
 20
-25.3951135019
 10
-1.1442096461
 20
-25.3918552894
 10
-1.174778846
 20
-25.3865799433
 10
-1.2037303673
 20
-25.3793757345
 10
-1.2305797732
 20
-25.3703632086
 10
-1.2548778009
 20
-25.3596931695
  0
LWPOLYLINE
  5
46C
100
AcDbEntity
  8
RACCORDO
100
AcDbPolyline
 62
250
  6
CONTINUOUS
 90
13
 70
0
 10
-0.9044365129
 20
-25.6784910973
 10
-0.9291032757
 20
-25.6889474817
 10
-0.9562631728
 20
-25.6977243416
 10
-0.9854617462
 20
-25.7046748163
 10
-1.0162104252
 20
-25.7096826059
 10
-1.0479947018
 20
-25.7126639164
 10
-1.0802827394
 20
-25.7135688626
 10
-1.1125342725
 20
-25.7123823023
 10
-1.1442096461
 20
-25.7091240897
 10
-1.174778846
 20
-25.7038487437
 10
-1.2037303673
 20
-25.6966445348
 10
-1.2305797732
 20
-25.687632009
 10
-1.2548778009
 20
-25.6769619699
  0
LWPOLYLINE
  5
46D
100
AcDbEntity
  8
RACCORDO
100
AcDbPolyline
 62
7
  6
CONTINUOUS
 90
4
 70
0
 10
-3.8623208882
 20
24.3201006223
 10
-3.8813262179
 20
24.3161313722
 10
-3.902622429
 20
24.3108021456
 10
-3.9260385403
 20
24.304198706
  0
LINE
  5
46E
100
AcDbEntity
  8
0
100
AcDbLine
 62
7
  6
CONTINUOUS
 10
-2.5163012966
 20
22.8995815161
 11
-1.1563693564
 21
22.9733297035
  0
LWPOLYLINE
  5
46F
100
AcDbEntity
  8
RACCORDO
100
AcDbPolyline
 62
7
  6
CONTINUOUS
 90
8
 70
0
 10
-4.513045672
 20
24.5997318363
 10
-4.4874074045
 20
24.6049615793
 10
-4.4598758808
 20
24.6068942222
 10
-4.4306300124
 20
24.6054498721
 10
-4.3998688143
 20
24.6005178889
 10
-4.3677921773
 20
24.5920721196
 10
-4.334597355
 20
24.5801688497
 10
-4.3003755906
 20
24.5646451171
  0
ARC
  5
470
100
AcDbEntity
  8
RACCORDO
100
AcDbCircle
 62
7
  6
CONTINUOUS
 10
18.1260368749
 20
-10.1385060587
 40
1.0
100
AcDbArc
 50
297.8705327823
 51
305.9325229885
  0
ARC
  5
471
100
AcDbEntity
  8
RACCORDO
100
AcDbCircle
 62
7
  6
CONTINUOUS
 10
18.4400139523
 20
12.3872288308
 40
1.0
100
AcDbArc
 50
0.0
 51
63.4353677904
  0
ARC
  5
472
100
AcDbEntity
  8
RACCORDO
100
AcDbCircle
 62
7
  6
CONTINUOUS
 10
-2.1051239784
 20
24.8385736222
 40
1.0
100
AcDbArc
 50
63.4349373369
 51
115.2504241015
  0
ARC
  5
473
100
AcDbEntity
  8
RACCORDO
100
AcDbCircle
 62
7
  6
CONTINUOUS
 10
11.1060937645
 20
18.2329647508
 40
1.0
100
AcDbArc
 50
30.1049527557
 51
63.4349488229
  0
ARC
  5
474
100
AcDbEntity
  8
RACCORDO
100
AcDbCircle
 62
7
  6
CONTINUOUS
 10
-1.0781011056
 20
-25.5885736222
 40
0.25
100
AcDbArc
 50
243.4330900851
 51
294.7873239191
  0
ARC
  5
475
100
AcDbEntity
  8
RACCORDO
100
AcDbCircle
 62
7
  6
CONTINUOUS
 10
1.0663821524
 20
-24.5678635682
 40
0.25
100
AcDbArc
 50
297.4127097356
 51
359.9698295391
  0
ARC
  5
476
100
AcDbEntity
  8
RACCORDO
100
AcDbCircle
 62
7
  6
CONTINUOUS
 10
-2.3660084572
 20
-24.9446199464
 40
0.25
100
AcDbArc
 50
180.0
 51
243.4294585777
  0
ARC
  5
477
100
AcDbEntity
  8
RACCORDO
100
AcDbCircle
 62
7
  6
CONTINUOUS
 10
-12.297936012
 20
24.1051745753
 40
0.25
100
AcDbArc
 50
0.0322420695
 51
63.4821924933
  0
ARC
  5
478
100
AcDbEntity
  8
RACCORDO
100
AcDbCircle
 62
7
  6
CONTINUOUS
 10
-14.44241927
 20
22.7104583997
 40
0.25
100
AcDbArc
 50
243.4349488229
 51
258.0263987366
  0
ARC
  5
479
100
AcDbEntity
  8
RACCORDO
100
AcDbCircle
 62
7
  6
CONTINUOUS
 10
-15.7303266216
 20
23.3544120756
 40
0.25
100
AcDbArc
 50
180.0
 51
243.5183179602
  0
ARC
  5
47A
100
AcDbEntity
  8
RACCORDO
100
AcDbCircle
 62
7
  6
CONTINUOUS
 10
-15.7303266216
 20
23.6716808759
 40
0.25
100
AcDbArc
 50
118.3089828694
 51
179.971830035
  0
ARC
  5
47B
100
AcDbEntity
  8
RACCORDO
100
AcDbCircle
 62
7
  6
CONTINUOUS
 10
-13.6321691925
 20
24.7722911655
 40
0.25
100
AcDbArc
 50
63.3942221284
 51
115.6760562404
  0
ARC
  5
47C
100
AcDbEntity
  8
RACCORDO
100
AcDbCircle
 62
7
  6
CONTINUOUS
 10
-2.3660084572
 20
16.6722529934
 40
0.25
100
AcDbArc
 50
179.9569854598
 51
243.4349488229
  0
ARC
  5
47D
100
AcDbEntity
  8
RACCORDO
100
AcDbCircle
 62
7
  6
CONTINUOUS
 10
-2.3660084572
 20
16.9895217937
 40
0.25
100
AcDbArc
 50
118.3490262388
 51
180.0
  0
ARC
  5
47E
100
AcDbEntity
  8
RACCORDO
100
AcDbCircle
 62
7
  6
CONTINUOUS
 10
-0.267851028
 20
18.0901320833
 40
0.25
100
AcDbArc
 50
63.4349488229
 51
115.718054267
  0
ARC
  5
47F
100
AcDbEntity
  8
RACCORDO
100
AcDbCircle
 62
7
  6
CONTINUOUS
 10
1.0663821524
 20
17.4230154931
 40
0.25
100
AcDbArc
 50
0.0
 51
63.4301254848
  0
ARC
  5
480
100
AcDbEntity
  8
RACCORDO
100
AcDbCircle
 62
7
  6
CONTINUOUS
 10
-1.0781011056
 20
16.0282993175
 40
0.25
100
AcDbArc
 50
243.4349488229
 51
258.0263987366
  0
ELLIPSE
  5
481
100
AcDbEntity
  8
RACCORDO
100
AcDbEllipse
 62
7
  6
CONTINUOUS
 10
-1.9342083582
 20
-5.6907199981
 30
0.0
 11
-0.0894323102
 21
0.1788913307
 31
0.0
 40
0.6125552124
 41
-2.255296188
 42
-0.6848044477
  0
ELLIPSE
  5
482
100
AcDbEntity
  8
RACCORDO
100
AcDbEllipse
 62
7
  6
CONTINUOUS
 10
-2.721932207
 20
-24.3515652422
 30
0.0
 11
-0.2234618187
 21
0.4480306886
 31
0.0
 40
0.6116748051
 41
-3.1815309152
 42
-2.2548620396
  0
ELLIPSE
  5
483
100
AcDbEntity
  8
RACCORDO
100
AcDbEllipse
 62
7
  6
CONTINUOUS
 10
-0.1487745069
 20
-4.1387052329
 30
0.0
 11
-0.1342227602
 21
0.2683519429
 31
0.0
 40
0.6122950388
 41
-3.1553778956
 42
-2.2557482655
  0
ELLIPSE
  5
484
100
AcDbEntity
  8
RACCORDO
100
AcDbEllipse
 62
7
  6
CONTINUOUS
 10
5.9741666442
 20
19.0397038196
 30
0.0
 11
0.499996712
 21
0.0035883639
 31
0.0
 40
0.5053247124
 41
-0.7715714568
 42
-0.0036265857
  0
ELLIPSE
  5
485
100
AcDbEntity
  8
RACCORDO
100
AcDbEllipse
 62
7
  6
CONTINUOUS
 10
-5.4647033941
 20
24.6911902337
 30
0.0
 11
1.0116774437
 21
0.6103065281
 31
0.0
 40
0.0919428418
 41
0.0581346364
 42
0.7341271448
  0
ELLIPSE
  5
486
100
AcDbEntity
  8
RACCORDO
100
AcDbEllipse
 62
7
  6
CONTINUOUS
 10
5.9803918059
 20
-17.9460249105
 30
0.0
 11
0.9860666682
 21
0.6239842599
 31
0.0
 40
0.0707077564
 41
-2.4055034258
 42
-1.1320006277
  0
ELLIPSE
  5
487
100
AcDbEntity
  8
RACCORDO
100
AcDbEllipse
 62
7
  6
CONTINUOUS
 10
1.4245165388
 20
15.3836676298
 30
0.0
 11
-0.2237046003
 21
0.4472532382
 31
0.0
 40
0.6122950388
 41
-2.2557482655
 42
-0.6847996396
  0
ELLIPSE
  5
488
100
AcDbEntity
  8
RACCORDO
100
AcDbEllipse
 62
7
  6
CONTINUOUS
 10
1.4245165388
 20
-22.5330967007
 30
0.0
 11
-0.2236445579
 21
0.4471998343
 31
0.0
 40
0.6124778111
 41
-3.1449090158
 42
-2.255529033
  0
ELLIPSE
  5
489
100
AcDbEntity
  8
RACCORDO
100
AcDbEllipse
 62
7
  6
CONTINUOUS
 10
1.3185043777
 20
20.4749019235
 30
0.0
 11
0.4169011701
 21
-0.0029496698
 31
0.0
 40
0.4946372042
 41
-0.7731718616
 42
0.0034996721
  0
ELLIPSE
  5
48A
100
AcDbEntity
  8
RACCORDO
100
AcDbEllipse
 62
7
  6
CONTINUOUS
 10
5.9803918059
 20
18.9686426337
 30
0.0
 11
-0.7289505922
 21
1.2073301804
 31
0.0
 40
0.551225497
 41
4.9688148211
 42
6.2423176192
  0
ELLIPSE
  5
48B
100
AcDbEntity
  8
RACCORDO
100
AcDbEllipse
 62
7
  6
CONTINUOUS
 10
-4.4152857034
 20
17.6759371938
 30
0.0
 11
0.4999863728
 21
0.0072295547
 31
0.0
 40
0.5106100819
 41
-2.3635775243
 42
-0.81023449
  0
ELLIPSE
  5
48C
100
AcDbEntity
  8
RACCORDO
100
AcDbEllipse
 62
7
  6
CONTINUOUS
 10
-4.4152857034
 20
18.8883727591
 30
0.0
 11
0.4999863728
 21
0.0072295547
 31
0.0
 40
0.5106100819
 41
-2.3635775243
 42
-0.81023449
  0
ELLIPSE
  5
48D
100
AcDbEntity
  8
RACCORDO
100
AcDbEllipse
 62
7
  6
CONTINUOUS
 10
-9.9182682897
 20
20.4274284869
 30
0.0
 11
0.4999863728
 21
0.0072295547
 31
0.0
 40
0.5106100819
 41
3.1342096197
 42
3.9196077829
  0
ELLIPSE
  5
48E
100
AcDbEntity
  8
RACCORDO
100
AcDbEllipse
 62
7
  6
CONTINUOUS
 10
-4.2208339901
 20
23.2445711074
 30
0.0
 11
0.4169011701
 21
-0.0029496698
 31
0.0
 40
0.4946372042
 41
-0.7818985079
 42
0.0034996713
  0
ELLIPSE
  5
48F
100
AcDbEntity
  8
RACCORDO
100
AcDbEllipse
 62
7
  6
CONTINUOUS
 10
5.9741666442
 20
19.7545589609
 30
0.0
 11
-0.3772822612
 21
0.5967599694
 31
0.0
 40
0.5498239621
 41
-3.1937314545
 42
-2.0499251482
  0
ELLIPSE
  5
490
100
AcDbEntity
  8
RACCORDO
100
AcDbEllipse
 62
7
  6
CONTINUOUS
 10
-0.3741069011
 20
-23.4204461568
 30
0.0
 11
-0.2236445579
 21
0.4471998343
 31
0.0
 40
0.6124778111
 41
2.8556890097
 42
4.0276562742
  0
ELLIPSE
  5
491
100
AcDbEntity
  8
RACCORDO
100
AcDbEllipse
 62
7
  6
CONTINUOUS
 10
5.9741666442
 20
-18.0186092948
 30
0.0
 11
0.4995259713
 21
0.3159648555
 31
0.0
 40
0.0688906958
 41
5.8637760313
 42
7.0075823377
  0
ELLIPSE
  5
492
100
AcDbEntity
  8
RACCORDO
100
AcDbEllipse
 62
7
  6
CONTINUOUS
 10
-9.9182682897
 20
21.6398640522
 30
0.0
 11
0.4999863728
 21
0.0072295547
 31
0.0
 40
0.5106100819
 41
8.6494500558
 42
10.2027930901
  0
ELLIPSE
  5
493
100
AcDbEntity
  8
RACCORDO
100
AcDbEllipse
 62
7
  6
CONTINUOUS
 10
-0.3741069011
 20
14.5341066198
 30
0.0
 11
-0.2237046003
 21
0.4472532382
 31
0.0
 40
0.6122950388
 41
4.0274370417
 42
5.1994043061
  0
ELLIPSE
  5
494
100
AcDbEntity
  8
RACCORDO
100
AcDbEllipse
 62
7
  6
CONTINUOUS
 10
-13.0348805171
 20
8.55392234
 30
0.0
 11
13.7437041523
 21
6.9194449042
 31
0.0
 40
0.0205993854
 41
5.899563418
 42
6.2633281778
  0
ELLIPSE
  5
495
100
AcDbEntity
  8
RACCORDO
100
AcDbEllipse
 62
7
  6
CONTINUOUS
 10
-13.722969894
 20
21.788111806
 30
0.0
 11
0.2499931864
 21
0.0036147773
 31
0.0
 40
0.5106100819
 41
-2.3635775243
 42
-0.81023449
  0
ELLIPSE
  5
496
100
AcDbEntity
  8
RACCORDO
100
AcDbEllipse
 62
7
  6
CONTINUOUS
 10
-15.0355624352
 20
22.4444080766
 30
0.0
 11
0.2499931864
 21
0.0036147773
 31
0.0
 40
0.5106100819
 41
3.1342096197
 42
3.9196077829
  0
ELLIPSE
  5
497
100
AcDbEntity
  8
RACCORDO
100
AcDbEllipse
 62
7
  6
CONTINUOUS
 10
-27.6000276156
 20
15.8364958892
 30
0.0
 11
13.2723905096
 21
7.1551605682
 31
0.0
 40
0.0214524762
 41
0.3708579951
 42
0.4140605113
  0
ELLIPSE
  5
498
100
AcDbEntity
  8
RACCORDO
100
AcDbEllipse
 62
7
  6
CONTINUOUS
 10
-15.3736606543
 20
22.0338834964
 30
0.0
 11
-0.2236445579
 21
0.4471998343
 31
0.0
 40
0.6124778111
 41
-0.2859036439
 42
0.7289660646
  0
ELLIPSE
  5
499
100
AcDbEntity
  8
RACCORDO
100
AcDbEllipse
 62
7
  6
CONTINUOUS
 10
-1.6712442708
 20
15.7622489943
 30
0.0
 11
0.2499931864
 21
0.0036147773
 31
0.0
 40
0.5106100819
 41
3.1342096197
 42
3.9196077829
  0
ELLIPSE
  5
49A
100
AcDbEntity
  8
RACCORDO
100
AcDbEllipse
 62
7
  6
CONTINUOUS
 10
-0.3586517296
 20
15.1059527237
 30
0.0
 11
0.2499931864
 21
0.0036147773
 31
0.0
 40
0.5106100819
 41
-2.3635775243
 42
-0.81023449
  0
ELLIPSE
  5
49B
100
AcDbEntity
  8
RACCORDO
100
AcDbEllipse
 62
7
  6
CONTINUOUS
 10
17.1030013764
 20
13.0557351188
 30
0.0
 11
0.7964780511
 21
0.7125399777
 31
0.0
 40
0.2888664458
 41
0.1139832127
 42
0.7812491238
  0
ELLIPSE
  5
49C
100
AcDbEntity
  8
RACCORDO
100
AcDbEllipse
 62
7
  6
CONTINUOUS
 10
13.4647252359
 20
14.8748731891
 30
0.0
 11
-0.309899001
 21
1.1085475855
 31
0.0
 40
0.6753891016
 41
5.1426477536
 42
6.4012160802
  0
ELLIPSE
  5
49D
100
AcDbEntity
  8
0
100
AcDbEllipse
 62
7
  6
CONTINUOUS
 10
12.4200808423
 20
12.3486273088
 30
0.0
 11
2.7499924258
 21
-0.0130015067
 31
0.0
 40
0.4964289597
 41
0.1776305057
 42
1.5468524745
  0
ELLIPSE
  5
49E
100
AcDbEntity
  8
RACCORDO
100
AcDbEllipse
 62
7
  6
CONTINUOUS
 10
-5.8745547025
 20
20.4153416043
 30
0.0
 11
1.2141619185
 21
0.9541526469
 31
0.0
 40
0.2329077568
 41
0.1095198182
 42
0.114024621
  0
ENDSEC
  0
SECTION
  2
OBJECTS
  0
DICTIONARY
  5
C
100
AcDbDictionary
280
0
281
1
  3
ACAD_GROUP
350
D
  3
ACAD_MLINESTYLE
350
17
  3
ACAD_LAYOUT
350
1A
  3
ACAD_PLOTSETTINGS
350
19
  3
ACAD_PLOTSTYLENAME
350
E
  0
DICTIONARY
  5
D
102
{ACAD_REACTORS
330
C
102
}
100
AcDbDictionary
280
0
281
1
  0
ACDBDICTIONARYWDFLT
  5
E
102
{ACAD_REACTORS
330
C
102
}
100
AcDbDictionary
281
1
  3
Normal
350
F
100
AcDbDictionaryWithDefault
340
F
  0
DICTIONARY
  5
17
102
{ACAD_REACTORS
330
C
102
}
100
AcDbDictionary
280
0
281
1
  3
Standard
350
18
  0
DICTIONARY
  5
19
102
{ACAD_REACTORS
330
C
102
}
100
AcDbDictionary
281
1
  0
DICTIONARY
  5
1A
102
{ACAD_REACTORS
330
C
102
}
100
AcDbDictionary
281
1
  3
Model
350
49F
  3
Layout1
350
4A0
  0
ACDBPLACEHOLDER
  5
F
102
{ACAD_REACTORS
330
E
102
}
  0
MLINESTYLE
  5
18
102
{ACAD_REACTORS
330
17
102
}
100
AcDbMlineStyle
  2
STANDARD
 70
0
  3

 62
256
 51
90.0
 52
90.0
 71
2
 49
0.5
 62
256
  6
BYLAYER
 49
-0.5
 62
256
  6
BYLAYER
  0
LAYOUT
  5
49F
102
{ACAD_REACTORS
330
1A
102
}
100
AcDbPlotSettings
  1

  2
none_device
  4
ISO_A4_(297.00_x_210.00_MM)
  6

 40
0.0
 41
0.0
 42
0.0
 43
0.0
 44
297.0
 45
210.0
 46
0.0
 47
0.0
 48
0.0
 49
0.0
140
0.0
141
0.0
142
1.0
143
1.0
 70
1024
 72
1
 73
0
 74
0
  7

 75
0
147
1.0
148
0.0
149
0.0
100
AcDbLayout
  1
Model
 70
0
 71
0
 10
0.0
 20
0.0
 11
297.0
 21
210.0
 12
0.0
 22
0.0
 32
0.0
 14
0.0
 24
0.0
 34
0.0
 15
0.0
 25
0.0
 35
0.0
146
0.0
 13
0.0
 23
0.0
 33
0.0
 16
1.0
 26
0.0
 36
0.0
 17
0.0
 27
1.0
 37
0.0
 76
0
330
21D
345
0
346
0
  0
LAYOUT
  5
4A0
102
{ACAD_REACTORS
330
1A
102
}
100
AcDbPlotSettings
  1

  2
none_device
  4
ISO_A4_(297.00_x_210.00_MM)
  6

 40
0.0
 41
0.0
 42
0.0
 43
0.0
 44
297.0
 45
210.0
 46
0.0
 47
0.0
 48
0.0
 49
0.0
140
0.0
141
0.0
142
1.0
143
1.0
 70
0
 72
1
 73
0
 74
0
  7

 75
0
147
1.0
148
0.0
149
0.0
100
AcDbLayout
  1
Layout1
 70
0
 71
1
 10
0.0
 20
0.0
 11
297.0
 21
210.0
 12
0.0
 22
0.0
 32
0.0
 14
0.0
 24
0.0
 34
0.0
 15
0.0
 25
0.0
 35
0.0
146
0.0
 13
0.0
 23
0.0
 33
0.0
 16
1.0
 26
0.0
 36
0.0
 17
0.0
 27
1.0
 37
0.0
 76
0
330
21E
345
0
346
0
  0
ENDSEC
  0
EOF
