  0
SECTION
  2
HEADER
  9
$ACADVER
  1
AC1024
  9
$DWGCODEPAGE
  3
ANSI_1252
  9
$EXTMAX
 10
558.8
 20
431.8
 30
0.0
  9
$EXTMIN
 10
0.0
 20
0.0
 30
0.0
  9
$LIMMIN
 10
0.0
 20
0.0
  9
$LIMMAX
 10
558.8
 20
431.8
  9
$VIEWCTR
 10
279.4
 20
215.9
  9
$VIEWSIZE
 40
431.8
  9
$CLAYER
  8
0
  9
$LTSCALE
 40
30.734
  9
$CELTYPE
  6
BYLAYER
  9
$DIMSCALE
 40
1.0
  9
$DIMASZ
 40
3.0
  9
$DIMEXO
 40
0.5
  9
$DIMDLI
 40
21.2344
  9
$DIMEXE
 40
1.5
  9
$DIMCEN
 40
5.0292
  9
$DIMLFAC
 40
1.0
  9
$DIMBLK
  1
_FILLED
  9
$DIMALT
 70
0
  9
$DIMALTF
 40
0.0393700787
  9
$DIMTXT
 40
3.0
  9
$DIMTOL
 70
1
  9
$DIMLIM
 70
0
  9
$DIMTFAC
 40
1.0
  9
$DIMTP
 40
0.01
  9
$DIMTM
 40
0.01
  9
$DIMGAP
 40
0.625
  9
$DIMDSEP
 70
44
  9
$AUNITS
 70
0
  9
$PDMODE
 70
3
  9
$PDSIZE
 40
3.0
  9
$HANDSEED
  5
4C6
  9
$TILEMODE
 70
1
  9
$MEASUREMENT
 70
1
  9
$INSUNITS
 70
4
  0
ENDSEC
  0
SECTION
  2
CLASSES
  0
CLASS
  1
ACDBDICTIONARYWDFLT
  2
AcDbDictionaryWithDefault
  3
AutoCAD 2000
 90
0
 91
1
280
0
281
0
  0
CLASS
  1
ACDBPLACEHOLDER
  2
AcDbPlaceHolder
  3
AutoCAD 2000
 90
0
 91
1
280
0
281
0
  0
CLASS
  1
LAYOUT
  2
AcDbLayout
  3
AutoCAD 2000
 90
0
 91
0
280
0
281
0
  0
ENDSEC
  0
SECTION
  2
TABLES
  0
TABLE
  2
VPORT
  5
8
100
AcDbSymbolTable
 70
2
  0
VPORT
  5
1F4
100
AcDbSymbolTableRecord
100
AcDbViewportTableRecord
  2
*ACTIVE
 70
0
 10
0.0
 20
0.0
 11
1.0
 21
1.0
 12
279.4
 22
215.9
 13
0.0
 23
0.0
 14
1.0
 24
1.0
 15
0.0
 25
0.0
 16
0.0
 26
0.0
 36
1.0
 17
0.0
 27
0.0
 37
0.0
 40
431.8
 41
1.2941176471
 42
50.0
 43
0.0
 44
0.0
 50
0.0
 51
0.0
 71
0
 72
100
 73
1
 74
1
 75
0
 76
0
 77
0
 78
0
  0
ENDTAB
  0
TABLE
  2
LTYPE
  5
5
100
AcDbSymbolTable
 70
6
  0
LTYPE
  5
14
100
AcDbSymbolTableRecord
100
AcDbLinetypeTableRecord
  2
BYBLOCK
 70
0
  3

 72
65
 73
0
 40
0.0
  0
LTYPE
  5
15
100
AcDbSymbolTableRecord
100
AcDbLinetypeTableRecord
  2
BYLAYER
 70
0
  3

 72
65
 73
0
 40
0.0
  0
LTYPE
  5
16
100
AcDbSymbolTableRecord
100
AcDbLinetypeTableRecord
  2
CONTINUOUS
 70
64
  3
Solid line
 72
65
 73
0
 40
0.0
  0
LTYPE
  5
1F5
100
AcDbSymbolTableRecord
100
AcDbLinetypeTableRecord
  2
CENTER
 70
64
  3
____ _ ____ _ ____ _ ____ _ ____ _ ____ _ ____
 72
65
 73
4
 40
0.6
 49
0.375
 74
0
 49
-0.075
 74
0
 49
0.075
 74
0
 49
-0.075
 74
0
  0
LTYPE
  5
1F6
100
AcDbSymbolTableRecord
100
AcDbLinetypeTableRecord
  2
HIDDEN
 70
64
  3
- - - - - - - - - - - - - - - - - - - -
 72
65
 73
2
 40
0.2
 49
0.1
 74
0
 49
-0.1
 74
0
  0
LTYPE
  5
1F7
100
AcDbSymbolTableRecord
100
AcDbLinetypeTableRecord
  2
PHANTOM
 70
64
  3
_____ _ _ _____ _ _ _____ _ _ _____
 72
65
 73
6
 40
0.8
 49
0.45
 74
0
 49
-0.05
 74
0
 49
0.1
 74
0
 49
-0.05
 74
0
 49
0.1
 74
0
 49
-0.05
 74
0
  0
LTYPE
  5
1F8
100
AcDbSymbolTableRecord
100
AcDbLinetypeTableRecord
  2
DOT
 70
64
  3
. . . . . . . . . . . . . . . . . . . .
 72
65
 73
2
 40
0.2
 49
0.1
 74
0
 49
-0.1
 74
0
  0
LTYPE
  5
1F9
100
AcDbSymbolTableRecord
100
AcDbLinetypeTableRecord
  2
DASHED
 70
64
  3
- - - - - - - - - - - - - - - - - - - -
 72
65
 73
2
 40
0.2
 49
0.1
 74
0
 49
-0.1
 74
0
  0
ENDTAB
  0
TABLE
  2
LAYER
  5
2
100
AcDbSymbolTable
 70
36
  0
LAYER
  5
10
100
AcDbSymbolTableRecord
100
AcDbLayerTableRecord
  2
0
 70
0
 62
7
  6
CONTINUOUS
370
-3
390
F
  0
LAYER
  5
1FA
100
AcDbSymbolTableRecord
100
AcDbLayerTableRecord
  2
DEFAULT_1
 70
0
 62
7
  6
CENTER
370
-3
390
F
  0
LAYER
  5
1FB
100
AcDbSymbolTableRecord
100
AcDbLayerTableRecord
  2
DEFAULT_2
 70
0
 62
7
  6
HIDDEN
370
-3
390
F
  0
LAYER
  5
1FC
100
AcDbSymbolTableRecord
100
AcDbLayerTableRecord
  2
DEFAULT_3
 70
0
 62
7
  6
PHANTOM
370
-3
390
F
  0
LAYER
  5
1FD
100
AcDbSymbolTableRecord
100
AcDbLayerTableRecord
  2
ASSI
 70
0
 62
7
  6
CONTINUOUS
370
-3
390
F
  0
LAYER
  5
1FE
100
AcDbSymbolTableRecord
100
AcDbLayerTableRecord
  2
COORDINATE
 70
0
 62
7
  6
CONTINUOUS
370
-3
390
F
  0
LAYER
  5
1FF
100
AcDbSymbolTableRecord
100
AcDbLayerTableRecord
  2
COORD_ORIGINE
 70
0
 62
7
  6
CONTINUOUS
370
-3
390
F
  0
LAYER
  5
200
100
AcDbSymbolTableRecord
100
AcDbLayerTableRecord
  2
COSMETICHE
 70
0
 62
7
  6
CONTINUOUS
370
-3
390
F
  0
LAYER
  5
201
100
AcDbSymbolTableRecord
100
AcDbLayerTableRecord
  2
CURVE
 70
0
 62
7
  6
CONTINUOUS
370
-3
390
F
  0
LAYER
  5
202
100
AcDbSymbolTableRecord
100
AcDbLayerTableRecord
  2
DRAFT
 70
0
 62
7
  6
CONTINUOUS
370
-3
390
F
  0
LAYER
  5
203
100
AcDbSymbolTableRecord
100
AcDbLayerTableRecord
  2
IMPORTED
 70
0
 62
7
  6
CONTINUOUS
370
-3
390
F
  0
LAYER
  5
204
100
AcDbSymbolTableRecord
100
AcDbLayerTableRecord
  2
INTF_1
 70
0
 62
7
  6
CONTINUOUS
370
-3
390
F
  0
LAYER
  5
205
100
AcDbSymbolTableRecord
100
AcDbLayerTableRecord
  2
INTF_11
 70
0
 62
7
  6
CONTINUOUS
370
-3
390
F
  0
LAYER
  5
206
100
AcDbSymbolTableRecord
100
AcDbLayerTableRecord
  2
INTF_12
 70
0
 62
7
  6
CONTINUOUS
370
-3
390
F
  0
LAYER
  5
207
100
AcDbSymbolTableRecord
100
AcDbLayerTableRecord
  2
INTF_2
 70
0
 62
7
  6
CONTINUOUS
370
-3
390
F
  0
LAYER
  5
208
100
AcDbSymbolTableRecord
100
AcDbLayerTableRecord
  2
NOTE
 70
0
 62
7
  6
CONTINUOUS
370
-3
390
F
  0
LAYER
  5
209
100
AcDbSymbolTableRecord
100
AcDbLayerTableRecord
  2
PIANI
 70
0
 62
7
  6
CONTINUOUS
370
-3
390
F
  0
LAYER
  5
20A
100
AcDbSymbolTableRecord
100
AcDbLayerTableRecord
  2
PIANI_ORIGINE
 70
0
 62
7
  6
CONTINUOUS
370
-3
390
F
  0
LAYER
  5
20B
100
AcDbSymbolTableRecord
100
AcDbLayerTableRecord
  2
PIANI_RIFERIMENTO
 70
0
 62
7
  6
CONTINUOUS
370
-3
390
F
  0
LAYER
  5
20C
100
AcDbSymbolTableRecord
100
AcDbLayerTableRecord
  2
PUNTI
 70
0
 62
7
  6
CONTINUOUS
370
-3
390
F
  0
LAYER
  5
20D
100
AcDbSymbolTableRecord
100
AcDbLayerTableRecord
  2
RACCORDO
 70
0
 62
7
  6
CONTINUOUS
370
-3
390
F
  0
LAYER
  5
20E
100
AcDbSymbolTableRecord
100
AcDbLayerTableRecord
  2
RGB__255__255__255__
 70
0
 62
7
  6
CONTINUOUS
370
-3
390
F
  0
LAYER
  5
20F
100
AcDbSymbolTableRecord
100
AcDbLayerTableRecord
  2
SMUSSO
 70
0
 62
7
  6
CONTINUOUS
370
-3
390
F
  0
LAYER
  5
210
100
AcDbSymbolTableRecord
100
AcDbLayerTableRecord
  2
SNAPLINE
 70
0
 62
7
  6
CONTINUOUS
370
-3
390
F
  0
LAYER
  5
211
100
AcDbSymbolTableRecord
100
AcDbLayerTableRecord
  2
SUPERFICI
 70
0
 62
7
  6
CONTINUOUS
370
-3
390
F
  0
LAYER
  5
212
100
AcDbSymbolTableRecord
100
AcDbLayerTableRecord
  2
TRACCIABILITA
 70
0
 62
7
  6
CONTINUOUS
370
-3
390
F
  0
LAYER
  5
213
100
AcDbSymbolTableRecord
100
AcDbLayerTableRecord
  2
TRASH
 70
0
 62
7
  6
CONTINUOUS
370
-3
390
F
  0
ENDTAB
  0
TABLE
  2
STYLE
  5
3
100
AcDbSymbolTable
 70
1
  0
STYLE
  5
11
100
AcDbSymbolTableRecord
100
AcDbTextStyleTableRecord
  2
STANDARD
 70
0
 40
0.0
 41
0.8
 50
0.0
 71
0
 42
0.2
  3
txt
  4

  0
STYLE
  5
214
100
AcDbSymbolTableRecord
100
AcDbTextStyleTableRecord
  2
TEXTSTYLE_1
 70
0
 40
0.0
 41
0.8
 50
0.0
 71
0
 42
0.2
  3
gdt
  4

  0
ENDTAB
  0
TABLE
  2
VIEW
  5
6
100
AcDbSymbolTable
 70
0
  0
ENDTAB
  0
TABLE
  2
UCS
  5
7
100
AcDbSymbolTable
 70
0
  0
ENDTAB
  0
TABLE
  2
APPID
  5
9
100
AcDbSymbolTable
 70
1
  0
APPID
  5
215
100
AcDbSymbolTableRecord
100
AcDbRegAppTableRecord
  2
ACAD
 70
0
  0
ENDTAB
  0
TABLE
  2
BLOCK_RECORD
  5
1
100
AcDbSymbolTable
 70
0
  0
BLOCK_RECORD
  5
216
100
AcDbSymbolTableRecord
100
AcDbBlockTableRecord
  2
*Model_Space
  0
BLOCK_RECORD
  5
217
100
AcDbSymbolTableRecord
100
AcDbBlockTableRecord
  2
*Paper_Space
  0
BLOCK_RECORD
  5
218
100
AcDbSymbolTableRecord
100
AcDbBlockTableRecord
  2
_FILLED
  0
ENDTAB
  0
TABLE
  2
DIMSTYLE
  5
A
100
AcDbSymbolTable
 70
1
100
AcDbDimStyleTable
 71
0
  0
DIMSTYLE
105
219
100
AcDbSymbolTableRecord
100
AcDbDimStyleTableRecord
  2
STANDARD
 70
0
  3

  4

 40
1.0
 41
3.0
 42
0.5
 43
0.38
 44
1.5
 45
0.0
 46
0.0
 47
0.01
 48
0.01
140
3.0
141
0.09
142
0.0
143
25.4
144
1.0
145
0.0
146
1.0
147
0.625
 71
1
 72
0
 73
0
 74
0
 75
0
 76
0
 77
1
 78
8
 79
2
170
0
171
1
172
0
173
0
174
0
175
0
176
0
177
0
178
0
270
2
179
2
271
2
272
2
273
2
274
2
275
0
280
0
281
0
282
0
283
1
284
8
285
0
286
0
287
3
288
0
340
11
278
44
341
218
342
218
343
218
344
218
  0
ENDTAB
  0
ENDSEC
  0
SECTION
  2
BLOCKS
  0
BLOCK
  5
20
100
AcDbEntity
  8
0
100
AcDbBlockBegin
  2
*Model_Space
 70
0
 10
0.0
 20
0.0
 30
0.0
  3
*Model_Space
  1

  0
ENDBLK
  5
21
100
AcDbEntity
  8
0
100
AcDbBlockEnd
  0
BLOCK
  5
1C
100
AcDbEntity
  8
0
100
AcDbBlockBegin
  2
*Paper_Space
 70
0
 10
0.0
 20
0.0
 30
0.0
  3
*Paper_Space
  1

  0
ENDBLK
  5
1D
100
AcDbEntity
  8
0
100
AcDbBlockEnd
  0
BLOCK
  5
21A
100
AcDbEntity
  8
0
100
AcDbBlockBegin
  2
_FILLED
 70
64
 10
0.0
 20
0.0
  3
_FILLED
  1

  0
SOLID
  5
21B
100
AcDbEntity
  8
0
  6
BYBLOCK
 62
0
100
AcDbTrace
 10
0.0
 20
0.0
 11
-1.0
 21
0.3166666667
 12
-1.0
 22
-0.3166666667
 13
-1.0
 23
-0.3166666667
  0
ENDBLK
  5
21C
100
AcDbEntity
  8
0
  6
BYBLOCK
 62
0
100
AcDbBlockEnd
  0
ENDSEC
  0
SECTION
  2
ENTITIES
  0
LINE
  5
21D
100
AcDbEntity
  8
ASSI
100
AcDbLine
 62
7
  6
CONTINUOUS
 10
-28.6600950499
 20
-20.9407654776
 11
-30.0743086123
 21
-20.2336586964
  0
LINE
  5
21E
100
AcDbEntity
  8
ASSI
100
AcDbLine
 62
250
  6
CONTINUOUS
 10
-29.0499348285
 20
-20.129454777
 11
-30.4641483908
 21
-19.4223479958
  0
LWPOLYLINE
  5
21F
100
AcDbEntity
  8
ASSI
100
AcDbPolyline
 62
7
  6
CONTINUOUS
 90
14
 70
0
 10
-30.074286206
 20
-20.2336138547
 10
-30.1313573925
 20
-20.2008385741
 10
-30.1819056791
 20
-20.1635487794
 10
-30.229112338
 20
-20.1202502243
 10
-30.2723301671
 20
-20.0715365312
 10
-30.3115042284
 20
-20.0173331178
 10
-30.3466894598
 20
-19.9577145663
 10
-30.3774034727
 20
-19.8934982457
 10
-30.4035846853
 20
-19.8246208313
 10
-30.4252946793
 20
-19.7511456477
 10
-30.4422358112
 20
-19.6740800381
 10
-30.4543088665
 20
-19.5937597834
 10
-30.4616130597
 20
-19.5098491026
 10
-30.4641483908
 20
-19.4223479958
  0
LWPOLYLINE
  5
220
100
AcDbEntity
  8
ASSI
100
AcDbPolyline
 62
7
  6
CONTINUOUS
 90
14
 70
0
 10
-28.6600726437
 20
-20.9407206359
 10
-28.7171438302
 20
-20.9079453553
 10
-28.7676921168
 20
-20.8706555605
 10
-28.8148987757
 20
-20.8273570055
 10
-28.8581166047
 20
-20.7786433124
 10
-28.897290666
 20
-20.724439899
 10
-28.9324758975
 20
-20.6648213475
 10
-28.9631899103
 20
-20.6006050269
 10
-28.9893711229
 20
-20.5317276124
 10
-29.0110811169
 20
-20.4582524289
 10
-29.0280222488
 20
-20.3811868192
 10
-29.0400953041
 20
-20.3008665646
 10
-29.0473994973
 20
-20.2169558838
 10
-29.0499348285
 20
-20.129454777
  0
LINE
  5
221
100
AcDbEntity
  8
ASSI
100
AcDbLine
 62
7
  6
CONTINUOUS
 10
-30.4641483908
 20
-19.4223479958
 11
-30.4641483908
 21
-10.543666773
  0
LINE
  5
222
100
AcDbEntity
  8
ASSI
100
AcDbLine
 62
7
  6
CONTINUOUS
 10
-29.0499348285
 20
-20.129454777
 11
-29.0499348285
 21
-11.2507735542
  0
LWPOLYLINE
  5
223
100
AcDbEntity
  8
ASSI
100
AcDbPolyline
 62
7
  6
CONTINUOUS
 90
19
 70
0
 10
-30.4641483908
 20
-10.543666773
 10
-30.4616130597
 20
-10.453630335
 10
-30.4543088665
 20
-10.362415461
 10
-30.4422358112
 20
-10.270022151
 10
-30.4252946793
 20
-10.1760154095
 10
-30.4035846853
 20
-10.0808302319
 10
-30.3774034727
 20
-9.9857716049
 10
-30.3466894598
 20
-9.8908412714
 10
-30.3115042284
 20
-9.7960374885
 10
-30.2723301671
 20
-9.7026600137
 10
-30.229112338
 20
-9.6107284916
 10
-30.1819056791
 20
-9.5202232777
 10
-30.1313573925
 20
-9.4323851964
 10
-30.0774214543
 20
-9.3472509818
 10
-30.0201438884
 20
-9.2647838998
 10
-29.9603099689
 20
-9.1861145721
 10
-29.8981814539
 20
-9.1116198728
 10
-29.8334965852
 20
-9.0409229277
 10
-29.766255363
 20
-8.974023737
  0
LWPOLYLINE
  5
224
100
AcDbEntity
  8
ASSI
100
AcDbPolyline
 62
7
  6
CONTINUOUS
 90
19
 70
0
 10
-29.0499348285
 20
-11.2507735542
 10
-29.0473994973
 20
-11.1607371162
 10
-29.0400953041
 20
-11.0695222422
 10
-29.0280222488
 20
-10.9771289322
 10
-29.0110811169
 20
-10.8831221907
 10
-28.9893711229
 20
-10.7879370131
 10
-28.9631899103
 20
-10.6928783861
 10
-28.9324758975
 20
-10.5979480526
 10
-28.897290666
 20
-10.5031442697
 10
-28.8581166047
 20
-10.4097667949
 10
-28.8148987757
 20
-10.3178352728
 10
-28.7676921168
 20
-10.2273300589
 10
-28.7171438302
 20
-10.1394919776
 10
-28.663207892
 20
-10.054357763
 10
-28.605930326
 20
-9.971890681
 10
-28.5460964066
 20
-9.8932213533
 10
-28.4839678915
 20
-9.818726654
 10
-28.4192830229
 20
-9.7480297089
 10
-28.3520418006
 20
-9.6811305182
  0
LWPOLYLINE
  5
225
100
AcDbEntity
  8
RACCORDO
100
AcDbPolyline
 62
7
  6
CONTINUOUS
 90
24
 70
0
 10
-4.6815775368
 20
-28.9761132979
 10
-4.6585045833
 20
-28.9872399955
 10
-4.6260447432
 20
-29.0015405747
 10
-4.5929311789
 20
-29.0145785996
 10
-4.5591923823
 20
-29.0263313154
 10
-4.5248297909
 20
-29.0367836717
 10
-4.4898841611
 20
-29.0459077596
 10
-4.4543991349
 20
-29.0536784334
 10
-4.4183769158
 20
-29.060079405
 10
-4.3818571185
 20
-29.065085452
 10
-4.3448848323
 20
-29.0686734546
 10
-4.3074658868
 20
-29.0708256191
 10
-4.2696425625
 20
-29.0715203089
 10
-4.2314550963
 20
-29.0707374621
 10
-4.1929006227
 20
-29.0684562287
 10
-4.1540163673
 20
-29.0646567547
 10
-4.1148437757
 20
-29.0593205727
 10
-4.0753803257
 20
-29.0524220021
 10
-4.0356620217
 20
-29.0439406068
 10
-3.995724603
 20
-29.0338573119
 10
-3.9555587496
 20
-29.0221391102
 10
-3.9151842725
 20
-29.0087574844
 10
-3.8746559748
 20
-28.9936973639
 10
-3.8470005377
 20
-28.9824757224
  0
LINE
  5
226
100
AcDbEntity
  8
RACCORDO
100
AcDbLine
 62
7
  6
CONTINUOUS
 10
-4.6814853985
 20
-28.976159378
 11
-19.5153834879
 21
-21.5592103333
  0
LINE
  5
227
100
AcDbEntity
  8
RACCORDO
100
AcDbLine
 62
7
  6
CONTINUOUS
 10
-4.6815767931
 20
-28.9761136705
 11
-4.6814854076
 21
-28.9761593734
  0
LWPOLYLINE
  5
228
100
AcDbEntity
  8
RACCORDO
100
AcDbPolyline
 62
250
  6
CONTINUOUS
 90
25
 70
0
 10
-19.5153834786
 20
-21.5592103379
 10
-19.5441503279
 20
-21.5437426189
 10
-19.571421605
 20
-21.5269498993
 10
-19.5978036549
 20
-21.5085324105
 10
-19.6232635025
 20
-21.4885131244
 10
-19.6477692527
 20
-21.4669170239
 10
-19.6712913709
 20
-21.4437704203
 10
-19.6938005312
 20
-21.4191020177
 10
-19.7152684415
 20
-21.3929425907
 10
-19.7356690324
 20
-21.365324385
 10
-19.754976776
 20
-21.3362818258
 10
-19.7731675574
 20
-21.3058509397
 10
-19.7902194875
 20
-21.2740690169
 10
-19.8061112604
 20
-21.2409755453
 10
-19.820822981
 20
-21.2066115594
 10
-19.834337008
 20
-21.1710190391
 10
-19.8466365917
 20
-21.1342416461
 10
-19.8577061066
 20
-21.0963253636
 10
-19.8675319354
 20
-21.057317885
 10
-19.8761017334
 20
-21.0172684566
 10
-19.8834050239
 20
-20.9762259185
 10
-19.889433281
 20
-20.9342392293
 10
-19.8941790364
 20
-20.8913596562
 10
-19.8976360657
 20
-20.8476408427
 10
-19.8997999547
 20
-20.8031368425
  0
LINE
  5
229
100
AcDbEntity
  8
RACCORDO
100
AcDbLine
 62
7
  6
CONTINUOUS
 10
-13.5355465598
 20
21.4087188965
 11
-15.1187202251
 21
20.5965208384
  0
LINE
  5
22A
100
AcDbEntity
  8
RACCORDO
100
AcDbLine
 62
250
  6
CONTINUOUS
 10
-13.4228779558
 20
21.4020569606
 11
-15.005634559
 21
20.5900728633
  0
LINE
  5
22B
100
AcDbEntity
  8
RACCORDO
100
AcDbLine
 62
7
  6
CONTINUOUS
 10
-13.5338101468
 20
21.4095871174
 11
-13.5355465578
 21
21.4087188976
  0
LINE
  5
22C
100
AcDbEntity
  8
RACCORDO
100
AcDbLine
 62
7
  6
CONTINUOUS
 10
-12.9989401883
 20
21.6701392182
 11
-13.533810146
 21
21.4095871178
  0
LINE
  5
22D
100
AcDbEntity
  8
RACCORDO
100
AcDbLine
 62
250
  6
CONTINUOUS
 10
-12.8884280772
 20
21.6624044272
 11
-13.4228779558
 21
21.4020569606
  0
LINE
  5
22E
100
AcDbEntity
  8
RACCORDO
100
AcDbLine
 62
250
  6
CONTINUOUS
 10
1.9899899515
 20
-27.6404429303
 11
1.4617227797
 21
-27.5319406532
  0
LINE
  5
22F
100
AcDbEntity
  8
RACCORDO
100
AcDbLine
 62
250
  6
CONTINUOUS
 10
1.9005761561
 20
-27.3208761243
 11
1.4617227797
 21
-27.2307387976
  0
LWPOLYLINE
  5
230
100
AcDbEntity
  8
RACCORDO
100
AcDbPolyline
 62
7
  6
CONTINUOUS
 90
34
 70
0
 10
0.571662597
 20
-27.8475496941
 10
0.563783474
 20
-27.8458733652
 10
0.5555632249
 20
-27.8440054591
 10
0.5470053638
 20
-27.8419560537
 10
0.5381069332
 20
-27.8397456412
 10
0.5288804982
 20
-27.8373758026
 10
0.5193539239
 20
-27.8348291086
 10
0.5095337356
 20
-27.8321187005
 10
0.4994278374
 20
-27.8292570669
 10
0.4890670544
 20
-27.8262265718
 10
0.4784605331
 20
-27.8230420399
 10
0.4676186217
 20
-27.8197177688
 10
0.4565748447
 20
-27.8162361158
 10
0.4453409962
 20
-27.812613509
 10
0.4339300454
 20
-27.8088660394
 10
0.4223782249
 20
-27.8049763852
 10
0.4107000931
 20
-27.8009624837
 10
0.3989113616
 20
-27.796842196
 10
0.3870510476
 20
-27.7925989753
 10
0.3751365999
 20
-27.7882521097
 10
0.3631865866
 20
-27.7838212002
 10
0.351242909
 20
-27.7792911067
 10
0.3393260593
 20
-27.7746822207
 10
0.3274574922
 20
-27.770015796
 10
0.3156819135
 20
-27.7652789094
 10
0.304023093
 20
-27.7604927422
 10
0.2925051559
 20
-27.7556799317
 10
0.2811748032
 20
-27.7508305546
 10
0.2700695408
 20
-27.745972717
 10
0.259205189
 20
-27.7411227826
 10
0.2485985034
 20
-27.7362567711
 10
0.2382764452
 20
-27.7313855637
 10
0.2282747486
 20
-27.7265511941
 10
0.218626409
 20
-27.721779856
  0
LWPOLYLINE
  5
231
100
AcDbEntity
  8
RACCORDO
100
AcDbPolyline
 62
250
  6
CONTINUOUS
 90
31
 70
0
 10
-0.4920799707
 20
-29.0385073815
 10
-0.4826198214
 20
-29.0429968749
 10
-0.4727042348
 20
-29.047233577
 10
-0.4623601969
 20
-29.0512059541
 10
-0.4516158487
 20
-29.0549031957
 10
-0.4405004432
 20
-29.058315232
 10
-0.4290442696
 20
-29.0614327641
 10
-0.4172785204
 20
-29.0642473053
 10
-0.405235213
 20
-29.0667511977
 10
-0.3929471404
 20
-29.0689376248
 10
-0.3804477529
 20
-29.0708006367
 10
-0.3677710711
 20
-29.0723351645
 10
-0.3549516051
 20
-29.0735370329
 10
-0.3420242336
 20
-29.0744029732
 10
-0.3290241585
 20
-29.0749306292
 10
-0.3159868151
 20
-29.0751185666
 10
-0.3029477438
 20
-29.0749662813
 10
-0.2899423788
 20
-29.0744741955
 10
-0.2770060045
 20
-29.0736436458
 10
-0.2641736654
 20
-29.0724768727
 10
-0.2514804583
 20
-29.070977058
 10
-0.238961309
 20
-29.0691483413
 10
-0.2266505123
 20
-29.0669957719
 10
-0.2145813075
 20
-29.0645252019
 10
-0.2027861898
 20
-29.061743298
 10
-0.1912947673
 20
-29.0586569188
 10
-0.1801409507
 20
-29.0552750441
 10
-0.1693617951
 20
-29.051609285
 10
-0.1589880292
 20
-29.0476709992
 10
-0.1490447252
 20
-29.0434706466
 10
-0.1395580111
 20
-29.0390201053
  0
LWPOLYLINE
  5
232
100
AcDbEntity
  8
RACCORDO
100
AcDbPolyline
 62
250
  6
CONTINUOUS
 90
31
 70
0
 10
-0.4920799707
 20
-28.6985334473
 10
-0.4826210004
 20
-28.7030224098
 10
-0.472706724
 20
-28.7072586342
 10
-0.4623641203
 20
-28.7112305931
 10
-0.4516213498
 20
-28.7149274725
 10
-0.4405076306
 20
-28.7183392186
 10
-0.4290531533
 20
-28.7214565606
 10
-0.4172890479
 20
-28.7242710194
 10
-0.4052473575
 20
-28.7267749223
 10
-0.3929609032
 20
-28.728961442
 10
-0.3804631388
 20
-28.7308246259
 10
-0.3677880561
 20
-28.7323594072
 10
-0.3549701476
 20
-28.7335616092
 10
-0.3420442843
 20
-28.734427961
 10
-0.3290456511
 20
-28.7349561039
 10
-0.3160096528
 20
-28.7351446007
 10
-0.302971785
 20
-28.7349929414
 10
-0.2899675057
 20
-28.7345015418
 10
-0.2770321712
 20
-28.7336717391
 10
-0.2642008656
 20
-28.7325057794
 10
-0.2515086244
 20
-28.7310068415
 10
-0.2389902954
 20
-28.729179054
 10
-0.226680131
 20
-28.7270274532
 10
-0.2146114002
 20
-28.7245578899
 10
-0.2028166294
 20
-28.7217770334
 10
-0.1913267668
 20
-28.7186921233
 10
-0.180174285
 20
-28.7153118197
 10
-0.1693924752
 20
-28.7116463785
 10
-0.1590112861
 20
-28.7077063805
 10
-0.1490575739
 20
-28.703502433
 10
-0.1395580111
 20
-28.6990461712
  0
LWPOLYLINE
  5
233
100
AcDbEntity
  8
ASSI
100
AcDbPolyline
 62
7
  6
CONTINUOUS
 90
13
 70
0
 10
-26.6324138179
 20
-16.1583729774
 10
-26.6227398551
 20
-16.1631332263
 10
-26.5356356783
 20
-16.2001424317
 10
-26.445010303
 20
-16.2284259985
 10
-26.3508237592
 20
-16.2478848798
 10
-26.2531160169
 20
-16.2586181224
 10
-26.152992002
 20
-16.2605043498
 10
-26.0504242868
 20
-16.2534431372
 10
-25.945440299
 20
-16.2375349093
 10
-25.8392272477
 20
-16.2129595641
 10
-25.7321808694
 20
-16.1797770675
 10
-25.6239054277
 20
-16.1379274535
 10
-25.5144009225
 20
-16.0874107221
  0
LINE
  5
234
100
AcDbEntity
  8
RACCORDO
100
AcDbLine
 62
250
  6
CONTINUOUS
 10
-5.0749538771
 20
-28.2155598813
 11
-19.8997999547
 21
-20.8031368425
  0
LINE
  5
235
100
AcDbEntity
  8
RACCORDO
100
AcDbLine
 62
7
  6
CONTINUOUS
 10
-1.7520913541
 20
-28.5112334917
 11
-0.4271066743
 21
-29.1737258316
  0
LINE
  5
236
100
AcDbEntity
  8
RACCORDO
100
AcDbLine
 62
250
  6
CONTINUOUS
 10
-1.8170646506
 20
-28.3760150416
 11
-0.4920799707
 21
-29.0385073815
  0
LINE
  5
237
100
AcDbEntity
  8
RACCORDO
100
AcDbLine
 62
250
  6
CONTINUOUS
 10
-0.4920799707
 20
-28.6985334473
 11
-1.7144833411
 21
-28.0873317622
  0
LINE
  5
238
100
AcDbEntity
  8
RACCORDO
100
AcDbLine
 62
250
  6
CONTINUOUS
 10
-0.4036916231
 20
-28.4668392735
 11
-1.414526251
 21
-27.9614219596
  0
LWPOLYLINE
  5
239
100
AcDbEntity
  8
RACCORDO
100
AcDbPolyline
 62
250
  6
CONTINUOUS
 90
16
 70
0
 10
-1.8170646506
 20
-28.3760150416
 10
-1.8260213519
 20
-28.371297336
 10
-1.8344801339
 20
-28.3663499398
 10
-1.8424171118
 20
-28.3611858607
 10
-1.8498112053
 20
-28.3558176165
 10
-1.8566395948
 20
-28.3502604868
 10
-1.8628789727
 20
-28.3445328424
 10
-1.868511216
 20
-28.3386515487
 10
-1.8735223952
 20
-28.3326314049
 10
-1.8778989807
 20
-28.3264886308
 10
-1.8816290749
 20
-28.32023982
 10
-1.8847023896
 20
-28.313902083
 10
-1.8871104497
 20
-28.3074928474
 10
-1.8888466893
 20
-28.3010296387
 10
-1.8899064224
 20
-28.2945299692
 10
-1.8902879549
 20
-28.2876334799
  0
LWPOLYLINE
  5
23A
100
AcDbEntity
  8
RACCORDO
100
AcDbPolyline
 62
250
  6
CONTINUOUS
 90
17
 70
0
 10
-20.0460744608
 20
-20.6294379335
 10
-20.0447524413
 20
-20.6417511148
 10
-20.0423267382
 20
-20.6539910821
 10
-20.0388027253
 20
-20.6661307201
 10
-20.0341882093
 20
-20.6781431358
 10
-20.0284934128
 20
-20.6900017179
 10
-20.0217309516
 20
-20.7016801959
 10
-20.0139158067
 20
-20.7131526983
 10
-20.005065291
 20
-20.72439381
 10
-19.9951990113
 20
-20.7353786284
 10
-19.9843388242
 20
-20.7460828187
 10
-19.9725087887
 20
-20.7564826678
 10
-19.9597351119
 20
-20.7665551367
 10
-19.9460460915
 20
-20.7762779118
 10
-19.9314720529
 20
-20.7856294541
 10
-19.9160452822
 20
-20.7945890471
 10
-19.8997999545
 20
-20.8031368424
  0
LWPOLYLINE
  5
23B
100
AcDbEntity
  8
RACCORDO
100
AcDbPolyline
 62
7
  6
CONTINUOUS
 90
30
 70
0
 10
-12.7926555674
 20
19.1342135275
 10
-12.8005346904
 20
19.1250791243
 10
-12.8087549395
 20
19.1160816833
 10
-12.8173128007
 20
19.1072426968
 10
-12.8262112312
 20
19.0985861669
 10
-12.8354376662
 20
19.0901314877
 10
-12.8449642405
 20
19.0818935949
 10
-12.8547844288
 20
19.0738948413
 10
-12.8648903271
 20
19.0661569645
 10
-12.87525111
 20
19.0586944247
 10
-12.8858576313
 20
19.0515296469
 10
-12.8966995427
 20
19.0446843416
 10
-12.9077433198
 20
19.0381723699
 10
-12.9189771682
 20
19.0320158508
 10
-12.930388119
 20
19.026236187
 10
-12.9419399395
 20
19.0208466635
 10
-12.9536180713
 20
19.0158687058
 10
-12.9654068029
 20
19.0113230085
 10
-12.9772671169
 20
19.0072222233
 10
-12.9891815645
 20
19.0035865978
 10
-13.0011315779
 20
19.0004356128
 10
-13.0130752554
 20
18.9977810765
 10
-13.0249921051
 20
18.9956414441
 10
-13.0368606723
 20
18.9940343067
 10
-13.0486362509
 20
18.9929701459
 10
-13.0602950714
 20
18.9924648406
 10
-13.0718130085
 20
18.9925332066
 10
-13.0831433612
 20
18.9931836051
 10
-13.0942486236
 20
18.9944269978
 10
-13.1051129754
 20
18.9962744933
  0
LWPOLYLINE
  5
23C
100
AcDbEntity
  8
RACCORDO
100
AcDbPolyline
 62
7
  6
CONTINUOUS
 90
37
 70
0
 10
-19.1405802907
 20
16.5726788373
 10
-19.1721104544
 20
16.5537231159
 10
-19.2149613356
 20
16.5261019224
 10
-19.2570978796
 20
16.4967882407
 10
-19.2985189858
 20
16.4658140816
 10
-19.3391886392
 20
16.4332361267
 10
-19.3790274817
 20
16.399148503
 10
-19.4180185568
 20
16.3635995633
 10
-19.4561438717
 20
16.326634607
 10
-19.4933200795
 20
16.2883644672
 10
-19.5295271799
 20
16.2488447729
 10
-19.5647511407
 20
16.2081197088
 10
-19.5989195682
 20
16.1663050355
 10
-19.6320013413
 20
16.1234744446
 10
-19.6639950079
 20
16.0796602774
 10
-19.6948727465
 20
16.0349301229
 10
-19.7246120272
 20
15.9893418102
 10
-19.7531985363
 20
15.9429403313
 10
-19.780612434
 20
15.8957776242
 10
-19.8068325582
 20
15.8479036153
 10
-19.8318387827
 20
15.7993681744
 10
-19.8556078694
 20
15.7502228057
 10
-19.8781175054
 20
15.7005163328
 10
-19.8993454278
 20
15.6502974652
 10
-19.9192664417
 20
15.5996160573
 10
-19.93785735
 20
15.5485194706
 10
-19.9550928919
 20
15.4970554121
 10
-19.9709468566
 20
15.4452709717
 10
-19.9853936645
 20
15.3932117722
 10
-19.9984046864
 20
15.3409239786
 10
-20.0099526156
 20
15.2884494361
 10
-20.0200072687
 20
15.2358333627
 10
-20.0285359994
 20
15.1831208741
 10
-20.0355076533
 20
15.1303426129
 10
-20.0408856633
 20
15.0775341061
 10
-20.0446308646
 20
15.0247504814
 10
-20.0462825945
 20
14.9871365728
  0
LINE
  5
23D
100
AcDbEntity
  8
RACCORDO
100
AcDbLine
 62
7
  6
CONTINUOUS
 10
-19.1405879922
 20
16.5726745741
 11
-14.5516131654
 21
19.248467216
  0
LINE
  5
23E
100
AcDbEntity
  8
RACCORDO
100
AcDbLine
 62
250
  6
CONTINUOUS
 10
-14.5516131654
 20
19.1036330396
 11
-18.9072339447
 21
16.563907181
  0
LWPOLYLINE
  5
23F
100
AcDbEntity
  8
RACCORDO
100
AcDbPolyline
 62
250
  6
CONTINUOUS
 90
17
 70
0
 10
-19.1405803896
 20
16.5726790069
 10
-19.1381293299
 20
16.5740820409
 10
-19.1254928588
 20
16.5805338007
 10
-19.1123206679
 20
16.5859904434
 10
-19.0986425619
 20
16.5904396225
 10
-19.0844894901
 20
16.5938712707
 10
-19.0698934764
 20
16.5962776232
 10
-19.0548875471
 20
16.5976532354
 10
-19.039505656
 20
16.5979949946
 10
-19.0237826074
 20
16.5973021275
 10
-19.0077539777
 20
16.5955762019
 10
-18.9914560347
 20
16.5928211229
 10
-18.9749256555
 20
16.5890431245
 10
-18.9582002434
 20
16.5842507551
 10
-18.9413176426
 20
16.5784548584
 10
-18.9243160533
 20
16.5716685486
 10
-18.9072339447
 20
16.563907181
  0
LINE
  5
240
100
AcDbEntity
  8
RACCORDO
100
AcDbLine
 62
7
  6
CONTINUOUS
 10
-11.9025953847
 20
18.8232623271
 11
-12.7926555674
 21
18.3265814058
  0
LINE
  5
241
100
AcDbEntity
  8
RACCORDO
100
AcDbLine
 62
250
  6
CONTINUOUS
 10
-12.0793690884
 20
20.7303025269
 11
-13.6806498792
 21
19.9275805233
  0
LINE
  5
242
100
AcDbEntity
  8
RACCORDO
100
AcDbLine
 62
250
  6
CONTINUOUS
 10
-11.9025953847
 20
20.425412988
 11
-13.5038761755
 21
19.6226909845
  0
LINE
  5
243
100
AcDbEntity
  8
RACCORDO
100
AcDbLine
 62
250
  6
CONTINUOUS
 10
-11.5511019166
 20
20.9937413469
 11
-12.0793690884
 21
20.7303025269
  0
LINE
  5
244
100
AcDbEntity
  8
RACCORDO
100
AcDbLine
 62
250
  6
CONTINUOUS
 10
-11.3743282129
 20
20.6888518081
 11
-11.9025953847
 21
20.425412988
  0
LWPOLYLINE
  5
245
100
AcDbEntity
  8
RACCORDO
100
AcDbPolyline
 62
250
  6
CONTINUOUS
 90
5
 70
0
 10
1.9239848815
 20
-27.3289603377
 10
1.922411182
 20
-27.3281919227
 10
1.9153834821
 20
-27.3251857171
 10
1.9080991005
 20
-27.3227450942
 10
1.9005761561
 20
-27.3208761243
  0
LINE
  5
246
100
AcDbEntity
  8
RACCORDO
100
AcDbLine
 62
7
  6
CONTINUOUS
 10
0.2191406374
 20
-27.7220369702
 11
-0.2661623909
 21
-27.4793854561
  0
LINE
  5
247
100
AcDbEntity
  8
RACCORDO
100
AcDbLine
 62
250
  6
CONTINUOUS
 10
1.4617227797
 20
-27.1014494361
 11
1.9005761561
 21
-27.3208761243
  0
LINE
  5
248
100
AcDbEntity
  8
RACCORDO
100
AcDbLine
 62
7
  6
CONTINUOUS
 10
1.4617227797
 20
-27.0978292865
 11
1.9239912074
 21
-27.3289635003
  0
LINE
  5
249
100
AcDbEntity
  8
ASSI
100
AcDbLine
 62
250
  6
CONTINUOUS
 10
-29.0499348285
 20
-11.2507735542
 11
-30.4641483908
 21
-10.543666773
  0
LWPOLYLINE
  5
24A
100
AcDbEntity
  8
RACCORDO
100
AcDbPolyline
 62
7
  6
CONTINUOUS
 90
30
 70
0
 10
-20.0462635926
 20
-20.6254892708
 10
-20.0447962029
 20
-20.658442669
 10
-20.0415120741
 20
-20.7045205928
 10
-20.036825049
 20
-20.7498690254
 10
-20.0307426241
 20
-20.7944808935
 10
-20.0232777093
 20
-20.8383157453
 10
-20.0144528339
 20
-20.8812946724
 10
-20.0042818461
 20
-20.923400385
 10
-19.9927808636
 20
-20.9646098085
 10
-19.9799865811
 20
-21.0048363561
 10
-19.9659198026
 20
-21.0440608
 10
-19.9506043975
 20
-21.0822609546
 10
-19.9340966714
 20
-21.1193465574
 10
-19.9164330305
 20
-21.155290346
 10
-19.8976440393
 20
-21.1900817101
 10
-19.8777939774
 20
-21.2236567962
 10
-19.8569452665
 20
-21.2559703986
 10
-19.8351248414
 20
-21.2870370639
 10
-19.8123507156
 20
-21.3168787418
 10
-19.7886740245
 20
-21.3454710203
 10
-19.764135691
 20
-21.3728048268
 10
-19.7387343909
 20
-21.3989134666
 10
-19.7125177576
 20
-21.4237753923
 10
-19.6855307912
 20
-21.4473754772
 10
-19.6577622343
 20
-21.469744035
 10
-19.6292574135
 20
-21.4908589869
 10
-19.6000627228
 20
-21.5107020584
 10
-19.5701617906
 20
-21.5292959792
 10
-19.5395779001
 20
-21.5466308038
 10
-19.5152924389
 20
-21.5592558459
  0
LWPOLYLINE
  5
24B
100
AcDbEntity
  8
RACCORDO
100
AcDbPolyline
 62
250
  6
CONTINUOUS
 90
3
 70
0
 10
-19.8997999547
 20
-20.8031368425
 10
-19.9531064951
 20
-19.1355966977
 10
-19.9990384185
 20
-17.5363008603
  0
LWPOLYLINE
  5
24C
100
AcDbEntity
  8
RACCORDO
100
AcDbPolyline
 62
7
  6
CONTINUOUS
 90
3
 70
0
 10
-20.1366696518
 20
-17.6664684451
 10
-20.0991888611
 20
-18.9704826437
 10
-20.0462637561
 20
-20.6254898809
  0
LWPOLYLINE
  5
24D
100
AcDbEntity
  8
RACCORDO
100
AcDbPolyline
 62
250
  6
CONTINUOUS
 90
18
 70
0
 10
-20.0462825945
 20
14.9871365728
 10
-20.046074349
 20
14.9757447328
 10
-20.0447523259
 20
14.964570734
 10
-20.0423266198
 20
14.9534108066
 10
-20.0388026043
 20
14.9422896733
 10
-20.0341880861
 20
14.9312319707
 10
-20.0284932879
 20
14.9202621953
 10
-20.0217308255
 20
14.9094046484
 10
-20.0139156797
 20
14.898683383
 10
-20.0050651636
 20
14.8881221499
 10
-19.9951988838
 20
14.8777443455
 10
-19.9843386972
 20
14.86757296
 10
-19.9725086626
 20
14.8576305261
 10
-19.959734987
 20
14.8479390694
 10
-19.9460459682
 20
14.8385200596
 10
-19.9314719316
 20
14.8293943625
 10
-19.9160451632
 20
14.8205821946
 10
-19.8997998382
 20
14.8121030775
  0
LWPOLYLINE
  5
24E
100
AcDbEntity
  8
RACCORDO
100
AcDbPolyline
 62
250
  6
CONTINUOUS
 90
12
 70
0
 10
-20.1929436008
 20
-4.0197477833
 10
-20.1930197767
 20
-2.2991100762
 10
-20.1876877687
 20
-0.5999213881
 10
-20.1770238402
 20
1.1019888425
 10
-20.1610281534
 20
2.8065944894
 10
-20.139700945
 20
4.5138693896
 10
-20.1130425524
 20
6.2237873412
 10
-20.0810533875
 20
7.9363221026
 10
-20.0437339236
 20
9.6514473912
 10
-20.0010847345
 20
11.3691368864
 10
-19.9531064951
 20
13.08936423
 10
-19.8997999547
 20
14.8121030251
  0
LWPOLYLINE
  5
24F
100
AcDbEntity
  8
RACCORDO
100
AcDbPolyline
 62
7
  6
CONTINUOUS
 90
13
 70
0
 10
-20.0462823776
 20
14.9871465742
 10
-20.099237596
 20
13.276302784
 10
-20.1472801249
 20
11.5549493077
 10
-20.1899864095
 20
9.8361307414
 10
-20.227355624
 20
8.1198766963
 10
-20.2593872283
 20
6.4062128923
 10
-20.286080755
 20
4.6951634814
 10
-20.3074357436
 20
2.9867538858
 10
-20.3234518673
 20
1.2810104982
 10
-20.3341288387
 20
-0.4220410652
 10
-20.3394664017
 20
-2.122375004
 10
-20.3394644638
 20
-3.8199647159
 10
-20.3388098865
 20
-4.0276580132
  0
LWPOLYLINE
  5
250
100
AcDbEntity
  8
RACCORDO
100
AcDbPolyline
 62
250
  6
CONTINUOUS
 90
43
 70
0
 10
-19.8997999547
 20
14.8121030251
 10
-19.8976360521
 20
14.8588223429
 10
-19.8941790016
 20
14.9060797309
 10
-19.8894332228
 20
14.9538167188
 10
-19.8834049491
 20
15.0019736209
 10
-19.8761016523
 20
15.050491515
 10
-19.8675318499
 20
15.0993123619
 10
-19.8577060129
 20
15.148376985
 10
-19.8466364892
 20
15.1976236538
 10
-19.8343368953
 20
15.246990085
 10
-19.8208228541
 20
15.2964147787
 10
-19.8061111166
 20
15.3458372148
 10
-19.7902193298
 20
15.3951964745
 10
-19.7731673939
 20
15.4444317186
 10
-19.7549766118
 20
15.4934820629
 10
-19.7356688667
 20
15.542286759
 10
-19.7152682706
 20
15.5907857682
 10
-19.6938003534
 20
15.6389190343
 10
-19.6712911847
 20
15.6866263649
 10
-19.6477690554
 20
15.7338487823
 10
-19.6232632922
 20
15.7805281671
 10
-19.5978034338
 20
15.8266065283
 10
-19.5714213786
 20
15.8720270636
 10
-19.5441500991
 20
15.9167337508
 10
-19.5160224624
 20
15.9606709881
 10
-19.4870736011
 20
16.0037847699
 10
-19.4573397914
 20
16.0460217945
 10
-19.4268571677
 20
16.0873290638
 10
-19.3956640284
 20
16.1276555828
 10
-19.363799287
 20
16.1669518238
 10
-19.331301344
 20
16.2051688266
 10
-19.2982109596
 20
16.242259492
 10
-19.2645694672
 20
16.278178231
 10
-19.2304172198
 20
16.3128804035
 10
-19.1957965848
 20
16.3463236713
 10
-19.1607512418
 20
16.3784664683
 10
-19.1253244103
 20
16.4092677189
 10
-19.0895612464
 20
16.4386890184
 10
-19.0535057483
 20
16.4666949793
 10
-19.0172000233
 20
16.4932515453
 10
-18.9806884835
 20
16.5183260859
 10
-18.9440178258
 20
16.5418876298
 10
-18.9072339447
 20
16.563907181
  0
LWPOLYLINE
  5
251
100
AcDbEntity
  8
RACCORDO
100
AcDbPolyline
 62
250
  6
CONTINUOUS
 90
27
 70
0
 10
-13.5038761755
 20
19.2827170504
 10
-13.5087546753
 20
19.2707611488
 10
-13.5141003169
 20
19.2590768747
 10
-13.519898907
 20
19.2476963262
 10
-13.5261355922
 20
19.2366498128
 10
-13.5327931864
 20
19.225968851
 10
-13.5398518354
 20
19.2156857256
 10
-13.5472914912
 20
19.2058294946
 10
-13.5550925273
 20
19.1964260184
 10
-13.5632338466
 20
19.1875007608
 10
-13.5716933821
 20
19.1790779981
 10
-13.5804479189
 20
19.1711809255
 10
-13.5894733391
 20
19.1638313282
 10
-13.5987449055
 20
19.1570493399
 10
-13.6082373748
 20
19.1508534155
 10
-13.6179248431
 20
19.1452604656
 10
-13.6277808677
 20
19.1402857636
 10
-13.6377785135
 20
19.1359429113
 10
-13.6478904495
 20
19.1322437837
 10
-13.6580890475
 20
19.1291984866
 10
-13.6683464592
 20
19.1268153348
 10
-13.6786346673
 20
19.1251008378
 10
-13.6889255858
 20
19.1240596774
 10
-13.6991910908
 20
19.1236947005
 10
-13.7094030967
 20
19.124006901
 10
-13.7195336818
 20
19.124995413
 10
-13.7295552076
 20
19.1266575272
  0
LINE
  5
252
100
AcDbEntity
  8
RACCORDO
100
AcDbLine
 62
250
  6
CONTINUOUS
 10
-11.3585539582
 20
20.2710180265
 11
-11.3589676406
 21
20.2704851248
  0
LINE
  5
253
100
AcDbEntity
  8
RACCORDO
100
AcDbLine
 62
250
  6
CONTINUOUS
 10
-11.9025953847
 20
19.6983681356
 11
-11.3743282129
 21
20.3413202913
  0
LINE
  5
254
100
AcDbEntity
  8
RACCORDO
100
AcDbLine
 62
7
  6
CONTINUOUS
 10
-11.9025953847
 20
19.6088376692
 11
-11.3589676406
 21
20.2704851248
  0
LWPOLYLINE
  5
255
100
AcDbEntity
  8
SMUSSO
100
AcDbPolyline
 62
7
  6
CONTINUOUS
 90
21
 70
0
 10
4.5546168714
 20
24.5976119208
 10
4.4261749581
 20
24.5316190865
 10
4.3067896069
 20
24.4626476597
 10
4.1964608179
 20
24.3906976404
 10
4.0949623957
 20
24.3155556664
 10
4.0025205356
 20
24.2374351
 10
3.9198138238
 20
24.1569760276
 10
3.8468468116
 20
24.0741088606
 10
3.7836149477
 20
23.9889031877
 10
3.7307831642
 20
23.9022078618
 10
3.68845494
 20
23.8140106811
 10
3.6565267961
 20
23.7243238474
 10
3.6353532273
 20
23.634032819
 10
3.6250561869
 20
23.5430942701
 10
3.6255137216
 20
23.4515515265
 10
3.6367144671
 20
23.3604200244
 10
3.6587768879
 20
23.2697444932
 10
3.6915825194
 20
23.1794802035
 10
3.7347646031
 20
23.0905084036
 10
3.7884088037
 20
23.0028481296
 10
3.7988163535
 20
22.9877096768
  0
LINE
  5
256
100
AcDbEntity
  8
RACCORDO
100
AcDbLine
 62
7
  6
CONTINUOUS
 10
-9.5337756663
 20
18.4931439137
 11
-9.1802342771
 21
18.6745173386
  0
LINE
  5
257
100
AcDbEntity
  8
RACCORDO
100
AcDbLine
 62
7
  6
CONTINUOUS
 10
-4.1800123231
 20
21.9635663561
 11
-10.4945526497
 21
18.8187900516
  0
LINE
  5
258
100
AcDbEntity
  8
ASSI
100
AcDbLine
 62
7
  6
CONTINUOUS
 10
-3.2384804365
 20
20.9711955867
 11
-7.8367313929
 21
18.7048342892
  0
LINE
  5
259
100
AcDbEntity
  8
ASSI
100
AcDbLine
 62
7
  6
CONTINUOUS
 10
-9.1802342771
 20
18.6745173386
 11
-3.8440108712
 21
21.2739608041
  0
LINE
  5
25A
100
AcDbEntity
  8
RACCORDO
100
AcDbLine
 62
7
  6
CONTINUOUS
 10
8.0813896214
 20
26.3159878226
 11
4.5546168714
 21
24.5976119208
  0
LINE
  5
25B
100
AcDbEntity
  8
RACCORDO
100
AcDbLine
 62
7
  6
CONTINUOUS
 10
7.1153317938
 20
26.6119772961
 11
-3.2286787933
 21
21.7337705593
  0
LINE
  5
25C
100
AcDbEntity
  8
RACCORDO
100
AcDbLine
 62
250
  6
CONTINUOUS
 10
7.5542165443
 20
26.5795743611
 11
-2.9823012202
 21
21.6105817728
  0
LWPOLYLINE
  5
25D
100
AcDbEntity
  8
ASSI
100
AcDbPolyline
 62
7
  6
CONTINUOUS
 90
7
 70
0
 10
-3.189604405
 20
20.9911241538
 10
-3.1976871561
 20
20.9884087832
 10
-3.2057952089
 20
20.9854509897
 10
-3.2139285633
 20
20.9822507733
 10
-3.2220872194
 20
20.978808134
 10
-3.2302711771
 20
20.9751230718
 10
-3.2384804365
 20
20.9711955867
  0
LINE
  5
25E
100
AcDbEntity
  8
ASSI
100
AcDbLine
 62
7
  6
CONTINUOUS
 10
-23.740141513
 20
-20.7511045583
 11
-28.3520418006
 21
-21.0012047851
  0
LWPOLYLINE
  5
25F
100
AcDbEntity
  8
ASSI
100
AcDbPolyline
 62
7
  6
CONTINUOUS
 90
6
 70
0
 10
-28.3520418006
 20
-21.0012047851
 10
-28.4192830229
 20
-21.0015468166
 10
-28.4839678915
 20
-20.9955347402
 10
-28.5460964066
 20
-20.9831685559
 10
-28.605930326
 20
-20.9643331477
 10
-28.6600726437
 20
-20.9407206359
  0
LWPOLYLINE
  5
260
100
AcDbEntity
  8
ASSI
100
AcDbPolyline
 62
7
  6
CONTINUOUS
 90
13
 70
0
 10
-24.3963880271
 20
-11.6863214478
 10
-24.4060619899
 20
-11.6815611989
 10
-24.4931661667
 20
-11.6445519935
 10
-24.583791542
 20
-11.6162684267
 10
-24.6779780858
 20
-11.5968095454
 10
-24.7756858281
 20
-11.5860763028
 10
-24.875809843
 20
-11.5841900754
 10
-24.9783775582
 20
-11.591251288
 10
-25.083361546
 20
-11.6071595159
 10
-25.1895745973
 20
-11.6317348611
 10
-25.2966209756
 20
-11.6649173577
 10
-25.4048964173
 20
-11.7067669718
 10
-25.5144009225
 20
-11.7572837031
  0
LINE
  5
261
100
AcDbEntity
  8
ASSI
100
AcDbLine
 62
250
  6
CONTINUOUS
 10
-28.3520418006
 20
-9.6811305182
 11
-29.766255363
 21
-8.974023737
  0
LWPOLYLINE
  5
262
100
AcDbEntity
  8
RACCORDO
100
AcDbPolyline
 62
7
  6
CONTINUOUS
 90
5
 70
0
 10
-4.2598811395
 20
18.1691078872
 10
-4.2585414031
 20
18.1702488667
 10
-4.2529489941
 20
18.1743919324
 10
-4.2467591664
 20
18.1779834403
 10
-4.2446785746
 20
18.1789897624
  0
LINE
  5
263
100
AcDbEntity
  8
0
100
AcDbLine
 62
7
  6
CONTINUOUS
 10
4.5911007621
 20
22.3672740735
 11
5.1942383763
 21
22.6853204635
  0
LWPOLYLINE
  5
264
100
AcDbEntity
  8
SMUSSO
100
AcDbPolyline
 62
7
  6
CONTINUOUS
 90
15
 70
0
 10
4.8742955816
 20
23.7379744756
 10
4.765317402
 20
23.6816281731
 10
4.6635702467
 20
23.6223034328
 10
4.5693555287
 20
23.5602268791
 10
4.4830041425
 20
23.4956862868
 10
4.4046901988
 20
23.428870528
 10
4.3344870782
 20
23.3598526676
 10
4.2725914707
 20
23.2888192651
 10
4.2192655693
 20
23.2160630369
 10
4.1746903821
 20
23.1418116604
 10
4.1390197997
 20
23.0663233917
 10
4.1123739972
 20
22.989854394
 10
4.0948433988
 20
22.9126348977
 10
4.086492809
 20
22.834897542
 10
4.0857343168
 20
22.8032977444
  0
LINE
  5
265
100
AcDbEntity
  8
DRAFT
100
AcDbLine
 62
7
  6
CONTINUOUS
 10
9.0967323462
 20
25.4084804176
 11
4.8742955816
 21
23.2904402251
  0
LINE
  5
266
100
AcDbEntity
  8
0
100
AcDbLine
 62
7
  6
CONTINUOUS
 10
-1.7720421305
 20
19.5700105703
 11
-3.169826637
 21
18.871118317
  0
LINE
  5
267
100
AcDbEntity
  8
0
100
AcDbLine
 62
7
  6
CONTINUOUS
 10
5.322525805
 20
22.4622287321
 11
5.8175005519
 21
22.7097161055
  0
LINE
  5
268
100
AcDbEntity
  8
RACCORDO
100
AcDbLine
 62
7
  6
CONTINUOUS
 10
8.2856784644
 20
22.8902159578
 11
6.9742141533
 21
22.2344838023
  0
LINE
  5
269
100
AcDbEntity
  8
0
100
AcDbLine
 62
7
  6
CONTINUOUS
 10
-3.5233800276
 20
19.6004532016
 11
-3.189604405
 21
19.7637735568
  0
LINE
  5
26A
100
AcDbEntity
  8
RACCORDO
100
AcDbLine
 62
7
  6
CONTINUOUS
 10
-1.1130463792
 20
20.4300833841
 11
-3.169826637
 21
19.4236765063
  0
LINE
  5
26B
100
AcDbEntity
  8
RACCORDO
100
AcDbLine
 62
7
  6
CONTINUOUS
 10
9.0849125676
 20
25.7895449264
 11
4.8742955816
 21
23.7379744756
  0
LINE
  5
26C
100
AcDbEntity
  8
RACCORDO
100
AcDbLine
 62
7
  6
CONTINUOUS
 10
-4.2446764961
 20
18.1789916518
 11
-4.1707276166
 21
18.2131436949
  0
LINE
  5
26D
100
AcDbEntity
  8
RACCORDO
100
AcDbLine
 62
250
  6
CONTINUOUS
 10
-4.1597976698
 20
18.1711655345
 11
-4.0844037255
 21
18.2059849564
  0
LWPOLYLINE
  5
26E
100
AcDbEntity
  8
DRAFT
100
AcDbPolyline
 62
7
  6
CONTINUOUS
 90
31
 70
0
 10
5.5570800478
 20
23.6328611832
 10
5.7098501927
 20
23.7024818614
 10
5.8707413784
 20
23.7656112892
 10
6.0397536048
 20
23.8222494667
 10
6.2178538165
 20
23.8726303238
 10
6.4040750689
 20
23.9165199306
 10
6.5955165285
 20
23.9532164971
 10
6.7924071578
 20
23.9826207399
 10
6.9945179942
 20
24.0048319423
 10
7.1982613162
 20
24.019446164
 10
7.4035344218
 20
24.0263237882
 10
7.6104400131
 20
24.0256044317
 10
7.8156984745
 20
24.017303004
 10
8.0193753117
 20
24.0012904868
 10
8.221405019
 20
23.9776958983
 10
8.4183114632
 20
23.9469212035
 10
8.6099474003
 20
23.908853539
 10
8.7964600743
 20
23.8636057682
 10
8.9748150843
 20
23.811918445
 10
9.1449064993
 20
23.7536784465
 10
9.3068402504
 20
23.6889988956
 10
9.4578997297
 20
23.6189597159
 10
9.5978980366
 20
23.5434687604
 10
9.7270220718
 20
23.462618176
 10
9.8431159289
 20
23.377764327
 10
9.9459509328
 20
23.2888554756
 10
10.0357557586
 20
23.1959433596
 10
10.1110605256
 20
23.1005395576
 10
10.1716368566
 20
23.00257175
 10
10.2177131287
 20
22.9021122564
 10
10.2306849553
 20
22.8594691866
  0
LWPOLYLINE
  5
26F
100
AcDbEntity
  8
RACCORDO
100
AcDbPolyline
 62
7
  6
CONTINUOUS
 90
10
 70
0
 10
9.1341802762
 20
22.4659387263
 10
9.1455767405
 20
22.4711073816
 10
9.156797143
 20
22.4751592779
 10
9.1678414837
 20
22.4780944155
 10
9.1788047426
 20
22.4799129468
 10
9.1895919398
 20
22.4806147193
 10
9.1999181352
 20
22.4801992749
 10
9.2096883489
 20
22.478666461
 10
9.218997561
 20
22.4760164303
 10
9.2278457713
 20
22.4722491827
  0
LWPOLYLINE
  5
270
100
AcDbEntity
  8
RACCORDO
100
AcDbPolyline
 62
250
  6
CONTINUOUS
 90
28
 70
0
 10
-4.0844037255
 20
18.2059849564
 10
-4.0486137287
 20
18.2218567151
 10
-4.0096095244
 20
18.2367562374
 10
-3.9673911127
 20
18.2506835235
 10
-3.9214744403
 20
18.2638699032
 10
-3.8723435606
 20
18.2760840466
 10
-3.8214506332
 20
18.2866319641
 10
-3.7686536568
 20
18.2953465538
 10
-3.7140946328
 20
18.3023949175
 10
-3.6596517259
 20
18.3075843712
 10
-3.6054529154
 20
18.3107556771
 10
-3.5513702219
 20
18.312068073
 10
-3.4988978723
 20
18.3118065888
 10
-3.4483590558
 20
18.3099152659
 10
-3.3994305831
 20
18.3064500629
 10
-3.3526371129
 20
18.3018638855
 10
-3.3081462662
 20
18.2961782506
 10
-3.2657904219
 20
18.2893716412
 10
-3.2255913758
 20
18.2818324123
 10
-3.1875949089
 20
18.2735875876
 10
-3.1517552402
 20
18.2646101434
 10
-3.1179568219
 20
18.2552073626
 10
-3.0862380408
 20
18.2454095237
 10
-3.0565605103
 20
18.2351863482
 10
-3.0286935222
 20
18.2247542841
 10
-3.002560174
 20
18.2141854804
 10
-2.9782373683
 20
18.2034077881
 10
-2.9557251051
 20
18.192421207
  0
LWPOLYLINE
  5
271
100
AcDbEntity
  8
RACCORDO
100
AcDbPolyline
 62
7
  6
CONTINUOUS
 90
6
 70
0
 10
-4.2446785746
 20
18.1789897624
 10
-4.2399654915
 20
18.1809442033
 10
-4.2325277669
 20
18.1832108586
 10
-4.2243855009
 20
18.1846932119
 10
-4.2154883626
 20
18.1852987242
 10
-4.2058487798
 20
18.1849243703
  0
LWPOLYLINE
  5
272
100
AcDbEntity
  8
ASSI
100
AcDbPolyline
 62
7
  6
CONTINUOUS
 90
7
 70
0
 10
1.7601430633
 20
18.5162504197
 10
1.7520603122
 20
18.5135350491
 10
1.7439522594
 20
18.5105772556
 10
1.735818905
 20
18.5073770392
 10
1.7276602489
 20
18.5039343999
 10
1.7194762912
 20
18.5002493377
 10
1.7112670318
 20
18.4963218526
  0
LWPOLYLINE
  5
273
100
AcDbEntity
  8
RACCORDO
100
AcDbPolyline
 62
250
  6
CONTINUOUS
 90
6
 70
0
 10
-4.1707276166
 20
18.2131436949
 10
-4.1541877467
 20
18.2185611439
 10
-4.1377484133
 20
18.2202162128
 10
-4.1204389602
 20
18.2186448169
 10
-4.1025554407
 20
18.213873857
 10
-4.0844037255
 20
18.2059849564
  0
LWPOLYLINE
  5
274
100
AcDbEntity
  8
ASSI
100
AcDbPolyline
 62
7
  6
CONTINUOUS
 90
16
 70
0
 10
1.7601430633
 20
18.5162504197
 10
1.7723009012
 20
18.5197401888
 10
1.7850308803
 20
18.5224630147
 10
1.7983254611
 20
18.5244028551
 10
1.8121811744
 20
18.5255566754
 10
1.8265814254
 20
18.5258947864
 10
1.8414947672
 20
18.5253620976
 10
1.8569012464
 20
18.5239378513
 10
1.8727863394
 20
18.5216126593
 10
1.8891220416
 20
18.5183502439
 10
1.9058494667
 20
18.5141470108
 10
1.9229802928
 20
18.5089800667
 10
1.9405940594
 20
18.502778537
 10
1.9586813865
 20
18.4955218029
 10
1.9772020763
 20
18.4871900205
 10
1.9869181983
 20
18.4824551228
  0
LWPOLYLINE
  5
275
100
AcDbEntity
  8
0
100
AcDbPolyline
 62
250
  6
CONTINUOUS
 90
103
 70
0
 10
-13.0693215736
 20
-12.1022506393
 10
-12.9406442891
 20
-12.1641467929
 10
-12.8123319098
 20
-12.2210375028
 10
-12.6843844359
 20
-12.2729227692
 10
-12.55668127
 20
-12.3198422872
 10
-12.4293430093
 20
-12.3617563616
 10
-12.3027314461
 20
-12.3985459066
 10
-12.176848647
 20
-12.4301963486
 10
-12.0516925452
 20
-12.4567222612
 10
-11.927618733
 20
-12.4780482792
 10
-11.8046302883
 20
-12.4941596148
 10
-11.6827241331
 20
-12.5050710558
 10
-11.562246626
 20
-12.5107516008
 10
-11.4432018297
 20
-12.5111863738
 10
-11.3255856815
 20
-12.5063902507
 10
-11.209732351
 20
-12.4963768583
 10
-11.0956468515
 20
-12.4811313593
 10
-10.9833241697
 20
-12.4606685909
 10
-10.8730834356
 20
-12.4350466918
 10
-10.7649305701
 20
-12.40425099
 10
-10.6588596522
 20
-12.3682961575
 10
-10.5551720497
 20
-12.3272843487
 10
-10.4538745402
 20
-12.2812011822
 10
-10.354960346
 20
-12.2300610395
 10
-10.258710501
 20
-12.1740092193
 10
-10.1651325822
 20
-12.1130317535
 10
-10.0742190127
 20
-12.0471426102
 10
-9.986228095
 20
-11.976528993
 10
-9.9011681408
 20
-11.9011774661
 10
-9.8190308384
 20
-11.8211014652
 10
-9.7400495554
 20
-11.7365285015
 10
-9.6642332673
 20
-11.6474457861
 10
-9.5915729986
 20
-11.5538661078
 10
-9.5222751909
 20
-11.4560553442
 10
-9.4563494067
 20
-11.3540014627
 10
-9.3937860835
 20
-11.2477164958
 10
-9.3347629755
 20
-11.1375024194
 10
-9.2792901507
 20
-11.0233480594
 10
-9.2273575412
 20
-10.9052645898
 10
-9.1791126972
 20
-10.7835875081
 10
-9.1345661065
 20
-10.6583065945
 10
-9.0937072813
 20
-10.5294320688
 10
-9.0566523095
 20
-10.3973300878
 10
-9.0234120085
 20
-10.2619914731
 10
-8.9939755609
 20
-10.1234254032
 10
-8.968426601
 20
-9.9820255704
 10
-8.9467761845
 20
-9.837783916
 10
-8.9290132557
 20
-9.6907084987
 10
-8.9151882826
 20
-9.5412171878
 10
-8.9053124641
 20
-9.3893031125
 10
-8.8993746013
 20
-9.2349731435
 10
-8.8973915646
 20
-9.0786657615
 10
-8.8993746013
 20
-8.9203753428
 10
-8.9053124641
 20
-8.760107511
 10
-8.9151882826
 20
-8.5983176173
 10
-8.9290132557
 20
-8.4350013331
 10
-8.9467761845
 20
-8.2701629871
 10
-8.968426601
 20
-8.1042709161
 10
-8.9939755609
 20
-7.9373221235
 10
-9.0234120085
 20
-7.769319606
 10
-9.0566523095
 20
-7.6007406903
 10
-9.0937072813
 20
-7.4315837375
 10
-9.1345661065
 20
-7.2618503866
 10
-9.1791126972
 20
-7.0920228822
 10
-9.2273575412
 20
-6.9221009566
 10
-9.2792901507
 20
-6.7520848775
 10
-9.3347629755
 20
-6.5824576927
 10
-9.3937860835
 20
-6.4132205083
 10
-9.4563494067
 20
-6.2443722182
 10
-9.5222751909
 20
-6.0763925525
 10
-9.5915729986
 20
-5.9092839812
 10
-9.6642332673
 20
-5.7430440342
 10
-9.7400495554
 20
-5.5781450307
 10
-9.8190308384
 20
-5.414590784
 10
-9.9011681408
 20
-5.2523774808
 10
-9.986228095
 20
-5.0919659996
 10
-10.0742190127
 20
-4.9333614647
 10
-10.1651325822
 20
-4.7765587519
 10
-10.258710501
 20
-4.6220033673
 10
-10.354960346
 20
-4.4697017021
 10
-10.4538745402
 20
-4.3196473652
 10
-10.5551720497
 20
-4.1722666892
 10
-10.6588596522
 20
-4.0275672779
 10
-10.7649305701
 20
-3.8855415275
 10
-10.8730834356
 20
-3.7465929602
 10
-10.9833241697
 20
-3.610730327
 10
-11.0956468515
 20
-3.4779448768
 10
-11.209732351
 20
-3.3486138783
 10
-11.3255856815
 20
-3.2227471554
 10
-11.4432018297
 20
-3.1003348841
 10
-11.562246626
 20
-2.9817248608
 10
-11.6827241331
 20
-2.8669278986
 10
-11.8046302883
 20
-2.7559331845
 10
-11.927618733
 20
-2.6490560754
 10
-12.0516925452
 20
-2.5463082812
 10
-12.176848647
 20
-2.4476780921
 10
-12.3027314461
 20
-2.3534457349
 10
-12.4293430093
 20
-2.2636237167
 10
-12.55668127
 20
-2.1781995305
 10
-12.6843844359
 20
-2.0974158825
 10
-12.8123319098
 20
-2.0213536749
 10
-12.9406442891
 20
-1.9499320057
 10
-13.0693215736
 20
-1.8831508746
  0
LWPOLYLINE
  5
276
100
AcDbEntity
  8
0
100
AcDbPolyline
 62
250
  6
CONTINUOUS
 90
10
 70
0
 10
-13.0693215736
 20
-12.1022506393
 10
-13.1979988582
 20
-12.0354695083
 10
-13.3263112374
 20
-11.964047839
 10
-13.4542587114
 20
-11.8879856314
 10
-13.5819618773
 20
-11.8072019835
 10
-13.7093001379
 20
-11.7217777973
 10
-13.8359117012
 20
-11.631955779
 10
-13.9617945003
 20
-11.5377234219
 10
-14.0869506021
 20
-11.4390932327
 10
-14.1392640569
 20
-11.3957715036
  0
LWPOLYLINE
  5
277
100
AcDbEntity
  8
0
100
AcDbPolyline
 62
7
  6
CONTINUOUS
 90
7
 70
0
 10
-12.9393749808
 20
-12.3726875395
 10
-13.2117136068
 20
-12.2266310737
 10
-13.481739421
 20
-12.0620887956
 10
-13.7486676061
 20
-11.879681438
 10
-14.0118389832
 20
-11.6799717867
 10
-14.2703872325
 20
-11.463709235
 10
-14.2720644444
 20
-11.4621716974
  0
LWPOLYLINE
  5
278
100
AcDbEntity
  8
RACCORDO
100
AcDbPolyline
 62
250
  6
CONTINUOUS
 90
32
 70
0
 10
-14.3938516016
 20
-11.523065276
 10
-14.382989258
 20
-11.5334182153
 10
-14.2705668626
 20
-11.6367814639
 10
-14.1573184895
 20
-11.737153632
 10
-14.0432433946
 20
-11.8345297682
 10
-13.9283439751
 20
-11.9289156759
 10
-13.8128322785
 20
-12.0201384078
 10
-13.6967080032
 20
-12.108192406
 10
-13.5799727234
 20
-12.1930838849
 10
-13.4628412187
 20
-12.2746575143
 10
-13.345313155
 20
-12.3529075211
 10
-13.2273897305
 20
-12.4278401245
 10
-13.109287926
 20
-12.4993179328
 10
-12.9910077228
 20
-12.5673347201
 10
-12.8725495764
 20
-12.6318969379
 10
-12.7541310729
 20
-12.6928861566
 10
-12.6357523213
 20
-12.7502958603
 10
-12.5174132126
 20
-12.8041325648
 10
-12.3993308961
 20
-12.8542973318
 10
-12.2815056079
 20
-12.9007833638
 10
-12.163936675
 20
-12.9435972326
 10
-12.0468397779
 20
-12.9826599988
 10
-11.930215464
 20
-13.0179645704
 10
-11.8140623218
 20
-13.0495175933
 10
-11.698592996
 20
-13.0772606851
 10
-11.5838079972
 20
-13.1011865887
 10
-11.4697055423
 20
-13.1213019048
 10
-11.3564947536
 20
-13.1375689946
 10
-11.2441765743
 20
-13.1499803848
 10
-11.1327484082
 20
-13.158542697
 10
-11.0224140062
 20
-13.1632394034
 10
-10.9131742111
 20
-13.1640629099
  0
LWPOLYLINE
  5
279
100
AcDbEntity
  8
RACCORDO
100
AcDbPolyline
 62
250
  6
CONTINUOUS
 90
19
 70
0
 10
-15.181382815
 20
19.9457221142
 10
-15.1811639438
 20
19.9350611219
 10
-15.1805073881
 20
19.9246397054
 10
-15.1794140504
 20
19.9144841281
 10
-15.1778856006
 20
19.904618274
 10
-15.175925282
 20
19.8950690773
 10
-15.1735386989
 20
19.8858658412
 10
-15.1707323661
 20
19.8770331146
 10
-15.1675128491
 20
19.8685910738
 10
-15.1638880799
 20
19.8605605592
 10
-15.1598669968
 20
19.8529614739
 10
-15.1554596236
 20
19.8458128522
 10
-15.1506769958
 20
19.8391326246
 10
-15.1455310229
 20
19.8329374235
 10
-15.140034494
 20
19.8272426432
 10
-15.1342011507
 20
19.8220625069
 10
-15.1280455619
 20
19.8174099156
 10
-15.1215830067
 20
19.813296383
 10
-15.1164095186
 20
19.8105036641
  0
LINE
  5
27A
100
AcDbEntity
  8
RACCORDO
100
AcDbLine
 62
7
  6
CONTINUOUS
 10
-15.2546061197
 20
20.3740843959
 11
-15.2546061197
 21
20.0341104618
  0
LINE
  5
27B
100
AcDbEntity
  8
RACCORDO
100
AcDbLine
 62
250
  6
CONTINUOUS
 10
-15.181382815
 20
20.2856960483
 11
-15.181382815
 21
19.9457221142
  0
LINE
  5
27C
100
AcDbEntity
  8
RACCORDO
100
AcDbLine
 62
7
  6
CONTINUOUS
 10
-14.5516131654
 20
19.5281054875
 11
-14.5516131654
 21
19.0741313858
  0
LINE
  5
27D
100
AcDbEntity
  8
RACCORDO
100
AcDbLine
 62
250
  6
CONTINUOUS
 10
-14.4783898607
 20
19.4914938351
 11
-14.4783898607
 21
18.982419691
  0
LINE
  5
27E
100
AcDbEntity
  8
RACCORDO
100
AcDbLine
 62
250
  6
CONTINUOUS
 10
-13.8563981352
 20
19.2832297743
 11
-13.8563981352
 21
19.6232037084
  0
LWPOLYLINE
  5
27F
100
AcDbEntity
  8
RACCORDO
100
AcDbPolyline
 62
250
  6
CONTINUOUS
 90
31
 70
0
 10
-15.181382815
 20
20.2856960483
 10
-15.1811434601
 20
20.2970785484
 10
-15.1804254549
 20
20.3086767741
 10
-15.1792298647
 20
20.320459635
 10
-15.1775586673
 20
20.3323979025
 10
-15.1754157324
 20
20.3444569534
 10
-15.1728077769
 20
20.3565966573
 10
-15.1697426049
 20
20.3687813582
 10
-15.1662280506
 20
20.3809804836
 10
-15.1622735694
 20
20.3931611556
 10
-15.1578898056
 20
20.4052904434
 10
-15.1530887259
 20
20.4173351073
 10
-15.1478835204
 20
20.429262018
 10
-15.1422884315
 20
20.4410385695
 10
-15.1363186286
 20
20.4526328593
 10
-15.1299903066
 20
20.4640134297
 10
-15.1233206556
 20
20.4751493473
 10
-15.1163278481
 20
20.4860102509
 10
-15.1090309393
 20
20.4965665354
 10
-15.1014497969
 20
20.5067894556
 10
-15.0936050456
 20
20.516651196
 10
-15.0855180394
 20
20.5261249085
 10
-15.0772107872
 20
20.5351848063
 10
-15.0687059004
 20
20.543806226
 10
-15.0600265354
 20
20.5519656915
 10
-15.0511963094
 20
20.5596409981
 10
-15.0422392631
 20
20.5668112472
 10
-15.0331798039
 20
20.5734569016
 10
-15.0240426003
 20
20.5795598703
 10
-15.014852514
 20
20.5851035526
 10
-15.005634559
 20
20.5900728633
  0
LWPOLYLINE
  5
280
100
AcDbEntity
  8
RACCORDO
100
AcDbPolyline
 62
250
  6
CONTINUOUS
 90
31
 70
0
 10
-13.8563981352
 20
19.6232037084
 10
-13.8561587802
 20
19.6345862085
 10
-13.855440775
 20
19.6461844342
 10
-13.8542451849
 20
19.6579672951
 10
-13.8525739875
 20
19.6699055626
 10
-13.8504310526
 20
19.6819646135
 10
-13.8478230971
 20
19.6941043174
 10
-13.8447579251
 20
19.7062890183
 10
-13.8412433708
 20
19.7184881437
 10
-13.8372888895
 20
19.7306688157
 10
-13.8329051257
 20
19.7427981035
 10
-13.8281040461
 20
19.7548427674
 10
-13.8228988406
 20
19.7667696781
 10
-13.8173037517
 20
19.7785462296
 10
-13.8113339487
 20
19.7901405193
 10
-13.8050056268
 20
19.8015210898
 10
-13.7983359757
 20
19.8126570074
 10
-13.7913431682
 20
19.8235179109
 10
-13.7840462595
 20
19.8340741955
 10
-13.776465117
 20
19.8442971157
 10
-13.7686203658
 20
19.8541588561
 10
-13.7605333596
 20
19.8636325686
 10
-13.7522261074
 20
19.8726924664
 10
-13.7437212206
 20
19.8813138861
 10
-13.7350418555
 20
19.8894733516
 10
-13.7262116296
 20
19.8971486582
 10
-13.7172545832
 20
19.9043189073
 10
-13.708195124
 20
19.9109645616
 10
-13.6990579205
 20
19.9170675304
 10
-13.6898678341
 20
19.9226112127
 10
-13.6806498792
 20
19.9275805233
  0
LWPOLYLINE
  5
281
100
AcDbEntity
  8
ASSI
100
AcDbPolyline
 62
7
  6
CONTINUOUS
 90
19
 70
0
 10
-14.8370885266
 20
-11.7446837385
 10
-14.8396238577
 20
-11.8347201764
 10
-14.846928051
 20
-11.9259350504
 10
-14.8590011063
 20
-12.0183283604
 10
-14.8759422382
 20
-12.1123351019
 10
-14.8976522322
 20
-12.2075202795
 10
-14.9238334447
 20
-12.3025789065
 10
-14.9545474576
 20
-12.39750924
 10
-14.9897326891
 20
-12.4923130229
 10
-15.0289067504
 20
-12.5856904977
 10
-15.0721245794
 20
-12.6776220198
 10
-15.1193312383
 20
-12.7681272337
 10
-15.1698795249
 20
-12.8559653151
 10
-15.2238154631
 20
-12.9410995296
 10
-15.281093029
 20
-13.0235666116
 10
-15.3409269485
 20
-13.1022359393
 10
-15.4030554636
 20
-13.1767306387
 10
-15.4677403322
 20
-13.2474275837
 10
-15.5349815544
 20
-13.3143267744
  0
LWPOLYLINE
  5
282
100
AcDbEntity
  8
0
100
AcDbPolyline
 62
7
  6
CONTINUOUS
 90
14
 70
0
 10
-17.3279286625
 20
-3.864379965
 10
-17.2795526571
 20
-3.5777270727
 10
-17.2128460697
 20
-3.2873675823
 10
-17.1304478504
 20
-3.0089170802
 10
-17.0331172767
 20
-2.7446130393
 10
-16.9215685365
 20
-2.4955498908
 10
-16.796104913
 20
-2.2617105945
 10
-16.6571441112
 20
-2.0434624057
 10
-16.5051242925
 20
-1.8412184191
 10
-16.3407441031
 20
-1.655662971
 10
-16.1649603351
 20
-1.4875461236
 10
-15.9786904254
 20
-1.3373398057
 10
-15.7827106552
 20
-1.2052728063
 10
-15.5779351942
 20
-1.0915900393
  0
LWPOLYLINE
  5
283
100
AcDbEntity
  8
0
100
AcDbPolyline
 62
250
  6
CONTINUOUS
 90
45
 70
0
 10
-17.1430483812
 20
-3.8543540327
 10
-17.1152311387
 20
-3.7234100409
 10
-17.0819908378
 20
-3.5880714262
 10
-17.0449358659
 20
-3.4559694452
 10
-17.0040770408
 20
-3.3270949194
 10
-16.95953045
 20
-3.2018140058
 10
-16.9112856061
 20
-3.0801369241
 10
-16.8593529966
 20
-2.9620534546
 10
-16.8038801718
 20
-2.8478990946
 10
-16.7448570638
 20
-2.7376850181
 10
-16.6822937406
 20
-2.6314000513
 10
-16.6163679564
 20
-2.5293461697
 10
-16.5470701487
 20
-2.4315354062
 10
-16.47440988
 20
-2.3379557279
 10
-16.3985935918
 20
-2.2488730125
 10
-16.3196123089
 20
-2.1643000488
 10
-16.2374750065
 20
-2.0842240479
 10
-16.1524150523
 20
-2.0088725209
 10
-16.0644241346
 20
-1.9382589037
 10
-15.973510565
 20
-1.8723697605
 10
-15.8799326463
 20
-1.8113922946
 10
-15.7836828013
 20
-1.7553404745
 10
-15.6847686071
 20
-1.7042003317
 10
-15.5834710976
 20
-1.6581171652
 10
-15.479783495
 20
-1.6171053565
 10
-15.3737125772
 20
-1.5811505239
 10
-15.2655597116
 20
-1.5503548221
 10
-15.1553189776
 20
-1.5247329231
 10
-15.0429962958
 20
-1.5042701547
 10
-14.9289107963
 20
-1.4890246557
 10
-14.8130574658
 20
-1.4790112632
 10
-14.6954413175
 20
-1.4742151402
 10
-14.5763965213
 20
-1.4746499131
 10
-14.4559190142
 20
-1.4803304581
 10
-14.334012859
 20
-1.4912418992
 10
-14.2110244143
 20
-1.5073532348
 10
-14.0869506021
 20
-1.5286792528
 10
-13.9617945003
 20
-1.5552051654
 10
-13.8359117012
 20
-1.5868556074
 10
-13.7093001379
 20
-1.6236451524
 10
-13.5819618773
 20
-1.6655592268
 10
-13.4542587114
 20
-1.7124787448
 10
-13.3263112374
 20
-1.7643640111
 10
-13.1979988582
 20
-1.8212547211
 10
-13.0693215736
 20
-1.8831508746
  0
LINE
  5
284
100
AcDbEntity
  8
ASSI
100
AcDbLine
 62
7
  6
CONTINUOUS
 10
-29.766255363
 20
-8.974023737
 11
-25.1543550754
 21
-4.6122236762
  0
LINE
  5
285
100
AcDbEntity
  8
RACCORDO
100
AcDbLine
 62
7
  6
CONTINUOUS
 10
-5.1708062064
 20
17.371871696
 11
-4.2598795927
 21
18.169109241
  0
LINE
  5
286
100
AcDbEntity
  8
RACCORDO
100
AcDbLine
 62
250
  6
CONTINUOUS
 10
-5.1092451845
 20
17.3410911851
 11
-4.1604350043
 21
18.1714842017
  0
LINE
  5
287
100
AcDbEntity
  8
RACCORDO
100
AcDbLine
 62
7
  6
CONTINUOUS
 10
-2.9576946027
 20
14.3508119361
 11
-3.3153737519
 21
14.1512159842
  0
LINE
  5
288
100
AcDbEntity
  8
RACCORDO
100
AcDbLine
 62
7
  6
CONTINUOUS
 10
-3.3153737519
 20
15.3839429565
 11
-2.9576946027
 21
15.5632475014
  0
LINE
  5
289
100
AcDbEntity
  8
RACCORDO
100
AcDbLine
 62
7
  6
CONTINUOUS
 10
9.1342091721
 20
22.4659531743
 11
8.3152770296
 21
22.056487103
  0
LINE
  5
28A
100
AcDbEntity
  8
ASSI
100
AcDbLine
 62
7
  6
CONTINUOUS
 10
-2.9576946027
 20
15.5632475014
 11
2.3167974665
 21
18.1935566353
  0
LINE
  5
28B
100
AcDbEntity
  8
DRAFT
100
AcDbLine
 62
7
  6
CONTINUOUS
 10
-2.9576946027
 20
14.3508119361
 11
2.3671394676
 21
16.987143368
  0
LINE
  5
28C
100
AcDbEntity
  8
ASSI
100
AcDbLine
 62
7
  6
CONTINUOUS
 10
1.7112670318
 20
18.4963218526
 11
-2.8869839246
 21
16.2299605551
  0
LINE
  5
28D
100
AcDbEntity
  8
RACCORDO
100
AcDbLine
 62
7
  6
CONTINUOUS
 10
3.129594308
 20
18.3087630406
 11
2.4907335314
 21
17.9961609155
  0
LINE
  5
28E
100
AcDbEntity
  8
RACCORDO
100
AcDbLine
 62
7
  6
CONTINUOUS
 10
9.0969582301
 20
22.3264412414
 11
12.6858282539
 21
24.0137685064
  0
LWPOLYLINE
  5
28F
100
AcDbEntity
  8
RACCORDO
100
AcDbPolyline
 62
7
  6
CONTINUOUS
 90
18
 70
0
 10
3.129594308
 20
18.3087630406
 10
3.1579688287
 20
18.3219449974
 10
3.1862032807
 20
18.3336793891
 10
3.214297664
 20
18.3439662158
 10
3.242301977
 20
18.3528183504
 10
3.2701662213
 20
18.3602229199
 10
3.2977404009
 20
18.3661413056
 10
3.3250095296
 20
18.3705647268
 10
3.3519885936
 20
18.3735019642
 10
3.3785725562
 20
18.3749407402
 10
3.4047775151
 20
18.3748736036
 10
3.4305873725
 20
18.3733080056
 10
3.4558487988
 20
18.3702540222
 10
3.4805385521
 20
18.3657082378
 10
3.5046798742
 20
18.359674068
 10
3.5281891605
 20
18.3521718352
 10
3.5510849407
 20
18.3431864205
 10
3.5706329252
 20
18.3341037337
  0
LINE
  5
290
100
AcDbEntity
  8
RACCORDO
100
AcDbLine
 62
7
  6
CONTINUOUS
 10
-3.8790410547
 20
15.2516652923
 11
-3.9666246356
 21
15.2256900868
  0
LWPOLYLINE
  5
291
100
AcDbEntity
  8
RACCORDO
100
AcDbPolyline
 62
7
  6
CONTINUOUS
 90
4
 70
0
 10
-3.9666246356
 20
15.2256900868
 10
-3.9998189749
 20
15.216026283
 10
-4.0102684073
 20
15.2130661477
 10
-4.0204176712
 20
15.2102635317
  0
LWPOLYLINE
  5
292
100
AcDbEntity
  8
RACCORDO
100
AcDbPolyline
 62
250
  6
CONTINUOUS
 90
22
 70
0
 10
-11.7755043499
 20
-12.7729697422
 10
-11.7012639423
 20
-12.7931486533
 10
-11.589197108
 20
-12.8200901361
 10
-11.4777946573
 20
-12.8433346172
 10
-11.3671250499
 20
-12.8628676869
 10
-11.2572535088
 20
-12.8786759112
 10
-11.1482480808
 20
-12.8907497386
 10
-11.0401756115
 20
-12.8990817011
 10
-10.9330987713
 20
-12.9036649012
 10
-10.8270836499
 20
-12.9044966617
 10
-10.722195661
 20
-12.9015763889
 10
-10.6184955201
 20
-12.894903765
 10
-10.5160476491
 20
-12.8844830792
 10
-10.4149149686
 20
-12.8703207112
 10
-10.3151548272
 20
-12.8524229264
 10
-10.2168289491
 20
-12.8308008174
 10
-10.1199981471
 20
-12.8054676689
 10
-10.0247171228
 20
-12.7764364393
 10
-9.9310450312
 20
-12.7437251071
 10
-9.8390397309
 20
-12.7073537706
 10
-9.7487525254
 20
-12.6673419549
 10
-9.6776308037
 20
-12.6326431513
  0
LINE
  5
293
100
AcDbEntity
  8
ASSI
100
AcDbLine
 62
250
  6
CONTINUOUS
 10
-23.740141513
 20
-5.3193304574
 11
-25.1543550754
 21
-4.6122236762
  0
LINE
  5
294
100
AcDbEntity
  8
ASSI
100
AcDbLine
 62
250
  6
CONTINUOUS
 10
-23.0146072251
 20
-4.9565633135
 11
-24.4288207874
 21
-4.2494565323
  0
LWPOLYLINE
  5
295
100
AcDbEntity
  8
RACCORDO
100
AcDbPolyline
 62
250
  6
CONTINUOUS
 90
31
 70
0
 10
-0.1395580111
 20
-28.6990461712
 10
-0.1444420282
 20
-28.6914250741
 10
-0.1497926317
 20
-28.6835820183
 10
-0.15559521
 20
-28.6755384218
 10
-0.1618339177
 20
-28.6673162497
 10
-0.168491718
 20
-28.6589379552
 10
-0.17555043
 20
-28.6504264177
 10
-0.1829907777
 20
-28.6418048802
 10
-0.1907924431
 20
-28.6330968866
 10
-0.1989341216
 20
-28.6243262164
 10
-0.2073935799
 20
-28.6155168206
 10
-0.2161477169
 20
-28.6066927557
 10
-0.2251726271
 20
-28.5978781185
 10
-0.2344436651
 20
-28.5890969798
 10
-0.2439355139
 20
-28.5803733191
 10
-0.253622253
 20
-28.5717309589
 10
-0.2634774301
 20
-28.5631934997
 10
-0.2734741328
 20
-28.5547842555
 10
-0.283585062
 20
-28.5465261902
 10
-0.2937826071
 20
-28.5384418548
 10
-0.3040389206
 20
-28.5305533259
 10
-0.3143259947
 20
-28.5228821455
 10
-0.3246157376
 20
-28.515449262
 10
-0.33488005
 20
-28.508274973
 10
-0.3450909024
 20
-28.5013788699
 10
-0.355220411
 20
-28.4947797847
 10
-0.3652409143
 20
-28.488495738
 10
-0.3751250484
 20
-28.4825438902
 10
-0.3848458217
 20
-28.4769404946
 10
-0.3943766889
 20
-28.471700853
 10
-0.4036916231
 20
-28.4668392735
  0
LWPOLYLINE
  5
296
100
AcDbEntity
  8
RACCORDO
100
AcDbPolyline
 62
250
  6
CONTINUOUS
 90
31
 70
0
 10
-13.5038761755
 20
19.6226909845
 10
-13.5041698774
 20
19.6340892029
 10
-13.504942806
 20
19.645706184
 10
-13.5061937503
 20
19.657510568
 10
-13.5079205953
 20
19.669472898
 10
-13.5101192876
 20
19.6815582014
 10
-13.5127828613
 20
19.6937258699
 10
-13.5159032797
 20
19.7059398622
 10
-13.5194725188
 20
19.7181693429
 10
-13.5234809107
 20
19.7303811256
 10
-13.5279175913
 20
19.7425419621
 10
-13.5327703574
 20
19.7546182675
 10
-13.5380257726
 20
19.7665765636
 10
-13.5436693483
 20
19.7783839109
 10
-13.5496856725
 20
19.7900080914
 10
-13.556058303
 20
19.8014173324
 10
-13.5627698013
 20
19.8125803926
 10
-13.569801745
 20
19.8234666106
 10
-13.577134829
 20
19.8340460911
 10
-13.5847489388
 20
19.8442898112
 10
-13.5926232065
 20
19.854169693
 10
-13.6007360392
 20
19.8636586397
 10
-13.609065194
 20
19.8727306322
 10
-13.6175878316
 20
19.8813607904
 10
-13.6262805752
 20
19.8895254406
 10
-13.635119595
 20
19.8972021983
 10
-13.6440806486
 20
19.9043700069
 10
-13.6531391384
 20
19.9110091922
 10
-13.6622702163
 20
19.9171015473
 10
-13.6714488526
 20
19.9226303765
 10
-13.6806498792
 20
19.9275805233
  0
LWPOLYLINE
  5
297
100
AcDbEntity
  8
RACCORDO
100
AcDbPolyline
 62
250
  6
CONTINUOUS
 90
19
 70
0
 10
-13.8563981352
 20
19.2832297743
 10
-13.856179264
 20
19.272568782
 10
-13.8555227083
 20
19.2621473655
 10
-13.8544293706
 20
19.2519917882
 10
-13.8529009208
 20
19.2421259341
 10
-13.8509406022
 20
19.2325767374
 10
-13.8485540191
 20
19.2233735013
 10
-13.8457476863
 20
19.2145407747
 10
-13.8425281693
 20
19.2060987339
 10
-13.8389034001
 20
19.1980682193
 10
-13.834882317
 20
19.190469134
 10
-13.8304749438
 20
19.1833205123
 10
-13.825692316
 20
19.1766402847
 10
-13.8205463431
 20
19.1704450836
 10
-13.8150498142
 20
19.1647503033
 10
-13.8092164709
 20
19.159570167
 10
-13.8030608821
 20
19.1549175757
 10
-13.7965983268
 20
19.1508040431
 10
-13.7914248387
 20
19.1480113242
  0
LWPOLYLINE
  5
298
100
AcDbEntity
  8
RACCORDO
100
AcDbPolyline
 62
7
  6
CONTINUOUS
 90
34
 70
0
 10
-11.9025953847
 20
20.425412988
 10
-11.9027954407
 20
20.4358147967
 10
-11.9033956782
 20
20.4463931647
 10
-11.9043946362
 20
20.4571241828
 10
-11.9057898717
 20
20.4679836359
 10
-11.90757822
 20
20.4789469284
 10
-11.9097558013
 20
20.4899891393
 10
-11.9123176258
 20
20.5010852862
 10
-11.9152578001
 20
20.5122102797
 10
-11.9185697951
 20
20.5233388501
 10
-11.9222460722
 20
20.5344458079
 10
-11.9262782324
 20
20.5455060291
 10
-11.9306572297
 20
20.5564944103
 10
-11.9353731303
 20
20.567386068
 10
-11.9404152003
 20
20.5781563551
 10
-11.9457720609
 20
20.5887808463
 10
-11.9514315852
 20
20.5992354708
 10
-11.9573809231
 20
20.6094965609
 10
-11.9636065949
 20
20.6195408673
 10
-11.9700945274
 20
20.6293456222
 10
-11.9768300162
 20
20.6388886194
 10
-11.9837977555
 20
20.6481482596
 10
-11.9909820125
 20
20.657103542
 10
-11.9983665282
 20
20.665734174
 10
-12.0059344825
 20
20.6740206467
 10
-12.013668804
 20
20.681944154
 10
-12.02155201
 20
20.6894867301
 10
-12.0295661095
 20
20.6966313539
 10
-12.0376930398
 20
20.7033617966
 10
-12.0459144509
 20
20.7096627852
 10
-12.0542115476
 20
20.7155201324
 10
-12.0625655409
 20
20.7209205692
 10
-12.0709576901
 20
20.7258517738
 10
-12.0793690884
 20
20.7303025269
  0
LWPOLYLINE
  5
299
100
AcDbEntity
  8
RACCORDO
100
AcDbPolyline
 62
250
  6
CONTINUOUS
 90
31
 70
0
 10
-11.3743282129
 20
20.6888518081
 10
-11.374518461
 20
20.7003324704
 10
-11.3751957255
 20
20.7120226253
 10
-11.3763581524
 20
20.7238902192
 10
-11.3780025591
 20
20.7359027233
 10
-11.3801244386
 20
20.7480271883
 10
-11.3827179675
 20
20.7602303335
 10
-11.385776031
 20
20.7724786891
 10
-11.3892902441
 20
20.7847386773
 10
-11.3932509658
 20
20.7969766692
 10
-11.3976473325
 20
20.8091591057
 10
-11.4024672877
 20
20.8212525848
 10
-11.4076976108
 20
20.8332239421
 10
-11.4133239646
 20
20.8450403665
 10
-11.4193309132
 20
20.8566694445
 10
-11.425701958
 20
20.8680792467
 10
-11.4324195948
 20
20.879238446
 10
-11.4394654242
 20
20.890116498
 10
-11.4468201867
 20
20.9006836714
 10
-11.4544638192
 20
20.9109111193
 10
-11.4623752722
 20
20.920770657
 10
-11.4705326064
 20
20.9302349689
 10
-11.4789132726
 20
20.9392779682
 10
-11.4874944324
 20
20.947875085
 10
-11.496252792
 20
20.9560030084
 10
-11.5051663021
 20
20.9636410676
 10
-11.5142086225
 20
20.9707664865
 10
-11.5233491913
 20
20.9773557583
 10
-11.5325608642
 20
20.9833906451
 10
-11.5418202279
 20
20.9888571258
 10
-11.5511019166
 20
20.9937413469
  0
LINE
  5
29A
100
AcDbEntity
  8
RACCORDO
100
AcDbLine
 62
250
  6
CONTINUOUS
 10
-13.5038761755
 20
19.2827170504
 11
-13.5038761755
 21
19.6226909845
  0
LINE
  5
29B
100
AcDbEntity
  8
RACCORDO
100
AcDbLine
 62
250
  6
CONTINUOUS
 10
-13.1451775271
 20
19.0046341471
 11
-13.1451775271
 21
18.3158135242
  0
LINE
  5
29C
100
AcDbEntity
  8
RACCORDO
100
AcDbLine
 62
250
  6
CONTINUOUS
 10
-12.7926555674
 20
19.1342135275
 11
-12.7926555674
 21
18.3265814058
  0
LINE
  5
29D
100
AcDbEntity
  8
ASSI
100
AcDbLine
 62
7
  6
CONTINUOUS
 10
-12.3622147924
 20
-10.5072468714
 11
-12.3622147924
 21
-4.1852614238
  0
LINE
  5
29E
100
AcDbEntity
  8
RACCORDO
100
AcDbLine
 62
7
  6
CONTINUOUS
 10
-11.9025953847
 20
18.8232623271
 11
-11.9025953847
 21
20.425412988
  0
LINE
  5
29F
100
AcDbEntity
  8
RACCORDO
100
AcDbLine
 62
250
  6
CONTINUOUS
 10
-11.3743282129
 20
20.6888518081
 11
-11.3743282129
 21
20.3413202913
  0
LINE
  5
2A0
100
AcDbEntity
  8
RACCORDO
100
AcDbLine
 62
7
  6
CONTINUOUS
 10
-11.3021303559
 20
20.7767244402
 11
-11.3021303559
 21
20.4291929235
  0
LWPOLYLINE
  5
2A1
100
AcDbEntity
  8
RACCORDO
100
AcDbPolyline
 62
250
  6
CONTINUOUS
 90
16
 70
0
 10
-11.3021303559
 20
20.7767244402
 10
-11.3024316265
 20
20.7705896114
 10
-11.3034113451
 20
20.7640866632
 10
-11.3050680341
 20
20.757618099
 10
-11.3073971856
 20
20.7512015322
 10
-11.3103924658
 20
20.7448544211
 10
-11.3140457247
 20
20.7385940443
 10
-11.3183470228
 20
20.7324374412
 10
-11.3232846553
 20
20.7264013707
 10
-11.3288451806
 20
20.7205022683
 10
-11.3350134697
 20
20.7147561868
 10
-11.341772731
 20
20.7091787712
 10
-11.3491045449
 20
20.7037852189
 10
-11.356988943
 20
20.6985902144
 10
-11.3654044688
 20
20.693607891
 10
-11.3743282129
 20
20.6888518081
  0
LWPOLYLINE
  5
2A2
100
AcDbEntity
  8
RACCORDO
100
AcDbPolyline
 62
250
  6
CONTINUOUS
 90
16
 70
0
 10
-11.3021303559
 20
20.4291929235
 10
-11.3024346725
 20
20.4230271783
 10
-11.3034174717
 20
20.4165250386
 10
-11.3050770771
 20
20.4100573714
 10
-11.3074089966
 20
20.4036417186
 10
-11.3104068724
 20
20.397295598
 10
-11.3140624474
 20
20.3910364335
 10
-11.3183656489
 20
20.3848813513
 10
-11.3233047755
 20
20.3788469859
 10
-11.3288664886
 20
20.3729496005
 10
-11.3350363088
 20
20.3672046692
 10
-11.341796916
 20
20.3616284283
 10
-11.3491277984
 20
20.3562375234
 10
-11.3570077943
 20
20.3510469288
 10
-11.3654156893
 20
20.3460700728
 10
-11.3743282129
 20
20.3413202913
  0
LWPOLYLINE
  5
2A3
100
AcDbEntity
  8
RACCORDO
100
AcDbPolyline
 62
7
  6
CONTINUOUS
 90
5
 70
0
 10
-9.6733499412
 20
18.3505304211
 10
-9.6753864845
 20
18.3414090231
 10
-9.6769008433
 20
18.3315754256
 10
-9.677857227
 20
18.3211172656
 10
-9.6781892133
 20
18.3095714473
  0
LWPOLYLINE
  5
2A4
100
AcDbEntity
  8
RACCORDO
100
AcDbPolyline
 62
250
  6
CONTINUOUS
 90
9
 70
0
 10
4.7045977578
 20
22.3139196704
 10
4.7329605946
 20
22.3464967186
 10
4.792039465
 20
22.4057559359
 10
4.8571322445
 20
22.4633638691
 10
4.9280080763
 20
22.5191373367
 10
5.0045012141
 20
22.5729652722
 10
5.0864926178
 20
22.6247664559
 10
5.1737412148
 20
22.6743840952
 10
5.1942383763
 20
22.6853204635
  0
LINE
  5
2A5
100
AcDbEntity
  8
ASSI
100
AcDbLine
 62
7
  6
CONTINUOUS
 10
-28.3520418006
 20
-9.6811305182
 11
-23.740141513
 21
-5.3193304574
  0
LWPOLYLINE
  5
2A6
100
AcDbEntity
  8
ASSI
100
AcDbPolyline
 62
7
  6
CONTINUOUS
 90
10
 70
0
 10
-25.1543550754
 20
-4.6122236762
 10
-25.0752153204
 20
-4.5417391531
 10
-24.9953379825
 20
-4.4786144999
 10
-24.9147230616
 20
-4.4228497167
 10
-24.8328788358
 20
-4.3741989424
 10
-24.750297027
 20
-4.3329080379
 10
-24.6684528012
 20
-4.2997145864
 10
-24.5878378803
 20
-4.2748644488
 10
-24.5079605424
 20
-4.2581117641
 10
-24.4288207874
 20
-4.2494565323
  0
LWPOLYLINE
  5
2A7
100
AcDbEntity
  8
ASSI
100
AcDbPolyline
 62
7
  6
CONTINUOUS
 90
10
 70
0
 10
-23.740141513
 20
-5.3193304574
 10
-23.6610017581
 20
-5.2488459343
 10
-23.5811244201
 20
-5.1857212811
 10
-23.5005094993
 20
-5.1299564979
 10
-23.4186652734
 20
-5.0813057235
 10
-23.3360834646
 20
-5.0400148191
 10
-23.2542392388
 20
-5.0068213676
 10
-23.1736243179
 20
-4.98197123
 10
-23.09374698
 20
-4.9652185453
 10
-23.0146072251
 20
-4.9565633135
  0
LINE
  5
2A8
100
AcDbEntity
  8
0
100
AcDbLine
 62
7
  6
CONTINUOUS
 10
12.0157219646
 20
18.6549634723
 11
12.6188595787
 21
18.9730098622
  0
LWPOLYLINE
  5
2A9
100
AcDbEntity
  8
SMUSSO
100
AcDbPolyline
 62
7
  6
CONTINUOUS
 90
15
 70
0
 10
12.298916784
 20
20.0256638744
 10
12.1899386045
 20
19.9693175719
 10
12.0881914491
 20
19.9099928316
 10
11.9939767312
 20
19.8479162779
 10
11.9076253449
 20
19.7833756855
 10
11.8293114013
 20
19.7165599267
 10
11.7591082807
 20
19.6475420664
 10
11.6972126731
 20
19.5765086639
 10
11.6438867718
 20
19.5037524357
 10
11.5993115846
 20
19.4295010592
 10
11.5636410021
 20
19.3540127905
 10
11.5369951997
 20
19.2775437927
 10
11.5194646013
 20
19.2003242965
 10
11.5111140115
 20
19.1225869408
 10
11.5103555193
 20
19.0909871432
  0
LWPOLYLINE
  5
2AA
100
AcDbEntity
  8
SMUSSO
100
AcDbPolyline
 62
7
  6
CONTINUOUS
 90
21
 70
0
 10
11.9792380739
 20
20.8853013195
 10
11.8507961605
 20
20.8193084852
 10
11.7314108094
 20
20.7503370584
 10
11.6210820204
 20
20.6783870391
 10
11.5195835981
 20
20.6032450652
 10
11.4271417381
 20
20.5251244987
 10
11.3444350263
 20
20.4446654264
 10
11.2714680141
 20
20.3617982594
 10
11.2082361502
 20
20.2765925864
 10
11.1554043666
 20
20.1898972605
 10
11.1130761424
 20
20.1017000798
 10
11.0811479985
 20
20.0120132462
 10
11.0599744298
 20
19.9217222178
 10
11.0496773894
 20
19.8307836689
 10
11.0501349241
 20
19.7392409252
 10
11.0613356695
 20
19.6481094232
 10
11.0833980903
 20
19.5574338919
 10
11.1162037219
 20
19.4671696023
 10
11.1593858056
 20
19.3781978024
 10
11.2130300062
 20
19.2905375284
 10
11.223437556
 20
19.2753990756
  0
LINE
  5
2AB
100
AcDbEntity
  8
RACCORDO
100
AcDbLine
 62
7
  6
CONTINUOUS
 10
-0.1712283954
 20
14.7265598143
 11
-1.7544020607
 21
13.9143617562
  0
LINE
  5
2AC
100
AcDbEntity
  8
RACCORDO
100
AcDbLine
 62
250
  6
CONTINUOUS
 10
-0.0585597914
 20
14.7198978784
 11
-1.6413163946
 21
13.907913781
  0
LINE
  5
2AD
100
AcDbEntity
  8
DRAFT
100
AcDbLine
 62
7
  6
CONTINUOUS
 10
12.981626982
 20
19.9205877161
 11
12.298916784
 21
19.5781296239
  0
LINE
  5
2AE
100
AcDbEntity
  8
DRAFT
100
AcDbLine
 62
7
  6
CONTINUOUS
 10
16.5213535486
 20
21.6961698163
 11
12.9817012503
 21
19.920550582
  0
LINE
  5
2AF
100
AcDbEntity
  8
RACCORDO
100
AcDbLine
 62
250
  6
CONTINUOUS
 10
1.2849490761
 20
14.0481434446
 11
-0.3163317148
 21
13.2454214411
  0
LINE
  5
2B0
100
AcDbEntity
  8
RACCORDO
100
AcDbLine
 62
250
  6
CONTINUOUS
 10
1.4617227797
 20
13.7432539058
 11
-0.1395580111
 21
12.9405319023
  0
LINE
  5
2B1
100
AcDbEntity
  8
RACCORDO
100
AcDbLine
 62
7
  6
CONTINUOUS
 10
-0.1694919823
 20
14.7274280352
 11
-0.1712283934
 21
14.7265598153
  0
LINE
  5
2B2
100
AcDbEntity
  8
0
100
AcDbLine
 62
7
  6
CONTINUOUS
 10
12.7471470075
 20
18.7499181309
 11
13.2421217543
 21
18.9974055043
  0
LINE
  5
2B3
100
AcDbEntity
  8
RACCORDO
100
AcDbLine
 62
250
  6
CONTINUOUS
 10
1.8132162478
 20
14.3115822647
 11
1.2849490761
 21
14.0481434446
  0
LINE
  5
2B4
100
AcDbEntity
  8
RACCORDO
100
AcDbLine
 62
250
  6
CONTINUOUS
 10
1.9899899515
 20
14.0066927259
 11
1.4617227797
 21
13.7432539058
  0
LINE
  5
2B5
100
AcDbEntity
  8
DRAFT
100
AcDbLine
 62
7
  6
CONTINUOUS
 10
11.6528514336
 20
18.865470271
 11
12.9505710011
 21
19.5031030047
  0
LINE
  5
2B6
100
AcDbEntity
  8
DRAFT
100
AcDbLine
 62
7
  6
CONTINUOUS
 10
14.1949153218
 20
19.8341141479
 11
11.9080469794
 21
18.7104645173
  0
LINE
  5
2B7
100
AcDbEntity
  8
RACCORDO
100
AcDbLine
 62
7
  6
CONTINUOUS
 10
15.5060108239
 20
22.6036772214
 11
11.9792380739
 21
20.8853013195
  0
LINE
  5
2B8
100
AcDbEntity
  8
RACCORDO
100
AcDbLine
 62
7
  6
CONTINUOUS
 10
0.3653779762
 20
14.987980136
 11
-0.1694919815
 21
14.7274280356
  0
LINE
  5
2B9
100
AcDbEntity
  8
RACCORDO
100
AcDbLine
 62
250
  6
CONTINUOUS
 10
0.4758900873
 20
14.9802453449
 11
-0.0585597914
 21
14.7198978784
  0
LINE
  5
2BA
100
AcDbEntity
  8
RACCORDO
100
AcDbLine
 62
7
  6
CONTINUOUS
 10
16.5095337701
 20
22.0772343252
 11
12.298916784
 21
20.0256638744
  0
LINE
  5
2BB
100
AcDbEntity
  8
RACCORDO
100
AcDbLine
 62
7
  6
CONTINUOUS
 10
6.1965602519
 20
16.7752800686
 11
1.5130233723
 21
14.5236560733
  0
LWPOLYLINE
  5
2BC
100
AcDbEntity
  8
DRAFT
100
AcDbPolyline
 62
7
  6
CONTINUOUS
 90
31
 70
0
 10
12.9817012503
 20
19.920550582
 10
13.1344713952
 20
19.9901712602
 10
13.2953625808
 20
20.053300688
 10
13.4643748072
 20
20.1099388655
 10
13.6424750189
 20
20.1603197226
 10
13.8286962714
 20
20.2042093294
 10
14.020137731
 20
20.2409058958
 10
14.2170283602
 20
20.2703101386
 10
14.4191391966
 20
20.2925213411
 10
14.6228825186
 20
20.3071355627
 10
14.8281556243
 20
20.314013187
 10
15.0350612156
 20
20.3132938305
 10
15.2403196769
 20
20.3049924028
 10
15.4439965142
 20
20.2889798855
 10
15.6460262214
 20
20.2653852971
 10
15.8429326656
 20
20.2346106022
 10
16.0345686027
 20
20.1965429378
 10
16.2210812767
 20
20.1512951669
 10
16.3994362868
 20
20.0996078438
 10
16.5695277018
 20
20.0413678452
 10
16.7314614529
 20
19.9766882944
 10
16.8825209322
 20
19.9066491147
 10
17.0225192391
 20
19.8311581591
 10
17.1516432742
 20
19.7503075747
 10
17.2677371313
 20
19.6654537258
 10
17.3705721352
 20
19.5765448743
 10
17.460376961
 20
19.4836327583
 10
17.535681728
 20
19.3882289563
 10
17.596258059
 20
19.2902611488
 10
17.6423343312
 20
19.1898016552
 10
17.6553061578
 20
19.1471585854
  0
LWPOLYLINE
  5
2BD
100
AcDbEntity
  8
RACCORDO
100
AcDbPolyline
 62
7
  6
CONTINUOUS
 90
10
 70
0
 10
21.7997026357
 20
-6.5105218201
 10
21.7796917506
 20
-6.5156080311
 10
21.7601984885
 20
-6.5191610968
 10
21.7412228492
 20
-6.5211810171
 10
21.7226802296
 20
-6.5216196325
 10
21.7046552329
 20
-6.5205251025
 10
21.6874016691
 20
-6.5180419054
 10
21.6710041415
 20
-6.5142182005
 10
21.6553780467
 20
-6.5090058285
 10
21.6405233848
 20
-6.5024047893
  0
LWPOLYLINE
  5
2BE
100
AcDbEntity
  8
DRAFT
100
AcDbPolyline
 62
7
  6
CONTINUOUS
 90
6
 70
0
 10
-9.788075615
 20
-12.5053886401
 10
-9.6983629994
 20
-12.4938058698
 10
-9.5978240742
 20
-12.4769351237
 10
-9.4987035376
 20
-12.4563510515
 10
-9.4009808718
 20
-12.432057264
 10
-9.3231822757
 20
-12.4094346374
  0
LWPOLYLINE
  5
2BF
100
AcDbEntity
  8
RACCORDO
100
AcDbPolyline
 62
250
  6
CONTINUOUS
 90
96
 70
0
 10
-10.9131742111
 20
-13.1640629099
 10
-10.8050261828
 20
-13.1610197827
 10
-10.69816811
 20
-13.1541147167
 10
-10.592601441
 20
-13.1433400607
 10
-10.4883224304
 20
-13.1287022856
 10
-10.3855214691
 20
-13.110227266
 10
-10.2841998976
 20
-13.0879073046
 10
-10.1843538285
 20
-13.0617487927
 10
-10.0861658364
 20
-13.0317987511
 10
-9.9896376848
 20
-12.9980495446
 10
-9.8947648697
 20
-12.9605074063
 10
-9.8017206264
 20
-12.9192401926
 10
-9.7105066885
 20
-12.8742401735
 10
-9.6211184485
 20
-12.8255136123
 10
-9.5337197313
 20
-12.7731494085
 10
-9.4483129525
 20
-12.7171401677
 10
-9.3648927536
 20
-12.6574917868
 10
-9.2836114403
 20
-12.5943131756
 10
-9.2044716965
 20
-12.5275972872
 10
-9.1274678909
 20
-12.4573496741
 10
-9.0527400377
 20
-12.383698239
 10
-8.9802908818
 20
-12.3066360757
 10
-8.9101147904
 20
-12.226168632
 10
-8.8423394326
 20
-12.142442456
 10
-8.7769676782
 20
-12.0554505987
 10
-8.7139938923
 20
-11.9651986188
 10
-8.6535332481
 20
-11.8718519604
 10
-8.5955890842
 20
-11.7754039807
 10
-8.5401554825
 20
-11.6758600322
 10
-8.4873340307
 20
-11.5734037048
 10
-8.4371284456
 20
-11.4680285649
 10
-8.389532675
 20
-11.3597398849
 10
-8.3446339885
 20
-11.2487389857
 10
-8.3024366109
 20
-11.1350200461
 10
-8.2629342804
 20
-11.0185878821
 10
-8.2261989044
 20
-10.899659957
 10
-8.192235745
 20
-10.7782358715
 10
-8.161037851
 20
-10.6543152
 10
-8.1326591916
 20
-10.5281155598
 10
-8.1071036493
 20
-10.3996365149
 10
-8.0843660099
 20
-10.2688778604
 10
-8.0644869797
 20
-10.1360577532
 10
-8.0474695389
 20
-10.001163579
 10
-8.0333097368
 20
-9.8642074959
 10
-8.0220382945
 20
-9.725445027
 10
-8.0136614718
 20
-9.5848607288
 10
-8.008172473
 20
-9.4424698084
 10
-8.0055829088
 20
-9.2985740029
 10
-8.005900183
 20
-9.1531808456
 10
-8.0091168726
 20
-9.0062828262
 10
-8.0152228262
 20
-8.8581593546
 10
-8.0242229366
 20
-8.7088160815
 10
-8.0361127394
 20
-8.5582476023
 10
-8.0508684767
 20
-8.4067169583
 10
-8.0684947656
 20
-8.254222839
 10
-8.0889878174
 20
-8.1007669988
 10
-8.1123116694
 20
-7.9466172762
 10
-8.1384722342
 20
-7.791768703
 10
-8.1674648142
 20
-7.636226881
 10
-8.1992379321
 20
-7.4802757018
 10
-8.2337977442
 20
-7.3239137725
 10
-8.2711396923
 20
-7.1671433063
 10
-8.3111966212
 20
-7.0102537978
 10
-8.3539745078
 20
-6.8532458514
 10
-8.3994693251
 20
-6.6961198528
 10
-8.4475992818
 20
-6.5391651504
 10
-8.4983705522
 20
-6.3823822917
 10
-8.5517792185
 20
-6.2257718657
 10
-8.607728693
 20
-6.0696234501
 10
-8.6662269208
 20
-5.9139345534
 10
-8.72726847
 20
-5.758708925
 10
-8.7907370029
 20
-5.6042456578
 10
-8.8566403516
 20
-5.4505450212
 10
-8.9249734129
 20
-5.2976081042
 10
-8.9956007335
 20
-5.1457353676
 10
-9.0685216346
 20
-4.9949429003
 10
-9.1437396842
 20
-4.8452160448
 10
-9.2211260283
 20
-4.6968092536
 10
-9.300677709
 20
-4.5497360738
 10
-9.3824006248
 20
-4.4039844095
 10
-9.4661793663
 20
-4.2597703254
 10
-9.552028644
 20
-4.1170777187
 10
-9.6399366532
 20
-3.9759241211
 10
-9.729748349
 20
-3.8365761148
 10
-9.8214895603
 20
-3.699011838
 10
-9.9151373274
 20
-3.5632545586
 10
-10.0104635681
 20
-3.4296386233
 10
-10.1074789502
 20
-3.2981717913
 10
-10.2061756206
 20
-3.1688476788
 10
-10.3062978315
 20
-3.0419794727
 10
-10.4078533342
 20
-2.9175792187
 10
-10.5108370373
 20
-2.7956361678
 10
-10.6149739807
 20
-2.6764293395
 10
-10.7201733393
 20
-2.5600521433
 10
-10.826528362
 20
-2.4464123487
 10
-10.9340401628
 20
-2.3355104971
  0
LINE
  5
2C0
100
AcDbEntity
  8
ASSI
100
AcDbLine
 62
250
  6
CONTINUOUS
 10
-15.5349815544
 20
-4.5509482827
 11
-16.9491951168
 21
-3.8438415015
  0
LINE
  5
2C1
100
AcDbEntity
  8
ASSI
100
AcDbLine
 62
7
  6
CONTINUOUS
 10
-15.2269283051
 20
-4.6113875902
 11
-16.6411418675
 21
-3.904280809
  0
LWPOLYLINE
  5
2C2
100
AcDbEntity
  8
ASSI
100
AcDbPolyline
 62
7
  6
CONTINUOUS
 90
14
 70
0
 10
-15.2269507114
 20
-4.6114324319
 10
-15.1698795249
 20
-4.6442077125
 10
-15.1193312383
 20
-4.6814975073
 10
-15.0721245794
 20
-4.7247960623
 10
-15.0289067504
 20
-4.7735097554
 10
-14.9897326891
 20
-4.8277131688
 10
-14.9545474576
 20
-4.8873317203
 10
-14.9238334447
 20
-4.9515480409
 10
-14.8976522322
 20
-5.0204254554
 10
-14.8759422382
 20
-5.0939006389
 10
-14.8590011063
 20
-5.1709662486
 10
-14.846928051
 20
-5.2512865033
 10
-14.8396238577
 20
-5.335197184
 10
-14.8370885266
 20
-5.4226982908
  0
LWPOLYLINE
  5
2C3
100
AcDbEntity
  8
RACCORDO
100
AcDbPolyline
 62
7
  6
CONTINUOUS
 90
27
 70
0
 10
-9.6781892133
 20
18.3095714473
 10
-9.6779129769
 20
18.2986796263
 10
-9.6771217929
 20
18.2868197762
 10
-9.6758100224
 20
18.2746069597
 10
-9.6739572646
 20
18.2621011546
 10
-9.6716344349
 20
18.2493242068
 10
-9.6688398987
 20
18.2363192506
 10
-9.6655622006
 20
18.223132272
 10
-9.6618544509
 20
18.2097747594
 10
-9.6577164358
 20
18.1962791957
 10
-9.653142232
 20
18.1826817449
 10
-9.6481727398
 20
18.168990557
 10
-9.6428082718
 20
18.1552313859
 10
-9.6370462272
 20
18.1414333816
 10
-9.630919673
 20
18.1276046015
 10
-9.624429128
 20
18.1137662815
 10
-9.6175740823
 20
18.0999427474
 10
-9.6103830707
 20
18.0861437874
 10
-9.6028567724
 20
18.0723875012
 10
-9.594996133
 20
18.0586948738
 10
-9.5868276936
 20
18.0450785092
 10
-9.5783521653
 20
18.0315538517
 10
-9.5695718942
 20
18.0181398723
 10
-9.5605142093
 20
18.0048537213
 10
-9.5511893675
 20
17.9917114793
 10
-9.5415917702
 20
17.9787278291
 10
-9.5317247709
 20
17.9659170816
  0
LINE
  5
2C4
100
AcDbEntity
  8
RACCORDO
100
AcDbLine
 62
7
  6
CONTINUOUS
 10
-9.6781713803
 20
18.3095740506
 11
-9.6781713803
 21
17.0687571605
  0
LINE
  5
2C5
100
AcDbEntity
  8
RACCORDO
100
AcDbLine
 62
250
  6
CONTINUOUS
 10
-9.5317247709
 20
17.9659170816
 11
-9.5317247709
 21
16.8853337708
  0
LWPOLYLINE
  5
2C6
100
AcDbEntity
  8
RACCORDO
100
AcDbPolyline
 62
250
  6
CONTINUOUS
 90
47
 70
0
 10
4.7831990477
 20
22.2807981347
 10
4.7983898992
 20
22.3011039627
 10
4.8476731175
 20
22.3578846401
 10
4.9028067922
 20
22.4134752544
 10
4.9633102705
 20
22.4674177767
 10
5.0291826221
 20
22.5196706762
 10
5.1004247774
 20
22.5702754837
 10
5.1765588751
 20
22.6188987622
 10
5.2575755041
 20
22.6655265047
 10
5.3434840755
 20
22.7101727183
 10
5.4338349612
 20
22.7525459874
 10
5.5288852414
 20
22.7927051854
 10
5.6283778359
 20
22.8305914389
 10
5.7310918762
 20
22.8657367121
 10
5.837432745
 20
22.8981144319
 10
5.9469950596
 20
22.9277511715
 10
6.057341804
 20
22.9542586137
 10
6.1684463209
 20
22.9774580071
 10
6.2803352676
 20
22.9975281032
 10
6.3906515997
 20
23.014616839
 10
6.4990420896
 20
23.0285907348
 10
6.6058599649
 20
23.0395832704
 10
6.709807864
 20
23.0481428216
 10
6.8106436985
 20
23.0542453912
 10
6.9086095567
 20
23.0579149764
 10
7.0031343431
 20
23.0597719452
 10
7.0940560832
 20
23.059837814
 10
7.1815367514
 20
23.0580910665
 10
7.2654911747
 20
23.0550875212
 10
7.3457952481
 20
23.0508687205
 10
7.4225730767
 20
23.045393122
 10
7.4961118032
 20
23.0390919164
 10
7.5663783368
 20
23.0320058826
 10
7.6334057684
 20
23.0240942417
 10
7.6975805126
 20
23.0156658476
 10
7.7588882594
 20
23.006755207
 10
7.8173433188
 20
22.9973278132
 10
7.8733750353
 20
22.9875889994
 10
7.9269796189
 20
22.9775674777
 10
7.9781608595
 20
22.9672345359
 10
8.0273594718
 20
22.9567093712
 10
8.0745786167
 20
22.946014832
 10
8.1198151333
 20
22.9351280699
 10
8.1635002532
 20
22.9240997363
 10
8.2057777203
 20
22.912946715
 10
8.2465037907
 20
22.9016521221
 10
8.2856784644
 20
22.8902159578
  0
LWPOLYLINE
  5
2C7
100
AcDbEntity
  8
DRAFT
100
AcDbPolyline
 62
7
  6
CONTINUOUS
 90
6
 70
0
 10
-15.1524765476
 20
-0.7435301051
 10
-15.2317285659
 20
-0.8038091971
 10
-15.3094685782
 20
-0.8679042198
 10
-15.385087932
 20
-0.9353600927
 10
-15.4586001275
 20
-1.0061792235
 10
-15.5122143696
 20
-1.0618858669
  0
LWPOLYLINE
  5
2C8
100
AcDbEntity
  8
RACCORDO
100
AcDbPolyline
 62
250
  6
CONTINUOUS
 90
43
 70
0
 10
-4.0590154839
 20
9.1397979506
 10
-4.0966673298
 20
9.1182123819
 10
-4.1342011279
 20
9.0950824081
 10
-4.1715709837
 20
9.0704370255
 10
-4.208731233
 20
9.0443077217
 10
-4.2456364311
 20
9.0167266107
 10
-4.282241372
 20
8.9877261998
 10
-4.3185020555
 20
8.9573418751
 10
-4.3543733274
 20
8.9256120426
 10
-4.3898088762
 20
8.8925762317
 10
-4.4247649662
 20
8.8582759805
 10
-4.459199286
 20
8.8227536551
 10
-4.4930685583
 20
8.7860524337
 10
-4.5263314021
 20
8.7482178814
 10
-4.5589471049
 20
8.7092971211
 10
-4.5908744849
 20
8.6693377224
 10
-4.6220745685
 20
8.6283891831
 10
-4.6525091176
 20
8.5865025282
 10
-4.6821393981
 20
8.5437294559
 10
-4.7109290602
 20
8.5001232313
 10
-4.7388430449
 20
8.4557378967
 10
-4.7658461071
 20
8.410627865
 10
-4.7919051939
 20
8.364849118
 10
-4.8169884872
 20
8.3184584982
 10
-4.841064311
 20
8.2715129281
 10
-4.8641032514
 20
8.2240704833
 10
-4.8860771048
 20
8.1761901853
 10
-4.9069579253
 20
8.1279312884
 10
-4.9267200864
 20
8.0793538002
 10
-4.9453395728
 20
8.030517808
 10
-4.9627929158
 20
7.9814832675
 10
-4.9790587105
 20
7.9323110118
 10
-4.9941171587
 20
7.883061931
 10
-5.0079493338
 20
7.8337963042
 10
-5.0205383823
 20
7.7845746003
 10
-5.0318687839
 20
7.7354583705
 10
-5.0419259491
 20
7.6865094115
 10
-5.0506974154
 20
7.6377893966
 10
-5.0581728264
 20
7.5893575596
 10
-5.0643430361
 20
7.5412716254
 10
-5.0692003628
 20
7.4935904116
 10
-5.0727387831
 20
7.4463737084
 10
-5.0749538771
 20
7.3996799863
  0
LWPOLYLINE
  5
2C9
100
AcDbEntity
  8
RACCORDO
100
AcDbPolyline
 62
250
  6
CONTINUOUS
 90
43
 70
0
 10
-3.6931827439
 20
8.5367955049
 10
-3.7184611876
 20
8.5224549899
 10
-3.7436042144
 20
8.5071222794
 10
-3.7686118244
 20
8.4907973733
 10
-3.7935159228
 20
8.4734569506
 10
-3.8182846043
 20
8.4551243322
 10
-3.8428221533
 20
8.4358694817
 10
-3.8671265953
 20
8.4156895099
 10
-3.8911999048
 20
8.394587306
 10
-3.9149522901
 20
8.3726415007
 10
-3.9383822847
 20
8.349849172
 10
-3.9614913551
 20
8.3262132421
 10
-3.9841941087
 20
8.3018211078
 10
-4.0064890891
 20
8.2766699421
 10
-4.0283777528
 20
8.2507625721
 10
-4.0497790757
 20
8.2241948767
 10
-4.0706913178
 20
8.1969643084
 10
-4.0911162191
 20
8.1690734147
 10
-4.1109779766
 20
8.1406257165
 10
-4.1302744324
 20
8.1116192374
 10
-4.1490077443
 20
8.0820559538
 10
-4.1671085825
 20
8.0520453156
 10
-4.1845746099
 20
8.0215856618
 10
-4.2014081635
 20
7.9906786533
 10
-4.2175469249
 20
7.9594387229
 10
-4.2329883603
 20
7.9278645279
 10
-4.2477350034
 20
7.895957411
 10
-4.2617321365
 20
7.863835832
 10
-4.2749769164
 20
7.8314991276
 10
-4.2874721864
 20
7.7989479611
 10
-4.2991717582
 20
7.7663027833
 10
-4.310072685
 20
7.7335633009
 10
-4.3201779137
 20
7.7007298071
 10
-4.3294500968
 20
7.6679236317
 10
-4.3378862073
 20
7.6351445208
 10
-4.3454892723
 20
7.6023927283
 10
-4.3522310249
 20
7.5697903458
 10
-4.3581082302
 20
7.5373370809
 10
-4.3631241231
 20
7.5050332259
 10
-4.367260143
 20
7.4730017495
 10
-4.3705101028
 20
7.4412836413
 10
-4.3728801896
 20
7.4098379117
 10
-4.3743704032
 20
7.3786645606
  0
LINE
  5
2CA
100
AcDbEntity
  8
RACCORDO
100
AcDbLine
 62
7
  6
CONTINUOUS
 10
0.571662597
 20
11.6435536214
 11
1.4617227797
 21
12.1408504322
  0
LINE
  5
2CB
100
AcDbEntity
  8
RACCORDO
100
AcDbLine
 62
250
  6
CONTINUOUS
 10
-4.0590154839
 20
9.1397979506
 11
0.4600156545
 21
11.6068698789
  0
LINE
  5
2CC
100
AcDbEntity
  8
RACCORDO
100
AcDbLine
 62
250
  6
CONTINUOUS
 10
1.8045065286
 20
11.5381456746
 11
-3.6931827439
 21
8.5367955049
  0
LINE
  5
2CD
100
AcDbEntity
  8
RACCORDO
100
AcDbLine
 62
7
  6
CONTINUOUS
 10
7.0780957105
 20
16.0414218772
 11
1.5865523822
 21
13.0786082664
  0
LWPOLYLINE
  5
2CE
100
AcDbEntity
  8
RACCORDO
100
AcDbPolyline
 62
7
  6
CONTINUOUS
 90
13
 70
0
 10
0.571662597
 20
11.6435536214
 10
0.5637923054
 20
11.6393463132
 10
0.5556054363
 20
11.6353359039
 10
0.5471172474
 20
11.6315291413
 10
0.5383430243
 20
11.6279362167
 10
0.5292996673
 20
11.6245594431
 10
0.5200058218
 20
11.6213931232
 10
0.510478917
 20
11.6184455042
 10
0.5007369844
 20
11.615718407
 10
0.4908004976
 20
11.6131956744
 10
0.4806889995
 20
11.6108743271
 10
0.4704209204
 20
11.6087647058
 10
0.4600156545
 20
11.6068698789
  0
LINE
  5
2CF
100
AcDbEntity
  8
RACCORDO
100
AcDbLine
 62
7
  6
CONTINUOUS
 10
7.0780957105
 20
15.5440919203
 11
1.7199443733
 21
12.71154154
  0
LINE
  5
2D0
100
AcDbEntity
  8
DRAFT
100
AcDbLine
 62
7
  6
CONTINUOUS
 10
2.1661015399
 20
12.4921409245
 11
7.7571991783
 21
15.4292002627
  0
LINE
  5
2D1
100
AcDbEntity
  8
RACCORDO
100
AcDbLine
 62
7
  6
CONTINUOUS
 10
15.7102996668
 20
19.1779053566
 11
14.3988353558
 21
18.5221732011
  0
LINE
  5
2D2
100
AcDbEntity
  8
RACCORDO
100
AcDbLine
 62
7
  6
CONTINUOUS
 10
16.5588303746
 20
18.753642573
 11
15.739898232
 21
18.3441765018
  0
LWPOLYLINE
  5
2D3
100
AcDbEntity
  8
RACCORDO
100
AcDbPolyline
 62
250
  6
CONTINUOUS
 90
12
 70
0
 10
21.137546381
 20
19.5342951073
 10
21.1958291576
 20
19.5628492687
 10
21.2498740359
 20
19.5884521695
 10
21.2992762071
 20
19.6109115366
 10
21.3436670976
 20
19.6300591854
 10
21.3827106512
 20
19.6457494673
 10
21.4161084971
 20
19.657862064
 10
21.4436102107
 20
19.6663060771
 10
21.4650113912
 20
19.6710186566
 10
21.4801513616
 20
19.6719643254
 10
21.4889174166
 20
19.6691360683
 10
21.4903811261
 20
19.6674080862
  0
LWPOLYLINE
  5
2D4
100
AcDbEntity
  8
RACCORDO
100
AcDbPolyline
 62
250
  6
CONTINUOUS
 90
10
 70
0
 10
21.2263729091
 20
19.3810920085
 10
21.2958099446
 20
19.4150058935
 10
21.3590144506
 20
19.4446083253
 10
21.4153092348
 20
19.4695821344
 10
21.4640911374
 20
19.4896597437
 10
21.5048374942
 20
19.5046260357
 10
21.5371117362
 20
19.5143206568
 10
21.5605680672
 20
19.5186397361
 10
21.5749551689
 20
19.5175369975
 10
21.5792161578
 20
19.5141903662
  0
LINE
  5
2D5
100
AcDbEntity
  8
RACCORDO
100
AcDbLine
 62
250
  6
CONTINUOUS
 10
8.502726114
 20
14.1433565039
 11
20.6376225334
 21
20.0378713666
  0
LINE
  5
2D6
100
AcDbEntity
  8
RACCORDO
100
AcDbLine
 62
250
  6
CONTINUOUS
 10
8.8403944479
 20
13.5609647769
 11
21.137546381
 21
19.5342951073
  0
LINE
  5
2D7
100
AcDbEntity
  8
RACCORDO
100
AcDbLine
 62
250
  6
CONTINUOUS
 10
2.1687218508
 20
12.4871528013
 11
1.4617227797
 21
12.1532091689
  0
LINE
  5
2D8
100
AcDbEntity
  8
RACCORDO
100
AcDbLine
 62
250
  6
CONTINUOUS
 10
2.5223829515
 20
11.8772271107
 11
1.8045065286
 21
11.5381456746
  0
LINE
  5
2D9
100
AcDbEntity
  8
RACCORDO
100
AcDbLine
 62
7
  6
CONTINUOUS
 10
16.5215794326
 20
18.6141306402
 11
20.1104494563
 21
20.3014579051
  0
LWPOLYLINE
  5
2DA
100
AcDbEntity
  8
RACCORDO
100
AcDbPolyline
 62
7
  6
CONTINUOUS
 90
10
 70
0
 10
16.5588014787
 20
18.7536281251
 10
16.5701979429
 20
18.7587967803
 10
16.5814183454
 20
18.7628486767
 10
16.5924626861
 20
18.7657838142
 10
16.6034259451
 20
18.7676023456
 10
16.6142131422
 20
18.7683041181
 10
16.6245393377
 20
18.7678886737
 10
16.6343095514
 20
18.7663558598
 10
16.6436187634
 20
18.7637058291
 10
16.6524669737
 20
18.7599385815
  0
LWPOLYLINE
  5
2DB
100
AcDbEntity
  8
RACCORDO
100
AcDbPolyline
 62
250
  6
CONTINUOUS
 90
9
 70
0
 10
20.6376225334
 20
20.0378713666
 10
20.6985126949
 20
20.0637915394
 10
20.7588578339
 20
20.0830284451
 10
20.8182088303
 20
20.0954389126
 10
20.8761239629
 20
20.1009305768
 10
20.9321721971
 20
20.0994625658
 10
20.9859363924
 20
20.0910458053
 10
21.0370164077
 20
20.0757429372
 10
21.072495414
 20
20.0602346962
  0
LWPOLYLINE
  5
2DC
100
AcDbEntity
  8
RACCORDO
100
AcDbPolyline
 62
250
  6
CONTINUOUS
 90
34
 70
0
 10
-4.3743704032
 20
7.3786645606
 10
-4.3916647345
 20
7.371537094
 10
-4.409690196
 20
7.3648238075
 10
-4.4284068557
 20
7.3585395731
 10
-4.4477732504
 20
7.3526983125
 10
-4.4677464774
 20
7.3473129657
 10
-4.4882822898
 20
7.342395463
 10
-4.5093351945
 20
7.3379566983
 10
-4.5308585525
 20
7.3340065048
 10
-4.552804683
 20
7.3305536333
 10
-4.5751249685
 20
7.3276057332
 10
-4.5977699625
 20
7.3251693348
 10
-4.6206894993
 20
7.3232498356
 10
-4.643832805
 20
7.3218514879
 10
-4.6671486099
 20
7.3209773894
 10
-4.6905852623
 20
7.3206294765
 10
-4.7140908426
 20
7.3208085201
 10
-4.7376132787
 20
7.3215141234
 10
-4.761100461
 20
7.3227447233
 10
-4.784500358
 20
7.3244975937
 10
-4.8077611317
 20
7.3267688513
 10
-4.8308312523
 20
7.3295534647
 10
-4.8536596121
 20
7.3328452651
 10
-4.8761956393
 20
7.3366369601
 10
-4.8983894095
 20
7.3409201499
 10
-4.9201917566
 20
7.3456853458
 10
-4.9415543816
 20
7.3509219916
 10
-4.9624299596
 20
7.3566184865
 10
-4.9827722447
 20
7.3627622107
 10
-5.0025361723
 20
7.3693395543
 10
-5.0216779592
 20
7.3763359461
 10
-5.0401552004
 20
7.3837358872
 10
-5.057926963
 20
7.3915229842
 10
-5.074953877
 20
7.3996799864
  0
LWPOLYLINE
  5
2DD
100
AcDbEntity
  8
RACCORDO
100
AcDbPolyline
 62
7
  6
CONTINUOUS
 90
10
 70
0
 10
23.5078989732
 20
-6.1105797221
 10
23.339580519
 20
-6.1369354399
 10
23.1658407461
 20
-6.1680721026
 10
22.9866796544
 20
-6.2039897102
 10
22.8020291986
 20
-6.2450354251
 10
22.611957424
 20
-6.2908620848
 10
22.4166684668
 20
-6.3404282029
 10
22.2162303724
 20
-6.393386617
 10
22.0105750954
 20
-6.4500844894
 10
21.7997026357
 20
-6.5105218201
  0
LINE
  5
2DE
100
AcDbEntity
  8
ASSI
100
AcDbLine
 62
7
  6
CONTINUOUS
 10
-12.3622147924
 20
-4.1852614238
 11
-13.7764283548
 21
-3.4781546426
  0
LWPOLYLINE
  5
2DF
100
AcDbEntity
  8
RACCORDO
100
AcDbPolyline
 62
250
  6
CONTINUOUS
 90
34
 70
0
 10
-10.9340401628
 20
-2.3355104971
 10
-11.0384967019
 20
-2.2313985977
 10
-11.1439495387
 20
-2.1298837675
 10
-11.2503995115
 20
-2.0309664131
 10
-11.3579283675
 20
-1.9345680797
 10
-11.4664558705
 20
-1.8407679547
 10
-11.5757398287
 20
-1.7498028823
 10
-11.6857832197
 20
-1.6616852872
 10
-11.7965843041
 20
-1.5764033443
 10
-11.9078937666
 20
-1.494157499
 10
-12.0197024508
 20
-1.4149664977
 10
-12.1320204234
 20
-1.3388120346
 10
-12.2446271295
 20
-1.2658389408
 10
-12.3575059842
 20
-1.1960642885
 10
-12.4706741255
 20
-1.1294712729
 10
-12.5839614954
 20
-1.0661538677
 10
-12.6973668149
 20
-1.0061157578
 10
-12.810891548
 20
-0.9493533477
 10
-12.9243696591
 20
-0.895949646
 10
-13.0378025255
 20
-0.8459068218
 10
-13.1511885852
 20
-0.7992226167
 10
-13.2643573019
 20
-0.7559733535
 10
-13.3773254924
 20
-0.7161588452
 10
-13.490075787
 20
-0.6797790113
 10
-13.602386282
 20
-0.6469102923
 10
-13.7142665147
 20
-0.6175611879
 10
-13.8257060375
 20
-0.5917227579
 10
-13.9364528953
 20
-0.5694452466
 10
-14.0465045694
 20
-0.5507426613
 10
-14.1558623403
 20
-0.535600395
 10
-14.264279903
 20
-0.5240257469
 10
-14.3716746617
 20
-0.5160209102
 10
-14.4781277012
 20
-0.5115829591
 10
-14.5836381834
 20
-0.5107114868
  0
LWPOLYLINE
  5
2E0
100
AcDbEntity
  8
RACCORDO
100
AcDbPolyline
 62
7
  6
CONTINUOUS
 90
86
 70
0
 10
-10.9349979854
 20
-2.4074393457
 10
-10.841095326
 20
-2.5041255163
 10
-10.7386500572
 20
-2.6131266079
 10
-10.6373298171
 20
-2.7246597332
 10
-10.5372041561
 20
-2.8386528961
 10
-10.4383340211
 20
-2.9550380048
 10
-10.3407774842
 20
-3.0737483515
 10
-10.2445925379
 20
-3.1947162726
 10
-10.1498381877
 20
-3.3178683512
 10
-10.0565735565
 20
-3.4431290921
 10
-9.9648556733
 20
-3.570424706
 10
-9.8747410889
 20
-3.6996768963
 10
-9.7862874283
 20
-3.8308029728
 10
-9.6995490275
 20
-3.9637237752
 10
-9.6145776536
 20
-4.0983590716
 10
-9.5314261596
 20
-4.2346239058
 10
-9.4501451562
 20
-4.3724358786
 10
-9.3707831847
 20
-4.5117110198
 10
-9.2933889615
 20
-4.6523613882
 10
-9.2180091611
 20
-4.7943016759
 10
-9.1446885342
 20
-4.9374451228
 10
-9.0734716846
 20
-5.0817009271
 10
-9.0044012276
 20
-5.2269811871
 10
-8.9375178275
 20
-5.3731969787
 10
-8.8728616693
 20
-5.5202552766
 10
-8.8104710317
 20
-5.6680661549
 10
-8.7503822713
 20
-5.8165390628
 10
-8.6926308965
 20
-5.9655793955
 10
-8.6372506294
 20
-6.1150957281
 10
-8.5842733007
 20
-6.2649964715
 10
-8.5337294687
 20
-6.4151862397
 10
-8.4856480592
 20
-6.5655727793
 10
-8.4400562365
 20
-6.7160639202
 10
-8.3969794712
 20
-6.8665640351
 10
-8.3564416739
 20
-7.0169807623
 10
-8.3184652156
 20
-7.1672217597
 10
-8.2830704442
 20
-7.3171912923
 10
-8.2502762281
 20
-7.4667967774
 10
-8.2200997809
 20
-7.6159469647
 10
-8.1925558461
 20
-7.7645482547
 10
-8.167658104
 20
-7.912508461
 10
-8.145418596
 20
-8.0597379372
 10
-8.1258463623
 20
-8.2061472997
 10
-8.1089496898
 20
-8.3516469078
 10
-8.0947357603
 20
-8.4961475695
 10
-8.0832085155
 20
-8.6395612698
 10
-8.0743709244
 20
-8.7817996852
 10
-8.0682248884
 20
-8.9227764001
 10
-8.0647690715
 20
-9.0624072661
 10
-8.0640010269
 20
-9.2006036067
 10
-8.0659173537
 20
-9.3372845098
 10
-8.070512014
 20
-9.4723784622
 10
-8.0777776629
 20
-9.6058022274
 10
-8.0877062926
 20
-9.7374748261
 10
-8.100288044
 20
-9.8673290043
 10
-8.1155104693
 20
-9.9952828434
 10
-8.1333610352
 20
-10.1212602873
 10
-8.1538272438
 20
-10.245203621
 10
-8.1768908794
 20
-10.3670284102
 10
-8.2025361392
 20
-10.4866677822
 10
-8.2307534139
 20
-10.6040897355
 10
-8.261522771
 20
-10.7192187101
 10
-8.2948246279
 20
-10.8319832868
 10
-8.3306508006
 20
-10.9423555752
 10
-8.3689791334
 20
-11.0502638143
 10
-8.4097870911
 20
-11.1556372194
 10
-8.453066956
 20
-11.2584471795
 10
-8.4987946167
 20
-11.3586258578
 10
-8.5469445518
 20
-11.4561038105
 10
-8.5975077259
 20
-11.5508485954
 10
-8.6504565112
 20
-11.6427938509
 10
-8.705764105
 20
-11.7318758675
 10
-8.7634238021
 20
-11.8180654918
 10
-8.8234071
 20
-11.9013011638
 10
-8.8856854226
 20
-11.981521904
 10
-8.9502539312
 20
-12.0586991236
 10
-9.0170946673
 20
-12.1327869611
 10
-9.08616859
 20
-12.2037154508
 10
-9.1574389749
 20
-12.2714245556
 10
-9.2308777672
 20
-12.3358677653
 10
-9.3064509925
 20
-12.3969928453
 10
-9.3841097319
 20
-12.4547417868
 10
-9.463818117
 20
-12.5090725747
 10
-9.5455450253
 20
-12.5599459175
 10
-9.6292450896
 20
-12.6073181317
 10
-9.677642087
 20
-12.632648543
  0
LWPOLYLINE
  5
2E1
100
AcDbEntity
  8
RACCORDO
100
AcDbPolyline
 62
250
  6
CONTINUOUS
 90
43
 70
0
 10
-4.3743704032
 20
-28.2009600671
 10
-4.3728807749
 20
-28.2306888065
 10
-4.3705112279
 20
-28.2598416516
 10
-4.3672617622
 20
-28.2884186024
 10
-4.3631261705
 20
-28.3164551366
 10
-4.35811066
 20
-28.3439157765
 10
-4.3522338527
 20
-28.3706940891
 10
-4.3454925373
 20
-28.396786197
 10
-4.3378899252
 20
-28.4221959776
 10
-4.3294542726
 20
-28.4468286308
 10
-4.3201825496
 20
-28.4706809736
 10
-4.3100777861
 20
-28.493756189
 10
-4.299177328
 20
-28.5159690256
 10
-4.2874782282
 20
-28.5373163511
 10
-4.2749834338
 20
-28.5578012979
 10
-4.2617391326
 20
-28.5773480114
 10
-4.2477424903
 20
-28.5959530735
 10
-4.2329963412
 20
-28.6136199023
 10
-4.2175553761
 20
-28.6302828982
 10
-4.201417061
 20
-28.6459382807
 10
-4.1845839298
 20
-28.6605898302
 10
-4.1671182754
 20
-28.6741832887
 10
-4.1490177504
 20
-28.686714746
 10
-4.1302847021
 20
-28.6981881123
 10
-4.1109884657
 20
-28.7085608602
 10
-4.0911268759
 20
-28.7178289266
 10
-4.070702098
 20
-28.7259963745
 10
-4.0497899623
 20
-28.7330328658
 10
-4.0283887397
 20
-28.738934167
 10
-4.0065001594
 20
-28.7437045114
 10
-3.9842052392
 20
-28.747326261
 10
-3.9615025173
 20
-28.7497951799
 10
-3.9383934556
 20
-28.751115504
 10
-3.9149634572
 20
-28.751282302
 10
-3.8912110597
 20
-28.7502912412
 10
-3.8671377256
 20
-28.7481466544
 10
-3.8428332462
 20
-28.7448566088
 10
-3.8182960393
 20
-28.7404164638
 10
-3.7935276871
 20
-28.7348308601
 10
-3.7686227277
 20
-28.7281217864
 10
-3.7436126736
 20
-28.7202965726
 10
-3.7184660124
 20
-28.7113478889
 10
-3.6931827439
 20
-28.7012757353
  0
LWPOLYLINE
  5
2E2
100
AcDbEntity
  8
RACCORDO
100
AcDbPolyline
 62
250
  6
CONTINUOUS
 90
25
 70
0
 10
-5.0749538771
 20
-28.2155598813
 10
-5.0727387984
 20
-28.2600894764
 10
-5.0692004005
 20
-28.3038489741
 10
-5.0643430977
 20
-28.346784321
 10
-5.0581729041
 20
-28.3888419784
 10
-5.0506974983
 20
-28.4299705742
 10
-5.041926036
 20
-28.4701208347
 10
-5.0318688802
 20
-28.5092439768
 10
-5.0205384893
 20
-28.5472906973
 10
-5.0079494526
 20
-28.5842128168
 10
-4.9941172925
 20
-28.6199644037
 10
-4.9790588618
 20
-28.6545017446
 10
-4.9627930816
 20
-28.6877822198
 10
-4.9453397453
 20
-28.7197648458
 10
-4.9267202607
 20
-28.7504100835
 10
-4.906958102
 20
-28.7796798502
 10
-4.8860772876
 20
-28.8075381676
 10
-4.8641034422
 20
-28.8339505622
 10
-4.841064511
 20
-28.8588838503
 10
-4.8169886993
 20
-28.8823073006
 10
-4.79190542
 20
-28.9041921657
 10
-4.7658463448
 20
-28.9245110655
 10
-4.7388432884
 20
-28.9432390576
 10
-4.7109293064
 20
-28.9603531297
 10
-4.6815767931
 20
-28.9761136705
  0
LWPOLYLINE
  5
2E3
100
AcDbEntity
  8
CURVE
100
AcDbPolyline
 62
250
  6
CONTINUOUS
 90
3
 70
0
 10
-6.3142862922
 20
-8.5696657075
 10
-6.3164517979
 20
-10.0822448363
 10
-6.3142862923
 20
-11.600754575
  0
LWPOLYLINE
  5
2E4
100
AcDbEntity
  8
RACCORDO
100
AcDbPolyline
 62
250
  6
CONTINUOUS
 90
22
 70
0
 10
-5.0749538771
 20
7.3996799863
 10
-5.1301525274
 20
5.6778872461
 10
-5.1798337049
 20
3.9585113716
 10
-5.2239966603
 20
2.2415787596
 10
-5.2626407362
 20
0.5271157769
 10
-5.2957653412
 20
-1.1848512645
 10
-5.3233699499
 20
-2.894296108
 10
-5.3454541416
 20
-4.6011925165
 10
-5.3620175876
 20
-6.3055142837
 10
-5.3730600252
 20
-8.0072352598
 10
-5.3785812834
 20
-9.7063293229
 10
-5.3785812834
 20
-11.402770394
 10
-5.3730600252
 20
-13.096532449
 10
-5.3620175876
 20
-14.7875894966
 10
-5.3454541416
 20
-16.4759155771
 10
-5.3233699499
 20
-18.1614847771
 10
-5.2957653412
 20
-19.8442712281
 10
-5.2626407362
 20
-21.5242491046
 10
-5.2239966603
 20
-23.2013926233
 10
-5.1798337049
 20
-24.8756760463
 10
-5.1301525274
 20
-26.5470736815
 10
-5.0749538771
 20
-28.2155598813
  0
LINE
  5
2E5
100
AcDbEntity
  8
RACCORDO
100
AcDbLine
 62
250
  6
CONTINUOUS
 10
1.4617227797
 20
13.0162090534
 11
1.9899899515
 21
13.6591612091
  0
LINE
  5
2E6
100
AcDbEntity
  8
RACCORDO
100
AcDbLine
 62
7
  6
CONTINUOUS
 10
1.4617227797
 20
12.926678587
 11
2.061135284
 21
13.656221482
  0
LWPOLYLINE
  5
2E7
100
AcDbEntity
  8
RACCORDO
100
AcDbPolyline
 62
7
  6
CONTINUOUS
 90
5
 70
0
 10
2.0611354483
 20
13.6562258602
 10
2.0607869018
 20
13.6558367238
 10
2.0592884775
 20
13.6546933785
 10
2.057268555
 20
13.6537677725
 10
2.0547392012
 20
13.6530326209
  0
LINE
  5
2E8
100
AcDbEntity
  8
RACCORDO
100
AcDbLine
 62
250
  6
CONTINUOUS
 10
21.2263729091
 20
19.3810920085
 11
2.5223829515
 21
9.8653849831
  0
LINE
  5
2E9
100
AcDbEntity
  8
RACCORDO
100
AcDbLine
 62
250
  6
CONTINUOUS
 10
21.6405233848
 20
17.9494584339
 11
2.5223829515
 21
8.2230511996
  0
LINE
  5
2EA
100
AcDbEntity
  8
0
100
AcDbLine
 62
7
  6
CONTINUOUS
 10
-14.4128244579
 20
-0.8293028928
 11
-14.0773006834
 21
-0.6615410056
  0
LWPOLYLINE
  5
2EB
100
AcDbEntity
  8
RACCORDO
100
AcDbPolyline
 62
250
  6
CONTINUOUS
 90
25
 70
0
 10
-15.5460045831
 20
-0.8952565985
 10
-15.5741146185
 20
-0.9092993692
 10
-15.6628457655
 20
-0.9565864405
 10
-15.7496896938
 20
-1.0074361356
 10
-15.8345889567
 20
-1.0618106788
 10
-15.9174834119
 20
-1.1196657707
 10
-15.9983356444
 20
-1.1809693573
 10
-16.0771219914
 20
-1.2457027325
 10
-16.153800358
 20
-1.3138323995
 10
-16.2283176157
 20
-1.385312225
 10
-16.3006322665
 20
-1.4601066844
 10
-16.3707052153
 20
-1.5381788556
 10
-16.4384863009
 20
-1.6194763703
 10
-16.503919399
 20
-1.7039376229
 10
-16.5669633847
 20
-1.7915100981
 10
-16.6275806863
 20
-1.8821419686
 10
-16.6857241552
 20
-1.9757678044
 10
-16.7413571367
 20
-2.0723273808
 10
-16.7944478072
 20
-2.171763813
 10
-16.8449591943
 20
-2.2740131917
 10
-16.8928606312
 20
-2.3790122974
 10
-16.9381236309
 20
-2.4866968501
 10
-16.9807168878
 20
-2.5969988054
 10
-17.0206146941
 20
-2.7098504787
 10
-17.0284909753
 20
-2.7342835529
  0
LWPOLYLINE
  5
2EC
100
AcDbEntity
  8
0
100
AcDbPolyline
 62
250
  6
CONTINUOUS
 90
12
 70
0
 10
-15.5779351942
 20
-1.0915900393
 10
-15.5644189989
 20
-1.0848849654
 10
-15.4589302809
 20
-1.0361015768
 10
-15.3510306085
 20
-0.9923980517
 10
-15.2408148142
 20
-0.9538128009
 10
-15.1283797663
 20
-0.9203797367
 10
-15.0138242835
 20
-0.8921282434
 10
-14.8972490481
 20
-0.8690831511
 10
-14.7787565178
 20
-0.851264714
 10
-14.6584508351
 20
-0.8386885927
 10
-14.5364377362
 20
-0.8313658403
 10
-14.4128244579
 20
-0.8293028928
  0
LWPOLYLINE
  5
2ED
100
AcDbEntity
  8
RACCORDO
100
AcDbPolyline
 62
7
  6
CONTINUOUS
 90
14
 70
0
 10
-15.5459971791
 20
-0.8952529932
 10
-15.5167178196
 20
-0.8811028382
 10
-15.4331662805
 20
-0.8433792191
 10
-15.3482228967
 20
-0.8088893173
 10
-15.2619093171
 20
-0.7776296287
 10
-15.1742701908
 20
-0.7496051683
 10
-15.0853544991
 20
-0.7248195719
 10
-14.9951895386
 20
-0.7032719445
 10
-14.9038225737
 20
-0.6849666179
 10
-14.8113007992
 20
-0.6699049741
 10
-14.7176512244
 20
-0.6580863514
 10
-14.6229177524
 20
-0.6495128263
 10
-14.5271655931
 20
-0.6441843171
 10
-14.4405759448
 20
-0.6421652996
  0
LWPOLYLINE
  5
2EE
100
AcDbEntity
  8
0
100
AcDbPolyline
 62
7
  6
CONTINUOUS
 90
5
 70
0
 10
-15.5778175314
 20
-1.0915312119
 10
-15.352795568
 20
-0.9898462695
 10
-15.1094962502
 20
-0.9025427698
 10
-14.8601948643
 20
-0.8352240982
 10
-14.6064667115
 20
-0.7878684112
  0
LWPOLYLINE
  5
2EF
100
AcDbEntity
  8
0
100
AcDbPolyline
 62
250
  6
CONTINUOUS
 90
10
 70
0
 10
-12.715768183
 20
-1.2733614775
 10
-12.5221134933
 20
-1.3752658046
 10
-12.3289276066
 20
-1.4870684103
 10
-12.1365630797
 20
-1.6085472453
 10
-11.9453800263
 20
-1.7394560183
 10
-11.7557150174
 20
-1.8795452979
 10
-11.5678812964
 20
-2.0285678918
 10
-11.3822087276
 20
-2.1862494313
 10
-11.1990423519
 20
-2.3522840923
 10
-11.0187119082
 20
-2.5263591676
  0
LWPOLYLINE
  5
2F0
100
AcDbEntity
  8
RACCORDO
100
AcDbPolyline
 62
250
  6
CONTINUOUS
 90
34
 70
0
 10
-3.6931827439
 20
8.5367955049
 10
-3.6944707019
 20
8.5571301928
 10
-3.696541643
 20
8.5778257803
 10
-3.6993908811
 20
8.5988354398
 10
-3.7030119694
 20
8.6201116331
 10
-3.7073967147
 20
8.6416062188
 10
-3.7125351955
 20
8.6632705614
 10
-3.7184157854
 20
8.6850556413
 10
-3.7250251782
 20
8.7069121657
 10
-3.7323484192
 20
8.7287906801
 10
-3.7403689382
 20
8.7506416803
 10
-3.7490685873
 20
8.7724157244
 10
-3.7584276819
 20
8.7940635443
 10
-3.7684250455
 20
8.8155361579
 10
-3.7790380571
 20
8.8367849794
 10
-3.7902427028
 20
8.8577619291
 10
-3.8020136301
 20
8.8784195428
 10
-3.814324205
 20
8.8987110788
 10
-3.8271465727
 20
8.9185906234
 10
-3.84045172
 20
8.9380131955
 10
-3.8542095417
 20
8.9569348479
 10
-3.8683889079
 20
8.9753127665
 10
-3.8829577354
 20
8.9931053678
 10
-3.8978830593
 20
9.0102723928
 10
-3.9131311082
 20
9.0267749976
 10
-3.9286673806
 20
9.0425758419
 10
-3.9444567227
 20
9.0576391733
 10
-3.9604634081
 20
9.0719309081
 10
-3.9766512186
 20
9.0854187084
 10
-3.9929835263
 20
9.0980720556
 10
-4.009423376
 20
9.1098623189
 10
-4.0259335696
 20
9.1207628206
 10
-4.0424767496
 20
9.1307488963
 10
-4.0590154839
 20
9.1397979506
  0
LINE
  5
2F1
100
AcDbEntity
  8
RACCORDO
100
AcDbLine
 62
250
  6
CONTINUOUS
 10
-4.0204176712
 20
14.1296802209
 11
-4.0204176712
 21
15.2102635317
  0
LINE
  5
2F2
100
AcDbEntity
  8
0
100
AcDbLine
 62
7
  6
CONTINUOUS
 10
-3.5233800276
 20
18.3376271511
 11
-3.5233800276
 21
19.6004532016
  0
LINE
  5
2F3
100
AcDbEntity
  8
RACCORDO
100
AcDbLine
 62
250
  6
CONTINUOUS
 10
-3.3153737519
 20
14.1512159842
 11
-3.3153737519
 21
15.3839429565
  0
LINE
  5
2F4
100
AcDbEntity
  8
ASSI
100
AcDbLine
 62
250
  6
CONTINUOUS
 10
-3.189604405
 20
19.7637735568
 11
-3.189604405
 21
20.9911241538
  0
LINE
  5
2F5
100
AcDbEntity
  8
0
100
AcDbLine
 62
7
  6
CONTINUOUS
 10
-3.169826637
 20
18.871118317
 11
-3.169826637
 21
19.4236765063
  0
LINE
  5
2F6
100
AcDbEntity
  8
RACCORDO
100
AcDbLine
 62
7
  6
CONTINUOUS
 10
-3.0642548977
 20
19.9127966855
 11
-3.0642548977
 21
21.0006922939
  0
LINE
  5
2F7
100
AcDbEntity
  8
DRAFT
100
AcDbLine
 62
7
  6
CONTINUOUS
 10
-2.9576946027
 20
15.5632475014
 11
-2.9576946027
 21
14.3508119361
  0
LWPOLYLINE
  5
2F8
100
AcDbEntity
  8
RACCORDO
100
AcDbPolyline
 62
250
  6
CONTINUOUS
 90
22
 70
0
 10
-4.3743704032
 20
7.3786645606
 10
-4.4295159022
 20
5.6585505045
 10
-4.4791479957
 20
3.9409034239
 10
-4.5232666835
 20
2.2257233188
 10
-4.5618724745
 20
0.5129839086
 10
-4.5949648599
 20
-1.1972885262
 10
-4.6225423133
 20
-2.9050151436
 10
-4.6446045796
 20
-4.6101957941
 10
-4.6611519139
 20
-6.3128306272
 10
-4.6721835545
 20
-8.0128412495
 10
-4.6776992476
 20
-9.7102275369
 10
-4.677699247
 20
-11.4049896135
 10
-4.6721835527
 20
-13.0970494575
 10
-4.6611519108
 20
-14.7864069474
 10
-4.6446045752
 20
-16.4730622047
 10
-4.6225423076
 20
-18.1569375714
 10
-4.5949648526
 20
-19.8380329647
 10
-4.5618724655
 20
-21.5163484674
 10
-4.5232666742
 20
-23.19180667
 10
-4.4791479881
 20
-24.8643817692
 10
-4.4295158977
 20
-26.5340995682
 10
-4.3743704032
 20
-28.2009600671
  0
LWPOLYLINE
  5
2F9
100
AcDbEntity
  8
RACCORDO
100
AcDbPolyline
 62
250
  6
CONTINUOUS
 90
27
 70
0
 10
-0.1395580111
 20
12.6005579682
 10
-0.1444365109
 20
12.5886020665
 10
-0.1497821525
 20
12.5769177925
 10
-0.1555807426
 20
12.565537244
 10
-0.1618174277
 20
12.5544907306
 10
-0.1684750219
 20
12.5438097688
 10
-0.175533671
 20
12.5335266434
 10
-0.1829733268
 20
12.5236704124
 10
-0.1907743629
 20
12.5142669362
 10
-0.1989156822
 20
12.5053416785
 10
-0.2073752176
 20
12.4969189159
 10
-0.2161297545
 20
12.4890218433
 10
-0.2251551747
 20
12.481672246
 10
-0.2344267411
 20
12.4748902577
 10
-0.2439192103
 20
12.4686943333
 10
-0.2536066787
 20
12.4631013834
 10
-0.2634627032
 20
12.4581266814
 10
-0.2734603491
 20
12.4537838291
 10
-0.283572285
 20
12.4500847014
 10
-0.2937708831
 20
12.4470394044
 10
-0.3040282948
 20
12.4446562526
 10
-0.3143165028
 20
12.4429417556
 10
-0.3246074214
 20
12.4419005952
 10
-0.3348729263
 20
12.4415356183
 10
-0.3450849323
 20
12.4418478187
 10
-0.3552155174
 20
12.4428363307
 10
-0.3652370432
 20
12.444498445
  0
LWPOLYLINE
  5
2FA
100
AcDbEntity
  8
RACCORDO
100
AcDbPolyline
 62
250
  6
CONTINUOUS
 90
9
 70
0
 10
12.1292189603
 20
18.6016090691
 10
12.157581797
 20
18.6341861174
 10
12.2166606675
 20
18.6934453346
 10
12.2817534469
 20
18.7510532678
 10
12.3526292788
 20
18.8068267355
 10
12.4291224166
 20
18.860654671
 10
12.5111138203
 20
18.9124558547
 10
12.5983624173
 20
18.962073494
 10
12.6188595787
 20
18.9730098622
  0
LWPOLYLINE
  5
2FB
100
AcDbEntity
  8
RACCORDO
100
AcDbPolyline
 62
250
  6
CONTINUOUS
 90
9
 70
0
 10
21.6405233848
 20
17.9494584339
 10
21.7084777497
 20
17.9884988345
 10
21.7679966963
 20
18.0308423447
 10
21.8184425281
 20
18.0760352748
 10
21.859274766
 20
18.1235934098
 10
21.8900559288
 20
18.1730071876
 10
21.910456228
 20
18.2237471565
 10
21.9202571107
 20
18.2752696671
 10
21.9211834536
 20
18.2965318795
  0
LINE
  5
2FC
100
AcDbEntity
  8
ASSI
100
AcDbLine
 62
7
  6
CONTINUOUS
 10
-15.6349112776
 20
-4.407396104
 11
-13.7764283548
 21
-3.4781546426
  0
LINE
  5
2FD
100
AcDbEntity
  8
0
100
AcDbLine
 62
7
  6
CONTINUOUS
 10
-11.0187119082
 20
-2.5263591676
 11
-10.8846183316
 21
-2.4593123793
  0
LWPOLYLINE
  5
2FE
100
AcDbEntity
  8
RACCORDO
100
AcDbPolyline
 62
250
  6
CONTINUOUS
 90
27
 70
0
 10
21.7990552261
 20
12.3101057409
 10
21.8258616015
 20
12.3185247542
 10
21.8509465576
 20
12.3244367851
 10
21.874271474
 20
12.3278929196
 10
21.8956889628
 20
12.3287467148
 10
21.9152469011
 20
12.3272721228
 10
21.9332068159
 20
12.324140834
 10
21.9495432211
 20
12.3195088526
 10
21.964194153
 20
12.3133329482
 10
21.9773852009
 20
12.3059642466
 10
21.9891331881
 20
12.2975072662
 10
21.9993313781
 20
12.2879821782
 10
22.0080300842
 20
12.2776037953
 10
22.0152185367
 20
12.2664825951
 10
22.0208233476
 20
12.2546355542
 10
22.0248055753
 20
12.2421342332
 10
22.0271790374
 20
12.229154569
 10
22.0278444778
 20
12.2156631466
 10
22.0265713647
 20
12.2014540487
 10
22.023361271
 20
12.186658143
 10
22.0180727246
 20
12.1713908714
 10
22.0102282216
 20
12.155476891
 10
21.9996819929
 20
12.1389678136
 10
21.9864083733
 20
12.1221412262
 10
21.9701332023
 20
12.1051227674
 10
21.9506490855
 20
12.0879072053
 10
21.9382108776
 20
12.0784490753
  0
LINE
  5
2FF
100
AcDbEntity
  8
ASSI
100
AcDbLine
 62
7
  6
CONTINUOUS
 10
-23.0146072251
 20
-4.9565633135
 11
-15.5349815544
 21
-4.5509482827
  0
LINE
  5
300
100
AcDbEntity
  8
ASSI
100
AcDbLine
 62
7
  6
CONTINUOUS
 10
-24.4288207874
 20
-4.2494565323
 11
-16.9491951168
 21
-3.8438415015
  0
LWPOLYLINE
  5
301
100
AcDbEntity
  8
ASSI
100
AcDbPolyline
 62
7
  6
CONTINUOUS
 90
6
 70
0
 10
-15.5349815544
 20
-4.5509482827
 10
-15.4677403322
 20
-4.5506062512
 10
-15.4030554636
 20
-4.5566183276
 10
-15.3409269485
 20
-4.5689845119
 10
-15.281093029
 20
-4.5878199201
 10
-15.2269507114
 20
-4.6114324319
  0
LWPOLYLINE
  5
302
100
AcDbEntity
  8
ASSI
100
AcDbPolyline
 62
7
  6
CONTINUOUS
 90
6
 70
0
 10
-16.9491951168
 20
-3.8438415015
 10
-16.8819538946
 20
-3.84349947
 10
-16.8172690259
 20
-3.8495115464
 10
-16.7551405109
 20
-3.8618777307
 10
-16.6953065914
 20
-3.8807131389
 10
-16.6411642738
 20
-3.9043256507
  0
LWPOLYLINE
  5
303
100
AcDbEntity
  8
CURVE
100
AcDbPolyline
 62
250
  6
CONTINUOUS
 90
94
 70
0
 10
-12.7272731564
 20
1.1024558963
 10
-12.7726705388
 20
1.1261050745
 10
-12.8178985637
 20
1.1515714951
 10
-12.8629890614
 20
1.1788724939
 10
-12.9079526436
 20
1.2080117686
 10
-12.9527150474
 20
1.2389384645
 10
-12.9971807912
 20
1.2715880889
 10
-13.0412682714
 20
1.3059053061
 10
-13.0849513945
 20
1.3418714077
 10
-13.128217945
 20
1.3794768421
 10
-13.1710429739
 20
1.418699326
 10
-13.2133505976
 20
1.4594656475
 10
-13.2550521994
 20
1.5016898632
 10
-13.2960732058
 20
1.5452996922
 10
-13.3363952179
 20
1.5902775044
 10
-13.3760138807
 20
1.636619333
 10
-13.4149115239
 20
1.684303974
 10
-13.4530172183
 20
1.7332412771
 10
-13.4902467198
 20
1.7833238553
 10
-13.5265290396
 20
1.8344609395
 10
-13.5618462091
 20
1.886628233
 10
-13.5961935152
 20
1.9398180569
 10
-13.6295560645
 20
1.9940058862
 10
-13.661878243
 20
2.0490998111
 10
-13.6930942566
 20
2.1049910756
 10
-13.7231469912
 20
2.1615839602
 10
-13.7520140518
 20
2.21883489
 10
-13.7796817235
 20
2.2767133267
 10
-13.806132054
 20
2.3351796989
 10
-13.8313301416
 20
2.3941583032
 10
-13.8552368477
 20
2.4535644033
 10
-13.877815701
 20
2.5133153903
 10
-13.8990409008
 20
2.5733371661
 10
-13.918889314
 20
2.6335577603
 10
-13.9373391201
 20
2.6939097308
 10
-13.9543737493
 20
2.75434375
 10
-13.9699779442
 20
2.8148150188
 10
-13.9841354095
 20
2.8752678063
 10
-13.9968256979
 20
2.9356026536
 10
-14.008027324
 20
2.9957091698
 10
-14.0177218208
 20
3.0554930719
 10
-14.0259027946
 20
3.1149245072
 10
-14.0325668699
 20
3.1739897306
 10
-14.0377100233
 20
3.2326561102
 10
-14.0413256387
 20
3.2908154662
 10
-14.0434064516
 20
3.3483407316
 10
-14.0439464095
 20
3.4051256038
 10
-14.0429443062
 20
3.4611468361
 10
-14.0404001471
 20
3.5164019461
 10
-14.0363158852
 20
3.5708691787
 10
-14.0307012638
 20
3.6244496893
 10
-14.0235679738
 20
3.6770253609
 10
-14.0149263648
 20
3.728496106
 10
-14.0047814213
 20
3.7788339568
 10
-13.9931367866
 20
3.8280289752
 10
-13.979999707
 20
3.8760581511
 10
-13.9653918402
 20
3.9228461872
 10
-13.9493384469
 20
3.9683047139
 10
-13.9318632927
 20
4.0123552962
 10
-13.9129841621
 20
4.0549592357
 10
-13.8927173442
 20
4.0960877681
 10
-13.8710806859
 20
4.1357087478
 10
-13.8480982631
 20
4.1737765033
 10
-13.8237957097
 20
4.2102419816
 10
-13.7982012679
 20
4.2450568276
 10
-13.7713536163
 20
4.2781754784
 10
-13.7432940421
 20
4.309553069
 10
-13.7140593845
 20
4.339149348
 10
-13.6836686904
 20
4.3669425194
 10
-13.6521365586
 20
4.3929154008
 10
-13.6194866318
 20
4.417046574
 10
-13.5857787276
 20
4.4392976775
 10
-13.5510817078
 20
4.459626114
 10
-13.5154536701
 20
4.477995848
 10
-13.4789096571
 20
4.4943970905
 10
-13.4414539477
 20
4.5088266145
 10
-13.4031047082
 20
4.5212779002
 10
-13.3639356537
 20
4.5317312577
 10
-13.3240343869
 20
4.5401637043
 10
-13.2834744349
 20
4.5465561034
 10
-13.2422730226
 20
4.5509047023
 10
-13.2004332994
 20
4.5532095946
 10
-13.1579731363
 20
4.5534713383
 10
-13.1149692898
 20
4.5516923499
 10
-13.0715132379
 20
4.5478755107
 10
-13.0276830637
 20
4.5420236105
 10
-12.9835032707
 20
4.5341390751
 10
-12.9389849677
 20
4.5242242389
 10
-12.8941534456
 20
4.5122861887
 10
-12.8490907257
 20
4.4983510214
 10
-12.8038930113
 20
4.482449586
 10
-12.7586351527
 20
4.4646051447
 10
-12.7133065856
 20
4.4448106112
 10
-12.6678753928
 20
4.4230513125
  0
LWPOLYLINE
  5
304
100
AcDbEntity
  8
ASSI
100
AcDbPolyline
 62
7
  6
CONTINUOUS
 90
6
 70
0
 10
-3.0642548977
 20
21.0006899831
 10
-3.0643117387
 20
21.0020045563
 10
-3.0651219651
 20
21.0054422303
 10
-3.0668496447
 20
21.0082641916
 10
-3.0694498116
 20
21.0105214799
 10
-3.0710292078
 20
21.0114288879
  0
LWPOLYLINE
  5
305
100
AcDbEntity
  8
RACCORDO
100
AcDbPolyline
 62
250
  6
CONTINUOUS
 90
31
 70
0
 10
-0.1395580111
 20
12.9405319023
 10
-0.139852988
 20
12.95195761
 10
-0.1406288412
 20
12.9635956631
 10
-0.1418834443
 20
12.975414164
 10
-0.1436133586
 20
12.9873807202
 10
-0.1458138427
 20
12.9994625339
 10
-0.1484788656
 20
13.0116264908
 10
-0.1516011229
 20
13.023839252
 10
-0.1551720571
 20
13.0360673445
 10
-0.159181881
 20
13.0482772535
 10
-0.1636196042
 20
13.0604355138
 10
-0.168473064
 20
13.072508802
 10
-0.1737289578
 20
13.0844640274
 10
-0.1793728803
 20
13.0962684231
 10
-0.1853893625
 20
13.1078896353
 10
-0.1917619143
 20
13.1192958125
 10
-0.1984730699
 20
13.1304556925
 10
-0.2055044351
 20
13.1413386882
 10
-0.2128367384
 20
13.1519149713
 10
-0.2204498832
 20
13.1621555543
 10
-0.2283230033
 20
13.1720323696
 10
-0.2364345201
 20
13.1815183466
 10
-0.2447622013
 20
13.1905874862
 10
-0.2532832224
 20
13.1992149315
 10
-0.2619742288
 20
13.2073770363
 10
-0.2708114001
 20
13.2150514299
 10
-0.2797705153
 20
13.222217078
 10
-0.2888270191
 20
13.2288543411
 10
-0.2979560894
 20
13.2349450276
 10
-0.3071327051
 20
13.2404724442
 10
-0.3163317148
 20
13.2454214411
  0
LWPOLYLINE
  5
306
100
AcDbEntity
  8
RACCORDO
100
AcDbPolyline
 62
250
  6
CONTINUOUS
 90
18
 70
0
 10
-1.8170646506
 20
-28.3760150416
 10
-1.8168241751
 20
-28.387183942
 10
-1.8161034029
 20
-28.39808198
 10
-1.814904295
 20
-28.4086795057
 10
-1.8132301137
 20
-28.4189476867
 10
-1.811085414
 20
-28.4288585867
 10
-1.8084760308
 20
-28.4383852414
 10
-1.8054090635
 20
-28.4475017319
 10
-1.8018928562
 20
-28.4561832553
 10
-1.7979369754
 20
-28.4644061919
 10
-1.7935521837
 20
-28.47214817
 10
-1.7887504107
 20
-28.4793881262
 10
-1.7835447204
 20
-28.4861063628
 10
-1.7779492759
 20
-28.4922846019
 10
-1.7719793003
 20
-28.4979060344
 10
-1.7656510362
 20
-28.5029553664
 10
-1.7589817005
 20
-28.5074188602
 10
-1.7520913541
 20
-28.5112334917
  0
LWPOLYLINE
  5
307
100
AcDbEntity
  8
RACCORDO
100
AcDbPolyline
 62
250
  6
CONTINUOUS
 90
18
 70
0
 10
-0.4920799707
 20
-29.0385073815
 10
-0.4918393895
 20
-29.0496787096
 10
-0.4911182983
 20
-29.0605790751
 10
-0.4899186565
 20
-29.0711788064
 10
-0.488243724
 20
-29.0814490605
 10
-0.4860980575
 20
-29.0913618691
 10
-0.4834875029
 20
-29.1008902182
 10
-0.4804191694
 20
-29.1100081669
 10
-0.4769014081
 20
-29.118690905
 10
-0.4729437989
 20
-29.1269147927
 10
-0.468557117
 20
-29.1346574464
 10
-0.463753304
 20
-29.1418977956
 10
-0.4585454393
 20
-29.1486161329
 10
-0.452947694
 20
-29.1547941822
 10
-0.4469753124
 20
-29.160415123
 10
-0.4406445781
 20
-29.1654636409
 10
-0.4339727571
 20
-29.1699259878
 10
-0.4271126792
 20
-29.1737228288
  0
LWPOLYLINE
  5
308
100
AcDbEntity
  8
RACCORDO
100
AcDbPolyline
 62
250
  6
CONTINUOUS
 90
19
 70
0
 10
-1.8170646506
 20
13.263563032
 10
-1.8168457794
 20
13.2529020397
 10
-1.8161892237
 20
13.2424806232
 10
-1.815095886
 20
13.2323250459
 10
-1.8135674362
 20
13.2224591918
 10
-1.8116071176
 20
13.2129099951
 10
-1.8092205345
 20
13.203706759
 10
-1.8064142017
 20
13.1948740324
 10
-1.8031946846
 20
13.1864319916
 10
-1.7995699155
 20
13.178401477
 10
-1.7955488324
 20
13.1708023917
 10
-1.7911414592
 20
13.16365377
 10
-1.7863588314
 20
13.1569735423
 10
-1.7812128585
 20
13.1507783413
 10
-1.7757163296
 20
13.145083561
 10
-1.7698829863
 20
13.1399034247
 10
-1.7637273975
 20
13.1352508334
 10
-1.7572648422
 20
13.1311373008
 10
-1.7520913541
 20
13.1283445819
  0
LWPOLYLINE
  5
309
100
AcDbEntity
  8
RACCORDO
100
AcDbPolyline
 62
250
  6
CONTINUOUS
 90
19
 70
0
 10
-0.4920799707
 20
12.601070692
 10
-0.4918610996
 20
12.5904096998
 10
-0.4912045438
 20
12.5799882833
 10
-0.4901112062
 20
12.5698327059
 10
-0.4885827563
 20
12.5599668518
 10
-0.4866224378
 20
12.5504176551
 10
-0.4842358547
 20
12.5412144191
 10
-0.4814295219
 20
12.5323816925
 10
-0.4782100048
 20
12.5239396517
 10
-0.4745852357
 20
12.5159091371
 10
-0.4705641526
 20
12.5083100518
 10
-0.4661567794
 20
12.50116143
 10
-0.4613741516
 20
12.4944812024
 10
-0.4562281787
 20
12.4882860014
 10
-0.4507316498
 20
12.4825912211
 10
-0.4448983065
 20
12.4774110848
 10
-0.4387427177
 20
12.4727584935
 10
-0.4322801624
 20
12.4686449609
 10
-0.4271066743
 20
12.4658522419
  0
LWPOLYLINE
  5
30A
100
AcDbEntity
  8
RACCORDO
100
AcDbPolyline
 62
7
  6
CONTINUOUS
 90
24
 70
0
 10
-0.4121101904
 20
19.9145590503
 10
-0.4126833748
 20
19.9490314565
 10
-0.4143824878
 20
19.9827813775
 10
-0.4172075294
 20
20.0158088132
 10
-0.4211679639
 20
20.0481703706
 10
-0.426254327
 20
20.0798094428
 10
-0.4324382254
 20
20.1105562094
 10
-0.4397208408
 20
20.1403917368
 10
-0.4481009915
 20
20.1693349586
 10
-0.4575467388
 20
20.1972728545
 10
-0.4680705973
 20
20.2242190173
 10
-0.4796600523
 20
20.2501598543
 10
-0.4922456211
 20
20.2749415671
 10
-0.5058208069
 20
20.2985388685
 10
-0.5203921065
 20
20.3209770458
 10
-0.5359095265
 20
20.3421781631
 10
-0.5523928139
 20
20.362155253
 10
-0.5698222217
 20
20.3808952829
 10
-0.5880885164
 20
20.3982812184
 10
-0.6071771723
 20
20.4142901448
 10
-0.627102715
 20
20.4289449768
 10
-0.6477994875
 20
20.4421974252
 10
-0.669292002
 20
20.4540532865
 10
-3.8983266192
 20
22.0685944723
  0
LINE
  5
30B
100
AcDbEntity
  8
RACCORDO
100
AcDbLine
 62
7
  6
CONTINUOUS
 10
-1.8902879553
 20
13.6919253137
 11
-1.8902879553
 21
13.3519513796
  0
LINE
  5
30C
100
AcDbEntity
  8
RACCORDO
100
AcDbLine
 62
7
  6
CONTINUOUS
 10
-1.8902879553
 20
-28.1611273983
 11
-1.8902879553
 21
-28.2876266939
  0
LINE
  5
30D
100
AcDbEntity
  8
RACCORDO
100
AcDbLine
 62
250
  6
CONTINUOUS
 10
-1.8170646506
 20
13.6035369661
 11
-1.8170646506
 21
13.263563032
  0
LINE
  5
30E
100
AcDbEntity
  8
RACCORDO
100
AcDbLine
 62
250
  6
CONTINUOUS
 10
-1.8170646506
 20
-28.1303912292
 11
-1.8170646506
 21
-28.3760150416
  0
LINE
  5
30F
100
AcDbEntity
  8
RACCORDO
100
AcDbLine
 62
7
  6
CONTINUOUS
 10
-1.187295001
 20
12.3919723036
 11
-1.187295001
 21
12.8459464053
  0
LINE
  5
310
100
AcDbEntity
  8
RACCORDO
100
AcDbLine
 62
250
  6
CONTINUOUS
 10
-1.1140716963
 20
12.3002606088
 11
-1.1140716963
 21
12.8093347529
  0
LINE
  5
311
100
AcDbEntity
  8
RACCORDO
100
AcDbLine
 62
250
  6
CONTINUOUS
 10
-0.4920799707
 20
-29.0385073815
 11
-0.4920799707
 21
-28.6985334473
  0
LINE
  5
312
100
AcDbEntity
  8
RACCORDO
100
AcDbLine
 62
250
  6
CONTINUOUS
 10
-0.4920799707
 20
12.601070692
 11
-0.4920799707
 21
12.9410446262
  0
LINE
  5
313
100
AcDbEntity
  8
RACCORDO
100
AcDbLine
 62
7
  6
CONTINUOUS
 10
-0.4121101904
 20
19.9145590503
 11
-0.4121101904
 21
19.6437587577
  0
LINE
  5
314
100
AcDbEntity
  8
RACCORDO
100
AcDbLine
 62
250
  6
CONTINUOUS
 10
-0.1395580111
 20
-29.0390201053
 11
-0.1395580111
 21
-28.6990461712
  0
LINE
  5
315
100
AcDbEntity
  8
RACCORDO
100
AcDbLine
 62
250
  6
CONTINUOUS
 10
-0.1395580111
 20
12.6005579682
 11
-0.1395580111
 21
12.9405319023
  0
LINE
  5
316
100
AcDbEntity
  8
RACCORDO
100
AcDbLine
 62
250
  6
CONTINUOUS
 10
0.2191406374
 20
-27.7220369702
 11
0.2191406374
 21
-27.2756749572
  0
LINE
  5
317
100
AcDbEntity
  8
RACCORDO
100
AcDbLine
 62
250
  6
CONTINUOUS
 10
0.2191406374
 20
11.6336544419
 11
0.2191406374
 21
12.3224750649
  0
LWPOLYLINE
  5
318
100
AcDbEntity
  8
RACCORDO
100
AcDbPolyline
 62
250
  6
CONTINUOUS
 90
22
 70
0
 10
-0.4920799707
 20
-28.6985334473
 10
-0.4918601161
 20
-28.6876289361
 10
-0.4912010988
 20
-28.6765316924
 10
-0.490104558
 20
-28.6652693192
 10
-0.4885732271
 20
-28.6538698697
 10
-0.4866109119
 20
-28.6423616598
 10
-0.484222466
 20
-28.6307731936
 10
-0.4814137959
 20
-28.6191332116
 10
-0.4781918904
 20
-28.607470749
 10
-0.4745647928
 20
-28.5958149431
 10
-0.4705415132
 20
-28.5841947526
 10
-0.4661320707
 20
-28.5726391192
 10
-0.4613475341
 20
-28.5611770173
 10
-0.4561999007
 20
-28.5498371066
 10
-0.4507019327
 20
-28.5386474262
 10
-0.444867199
 20
-28.5276355663
 10
-0.4387089826
 20
-28.5168268348
 10
-0.4322437084
 20
-28.5062502869
 10
-0.4254913415
 20
-28.4959379657
 10
-0.4184704827
 20
-28.4859168976
 10
-0.4111977617
 20
-28.4762094925
 10
-0.4036916231
 20
-28.4668392735
  0
LWPOLYLINE
  5
319
100
AcDbEntity
  8
RACCORDO
100
AcDbPolyline
 62
250
  6
CONTINUOUS
 90
31
 70
0
 10
-1.8170646506
 20
13.6035369661
 10
-1.8168241751
 20
13.614946342
 10
-1.8161034029
 20
13.6265651522
 10
-1.814904295
 20
13.6383617858
 10
-1.8132301137
 20
13.6503041481
 10
-1.811085414
 20
13.6623597478
 10
-1.8084760308
 20
13.6744957856
 10
-1.8054090635
 20
13.6866792435
 10
-1.8018928562
 20
13.6988769741
 10
-1.7979369754
 20
13.7110557916
 10
-1.7935521837
 20
13.7231825614
 10
-1.7887504107
 20
13.7352242905
 10
-1.7835447204
 20
13.7471482174
 10
-1.7779492759
 20
13.7589219011
 10
-1.7719793003
 20
13.7705133092
 10
-1.7656510362
 20
13.7818909053
 10
-1.7589817005
 20
13.7930237348
 10
-1.7519894383
 20
13.8038815089
 10
-1.7446932734
 20
13.8144346872
 10
-1.7371130561
 20
13.824654558
 10
-1.7292694097
 20
13.8345133163
 10
-1.7211836741
 20
13.8439841399
 10
-1.7128778481
 20
13.8530412616
 10
-1.7043745289
 20
13.8616600401
 10
-1.6956968514
 20
13.8698170265
 10
-1.6868684245
 20
13.8774900283
 10
-1.6779132676
 20
13.8846581699
 10
-1.6688557447
 20
13.8913019491
 10
-1.6597204982
 20
13.8974032903
 10
-1.6505323823
 20
13.9029455939
 10
-1.6413163946
 20
13.907913781
  0
LWPOLYLINE
  5
31A
100
AcDbEntity
  8
RACCORDO
100
AcDbPolyline
 62
250
  6
CONTINUOUS
 90
31
 70
0
 10
-0.4920799707
 20
12.9410446262
 10
-0.4918393895
 20
12.9524565356
 10
-0.4911182983
 20
12.9640779922
 10
-0.4899186565
 20
12.9758773653
 10
-0.488243724
 20
12.9878225519
 10
-0.4860980575
 20
12.999881027
 10
-0.4834875029
 20
13.0120199308
 10
-0.4804191694
 20
13.0242062129
 10
-0.4769014081
 20
13.0364067124
 10
-0.4729437989
 20
13.0485882093
 10
-0.468557117
 20
13.0607175449
 10
-0.463753304
 20
13.0727617071
 10
-0.4585454393
 20
13.084687909
 10
-0.452947694
 20
13.0964637037
 10
-0.4469753124
 20
13.1080570261
 10
-0.4406445781
 20
13.1194362783
 10
-0.4339727571
 20
13.1305704461
 10
-0.4269779888
 20
13.1414292776
 10
-0.4196792519
 20
13.1519833136
 10
-0.4120963093
 20
13.1622039564
 10
-0.404249891
 20
13.1720632453
 10
-0.3961615997
 20
13.1815340615
 10
-0.3878536319
 20
13.1905904896
 10
-0.3793484596
 20
13.1992081062
 10
-0.3706689968
 20
13.20736372
 10
-0.3618369063
 20
13.2150367685
 10
-0.3528781233
 20
13.2222045161
 10
-0.3438227865
 20
13.2288434227
 10
-0.3346976177
 20
13.2349352201
 10
-0.3255256131
 20
13.2404658674
 10
-0.3163317148
 20
13.2454214411
  0
LWPOLYLINE
  5
31B
100
AcDbEntity
  8
RACCORDO
100
AcDbPolyline
 62
250
  6
CONTINUOUS
 90
21
 70
0
 10
-3.6931827439
 20
-28.7012757353
 10
-3.6944707025
 20
-28.7220678214
 10
-3.6965416447
 20
-28.742405951
 10
-3.6993908844
 20
-28.7622441054
 10
-3.7030119748
 20
-28.7815373968
 10
-3.7073967224
 20
-28.8002421707
 10
-3.7125352059
 20
-28.8183161039
 10
-3.7184157985
 20
-28.8357183007
 10
-3.7250251944
 20
-28.8524093855
 10
-3.7323484384
 20
-28.8683515914
 10
-3.7403689603
 20
-28.8835088463
 10
-3.7490686123
 20
-28.897846854
 10
-3.7584277097
 20
-28.911333172
 10
-3.7684250758
 20
-28.923937285
 10
-3.7790380897
 20
-28.9356306739
 10
-3.7902427374
 20
-28.9463868801
 10
-3.8020136663
 20
-28.9561815657
 10
-3.8143242424
 20
-28.9649925684
 10
-3.8271466108
 20
-28.9727999516
 10
-3.8404517584
 20
-28.9795860496
 10
-3.8469899893
 20
-28.9824714336
  0
LWPOLYLINE
  5
31C
100
AcDbEntity
  8
0
100
AcDbPolyline
 62
7
  6
CONTINUOUS
 90
10
 70
0
 10
-8.3539798151
 20
-11.0080352615
 10
-8.4528392107
 20
-11.1937954888
 10
-8.5928421504
 20
-11.4179908114
 10
-8.7465381901
 20
-11.6290754439
 10
-8.914146257
 20
-11.8269101682
 10
-9.0946984834
 20
-12.0099534326
 10
-9.288168777
 20
-12.1778455519
 10
-9.4940843658
 20
-12.3297496814
 10
-9.7115726576
 20
-12.4646506113
 10
-9.8528861982
 20
-12.5399004484
  0
LWPOLYLINE
  5
31D
100
AcDbEntity
  8
RACCORDO
100
AcDbPolyline
 62
250
  6
CONTINUOUS
 90
47
 70
0
 10
12.2078202501
 20
18.5684875335
 10
12.2230111016
 20
18.5887933614
 10
12.27229432
 20
18.6455740388
 10
12.3274279946
 20
18.7011646532
 10
12.387931473
 20
18.7551071755
 10
12.4538038246
 20
18.807360075
 10
12.5250459799
 20
18.8579648824
 10
12.6011800776
 20
18.906588161
 10
12.6821967066
 20
18.9532159035
 10
12.7681052779
 20
18.9978621171
 10
12.8584561636
 20
19.0402353862
 10
12.9535064438
 20
19.0803945842
 10
13.0529990383
 20
19.1182808377
 10
13.1557130787
 20
19.1534261108
 10
13.2620539475
 20
19.1858038307
 10
13.371616262
 20
19.2154405703
 10
13.4819630064
 20
19.2419480125
 10
13.5930675234
 20
19.2651474059
 10
13.7049564701
 20
19.285217502
 10
13.8152728022
 20
19.3023062377
 10
13.9236632921
 20
19.3162801336
 10
14.0304811674
 20
19.3272726692
 10
14.1344290665
 20
19.3358322204
 10
14.2352649009
 20
19.34193479
 10
14.3332307592
 20
19.3456043751
 10
14.4277555455
 20
19.3474613439
 10
14.5186772856
 20
19.3475272128
 10
14.6061579538
 20
19.3457804653
 10
14.6901123772
 20
19.3427769199
 10
14.7704164506
 20
19.3385581193
 10
14.8471942792
 20
19.3330825208
 10
14.9207330056
 20
19.3267813152
 10
14.9909995393
 20
19.3196952814
 10
15.0580269709
 20
19.3117836405
 10
15.122201715
 20
19.3033552463
 10
15.1835094618
 20
19.2944446058
 10
15.2419645213
 20
19.285017212
 10
15.2979962378
 20
19.2752783982
 10
15.3516008213
 20
19.2652568764
 10
15.402782062
 20
19.2549239347
 10
15.4519806743
 20
19.24439877
 10
15.4991998192
 20
19.2337042308
 10
15.5444363357
 20
19.2228174687
 10
15.5881214556
 20
19.2117891351
 10
15.6303989227
 20
19.2006361137
 10
15.6711249931
 20
19.1893415209
 10
15.7102996668
 20
19.1779053566
  0
LINE
  5
31E
100
AcDbEntity
  8
ASSI
100
AcDbLine
 62
7
  6
CONTINUOUS
 10
-15.5349815544
 20
-13.3143267744
 11
-23.0146072251
 21
-20.3883374143
  0
LWPOLYLINE
  5
31F
100
AcDbEntity
  8
ASSI
100
AcDbPolyline
 62
7
  6
CONTINUOUS
 90
10
 70
0
 10
-23.0146072251
 20
-20.3883374143
 10
-23.09374698
 20
-20.4588219374
 10
-23.1736243179
 20
-20.5219465906
 10
-23.2542392388
 20
-20.5777113738
 10
-23.3360834646
 20
-20.6263621482
 10
-23.4186652734
 20
-20.6676530526
 10
-23.5005094993
 20
-20.7008465041
 10
-23.5811244201
 20
-20.7256966417
 10
-23.6610017581
 20
-20.7424493264
 10
-23.740141513
 20
-20.7511045583
  0
LWPOLYLINE
  5
320
100
AcDbEntity
  8
RACCORDO
100
AcDbPolyline
 62
7
  6
CONTINUOUS
 90
10
 70
0
 10
23.521910366
 20
14.8521193243
 10
23.5204247853
 20
14.8512928718
 10
23.5189209982
 20
14.8505366616
 10
23.5173989658
 20
14.8498508002
 10
23.5158580386
 20
14.8492347898
 10
23.5142987843
 20
14.848689349
 10
23.5127230407
 20
14.8482163884
 10
23.5111314538
 20
14.8478165943
 10
23.5095234244
 20
14.8474894518
 10
23.5078989732
 20
14.8472350495
  0
LWPOLYLINE
  5
321
100
AcDbEntity
  8
ASSI
100
AcDbPolyline
 62
7
  6
CONTINUOUS
 90
41
 70
0
 10
-25.5144009225
 20
-11.7572837031
 10
-25.6239054277
 20
-11.8162714769
 10
-25.7321808694
 20
-11.8826973046
 10
-25.8392272477
 20
-11.9565611863
 10
-25.945440299
 20
-12.0381988923
 10
-26.0504242868
 20
-12.1272746523
 10
-26.152992002
 20
-12.2227811549
 10
-26.2531160169
 20
-12.3247913972
 10
-26.3508237592
 20
-12.4332323821
 10
-26.445010303
 20
-12.5468778072
 10
-26.5356356783
 20
-12.6657867493
 10
-26.6227398551
 20
-12.7899001315
 10
-26.7053378177
 20
-12.9178144204
 10
-26.7833784149
 20
-13.0495727609
 10
-26.8569127979
 20
-13.185132008
 10
-26.9251094048
 20
-13.322959193
 10
-26.987907645
 20
-13.4630800597
 10
-27.045368109
 20
-13.6054688642
 10
-27.0968410065
 20
-13.7485154057
 10
-27.1422583709
 20
-13.8922271505
 10
-27.1816881688
 20
-14.0365966324
 10
-27.214684509
 20
-14.1799912522
 10
-27.2411743638
 20
-14.3223999439
 10
-27.261230761
 20
-14.4638337736
 10
-27.2746268933
 20
-14.6026933398
 10
-27.2812871582
 20
-14.7389494214
 10
-27.2812871582
 20
-14.8726312395
 10
-27.2746268933
 20
-15.0022270562
 10
-27.261230761
 20
-15.1276904901
 10
-27.2411743638
 20
-15.2490679226
 10
-27.214684509
 20
-15.3649867596
 10
-27.1816881688
 20
-15.4753850391
 10
-27.1422583709
 20
-15.5803247231
 10
-27.0968410065
 20
-15.6786191034
 10
-27.045368109
 20
-15.7701927475
 10
-26.987907645
 20
-15.855121088
 10
-26.9251094048
 20
-15.9324437145
 10
-26.8569127979
 20
-16.0020742926
 10
-26.7833784149
 20
-16.0640991567
 10
-26.7053378177
 20
-16.1178169
 10
-26.6324138179
 20
-16.1583729774
  0
LINE
  5
322
100
AcDbEntity
  8
ASSI
100
AcDbLine
 62
7
  6
CONTINUOUS
 10
-14.8370885266
 20
-5.4226982908
 11
-12.3622147924
 21
-4.1852614238
  0
LWPOLYLINE
  5
323
100
AcDbEntity
  8
0
100
AcDbPolyline
 62
7
  6
CONTINUOUS
 90
3
 70
0
 10
-11.0187119082
 20
-2.5263591676
 10
-10.9609468716
 20
-2.5001611544
 10
-10.9040302636
 20
-2.4793492861
  0
LINE
  5
324
100
AcDbEntity
  8
0
100
AcDbLine
 62
7
  6
CONTINUOUS
 10
-14.349087232
 20
-0.7601639446
 11
-14.2688114064
 21
-0.757296367
  0
LWPOLYLINE
  5
325
100
AcDbEntity
  8
RACCORDO
100
AcDbPolyline
 62
250
  6
CONTINUOUS
 90
45
 70
0
 10
-14.5836381834
 20
-0.5107114868
 10
-14.6922985235
 20
-0.5135269493
 10
-14.7998556586
 20
-0.520210211
 10
-14.9063084747
 20
-0.5307607305
 10
-15.0117486678
 20
-0.5451781902
 10
-15.1160821184
 20
-0.5634617288
 10
-15.2190289518
 20
-0.5856099716
 10
-15.3205818595
 20
-0.6116399262
 10
-15.42074549
 20
-0.6415332882
 10
-15.5192579568
 20
-0.6752357395
 10
-15.6161088823
 20
-0.7127628139
 10
-15.7113058293
 20
-0.7540976019
 10
-15.8046139369
 20
-0.7991371759
 10
-15.8960072474
 20
-0.8478827534
 10
-15.9855088495
 20
-0.9003317106
 10
-16.072957597
 20
-0.9563754274
 10
-16.1583386129
 20
-1.0160096794
 10
-16.2416638687
 20
-1.0792372622
 10
-16.3228126281
 20
-1.1459601513
 10
-16.4017880158
 20
-1.216185896
 10
-16.4785839664
 20
-1.2899054961
 10
-16.5530661194
 20
-1.3669961803
 10
-16.6252353879
 20
-1.4474703753
 10
-16.6950879693
 20
-1.531314223
 10
-16.7624826584
 20
-1.6183656349
 10
-16.8274116917
 20
-1.7086299754
 10
-16.8898801036
 20
-1.8021005217
 10
-16.9497661727
 20
-1.8985971945
 10
-17.0070619722
 20
-1.9981229267
 10
-17.0617729156
 20
-2.1006735273
 10
-17.1137976065
 20
-2.2060583858
 10
-17.1631299031
 20
-2.3142819368
 10
-17.2097736909
 20
-2.425338609
 10
-17.2536429568
 20
-2.5390229495
 10
-17.2947317515
 20
-2.6553395547
 10
-17.3330440743
 20
-2.7742828382
 10
-17.3685092055
 20
-2.8956322547
 10
-17.4011210023
 20
-3.019390952
 10
-17.4308840092
 20
-3.1455549621
 10
-17.4577439305
 20
-3.2738932609
 10
-17.4816948443
 20
-3.4044055816
 10
-17.5027414574
 20
-3.5370915574
 10
-17.5208458174
 20
-3.6717202121
 10
-17.5360033031
 20
-3.8082939715
 10
-17.5419725425
 20
-3.8759874196
  0
LWPOLYLINE
  5
326
100
AcDbEntity
  8
RACCORDO
100
AcDbPolyline
 62
7
  6
CONTINUOUS
 90
34
 70
0
 10
-14.4405785778
 20
-0.6421653219
 10
-14.3481980221
 20
-0.6428609576
 10
-14.2456186398
 20
-0.6469834544
 10
-14.1421878605
 20
-0.6546136349
 10
-14.0379912126
 20
-0.6657376941
 10
-13.933079834
 20
-0.6803398462
 10
-13.8274740737
 20
-0.6984106234
 10
-13.721236325
 20
-0.7199354715
 10
-13.6144362566
 20
-0.7448946398
 10
-13.5071036872
 20
-0.773278302
 10
-13.3993054162
 20
-0.8050680095
 10
-13.2911094426
 20
-0.8402406561
 10
-13.1825458784
 20
-0.8787859955
 10
-13.073681412
 20
-0.9206818738
 10
-12.9645839806
 20
-0.9659015859
 10
-12.855284188
 20
-1.0144344349
 10
-12.7458439007
 20
-1.06625708
 10
-12.6363356341
 20
-1.1213371782
 10
-12.5268048709
 20
-1.1796554572
 10
-12.4173135982
 20
-1.241184004
 10
-12.3079335778
 20
-1.3058854474
 10
-12.1987240806
 20
-1.3737286604
 10
-12.0897511929
 20
-1.4446772602
 10
-11.9810810429
 20
-1.5186907692
 10
-11.872772163
 20
-1.5957330527
 10
-11.7648901361
 20
-1.6757619225
 10
-11.6575000845
 20
-1.7587312411
 10
-11.5506591894
 20
-1.8446001725
 10
-11.4444335034
 20
-1.9333199423
 10
-11.3388830196
 20
-2.0248429179
 10
-11.2340554757
 20
-2.1191317056
 10
-11.1300089947
 20
-2.216139275
 10
-11.0268161459
 20
-2.3158003602
 10
-10.9349982225
 20
-2.4074390961
  0
LWPOLYLINE
  5
327
100
AcDbEntity
  8
0
100
AcDbPolyline
 62
250
  6
CONTINUOUS
 90
10
 70
0
 10
-14.4128244579
 20
-0.8293028928
 10
-14.2324940142
 20
-0.8355582612
 10
-14.0493276385
 20
-0.8526899758
 10
-13.8636550697
 20
-0.8806810051
 10
-13.6758213487
 20
-0.9194921323
 10
-13.4861563398
 20
-0.9690678616
 10
-13.2949732864
 20
-1.029342142
 10
-13.1026087594
 20
-1.1002278339
 10
-12.9094228727
 20
-1.1816111149
 10
-12.715768183
 20
-1.2733614775
  0
LINE
  5
328
100
AcDbEntity
  8
0
100
AcDbLine
 62
250
  6
CONTINUOUS
 10
9.4681130115
 20
-5.8077522462
 11
9.7907825178
 21
-5.9690869994
  0
LINE
  5
329
100
AcDbEntity
  8
0
100
AcDbLine
 62
250
  6
CONTINUOUS
 10
10.1999881109
 20
-5.2298104849
 11
10.7374814561
 21
-5.4985571575
  0
LWPOLYLINE
  5
32A
100
AcDbEntity
  8
CURVE
100
AcDbPolyline
 62
250
  6
CONTINUOUS
 90
94
 70
0
 10
-12.6678753928
 20
4.4230513125
 10
-12.6224894423
 20
4.3994022655
 10
-12.5772842427
 20
4.3739305245
 10
-12.5322279215
 20
4.3466187646
 10
-12.4873097809
 20
4.3174633137
 10
-12.4426038227
 20
4.2865151122
 10
-12.3982052231
 20
4.2538387536
 10
-12.3541952706
 20
4.2194896701
 10
-12.3105997004
 20
4.1834866482
 10
-12.2674303597
 20
4.1458393133
 10
-12.2247117866
 20
4.1065700533
 10
-12.1825192828
 20
4.0657523066
 10
-12.1409408414
 20
4.023472274
 10
-12.1000504333
 20
3.9798024806
 10
-12.0598659432
 20
3.9347607467
 10
-12.020391234
 20
3.8883512171
 10
-11.9816434246
 20
3.8405953086
 10
-11.9436926579
 20
3.7915835285
 10
-11.9066223332
 20
3.7414236565
 10
-11.8705026432
 20
3.6902068418
 10
-11.8353509554
 20
3.6379577113
 10
-11.801171431
 20
3.5846842614
 10
-11.7679783511
 20
3.5304113529
 10
-11.7358264757
 20
3.4752313036
 10
-11.7047806847
 20
3.4192532957
 10
-11.6748972307
 20
3.3625734771
 10
-11.6461978568
 20
3.305235859
 10
-11.6186956789
 20
3.2472714182
 10
-11.5924080181
 20
3.1887201541
 10
-11.5673690179
 20
3.1296581556
 10
-11.543617027
 20
3.070170534
 10
-11.5211877559
 20
3.0103402875
 10
-11.5001063606
 20
2.9502419609
 10
-11.4803953588
 20
2.8899479858
 10
-11.4620759676
 20
2.8295262333
 10
-11.4451642016
 20
2.7690263322
 10
-11.4296747748
 20
2.7084933505
 10
-11.4156234467
 20
2.6479833001
 10
-11.4030301578
 20
2.5875959665
 10
-11.3919158941
 20
2.5274420787
 10
-11.382298659
 20
2.4676162247
 10
-11.3741845271
 20
2.4081484282
 10
-11.3675765903
 20
2.3490525717
 10
-11.3624786006
 20
2.2903614203
 10
-11.3588969489
 20
2.2321832683
 10
-11.3568386862
 20
2.1746452925
 10
-11.3563096817
 20
2.1178538847
 10
-11.35731108
 20
2.0618322969
 10
-11.3598428439
 20
2.006582996
 10
-11.3639030219
 20
1.9521277017
 10
-11.3694820046
 20
1.8985651447
 10
-11.3765682679
 20
1.8460133086
 10
-11.3851516406
 20
1.7945721424
 10
-11.3952273628
 20
1.7442694581
 10
-11.4067920272
 20
1.6951150334
 10
-11.4198386707
 20
1.6471316893
 10
-11.4343461051
 20
1.600394421
 10
-11.4502895863
 20
1.5549912669
 10
-11.4676458672
 20
1.5110003409
 10
-11.486397689
 20
1.4684600565
 10
-11.5065292902
 20
1.4273989026
 10
-11.5280233846
 20
1.3878487273
 10
-11.5508565869
 20
1.3498548155
 10
-11.5750039875
 20
1.3134658116
 10
-11.6004380803
 20
1.2787296687
 10
-11.6271209753
 20
1.245691575
 10
-11.6550121861
 20
1.2143960276
 10
-11.6840756664
 20
1.1848829107
 10
-11.7142931289
 20
1.1571736567
 10
-11.7456507265
 20
1.1312850849
 10
-11.7781256009
 20
1.1072382426
 10
-11.8116588493
 20
1.0850710891
 10
-11.8461825581
 20
1.0648258119
 10
-11.8816395276
 20
1.0465380602
 10
-11.9180154133
 20
1.0302173317
 10
-11.955306585
 20
1.0158665861
 10
-11.9934955655
 20
1.0034920581
 10
-12.0325094922
 20
0.9931130836
 10
-12.0722616556
 20
0.9847522733
 10
-12.1126793509
 20
0.9784284232
 10
-12.1537458913
 20
0.9741450687
 10
-12.1954585944
 20
0.9719019303
 10
-12.237800082
 20
0.9716982509
 10
-12.2806941937
 20
0.9735313645
 10
-12.3240500734
 20
0.9773981278
 10
-12.3677901975
 20
0.9832955104
 10
-12.4118903722
 20
0.9912209333
 10
-12.4563397365
 20
1.0011719308
 10
-12.5011132477
 20
1.0131412848
 10
-12.5461291374
 20
1.0271027699
 10
-12.5912914554
 20
1.0430254089
 10
-12.6365255732
 20
1.0608858324
 10
-12.6818421475
 20
1.0806911042
 10
-12.7272731564
 20
1.1024558963
  0
LWPOLYLINE
  5
32B
100
AcDbEntity
  8
ASSI
100
AcDbPolyline
 62
7
  6
CONTINUOUS
 90
6
 70
0
 10
2.4907335314
 20
18.2231962187
 10
2.4906950472
 20
18.2242826836
 10
2.4899468099
 20
18.227745375
 10
2.4882849424
 20
18.2305955764
 10
2.4857542247
 20
18.2328834419
 10
2.4839592233
 20
18.2339346926
  0
LWPOLYLINE
  5
32C
100
AcDbEntity
  8
RACCORDO
100
AcDbPolyline
 62
7
  6
CONTINUOUS
 90
34
 70
0
 10
1.4617227797
 20
13.7432539058
 10
1.4615227237
 20
13.7536557145
 10
1.4609224863
 20
13.7642340825
 10
1.4599235283
 20
13.7749651006
 10
1.4585282927
 20
13.7858245537
 10
1.4567399445
 20
13.7967878462
 10
1.4545623631
 20
13.8078300571
 10
1.4520005386
 20
13.818926204
 10
1.4490603643
 20
13.8300511975
 10
1.4457483694
 20
13.8411797679
 10
1.4420720922
 20
13.8522867257
 10
1.438039932
 20
13.8633469469
 10
1.4336609347
 20
13.8743353281
 10
1.4289450341
 20
13.8852269857
 10
1.4239029641
 20
13.8959972729
 10
1.4185461035
 20
13.9066217641
 10
1.4128865792
 20
13.9170763886
 10
1.4069372413
 20
13.9273374787
 10
1.4007115695
 20
13.9373817851
 10
1.394223637
 20
13.94718654
 10
1.3874881482
 20
13.9567295372
 10
1.3805204089
 20
13.9659891774
 10
1.3733361519
 20
13.9749444598
 10
1.3659516362
 20
13.9835750918
 10
1.3583836819
 20
13.9918615645
 10
1.3506493604
 20
13.9997850718
 10
1.3427661545
 20
14.0073276479
 10
1.334752055
 20
14.0144722717
 10
1.3266251246
 20
14.0212027144
 10
1.3184037136
 20
14.0275037029
 10
1.3101066168
 20
14.0333610502
 10
1.3017526235
 20
14.038761487
 10
1.2933604743
 20
14.0436926916
 10
1.2849490761
 20
14.0481434446
  0
LWPOLYLINE
  5
32D
100
AcDbEntity
  8
RACCORDO
100
AcDbPolyline
 62
250
  6
CONTINUOUS
 90
31
 70
0
 10
1.9899899515
 20
14.0066927259
 10
1.9898008307
 20
14.0181432348
 10
1.9891266474
 20
14.0298095885
 10
1.9879683315
 20
14.0416602867
 10
1.98632775
 20
14.0536657485
 10
1.9842086879
 20
14.0657908669
 10
1.9816178363
 20
14.0779948965
 10
1.978563019
 20
14.0902416894
 10
1.975052097
 20
14.1025003286
 10
1.9710945794
 20
14.1147375485
 10
1.966701191
 20
14.1269200311
 10
1.9618840148
 20
14.1390141314
 10
1.956656388
 20
14.1509863217
 10
1.9510327231
 20
14.1628036244
 10
1.9450283779
 20
14.1744337945
 10
1.9386597618
 20
14.1858450426
 10
1.931944302
 20
14.1970061221
 10
1.9249004318
 20
14.2078863769
 10
1.9175474889
 20
14.2184559279
 10
1.9099056422
 20
14.2286857795
 10
1.9019958355
 20
14.2385478918
 10
1.8938397593
 20
14.2480152168
 10
1.8854597749
 20
14.2570617945
 10
1.876878861
 20
14.2656628146
 10
1.8681205542
 20
14.2737946831
 10
1.859208864
 20
14.2814351056
 10
1.850168232
 20
14.288563125
 10
1.8410234745
 20
14.2951591765
 10
1.8317996761
 20
14.3012051713
 10
1.8225221207
 20
14.306684541
 10
1.8132162478
 20
14.3115822647
  0
LINE
  5
32E
100
AcDbEntity
  8
RACCORDO
100
AcDbLine
 62
250
  6
CONTINUOUS
 10
0.571662597
 20
-27.8475496941
 11
0.571662597
 21
-27.1277005575
  0
LINE
  5
32F
100
AcDbEntity
  8
RACCORDO
100
AcDbLine
 62
250
  6
CONTINUOUS
 10
0.571662597
 20
11.6435536214
 11
0.571662597
 21
12.4520544453
  0
LINE
  5
330
100
AcDbEntity
  8
RACCORDO
100
AcDbLine
 62
7
  6
CONTINUOUS
 10
1.4617227797
 20
-26.7540894458
 11
1.4617227797
 21
-28.2589855057
  0
LINE
  5
331
100
AcDbEntity
  8
RACCORDO
100
AcDbLine
 62
7
  6
CONTINUOUS
 10
1.4617227797
 20
12.1408347492
 11
1.4617227797
 21
13.7432539058
  0
LINE
  5
332
100
AcDbEntity
  8
RACCORDO
100
AcDbLine
 62
250
  6
CONTINUOUS
 10
1.9899899515
 20
14.0066927259
 11
1.9899899515
 21
13.6591612091
  0
LINE
  5
333
100
AcDbEntity
  8
RACCORDO
100
AcDbLine
 62
250
  6
CONTINUOUS
 10
1.9899899515
 20
-27.6404429303
 11
1.9899899515
 21
-27.987974447
  0
LINE
  5
334
100
AcDbEntity
  8
RACCORDO
100
AcDbLine
 62
7
  6
CONTINUOUS
 10
2.0621878085
 20
14.094565358
 11
2.0621878085
 21
13.6591604656
  0
LINE
  5
335
100
AcDbEntity
  8
RACCORDO
100
AcDbLine
 62
7
  6
CONTINUOUS
 10
2.0621878085
 20
-27.5525702981
 11
2.0621878085
 21
-27.9001018148
  0
LINE
  5
336
100
AcDbEntity
  8
ASSI
100
AcDbLine
 62
250
  6
CONTINUOUS
 10
2.3671394676
 20
16.987143368
 11
2.3671394676
 21
18.2141933352
  0
LINE
  5
337
100
AcDbEntity
  8
RACCORDO
100
AcDbLine
 62
7
  6
CONTINUOUS
 10
2.4907335314
 20
17.1353024709
 11
2.4907335314
 21
18.2231980793
  0
LINE
  5
338
100
AcDbEntity
  8
RACCORDO
100
AcDbLine
 62
7
  6
CONTINUOUS
 10
2.5223829515
 20
-26.0394053199
 11
2.5223829515
 21
11.8772271107
  0
LWPOLYLINE
  5
339
100
AcDbEntity
  8
RACCORDO
100
AcDbPolyline
 62
7
  6
CONTINUOUS
 90
22
 70
0
 10
1.8045065286
 20
-26.3935690872
 10
1.8038870747
 20
-26.4114149584
 10
1.802677848
 20
-26.4289559336
 10
1.8008769253
 20
-26.4461605957
 10
1.7984830294
 20
-26.4629956511
 10
1.7954968571
 20
-26.4794326689
 10
1.7919201826
 20
-26.495447459
 10
1.7877559727
 20
-26.5110041717
 10
1.7830056294
 20
-26.5260784576
 10
1.7776667757
 20
-26.5406610784
 10
1.7717406992
 20
-26.5547223855
 10
1.7652314962
 20
-26.5682292462
 10
1.7581383369
 20
-26.5811634415
 10
1.7504585457
 20
-26.5935029126
 10
1.7422032908
 20
-26.605204663
 10
1.7333950191
 20
-26.6162208813
 10
1.7240403136
 20
-26.6265283673
 10
1.7141542148
 20
-26.6360962833
 10
1.7037801438
 20
-26.6448760705
 10
1.6929341016
 20
-26.6528515352
 10
1.6816368121
 20
-26.6600048313
 10
1.669861935
 20
-26.6663441281
  0
LWPOLYLINE
  5
33A
100
AcDbEntity
  8
RACCORDO
100
AcDbPolyline
 62
7
  6
CONTINUOUS
 90
4
 70
0
 10
2.0621878085
 20
13.6591545261
 10
2.0621696996
 20
13.6587278678
 10
2.0617511718
 20
13.6571855522
 10
2.0611354483
 20
13.6562258602
  0
LWPOLYLINE
  5
33B
100
AcDbEntity
  8
RACCORDO
100
AcDbPolyline
 62
250
  6
CONTINUOUS
 90
16
 70
0
 10
2.0621878085
 20
14.094565358
 10
2.0618845874
 20
14.0884107138
 10
2.0609030817
 20
14.0819092045
 10
2.0592449039
 20
14.0754421285
 10
2.0569145653
 20
14.0690270804
 10
2.0539184062
 20
14.0626815136
 10
2.050264578
 20
14.0564226922
 10
2.0459630216
 20
14.0502676443
 10
2.04102544
 20
14.0442331159
 10
2.035465267
 20
14.0383355249
 10
2.0292976297
 20
14.0325909167
 10
2.0225393084
 20
14.0270149204
 10
2.0152086902
 20
14.0216227066
 10
2.0073257193
 20
14.0164289456
 10
1.9989118426
 20
14.011447768
 10
1.9899899515
 20
14.0066927259
  0
LWPOLYLINE
  5
33C
100
AcDbEntity
  8
RACCORDO
100
AcDbPolyline
 62
7
  6
CONTINUOUS
 90
10
 70
0
 10
22.916587237
 20
12.7096013626
 10
23.0214625938
 20
12.7849969604
 10
23.1203925484
 20
12.8719252602
 10
23.2126662242
 20
12.970242137
 10
23.2977040058
 20
13.0798752847
 10
23.3747649771
 20
13.2004593448
 10
23.4430720583
 20
13.3312806253
 10
23.5021390838
 20
13.4718232995
 10
23.5516365949
 20
13.621821139
 10
23.5899547865
 20
13.7750565886
  0
LWPOLYLINE
  5
33D
100
AcDbEntity
  8
RACCORDO
100
AcDbPolyline
 62
7
  6
CONTINUOUS
 90
6
 70
0
 10
23.521910366
 20
13.6902164573
 10
23.5440267766
 20
13.7057787032
 10
23.5622497848
 20
13.7229954674
 10
23.5763088221
 20
13.7416146547
 10
23.5859984292
 20
13.7614010862
 10
23.5899546517
 20
13.7750695038
  0
LWPOLYLINE
  5
33E
100
AcDbEntity
  8
RACCORDO
100
AcDbPolyline
 62
7
  6
CONTINUOUS
 90
7
 70
0
 10
23.521910366
 20
14.8521193243
 10
23.5440267766
 20
14.8665087261
 10
23.5622497848
 20
14.8817254923
 10
23.5763088221
 20
14.8975175276
 10
23.5859984292
 20
14.9135881786
 10
23.591180455
 20
14.9296915981
 10
23.5920970331
 20
14.9398001758
  0
LINE
  5
33F
100
AcDbEntity
  8
DRAFT
100
AcDbLine
 62
7
  6
CONTINUOUS
 10
22.9165872371
 20
12.7096013627
 11
21.9364592351
 21
12.0756628461
  0
LWPOLYLINE
  5
340
100
AcDbEntity
  8
RACCORDO
100
AcDbPolyline
 62
7
  6
CONTINUOUS
 90
10
 70
0
 10
23.521910366
 20
13.6902164573
 10
23.5204247853
 20
13.6892861877
 10
23.5189209982
 20
13.6882916001
 10
23.5173989658
 20
13.6872328014
 10
23.5158580386
 20
13.686109818
 10
23.5142987843
 20
13.6849228441
 10
23.5127230407
 20
13.6836722169
 10
23.5111314538
 20
13.6823580982
 10
23.5095234244
 20
13.6809804977
 10
23.5078989732
 20
13.6795395038
  0
LINE
  5
341
100
AcDbEntity
  8
RACCORDO
100
AcDbLine
 62
250
  6
CONTINUOUS
 10
17.9400852363
 20
6.1051727655
 11
21.2932999752
 21
7.9143090455
  0
LWPOLYLINE
  5
342
100
AcDbEntity
  8
ASSI
100
AcDbPolyline
 62
7
  6
CONTINUOUS
 90
33
 70
0
 10
-26.9286144849
 20
-15.3803039409
 10
-26.8191099797
 20
-15.3213161671
 10
-26.710834538
 20
-15.2548903394
 10
-26.6037881597
 20
-15.1810264577
 10
-26.4975751084
 20
-15.0993887517
 10
-26.3925911206
 20
-15.0103129917
 10
-26.2900234054
 20
-14.9148064891
 10
-26.1898993905
 20
-14.8127962468
 10
-26.0921916482
 20
-14.7043552619
 10
-25.9980051044
 20
-14.5907098368
 10
-25.9073797291
 20
-14.4718008947
 10
-25.8202755523
 20
-14.3476875125
 10
-25.7376775897
 20
-14.2197732237
 10
-25.6596369925
 20
-14.0880148831
 10
-25.5861026095
 20
-13.952455636
 10
-25.5179060026
 20
-13.814628451
 10
-25.4551077624
 20
-13.6745075843
 10
-25.3976472984
 20
-13.5321187799
 10
-25.3461744009
 20
-13.3890722383
 10
-25.3007570365
 20
-13.2453604935
 10
-25.2613272386
 20
-13.1009910116
 10
-25.2283308984
 20
-12.9575963919
 10
-25.2018410436
 20
-12.8151877001
 10
-25.1817846464
 20
-12.6737538704
 10
-25.1683885141
 20
-12.5348943042
 10
-25.1617282492
 20
-12.3986382226
 10
-25.1617282492
 20
-12.2649564045
 10
-25.1683885141
 20
-12.1353605879
 10
-25.1817846464
 20
-12.0098971539
 10
-25.2018410436
 20
-11.8885197215
 10
-25.2283308984
 20
-11.7726008845
 10
-25.2613272386
 20
-11.662202605
 10
-25.2640955124
 20
-11.6548350356
  0
LWPOLYLINE
  5
343
100
AcDbEntity
  8
ASSI
100
AcDbPolyline
 62
7
  6
CONTINUOUS
 90
41
 70
0
 10
-25.5144009225
 20
-16.0874107221
 10
-25.4048964173
 20
-16.0284229483
 10
-25.2966209756
 20
-15.9619971206
 10
-25.1895745973
 20
-15.8881332389
 10
-25.083361546
 20
-15.8064955329
 10
-24.9783775582
 20
-15.7174197729
 10
-24.875809843
 20
-15.6219132703
 10
-24.7756858281
 20
-15.519903028
 10
-24.6779780858
 20
-15.4114620431
 10
-24.583791542
 20
-15.297816618
 10
-24.4931661667
 20
-15.1789076759
 10
-24.4060619899
 20
-15.0547942937
 10
-24.3234640273
 20
-14.9268800048
 10
-24.2454234301
 20
-14.7951216643
 10
-24.1718890471
 20
-14.6595624172
 10
-24.1036924402
 20
-14.5217352322
 10
-24.0408942
 20
-14.3816143655
 10
-23.983433736
 20
-14.239225561
 10
-23.9319608386
 20
-14.0961790195
 10
-23.8865434741
 20
-13.9524672747
 10
-23.8471136763
 20
-13.8080977928
 10
-23.814117336
 20
-13.664703173
 10
-23.7876274812
 20
-13.5222944813
 10
-23.767571084
 20
-13.3808606516
 10
-23.7541749517
 20
-13.2420010854
 10
-23.7475146868
 20
-13.1057450038
 10
-23.7475146868
 20
-12.9720631857
 10
-23.7541749517
 20
-12.8424673691
 10
-23.767571084
 20
-12.7170039351
 10
-23.7876274812
 20
-12.5956265026
 10
-23.814117336
 20
-12.4797076657
 10
-23.8471136763
 20
-12.3693093861
 10
-23.8865434741
 20
-12.2643697021
 10
-23.9319608386
 20
-12.1660753218
 10
-23.983433736
 20
-12.0745016777
 10
-24.0408942
 20
-11.9895733372
 10
-24.1036924402
 20
-11.9122507107
 10
-24.1718890471
 20
-11.8426201326
 10
-24.2454234301
 20
-11.7805952685
 10
-24.3234640273
 20
-11.7268775252
 10
-24.3963880271
 20
-11.6863214478
  0
LINE
  5
344
100
AcDbEntity
  8
0
100
AcDbLine
 62
7
  6
CONTINUOUS
 10
-10.9040302636
 20
-2.4793492861
 11
-10.8733548554
 21
-2.4709097332
  0
LINE
  5
345
100
AcDbEntity
  8
0
100
AcDbLine
 62
7
  6
CONTINUOUS
 10
-14.6064667115
 20
-0.7878684112
 11
-14.349087232
 21
-0.7601639446
  0
LINE
  5
346
100
AcDbEntity
  8
DRAFT
100
AcDbLine
 62
7
  6
CONTINUOUS
 10
13.4844269744
 20
-4.1332658406
 11
12.8776662672
 21
-3.829885487
  0
LINE
  5
347
100
AcDbEntity
  8
DRAFT
100
AcDbLine
 62
250
  6
CONTINUOUS
 10
9.1968734046
 20
-6.5895996871
 11
9.9177637083
 21
-7.1888540035
  0
LWPOLYLINE
  5
348
100
AcDbEntity
  8
RACCORDO
100
AcDbPolyline
 62
250
  6
CONTINUOUS
 90
14
 70
0
 10
-11.3743282129
 20
20.3413202913
 10
-11.3699806519
 20
20.3339674222
 10
-11.3661305035
 20
20.326874594
 10
-11.3627882818
 20
20.3200611758
 10
-11.3599631136
 20
20.3135457735
 10
-11.357662714
 20
20.3073461793
 10
-11.3558933648
 20
20.3014793232
 10
-11.3546598977
 20
20.2959612261
 10
-11.3539656811
 20
20.2908069569
 10
-11.3538126108
 20
20.2860305907
 10
-11.3542011046
 20
20.281645171
 10
-11.3551301019
 20
20.2776626733
 10
-11.3565970656
 20
20.2740939729
 10
-11.3585539582
 20
20.2710180265
  0
LWPOLYLINE
  5
349
100
AcDbEntity
  8
SMUSSO
100
AcDbPolyline
 62
7
  6
CONTINUOUS
 90
4
 70
0
 10
4.0857343168
 20
22.8032977444
 10
4.0873666248
 20
22.7569405799
 10
4.0974543227
 20
22.6790947565
 10
4.098744248
 20
22.6739021331
  0
LINE
  5
34A
100
AcDbEntity
  8
SMUSSO
100
AcDbLine
 62
250
  6
CONTINUOUS
 10
4.8742955816
 20
23.2904402251
 11
4.8742955816
 21
23.7379744756
  0
LINE
  5
34B
100
AcDbEntity
  8
DRAFT
100
AcDbLine
 62
7
  6
CONTINUOUS
 10
5.5570800478
 20
23.6328611832
 11
5.5570800478
 21
23.1998484813
  0
LWPOLYLINE
  5
34C
100
AcDbEntity
  8
RACCORDO
100
AcDbPolyline
 62
250
  6
CONTINUOUS
 90
16
 70
0
 10
2.0621878085
 20
-27.9001018148
 10
2.061886538
 20
-27.9062366437
 10
2.0609068194
 20
-27.9127395919
 10
2.0592501304
 20
-27.9192081561
 10
2.0569209788
 20
-27.9256247228
 10
2.0539256986
 20
-27.931971834
 10
2.0502724397
 20
-27.9382322108
 10
2.0459711416
 20
-27.9443888139
 10
2.0410335091
 20
-27.9504248844
 10
2.0354729838
 20
-27.9563239868
 10
2.0293046947
 20
-27.9620700682
 10
2.0225454334
 20
-27.9676474839
 10
2.0152136195
 20
-27.9730410362
 10
2.0073292214
 20
-27.9782360406
 10
1.9989136956
 20
-27.9832183641
 10
1.9899899515
 20
-27.987974447
  0
LWPOLYLINE
  5
34D
100
AcDbEntity
  8
RACCORDO
100
AcDbPolyline
 62
250
  6
CONTINUOUS
 90
16
 70
0
 10
2.0621878085
 20
-27.5525702981
 10
2.0618845874
 20
-27.5587249423
 10
2.0609030817
 20
-27.5652264516
 10
2.0592449039
 20
-27.5716935276
 10
2.0569145653
 20
-27.5781085757
 10
2.0539184062
 20
-27.5844541425
 10
2.050264578
 20
-27.5907129639
 10
2.0459630216
 20
-27.5968680118
 10
2.04102544
 20
-27.6029025402
 10
2.035465267
 20
-27.6088001312
 10
2.0292976297
 20
-27.6145447394
 10
2.0225393084
 20
-27.6201207357
 10
2.0152086902
 20
-27.6255129495
 10
2.0073257193
 20
-27.6307067105
 10
1.9989118426
 20
-27.6356878881
 10
1.9899899515
 20
-27.6404429303
  0
LWPOLYLINE
  5
34E
100
AcDbEntity
  8
RACCORDO
100
AcDbPolyline
 62
250
  6
CONTINUOUS
 90
23
 70
0
 10
21.6405233848
 20
12.1378821565
 10
21.6626480325
 20
12.15543738
 10
21.6847230612
 20
12.1703924077
 10
21.7066383028
 20
12.1827703589
 10
21.7284767481
 20
12.1927389417
 10
21.7498936361
 20
12.2001769035
 10
21.7702193031
 20
12.2046374764
 10
21.7893391741
 20
12.2057056771
 10
21.8073015119
 20
12.2037558359
 10
21.8238299942
 20
12.1994763138
 10
21.8388461293
 20
12.1927928528
 10
21.8524915484
 20
12.1837101857
 10
21.8648591312
 20
12.1730262697
 10
21.8759455314
 20
12.1608237187
 10
21.8857773904
 20
12.146968689
 10
21.8944427301
 20
12.131944329
 10
21.9019352589
 20
12.1157614507
 10
21.9082211154
 20
12.0983692268
 10
21.9133016663
 20
12.0801637822
 10
21.9171424745
 20
12.0611881176
 10
21.9197253269
 20
12.0413569846
 10
21.9210294117
 20
12.0208753011
 10
21.9211835059
 20
12.0111337674
  0
LWPOLYLINE
  5
34F
100
AcDbEntity
  8
RACCORDO
100
AcDbPolyline
 62
7
  6
CONTINUOUS
 90
10
 70
0
 10
21.7994457253
 20
12.3104008036
 10
22.0103520425
 20
12.4683515658
 10
22.2160398553
 20
12.6246386812
 10
22.4165091639
 20
12.7792621497
 10
22.611828022
 20
12.9319451888
 10
22.8019283759
 20
13.0829645811
 10
22.986606064
 20
13.233150674
 10
23.1657930327
 20
13.38278025
 10
23.3395573358
 20
13.5315765266
 10
23.5078989732
 20
13.6795395038
  0
LWPOLYLINE
  5
350
100
AcDbEntity
  8
RACCORDO
100
AcDbPolyline
 62
250
  6
CONTINUOUS
 90
17
 70
0
 10
21.1788430285
 20
7.6523849947
 10
21.1922788145
 20
7.6612811711
 10
21.2050059372
 20
7.6713464285
 10
21.2169895258
 20
7.6825531894
 10
21.2281967469
 20
7.6948707488
 10
21.2385968944
 20
7.7082653582
 10
21.248161473
 20
7.7227003181
 10
21.2568642771
 20
7.7381360786
 10
21.2646814623
 20
7.7545303478
 10
21.2715916103
 20
7.7718382075
 10
21.2775757885
 20
7.7900122366
 10
21.2826176008
 20
7.8090026406
 10
21.2867032334
 20
7.8287573882
 10
21.2898214922
 20
7.8492223541
 10
21.2919638336
 20
7.8703414669
 10
21.2931243878
 20
7.8920568632
 10
21.2932999751
 20
7.9143090455
  0
LWPOLYLINE
  5
351
100
AcDbEntity
  8
RACCORDO
100
AcDbPolyline
 62
7
  6
CONTINUOUS
 90
17
 70
0
 10
21.1700908056
 20
7.6474257955
 10
21.2450657047
 20
7.6920343614
 10
21.3137795358
 20
7.7408521958
 10
21.3769752699
 20
7.7930381144
 10
21.4350370845
 20
7.8476014543
 10
21.4895846258
 20
7.9050676474
 10
21.5408713608
 20
7.9650162389
 10
21.5885583926
 20
8.0263585891
 10
21.6331674702
 20
8.0891286059
 10
21.6745264782
 20
8.1525405193
 10
21.7127625999
 20
8.2162760576
 10
21.7485668716
 20
8.2811978888
 10
21.7816306649
 20
8.3466504967
 10
21.8117984352
 20
8.4122851686
 10
21.8394787532
 20
8.4793187031
 10
21.8642204382
 20
8.5475460048
 10
21.8863966177
 20
8.6204341284
  0
LWPOLYLINE
  5
352
100
AcDbEntity
  8
RACCORDO
100
AcDbPolyline
 62
250
  6
CONTINUOUS
 90
9
 70
0
 10
17.2574463569
 20
4.8858326351
 10
17.2914234144
 20
4.905352756
 10
17.3211828095
 20
4.9265244294
 10
17.3464056911
 20
4.9491208148
 10
17.3668218145
 20
4.9728998081
 10
17.3822124349
 20
4.9976066325
 10
17.3924126521
 20
5.0229765683
 10
17.3973131804
 20
5.048737793
 10
17.3977764567
 20
5.0594972277
  0
LINE
  5
353
100
AcDbEntity
  8
RACCORDO
100
AcDbLine
 62
250
  6
CONTINUOUS
 10
21.1710419852
 20
7.6479332026
 11
21.1788430285
 21
7.6523849947
  0
LWPOLYLINE
  5
354
100
AcDbEntity
  8
RACCORDO
100
AcDbPolyline
 62
250
  6
CONTINUOUS
 90
6
 70
0
 10
17.9400852363
 20
6.1051727655
 10
17.8950409954
 20
6.0797211553
 10
17.8491167299
 20
6.0491876009
 10
17.8023124398
 20
6.0135721023
 10
17.7540541729
 20
5.9727122846
 10
17.7049158814
 20
5.9267705227
  0
LINE
  5
355
100
AcDbEntity
  8
RACCORDO
100
AcDbLine
 62
7
  6
CONTINUOUS
 10
17.8178272463
 20
5.8387969226
 11
21.1710419852
 21
7.6479332026
  0
LINE
  5
356
100
AcDbEntity
  8
RACCORDO
100
AcDbLine
 62
7
  6
CONTINUOUS
 10
17.2574463569
 20
4.522098386
 11
9.9177637083
 21
0.6848167499
  0
LINE
  5
357
100
AcDbEntity
  8
RACCORDO
100
AcDbLine
 62
7
  6
CONTINUOUS
 10
9.9177637083
 20
-1.126676177
 11
17.2574463569
 21
2.6365060631
  0
LINE
  5
358
100
AcDbEntity
  8
ASSI
100
AcDbLine
 62
7
  6
CONTINUOUS
 10
-12.3622147924
 20
-10.5072468714
 11
-14.8370885266
 21
-11.7446837385
  0
LINE
  5
359
100
AcDbEntity
  8
DRAFT
100
AcDbLine
 62
7
  6
CONTINUOUS
 10
9.9026455405
 20
0.1486891681
 11
15.6671877655
 21
3.0137912947
  0
LINE
  5
35A
100
AcDbEntity
  8
DRAFT
100
AcDbLine
 62
7
  6
CONTINUOUS
 10
15.6392137425
 20
3.036958874
 11
16.6998739143
 21
3.5559524261
  0
LINE
  5
35B
100
AcDbEntity
  8
RACCORDO
100
AcDbLine
 62
250
  6
CONTINUOUS
 10
-5.0749538771
 20
7.3996799863
 11
-19.8997999547
 21
14.8121030251
  0
LINE
  5
35C
100
AcDbEntity
  8
RACCORDO
100
AcDbLine
 62
250
  6
CONTINUOUS
 10
17.5865856936
 20
-3.6921563665
 11
17.405043916
 21
-3.6013854777
  0
LINE
  5
35D
100
AcDbEntity
  8
DRAFT
100
AcDbLine
 62
250
  6
CONTINUOUS
 10
9.1968734046
 20
-0.5274218606
 11
9.9177637083
 21
-1.126676177
  0
LINE
  5
35E
100
AcDbEntity
  8
0
100
AcDbLine
 62
7
  6
CONTINUOUS
 10
6.524469492
 20
22.3562316355
 11
6.524469492
 21
21.9062006231
  0
LINE
  5
35F
100
AcDbEntity
  8
0
100
AcDbLine
 62
7
  6
CONTINUOUS
 10
6.9742141533
 20
22.2344838023
 11
6.9742141533
 21
21.895713143
  0
LINE
  5
360
100
AcDbEntity
  8
DRAFT
100
AcDbLine
 62
7
  6
CONTINUOUS
 10
7.0125110121
 20
23.0864211854
 11
7.0125110121
 21
23.5731355715
  0
LINE
  5
361
100
AcDbEntity
  8
RACCORDO
100
AcDbLine
 62
250
  6
CONTINUOUS
 10
7.0780957105
 20
16.0414218772
 11
7.0780957105
 21
15.5440919203
  0
LINE
  5
362
100
AcDbEntity
  8
RACCORDO
100
AcDbLine
 62
250
  6
CONTINUOUS
 10
7.0780957105
 20
-21.0407988981
 11
7.0780957105
 21
-21.3119432879
  0
LINE
  5
363
100
AcDbEntity
  8
RACCORDO
100
AcDbLine
 62
7
  6
CONTINUOUS
 10
7.2184258103
 20
16.341847004
 11
7.2184258103
 21
15.7203626096
  0
LINE
  5
364
100
AcDbEntity
  8
RACCORDO
100
AcDbLine
 62
7
  6
CONTINUOUS
 10
7.2184258103
 20
-20.9670820974
 11
7.2184258103
 21
-21.2650392294
  0
LWPOLYLINE
  5
365
100
AcDbEntity
  8
RACCORDO
100
AcDbPolyline
 62
250
  6
CONTINUOUS
 90
17
 70
0
 10
17.7049158814
 20
5.9267705227
 10
17.6566194226
 20
5.8762339416
 10
17.6091983628
 20
5.8207783589
 10
17.5626191356
 20
5.7607279571
 10
17.5185028995
 20
5.6975424081
 10
17.4770158915
 20
5.6310365185
 10
17.4379918745
 20
5.5613954819
 10
17.4025532953
 20
5.4906345506
 10
17.3709253563
 20
5.4186953375
 10
17.3428828552
 20
5.3456362298
 10
17.3188726311
 20
5.273647641
 10
17.2991523869
 20
5.2028206421
 10
17.2834644198
 20
5.1330641621
 10
17.2714824602
 20
5.0662954014
 10
17.2630977516
 20
5.0031534267
 10
17.2584190505
 20
4.9429991713
 10
17.2574463569
 20
4.8858326351
  0
LWPOLYLINE
  5
366
100
AcDbEntity
  8
RACCORDO
100
AcDbPolyline
 62
250
  6
CONTINUOUS
 90
4
 70
0
 10
21.7946027511
 20
8.6384353999
 10
21.7492985745
 20
8.601640848
 10
21.6978105763
 20
8.5669396154
 10
21.6405233848
 20
8.5345907929
  0
LWPOLYLINE
  5
367
100
AcDbEntity
  8
0
100
AcDbPolyline
 62
250
  6
CONTINUOUS
 90
71
 70
0
 10
-9.8528861982
 20
-12.5399004484
 10
-9.7606426873
 20
-12.4912064234
 10
-9.6603424488
 20
-12.4322259732
 10
-9.5627276121
 20
-12.3683093772
 10
-9.4678839704
 20
-12.2995128114
 10
-9.3758948814
 20
-12.2258967409
 10
-9.286841194
 20
-12.1475258665
 10
-9.2008011772
 20
-12.0644690682
 10
-9.1178504511
 20
-11.9767993441
 10
-9.0380619209
 20
-11.884593747
 10
-8.9615057123
 20
-11.7879333158
 10
-8.8882491103
 20
-11.6869030052
 10
-8.8183564999
 20
-11.5815916102
 10
-8.7518893094
 20
-11.4720916886
 10
-8.6889059566
 20
-11.3584994795
 10
-8.6294617972
 20
-11.2409148186
 10
-8.5736090765
 20
-11.1194410506
 10
-8.5213968833
 20
-10.9941849384
 10
-8.4728711066
 20
-10.865256569
 10
-8.4280743956
 20
-10.732769257
 10
-8.3870461219
 20
-10.5968394452
 10
-8.3498223451
 20
-10.4575866016
 10
-8.316435781
 20
-10.315133115
 10
-8.286915773
 20
-10.1696041872
 10
-8.2612882661
 20
-10.0211277231
 10
-8.2395757842
 20
-9.8698342181
 10
-8.2217974102
 20
-9.7158566433
 10
-8.2079687697
 20
-9.5593303291
 10
-8.1981020164
 20
-9.4003928458
 10
-8.1922058222
 20
-9.2391838831
 10
-8.1902853693
 20
-9.0758451267
 10
-8.1923423456
 20
-8.9105201346
 10
-8.1983749432
 20
-8.7433542102
 10
-8.2083778601
 20
-8.5744942749
 10
-8.2223423046
 20
-8.4040887391
 10
-8.2402560037
 20
-8.2322873717
 10
-8.2621032129
 20
-8.059241168
 10
-8.2878647308
 20
-7.8851022178
 10
-8.3175179158
 20
-7.7100235711
 10
-8.3510367057
 20
-7.5341591038
 10
-8.3883916411
 20
-7.3576633826
 10
-8.4295498908
 20
-7.1806915287
 10
-8.4744752811
 20
-7.0033990822
 10
-8.5231283271
 20
-6.8259418646
 10
-8.5754662678
 20
-6.6484758424
 10
-8.6314431038
 20
-6.4711569898
 10
-8.6910096371
 20
-6.2941411517
 10
-8.7541135149
 20
-6.1175839065
 10
-8.8206992756
 20
-5.9416404297
 10
-8.8907083971
 20
-5.7664653574
 10
-8.9640793487
 20
-5.5922126502
 10
-9.0407476449
 20
-5.4190354582
 10
-9.1206459024
 20
-5.2470859862
 10
-9.2037038987
 20
-5.0765153598
 10
-9.2898486347
 20
-4.9074734929
 10
-9.3790043979
 20
-4.7401089558
 10
-9.4710928298
 20
-4.5745688444
 10
-9.5660329942
 20
-4.4109986514
 10
-9.6637414485
 20
-4.249542138
 10
-9.7641323172
 20
-4.0903412075
 10
-9.8671173672
 20
-3.9335357812
 10
-9.9726060852
 20
-3.7792636747
 10
-10.0805057576
 20
-3.6276604772
 10
-10.1907215519
 20
-3.478859432
 10
-10.3031565998
 20
-3.3329913199
 10
-10.4177120826
 20
-3.1901843438
 10
-10.5342873179
 20
-3.0505640162
 10
-10.6527798483
 20
-2.9142530488
 10
-10.773085531
 20
-2.7813712448
 10
-10.8950986299
 20
-2.6520353935
 10
-11.0187119082
 20
-2.5263591676
  0
LINE
  5
368
100
AcDbEntity
  8
0
100
AcDbLine
 62
250
  6
CONTINUOUS
 10
-9.8536011718
 20
-12.5402580841
 11
-9.8528861982
 21
-12.5399004484
  0
LWPOLYLINE
  5
369
100
AcDbEntity
  8
0
100
AcDbPolyline
 62
7
  6
CONTINUOUS
 90
16
 70
0
 10
-9.8536011718
 20
-12.5402580841
 10
-10.0269500901
 20
-12.6194516644
 10
-10.2066481076
 20
-12.6867474812
 10
-10.3922976939
 20
-12.7418153086
 10
-10.5833638575
 20
-12.7843399101
 10
-10.7795302855
 20
-12.8141049666
 10
-10.9807508478
 20
-12.8309147284
 10
-11.1868508655
 20
-12.8345114709
 10
-11.397198993
 20
-12.8246456748
 10
-11.6111078628
 20
-12.801161903
 10
-11.8283147735
 20
-12.7639133446
 10
-12.0482665068
 20
-12.7128163525
 10
-12.2698387047
 20
-12.6480266345
 10
-12.4923748822
 20
-12.5697093336
 10
-12.7156930009
 20
-12.4778938593
 10
-12.9393749808
 20
-12.3726875395
  0
LWPOLYLINE
  5
36A
100
AcDbEntity
  8
ASSI
100
AcDbPolyline
 62
7
  6
CONTINUOUS
 90
4
 70
0
 10
-27.178919895
 20
-15.4827526085
 10
-27.1463944318
 20
-15.4726702863
 10
-27.0381189901
 20
-15.4308206723
 10
-26.9286144849
 20
-15.3803039409
  0
LWPOLYLINE
  5
36B
100
AcDbEntity
  8
RACCORDO
100
AcDbPolyline
 62
7
  6
CONTINUOUS
 90
10
 70
0
 10
21.7997509629
 20
14.4473069333
 10
21.7797705297
 20
14.4422214713
 10
21.7603002347
 20
14.4386666106
 10
21.7413400778
 20
14.4366423512
 10
21.7228074165
 20
14.4361942076
 10
21.7047848934
 20
14.4372766654
 10
21.6875204359
 20
14.4397531804
 10
21.6710966865
 20
14.443578238
 10
21.6554310028
 20
14.4487973528
 10
21.6405233848
 20
14.4554105249
  0
LWPOLYLINE
  5
36C
100
AcDbEntity
  8
RACCORDO
100
AcDbPolyline
 62
250
  6
CONTINUOUS
 90
9
 70
0
 10
21.3682748366
 20
-1.6575375202
 10
21.3335127629
 20
-1.6423152666
 10
21.2823743455
 20
-1.6269092517
 10
21.2285414551
 20
-1.6184131346
 10
21.1724129119
 20
-1.6168892721
 10
21.1144085896
 20
-1.6223490415
 10
21.0549619493
 20
-1.6347514518
 10
20.9945167177
 20
-1.6540037419
 10
20.9335242994
 20
-1.6799619936
  0
LINE
  5
36D
100
AcDbEntity
  8
RACCORDO
100
AcDbLine
 62
250
  6
CONTINUOUS
 10
-4.0590154839
 20
9.1397979506
 11
-18.9072339447
 21
16.563907181
  0
LINE
  5
36E
100
AcDbEntity
  8
RACCORDO
100
AcDbLine
 62
250
  6
CONTINUOUS
 10
17.3977764567
 20
0.0879119277
 11
20.9335242994
 21
-1.6799619936
  0
LINE
  5
36F
100
AcDbEntity
  8
RACCORDO
100
AcDbLine
 62
7
  6
CONTINUOUS
 10
17.3977764567
 20
0.3277116976
 11
21.3683971799
 21
-1.657598664
  0
LINE
  5
370
100
AcDbEntity
  8
DRAFT
100
AcDbLine
 62
7
  6
CONTINUOUS
 10
9.9795428375
 20
0.0850042189
 11
9.9026455405
 21
0.1486891681
  0
LINE
  5
371
100
AcDbEntity
  8
DRAFT
100
AcDbLine
 62
7
  6
CONTINUOUS
 10
15.6392137425
 20
-3.0252189524
 11
15.6671877655
 21
-3.0483865318
  0
LINE
  5
372
100
AcDbEntity
  8
RACCORDO
100
AcDbLine
 62
7
  6
CONTINUOUS
 10
17.2513298473
 20
-2.9629312202
 11
16.6998739143
 21
-2.5062254004
  0
LWPOLYLINE
  5
373
100
AcDbEntity
  8
0
100
AcDbPolyline
 62
7
  6
CONTINUOUS
 90
3
 70
0
 10
9.6067213157
 20
0.4337581589
 10
9.6838561597
 20
0.3072350095
 10
9.7711969174
 20
0.1540963642
  0
LINE
  5
374
100
AcDbEntity
  8
0
100
AcDbLine
 62
7
  6
CONTINUOUS
 10
9.7711969174
 20
0.1540963642
 11
9.8437056986
 21
0.0178474355
  0
LINE
  5
375
100
AcDbEntity
  8
RACCORDO
100
AcDbLine
 62
7
  6
CONTINUOUS
 10
9.0967323462
 20
25.6371890225
 11
9.0967323462
 21
25.4084804176
  0
LINE
  5
376
100
AcDbEntity
  8
DRAFT
100
AcDbLine
 62
7
  6
CONTINUOUS
 10
9.9026455405
 20
0.0469868169
 11
9.9026455405
 21
0.1486891681
  0
LWPOLYLINE
  5
377
100
AcDbEntity
  8
RACCORDO
100
AcDbPolyline
 62
250
  6
CONTINUOUS
 90
31
 70
0
 10
1.9899899515
 20
-27.6404429303
 10
1.9943330928
 20
-27.6282193494
 10
1.9981809018
 20
-27.615786159
 10
2.0015224705
 20
-27.6031770998
 10
2.0043484948
 20
-27.590425256
 10
2.0066504947
 20
-27.577566497
 10
2.0084213271
 20
-27.5646394634
 10
2.0096560581
 20
-27.5516807699
 10
2.010351521
 20
-27.5387245072
 10
2.0105058138
 20
-27.5258057362
 10
2.010118464
 20
-27.5129595309
 10
2.0091904822
 20
-27.500221199
 10
2.007724406
 20
-27.4876258535
 10
2.0057242603
 20
-27.4752080092
 10
2.0031954973
 20
-27.4630014687
 10
2.0001450162
 20
-27.4510395441
 10
1.9965811388
 20
-27.4393548911
 10
1.9925136005
 20
-27.4279794467
 10
1.9879535192
 20
-27.4169443104
 10
1.9829133546
 20
-27.406279632
 10
1.97740687
 20
-27.3960145321
 10
1.9714491059
 20
-27.386177049
 10
1.9650563254
 20
-27.3767940391
 10
1.9582459986
 20
-27.3678911463
 10
1.9510367607
 20
-27.3594927249
 10
1.9434483313
 20
-27.3516217296
 10
1.9355014212
 20
-27.3442996259
 10
1.9272177043
 20
-27.3375463773
 10
1.9186197938
 20
-27.3313804203
 10
1.9097311851
 20
-27.3258186057
 10
1.9005761561
 20
-27.3208761243
  0
LWPOLYLINE
  5
378
100
AcDbEntity
  8
RACCORDO
100
AcDbPolyline
 62
7
  6
CONTINUOUS
 90
10
 70
0
 10
21.6405233848
 20
12.1376523177
 10
21.6554770252
 20
12.1597762784
 10
21.6711679997
 20
12.1812587098
 10
21.6875963082
 20
12.2020996118
 10
21.7048435971
 20
12.2224201734
 10
21.72282822
 20
12.2420992057
 10
21.7413052381
 20
12.2607731415
 10
21.7601930053
 20
12.278320792
 10
21.7795731677
 20
12.294863346
 10
21.7994457253
 20
12.3104008036
  0
LINE
  5
379
100
AcDbEntity
  8
RACCORDO
100
AcDbLine
 62
250
  6
CONTINUOUS
 10
21.833384791
 20
8.6770487023
 11
21.7946027511
 21
8.6384353999
  0
LINE
  5
37A
100
AcDbEntity
  8
RACCORDO
100
AcDbLine
 62
7
  6
CONTINUOUS
 10
17.2574463569
 20
-1.5400794405
 11
9.9177637083
 21
-5.3773610765
  0
LINE
  5
37B
100
AcDbEntity
  8
RACCORDO
100
AcDbLine
 62
7
  6
CONTINUOUS
 10
9.9177637083
 20
-7.1888540035
 11
17.2574463569
 21
-3.4256717634
  0
LINE
  5
37C
100
AcDbEntity
  8
DRAFT
100
AcDbLine
 62
7
  6
CONTINUOUS
 10
9.2657334919
 20
-6.2300477178
 11
15.6671877655
 21
-3.0483865318
  0
LINE
  5
37D
100
AcDbEntity
  8
RACCORDO
100
AcDbLine
 62
250
  6
CONTINUOUS
 10
20.9398004325
 20
-2.0289371358
 11
17.5865856936
 21
-3.6921563665
  0
LINE
  5
37E
100
AcDbEntity
  8
DRAFT
100
AcDbLine
 62
7
  6
CONTINUOUS
 10
15.6392137425
 20
-3.0252189524
 11
16.6998739143
 21
-2.5062254004
  0
LWPOLYLINE
  5
37F
100
AcDbEntity
  8
RACCORDO
100
AcDbPolyline
 62
250
  6
CONTINUOUS
 90
7
 70
0
 10
17.5865856936
 20
-3.6921563665
 10
17.5513981593
 20
-3.707949182
 10
17.5166148292
 20
-3.7188958478
 10
17.4826220486
 20
-3.7248817462
 10
17.4498061566
 20
-3.7258508562
 10
17.4185247005
 20
-3.7217879369
 10
17.4099317175
 20
-3.7191410254
  0
LWPOLYLINE
  5
380
100
AcDbEntity
  8
RACCORDO
100
AcDbPolyline
 62
7
  6
CONTINUOUS
 90
10
 70
0
 10
23.5078989732
 20
14.8472350495
 10
23.3395848322
 20
14.820880107
 10
23.1658496392
 20
14.7897444271
 10
22.9866933941
 20
14.7538280097
 10
22.8020480549
 20
14.71278371
 10
22.6119816636
 20
14.6669586728
 10
22.4166983462
 20
14.6173943331
 10
22.2162661446
 20
14.5644378357
 10
22.0106170169
 20
14.5077420358
 10
21.7997509629
 20
14.4473069333
  0
LWPOLYLINE
  5
381
100
AcDbEntity
  8
RACCORDO
100
AcDbPolyline
 62
250
  6
CONTINUOUS
 90
31
 70
0
 10
-0.4920799707
 20
12.601070692
 10
-0.4826219526
 20
12.5965821584
 10
-0.4727087156
 20
12.5923463121
 10
-0.4623672304
 20
12.5883746775
 10
-0.4516256328
 20
12.5846780599
 10
-0.4405131471
 20
12.5812665168
 10
-0.4290600068
 20
12.5781493298
 10
-0.417297372
 20
12.5753349797
 10
-0.4052572449
 20
12.5728311235
 10
-0.3929723828
 20
12.5706445732
 10
-0.3804762088
 20
12.5687812779
 10
-0.3678027208
 20
12.5672463069
 10
-0.3549863991
 20
12.5660438363
 10
-0.3420621127
 20
12.5651771377
 10
-0.3290650244
 20
12.5646485691
 10
-0.3160304949
 20
12.5644595685
 10
-0.3029939869
 20
12.5646106502
 10
-0.2899909684
 20
12.5651014031
 10
-0.2770568164
 20
12.565930492
 10
-0.2642267203
 20
12.5670956613
 10
-0.2515355866
 20
12.5685937408
 10
-0.2390179437
 20
12.570420655
 10
-0.226707848
 20
12.5725714332
 10
-0.2146387912
 20
12.5750402239
 10
-0.2028436092
 20
12.5778203104
 10
-0.1913543928
 20
12.5809041291
 10
-0.1802024003
 20
12.5842832897
 10
-0.1694179726
 20
12.5879485988
 10
-0.1590304506
 20
12.5918900843
 10
-0.1490680954
 20
12.5960970227
 10
-0.1395580111
 20
12.6005579682
  0
LWPOLYLINE
  5
382
100
AcDbEntity
  8
RACCORDO
100
AcDbPolyline
 62
250
  6
CONTINUOUS
 90
31
 70
0
 10
-13.8563981352
 20
19.2832297743
 10
-13.846940117
 20
19.2787412407
 10
-13.83702688
 20
19.2745053943
 10
-13.8266853948
 20
19.2705337597
 10
-13.8159437972
 20
19.2668371421
 10
-13.8048313116
 20
19.263425599
 10
-13.7933781712
 20
19.260308412
 10
-13.7816155364
 20
19.2574940619
 10
-13.7695754093
 20
19.2549902057
 10
-13.7572905473
 20
19.2528036555
 10
-13.7447943732
 20
19.2509403601
 10
-13.7321208852
 20
19.2494053891
 10
-13.7193045635
 20
19.2482029185
 10
-13.7063802771
 20
19.2473362199
 10
-13.6933831888
 20
19.2468076513
 10
-13.6803486594
 20
19.2466186508
 10
-13.6673121514
 20
19.2467697324
 10
-13.6543091329
 20
19.2472604853
 10
-13.6413749808
 20
19.2480895742
 10
-13.6285448847
 20
19.2492547435
 10
-13.615853751
 20
19.2507528231
 10
-13.6033361082
 20
19.2525797372
 10
-13.5910260125
 20
19.2547305154
 10
-13.5789569556
 20
19.2571993061
 10
-13.5671617736
 20
19.2599793927
 10
-13.5556725572
 20
19.2630632113
 10
-13.5445205647
 20
19.2664423719
 10
-13.533736137
 20
19.270107681
 10
-13.5233486151
 20
19.2740491665
 10
-13.5133862598
 20
19.2782561049
 10
-13.5038761755
 20
19.2827170504
  0
LWPOLYLINE
  5
383
100
AcDbEntity
  8
RACCORDO
100
AcDbPolyline
 62
250
  6
CONTINUOUS
 90
31
 70
0
 10
-0.4920799707
 20
12.9410446262
 10
-0.4826198214
 20
12.9365551327
 10
-0.4727042348
 20
12.9323184306
 10
-0.4623601969
 20
12.9283460535
 10
-0.4516158487
 20
12.9246488119
 10
-0.4405004432
 20
12.9212367757
 10
-0.4290442696
 20
12.9181192435
 10
-0.4172785204
 20
12.9153047023
 10
-0.405235213
 20
12.9128008099
 10
-0.3929471404
 20
12.9106143829
 10
-0.3804477529
 20
12.908751371
 10
-0.3677710711
 20
12.9072168431
 10
-0.3549516051
 20
12.9060149748
 10
-0.3420242336
 20
12.9051490344
 10
-0.3290241585
 20
12.9046213784
 10
-0.3159868151
 20
12.904433441
 10
-0.3029477438
 20
12.9045857263
 10
-0.2899423788
 20
12.9050778122
 10
-0.2770060045
 20
12.9059083619
 10
-0.2641736654
 20
12.9070751349
 10
-0.2514804583
 20
12.9085749497
 10
-0.238961309
 20
12.9104036663
 10
-0.2266505123
 20
12.9125562358
 10
-0.2145813075
 20
12.9150268057
 10
-0.2027861898
 20
12.9178087096
 10
-0.1912947673
 20
12.9208950888
 10
-0.1801409507
 20
12.9242769636
 10
-0.1693617951
 20
12.9279427227
 10
-0.1589880292
 20
12.9318810085
 10
-0.1490447252
 20
12.936081361
 10
-0.1395580111
 20
12.9405319023
  0
LINE
  5
384
100
AcDbEntity
  8
RACCORDO
100
AcDbLine
 62
7
  6
CONTINUOUS
 10
0.2191406374
 20
11.6336544419
 11
-1.1140716963
 21
12.3002606088
  0
LINE
  5
385
100
AcDbEntity
  8
RACCORDO
100
AcDbLine
 62
7
  6
CONTINUOUS
 10
-13.1451775271
 20
18.3158135242
 11
-14.4783898607
 21
18.982419691
  0
LINE
  5
386
100
AcDbEntity
  8
RACCORDO
100
AcDbLine
 62
7
  6
CONTINUOUS
 10
-9.5317247709
 20
16.8853337708
 11
-4.0204176712
 21
14.1296802209
  0
LINE
  5
387
100
AcDbEntity
  8
RACCORDO
100
AcDbLine
 62
7
  6
CONTINUOUS
 10
-15.1164095186
 20
19.8105036641
 11
-13.7914248387
 21
19.1480113242
  0
LINE
  5
388
100
AcDbEntity
  8
RACCORDO
100
AcDbLine
 62
7
  6
CONTINUOUS
 10
-1.7520913541
 20
13.1283445819
 11
-0.4271066743
 21
12.4658522419
  0
LINE
  5
389
100
AcDbEntity
  8
RACCORDO
100
AcDbLine
 62
250
  6
CONTINUOUS
 10
-15.181382815
 20
19.9457221142
 11
-13.8563981352
 21
19.2832297743
  0
LINE
  5
38A
100
AcDbEntity
  8
RACCORDO
100
AcDbLine
 62
250
  6
CONTINUOUS
 10
-1.8170646506
 20
13.263563032
 11
-0.4920799707
 21
12.601070692
  0
LINE
  5
38B
100
AcDbEntity
  8
RACCORDO
100
AcDbLine
 62
250
  6
CONTINUOUS
 10
-0.4920799707
 20
12.9410446262
 11
-1.8170646506
 21
13.6035369661
  0
LINE
  5
38C
100
AcDbEntity
  8
RACCORDO
100
AcDbLine
 62
250
  6
CONTINUOUS
 10
-13.8563981352
 20
19.6232037084
 11
-15.181382815
 21
20.2856960483
  0
LINE
  5
38D
100
AcDbEntity
  8
DRAFT
100
AcDbLine
 62
7
  6
CONTINUOUS
 10
-11.9025953847
 20
18.8232623271
 11
-9.6781713803
 21
17.7110503249
  0
LINE
  5
38E
100
AcDbEntity
  8
DRAFT
100
AcDbLine
 62
7
  6
CONTINUOUS
 10
-2.9576946027
 20
14.3508119361
 11
-1.8637540036
 21
13.8038416365
  0
LWPOLYLINE
  5
38F
100
AcDbEntity
  8
RACCORDO
100
AcDbPolyline
 62
250
  6
CONTINUOUS
 90
16
 70
0
 10
-15.181382815
 20
19.9457221142
 10
-15.1903598822
 20
19.9504511233
 10
-15.1988315748
 20
19.9554077418
 10
-15.2067748442
 20
19.9605784843
 10
-15.2141680792
 20
19.9659492831
 10
-15.2209911654
 20
19.971505526
 10
-15.2272255395
 20
19.9772320961
 10
-15.2328542397
 20
19.9831134136
 10
-15.2378619521
 20
19.9891334771
 10
-15.2422350526
 20
19.9952759081
 10
-15.2459616432
 20
20.0015239951
 10
-15.2490315853
 20
20.0078607392
 10
-15.2514365264
 20
20.0142689
 10
-15.2531699236
 20
20.0207310432
 10
-15.2542270608
 20
20.0272295873
 10
-15.2546061197
 20
20.0341104618
  0
LWPOLYLINE
  5
390
100
AcDbEntity
  8
RACCORDO
100
AcDbPolyline
 62
250
  6
CONTINUOUS
 90
16
 70
0
 10
-15.181382815
 20
20.2856960483
 10
-15.1903598822
 20
20.2904250574
 10
-15.1988315748
 20
20.2953816759
 10
-15.2067748442
 20
20.3005524185
 10
-15.2141680792
 20
20.3059232173
 10
-15.2209911654
 20
20.3114794601
 10
-15.2272255395
 20
20.3172060303
 10
-15.2328542397
 20
20.3230873477
 10
-15.2378619521
 20
20.3291074112
 10
-15.2422350526
 20
20.3352498422
 10
-15.2459616432
 20
20.3414979293
 10
-15.2490315853
 20
20.3478346733
 10
-15.2514365264
 20
20.3542428341
 10
-15.2531699236
 20
20.3607049773
 10
-15.2542270608
 20
20.3672035215
 10
-15.2546061197
 20
20.3740843959
  0
LWPOLYLINE
  5
391
100
AcDbEntity
  8
RACCORDO
100
AcDbPolyline
 62
250
  6
CONTINUOUS
 90
16
 70
0
 10
-1.8170646506
 20
13.263563032
 10
-1.8260417178
 20
13.268292041
 10
-1.8345134104
 20
13.2732486595
 10
-1.8424566797
 20
13.2784194021
 10
-1.8498499148
 20
13.2837902009
 10
-1.856673001
 20
13.2893464438
 10
-1.8629073751
 20
13.2950730139
 10
-1.8685360752
 20
13.3009543313
 10
-1.8735437877
 20
13.3069743949
 10
-1.8779168882
 20
13.3131168259
 10
-1.8816434788
 20
13.3193649129
 10
-1.8847134209
 20
13.3257016569
 10
-1.887118362
 20
13.3321098178
 10
-1.8888517592
 20
13.338571961
 10
-1.8899088964
 20
13.3450705051
 10
-1.8902879553
 20
13.3519513796
  0
LWPOLYLINE
  5
392
100
AcDbEntity
  8
RACCORDO
100
AcDbPolyline
 62
250
  6
CONTINUOUS
 90
16
 70
0
 10
-1.8170646506
 20
13.6035369661
 10
-1.8260213519
 20
13.6082546716
 10
-1.8344801339
 20
13.6132020679
 10
-1.8424171118
 20
13.6183661469
 10
-1.8498112053
 20
13.6237343912
 10
-1.8566395948
 20
13.6292915208
 10
-1.8628789727
 20
13.6350191652
 10
-1.868511216
 20
13.6409004589
 10
-1.8735223952
 20
13.6469206027
 10
-1.8778989807
 20
13.6530633768
 10
-1.8816290749
 20
13.6593121877
 10
-1.8847023896
 20
13.6656499246
 10
-1.8871104497
 20
13.6720591602
 10
-1.8888466893
 20
13.6785223689
 10
-1.8899064224
 20
13.6850220384
 10
-1.8902879553
 20
13.6919249776
  0
LWPOLYLINE
  5
393
100
AcDbEntity
  8
RACCORDO
100
AcDbPolyline
 62
250
  6
CONTINUOUS
 90
19
 70
0
 10
20.9335242994
 20
-1.6799619936
 10
20.9603706122
 20
-1.6955665217
 10
20.9841312281
 20
-1.7122921397
 10
21.004806147
 20
-1.7301388478
 10
21.0224043427
 20
-1.7492981886
 10
21.0369168414
 20
-1.7695786194
 10
21.0483167216
 20
-1.7904055116
 10
21.0566039834
 20
-1.8117788653
 10
21.0617786268
 20
-1.8336986805
 10
21.0638137304
 20
-1.8555903287
 10
21.0627092941
 20
-1.8774538099
 10
21.0584653179
 20
-1.899289124
 10
21.0510548804
 20
-1.9205216427
 10
21.0404779816
 20
-1.9411513659
 10
21.0267346215
 20
-1.9611782935
 10
21.0097978787
 20
-1.9800277972
 10
20.9896587794
 20
-1.9975083341
 10
20.9663262973
 20
-2.013811447
 10
20.9398004325
 20
-2.0289371358
  0
LWPOLYLINE
  5
394
100
AcDbEntity
  8
RACCORDO
100
AcDbPolyline
 62
7
  6
CONTINUOUS
 90
37
 70
0
 10
1.4616175384
 20
12.1407838031
 10
1.4765198227
 20
12.1319853948
 10
1.4914242713
 20
12.1224077406
 10
1.5063028115
 20
12.1120646203
 10
1.521147226
 20
12.1009611082
 10
1.5359089055
 20
12.089122971
 10
1.5505005554
 20
12.0766043473
 10
1.5648808282
 20
12.0634408957
 10
1.579039321
 20
12.0496524216
 10
1.5929381285
 20
12.0352794074
 10
1.6065341217
 20
12.0203749548
 10
1.619824849
 20
12.0049504498
 10
1.6328320751
 20
11.9889807105
 10
1.6455393724
 20
11.9724823815
 10
1.6579139057
 20
11.9554947991
 10
1.6699486148
 20
11.9380206535
 10
1.6816368121
 20
11.9200604525
 10
1.6929341016
 20
11.9016723356
 10
1.7037801438
 20
11.8829488977
 10
1.7141542148
 20
11.8639302087
 10
1.7240403136
 20
11.8446490435
 10
1.7333950191
 20
11.8251934505
 10
1.7422032908
 20
11.8056103482
 10
1.7504585457
 20
11.7859302011
 10
1.7581383369
 20
11.7662185983
 10
1.7652314962
 20
11.7465301254
 10
1.7717406992
 20
11.7268850613
 10
1.7776667757
 20
11.7072967571
 10
1.7830056294
 20
11.6878028874
 10
1.7877559727
 20
11.6684350922
 10
1.7919201826
 20
11.6491966419
 10
1.7954968571
 20
11.6301139558
 10
1.7984830294
 20
11.6112262502
 10
1.8008769253
 20
11.5925555419
 10
1.802677848
 20
11.5741299447
 10
1.8038870747
 20
11.5559833656
 10
1.8045065286
 20
11.5381456746
  0
LWPOLYLINE
  5
395
100
AcDbEntity
  8
RACCORDO
100
AcDbPolyline
 62
250
  6
CONTINUOUS
 90
17
 70
0
 10
21.9211835844
 20
-3.3882837685
 10
22.0387660694
 20
-3.480760257
 10
22.181517417
 20
-3.6065046436
 10
22.3207070247
 20
-3.7428468504
 10
22.4556420444
 20
-3.8891071361
 10
22.5856376541
 20
-4.0445471818
 10
22.7100146352
 20
-4.2083589569
 10
22.8281255248
 20
-4.3796908379
 10
22.9393611278
 20
-4.5576582829
 10
23.0431521685
 20
-4.7413496057
 10
23.1389650592
 20
-4.9298199929
 10
23.2263068642
 20
-5.1220990078
 10
23.3047296198
 20
-5.3171996015
 10
23.373831799
 20
-5.5141229409
 10
23.4332582391
 20
-5.7118581801
 10
23.4827026039
 20
-5.9093875023
 10
23.521910366
 20
-6.1056954473
  0
LWPOLYLINE
  5
396
100
AcDbEntity
  8
0
100
AcDbPolyline
 62
250
  6
CONTINUOUS
 90
6
 70
0
 10
13.286060493
 20
-4.2318582709
 10
13.2650802707
 20
-4.1972770088
 10
13.2465059531
 20
-4.1574465569
 10
13.2331814769
 20
-4.1170939758
 10
13.2251638995
 20
-4.0763920614
 10
13.2224875536
 20
-4.0355151056
  0
LWPOLYLINE
  5
397
100
AcDbEntity
  8
0
100
AcDbPolyline
 62
7
  6
CONTINUOUS
 90
4
 70
0
 10
10.3344625578
 20
0.3633115625
 10
10.2772282085
 20
0.469647775
 10
10.1795648469
 20
0.6389557881
 10
10.0943550149
 20
0.7771409839
  0
LWPOLYLINE
  5
398
100
AcDbEntity
  8
0
100
AcDbPolyline
 62
7
  6
CONTINUOUS
 90
5
 70
0
 10
11.7312288083
 20
1.6329199117
 10
11.751702234
 20
1.593819581
 10
11.8291522901
 20
1.4346041827
 10
11.9016103993
 20
1.2736736745
 10
11.9468182841
 20
1.1646872207
  0
LWPOLYLINE
  5
399
100
AcDbEntity
  8
ASSI
100
AcDbPolyline
 62
7
  6
CONTINUOUS
 90
11
 70
0
 10
12.8097257832
 20
-3.8654056565
 10
12.8304136489
 20
-3.9091011325
 10
12.858767528
 20
-3.9564103117
 10
12.8926651387
 20
-4.0029767717
 10
12.9317643156
 20
-4.0483304666
 10
12.9761177411
 20
-4.0924591134
 10
13.0256727328
 20
-4.135374995
 10
13.0799290783
 20
-4.176644915
 10
13.1389343937
 20
-4.2162522027
 10
13.202641063
 20
-4.2542135287
 10
13.2212398979
 20
-4.2640755082
  0
LWPOLYLINE
  5
39A
100
AcDbEntity
  8
SMUSSO
100
AcDbPolyline
 62
7
  6
CONTINUOUS
 90
4
 70
0
 10
11.5103555193
 20
19.0909871432
 10
11.5119878273
 20
19.0446299787
 10
11.5220755252
 20
18.9667841553
 10
11.5233654504
 20
18.9615915319
  0
LINE
  5
39B
100
AcDbEntity
  8
SMUSSO
100
AcDbLine
 62
250
  6
CONTINUOUS
 10
12.298916784
 20
19.5781296239
 11
12.298916784
 21
20.0256638744
  0
LINE
  5
39C
100
AcDbEntity
  8
DRAFT
100
AcDbLine
 62
7
  6
CONTINUOUS
 10
12.9817012503
 20
19.920550582
 11
12.9817012503
 21
19.4875378801
  0
LINE
  5
39D
100
AcDbEntity
  8
0
100
AcDbLine
 62
7
  6
CONTINUOUS
 10
13.2224875536
 20
-4.2634553964
 11
13.2224875536
 21
-4.0355151056
  0
LINE
  5
39E
100
AcDbEntity
  8
0
100
AcDbLine
 62
7
  6
CONTINUOUS
 10
13.9490906944
 20
18.6439210342
 11
13.9490906944
 21
18.1938900219
  0
LINE
  5
39F
100
AcDbEntity
  8
0
100
AcDbLine
 62
7
  6
CONTINUOUS
 10
14.3988353558
 20
18.5221732011
 11
14.3988353558
 21
18.1834025417
  0
LINE
  5
3A0
100
AcDbEntity
  8
DRAFT
100
AcDbLine
 62
7
  6
CONTINUOUS
 10
14.4371322145
 20
19.3741105841
 11
14.4371322145
 21
19.8608249703
  0
LINE
  5
3A1
100
AcDbEntity
  8
0
100
AcDbLine
 62
7
  6
CONTINUOUS
 10
13.2238712677
 20
-4.0029879873
 11
13.2224875536
 21
-4.0355151056
  0
LWPOLYLINE
  5
3A2
100
AcDbEntity
  8
ASSI
100
AcDbPolyline
 62
7
  6
CONTINUOUS
 90
4
 70
0
 10
12.8764497824
 20
-3.8305214811
 10
12.858767528
 20
-3.8548122785
 10
12.8304136489
 20
-3.9021214577
 10
12.828761366
 20
-3.9056112951
  0
LWPOLYLINE
  5
3A3
100
AcDbEntity
  8
RACCORDO
100
AcDbPolyline
 62
250
  6
CONTINUOUS
 90
31
 70
0
 10
21.6405233848
 20
-2.8993550402
 10
21.6893220269
 20
-2.8677395572
 10
21.733414029
 20
-2.8312481506
 10
21.7725857669
 20
-2.7897251714
 10
21.8068045789
 20
-2.7429912247
 10
21.8355297338
 20
-2.6912263639
 10
21.8579736695
 20
-2.635038807
 10
21.8739074482
 20
-2.5744710499
 10
21.883299646
 20
-2.5102167224
 10
21.8861128629
 20
-2.4440921903
 10
21.8824217248
 20
-2.3769051254
 10
21.8723742636
 20
-2.3089486354
 10
21.8563705063
 20
-2.2413066968
 10
21.8348311991
 20
-2.174529623
 10
21.8076605737
 20
-2.1090903372
 10
21.7747580514
 20
-2.0457907651
 10
21.7359136687
 20
-1.9845051341
 10
21.6916827913
 20
-1.9259936501
 10
21.6434369686
 20
-1.871984667
 10
21.5913707037
 20
-1.8225948715
 10
21.535492571
 20
-1.7778543939
 10
21.4773063294
 20
-1.7388756009
 10
21.4168534809
 20
-1.7055725092
 10
21.3542013278
 20
-1.6781031714
 10
21.2912845731
 20
-1.6574657635
 10
21.2285975328
 20
-1.6439499637
 10
21.1659303739
 20
-1.6374055096
 10
21.1045548211
 20
-1.6377291113
 10
21.04523996
 20
-1.6448083893
 10
20.9880701774
 20
-1.6588399342
 10
20.9335242994
 20
-1.6799619936
  0
LWPOLYLINE
  5
3A4
100
AcDbEntity
  8
RACCORDO
100
AcDbPolyline
 62
250
  6
CONTINUOUS
 90
9
 70
0
 10
17.2574463569
 20
-3.7894060126
 10
17.2914234753
 20
-3.7698858529
 10
17.3211829116
 20
-3.748714137
 10
17.3464058147
 20
-3.7261177072
 10
17.3668219419
 20
-3.702338667
 10
17.3822125463
 20
-3.6776317969
 10
17.3924127268
 20
-3.6522618262
 10
17.397313204
 20
-3.6265005804
 10
17.3977763282
 20
-3.6159206533
  0
LINE
  5
3A5
100
AcDbEntity
  8
RACCORDO
100
AcDbLine
 62
250
  6
CONTINUOUS
 10
21.2932999752
 20
-2.6386336592
 11
17.9400852363
 21
-4.3018528899
  0
LINE
  5
3A6
100
AcDbEntity
  8
RACCORDO
100
AcDbLine
 62
7
  6
CONTINUOUS
 10
2.0547392012
 20
13.6530326209
 11
2.0517139868
 21
13.6524983865
  0
LWPOLYLINE
  5
3A7
100
AcDbEntity
  8
RACCORDO
100
AcDbPolyline
 62
7
  6
CONTINUOUS
 90
12
 70
0
 10
2.0517139868
 20
13.6524983865
 10
2.0482074552
 20
13.6521759883
 10
2.0442328115
 20
13.6520382613
 10
2.0398052153
 20
13.652094204
 10
2.0349407311
 20
13.6523533968
 10
2.0296536574
 20
13.652789042
 10
2.0239604432
 20
13.653408706
 10
2.017878349
 20
13.65422065
 10
2.0114227047
 20
13.6551986408
 10
2.0046103347
 20
13.6563383669
 10
1.9974599666
 20
13.6576572845
 10
1.9899899515
 20
13.6591612091
  0
LWPOLYLINE
  5
3A8
100
AcDbEntity
  8
RACCORDO
100
AcDbPolyline
 62
7
  6
CONTINUOUS
 90
31
 70
0
 10
0.2577942041
 20
12.3144031717
 10
0.2592665875
 20
12.3141029212
 10
0.2701618219
 20
12.3122612741
 10
0.2813026144
 20
12.3110137918
 10
0.2926408135
 20
12.3103658001
 10
0.3041531873
 20
12.3103134657
 10
0.3158111862
 20
12.3108197666
 10
0.3275813344
 20
12.3118842176
 10
0.3394313123
 20
12.3135045669
 10
0.3513360735
 20
12.315640732
 10
0.3632649504
 20
12.3182898216
 10
0.3751883912
 20
12.3214481038
 10
0.3870847254
 20
12.3250741015
 10
0.3989263366
 20
12.3291630997
 10
0.4106864785
 20
12.333710119
 10
0.4223463092
 20
12.3386733409
 10
0.4338812549
 20
12.3440466807
 10
0.4452673852
 20
12.3498241011
 10
0.4564881335
 20
12.3559640005
 10
0.467521871
 20
12.362459242
 10
0.4783474628
 20
12.3693029055
 10
0.4889502116
 20
12.3764538748
 10
0.4993113175
 20
12.3839041686
 10
0.5094124227
 20
12.3916461561
 10
0.5192405039
 20
12.3996393787
 10
0.5287794837
 20
12.4078751397
 10
0.5380137842
 20
12.4163452811
 10
0.5469320873
 20
12.4250102456
 10
0.5555217543
 20
12.4338509902
 10
0.5637691346
 20
12.442868782
 10
0.571662597
 20
12.4520544453
  0
LINE
  5
3A9
100
AcDbEntity
  8
RACCORDO
100
AcDbLine
 62
7
  6
CONTINUOUS
 10
-0.3664015046
 20
12.4447368074
 11
0.2577940924
 21
12.3144041876
  0
LINE
  5
3AA
100
AcDbEntity
  8
RACCORDO
100
AcDbLine
 62
250
  6
CONTINUOUS
 10
-0.1395580111
 20
12.6005579682
 11
0.571662597
 21
12.4520544453
  0
LWPOLYLINE
  5
3AB
100
AcDbEntity
  8
RACCORDO
100
AcDbPolyline
 62
250
  6
CONTINUOUS
 90
14
 70
0
 10
0.5866650468
 20
14.9868352361
 10
0.5792376244
 20
14.9901547546
 10
0.5716546818
 20
14.9927924548
 10
0.5638082635
 20
14.9948053253
 10
0.5557199722
 20
14.9961878503
 10
0.5474120044
 20
14.9969363106
 10
0.5389068321
 20
14.9970487548
 10
0.5302273693
 20
14.9965249059
 10
0.5213952788
 20
14.9953658639
 10
0.5124364958
 20
14.9935748285
 10
0.503381159
 20
14.9911583982
 10
0.4942559902
 20
14.9881250268
 10
0.4850839856
 20
14.9844836696
 10
0.4758900873
 20
14.9802453449
  0
LWPOLYLINE
  5
3AC
100
AcDbEntity
  8
RACCORDO
100
AcDbPolyline
 62
250
  6
CONTINUOUS
 90
14
 70
0
 10
1.9239898051
 20
14.3181728569
 10
1.9166126281
 20
14.3214723172
 10
1.9090314857
 20
14.3241140949
 10
1.9011867344
 20
14.3261310841
 10
1.8930997282
 20
14.3275177903
 10
1.884792476
 20
14.3282704359
 10
1.8762875893
 20
14.3283869688
 10
1.8676082242
 20
14.3278670693
 10
1.8587779982
 20
14.3267121499
 10
1.8498209519
 20
14.3249253526
 10
1.8407614927
 20
14.3225115478
 10
1.8316242891
 20
14.319477313
 10
1.8224342028
 20
14.315830909
 10
1.8132162478
 20
14.3115822647
  0
LWPOLYLINE
  5
3AD
100
AcDbEntity
  8
RACCORDO
100
AcDbPolyline
 62
250
  6
CONTINUOUS
 90
15
 70
0
 10
-1.6413163946
 20
13.907913781
 10
-1.6505980833
 20
13.9122066675
 10
-1.659857447
 20
13.9159008053
 10
-1.6690691199
 20
13.9189849631
 10
-1.6782096887
 20
13.9214499965
 10
-1.6872520091
 20
13.9232872678
 10
-1.6961655192
 20
13.9244899966
 10
-1.7049238788
 20
13.9250548317
 10
-1.7135050385
 20
13.9249805576
 10
-1.7218857048
 20
13.9242673502
 10
-1.730043039
 20
13.9229170803
 10
-1.737954492
 20
13.9209334057
 10
-1.7455981244
 20
13.9183218018
 10
-1.752952887
 20
13.9150894801
 10
-1.7544020607
 20
13.9143617562
  0
LWPOLYLINE
  5
3AE
100
AcDbEntity
  8
RACCORDO
100
AcDbPolyline
 62
250
  6
CONTINUOUS
 90
15
 70
0
 10
-15.005634559
 20
20.5900728633
 10
-15.0149404319
 20
20.5943761661
 10
-15.0242179873
 20
20.5980754328
 10
-15.0334417857
 20
20.6011605159
 10
-15.0425865432
 20
20.6036229542
 10
-15.0516271752
 20
20.6054559883
 10
-15.0605388654
 20
20.6066545856
 10
-15.0692971722
 20
20.6072154608
 10
-15.0778780861
 20
20.6071370782
 10
-15.0862580705
 20
20.6064196554
 10
-15.0944141467
 20
20.6050651631
 10
-15.1023239533
 20
20.6030773185
 10
-15.1099658001
 20
20.6004615766
 10
-15.117318743
 20
20.5972251096
 10
-15.1187202251
 20
20.5965208384
  0
LWPOLYLINE
  5
3AF
100
AcDbEntity
  8
RACCORDO
100
AcDbPolyline
 62
7
  6
CONTINUOUS
 90
16
 70
0
 10
-0.0585597914
 20
14.7198978784
 10
-0.0669708669
 20
14.7238583622
 10
-0.0753630845
 20
14.727319341
 10
-0.0837173322
 20
14.7302730247
 10
-0.0920145062
 20
14.7327128128
 10
-0.1002358045
 20
14.734633179
 10
-0.1083627703
 20
14.7360296843
 10
-0.1163769357
 20
14.736899193
 10
-0.1242600551
 20
14.7372397796
 10
-0.1319943973
 20
14.7370506041
 10
-0.1395624048
 20
14.7363321123
 10
-0.1469468617
 20
14.7350859666
 10
-0.1541311243
 20
14.733314944
 10
-0.161098903
 20
14.7310230627
 10
-0.1678343622
 20
14.7282155396
 10
-0.1694919823
 20
14.7274280352
  0
LWPOLYLINE
  5
3B0
100
AcDbEntity
  8
RACCORDO
100
AcDbPolyline
 62
7
  6
CONTINUOUS
 90
16
 70
0
 10
-13.4228779558
 20
21.4020569606
 10
-13.4312890313
 20
21.4060174444
 10
-13.4396812489
 20
21.4094784232
 10
-13.4480354966
 20
21.412432107
 10
-13.4563326706
 20
21.414871895
 10
-13.464553969
 20
21.4167922612
 10
-13.4726809348
 20
21.4181887665
 10
-13.4806951001
 20
21.4190582752
 10
-13.4885782195
 20
21.4193988618
 10
-13.4963125617
 20
21.4192096863
 10
-13.5038805692
 20
21.4184911945
 10
-13.5112650262
 20
21.4172450488
 10
-13.5184492887
 20
21.4154740262
 10
-13.5254170674
 20
21.413182145
 10
-13.5321525266
 20
21.4103746218
 10
-13.5338101468
 20
21.4095871174
  0
LWPOLYLINE
  5
3B1
100
AcDbEntity
  8
RACCORDO
100
AcDbPolyline
 62
250
  6
CONTINUOUS
 90
14
 70
0
 10
0.4758900873
 20
14.9802453449
 10
0.4666910776
 20
14.9846001817
 10
0.4575144619
 20
14.9883482799
 10
0.4483853916
 20
14.991479367
 10
0.4393288878
 20
14.993984861
 10
0.4303697726
 20
14.995857895
 10
0.4215326013
 20
14.9970933353
 10
0.4128415949
 20
14.9976877958
 10
0.4043205738
 20
14.9976396472
 10
0.3959928926
 20
14.9969490214
 10
0.3878813758
 20
14.9956178114
 10
0.3800082557
 20
14.9936496656
 10
0.3723951109
 20
14.9910499785
 10
0.3653779762
 20
14.987980136
  0
LWPOLYLINE
  5
3B2
100
AcDbEntity
  8
RACCORDO
100
AcDbPolyline
 62
250
  6
CONTINUOUS
 90
14
 70
0
 10
-12.8884280772
 20
21.6624044272
 10
-12.8976051847
 20
21.6667496042
 10
-12.9067658032
 20
21.6704931147
 10
-12.9158848477
 20
21.6736235866
 10
-12.9249391529
 20
21.6761317517
 10
-12.9339018432
 20
21.6780088382
 10
-12.9427426312
 20
21.679247928
 10
-12.9514353897
 20
21.6798455637
 10
-12.9599582324
 20
21.6798004481
 10
-12.9682880243
 20
21.6791126778
 10
-12.9764020663
 20
21.6777840541
 10
-12.9842779295
 20
21.6758181744
 10
-12.9918937734
 20
21.6732204647
 10
-12.9989401883
 20
21.6701392182
  0
LWPOLYLINE
  5
3B3
100
AcDbEntity
  8
RACCORDO
100
AcDbPolyline
 62
250
  6
CONTINUOUS
 90
31
 70
0
 10
-13.8563981352
 20
19.6232037084
 10
-13.846940117
 20
19.6187151748
 10
-13.83702688
 20
19.6144793285
 10
-13.8266853948
 20
19.6105076938
 10
-13.8159437972
 20
19.6068110763
 10
-13.8048313116
 20
19.6033995331
 10
-13.7933781712
 20
19.6002823461
 10
-13.7816155364
 20
19.597467996
 10
-13.7695754093
 20
19.5949641398
 10
-13.7572905473
 20
19.5927775896
 10
-13.7447943732
 20
19.5909142942
 10
-13.7321208852
 20
19.5893793232
 10
-13.7193045635
 20
19.5881768527
 10
-13.7063802771
 20
19.5873101541
 10
-13.6933831888
 20
19.5867815855
 10
-13.6803486594
 20
19.5865925849
 10
-13.6673121514
 20
19.5867436666
 10
-13.6543091329
 20
19.5872344194
 10
-13.6413749808
 20
19.5880635084
 10
-13.6285448847
 20
19.5892286776
 10
-13.615853751
 20
19.5907267572
 10
-13.6033361082
 20
19.5925536713
 10
-13.5910260125
 20
19.5947044495
 10
-13.5789569556
 20
19.5971732403
 10
-13.5671617736
 20
19.5999533268
 10
-13.5556725572
 20
19.6030371454
 10
-13.5445205647
 20
19.6064163061
 10
-13.533736137
 20
19.6100816152
 10
-13.5233486151
 20
19.6140231006
 10
-13.5133862598
 20
19.618230039
 10
-13.5038761755
 20
19.6226909845
  0
LINE
  5
3B4
100
AcDbEntity
  8
RACCORDO
100
AcDbLine
 62
250
  6
CONTINUOUS
 10
-0.3163317148
 20
13.2454214411
 11
-1.6413163946
 21
13.907913781
  0
LINE
  5
3B5
100
AcDbEntity
  8
RACCORDO
100
AcDbLine
 62
250
  6
CONTINUOUS
 10
-13.6806498792
 20
19.9275805233
 11
-15.005634559
 21
20.5900728633
  0
LINE
  5
3B6
100
AcDbEntity
  8
RACCORDO
100
AcDbLine
 62
250
  6
CONTINUOUS
 10
-4.0204176712
 20
15.2102635317
 11
-9.5317247709
 21
17.9659170816
  0
LINE
  5
3B7
100
AcDbEntity
  8
RACCORDO
100
AcDbLine
 62
250
  6
CONTINUOUS
 10
-3.5975952914
 20
15.3126530962
 11
-9.6733499412
 21
18.3505304211
  0
LINE
  5
3B8
100
AcDbEntity
  8
RACCORDO
100
AcDbLine
 62
7
  6
CONTINUOUS
 10
-11.9025953847
 20
19.522811419
 11
-10.4945526497
 21
18.8187900516
  0
LINE
  5
3B9
100
AcDbEntity
  8
RACCORDO
100
AcDbLine
 62
7
  6
CONTINUOUS
 10
1.4617227797
 20
12.8406523368
 11
2.1687218508
 21
12.4871528013
  0
LINE
  5
3BA
100
AcDbEntity
  8
DRAFT
100
AcDbLine
 62
7
  6
CONTINUOUS
 10
-9.1802342771
 20
18.6745173386
 11
-2.9576946027
 21
15.5632475014
  0
LINE
  5
3BB
100
AcDbEntity
  8
RACCORDO
100
AcDbLine
 62
7
  6
CONTINUOUS
 10
-13.4228779558
 20
21.4020569606
 11
-12.0793690884
 21
20.7303025269
  0
LINE
  5
3BC
100
AcDbEntity
  8
RACCORDO
100
AcDbLine
 62
7
  6
CONTINUOUS
 10
-0.0585597914
 20
14.7198978784
 11
1.2849490761
 21
14.0481434446
  0
LINE
  5
3BD
100
AcDbEntity
  8
DRAFT
100
AcDbLine
 62
7
  6
CONTINUOUS
 10
-7.8367313929
 20
18.7048342892
 11
-2.8869839246
 21
16.2299605551
  0
LINE
  5
3BE
100
AcDbEntity
  8
RACCORDO
100
AcDbLine
 62
250
  6
CONTINUOUS
 10
-12.8884280772
 20
21.6624044272
 11
-11.5511019166
 21
20.9937413469
  0
LINE
  5
3BF
100
AcDbEntity
  8
RACCORDO
100
AcDbLine
 62
250
  6
CONTINUOUS
 10
0.4758900873
 20
14.9802453449
 11
1.8132162478
 21
14.3115822647
  0
LINE
  5
3C0
100
AcDbEntity
  8
RACCORDO
100
AcDbLine
 62
7
  6
CONTINUOUS
 10
-12.7776531176
 20
21.6689943183
 11
-11.4403269571
 21
21.000331238
  0
LINE
  5
3C1
100
AcDbEntity
  8
RACCORDO
100
AcDbLine
 62
7
  6
CONTINUOUS
 10
0.5866650468
 20
14.9868352361
 11
1.9239912074
 21
14.3181721558
  0
LINE
  5
3C2
100
AcDbEntity
  8
RACCORDO
100
AcDbLine
 62
7
  6
CONTINUOUS
 10
-4.1597976698
 20
18.1711655345
 11
-1.5728219442
 21
16.8776776717
  0
LINE
  5
3C3
100
AcDbEntity
  8
DRAFT
100
AcDbLine
 62
7
  6
CONTINUOUS
 10
15.6392137425
 20
3.036958874
 11
15.6671877655
 21
3.0137912947
  0
LINE
  5
3C4
100
AcDbEntity
  8
RACCORDO
100
AcDbLine
 62
7
  6
CONTINUOUS
 10
17.2513298473
 20
3.0992466063
 11
16.6998739143
 21
3.5559524261
  0
LWPOLYLINE
  5
3C5
100
AcDbEntity
  8
RACCORDO
100
AcDbPolyline
 62
7
  6
CONTINUOUS
 90
10
 70
0
 10
17.4146295352
 20
-3.7360443698
 10
17.4176225695
 20
-3.7400515711
 10
17.4172437066
 20
-3.7392784928
 10
17.4146165564
 20
-3.7333615248
 10
17.4106706865
 20
-3.7219933045
 10
17.4062329568
 20
-3.7048645159
 10
17.4021469875
 20
-3.6821103384
 10
17.3991541196
 20
-3.6542773679
 10
17.3978073772
 20
-3.6217079559
 10
17.3977763427
 20
-3.6159206525
  0
LWPOLYLINE
  5
3C6
100
AcDbEntity
  8
DRAFT
100
AcDbPolyline
 62
7
  6
CONTINUOUS
 90
4
 70
0
 10
12.5213731258
 20
2.046017647
 10
12.5625641358
 20
1.9629636702
 10
12.655296457
 20
1.7538379793
 10
12.7329811514
 20
1.5554271642
  0
LWPOLYLINE
  5
3C7
100
AcDbEntity
  8
0
100
AcDbPolyline
 62
7
  6
CONTINUOUS
 90
5
 70
0
 10
12.485056221
 20
1.4322031131
 10
12.4339853844
 20
1.552885634
 10
12.3539821249
 20
1.7274385251
 10
12.2687119431
 20
1.8999569151
 10
12.262905754
 20
1.9108875403
  0
LINE
  5
3C8
100
AcDbEntity
  8
SMUSSO
100
AcDbLine
 62
250
  6
CONTINUOUS
 10
4.5546168714
 20
24.5976119208
 11
4.8742955816
 21
23.7379744756
  0
LINE
  5
3C9
100
AcDbEntity
  8
0
100
AcDbLine
 62
7
  6
CONTINUOUS
 10
6.0189999098
 20
22.1139916797
 11
5.8175005519
 21
22.7097161055
  0
LWPOLYLINE
  5
3CA
100
AcDbEntity
  8
DRAFT
100
AcDbPolyline
 62
7
  6
CONTINUOUS
 90
9
 70
0
 10
11.8478917107
 20
1.1155185747
 10
11.8334533497
 20
1.1706802492
 10
11.8146659008
 20
1.2353459157
 10
11.7939981707
 20
1.3000474656
 10
11.7714881369
 20
1.3646758523
 10
11.7472497322
 20
1.4289039366
 10
11.7212741494
 20
1.4927297738
 10
11.6935701957
 20
1.5561553086
 10
11.6721408994
 20
1.6020279838
  0
LWPOLYLINE
  5
3CB
100
AcDbEntity
  8
RACCORDO
100
AcDbPolyline
 62
250
  6
CONTINUOUS
 90
22
 70
0
 10
17.2574463569
 20
-3.7894060125
 10
17.2583579007
 20
-3.8447672001
 10
17.2629193946
 20
-3.8994151435
 10
17.2711308389
 20
-3.9533498426
 10
17.2828670201
 20
-4.0073260632
 10
17.2982531516
 20
-4.0605890396
 10
17.3176648729
 20
-4.1108744741
 10
17.3413627764
 20
-4.1580226926
 10
17.3690862696
 20
-4.2021933692
 10
17.4004292147
 20
-4.241601229
 10
17.4356184406
 20
-4.2759548465
 10
17.4744271182
 20
-4.3055456472
 10
17.5157686234
 20
-4.3294626328
 10
17.5598086419
 20
-4.347352306
 10
17.6063814879
 20
-4.3595681641
 10
17.653903479
 20
-4.366259701
 10
17.7024287534
 20
-4.3670635732
 10
17.751903173
 20
-4.3623431243
 10
17.8005806407
 20
-4.353337879
 10
17.8478791244
 20
-4.3404610123
 10
17.8943806563
 20
-4.3232993493
 10
17.9400852363
 20
-4.3018528899
  0
LINE
  5
3CC
100
AcDbEntity
  8
DRAFT
100
AcDbLine
 62
7
  6
CONTINUOUS
 10
15.6392137425
 20
-3.0252189524
 11
15.6392137425
 21
-2.3861125173
  0
LINE
  5
3CD
100
AcDbEntity
  8
DRAFT
100
AcDbLine
 62
7
  6
CONTINUOUS
 10
15.6392137425
 20
3.036958874
 11
15.6392137425
 21
3.6760653092
  0
LINE
  5
3CE
100
AcDbEntity
  8
RACCORDO
100
AcDbLine
 62
7
  6
CONTINUOUS
 10
16.5213535486
 20
21.9248784213
 11
16.5213535486
 21
21.6961698163
  0
LINE
  5
3CF
100
AcDbEntity
  8
DRAFT
100
AcDbLine
 62
7
  6
CONTINUOUS
 10
16.6998739143
 20
-2.5062254004
 11
16.6998739143
 21
-1.8315855719
  0
LINE
  5
3D0
100
AcDbEntity
  8
DRAFT
100
AcDbLine
 62
7
  6
CONTINUOUS
 10
16.6998739143
 20
3.5559524261
 11
16.6998739143
 21
4.2305922546
  0
LWPOLYLINE
  5
3D1
100
AcDbEntity
  8
RACCORDO
100
AcDbPolyline
 62
7
  6
CONTINUOUS
 90
10
 70
0
 10
23.521910366
 20
-6.1056954473
 10
23.5204247853
 20
-6.1065218997
 10
23.5189209982
 20
-6.10727811
 10
23.5173989658
 20
-6.1079639714
 10
23.5158580386
 20
-6.1085799817
 10
23.5142987843
 20
-6.1091254226
 10
23.5127230407
 20
-6.1095983832
 10
23.5111314538
 20
-6.1099981773
 10
23.5095234244
 20
-6.1103253198
 10
23.5078989732
 20
-6.1105797221
  0
LWPOLYLINE
  5
3D2
100
AcDbEntity
  8
RACCORDO
100
AcDbPolyline
 62
250
  6
CONTINUOUS
 90
27
 70
0
 10
21.7990552261
 20
-8.6477090307
 10
21.8258616015
 20
-8.6392900174
 10
21.8509465576
 20
-8.6333779865
 10
21.874271474
 20
-8.629921852
 10
21.8956889628
 20
-8.6290680568
 10
21.9152469011
 20
-8.6305426488
 10
21.9332068159
 20
-8.6336739376
 10
21.9495432211
 20
-8.6383059189
 10
21.964194153
 20
-8.6444818234
 10
21.9773852009
 20
-8.651850525
 10
21.9891331881
 20
-8.6603075053
 10
21.9993313781
 20
-8.6698325934
 10
22.0080300842
 20
-8.6802109763
 10
22.0152185367
 20
-8.6913321764
 10
22.0208233476
 20
-8.7031792173
 10
22.0248055753
 20
-8.7156805384
 10
22.0271790374
 20
-8.7286602026
 10
22.0278444778
 20
-8.742151625
 10
22.0265713647
 20
-8.7563607229
 10
22.023361271
 20
-8.7711566286
 10
22.0180727246
 20
-8.7864239002
 10
22.0102282216
 20
-8.8023378806
 10
21.9996819929
 20
-8.818846958
 10
21.9864083733
 20
-8.8356735454
 10
21.9701332023
 20
-8.8526920042
 10
21.9506490855
 20
-8.8699075663
 10
21.9382108776
 20
-8.8793656963
  0
LWPOLYLINE
  5
3D3
100
AcDbEntity
  8
RACCORDO
100
AcDbPolyline
 62
7
  6
CONTINUOUS
 90
18
 70
0
 10
-3.5975952914
 20
15.3126530962
 10
-3.6148899594
 20
15.3111607605
 10
-3.6320843576
 20
15.3091671827
 10
-3.6491426954
 20
15.3067599998
 10
-3.6660335288
 20
15.3040490462
 10
-3.6827377916
 20
15.3010920336
 10
-3.6992446115
 20
15.2978811855
 10
-3.7155380184
 20
15.2944709577
 10
-3.7316078114
 20
15.290926428
 10
-3.7474509652
 20
15.287232472
 10
-3.7630597769
 20
15.2834291897
 10
-3.7784288595
 20
15.2795656014
 10
-3.7935555875
 20
15.2756253277
 10
-3.8084366052
 20
15.2716392804
 10
-3.8230691311
 20
15.2676451945
 10
-3.837447756
 20
15.2636280651
 10
-3.851571309
 20
15.2596129045
 10
-3.8790410547
 20
15.2516652923
  0
LINE
  5
3D4
100
AcDbEntity
  8
RACCORDO
100
AcDbLine
 62
7
  6
CONTINUOUS
 10
-13.730719669
 20
19.1268958896
 11
-13.1051129754
 21
18.9962744933
  0
LINE
  5
3D5
100
AcDbEntity
  8
RACCORDO
100
AcDbLine
 62
250
  6
CONTINUOUS
 10
-13.5038761755
 20
19.2827170504
 11
-12.7926555674
 21
19.1342135275
  0
LWPOLYLINE
  5
3D6
100
AcDbEntity
  8
RACCORDO
100
AcDbPolyline
 62
250
  6
CONTINUOUS
 90
6
 70
0
 10
-2.868750529
 20
18.1968938729
 10
-2.8791114293
 20
18.2011428638
 10
-2.8967534106
 20
18.2047338647
 10
-2.9156670261
 20
18.2044601672
 10
-2.9354608165
 20
18.2003274359
 10
-2.9557251051
 20
18.192421207
  0
LINE
  5
3D7
100
AcDbEntity
  8
RACCORDO
100
AcDbLine
 62
7
  6
CONTINUOUS
 10
-4.1727660449
 20
18.1767991942
 11
-4.1604350043
 21
18.1714842017
  0
LWPOLYLINE
  5
3D8
100
AcDbEntity
  8
RACCORDO
100
AcDbPolyline
 62
250
  6
CONTINUOUS
 90
14
 70
0
 10
-11.4403269571
 20
21.000331238
 10
-11.4477250378
 20
21.0036391319
 10
-11.4553052551
 20
21.0062787853
 10
-11.4631489015
 20
21.0082938973
 10
-11.4712346371
 20
21.0096789853
 10
-11.4795404631
 20
21.010430281
 10
-11.4880437823
 20
21.0105457403
 10
-11.4967214598
 20
21.0100250491
 10
-11.5055498867
 20
21.0088696241
 10
-11.5145050436
 20
21.0070826088
 10
-11.5235625665
 20
21.004668865
 10
-11.5326978129
 20
21.0016349598
 10
-11.5418859289
 20
20.9979891474
 10
-11.5511019166
 20
20.9937413469
  0
LWPOLYLINE
  5
3D9
100
AcDbEntity
  8
RACCORDO
100
AcDbPolyline
 62
250
  6
CONTINUOUS
 90
14
 70
0
 10
-12.7776531176
 20
21.6689943183
 10
-12.7850511983
 20
21.6723022121
 10
-12.7926314157
 20
21.6749418656
 10
-12.8004750621
 20
21.6769569776
 10
-12.8085607976
 20
21.6783420656
 10
-12.8168666237
 20
21.6790933612
 10
-12.8253699428
 20
21.6792088206
 10
-12.8340476204
 20
21.6786881294
 10
-12.8428760472
 20
21.6775327044
 10
-12.8518312041
 20
21.6757456891
 10
-12.860888727
 20
21.6733319453
 10
-12.8700239735
 20
21.6702980401
 10
-12.8792120895
 20
21.6666522277
 10
-12.8884280772
 20
21.6624044272
  0
LWPOLYLINE
  5
3DA
100
AcDbEntity
  8
RACCORDO
100
AcDbPolyline
 62
7
  6
CONTINUOUS
 90
17
 70
0
 10
-2.8685066977
 20
18.1967708995
 10
-2.944730525
 20
18.2311804415
 10
-3.019286269
 20
18.2586539924
 10
-3.0970463852
 20
18.2819705018
 10
-3.1775540858
 20
18.3012039128
 10
-3.2604355116
 20
18.3164074823
 10
-3.3450826232
 20
18.3275609081
 10
-3.4309130095
 20
18.3346583172
 10
-3.5174863822
 20
18.3376974187
 10
-3.6041934539
 20
18.3366636439
 10
-3.6904302508
 20
18.3315487283
 10
-3.775755285
 20
18.3223403466
 10
-3.8595703207
 20
18.3090178028
 10
-3.9412729735
 20
18.2915841388
 10
-4.020494245
 20
18.2699549254
 10
-4.0967861596
 20
18.2440259894
 10
-4.1709790752
 20
18.2130241402
  0
LINE
  5
3DB
100
AcDbEntity
  8
RACCORDO
100
AcDbLine
 62
250
  6
CONTINUOUS
 10
-2.9557251051
 20
18.192421207
 11
-0.9450569395
 21
17.1870871241
  0
LINE
  5
3DC
100
AcDbEntity
  8
RACCORDO
100
AcDbLine
 62
7
  6
CONTINUOUS
 10
-2.868750529
 20
18.1968938729
 11
-0.8967528012
 21
17.210895009
  0
LINE
  5
3DD
100
AcDbEntity
  8
0
100
AcDbLine
 62
7
  6
CONTINUOUS
 10
-0.3693081798
 20
17.4708590884
 11
-3.169826637
 21
18.871118317
  0
LINE
  5
3DE
100
AcDbEntity
  8
0
100
AcDbLine
 62
7
  6
CONTINUOUS
 10
-3.169826637
 20
19.4236765063
 11
-3.5233800276
 21
19.6004532016
  0
LINE
  5
3DF
100
AcDbEntity
  8
0
100
AcDbLine
 62
7
  6
CONTINUOUS
 10
1.0385075165
 20
18.1647357468
 11
-1.7720421305
 21
19.5700105703
  0
LWPOLYLINE
  5
3E0
100
AcDbEntity
  8
SMUSSO
100
AcDbPolyline
 62
7
  6
CONTINUOUS
 90
36
 70
0
 10
3.7988163535
 20
22.9877096768
 10
3.8524294565
 20
22.9164803454
 10
3.926202809
 20
22.8322291909
 10
4.0098094268
 20
22.7501116404
 10
4.1031687443
 20
22.6701107196
 10
4.2054153112
 20
22.5929996461
 10
4.3166781334
 20
22.5187813831
 10
4.4368282051
 20
22.4474529674
 10
4.564613059
 20
22.3797787263
 10
4.7001267686
 20
22.3158036856
 10
4.8432752603
 20
22.2554828197
 10
4.9925238459
 20
22.1994453787
 10
5.1478813997
 20
22.1477543919
 10
5.3093390475
 20
22.10034683
 10
5.475335478
 20
22.0576628564
 10
5.6459071414
 20
22.019741503
 10
5.8210175875
 20
21.9865437377
 10
5.9989961558
 20
21.9583926272
 10
6.1798836215
 20
21.9353296525
 10
6.3636392092
 20
21.9173133325
 10
6.5484699326
 20
21.9045422916
 10
6.7344697924
 20
21.8970734911
 10
6.921544788
 20
21.8948499695
 10
7.1076199307
 20
21.8978994674
 10
7.2926093397
 20
21.9062825755
 10
7.476598896
 20
21.9199387031
 10
7.6577712531
 20
21.9387138173
 10
7.8361037349
 20
21.9626587941
 10
8.0116190175
 20
21.9917227577
 10
8.1825677834
 20
22.0255990479
 10
8.348807914
 20
22.0642914108
 10
8.5104815278
 20
22.1077961004
 10
8.6662656625
 20
22.1557952181
 10
8.8157193308
 20
22.2081827977
 10
8.95928352
 20
22.2650648055
 10
9.0969582301
 20
22.3264412414
  0
LINE
  5
3E1
100
AcDbEntity
  8
RACCORDO
100
AcDbLine
 62
7
  6
CONTINUOUS
 10
8.8403944479
 20
13.5609647769
 11
7.7571991783
 21
15.4292002627
  0
LWPOLYLINE
  5
3E2
100
AcDbEntity
  8
DRAFT
100
AcDbPolyline
 62
7
  6
CONTINUOUS
 90
4
 70
0
 10
14.782394798
 20
2.5740300588
 10
14.7157630369
 20
2.7449715234
 10
14.6151723347
 20
2.9724657018
 10
14.5490061372
 20
3.1060905809
  0
LWPOLYLINE
  5
3E3
100
AcDbEntity
  8
RACCORDO
100
AcDbPolyline
 62
250
  6
CONTINUOUS
 90
16
 70
0
 10
17.9400852363
 20
-4.3018528899
 10
17.9387490913
 20
-4.2553273834
 10
17.9334884799
 20
-4.2074094547
 10
17.9243610171
 20
-4.1586239005
 10
17.9114666669
 20
-4.1095050173
 10
17.8949466492
 20
-4.0605907565
 10
17.8749818949
 20
-4.0124168335
 10
17.8517910607
 20
-3.9655108489
 10
17.8256281333
 20
-3.9203865131
 10
17.7967796514
 20
-3.8775380263
 10
17.7655615658
 20
-3.8374346635
 10
17.732315776
 20
-3.8005156305
 10
17.6974063859
 20
-3.7671852565
 10
17.6612157206
 20
-3.7378085714
 10
17.6241401399
 20
-3.7127073063
 10
17.5865856936
 20
-3.6921563666
  0
LINE
  5
3E4
100
AcDbEntity
  8
RACCORDO
100
AcDbLine
 62
250
  6
CONTINUOUS
 10
17.2574463569
 20
-3.7894060125
 11
17.2574463569
 21
-3.4256717634
  0
LINE
  5
3E5
100
AcDbEntity
  8
RACCORDO
100
AcDbLine
 62
250
  6
CONTINUOUS
 10
17.2574463569
 20
-1.5400794405
 11
17.2574463569
 21
2.6365060631
  0
LINE
  5
3E6
100
AcDbEntity
  8
RACCORDO
100
AcDbLine
 62
250
  6
CONTINUOUS
 10
17.2574463569
 20
4.522098386
 11
17.2574463569
 21
4.8858326351
  0
LINE
  5
3E7
100
AcDbEntity
  8
RACCORDO
100
AcDbLine
 62
7
  6
CONTINUOUS
 10
17.3977764567
 20
-1.3977754273
 11
17.3977764567
 21
2.8415312351
  0
LINE
  5
3E8
100
AcDbEntity
  8
RACCORDO
100
AcDbLine
 62
7
  6
CONTINUOUS
 10
17.3977764567
 20
4.6644023992
 11
17.3977764567
 21
5.0594972277
  0
LINE
  5
3E9
100
AcDbEntity
  8
RACCORDO
100
AcDbLine
 62
7
  6
CONTINUOUS
 10
17.3977763282
 20
-3.6159206533
 11
17.3977764567
 21
-3.2206465914
  0
LWPOLYLINE
  5
3EA
100
AcDbEntity
  8
RACCORDO
100
AcDbPolyline
 62
7
  6
CONTINUOUS
 90
22
 70
0
 10
17.3977764555
 20
5.0595820525
 10
17.3978238313
 20
5.0669553563
 10
17.3993794844
 20
5.1040504634
 10
17.4034134946
 20
5.1451122339
 10
17.4102269912
 20
5.1895745858
 10
17.4199521078
 20
5.2365120825
 10
17.4326729451
 20
5.2853189844
 10
17.4484266141
 20
5.3354604619
 10
17.4670676679
 20
5.3860804842
 10
17.4884447887
 20
5.4365515921
 10
17.5123727854
 20
5.4863117441
 10
17.538508334
 20
5.5346392381
 10
17.5665268727
 20
5.5810044145
 10
17.5960637505
 20
5.6249065567
 10
17.6265784378
 20
5.6657292418
 10
17.6576502291
 20
5.7031570371
 10
17.6887370019
 20
5.7368076701
 10
17.7189651305
 20
5.7661168946
 10
17.7478029616
 20
5.7910426169
 10
17.7746897501
 20
5.8115990941
 10
17.7986640021
 20
5.8276485692
 10
17.8178080768
 20
5.838786295
  0
LWPOLYLINE
  5
3EB
100
AcDbEntity
  8
RACCORDO
100
AcDbPolyline
 62
250
  6
CONTINUOUS
 90
10
 70
0
 10
17.9400852362
 20
6.1051727655
 10
17.9387490843
 20
6.0612050526
 10
17.9334884506
 20
6.0196208634
 10
17.9243609519
 20
5.9808756274
 10
17.9114665524
 20
5.9453936766
 10
17.8949464751
 20
5.9135636146
 10
17.8749816607
 20
5.8857340554
 10
17.851790773
 20
5.8622097824
 10
17.8256278029
 20
5.8432484213
 10
17.8178272463
 20
5.8387969226
  0
LWPOLYLINE
  5
3EC
100
AcDbEntity
  8
RACCORDO
100
AcDbPolyline
 62
250
  6
CONTINUOUS
 90
10
 70
0
 10
23.521910366
 20
13.6902164573
 10
23.4865163553
 20
13.5464120202
 10
23.4425693708
 20
13.4100686539
 10
23.3902580781
 20
13.2817706153
 10
23.3298071531
 20
13.1620679351
 10
23.2614758642
 20
13.0514731365
 10
23.1855567614
 20
12.9504592769
 10
23.1023758567
 20
12.8594597892
 10
23.0122893485
 20
12.7788640411
 10
22.916587237
 20
12.7096013626
  0
LINE
  5
3ED
100
AcDbEntity
  8
RACCORDO
100
AcDbLine
 62
250
  6
CONTINUOUS
 10
0.218626409
 20
-27.721779856
 11
-0.4036916231
 21
-28.4668392735
  0
LINE
  5
3EE
100
AcDbEntity
  8
RACCORDO
100
AcDbLine
 62
250
  6
CONTINUOUS
 10
0.571662597
 20
-27.8475496941
 11
-0.1395580111
 21
-28.6990461712
  0
LWPOLYLINE
  5
3EF
100
AcDbEntity
  8
RACCORDO
100
AcDbPolyline
 62
7
  6
CONTINUOUS
 90
10
 70
0
 10
21.7994457253
 20
-8.647413968
 10
22.0103520425
 20
-8.4894632058
 10
22.2160398553
 20
-8.3331760904
 10
22.4165091639
 20
-8.1785526219
 10
22.611828022
 20
-8.0258695828
 10
22.8019283759
 20
-7.8748501905
 10
22.986606064
 20
-7.7246640976
 10
23.1657930327
 20
-7.5750345216
 10
23.3395573358
 20
-7.426238245
 10
23.5078989732
 20
-7.2782752678
  0
LWPOLYLINE
  5
3F0
100
AcDbEntity
  8
RACCORDO
100
AcDbPolyline
 62
7
  6
CONTINUOUS
 90
6
 70
0
 10
23.521910366
 20
-7.2675983143
 10
23.5440267766
 20
-7.2520360683
 10
23.5622497848
 20
-7.2348193042
 10
23.5763088221
 20
-7.2162001169
 10
23.5859984292
 20
-7.1964136854
 10
23.5899546517
 20
-7.1827452677
  0
LWPOLYLINE
  5
3F1
100
AcDbEntity
  8
RACCORDO
100
AcDbPolyline
 62
7
  6
CONTINUOUS
 90
7
 70
0
 10
23.521910366
 20
-6.1056954473
 10
23.5440267766
 20
-6.0913060454
 10
23.5622497848
 20
-6.0760892793
 10
23.5763088221
 20
-6.060297244
 10
23.5859984292
 20
-6.0442265929
 10
23.591180455
 20
-6.0281231734
 10
23.5920970331
 20
-6.0180145958
  0
LINE
  5
3F2
100
AcDbEntity
  8
DRAFT
100
AcDbLine
 62
7
  6
CONTINUOUS
 10
22.9165872371
 20
-8.2482134089
 11
21.9364592351
 21
-8.8821519255
  0
LWPOLYLINE
  5
3F3
100
AcDbEntity
  8
RACCORDO
100
AcDbPolyline
 62
7
  6
CONTINUOUS
 90
10
 70
0
 10
23.521910366
 20
-7.2675983143
 10
23.5204247853
 20
-7.2685285839
 10
23.5189209982
 20
-7.2695231714
 10
23.5173989658
 20
-7.2705819702
 10
23.5158580386
 20
-7.2717049536
 10
23.5142987843
 20
-7.2728919275
 10
23.5127230407
 20
-7.2741425547
 10
23.5111314538
 20
-7.2754566734
 10
23.5095234244
 20
-7.2768342739
 10
23.5078989732
 20
-7.2782752678
  0
LINE
  5
3F4
100
AcDbEntity
  8
0
100
AcDbLine
 62
7
  6
CONTINUOUS
 10
-1.7720421305
 20
19.5700105703
 11
-0.4121101904
 21
19.6437587577
  0
LWPOLYLINE
  5
3F5
100
AcDbEntity
  8
RACCORDO
100
AcDbPolyline
 62
7
  6
CONTINUOUS
 90
4
 70
0
 10
-4.2058487798
 20
18.1849243703
 10
-4.1955011494
 20
18.1834452308
 10
-4.1844688696
 20
18.1807612008
 10
-4.1727660449
 20
18.1767991942
  0
LWPOLYLINE
  5
3F6
100
AcDbEntity
  8
ASSI
100
AcDbPolyline
 62
7
  6
CONTINUOUS
 90
14
 70
0
 10
2.478272847
 20
18.2358389067
 10
2.4733988593
 20
18.2365705373
 10
2.4678238328
 20
18.236837959
 10
2.461584105
 20
18.2366484517
 10
2.4546762114
 20
18.2360358494
 10
2.4471114061
 20
18.235012377
 10
2.4389317292
 20
18.2335890062
 10
2.4301681856
 20
18.2317986135
 10
2.4208473332
 20
18.2296441341
 10
2.4110018263
 20
18.2271398543
 10
2.4006747753
 20
18.2243335106
 10
2.389902865
 20
18.2212441104
 10
2.3787138862
 20
18.2178627731
 10
2.3671394676
 20
18.2141933352
  0
LWPOLYLINE
  5
3F7
100
AcDbEntity
  8
ASSI
100
AcDbPolyline
 62
7
  6
CONTINUOUS
 90
3
 70
0
 10
-3.0710292078
 20
21.0114288879
 10
-3.0728752883
 20
21.0122312731
 10
-3.0770787966
 20
21.0134096262
  0
LWPOLYLINE
  5
3F8
100
AcDbEntity
  8
ASSI
100
AcDbPolyline
 62
7
  6
CONTINUOUS
 90
3
 70
0
 10
2.4839592233
 20
18.2339346926
 10
2.4824011833
 20
18.234625788
 10
2.478272847
 20
18.2358389067
  0
LWPOLYLINE
  5
3F9
100
AcDbEntity
  8
RACCORDO
100
AcDbPolyline
 62
7
  6
CONTINUOUS
 90
18
 70
0
 10
-0.6720077619
 20
20.4554240773
 10
-0.6915557464
 20
20.4645067641
 10
-0.7144515266
 20
20.4734921787
 10
-0.7379608129
 20
20.4809944115
 10
-0.762102135
 20
20.4870285813
 10
-0.7867918883
 20
20.4915743657
 10
-0.8120533146
 20
20.4946283492
 10
-0.837863172
 20
20.4961939471
 10
-0.8640681309
 20
20.4962610837
 10
-0.8906520935
 20
20.4948223078
 10
-0.9176311575
 20
20.4918850704
 10
-0.9449002862
 20
20.4874616491
 10
-0.9724744658
 20
20.4815432635
 10
-1.0003387101
 20
20.474138694
 10
-1.0283430232
 20
20.4652865594
 10
-1.0564374064
 20
20.4549997327
 10
-1.0846718584
 20
20.4432653409
 10
-1.1130463792
 20
20.4300833841
  0
LINE
  5
3FA
100
AcDbEntity
  8
DRAFT
100
AcDbLine
 62
7
  6
CONTINUOUS
 10
7.2165855643
 20
15.6995070698
 11
7.7571991783
 21
15.4292002627
  0
LINE
  5
3FB
100
AcDbEntity
  8
ASSI
100
AcDbLine
 62
250
  6
CONTINUOUS
 10
-3.8440108712
 20
21.2739608041
 11
-3.2384804365
 21
20.9711955867
  0
LINE
  5
3FC
100
AcDbEntity
  8
ASSI
100
AcDbLine
 62
250
  6
CONTINUOUS
 10
1.7112670318
 20
18.4963218526
 11
2.3167974665
 21
18.1935566353
  0
LINE
  5
3FD
100
AcDbEntity
  8
0
100
AcDbLine
 62
7
  6
CONTINUOUS
 10
-0.4121101904
 20
19.6437587577
 11
1.8237506812
 21
18.5258283219
  0
LINE
  5
3FE
100
AcDbEntity
  8
0
100
AcDbLine
 62
7
  6
CONTINUOUS
 10
2.4907335314
 20
18.1923368968
 11
2.6890289309
 21
18.093189197
  0
LINE
  5
3FF
100
AcDbEntity
  8
ASSI
100
AcDbLine
 62
7
  6
CONTINUOUS
 10
-3.5680723927
 20
21.2599463066
 11
-3.0710296029
 21
21.0114249117
  0
LINE
  5
400
100
AcDbEntity
  8
ASSI
100
AcDbLine
 62
7
  6
CONTINUOUS
 10
1.9869160364
 20
18.482452092
 11
2.4839588262
 21
18.2339306971
  0
LINE
  5
401
100
AcDbEntity
  8
RACCORDO
100
AcDbLine
 62
250
  6
CONTINUOUS
 10
-4.1800123231
 20
21.9635663561
 11
-1.1130463792
 21
20.4300833841
  0
LINE
  5
402
100
AcDbEntity
  8
RACCORDO
100
AcDbLine
 62
250
  6
CONTINUOUS
 10
3.129594308
 20
18.3087630406
 11
6.1965602519
 21
16.7752800686
  0
LINE
  5
403
100
AcDbEntity
  8
RACCORDO
100
AcDbLine
 62
7
  6
CONTINUOUS
 10
3.570637311
 20
18.3341125072
 11
6.7969605542
 21
16.7209508856
  0
LINE
  5
404
100
AcDbEntity
  8
SMUSSO
100
AcDbLine
 62
250
  6
CONTINUOUS
 10
11.9792380739
 20
20.8853013195
 11
12.298916784
 21
20.0256638744
  0
LWPOLYLINE
  5
405
100
AcDbEntity
  8
RACCORDO
100
AcDbPolyline
 62
250
  6
CONTINUOUS
 90
32
 70
0
 10
21.9211835844
 20
-5.0314161526
 10
21.935061279
 20
-5.0717128703
 10
21.9539815766
 20
-5.1341586964
 10
21.9709321663
 20
-5.1982353787
 10
21.9856708553
 20
-5.2630393346
 10
21.9981513086
 20
-5.3285854531
 10
22.00843266
 20
-5.3948084769
 10
22.0164883541
 20
-5.4606417435
 10
22.0222993099
 20
-5.5260905089
 10
22.0259588581
 20
-5.5910682813
 10
22.0276685396
 20
-5.6543338612
 10
22.0274566043
 20
-5.7155955125
 10
22.0254314853
 20
-5.7750466451
 10
22.0219505354
 20
-5.8321554379
 10
22.0171112551
 20
-5.8866450594
 10
22.0109554429
 20
-5.9387128731
 10
22.0037533719
 20
-5.9885413113
 10
21.9956059657
 20
-6.0360394363
 10
21.9865186201
 20
-6.0812474112
 10
21.9765991401
 20
-6.1245537071
 10
21.9659368987
 20
-6.1659389834
 10
21.9545183284
 20
-6.2053919127
 10
21.9422801451
 20
-6.2433207476
 10
21.9292317099
 20
-6.2798800028
 10
21.9154167354
 20
-6.3148974001
 10
21.9008168369
 20
-6.3482944195
 10
21.8853772083
 20
-6.3801723493
 10
21.86919919
 20
-6.4104157932
 10
21.8524998983
 20
-6.4386203414
 10
21.8353660186
 20
-6.4646458779
 10
21.8177506214
 20
-6.4886181375
 10
21.7996693359
 20
-6.5105307545
  0
LINE
  5
406
100
AcDbEntity
  8
0
100
AcDbLine
 62
7
  6
CONTINUOUS
 10
13.4436211123
 20
18.4016810785
 11
13.2421217543
 21
18.9974055043
  0
LWPOLYLINE
  5
407
100
AcDbEntity
  8
RACCORDO
100
AcDbPolyline
 62
250
  6
CONTINUOUS
 90
19
 70
0
 10
21.6405233848
 20
-2.8993550402
 10
21.6376753252
 20
-2.8652393659
 10
21.6322799923
 20
-2.8328840675
 10
21.6243373862
 20
-2.802289145
 10
21.6136738503
 20
-2.7732989998
 10
21.6004630411
 20
-2.7460692306
 10
21.585225928
 20
-2.721066633
 10
21.5679625109
 20
-2.6982912071
 10
21.5486727897
 20
-2.6777429529
 10
21.527877734
 20
-2.6598886662
 10
21.5055773435
 20
-2.644728347
 10
21.4817716184
 20
-2.6322619953
 10
21.456981528
 20
-2.6229564069
 10
21.4312070721
 20
-2.6168115818
 10
21.404448251
 20
-2.6138275199
 10
21.3772260338
 20
-2.6144710172
 10
21.3497140769
 20
-2.6188976721
 10
21.3217387241
 20
-2.6269518861
 10
21.2932999752
 20
-2.6386336592
  0
LWPOLYLINE
  5
408
100
AcDbEntity
  8
RACCORDO
100
AcDbPolyline
 62
250
  6
CONTINUOUS
 90
13
 70
0
 10
21.6405233848
 20
17.9494584339
 10
21.6377966346
 20
18.0643983905
 10
21.6289760651
 20
18.1818446223
 10
21.6140988329
 20
18.301293621
 10
21.5932280971
 20
18.4222322853
 10
21.5664533085
 20
18.5441437098
 10
21.5338893271
 20
18.6665094611
 10
21.4956761238
 20
18.7888060651
 10
21.4519766756
 20
18.9105097475
 10
21.4029760242
 20
19.0311022364
 10
21.3488832872
 20
19.150068332
 10
21.2899312218
 20
19.2668981905
 10
21.2263729091
 20
19.3810920085
  0
LWPOLYLINE
  5
409
100
AcDbEntity
  8
RACCORDO
100
AcDbPolyline
 62
7
  6
CONTINUOUS
 90
10
 70
0
 10
21.9211763568
 20
18.2965318851
 10
21.9200907921
 20
18.3637470918
 10
21.9091395664
 20
18.522284103
 10
21.8868332012
 20
18.6802214973
 10
21.8535234278
 20
18.8376010234
 10
21.8095678482
 20
18.9937106238
 10
21.7556636287
 20
19.1468369551
 10
21.6923605564
 20
19.2961400781
 10
21.619721529
 20
19.4416827295
 10
21.5792150054
 20
19.5141817642
  0
LWPOLYLINE
  5
40A
100
AcDbEntity
  8
RACCORDO
100
AcDbPolyline
 62
250
  6
CONTINUOUS
 90
31
 70
0
 10
21.2932999752
 20
-2.6386336592
 10
21.2931243879
 20
-2.6155772541
 10
21.2919638336
 20
-2.5921082026
 10
21.2898214923
 20
-2.5682908066
 10
21.2867032334
 20
-2.5441903227
 10
21.2826176008
 20
-2.519872783
 10
21.2775757885
 20
-2.4954048144
 10
21.2715916104
 20
-2.4708534558
 10
21.2646814623
 20
-2.4462859748
 10
21.2568642772
 20
-2.421769683
 10
21.248161473
 20
-2.3973717518
 10
21.2385968944
 20
-2.3731590284
 10
21.228196747
 20
-2.3491978523
 10
21.2169895258
 20
-2.325553874
 10
21.2050059372
 20
-2.3022918749
 10
21.1922788146
 20
-2.2794755899
 10
21.1788430286
 20
-2.2571675324
 10
21.1647353915
 20
-2.2354288238
 10
21.1499945563
 20
-2.214319025
 10
21.1346609111
 20
-2.1938959742
 10
21.118776468
 20
-2.1742156279
 10
21.1023847482
 20
-2.1553319076
 10
21.0855306629
 20
-2.1372965523
 10
21.06826039
 20
-2.1201589763
 10
21.0506212479
 20
-2.1039661344
 10
21.0326615654
 20
-2.0887623928
 10
21.0144305497
 20
-2.0745894078
 10
20.9959781514
 20
-2.0614860115
 10
20.9773549276
 20
-2.0494881054
 10
20.9586119035
 20
-2.0386285623
 10
20.9398004325
 20
-2.0289371358
  0
LINE
  5
40B
100
AcDbEntity
  8
RACCORDO
100
AcDbLine
 62
250
  6
CONTINUOUS
 10
21.6405233848
 20
12.1376523177
 11
21.6405233848
 21
8.5345907929
  0
LINE
  5
40C
100
AcDbEntity
  8
RACCORDO
100
AcDbLine
 62
250
  6
CONTINUOUS
 10
21.6405233848
 20
-2.8993550402
 11
21.6405233848
 21
-6.5024047893
  0
LINE
  5
40D
100
AcDbEntity
  8
RACCORDO
100
AcDbLine
 62
250
  6
CONTINUOUS
 10
21.6405233848
 20
-8.8201624539
 11
21.6405233848
 21
-12.3142226812
  0
LINE
  5
40E
100
AcDbEntity
  8
RACCORDO
100
AcDbLine
 62
250
  6
CONTINUOUS
 10
21.6405233848
 20
14.4554105249
 11
21.6405233848
 21
17.9494584339
  0
LINE
  5
40F
100
AcDbEntity
  8
RACCORDO
100
AcDbLine
 62
7
  6
CONTINUOUS
 10
21.9211835059
 20
12.0111337674
 11
21.9211835844
 21
8.8819199781
  0
LINE
  5
410
100
AcDbEntity
  8
RACCORDO
100
AcDbLine
 62
7
  6
CONTINUOUS
 10
21.9211835059
 20
-8.9466810042
 11
21.9211835844
 21
-11.9668934985
  0
LINE
  5
411
100
AcDbEntity
  8
RACCORDO
100
AcDbLine
 62
7
  6
CONTINUOUS
 10
21.9211835844
 20
-2.552025855
 11
21.9211835831
 21
-5.6810687173
  0
LINE
  5
412
100
AcDbEntity
  8
RACCORDO
100
AcDbLine
 62
7
  6
CONTINUOUS
 10
21.9211835844
 20
18.2967876192
 11
21.9211835626
 21
15.2765090976
  0
LINE
  5
413
100
AcDbEntity
  8
RACCORDO
100
AcDbLine
 62
7
  6
CONTINUOUS
 10
21.9211835844
 20
-11.9668934985
 11
21.9211835533
 21
-11.9670181552
  0
LWPOLYLINE
  5
414
100
AcDbEntity
  8
RACCORDO
100
AcDbPolyline
 62
250
  6
CONTINUOUS
 90
29
 70
0
 10
21.9211835831
 20
-5.6810687173
 10
21.9206987918
 20
-5.7298111216
 10
21.9190448853
 20
-5.7831490359
 10
21.9163334336
 20
-5.8342588014
 10
21.9126626144
 20
-5.8831539195
 10
21.9081404931
 20
-5.9297327592
 10
21.9028596148
 20
-5.9740782484
 10
21.8968498478
 20
-6.016482103
 10
21.8901844525
 20
-6.0569130255
 10
21.8829234429
 20
-6.0953923511
 10
21.8750181512
 20
-6.1322868578
 10
21.8664838338
 20
-6.1676896257
 10
21.8573682658
 20
-6.2014959605
 10
21.8476250403
 20
-6.2337701904
 10
21.8372188171
 20
-6.2646450475
 10
21.8262125544
 20
-6.2939727146
 10
21.8147047961
 20
-6.3213973278
 10
21.8027931825
 20
-6.3467607015
 10
21.7904464123
 20
-6.3702177951
 10
21.7775654394
 20
-6.3918817522
 10
21.7641529465
 20
-6.4117922974
 10
21.7502309388
 20
-6.429897869
 10
21.7357007303
 20
-6.4461663719
 10
21.7203679071
 20
-6.4606707441
 10
21.7044169086
 20
-6.4733135709
 10
21.6883543215
 20
-6.4838217367
 10
21.6724020807
 20
-6.4921190697
 10
21.6564437621
 20
-6.498305483
 10
21.6405233848
 20
-6.5023916431
  0
LWPOLYLINE
  5
415
100
AcDbEntity
  8
RACCORDO
100
AcDbPolyline
 62
250
  6
CONTINUOUS
 90
29
 70
0
 10
21.9211835626
 20
15.2765090976
 10
21.9204966748
 20
15.2187400312
 10
21.9186729784
 20
15.1662035029
 10
21.9158227636
 20
15.1158023575
 10
21.9120354514
 20
15.0675169724
 10
21.9074103675
 20
15.0214322099
 10
21.9020337751
 20
14.9774815743
 10
21.8959334926
 20
14.9354172618
 10
21.8891774747
 20
14.8952640817
 10
21.8818230334
 20
14.8570075185
 10
21.8738296758
 20
14.8203442345
 10
21.8652240154
 20
14.7852236816
 10
21.8560442856
 20
14.7517074499
 10
21.8462198639
 20
14.7196666506
 10
21.8357202621
 20
14.6889762855
 10
21.8245958443
 20
14.6597779668
 10
21.8128805913
 20
14.6323453416
 10
21.8005837036
 20
14.6067031626
 10
21.7877287839
 20
14.5828392918
 10
21.7743814723
 20
14.5609689908
 10
21.7605592418
 20
14.5411443757
 10
21.7462906451
 20
14.5233199879
 10
21.7316721819
 20
14.5075595736
 10
21.7166923828
 20
14.4939125835
 10
21.7014200783
 20
14.4823287623
 10
21.6860986977
 20
14.4727112025
 10
21.670847971
 20
14.4650173929
 10
21.6556423327
 20
14.4592677564
 10
21.6405233848
 20
14.4554513816
  0
LWPOLYLINE
  5
416
100
AcDbEntity
  8
RACCORDO
100
AcDbPolyline
 62
250
  6
CONTINUOUS
 90
10
 70
0
 10
21.6405233848
 20
-12.3142226812
 10
21.6377965646
 20
-12.4258240994
 10
21.628975849
 20
-12.5339424233
 10
21.6140984406
 20
-12.6381156466
 10
21.5932275576
 20
-12.7378979102
 10
21.566452688
 20
-12.8328635343
 10
21.5338886772
 20
-12.9226083965
 10
21.4956755129
 20
-13.0067480637
 10
21.4519761863
 20
-13.0849227066
 10
21.4029756731
 20
-13.1567999221
  0
LWPOLYLINE
  5
417
100
AcDbEntity
  8
RACCORDO
100
AcDbPolyline
 62
250
  6
CONTINUOUS
 90
9
 70
0
 10
21.9211835533
 20
-11.9670181552
 10
21.9202571099
 20
-11.9884114595
 10
21.9104562254
 20
-12.0399339692
 10
21.8900559247
 20
-12.0906739364
 10
21.8592747609
 20
-12.140087712
 10
21.8184425228
 20
-12.1876458448
 10
21.7679966916
 20
-12.2328387726
 10
21.7084777468
 20
-12.2751822808
 10
21.6405233848
 20
-12.3142226796
  0
LWPOLYLINE
  5
418
100
AcDbEntity
  8
RACCORDO
100
AcDbPolyline
 62
250
  6
CONTINUOUS
 90
19
 70
0
 10
21.6405233848
 20
8.5345907929
 10
21.6383332688
 20
8.4978469577
 10
21.6334685356
 20
8.4601635731
 10
21.6259291852
 20
8.421540639
 10
21.6155274118
 20
8.3816358251
 10
21.6024510212
 20
8.3407914617
 10
21.5872634307
 20
8.3000345397
 10
21.5699646402
 20
8.2593650591
 10
21.5505546499
 20
8.2187830199
 10
21.5295968769
 20
8.1793154129
 10
21.5070913212
 20
8.1409622382
 10
21.4830379829
 20
8.1037234958
 10
21.4580002793
 20
8.0686261764
 10
21.4319782103
 20
8.0356702802
 10
21.404971776
 20
8.0048558071
 10
21.3775443935
 20
7.977209748
 10
21.3498838688
 20
7.9530744332
 10
21.321802396
 20
7.9321075324
 10
21.2932999752
 20
7.9143090455
  0
LWPOLYLINE
  5
419
100
AcDbEntity
  8
RACCORDO
100
AcDbPolyline
 62
250
  6
CONTINUOUS
 90
6
 70
0
 10
21.9211835841
 20
8.8819072104
 10
21.9182678162
 20
8.8437655721
 10
21.9079556657
 20
8.800863116
 10
21.8902733783
 20
8.7585658423
 10
21.8653547239
 20
8.717192279
 10
21.833384791
 20
8.6770487023
  0
LWPOLYLINE
  5
41A
100
AcDbEntity
  8
RACCORDO
100
AcDbPolyline
 62
250
  6
CONTINUOUS
 90
10
 70
0
 10
21.9211835844
 20
-2.552025855
 10
21.9181765256
 20
-2.5907720653
 10
21.9077874005
 20
-2.6335931738
 10
21.8900554536
 20
-2.6758072157
 10
21.8651126553
 20
-2.7171000119
 10
21.833144643
 20
-2.7571642398
 10
21.7943893392
 20
-2.7957017205
 10
21.7491351813
 20
-2.832425638
 10
21.6977189744
 20
-2.8670626735
 10
21.6405233848
 20
-2.8993550402
  0
LWPOLYLINE
  5
41B
100
AcDbEntity
  8
RACCORDO
100
AcDbPolyline
 62
7
  6
CONTINUOUS
 90
5
 70
0
 10
21.9211840585
 20
12.0110887061
 10
21.9234164669
 20
12.0373014918
 10
21.9296881188
 20
12.0609113627
 10
21.9363689035
 20
12.0755191612
 10
21.9398480278
 20
12.0810531888
  0
LWPOLYLINE
  5
41C
100
AcDbEntity
  8
RACCORDO
100
AcDbPolyline
 62
7
  6
CONTINUOUS
 90
5
 70
0
 10
21.9211840585
 20
-8.9467260655
 10
21.9234164669
 20
-8.9205132797
 10
21.9296881188
 20
-8.8969034089
 10
21.9363689035
 20
-8.8822956104
 10
21.9398480278
 20
-8.8767615828
  0
LWPOLYLINE
  5
41D
100
AcDbEntity
  8
RACCORDO
100
AcDbPolyline
 62
250
  6
CONTINUOUS
 90
11
 70
0
 10
21.8864830133
 20
8.6207744025
 10
21.8868324629
 20
8.6233663818
 10
21.8835221718
 20
8.6284719196
 10
21.8737942889
 20
8.6303083701
 10
21.8577675791
 20
8.6281918399
 10
21.835390345
 20
8.621336908
 10
21.8067286944
 20
8.6103201061
 10
21.7726359978
 20
8.5961863877
 10
21.7336321724
 20
8.5791181691
 10
21.6895514042
 20
8.5586130963
 10
21.6405233848
 20
8.5345907929
  0
LWPOLYLINE
  5
41E
100
AcDbEntity
  8
RACCORDO
100
AcDbPolyline
 62
7
  6
CONTINUOUS
 90
3
 70
0
 10
23.5899546517
 20
13.7750695038
 10
23.591180455
 20
13.7820474401
 10
23.5920970331
 20
13.7953704633
  0
LWPOLYLINE
  5
41F
100
AcDbEntity
  8
RACCORDO
100
AcDbPolyline
 62
7
  6
CONTINUOUS
 90
10
 70
0
 10
21.6405233848
 20
-8.8201624539
 10
21.6554577372
 20
-8.7980630899
 10
21.6711349006
 20
-8.7765975874
 10
21.6875548748
 20
-8.7557659465
 10
21.7048001793
 20
-8.7354449535
 10
21.7227882948
 20
-8.715757822
 10
21.7412716629
 20
-8.6970741935
 10
21.7601677643
 20
-8.679517282
 10
21.7795591185
 20
-8.6629638734
 10
21.7994457253
 20
-8.647413968
  0
LWPOLYLINE
  5
420
100
AcDbEntity
  8
RACCORDO
100
AcDbPolyline
 62
250
  6
CONTINUOUS
 90
23
 70
0
 10
21.6405233848
 20
-8.8199326151
 10
21.6626480325
 20
-8.8023773916
 10
21.6847230612
 20
-8.7874223639
 10
21.7066383028
 20
-8.7750444127
 10
21.7284767481
 20
-8.7650758298
 10
21.7498936361
 20
-8.7576378681
 10
21.7702193031
 20
-8.7531772952
 10
21.7893391741
 20
-8.7521090945
 10
21.8073015119
 20
-8.7540589356
 10
21.8238299942
 20
-8.7583384578
 10
21.8388461293
 20
-8.7650219188
 10
21.8524915484
 20
-8.7741045859
 10
21.8648591312
 20
-8.7847885019
 10
21.8759455314
 20
-8.7969910529
 10
21.8857773904
 20
-8.8108460826
 10
21.8944427301
 20
-8.8258704426
 10
21.9019352589
 20
-8.8420533209
 10
21.9082211154
 20
-8.8594455448
 10
21.9133016663
 20
-8.8776509894
 10
21.9171424745
 20
-8.896626654
 10
21.9197253269
 20
-8.9164577869
 10
21.9210294117
 20
-8.9369394705
 10
21.9211835059
 20
-8.9466810042
  0
LINE
  5
421
100
AcDbEntity
  8
RACCORDO
100
AcDbLine
 62
7
  6
CONTINUOUS
 10
7.7571991783
 20
-20.6840590751
 11
8.8403944479
 21
-19.8990188587
  0
LWPOLYLINE
  5
422
100
AcDbEntity
  8
RACCORDO
100
AcDbPolyline
 62
7
  6
CONTINUOUS
 90
10
 70
0
 10
22.916587237
 20
-8.2482134089
 10
23.0214625938
 20
-8.1728178112
 10
23.1203925484
 20
-8.0858895114
 10
23.2126662242
 20
-7.9875726345
 10
23.2977040058
 20
-7.8779394868
 10
23.3747649771
 20
-7.7573554268
 10
23.4430720583
 20
-7.6265341463
 10
23.5021390838
 20
-7.4859914721
 10
23.5516365949
 20
-7.3359936326
 10
23.5899547865
 20
-7.182758183
  0
LINE
  5
423
100
AcDbEntity
  8
RACCORDO
100
AcDbLine
 62
250
  6
CONTINUOUS
 10
21.092758451
 20
-13.4240170449
 11
21.137546381
 21
-13.3960823509
  0
LINE
  5
424
100
AcDbEntity
  8
RACCORDO
100
AcDbLine
 62
250
  6
CONTINUOUS
 10
21.3009405029
 20
-13.2853436476
 11
21.2263729091
 21
-13.3317057802
  0
LINE
  5
425
100
AcDbEntity
  8
RACCORDO
100
AcDbLine
 62
250
  6
CONTINUOUS
 10
21.137546381
 20
-13.3960823509
 11
8.8403944479
 21
-19.8990188587
  0
LINE
  5
426
100
AcDbEntity
  8
RACCORDO
100
AcDbLine
 62
7
  6
CONTINUOUS
 10
21.092758451
 20
-13.4240170449
 11
8.8187023456
 21
-19.9147400986
  0
LINE
  5
427
100
AcDbEntity
  8
RACCORDO
100
AcDbLine
 62
250
  6
CONTINUOUS
 10
2.5223829515
 20
-22.3852294088
 11
21.6405233848
 21
-12.3142226812
  0
LINE
  5
428
100
AcDbEntity
  8
RACCORDO
100
AcDbLine
 62
250
  6
CONTINUOUS
 10
2.5223829515
 20
-23.1845473447
 11
21.2263729091
 21
-13.3317057802
  0
LINE
  5
429
100
AcDbEntity
  8
DRAFT
100
AcDbLine
 62
7
  6
CONTINUOUS
 10
2.5223829515
 20
-23.4339602353
 11
7.7571991783
 21
-20.6840590751
  0
LINE
  5
42A
100
AcDbEntity
  8
RACCORDO
100
AcDbLine
 62
7
  6
CONTINUOUS
 10
6.1965602519
 20
-21.871372332
 11
2.5223829515
 21
-23.7156048713
  0
LINE
  5
42B
100
AcDbEntity
  8
RACCORDO
100
AcDbLine
 62
7
  6
CONTINUOUS
 10
7.0780957105
 20
-21.3119432879
 11
2.5223829515
 21
-23.5716104015
  0
LWPOLYLINE
  5
42C
100
AcDbEntity
  8
ASSI
100
AcDbPolyline
 62
7
  6
CONTINUOUS
 90
16
 70
0
 10
-3.7930796799
 20
21.2943029089
 10
-3.7809106421
 20
21.2976676673
 10
-3.7681768544
 20
21.300270224
 10
-3.7548859298
 20
21.3020947785
 10
-3.7410419195
 20
21.3031382429
 10
-3.7266609254
 20
21.3033715091
 10
-3.7117726472
 20
21.3027405843
 10
-3.6963974336
 20
21.3012254004
 10
-3.6805490042
 20
21.2988162065
 10
-3.6642513871
 20
21.2954759039
 10
-3.6475617604
 20
21.2912009437
 10
-3.630469173
 20
21.285968106
 10
-3.6128936234
 20
21.2797049005
 10
-3.5948423975
 20
21.2723894555
 10
-3.5763571193
 20
21.2640028119
 10
-3.5680702205
 20
21.2599493524
  0
LWPOLYLINE
  5
42D
100
AcDbEntity
  8
ASSI
100
AcDbPolyline
 62
7
  6
CONTINUOUS
 90
14
 70
0
 10
-3.0770787966
 20
21.0134096262
 10
-3.0820321177
 20
21.0141043629
 10
-3.0876915067
 20
21.014333362
 10
-3.0940205144
 20
21.014103642
 10
-3.1010232874
 20
21.0134479816
 10
-3.1086895724
 20
21.0123784257
 10
-3.1169769002
 20
21.0109066203
 10
-3.1258523338
 20
21.009065599
 10
-3.1352886986
 20
21.0068580065
 10
-3.1452533242
 20
21.0042986347
 10
-3.1557013862
 20
21.0014363554
 10
-3.1665951939
 20
20.9982905095
 10
-3.1779069044
 20
20.9948518417
 10
-3.189604405
 20
20.9911241538
  0
LWPOLYLINE
  5
42E
100
AcDbEntity
  8
SMUSSO
100
AcDbPolyline
 62
7
  6
CONTINUOUS
 90
21
 70
0
 10
13.0705283438
 20
18.3074309017
 10
13.24563879
 20
18.2742331364
 10
13.4236173583
 20
18.246082026
 10
13.6045048239
 20
18.2230190512
 10
13.7882604116
 20
18.2050027313
 10
13.9730911351
 20
18.1922316904
 10
14.1590909949
 20
18.1847628898
 10
14.3461659904
 20
18.1825393683
 10
14.5322411331
 20
18.1855888662
 10
14.7172305422
 20
18.1939719743
 10
14.9012200984
 20
18.2076281018
 10
15.0823924555
 20
18.2264032161
 10
15.2607249373
 20
18.2503481929
 10
15.43624022
 20
18.2794121564
 10
15.6071889858
 20
18.3132884466
 10
15.7734291164
 20
18.3519808096
 10
15.9351027302
 20
18.3954854991
 10
16.090886865
 20
18.4434846168
 10
16.2403405332
 20
18.4958721965
 10
16.3839047224
 20
18.5527542043
 10
16.5215794326
 20
18.6141306402
  0
LINE
  5
42F
100
AcDbEntity
  8
SMUSSO
100
AcDbLine
 62
7
  6
CONTINUOUS
 10
12.8999566805
 20
18.3453522551
 11
13.0705283438
 21
18.3074309017
  0
LWPOLYLINE
  5
430
100
AcDbEntity
  8
RACCORDO
100
AcDbPolyline
 62
7
  6
CONTINUOUS
 90
9
 70
0
 10
15.7918981545
 20
19.1890204308
 10
15.785781414
 20
19.1906199285
 10
15.7760112002
 20
19.1921527424
 10
15.7656850048
 20
19.1925681868
 10
15.7548978076
 20
19.1918664143
 10
15.7439345487
 20
19.1900478829
 10
15.732890208
 20
19.1871127454
 10
15.7216698055
 20
19.183060849
 10
15.7102733412
 20
19.1778921938
  0
LINE
  5
431
100
AcDbEntity
  8
0
100
AcDbLine
 62
7
  6
CONTINUOUS
 10
14.3988353558
 20
18.5221732011
 11
13.9490906944
 21
18.6439210342
  0
LWPOLYLINE
  5
432
100
AcDbEntity
  8
RACCORDO
100
AcDbPolyline
 62
7
  6
CONTINUOUS
 90
28
 70
0
 10
15.7918880183
 20
19.1889964784
 10
15.6831726717
 20
19.2202823242
 10
15.5683176288
 20
19.2496360012
 10
15.4510562048
 20
19.2759630714
 10
15.33168304
 20
19.2992251631
 10
15.2104626683
 20
19.3193957159
 10
15.0876332989
 20
19.3364549912
 10
14.9634845015
 20
19.3503788327
 10
14.8383010384
 20
19.3611495017
 10
14.7123205209
 20
19.3687569014
 10
14.5858341348
 20
19.3731902801
 10
14.4591314118
 20
19.3744448348
 10
14.3324496664
 20
19.3725200617
 10
14.2060783966
 20
19.3674187268
 10
14.080308806
 20
19.3591495146
 10
13.9553792067
 20
19.3477216392
 10
13.8315803321
 20
19.3331518069
 10
13.7091955797
 20
19.3154617853
 10
13.5884471435
 20
19.29466761
 10
13.4696122224
 20
19.2707960099
 10
13.352976399
 20
19.2438809582
 10
13.2387648259
 20
19.2139461909
 10
13.1272496477
 20
19.181029087
 10
13.0187034513
 20
19.1451724522
 10
12.9133365598
 20
19.1064008346
 10
12.8113897773
 20
19.0647480262
 10
12.7131436399
 20
19.0202672517
 10
12.6188595787
 20
18.9730098622
  0
LINE
  5
433
100
AcDbEntity
  8
0
100
AcDbLine
 62
7
  6
CONTINUOUS
 10
13.4541159476
 20
18.3964336608
 11
12.7471470075
 21
18.7499181309
  0
LINE
  5
434
100
AcDbEntity
  8
0
100
AcDbLine
 62
7
  6
CONTINUOUS
 10
6.0294947452
 20
22.1087442621
 11
5.322525805
 21
22.4622287321
  0
LINE
  5
435
100
AcDbEntity
  8
0
100
AcDbLine
 62
7
  6
CONTINUOUS
 10
6.0294947452
 20
22.1087442621
 11
6.2217117769
 21
21.9312286102
  0
LINE
  5
436
100
AcDbEntity
  8
0
100
AcDbLine
 62
7
  6
CONTINUOUS
 10
13.4541159476
 20
18.3964336608
 11
13.6463329794
 21
18.218918009
  0
LWPOLYLINE
  5
437
100
AcDbEntity
  8
SMUSSO
100
AcDbPolyline
 62
7
  6
CONTINUOUS
 90
15
 70
0
 10
11.223437556
 20
19.2753990756
 10
11.277050659
 20
19.2041697441
 10
11.3508240114
 20
19.1199185897
 10
11.4344306293
 20
19.0378010391
 10
11.5277899467
 20
18.9578001184
 10
11.6300365137
 20
18.8806890448
 10
11.7412993359
 20
18.8064707819
 10
11.8614494076
 20
18.7351423661
 10
11.9892342614
 20
18.6674681251
 10
12.124747971
 20
18.6034930844
 10
12.2678964627
 20
18.5431722184
 10
12.4171450484
 20
18.4871347775
 10
12.5725026022
 20
18.4354437906
 10
12.7339602499
 20
18.3880362288
 10
12.8999566805
 20
18.3453522551
  0
LWPOLYLINE
  5
438
100
AcDbEntity
  8
RACCORDO
100
AcDbPolyline
 62
7
  6
CONTINUOUS
 90
18
 70
0
 10
23.5912603436
 20
-6.0084704437
 10
23.5533425143
 20
-5.820945593
 10
23.5029369369
 20
-5.621973574
 10
23.4422920975
 20
-5.4235030804
 10
23.3717554686
 20
-5.2264753221
 10
23.2917120088
 20
-5.0318407114
 10
23.2025930157
 20
-4.8405672719
 10
23.1048760939
 20
-4.6536252204
 10
22.9990230712
 20
-4.4718759201
 10
22.8854768317
 20
-4.2961083549
 10
22.7647347005
 20
-4.1271642255
 10
22.6373646517
 20
-3.9659299494
 10
22.50391745
 20
-3.8132116445
 10
22.3648890324
 20
-3.6697221777
 10
22.2209531525
 20
-3.5363223159
 10
22.0729201233
 20
-3.4139064667
 10
21.9212114933
 20
-3.3029899788
 10
21.9211835844
 20
-3.3029721706
  0
LWPOLYLINE
  5
439
100
AcDbEntity
  8
RACCORDO
100
AcDbPolyline
 62
7
  6
CONTINUOUS
 90
3
 70
0
 10
23.5920970331
 20
-6.0180145958
 10
23.5917866361
 20
-6.0121778024
 10
23.591260267
 20
-6.0084598377
  0
LWPOLYLINE
  5
43A
100
AcDbEntity
  8
RACCORDO
100
AcDbPolyline
 62
7
  6
CONTINUOUS
 90
3
 70
0
 10
23.5920970331
 20
14.9398001758
 10
23.5917866361
 20
14.9456369691
 10
23.591260267
 20
14.9493549338
  0
LINE
  5
43B
100
AcDbEntity
  8
RACCORDO
100
AcDbLine
 62
250
  6
CONTINUOUS
 10
23.5078989732
 20
14.8472350495
 11
23.5078989732
 21
13.6795395038
  0
LINE
  5
43C
100
AcDbEntity
  8
RACCORDO
100
AcDbLine
 62
250
  6
CONTINUOUS
 10
23.5078989732
 20
-6.1105797221
 11
23.5078989732
 21
-7.2782752678
  0
LINE
  5
43D
100
AcDbEntity
  8
RACCORDO
100
AcDbLine
 62
7
  6
CONTINUOUS
 10
23.5920970331
 20
14.9179010011
 11
23.5920970331
 21
13.7953561078
  0
LINE
  5
43E
100
AcDbEntity
  8
RACCORDO
100
AcDbLine
 62
7
  6
CONTINUOUS
 10
23.5920970331
 20
-6.0399137704
 11
23.5920970331
 21
-7.1624586638
  0
LWPOLYLINE
  5
43F
100
AcDbEntity
  8
RACCORDO
100
AcDbPolyline
 62
7
  6
CONTINUOUS
 90
3
 70
0
 10
23.5899546517
 20
-7.1827452677
 10
23.591180455
 20
-7.1757673315
 10
23.5920970331
 20
-7.1624443083
  0
LWPOLYLINE
  5
440
100
AcDbEntity
  8
RACCORDO
100
AcDbPolyline
 62
250
  6
CONTINUOUS
 90
10
 70
0
 10
23.521910366
 20
-7.2675983143
 10
23.4827021457
 20
-7.4247000749
 10
23.4332571135
 20
-7.5727864157
 10
23.3738298056
 20
-7.7110963813
 10
23.3047265732
 20
-7.8389184631
 10
23.2263025886
 20
-7.9555969682
 10
23.1389593774
 20
-8.0605345916
 10
23.0431448892
 20
-8.1531922514
 10
22.9393520961
 20
-8.2330923994
 10
22.916587237
 20
-8.2482134089
  0
LWPOLYLINE
  5
441
100
AcDbEntity
  8
RACCORDO
100
AcDbPolyline
 62
250
  6
CONTINUOUS
 90
3
 70
0
 10
21.4029756731
 20
-13.1567999221
 10
21.3488830553
 20
-13.2220719621
 10
21.2899311089
 20
-13.2804575991
  0
LINE
  5
442
100
AcDbEntity
  8
RACCORDO
100
AcDbLine
 62
250
  6
CONTINUOUS
 10
21.2899311089
 20
-13.2804575991
 11
21.2263729091
 21
-13.3317057802
  0
LWPOLYLINE
  5
443
100
AcDbEntity
  8
RACCORDO
100
AcDbPolyline
 62
7
  6
CONTINUOUS
 90
12
 70
0
 10
21.3020291781
 20
-13.2845317449
 10
21.4101072226
 20
-13.1974630473
 10
21.5016525362
 20
-13.1081163185
 10
21.5857305941
 20
-13.0097074465
 10
21.6616316633
 20
-12.9027375063
 10
21.7289674309
 20
-12.7873537293
 10
21.7871263634
 20
-12.6639682622
 10
21.8354225154
 20
-12.533298124
 10
21.8734521676
 20
-12.3956048392
 10
21.9007441682
 20
-12.2511375313
 10
21.916759548
 20
-12.1004492409
 10
21.9211764992
 20
-11.9670181499
  0
LINE
  5
444
100
AcDbEntity
  8
RACCORDO
100
AcDbLine
 62
250
  6
CONTINUOUS
 10
21.2263729091
 20
-13.3317057802
 11
21.137546381
 21
-13.3960823509
  0
LINE
  5
445
100
AcDbEntity
  8
RACCORDO
100
AcDbLine
 62
7
  6
CONTINUOUS
 10
21.3020392391
 20
-13.2845455034
 11
21.2121139751
 21
-13.3497202181
  0
LWPOLYLINE
  5
446
100
AcDbEntity
  8
RACCORDO
100
AcDbPolyline
 62
7
  6
CONTINUOUS
 90
18
 70
0
 10
1.4069372413
 20
-28.388283565
 10
1.4128865792
 20
-28.3839718128
 10
1.4185461035
 20
-28.3791766877
 10
1.4239029641
 20
-28.3739090668
 10
1.4289450341
 20
-28.3681808794
 10
1.4336609347
 20
-28.3620050829
 10
1.438039932
 20
-28.3553956935
 10
1.4420720922
 20
-28.3483676912
 10
1.4457483694
 20
-28.3409369573
 10
1.4490603643
 20
-28.3331203612
 10
1.4520005386
 20
-28.3249356286
 10
1.4545623631
 20
-28.3164012403
 10
1.4567399445
 20
-28.3075365753
 10
1.4585282927
 20
-28.2983617438
 10
1.4599235283
 20
-28.288897449
 10
1.4609224863
 20
-28.2791651345
 10
1.4615227237
 20
-28.2691869354
 10
1.4617227797
 20
-28.2589855057
  0
LINE
  5
447
100
AcDbEntity
  8
RACCORDO
100
AcDbLine
 62
250
  6
CONTINUOUS
 10
21.2121139751
 20
-13.3497202181
 11
21.2120165933
 21
-13.3497907805
  0
LWPOLYLINE
  5
448
100
AcDbEntity
  8
RACCORDO
100
AcDbPolyline
 62
250
  6
CONTINUOUS
 90
3
 70
0
 10
21.2120165933
 20
-13.3497907805
 10
21.1958291576
 20
-13.3611280158
 10
21.137546381
 20
-13.3960823509
  0
LINE
  5
449
100
AcDbEntity
  8
RACCORDO
100
AcDbLine
 62
7
  6
CONTINUOUS
 10
1.4007115695
 20
-28.3921021747
 11
1.4069372413
 21
-28.388283565
  0
LWPOLYLINE
  5
44A
100
AcDbEntity
  8
RACCORDO
100
AcDbPolyline
 62
250
  6
CONTINUOUS
 90
18
 70
0
 10
1.9263074628
 20
-28.1225354104
 10
1.9318985697
 20
-28.1194217798
 10
1.9386162064
 20
-28.1149762028
 10
1.9449872513
 20
-28.1099414068
 10
1.9509941999
 20
-28.104331204
 10
1.9566205536
 20
-28.0981609922
 10
1.9618508768
 20
-28.091447695
 10
1.9666708319
 20
-28.08420971
 10
1.9710671986
 20
-28.0764668838
 10
1.9750279203
 20
-28.0682404431
 10
1.9785421334
 20
-28.0595529444
 10
1.9816001969
 20
-28.0504282155
 10
1.9841937258
 20
-28.0408912696
 10
1.9863156054
 20
-28.0309682625
 10
1.987960012
 20
-28.0206864328
 10
1.9891224389
 20
-28.0100739862
 10
1.9897997034
 20
-27.9991600149
 10
1.9899899515
 20
-27.987974447
  0
LWPOLYLINE
  5
44B
100
AcDbEntity
  8
RACCORDO
100
AcDbPolyline
 62
250
  6
CONTINUOUS
 90
18
 70
0
 10
-0.2058196037
 20
-29.1748707315
 10
-0.1984730699
 20
-29.1708767882
 10
-0.1917619143
 20
-29.16643205
 10
-0.1853893625
 20
-29.1613944384
 10
-0.1793728803
 20
-29.1557777605
 10
-0.1737289578
 20
-29.1495974107
 10
-0.168473064
 20
-29.142870328
 10
-0.1636196042
 20
-29.1356149502
 10
-0.159181881
 20
-29.1278511629
 10
-0.1551720571
 20
-29.1196002452
 10
-0.1516011229
 20
-29.1108848112
 10
-0.1484788656
 20
-29.1017287485
 10
-0.1458138427
 20
-29.0921571519
 10
-0.1436133586
 20
-29.0821962555
 10
-0.1418834443
 20
-29.0718733602
 10
-0.1406288412
 20
-29.0612167592
 10
-0.139852988
 20
-29.0502556601
 10
-0.1395580111
 20
-29.0390201053
  0
LINE
  5
44C
100
AcDbEntity
  8
RACCORDO
100
AcDbLine
 62
7
  6
CONTINUOUS
 10
1.397617682
 20
-28.3937632758
 11
1.4007115695
 21
-28.3921021747
  0
LWPOLYLINE
  5
44D
100
AcDbEntity
  8
RACCORDO
100
AcDbPolyline
 62
250
  6
CONTINUOUS
 90
34
 70
0
 10
-4.3743704032
 20
-28.2009600671
 10
-4.3916647349
 20
-28.2097636233
 10
-4.4096901961
 20
-28.2181492863
 10
-4.4284068547
 20
-28.2260984794
 10
-4.4477732476
 20
-28.2335935925
 10
-4.4677464721
 20
-28.2406180217
 10
-4.4882822814
 20
-28.2471562057
 10
-4.5093351822
 20
-28.2531936603
 10
-4.5308585359
 20
-28.2587170108
 10
-4.5528046615
 20
-28.2637140211
 10
-4.5751249415
 20
-28.2681736215
 10
-4.5977699295
 20
-28.2720859324
 10
-4.62068946
 20
-28.2754422868
 10
-4.6438327589
 20
-28.2782352495
 10
-4.6671485567
 20
-28.280458633
 10
-4.6905852016
 20
-28.2821075121
 10
-4.7140907742
 20
-28.2831782337
 10
-4.7376132024
 20
-28.2836684261
 10
-4.7611003766
 20
-28.2835770032
 10
-4.7845002654
 20
-28.2829041675
 10
-4.8077610308
 20
-28.2816514097
 10
-4.8308311431
 20
-28.279821505
 10
-4.8536594946
 20
-28.2774185071
 10
-4.8761955136
 20
-28.2744477395
 10
-4.8983892757
 20
-28.2709157833
 10
-4.9201916149
 20
-28.266830463
 10
-4.9415542321
 20
-28.2622008287
 10
-4.9624298026
 20
-28.2570371365
 10
-4.9827720805
 20
-28.2513508257
 10
-5.0025360013
 20
-28.2451544932
 10
-5.0216777817
 20
-28.2384618658
 10
-5.0401550168
 20
-28.2312877697
 10
-5.0579267738
 20
-28.2236480978
 10
-5.0749536826
 20
-28.2155597743
  0
LINE
  5
44E
100
AcDbEntity
  8
RACCORDO
100
AcDbLine
 62
250
  6
CONTINUOUS
 10
1.8045065286
 20
-26.3935690872
 11
2.5223829515
 21
-26.0394053199
  0
LINE
  5
44F
100
AcDbEntity
  8
RACCORDO
100
AcDbLine
 62
7
  6
CONTINUOUS
 10
1.669861935
 20
-26.6663441281
 11
2.3915106838
 21
-26.3103192868
  0
LINE
  5
450
100
AcDbEntity
  8
RACCORDO
100
AcDbLine
 62
7
  6
CONTINUOUS
 10
1.669861935
 20
-26.6663441281
 11
1.6594730726
 21
-26.6710818928
  0
LINE
  5
451
100
AcDbEntity
  8
RACCORDO
100
AcDbLine
 62
250
  6
CONTINUOUS
 10
-3.6931827439
 20
-28.7012757353
 11
1.8045065286
 21
-26.3935690872
  0
LINE
  5
452
100
AcDbEntity
  8
RACCORDO
100
AcDbLine
 62
7
  6
CONTINUOUS
 10
-3.8469899893
 20
-28.9824714336
 11
1.6594727383
 21
-26.6710820455
  0
LWPOLYLINE
  5
453
100
AcDbEntity
  8
RACCORDO
100
AcDbPolyline
 62
7
  6
CONTINUOUS
 90
9
 70
0
 10
8.3672769521
 20
22.901331032
 10
8.3611602115
 20
22.9029305297
 10
8.3513899978
 20
22.9044633436
 10
8.3410638023
 20
22.904878788
 10
8.3302766052
 20
22.9041770155
 10
8.3193133463
 20
22.9023584842
 10
8.3082690055
 20
22.8994233467
 10
8.297048603
 20
22.8953714503
 10
8.2856521388
 20
22.890202795
  0
LINE
  5
454
100
AcDbEntity
  8
0
100
AcDbLine
 62
7
  6
CONTINUOUS
 10
6.9742141533
 20
22.2344838023
 11
6.524469492
 21
22.3562316355
  0
LWPOLYLINE
  5
455
100
AcDbEntity
  8
RACCORDO
100
AcDbPolyline
 62
7
  6
CONTINUOUS
 90
28
 70
0
 10
8.3672668159
 20
22.9013070796
 10
8.2585514693
 20
22.9325929254
 10
8.1436964263
 20
22.9619466024
 10
8.0264350024
 20
22.9882736726
 10
7.9070618376
 20
23.0115357643
 10
7.7858414659
 20
23.0317063171
 10
7.6630120964
 20
23.0487655924
 10
7.538863299
 20
23.062689434
 10
7.4136798359
 20
23.073460103
 10
7.2876993184
 20
23.0810675027
 10
7.1612129323
 20
23.0855008814
 10
7.0345102094
 20
23.0867554361
 10
6.9078284639
 20
23.084830663
 10
6.7814571941
 20
23.079729328
 10
6.6556876036
 20
23.0714601158
 10
6.5307580042
 20
23.0600322404
 10
6.4069591296
 20
23.0454624081
 10
6.2845743772
 20
23.0277723866
 10
6.163825941
 20
23.0069782112
 10
6.0449910199
 20
22.9831066112
 10
5.9283551965
 20
22.9561915594
 10
5.8141436235
 20
22.9262567921
 10
5.7026284453
 20
22.8933396882
 10
5.5940822489
 20
22.8574830534
 10
5.4887153573
 20
22.8187114358
 10
5.3867685749
 20
22.7770586274
 10
5.2885224374
 20
22.7325778529
 10
5.1942383763
 20
22.6853204635
  0
LWPOLYLINE
  5
456
100
AcDbEntity
  8
RACCORDO
100
AcDbPolyline
 62
7
  6
CONTINUOUS
 90
3
 70
0
 10
15.8039388363
 20
19.1842026502
 10
15.795090626
 20
19.1879698978
 10
15.7918981545
 20
19.1890204308
  0
LWPOLYLINE
  5
457
100
AcDbEntity
  8
RACCORDO
100
AcDbPolyline
 62
7
  6
CONTINUOUS
 90
3
 70
0
 10
8.3793176338
 20
22.8965132514
 10
8.3704694235
 20
22.900280499
 10
8.3672769521
 20
22.901331032
  0
LWPOLYLINE
  5
458
100
AcDbEntity
  8
DRAFT
100
AcDbPolyline
 62
7
  6
CONTINUOUS
 90
10
 70
0
 10
16.7255465469
 20
19.5422726012
 10
16.7614110422
 20
19.5266561013
 10
16.7967115671
 20
19.5107426497
 10
16.8314481216
 20
19.4945322463
 10
16.8656306833
 20
19.4780199024
 10
16.8992492747
 20
19.4612106067
 10
16.9322739625
 20
19.4441193258
 10
16.9646947692
 20
19.4267510486
 10
16.9965216725
 20
19.4091007861
 10
17.0277546723
 20
19.3911685385
  0
LWPOLYLINE
  5
459
100
AcDbEntity
  8
DRAFT
100
AcDbPolyline
 62
7
  6
CONTINUOUS
 90
10
 70
0
 10
9.3009253444
 20
23.2545832024
 10
9.3367898398
 20
23.2389667025
 10
9.3720903646
 20
23.2230532509
 10
9.4068269191
 20
23.2068428475
 10
9.4410094809
 20
23.1903305036
 10
9.4746280722
 20
23.1735212079
 10
9.5076527601
 20
23.1564299271
 10
9.5400735668
 20
23.1390616498
 10
9.5719004701
 20
23.1214113874
 10
9.6031334699
 20
23.1034791397
  0
LINE
  5
45A
100
AcDbEntity
  8
0
100
AcDbLine
 62
7
  6
CONTINUOUS
 10
13.9490906944
 20
18.6439210342
 11
13.2421217543
 21
18.9974055043
  0
LINE
  5
45B
100
AcDbEntity
  8
0
100
AcDbLine
 62
7
  6
CONTINUOUS
 10
6.524469492
 20
22.3562316355
 11
5.8175005519
 21
22.7097161055
  0
LINE
  5
45C
100
AcDbEntity
  8
RACCORDO
100
AcDbLine
 62
7
  6
CONTINUOUS
 10
5.1246915288
 20
23.4160427409
 11
5.5570800478
 21
23.1998484813
  0
LINE
  5
45D
100
AcDbEntity
  8
DRAFT
100
AcDbLine
 62
7
  6
CONTINUOUS
 10
12.5493127312
 20
19.7037321396
 11
12.9817012503
 21
19.4875378801
  0
LINE
  5
45E
100
AcDbEntity
  8
DRAFT
100
AcDbLine
 62
7
  6
CONTINUOUS
 10
9.1195468377
 20
23.3296126032
 11
9.7448744232
 21
23.0169488105
  0
LINE
  5
45F
100
AcDbEntity
  8
DRAFT
100
AcDbLine
 62
7
  6
CONTINUOUS
 10
16.5441680401
 20
19.617302002
 11
17.1694956257
 21
19.3046382092
  0
LINE
  5
460
100
AcDbEntity
  8
DRAFT
100
AcDbLine
 62
7
  6
CONTINUOUS
 10
16.7255465469
 20
19.5422726012
 11
17.0277546723
 21
19.3911685385
  0
LINE
  5
461
100
AcDbEntity
  8
DRAFT
100
AcDbLine
 62
7
  6
CONTINUOUS
 10
9.6031334699
 20
23.1034791397
 11
9.3009253444
 21
23.2545832024
  0
LINE
  5
462
100
AcDbEntity
  8
RACCORDO
100
AcDbLine
 62
7
  6
CONTINUOUS
 10
9.2278457713
 20
22.4722491827
 11
9.3146654424
 21
22.4287975019
  0
LINE
  5
463
100
AcDbEntity
  8
RACCORDO
100
AcDbLine
 62
7
  6
CONTINUOUS
 10
16.6524669737
 20
18.7599385815
 11
16.7392866449
 21
18.7164869007
  0
LWPOLYLINE
  5
464
100
AcDbEntity
  8
RACCORDO
100
AcDbPolyline
 62
7
  6
CONTINUOUS
 90
6
 70
0
 10
8.8111910172
 20
22.6786626524
 10
8.7211837878
 20
22.7244012841
 10
8.6329971598
 20
22.7690560871
 10
8.5466167164
 20
22.8126256373
 10
8.4620568744
 20
22.8551113587
 10
8.3793176338
 20
22.8965132514
  0
LWPOLYLINE
  5
465
100
AcDbEntity
  8
RACCORDO
100
AcDbPolyline
 62
7
  6
CONTINUOUS
 90
6
 70
0
 10
16.2358122197
 20
18.9663520511
 10
16.1458049903
 20
19.0120906829
 10
16.0576183622
 20
19.0567454859
 10
15.9712379188
 20
19.100315036
 10
15.8866780769
 20
19.1428007575
 10
15.8039388363
 20
19.1842026502
  0
LINE
  5
466
100
AcDbEntity
  8
RACCORDO
100
AcDbLine
 62
7
  6
CONTINUOUS
 10
8.9968114485
 20
22.583948145
 11
8.8111910172
 21
22.6786626524
  0
LINE
  5
467
100
AcDbEntity
  8
RACCORDO
100
AcDbLine
 62
7
  6
CONTINUOUS
 10
16.4214326509
 20
18.8716375438
 11
16.2358122197
 21
18.9663520511
  0
LINE
  5
468
100
AcDbEntity
  8
RACCORDO
100
AcDbLine
 62
7
  6
CONTINUOUS
 10
9.189901704
 20
22.4849168377
 11
8.9968114485
 21
22.583948145
  0
LINE
  5
469
100
AcDbEntity
  8
RACCORDO
100
AcDbLine
 62
7
  6
CONTINUOUS
 10
16.6145229064
 20
18.7726062365
 11
16.4214326509
 21
18.8716375438
  0
LINE
  5
46A
100
AcDbEntity
  8
RACCORDO
100
AcDbLine
 62
7
  6
CONTINUOUS
 10
9.1976601326
 20
22.4803303656
 11
9.189901704
 21
22.4849168377
  0
LINE
  5
46B
100
AcDbEntity
  8
RACCORDO
100
AcDbLine
 62
7
  6
CONTINUOUS
 10
16.6222813351
 20
18.7680197644
 11
16.6145229064
 21
18.7726062365
  0
LWPOLYLINE
  5
46C
100
AcDbEntity
  8
RACCORDO
100
AcDbPolyline
 62
250
  6
CONTINUOUS
 90
4
 70
0
 10
9.2278457713
 20
22.4722491827
 10
9.2523687616
 20
22.4517448043
 10
9.2767345233
 20
22.4304665399
 10
9.2908237773
 20
22.4175882101
  0
LWPOLYLINE
  5
46D
100
AcDbEntity
  8
RACCORDO
100
AcDbPolyline
 62
250
  6
CONTINUOUS
 90
4
 70
0
 10
16.6524669737
 20
18.7599385815
 10
16.676989964
 20
18.7394342031
 10
16.7013557257
 20
18.7181559387
 10
16.7154449798
 20
18.7052776088
  0
LWPOLYLINE
  5
46E
100
AcDbEntity
  8
RACCORDO
100
AcDbPolyline
 62
250
  6
CONTINUOUS
 90
5
 70
0
 10
9.1342091721
 20
22.4659531743
 10
9.1570696015
 20
22.4463744408
 10
9.1796471398
 20
22.4260213943
 10
9.201941787
 20
22.4048940347
 10
9.2218641922
 20
22.3851664764
  0
LWPOLYLINE
  5
46F
100
AcDbEntity
  8
RACCORDO
100
AcDbPolyline
 62
250
  6
CONTINUOUS
 90
5
 70
0
 10
16.5588303746
 20
18.753642573
 10
16.581690804
 20
18.7340638396
 10
16.6042683423
 20
18.713710793
 10
16.6265629895
 20
18.6925834334
 10
16.6464853947
 20
18.6728558752
  0
LINE
  5
470
100
AcDbEntity
  8
RACCORDO
100
AcDbLine
 62
250
  6
CONTINUOUS
 10
1.9899899515
 20
-27.987974447
 11
1.4617227797
 21
-28.2589855057
  0
LINE
  5
471
100
AcDbEntity
  8
RACCORDO
100
AcDbLine
 62
7
  6
CONTINUOUS
 10
1.926301914
 20
-28.1225382573
 11
1.39761768
 21
-28.3937632767
  0
LINE
  5
472
100
AcDbEntity
  8
RACCORDO
100
AcDbLine
 62
7
  6
CONTINUOUS
 10
1.3958812654
 20
-28.3946314984
 11
1.397617682
 21
-28.3937632758
  0
LINE
  5
473
100
AcDbEntity
  8
RACCORDO
100
AcDbLine
 62
250
  6
CONTINUOUS
 10
1.4617227797
 20
-28.2589855057
 11
-0.1395580111
 21
-29.0390201053
  0
LINE
  5
474
100
AcDbEntity
  8
RACCORDO
100
AcDbLine
 62
7
  6
CONTINUOUS
 10
1.3958812662
 20
-28.394631498
 11
-0.2058196037
 21
-29.1748707315
  0
LWPOLYLINE
  5
475
100
AcDbEntity
  8
RACCORDO
100
AcDbPolyline
 62
250
  6
CONTINUOUS
 90
9
 70
0
 10
7.9890894249
 20
26.6019376908
 10
7.9536104186
 20
26.6174459317
 10
7.9025304033
 20
26.6327487998
 10
7.8487662079
 20
26.6411655604
 10
7.7927179738
 20
26.6426335714
 10
7.7348028412
 20
26.6371419072
 10
7.6754518448
 20
26.6247314397
 10
7.6151067058
 20
26.6054945339
 10
7.5542165443
 20
26.5795743611
  0
LWPOLYLINE
  5
476
100
AcDbEntity
  8
RACCORDO
100
AcDbPolyline
 62
250
  6
CONTINUOUS
 90
9
 70
0
 10
7.5542165443
 20
26.5795743611
 10
7.4929980302
 20
26.6072785863
 10
7.4321513862
 20
26.6281372316
 10
7.3721395434
 20
26.6419916011
 10
7.3134190814
 20
26.6487362885
 10
7.256436755
 20
26.6483199793
 10
7.2016260949
 20
26.6407458407
 10
7.1494041093
 20
26.626071498
 10
7.1153317938
 20
26.6119772961
  0
LINE
  5
477
100
AcDbEntity
  8
DRAFT
100
AcDbLine
 62
7
  6
CONTINUOUS
 10
9.0967323462
 20
25.4084804176
 11
12.2736922509
 21
23.8200004652
  0
LINE
  5
478
100
AcDbEntity
  8
DRAFT
100
AcDbLine
 62
7
  6
CONTINUOUS
 10
16.5213535486
 20
21.6961698163
 11
19.6983134534
 21
20.1076898639
  0
LINE
  5
479
100
AcDbEntity
  8
RACCORDO
100
AcDbLine
 62
250
  6
CONTINUOUS
 10
7.5542165443
 20
26.5795743611
 11
8.0813896214
 21
26.3159878226
  0
LINE
  5
47A
100
AcDbEntity
  8
RACCORDO
100
AcDbLine
 62
250
  6
CONTINUOUS
 10
20.6376225334
 20
20.0378713666
 11
20.1104494563
 21
20.3014579051
  0
LINE
  5
47B
100
AcDbEntity
  8
RACCORDO
100
AcDbLine
 62
250
  6
CONTINUOUS
 10
15.5060108239
 20
22.6036772214
 11
12.6858282539
 21
24.0137685064
  0
LINE
  5
47C
100
AcDbEntity
  8
RACCORDO
100
AcDbLine
 62
7
  6
CONTINUOUS
 10
7.9890894249
 20
26.6019376908
 11
8.6000409549
 21
26.2964619257
  0
LINE
  5
47D
100
AcDbEntity
  8
RACCORDO
100
AcDbLine
 62
7
  6
CONTINUOUS
 10
21.072495414
 20
20.0602346962
 11
20.4615438839
 21
20.3657104612
  0
LINE
  5
47E
100
AcDbEntity
  8
RACCORDO
100
AcDbLine
 62
7
  6
CONTINUOUS
 10
16.0246621574
 20
22.5841513245
 11
13.0369226815
 21
24.0780210625
  0
LWPOLYLINE
  5
47F
100
AcDbEntity
  8
RACCORDO
100
AcDbPolyline
 62
250
  6
CONTINUOUS
 90
19
 70
0
 10
21.9211835844
 20
17.5693715057
 10
21.9630685755
 20
17.538272157
 10
22.0949351346
 20
17.4292141605
 10
22.224224005
 20
17.3109683195
 10
22.350387086
 20
17.1840327939
 10
22.4728762757
 20
17.0489558375
 10
22.5911585495
 20
16.9063240356
 10
22.7047254645
 20
16.7567506634
 10
22.8130917649
 20
16.6008749985
 10
22.915790548
 20
16.4393690497
 10
23.0123805002
 20
16.2729281459
 10
23.1024498108
 20
16.1022633008
 10
23.1856149336
 20
15.9281017257
 10
23.2615198317
 20
15.7511886772
 10
23.3298386023
 20
15.5722833677
 10
23.390278766
 20
15.3921512652
 10
23.442581158
 20
15.2115639285
 10
23.4865212188
 20
15.0312957355
 10
23.521910366
 20
14.8521193243
  0
LWPOLYLINE
  5
480
100
AcDbEntity
  8
RACCORDO
100
AcDbPolyline
 62
250
  6
CONTINUOUS
 90
10
 70
0
 10
21.137546381
 20
19.5342951073
 10
21.092467801
 20
19.6082587512
 10
21.0438347951
 20
19.6788561551
 10
20.992017371
 20
19.7455502026
 10
20.9374097641
 20
19.8078334748
 10
20.8804274377
 20
19.8652321104
 10
20.8215039225
 20
19.9173094115
 10
20.7610875181
 20
19.9636691656
 10
20.6996378822
 20
20.0039586603
 10
20.6376225334
 20
20.0378713666
  0
LINE
  5
481
100
AcDbEntity
  8
RACCORDO
100
AcDbLine
 62
250
  6
CONTINUOUS
 10
21.2263729091
 20
19.3810920085
 11
21.137546381
 21
19.5342951073
  0
LINE
  5
482
100
AcDbEntity
  8
RACCORDO
100
AcDbLine
 62
7
  6
CONTINUOUS
 10
21.5792161578
 20
19.5141903662
 11
21.4903896298
 21
19.6673934647
  0
LWPOLYLINE
  5
483
100
AcDbEntity
  8
RACCORDO
100
AcDbPolyline
 62
250
  6
CONTINUOUS
 90
32
 70
0
 10
21.9211835844
 20
15.9265485662
 10
21.93754388
 20
15.8783711824
 10
21.9563352331
 20
15.8152936412
 10
21.9730699194
 20
15.7507399574
 10
21.9875343908
 20
15.6857379406
 10
21.9996788452
 20
15.6203314045
 10
22.0095841434
 20
15.5545403106
 10
22.0172911775
 20
15.4894000899
 10
22.0227944402
 20
15.4249962756
 10
22.0261879222
 20
15.3613320543
 10
22.0277097355
 20
15.2993487527
 10
22.027401983
 20
15.2392713123
 10
22.0253519423
 20
15.1809674221
 10
22.0218895166
 20
15.124854342
 10
22.0171046754
 20
15.0711524354
 10
22.0110360728
 20
15.0197149157
 10
22.0039324079
 20
14.97040499
 10
21.9958860614
 20
14.9233066218
 10
21.986905458
 20
14.8783840771
 10
21.9770970656
 20
14.8353128852
 10
21.9665428219
 20
14.7941131507
 10
21.9552345841
 20
14.7547946614
 10
21.943129153
 20
14.7170106226
 10
21.9302678952
 20
14.6806779883
 10
21.9166627408
 20
14.6458978629
 10
21.9022191081
 20
14.6125958922
 10
21.8868932523
 20
14.5806311173
 10
21.8707726681
 20
14.5501573482
 10
21.8539602185
 20
14.5215424812
 10
21.8365045065
 20
14.4949140714
 10
21.8183962755
 20
14.4701579527
 10
21.7996511785
 20
14.4472801611
  0
LWPOLYLINE
  5
484
100
AcDbEntity
  8
RACCORDO
100
AcDbPolyline
 62
7
  6
CONTINUOUS
 90
18
 70
0
 10
23.5912603436
 20
14.9493443279
 10
23.5533425143
 20
15.1368691786
 10
23.5029369369
 20
15.3358411976
 10
23.4422920975
 20
15.5343116912
 10
23.3717554686
 20
15.7313394495
 10
23.2917120088
 20
15.9259740602
 10
23.2025930157
 20
16.1172474996
 10
23.1048760939
 20
16.3041895512
 10
22.9990230712
 20
16.4859388515
 10
22.8854768317
 20
16.6617064167
 10
22.7647347005
 20
16.8306505461
 10
22.6373646517
 20
16.9918848221
 10
22.50391745
 20
17.1446031271
 10
22.3648890324
 20
17.2880925939
 10
22.2209531525
 20
17.4214924557
 10
22.0729201233
 20
17.5439083049
 10
21.9212114933
 20
17.6548247928
 10
21.9211835844
 20
17.654842601
  0
ARC
  5
485
100
AcDbEntity
  8
RACCORDO
100
AcDbCircle
 62
7
  6
CONTINUOUS
 10
20.9211835844
 20
8.8819199781
 40
1.0
100
AcDbArc
 50
344.8408759345
 51
359.9992684622
  0
ARC
  5
486
100
AcDbEntity
  8
RACCORDO
100
AcDbCircle
 62
7
  6
CONTINUOUS
 10
20.6252818185
 20
19.1658075052
 40
1.0
100
AcDbArc
 50
30.105950956
 51
63.4349488229
  0
ARC
  5
487
100
AcDbEntity
  8
RACCORDO
100
AcDbCircle
 62
7
  6
CONTINUOUS
 10
7.5418758294
 20
25.7075104998
 40
1.0
100
AcDbArc
 50
63.4349488229
 51
115.277097617
  0
ARC
  5
488
100
AcDbEntity
  8
RACCORDO
100
AcDbCircle
 62
7
  6
CONTINUOUS
 10
20.9211835844
 20
-2.552025855
 40
1.0
100
AcDbArc
 50
0.0
 51
63.4427852563
  0
ARC
  5
489
100
AcDbEntity
  8
RACCORDO
100
AcDbCircle
 62
7
  6
CONTINUOUS
 10
20.6252818185
 20
-12.5400116161
 40
1.0
100
AcDbArc
 50
297.865064655
 51
305.9256388565
  0
ARC
  5
48A
100
AcDbEntity
  8
RACCORDO
100
AcDbCircle
 62
7
  6
CONTINUOUS
 10
-15.0046061197
 20
20.0341104618
 40
0.25
100
AcDbArc
 50
180.0
 51
243.4365697055
  0
ARC
  5
48B
100
AcDbEntity
  8
RACCORDO
100
AcDbCircle
 62
7
  6
CONTINUOUS
 10
-11.5521303559
 20
20.7767244402
 40
0.25
100
AcDbArc
 50
0.0015552359
 51
63.4349488229
  0
ARC
  5
48C
100
AcDbEntity
  8
RACCORDO
100
AcDbCircle
 62
7
  6
CONTINUOUS
 10
-11.5521303559
 20
20.4291929235
 40
0.25
100
AcDbArc
 50
320.5925343592
 51
0.000379699
  0
ARC
  5
48D
100
AcDbEntity
  8
RACCORDO
100
AcDbCircle
 62
7
  6
CONTINUOUS
 10
-12.8894565165
 20
21.4453875205
 40
0.25
100
AcDbArc
 50
63.4349488229
 51
115.9738727385
  0
ARC
  5
48E
100
AcDbEntity
  8
RACCORDO
100
AcDbCircle
 62
7
  6
CONTINUOUS
 10
-15.0046061197
 20
20.3740843959
 40
0.25
100
AcDbArc
 50
117.1587468545
 51
180.0
  0
ARC
  5
48F
100
AcDbEntity
  8
RACCORDO
100
AcDbCircle
 62
7
  6
CONTINUOUS
 10
-13.6796214399
 20
19.3716181219
 40
0.25
100
AcDbArc
 50
243.4349674146
 51
258.2060555489
  0
ARC
  5
490
100
AcDbEntity
  8
RACCORDO
100
AcDbCircle
 62
7
  6
CONTINUOUS
 10
1.8121878085
 20
14.094565358
 40
0.25
100
AcDbArc
 50
0.0
 51
63.4353081232
  0
ARC
  5
491
100
AcDbEntity
  8
RACCORDO
100
AcDbCircle
 62
7
  6
CONTINUOUS
 10
0.4748616479
 20
14.7632284383
 40
0.25
100
AcDbArc
 50
63.433410125
 51
115.9721801256
  0
ARC
  5
492
100
AcDbEntity
  8
RACCORDO
100
AcDbCircle
 62
7
  6
CONTINUOUS
 10
-1.6402879553
 20
13.6919253137
 40
0.25
100
AcDbArc
 50
117.160111502
 51
180.000077031
  0
ARC
  5
493
100
AcDbEntity
  8
RACCORDO
100
AcDbCircle
 62
7
  6
CONTINUOUS
 10
-1.6402879553
 20
13.3519513796
 40
0.25
100
AcDbArc
 50
180.0
 51
243.4365697055
  0
ARC
  5
494
100
AcDbEntity
  8
RACCORDO
100
AcDbCircle
 62
7
  6
CONTINUOUS
 10
-0.3153032754
 20
12.6894590397
 40
0.25
100
AcDbArc
 50
243.4349674146
 51
258.2060555489
  0
ARC
  5
495
100
AcDbEntity
  8
RACCORDO
100
AcDbCircle
 62
7
  6
CONTINUOUS
 10
1.8121878085
 20
-27.5525702981
 40
0.25
100
AcDbArc
 50
0.0
 51
63.4365697055
  0
ARC
  5
496
100
AcDbEntity
  8
RACCORDO
100
AcDbCircle
 62
7
  6
CONTINUOUS
 10
1.8121878085
 20
-27.9001018148
 40
0.25
100
AcDbArc
 50
297.160111502
 51
0.000077031
  0
ARC
  5
497
100
AcDbEntity
  8
RACCORDO
100
AcDbCircle
 62
7
  6
CONTINUOUS
 10
-0.3153032754
 20
-28.9501190338
 40
0.25
100
AcDbArc
 50
243.433410125
 51
295.9721801256
  0
ARC
  5
498
100
AcDbEntity
  8
RACCORDO
100
AcDbCircle
 62
7
  6
CONTINUOUS
 10
-1.6402879553
 20
-28.2876266939
 40
0.25
100
AcDbArc
 50
180.0015552359
 51
243.4349488229
  0
ELLIPSE
  5
499
100
AcDbEntity
  8
ASSI
100
AcDbEllipse
 62
7
  6
CONTINUOUS
 10
-3.8460797164
 20
20.8399329741
 30
0.0
 11
0.2257019663
 21
0.4461636818
 31
0.0
 40
0.6159267166
 41
0.5380090616
 42
0.6817883054
  0
ELLIPSE
  5
49A
100
AcDbEntity
  8
RACCORDO
100
AcDbEllipse
 62
7
  6
CONTINUOUS
 10
6.7184258103
 20
15.717690563
 30
0.0
 11
0.499996712
 21
0.0035883639
 31
0.0
 40
0.5053247124
 41
-0.7715714568
 42
-0.0036265884
  0
ELLIPSE
  5
49B
100
AcDbEntity
  8
RACCORDO
100
AcDbEllipse
 62
7
  6
CONTINUOUS
 10
2.1687757048
 20
-25.8626676465
 30
0.0
 11
-0.2236445579
 21
0.4471998343
 31
0.0
 40
0.6124778111
 41
-3.144909013
 42
-2.255529033
  0
ELLIPSE
  5
49C
100
AcDbEntity
  8
RACCORDO
100
AcDbEllipse
 62
7
  6
CONTINUOUS
 10
2.1687757048
 20
12.054096684
 30
0.0
 11
-0.2237046003
 21
0.4472532382
 31
0.0
 40
0.6122950388
 41
-2.2557482655
 42
-0.6847996396
  0
ELLIPSE
  5
49D
100
AcDbEntity
  8
RACCORDO
100
AcDbEllipse
 62
7
  6
CONTINUOUS
 10
6.8974695162
 20
-21.3620051284
 30
0.0
 11
0.9987332359
 21
0.6172510855
 31
0.0
 40
0.0815198604
 41
-2.3978073241
 42
-1.2985018509
  0
ELLIPSE
  5
49E
100
AcDbEntity
  8
RACCORDO
100
AcDbEllipse
 62
7
  6
CONTINUOUS
 10
-9.1781713803
 20
18.3174133054
 30
0.0
 11
0.4999985559
 21
0.0023864752
 31
0.0
 40
0.5035541159
 41
2.3596088132
 42
3.0002042076
  0
ELLIPSE
  5
49F
100
AcDbEntity
  8
RACCORDO
100
AcDbEllipse
 62
7
  6
CONTINUOUS
 10
-4.8932627722
 20
21.44802856
 30
0.0
 11
0.9987332359
 21
0.6172510855
 31
0.0
 40
0.0815198604
 41
0.0503394679
 42
0.7263320369
  0
ELLIPSE
  5
4A0
100
AcDbEntity
  8
RACCORDO
100
AcDbEllipse
 62
7
  6
CONTINUOUS
 10
6.8974695162
 20
15.5526624158
 30
0.0
 11
-0.7417913999
 21
1.2002436976
 31
0.0
 40
0.5587454355
 41
5.1248137075
 42
6.2241191807
  0
ELLIPSE
  5
4A1
100
AcDbEntity
  8
RACCORDO
100
AcDbEllipse
 62
7
  6
CONTINUOUS
 10
6.7184258103
 20
-21.5712254473
 30
0.0
 11
0.499366618
 21
0.3086255427
 31
0.0
 40
0.0815198604
 41
6.1080157147
 42
7.0007906979
  0
ELLIPSE
  5
4A2
100
AcDbEntity
  8
DRAFT
100
AcDbEllipse
 62
7
  6
CONTINUOUS
 10
-3.4922248854
 20
19.915083797
 30
0.0
 11
0.4279673669
 21
-0.0030279657
 31
0.0
 40
0.4946372042
 41
-0.7818985079
 42
0.0034996501
  0
ELLIPSE
  5
4A3
100
AcDbEntity
  8
DRAFT
100
AcDbEllipse
 62
7
  6
CONTINUOUS
 10
2.0627635438
 20
17.1375895824
 30
0.0
 11
0.4279673669
 21
-0.0030279657
 31
0.0
 40
0.4946372042
 41
-0.7760807437
 42
0.0034996507
  0
ELLIPSE
  5
4A4
100
AcDbEntity
  8
RACCORDO
100
AcDbEllipse
 62
7
  6
CONTINUOUS
 10
6.7184258103
 20
16.6480332218
 30
0.0
 11
-0.3708957
 21
0.6001218488
 31
0.0
 40
0.5587454355
 41
-3.1744788413
 42
-2.2817038581
  0
ELLIPSE
  5
4A5
100
AcDbEntity
  8
RACCORDO
100
AcDbEllipse
 62
7
  6
CONTINUOUS
 10
-9.1781713803
 20
17.0848037002
 30
0.0
 11
0.4998587701
 21
0.0223649649
 31
0.0
 40
0.5313301283
 41
3.1178240551
 42
3.9032222197
  0
ELLIPSE
  5
4A6
100
AcDbEntity
  8
ASSI
100
AcDbEllipse
 62
7
  6
CONTINUOUS
 10
2.3147525544
 20
17.7595168387
 30
0.0
 11
0.221538876
 21
0.4482453432
 31
0.0
 40
0.6088015717
 41
0.5323082896
 42
0.6760875334
  0
ELLIPSE
  5
4A7
100
AcDbEntity
  8
RACCORDO
100
AcDbEllipse
 62
7
  6
CONTINUOUS
 10
-3.6668642806
 20
14.3291501503
 30
0.0
 11
0.4998587701
 21
0.0223649649
 31
0.0
 40
0.5313301283
 41
-2.3799630874
 42
-0.8149845248
  0
ELLIPSE
  5
4A8
100
AcDbEntity
  8
RACCORDO
100
AcDbEllipse
 62
7
  6
CONTINUOUS
 10
-3.6668642806
 20
15.5617597555
 30
0.0
 11
0.4999985559
 21
0.0023864752
 31
0.0
 40
0.5035541159
 41
-1.4342147631
 42
-0.7936193687
  0
ELLIPSE
  5
4A9
100
AcDbEntity
  8
RACCORDO
100
AcDbEllipse
 62
7
  6
CONTINUOUS
 10
-14.3016131654
 20
19.0821546557
 30
0.0
 11
0.249929385
 21
0.0111824824
 31
0.0
 40
0.5313301283
 41
3.1178240624
 42
3.9032222197
  0
ELLIPSE
  5
4AA
100
AcDbEntity
  8
RACCORDO
100
AcDbEllipse
 62
7
  6
CONTINUOUS
 10
-12.9684008318
 20
18.4155484889
 30
0.0
 11
0.249929385
 21
0.0111824824
 31
0.0
 40
0.5313301283
 41
-2.3799630874
 42
-0.8149845248
  0
ELLIPSE
  5
4AB
100
AcDbEntity
  8
RACCORDO
100
AcDbEllipse
 62
7
  6
CONTINUOUS
 10
-0.937295001
 20
12.3999955735
 30
0.0
 11
0.249929385
 21
0.0111824824
 31
0.0
 40
0.5313301283
 41
3.1178240563
 42
3.9032222197
  0
ELLIPSE
  5
4AC
100
AcDbEntity
  8
RACCORDO
100
AcDbEllipse
 62
7
  6
CONTINUOUS
 10
0.3959173327
 20
11.7333894066
 30
0.0
 11
0.249929385
 21
0.0111824824
 31
0.0
 40
0.5313301283
 41
-2.3799630874
 42
-1.3352760237
  0
ELLIPSE
  5
4AD
100
AcDbEntity
  8
DRAFT
100
AcDbEllipse
 62
7
  6
CONTINUOUS
 10
14.2603555192
 20
18.6142584744
 30
0.0
 11
2.7499924258
 21
-0.0130015067
 31
0.0
 40
0.4964289597
 41
8.6504534729
 42
9.2082824229
  0
ELLIPSE
  5
4AE
100
AcDbEntity
  8
DRAFT
100
AcDbEllipse
 62
7
  6
CONTINUOUS
 10
6.8357343168
 20
22.3265690756
 30
0.0
 11
2.7499924258
 21
-0.0130015067
 31
0.0
 40
0.4964289597
 41
8.6504534729
 42
9.2082824229
  0
ELLIPSE
  5
4AF
100
AcDbEntity
  8
RACCORDO
100
AcDbEllipse
 62
7
  6
CONTINUOUS
 10
16.8977764567
 20
4.5796848787
 30
0.0
 11
0.4990066472
 21
0.0952993146
 31
0.0
 40
0.3305568633
 41
-0.8309903123
 42
-0.0630454152
  0
ELLIPSE
  5
4B0
100
AcDbEntity
  8
RACCORDO
100
AcDbEllipse
 62
7
  6
CONTINUOUS
 10
16.8977764567
 20
-1.4824929478
 30
0.0
 11
0.4990066472
 21
0.0952993146
 31
0.0
 40
0.3305568633
 41
-0.8309903123
 42
-0.0630454152
  0
ELLIPSE
  5
4B1
100
AcDbEntity
  8
DRAFT
100
AcDbEllipse
 62
7
  6
CONTINUOUS
 10
14.9321069614
 20
18.5123350246
 30
0.0
 11
2.7582826116
 21
-0.0130407014
 31
0.0
 40
0.4964289597
 41
0.8880921575
 42
2.3585415194
  0
ELLIPSE
  5
4B2
100
AcDbEntity
  8
DRAFT
100
AcDbEllipse
 62
7
  6
CONTINUOUS
 10
14.9321069614
 20
18.5123350246
 30
0.0
 11
2.7582826116
 21
-0.0130407014
 31
0.0
 40
0.4964289597
 41
0.4162691489
 42
0.6873982278
  0
ELLIPSE
  5
4B3
100
AcDbEntity
  8
DRAFT
100
AcDbEllipse
 62
7
  6
CONTINUOUS
 10
7.5074857589
 20
22.2246456258
 30
0.0
 11
2.7582826116
 21
-0.0130407014
 31
0.0
 40
0.4964289597
 41
0.4162691489
 42
0.6873982278
  0
ELLIPSE
  5
4B4
100
AcDbEntity
  8
DRAFT
100
AcDbEllipse
 62
7
  6
CONTINUOUS
 10
7.5074857589
 20
22.2246456258
 30
0.0
 11
2.7582826116
 21
-0.0130407014
 31
0.0
 40
0.4964289597
 41
0.8880921575
 42
2.3585415194
  0
ELLIPSE
  5
4B5
100
AcDbEntity
  8
DRAFT
100
AcDbEllipse
 62
7
  6
CONTINUOUS
 10
-278.0558790167
 20
-133.8871086058
 30
0.0
 11
1039.0563954982
 21
511.3930483123
 31
0.0
 40
0.0062762344
 41
-1.2937468331
 42
-1.2929989898
  0
ELLIPSE
  5
4B6
100
AcDbEntity
  8
RACCORDO
100
AcDbEllipse
 62
7
  6
CONTINUOUS
 10
8.3957963924
 20
25.2805502182
 30
0.0
 11
0.4410298232
 21
0.8975092442
 31
0.0
 40
0.607010042
 41
-0.8902711325
 42
-0.7063664947
  0
ELLIPSE
  5
4B7
100
AcDbEntity
  8
RACCORDO
100
AcDbEllipse
 62
7
  6
CONTINUOUS
 10
12.2650801007
 20
23.3459083641
 30
0.0
 11
0.8015998653
 21
0.7095690041
 31
0.0
 40
0.2925003
 41
0.1171636725
 42
0.7844297192
  0
ELLIPSE
  5
4B8
100
AcDbEntity
  8
RACCORDO
100
AcDbEllipse
 62
7
  6
CONTINUOUS
 10
19.6897013032
 20
19.6335977628
 30
0.0
 11
0.8015998653
 21
0.7095690041
 31
0.0
 40
0.2925003
 41
0.1171636725
 42
0.7844297192
  0
ELLIPSE
  5
4B9
100
AcDbEntity
  8
RACCORDO
100
AcDbEllipse
 62
7
  6
CONTINUOUS
 10
15.8204175948
 20
21.568239617
 30
0.0
 11
0.4410298232
 21
0.8975092442
 31
0.0
 40
0.607010042
 41
-0.8902711325
 42
-0.7063664947
  0
ELLIPSE
  5
4BA
100
AcDbEntity
  8
DRAFT
100
AcDbEllipse
 62
7
  6
CONTINUOUS
 10
14.9321069614
 20
20.4928231372
 30
0.0
 11
2.758246536
 21
-1.4175163389
 31
0.0
 40
0.0109499087
 41
-0.8801178174
 42
-0.8573217069
  0
ELLIPSE
  5
4BB
100
AcDbEntity
  8
DRAFT
100
AcDbEllipse
 62
7
  6
CONTINUOUS
 10
7.5074857589
 20
24.2051337384
 30
0.0
 11
2.758246536
 21
-1.4175163389
 31
0.0
 40
0.0109499087
 41
-0.8801178174
 42
-0.8573217069
  0
ELLIPSE
  5
4BC
100
AcDbEntity
  8
DRAFT
100
AcDbEllipse
 62
7
  6
CONTINUOUS
 10
14.9321069614
 20
20.4928231372
 30
0.0
 11
2.758246536
 21
-1.4175163389
 31
0.0
 40
0.0109499087
 41
-0.7022199983
 42
-0.6794238877
  0
ELLIPSE
  5
4BD
100
AcDbEntity
  8
DRAFT
100
AcDbEllipse
 62
7
  6
CONTINUOUS
 10
7.5074857589
 20
24.2051337384
 30
0.0
 11
2.758246536
 21
-1.4175163389
 31
0.0
 40
0.0109499087
 41
-0.7022199983
 42
-0.6794238877
  0
ELLIPSE
  5
4BE
100
AcDbEntity
  8
RACCORDO
100
AcDbEllipse
 62
7
  6
CONTINUOUS
 10
15.9020775471
 20
21.5274096409
 30
0.0
 11
-0.3059798455
 21
1.1103385921
 31
0.0
 40
0.6705926962
 41
5.0382378748
 42
6.4076762714
  0
ELLIPSE
  5
4BF
100
AcDbEntity
  8
DRAFT
100
AcDbEllipse
 62
7
  6
CONTINUOUS
 10
9.9207063482
 20
-6.2815839436
 30
0.0
 11
0.4549291108
 21
0.941824269
 31
0.0
 40
0.6016130338
 41
0.6805509319
 42
3.8140443028
  0
ELLIPSE
  5
4C0
100
AcDbEntity
  8
DRAFT
100
AcDbEllipse
 62
7
  6
CONTINUOUS
 10
9.9207063482
 20
-0.2194061171
 30
0.0
 11
0.4549291108
 21
0.941824269
 31
0.0
 40
0.6016130338
 41
0.6805509319
 42
3.8140443028
  0
ELLIPSE
  5
4C1
100
AcDbEntity
  8
RACCORDO
100
AcDbEllipse
 62
7
  6
CONTINUOUS
 10
16.8977764567
 20
2.9262487556
 30
0.0
 11
0.4919639961
 21
-0.1421707337
 31
0.0
 40
0.627997363
 41
-0.5884163501
 42
0.9649266842
  0
ELLIPSE
  5
4C2
100
AcDbEntity
  8
RACCORDO
100
AcDbEllipse
 62
7
  6
CONTINUOUS
 10
16.8977764567
 20
-3.1359290709
 30
0.0
 11
0.4919639961
 21
-0.1421707337
 31
0.0
 40
0.627997363
 41
-0.5884163501
 42
0.9649266842
  0
ELLIPSE
  5
4C3
100
AcDbEntity
  8
RACCORDO
100
AcDbEllipse
 62
7
  6
CONTINUOUS
 10
8.4774563447
 20
25.2397202421
 30
0.0
 11
-0.3059798455
 21
1.1103385921
 31
0.0
 40
0.6705926962
 41
5.0382378748
 42
6.4076762714
  0
ENDSEC
  0
SECTION
  2
OBJECTS
  0
DICTIONARY
  5
C
100
AcDbDictionary
280
0
281
1
  3
ACAD_GROUP
350
D
  3
ACAD_MLINESTYLE
350
17
  3
ACAD_LAYOUT
350
1A
  3
ACAD_PLOTSETTINGS
350
19
  3
ACAD_PLOTSTYLENAME
350
E
  0
DICTIONARY
  5
D
102
{ACAD_REACTORS
330
C
102
}
100
AcDbDictionary
280
0
281
1
  0
ACDBDICTIONARYWDFLT
  5
E
102
{ACAD_REACTORS
330
C
102
}
100
AcDbDictionary
281
1
  3
Normal
350
F
100
AcDbDictionaryWithDefault
340
F
  0
DICTIONARY
  5
17
102
{ACAD_REACTORS
330
C
102
}
100
AcDbDictionary
280
0
281
1
  3
Standard
350
18
  0
DICTIONARY
  5
19
102
{ACAD_REACTORS
330
C
102
}
100
AcDbDictionary
281
1
  0
DICTIONARY
  5
1A
102
{ACAD_REACTORS
330
C
102
}
100
AcDbDictionary
281
1
  3
Model
350
4C4
  3
Layout1
350
4C5
  0
ACDBPLACEHOLDER
  5
F
102
{ACAD_REACTORS
330
E
102
}
  0
MLINESTYLE
  5
18
102
{ACAD_REACTORS
330
17
102
}
100
AcDbMlineStyle
  2
STANDARD
 70
0
  3

 62
256
 51
90.0
 52
90.0
 71
2
 49
0.5
 62
256
  6
BYLAYER
 49
-0.5
 62
256
  6
BYLAYER
  0
LAYOUT
  5
4C4
102
{ACAD_REACTORS
330
1A
102
}
100
AcDbPlotSettings
  1

  2
none_device
  4
ANSI_C_(22.00_x_17.00_Inches)
  6

 40
0.0
 41
0.0
 42
0.0
 43
0.0
 44
558.8
 45
431.8
 46
0.0
 47
0.0
 48
0.0
 49
0.0
140
0.0
141
0.0
142
1.0
143
1.0
 70
1024
 72
1
 73
0
 74
0
  7

 75
0
147
1.0
148
0.0
149
0.0
100
AcDbLayout
  1
Model
 70
0
 71
0
 10
0.0
 20
0.0
 11
558.8
 21
431.8
 12
0.0
 22
0.0
 32
0.0
 14
0.0
 24
0.0
 34
0.0
 15
0.0
 25
0.0
 35
0.0
146
0.0
 13
0.0
 23
0.0
 33
0.0
 16
1.0
 26
0.0
 36
0.0
 17
0.0
 27
1.0
 37
0.0
 76
0
330
216
345
0
346
0
  0
LAYOUT
  5
4C5
102
{ACAD_REACTORS
330
1A
102
}
100
AcDbPlotSettings
  1

  2
none_device
  4
ANSI_C_(22.00_x_17.00_Inches)
  6

 40
0.0
 41
0.0
 42
0.0
 43
0.0
 44
558.8
 45
431.8
 46
0.0
 47
0.0
 48
0.0
 49
0.0
140
0.0
141
0.0
142
1.0
143
1.0
 70
0
 72
1
 73
0
 74
0
  7

 75
0
147
1.0
148
0.0
149
0.0
100
AcDbLayout
  1
Layout1
 70
0
 71
1
 10
0.0
 20
0.0
 11
558.8
 21
431.8
 12
0.0
 22
0.0
 32
0.0
 14
0.0
 24
0.0
 34
0.0
 15
0.0
 25
0.0
 35
0.0
146
0.0
 13
0.0
 23
0.0
 33
0.0
 16
1.0
 26
0.0
 36
0.0
 17
0.0
 27
1.0
 37
0.0
 76
0
330
217
345
0
346
0
  0
ENDSEC
  0
EOF
